  0
SECTION
  2
HEADER
  9
$ACADVER
  1
AC1009
  9
$INSBASE
 10
0.0
 20
0.0
 30
0.0
  9
$EXTMIN
 10
0.0
 20
-3697.4999999999968
 30
0.0
  9
$EXTMAX
 10
5575.0
 20
607.5
 30
0.0
  9
$LIMMIN
 10
0.0
 20
0.0
  9
$LIMMAX
 10
210.0
 20
297.0
  9
$ORTHOMODE
 70
     0
  9
$REGENMODE
 70
     1
  9
$FILLMODE
 70
     1
  9
$QTEXTMODE
 70
     0
  9
$MIRRTEXT
 70
     0
  9
$DRAGMODE
 70
     2
  9
$LTSCALE
 40
1.0
  9
$OSMODE
 70
   125
  9
$ATTMODE
 70
     1
  9
$TEXTSIZE
 40
4.0
  9
$TRACEWID
 40
0.05
  9
$TEXTSTYLE
  7
STANDARD
  9
$CLAYER
  8
OBJECT
  9
$CELTYPE
  6
BYLAYER
  9
$CECOLOR
 62
   256
  9
$DIMSCALE
 40
10.0
  9
$DIMASZ
 40
2.0
  9
$DIMEXO
 40
1.0
  9
$DIMDLI
 40
10.0
  9
$DIMRND
 40
0.0
  9
$DIMDLE
 40
0.0
  9
$DIMEXE
 40
1.0
  9
$DIMTP
 40
0.0
  9
$DIMTM
 40
0.0
  9
$DIMTXT
 40
3.2000000000000002
  9
$DIMCEN
 40
0.0
  9
$DIMTSZ
 40
0.0
  9
$DIMTOL
 70
     0
  9
$DIMLIM
 70
     0
  9
$DIMTIH
 70
     0
  9
$DIMTOH
 70
     0
  9
$DIMSE1
 70
     0
  9
$DIMSE2
 70
     0
  9
$DIMTAD
 70
     1
  9
$DIMZIN
 70
     8
  9
$DIMBLK
  1
OPEN30
  9
$DIMASO
 70
     1
  9
$DIMSHO
 70
     1
  9
$DIMPOST
  1

  9
$DIMAPOST
  1

  9
$DIMALT
 70
     0
  9
$DIMALTD
 70
     2
  9
$DIMALTF
 40
25.399999999999999
  9
$DIMLFAC
 40
1.0
  9
$DIMTOFL
 70
     1
  9
$DIMTVP
 40
0.0
  9
$DIMTIX
 70
     0
  9
$DIMSOXD
 70
     0
  9
$DIMSAH
 70
     0
  9
$DIMBLK1
  1

  9
$DIMBLK2
  1

  9
$DIMSTYLE
  2
S10
  9
$DIMCLRD
 70
   256
  9
$DIMCLRE
 70
   256
  9
$DIMCLRT
 70
   256
  9
$DIMTFAC
 40
1.0
  9
$DIMGAP
 40
0.9
  9
$LUNITS
 70
     2
  9
$LUPREC
 70
     2
  9
$SKETCHINC
 40
0.1
  9
$FILLETRAD
 40
0.0
  9
$AUNITS
 70
     0
  9
$AUPREC
 70
     2
  9
$MENU
  1
ACAD
  9
$ELEVATION
 40
0.0
  9
$PELEVATION
 40
0.0
  9
$THICKNESS
 40
0.0
  9
$LIMCHECK
 70
     0
  9
$BLIPMODE
 70
     0
  9
$CHAMFERA
 40
2.0
  9
$CHAMFERB
 40
2.0
  9
$SKPOLY
 70
     0
  9
$TDCREATE
 40
2453095.4929404748
  9
$TDUPDATE
 40
2456727.8336726041
  9
$TDINDWG
 40
18.358192430599999
  9
$TDUSRTIMER
 40
18.3581911574
  9
$USRTIMER
 70
     1
  9
$ANGBASE
 50
0.0
  9
$ANGDIR
 70
     0
  9
$PDMODE
 70
    35
  9
$PDSIZE
 40
2.0
  9
$PLINEWID
 40
0.0
  9
$COORDS
 70
     1
  9
$SPLFRAME
 70
     0
  9
$SPLINETYPE
 70
     6
  9
$SPLINESEGS
 70
     8
  9
$ATTDIA
 70
     1
  9
$ATTREQ
 70
     1
  9
$HANDLING
 70
     1
  9
$HANDSEED
  5
131315
  9
$SURFTAB1
 70
     6
  9
$SURFTAB2
 70
     6
  9
$SURFTYPE
 70
     6
  9
$SURFU
 70
     6
  9
$SURFV
 70
     6
  9
$UCSNAME
  2

  9
$UCSORG
 10
0.0
 20
0.0
 30
0.0
  9
$UCSXDIR
 10
1.0
 20
0.0
 30
0.0
  9
$UCSYDIR
 10
0.0
 20
1.0
 30
0.0
  9
$PUCSNAME
  2

  9
$PUCSORG
 10
0.0
 20
0.0
 30
0.0
  9
$PUCSXDIR
 10
1.0
 20
0.0
 30
0.0
  9
$PUCSYDIR
 10
0.0
 20
1.0
 30
0.0
  9
$USERI1
 70
     0
  9
$USERI2
 70
     0
  9
$USERI3
 70
     0
  9
$USERI4
 70
     0
  9
$USERI5
 70
     0
  9
$USERR1
 40
0.0
  9
$USERR2
 40
0.0
  9
$USERR3
 40
0.0
  9
$USERR4
 40
0.0
  9
$USERR5
 40
0.0
  9
$WORLDVIEW
 70
     1
  9
$SHADEDGE
 70
     3
  9
$SHADEDIF
 70
    70
  9
$TILEMODE
 70
     1
  9
$MAXACTVP
 70
    64
  9
$PLIMCHECK
 70
     0
  9
$PEXTMIN
 10
29.066066288948051
 20
20.366566777229309
 30
0.0
  9
$PEXTMAX
 10
261.5945966005325
 20
183.29910099506381
 30
0.0
  9
$PLIMMIN
 10
-3.17498779296875
 20
-3.1749999523162842
  9
$PLIMMAX
 10
293.83566284179687
 20
206.8406708240509
  9
$UNITMODE
 70
     0
  9
$VISRETAIN
 70
     1
  9
$PLINEGEN
 70
     0
  9
$PSLTSCALE
 70
     1
  0
ENDSEC
  0
SECTION
  2
TABLES
  0
TABLE
  2
VPORT
 70
     1
  0
VPORT
  2
*ACTIVE
 70
     0
 10
0.0
 20
0.0
 11
1.0
 21
1.0
 12
3467.9171898943391
 22
-1816.7457696984691
 13
0.0
 23
0.0
 14
1.0
 24
1.0
 15
0.0
 25
0.0
 16
0.0
 26
0.0
 36
1.0
 17
0.0
 27
0.0
 37
0.0
 40
8897.4638798580909
 41
1.628705148205928
 42
50.0
 43
0.0
 44
0.0
 50
0.0
 51
0.0
 71
     0
 72
   600
 73
     1
 74
     1
 75
     0
 76
     0
 77
     0
 78
     0
  0
ENDTAB
  0
TABLE
  2
LTYPE
 70
     3
  0
LTYPE
  2
CONTINUOUS
 70
     0
  3
Solid line
 72
    65
 73
     0
 40
0.0
  0
LTYPE
  2
ACAD_ISO08W100
 70
     0
  3
ISO long-dash short-dash ____ __ ____ __ ____ _
 72
    65
 73
     4
 40
36.0
 49
24.0
 49
-3.0
 49
6.0
 49
-3.0
  0
LTYPE
  2
ACAD_ISO02W100
 70
     0
  3
ISO dash __ __ __ __ __ __ __ __ __ __ __ __ __
 72
    65
 73
     2
 40
15.0
 49
12.0
 49
-3.0
  0
ENDTAB
  0
TABLE
  2
LAYER
 70
     8
  0
LAYER
  2
0
 70
     0
 62
     7
  6
CONTINUOUS
  0
LAYER
  2
OBJECT
 70
     0
 62
     4
  6
CONTINUOUS
  0
LAYER
  2
DEFPOINTS
 70
     0
 62
     7
  6
CONTINUOUS
  0
LAYER
  2
DIM
 70
     0
 62
     7
  6
CONTINUOUS
  0
LAYER
  2
HIDDEN
 70
     0
 62
     2
  6
ACAD_ISO02W100
  0
LAYER
  2
CENTER
 70
     0
 62
     2
  6
ACAD_ISO08W100
  0
LAYER
  2
DOTS
 70
     0
 62
     1
  6
CONTINUOUS
  0
LAYER
  2
SLIM
 70
     0
 62
     2
  6
CONTINUOUS
  0
ENDTAB
  0
TABLE
  2
STYLE
 70
     2
  0
STYLE
  2
STANDARD
 70
     0
 40
0.0
 41
0.75
 50
0.0
 71
     0
 42
4.0
  3
simplex.shx
  4
bigfont.shx
  0
ENDTAB
  0
TABLE
  2
VIEW
 70
     0
  0
ENDTAB
  0
TABLE
  2
UCS
 70
     0
  0
ENDTAB
  0
TABLE
  2
APPID
 70
    18
  0
APPID
  2
ACAD
 70
     0
  0
APPID
  2
ACADANNOTATIVE
 70
     0
  0
APPID
  2
ACAD_PSEXT
 70
     0
  0
APPID
  2
ACAD_EXEMPT_FROM_CAD_STANDARDS
 70
     0
  0
APPID
  2
ACAECLAYERSTANDARD
 70
     0
  0
APPID
  2
ACAUTHENVIRON
 70
     0
  0
APPID
  2
ACDBDYNAMICBLOCKTRUENAME
 70
     0
  0
APPID
  2
ACDBDYNAMICBLOCKGUID
 70
     0
  0
APPID
  2
ACDBBLOCKREPETAG
 70
     0
  0
APPID
  2
ACDBBLOCKREPBTAG
 70
     0
  0
APPID
  2
ACAD_NAV_VCDISPLAY
 70
     0
  0
APPID
  2
ACAD_DSTYLE_DIMRADIAL_EXTENSION
 70
     0
  0
APPID
  2
ACAD_DSTYLE_DIMJAG
 70
     0
  0
APPID
  2
ACAD_DSTYLE_DIMTALN
 70
     0
  0
APPID
  2
ACADANNOPO
 70
     0
  0
APPID
  2
GRADIENTCOLOR1ACI
 70
     0
  0
APPID
  2
GRADIENTCOLOR2ACI
 70
     0
  0
APPID
  2
ACAD_MLEADERVER
 70
     0
  0
ENDTAB
  0
TABLE
  2
DIMSTYLE
 70
     3
  0
DIMSTYLE
  2
STANDARD
 70
     0
  3

  4

  5

  6

  7

 40
1.0
 41
0.18
 42
0.0625
 43
0.38
 44
0.18
 45
0.0
 46
0.0
 47
0.0
 48
0.0
140
0.18
141
0.09
142
0.0
143
25.399999999999999
144
1.0
145
0.0
146
1.0
147
0.09
 71
     0
 72
     0
 73
     1
 74
     1
 75
     0
 76
     0
 77
     0
 78
     0
170
     0
171
     2
172
     0
173
     0
174
     0
175
     0
176
     0
177
     0
178
     0
  0
DIMSTYLE
  2
S10
 70
     0
  3

  4

  5

  6

  7

 40
10.0
 41
2.0
 42
1.0
 43
10.0
 44
1.0
 45
0.0
 46
0.0
 47
0.0
 48
0.0
140
3.2000000000000002
141
0.0
142
0.0
143
25.399999999999999
144
1.0
145
0.0
146
1.0
147
0.9
 71
     0
 72
     0
 73
     0
 74
     0
 75
     0
 76
     0
 77
     1
 78
     8
170
     0
171
     2
172
     1
173
     0
174
     0
175
     0
176
   256
177
   256
178
   256
  0
ENDTAB
  0
ENDSEC
  0
SECTION
  2
BLOCKS
  0
BLOCK
  8
0
  2
$MODEL_SPACE
 70
     0
 10
0.0
 20
0.0
 30
0.0
  3
$MODEL_SPACE
  1

  0
ENDBLK
  5
1310CF
  8
0
  0
BLOCK
 67
     1
  8
0
  2
$PAPER_SPACE
 70
     0
 10
0.0
 20
0.0
 30
0.0
  3
$PAPER_SPACE
  1

  0
ENDBLK
  5
1310CB
 67
     1
  8
0
  0
BLOCK
  8
0
  2
_OPEN30
 70
     0
 10
0.0
 20
0.0
 30
0.0
  3
_OPEN30
  1

  0
LINE
  5
202
  8
0
  6
BYBLOCK
 62
     0
 10
-1.0
 20
0.26794919
 30
0.0
 11
0.0
 21
0.0
 31
0.0
  0
LINE
  5
203
  8
0
  6
BYBLOCK
 62
     0
 10
0.0
 20
0.0
 30
0.0
 11
-1.0
 21
-0.26794919
 31
0.0
  0
LINE
  5
204
  8
0
  6
BYBLOCK
 62
     0
 10
0.0
 20
0.0
 30
0.0
 11
-1.0
 21
0.0
 31
0.0
  0
ENDBLK
  5
206
  8
0
  0
BLOCK
  8
0
  2
*U201
 70
     1
 10
0.0
 20
0.0
 30
0.0
  3
*U201
  1

  0
TEXT
  5
131020
  8
SLIM
 10
505.04761904761767
 20
-545.75000000000364
 30
0.0
 40
26.0
  1
100
  0
ENDBLK
  5
131022
  8
0
  0
BLOCK
  8
0
  2
*U202
 70
     1
 10
0.0
 20
0.0
 30
0.0
  3
*U202
  1

  0
TEXT
  5
131024
  8
SLIM
 10
513.09523809523682
 20
-818.00000000000375
 30
0.0
 40
26.0
  1
CO
  0
ENDBLK
  5
131026
  8
0
  0
BLOCK
  8
0
  2
*U203
 70
     1
 10
0.0
 20
0.0
 30
0.0
  3
*U203
  1

  0
TEXT
  5
131028
  8
SLIM
 10
154.95238095237971
 20
-553.00000000000364
 30
0.0
 40
26.0
  1
75
  0
ENDBLK
  5
13102A
  8
0
  0
BLOCK
  8
0
  2
*U204
 70
     1
 10
0.0
 20
0.0
 30
0.0
  3
*U204
  1

  0
TEXT
  5
13102C
  8
SLIM
 10
153.09523809523691
 20
-818.00000000000375
 30
0.0
 40
26.0
  1
CO
  0
ENDBLK
  5
13102E
  8
0
  0
BLOCK
  8
0
  2
*U205
 70
     1
 10
0.0
 20
0.0
 30
0.0
  3
*U205
  1

  0
TEXT
  5
131030
  8
SLIM
 10
514.95238095237971
 20
-89.000000000003666
 30
0.0
 40
26.0
  1
65
  0
ENDBLK
  5
131032
  8
0
  0
BLOCK
  8
0
  2
*U206
 70
     1
 10
0.0
 20
0.0
 30
0.0
  3
*U206
  1

  0
TEXT
  5
131034
  8
SLIM
 10
513.09523809523682
 20
-354.00000000000358
 30
0.0
 40
26.0
  1
CO
  0
ENDBLK
  5
131036
  8
0
  0
BLOCK
  8
0
  2
*U207
 70
     1
 10
0.0
 20
0.0
 30
0.0
  3
*U207
  1

  0
TEXT
  5
131038
  8
SLIM
 10
154.95238095237971
 20
-89.000000000003666
 30
0.0
 40
26.0
  1
50
  0
ENDBLK
  5
13103A
  8
0
  0
BLOCK
  8
0
  2
*U208
 70
     1
 10
0.0
 20
0.0
 30
0.0
  3
*U208
  1

  0
TEXT
  5
13103C
  8
SLIM
 10
153.09523809523691
 20
-354.00000000000358
 30
0.0
 40
26.0
  1
CO
  0
ENDBLK
  5
13103E
  8
0
  0
BLOCK
  8
0
  2
*U209
 70
     1
 10
0.0
 20
0.0
 30
0.0
  3
*U209
  1

  0
TEXT
  5
131054
  8
DIM
 10
2209.479620594459
 20
-3184.1428571428528
 30
0.0
 40
32.0
  1
A
 50
90.0
 41
0.75
  0
ENDBLK
  5
131056
  8
0
  0
BLOCK
  8
0
  2
*U210
 70
     1
 10
0.0
 20
0.0
 30
0.0
  3
*U210
  1

  0
TEXT
  5
131058
  8
DIM
 10
2207.8409284037348
 20
-3565.9999999999959
 30
0.0
 40
32.0
  1
B
 50
90.0
 41
0.75
  0
ENDBLK
  5
13105A
  8
0
  0
BLOCK
  8
0
  2
*U211
 70
     1
 10
0.0
 20
0.0
 30
0.0
  3
*U211
  1

  0
TEXT
  5
13105C
  8
DIM
 10
2061.428571428572
 20
-3038.208121984444
 30
0.0
 40
32.0
  1
C
 41
0.75
  0
ENDBLK
  5
13105E
  8
0
  0
ENDSEC
  0
SECTION
  2
ENTITIES
  0
LINE
  5
12515F
  8
OBJECT
 10
1825.0
 20
-3579.9999999999959
 30
0.0
 11
5575.0
 21
-3579.9999999999959
 31
0.0
  0
LINE
  5
125161
  8
SLIM
 10
2616.0
 20
-2637.50001604727
 30
0.0
 11
2616.0
 21
-2967.50001604727
 31
0.0
  0
LINE
  5
125162
  8
SLIM
 10
2740.0
 20
-2637.50001604727
 30
0.0
 11
2740.0
 21
-2967.50001604727
 31
0.0
  0
LINE
  5
125163
  8
SLIM
 10
2870.0
 20
-2697.50001604727
 30
0.0
 11
2870.0
 21
-2967.50001604727
 31
0.0
  0
LINE
  5
125164
  8
SLIM
 10
3000.0
 20
-2697.50001604727
 30
0.0
 11
3000.0
 21
-2967.50001604727
 31
0.0
  0
LINE
  5
125165
  8
SLIM
 10
3130.0
 20
-2967.50001604727
 30
0.0
 11
3130.0
 21
-2697.50001604727
 31
0.0
  0
LINE
  5
125166
  8
SLIM
 10
3260.0
 20
-2967.50001604727
 30
0.0
 11
3260.0
 21
-2637.50001604727
 31
0.0
  0
LINE
  5
125167
  8
SLIM
 10
3260.0
 20
-2637.50001604727
 30
0.0
 11
2616.0
 21
-2637.50001604727
 31
0.0
  0
LINE
  5
125168
  8
SLIM
 10
3260.0
 20
-2697.50001604727
 30
0.0
 11
2740.0
 21
-2697.50001604727
 31
0.0
  0
LINE
  5
125169
  8
SLIM
 10
3260.0
 20
-2757.50001604727
 30
0.0
 11
2616.0
 21
-2757.50001604727
 31
0.0
  0
LINE
  5
12516A
  8
SLIM
 10
3260.0
 20
-2827.50001604727
 30
0.0
 11
2616.0
 21
-2827.50001604727
 31
0.0
  0
LINE
  5
12516B
  8
SLIM
 10
3260.0
 20
-2897.50001604727
 30
0.0
 11
2616.0
 21
-2897.50001604727
 31
0.0
  0
LINE
  5
12516C
  8
SLIM
 10
3260.0
 20
-2967.50001604727
 30
0.0
 11
2616.0
 21
-2967.50001604727
 31
0.0
  0
LINE
  5
125181
  8
SLIM
 10
2740.0
 20
-2757.50001604727
 30
0.0
 11
2615.9999722746579
 21
-2637.5
 31
0.0
  0
LINE
  5
1251B6
  8
OBJECT
 10
5323.0
 20
-3395.9999999999968
 30
0.0
 11
5323.0
 21
-3374.9999999999968
 31
0.0
1001
ACDBBLOCKREPETAG
1070
     1
1071
       20
1005
1251B6
  0
LINE
  5
1251B7
  8
OBJECT
 10
5323.0
 20
-3374.9999999999968
 30
0.0
 11
5477.0
 21
-3374.9999999999968
 31
0.0
1001
ACDBBLOCKREPETAG
1070
     1
1071
       21
1005
1251B7
  0
LINE
  5
1251B8
  8
HIDDEN
 10
5343.0
 20
-3444.9999999999968
 30
0.0
 11
5457.0
 21
-3444.9999999999968
 31
0.0
1001
ACDBBLOCKREPETAG
1070
     1
1071
       22
1005
1251B8
  0
LINE
  5
1251B9
  8
OBJECT
 10
5477.0
 20
-3374.9999999999968
 30
0.0
 11
5477.0
 21
-3395.9999999999968
 31
0.0
1001
ACDBBLOCKREPETAG
1070
     1
1071
       23
1005
1251B9
  0
LINE
  5
1251BA
  8
OBJECT
 10
5477.0
 20
-3395.9999999999968
 30
0.0
 11
5323.0
 21
-3395.9999999999968
 31
0.0
1001
ACDBBLOCKREPETAG
1070
     1
1071
       24
1005
1251BA
  0
LINE
  5
1251BB
  8
CENTER
 10
5400.0
 20
-3359.9999999999968
 30
0.0
 11
5400.0
 21
-3594.9999999999968
 31
0.0
1001
ACDBBLOCKREPETAG
1070
     1
1071
       25
1005
1251BB
  0
LINE
  5
1251BC
  8
OBJECT
 10
5325.0
 20
-3458.9999999999968
 30
0.0
 11
5325.0
 21
-3582.9999999999968
 31
0.0
1001
ACDBBLOCKREPETAG
1070
     1
1071
       26
1005
1251BC
  0
LINE
  5
1251BD
  8
OBJECT
 10
5328.0
 20
-3395.9999999999968
 30
0.0
 11
5328.0
 21
-3458.9999999999968
 31
0.0
1001
ACDBBLOCKREPETAG
1070
     1
1071
       27
1005
1251BD
  0
LINE
  5
1251BE
  8
OBJECT
 10
5472.0
 20
-3458.9999999999968
 30
0.0
 11
5472.0
 21
-3395.9999999999968
 31
0.0
1001
ACDBBLOCKREPETAG
1070
     1
1071
       28
1005
1251BE
  0
LINE
  5
1251BF
  8
OBJECT
 10
5475.0
 20
-3458.9999999999968
 30
0.0
 11
5456.7802782663139
 21
-3458.9999999999968
 31
0.0
1001
ACDBBLOCKREPETAG
1070
     1
1071
       30
1005
1251BF
  0
LINE
  5
1251C0
  8
OBJECT
 10
5475.0
 20
-3458.9999999999968
 30
0.0
 11
5475.0
 21
-3582.9999999999968
 31
0.0
1001
ACDBBLOCKREPETAG
1070
     1
1071
       34
1005
1251C0
  0
POINT
  5
1251C1
  8
DOTS
 10
5400.0
 20
-3579.9999999999968
 30
0.0
1001
ACDBBLOCKREPETAG
1070
     1
1071
      187
1005
1251C1
  0
LINE
  5
1251C2
  8
CENTER
 10
5310.0
 20
-3507.9999999999968
 30
0.0
 11
5490.0
 21
-3507.9999999999968
 31
0.0
1001
ACDBBLOCKREPETAG
1070
     1
1071
       23
1005
1251C2
  0
CIRCLE
  5
1251C3
  8
OBJECT
 10
5400.0
 20
-3507.9999999999968
 30
0.0
 40
53.5
1001
ACDBBLOCKREPETAG
1070
     1
1071
       24
1005
1251C3
  0
CIRCLE
  5
1251C4
  8
OBJECT
 10
5400.0
 20
-3507.9999999999968
 30
0.0
 40
67.0
1001
ACDBBLOCKREPETAG
1070
     1
1071
       25
1005
1251C4
  0
ARC
  5
1251C5
  8
OBJECT
 10
5400.0
 20
-3507.9999999999968
 30
0.0
 40
75.0
 50
286.26020470824369
 51
253.73979529175631
1001
ACDBBLOCKREPETAG
1070
     1
1071
       27
1005
1251C5
  0
LINE
  5
1251C6
  8
OBJECT
 10
5379.0
 20
-3579.9999999999968
 30
0.0
 11
5421.0
 21
-3579.9999999999968
 31
0.0
1001
ACDBBLOCKREPETAG
1070
     1
1071
       28
1005
1251C6
  0
LINE
  5
1251C7
  8
OBJECT
 10
5343.2197217336861
 20
-3458.9999999999968
 30
0.0
 11
5325.0
 21
-3458.9999999999968
 31
0.0
1001
ACDBBLOCKREPETAG
1070
     1
1071
       30
1005
1251BF
  0
TEXT
  5
12CC49
  8
SLIM
 10
-0.0000000000000011
 20
282.5
 30
0.0
 40
35.0
  1
※ 100枝（4）がある場合、品名の最後に【管底】が付きます。
 41
0.9
 11
0.0
 21
300.0
 31
0.0
 73
     2
  0
TEXT
  5
13038B
  8
SLIM
 10
415.71428571428447
 20
-444.00000000000358
 30
0.0
 40
48.0
  1
CO-A20P
 41
0.75
 72
     4
 11
539.99999999999875
 21
-420.00000000000358
 31
0.0
  0
TEXT
  5
13038C
  8
SLIM
 10
55.714285714284543
 20
-908.00000000000375
 30
0.0
 40
48.0
  1
CO-A30P
 41
0.75
 72
     4
 11
179.99999999999881
 21
-884.00000000000375
 31
0.0
  0
TEXT
  5
13038D
  8
SLIM
 10
415.71428571428447
 20
-908.00000000000375
 30
0.0
 40
48.0
  1
CO-A40P
 41
0.75
 72
     4
 11
539.99999999999875
 21
-884.00000000000375
 31
0.0
  0
TEXT
  5
1303A3
  8
SLIM
 10
59.142857142855974
 20
-444.00000000000358
 30
0.0
 40
48.0
  1
CO-A10P
 41
0.75
 72
     4
 11
179.99999999999881
 21
-420.00000000000358
 31
0.0
  0
CIRCLE
  5
1303EE
  8
OBJECT
 10
535.99999999999875
 20
-655.00000000000364
 30
0.0
 40
70.0
1001
ACDBBLOCKREPETAG
1070
     1
1071
       43
1005
1303EE
  0
CIRCLE
  5
1303EF
  8
OBJECT
 10
535.99999999999875
 20
-655.00000000000364
 30
0.0
 40
77.0
1001
ACDBBLOCKREPETAG
1070
     1
1071
       44
1005
1303EF
  0
ARC
  5
1303F0
  8
OBJECT
 10
535.99999999999875
 20
-655.00000000000364
 30
0.0
 40
80.0
 50
140.8050325737787
 51
219.1949674262213
1001
ACDBBLOCKREPETAG
1070
     1
1071
       45
1005
1303F0
  0
LINE
  5
1303F1
  8
OBJECT
 10
473.99999999999858
 20
-609.33819977267922
 30
0.0
 11
473.99999999999858
 21
-575.00000000000364
 31
0.0
1001
ACDBBLOCKREPETAG
1070
     1
1071
       46
1005
1303F1
  0
LINE
  5
1303F2
  8
OBJECT
 10
597.99999999999875
 20
-593.00000000000364
 30
0.0
 11
597.99999999999875
 21
-575.00000000000364
 31
0.0
1001
ACDBBLOCKREPETAG
1070
     1
1071
       22
1005
1303F2
  0
LINE
  5
1303F3
  8
OBJECT
 10
597.99999999999875
 20
-593.00000000000364
 30
0.0
 11
615.99999999999875
 21
-593.00000000000364
 31
0.0
1001
ACDBBLOCKREPETAG
1070
     1
1071
       24
1005
1303F3
  0
LINE
  5
1303F4
  8
OBJECT
 10
597.99999999999875
 20
-717.00000000000364
 30
0.0
 11
615.99999999999875
 21
-717.00000000000364
 31
0.0
1001
ACDBBLOCKREPETAG
1070
     1
1071
       25
1005
1303F4
  0
LINE
  5
1303F5
  8
OBJECT
 10
597.99999999999875
 20
-717.00000000000364
 30
0.0
 11
597.99999999999875
 21
-735.00000000000352
 31
0.0
1001
ACDBBLOCKREPETAG
1070
     1
1071
       27
1005
1303F5
  0
LINE
  5
1303F6
  8
OBJECT
 10
473.99999999999858
 20
-700.66180022732794
 30
0.0
 11
473.99999999999858
 21
-735.00000000000352
 31
0.0
1001
ACDBBLOCKREPETAG
1070
     1
1071
       28
1005
1303F6
  0
LINE
  5
1303F7
  8
OBJECT
 10
590.44722215136278
 20
-709.4472221513679
 30
0.0
 11
597.99999999999875
 21
-717.00000000000364
 31
0.0
1001
ACDBBLOCKREPETAG
1070
     1
1071
       37
1005
1303F7
  0
LINE
  5
1303F8
  8
OBJECT
 10
590.44722215136278
 20
-600.55277784863938
 30
0.0
 11
597.99999999999875
 21
-593.00000000000364
 31
0.0
1001
ACDBBLOCKREPETAG
1070
     1
1071
       38
1005
1303F8
  0
POINT
  5
1303F9
  8
DOTS
 10
535.99999999999875
 20
-655.00000000000364
 30
0.0
1001
ACDBBLOCKREPETAG
1070
     1
1071
       39
1005
1303F9
  0
CIRCLE
  5
1303FA
  8
OBJECT
 10
535.99999999999875
 20
-655.00000000000364
 30
0.0
 40
53.5
1001
ACDBBLOCKREPETAG
1070
     1
1071
      153
1005
1303FA
  0
CIRCLE
  5
1303FB
  8
OBJECT
 10
175.99999999999881
 20
-655.00000000000364
 30
0.0
 40
70.0
1001
ACDBBLOCKREPETAG
1070
     1
1071
       43
1005
1303FB
  0
CIRCLE
  5
1303FC
  8
OBJECT
 10
175.99999999999881
 20
-655.00000000000364
 30
0.0
 40
77.0
1001
ACDBBLOCKREPETAG
1070
     1
1071
       44
1005
1303FC
  0
ARC
  5
1303FD
  8
OBJECT
 10
175.99999999999881
 20
-655.00000000000364
 30
0.0
 40
80.0
 50
140.80503257377961
 51
219.1949674262203
1001
ACDBBLOCKREPETAG
1070
     1
1071
       45
1005
1303FD
  0
LINE
  5
1303FE
  8
OBJECT
 10
113.99999999999881
 20
-609.33819977267922
 30
0.0
 11
113.99999999999881
 21
-575.00000000000364
 31
0.0
1001
ACDBBLOCKREPETAG
1070
     1
1071
       46
1005
1303FE
  0
LINE
  5
1303FF
  8
OBJECT
 10
237.99999999999881
 20
-593.00000000000364
 30
0.0
 11
237.99999999999881
 21
-575.00000000000364
 31
0.0
1001
ACDBBLOCKREPETAG
1070
     1
1071
       22
1005
1303FF
  0
LINE
  5
130400
  8
OBJECT
 10
237.99999999999881
 20
-593.00000000000364
 30
0.0
 11
255.99999999999881
 21
-593.00000000000364
 31
0.0
1001
ACDBBLOCKREPETAG
1070
     1
1071
       24
1005
130400
  0
LINE
  5
130401
  8
OBJECT
 10
237.99999999999881
 20
-717.00000000000364
 30
0.0
 11
255.99999999999881
 21
-717.00000000000364
 31
0.0
1001
ACDBBLOCKREPETAG
1070
     1
1071
       25
1005
130401
  0
LINE
  5
130402
  8
OBJECT
 10
237.99999999999881
 20
-717.00000000000364
 30
0.0
 11
237.99999999999881
 21
-735.00000000000352
 31
0.0
1001
ACDBBLOCKREPETAG
1070
     1
1071
       27
1005
130402
  0
LINE
  5
130403
  8
OBJECT
 10
113.99999999999881
 20
-700.66180022732794
 30
0.0
 11
113.99999999999881
 21
-735.00000000000352
 31
0.0
1001
ACDBBLOCKREPETAG
1070
     1
1071
       28
1005
130403
  0
LINE
  5
130404
  8
OBJECT
 10
230.44722215136309
 20
-709.4472221513679
 30
0.0
 11
237.99999999999881
 21
-717.00000000000364
 31
0.0
1001
ACDBBLOCKREPETAG
1070
     1
1071
       37
1005
130404
  0
LINE
  5
130405
  8
OBJECT
 10
230.44722215136309
 20
-600.55277784863938
 30
0.0
 11
237.99999999999881
 21
-593.00000000000364
 31
0.0
1001
ACDBBLOCKREPETAG
1070
     1
1071
       38
1005
130405
  0
POINT
  5
130406
  8
DOTS
 10
175.99999999999881
 20
-655.00000000000364
 30
0.0
1001
ACDBBLOCKREPETAG
1070
     1
1071
       39
1005
130406
  0
CIRCLE
  5
130407
  8
OBJECT
 10
175.99999999999881
 20
-655.00000000000364
 30
0.0
 40
53.5
1001
ACDBBLOCKREPETAG
1070
     1
1071
      153
1005
130407
  0
CIRCLE
  5
130408
  8
OBJECT
 10
535.99999999999875
 20
-191.00000000000361
 30
0.0
 40
70.0
1001
ACDBBLOCKREPETAG
1070
     1
1071
       43
1005
130408
  0
CIRCLE
  5
130409
  8
OBJECT
 10
535.99999999999875
 20
-191.00000000000361
 30
0.0
 40
77.0
1001
ACDBBLOCKREPETAG
1070
     1
1071
       44
1005
130409
  0
ARC
  5
13040A
  8
OBJECT
 10
535.99999999999875
 20
-191.00000000000361
 30
0.0
 40
80.0
 50
140.80503257378001
 51
219.19496742621999
1001
ACDBBLOCKREPETAG
1070
     1
1071
       45
1005
13040A
  0
LINE
  5
13040B
  8
OBJECT
 10
473.99999999999858
 20
-145.33819977267919
 30
0.0
 11
473.99999999999858
 21
-111.0000000000036
 31
0.0
1001
ACDBBLOCKREPETAG
1070
     1
1071
       46
1005
13040B
  0
LINE
  5
13040C
  8
OBJECT
 10
597.99999999999875
 20
-129.00000000000361
 30
0.0
 11
597.99999999999875
 21
-111.0000000000036
 31
0.0
1001
ACDBBLOCKREPETAG
1070
     1
1071
       22
1005
13040C
  0
LINE
  5
13040D
  8
OBJECT
 10
597.99999999999875
 20
-129.00000000000361
 30
0.0
 11
615.99999999999875
 21
-129.00000000000361
 31
0.0
1001
ACDBBLOCKREPETAG
1070
     1
1071
       24
1005
13040D
  0
LINE
  5
13040E
  8
OBJECT
 10
597.99999999999875
 20
-253.00000000000361
 30
0.0
 11
615.99999999999875
 21
-253.00000000000361
 31
0.0
1001
ACDBBLOCKREPETAG
1070
     1
1071
       25
1005
13040E
  0
LINE
  5
13040F
  8
OBJECT
 10
597.99999999999875
 20
-253.00000000000361
 30
0.0
 11
597.99999999999875
 21
-271.00000000000358
 31
0.0
1001
ACDBBLOCKREPETAG
1070
     1
1071
       27
1005
13040F
  0
LINE
  5
130410
  8
OBJECT
 10
473.99999999999858
 20
-236.66180022732809
 30
0.0
 11
473.99999999999858
 21
-271.00000000000358
 31
0.0
1001
ACDBBLOCKREPETAG
1070
     1
1071
       28
1005
130410
  0
LINE
  5
130411
  8
OBJECT
 10
590.44722215136278
 20
-245.4472221513679
 30
0.0
 11
597.99999999999875
 21
-253.00000000000361
 31
0.0
1001
ACDBBLOCKREPETAG
1070
     1
1071
       37
1005
130411
  0
LINE
  5
130412
  8
OBJECT
 10
590.44722215136278
 20
-136.55277784863921
 30
0.0
 11
597.99999999999875
 21
-129.00000000000361
 31
0.0
1001
ACDBBLOCKREPETAG
1070
     1
1071
       38
1005
130412
  0
POINT
  5
130413
  8
DOTS
 10
535.99999999999875
 20
-191.00000000000361
 30
0.0
1001
ACDBBLOCKREPETAG
1070
     1
1071
       39
1005
130413
  0
CIRCLE
  5
130414
  8
OBJECT
 10
535.99999999999875
 20
-191.00000000000361
 30
0.0
 40
53.5
1001
ACDBBLOCKREPETAG
1070
     1
1071
      153
1005
130414
  0
CIRCLE
  5
130415
  8
OBJECT
 10
175.99999999999881
 20
-191.00000000000361
 30
0.0
 40
70.0
1001
ACDBBLOCKREPETAG
1070
     1
1071
       43
1005
130415
  0
CIRCLE
  5
130416
  8
OBJECT
 10
175.99999999999881
 20
-191.00000000000361
 30
0.0
 40
77.0
1001
ACDBBLOCKREPETAG
1070
     1
1071
       44
1005
130416
  0
ARC
  5
130417
  8
OBJECT
 10
175.99999999999881
 20
-191.00000000000361
 30
0.0
 40
80.0
 50
140.80503257378101
 51
219.19496742621899
1001
ACDBBLOCKREPETAG
1070
     1
1071
       45
1005
130417
  0
LINE
  5
130418
  8
OBJECT
 10
113.99999999999881
 20
-145.33819977267919
 30
0.0
 11
113.99999999999881
 21
-111.0000000000036
 31
0.0
1001
ACDBBLOCKREPETAG
1070
     1
1071
       46
1005
130418
  0
LINE
  5
130419
  8
OBJECT
 10
237.99999999999881
 20
-129.00000000000361
 30
0.0
 11
237.99999999999881
 21
-111.0000000000036
 31
0.0
1001
ACDBBLOCKREPETAG
1070
     1
1071
       22
1005
130419
  0
LINE
  5
13041A
  8
OBJECT
 10
237.99999999999881
 20
-129.00000000000361
 30
0.0
 11
255.99999999999881
 21
-129.00000000000361
 31
0.0
1001
ACDBBLOCKREPETAG
1070
     1
1071
       24
1005
13041A
  0
LINE
  5
13041B
  8
OBJECT
 10
237.99999999999881
 20
-253.00000000000361
 30
0.0
 11
255.99999999999881
 21
-253.00000000000361
 31
0.0
1001
ACDBBLOCKREPETAG
1070
     1
1071
       25
1005
13041B
  0
LINE
  5
13041C
  8
OBJECT
 10
237.99999999999881
 20
-253.00000000000361
 30
0.0
 11
237.99999999999881
 21
-271.00000000000358
 31
0.0
1001
ACDBBLOCKREPETAG
1070
     1
1071
       27
1005
13041C
  0
LINE
  5
13041D
  8
OBJECT
 10
113.99999999999881
 20
-236.66180022732809
 30
0.0
 11
113.99999999999881
 21
-271.00000000000358
 31
0.0
1001
ACDBBLOCKREPETAG
1070
     1
1071
       28
1005
13041D
  0
LINE
  5
13041E
  8
OBJECT
 10
230.44722215136309
 20
-245.4472221513679
 30
0.0
 11
237.99999999999881
 21
-253.00000000000361
 31
0.0
1001
ACDBBLOCKREPETAG
1070
     1
1071
       37
1005
13041E
  0
LINE
  5
13041F
  8
OBJECT
 10
230.44722215136309
 20
-136.55277784863921
 30
0.0
 11
237.99999999999881
 21
-129.00000000000361
 31
0.0
1001
ACDBBLOCKREPETAG
1070
     1
1071
       38
1005
13041F
  0
POINT
  5
130420
  8
DOTS
 10
175.99999999999881
 20
-191.00000000000361
 30
0.0
1001
ACDBBLOCKREPETAG
1070
     1
1071
       39
1005
130420
  0
CIRCLE
  5
130421
  8
OBJECT
 10
175.99999999999881
 20
-191.00000000000361
 30
0.0
 40
53.5
1001
ACDBBLOCKREPETAG
1070
     1
1071
      153
1005
130421
  0
LINE
  5
130422
  8
OBJECT
 10
460.99999999999858
 20
-505.00000000000358
 30
0.0
 11
460.99999999999858
 21
-512.00000000000364
 31
0.0
1001
ACDBBLOCKREPETAG
1070
     1
1071
       57
1005
130422
  0
LINE
  5
130423
  8
OBJECT
 10
460.99999999999858
 20
-512.00000000000364
 30
0.0
 11
610.99999999999875
 21
-512.00000000000364
 31
0.0
1001
ACDBBLOCKREPETAG
1070
     1
1071
       58
1005
130423
  0
LINE
  5
130424
  8
OBJECT
 10
463.99999999999858
 20
-553.50000000000364
 30
0.0
 11
607.99999999999875
 21
-553.50000000000364
 31
0.0
1001
ACDBBLOCKREPETAG
1070
     1
1071
       59
1005
130424
  0
LINE
  5
130425
  8
OBJECT
 10
470.49999999999858
 20
-565.00000000000364
 30
0.0
 11
601.49999999999875
 21
-565.00000000000364
 31
0.0
1001
ACDBBLOCKREPETAG
1070
     1
1071
       60
1005
130425
  0
LINE
  5
130426
  8
OBJECT
 10
610.99999999999875
 20
-512.00000000000364
 30
0.0
 11
610.99999999999875
 21
-505.00000000000358
 31
0.0
1001
ACDBBLOCKREPETAG
1070
     1
1071
       61
1005
130426
  0
LINE
  5
130427
  8
OBJECT
 10
610.99999999999875
 20
-505.00000000000358
 30
0.0
 11
460.99999999999858
 21
-505.00000000000358
 31
0.0
1001
ACDBBLOCKREPETAG
1070
     1
1071
       62
1005
130427
  0
LINE
  5
130428
  8
OBJECT
 10
597.99999999999875
 20
-569.00000000000364
 30
0.0
 11
597.99999999999875
 21
-575.00000000000364
 31
0.0
1001
ACDBBLOCKREPETAG
1070
     1
1071
       63
1005
130428
  0
LINE
  5
130429
  8
OBJECT
 10
607.99999999999875
 20
-512.00000000000364
 30
0.0
 11
607.99999999999875
 21
-553.50000000000364
 31
0.0
1001
ACDBBLOCKREPETAG
1070
     1
1071
       64
1005
130429
  0
LINE
  5
13042A
  8
OBJECT
 10
607.99999999999875
 20
-553.50000000000364
 30
0.0
 11
601.49999999999875
 21
-565.00000000000364
 31
0.0
1001
ACDBBLOCKREPETAG
1070
     1
1071
       65
1005
13042A
  0
LINE
  5
13042B
  8
OBJECT
 10
601.49999999999875
 20
-565.00000000000364
 30
0.0
 11
597.99999999999875
 21
-569.00000000000364
 31
0.0
1001
ACDBBLOCKREPETAG
1070
     1
1071
       66
1005
13042B
  0
LINE
  5
13042C
  8
OBJECT
 10
463.99999999999858
 20
-553.50000000000364
 30
0.0
 11
470.49999999999858
 21
-565.00000000000364
 31
0.0
1001
ACDBBLOCKREPETAG
1070
     1
1071
       67
1005
13042C
  0
LINE
  5
13042D
  8
OBJECT
 10
470.49999999999858
 20
-565.00000000000364
 30
0.0
 11
473.99999999999858
 21
-569.00000000000364
 31
0.0
1001
ACDBBLOCKREPETAG
1070
     1
1071
       68
1005
13042D
  0
ARC
  5
13042E
  8
OBJECT
 10
535.99999999999875
 20
-187.1000000000021
 30
0.0
 40
386.89999999999998
 50
260.77870136257951
 51
279.22129863742049
1001
ACDBBLOCKREPETAG
1070
     1
1071
       69
1005
13042E
  0
LINE
  5
13042F
  8
OBJECT
 10
473.99999999999858
 20
-569.00000000000364
 30
0.0
 11
473.99999999999858
 21
-575.00000000000364
 31
0.0
1001
ACDBBLOCKREPETAG
1070
     1
1071
       70
1005
13042F
  0
LINE
  5
130430
  8
OBJECT
 10
463.99999999999858
 20
-512.00000000000364
 30
0.0
 11
463.99999999999858
 21
-553.50000000000364
 31
0.0
1001
ACDBBLOCKREPETAG
1070
     1
1071
       71
1005
130430
  0
INSERT
  5
130431
  8
OBJECT
  2
*U201
 10
0.0
 20
0.0
 30
0.0
  0
LINE
  5
130432
  8
HIDDEN
 10
592.99999999999875
 20
-557.00000000000364
 30
0.0
 11
478.99999999999858
 21
-557.00000000000364
 31
0.0
1001
ACDBBLOCKREPETAG
1070
     1
1071
      431
1005
130432
  0
LINE
  5
130433
  8
OBJECT
 10
594.99999999999875
 20
-741.00000000000352
 30
0.0
 11
476.99999999999881
 21
-741.00000000000352
 31
0.0
1001
ACDBBLOCKREPETAG
1070
     1
1071
      323
1005
130433
  0
LINE
  5
130434
  8
OBJECT
 10
491.49999999999858
 20
-765.00000000000341
 30
0.0
 11
580.49999999999875
 21
-765.00000000000341
 31
0.0
1001
ACDBBLOCKREPETAG
1070
     1
1071
      324
1005
130434
  0
LINE
  5
130435
  8
OBJECT
 10
491.49999999999858
 20
-765.00000000000341
 30
0.0
 11
491.49999999999858
 21
-741.00000000000352
 31
0.0
1001
ACDBBLOCKREPETAG
1070
     1
1071
      325
1005
130435
  0
LINE
  5
130436
  8
OBJECT
 10
473.99999999999858
 20
-735.00000000000352
 30
0.0
 11
473.99999999999858
 21
-738.00000000000352
 31
0.0
1001
ACDBBLOCKREPETAG
1070
     1
1071
      326
1005
130436
  0
ARC
  5
130437
  8
OBJECT
 10
476.99999999999881
 20
-738.00000000000352
 30
0.0
 40
3.0
 50
180.0
 51
270.0
1001
ACDBBLOCKREPETAG
1070
     1
1071
      327
1005
130437
  0
LINE
  5
130438
  8
OBJECT
 10
553.82206599999938
 20
-765.00000000000341
 30
0.0
 11
558.10318199999756
 21
-768.83118900000409
 31
0.0
1001
ACDBBLOCKREPETAG
1070
     1
1071
      328
1005
130438
  0
ARC
  5
130439
  8
OBJECT
 10
552.99999999999875
 20
-775.00000000000352
 30
0.0
 40
8.0
 50
251.8416470000376
 51
50.402247000016089
1001
ACDBBLOCKREPETAG
1070
     1
1071
      329
1005
130439
  0
ARC
  5
13043A
  8
OBJECT
 10
552.06506699999829
 20
-777.8505970000042
 30
0.0
 40
5.0
 50
198.4848690000708
 51
251.8416470000376
1001
ACDBBLOCKREPETAG
1070
     1
1071
      330
1005
13043A
  0
LINE
  5
13043B
  8
OBJECT
 10
540.99999999999875
 20
-775.00000000000352
 30
0.0
 11
540.99999999999875
 21
-768.00000000000352
 31
0.0
1001
ACDBBLOCKREPETAG
1070
     1
1071
      331
1005
13043B
  0
LINE
  5
13043C
  8
OBJECT
 10
530.99999999999875
 20
-775.00000000000352
 30
0.0
 11
530.99999999999875
 21
-768.00000000000352
 31
0.0
1001
ACDBBLOCKREPETAG
1070
     1
1071
      332
1005
13043C
  0
LINE
  5
13043D
  8
OBJECT
 10
540.99999999999875
 20
-775.00000000000352
 30
0.0
 11
530.99999999999875
 21
-775.00000000000352
 31
0.0
1001
ACDBBLOCKREPETAG
1070
     1
1071
      333
1005
13043D
  0
LINE
  5
13043E
  8
OBJECT
 10
543.49999999999875
 20
-768.00000000000352
 30
0.0
 11
528.49999999999875
 21
-768.00000000000352
 31
0.0
1001
ACDBBLOCKREPETAG
1070
     1
1071
      334
1005
13043E
  0
LINE
  5
13043F
  8
OBJECT
 10
527.74999999999875
 20
-765.00000000000341
 30
0.0
 11
528.49999999999875
 21
-768.00000000000352
 31
0.0
1001
ACDBBLOCKREPETAG
1070
     1
1071
      335
1005
13043F
  0
LINE
  5
130440
  8
OBJECT
 10
518.17793299999778
 20
-765.00000000000341
 30
0.0
 11
513.89681799999801
 21
-768.83118900000409
 31
0.0
1001
ACDBBLOCKREPETAG
1070
     1
1071
      336
1005
130440
  0
LINE
  5
130441
  8
OBJECT
 10
544.24999999999875
 20
-765.00000000000341
 30
0.0
 11
543.49999999999875
 21
-768.00000000000352
 31
0.0
1001
ACDBBLOCKREPETAG
1070
     1
1071
      337
1005
130441
  0
ARC
  5
130442
  8
OBJECT
 10
518.99999999999875
 20
-775.00000000000352
 30
0.0
 40
8.0
 50
129.5977529999839
 51
288.1583529999624
1001
ACDBBLOCKREPETAG
1070
     1
1071
      338
1005
130442
  0
ARC
  5
130443
  8
OBJECT
 10
519.93493299999921
 20
-777.8505970000042
 30
0.0
 40
5.0
 50
288.1583529999624
 51
341.51513099992923
1001
ACDBBLOCKREPETAG
1070
     1
1071
      339
1005
130443
  0
LINE
  5
130444
  8
OBJECT
 10
524.67696999999907
 20
-779.43586800000412
 30
0.0
 11
528.49999999999875
 21
-768.00000000000352
 31
0.0
1001
ACDBBLOCKREPETAG
1070
     1
1071
      340
1005
130444
  0
LINE
  5
130445
  8
OBJECT
 10
547.32302999999831
 20
-779.43586800000412
 30
0.0
 11
543.49999999999875
 21
-768.00000000000352
 31
0.0
1001
ACDBBLOCKREPETAG
1070
     1
1071
      341
1005
130445
  0
ARC
  5
130446
  8
OBJECT
 10
594.99999999999875
 20
-738.00000000000352
 30
0.0
 40
3.0
 50
270.0
 51
0.0
1001
ACDBBLOCKREPETAG
1070
     1
1071
      342
1005
130446
  0
LINE
  5
130447
  8
OBJECT
 10
597.99999999999875
 20
-735.00000000000352
 30
0.0
 11
597.99999999999875
 21
-738.00000000000352
 31
0.0
1001
ACDBBLOCKREPETAG
1070
     1
1071
      343
1005
130447
  0
LINE
  5
130448
  8
OBJECT
 10
580.49999999999875
 20
-765.00000000000341
 30
0.0
 11
580.49999999999875
 21
-741.00000000000352
 31
0.0
1001
ACDBBLOCKREPETAG
1070
     1
1071
      344
1005
130448
  0
INSERT
  5
130449
  8
OBJECT
  2
*U202
 10
0.0
 20
0.0
 30
0.0
  0
LINE
  5
13044A
  8
OBJECT
 10
618.99999999999875
 20
-717.00000000000364
 30
0.0
 11
615.99999999999875
 21
-717.00000000000364
 31
0.0
1001
ACDBBLOCKREPETAG
1070
     1
1071
      418
1005
13044A
  0
ARC
  5
13044B
  8
OBJECT
 10
618.99999999999875
 20
-714.00000000000364
 30
0.0
 40
3.0
 50
270.0
 51
0.0
1001
ACDBBLOCKREPETAG
1070
     1
1071
      419
1005
13044B
  0
LINE
  5
13044C
  8
OBJECT
 10
615.99999999999875
 20
-593.00000000000364
 30
0.0
 11
618.99999999999875
 21
-593.00000000000364
 31
0.0
1001
ACDBBLOCKREPETAG
1070
     1
1071
      420
1005
13044C
  0
ARC
  5
13044D
  8
OBJECT
 10
618.99999999999875
 20
-596.00000000000364
 30
0.0
 40
3.0
 50
0.0
 51
90.0
1001
ACDBBLOCKREPETAG
1070
     1
1071
      421
1005
13044D
  0
LINE
  5
13044E
  8
OBJECT
 10
621.99999999999875
 20
-596.00000000000364
 30
0.0
 11
621.99999999999875
 21
-714.00000000000364
 31
0.0
1001
ACDBBLOCKREPETAG
1070
     1
1071
      422
1005
13044E
  0
INSERT
  5
13044F
  8
OBJECT
  2
*U203
 10
0.0
 20
0.0
 30
0.0
  0
LINE
  5
130450
  8
OBJECT
 10
113.99999999999881
 20
-522.00000000000364
 30
0.0
 11
113.99999999999881
 21
-515.00000000000364
 31
0.0
1001
ACDBBLOCKREPETAG
1070
     1
1071
       39
1005
130450
  0
LINE
  5
130451
  8
OBJECT
 10
113.99999999999881
 20
-515.00000000000364
 30
0.0
 11
237.99999999999881
 21
-515.00000000000364
 31
0.0
1001
ACDBBLOCKREPETAG
1070
     1
1071
       40
1005
130451
  0
LINE
  5
130452
  8
OBJECT
 10
237.99999999999881
 20
-515.00000000000364
 30
0.0
 11
237.99999999999881
 21
-522.00000000000364
 31
0.0
1001
ACDBBLOCKREPETAG
1070
     1
1071
       41
1005
130452
  0
LINE
  5
130453
  8
OBJECT
 10
237.99999999999881
 20
-522.00000000000364
 30
0.0
 11
113.99999999999881
 21
-522.00000000000364
 31
0.0
1001
ACDBBLOCKREPETAG
1070
     1
1071
       42
1005
130453
  0
LINE
  5
130454
  8
OBJECT
 10
116.99999999999871
 20
-522.00000000000364
 30
0.0
 11
116.99999999999871
 21
-558.00000000000364
 31
0.0
1001
ACDBBLOCKREPETAG
1070
     1
1071
       43
1005
130454
  0
LINE
  5
130455
  8
OBJECT
 10
116.99999999999871
 20
-558.00000000000364
 30
0.0
 11
234.99999999999881
 21
-558.00000000000364
 31
0.0
1001
ACDBBLOCKREPETAG
1070
     1
1071
       44
1005
130455
  0
LINE
  5
130456
  8
OBJECT
 10
234.99999999999881
 20
-558.00000000000364
 30
0.0
 11
234.99999999999881
 21
-522.00000000000364
 31
0.0
1001
ACDBBLOCKREPETAG
1070
     1
1071
       45
1005
130456
  0
LINE
  5
130457
  8
OBJECT
 10
121.49999999999881
 20
-562.00000000000364
 30
0.0
 11
121.49999999999881
 21
-569.00000000000364
 31
0.0
1001
ACDBBLOCKREPETAG
1070
     1
1071
       46
1005
130457
  0
LINE
  5
130458
  8
OBJECT
 10
230.49999999999881
 20
-569.00000000000364
 30
0.0
 11
230.49999999999881
 21
-562.00000000000364
 31
0.0
1001
ACDBBLOCKREPETAG
1070
     1
1071
       47
1005
130458
  0
LINE
  5
130459
  8
OBJECT
 10
230.49999999999881
 20
-562.00000000000364
 30
0.0
 11
121.49999999999881
 21
-562.00000000000364
 31
0.0
1001
ACDBBLOCKREPETAG
1070
     1
1071
       48
1005
130459
  0
LINE
  5
13045A
  8
OBJECT
 10
116.99999999999871
 20
-558.00000000000364
 30
0.0
 11
121.49999999999881
 21
-562.00000000000364
 31
0.0
1001
ACDBBLOCKREPETAG
1070
     1
1071
       49
1005
13045A
  0
LINE
  5
13045B
  8
OBJECT
 10
234.99999999999881
 20
-558.00000000000364
 30
0.0
 11
230.49999999999881
 21
-562.00000000000364
 31
0.0
1001
ACDBBLOCKREPETAG
1070
     1
1071
       50
1005
13045B
  0
LINE
  5
13045C
  8
OBJECT
 10
113.99999999999881
 20
-572.00000000000273
 30
0.0
 11
113.99999999999881
 21
-575.00000000000364
 31
0.0
1001
ACDBBLOCKREPETAG
1070
     1
1071
       51
1005
13045C
  0
ARC
  5
13045D
  8
OBJECT
 10
116.99999999999871
 20
-572.00000000000273
 30
0.0
 40
3.0
 50
90.0
 51
180.0
1001
ACDBBLOCKREPETAG
1070
     1
1071
       52
1005
13045D
  0
LINE
  5
13045E
  8
OBJECT
 10
237.99999999999881
 20
-575.00000000000364
 30
0.0
 11
237.99999999999881
 21
-572.00000000000455
 31
0.0
1001
ACDBBLOCKREPETAG
1070
     1
1071
       53
1005
13045E
  0
ARC
  5
13045F
  8
OBJECT
 10
234.99999999999881
 20
-572.00000000000455
 30
0.0
 40
3.0
 50
0.0
 51
90.0
1001
ACDBBLOCKREPETAG
1070
     1
1071
       54
1005
13045F
  0
LINE
  5
130460
  8
OBJECT
 10
234.99999999999881
 20
-569.00000000000455
 30
0.0
 11
116.99999999999871
 21
-569.00000000000273
 31
0.0
1001
ACDBBLOCKREPETAG
1070
     1
1071
       55
1005
130460
  0
LINE
  5
130461
  8
HIDDEN
 10
131.49999999999869
 20
-567.00000000000364
 30
0.0
 11
220.49999999999881
 21
-567.00000000000364
 31
0.0
1001
ACDBBLOCKREPETAG
1070
     1
1071
      426
1005
130461
  0
LINE
  5
130462
  8
OBJECT
 10
234.99999999999881
 20
-741.00000000000352
 30
0.0
 11
116.99999999999871
 21
-741.00000000000352
 31
0.0
1001
ACDBBLOCKREPETAG
1070
     1
1071
      323
1005
130462
  0
LINE
  5
130463
  8
OBJECT
 10
131.49999999999869
 20
-765.00000000000341
 30
0.0
 11
220.49999999999881
 21
-765.00000000000341
 31
0.0
1001
ACDBBLOCKREPETAG
1070
     1
1071
      324
1005
130463
  0
LINE
  5
130464
  8
OBJECT
 10
131.49999999999869
 20
-765.00000000000341
 30
0.0
 11
131.49999999999869
 21
-741.00000000000352
 31
0.0
1001
ACDBBLOCKREPETAG
1070
     1
1071
      325
1005
130464
  0
LINE
  5
130465
  8
OBJECT
 10
113.99999999999881
 20
-735.00000000000352
 30
0.0
 11
113.99999999999881
 21
-738.00000000000352
 31
0.0
1001
ACDBBLOCKREPETAG
1070
     1
1071
      326
1005
130465
  0
ARC
  5
130466
  8
OBJECT
 10
116.99999999999871
 20
-738.00000000000352
 30
0.0
 40
3.0
 50
180.0
 51
270.0
1001
ACDBBLOCKREPETAG
1070
     1
1071
      327
1005
130466
  0
LINE
  5
130467
  8
OBJECT
 10
193.8220659999993
 20
-765.00000000000341
 30
0.0
 11
198.1031819999977
 21
-768.83118900000409
 31
0.0
1001
ACDBBLOCKREPETAG
1070
     1
1071
      328
1005
130467
  0
ARC
  5
130468
  8
OBJECT
 10
192.99999999999869
 20
-775.00000000000352
 30
0.0
 40
8.0
 50
251.8416470000376
 51
50.402247000018619
1001
ACDBBLOCKREPETAG
1070
     1
1071
      329
1005
130468
  0
ARC
  5
130469
  8
OBJECT
 10
192.06506699999829
 20
-777.8505970000042
 30
0.0
 40
5.0
 50
198.48486900007191
 51
251.8416470000376
1001
ACDBBLOCKREPETAG
1070
     1
1071
      330
1005
130469
  0
LINE
  5
13046A
  8
OBJECT
 10
180.99999999999881
 20
-775.00000000000352
 30
0.0
 11
180.99999999999881
 21
-768.00000000000352
 31
0.0
1001
ACDBBLOCKREPETAG
1070
     1
1071
      331
1005
13046A
  0
LINE
  5
13046B
  8
OBJECT
 10
170.99999999999869
 20
-775.00000000000352
 30
0.0
 11
170.99999999999869
 21
-768.00000000000352
 31
0.0
1001
ACDBBLOCKREPETAG
1070
     1
1071
      332
1005
13046B
  0
LINE
  5
13046C
  8
OBJECT
 10
180.99999999999881
 20
-775.00000000000352
 30
0.0
 11
170.99999999999869
 21
-775.00000000000352
 31
0.0
1001
ACDBBLOCKREPETAG
1070
     1
1071
      333
1005
13046C
  0
LINE
  5
13046D
  8
OBJECT
 10
183.49999999999881
 20
-768.00000000000352
 30
0.0
 11
168.49999999999881
 21
-768.00000000000352
 31
0.0
1001
ACDBBLOCKREPETAG
1070
     1
1071
      334
1005
13046D
  0
LINE
  5
13046E
  8
OBJECT
 10
167.74999999999869
 20
-765.00000000000341
 30
0.0
 11
168.49999999999881
 21
-768.00000000000352
 31
0.0
1001
ACDBBLOCKREPETAG
1070
     1
1071
      335
1005
13046E
  0
LINE
  5
13046F
  8
OBJECT
 10
158.17793299999781
 20
-765.00000000000341
 30
0.0
 11
153.89681799999801
 21
-768.83118900000409
 31
0.0
1001
ACDBBLOCKREPETAG
1070
     1
1071
      336
1005
13046F
  0
LINE
  5
130470
  8
OBJECT
 10
184.24999999999869
 20
-765.00000000000341
 30
0.0
 11
183.49999999999881
 21
-768.00000000000352
 31
0.0
1001
ACDBBLOCKREPETAG
1070
     1
1071
      337
1005
130470
  0
ARC
  5
130471
  8
OBJECT
 10
158.99999999999881
 20
-775.00000000000352
 30
0.0
 40
8.0
 50
129.5977529999814
 51
288.1583529999624
1001
ACDBBLOCKREPETAG
1070
     1
1071
      338
1005
130471
  0
ARC
  5
130472
  8
OBJECT
 10
159.93493299999921
 20
-777.8505970000042
 30
0.0
 40
5.0
 50
288.1583529999624
 51
341.51513099992798
1001
ACDBBLOCKREPETAG
1070
     1
1071
      339
1005
130472
  0
LINE
  5
130473
  8
OBJECT
 10
164.67696999999919
 20
-779.43586800000412
 30
0.0
 11
168.49999999999881
 21
-768.00000000000352
 31
0.0
1001
ACDBBLOCKREPETAG
1070
     1
1071
      340
1005
130473
  0
LINE
  5
130474
  8
OBJECT
 10
187.32302999999831
 20
-779.43586800000412
 30
0.0
 11
183.49999999999881
 21
-768.00000000000352
 31
0.0
1001
ACDBBLOCKREPETAG
1070
     1
1071
      341
1005
130474
  0
ARC
  5
130475
  8
OBJECT
 10
234.99999999999881
 20
-738.00000000000352
 30
0.0
 40
3.0
 50
270.0
 51
0.0
1001
ACDBBLOCKREPETAG
1070
     1
1071
      342
1005
130475
  0
LINE
  5
130476
  8
OBJECT
 10
237.99999999999881
 20
-735.00000000000352
 30
0.0
 11
237.99999999999881
 21
-738.00000000000352
 31
0.0
1001
ACDBBLOCKREPETAG
1070
     1
1071
      343
1005
130476
  0
LINE
  5
130477
  8
OBJECT
 10
220.49999999999881
 20
-765.00000000000341
 30
0.0
 11
220.49999999999881
 21
-741.00000000000352
 31
0.0
1001
ACDBBLOCKREPETAG
1070
     1
1071
      344
1005
130477
  0
INSERT
  5
130478
  8
OBJECT
  2
*U204
 10
0.0
 20
0.0
 30
0.0
  0
LINE
  5
130479
  8
OBJECT
 10
258.99999999999869
 20
-717.00000000000364
 30
0.0
 11
255.99999999999881
 21
-717.00000000000364
 31
0.0
1001
ACDBBLOCKREPETAG
1070
     1
1071
      418
1005
130479
  0
ARC
  5
13047A
  8
OBJECT
 10
258.99999999999869
 20
-714.00000000000364
 30
0.0
 40
3.0
 50
270.0
 51
0.0
1001
ACDBBLOCKREPETAG
1070
     1
1071
      419
1005
13047A
  0
LINE
  5
13047B
  8
OBJECT
 10
255.99999999999881
 20
-593.00000000000364
 30
0.0
 11
258.99999999999869
 21
-593.00000000000364
 31
0.0
1001
ACDBBLOCKREPETAG
1070
     1
1071
      420
1005
13047B
  0
ARC
  5
13047C
  8
OBJECT
 10
258.99999999999869
 20
-596.00000000000364
 30
0.0
 40
3.0
 50
0.0
 51
90.0
1001
ACDBBLOCKREPETAG
1070
     1
1071
      421
1005
13047C
  0
LINE
  5
13047D
  8
OBJECT
 10
261.99999999999881
 20
-596.00000000000364
 30
0.0
 11
261.99999999999881
 21
-714.00000000000364
 31
0.0
1001
ACDBBLOCKREPETAG
1070
     1
1071
      422
1005
13047D
  0
INSERT
  5
13047E
  8
OBJECT
  2
*U205
 10
0.0
 20
0.0
 30
0.0
  0
LINE
  5
13047F
  8
OBJECT
 10
480.99999999999858
 20
-58.000000000003631
 30
0.0
 11
480.99999999999858
 21
-51.000000000003631
 31
0.0
1001
ACDBBLOCKREPETAG
1070
     1
1071
       20
1005
13047F
  0
LINE
  5
130480
  8
OBJECT
 10
480.99999999999858
 20
-51.000000000003631
 30
0.0
 11
590.99999999999875
 21
-51.000000000003631
 31
0.0
1001
ACDBBLOCKREPETAG
1070
     1
1071
       21
1005
130480
  0
LINE
  5
130481
  8
OBJECT
 10
590.99999999999875
 20
-51.000000000003631
 30
0.0
 11
590.99999999999875
 21
-58.000000000003631
 31
0.0
1001
ACDBBLOCKREPETAG
1070
     1
1071
       22
1005
130481
  0
LINE
  5
130482
  8
OBJECT
 10
590.99999999999875
 20
-58.000000000003631
 30
0.0
 11
480.99999999999858
 21
-58.000000000003631
 31
0.0
1001
ACDBBLOCKREPETAG
1070
     1
1071
       23
1005
130482
  0
LINE
  5
130483
  8
OBJECT
 10
483.99999999999858
 20
-58.000000000003631
 30
0.0
 11
483.99999999999858
 21
-94.000000000003638
 31
0.0
1001
ACDBBLOCKREPETAG
1070
     1
1071
       24
1005
130483
  0
LINE
  5
130484
  8
OBJECT
 10
483.99999999999858
 20
-94.000000000003638
 30
0.0
 11
587.99999999999875
 21
-94.000000000003638
 31
0.0
1001
ACDBBLOCKREPETAG
1070
     1
1071
       25
1005
130484
  0
LINE
  5
130485
  8
OBJECT
 10
587.99999999999875
 20
-94.000000000003638
 30
0.0
 11
587.99999999999875
 21
-58.000000000003631
 31
0.0
1001
ACDBBLOCKREPETAG
1070
     1
1071
       26
1005
130485
  0
LINE
  5
130486
  8
OBJECT
 10
488.49999999999858
 20
-98.000000000003638
 30
0.0
 11
488.49999999999858
 21
-105.0000000000036
 31
0.0
1001
ACDBBLOCKREPETAG
1070
     1
1071
       27
1005
130486
  0
LINE
  5
130487
  8
OBJECT
 10
583.49999999999875
 20
-105.0000000000036
 30
0.0
 11
583.49999999999875
 21
-98.000000000003638
 31
0.0
1001
ACDBBLOCKREPETAG
1070
     1
1071
       28
1005
130487
  0
LINE
  5
130488
  8
OBJECT
 10
583.49999999999875
 20
-98.000000000003638
 30
0.0
 11
488.49999999999858
 21
-98.000000000003638
 31
0.0
1001
ACDBBLOCKREPETAG
1070
     1
1071
       29
1005
130488
  0
LINE
  5
130489
  8
OBJECT
 10
483.99999999999858
 20
-94.000000000003638
 30
0.0
 11
488.49999999999858
 21
-98.000000000003638
 31
0.0
1001
ACDBBLOCKREPETAG
1070
     1
1071
       30
1005
130489
  0
LINE
  5
13048A
  8
OBJECT
 10
587.99999999999875
 20
-94.000000000003638
 30
0.0
 11
583.49999999999875
 21
-98.000000000003638
 31
0.0
1001
ACDBBLOCKREPETAG
1070
     1
1071
       31
1005
13048A
  0
LINE
  5
13048B
  8
OBJECT
 10
473.99999999999858
 20
-108.0000000000027
 30
0.0
 11
473.99999999999858
 21
-111.0000000000036
 31
0.0
1001
ACDBBLOCKREPETAG
1070
     1
1071
       32
1005
13048B
  0
ARC
  5
13048C
  8
OBJECT
 10
476.99999999999881
 20
-108.0000000000027
 30
0.0
 40
3.0
 50
90.0
 51
180.0
1001
ACDBBLOCKREPETAG
1070
     1
1071
       33
1005
13048C
  0
LINE
  5
13048D
  8
OBJECT
 10
597.99999999999875
 20
-111.0000000000036
 30
0.0
 11
597.99999999999875
 21
-108.0000000000045
 31
0.0
1001
ACDBBLOCKREPETAG
1070
     1
1071
       34
1005
13048D
  0
ARC
  5
13048E
  8
OBJECT
 10
594.99999999999875
 20
-108.0000000000045
 30
0.0
 40
3.0
 50
0.0
 51
90.0
1001
ACDBBLOCKREPETAG
1070
     1
1071
       35
1005
13048E
  0
LINE
  5
13048F
  8
OBJECT
 10
594.99999999999875
 20
-105.0000000000045
 30
0.0
 11
476.99999999999881
 21
-105.0000000000027
 31
0.0
1001
ACDBBLOCKREPETAG
1070
     1
1071
       36
1005
13048F
  0
LINE
  5
130490
  8
HIDDEN
 10
497.99999999999858
 20
-103.0000000000035
 30
0.0
 11
573.99999999999875
 21
-103.0000000000035
 31
0.0
1001
ACDBBLOCKREPETAG
1070
     1
1071
      423
1005
130490
  0
LINE
  5
130491
  8
OBJECT
 10
594.99999999999875
 20
-277.00000000000358
 30
0.0
 11
476.99999999999881
 21
-277.00000000000358
 31
0.0
1001
ACDBBLOCKREPETAG
1070
     1
1071
      323
1005
130491
  0
LINE
  5
130492
  8
OBJECT
 10
491.49999999999858
 20
-301.00000000000369
 30
0.0
 11
580.49999999999875
 21
-301.00000000000369
 31
0.0
1001
ACDBBLOCKREPETAG
1070
     1
1071
      324
1005
130492
  0
LINE
  5
130493
  8
OBJECT
 10
491.49999999999858
 20
-301.00000000000369
 30
0.0
 11
491.49999999999858
 21
-277.00000000000358
 31
0.0
1001
ACDBBLOCKREPETAG
1070
     1
1071
      325
1005
130493
  0
LINE
  5
130494
  8
OBJECT
 10
473.99999999999858
 20
-271.00000000000358
 30
0.0
 11
473.99999999999858
 21
-274.00000000000369
 31
0.0
1001
ACDBBLOCKREPETAG
1070
     1
1071
      326
1005
130494
  0
ARC
  5
130495
  8
OBJECT
 10
476.99999999999881
 20
-274.00000000000369
 30
0.0
 40
3.0
 50
180.0
 51
270.0
1001
ACDBBLOCKREPETAG
1070
     1
1071
      327
1005
130495
  0
LINE
  5
130496
  8
OBJECT
 10
553.82206599999938
 20
-301.00000000000369
 30
0.0
 11
558.10318199999756
 21
-304.83118900000397
 31
0.0
1001
ACDBBLOCKREPETAG
1070
     1
1071
      328
1005
130496
  0
ARC
  5
130497
  8
OBJECT
 10
552.99999999999875
 20
-311.00000000000358
 30
0.0
 40
8.0
 50
251.8416470000376
 51
50.402247000016089
1001
ACDBBLOCKREPETAG
1070
     1
1071
      329
1005
130497
  0
ARC
  5
130498
  8
OBJECT
 10
552.06506699999829
 20
-313.8505970000042
 30
0.0
 40
5.0
 50
198.4848690000708
 51
251.8416470000376
1001
ACDBBLOCKREPETAG
1070
     1
1071
      330
1005
130498
  0
LINE
  5
130499
  8
OBJECT
 10
540.99999999999875
 20
-311.00000000000358
 30
0.0
 11
540.99999999999875
 21
-304.00000000000358
 31
0.0
1001
ACDBBLOCKREPETAG
1070
     1
1071
      331
1005
130499
  0
LINE
  5
13049A
  8
OBJECT
 10
530.99999999999875
 20
-311.00000000000358
 30
0.0
 11
530.99999999999875
 21
-304.00000000000358
 31
0.0
1001
ACDBBLOCKREPETAG
1070
     1
1071
      332
1005
13049A
  0
LINE
  5
13049B
  8
OBJECT
 10
540.99999999999875
 20
-311.00000000000358
 30
0.0
 11
530.99999999999875
 21
-311.00000000000358
 31
0.0
1001
ACDBBLOCKREPETAG
1070
     1
1071
      333
1005
13049B
  0
LINE
  5
13049C
  8
OBJECT
 10
543.49999999999875
 20
-304.00000000000358
 30
0.0
 11
528.49999999999875
 21
-304.00000000000358
 31
0.0
1001
ACDBBLOCKREPETAG
1070
     1
1071
      334
1005
13049C
  0
LINE
  5
13049D
  8
OBJECT
 10
527.74999999999875
 20
-301.00000000000369
 30
0.0
 11
528.49999999999875
 21
-304.00000000000358
 31
0.0
1001
ACDBBLOCKREPETAG
1070
     1
1071
      335
1005
13049D
  0
LINE
  5
13049E
  8
OBJECT
 10
518.17793299999778
 20
-301.00000000000369
 30
0.0
 11
513.89681799999801
 21
-304.83118900000397
 31
0.0
1001
ACDBBLOCKREPETAG
1070
     1
1071
      336
1005
13049E
  0
LINE
  5
13049F
  8
OBJECT
 10
544.24999999999875
 20
-301.00000000000369
 30
0.0
 11
543.49999999999875
 21
-304.00000000000358
 31
0.0
1001
ACDBBLOCKREPETAG
1070
     1
1071
      337
1005
13049F
  0
ARC
  5
1304A0
  8
OBJECT
 10
518.99999999999875
 20
-311.00000000000358
 30
0.0
 40
8.0
 50
129.5977529999839
 51
288.1583529999624
1001
ACDBBLOCKREPETAG
1070
     1
1071
      338
1005
1304A0
  0
ARC
  5
1304A1
  8
OBJECT
 10
519.93493299999921
 20
-313.8505970000042
 30
0.0
 40
5.0
 50
288.1583529999624
 51
341.51513099992923
1001
ACDBBLOCKREPETAG
1070
     1
1071
      339
1005
1304A1
  0
LINE
  5
1304A2
  8
OBJECT
 10
524.67696999999907
 20
-315.43586800000401
 30
0.0
 11
528.49999999999875
 21
-304.00000000000358
 31
0.0
1001
ACDBBLOCKREPETAG
1070
     1
1071
      340
1005
1304A2
  0
LINE
  5
1304A3
  8
OBJECT
 10
547.32302999999831
 20
-315.43586800000401
 30
0.0
 11
543.49999999999875
 21
-304.00000000000358
 31
0.0
1001
ACDBBLOCKREPETAG
1070
     1
1071
      341
1005
1304A3
  0
ARC
  5
1304A4
  8
OBJECT
 10
594.99999999999875
 20
-274.00000000000369
 30
0.0
 40
3.0
 50
270.0
 51
0.0
1001
ACDBBLOCKREPETAG
1070
     1
1071
      342
1005
1304A4
  0
LINE
  5
1304A5
  8
OBJECT
 10
597.99999999999875
 20
-271.00000000000358
 30
0.0
 11
597.99999999999875
 21
-274.00000000000369
 31
0.0
1001
ACDBBLOCKREPETAG
1070
     1
1071
      343
1005
1304A5
  0
LINE
  5
1304A6
  8
OBJECT
 10
580.49999999999875
 20
-301.00000000000369
 30
0.0
 11
580.49999999999875
 21
-277.00000000000358
 31
0.0
1001
ACDBBLOCKREPETAG
1070
     1
1071
      344
1005
1304A6
  0
INSERT
  5
1304A7
  8
OBJECT
  2
*U206
 10
0.0
 20
0.0
 30
0.0
  0
LINE
  5
1304A8
  8
OBJECT
 10
618.99999999999875
 20
-253.00000000000361
 30
0.0
 11
615.99999999999875
 21
-253.00000000000361
 31
0.0
1001
ACDBBLOCKREPETAG
1070
     1
1071
      418
1005
1304A8
  0
ARC
  5
1304A9
  8
OBJECT
 10
618.99999999999875
 20
-250.00000000000361
 30
0.0
 40
3.0
 50
270.0
 51
0.0
1001
ACDBBLOCKREPETAG
1070
     1
1071
      419
1005
1304A9
  0
LINE
  5
1304AA
  8
OBJECT
 10
615.99999999999875
 20
-129.00000000000361
 30
0.0
 11
618.99999999999875
 21
-129.00000000000361
 31
0.0
1001
ACDBBLOCKREPETAG
1070
     1
1071
      420
1005
1304AA
  0
ARC
  5
1304AB
  8
OBJECT
 10
618.99999999999875
 20
-132.00000000000361
 30
0.0
 40
3.0
 50
0.0
 51
90.0
1001
ACDBBLOCKREPETAG
1070
     1
1071
      421
1005
1304AB
  0
LINE
  5
1304AC
  8
OBJECT
 10
621.99999999999875
 20
-132.00000000000361
 30
0.0
 11
621.99999999999875
 21
-250.00000000000361
 31
0.0
1001
ACDBBLOCKREPETAG
1070
     1
1071
      422
1005
1304AC
  0
INSERT
  5
1304AD
  8
OBJECT
  2
*U207
 10
0.0
 20
0.0
 30
0.0
  0
LINE
  5
1304AE
  8
OBJECT
 10
128.99999999999881
 20
-58.000000000003631
 30
0.0
 11
128.99999999999881
 21
-51.000000000003631
 31
0.0
1001
ACDBBLOCKREPETAG
1070
     1
1071
        1
1005
1304AE
  0
LINE
  5
1304AF
  8
OBJECT
 10
128.99999999999881
 20
-51.000000000003631
 30
0.0
 11
222.99999999999881
 21
-51.000000000003631
 31
0.0
1001
ACDBBLOCKREPETAG
1070
     1
1071
        2
1005
1304AF
  0
LINE
  5
1304B0
  8
OBJECT
 10
222.99999999999881
 20
-51.000000000003631
 30
0.0
 11
222.99999999999881
 21
-58.000000000003631
 31
0.0
1001
ACDBBLOCKREPETAG
1070
     1
1071
        3
1005
1304B0
  0
LINE
  5
1304B1
  8
OBJECT
 10
222.99999999999881
 20
-58.000000000003631
 30
0.0
 11
128.99999999999881
 21
-58.000000000003631
 31
0.0
1001
ACDBBLOCKREPETAG
1070
     1
1071
        4
1005
1304B1
  0
LINE
  5
1304B2
  8
OBJECT
 10
131.99999999999881
 20
-58.000000000003631
 30
0.0
 11
131.99999999999881
 21
-94.000000000003638
 31
0.0
1001
ACDBBLOCKREPETAG
1070
     1
1071
        5
1005
1304B2
  0
LINE
  5
1304B3
  8
OBJECT
 10
131.99999999999881
 20
-94.000000000003638
 30
0.0
 11
219.99999999999881
 21
-94.000000000003638
 31
0.0
1001
ACDBBLOCKREPETAG
1070
     1
1071
        6
1005
1304B3
  0
LINE
  5
1304B4
  8
OBJECT
 10
219.99999999999881
 20
-94.000000000003638
 30
0.0
 11
219.99999999999881
 21
-58.000000000003631
 31
0.0
1001
ACDBBLOCKREPETAG
1070
     1
1071
        7
1005
1304B4
  0
LINE
  5
1304B5
  8
OBJECT
 10
136.49999999999881
 20
-98.000000000003638
 30
0.0
 11
136.49999999999881
 21
-105.0000000000036
 31
0.0
1001
ACDBBLOCKREPETAG
1070
     1
1071
        8
1005
1304B5
  0
LINE
  5
1304B6
  8
OBJECT
 10
215.49999999999881
 20
-105.0000000000036
 30
0.0
 11
215.49999999999881
 21
-98.000000000003638
 31
0.0
1001
ACDBBLOCKREPETAG
1070
     1
1071
        9
1005
1304B6
  0
LINE
  5
1304B7
  8
OBJECT
 10
215.49999999999881
 20
-98.000000000003638
 30
0.0
 11
136.49999999999881
 21
-98.000000000003638
 31
0.0
1001
ACDBBLOCKREPETAG
1070
     1
1071
       10
1005
1304B7
  0
LINE
  5
1304B8
  8
OBJECT
 10
131.99999999999881
 20
-94.000000000003638
 30
0.0
 11
136.49999999999881
 21
-98.000000000003638
 31
0.0
1001
ACDBBLOCKREPETAG
1070
     1
1071
       11
1005
1304B8
  0
LINE
  5
1304B9
  8
OBJECT
 10
219.99999999999881
 20
-94.000000000003638
 30
0.0
 11
215.49999999999881
 21
-98.000000000003638
 31
0.0
1001
ACDBBLOCKREPETAG
1070
     1
1071
       12
1005
1304B9
  0
LINE
  5
1304BA
  8
OBJECT
 10
113.99999999999881
 20
-108.0000000000027
 30
0.0
 11
113.99999999999881
 21
-111.0000000000036
 31
0.0
1001
ACDBBLOCKREPETAG
1070
     1
1071
       13
1005
1304BA
  0
ARC
  5
1304BB
  8
OBJECT
 10
116.99999999999871
 20
-108.0000000000027
 30
0.0
 40
3.0
 50
90.0
 51
180.0
1001
ACDBBLOCKREPETAG
1070
     1
1071
       14
1005
1304BB
  0
LINE
  5
1304BC
  8
OBJECT
 10
237.99999999999881
 20
-111.0000000000036
 30
0.0
 11
237.99999999999881
 21
-108.0000000000045
 31
0.0
1001
ACDBBLOCKREPETAG
1070
     1
1071
       15
1005
1304BC
  0
ARC
  5
1304BD
  8
OBJECT
 10
234.99999999999881
 20
-108.0000000000045
 30
0.0
 40
3.0
 50
0.0
 51
90.0
1001
ACDBBLOCKREPETAG
1070
     1
1071
       16
1005
1304BD
  0
LINE
  5
1304BE
  8
OBJECT
 10
234.99999999999881
 20
-105.0000000000045
 30
0.0
 11
116.99999999999871
 21
-105.0000000000027
 31
0.0
1001
ACDBBLOCKREPETAG
1070
     1
1071
       17
1005
1304BE
  0
LINE
  5
1304BF
  8
HIDDEN
 10
145.99999999999869
 20
-103.0000000000035
 30
0.0
 11
205.99999999999881
 21
-103.0000000000035
 31
0.0
1001
ACDBBLOCKREPETAG
1070
     1
1071
      420
1005
1304BF
  0
LINE
  5
1304C0
  8
OBJECT
 10
234.99999999999881
 20
-277.00000000000358
 30
0.0
 11
116.99999999999871
 21
-277.00000000000358
 31
0.0
1001
ACDBBLOCKREPETAG
1070
     1
1071
      323
1005
1304C0
  0
LINE
  5
1304C1
  8
OBJECT
 10
131.49999999999869
 20
-301.00000000000369
 30
0.0
 11
220.49999999999881
 21
-301.00000000000369
 31
0.0
1001
ACDBBLOCKREPETAG
1070
     1
1071
      324
1005
1304C1
  0
LINE
  5
1304C2
  8
OBJECT
 10
131.49999999999869
 20
-301.00000000000369
 30
0.0
 11
131.49999999999869
 21
-277.00000000000358
 31
0.0
1001
ACDBBLOCKREPETAG
1070
     1
1071
      325
1005
1304C2
  0
LINE
  5
1304C3
  8
OBJECT
 10
113.99999999999881
 20
-271.00000000000358
 30
0.0
 11
113.99999999999881
 21
-274.00000000000369
 31
0.0
1001
ACDBBLOCKREPETAG
1070
     1
1071
      326
1005
1304C3
  0
ARC
  5
1304C4
  8
OBJECT
 10
116.99999999999871
 20
-274.00000000000369
 30
0.0
 40
3.0
 50
180.0
 51
270.0
1001
ACDBBLOCKREPETAG
1070
     1
1071
      327
1005
1304C4
  0
LINE
  5
1304C5
  8
OBJECT
 10
193.8220659999993
 20
-301.00000000000369
 30
0.0
 11
198.1031819999977
 21
-304.83118900000397
 31
0.0
1001
ACDBBLOCKREPETAG
1070
     1
1071
      328
1005
1304C5
  0
ARC
  5
1304C6
  8
OBJECT
 10
192.99999999999869
 20
-311.00000000000358
 30
0.0
 40
8.0
 50
251.8416470000376
 51
50.402247000018619
1001
ACDBBLOCKREPETAG
1070
     1
1071
      329
1005
1304C6
  0
ARC
  5
1304C7
  8
OBJECT
 10
192.06506699999829
 20
-313.8505970000042
 30
0.0
 40
5.0
 50
198.48486900007191
 51
251.8416470000376
1001
ACDBBLOCKREPETAG
1070
     1
1071
      330
1005
1304C7
  0
LINE
  5
1304C8
  8
OBJECT
 10
180.99999999999881
 20
-311.00000000000358
 30
0.0
 11
180.99999999999881
 21
-304.00000000000358
 31
0.0
1001
ACDBBLOCKREPETAG
1070
     1
1071
      331
1005
1304C8
  0
LINE
  5
1304C9
  8
OBJECT
 10
170.99999999999869
 20
-311.00000000000358
 30
0.0
 11
170.99999999999869
 21
-304.00000000000358
 31
0.0
1001
ACDBBLOCKREPETAG
1070
     1
1071
      332
1005
1304C9
  0
LINE
  5
1304CA
  8
OBJECT
 10
180.99999999999881
 20
-311.00000000000358
 30
0.0
 11
170.99999999999869
 21
-311.00000000000358
 31
0.0
1001
ACDBBLOCKREPETAG
1070
     1
1071
      333
1005
1304CA
  0
LINE
  5
1304CB
  8
OBJECT
 10
183.49999999999881
 20
-304.00000000000358
 30
0.0
 11
168.49999999999881
 21
-304.00000000000358
 31
0.0
1001
ACDBBLOCKREPETAG
1070
     1
1071
      334
1005
1304CB
  0
LINE
  5
1304CC
  8
OBJECT
 10
167.74999999999869
 20
-301.00000000000369
 30
0.0
 11
168.49999999999881
 21
-304.00000000000358
 31
0.0
1001
ACDBBLOCKREPETAG
1070
     1
1071
      335
1005
1304CC
  0
LINE
  5
1304CD
  8
OBJECT
 10
158.17793299999781
 20
-301.00000000000369
 30
0.0
 11
153.89681799999801
 21
-304.83118900000397
 31
0.0
1001
ACDBBLOCKREPETAG
1070
     1
1071
      336
1005
1304CD
  0
LINE
  5
1304CE
  8
OBJECT
 10
184.24999999999869
 20
-301.00000000000369
 30
0.0
 11
183.49999999999881
 21
-304.00000000000358
 31
0.0
1001
ACDBBLOCKREPETAG
1070
     1
1071
      337
1005
1304CE
  0
ARC
  5
1304CF
  8
OBJECT
 10
158.99999999999881
 20
-311.00000000000358
 30
0.0
 40
8.0
 50
129.5977529999814
 51
288.1583529999624
1001
ACDBBLOCKREPETAG
1070
     1
1071
      338
1005
1304CF
  0
ARC
  5
1304D0
  8
OBJECT
 10
159.93493299999921
 20
-313.8505970000042
 30
0.0
 40
5.0
 50
288.1583529999624
 51
341.51513099992798
1001
ACDBBLOCKREPETAG
1070
     1
1071
      339
1005
1304D0
  0
LINE
  5
1304D1
  8
OBJECT
 10
164.67696999999919
 20
-315.43586800000401
 30
0.0
 11
168.49999999999881
 21
-304.00000000000358
 31
0.0
1001
ACDBBLOCKREPETAG
1070
     1
1071
      340
1005
1304D1
  0
LINE
  5
1304D2
  8
OBJECT
 10
187.32302999999831
 20
-315.43586800000401
 30
0.0
 11
183.49999999999881
 21
-304.00000000000358
 31
0.0
1001
ACDBBLOCKREPETAG
1070
     1
1071
      341
1005
1304D2
  0
ARC
  5
1304D3
  8
OBJECT
 10
234.99999999999881
 20
-274.00000000000369
 30
0.0
 40
3.0
 50
270.0
 51
0.0
1001
ACDBBLOCKREPETAG
1070
     1
1071
      342
1005
1304D3
  0
LINE
  5
1304D4
  8
OBJECT
 10
237.99999999999881
 20
-271.00000000000358
 30
0.0
 11
237.99999999999881
 21
-274.00000000000369
 31
0.0
1001
ACDBBLOCKREPETAG
1070
     1
1071
      343
1005
1304D4
  0
LINE
  5
1304D5
  8
OBJECT
 10
220.49999999999881
 20
-301.00000000000369
 30
0.0
 11
220.49999999999881
 21
-277.00000000000358
 31
0.0
1001
ACDBBLOCKREPETAG
1070
     1
1071
      344
1005
1304D5
  0
INSERT
  5
1304D6
  8
OBJECT
  2
*U208
 10
0.0
 20
0.0
 30
0.0
  0
LINE
  5
1304D7
  8
OBJECT
 10
258.99999999999869
 20
-253.00000000000361
 30
0.0
 11
255.99999999999881
 21
-253.00000000000361
 31
0.0
1001
ACDBBLOCKREPETAG
1070
     1
1071
      418
1005
1304D7
  0
ARC
  5
1304D8
  8
OBJECT
 10
258.99999999999869
 20
-250.00000000000361
 30
0.0
 40
3.0
 50
270.0
 51
0.0
1001
ACDBBLOCKREPETAG
1070
     1
1071
      419
1005
1304D8
  0
LINE
  5
1304D9
  8
OBJECT
 10
255.99999999999881
 20
-129.00000000000361
 30
0.0
 11
258.99999999999869
 21
-129.00000000000361
 31
0.0
1001
ACDBBLOCKREPETAG
1070
     1
1071
      420
1005
1304D9
  0
ARC
  5
1304DA
  8
OBJECT
 10
258.99999999999869
 20
-132.00000000000361
 30
0.0
 40
3.0
 50
0.0
 51
90.0
1001
ACDBBLOCKREPETAG
1070
     1
1071
      421
1005
1304DA
  0
LINE
  5
1304DB
  8
OBJECT
 10
261.99999999999881
 20
-132.00000000000361
 30
0.0
 11
261.99999999999881
 21
-250.00000000000361
 31
0.0
1001
ACDBBLOCKREPETAG
1070
     1
1071
      422
1005
1304DB
  0
POLYLINE
  5
1304DC
  8
HIDDEN
 66
     1
 10
0.0
 20
0.0
 30
0.0
 70
     1
  0
VERTEX
  5
1312C1
  8
HIDDEN
 10
0.0
 20
0.0
 30
0.0
  0
VERTEX
  5
1312C2
  8
HIDDEN
 10
360.0
 20
0.0
 30
0.0
  0
VERTEX
  5
1312C3
  8
HIDDEN
 10
360.0
 20
-464.0
 30
0.0
  0
VERTEX
  5
1312C4
  8
HIDDEN
 10
0.0
 20
-464.0
 30
0.0
  0
SEQEND
  5
1312C5
  8
HIDDEN
  0
POLYLINE
  5
1304DD
  8
HIDDEN
 66
     1
 10
0.0
 20
0.0
 30
0.0
 70
     1
  0
VERTEX
  5
1312C6
  8
HIDDEN
 10
360.0
 20
0.0
 30
0.0
  0
VERTEX
  5
1312C7
  8
HIDDEN
 10
720.0
 20
0.0
 30
0.0
  0
VERTEX
  5
1312C8
  8
HIDDEN
 10
720.0
 20
-464.0
 30
0.0
  0
VERTEX
  5
1312C9
  8
HIDDEN
 10
360.0
 20
-464.0
 30
0.0
  0
SEQEND
  5
1312CA
  8
HIDDEN
  0
POLYLINE
  5
1304DE
  8
HIDDEN
 66
     1
 10
0.0
 20
0.0
 30
0.0
 70
     1
  0
VERTEX
  5
1312CB
  8
HIDDEN
 10
0.0
 20
-464.0
 30
0.0
  0
VERTEX
  5
1312CC
  8
HIDDEN
 10
360.0
 20
-464.0
 30
0.0
  0
VERTEX
  5
1312CD
  8
HIDDEN
 10
360.0
 20
-928.0
 30
0.0
  0
VERTEX
  5
1312CE
  8
HIDDEN
 10
0.0
 20
-928.0
 30
0.0
  0
SEQEND
  5
1312CF
  8
HIDDEN
  0
POLYLINE
  5
1304DF
  8
HIDDEN
 66
     1
 10
0.0
 20
0.0
 30
0.0
 70
     1
  0
VERTEX
  5
1312D0
  8
HIDDEN
 10
360.0
 20
-464.0
 30
0.0
  0
VERTEX
  5
1312D1
  8
HIDDEN
 10
720.0
 20
-464.0
 30
0.0
  0
VERTEX
  5
1312D2
  8
HIDDEN
 10
720.0
 20
-928.0
 30
0.0
  0
VERTEX
  5
1312D3
  8
HIDDEN
 10
360.0
 20
-928.0
 30
0.0
  0
SEQEND
  5
1312D4
  8
HIDDEN
  0
LINE
  5
1304E0
  8
OBJECT
 10
3923.0
 20
-570.99999999999955
 30
0.0
 11
3923.0
 21
-549.99999999999955
 31
0.0
1001
ACDBBLOCKREPETAG
1070
     1
1071
       36
1005
1304E0
  0
LINE
  5
1304E1
  8
OBJECT
 10
3923.0
 20
-549.99999999999955
 30
0.0
 11
4077.0
 21
-549.99999999999955
 31
0.0
1001
ACDBBLOCKREPETAG
1070
     1
1071
       37
1005
1304E1
  0
LINE
  5
1304E2
  8
HIDDEN
 10
3943.0
 20
-619.99999999999955
 30
0.0
 11
4057.0
 21
-619.99999999999955
 31
0.0
1001
ACDBBLOCKREPETAG
1070
     1
1071
       38
1005
1304E2
  0
LINE
  5
1304E3
  8
OBJECT
 10
4077.0
 20
-549.99999999999955
 30
0.0
 11
4077.0
 21
-570.99999999999955
 31
0.0
1001
ACDBBLOCKREPETAG
1070
     1
1071
       39
1005
1304E3
  0
LINE
  5
1304E4
  8
OBJECT
 10
4077.0
 20
-570.99999999999955
 30
0.0
 11
3923.0
 21
-570.99999999999955
 31
0.0
1001
ACDBBLOCKREPETAG
1070
     1
1071
       40
1005
1304E4
  0
LINE
  5
1304E5
  8
CENTER
 10
4000.0
 20
-534.99999999999955
 30
0.0
 11
4000.0
 21
-769.99999999999955
 31
0.0
1001
ACDBBLOCKREPETAG
1070
     1
1071
       41
1005
1304E5
  0
LINE
  5
1304E6
  8
OBJECT
 10
3928.0
 20
-570.99999999999955
 30
0.0
 11
3928.0
 21
-633.99999999999955
 31
0.0
1001
ACDBBLOCKREPETAG
1070
     1
1071
       42
1005
1304E6
  0
LINE
  5
1304E7
  8
OBJECT
 10
4072.0
 20
-633.99999999999955
 30
0.0
 11
4072.0
 21
-570.99999999999955
 31
0.0
1001
ACDBBLOCKREPETAG
1070
     1
1071
       43
1005
1304E7
  0
LINE
  5
1304E8
  8
OBJECT
 10
3920.0
 20
-757.99999999999955
 30
0.0
 11
4080.0
 21
-757.99999999999955
 31
0.0
1001
ACDBBLOCKREPETAG
1070
     1
1071
       44
1005
1304E8
  0
LINE
  5
1304E9
  8
OBJECT
 10
4080.0
 20
-633.99999999999955
 30
0.0
 11
3920.0
 21
-633.99999999999955
 31
0.0
1001
ACDBBLOCKREPETAG
1070
     1
1071
       45
1005
1304E9
  0
LINE
  5
1304EA
  8
OBJECT
 10
3920.0
 20
-757.99999999999955
 30
0.0
 11
3920.0
 21
-769.99999999999955
 31
0.0
1001
ACDBBLOCKREPETAG
1070
     1
1071
       46
1005
1304EA
  0
LINE
  5
1304EB
  8
OBJECT
 10
3920.0
 20
-769.99999999999955
 30
0.0
 11
4080.0
 21
-769.99999999999955
 31
0.0
1001
ACDBBLOCKREPETAG
1070
     1
1071
       47
1005
1304EB
  0
LINE
  5
1304EC
  8
OBJECT
 10
4080.0
 20
-769.99999999999955
 30
0.0
 11
4080.0
 21
-757.99999999999955
 31
0.0
1001
ACDBBLOCKREPETAG
1070
     1
1071
       48
1005
1304EC
  0
ARC
  5
1304ED
  8
OBJECT
 10
4200.6872746716726
 20
-749.40809941010718
 30
0.0
 40
170.6350503965856
 50
137.44134459184301
 51
149.91949581337221
1001
ACDBBLOCKREPETAG
1070
     1
1071
       52
1005
1304ED
  0
ARC
  5
1304EE
  8
OBJECT
 10
4200.6872746716726
 20
-642.59190058989179
 30
0.0
 40
170.6350503965856
 50
210.08050418662771
 51
222.55865540815699
1001
ACDBBLOCKREPETAG
1070
     1
1071
       53
1005
1304EE
  0
ARC
  5
1304EF
  8
OBJECT
 10
3799.3127253283278
 20
-749.40809941010718
 30
0.0
 40
170.6350503965856
 50
30.080504186774089
 51
42.558655408456282
1001
ACDBBLOCKREPETAG
1070
     1
1071
       54
1005
1304EF
  0
ARC
  5
1304F0
  8
OBJECT
 10
3799.3127253283278
 20
-642.59190058989179
 30
0.0
 40
170.6350503965856
 50
317.44134459154373
 51
329.91949581322592
1001
ACDBBLOCKREPETAG
1070
     1
1071
       55
1005
1304F0
  0
POINT
  5
1304F1
  8
DOTS
 10
4000.0
 20
-754.99999999999955
 30
0.0
1001
ACDBBLOCKREPETAG
1070
     1
1071
      184
1005
1304F1
  0
LINE
  5
1304F2
  8
SLIM
 10
3945.2566704261012
 20
-137.99999999999909
 30
0.0
 11
3955.9548403695781
 21
-127.30183005652231
 31
0.0
1001
GRADIENTCOLOR1ACI
1070
     5
1001
GRADIENTCOLOR2ACI
1070
     2
1001
ACAD
1010
0.0
1020
0.0
1030
0.0
1001
ACDBBLOCKREPETAG
1070
     1
1071
      422
1005
1304F2
  0
LINE
  5
1304F3
  8
SLIM
 10
3954.2369265471712
 20
-137.99999999999909
 30
0.0
 11
3972.7507744763329
 21
-119.4861520708364
 31
0.0
1001
GRADIENTCOLOR1ACI
1070
     5
1001
GRADIENTCOLOR2ACI
1070
     2
1001
ACAD
1010
0.0
1020
0.0
1030
0.0
1001
ACDBBLOCKREPETAG
1070
     1
1071
      423
1005
1304F3
  0
LINE
  5
1304F4
  8
SLIM
 10
3973.521224312457
 20
-127.6959583557812
 30
0.0
 11
3984.8575146748631
 21
-116.359667993377
 31
0.0
1001
GRADIENTCOLOR1ACI
1070
     5
1001
GRADIENTCOLOR2ACI
1070
     2
1001
ACAD
1010
0.0
1020
0.0
1030
0.0
1001
ACDBBLOCKREPETAG
1070
     1
1071
      424
1005
1304F4
  0
LINE
  5
1304F5
  8
SLIM
 10
3985.8944171461271
 20
-124.30302164318159
 30
0.0
 11
3995.0533812002559
 21
-115.1440575890517
 31
0.0
1001
GRADIENTCOLOR1ACI
1070
     5
1001
GRADIENTCOLOR2ACI
1070
     2
1001
ACAD
1010
0.0
1020
0.0
1030
0.0
1001
ACDBBLOCKREPETAG
1070
     1
1071
      425
1005
1304F5
  0
LINE
  5
1304F6
  8
SLIM
 10
3996.0777327492078
 20
-123.0999621611699
 30
0.0
 11
4000.0
 21
-119.1776949103767
 31
0.0
1001
GRADIENTCOLOR1ACI
1070
     5
1001
GRADIENTCOLOR2ACI
1070
     2
1001
ACAD
1010
0.0
1020
0.0
1030
0.0
1001
ACDBBLOCKREPETAG
1070
     1
1071
      426
1005
1304F6
  0
LINE
  5
1304F7
  8
SLIM
 10
4000.0
 20
-119.1776949103767
 30
0.0
 11
4004.0797313529042
 21
-115.0979635574724
 31
0.0
1001
GRADIENTCOLOR1ACI
1070
     5
1001
GRADIENTCOLOR2ACI
1070
     2
1001
ACAD
1010
0.0
1020
0.0
1030
0.0
1001
ACDBBLOCKREPETAG
1070
     1
1071
      427
1005
1304F7
  0
LINE
  5
1304F8
  8
SLIM
 10
4004.9957202542769
 20
-123.1622307771683
 30
0.0
 11
4012.2679784105749
 21
-115.88997262087101
 31
0.0
1001
GRADIENTCOLOR1ACI
1070
     5
1001
GRADIENTCOLOR2ACI
1070
     2
1001
ACAD
1010
0.0
1020
0.0
1030
0.0
1001
ACDBBLOCKREPETAG
1070
     1
1071
      428
1005
1304F8
  0
LINE
  5
1304F9
  8
SLIM
 10
4013.028059366964
 20
-124.1101477855505
 30
0.0
 11
4019.799941457361
 21
-117.3382656951526
 31
0.0
1001
GRADIENTCOLOR1ACI
1070
     5
1001
GRADIENTCOLOR2ACI
1070
     2
1001
ACAD
1010
0.0
1020
0.0
1030
0.0
1001
ACDBBLOCKREPETAG
1070
     1
1071
      429
1005
1304F9
  0
LINE
  5
1304FA
  8
SLIM
 10
4020.3740813142458
 20
-125.7443819593383
 30
0.0
 11
4026.7872038672799
 21
-119.3312594063044
 31
0.0
1001
GRADIENTCOLOR1ACI
1070
     5
1001
GRADIENTCOLOR2ACI
1070
     2
1001
ACAD
1010
0.0
1020
0.0
1030
0.0
1001
ACDBBLOCKREPETAG
1070
     1
1071
      430
1005
1304FA
  0
LINE
  5
1304FB
  8
SLIM
 10
4027.1524719988752
 20
-127.946247395778
 30
0.0
 11
4033.3030030760328
 21
-121.7957163186195
 31
0.0
1001
GRADIENTCOLOR1ACI
1070
     5
1001
GRADIENTCOLOR2ACI
1070
     2
1001
ACAD
1010
0.0
1020
0.0
1030
0.0
1001
ACDBBLOCKREPETAG
1070
     1
1071
      431
1005
1304FB
  0
LINE
  5
1304FC
  8
SLIM
 10
4033.4390986513308
 20
-130.63987686439191
 30
0.0
 11
4039.3973119843781
 21
-124.6816635313439
 31
0.0
1001
GRADIENTCOLOR1ACI
1070
     5
1001
GRADIENTCOLOR2ACI
1070
     2
1001
ACAD
1010
0.0
1020
0.0
1030
0.0
1001
ACDBBLOCKREPETAG
1070
     1
1071
      432
1005
1304FC
  0
LINE
  5
1304FD
  8
SLIM
 10
4039.284224621797
 20
-133.77500701499321
 30
0.0
 11
4045.1047705343681
 21
-127.95446110242381
 31
0.0
1001
GRADIENTCOLOR1ACI
1070
     5
1001
GRADIENTCOLOR2ACI
1070
     2
1001
ACAD
1010
0.0
1020
0.0
1030
0.0
1001
ACDBBLOCKREPETAG
1070
     1
1071
      433
1005
1304FD
  0
LINE
  5
1304FE
  8
SLIM
 10
4044.7212801698038
 20
-137.31820758805651
 30
0.0
 11
4050.4491557891961
 21
-131.59033196866449
 31
0.0
1001
GRADIENTCOLOR1ACI
1070
     5
1001
GRADIENTCOLOR2ACI
1070
     2
1001
ACAD
1010
0.0
1020
0.0
1030
0.0
1001
ACDBBLOCKREPETAG
1070
     1
1071
      434
1005
1304FE
  0
LINE
  5
1304FF
  8
SLIM
 10
4053.0197438789291
 20
-137.99999999999909
 30
0.0
 11
4055.4459941864038
 21
-135.57374969252561
 31
0.0
1001
GRADIENTCOLOR1ACI
1070
     5
1001
GRADIENTCOLOR2ACI
1070
     2
1001
ACAD
1010
0.0
1020
0.0
1030
0.0
1001
ACDBBLOCKREPETAG
1070
     1
1071
      435
1005
1304FF
  0
LINE
  5
130500
  8
CENTER
 10
4000.0
 20
-279.99999999999909
 30
0.0
 11
4000.0
 21
-99.999999999999091
 31
0.0
1001
ACDBBLOCKREPETAG
1070
     1
1071
      160
1005
130500
  0
CIRCLE
  5
130501
  8
OBJECT
 10
4000.0
 20
-199.99999999999909
 30
0.0
 40
70.0
1001
ACDBBLOCKREPETAG
1070
     1
1071
      161
1005
130501
  0
CIRCLE
  5
130502
  8
OBJECT
 10
4000.0
 20
-199.99999999999909
 30
0.0
 40
77.0
1001
ACDBBLOCKREPETAG
1070
     1
1071
      162
1005
130502
  0
LINE
  5
130503
  8
OBJECT
 10
4045.661800227324
 20
-137.99999999999909
 30
0.0
 11
4080.0
 21
-137.99999999999909
 31
0.0
1001
ACDBBLOCKREPETAG
1070
     1
1071
      164
1005
130503
  0
LINE
  5
130504
  8
OBJECT
 10
4062.0
 20
-261.99999999999909
 30
0.0
 11
4080.0
 21
-261.99999999999909
 31
0.0
1001
ACDBBLOCKREPETAG
1070
     1
1071
      165
1005
130504
  0
LINE
  5
130505
  8
OBJECT
 10
4062.0
 20
-261.99999999999909
 30
0.0
 11
4062.0
 21
-279.99999999999909
 31
0.0
1001
ACDBBLOCKREPETAG
1070
     1
1071
      167
1005
130505
  0
LINE
  5
130506
  8
OBJECT
 10
3938.0
 20
-261.99999999999909
 30
0.0
 11
3938.0
 21
-279.99999999999909
 31
0.0
1001
ACDBBLOCKREPETAG
1070
     1
1071
      168
1005
130506
  0
LINE
  5
130507
  8
OBJECT
 10
3938.0
 20
-261.99999999999909
 30
0.0
 11
3920.0
 21
-261.99999999999909
 31
0.0
1001
ACDBBLOCKREPETAG
1070
     1
1071
      170
1005
130507
  0
LINE
  5
130508
  8
OBJECT
 10
3954.338199772676
 20
-137.99999999999909
 30
0.0
 11
3920.0
 21
-137.99999999999909
 31
0.0
1001
ACDBBLOCKREPETAG
1070
     1
1071
      171
1005
130508
  0
LINE
  5
130509
  8
OBJECT
 10
3945.5527778486362
 20
-254.44722215136329
 30
0.0
 11
3938.0
 21
-261.99999999999909
 31
0.0
1001
ACDBBLOCKREPETAG
1070
     1
1071
      180
1005
130509
  0
LINE
  5
13050A
  8
OBJECT
 10
4054.4472221513638
 20
-254.44722215136329
 30
0.0
 11
4062.0
 21
-261.99999999999909
 31
0.0
1001
ACDBBLOCKREPETAG
1070
     1
1071
      181
1005
13050A
  0
POINT
  5
13050B
  8
DOTS
 10
4000.0
 20
-199.99999999999909
 30
0.0
 50
270.0
1001
ACDBBLOCKREPETAG
1070
     1
1071
      182
1005
13050B
  0
ARC
  5
13050C
  8
OBJECT
 10
4000.0
 20
-199.99999999999909
 30
0.0
 40
85.0
 50
46.837102859806208
 51
133.16289714019371
1001
ACDBBLOCKREPETAG
1070
     1
1071
      183
1005
13050C
  0
CIRCLE
  5
13050D
  8
OBJECT
 10
4000.0
 20
-199.99999999999909
 30
0.0
 40
53.5
1001
ACDBBLOCKREPETAG
1070
     1
1071
      352
1005
13050D
  0
LINE
  5
13050E
  8
CENTER
 10
4080.0
 20
-199.99999999999909
 30
0.0
 11
3920.0
 21
-199.99999999999909
 31
0.0
1001
ACDBBLOCKREPETAG
1070
     1
1071
      158
1005
13050E
  0
LINE
  5
13050F
  8
CENTER
 10
3920.0
 20
-199.99999999999909
 30
0.0
 11
3865.0
 21
-199.99999999999909
 31
0.0
1001
ACDBBLOCKREPETAG
1070
     1
1071
      352
1005
13050F
  0
LINE
  5
130510
  8
OBJECT
 10
3914.0
 20
-140.99999999999821
 30
0.0
 11
3914.0
 21
-258.99999999999818
 31
0.0
1001
ACDBBLOCKREPETAG
1070
     1
1071
      353
1005
130510
  0
LINE
  5
130511
  8
OBJECT
 10
3890.0
 20
-244.49999999999909
 30
0.0
 11
3890.0
 21
-155.49999999999909
 31
0.0
1001
ACDBBLOCKREPETAG
1070
     1
1071
      354
1005
130511
  0
LINE
  5
130512
  8
OBJECT
 10
3890.0
 20
-244.49999999999909
 30
0.0
 11
3914.0
 21
-244.49999999999909
 31
0.0
1001
ACDBBLOCKREPETAG
1070
     1
1071
      355
1005
130512
  0
LINE
  5
130513
  8
OBJECT
 10
3920.0
 20
-261.99999999999818
 30
0.0
 11
3917.0
 21
-261.99999999999818
 31
0.0
1001
ACDBBLOCKREPETAG
1070
     1
1071
      356
1005
130513
  0
ARC
  5
130514
  8
OBJECT
 10
3917.0
 20
-258.99999999999818
 30
0.0
 40
3.0
 50
180.0
 51
270.0
1001
ACDBBLOCKREPETAG
1070
     1
1071
      357
1005
130514
  0
LINE
  5
130515
  8
OBJECT
 10
3890.0
 20
-182.17793399999931
 30
0.0
 11
3886.168811
 21
-177.8968179999992
 31
0.0
1001
ACDBBLOCKREPETAG
1070
     1
1071
      358
1005
130515
  0
ARC
  5
130516
  8
OBJECT
 10
3880.0
 20
-182.99999999999821
 30
0.0
 40
8.0
 50
39.597752999855899
 51
198.1583529999063
1001
ACDBBLOCKREPETAG
1070
     1
1071
      359
1005
130516
  0
ARC
  5
130517
  8
OBJECT
 10
3877.149402999999
 20
-183.93493299999861
 30
0.0
 40
5.0
 50
198.1583529999063
 51
251.5151310000939
1001
ACDBBLOCKREPETAG
1070
     1
1071
      360
1005
130517
  0
LINE
  5
130518
  8
OBJECT
 10
3880.0
 20
-194.99999999999909
 30
0.0
 11
3887.0
 21
-194.99999999999909
 31
0.0
1001
ACDBBLOCKREPETAG
1070
     1
1071
      361
1005
130518
  0
LINE
  5
130519
  8
OBJECT
 10
3880.0
 20
-204.99999999999909
 30
0.0
 11
3887.0
 21
-204.99999999999909
 31
0.0
1001
ACDBBLOCKREPETAG
1070
     1
1071
      362
1005
130519
  0
LINE
  5
13051A
  8
OBJECT
 10
3880.0
 20
-194.99999999999909
 30
0.0
 11
3880.0
 21
-204.99999999999909
 31
0.0
1001
ACDBBLOCKREPETAG
1070
     1
1071
      363
1005
13051A
  0
LINE
  5
13051B
  8
OBJECT
 10
3887.0
 20
-192.49999999999909
 30
0.0
 11
3887.0
 21
-207.49999999999909
 31
0.0
1001
ACDBBLOCKREPETAG
1070
     1
1071
      364
1005
13051B
  0
LINE
  5
13051C
  8
OBJECT
 10
3890.0
 20
-208.24999999999909
 30
0.0
 11
3887.0
 21
-207.49999999999909
 31
0.0
1001
ACDBBLOCKREPETAG
1070
     1
1071
      365
1005
13051C
  0
LINE
  5
13051D
  8
OBJECT
 10
3890.0
 20
-217.82206699999909
 30
0.0
 11
3886.168811
 21
-222.1031819999998
 31
0.0
1001
ACDBBLOCKREPETAG
1070
     1
1071
      366
1005
13051D
  0
LINE
  5
13051E
  8
OBJECT
 10
3890.0
 20
-191.74999999999909
 30
0.0
 11
3887.0
 21
-192.49999999999909
 31
0.0
1001
ACDBBLOCKREPETAG
1070
     1
1071
      367
1005
13051E
  0
ARC
  5
13051F
  8
OBJECT
 10
3880.0
 20
-216.99999999999821
 30
0.0
 40
8.0
 50
161.8416470000935
 51
320.40224700014409
1001
ACDBBLOCKREPETAG
1070
     1
1071
      368
1005
13051F
  0
ARC
  5
130520
  8
OBJECT
 10
3877.149402999999
 20
-216.0650669999994
 30
0.0
 40
5.0
 50
108.484868999906
 51
161.8416470000935
1001
ACDBBLOCKREPETAG
1070
     1
1071
      369
1005
130520
  0
LINE
  5
130521
  8
OBJECT
 10
3875.564132
 20
-211.32302999999959
 30
0.0
 11
3887.0
 21
-207.49999999999909
 31
0.0
1001
ACDBBLOCKREPETAG
1070
     1
1071
      370
1005
130521
  0
LINE
  5
130522
  8
OBJECT
 10
3875.564132
 20
-188.67696999999851
 30
0.0
 11
3887.0
 21
-192.49999999999909
 31
0.0
1001
ACDBBLOCKREPETAG
1070
     1
1071
      371
1005
130522
  0
ARC
  5
130523
  8
OBJECT
 10
3917.0
 20
-140.99999999999821
 30
0.0
 40
3.0
 50
90.0
 51
180.0
1001
ACDBBLOCKREPETAG
1070
     1
1071
      372
1005
130523
  0
LINE
  5
130524
  8
OBJECT
 10
3920.0
 20
-137.99999999999821
 30
0.0
 11
3917.0
 21
-137.99999999999821
 31
0.0
1001
ACDBBLOCKREPETAG
1070
     1
1071
      373
1005
130524
  0
LINE
  5
130525
  8
OBJECT
 10
3890.0
 20
-155.49999999999909
 30
0.0
 11
3914.0
 21
-155.49999999999909
 31
0.0
1001
ACDBBLOCKREPETAG
1070
     1
1071
      374
1005
130525
  0
LINE
  5
130526
  8
CENTER
 10
4000.0
 20
-300.99999999999898
 30
0.0
 11
4000.0
 21
-279.99999999999909
 31
0.0
1001
ACDBBLOCKREPETAG
1070
     1
1071
        0
1005
130526
  0
LINE
  5
130527
  8
OBJECT
 10
4062.0
 20
-283.0
 30
0.0
 11
4062.0
 21
-279.99999999999909
 31
0.0
1001
ACDBBLOCKREPETAG
1070
     1
1071
        1
1005
130527
  0
ARC
  5
130528
  8
OBJECT
 10
4059.0
 20
-283.0
 30
0.0
 40
3.0
 50
270.0
 51
0.0
1001
ACDBBLOCKREPETAG
1070
     1
1071
        2
1005
130528
  0
LINE
  5
130529
  8
OBJECT
 10
3938.0
 20
-279.99999999999909
 30
0.0
 11
3938.0
 21
-282.99999999999818
 31
0.0
1001
ACDBBLOCKREPETAG
1070
     1
1071
        3
1005
130529
  0
ARC
  5
13052A
  8
OBJECT
 10
3941.0
 20
-282.99999999999818
 30
0.0
 40
3.0
 50
180.0
 51
270.0
1001
ACDBBLOCKREPETAG
1070
     1
1071
        4
1005
13052A
  0
LINE
  5
13052B
  8
OBJECT
 10
3941.0
 20
-285.99999999999818
 30
0.0
 11
4059.0
 21
-286.0
 31
0.0
1001
ACDBBLOCKREPETAG
1070
     1
1071
        5
1005
13052B
  0
LINE
  5
13052C
  8
OBJECT
 10
4133.0
 20
-137.99999999999909
 30
0.0
 11
4140.0
 21
-137.99999999999909
 31
0.0
1001
ACDBBLOCKREPETAG
1070
     1
1071
       47
1005
13052C
  0
LINE
  5
13052D
  8
OBJECT
 10
4140.0
 20
-137.99999999999909
 30
0.0
 11
4140.0
 21
-261.99999999999909
 31
0.0
1001
ACDBBLOCKREPETAG
1070
     1
1071
       48
1005
13052D
  0
LINE
  5
13052E
  8
OBJECT
 10
4140.0
 20
-261.99999999999909
 30
0.0
 11
4133.0
 21
-261.99999999999909
 31
0.0
1001
ACDBBLOCKREPETAG
1070
     1
1071
       49
1005
13052E
  0
LINE
  5
13052F
  8
OBJECT
 10
4133.0
 20
-261.99999999999909
 30
0.0
 11
4133.0
 21
-137.99999999999909
 31
0.0
1001
ACDBBLOCKREPETAG
1070
     1
1071
       50
1005
13052F
  0
LINE
  5
130530
  8
CENTER
 10
4155.0
 20
-199.99999999999909
 30
0.0
 11
4080.0
 21
-199.99999999999909
 31
0.0
1001
ACDBBLOCKREPETAG
1070
     1
1071
       51
1005
130530
  0
LINE
  5
130531
  8
OBJECT
 10
4133.0
 20
-140.99999999999909
 30
0.0
 11
4097.0
 21
-140.99999999999909
 31
0.0
1001
ACDBBLOCKREPETAG
1070
     1
1071
       52
1005
130531
  0
LINE
  5
130532
  8
OBJECT
 10
4097.0
 20
-140.99999999999909
 30
0.0
 11
4097.0
 21
-258.99999999999909
 31
0.0
1001
ACDBBLOCKREPETAG
1070
     1
1071
       53
1005
130532
  0
LINE
  5
130533
  8
OBJECT
 10
4097.0
 20
-258.99999999999909
 30
0.0
 11
4133.0
 21
-258.99999999999909
 31
0.0
1001
ACDBBLOCKREPETAG
1070
     1
1071
       54
1005
130533
  0
LINE
  5
130534
  8
OBJECT
 10
4093.0
 20
-145.49999999999909
 30
0.0
 11
4086.0
 21
-145.49999999999909
 31
0.0
1001
ACDBBLOCKREPETAG
1070
     1
1071
       55
1005
130534
  0
LINE
  5
130535
  8
OBJECT
 10
4086.0
 20
-254.49999999999909
 30
0.0
 11
4093.0
 21
-254.49999999999909
 31
0.0
1001
ACDBBLOCKREPETAG
1070
     1
1071
       56
1005
130535
  0
LINE
  5
130536
  8
OBJECT
 10
4093.0
 20
-254.49999999999909
 30
0.0
 11
4093.0
 21
-145.49999999999909
 31
0.0
1001
ACDBBLOCKREPETAG
1070
     1
1071
       57
1005
130536
  0
LINE
  5
130537
  8
OBJECT
 10
4097.0
 20
-140.99999999999909
 30
0.0
 11
4093.0
 21
-145.49999999999909
 31
0.0
1001
ACDBBLOCKREPETAG
1070
     1
1071
       58
1005
130537
  0
LINE
  5
130538
  8
OBJECT
 10
4097.0
 20
-258.99999999999909
 30
0.0
 11
4093.0
 21
-254.49999999999909
 31
0.0
1001
ACDBBLOCKREPETAG
1070
     1
1071
       59
1005
130538
  0
LINE
  5
130539
  8
OBJECT
 10
4083.0
 20
-137.99999999999909
 30
0.0
 11
4080.0
 21
-137.99999999999909
 31
0.0
1001
ACDBBLOCKREPETAG
1070
     1
1071
       60
1005
130539
  0
ARC
  5
13053A
  8
OBJECT
 10
4083.0
 20
-140.99999999999909
 30
0.0
 40
3.0
 50
0.0
 51
90.0
1001
ACDBBLOCKREPETAG
1070
     1
1071
       61
1005
13053A
  0
LINE
  5
13053B
  8
OBJECT
 10
4080.0
 20
-261.99999999999909
 30
0.0
 11
4083.0
 21
-261.99999999999909
 31
0.0
1001
ACDBBLOCKREPETAG
1070
     1
1071
       62
1005
13053B
  0
ARC
  5
13053C
  8
OBJECT
 10
4083.0
 20
-258.99999999999909
 30
0.0
 40
3.0
 50
270.0
 51
0.0
1001
ACDBBLOCKREPETAG
1070
     1
1071
       63
1005
13053C
  0
LINE
  5
13053D
  8
OBJECT
 10
4086.0
 20
-258.99999999999909
 30
0.0
 11
4086.0
 21
-140.99999999999909
 31
0.0
1001
ACDBBLOCKREPETAG
1070
     1
1071
       64
1005
13053D
  0
LINE
  5
13053E
  8
HIDDEN
 10
4088.0
 20
-155.49999999999909
 30
0.0
 11
4088.0
 21
-244.49999999999909
 31
0.0
1001
ACDBBLOCKREPETAG
1070
     1
1071
       65
1005
13053E
  0
LINE
  5
13053F
  8
OBJECT
 10
3880.0
 20
-691.0
 30
0.0
 11
3887.0
 21
-691.0
 31
0.0
1001
ACDBBLOCKREPETAG
1070
     1
1071
      303
1005
13053F
  0
LINE
  5
130540
  8
OBJECT
 10
3880.0
 20
-701.0
 30
0.0
 11
3887.0
 21
-701.0
 31
0.0
1001
ACDBBLOCKREPETAG
1070
     1
1071
      304
1005
130540
  0
LINE
  5
130541
  8
OBJECT
 10
3880.0
 20
-691.0
 30
0.0
 11
3880.0
 21
-693.76802120323453
 31
0.0
1001
ACDBBLOCKREPETAG
1070
     1
1071
      305
1005
130541
  0
LINE
  5
130542
  8
OBJECT
 10
3880.0
 20
-698.23197871206878
 30
0.0
 11
3880.0
 21
-701.0
 31
0.0
1001
ACDBBLOCKREPETAG
1070
     1
1071
      306
1005
130542
  0
LINE
  5
130543
  8
OBJECT
 10
3887.0
 20
-688.49999999999977
 30
0.0
 11
3887.0
 21
-693.49910050411825
 31
0.0
1001
ACDBBLOCKREPETAG
1070
     1
1071
      307
1005
130543
  0
LINE
  5
130544
  8
OBJECT
 10
3887.0
 20
-698.50089931361958
 30
0.0
 11
3887.0
 21
-703.5
 31
0.0
1001
ACDBBLOCKREPETAG
1070
     1
1071
      308
1005
130544
  0
LINE
  5
130545
  8
OBJECT
 10
3890.0
 20
-704.25
 30
0.0
 11
3887.0
 21
-703.5
 31
0.0
1001
ACDBBLOCKREPETAG
1070
     1
1071
      309
1005
130545
  0
LINE
  5
130546
  8
OBJECT
 10
3890.0
 20
-687.75
 30
0.0
 11
3887.0
 21
-688.49999999999977
 31
0.0
1001
ACDBBLOCKREPETAG
1070
     1
1071
      310
1005
130546
  0
ARC
  5
130547
  8
OBJECT
 10
3874.0
 20
-696.0
 30
0.0
 40
2.0
 50
92.200063947769905
 51
267.79993684947868
1001
ACDBBLOCKREPETAG
1070
     1
1071
      311
1005
130547
  0
LINE
  5
130548
  8
OBJECT
 10
3890.0
 20
-698.61615099999835
 30
0.0
 11
3873.9232221790849
 21
-697.99852574819931
 31
0.0
1001
ACDBBLOCKREPETAG
1070
     1
1071
      312
1005
130548
  0
LINE
  5
130549
  8
OBJECT
 10
3890.0
 20
-693.3838487759258
 30
0.0
 11
3873.9232221512689
 21
-694.00147425286923
 31
0.0
1001
ACDBBLOCKREPETAG
1070
     1
1071
      313
1005
130549
  0
LINE
  5
13054A
  8
CENTER
 10
3929.0
 20
-696.0
 30
0.0
 11
3857.0
 21
-696.0
 31
0.0
1001
ACDBBLOCKREPETAG
1070
     1
1071
      314
1005
13054A
  0
LINE
  5
13054B
  8
OBJECT
 10
3914.0
 20
-636.9999999999992
 30
0.0
 11
3914.0
 21
-754.99999999999898
 31
0.0
1001
ACDBBLOCKREPETAG
1070
     1
1071
      315
1005
13054B
  0
LINE
  5
13054C
  8
OBJECT
 10
3890.0
 20
-740.5
 30
0.0
 11
3890.0
 21
-651.5
 31
0.0
1001
ACDBBLOCKREPETAG
1070
     1
1071
      316
1005
13054C
  0
LINE
  5
13054D
  8
OBJECT
 10
3890.0
 20
-740.5
 30
0.0
 11
3914.0
 21
-740.5
 31
0.0
1001
ACDBBLOCKREPETAG
1070
     1
1071
      317
1005
13054D
  0
LINE
  5
13054E
  8
OBJECT
 10
3920.0
 20
-757.9999999999992
 30
0.0
 11
3917.0
 21
-757.9999999999992
 31
0.0
1001
ACDBBLOCKREPETAG
1070
     1
1071
      318
1005
13054E
  0
ARC
  5
13054F
  8
OBJECT
 10
3917.0
 20
-754.99999999999898
 30
0.0
 40
3.0
 50
180.0
 51
270.0
1001
ACDBBLOCKREPETAG
1070
     1
1071
      319
1005
13054F
  0
ARC
  5
130550
  8
OBJECT
 10
3917.0
 20
-636.9999999999992
 30
0.0
 40
3.0
 50
90.0
 51
180.0
1001
ACDBBLOCKREPETAG
1070
     1
1071
      320
1005
130550
  0
LINE
  5
130551
  8
OBJECT
 10
3920.0
 20
-633.99999999999898
 30
0.0
 11
3917.0
 21
-633.99999999999898
 31
0.0
1001
ACDBBLOCKREPETAG
1070
     1
1071
      321
1005
130551
  0
LINE
  5
130552
  8
OBJECT
 10
3890.0
 20
-651.5
 30
0.0
 11
3914.0
 21
-651.5
 31
0.0
1001
ACDBBLOCKREPETAG
1070
     1
1071
      322
1005
130552
  0
CIRCLE
  5
130553
  8
OBJECT
 10
4000.0
 20
-696.0
 30
0.0
 40
62.0
1001
ACDBBLOCKREPETAG
1070
     1
1071
        0
1005
130553
  0
LINE
  5
130554
  8
OBJECT
 10
4133.0
 20
-634.0
 30
0.0
 11
4140.0
 21
-634.0
 31
0.0
1001
ACDBBLOCKREPETAG
1070
     1
1071
       45
1005
130554
  0
LINE
  5
130555
  8
OBJECT
 10
4140.0
 20
-634.0
 30
0.0
 11
4140.0
 21
-755.0
 31
0.0
1001
ACDBBLOCKREPETAG
1070
     1
1071
       46
1005
130555
  0
LINE
  5
130556
  8
OBJECT
 10
4133.0
 20
-755.0
 30
0.0
 11
4133.0
 21
-634.0
 31
0.0
1001
ACDBBLOCKREPETAG
1070
     1
1071
       47
1005
130556
  0
LINE
  5
130557
  8
CENTER
 10
4155.0
 20
-696.0
 30
0.0
 11
4071.0
 21
-696.0
 31
0.0
1001
ACDBBLOCKREPETAG
1070
     1
1071
       48
1005
130557
  0
LINE
  5
130558
  8
OBJECT
 10
4133.0
 20
-637.0
 30
0.0
 11
4097.0
 21
-637.0
 31
0.0
1001
ACDBBLOCKREPETAG
1070
     1
1071
       49
1005
130558
  0
LINE
  5
130559
  8
OBJECT
 10
4097.0
 20
-637.0
 30
0.0
 11
4097.0
 21
-755.0
 31
0.0
1001
ACDBBLOCKREPETAG
1070
     1
1071
       50
1005
130559
  0
LINE
  5
13055A
  8
OBJECT
 10
4097.0
 20
-755.0
 30
0.0
 11
4140.0
 21
-755.0
 31
0.0
1001
ACDBBLOCKREPETAG
1070
     1
1071
       51
1005
13055A
  0
LINE
  5
13055B
  8
OBJECT
 10
4093.0
 20
-641.5
 30
0.0
 11
4086.0
 21
-641.5
 31
0.0
1001
ACDBBLOCKREPETAG
1070
     1
1071
       52
1005
13055B
  0
LINE
  5
13055C
  8
OBJECT
 10
4086.0
 20
-750.49999999999989
 30
0.0
 11
4093.0
 21
-750.49999999999989
 31
0.0
1001
ACDBBLOCKREPETAG
1070
     1
1071
       53
1005
13055C
  0
LINE
  5
13055D
  8
OBJECT
 10
4093.0
 20
-750.49999999999989
 30
0.0
 11
4093.0
 21
-641.5
 31
0.0
1001
ACDBBLOCKREPETAG
1070
     1
1071
       54
1005
13055D
  0
LINE
  5
13055E
  8
OBJECT
 10
4097.0
 20
-637.0
 30
0.0
 11
4093.0
 21
-641.5
 31
0.0
1001
ACDBBLOCKREPETAG
1070
     1
1071
       55
1005
13055E
  0
LINE
  5
13055F
  8
OBJECT
 10
4097.0
 20
-755.0
 30
0.0
 11
4093.0
 21
-750.49999999999989
 31
0.0
1001
ACDBBLOCKREPETAG
1070
     1
1071
       56
1005
13055F
  0
LINE
  5
130560
  8
OBJECT
 10
4083.0
 20
-634.0
 30
0.0
 11
4080.0
 21
-634.0
 31
0.0
1001
ACDBBLOCKREPETAG
1070
     1
1071
       57
1005
130560
  0
ARC
  5
130561
  8
OBJECT
 10
4083.0
 20
-637.0
 30
0.0
 40
3.0
 50
0.0
 51
90.0
1001
ACDBBLOCKREPETAG
1070
     1
1071
       58
1005
130561
  0
LINE
  5
130562
  8
OBJECT
 10
4080.0
 20
-758.0
 30
0.0
 11
4083.0
 21
-758.0
 31
0.0
1001
ACDBBLOCKREPETAG
1070
     1
1071
       59
1005
130562
  0
ARC
  5
130563
  8
OBJECT
 10
4083.0
 20
-755.0
 30
0.0
 40
3.0
 50
270.0
 51
0.0
1001
ACDBBLOCKREPETAG
1070
     1
1071
       60
1005
130563
  0
LINE
  5
130564
  8
OBJECT
 10
4086.0
 20
-755.0
 30
0.0
 11
4086.0
 21
-637.0
 31
0.0
1001
ACDBBLOCKREPETAG
1070
     1
1071
       61
1005
130564
  0
LINE
  5
130565
  8
HIDDEN
 10
4088.0
 20
-651.5
 30
0.0
 11
4088.0
 21
-740.5
 31
0.0
1001
ACDBBLOCKREPETAG
1070
     1
1071
       63
1005
130565
  0
TEXT
  5
130566
  8
SLIM
 10
3698.5
 20
-1639.666666666664
 30
0.0
 40
28.0
  1
　※ 掃除口（CO）の正面にはメンテナンススペース
 41
0.75
1001
ACDBBLOCKREPETAG
1070
     1
1071
      103
1005
0
  0
TEXT
  5
130567
  8
SLIM
 10
3707.0999999999999
 20
-1686.3333333333301
 30
0.0
 40
28.0
  1
　　（参考値：80mm以上）を確保してください。
 41
0.75
1001
ACDBBLOCKREPETAG
1070
     1
1071
      103
1005
0
  0
TEXT
  5
130568
  8
SLIM
 10
1698.5
 20
-1438.166666666664
 30
0.0
 40
28.0
  1
　※ 掃除口（CO）の正面にはメンテナンススペース
 41
0.75
1001
ACDBBLOCKREPETAG
1070
     1
1071
      103
1005
0
  0
TEXT
  5
130569
  8
SLIM
 10
1707.0999999999999
 20
-1484.833333333331
 30
0.0
 40
28.0
  1
　　（参考値：80mm以上）を確保してください。
 41
0.75
1001
ACDBBLOCKREPETAG
1070
     1
1071
      103
1005
0
  0
LINE
  5
13056A
  8
SLIM
 10
3914.9999999999941
 20
-765.19743878931376
 30
0.0
 11
3925.1974387893092
 21
-754.99999999999875
 31
0.0
1001
ACDBBLOCKREPETAG
1070
     1
1071
        0
1005
0
1001
ACAD
1010
0.0
1020
0.0
1030
0.0
  0
LINE
  5
13056B
  8
SLIM
 10
3914.999999999995
 20
-783.15795103145035
 30
0.0
 11
3943.1579510314468
 21
-754.99999999999875
 31
0.0
1001
ACAD
1010
0.0
1020
0.0
1030
0.0
1001
ACDBBLOCKREPETAG
1070
     1
1071
       14
1005
13056B
  0
LINE
  5
13056C
  8
SLIM
 10
3915.1454972543161
 20
-800.97296601926837
 30
0.0
 11
3961.1184632735849
 21
-754.99999999999875
 31
0.0
1001
ACAD
1010
0.0
1020
0.0
1030
0.0
1001
ACDBBLOCKREPETAG
1070
     1
1071
       15
1005
13056C
  0
LINE
  5
13056D
  8
SLIM
 10
3917.104627495245
 20
-816.97434802047826
 30
0.0
 11
3979.0789755157239
 21
-754.99999999999875
 31
0.0
1001
ACAD
1010
0.0
1020
0.0
1030
0.0
1001
ACDBBLOCKREPETAG
1070
     1
1071
       16
1005
13056D
  0
LINE
  5
13056E
  8
SLIM
 10
3919.0637577361722
 20
-832.97573002168861
 30
0.0
 11
3997.0394877578619
 21
-754.99999999999875
 31
0.0
1001
ACAD
1010
0.0
1020
0.0
1030
0.0
1001
ACDBBLOCKREPETAG
1070
     1
1071
       17
1005
13056E
  0
LINE
  5
13056F
  8
SLIM
 10
3920.0
 20
-849.99999999999875
 30
0.0
 11
4015.0
 21
-754.99999999999875
 31
0.0
1001
ACAD
1010
0.0
1020
0.0
1030
0.0
1001
ACDBBLOCKREPETAG
1070
     1
1071
       18
1005
13056F
  0
LINE
  5
130570
  8
SLIM
 10
3920.0
 20
-867.96051224213716
 30
0.0
 11
4032.9605122421372
 21
-754.99999999999875
 31
0.0
1001
ACAD
1010
0.0
1020
0.0
1030
0.0
1001
ACDBBLOCKREPETAG
1070
     1
1071
       19
1005
130570
  0
LINE
  5
130571
  8
SLIM
 10
3920.0
 20
-885.92102448427534
 30
0.0
 11
4050.921024484277
 21
-754.99999999999875
 31
0.0
1001
ACAD
1010
0.0
1020
0.0
1030
0.0
1001
ACDBBLOCKREPETAG
1070
     1
1071
       20
1005
130571
  0
LINE
  5
130572
  8
SLIM
 10
3920.0
 20
-903.88153672641363
 30
0.0
 11
4068.8815367264142
 21
-754.99999999999875
 31
0.0
1001
ACAD
1010
0.0
1020
0.0
1030
0.0
1001
ACDBBLOCKREPETAG
1070
     1
1071
       21
1005
130572
  0
LINE
  5
130573
  8
SLIM
 10
3920.0
 20
-921.84204896855181
 30
0.0
 11
4085.0000000000068
 21
-756.8420489685451
 31
0.0
1001
ACAD
1010
0.0
1020
0.0
1030
0.0
1001
ACDBBLOCKREPETAG
1070
     1
1071
       22
1005
130573
  0
LINE
  5
130574
  8
SLIM
 10
3920.0
 20
-939.80256121069044
 30
0.0
 11
4085.0000000000059
 21
-774.80256121068464
 31
0.0
1001
ACAD
1010
0.0
1020
0.0
1030
0.0
1001
ACDBBLOCKREPETAG
1070
     1
1071
       23
1005
130574
  0
LINE
  5
130575
  8
SLIM
 10
3920.0
 20
-957.76307345282862
 30
0.0
 11
4085.0000000000041
 21
-792.76307345282453
 31
0.0
1001
ACAD
1010
0.0
1020
0.0
1030
0.0
1001
ACDBBLOCKREPETAG
1070
     1
1071
       24
1005
130575
  0
LINE
  5
130576
  8
SLIM
 10
3930.0
 20
-965.72358569496657
 30
0.0
 11
3930.7235856949678
 21
-964.99999999999875
 31
0.0
1001
ACAD
1010
0.0
1020
0.0
1030
0.0
1001
ACDBBLOCKREPETAG
1070
     1
1071
       25
1005
130576
  0
LINE
  5
130577
  8
SLIM
 10
3930.7235856949678
 20
-964.99999999999875
 30
0.0
 11
4083.4738280308079
 21
-812.24975766415855
 31
0.0
1001
ACAD
1010
0.0
1020
0.0
1030
0.0
1001
ACDBBLOCKREPETAG
1070
     1
1071
       26
1005
130577
  0
LINE
  5
130578
  8
SLIM
 10
3930.0
 20
-983.68409793710521
 30
0.0
 11
3948.6840979371068
 21
-964.99999999999875
 31
0.0
1001
ACAD
1010
0.0
1020
0.0
1030
0.0
1001
ACDBBLOCKREPETAG
1070
     1
1071
       27
1005
130578
  0
LINE
  5
130579
  8
SLIM
 10
3948.6840979371068
 20
-964.99999999999875
 30
0.0
 11
4080.9680345671368
 21
-832.71606336996786
 31
0.0
1001
ACAD
1010
0.0
1020
0.0
1030
0.0
1001
ACDBBLOCKREPETAG
1070
     1
1071
       28
1005
130579
  0
LINE
  5
13057A
  8
SLIM
 10
3946.6446101792449
 20
-984.99999999999875
 30
0.0
 11
3966.6446101792449
 21
-964.99999999999875
 31
0.0
1001
ACAD
1010
0.0
1020
0.0
1030
0.0
1001
ACDBBLOCKREPETAG
1070
     1
1071
       29
1005
13057A
  0
LINE
  5
13057B
  8
SLIM
 10
3966.6446101792449
 20
-964.99999999999875
 30
0.0
 11
4080.0
 21
-851.6446101792435
 31
0.0
1001
ACAD
1010
0.0
1020
0.0
1030
0.0
1001
ACDBBLOCKREPETAG
1070
     1
1071
       30
1005
13057B
  0
LINE
  5
13057C
  8
SLIM
 10
3964.6051224213829
 20
-984.99999999999875
 30
0.0
 11
3984.6051224213829
 21
-964.99999999999875
 31
0.0
1001
ACAD
1010
0.0
1020
0.0
1030
0.0
1001
ACDBBLOCKREPETAG
1070
     1
1071
       31
1005
13057C
  0
LINE
  5
13057D
  8
SLIM
 10
3984.6051224213829
 20
-964.99999999999875
 30
0.0
 11
4080.0
 21
-869.60512242138225
 31
0.0
1001
ACAD
1010
0.0
1020
0.0
1030
0.0
1001
ACDBBLOCKREPETAG
1070
     1
1071
       32
1005
13057D
  0
LINE
  5
13057E
  8
SLIM
 10
3982.565634663521
 20
-984.99999999999875
 30
0.0
 11
4002.565634663521
 21
-964.99999999999875
 31
0.0
1001
ACAD
1010
0.0
1020
0.0
1030
0.0
1001
ACDBBLOCKREPETAG
1070
     1
1071
       33
1005
13057E
  0
LINE
  5
13057F
  8
SLIM
 10
4002.565634663521
 20
-964.99999999999875
 30
0.0
 11
4079.9999999999991
 21
-887.56563466352065
 31
0.0
1001
ACAD
1010
0.0
1020
0.0
1030
0.0
1001
ACDBBLOCKREPETAG
1070
     1
1071
       34
1005
13057F
  0
LINE
  5
130580
  8
SLIM
 10
4000.5261469056582
 20
-984.99999999999875
 30
0.0
 11
4020.52614690566
 21
-964.99999999999875
 31
0.0
1001
ACAD
1010
0.0
1020
0.0
1030
0.0
1001
ACDBBLOCKREPETAG
1070
     1
1071
       35
1005
130580
  0
LINE
  5
130581
  8
SLIM
 10
4020.52614690566
 20
-964.99999999999875
 30
0.0
 11
4079.9999999999991
 21
-905.52614690565963
 31
0.0
1001
ACAD
1010
0.0
1020
0.0
1030
0.0
1001
ACDBBLOCKREPETAG
1070
     1
1071
       36
1005
130581
  0
LINE
  5
130582
  8
SLIM
 10
4018.486659147798
 20
-984.99999999999875
 30
0.0
 11
4038.486659147798
 21
-964.99999999999864
 31
0.0
1001
ACAD
1010
0.0
1020
0.0
1030
0.0
1001
ACDBBLOCKREPETAG
1070
     1
1071
       37
1005
130582
  0
LINE
  5
130583
  8
SLIM
 10
4038.486659147798
 20
-964.99999999999864
 30
0.0
 11
4079.9999999999991
 21
-923.48665914779815
 31
0.0
1001
ACAD
1010
0.0
1020
0.0
1030
0.0
1001
ACDBBLOCKREPETAG
1070
     1
1071
       38
1005
130583
  0
LINE
  5
130584
  8
SLIM
 10
4036.4471713899361
 20
-984.99999999999875
 30
0.0
 11
4056.4471713899361
 21
-964.99999999999864
 31
0.0
1001
ACAD
1010
0.0
1020
0.0
1030
0.0
1001
ACDBBLOCKREPETAG
1070
     1
1071
       39
1005
130584
  0
LINE
  5
130585
  8
SLIM
 10
4056.4471713899361
 20
-964.99999999999864
 30
0.0
 11
4079.9999999999991
 21
-941.44717138993633
 31
0.0
1001
ACAD
1010
0.0
1020
0.0
1030
0.0
1001
ACDBBLOCKREPETAG
1070
     1
1071
       40
1005
130585
  0
LINE
  5
130586
  8
SLIM
 10
4054.4076836320728
 20
-984.99999999999875
 30
0.0
 11
4070.0
 21
-969.40768363207314
 31
0.0
1001
ACAD
1010
0.0
1020
0.0
1030
0.0
1001
ACDBBLOCKREPETAG
1070
     1
1071
       41
1005
130586
  0
LINE
  5
130587
  8
SLIM
 10
4074.4076836320728
 20
-964.99999999999864
 30
0.0
 11
4079.9999999999991
 21
-959.40768363207519
 31
0.0
1001
ACAD
1010
0.0
1020
0.0
1030
0.0
1001
ACDBBLOCKREPETAG
1070
     1
1071
       42
1005
130587
  0
LINE
  5
130588
  8
OBJECT
 10
3914.9999999999941
 20
-754.99999999999875
 30
0.0
 11
3914.9999999999968
 21
-799.78460339903359
 31
0.0
1001
ACDBBLOCKREPETAG
1070
     1
1071
        1
1005
130588
  0
LINE
  5
130589
  8
OBJECT
 10
4085.0000000000068
 20
-754.99999999999875
 30
0.0
 11
4085.0000000000032
 21
-799.78460339904063
 31
0.0
1001
ACDBBLOCKREPETAG
1070
     1
1071
        2
1005
130589
  0
LINE
  5
13058A
  8
OBJECT
 10
4085.0000000000068
 20
-754.99999999999875
 30
0.0
 11
3914.9999999999941
 21
-754.99999999999875
 31
0.0
1001
ACDBBLOCKREPETAG
1070
     1
1071
        3
1005
13058A
  0
LINE
  5
13058B
  8
OBJECT
 10
4079.9999999999991
 20
-964.99999999999864
 30
0.0
 11
3920.0
 21
-964.99999999999875
 31
0.0
1001
ACDBBLOCKREPETAG
1070
     1
1071
        4
1005
13058B
  0
LINE
  5
13058C
  8
OBJECT
 10
3914.9999999999968
 20
-799.78460339903415
 30
0.0
 11
3920.0
 21
-840.62257748298555
 31
0.0
1001
ACDBBLOCKREPETAG
1070
     1
1071
        6
1005
13058C
  0
LINE
  5
13058D
  8
OBJECT
 10
3920.0
 20
-840.62257748298555
 30
0.0
 11
3920.0
 21
-964.99999999999875
 31
0.0
1001
ACDBBLOCKREPETAG
1070
     1
1071
        7
1005
13058D
  0
LINE
  5
13058E
  8
OBJECT
 10
4085.0000000000032
 20
-799.78460339904063
 30
0.0
 11
4080.0
 21
-840.62257748298555
 31
0.0
1001
ACDBBLOCKREPETAG
1070
     1
1071
        8
1005
13058E
  0
LINE
  5
13058F
  8
OBJECT
 10
4080.0
 20
-840.62257748298555
 30
0.0
 11
4079.9999999999991
 21
-964.99999999999864
 31
0.0
1001
ACDBBLOCKREPETAG
1070
     1
1071
        9
1005
13058F
  0
LINE
  5
130590
  8
OBJECT
 10
3930.0
 20
-964.99999999999875
 30
0.0
 11
3930.0
 21
-984.99999999999875
 31
0.0
1001
ACDBBLOCKREPETAG
1070
     1
1071
       10
1005
130590
  0
LINE
  5
130591
  8
OBJECT
 10
3930.0
 20
-984.99999999999875
 30
0.0
 11
4070.0
 21
-984.99999999999875
 31
0.0
1001
ACDBBLOCKREPETAG
1070
     1
1071
       11
1005
130591
  0
LINE
  5
130592
  8
OBJECT
 10
4070.0
 20
-984.99999999999875
 30
0.0
 11
4070.0
 21
-964.99999999999864
 31
0.0
1001
ACDBBLOCKREPETAG
1070
     1
1071
       12
1005
130592
  0
LINE
  5
130593
  8
OBJECT
 10
1923.0
 20
-570.99999999999955
 30
0.0
 11
1923.0
 21
-549.99999999999955
 31
0.0
1001
ACDBBLOCKREPETAG
1070
     1
1071
       36
1005
130593
  0
LINE
  5
130594
  8
OBJECT
 10
1923.0
 20
-549.99999999999955
 30
0.0
 11
2077.0
 21
-549.99999999999955
 31
0.0
1001
ACDBBLOCKREPETAG
1070
     1
1071
       37
1005
130594
  0
LINE
  5
130595
  8
HIDDEN
 10
1943.0
 20
-619.99999999999955
 30
0.0
 11
2057.0
 21
-619.99999999999955
 31
0.0
1001
ACDBBLOCKREPETAG
1070
     1
1071
       38
1005
130595
  0
LINE
  5
130596
  8
OBJECT
 10
2077.0
 20
-549.99999999999955
 30
0.0
 11
2077.0
 21
-570.99999999999955
 31
0.0
1001
ACDBBLOCKREPETAG
1070
     1
1071
       39
1005
130596
  0
LINE
  5
130597
  8
OBJECT
 10
2077.0
 20
-570.99999999999955
 30
0.0
 11
1923.0
 21
-570.99999999999955
 31
0.0
1001
ACDBBLOCKREPETAG
1070
     1
1071
       40
1005
130597
  0
LINE
  5
130598
  8
CENTER
 10
2000.0
 20
-534.99999999999955
 30
0.0
 11
2000.0
 21
-769.99999999999955
 31
0.0
1001
ACDBBLOCKREPETAG
1070
     1
1071
       41
1005
130598
  0
LINE
  5
130599
  8
OBJECT
 10
1928.0
 20
-570.99999999999955
 30
0.0
 11
1928.0
 21
-633.99999999999955
 31
0.0
1001
ACDBBLOCKREPETAG
1070
     1
1071
       42
1005
130599
  0
LINE
  5
13059A
  8
OBJECT
 10
2072.0
 20
-633.99999999999955
 30
0.0
 11
2072.0
 21
-570.99999999999955
 31
0.0
1001
ACDBBLOCKREPETAG
1070
     1
1071
       43
1005
13059A
  0
LINE
  5
13059B
  8
OBJECT
 10
1920.0
 20
-757.99999999999955
 30
0.0
 11
2080.0
 21
-757.99999999999955
 31
0.0
1001
ACDBBLOCKREPETAG
1070
     1
1071
       44
1005
13059B
  0
LINE
  5
13059C
  8
OBJECT
 10
2080.0
 20
-633.99999999999955
 30
0.0
 11
1920.0
 21
-633.99999999999955
 31
0.0
1001
ACDBBLOCKREPETAG
1070
     1
1071
       45
1005
13059C
  0
LINE
  5
13059D
  8
OBJECT
 10
1920.0
 20
-757.99999999999955
 30
0.0
 11
1920.0
 21
-769.99999999999955
 31
0.0
1001
ACDBBLOCKREPETAG
1070
     1
1071
       46
1005
13059D
  0
LINE
  5
13059E
  8
OBJECT
 10
1920.0
 20
-769.99999999999955
 30
0.0
 11
2080.0
 21
-769.99999999999955
 31
0.0
1001
ACDBBLOCKREPETAG
1070
     1
1071
       47
1005
13059E
  0
LINE
  5
13059F
  8
OBJECT
 10
2080.0
 20
-769.99999999999955
 30
0.0
 11
2080.0
 21
-757.99999999999955
 31
0.0
1001
ACDBBLOCKREPETAG
1070
     1
1071
       48
1005
13059F
  0
ARC
  5
1305A0
  8
OBJECT
 10
2200.6872746716731
 20
-749.40809941010718
 30
0.0
 40
170.6350503965856
 50
137.44134459184301
 51
149.91949581336559
1001
ACDBBLOCKREPETAG
1070
     1
1071
       52
1005
1305A0
  0
ARC
  5
1305A1
  8
OBJECT
 10
2200.6872746716731
 20
-642.59190058989179
 30
0.0
 40
170.6350503965856
 50
210.0805041866343
 51
222.55865540815699
1001
ACDBBLOCKREPETAG
1070
     1
1071
       53
1005
1305A1
  0
ARC
  5
1305A2
  8
OBJECT
 10
1799.312725328326
 20
-749.40809941010718
 30
0.0
 40
170.6350503965856
 50
30.080504186774089
 51
42.558655408447443
1001
ACDBBLOCKREPETAG
1070
     1
1071
       54
1005
1305A2
  0
ARC
  5
1305A3
  8
OBJECT
 10
1799.312725328326
 20
-642.59190058989179
 30
0.0
 40
170.6350503965856
 50
317.44134459155248
 51
329.91949581322592
1001
ACDBBLOCKREPETAG
1070
     1
1071
       55
1005
1305A3
  0
POINT
  5
1305A4
  8
DOTS
 10
2000.0
 20
-754.99999999999955
 30
0.0
1001
ACDBBLOCKREPETAG
1070
     1
1071
      184
1005
1305A4
  0
CIRCLE
  5
1305A5
  8
OBJECT
 10
5000.0
 20
-3174.9999999999959
 30
0.0
 40
53.5
1001
ACDBBLOCKREPETAG
1070
     1
1071
      344
1005
1305A5
  0
LINE
  5
1305A6
  8
CENTER
 10
5080.0
 20
-3174.9999999999959
 30
0.0
 11
4905.0
 21
-3174.9999999999959
 31
0.0
1001
ACDBBLOCKREPETAG
1070
     1
1071
       14
1005
1305A6
  0
LINE
  5
1305A7
  8
CENTER
 10
5000.0
 20
-3269.9999999999959
 30
0.0
 11
5000.0
 21
-3079.9999999999959
 31
0.0
1001
ACDBBLOCKREPETAG
1070
     1
1071
       15
1005
1305A7
  0
CIRCLE
  5
1305A8
  8
OBJECT
 10
5000.0
 20
-3174.9999999999959
 30
0.0
 40
70.0
1001
ACDBBLOCKREPETAG
1070
     1
1071
       16
1005
1305A8
  0
CIRCLE
  5
1305A9
  8
OBJECT
 10
5000.0
 20
-3174.9999999999959
 30
0.0
 40
77.0
1001
ACDBBLOCKREPETAG
1070
     1
1071
       17
1005
1305A9
  0
ARC
  5
1305AA
  8
OBJECT
 10
5000.0
 20
-3174.9999999999959
 30
0.0
 40
80.0
 50
50.805032573882329
 51
309.19496742611773
1001
ACDBBLOCKREPETAG
1070
     1
1071
       18
1005
1305AA
  0
LINE
  5
1305AB
  8
OBJECT
 10
5045.6618002273253
 20
-3112.9999999999959
 30
0.0
 11
5080.0
 21
-3112.9999999999959
 31
0.0
1001
ACDBBLOCKREPETAG
1070
     1
1071
       19
1005
1305AB
  0
LINE
  5
1305AC
  8
OBJECT
 10
5045.6618002273253
 20
-3236.9999999999959
 30
0.0
 11
5080.0
 21
-3236.9999999999959
 31
0.0
1001
ACDBBLOCKREPETAG
1070
     1
1071
       20
1005
1305AC
  0
POINT
  5
1305AD
  8
DOTS
 10
5000.0
 20
-3174.9999999999959
 30
0.0
1001
ACDBBLOCKREPETAG
1070
     1
1071
       21
1005
1305AD
  0
CIRCLE
  5
1305AE
  8
OBJECT
 10
4000.0
 20
-3174.9999999999959
 30
0.0
 40
53.5
1001
ACDBBLOCKREPETAG
1070
     1
1071
      344
1005
1305AE
  0
LINE
  5
1305AF
  8
CENTER
 10
4080.0
 20
-3174.9999999999959
 30
0.0
 11
3905.0
 21
-3174.9999999999959
 31
0.0
1001
ACDBBLOCKREPETAG
1070
     1
1071
       14
1005
1305AF
  0
LINE
  5
1305B0
  8
CENTER
 10
4000.0
 20
-3269.9999999999959
 30
0.0
 11
4000.0
 21
-3079.9999999999959
 31
0.0
1001
ACDBBLOCKREPETAG
1070
     1
1071
       15
1005
1305B0
  0
CIRCLE
  5
1305B1
  8
OBJECT
 10
4000.0
 20
-3174.9999999999959
 30
0.0
 40
70.0
1001
ACDBBLOCKREPETAG
1070
     1
1071
       16
1005
1305B1
  0
CIRCLE
  5
1305B2
  8
OBJECT
 10
4000.0
 20
-3174.9999999999959
 30
0.0
 40
77.0
1001
ACDBBLOCKREPETAG
1070
     1
1071
       17
1005
1305B2
  0
ARC
  5
1305B3
  8
OBJECT
 10
4000.0
 20
-3174.9999999999959
 30
0.0
 40
80.0
 50
50.805032573862128
 51
309.19496742613791
1001
ACDBBLOCKREPETAG
1070
     1
1071
       18
1005
1305B3
  0
LINE
  5
1305B4
  8
OBJECT
 10
4045.661800227324
 20
-3112.9999999999959
 30
0.0
 11
4080.0
 21
-3112.9999999999959
 31
0.0
1001
ACDBBLOCKREPETAG
1070
     1
1071
       19
1005
1305B4
  0
LINE
  5
1305B5
  8
OBJECT
 10
4045.661800227324
 20
-3236.9999999999959
 30
0.0
 11
4080.0
 21
-3236.9999999999959
 31
0.0
1001
ACDBBLOCKREPETAG
1070
     1
1071
       20
1005
1305B5
  0
POINT
  5
1305B6
  8
DOTS
 10
4000.0
 20
-3174.9999999999959
 30
0.0
1001
ACDBBLOCKREPETAG
1070
     1
1071
       21
1005
1305B6
  0
CIRCLE
  5
1305B7
  8
OBJECT
 10
3000.0
 20
-3174.9999999999959
 30
0.0
 40
53.5
1001
ACDBBLOCKREPETAG
1070
     1
1071
      344
1005
1305B7
  0
LINE
  5
1305B8
  8
CENTER
 10
3080.0
 20
-3174.9999999999959
 30
0.0
 11
2905.0
 21
-3174.9999999999959
 31
0.0
1001
ACDBBLOCKREPETAG
1070
     1
1071
       14
1005
1305B8
  0
LINE
  5
1305B9
  8
CENTER
 10
3000.0
 20
-3269.9999999999959
 30
0.0
 11
3000.0
 21
-3079.9999999999959
 31
0.0
1001
ACDBBLOCKREPETAG
1070
     1
1071
       15
1005
1305B9
  0
CIRCLE
  5
1305BA
  8
OBJECT
 10
3000.0
 20
-3174.9999999999959
 30
0.0
 40
70.0
1001
ACDBBLOCKREPETAG
1070
     1
1071
       16
1005
1305BA
  0
CIRCLE
  5
1305BB
  8
OBJECT
 10
3000.0
 20
-3174.9999999999959
 30
0.0
 40
77.0
1001
ACDBBLOCKREPETAG
1070
     1
1071
       17
1005
1305BB
  0
ARC
  5
1305BC
  8
OBJECT
 10
3000.0
 20
-3174.9999999999959
 30
0.0
 40
80.0
 50
50.805032573862128
 51
309.19496742613791
1001
ACDBBLOCKREPETAG
1070
     1
1071
       18
1005
1305BC
  0
LINE
  5
1305BD
  8
OBJECT
 10
3045.6618002273249
 20
-3112.9999999999959
 30
0.0
 11
3080.0
 21
-3112.9999999999959
 31
0.0
1001
ACDBBLOCKREPETAG
1070
     1
1071
       19
1005
1305BD
  0
LINE
  5
1305BE
  8
OBJECT
 10
3045.6618002273249
 20
-3236.9999999999959
 30
0.0
 11
3080.0
 21
-3236.9999999999959
 31
0.0
1001
ACDBBLOCKREPETAG
1070
     1
1071
       20
1005
1305BE
  0
POINT
  5
1305BF
  8
DOTS
 10
3000.0
 20
-3174.9999999999959
 30
0.0
1001
ACDBBLOCKREPETAG
1070
     1
1071
       21
1005
1305BF
  0
CIRCLE
  5
1305C0
  8
OBJECT
 10
2000.0
 20
-3174.9999999999959
 30
0.0
 40
53.5
1001
ACDBBLOCKREPETAG
1070
     1
1071
      344
1005
1305C0
  0
LINE
  5
1305C1
  8
CENTER
 10
2080.0
 20
-3174.9999999999959
 30
0.0
 11
1905.0
 21
-3174.9999999999959
 31
0.0
1001
ACDBBLOCKREPETAG
1070
     1
1071
       14
1005
1305C1
  0
LINE
  5
1305C2
  8
CENTER
 10
2000.0
 20
-3269.9999999999959
 30
0.0
 11
2000.0
 21
-3079.9999999999959
 31
0.0
1001
ACDBBLOCKREPETAG
1070
     1
1071
       15
1005
1305C2
  0
CIRCLE
  5
1305C3
  8
OBJECT
 10
2000.0
 20
-3174.9999999999959
 30
0.0
 40
70.0
1001
ACDBBLOCKREPETAG
1070
     1
1071
       16
1005
1305C3
  0
CIRCLE
  5
1305C4
  8
OBJECT
 10
2000.0
 20
-3174.9999999999959
 30
0.0
 40
77.0
1001
ACDBBLOCKREPETAG
1070
     1
1071
       17
1005
1305C4
  0
ARC
  5
1305C5
  8
OBJECT
 10
2000.0
 20
-3174.9999999999959
 30
0.0
 40
80.0
 50
50.805032573862128
 51
309.19496742613791
1001
ACDBBLOCKREPETAG
1070
     1
1071
       18
1005
1305C5
  0
LINE
  5
1305C6
  8
OBJECT
 10
2045.6618002273251
 20
-3112.9999999999959
 30
0.0
 11
2080.0
 21
-3112.9999999999959
 31
0.0
1001
ACDBBLOCKREPETAG
1070
     1
1071
       19
1005
1305C6
  0
LINE
  5
1305C7
  8
OBJECT
 10
2045.6618002273251
 20
-3236.9999999999959
 30
0.0
 11
2080.0
 21
-3236.9999999999959
 31
0.0
1001
ACDBBLOCKREPETAG
1070
     1
1071
       20
1005
1305C7
  0
POINT
  5
1305C8
  8
DOTS
 10
2000.0
 20
-3174.9999999999959
 30
0.0
1001
ACDBBLOCKREPETAG
1070
     1
1071
       21
1005
1305C8
  0
CIRCLE
  5
1305C9
  8
OBJECT
 10
2000.0
 20
-199.99999999999909
 30
0.0
 40
53.5
1001
ACDBBLOCKREPETAG
1070
     1
1071
      340
1005
1305C9
  0
LINE
  5
1305CA
  8
CENTER
 10
2080.0
 20
-199.99999999999909
 30
0.0
 11
1920.0
 21
-199.99999999999909
 31
0.0
1001
ACDBBLOCKREPETAG
1070
     1
1071
       49
1005
1305CA
  0
LINE
  5
1305CB
  8
CENTER
 10
2000.0
 20
-279.99999999999909
 30
0.0
 11
2000.0
 21
-104.9999999999991
 31
0.0
1001
ACDBBLOCKREPETAG
1070
     1
1071
       50
1005
1305CB
  0
CIRCLE
  5
1305CC
  8
OBJECT
 10
2000.0
 20
-199.99999999999909
 30
0.0
 40
70.0
1001
ACDBBLOCKREPETAG
1070
     1
1071
       51
1005
1305CC
  0
CIRCLE
  5
1305CD
  8
OBJECT
 10
2000.0
 20
-199.99999999999909
 30
0.0
 40
77.0
1001
ACDBBLOCKREPETAG
1070
     1
1071
       52
1005
1305CD
  0
ARC
  5
1305CE
  8
OBJECT
 10
2000.0
 20
-199.99999999999909
 30
0.0
 40
80.0
 50
50.805032573864182
 51
129.1949674261358
1001
ACDBBLOCKREPETAG
1070
     1
1071
       53
1005
1305CE
  0
LINE
  5
1305CF
  8
OBJECT
 10
2045.6618002273251
 20
-137.99999999999909
 30
0.0
 11
2080.0
 21
-137.99999999999909
 31
0.0
1001
ACDBBLOCKREPETAG
1070
     1
1071
       54
1005
1305CF
  0
LINE
  5
1305D0
  8
OBJECT
 10
2062.0
 20
-261.99999999999909
 30
0.0
 11
2080.0
 21
-261.99999999999909
 31
0.0
1001
ACDBBLOCKREPETAG
1070
     1
1071
       55
1005
1305D0
  0
LINE
  5
1305D1
  8
OBJECT
 10
2062.0
 20
-261.99999999999909
 30
0.0
 11
2062.0
 21
-279.99999999999909
 31
0.0
1001
ACDBBLOCKREPETAG
1070
     1
1071
       57
1005
1305D1
  0
LINE
  5
1305D2
  8
OBJECT
 10
1938.0
 20
-261.99999999999909
 30
0.0
 11
1938.0
 21
-279.99999999999909
 31
0.0
1001
ACDBBLOCKREPETAG
1070
     1
1071
       58
1005
1305D2
  0
POINT
  5
1305D3
  8
DOTS
 10
2000.0
 20
-199.99999999999909
 30
0.0
 50
90.0
1001
ACDBBLOCKREPETAG
1070
     1
1071
       59
1005
1305D3
  0
LINE
  5
1305D4
  8
OBJECT
 10
1938.0
 20
-261.99999999999909
 30
0.0
 11
1920.0
 21
-261.99999999999909
 31
0.0
1001
ACDBBLOCKREPETAG
1070
     1
1071
       60
1005
1305D4
  0
LINE
  5
1305D5
  8
OBJECT
 10
1954.3381997726749
 20
-137.99999999999909
 30
0.0
 11
1920.0
 21
-137.99999999999909
 31
0.0
1001
ACDBBLOCKREPETAG
1070
     1
1071
       61
1005
1305D5
  0
LINE
  5
1305D6
  8
OBJECT
 10
1945.5527778486351
 20
-254.44722215136329
 30
0.0
 11
1938.0
 21
-261.99999999999909
 31
0.0
1001
ACDBBLOCKREPETAG
1070
     1
1071
       42
1005
1305D6
  0
LINE
  5
1305D7
  8
OBJECT
 10
2054.4472221513638
 20
-254.44722215136329
 30
0.0
 11
2062.0
 21
-261.99999999999909
 31
0.0
1001
ACDBBLOCKREPETAG
1070
     1
1071
       43
1005
1305D7
  0
LINE
  5
1305D8
  8
CENTER
 10
1920.0
 20
-199.99999999999909
 30
0.0
 11
1865.0
 21
-199.99999999999909
 31
0.0
1001
ACDBBLOCKREPETAG
1070
     1
1071
      352
1005
1305D8
  0
LINE
  5
1305D9
  8
OBJECT
 10
1914.0
 20
-140.99999999999821
 30
0.0
 11
1914.0
 21
-258.99999999999818
 31
0.0
1001
ACDBBLOCKREPETAG
1070
     1
1071
      353
1005
1305D9
  0
LINE
  5
1305DA
  8
OBJECT
 10
1890.0
 20
-244.49999999999909
 30
0.0
 11
1890.0
 21
-155.49999999999909
 31
0.0
1001
ACDBBLOCKREPETAG
1070
     1
1071
      354
1005
1305DA
  0
LINE
  5
1305DB
  8
OBJECT
 10
1890.0
 20
-244.49999999999909
 30
0.0
 11
1914.0
 21
-244.49999999999909
 31
0.0
1001
ACDBBLOCKREPETAG
1070
     1
1071
      355
1005
1305DB
  0
LINE
  5
1305DC
  8
OBJECT
 10
1920.0
 20
-261.99999999999818
 30
0.0
 11
1917.0
 21
-261.99999999999818
 31
0.0
1001
ACDBBLOCKREPETAG
1070
     1
1071
      356
1005
1305DC
  0
ARC
  5
1305DD
  8
OBJECT
 10
1917.0
 20
-258.99999999999818
 30
0.0
 40
3.0
 50
180.0
 51
270.0
1001
ACDBBLOCKREPETAG
1070
     1
1071
      357
1005
1305DD
  0
LINE
  5
1305DE
  8
OBJECT
 10
1890.0
 20
-182.17793399999931
 30
0.0
 11
1886.1688109999991
 21
-177.8968179999992
 31
0.0
1001
ACDBBLOCKREPETAG
1070
     1
1071
      358
1005
1305DE
  0
ARC
  5
1305DF
  8
OBJECT
 10
1880.0
 20
-182.99999999999821
 30
0.0
 40
8.0
 50
39.597752999864198
 51
198.15835299991039
1001
ACDBBLOCKREPETAG
1070
     1
1071
      359
1005
1305DF
  0
ARC
  5
1305E0
  8
OBJECT
 10
1877.149402999999
 20
-183.93493299999861
 30
0.0
 40
5.0
 50
198.15835299991039
 51
251.51513100010621
1001
ACDBBLOCKREPETAG
1070
     1
1071
      360
1005
1305E0
  0
LINE
  5
1305E1
  8
OBJECT
 10
1880.0
 20
-194.99999999999909
 30
0.0
 11
1887.0
 21
-194.99999999999909
 31
0.0
1001
ACDBBLOCKREPETAG
1070
     1
1071
      361
1005
1305E1
  0
LINE
  5
1305E2
  8
OBJECT
 10
1880.0
 20
-204.99999999999909
 30
0.0
 11
1887.0
 21
-204.99999999999909
 31
0.0
1001
ACDBBLOCKREPETAG
1070
     1
1071
      362
1005
1305E2
  0
LINE
  5
1305E3
  8
OBJECT
 10
1880.0
 20
-194.99999999999909
 30
0.0
 11
1880.0
 21
-204.99999999999909
 31
0.0
1001
ACDBBLOCKREPETAG
1070
     1
1071
      363
1005
1305E3
  0
LINE
  5
1305E4
  8
OBJECT
 10
1887.0
 20
-192.49999999999909
 30
0.0
 11
1887.0
 21
-207.49999999999909
 31
0.0
1001
ACDBBLOCKREPETAG
1070
     1
1071
      364
1005
1305E4
  0
LINE
  5
1305E5
  8
OBJECT
 10
1890.0
 20
-208.24999999999909
 30
0.0
 11
1887.0
 21
-207.49999999999909
 31
0.0
1001
ACDBBLOCKREPETAG
1070
     1
1071
      365
1005
1305E5
  0
LINE
  5
1305E6
  8
OBJECT
 10
1890.0
 20
-217.82206699999909
 30
0.0
 11
1886.1688109999991
 21
-222.1031819999998
 31
0.0
1001
ACDBBLOCKREPETAG
1070
     1
1071
      366
1005
1305E6
  0
LINE
  5
1305E7
  8
OBJECT
 10
1890.0
 20
-191.74999999999909
 30
0.0
 11
1887.0
 21
-192.49999999999909
 31
0.0
1001
ACDBBLOCKREPETAG
1070
     1
1071
      367
1005
1305E7
  0
ARC
  5
1305E8
  8
OBJECT
 10
1880.0
 20
-216.99999999999821
 30
0.0
 40
8.0
 50
161.84164700008961
 51
320.40224700013579
1001
ACDBBLOCKREPETAG
1070
     1
1071
      368
1005
1305E8
  0
ARC
  5
1305E9
  8
OBJECT
 10
1877.149402999999
 20
-216.0650669999994
 30
0.0
 40
5.0
 50
108.48486899989371
 51
161.84164700008961
1001
ACDBBLOCKREPETAG
1070
     1
1071
      369
1005
1305E9
  0
LINE
  5
1305EA
  8
OBJECT
 10
1875.5641319999991
 20
-211.32302999999959
 30
0.0
 11
1887.0
 21
-207.49999999999909
 31
0.0
1001
ACDBBLOCKREPETAG
1070
     1
1071
      370
1005
1305EA
  0
LINE
  5
1305EB
  8
OBJECT
 10
1875.5641319999991
 20
-188.67696999999851
 30
0.0
 11
1887.0
 21
-192.49999999999909
 31
0.0
1001
ACDBBLOCKREPETAG
1070
     1
1071
      371
1005
1305EB
  0
ARC
  5
1305EC
  8
OBJECT
 10
1917.0
 20
-140.99999999999821
 30
0.0
 40
3.0
 50
90.0
 51
180.0
1001
ACDBBLOCKREPETAG
1070
     1
1071
      372
1005
1305EC
  0
LINE
  5
1305ED
  8
OBJECT
 10
1920.0
 20
-137.99999999999821
 30
0.0
 11
1917.0
 21
-137.99999999999821
 31
0.0
1001
ACDBBLOCKREPETAG
1070
     1
1071
      373
1005
1305ED
  0
LINE
  5
1305EE
  8
OBJECT
 10
1890.0
 20
-155.49999999999909
 30
0.0
 11
1914.0
 21
-155.49999999999909
 31
0.0
1001
ACDBBLOCKREPETAG
1070
     1
1071
      374
1005
1305EE
  0
LINE
  5
1305EF
  8
CENTER
 10
2000.0
 20
-300.99999999999898
 30
0.0
 11
2000.0
 21
-279.99999999999909
 31
0.0
1001
ACDBBLOCKREPETAG
1070
     1
1071
        0
1005
1305EF
  0
LINE
  5
1305F0
  8
OBJECT
 10
2062.0
 20
-283.0
 30
0.0
 11
2062.0
 21
-279.99999999999909
 31
0.0
1001
ACDBBLOCKREPETAG
1070
     1
1071
        1
1005
1305F0
  0
ARC
  5
1305F1
  8
OBJECT
 10
2059.0
 20
-283.0
 30
0.0
 40
3.0
 50
270.0
 51
0.0
1001
ACDBBLOCKREPETAG
1070
     1
1071
        2
1005
1305F1
  0
LINE
  5
1305F2
  8
OBJECT
 10
1938.0
 20
-279.99999999999909
 30
0.0
 11
1938.0
 21
-282.99999999999818
 31
0.0
1001
ACDBBLOCKREPETAG
1070
     1
1071
        3
1005
1305F2
  0
ARC
  5
1305F3
  8
OBJECT
 10
1941.0
 20
-282.99999999999818
 30
0.0
 40
3.0
 50
180.0
 51
270.0
1001
ACDBBLOCKREPETAG
1070
     1
1071
        4
1005
1305F3
  0
LINE
  5
1305F4
  8
OBJECT
 10
1941.0
 20
-285.99999999999818
 30
0.0
 11
2059.0
 21
-286.0
 31
0.0
1001
ACDBBLOCKREPETAG
1070
     1
1071
        5
1005
1305F4
  0
LINE
  5
1305F5
  8
OBJECT
 10
2133.0
 20
-137.99999999999909
 30
0.0
 11
2140.0
 21
-137.99999999999909
 31
0.0
1001
ACDBBLOCKREPETAG
1070
     1
1071
       47
1005
1305F5
  0
LINE
  5
1305F6
  8
OBJECT
 10
2140.0
 20
-137.99999999999909
 30
0.0
 11
2140.0
 21
-261.99999999999909
 31
0.0
1001
ACDBBLOCKREPETAG
1070
     1
1071
       48
1005
1305F6
  0
LINE
  5
1305F7
  8
OBJECT
 10
2140.0
 20
-261.99999999999909
 30
0.0
 11
2133.0
 21
-261.99999999999909
 31
0.0
1001
ACDBBLOCKREPETAG
1070
     1
1071
       49
1005
1305F7
  0
LINE
  5
1305F8
  8
OBJECT
 10
2133.0
 20
-261.99999999999909
 30
0.0
 11
2133.0
 21
-137.99999999999909
 31
0.0
1001
ACDBBLOCKREPETAG
1070
     1
1071
       50
1005
1305F8
  0
LINE
  5
1305F9
  8
CENTER
 10
2155.0
 20
-199.99999999999909
 30
0.0
 11
2080.0
 21
-199.99999999999909
 31
0.0
1001
ACDBBLOCKREPETAG
1070
     1
1071
       51
1005
1305F9
  0
LINE
  5
1305FA
  8
OBJECT
 10
2133.0
 20
-140.99999999999909
 30
0.0
 11
2097.0
 21
-140.99999999999909
 31
0.0
1001
ACDBBLOCKREPETAG
1070
     1
1071
       52
1005
1305FA
  0
LINE
  5
1305FB
  8
OBJECT
 10
2097.0
 20
-140.99999999999909
 30
0.0
 11
2097.0
 21
-258.99999999999909
 31
0.0
1001
ACDBBLOCKREPETAG
1070
     1
1071
       53
1005
1305FB
  0
LINE
  5
1305FC
  8
OBJECT
 10
2097.0
 20
-258.99999999999909
 30
0.0
 11
2133.0
 21
-258.99999999999909
 31
0.0
1001
ACDBBLOCKREPETAG
1070
     1
1071
       54
1005
1305FC
  0
LINE
  5
1305FD
  8
OBJECT
 10
2093.0
 20
-145.49999999999909
 30
0.0
 11
2086.0
 21
-145.49999999999909
 31
0.0
1001
ACDBBLOCKREPETAG
1070
     1
1071
       55
1005
1305FD
  0
LINE
  5
1305FE
  8
OBJECT
 10
2086.0
 20
-254.49999999999909
 30
0.0
 11
2093.0
 21
-254.49999999999909
 31
0.0
1001
ACDBBLOCKREPETAG
1070
     1
1071
       56
1005
1305FE
  0
LINE
  5
1305FF
  8
OBJECT
 10
2093.0
 20
-254.49999999999909
 30
0.0
 11
2093.0
 21
-145.49999999999909
 31
0.0
1001
ACDBBLOCKREPETAG
1070
     1
1071
       57
1005
1305FF
  0
LINE
  5
130600
  8
OBJECT
 10
2097.0
 20
-140.99999999999909
 30
0.0
 11
2093.0
 21
-145.49999999999909
 31
0.0
1001
ACDBBLOCKREPETAG
1070
     1
1071
       58
1005
130600
  0
LINE
  5
130601
  8
OBJECT
 10
2097.0
 20
-258.99999999999909
 30
0.0
 11
2093.0
 21
-254.49999999999909
 31
0.0
1001
ACDBBLOCKREPETAG
1070
     1
1071
       59
1005
130601
  0
LINE
  5
130602
  8
OBJECT
 10
2083.0
 20
-137.99999999999909
 30
0.0
 11
2080.0
 21
-137.99999999999909
 31
0.0
1001
ACDBBLOCKREPETAG
1070
     1
1071
       60
1005
130602
  0
ARC
  5
130603
  8
OBJECT
 10
2083.0
 20
-140.99999999999909
 30
0.0
 40
3.0
 50
0.0
 51
90.0
1001
ACDBBLOCKREPETAG
1070
     1
1071
       61
1005
130603
  0
LINE
  5
130604
  8
OBJECT
 10
2080.0
 20
-261.99999999999909
 30
0.0
 11
2083.0
 21
-261.99999999999909
 31
0.0
1001
ACDBBLOCKREPETAG
1070
     1
1071
       62
1005
130604
  0
ARC
  5
130605
  8
OBJECT
 10
2083.0
 20
-258.99999999999909
 30
0.0
 40
3.0
 50
270.0
 51
0.0
1001
ACDBBLOCKREPETAG
1070
     1
1071
       63
1005
130605
  0
LINE
  5
130606
  8
OBJECT
 10
2086.0
 20
-258.99999999999909
 30
0.0
 11
2086.0
 21
-140.99999999999909
 31
0.0
1001
ACDBBLOCKREPETAG
1070
     1
1071
       64
1005
130606
  0
LINE
  5
130607
  8
HIDDEN
 10
2088.0
 20
-155.49999999999909
 30
0.0
 11
2088.0
 21
-244.49999999999909
 31
0.0
1001
ACDBBLOCKREPETAG
1070
     1
1071
       65
1005
130607
  0
LINE
  5
130608
  8
OBJECT
 10
1880.0
 20
-691.0
 30
0.0
 11
1887.0
 21
-691.0
 31
0.0
1001
ACDBBLOCKREPETAG
1070
     1
1071
      303
1005
130608
  0
LINE
  5
130609
  8
OBJECT
 10
1880.0
 20
-701.0
 30
0.0
 11
1887.0
 21
-701.0
 31
0.0
1001
ACDBBLOCKREPETAG
1070
     1
1071
      304
1005
130609
  0
LINE
  5
13060A
  8
OBJECT
 10
1880.0
 20
-691.0
 30
0.0
 11
1880.0
 21
-693.76802120323453
 31
0.0
1001
ACDBBLOCKREPETAG
1070
     1
1071
      305
1005
13060A
  0
LINE
  5
13060B
  8
OBJECT
 10
1880.0
 20
-698.23197871206878
 30
0.0
 11
1880.0
 21
-701.0
 31
0.0
1001
ACDBBLOCKREPETAG
1070
     1
1071
      306
1005
13060B
  0
LINE
  5
13060C
  8
OBJECT
 10
1887.0
 20
-688.49999999999977
 30
0.0
 11
1887.0
 21
-693.49910050411825
 31
0.0
1001
ACDBBLOCKREPETAG
1070
     1
1071
      307
1005
13060C
  0
LINE
  5
13060D
  8
OBJECT
 10
1887.0
 20
-698.50089931361958
 30
0.0
 11
1887.0
 21
-703.5
 31
0.0
1001
ACDBBLOCKREPETAG
1070
     1
1071
      308
1005
13060D
  0
LINE
  5
13060E
  8
OBJECT
 10
1890.0
 20
-704.25
 30
0.0
 11
1887.0
 21
-703.5
 31
0.0
1001
ACDBBLOCKREPETAG
1070
     1
1071
      309
1005
13060E
  0
LINE
  5
13060F
  8
OBJECT
 10
1890.0
 20
-687.75
 30
0.0
 11
1887.0
 21
-688.49999999999977
 31
0.0
1001
ACDBBLOCKREPETAG
1070
     1
1071
      310
1005
13060F
  0
ARC
  5
130610
  8
OBJECT
 10
1874.0
 20
-696.0
 30
0.0
 40
2.0
 50
92.200063947769905
 51
267.79993684947868
1001
ACDBBLOCKREPETAG
1070
     1
1071
      311
1005
130610
  0
LINE
  5
130611
  8
OBJECT
 10
1890.0
 20
-698.61615099999835
 30
0.0
 11
1873.923222179084
 21
-697.99852574819931
 31
0.0
1001
ACDBBLOCKREPETAG
1070
     1
1071
      312
1005
130611
  0
LINE
  5
130612
  8
OBJECT
 10
1890.0
 20
-693.3838487759258
 30
0.0
 11
1873.923222151268
 21
-694.00147425286923
 31
0.0
1001
ACDBBLOCKREPETAG
1070
     1
1071
      313
1005
130612
  0
LINE
  5
130613
  8
CENTER
 10
1929.0
 20
-696.0
 30
0.0
 11
1857.0
 21
-696.0
 31
0.0
1001
ACDBBLOCKREPETAG
1070
     1
1071
      314
1005
130613
  0
LINE
  5
130614
  8
OBJECT
 10
1914.0
 20
-636.9999999999992
 30
0.0
 11
1914.0
 21
-754.99999999999898
 31
0.0
1001
ACDBBLOCKREPETAG
1070
     1
1071
      315
1005
130614
  0
LINE
  5
130615
  8
OBJECT
 10
1890.0
 20
-740.5
 30
0.0
 11
1890.0
 21
-651.5
 31
0.0
1001
ACDBBLOCKREPETAG
1070
     1
1071
      316
1005
130615
  0
LINE
  5
130616
  8
OBJECT
 10
1890.0
 20
-740.5
 30
0.0
 11
1914.0
 21
-740.5
 31
0.0
1001
ACDBBLOCKREPETAG
1070
     1
1071
      317
1005
130616
  0
LINE
  5
130617
  8
OBJECT
 10
1920.0
 20
-757.9999999999992
 30
0.0
 11
1917.0
 21
-757.9999999999992
 31
0.0
1001
ACDBBLOCKREPETAG
1070
     1
1071
      318
1005
130617
  0
ARC
  5
130618
  8
OBJECT
 10
1917.0
 20
-754.99999999999898
 30
0.0
 40
3.0
 50
180.0
 51
270.0
1001
ACDBBLOCKREPETAG
1070
     1
1071
      319
1005
130618
  0
ARC
  5
130619
  8
OBJECT
 10
1917.0
 20
-636.9999999999992
 30
0.0
 40
3.0
 50
90.0
 51
180.0
1001
ACDBBLOCKREPETAG
1070
     1
1071
      320
1005
130619
  0
LINE
  5
13061A
  8
OBJECT
 10
1920.0
 20
-633.99999999999898
 30
0.0
 11
1917.0
 21
-633.99999999999898
 31
0.0
1001
ACDBBLOCKREPETAG
1070
     1
1071
      321
1005
13061A
  0
LINE
  5
13061B
  8
OBJECT
 10
1890.0
 20
-651.5
 30
0.0
 11
1914.0
 21
-651.5
 31
0.0
1001
ACDBBLOCKREPETAG
1070
     1
1071
      322
1005
13061B
  0
CIRCLE
  5
13061C
  8
OBJECT
 10
2000.0
 20
-696.0
 30
0.0
 40
62.0
1001
ACDBBLOCKREPETAG
1070
     1
1071
        0
1005
13061C
  0
LINE
  5
13061D
  8
OBJECT
 10
2133.0
 20
-634.0
 30
0.0
 11
2140.0
 21
-634.0
 31
0.0
1001
ACDBBLOCKREPETAG
1070
     1
1071
       45
1005
13061D
  0
LINE
  5
13061E
  8
OBJECT
 10
2140.0
 20
-634.0
 30
0.0
 11
2140.0
 21
-755.0
 31
0.0
1001
ACDBBLOCKREPETAG
1070
     1
1071
       46
1005
13061E
  0
LINE
  5
13061F
  8
OBJECT
 10
2133.0
 20
-755.0
 30
0.0
 11
2133.0
 21
-634.0
 31
0.0
1001
ACDBBLOCKREPETAG
1070
     1
1071
       47
1005
13061F
  0
LINE
  5
130620
  8
CENTER
 10
2155.0
 20
-696.0
 30
0.0
 11
2071.0
 21
-696.0
 31
0.0
1001
ACDBBLOCKREPETAG
1070
     1
1071
       48
1005
130620
  0
LINE
  5
130621
  8
OBJECT
 10
2133.0
 20
-637.0
 30
0.0
 11
2097.0
 21
-637.0
 31
0.0
1001
ACDBBLOCKREPETAG
1070
     1
1071
       49
1005
130621
  0
LINE
  5
130622
  8
OBJECT
 10
2097.0
 20
-637.0
 30
0.0
 11
2097.0
 21
-755.0
 31
0.0
1001
ACDBBLOCKREPETAG
1070
     1
1071
       50
1005
130622
  0
LINE
  5
130623
  8
OBJECT
 10
2097.0
 20
-755.0
 30
0.0
 11
2140.0
 21
-755.0
 31
0.0
1001
ACDBBLOCKREPETAG
1070
     1
1071
       51
1005
130623
  0
LINE
  5
130624
  8
OBJECT
 10
2093.0
 20
-641.5
 30
0.0
 11
2086.0
 21
-641.5
 31
0.0
1001
ACDBBLOCKREPETAG
1070
     1
1071
       52
1005
130624
  0
LINE
  5
130625
  8
OBJECT
 10
2086.0
 20
-750.49999999999989
 30
0.0
 11
2093.0
 21
-750.49999999999989
 31
0.0
1001
ACDBBLOCKREPETAG
1070
     1
1071
       53
1005
130625
  0
LINE
  5
130626
  8
OBJECT
 10
2093.0
 20
-750.49999999999989
 30
0.0
 11
2093.0
 21
-641.5
 31
0.0
1001
ACDBBLOCKREPETAG
1070
     1
1071
       54
1005
130626
  0
LINE
  5
130627
  8
OBJECT
 10
2097.0
 20
-637.0
 30
0.0
 11
2093.0
 21
-641.5
 31
0.0
1001
ACDBBLOCKREPETAG
1070
     1
1071
       55
1005
130627
  0
LINE
  5
130628
  8
OBJECT
 10
2097.0
 20
-755.0
 30
0.0
 11
2093.0
 21
-750.49999999999989
 31
0.0
1001
ACDBBLOCKREPETAG
1070
     1
1071
       56
1005
130628
  0
LINE
  5
130629
  8
OBJECT
 10
2083.0
 20
-634.0
 30
0.0
 11
2080.0
 21
-634.0
 31
0.0
1001
ACDBBLOCKREPETAG
1070
     1
1071
       57
1005
130629
  0
ARC
  5
13062A
  8
OBJECT
 10
2083.0
 20
-637.0
 30
0.0
 40
3.0
 50
0.0
 51
90.0
1001
ACDBBLOCKREPETAG
1070
     1
1071
       58
1005
13062A
  0
LINE
  5
13062B
  8
OBJECT
 10
2080.0
 20
-758.0
 30
0.0
 11
2083.0
 21
-758.0
 31
0.0
1001
ACDBBLOCKREPETAG
1070
     1
1071
       59
1005
13062B
  0
ARC
  5
13062C
  8
OBJECT
 10
2083.0
 20
-755.0
 30
0.0
 40
3.0
 50
270.0
 51
0.0
1001
ACDBBLOCKREPETAG
1070
     1
1071
       60
1005
13062C
  0
LINE
  5
13062D
  8
OBJECT
 10
2086.0
 20
-755.0
 30
0.0
 11
2086.0
 21
-637.0
 31
0.0
1001
ACDBBLOCKREPETAG
1070
     1
1071
       61
1005
13062D
  0
LINE
  5
13062E
  8
HIDDEN
 10
2088.0
 20
-651.5
 30
0.0
 11
2088.0
 21
-740.5
 31
0.0
1001
ACDBBLOCKREPETAG
1070
     1
1071
       63
1005
13062E
  0
TEXT
  5
13062F
  8
SLIM
 10
0.0000035665234464
 20
24.000004585317601
 30
0.0
 40
79.999999999972701
  1
枝管バリエーション
 41
0.75
1001
ACDBBLOCKREPETAG
1070
     1
1071
      119
1005
12CC4A
  0
TEXT
  5
130630
  8
SLIM
 10
1837.75
 20
282.50000000000011
 30
0.0
 40
35.0
  1
（枝管サイズ毎に寸法が異なります。管底の位置は50～100で同じです）
 41
0.75
  0
TEXT
  5
130631
  8
SLIM
 10
1850.0
 20
369.99999999999989
 30
0.0
 40
100.0
  1
4SR-CO-A30P
 41
0.75
  0
TEXT
  5
130632
  8
SLIM
 10
0.0
 20
370.0
 30
0.0
 40
100.0
  1
4SR-CO-AX0P-S
 41
0.75
  0
LINE
  5
130633
  8
OBJECT
 10
4923.0
 20
-3395.9999999999968
 30
0.0
 11
4923.0
 21
-3374.9999999999968
 31
0.0
1001
ACDBBLOCKREPETAG
1070
     1
1071
        0
1005
130633
  0
LINE
  5
130634
  8
OBJECT
 10
4923.0
 20
-3374.9999999999968
 30
0.0
 11
5077.0
 21
-3374.9999999999968
 31
0.0
1001
ACDBBLOCKREPETAG
1070
     1
1071
        1
1005
130634
  0
LINE
  5
130635
  8
HIDDEN
 10
4943.0
 20
-3444.9999999999968
 30
0.0
 11
5057.0
 21
-3444.9999999999968
 31
0.0
1001
ACDBBLOCKREPETAG
1070
     1
1071
        2
1005
130635
  0
LINE
  5
130636
  8
OBJECT
 10
5077.0
 20
-3374.9999999999968
 30
0.0
 11
5077.0
 21
-3395.9999999999968
 31
0.0
1001
ACDBBLOCKREPETAG
1070
     1
1071
        3
1005
130636
  0
LINE
  5
130637
  8
OBJECT
 10
5077.0
 20
-3395.9999999999968
 30
0.0
 11
4923.0
 21
-3395.9999999999968
 31
0.0
1001
ACDBBLOCKREPETAG
1070
     1
1071
        4
1005
130637
  0
LINE
  5
130638
  8
CENTER
 10
5000.0
 20
-3359.9999999999968
 30
0.0
 11
5000.0
 21
-3594.9999999999968
 31
0.0
1001
ACDBBLOCKREPETAG
1070
     1
1071
        5
1005
130638
  0
LINE
  5
130639
  8
OBJECT
 10
4925.0
 20
-3458.9999999999968
 30
0.0
 11
4925.0
 21
-3582.9999999999968
 31
0.0
1001
ACDBBLOCKREPETAG
1070
     1
1071
        6
1005
130639
  0
LINE
  5
13063A
  8
OBJECT
 10
4928.0
 20
-3395.9999999999968
 30
0.0
 11
4928.0
 21
-3458.9999999999968
 31
0.0
1001
ACDBBLOCKREPETAG
1070
     1
1071
        7
1005
13063A
  0
LINE
  5
13063B
  8
OBJECT
 10
5072.0
 20
-3458.9999999999968
 30
0.0
 11
5072.0
 21
-3395.9999999999968
 31
0.0
1001
ACDBBLOCKREPETAG
1070
     1
1071
        8
1005
13063B
  0
LINE
  5
13063C
  8
OBJECT
 10
5074.9999999997999
 20
-3582.9999999997758
 30
0.0
 11
5080.0
 21
-3582.9999999999968
 31
0.0
1001
ACDBBLOCKREPETAG
1070
     1
1071
        9
1005
13063C
  0
LINE
  5
13063D
  8
OBJECT
 10
5080.0
 20
-3458.9999999999968
 30
0.0
 11
4925.0
 21
-3458.9999999999968
 31
0.0
1001
ACDBBLOCKREPETAG
1070
     1
1071
       10
1005
13063D
  0
ARC
  5
13063E
  8
OBJECT
 10
5200.6872746716726
 20
-3574.408099410105
 30
0.0
 40
170.6350503965856
 50
137.44134459184301
 51
149.9194958133665
1001
ACDBBLOCKREPETAG
1070
     1
1071
       15
1005
13063E
  0
ARC
  5
13063F
  8
OBJECT
 10
5118.8455987040506
 20
-3530.8827266953631
 30
0.0
 40
78.072222021763665
 50
147.4551531037684
 51
164.66365997719291
1001
ACDBBLOCKREPETAG
1070
     1
1071
       16
1005
13063F
  0
ARC
  5
130640
  8
OBJECT
 10
5085.7554349608727
 20
-3520.9999999999968
 30
0.0
 40
43.55353926885617
 50
165.6884523008477
 51
194.3115476991523
1001
ACDBBLOCKREPETAG
1070
     1
1071
       17
1005
130640
  0
ARC
  5
130641
  8
OBJECT
 10
5200.6872746716726
 20
-3467.5919005898891
 30
0.0
 40
170.6350503965856
 50
210.0805041866335
 51
222.55865540815699
1001
ACDBBLOCKREPETAG
1070
     1
1071
       18
1005
130641
  0
ARC
  5
130642
  8
OBJECT
 10
5118.8455987040506
 20
-3511.1172733046319
 30
0.0
 40
78.072222021763665
 50
195.33634002280701
 51
212.5448468962316
1001
ACDBBLOCKREPETAG
1070
     1
1071
       19
1005
130642
  0
POINT
  5
130643
  8
DOTS
 10
5000.0
 20
-3579.9999999999968
 30
0.0
1001
ACDBBLOCKREPETAG
1070
     1
1071
      186
1005
130643
  0
LINE
  5
130644
  8
OBJECT
 10
4323.0
 20
-3395.9999999999968
 30
0.0
 11
4323.0
 21
-3374.9999999999968
 31
0.0
1001
ACDBBLOCKREPETAG
1070
     1
1071
       20
1005
130644
  0
LINE
  5
130645
  8
OBJECT
 10
4323.0
 20
-3374.9999999999968
 30
0.0
 11
4477.0
 21
-3374.9999999999968
 31
0.0
1001
ACDBBLOCKREPETAG
1070
     1
1071
       21
1005
130645
  0
LINE
  5
130646
  8
HIDDEN
 10
4343.0
 20
-3444.9999999999968
 30
0.0
 11
4457.0
 21
-3444.9999999999968
 31
0.0
1001
ACDBBLOCKREPETAG
1070
     1
1071
       22
1005
130646
  0
LINE
  5
130647
  8
OBJECT
 10
4477.0
 20
-3374.9999999999968
 30
0.0
 11
4477.0
 21
-3395.9999999999968
 31
0.0
1001
ACDBBLOCKREPETAG
1070
     1
1071
       23
1005
130647
  0
LINE
  5
130648
  8
OBJECT
 10
4477.0
 20
-3395.9999999999968
 30
0.0
 11
4323.0
 21
-3395.9999999999968
 31
0.0
1001
ACDBBLOCKREPETAG
1070
     1
1071
       24
1005
130648
  0
LINE
  5
130649
  8
CENTER
 10
4400.0
 20
-3359.9999999999968
 30
0.0
 11
4400.0
 21
-3594.9999999999968
 31
0.0
1001
ACDBBLOCKREPETAG
1070
     1
1071
       25
1005
130649
  0
LINE
  5
13064A
  8
OBJECT
 10
4325.0
 20
-3458.9999999999968
 30
0.0
 11
4325.0
 21
-3582.9999999999968
 31
0.0
1001
ACDBBLOCKREPETAG
1070
     1
1071
       26
1005
13064A
  0
LINE
  5
13064B
  8
OBJECT
 10
4328.0
 20
-3395.9999999999968
 30
0.0
 11
4328.0
 21
-3458.9999999999968
 31
0.0
1001
ACDBBLOCKREPETAG
1070
     1
1071
       27
1005
13064B
  0
LINE
  5
13064C
  8
OBJECT
 10
4472.0
 20
-3458.9999999999968
 30
0.0
 11
4472.0
 21
-3395.9999999999968
 31
0.0
1001
ACDBBLOCKREPETAG
1070
     1
1071
       28
1005
13064C
  0
LINE
  5
13064D
  8
OBJECT
 10
4475.0
 20
-3458.9999999999968
 30
0.0
 11
4325.0
 21
-3458.9999999999968
 31
0.0
1001
ACDBBLOCKREPETAG
1070
     1
1071
       30
1005
13064D
  0
LINE
  5
13064E
  8
OBJECT
 10
4475.0
 20
-3458.9999999999968
 30
0.0
 11
4475.0
 21
-3582.9999999999968
 31
0.0
1001
ACDBBLOCKREPETAG
1070
     1
1071
       34
1005
13064E
  0
POINT
  5
13064F
  8
DOTS
 10
4400.0
 20
-3579.9999999999968
 30
0.0
1001
ACDBBLOCKREPETAG
1070
     1
1071
      187
1005
13064F
  0
LINE
  5
130650
  8
OBJECT
 10
3923.0
 20
-3395.9999999999968
 30
0.0
 11
3923.0
 21
-3374.9999999999968
 31
0.0
1001
ACDBBLOCKREPETAG
1070
     1
1071
        0
1005
130650
  0
LINE
  5
130651
  8
OBJECT
 10
3923.0
 20
-3374.9999999999968
 30
0.0
 11
4077.0
 21
-3374.9999999999968
 31
0.0
1001
ACDBBLOCKREPETAG
1070
     1
1071
        1
1005
130651
  0
LINE
  5
130652
  8
HIDDEN
 10
3943.0
 20
-3444.9999999999968
 30
0.0
 11
4057.0
 21
-3444.9999999999968
 31
0.0
1001
ACDBBLOCKREPETAG
1070
     1
1071
        2
1005
130652
  0
LINE
  5
130653
  8
OBJECT
 10
4077.0
 20
-3374.9999999999968
 30
0.0
 11
4077.0
 21
-3395.9999999999968
 31
0.0
1001
ACDBBLOCKREPETAG
1070
     1
1071
        3
1005
130653
  0
LINE
  5
130654
  8
OBJECT
 10
4077.0
 20
-3395.9999999999968
 30
0.0
 11
3923.0
 21
-3395.9999999999968
 31
0.0
1001
ACDBBLOCKREPETAG
1070
     1
1071
        4
1005
130654
  0
LINE
  5
130655
  8
CENTER
 10
4000.0
 20
-3359.9999999999968
 30
0.0
 11
4000.0
 21
-3594.9999999999968
 31
0.0
1001
ACDBBLOCKREPETAG
1070
     1
1071
        5
1005
130655
  0
LINE
  5
130656
  8
OBJECT
 10
3925.0
 20
-3458.9999999999968
 30
0.0
 11
3925.0
 21
-3582.9999999999968
 31
0.0
1001
ACDBBLOCKREPETAG
1070
     1
1071
        6
1005
130656
  0
LINE
  5
130657
  8
OBJECT
 10
3928.0
 20
-3395.9999999999968
 30
0.0
 11
3928.0
 21
-3458.9999999999968
 31
0.0
1001
ACDBBLOCKREPETAG
1070
     1
1071
        7
1005
130657
  0
LINE
  5
130658
  8
OBJECT
 10
4072.0
 20
-3458.9999999999968
 30
0.0
 11
4072.0
 21
-3395.9999999999968
 31
0.0
1001
ACDBBLOCKREPETAG
1070
     1
1071
        8
1005
130658
  0
LINE
  5
130659
  8
OBJECT
 10
4074.999999999799
 20
-3582.9999999997758
 30
0.0
 11
4080.0
 21
-3582.9999999999968
 31
0.0
1001
ACDBBLOCKREPETAG
1070
     1
1071
        9
1005
130659
  0
LINE
  5
13065A
  8
OBJECT
 10
4080.0
 20
-3458.9999999999968
 30
0.0
 11
3925.0
 21
-3458.9999999999968
 31
0.0
1001
ACDBBLOCKREPETAG
1070
     1
1071
       10
1005
13065A
  0
ARC
  5
13065B
  8
OBJECT
 10
4200.6872746716726
 20
-3574.408099410105
 30
0.0
 40
170.6350503965856
 50
137.44134459184301
 51
149.9194958133665
1001
ACDBBLOCKREPETAG
1070
     1
1071
       15
1005
13065B
  0
ARC
  5
13065C
  8
OBJECT
 10
4118.8455987040506
 20
-3530.8827266953631
 30
0.0
 40
78.072222021763665
 50
147.4551531037684
 51
164.663659977186
1001
ACDBBLOCKREPETAG
1070
     1
1071
       16
1005
13065C
  0
ARC
  5
13065D
  8
OBJECT
 10
4085.7554349608722
 20
-3520.9999999999968
 30
0.0
 40
43.55353926885617
 50
165.6884523008477
 51
194.3115476991523
1001
ACDBBLOCKREPETAG
1070
     1
1071
       17
1005
13065D
  0
ARC
  5
13065E
  8
OBJECT
 10
4200.6872746716726
 20
-3467.5919005898891
 30
0.0
 40
170.6350503965856
 50
210.0805041866335
 51
222.55865540815699
1001
ACDBBLOCKREPETAG
1070
     1
1071
       18
1005
13065E
  0
ARC
  5
13065F
  8
OBJECT
 10
4118.8455987040506
 20
-3511.1172733046319
 30
0.0
 40
78.072222021763665
 50
195.33634002281391
 51
212.5448468962316
1001
ACDBBLOCKREPETAG
1070
     1
1071
       19
1005
13065F
  0
POINT
  5
130660
  8
DOTS
 10
4000.0
 20
-3579.9999999999968
 30
0.0
1001
ACDBBLOCKREPETAG
1070
     1
1071
      186
1005
130660
  0
LINE
  5
130661
  8
OBJECT
 10
3323.0
 20
-3395.9999999999968
 30
0.0
 11
3323.0
 21
-3374.9999999999968
 31
0.0
1001
ACDBBLOCKREPETAG
1070
     1
1071
       20
1005
130661
  0
LINE
  5
130662
  8
OBJECT
 10
3323.0
 20
-3374.9999999999968
 30
0.0
 11
3477.0
 21
-3374.9999999999968
 31
0.0
1001
ACDBBLOCKREPETAG
1070
     1
1071
       21
1005
130662
  0
LINE
  5
130663
  8
HIDDEN
 10
3343.0
 20
-3444.9999999999968
 30
0.0
 11
3457.0
 21
-3444.9999999999968
 31
0.0
1001
ACDBBLOCKREPETAG
1070
     1
1071
       22
1005
130663
  0
LINE
  5
130664
  8
OBJECT
 10
3477.0
 20
-3374.9999999999968
 30
0.0
 11
3477.0
 21
-3395.9999999999968
 31
0.0
1001
ACDBBLOCKREPETAG
1070
     1
1071
       23
1005
130664
  0
LINE
  5
130665
  8
OBJECT
 10
3477.0
 20
-3395.9999999999968
 30
0.0
 11
3323.0
 21
-3395.9999999999968
 31
0.0
1001
ACDBBLOCKREPETAG
1070
     1
1071
       24
1005
130665
  0
LINE
  5
130666
  8
CENTER
 10
3400.0
 20
-3359.9999999999968
 30
0.0
 11
3400.0
 21
-3594.9999999999968
 31
0.0
1001
ACDBBLOCKREPETAG
1070
     1
1071
       25
1005
130666
  0
LINE
  5
130667
  8
OBJECT
 10
3325.0
 20
-3458.9999999999968
 30
0.0
 11
3325.0
 21
-3582.9999999999968
 31
0.0
1001
ACDBBLOCKREPETAG
1070
     1
1071
       26
1005
130667
  0
LINE
  5
130668
  8
OBJECT
 10
3328.0
 20
-3395.9999999999968
 30
0.0
 11
3328.0
 21
-3458.9999999999968
 31
0.0
1001
ACDBBLOCKREPETAG
1070
     1
1071
       27
1005
130668
  0
LINE
  5
130669
  8
OBJECT
 10
3472.0
 20
-3458.9999999999968
 30
0.0
 11
3472.0
 21
-3395.9999999999968
 31
0.0
1001
ACDBBLOCKREPETAG
1070
     1
1071
       28
1005
130669
  0
LINE
  5
13066A
  8
OBJECT
 10
3475.0
 20
-3458.9999999999968
 30
0.0
 11
3325.0
 21
-3458.9999999999968
 31
0.0
1001
ACDBBLOCKREPETAG
1070
     1
1071
       30
1005
13066A
  0
LINE
  5
13066B
  8
OBJECT
 10
3475.0
 20
-3458.9999999999968
 30
0.0
 11
3475.0
 21
-3582.9999999999968
 31
0.0
1001
ACDBBLOCKREPETAG
1070
     1
1071
       34
1005
13066B
  0
POINT
  5
13066C
  8
DOTS
 10
3400.0
 20
-3579.9999999999968
 30
0.0
1001
ACDBBLOCKREPETAG
1070
     1
1071
      187
1005
13066C
  0
LINE
  5
13066D
  8
OBJECT
 10
2923.0
 20
-3395.9999999999968
 30
0.0
 11
2923.0
 21
-3374.9999999999968
 31
0.0
1001
ACDBBLOCKREPETAG
1070
     1
1071
        0
1005
13066D
  0
LINE
  5
13066E
  8
OBJECT
 10
2923.0
 20
-3374.9999999999968
 30
0.0
 11
3077.0
 21
-3374.9999999999968
 31
0.0
1001
ACDBBLOCKREPETAG
1070
     1
1071
        1
1005
13066E
  0
LINE
  5
13066F
  8
HIDDEN
 10
2943.0
 20
-3444.9999999999968
 30
0.0
 11
3057.0
 21
-3444.9999999999968
 31
0.0
1001
ACDBBLOCKREPETAG
1070
     1
1071
        2
1005
13066F
  0
LINE
  5
130670
  8
OBJECT
 10
3077.0
 20
-3374.9999999999968
 30
0.0
 11
3077.0
 21
-3395.9999999999968
 31
0.0
1001
ACDBBLOCKREPETAG
1070
     1
1071
        3
1005
130670
  0
LINE
  5
130671
  8
OBJECT
 10
3077.0
 20
-3395.9999999999968
 30
0.0
 11
2923.0
 21
-3395.9999999999968
 31
0.0
1001
ACDBBLOCKREPETAG
1070
     1
1071
        4
1005
130671
  0
LINE
  5
130672
  8
CENTER
 10
3000.0
 20
-3359.9999999999968
 30
0.0
 11
3000.0
 21
-3594.9999999999968
 31
0.0
1001
ACDBBLOCKREPETAG
1070
     1
1071
        5
1005
130672
  0
LINE
  5
130673
  8
OBJECT
 10
2925.0
 20
-3458.9999999999968
 30
0.0
 11
2925.0
 21
-3582.9999999999968
 31
0.0
1001
ACDBBLOCKREPETAG
1070
     1
1071
        6
1005
130673
  0
LINE
  5
130674
  8
OBJECT
 10
2928.0
 20
-3395.9999999999968
 30
0.0
 11
2928.0
 21
-3458.9999999999968
 31
0.0
1001
ACDBBLOCKREPETAG
1070
     1
1071
        7
1005
130674
  0
LINE
  5
130675
  8
OBJECT
 10
3072.0
 20
-3458.9999999999968
 30
0.0
 11
3072.0
 21
-3395.9999999999968
 31
0.0
1001
ACDBBLOCKREPETAG
1070
     1
1071
        8
1005
130675
  0
LINE
  5
130676
  8
OBJECT
 10
3074.9999999997999
 20
-3582.9999999997758
 30
0.0
 11
3080.0
 21
-3582.9999999999968
 31
0.0
1001
ACDBBLOCKREPETAG
1070
     1
1071
        9
1005
130676
  0
LINE
  5
130677
  8
OBJECT
 10
3080.0
 20
-3458.9999999999968
 30
0.0
 11
2925.0
 21
-3458.9999999999968
 31
0.0
1001
ACDBBLOCKREPETAG
1070
     1
1071
       10
1005
130677
  0
ARC
  5
130678
  8
OBJECT
 10
3200.6872746716722
 20
-3574.408099410105
 30
0.0
 40
170.6350503965856
 50
137.44134459184301
 51
149.9194958133665
1001
ACDBBLOCKREPETAG
1070
     1
1071
       15
1005
130678
  0
ARC
  5
130679
  8
OBJECT
 10
3118.8455987040511
 20
-3530.8827266953631
 30
0.0
 40
78.072222021763665
 50
147.4551531037684
 51
164.663659977186
1001
ACDBBLOCKREPETAG
1070
     1
1071
       16
1005
130679
  0
ARC
  5
13067A
  8
OBJECT
 10
3085.7554349608731
 20
-3520.9999999999968
 30
0.0
 40
43.55353926885617
 50
165.6884523008477
 51
194.3115476991523
1001
ACDBBLOCKREPETAG
1070
     1
1071
       17
1005
13067A
  0
ARC
  5
13067B
  8
OBJECT
 10
3200.6872746716722
 20
-3467.5919005898891
 30
0.0
 40
170.6350503965856
 50
210.0805041866335
 51
222.55865540815699
1001
ACDBBLOCKREPETAG
1070
     1
1071
       18
1005
13067B
  0
ARC
  5
13067C
  8
OBJECT
 10
3118.8455987040511
 20
-3511.1172733046319
 30
0.0
 40
78.072222021763665
 50
195.33634002281391
 51
212.5448468962316
1001
ACDBBLOCKREPETAG
1070
     1
1071
       19
1005
13067C
  0
POINT
  5
13067D
  8
DOTS
 10
3000.0
 20
-3579.9999999999968
 30
0.0
1001
ACDBBLOCKREPETAG
1070
     1
1071
      186
1005
13067D
  0
LINE
  5
13067E
  8
OBJECT
 10
2323.0
 20
-3395.9999999999968
 30
0.0
 11
2323.0
 21
-3374.9999999999968
 31
0.0
1001
ACDBBLOCKREPETAG
1070
     1
1071
       20
1005
13067E
  0
LINE
  5
13067F
  8
OBJECT
 10
2323.0
 20
-3374.9999999999968
 30
0.0
 11
2477.0
 21
-3374.9999999999968
 31
0.0
1001
ACDBBLOCKREPETAG
1070
     1
1071
       21
1005
13067F
  0
LINE
  5
130680
  8
HIDDEN
 10
2343.0
 20
-3444.9999999999968
 30
0.0
 11
2457.0
 21
-3444.9999999999968
 31
0.0
1001
ACDBBLOCKREPETAG
1070
     1
1071
       22
1005
130680
  0
LINE
  5
130681
  8
OBJECT
 10
2477.0
 20
-3374.9999999999968
 30
0.0
 11
2477.0
 21
-3395.9999999999968
 31
0.0
1001
ACDBBLOCKREPETAG
1070
     1
1071
       23
1005
130681
  0
LINE
  5
130682
  8
OBJECT
 10
2477.0
 20
-3395.9999999999968
 30
0.0
 11
2323.0
 21
-3395.9999999999968
 31
0.0
1001
ACDBBLOCKREPETAG
1070
     1
1071
       24
1005
130682
  0
LINE
  5
130683
  8
CENTER
 10
2400.0
 20
-3359.9999999999968
 30
0.0
 11
2400.0
 21
-3594.9999999999968
 31
0.0
1001
ACDBBLOCKREPETAG
1070
     1
1071
       25
1005
130683
  0
LINE
  5
130684
  8
OBJECT
 10
2325.0
 20
-3458.9999999999968
 30
0.0
 11
2325.0
 21
-3582.9999999999968
 31
0.0
1001
ACDBBLOCKREPETAG
1070
     1
1071
       26
1005
130684
  0
LINE
  5
130685
  8
OBJECT
 10
2328.0
 20
-3395.9999999999968
 30
0.0
 11
2328.0
 21
-3458.9999999999968
 31
0.0
1001
ACDBBLOCKREPETAG
1070
     1
1071
       27
1005
130685
  0
LINE
  5
130686
  8
OBJECT
 10
2472.0
 20
-3458.9999999999968
 30
0.0
 11
2472.0
 21
-3395.9999999999968
 31
0.0
1001
ACDBBLOCKREPETAG
1070
     1
1071
       28
1005
130686
  0
LINE
  5
130687
  8
OBJECT
 10
2475.0
 20
-3458.9999999999968
 30
0.0
 11
2325.0
 21
-3458.9999999999968
 31
0.0
1001
ACDBBLOCKREPETAG
1070
     1
1071
       30
1005
130687
  0
LINE
  5
130688
  8
OBJECT
 10
2475.0
 20
-3458.9999999999968
 30
0.0
 11
2475.0
 21
-3582.9999999999968
 31
0.0
1001
ACDBBLOCKREPETAG
1070
     1
1071
       34
1005
130688
  0
POINT
  5
130689
  8
DOTS
 10
2400.0
 20
-3579.9999999999968
 30
0.0
1001
ACDBBLOCKREPETAG
1070
     1
1071
      187
1005
130689
  0
LINE
  5
13068A
  8
OBJECT
 10
1923.0
 20
-3395.9999999999968
 30
0.0
 11
1923.0
 21
-3374.9999999999968
 31
0.0
1001
ACDBBLOCKREPETAG
1070
     1
1071
        0
1005
13068A
  0
LINE
  5
13068B
  8
OBJECT
 10
1923.0
 20
-3374.9999999999968
 30
0.0
 11
2077.0
 21
-3374.9999999999968
 31
0.0
1001
ACDBBLOCKREPETAG
1070
     1
1071
        1
1005
13068B
  0
LINE
  5
13068C
  8
HIDDEN
 10
1943.0
 20
-3444.9999999999968
 30
0.0
 11
2057.0
 21
-3444.9999999999968
 31
0.0
1001
ACDBBLOCKREPETAG
1070
     1
1071
        2
1005
13068C
  0
LINE
  5
13068D
  8
OBJECT
 10
2077.0
 20
-3374.9999999999968
 30
0.0
 11
2077.0
 21
-3395.9999999999968
 31
0.0
1001
ACDBBLOCKREPETAG
1070
     1
1071
        3
1005
13068D
  0
LINE
  5
13068E
  8
OBJECT
 10
2077.0
 20
-3395.9999999999968
 30
0.0
 11
1923.0
 21
-3395.9999999999968
 31
0.0
1001
ACDBBLOCKREPETAG
1070
     1
1071
        4
1005
13068E
  0
LINE
  5
13068F
  8
CENTER
 10
2000.0
 20
-3359.9999999999968
 30
0.0
 11
2000.0
 21
-3594.9999999999968
 31
0.0
1001
ACDBBLOCKREPETAG
1070
     1
1071
        5
1005
13068F
  0
LINE
  5
130690
  8
OBJECT
 10
1925.0
 20
-3458.9999999999968
 30
0.0
 11
1925.0
 21
-3582.9999999999968
 31
0.0
1001
ACDBBLOCKREPETAG
1070
     1
1071
        6
1005
130690
  0
LINE
  5
130691
  8
OBJECT
 10
1928.0
 20
-3395.9999999999968
 30
0.0
 11
1928.0
 21
-3458.9999999999968
 31
0.0
1001
ACDBBLOCKREPETAG
1070
     1
1071
        7
1005
130691
  0
LINE
  5
130692
  8
OBJECT
 10
2072.0
 20
-3458.9999999999968
 30
0.0
 11
2072.0
 21
-3395.9999999999968
 31
0.0
1001
ACDBBLOCKREPETAG
1070
     1
1071
        8
1005
130692
  0
LINE
  5
130693
  8
OBJECT
 10
2074.999999999799
 20
-3582.9999999997758
 30
0.0
 11
2080.0
 21
-3582.9999999999968
 31
0.0
1001
ACDBBLOCKREPETAG
1070
     1
1071
        9
1005
130693
  0
LINE
  5
130694
  8
OBJECT
 10
2080.0
 20
-3458.9999999999968
 30
0.0
 11
1925.0
 21
-3458.9999999999968
 31
0.0
1001
ACDBBLOCKREPETAG
1070
     1
1071
       10
1005
130694
  0
ARC
  5
130695
  8
OBJECT
 10
2200.6872746716731
 20
-3574.408099410105
 30
0.0
 40
170.6350503965856
 50
137.44134459184301
 51
149.91949581335999
1001
ACDBBLOCKREPETAG
1070
     1
1071
       15
1005
130695
  0
ARC
  5
130696
  8
OBJECT
 10
2118.8455987040511
 20
-3530.8827266953631
 30
0.0
 40
78.072222021763665
 50
147.45515310377539
 51
164.663659977186
1001
ACDBBLOCKREPETAG
1070
     1
1071
       16
1005
130696
  0
ARC
  5
130697
  8
OBJECT
 10
2085.7554349608731
 20
-3520.9999999999968
 30
0.0
 40
43.55353926885617
 50
165.6884523008477
 51
194.3115476991523
1001
ACDBBLOCKREPETAG
1070
     1
1071
       17
1005
130697
  0
ARC
  5
130698
  8
OBJECT
 10
2200.6872746716731
 20
-3467.5919005898891
 30
0.0
 40
170.6350503965856
 50
210.08050418664001
 51
222.55865540815699
1001
ACDBBLOCKREPETAG
1070
     1
1071
       18
1005
130698
  0
ARC
  5
130699
  8
OBJECT
 10
2118.8455987040511
 20
-3511.1172733046319
 30
0.0
 40
78.072222021763665
 50
195.33634002281391
 51
212.54484689622461
1001
ACDBBLOCKREPETAG
1070
     1
1071
       19
1005
130699
  0
POINT
  5
13069A
  8
DOTS
 10
2000.0
 20
-3579.9999999999968
 30
0.0
1001
ACDBBLOCKREPETAG
1070
     1
1071
      186
1005
13069A
  0
LINE
  5
13069B
  8
DIM
 10
2150.0
 20
-3221.9999999999959
 30
0.0
 11
2228.479620594459
 21
-3221.9999999999959
 31
0.0
  0
LINE
  5
13069C
  8
DIM
 10
2150.0
 20
-3127.9999999999959
 30
0.0
 11
2228.479620594459
 21
-3127.9999999999959
 31
0.0
  0
LINE
  5
13069D
  8
DIM
 10
2218.479620594459
 20
-3201.9999999999959
 30
0.0
 11
2218.479620594459
 21
-3147.9999999999959
 31
0.0
  0
INSERT
  5
13069E
  8
DIM
  2
_OPEN30
 10
2218.479620594459
 20
-3221.9999999999959
 30
0.0
 41
20.0
 42
20.0
 43
20.0
 50
270.0
  0
INSERT
  5
13069F
  8
DIM
  2
_OPEN30
 10
2218.479620594459
 20
-3127.9999999999959
 30
0.0
 41
20.0
 42
20.0
 43
20.0
 50
90.0
  0
INSERT
  5
1306A0
  8
OBJECT
  2
*U209
 10
0.0
 20
0.0
 30
0.0
  0
LINE
  5
1306A1
  8
DIM
 10
2150.0
 20
-3579.9999999999968
 30
0.0
 11
2226.8409284037339
 21
-3579.9999999999968
 31
0.0
  0
LINE
  5
1306A2
  8
DIM
 10
2165.0
 20
-3535.9999999999968
 30
0.0
 11
2226.8409284037339
 21
-3535.9999999999968
 31
0.0
  0
LINE
  5
1306A3
  8
DIM
 10
2216.840928403733
 20
-3599.9999999999968
 30
0.0
 11
2216.840928403733
 21
-3619.9999999999968
 31
0.0
  0
LINE
  5
1306A4
  8
DIM
 10
2216.840928403733
 20
-3515.9999999999968
 30
0.0
 11
2216.840928403733
 21
-3495.9999999999968
 31
0.0
  0
LINE
  5
1306A5
  8
DIM
 10
2216.840928403733
 20
-3579.9999999999968
 30
0.0
 11
2216.840928403733
 21
-3535.9999999999968
 31
0.0
  0
INSERT
  5
1306A6
  8
DIM
  2
_OPEN30
 10
2216.840928403733
 20
-3579.9999999999968
 30
0.0
 41
20.0
 42
20.0
 43
20.0
 50
90.0
  0
INSERT
  5
1306A7
  8
DIM
  2
_OPEN30
 10
2216.840928403733
 20
-3535.9999999999968
 30
0.0
 41
20.0
 42
20.0
 43
20.0
 50
270.0
  0
INSERT
  5
1306A8
  8
OBJECT
  2
*U210
 10
0.0
 20
0.0
 30
0.0
  0
LINE
  5
1306A9
  8
DIM
 10
2000.0
 20
-3069.9999999999959
 30
0.0
 11
2000.0
 21
-3037.208121984444
 31
0.0
  0
LINE
  5
1306AA
  8
DIM
 10
2140.0
 20
-3117.9999999999959
 30
0.0
 11
2140.0
 21
-3037.208121984444
 31
0.0
  0
LINE
  5
1306AB
  8
DIM
 10
2020.0
 20
-3047.208121984444
 30
0.0
 11
2120.0
 21
-3047.208121984444
 31
0.0
  0
INSERT
  5
1306AC
  8
DIM
  2
_OPEN30
 10
2000.0
 20
-3047.208121984444
 30
0.0
 41
20.0
 42
20.0
 43
20.0
 50
180.0
  0
INSERT
  5
1306AD
  8
DIM
  2
_OPEN30
 10
2140.0
 20
-3047.208121984444
 30
0.0
 41
20.0
 42
20.0
 43
20.0
  0
INSERT
  5
1306AE
  8
OBJECT
  2
*U211
 10
0.0
 20
0.0
 30
0.0
  0
TEXT
  5
1306AF
  8
SLIM
 10
2631.0
 20
-2952.50001604727
 30
0.0
 40
40.0
  1
C寸法
 41
0.75
  0
TEXT
  5
1306B0
  8
SLIM
 10
2631.0
 20
-2882.50001604727
 30
0.0
 40
40.0
  1
B寸法
 41
0.75
  0
TEXT
  5
1306B1
  8
SLIM
 10
2630.2857142857142
 20
-2812.50001604727
 30
0.0
 40
40.0
  1
A寸法
 41
0.75
  0
TEXT
  5
1306B2
  8
SLIM
 10
3159.2857142857151
 20
-2952.50001604727
 30
0.0
 40
40.0
  1
150
 41
0.75
  0
TEXT
  5
1306B3
  8
SLIM
 10
3029.2857142857151
 20
-2952.50001604727
 30
0.0
 40
40.0
  1
140
 41
0.75
  0
TEXT
  5
1306B4
  8
SLIM
 10
2769.2857142857151
 20
-2952.50001604727
 30
0.0
 40
40.0
  1
140
 41
0.75
  0
TEXT
  5
1306B5
  8
SLIM
 10
2899.2857142857151
 20
-2952.50001604727
 30
0.0
 40
40.0
  1
140
 41
0.75
  0
TEXT
  5
1306B6
  8
SLIM
 10
3170.7142857142858
 20
-2882.50001604727
 30
0.0
 40
40.0
  1
72
 41
0.75
  0
TEXT
  5
1306B7
  8
SLIM
 10
3041.4285714285711
 20
-2882.50001604727
 30
0.0
 40
40.0
  1
59
 41
0.75
  0
TEXT
  5
1306B8
  8
SLIM
 10
2780.0
 20
-2882.50001604727
 30
0.0
 40
40.0
  1
44
 41
0.75
  0
TEXT
  5
1306B9
  8
SLIM
 10
2910.7142857142858
 20
-2882.50001604727
 30
0.0
 40
40.0
  1
52
 41
0.75
  0
TEXT
  5
1306BA
  8
SLIM
 10
2891.0
 20
-2687.50001604727
 30
0.0
 40
40.0
  1
横枝管サイズ
 41
0.75
  0
TEXT
  5
1306BB
  8
SLIM
 10
3136.2857142857151
 20
-2742.50001604727
 30
0.0
 40
30.0
  1
100（4）
 41
0.75
  0
TEXT
  5
1306BC
  8
SLIM
 10
3014.857142857144
 20
-2742.50001604727
 30
0.0
 40
30.0
  1
75（3）
 41
0.75
  0
TEXT
  5
1306BD
  8
SLIM
 10
2884.8571428571431
 20
-2742.50001604727
 30
0.0
 40
30.0
  1
65（2）
 41
0.75
  0
TEXT
  5
1306BE
  8
SLIM
 10
2757.0
 20
-2742.50001604727
 30
0.0
 40
30.0
  1
50（1）
 41
0.75
  0
TEXT
  5
1306BF
  8
SLIM
 10
3159.2857142857151
 20
-2812.50001604727
 30
0.0
 40
40.0
  1
150
 41
0.75
  0
TEXT
  5
1306C0
  8
SLIM
 10
3028.571428571428
 20
-2812.50001604727
 30
0.0
 40
40.0
  1
124
 41
0.75
  0
TEXT
  5
1306C1
  8
SLIM
 10
2780.0
 20
-2812.50001604727
 30
0.0
 40
40.0
  1
94
 41
0.75
  0
TEXT
  5
1306C2
  8
SLIM
 10
2902.1428571428569
 20
-2812.50001604727
 30
0.0
 40
40.0
  1
110
 41
0.75
  0
TEXT
  5
1306C3
  8
SLIM
 10
1849.9999999999991
 20
-2712.5
 30
0.0
 40
75.0
  1
枝管サイズ毎の形状
 41
0.75
  0
LINE
  5
1306C4
  8
OBJECT
 10
5150.0
 20
-3432.9999999999968
 30
0.0
 11
5143.0
 21
-3432.9999999999968
 31
0.0
1001
ACDBBLOCKREPETAG
1070
     1
1071
       64
1005
1306C4
  0
LINE
  5
1306C5
  8
OBJECT
 10
5143.0
 20
-3432.9999999999968
 30
0.0
 11
5143.0
 21
-3579.9999999999968
 31
0.0
1001
ACDBBLOCKREPETAG
1070
     1
1071
       65
1005
1306C5
  0
LINE
  5
1306C6
  8
OBJECT
 10
5101.5
 20
-3435.9999999999968
 30
0.0
 11
5101.5
 21
-3579.9999999999968
 31
0.0
1001
ACDBBLOCKREPETAG
1070
     1
1071
       66
1005
1306C6
  0
LINE
  5
1306C7
  8
OBJECT
 10
5090.0
 20
-3442.4999999999968
 30
0.0
 11
5090.0
 21
-3573.4999999999968
 31
0.0
1001
ACDBBLOCKREPETAG
1070
     1
1071
       67
1005
1306C7
  0
LINE
  5
1306C8
  8
OBJECT
 10
5086.0
 20
-3514.5000000000041
 30
0.0
 11
5086.0
 21
-3579.9999999999968
 31
0.0
1001
ACDBBLOCKREPETAG
1070
     1
1071
       68
1005
1306C8
  0
LINE
  5
1306C9
  8
OBJECT
 10
5150.0
 20
-3579.9999999999968
 30
0.0
 11
5150.0
 21
-3432.9999999999968
 31
0.0
1001
ACDBBLOCKREPETAG
1070
     1
1071
       69
1005
1306C9
  0
LINE
  5
1306CA
  8
CENTER
 10
5165.0
 20
-3507.9999999999968
 30
0.0
 11
5070.4144144144157
 21
-3507.9999999999968
 31
0.0
1001
ACDBBLOCKREPETAG
1070
     1
1071
       70
1005
1306CA
  0
LINE
  5
1306CB
  8
OBJECT
 10
5083.0000000000045
 20
-3582.9999999999968
 30
0.0
 11
5080.0
 21
-3582.9999999999968
 31
0.0
1001
ACDBBLOCKREPETAG
1070
     1
1071
       71
1005
1306CB
  0
ARC
  5
1306CC
  8
OBJECT
 10
5091.8815171830656
 20
-3581.4555591801418
 30
0.0
 40
6.0
 50
60.52411099686767
 51
170.6927439126847
1001
ACDBBLOCKREPETAG
1070
     1
1071
       72
1005
1306CC
  0
ARC
  5
1306CD
  8
OBJECT
 10
5083.0
 20
-3579.9999999999968
 30
0.0
 40
3.0
 50
270.0
 51
350.69274391268482
1001
ACDBBLOCKREPETAG
1070
     1
1071
       73
1005
1306CD
  0
LINE
  5
1306CE
  8
OBJECT
 10
5081.0
 20
-3458.9999999999968
 30
0.0
 11
5080.0
 21
-3458.9999999999968
 31
0.0
1001
ACDBBLOCKREPETAG
1070
     1
1071
       74
1005
1306CE
  0
LINE
  5
1306CF
  8
OBJECT
 10
5150.0
 20
-3579.9999999999968
 30
0.0
 11
5101.5
 21
-3579.9999999999968
 31
0.0
1001
ACDBBLOCKREPETAG
1070
     1
1071
       75
1005
1306CF
  0
LINE
  5
1306D0
  8
OBJECT
 10
5101.5
 20
-3435.9999999999968
 30
0.0
 11
5090.0
 21
-3442.4999999999968
 31
0.0
1001
ACDBBLOCKREPETAG
1070
     1
1071
       76
1005
1306D0
  0
LINE
  5
1306D1
  8
OBJECT
 10
5143.0
 20
-3435.9999999999968
 30
0.0
 11
5101.5
 21
-3435.9999999999968
 31
0.0
1001
ACDBBLOCKREPETAG
1070
     1
1071
       77
1005
1306D1
  0
LINE
  5
1306D2
  8
OBJECT
 10
5086.0
 20
-3514.5000000000041
 30
0.0
 11
5081.0
 21
-3458.9999999999968
 31
0.0
1001
ACDBBLOCKREPETAG
1070
     1
1071
       78
1005
1306D2
  0
LINE
  5
1306D3
  8
OBJECT
 10
5090.0
 20
-3442.4999999999968
 30
0.0
 11
5081.0
 21
-3458.9999999999968
 31
0.0
1001
ACDBBLOCKREPETAG
1070
     1
1071
       79
1005
1306D3
  0
LINE
  5
1306D4
  8
OBJECT
 10
5101.5
 20
-3579.9999999999968
 30
0.0
 11
5094.8338607230708
 21
-3576.232182147819
 31
0.0
1001
ACDBBLOCKREPETAG
1070
     1
1071
       80
1005
1306D4
  0
LINE
  5
1306D5
  8
HIDDEN
 10
5098.0
 20
-3564.9999999999968
 30
0.0
 11
5098.0
 21
-3450.9999999999968
 31
0.0
1001
ACDBBLOCKREPETAG
1070
     1
1071
       81
1005
1306D5
  0
LINE
  5
1306D6
  8
OBJECT
 10
5150.0
 20
-3099.9999999999959
 30
0.0
 11
5143.0
 21
-3099.9999999999959
 31
0.0
1001
ACDBBLOCKREPETAG
1070
     1
1071
       67
1005
1306D6
  0
LINE
  5
1306D7
  8
OBJECT
 10
5143.0
 20
-3099.9999999999959
 30
0.0
 11
5143.0
 21
-3249.9999999999959
 31
0.0
1001
ACDBBLOCKREPETAG
1070
     1
1071
       68
1005
1306D7
  0
LINE
  5
1306D8
  8
OBJECT
 10
5101.5
 20
-3102.9999999999959
 30
0.0
 11
5101.5
 21
-3246.9999999999959
 31
0.0
1001
ACDBBLOCKREPETAG
1070
     1
1071
       69
1005
1306D8
  0
LINE
  5
1306D9
  8
OBJECT
 10
5090.0
 20
-3109.4999999999959
 30
0.0
 11
5090.0
 21
-3240.4999999999959
 31
0.0
1001
ACDBBLOCKREPETAG
1070
     1
1071
       70
1005
1306D9
  0
LINE
  5
1306DA
  8
OBJECT
 10
5143.0
 20
-3249.9999999999959
 30
0.0
 11
5150.0
 21
-3249.9999999999959
 31
0.0
1001
ACDBBLOCKREPETAG
1070
     1
1071
       71
1005
1306DA
  0
LINE
  5
1306DB
  8
OBJECT
 10
5150.0
 20
-3249.9999999999959
 30
0.0
 11
5150.0
 21
-3099.9999999999959
 31
0.0
1001
ACDBBLOCKREPETAG
1070
     1
1071
       72
1005
1306DB
  0
LINE
  5
1306DC
  8
HIDDEN
 10
5098.0
 20
-3231.9999999999959
 30
0.0
 11
5098.0
 21
-3117.9999999999959
 31
0.0
1001
ACDBBLOCKREPETAG
1070
     1
1071
       73
1005
1306DC
  0
LINE
  5
1306DD
  8
CENTER
 10
5165.0
 20
-3174.9999999999959
 30
0.0
 11
5080.0
 21
-3174.9999999999959
 31
0.0
1001
ACDBBLOCKREPETAG
1070
     1
1071
       74
1005
1306DD
  0
LINE
  5
1306DE
  8
OBJECT
 10
5086.0
 20
-3236.9999999999959
 30
0.0
 11
5080.0
 21
-3236.9999999999959
 31
0.0
1001
ACDBBLOCKREPETAG
1070
     1
1071
       75
1005
1306DE
  0
LINE
  5
1306DF
  8
OBJECT
 10
5143.0
 20
-3246.9999999999959
 30
0.0
 11
5101.5
 21
-3246.9999999999959
 31
0.0
1001
ACDBBLOCKREPETAG
1070
     1
1071
       76
1005
1306DF
  0
LINE
  5
1306E0
  8
OBJECT
 10
5101.5
 20
-3246.9999999999959
 30
0.0
 11
5090.0
 21
-3240.4999999999959
 31
0.0
1001
ACDBBLOCKREPETAG
1070
     1
1071
       77
1005
1306E0
  0
LINE
  5
1306E1
  8
OBJECT
 10
5090.0
 20
-3240.4999999999959
 30
0.0
 11
5086.0
 21
-3236.9999999999959
 31
0.0
1001
ACDBBLOCKREPETAG
1070
     1
1071
       78
1005
1306E1
  0
LINE
  5
1306E2
  8
OBJECT
 10
5101.5
 20
-3102.9999999999959
 30
0.0
 11
5090.0
 21
-3109.4999999999959
 31
0.0
1001
ACDBBLOCKREPETAG
1070
     1
1071
       79
1005
1306E2
  0
LINE
  5
1306E3
  8
OBJECT
 10
5090.0
 20
-3109.4999999999959
 30
0.0
 11
5086.0
 21
-3112.9999999999959
 31
0.0
1001
ACDBBLOCKREPETAG
1070
     1
1071
       80
1005
1306E3
  0
ARC
  5
1306E4
  8
OBJECT
 10
5467.9000000000005
 20
-3174.9999999999959
 30
0.0
 40
386.89999999999998
 50
170.77870136260421
 51
189.22129863739571
1001
ACDBBLOCKREPETAG
1070
     1
1071
       81
1005
1306E4
  0
LINE
  5
1306E5
  8
OBJECT
 10
5086.0
 20
-3112.9999999999959
 30
0.0
 11
5080.0
 21
-3112.9999999999959
 31
0.0
1001
ACDBBLOCKREPETAG
1070
     1
1071
       82
1005
1306E5
  0
LINE
  5
1306E6
  8
OBJECT
 10
5143.0
 20
-3102.9999999999959
 30
0.0
 11
5101.5
 21
-3102.9999999999959
 31
0.0
1001
ACDBBLOCKREPETAG
1070
     1
1071
       83
1005
1306E6
  0
TEXT
  5
1306E7
  8
SLIM
 10
4884.25
 20
-3697.4999999999959
 30
0.0
 40
35.0
  1
通常枝100（4）
 41
0.75
  0
LINE
  5
1306E8
  8
CENTER
 10
4477.0
 20
-3520.9999999999968
 30
0.0
 11
4323.0
 21
-3520.9999999999968
 31
0.0
1001
ACDBBLOCKREPETAG
1070
     1
1071
       17
1005
1306E8
  0
CIRCLE
  5
1306E9
  8
OBJECT
 10
4400.0
 20
-3520.9999999999968
 30
0.0
 40
41.5
1001
ACDBBLOCKREPETAG
1070
     1
1071
       19
1005
1306E9
  0
CIRCLE
  5
1306EA
  8
OBJECT
 10
4400.0
 20
-3520.9999999999968
 30
0.0
 40
54.0
1001
ACDBBLOCKREPETAG
1070
     1
1071
       20
1005
1306EA
  0
ARC
  5
1306EB
  8
OBJECT
 10
4400.0
 20
-3520.9999999999968
 30
0.0
 40
62.0
 50
287.89655112921122
 51
252.1034488707887
1001
ACDBBLOCKREPETAG
1070
     1
1071
       21
1005
1306EB
  0
LINE
  5
1306EC
  8
OBJECT
 10
4380.947441116743
 20
-3579.9999999999968
 30
0.0
 11
4419.052558883257
 21
-3579.9999999999968
 31
0.0
1001
ACDBBLOCKREPETAG
1070
     1
1071
       22
1005
1306EC
  0
LINE
  5
1306ED
  8
OBJECT
 10
4133.0
 20
-3458.9999999999968
 30
0.0
 11
4140.0
 21
-3458.9999999999968
 31
0.0
1001
ACDBBLOCKREPETAG
1070
     1
1071
       45
1005
1306ED
  0
LINE
  5
1306EE
  8
OBJECT
 10
4140.0
 20
-3458.9999999999968
 30
0.0
 11
4140.0
 21
-3579.9999999999968
 31
0.0
1001
ACDBBLOCKREPETAG
1070
     1
1071
       46
1005
1306EE
  0
LINE
  5
1306EF
  8
OBJECT
 10
4133.0
 20
-3579.9999999999968
 30
0.0
 11
4133.0
 21
-3458.9999999999968
 31
0.0
1001
ACDBBLOCKREPETAG
1070
     1
1071
       47
1005
1306EF
  0
LINE
  5
1306F0
  8
CENTER
 10
4155.0
 20
-3520.9999999999968
 30
0.0
 11
4071.0
 21
-3520.9999999999968
 31
0.0
1001
ACDBBLOCKREPETAG
1070
     1
1071
       48
1005
1306F0
  0
LINE
  5
1306F1
  8
OBJECT
 10
4133.0
 20
-3461.9999999999968
 30
0.0
 11
4097.0
 21
-3461.9999999999968
 31
0.0
1001
ACDBBLOCKREPETAG
1070
     1
1071
       49
1005
1306F1
  0
LINE
  5
1306F2
  8
OBJECT
 10
4097.0
 20
-3461.9999999999968
 30
0.0
 11
4097.0
 21
-3579.9999999999968
 31
0.0
1001
ACDBBLOCKREPETAG
1070
     1
1071
       50
1005
1306F2
  0
LINE
  5
1306F3
  8
OBJECT
 10
4097.0
 20
-3579.9999999999968
 30
0.0
 11
4140.0
 21
-3579.9999999999968
 31
0.0
1001
ACDBBLOCKREPETAG
1070
     1
1071
       51
1005
1306F3
  0
LINE
  5
1306F4
  8
OBJECT
 10
4093.0
 20
-3466.4999999999968
 30
0.0
 11
4086.0
 21
-3466.4999999999968
 31
0.0
1001
ACDBBLOCKREPETAG
1070
     1
1071
       52
1005
1306F4
  0
LINE
  5
1306F5
  8
OBJECT
 10
4086.0
 20
-3575.4999999999968
 30
0.0
 11
4093.0
 21
-3575.4999999999968
 31
0.0
1001
ACDBBLOCKREPETAG
1070
     1
1071
       53
1005
1306F5
  0
LINE
  5
1306F6
  8
OBJECT
 10
4093.0
 20
-3575.4999999999968
 30
0.0
 11
4093.0
 21
-3466.4999999999968
 31
0.0
1001
ACDBBLOCKREPETAG
1070
     1
1071
       54
1005
1306F6
  0
LINE
  5
1306F7
  8
OBJECT
 10
4097.0
 20
-3461.9999999999968
 30
0.0
 11
4093.0
 21
-3466.4999999999968
 31
0.0
1001
ACDBBLOCKREPETAG
1070
     1
1071
       55
1005
1306F7
  0
LINE
  5
1306F8
  8
OBJECT
 10
4097.0
 20
-3579.9999999999968
 30
0.0
 11
4093.0
 21
-3575.4999999999968
 31
0.0
1001
ACDBBLOCKREPETAG
1070
     1
1071
       56
1005
1306F8
  0
LINE
  5
1306F9
  8
OBJECT
 10
4083.0
 20
-3458.9999999999968
 30
0.0
 11
4080.0
 21
-3458.9999999999968
 31
0.0
1001
ACDBBLOCKREPETAG
1070
     1
1071
       57
1005
1306F9
  0
ARC
  5
1306FA
  8
OBJECT
 10
4083.0
 20
-3461.9999999999968
 30
0.0
 40
3.0
 50
0.0
 51
90.0
1001
ACDBBLOCKREPETAG
1070
     1
1071
       58
1005
1306FA
  0
LINE
  5
1306FB
  8
OBJECT
 10
4080.0
 20
-3582.9999999999968
 30
0.0
 11
4083.0
 21
-3582.9999999999968
 31
0.0
1001
ACDBBLOCKREPETAG
1070
     1
1071
       59
1005
1306FB
  0
ARC
  5
1306FC
  8
OBJECT
 10
4083.0
 20
-3579.9999999999968
 30
0.0
 40
3.0
 50
270.0
 51
0.0
1001
ACDBBLOCKREPETAG
1070
     1
1071
       60
1005
1306FC
  0
LINE
  5
1306FD
  8
OBJECT
 10
4086.0
 20
-3579.9999999999968
 30
0.0
 11
4086.0
 21
-3461.9999999999968
 31
0.0
1001
ACDBBLOCKREPETAG
1070
     1
1071
       61
1005
1306FD
  0
LINE
  5
1306FE
  8
HIDDEN
 10
4088.0
 20
-3476.4999999999968
 30
0.0
 11
4088.0
 21
-3565.4999999999968
 31
0.0
1001
ACDBBLOCKREPETAG
1070
     1
1071
       63
1005
1306FE
  0
LINE
  5
1306FF
  8
OBJECT
 10
4133.0
 20
-3112.9999999999959
 30
0.0
 11
4140.0
 21
-3112.9999999999959
 31
0.0
1001
ACDBBLOCKREPETAG
1070
     1
1071
       47
1005
1306FF
  0
LINE
  5
130700
  8
OBJECT
 10
4140.0
 20
-3112.9999999999959
 30
0.0
 11
4140.0
 21
-3236.9999999999959
 31
0.0
1001
ACDBBLOCKREPETAG
1070
     1
1071
       48
1005
130700
  0
LINE
  5
130701
  8
OBJECT
 10
4140.0
 20
-3236.9999999999959
 30
0.0
 11
4133.0
 21
-3236.9999999999959
 31
0.0
1001
ACDBBLOCKREPETAG
1070
     1
1071
       49
1005
130701
  0
LINE
  5
130702
  8
OBJECT
 10
4133.0
 20
-3236.9999999999959
 30
0.0
 11
4133.0
 21
-3112.9999999999959
 31
0.0
1001
ACDBBLOCKREPETAG
1070
     1
1071
       50
1005
130702
  0
LINE
  5
130703
  8
CENTER
 10
4155.0
 20
-3174.9999999999959
 30
0.0
 11
4080.0
 21
-3174.9999999999959
 31
0.0
1001
ACDBBLOCKREPETAG
1070
     1
1071
       51
1005
130703
  0
LINE
  5
130704
  8
OBJECT
 10
4133.0
 20
-3115.9999999999959
 30
0.0
 11
4097.0
 21
-3115.9999999999959
 31
0.0
1001
ACDBBLOCKREPETAG
1070
     1
1071
       52
1005
130704
  0
LINE
  5
130705
  8
OBJECT
 10
4097.0
 20
-3115.9999999999959
 30
0.0
 11
4097.0
 21
-3233.9999999999959
 31
0.0
1001
ACDBBLOCKREPETAG
1070
     1
1071
       53
1005
130705
  0
LINE
  5
130706
  8
OBJECT
 10
4097.0
 20
-3233.9999999999959
 30
0.0
 11
4133.0
 21
-3233.9999999999959
 31
0.0
1001
ACDBBLOCKREPETAG
1070
     1
1071
       54
1005
130706
  0
LINE
  5
130707
  8
OBJECT
 10
4093.0
 20
-3120.4999999999959
 30
0.0
 11
4086.0
 21
-3120.4999999999959
 31
0.0
1001
ACDBBLOCKREPETAG
1070
     1
1071
       55
1005
130707
  0
LINE
  5
130708
  8
OBJECT
 10
4086.0
 20
-3229.4999999999959
 30
0.0
 11
4093.0
 21
-3229.4999999999959
 31
0.0
1001
ACDBBLOCKREPETAG
1070
     1
1071
       56
1005
130708
  0
LINE
  5
130709
  8
OBJECT
 10
4093.0
 20
-3229.4999999999959
 30
0.0
 11
4093.0
 21
-3120.4999999999959
 31
0.0
1001
ACDBBLOCKREPETAG
1070
     1
1071
       57
1005
130709
  0
LINE
  5
13070A
  8
OBJECT
 10
4097.0
 20
-3115.9999999999959
 30
0.0
 11
4093.0
 21
-3120.4999999999959
 31
0.0
1001
ACDBBLOCKREPETAG
1070
     1
1071
       58
1005
13070A
  0
LINE
  5
13070B
  8
OBJECT
 10
4097.0
 20
-3233.9999999999959
 30
0.0
 11
4093.0
 21
-3229.4999999999959
 31
0.0
1001
ACDBBLOCKREPETAG
1070
     1
1071
       59
1005
13070B
  0
LINE
  5
13070C
  8
OBJECT
 10
4083.0
 20
-3112.9999999999959
 30
0.0
 11
4080.0
 21
-3112.9999999999959
 31
0.0
1001
ACDBBLOCKREPETAG
1070
     1
1071
       60
1005
13070C
  0
ARC
  5
13070D
  8
OBJECT
 10
4083.0
 20
-3115.9999999999959
 30
0.0
 40
3.0
 50
0.0
 51
90.0
1001
ACDBBLOCKREPETAG
1070
     1
1071
       61
1005
13070D
  0
LINE
  5
13070E
  8
OBJECT
 10
4080.0
 20
-3236.9999999999959
 30
0.0
 11
4083.0
 21
-3236.9999999999959
 31
0.0
1001
ACDBBLOCKREPETAG
1070
     1
1071
       62
1005
13070E
  0
ARC
  5
13070F
  8
OBJECT
 10
4083.0
 20
-3233.9999999999959
 30
0.0
 40
3.0
 50
270.0
 51
0.0
1001
ACDBBLOCKREPETAG
1070
     1
1071
       63
1005
13070F
  0
LINE
  5
130710
  8
OBJECT
 10
4086.0
 20
-3233.9999999999959
 30
0.0
 11
4086.0
 21
-3115.9999999999959
 31
0.0
1001
ACDBBLOCKREPETAG
1070
     1
1071
       64
1005
130710
  0
LINE
  5
130711
  8
HIDDEN
 10
4088.0
 20
-3130.4999999999959
 30
0.0
 11
4088.0
 21
-3219.4999999999959
 31
0.0
1001
ACDBBLOCKREPETAG
1070
     1
1071
       65
1005
130711
  0
TEXT
  5
130712
  8
SLIM
 10
3894.25
 20
-3697.4999999999959
 30
0.0
 40
35.0
  1
通常枝75（3）
 41
0.75
  0
CIRCLE
  5
130713
  8
OBJECT
 10
3400.0
 20
-3527.9999999999968
 30
0.0
 40
35.5
1001
ACDBBLOCKREPETAG
1070
     1
1071
       10
1005
130713
  0
CIRCLE
  5
130714
  8
OBJECT
 10
3400.0
 20
-3520.9999999999968
 30
0.0
 40
62.0
1001
ACDBBLOCKREPETAG
1070
     1
1071
       11
1005
130714
  0
LINE
  5
130715
  8
CENTER
 10
3330.0
 20
-3527.9999999999968
 30
0.0
 11
3470.0
 21
-3527.9999999999968
 31
0.0
1001
ACDBBLOCKREPETAG
1070
     1
1071
       12
1005
130715
  0
CIRCLE
  5
130716
  8
OBJECT
 10
3400.0
 20
-3527.9999999999968
 30
0.0
 40
47.0
1001
ACDBBLOCKREPETAG
1070
     1
1071
       14
1005
130716
  0
ARC
  5
130717
  8
OBJECT
 10
3400.0
 20
-3527.9999999999968
 30
0.0
 40
55.0
 50
289.01126526011359
 51
250.98873473988641
1001
ACDBBLOCKREPETAG
1070
     1
1071
       15
1005
130717
  0
LINE
  5
130718
  8
OBJECT
 10
3382.0835271328328
 20
-3579.9999999999968
 30
0.0
 11
3417.9164728671681
 21
-3579.9999999999968
 31
0.0
1001
ACDBBLOCKREPETAG
1070
     1
1071
       16
1005
130718
  0
LINE
  5
130719
  8
OBJECT
 10
3133.0
 20
-3472.9999999999968
 30
0.0
 11
3140.0
 21
-3472.9999999999968
 31
0.0
1001
ACDBBLOCKREPETAG
1070
     1
1071
       26
1005
130719
  0
LINE
  5
13071A
  8
OBJECT
 10
3140.0
 20
-3472.9999999999968
 30
0.0
 11
3140.0
 21
-3579.9999999999968
 31
0.0
1001
ACDBBLOCKREPETAG
1070
     1
1071
       27
1005
13071A
  0
LINE
  5
13071B
  8
OBJECT
 10
3133.0
 20
-3579.9999999999968
 30
0.0
 11
3133.0
 21
-3472.9999999999968
 31
0.0
1001
ACDBBLOCKREPETAG
1070
     1
1071
       28
1005
13071B
  0
LINE
  5
13071C
  8
CENTER
 10
3155.0
 20
-3527.9999999999968
 30
0.0
 11
3071.0
 21
-3527.9999999999968
 31
0.0
1001
ACDBBLOCKREPETAG
1070
     1
1071
       29
1005
13071C
  0
LINE
  5
13071D
  8
OBJECT
 10
3133.0
 20
-3475.9999999999968
 30
0.0
 11
3097.0
 21
-3475.9999999999968
 31
0.0
1001
ACDBBLOCKREPETAG
1070
     1
1071
       30
1005
13071D
  0
LINE
  5
13071E
  8
OBJECT
 10
3097.0
 20
-3475.9999999999968
 30
0.0
 11
3097.0
 21
-3579.9999999999968
 31
0.0
1001
ACDBBLOCKREPETAG
1070
     1
1071
       31
1005
13071E
  0
LINE
  5
13071F
  8
OBJECT
 10
3097.0
 20
-3579.9999999999968
 30
0.0
 11
3140.0
 21
-3579.9999999999968
 31
0.0
1001
ACDBBLOCKREPETAG
1070
     1
1071
       32
1005
13071F
  0
LINE
  5
130720
  8
OBJECT
 10
3093.0
 20
-3480.4999999999968
 30
0.0
 11
3086.0
 21
-3480.4999999999968
 31
0.0
1001
ACDBBLOCKREPETAG
1070
     1
1071
       33
1005
130720
  0
LINE
  5
130721
  8
OBJECT
 10
3086.0
 20
-3575.4999999999968
 30
0.0
 11
3093.0
 21
-3575.4999999999968
 31
0.0
1001
ACDBBLOCKREPETAG
1070
     1
1071
       34
1005
130721
  0
LINE
  5
130722
  8
OBJECT
 10
3093.0
 20
-3575.4999999999968
 30
0.0
 11
3093.0
 21
-3480.4999999999968
 31
0.0
1001
ACDBBLOCKREPETAG
1070
     1
1071
       35
1005
130722
  0
LINE
  5
130723
  8
OBJECT
 10
3097.0
 20
-3475.9999999999968
 30
0.0
 11
3093.0
 21
-3480.4999999999968
 31
0.0
1001
ACDBBLOCKREPETAG
1070
     1
1071
       36
1005
130723
  0
LINE
  5
130724
  8
OBJECT
 10
3097.0
 20
-3579.9999999999968
 30
0.0
 11
3093.0
 21
-3575.4999999999968
 31
0.0
1001
ACDBBLOCKREPETAG
1070
     1
1071
       37
1005
130724
  0
LINE
  5
130725
  8
OBJECT
 10
3083.0
 20
-3458.9999999999968
 30
0.0
 11
3080.0
 21
-3458.9999999999968
 31
0.0
1001
ACDBBLOCKREPETAG
1070
     1
1071
       38
1005
130725
  0
ARC
  5
130726
  8
OBJECT
 10
3083.0
 20
-3461.9999999999968
 30
0.0
 40
3.0
 50
0.0
 51
90.0
1001
ACDBBLOCKREPETAG
1070
     1
1071
       39
1005
130726
  0
LINE
  5
130727
  8
OBJECT
 10
3080.0
 20
-3582.9999999999968
 30
0.0
 11
3083.0
 21
-3582.9999999999968
 31
0.0
1001
ACDBBLOCKREPETAG
1070
     1
1071
       40
1005
130727
  0
ARC
  5
130728
  8
OBJECT
 10
3083.0
 20
-3579.9999999999968
 30
0.0
 40
3.0
 50
270.0
 51
0.0
1001
ACDBBLOCKREPETAG
1070
     1
1071
       41
1005
130728
  0
LINE
  5
130729
  8
OBJECT
 10
3086.0
 20
-3579.9999999999968
 30
0.0
 11
3086.0
 21
-3461.9999999999968
 31
0.0
1001
ACDBBLOCKREPETAG
1070
     1
1071
       42
1005
130729
  0
LINE
  5
13072A
  8
HIDDEN
 10
3088.0
 20
-3489.9999999999968
 30
0.0
 11
3088.0
 21
-3565.9999999999968
 31
0.0
1001
ACDBBLOCKREPETAG
1070
     1
1071
       43
1005
13072A
  0
LINE
  5
13072B
  8
OBJECT
 10
3133.0
 20
-3119.9999999999959
 30
0.0
 11
3140.0
 21
-3119.9999999999959
 31
0.0
1001
ACDBBLOCKREPETAG
1070
     1
1071
       27
1005
13072B
  0
LINE
  5
13072C
  8
OBJECT
 10
3140.0
 20
-3119.9999999999959
 30
0.0
 11
3140.0
 21
-3229.9999999999959
 31
0.0
1001
ACDBBLOCKREPETAG
1070
     1
1071
       28
1005
13072C
  0
LINE
  5
13072D
  8
OBJECT
 10
3140.0
 20
-3229.9999999999959
 30
0.0
 11
3133.0
 21
-3229.9999999999959
 31
0.0
1001
ACDBBLOCKREPETAG
1070
     1
1071
       29
1005
13072D
  0
LINE
  5
13072E
  8
OBJECT
 10
3133.0
 20
-3229.9999999999959
 30
0.0
 11
3133.0
 21
-3119.9999999999959
 31
0.0
1001
ACDBBLOCKREPETAG
1070
     1
1071
       30
1005
13072E
  0
LINE
  5
13072F
  8
CENTER
 10
3155.0
 20
-3174.9999999999959
 30
0.0
 11
3080.0
 21
-3174.9999999999959
 31
0.0
1001
ACDBBLOCKREPETAG
1070
     1
1071
       31
1005
13072F
  0
LINE
  5
130730
  8
OBJECT
 10
3133.0
 20
-3122.9999999999959
 30
0.0
 11
3097.0
 21
-3122.9999999999959
 31
0.0
1001
ACDBBLOCKREPETAG
1070
     1
1071
       32
1005
130730
  0
LINE
  5
130731
  8
OBJECT
 10
3097.0
 20
-3122.9999999999959
 30
0.0
 11
3097.0
 21
-3226.9999999999959
 31
0.0
1001
ACDBBLOCKREPETAG
1070
     1
1071
       33
1005
130731
  0
LINE
  5
130732
  8
OBJECT
 10
3097.0
 20
-3226.9999999999959
 30
0.0
 11
3133.0
 21
-3226.9999999999959
 31
0.0
1001
ACDBBLOCKREPETAG
1070
     1
1071
       34
1005
130732
  0
LINE
  5
130733
  8
OBJECT
 10
3093.0
 20
-3127.4999999999959
 30
0.0
 11
3086.0
 21
-3127.4999999999959
 31
0.0
1001
ACDBBLOCKREPETAG
1070
     1
1071
       35
1005
130733
  0
LINE
  5
130734
  8
OBJECT
 10
3086.0
 20
-3222.4999999999959
 30
0.0
 11
3093.0
 21
-3222.4999999999959
 31
0.0
1001
ACDBBLOCKREPETAG
1070
     1
1071
       36
1005
130734
  0
LINE
  5
130735
  8
OBJECT
 10
3093.0
 20
-3222.4999999999959
 30
0.0
 11
3093.0
 21
-3127.4999999999959
 31
0.0
1001
ACDBBLOCKREPETAG
1070
     1
1071
       37
1005
130735
  0
LINE
  5
130736
  8
OBJECT
 10
3097.0
 20
-3122.9999999999959
 30
0.0
 11
3093.0
 21
-3127.4999999999959
 31
0.0
1001
ACDBBLOCKREPETAG
1070
     1
1071
       38
1005
130736
  0
LINE
  5
130737
  8
OBJECT
 10
3097.0
 20
-3226.9999999999959
 30
0.0
 11
3093.0
 21
-3222.4999999999959
 31
0.0
1001
ACDBBLOCKREPETAG
1070
     1
1071
       39
1005
130737
  0
LINE
  5
130738
  8
OBJECT
 10
3083.0
 20
-3112.9999999999959
 30
0.0
 11
3080.0
 21
-3112.9999999999959
 31
0.0
1001
ACDBBLOCKREPETAG
1070
     1
1071
       40
1005
130738
  0
ARC
  5
130739
  8
OBJECT
 10
3083.0
 20
-3115.9999999999959
 30
0.0
 40
3.0
 50
0.0
 51
90.0
1001
ACDBBLOCKREPETAG
1070
     1
1071
       41
1005
130739
  0
LINE
  5
13073A
  8
OBJECT
 10
3080.0
 20
-3236.9999999999959
 30
0.0
 11
3083.0
 21
-3236.9999999999959
 31
0.0
1001
ACDBBLOCKREPETAG
1070
     1
1071
       42
1005
13073A
  0
ARC
  5
13073B
  8
OBJECT
 10
3083.0
 20
-3233.9999999999959
 30
0.0
 40
3.0
 50
270.0
 51
0.0
1001
ACDBBLOCKREPETAG
1070
     1
1071
       43
1005
13073B
  0
LINE
  5
13073C
  8
OBJECT
 10
3086.0
 20
-3233.9999999999959
 30
0.0
 11
3086.0
 21
-3115.9999999999959
 31
0.0
1001
ACDBBLOCKREPETAG
1070
     1
1071
       44
1005
13073C
  0
LINE
  5
13073D
  8
HIDDEN
 10
3088.0
 20
-3136.9999999999959
 30
0.0
 11
3088.0
 21
-3212.9999999999959
 31
0.0
1001
ACDBBLOCKREPETAG
1070
     1
1071
       45
1005
13073D
  0
TEXT
  5
13073E
  8
SLIM
 10
2894.25
 20
-3697.4999999999959
 30
0.0
 40
35.0
  1
通常枝65（2）
 41
0.75
  0
CIRCLE
  5
13073F
  8
OBJECT
 10
2400.0
 20
-3520.9999999999968
 30
0.0
 40
62.0
1001
ACDBBLOCKREPETAG
1070
     1
1071
        3
1005
13073F
  0
LINE
  5
130740
  8
CENTER
 10
2338.0
 20
-3535.9999999999968
 30
0.0
 11
2462.0
 21
-3535.9999999999968
 31
0.0
1001
ACDBBLOCKREPETAG
1070
     1
1071
        4
1005
130740
  0
CIRCLE
  5
130741
  8
OBJECT
 10
2400.0
 20
-3535.9999999999968
 30
0.0
 40
28.0
1001
ACDBBLOCKREPETAG
1070
     1
1071
        6
1005
130741
  0
CIRCLE
  5
130742
  8
OBJECT
 10
2400.0
 20
-3535.9999999999968
 30
0.0
 40
39.0
1001
ACDBBLOCKREPETAG
1070
     1
1071
        7
1005
130742
  0
ARC
  5
130743
  8
OBJECT
 10
2400.0
 20
-3535.9999999999968
 30
0.0
 40
47.0
 50
290.58196921144412
 51
249.41803078855591
1001
ACDBBLOCKREPETAG
1070
     1
1071
        8
1005
130743
  0
LINE
  5
130744
  8
OBJECT
 10
2383.4772883581431
 20
-3579.9999999999968
 30
0.0
 11
2416.5227116418569
 21
-3579.9999999999968
 31
0.0
1001
ACDBBLOCKREPETAG
1070
     1
1071
        9
1005
130744
  0
LINE
  5
130745
  8
OBJECT
 10
2133.0
 20
-3488.9999999999968
 30
0.0
 11
2140.0
 21
-3488.9999999999968
 31
0.0
1001
ACDBBLOCKREPETAG
1070
     1
1071
        7
1005
130745
  0
LINE
  5
130746
  8
OBJECT
 10
2140.0
 20
-3488.9999999999968
 30
0.0
 11
2140.0
 21
-3579.9999999999968
 31
0.0
1001
ACDBBLOCKREPETAG
1070
     1
1071
        8
1005
130746
  0
LINE
  5
130747
  8
OBJECT
 10
2133.0
 20
-3579.9999999999968
 30
0.0
 11
2133.0
 21
-3488.9999999999968
 31
0.0
1001
ACDBBLOCKREPETAG
1070
     1
1071
        9
1005
130747
  0
LINE
  5
130748
  8
CENTER
 10
2155.0
 20
-3535.9999999999968
 30
0.0
 11
2071.0
 21
-3535.9999999999968
 31
0.0
1001
ACDBBLOCKREPETAG
1070
     1
1071
       10
1005
130748
  0
LINE
  5
130749
  8
OBJECT
 10
2133.0
 20
-3491.9999999999968
 30
0.0
 11
2097.0
 21
-3491.9999999999968
 31
0.0
1001
ACDBBLOCKREPETAG
1070
     1
1071
       11
1005
130749
  0
LINE
  5
13074A
  8
OBJECT
 10
2097.0
 20
-3491.9999999999968
 30
0.0
 11
2097.0
 21
-3579.9999999999968
 31
0.0
1001
ACDBBLOCKREPETAG
1070
     1
1071
       12
1005
13074A
  0
LINE
  5
13074B
  8
OBJECT
 10
2097.0
 20
-3579.9999999999968
 30
0.0
 11
2140.0
 21
-3579.9999999999968
 31
0.0
1001
ACDBBLOCKREPETAG
1070
     1
1071
       13
1005
13074B
  0
LINE
  5
13074C
  8
OBJECT
 10
2093.0
 20
-3496.4999999999968
 30
0.0
 11
2086.0
 21
-3496.4999999999968
 31
0.0
1001
ACDBBLOCKREPETAG
1070
     1
1071
       14
1005
13074C
  0
LINE
  5
13074D
  8
OBJECT
 10
2086.0
 20
-3575.4999999999968
 30
0.0
 11
2093.0
 21
-3575.4999999999968
 31
0.0
1001
ACDBBLOCKREPETAG
1070
     1
1071
       15
1005
13074D
  0
LINE
  5
13074E
  8
OBJECT
 10
2093.0
 20
-3575.4999999999968
 30
0.0
 11
2093.0
 21
-3496.4999999999968
 31
0.0
1001
ACDBBLOCKREPETAG
1070
     1
1071
       16
1005
13074E
  0
LINE
  5
13074F
  8
OBJECT
 10
2097.0
 20
-3491.9999999999968
 30
0.0
 11
2093.0
 21
-3496.4999999999968
 31
0.0
1001
ACDBBLOCKREPETAG
1070
     1
1071
       17
1005
13074F
  0
LINE
  5
130750
  8
OBJECT
 10
2097.0
 20
-3579.9999999999968
 30
0.0
 11
2093.0
 21
-3575.4999999999968
 31
0.0
1001
ACDBBLOCKREPETAG
1070
     1
1071
       18
1005
130750
  0
LINE
  5
130751
  8
OBJECT
 10
2083.0
 20
-3458.9999999999968
 30
0.0
 11
2080.0
 21
-3458.9999999999968
 31
0.0
1001
ACDBBLOCKREPETAG
1070
     1
1071
       19
1005
130751
  0
ARC
  5
130752
  8
OBJECT
 10
2083.0
 20
-3461.9999999999968
 30
0.0
 40
3.0
 50
0.0
 51
90.0
1001
ACDBBLOCKREPETAG
1070
     1
1071
       20
1005
130752
  0
LINE
  5
130753
  8
OBJECT
 10
2080.0
 20
-3582.9999999999968
 30
0.0
 11
2083.0
 21
-3582.9999999999968
 31
0.0
1001
ACDBBLOCKREPETAG
1070
     1
1071
       21
1005
130753
  0
ARC
  5
130754
  8
OBJECT
 10
2083.0
 20
-3579.9999999999968
 30
0.0
 40
3.0
 50
270.0
 51
0.0
1001
ACDBBLOCKREPETAG
1070
     1
1071
       22
1005
130754
  0
LINE
  5
130755
  8
OBJECT
 10
2086.0
 20
-3579.9999999999968
 30
0.0
 11
2086.0
 21
-3461.9999999999968
 31
0.0
1001
ACDBBLOCKREPETAG
1070
     1
1071
       23
1005
130755
  0
LINE
  5
130756
  8
HIDDEN
 10
2088.0
 20
-3505.9999999999968
 30
0.0
 11
2088.0
 21
-3565.9999999999968
 31
0.0
1001
ACDBBLOCKREPETAG
1070
     1
1071
       24
1005
130756
  0
LINE
  5
130757
  8
OBJECT
 10
2133.0
 20
-3127.9999999999959
 30
0.0
 11
2140.0
 21
-3127.9999999999959
 31
0.0
1001
ACDBBLOCKREPETAG
1070
     1
1071
        7
1005
130757
  0
LINE
  5
130758
  8
OBJECT
 10
2140.0
 20
-3127.9999999999959
 30
0.0
 11
2140.0
 21
-3221.9999999999959
 31
0.0
1001
ACDBBLOCKREPETAG
1070
     1
1071
        8
1005
130758
  0
LINE
  5
130759
  8
OBJECT
 10
2140.0
 20
-3221.9999999999959
 30
0.0
 11
2133.0
 21
-3221.9999999999959
 31
0.0
1001
ACDBBLOCKREPETAG
1070
     1
1071
        9
1005
130759
  0
LINE
  5
13075A
  8
OBJECT
 10
2133.0
 20
-3221.9999999999959
 30
0.0
 11
2133.0
 21
-3127.9999999999959
 31
0.0
1001
ACDBBLOCKREPETAG
1070
     1
1071
       10
1005
13075A
  0
LINE
  5
13075B
  8
CENTER
 10
2155.0
 20
-3174.9999999999959
 30
0.0
 11
2080.0
 21
-3174.9999999999959
 31
0.0
1001
ACDBBLOCKREPETAG
1070
     1
1071
       11
1005
13075B
  0
LINE
  5
13075C
  8
OBJECT
 10
2133.0
 20
-3130.9999999999959
 30
0.0
 11
2097.0
 21
-3130.9999999999959
 31
0.0
1001
ACDBBLOCKREPETAG
1070
     1
1071
       12
1005
13075C
  0
LINE
  5
13075D
  8
OBJECT
 10
2097.0
 20
-3130.9999999999959
 30
0.0
 11
2097.0
 21
-3218.9999999999959
 31
0.0
1001
ACDBBLOCKREPETAG
1070
     1
1071
       13
1005
13075D
  0
LINE
  5
13075E
  8
OBJECT
 10
2097.0
 20
-3218.9999999999959
 30
0.0
 11
2133.0
 21
-3218.9999999999959
 31
0.0
1001
ACDBBLOCKREPETAG
1070
     1
1071
       14
1005
13075E
  0
LINE
  5
13075F
  8
OBJECT
 10
2093.0
 20
-3135.4999999999959
 30
0.0
 11
2086.0
 21
-3135.4999999999959
 31
0.0
1001
ACDBBLOCKREPETAG
1070
     1
1071
       15
1005
13075F
  0
LINE
  5
130760
  8
OBJECT
 10
2086.0
 20
-3214.4999999999959
 30
0.0
 11
2093.0
 21
-3214.4999999999959
 31
0.0
1001
ACDBBLOCKREPETAG
1070
     1
1071
       16
1005
130760
  0
LINE
  5
130761
  8
OBJECT
 10
2093.0
 20
-3214.4999999999959
 30
0.0
 11
2093.0
 21
-3135.4999999999959
 31
0.0
1001
ACDBBLOCKREPETAG
1070
     1
1071
       17
1005
130761
  0
LINE
  5
130762
  8
OBJECT
 10
2097.0
 20
-3130.9999999999959
 30
0.0
 11
2093.0
 21
-3135.4999999999959
 31
0.0
1001
ACDBBLOCKREPETAG
1070
     1
1071
       18
1005
130762
  0
LINE
  5
130763
  8
OBJECT
 10
2097.0
 20
-3218.9999999999959
 30
0.0
 11
2093.0
 21
-3214.4999999999959
 31
0.0
1001
ACDBBLOCKREPETAG
1070
     1
1071
       19
1005
130763
  0
LINE
  5
130764
  8
OBJECT
 10
2083.0
 20
-3112.9999999999959
 30
0.0
 11
2080.0
 21
-3112.9999999999959
 31
0.0
1001
ACDBBLOCKREPETAG
1070
     1
1071
       20
1005
130764
  0
ARC
  5
130765
  8
OBJECT
 10
2083.0
 20
-3115.9999999999959
 30
0.0
 40
3.0
 50
0.0
 51
90.0
1001
ACDBBLOCKREPETAG
1070
     1
1071
       21
1005
130765
  0
LINE
  5
130766
  8
OBJECT
 10
2080.0
 20
-3236.9999999999959
 30
0.0
 11
2083.0
 21
-3236.9999999999959
 31
0.0
1001
ACDBBLOCKREPETAG
1070
     1
1071
       22
1005
130766
  0
ARC
  5
130767
  8
OBJECT
 10
2083.0
 20
-3233.9999999999959
 30
0.0
 40
3.0
 50
270.0
 51
0.0
1001
ACDBBLOCKREPETAG
1070
     1
1071
       23
1005
130767
  0
LINE
  5
130768
  8
OBJECT
 10
2086.0
 20
-3233.9999999999959
 30
0.0
 11
2086.0
 21
-3115.9999999999959
 31
0.0
1001
ACDBBLOCKREPETAG
1070
     1
1071
       24
1005
130768
  0
LINE
  5
130769
  8
HIDDEN
 10
2088.0
 20
-3144.9999999999959
 30
0.0
 11
2088.0
 21
-3204.9999999999959
 31
0.0
1001
ACDBBLOCKREPETAG
1070
     1
1071
       25
1005
130769
  0
TEXT
  5
13076A
  8
SLIM
 10
1896.75
 20
-3697.4999999999959
 30
0.0
 40
35.0
  1
通常枝50（1）
 41
0.75
  0
LINE
  5
13076B
  8
OBJECT
 10
3930.0
 20
-1079.999999999997
 30
0.0
 11
4070.0
 21
-1079.999999999997
 31
0.0
1001
ACDBBLOCKREPETAG
1070
     1
1071
        0
1005
13076B
  0
LINE
  5
13076C
  8
OBJECT
 10
3930.0
 20
-1079.999999999997
 30
0.0
 11
3930.0
 21
-839.99999999999704
 31
0.0
1001
ACDBBLOCKREPETAG
1070
     1
1071
        1
1005
13076C
  0
LINE
  5
13076D
  8
OBJECT
 10
4070.0
 20
-1079.999999999997
 30
0.0
 11
4070.0
 21
-839.99999999999704
 31
0.0
1001
ACDBBLOCKREPETAG
1070
     1
1071
        2
1005
13076D
  0
LINE
  5
13076E
  8
OBJECT
 10
3930.0
 20
-839.99999999999704
 30
0.0
 11
4070.0
 21
-839.99999999999704
 31
0.0
1001
ACDBBLOCKREPETAG
1070
     1
1071
        3
1005
13076E
  0
LINE
  5
13076F
  8
HIDDEN
 10
3937.5
 20
-839.99999999999704
 30
0.0
 11
3937.5
 21
-1079.999999999997
 31
0.0
1001
ACDBBLOCKREPETAG
1070
     1
1071
        4
1005
13076F
  0
LINE
  5
130770
  8
HIDDEN
 10
4062.5
 20
-839.99999999999704
 30
0.0
 11
4062.5
 21
-1079.999999999997
 31
0.0
1001
ACDBBLOCKREPETAG
1070
     1
1071
        5
1005
130770
  0
LINE
  5
130771
  8
CENTER
 10
4000.0
 20
-769.99999999999875
 30
0.0
 11
4000.0
 21
-1094.999999999997
 31
0.0
1001
ACDBBLOCKREPETAG
1070
     1
1071
        6
1005
130771
  0
LINE
  5
130772
  8
OBJECT
 10
3925.0
 20
-769.99999999999875
 30
0.0
 11
3925.0
 21
-799.99999999999693
 31
0.0
1001
ACDBBLOCKREPETAG
1070
     1
1071
        7
1005
130772
  0
LINE
  5
130773
  8
OBJECT
 10
4075.0000000000032
 20
-769.99999999999875
 30
0.0
 11
4075.0
 21
-799.99999999999693
 31
0.0
1001
ACDBBLOCKREPETAG
1070
     1
1071
        8
1005
130773
  0
LINE
  5
130774
  8
OBJECT
 10
3925.0
 20
-799.99999999999693
 30
0.0
 11
4075.0
 21
-799.99999999999693
 31
0.0
1001
ACDBBLOCKREPETAG
1070
     1
1071
        9
1005
130774
  0
LINE
  5
130775
  8
OBJECT
 10
3925.0
 20
-799.99999999999693
 30
0.0
 11
3930.0
 21
-839.99999999999704
 31
0.0
1001
ACDBBLOCKREPETAG
1070
     1
1071
       10
1005
130775
  0
LINE
  5
130776
  8
OBJECT
 10
4070.0
 20
-839.99999999999704
 30
0.0
 11
4075.0
 21
-799.99999999999693
 31
0.0
1001
ACDBBLOCKREPETAG
1070
     1
1071
       11
1005
130776
  0
LINE
  5
130777
  8
OBJECT
 10
1930.0
 20
-1079.999999999998
 30
0.0
 11
2070.0
 21
-1079.999999999998
 31
0.0
1001
ACDBBLOCKREPETAG
1070
     1
1071
        0
1005
130777
  0
LINE
  5
130778
  8
OBJECT
 10
1930.0
 20
-1079.999999999998
 30
0.0
 11
1930.0
 21
-839.99999999999795
 31
0.0
1001
ACDBBLOCKREPETAG
1070
     1
1071
        1
1005
130778
  0
LINE
  5
130779
  8
OBJECT
 10
2070.0
 20
-1079.999999999998
 30
0.0
 11
2070.0
 21
-839.99999999999795
 31
0.0
1001
ACDBBLOCKREPETAG
1070
     1
1071
        2
1005
130779
  0
LINE
  5
13077A
  8
OBJECT
 10
1930.0
 20
-839.99999999999795
 30
0.0
 11
2070.0
 21
-839.99999999999795
 31
0.0
1001
ACDBBLOCKREPETAG
1070
     1
1071
        3
1005
13077A
  0
LINE
  5
13077B
  8
HIDDEN
 10
1937.5
 20
-839.99999999999795
 30
0.0
 11
1937.5
 21
-1079.999999999998
 31
0.0
1001
ACDBBLOCKREPETAG
1070
     1
1071
        4
1005
13077B
  0
LINE
  5
13077C
  8
HIDDEN
 10
2062.5
 20
-839.99999999999795
 30
0.0
 11
2062.5
 21
-1079.999999999998
 31
0.0
1001
ACDBBLOCKREPETAG
1070
     1
1071
        5
1005
13077C
  0
LINE
  5
13077D
  8
CENTER
 10
2000.0
 20
-769.99999999999955
 30
0.0
 11
2000.0
 21
-1094.999999999997
 31
0.0
1001
ACDBBLOCKREPETAG
1070
     1
1071
        6
1005
13077D
  0
LINE
  5
13077E
  8
OBJECT
 10
1925.0
 20
-769.99999999999955
 30
0.0
 11
1925.0
 21
-799.99999999999773
 31
0.0
1001
ACDBBLOCKREPETAG
1070
     1
1071
        7
1005
13077E
  0
LINE
  5
13077F
  8
OBJECT
 10
2075.0000000000041
 20
-769.99999999999955
 30
0.0
 11
2075.0
 21
-799.99999999999773
 31
0.0
1001
ACDBBLOCKREPETAG
1070
     1
1071
        8
1005
13077F
  0
LINE
  5
130780
  8
OBJECT
 10
1925.0
 20
-799.99999999999773
 30
0.0
 11
2075.0
 21
-799.99999999999773
 31
0.0
1001
ACDBBLOCKREPETAG
1070
     1
1071
        9
1005
130780
  0
LINE
  5
130781
  8
OBJECT
 10
1925.0
 20
-799.99999999999773
 30
0.0
 11
1930.0
 21
-839.99999999999795
 31
0.0
1001
ACDBBLOCKREPETAG
1070
     1
1071
       10
1005
130781
  0
LINE
  5
130782
  8
OBJECT
 10
2070.0
 20
-839.99999999999795
 30
0.0
 11
2075.0
 21
-799.99999999999773
 31
0.0
1001
ACDBBLOCKREPETAG
1070
     1
1071
       11
1005
130782
  0
TEXT
  5
130783
  8
SLIM
 10
3824.5999999999999
 20
-1408.999999999997
 30
0.0
 40
28.0
  1
※ 対応スラブ厚　180～200
 41
0.75
  0
TEXT
  5
130784
  8
SLIM
 10
3611.5
 20
-1502.3333333333301
 30
0.0
 40
28.0
  1
国土交通大臣認定・（財）日本消防設備安全センター性能評定取得品
 41
0.75
  0
TEXT
  5
130785
  8
SLIM
 10
3631.1000000000022
 20
-1548.999999999997
 30
0.0
 40
28.0
  1
注）ご採用にあたり、認定書及び評定書の内容をご確認ください。
 41
0.75
  0
TEXT
  5
130786
  8
SLIM
 10
3741.6250000000009
 20
-1347.499999999997
 30
0.0
 40
35.0
  1
片受けスタイル（S）＋シンドカット
 41
0.75
  0
TEXT
  5
130787
  8
SLIM
 10
1856.25
 20
-1347.499999999998
 30
0.0
 40
35.0
  1
片受けスタイル（S）
 41
0.75
  0
TEXT
  5
1312A0
  8
SLIM
 10
1850.0
 20
532.5
 30
0.0
 40
75.0
  1
側面図の代表機種
 41
0.75
  0
VIEWPORT
  5
F6BA7
 67
     1
  8
0
 10
145.33033752441401
 20
101.8328354358673
 30
0.0
 40
334.0025019414623
 41
222.19657968139651
 68
     1
 69
     1
1001
ACAD
1000
MVIEW
1002
{
1070
    16
1010
0.0
1020
0.0
1030
0.0
1010
0.0
1020
0.0
1030
1.0
1040
0.0
1040
222.19657968139651
1040
145.33033752441401
1040
101.8328354358673
1040
50.0
1040
0.0
1040
0.0
1070
     0
1070
     0
1070
     1
1070
     1
1070
     0
1070
     0
1070
     0
1070
     0
1040
0.0
1040
0.0
1040
0.0
1040
10.0
1040
10.0
1040
10.0
1040
10.0
1070
     0
1002
{
1002
}
1002
}
  0
VIEWPORT
  5
F6BA9
 67
     1
  8
OBJECT
 10
145.3303314447403
 20
101.8328338861465
 30
0.0
 40
232.5285303115844
 41
162.93253421783439
 68
     2
 69
     2
1001
ACAD
1000
MVIEW
1002
{
1070
    16
1010
0.0
1020
0.0
1030
0.0
1010
0.0
1020
0.0
1030
1.0
1040
0.0
1040
25942.55904403147
1040
2377.604457077377
1040
-7591.5176687056619
1040
50.0
1040
0.0
1040
0.0
1070
     0
1070
   600
1070
     1
1070
     1
1070
     0
1070
     0
1070
     0
1070
     0
1040
0.0
1040
0.0
1040
0.0
1040
1.0
1040
1.0
1040
0.0
1040
0.0
1070
     0
1002
{
1002
}
1002
}
  0
ENDSEC
  0
EOF
