  0
SECTION
  2
HEADER
  9
$ACADVER
  1
AC1009
  9
$INSBASE
 10
0.0
 20
0.0
 30
0.0
  9
$EXTMIN
 10
0.0
 20
-3697.4999999999968
 30
0.0
  9
$EXTMAX
 10
5575.0
 20
607.5
 30
0.0
  9
$LIMMIN
 10
0.0
 20
0.0
  9
$LIMMAX
 10
210.0
 20
297.0
  9
$ORTHOMODE
 70
     0
  9
$REGENMODE
 70
     1
  9
$FILLMODE
 70
     1
  9
$QTEXTMODE
 70
     0
  9
$MIRRTEXT
 70
     0
  9
$DRAGMODE
 70
     2
  9
$LTSCALE
 40
1.0
  9
$OSMODE
 70
   125
  9
$ATTMODE
 70
     1
  9
$TEXTSIZE
 40
4.0
  9
$TRACEWID
 40
0.05
  9
$TEXTSTYLE
  7
STANDARD
  9
$CLAYER
  8
OBJECT
  9
$CELTYPE
  6
BYLAYER
  9
$CECOLOR
 62
   256
  9
$DIMSCALE
 40
10.0
  9
$DIMASZ
 40
2.0
  9
$DIMEXO
 40
1.0
  9
$DIMDLI
 40
10.0
  9
$DIMRND
 40
0.0
  9
$DIMDLE
 40
0.0
  9
$DIMEXE
 40
1.0
  9
$DIMTP
 40
0.0
  9
$DIMTM
 40
0.0
  9
$DIMTXT
 40
3.2000000000000002
  9
$DIMCEN
 40
0.0
  9
$DIMTSZ
 40
0.0
  9
$DIMTOL
 70
     0
  9
$DIMLIM
 70
     0
  9
$DIMTIH
 70
     0
  9
$DIMTOH
 70
     0
  9
$DIMSE1
 70
     0
  9
$DIMSE2
 70
     0
  9
$DIMTAD
 70
     1
  9
$DIMZIN
 70
     8
  9
$DIMBLK
  1
OPEN30
  9
$DIMASO
 70
     1
  9
$DIMSHO
 70
     1
  9
$DIMPOST
  1

  9
$DIMAPOST
  1

  9
$DIMALT
 70
     0
  9
$DIMALTD
 70
     2
  9
$DIMALTF
 40
25.399999999999999
  9
$DIMLFAC
 40
1.0
  9
$DIMTOFL
 70
     1
  9
$DIMTVP
 40
0.0
  9
$DIMTIX
 70
     0
  9
$DIMSOXD
 70
     0
  9
$DIMSAH
 70
     0
  9
$DIMBLK1
  1

  9
$DIMBLK2
  1

  9
$DIMSTYLE
  2
S10
  9
$DIMCLRD
 70
   256
  9
$DIMCLRE
 70
   256
  9
$DIMCLRT
 70
   256
  9
$DIMTFAC
 40
1.0
  9
$DIMGAP
 40
0.9
  9
$LUNITS
 70
     2
  9
$LUPREC
 70
     2
  9
$SKETCHINC
 40
0.1
  9
$FILLETRAD
 40
0.0
  9
$AUNITS
 70
     0
  9
$AUPREC
 70
     2
  9
$MENU
  1
ACAD
  9
$ELEVATION
 40
0.0
  9
$PELEVATION
 40
0.0
  9
$THICKNESS
 40
0.0
  9
$LIMCHECK
 70
     0
  9
$BLIPMODE
 70
     0
  9
$CHAMFERA
 40
2.0
  9
$CHAMFERB
 40
2.0
  9
$SKPOLY
 70
     0
  9
$TDCREATE
 40
2453095.4929404748
  9
$TDUPDATE
 40
2456727.83320081
  9
$TDINDWG
 40
18.3673445949
  9
$TDUSRTIMER
 40
18.367343333299999
  9
$USRTIMER
 70
     1
  9
$ANGBASE
 50
0.0
  9
$ANGDIR
 70
     0
  9
$PDMODE
 70
    35
  9
$PDSIZE
 40
2.0
  9
$PLINEWID
 40
0.0
  9
$COORDS
 70
     1
  9
$SPLFRAME
 70
     0
  9
$SPLINETYPE
 70
     6
  9
$SPLINESEGS
 70
     8
  9
$ATTDIA
 70
     1
  9
$ATTREQ
 70
     1
  9
$HANDLING
 70
     1
  9
$HANDSEED
  5
13521E
  9
$SURFTAB1
 70
     6
  9
$SURFTAB2
 70
     6
  9
$SURFTYPE
 70
     6
  9
$SURFU
 70
     6
  9
$SURFV
 70
     6
  9
$UCSNAME
  2

  9
$UCSORG
 10
0.0
 20
0.0
 30
0.0
  9
$UCSXDIR
 10
1.0
 20
0.0
 30
0.0
  9
$UCSYDIR
 10
0.0
 20
1.0
 30
0.0
  9
$PUCSNAME
  2

  9
$PUCSORG
 10
0.0
 20
0.0
 30
0.0
  9
$PUCSXDIR
 10
1.0
 20
0.0
 30
0.0
  9
$PUCSYDIR
 10
0.0
 20
1.0
 30
0.0
  9
$USERI1
 70
     0
  9
$USERI2
 70
     0
  9
$USERI3
 70
     0
  9
$USERI4
 70
     0
  9
$USERI5
 70
     0
  9
$USERR1
 40
0.0
  9
$USERR2
 40
0.0
  9
$USERR3
 40
0.0
  9
$USERR4
 40
0.0
  9
$USERR5
 40
0.0
  9
$WORLDVIEW
 70
     1
  9
$SHADEDGE
 70
     3
  9
$SHADEDIF
 70
    70
  9
$TILEMODE
 70
     1
  9
$MAXACTVP
 70
    64
  9
$PLIMCHECK
 70
     0
  9
$PEXTMIN
 10
29.066066288948051
 20
20.366566777229309
 30
0.0
  9
$PEXTMAX
 10
261.5945966005325
 20
183.29910099506381
 30
0.0
  9
$PLIMMIN
 10
-3.17498779296875
 20
-3.1749999523162842
  9
$PLIMMAX
 10
293.83566284179687
 20
206.8406708240509
  9
$UNITMODE
 70
     0
  9
$VISRETAIN
 70
     1
  9
$PLINEGEN
 70
     0
  9
$PSLTSCALE
 70
     1
  0
ENDSEC
  0
SECTION
  2
TABLES
  0
TABLE
  2
VPORT
 70
     1
  0
VPORT
  2
*ACTIVE
 70
     0
 10
0.0
 20
0.0
 11
1.0
 21
1.0
 12
1928.3946262005741
 22
-902.60181240271004
 13
0.0
 23
0.0
 14
1.0
 24
1.0
 15
0.0
 25
0.0
 16
0.0
 26
0.0
 36
1.0
 17
0.0
 27
0.0
 37
0.0
 40
6577.1852535762882
 41
1.628705148205928
 42
50.0
 43
0.0
 44
0.0
 50
0.0
 51
0.0
 71
     0
 72
   600
 73
     1
 74
     1
 75
     0
 76
     0
 77
     0
 78
     0
  0
ENDTAB
  0
TABLE
  2
LTYPE
 70
     3
  0
LTYPE
  2
CONTINUOUS
 70
     0
  3
Solid line
 72
    65
 73
     0
 40
0.0
  0
LTYPE
  2
ACAD_ISO08W100
 70
     0
  3
ISO long-dash short-dash ____ __ ____ __ ____ _
 72
    65
 73
     4
 40
36.0
 49
24.0
 49
-3.0
 49
6.0
 49
-3.0
  0
LTYPE
  2
ACAD_ISO02W100
 70
     0
  3
ISO dash __ __ __ __ __ __ __ __ __ __ __ __ __
 72
    65
 73
     2
 40
15.0
 49
12.0
 49
-3.0
  0
ENDTAB
  0
TABLE
  2
LAYER
 70
     8
  0
LAYER
  2
0
 70
     0
 62
     7
  6
CONTINUOUS
  0
LAYER
  2
OBJECT
 70
     0
 62
     4
  6
CONTINUOUS
  0
LAYER
  2
DEFPOINTS
 70
     0
 62
     7
  6
CONTINUOUS
  0
LAYER
  2
DIM
 70
     0
 62
     7
  6
CONTINUOUS
  0
LAYER
  2
HIDDEN
 70
     0
 62
     2
  6
ACAD_ISO02W100
  0
LAYER
  2
CENTER
 70
     0
 62
     2
  6
ACAD_ISO08W100
  0
LAYER
  2
DOTS
 70
     0
 62
     1
  6
CONTINUOUS
  0
LAYER
  2
SLIM
 70
     0
 62
     2
  6
CONTINUOUS
  0
ENDTAB
  0
TABLE
  2
STYLE
 70
     2
  0
STYLE
  2
STANDARD
 70
     0
 40
0.0
 41
0.75
 50
0.0
 71
     0
 42
4.0
  3
simplex.shx
  4
bigfont.shx
  0
ENDTAB
  0
TABLE
  2
VIEW
 70
     0
  0
ENDTAB
  0
TABLE
  2
UCS
 70
     0
  0
ENDTAB
  0
TABLE
  2
APPID
 70
    18
  0
APPID
  2
ACAD
 70
     0
  0
APPID
  2
ACADANNOTATIVE
 70
     0
  0
APPID
  2
ACAD_PSEXT
 70
     0
  0
APPID
  2
ACAD_EXEMPT_FROM_CAD_STANDARDS
 70
     0
  0
APPID
  2
ACAECLAYERSTANDARD
 70
     0
  0
APPID
  2
ACAUTHENVIRON
 70
     0
  0
APPID
  2
ACDBDYNAMICBLOCKTRUENAME
 70
     0
  0
APPID
  2
ACDBDYNAMICBLOCKGUID
 70
     0
  0
APPID
  2
ACDBBLOCKREPETAG
 70
     0
  0
APPID
  2
ACDBBLOCKREPBTAG
 70
     0
  0
APPID
  2
ACAD_NAV_VCDISPLAY
 70
     0
  0
APPID
  2
ACAD_DSTYLE_DIMRADIAL_EXTENSION
 70
     0
  0
APPID
  2
ACAD_DSTYLE_DIMJAG
 70
     0
  0
APPID
  2
ACAD_DSTYLE_DIMTALN
 70
     0
  0
APPID
  2
ACADANNOPO
 70
     0
  0
APPID
  2
GRADIENTCOLOR1ACI
 70
     0
  0
APPID
  2
GRADIENTCOLOR2ACI
 70
     0
  0
APPID
  2
ACAD_MLEADERVER
 70
     0
  0
ENDTAB
  0
TABLE
  2
DIMSTYLE
 70
     3
  0
DIMSTYLE
  2
STANDARD
 70
     0
  3

  4

  5

  6

  7

 40
1.0
 41
0.18
 42
0.0625
 43
0.38
 44
0.18
 45
0.0
 46
0.0
 47
0.0
 48
0.0
140
0.18
141
0.09
142
0.0
143
25.399999999999999
144
1.0
145
0.0
146
1.0
147
0.09
 71
     0
 72
     0
 73
     1
 74
     1
 75
     0
 76
     0
 77
     0
 78
     0
170
     0
171
     2
172
     0
173
     0
174
     0
175
     0
176
     0
177
     0
178
     0
  0
DIMSTYLE
  2
S10
 70
     0
  3

  4

  5

  6

  7

 40
10.0
 41
2.0
 42
1.0
 43
10.0
 44
1.0
 45
0.0
 46
0.0
 47
0.0
 48
0.0
140
3.2000000000000002
141
0.0
142
0.0
143
25.399999999999999
144
1.0
145
0.0
146
1.0
147
0.9
 71
     0
 72
     0
 73
     0
 74
     0
 75
     0
 76
     0
 77
     1
 78
     8
170
     0
171
     2
172
     1
173
     0
174
     0
175
     0
176
   256
177
   256
178
   256
  0
ENDTAB
  0
ENDSEC
  0
SECTION
  2
BLOCKS
  0
BLOCK
  8
0
  2
$MODEL_SPACE
 70
     0
 10
0.0
 20
0.0
 30
0.0
  3
$MODEL_SPACE
  1

  0
ENDBLK
  5
135164
  8
0
  0
BLOCK
 67
     1
  8
0
  2
$PAPER_SPACE
 70
     0
 10
0.0
 20
0.0
 30
0.0
  3
$PAPER_SPACE
  1

  0
ENDBLK
  5
135160
 67
     1
  8
0
  0
BLOCK
  8
0
  2
_OPEN30
 70
     0
 10
0.0
 20
0.0
 30
0.0
  3
_OPEN30
  1

  0
LINE
  5
202
  8
0
  6
BYBLOCK
 62
     0
 10
-1.0
 20
0.26794919
 30
0.0
 11
0.0
 21
0.0
 31
0.0
  0
LINE
  5
203
  8
0
  6
BYBLOCK
 62
     0
 10
0.0
 20
0.0
 30
0.0
 11
-1.0
 21
-0.26794919
 31
0.0
  0
LINE
  5
204
  8
0
  6
BYBLOCK
 62
     0
 10
0.0
 20
0.0
 30
0.0
 11
-1.0
 21
0.0
 31
0.0
  0
ENDBLK
  5
206
  8
0
  0
BLOCK
  8
0
  2
*U3
 70
     1
 10
0.0
 20
0.0
 30
0.0
  3
*U3
  1

  0
TEXT
  5
134CE2
  8
SLIM
 10
465.0476190476187
 20
-574.75
 30
0.0
 40
26.0
  1
100
  0
ENDBLK
  5
134CE4
  8
0
  0
BLOCK
  8
0
  2
*U4
 70
     1
 10
0.0
 20
0.0
 30
0.0
  3
*U4
  1

  0
TEXT
  5
134CE6
  8
SLIM
 10
636.09523809523796
 20
-697.0
 30
0.0
 40
26.0
  1
CO
  0
ENDBLK
  5
134CE8
  8
0
  0
BLOCK
  8
0
  2
*U5
 70
     1
 10
0.0
 20
0.0
 30
0.0
  3
*U5
  1

  0
TEXT
  5
134CEA
  8
SLIM
 10
114.95238095238091
 20
-582.0
 30
0.0
 40
26.0
  1
75
  0
ENDBLK
  5
134CEC
  8
0
  0
BLOCK
  8
0
  2
*U6
 70
     1
 10
0.0
 20
0.0
 30
0.0
  3
*U6
  1

  0
TEXT
  5
134CEE
  8
SLIM
 10
276.09523809523807
 20
-697.0
 30
0.0
 40
26.0
  1
CO
  0
ENDBLK
  5
134CF0
  8
0
  0
BLOCK
  8
0
  2
*U7
 70
     1
 10
0.0
 20
0.0
 30
0.0
  3
*U7
  1

  0
TEXT
  5
134CF2
  8
SLIM
 10
474.95238095238079
 20
-118.0
 30
0.0
 40
26.0
  1
65
  0
ENDBLK
  5
134CF4
  8
0
  0
BLOCK
  8
0
  2
*U8
 70
     1
 10
0.0
 20
0.0
 30
0.0
  3
*U8
  1

  0
TEXT
  5
134CF6
  8
SLIM
 10
636.09523809523796
 20
-233.0
 30
0.0
 40
26.0
  1
CO
  0
ENDBLK
  5
134CF8
  8
0
  0
BLOCK
  8
0
  2
*U9
 70
     1
 10
0.0
 20
0.0
 30
0.0
  3
*U9
  1

  0
TEXT
  5
134CFA
  8
SLIM
 10
114.95238095238091
 20
-118.0
 30
0.0
 40
26.0
  1
50
  0
ENDBLK
  5
134CFC
  8
0
  0
BLOCK
  8
0
  2
*U10
 70
     1
 10
0.0
 20
0.0
 30
0.0
  3
*U10
  1

  0
TEXT
  5
134CFE
  8
SLIM
 10
276.09523809523807
 20
-233.0
 30
0.0
 40
26.0
  1
CO
  0
ENDBLK
  5
134D00
  8
0
  0
BLOCK
  8
0
  2
*U11
 70
     1
 10
0.0
 20
0.0
 30
0.0
  3
*U11
  1

  0
TEXT
  5
134D16
  8
DIM
 10
2209.479620594459
 20
-3184.1428571428528
 30
0.0
 40
32.0
  1
A
 50
90.0
 41
0.75
  0
ENDBLK
  5
134D18
  8
0
  0
BLOCK
  8
0
  2
*U12
 70
     1
 10
0.0
 20
0.0
 30
0.0
  3
*U12
  1

  0
TEXT
  5
134D1A
  8
DIM
 10
2207.8409284037348
 20
-3565.9999999999959
 30
0.0
 40
32.0
  1
B
 50
90.0
 41
0.75
  0
ENDBLK
  5
134D1C
  8
0
  0
BLOCK
  8
0
  2
*U13
 70
     1
 10
0.0
 20
0.0
 30
0.0
  3
*U13
  1

  0
TEXT
  5
134D1E
  8
DIM
 10
2061.428571428572
 20
-3038.208121984444
 30
0.0
 40
32.0
  1
C
 41
0.75
  0
ENDBLK
  5
134D20
  8
0
  0
ENDSEC
  0
SECTION
  2
ENTITIES
  0
LINE
  5
12515F
  8
OBJECT
 10
1825.0
 20
-3579.9999999999959
 30
0.0
 11
5575.0
 21
-3579.9999999999959
 31
0.0
  0
LINE
  5
125161
  8
SLIM
 10
2616.0
 20
-2637.50001604727
 30
0.0
 11
2616.0
 21
-2967.50001604727
 31
0.0
  0
LINE
  5
125162
  8
SLIM
 10
2740.0
 20
-2637.50001604727
 30
0.0
 11
2740.0
 21
-2967.50001604727
 31
0.0
  0
LINE
  5
125163
  8
SLIM
 10
2870.0
 20
-2697.50001604727
 30
0.0
 11
2870.0
 21
-2967.50001604727
 31
0.0
  0
LINE
  5
125164
  8
SLIM
 10
3000.0
 20
-2697.50001604727
 30
0.0
 11
3000.0
 21
-2967.50001604727
 31
0.0
  0
LINE
  5
125165
  8
SLIM
 10
3130.0
 20
-2967.50001604727
 30
0.0
 11
3130.0
 21
-2697.50001604727
 31
0.0
  0
LINE
  5
125166
  8
SLIM
 10
3260.0
 20
-2967.50001604727
 30
0.0
 11
3260.0
 21
-2637.50001604727
 31
0.0
  0
LINE
  5
125167
  8
SLIM
 10
3260.0
 20
-2637.50001604727
 30
0.0
 11
2616.0
 21
-2637.50001604727
 31
0.0
  0
LINE
  5
125168
  8
SLIM
 10
3260.0
 20
-2697.50001604727
 30
0.0
 11
2740.0
 21
-2697.50001604727
 31
0.0
  0
LINE
  5
125169
  8
SLIM
 10
3260.0
 20
-2757.50001604727
 30
0.0
 11
2616.0
 21
-2757.50001604727
 31
0.0
  0
LINE
  5
12516A
  8
SLIM
 10
3260.0
 20
-2827.50001604727
 30
0.0
 11
2616.0
 21
-2827.50001604727
 31
0.0
  0
LINE
  5
12516B
  8
SLIM
 10
3260.0
 20
-2897.50001604727
 30
0.0
 11
2616.0
 21
-2897.50001604727
 31
0.0
  0
LINE
  5
12516C
  8
SLIM
 10
3260.0
 20
-2967.50001604727
 30
0.0
 11
2616.0
 21
-2967.50001604727
 31
0.0
  0
LINE
  5
125181
  8
SLIM
 10
2740.0
 20
-2757.50001604727
 30
0.0
 11
2615.9999722746579
 21
-2637.5
 31
0.0
  0
LINE
  5
1251B6
  8
OBJECT
 10
5323.0
 20
-3395.9999999999968
 30
0.0
 11
5323.0
 21
-3374.9999999999968
 31
0.0
1001
ACDBBLOCKREPETAG
1070
     1
1071
       20
1005
1251B6
  0
LINE
  5
1251B7
  8
OBJECT
 10
5323.0
 20
-3374.9999999999968
 30
0.0
 11
5477.0
 21
-3374.9999999999968
 31
0.0
1001
ACDBBLOCKREPETAG
1070
     1
1071
       21
1005
1251B7
  0
LINE
  5
1251B8
  8
HIDDEN
 10
5343.0
 20
-3444.9999999999968
 30
0.0
 11
5457.0
 21
-3444.9999999999968
 31
0.0
1001
ACDBBLOCKREPETAG
1070
     1
1071
       22
1005
1251B8
  0
LINE
  5
1251B9
  8
OBJECT
 10
5477.0
 20
-3374.9999999999968
 30
0.0
 11
5477.0
 21
-3395.9999999999968
 31
0.0
1001
ACDBBLOCKREPETAG
1070
     1
1071
       23
1005
1251B9
  0
LINE
  5
1251BA
  8
OBJECT
 10
5477.0
 20
-3395.9999999999968
 30
0.0
 11
5323.0
 21
-3395.9999999999968
 31
0.0
1001
ACDBBLOCKREPETAG
1070
     1
1071
       24
1005
1251BA
  0
LINE
  5
1251BB
  8
CENTER
 10
5400.0
 20
-3359.9999999999968
 30
0.0
 11
5400.0
 21
-3594.9999999999968
 31
0.0
1001
ACDBBLOCKREPETAG
1070
     1
1071
       25
1005
1251BB
  0
LINE
  5
1251BC
  8
OBJECT
 10
5325.0
 20
-3458.9999999999968
 30
0.0
 11
5325.0
 21
-3582.9999999999968
 31
0.0
1001
ACDBBLOCKREPETAG
1070
     1
1071
       26
1005
1251BC
  0
LINE
  5
1251BD
  8
OBJECT
 10
5328.0
 20
-3395.9999999999968
 30
0.0
 11
5328.0
 21
-3458.9999999999968
 31
0.0
1001
ACDBBLOCKREPETAG
1070
     1
1071
       27
1005
1251BD
  0
LINE
  5
1251BE
  8
OBJECT
 10
5472.0
 20
-3458.9999999999968
 30
0.0
 11
5472.0
 21
-3395.9999999999968
 31
0.0
1001
ACDBBLOCKREPETAG
1070
     1
1071
       28
1005
1251BE
  0
LINE
  5
1251BF
  8
OBJECT
 10
5475.0
 20
-3458.9999999999968
 30
0.0
 11
5456.7802782663139
 21
-3458.9999999999968
 31
0.0
1001
ACDBBLOCKREPETAG
1070
     1
1071
       30
1005
1251BF
  0
LINE
  5
1251C0
  8
OBJECT
 10
5475.0
 20
-3458.9999999999968
 30
0.0
 11
5475.0
 21
-3582.9999999999968
 31
0.0
1001
ACDBBLOCKREPETAG
1070
     1
1071
       34
1005
1251C0
  0
POINT
  5
1251C1
  8
DOTS
 10
5400.0
 20
-3579.9999999999968
 30
0.0
1001
ACDBBLOCKREPETAG
1070
     1
1071
      187
1005
1251C1
  0
LINE
  5
1251C2
  8
CENTER
 10
5310.0
 20
-3507.9999999999968
 30
0.0
 11
5490.0
 21
-3507.9999999999968
 31
0.0
1001
ACDBBLOCKREPETAG
1070
     1
1071
       23
1005
1251C2
  0
CIRCLE
  5
1251C3
  8
OBJECT
 10
5400.0
 20
-3507.9999999999968
 30
0.0
 40
53.5
1001
ACDBBLOCKREPETAG
1070
     1
1071
       24
1005
1251C3
  0
CIRCLE
  5
1251C4
  8
OBJECT
 10
5400.0
 20
-3507.9999999999968
 30
0.0
 40
67.0
1001
ACDBBLOCKREPETAG
1070
     1
1071
       25
1005
1251C4
  0
ARC
  5
1251C5
  8
OBJECT
 10
5400.0
 20
-3507.9999999999968
 30
0.0
 40
75.0
 50
286.26020470824369
 51
253.73979529175631
1001
ACDBBLOCKREPETAG
1070
     1
1071
       27
1005
1251C5
  0
LINE
  5
1251C6
  8
OBJECT
 10
5379.0
 20
-3579.9999999999968
 30
0.0
 11
5421.0
 21
-3579.9999999999968
 31
0.0
1001
ACDBBLOCKREPETAG
1070
     1
1071
       28
1005
1251C6
  0
LINE
  5
1251C7
  8
OBJECT
 10
5343.2197217336861
 20
-3458.9999999999968
 30
0.0
 11
5325.0
 21
-3458.9999999999968
 31
0.0
1001
ACDBBLOCKREPETAG
1070
     1
1071
       30
1005
1251BF
  0
TEXT
  5
12CC49
  8
SLIM
 10
-0.0000000000000011
 20
282.5
 30
0.0
 40
35.0
  1
※ 100枝（4）がある場合、品名の最後に【管底】が付きます。
 41
0.9
 11
0.0
 21
300.0
 31
0.0
 73
     2
  0
TEXT
  5
13450C
  8
SLIM
 10
58.28571428571432
 20
-444.0
 30
0.0
 40
48.0
  1
CO-A1P0
 41
0.75
 72
     4
 11
180.0
 21
-420.0
 31
0.0
  0
TEXT
  5
13450D
  8
SLIM
 10
414.85714285714278
 20
-444.0
 30
0.0
 40
48.0
  1
CO-A2P0
 41
0.75
 72
     4
 11
540.0
 21
-420.0
 31
0.0
  0
TEXT
  5
13450E
  8
SLIM
 10
54.85714285714289
 20
-908.0
 30
0.0
 40
48.0
  1
CO-A3P0
 41
0.75
 72
     4
 11
180.0
 21
-884.0
 31
0.0
  0
TEXT
  5
13450F
  8
SLIM
 10
414.85714285714278
 20
-908.0
 30
0.0
 40
48.0
  1
CO-A4P0
 41
0.75
 72
     4
 11
540.0
 21
-884.0
 31
0.0
  0
CIRCLE
  5
134517
  8
OBJECT
 10
496.0
 20
-684.0
 30
0.0
 40
70.0
1001
ACDBBLOCKREPETAG
1070
     1
1071
       43
1005
134517
  0
CIRCLE
  5
134518
  8
OBJECT
 10
496.0
 20
-684.0
 30
0.0
 40
77.0
1001
ACDBBLOCKREPETAG
1070
     1
1071
       44
1005
134518
  0
ARC
  5
134519
  8
OBJECT
 10
496.0
 20
-684.0
 30
0.0
 40
80.0
 50
140.8050325737787
 51
219.19496742621919
1001
ACDBBLOCKREPETAG
1070
     1
1071
       45
1005
134519
  0
LINE
  5
13451A
  8
OBJECT
 10
434.0
 20
-638.33819977267558
 30
0.0
 11
434.0
 21
-604.0
 31
0.0
1001
ACDBBLOCKREPETAG
1070
     1
1071
       46
1005
13451A
  0
LINE
  5
13451B
  8
OBJECT
 10
558.0
 20
-622.0
 30
0.0
 11
558.0
 21
-604.0
 31
0.0
1001
ACDBBLOCKREPETAG
1070
     1
1071
       22
1005
13451B
  0
LINE
  5
13451C
  8
OBJECT
 10
558.0
 20
-622.0
 30
0.0
 11
576.0
 21
-622.0
 31
0.0
1001
ACDBBLOCKREPETAG
1070
     1
1071
       24
1005
13451C
  0
LINE
  5
13451D
  8
OBJECT
 10
558.0
 20
-746.0
 30
0.0
 11
576.0
 21
-746.0
 31
0.0
1001
ACDBBLOCKREPETAG
1070
     1
1071
       25
1005
13451D
  0
LINE
  5
13451E
  8
OBJECT
 10
558.0
 20
-746.0
 30
0.0
 11
558.0
 21
-764.0
 31
0.0
1001
ACDBBLOCKREPETAG
1070
     1
1071
       27
1005
13451E
  0
LINE
  5
13451F
  8
OBJECT
 10
434.0
 20
-729.66180022732453
 30
0.0
 11
434.0
 21
-764.0
 31
0.0
1001
ACDBBLOCKREPETAG
1070
     1
1071
       28
1005
13451F
  0
LINE
  5
134520
  8
OBJECT
 10
550.44722215136414
 20
-738.44722215136414
 30
0.0
 11
558.0
 21
-746.0
 31
0.0
1001
ACDBBLOCKREPETAG
1070
     1
1071
       37
1005
134520
  0
LINE
  5
134521
  8
OBJECT
 10
550.44722215136414
 20
-629.55277784863563
 30
0.0
 11
558.0
 21
-622.0
 31
0.0
1001
ACDBBLOCKREPETAG
1070
     1
1071
       38
1005
134521
  0
POINT
  5
134522
  8
DOTS
 10
496.0
 20
-684.0
 30
0.0
1001
ACDBBLOCKREPETAG
1070
     1
1071
       39
1005
134522
  0
CIRCLE
  5
134523
  8
OBJECT
 10
496.0
 20
-684.0
 30
0.0
 40
53.5
1001
ACDBBLOCKREPETAG
1070
     1
1071
      153
1005
134523
  0
CIRCLE
  5
134524
  8
OBJECT
 10
136.0
 20
-684.0
 30
0.0
 40
70.0
1001
ACDBBLOCKREPETAG
1070
     1
1071
       43
1005
134524
  0
CIRCLE
  5
134525
  8
OBJECT
 10
136.0
 20
-684.0
 30
0.0
 40
77.0
1001
ACDBBLOCKREPETAG
1070
     1
1071
       44
1005
134525
  0
ARC
  5
134526
  8
OBJECT
 10
136.0
 20
-684.0
 30
0.0
 40
80.0
 50
140.80503257377961
 51
219.1949674262203
1001
ACDBBLOCKREPETAG
1070
     1
1071
       45
1005
134526
  0
LINE
  5
134527
  8
OBJECT
 10
74.0
 20
-638.33819977267558
 30
0.0
 11
74.0
 21
-604.0
 31
0.0
1001
ACDBBLOCKREPETAG
1070
     1
1071
       46
1005
134527
  0
LINE
  5
134528
  8
OBJECT
 10
198.0
 20
-622.0
 30
0.0
 11
198.0
 21
-604.0
 31
0.0
1001
ACDBBLOCKREPETAG
1070
     1
1071
       22
1005
134528
  0
LINE
  5
134529
  8
OBJECT
 10
198.0
 20
-622.0
 30
0.0
 11
216.0
 21
-622.0
 31
0.0
1001
ACDBBLOCKREPETAG
1070
     1
1071
       24
1005
134529
  0
LINE
  5
13452A
  8
OBJECT
 10
198.0
 20
-746.0
 30
0.0
 11
216.0
 21
-746.0
 31
0.0
1001
ACDBBLOCKREPETAG
1070
     1
1071
       25
1005
13452A
  0
LINE
  5
13452B
  8
OBJECT
 10
198.0
 20
-746.0
 30
0.0
 11
198.0
 21
-764.0
 31
0.0
1001
ACDBBLOCKREPETAG
1070
     1
1071
       27
1005
13452B
  0
LINE
  5
13452C
  8
OBJECT
 10
74.0
 20
-729.66180022732453
 30
0.0
 11
74.0
 21
-764.0
 31
0.0
1001
ACDBBLOCKREPETAG
1070
     1
1071
       28
1005
13452C
  0
LINE
  5
13452D
  8
OBJECT
 10
190.4472221513642
 20
-738.44722215136414
 30
0.0
 11
198.0
 21
-746.0
 31
0.0
1001
ACDBBLOCKREPETAG
1070
     1
1071
       37
1005
13452D
  0
LINE
  5
13452E
  8
OBJECT
 10
190.4472221513642
 20
-629.55277784863563
 30
0.0
 11
198.0
 21
-622.0
 31
0.0
1001
ACDBBLOCKREPETAG
1070
     1
1071
       38
1005
13452E
  0
POINT
  5
13452F
  8
DOTS
 10
136.0
 20
-684.0
 30
0.0
1001
ACDBBLOCKREPETAG
1070
     1
1071
       39
1005
13452F
  0
CIRCLE
  5
134530
  8
OBJECT
 10
136.0
 20
-684.0
 30
0.0
 40
53.5
1001
ACDBBLOCKREPETAG
1070
     1
1071
      153
1005
134530
  0
CIRCLE
  5
134531
  8
OBJECT
 10
496.0
 20
-220.0
 30
0.0
 40
70.0
1001
ACDBBLOCKREPETAG
1070
     1
1071
       43
1005
134531
  0
CIRCLE
  5
134532
  8
OBJECT
 10
496.0
 20
-220.0
 30
0.0
 40
77.0
1001
ACDBBLOCKREPETAG
1070
     1
1071
       44
1005
134532
  0
ARC
  5
134533
  8
OBJECT
 10
496.0
 20
-220.0
 30
0.0
 40
80.0
 50
140.80503257378001
 51
219.194967426218
1001
ACDBBLOCKREPETAG
1070
     1
1071
       45
1005
134533
  0
LINE
  5
134534
  8
OBJECT
 10
434.0
 20
-174.33819977267541
 30
0.0
 11
434.0
 21
-140.0
 31
0.0
1001
ACDBBLOCKREPETAG
1070
     1
1071
       46
1005
134534
  0
LINE
  5
134535
  8
OBJECT
 10
558.0
 20
-158.0
 30
0.0
 11
558.0
 21
-140.0
 31
0.0
1001
ACDBBLOCKREPETAG
1070
     1
1071
       22
1005
134535
  0
LINE
  5
134536
  8
OBJECT
 10
558.0
 20
-158.0
 30
0.0
 11
576.0
 21
-158.0
 31
0.0
1001
ACDBBLOCKREPETAG
1070
     1
1071
       24
1005
134536
  0
LINE
  5
134537
  8
OBJECT
 10
558.0
 20
-282.0
 30
0.0
 11
576.0
 21
-282.0
 31
0.0
1001
ACDBBLOCKREPETAG
1070
     1
1071
       25
1005
134537
  0
LINE
  5
134538
  8
OBJECT
 10
558.0
 20
-282.0
 30
0.0
 11
558.0
 21
-300.0
 31
0.0
1001
ACDBBLOCKREPETAG
1070
     1
1071
       27
1005
134538
  0
LINE
  5
134539
  8
OBJECT
 10
434.0
 20
-265.66180022732442
 30
0.0
 11
434.0
 21
-300.0
 31
0.0
1001
ACDBBLOCKREPETAG
1070
     1
1071
       28
1005
134539
  0
LINE
  5
13453A
  8
OBJECT
 10
550.44722215136414
 20
-274.44722215136431
 30
0.0
 11
558.0
 21
-282.0
 31
0.0
1001
ACDBBLOCKREPETAG
1070
     1
1071
       37
1005
13453A
  0
LINE
  5
13453B
  8
OBJECT
 10
550.44722215136414
 20
-165.55277784863571
 30
0.0
 11
558.0
 21
-158.0
 31
0.0
1001
ACDBBLOCKREPETAG
1070
     1
1071
       38
1005
13453B
  0
POINT
  5
13453C
  8
DOTS
 10
496.0
 20
-220.0
 30
0.0
1001
ACDBBLOCKREPETAG
1070
     1
1071
       39
1005
13453C
  0
CIRCLE
  5
13453D
  8
OBJECT
 10
496.0
 20
-220.0
 30
0.0
 40
53.5
1001
ACDBBLOCKREPETAG
1070
     1
1071
      153
1005
13453D
  0
LINE
  5
13453E
  8
OBJECT
 10
421.0
 20
-534.0
 30
0.0
 11
421.0
 21
-541.0
 31
0.0
1001
ACDBBLOCKREPETAG
1070
     1
1071
       57
1005
13453E
  0
LINE
  5
13453F
  8
OBJECT
 10
421.0
 20
-541.0
 30
0.0
 11
571.0
 21
-541.0
 31
0.0
1001
ACDBBLOCKREPETAG
1070
     1
1071
       58
1005
13453F
  0
LINE
  5
134540
  8
OBJECT
 10
424.0
 20
-582.5
 30
0.0
 11
568.0
 21
-582.5
 31
0.0
1001
ACDBBLOCKREPETAG
1070
     1
1071
       59
1005
134540
  0
LINE
  5
134541
  8
OBJECT
 10
430.49999999999989
 20
-594.0
 30
0.0
 11
561.5
 21
-594.0
 31
0.0
1001
ACDBBLOCKREPETAG
1070
     1
1071
       60
1005
134541
  0
LINE
  5
134542
  8
OBJECT
 10
571.0
 20
-541.0
 30
0.0
 11
571.0
 21
-534.0
 31
0.0
1001
ACDBBLOCKREPETAG
1070
     1
1071
       61
1005
134542
  0
LINE
  5
134543
  8
OBJECT
 10
571.0
 20
-534.0
 30
0.0
 11
421.0
 21
-534.0
 31
0.0
1001
ACDBBLOCKREPETAG
1070
     1
1071
       62
1005
134543
  0
LINE
  5
134544
  8
OBJECT
 10
558.0
 20
-598.0
 30
0.0
 11
558.0
 21
-604.0
 31
0.0
1001
ACDBBLOCKREPETAG
1070
     1
1071
       63
1005
134544
  0
LINE
  5
134545
  8
OBJECT
 10
568.0
 20
-541.0
 30
0.0
 11
568.0
 21
-582.5
 31
0.0
1001
ACDBBLOCKREPETAG
1070
     1
1071
       64
1005
134545
  0
LINE
  5
134546
  8
OBJECT
 10
568.0
 20
-582.5
 30
0.0
 11
561.5
 21
-594.0
 31
0.0
1001
ACDBBLOCKREPETAG
1070
     1
1071
       65
1005
134546
  0
LINE
  5
134547
  8
OBJECT
 10
561.5
 20
-594.0
 30
0.0
 11
558.0
 21
-598.0
 31
0.0
1001
ACDBBLOCKREPETAG
1070
     1
1071
       66
1005
134547
  0
LINE
  5
134548
  8
OBJECT
 10
424.0
 20
-582.5
 30
0.0
 11
430.49999999999989
 21
-594.0
 31
0.0
1001
ACDBBLOCKREPETAG
1070
     1
1071
       67
1005
134548
  0
LINE
  5
134549
  8
OBJECT
 10
430.49999999999989
 20
-594.0
 30
0.0
 11
434.0
 21
-598.0
 31
0.0
1001
ACDBBLOCKREPETAG
1070
     1
1071
       68
1005
134549
  0
ARC
  5
13454A
  8
OBJECT
 10
496.0
 20
-216.09999999999849
 30
0.0
 40
386.89999999999998
 50
260.77870136257951
 51
279.22129863742049
1001
ACDBBLOCKREPETAG
1070
     1
1071
       69
1005
13454A
  0
LINE
  5
13454B
  8
OBJECT
 10
434.0
 20
-598.0
 30
0.0
 11
434.0
 21
-604.0
 31
0.0
1001
ACDBBLOCKREPETAG
1070
     1
1071
       70
1005
13454B
  0
LINE
  5
13454C
  8
OBJECT
 10
424.0
 20
-541.0
 30
0.0
 11
424.0
 21
-582.5
 31
0.0
1001
ACDBBLOCKREPETAG
1070
     1
1071
       71
1005
13454C
  0
INSERT
  5
13454D
  8
OBJECT
  2
*U3
 10
0.0
 20
0.0
 30
0.0
  0
LINE
  5
13454E
  8
HIDDEN
 10
553.0
 20
-586.0
 30
0.0
 11
439.0
 21
-586.0
 31
0.0
1001
ACDBBLOCKREPETAG
1070
     1
1071
      431
1005
13454E
  0
LINE
  5
13454F
  8
OBJECT
 10
434.0
 20
-767.0
 30
0.0
 11
434.0
 21
-764.0
 31
0.0
1001
ACDBBLOCKREPETAG
1070
     1
1071
      418
1005
13454F
  0
ARC
  5
134550
  8
OBJECT
 10
437.0
 20
-767.0
 30
0.0
 40
3.0
 50
180.0
 51
270.0
1001
ACDBBLOCKREPETAG
1070
     1
1071
      419
1005
134550
  0
LINE
  5
134551
  8
OBJECT
 10
558.0
 20
-764.0
 30
0.0
 11
558.0
 21
-767.0
 31
0.0
1001
ACDBBLOCKREPETAG
1070
     1
1071
      420
1005
134551
  0
ARC
  5
134552
  8
OBJECT
 10
555.0
 20
-767.0
 30
0.0
 40
3.0
 50
270.0
 51
0.0
1001
ACDBBLOCKREPETAG
1070
     1
1071
      421
1005
134552
  0
LINE
  5
134553
  8
OBJECT
 10
555.0
 20
-770.0
 30
0.0
 11
437.0
 21
-770.0
 31
0.0
1001
ACDBBLOCKREPETAG
1070
     1
1071
      422
1005
134553
  0
LINE
  5
134554
  8
OBJECT
 10
582.0
 20
-624.9999999999992
 30
0.0
 11
582.0
 21
-742.99999999999875
 31
0.0
1001
ACDBBLOCKREPETAG
1070
     1
1071
      323
1005
134554
  0
LINE
  5
134555
  8
OBJECT
 10
606.0
 20
-728.5
 30
0.0
 11
606.0
 21
-639.5
 31
0.0
1001
ACDBBLOCKREPETAG
1070
     1
1071
      324
1005
134555
  0
LINE
  5
134556
  8
OBJECT
 10
606.0
 20
-728.5
 30
0.0
 11
582.0
 21
-728.5
 31
0.0
1001
ACDBBLOCKREPETAG
1070
     1
1071
      325
1005
134556
  0
LINE
  5
134557
  8
OBJECT
 10
576.0
 20
-745.99999999999909
 30
0.0
 11
579.0
 21
-745.99999999999909
 31
0.0
1001
ACDBBLOCKREPETAG
1070
     1
1071
      326
1005
134557
  0
ARC
  5
134558
  8
OBJECT
 10
579.0
 20
-742.99999999999875
 30
0.0
 40
3.0
 50
270.0
 51
0.0
1001
ACDBBLOCKREPETAG
1070
     1
1071
      327
1005
134558
  0
LINE
  5
134559
  8
OBJECT
 10
606.0
 20
-666.17793400000005
 30
0.0
 11
609.83118900000045
 21
-661.89681800000017
 31
0.0
1001
ACDBBLOCKREPETAG
1070
     1
1071
      328
1005
134559
  0
ARC
  5
13455A
  8
OBJECT
 10
616.0
 20
-666.99999999999909
 30
0.0
 40
8.0
 50
341.8416470000376
 51
140.40224699998851
1001
ACDBBLOCKREPETAG
1070
     1
1071
      329
1005
13455A
  0
ARC
  5
13455B
  8
OBJECT
 10
618.85059700000045
 20
-667.93493299999955
 30
0.0
 40
5.0
 50
288.48486900001723
 51
341.8416470000376
1001
ACDBBLOCKREPETAG
1070
     1
1071
      330
1005
13455B
  0
LINE
  5
13455C
  8
OBJECT
 10
616.0
 20
-679.0
 30
0.0
 11
609.0
 21
-679.0
 31
0.0
1001
ACDBBLOCKREPETAG
1070
     1
1071
      331
1005
13455C
  0
LINE
  5
13455D
  8
OBJECT
 10
616.0
 20
-689.0
 30
0.0
 11
609.0
 21
-689.0
 31
0.0
1001
ACDBBLOCKREPETAG
1070
     1
1071
      332
1005
13455D
  0
LINE
  5
13455E
  8
OBJECT
 10
616.0
 20
-679.0
 30
0.0
 11
616.0
 21
-689.0
 31
0.0
1001
ACDBBLOCKREPETAG
1070
     1
1071
      333
1005
13455E
  0
LINE
  5
13455F
  8
OBJECT
 10
609.0
 20
-676.5
 30
0.0
 11
609.0
 21
-691.5
 31
0.0
1001
ACDBBLOCKREPETAG
1070
     1
1071
      334
1005
13455F
  0
LINE
  5
134560
  8
OBJECT
 10
606.0
 20
-692.25
 30
0.0
 11
609.0
 21
-691.5
 31
0.0
1001
ACDBBLOCKREPETAG
1070
     1
1071
      335
1005
134560
  0
LINE
  5
134561
  8
OBJECT
 10
606.0
 20
-701.82206699999995
 30
0.0
 11
609.83118900000045
 21
-706.10318200000074
 31
0.0
1001
ACDBBLOCKREPETAG
1070
     1
1071
      336
1005
134561
  0
LINE
  5
134562
  8
OBJECT
 10
606.0
 20
-675.75
 30
0.0
 11
609.0
 21
-676.5
 31
0.0
1001
ACDBBLOCKREPETAG
1070
     1
1071
      337
1005
134562
  0
ARC
  5
134563
  8
OBJECT
 10
616.0
 20
-700.99999999999898
 30
0.0
 40
8.0
 50
219.59775300001141
 51
18.158352999962421
1001
ACDBBLOCKREPETAG
1070
     1
1071
      338
1005
134563
  0
ARC
  5
134564
  8
OBJECT
 10
618.85059700000045
 20
-700.06506700000045
 30
0.0
 40
5.0
 50
18.158352999962421
 51
71.515130999982702
1001
ACDBBLOCKREPETAG
1070
     1
1071
      339
1005
134564
  0
LINE
  5
134565
  8
OBJECT
 10
620.43586800000026
 20
-695.32303000000013
 30
0.0
 11
609.0
 21
-691.5
 31
0.0
1001
ACDBBLOCKREPETAG
1070
     1
1071
      340
1005
134565
  0
LINE
  5
134566
  8
OBJECT
 10
620.43586800000026
 20
-672.67696999999919
 30
0.0
 11
609.0
 21
-676.5
 31
0.0
1001
ACDBBLOCKREPETAG
1070
     1
1071
      341
1005
134566
  0
ARC
  5
134567
  8
OBJECT
 10
579.0
 20
-624.9999999999992
 30
0.0
 40
3.0
 50
0.0
 51
90.0
1001
ACDBBLOCKREPETAG
1070
     1
1071
      342
1005
134567
  0
LINE
  5
134568
  8
OBJECT
 10
576.0
 20
-621.99999999999886
 30
0.0
 11
579.0
 21
-621.99999999999886
 31
0.0
1001
ACDBBLOCKREPETAG
1070
     1
1071
      343
1005
134568
  0
LINE
  5
134569
  8
OBJECT
 10
606.0
 20
-639.5
 30
0.0
 11
582.0
 21
-639.5
 31
0.0
1001
ACDBBLOCKREPETAG
1070
     1
1071
      344
1005
134569
  0
INSERT
  5
13456A
  8
OBJECT
  2
*U4
 10
0.0
 20
0.0
 30
0.0
  0
INSERT
  5
13456B
  8
OBJECT
  2
*U5
 10
0.0
 20
0.0
 30
0.0
  0
LINE
  5
13456C
  8
OBJECT
 10
74.0
 20
-551.0
 30
0.0
 11
74.0
 21
-544.0
 31
0.0
1001
ACDBBLOCKREPETAG
1070
     1
1071
       39
1005
13456C
  0
LINE
  5
13456D
  8
OBJECT
 10
74.0
 20
-544.0
 30
0.0
 11
198.0
 21
-544.0
 31
0.0
1001
ACDBBLOCKREPETAG
1070
     1
1071
       40
1005
13456D
  0
LINE
  5
13456E
  8
OBJECT
 10
198.0
 20
-544.0
 30
0.0
 11
198.0
 21
-551.0
 31
0.0
1001
ACDBBLOCKREPETAG
1070
     1
1071
       41
1005
13456E
  0
LINE
  5
13456F
  8
OBJECT
 10
198.0
 20
-551.0
 30
0.0
 11
74.0
 21
-551.0
 31
0.0
1001
ACDBBLOCKREPETAG
1070
     1
1071
       42
1005
13456F
  0
LINE
  5
134570
  8
OBJECT
 10
77.0
 20
-551.0
 30
0.0
 11
77.0
 21
-587.0
 31
0.0
1001
ACDBBLOCKREPETAG
1070
     1
1071
       43
1005
134570
  0
LINE
  5
134571
  8
OBJECT
 10
77.0
 20
-587.0
 30
0.0
 11
195.0
 21
-587.0
 31
0.0
1001
ACDBBLOCKREPETAG
1070
     1
1071
       44
1005
134571
  0
LINE
  5
134572
  8
OBJECT
 10
195.0
 20
-587.0
 30
0.0
 11
195.0
 21
-551.0
 31
0.0
1001
ACDBBLOCKREPETAG
1070
     1
1071
       45
1005
134572
  0
LINE
  5
134573
  8
OBJECT
 10
81.5
 20
-591.0
 30
0.0
 11
81.5
 21
-598.0
 31
0.0
1001
ACDBBLOCKREPETAG
1070
     1
1071
       46
1005
134573
  0
LINE
  5
134574
  8
OBJECT
 10
190.5
 20
-598.0
 30
0.0
 11
190.5
 21
-591.0
 31
0.0
1001
ACDBBLOCKREPETAG
1070
     1
1071
       47
1005
134574
  0
LINE
  5
134575
  8
OBJECT
 10
190.5
 20
-591.0
 30
0.0
 11
81.5
 21
-591.0
 31
0.0
1001
ACDBBLOCKREPETAG
1070
     1
1071
       48
1005
134575
  0
LINE
  5
134576
  8
OBJECT
 10
77.0
 20
-587.0
 30
0.0
 11
81.5
 21
-591.0
 31
0.0
1001
ACDBBLOCKREPETAG
1070
     1
1071
       49
1005
134576
  0
LINE
  5
134577
  8
OBJECT
 10
195.0
 20
-587.0
 30
0.0
 11
190.5
 21
-591.0
 31
0.0
1001
ACDBBLOCKREPETAG
1070
     1
1071
       50
1005
134577
  0
LINE
  5
134578
  8
OBJECT
 10
74.0
 20
-600.99999999999898
 30
0.0
 11
74.0
 21
-604.0
 31
0.0
1001
ACDBBLOCKREPETAG
1070
     1
1071
       51
1005
134578
  0
ARC
  5
134579
  8
OBJECT
 10
77.0
 20
-600.99999999999898
 30
0.0
 40
3.0
 50
90.0
 51
180.0
1001
ACDBBLOCKREPETAG
1070
     1
1071
       52
1005
134579
  0
LINE
  5
13457A
  8
OBJECT
 10
198.0
 20
-604.0
 30
0.0
 11
198.0
 21
-601.00000000000068
 31
0.0
1001
ACDBBLOCKREPETAG
1070
     1
1071
       53
1005
13457A
  0
ARC
  5
13457B
  8
OBJECT
 10
195.0
 20
-601.00000000000068
 30
0.0
 40
3.0
 50
0.0
 51
90.0
1001
ACDBBLOCKREPETAG
1070
     1
1071
       54
1005
13457B
  0
LINE
  5
13457C
  8
OBJECT
 10
195.0
 20
-598.0000000000008
 30
0.0
 11
77.0
 21
-597.99999999999875
 31
0.0
1001
ACDBBLOCKREPETAG
1070
     1
1071
       55
1005
13457C
  0
LINE
  5
13457D
  8
HIDDEN
 10
91.5
 20
-596.0
 30
0.0
 11
180.5
 21
-596.0
 31
0.0
1001
ACDBBLOCKREPETAG
1070
     1
1071
      426
1005
13457D
  0
LINE
  5
13457E
  8
OBJECT
 10
74.0
 20
-767.0
 30
0.0
 11
74.0
 21
-764.0
 31
0.0
1001
ACDBBLOCKREPETAG
1070
     1
1071
      418
1005
13457E
  0
ARC
  5
13457F
  8
OBJECT
 10
77.0
 20
-767.0
 30
0.0
 40
3.0
 50
180.0
 51
270.0
1001
ACDBBLOCKREPETAG
1070
     1
1071
      419
1005
13457F
  0
LINE
  5
134580
  8
OBJECT
 10
198.0
 20
-764.0
 30
0.0
 11
198.0
 21
-767.0
 31
0.0
1001
ACDBBLOCKREPETAG
1070
     1
1071
      420
1005
134580
  0
ARC
  5
134581
  8
OBJECT
 10
195.0
 20
-767.0
 30
0.0
 40
3.0
 50
270.0
 51
0.0
1001
ACDBBLOCKREPETAG
1070
     1
1071
      421
1005
134581
  0
LINE
  5
134582
  8
OBJECT
 10
195.0
 20
-770.0
 30
0.0
 11
77.0
 21
-770.0
 31
0.0
1001
ACDBBLOCKREPETAG
1070
     1
1071
      422
1005
134582
  0
LINE
  5
134583
  8
OBJECT
 10
222.0
 20
-624.9999999999992
 30
0.0
 11
222.0
 21
-742.99999999999875
 31
0.0
1001
ACDBBLOCKREPETAG
1070
     1
1071
      323
1005
134583
  0
LINE
  5
134584
  8
OBJECT
 10
246.0
 20
-728.5
 30
0.0
 11
246.0
 21
-639.5
 31
0.0
1001
ACDBBLOCKREPETAG
1070
     1
1071
      324
1005
134584
  0
LINE
  5
134585
  8
OBJECT
 10
246.0
 20
-728.5
 30
0.0
 11
222.0
 21
-728.5
 31
0.0
1001
ACDBBLOCKREPETAG
1070
     1
1071
      325
1005
134585
  0
LINE
  5
134586
  8
OBJECT
 10
216.0
 20
-745.99999999999909
 30
0.0
 11
219.0
 21
-745.99999999999909
 31
0.0
1001
ACDBBLOCKREPETAG
1070
     1
1071
      326
1005
134586
  0
ARC
  5
134587
  8
OBJECT
 10
219.0
 20
-742.99999999999875
 30
0.0
 40
3.0
 50
270.0
 51
0.0
1001
ACDBBLOCKREPETAG
1070
     1
1071
      327
1005
134587
  0
LINE
  5
134588
  8
OBJECT
 10
246.0
 20
-666.17793400000005
 30
0.0
 11
249.83118900000039
 21
-661.89681800000017
 31
0.0
1001
ACDBBLOCKREPETAG
1070
     1
1071
      328
1005
134588
  0
ARC
  5
134589
  8
OBJECT
 10
256.0
 20
-666.99999999999909
 30
0.0
 40
8.0
 50
341.84164700003799
 51
140.40224699998751
1001
ACDBBLOCKREPETAG
1070
     1
1071
      329
1005
134589
  0
ARC
  5
13458A
  8
OBJECT
 10
258.85059700000062
 20
-667.93493299999955
 30
0.0
 40
5.0
 50
288.48486900001421
 51
341.84164700003799
1001
ACDBBLOCKREPETAG
1070
     1
1071
      330
1005
13458A
  0
LINE
  5
13458B
  8
OBJECT
 10
256.0
 20
-679.0
 30
0.0
 11
249.0
 21
-679.0
 31
0.0
1001
ACDBBLOCKREPETAG
1070
     1
1071
      331
1005
13458B
  0
LINE
  5
13458C
  8
OBJECT
 10
256.0
 20
-689.0
 30
0.0
 11
249.0
 21
-689.0
 31
0.0
1001
ACDBBLOCKREPETAG
1070
     1
1071
      332
1005
13458C
  0
LINE
  5
13458D
  8
OBJECT
 10
256.0
 20
-679.0
 30
0.0
 11
256.0
 21
-689.0
 31
0.0
1001
ACDBBLOCKREPETAG
1070
     1
1071
      333
1005
13458D
  0
LINE
  5
13458E
  8
OBJECT
 10
249.0
 20
-676.5
 30
0.0
 11
249.0
 21
-691.5
 31
0.0
1001
ACDBBLOCKREPETAG
1070
     1
1071
      334
1005
13458E
  0
LINE
  5
13458F
  8
OBJECT
 10
246.0
 20
-692.25
 30
0.0
 11
249.0
 21
-691.5
 31
0.0
1001
ACDBBLOCKREPETAG
1070
     1
1071
      335
1005
13458F
  0
LINE
  5
134590
  8
OBJECT
 10
246.0
 20
-701.82206699999995
 30
0.0
 11
249.83118900000039
 21
-706.10318200000074
 31
0.0
1001
ACDBBLOCKREPETAG
1070
     1
1071
      336
1005
134590
  0
LINE
  5
134591
  8
OBJECT
 10
246.0
 20
-675.75
 30
0.0
 11
249.0
 21
-676.5
 31
0.0
1001
ACDBBLOCKREPETAG
1070
     1
1071
      337
1005
134591
  0
ARC
  5
134592
  8
OBJECT
 10
256.0
 20
-700.99999999999898
 30
0.0
 40
8.0
 50
219.5977530000124
 51
18.158352999961931
1001
ACDBBLOCKREPETAG
1070
     1
1071
      338
1005
134592
  0
ARC
  5
134593
  8
OBJECT
 10
258.85059700000062
 20
-700.06506700000045
 30
0.0
 40
5.0
 50
18.158352999961931
 51
71.515130999985757
1001
ACDBBLOCKREPETAG
1070
     1
1071
      339
1005
134593
  0
LINE
  5
134594
  8
OBJECT
 10
260.43586800000048
 20
-695.32303000000013
 30
0.0
 11
249.0
 21
-691.5
 31
0.0
1001
ACDBBLOCKREPETAG
1070
     1
1071
      340
1005
134594
  0
LINE
  5
134595
  8
OBJECT
 10
260.43586800000048
 20
-672.67696999999919
 30
0.0
 11
249.0
 21
-676.5
 31
0.0
1001
ACDBBLOCKREPETAG
1070
     1
1071
      341
1005
134595
  0
ARC
  5
134596
  8
OBJECT
 10
219.0
 20
-624.9999999999992
 30
0.0
 40
3.0
 50
0.0
 51
90.0
1001
ACDBBLOCKREPETAG
1070
     1
1071
      342
1005
134596
  0
LINE
  5
134597
  8
OBJECT
 10
216.0
 20
-621.99999999999886
 30
0.0
 11
219.0
 21
-621.99999999999886
 31
0.0
1001
ACDBBLOCKREPETAG
1070
     1
1071
      343
1005
134597
  0
LINE
  5
134598
  8
OBJECT
 10
246.0
 20
-639.5
 30
0.0
 11
222.0
 21
-639.5
 31
0.0
1001
ACDBBLOCKREPETAG
1070
     1
1071
      344
1005
134598
  0
INSERT
  5
134599
  8
OBJECT
  2
*U6
 10
0.0
 20
0.0
 30
0.0
  0
INSERT
  5
13459A
  8
OBJECT
  2
*U7
 10
0.0
 20
0.0
 30
0.0
  0
LINE
  5
13459B
  8
OBJECT
 10
441.0
 20
-87.0
 30
0.0
 11
441.0
 21
-80.0
 31
0.0
1001
ACDBBLOCKREPETAG
1070
     1
1071
       20
1005
13459B
  0
LINE
  5
13459C
  8
OBJECT
 10
441.0
 20
-80.0
 30
0.0
 11
551.0
 21
-80.0
 31
0.0
1001
ACDBBLOCKREPETAG
1070
     1
1071
       21
1005
13459C
  0
LINE
  5
13459D
  8
OBJECT
 10
551.0
 20
-80.0
 30
0.0
 11
551.0
 21
-87.0
 31
0.0
1001
ACDBBLOCKREPETAG
1070
     1
1071
       22
1005
13459D
  0
LINE
  5
13459E
  8
OBJECT
 10
551.0
 20
-87.0
 30
0.0
 11
441.0
 21
-87.0
 31
0.0
1001
ACDBBLOCKREPETAG
1070
     1
1071
       23
1005
13459E
  0
LINE
  5
13459F
  8
OBJECT
 10
444.0
 20
-87.0
 30
0.0
 11
444.0
 21
-123.0
 31
0.0
1001
ACDBBLOCKREPETAG
1070
     1
1071
       24
1005
13459F
  0
LINE
  5
1345A0
  8
OBJECT
 10
444.0
 20
-123.0
 30
0.0
 11
548.0
 21
-123.0
 31
0.0
1001
ACDBBLOCKREPETAG
1070
     1
1071
       25
1005
1345A0
  0
LINE
  5
1345A1
  8
OBJECT
 10
548.0
 20
-123.0
 30
0.0
 11
548.0
 21
-87.0
 31
0.0
1001
ACDBBLOCKREPETAG
1070
     1
1071
       26
1005
1345A1
  0
LINE
  5
1345A2
  8
OBJECT
 10
448.5
 20
-127.0
 30
0.0
 11
448.5
 21
-134.0
 31
0.0
1001
ACDBBLOCKREPETAG
1070
     1
1071
       27
1005
1345A2
  0
LINE
  5
1345A3
  8
OBJECT
 10
543.5
 20
-134.0
 30
0.0
 11
543.5
 21
-127.0
 31
0.0
1001
ACDBBLOCKREPETAG
1070
     1
1071
       28
1005
1345A3
  0
LINE
  5
1345A4
  8
OBJECT
 10
543.5
 20
-127.0
 30
0.0
 11
448.5
 21
-127.0
 31
0.0
1001
ACDBBLOCKREPETAG
1070
     1
1071
       29
1005
1345A4
  0
LINE
  5
1345A5
  8
OBJECT
 10
444.0
 20
-123.0
 30
0.0
 11
448.5
 21
-127.0
 31
0.0
1001
ACDBBLOCKREPETAG
1070
     1
1071
       30
1005
1345A5
  0
LINE
  5
1345A6
  8
OBJECT
 10
548.0
 20
-123.0
 30
0.0
 11
543.5
 21
-127.0
 31
0.0
1001
ACDBBLOCKREPETAG
1070
     1
1071
       31
1005
1345A6
  0
LINE
  5
1345A7
  8
OBJECT
 10
434.0
 20
-136.99999999999909
 30
0.0
 11
434.0
 21
-140.0
 31
0.0
1001
ACDBBLOCKREPETAG
1070
     1
1071
       32
1005
1345A7
  0
ARC
  5
1345A8
  8
OBJECT
 10
437.0
 20
-136.99999999999909
 30
0.0
 40
3.0
 50
90.0
 51
180.0
1001
ACDBBLOCKREPETAG
1070
     1
1071
       33
1005
1345A8
  0
LINE
  5
1345A9
  8
OBJECT
 10
558.0
 20
-140.0
 30
0.0
 11
558.0
 21
-137.00000000000091
 31
0.0
1001
ACDBBLOCKREPETAG
1070
     1
1071
       34
1005
1345A9
  0
ARC
  5
1345AA
  8
OBJECT
 10
555.0
 20
-137.00000000000091
 30
0.0
 40
3.0
 50
0.0
 51
90.0
1001
ACDBBLOCKREPETAG
1070
     1
1071
       35
1005
1345AA
  0
LINE
  5
1345AB
  8
OBJECT
 10
555.0
 20
-134.00000000000091
 30
0.0
 11
437.0
 21
-133.99999999999909
 31
0.0
1001
ACDBBLOCKREPETAG
1070
     1
1071
       36
1005
1345AB
  0
LINE
  5
1345AC
  8
HIDDEN
 10
458.0
 20
-132.0
 30
0.0
 11
534.0
 21
-132.0
 31
0.0
1001
ACDBBLOCKREPETAG
1070
     1
1071
      423
1005
1345AC
  0
LINE
  5
1345AD
  8
OBJECT
 10
434.0
 20
-303.0
 30
0.0
 11
434.0
 21
-300.0
 31
0.0
1001
ACDBBLOCKREPETAG
1070
     1
1071
      418
1005
1345AD
  0
ARC
  5
1345AE
  8
OBJECT
 10
437.0
 20
-303.0
 30
0.0
 40
3.0
 50
180.0
 51
270.0
1001
ACDBBLOCKREPETAG
1070
     1
1071
      419
1005
1345AE
  0
LINE
  5
1345AF
  8
OBJECT
 10
558.0
 20
-300.0
 30
0.0
 11
558.0
 21
-303.0
 31
0.0
1001
ACDBBLOCKREPETAG
1070
     1
1071
      420
1005
1345AF
  0
ARC
  5
1345B0
  8
OBJECT
 10
555.0
 20
-303.0
 30
0.0
 40
3.0
 50
270.0
 51
0.0
1001
ACDBBLOCKREPETAG
1070
     1
1071
      421
1005
1345B0
  0
LINE
  5
1345B1
  8
OBJECT
 10
555.0
 20
-306.0
 30
0.0
 11
437.0
 21
-306.0
 31
0.0
1001
ACDBBLOCKREPETAG
1070
     1
1071
      422
1005
1345B1
  0
LINE
  5
1345B2
  8
OBJECT
 10
582.0
 20
-160.99999999999909
 30
0.0
 11
582.0
 21
-278.99999999999909
 31
0.0
1001
ACDBBLOCKREPETAG
1070
     1
1071
      323
1005
1345B2
  0
LINE
  5
1345B3
  8
OBJECT
 10
606.0
 20
-264.5
 30
0.0
 11
606.0
 21
-175.5
 31
0.0
1001
ACDBBLOCKREPETAG
1070
     1
1071
      324
1005
1345B3
  0
LINE
  5
1345B4
  8
OBJECT
 10
606.0
 20
-264.5
 30
0.0
 11
582.0
 21
-264.5
 31
0.0
1001
ACDBBLOCKREPETAG
1070
     1
1071
      325
1005
1345B4
  0
LINE
  5
1345B5
  8
OBJECT
 10
576.0
 20
-281.99999999999909
 30
0.0
 11
579.0
 21
-281.99999999999909
 31
0.0
1001
ACDBBLOCKREPETAG
1070
     1
1071
      326
1005
1345B5
  0
ARC
  5
1345B6
  8
OBJECT
 10
579.0
 20
-278.99999999999909
 30
0.0
 40
3.0
 50
270.0
 51
0.0
1001
ACDBBLOCKREPETAG
1070
     1
1071
      327
1005
1345B6
  0
LINE
  5
1345B7
  8
OBJECT
 10
606.0
 20
-202.17793400000031
 30
0.0
 11
609.83118900000045
 21
-197.89681800000011
 31
0.0
1001
ACDBBLOCKREPETAG
1070
     1
1071
      328
1005
1345B7
  0
ARC
  5
1345B8
  8
OBJECT
 10
616.0
 20
-202.99999999999909
 30
0.0
 40
8.0
 50
341.8416470000376
 51
140.40224699998609
1001
ACDBBLOCKREPETAG
1070
     1
1071
      329
1005
1345B8
  0
ARC
  5
1345B9
  8
OBJECT
 10
618.85059700000045
 20
-203.9349329999994
 30
0.0
 40
5.0
 50
288.48486900001677
 51
341.8416470000376
1001
ACDBBLOCKREPETAG
1070
     1
1071
      330
1005
1345B9
  0
LINE
  5
1345BA
  8
OBJECT
 10
616.0
 20
-215.0
 30
0.0
 11
609.0
 21
-215.0
 31
0.0
1001
ACDBBLOCKREPETAG
1070
     1
1071
      331
1005
1345BA
  0
LINE
  5
1345BB
  8
OBJECT
 10
616.0
 20
-225.0
 30
0.0
 11
609.0
 21
-225.0
 31
0.0
1001
ACDBBLOCKREPETAG
1070
     1
1071
      332
1005
1345BB
  0
LINE
  5
1345BC
  8
OBJECT
 10
616.0
 20
-215.0
 30
0.0
 11
616.0
 21
-225.0
 31
0.0
1001
ACDBBLOCKREPETAG
1070
     1
1071
      333
1005
1345BC
  0
LINE
  5
1345BD
  8
OBJECT
 10
609.0
 20
-212.5
 30
0.0
 11
609.0
 21
-227.5
 31
0.0
1001
ACDBBLOCKREPETAG
1070
     1
1071
      334
1005
1345BD
  0
LINE
  5
1345BE
  8
OBJECT
 10
606.0
 20
-228.25
 30
0.0
 11
609.0
 21
-227.5
 31
0.0
1001
ACDBBLOCKREPETAG
1070
     1
1071
      335
1005
1345BE
  0
LINE
  5
1345BF
  8
OBJECT
 10
606.0
 20
-237.82206700000009
 30
0.0
 11
609.83118900000045
 21
-242.1031820000008
 31
0.0
1001
ACDBBLOCKREPETAG
1070
     1
1071
      336
1005
1345BF
  0
LINE
  5
1345C0
  8
OBJECT
 10
606.0
 20
-211.75
 30
0.0
 11
609.0
 21
-212.5
 31
0.0
1001
ACDBBLOCKREPETAG
1070
     1
1071
      337
1005
1345C0
  0
ARC
  5
1345C1
  8
OBJECT
 10
616.0
 20
-236.99999999999909
 30
0.0
 40
8.0
 50
219.59775300001391
 51
18.158352999962421
1001
ACDBBLOCKREPETAG
1070
     1
1071
      338
1005
1345C1
  0
ARC
  5
1345C2
  8
OBJECT
 10
618.85059700000045
 20
-236.0650670000004
 30
0.0
 40
5.0
 50
18.158352999962421
 51
71.515130999983214
1001
ACDBBLOCKREPETAG
1070
     1
1071
      339
1005
1345C2
  0
LINE
  5
1345C3
  8
OBJECT
 10
620.43586800000026
 20
-231.3230300000005
 30
0.0
 11
609.0
 21
-227.5
 31
0.0
1001
ACDBBLOCKREPETAG
1070
     1
1071
      340
1005
1345C3
  0
LINE
  5
1345C4
  8
OBJECT
 10
620.43586800000026
 20
-208.6769699999995
 30
0.0
 11
609.0
 21
-212.5
 31
0.0
1001
ACDBBLOCKREPETAG
1070
     1
1071
      341
1005
1345C4
  0
ARC
  5
1345C5
  8
OBJECT
 10
579.0
 20
-160.99999999999909
 30
0.0
 40
3.0
 50
0.0
 51
90.0
1001
ACDBBLOCKREPETAG
1070
     1
1071
      342
1005
1345C5
  0
LINE
  5
1345C6
  8
OBJECT
 10
576.0
 20
-157.99999999999909
 30
0.0
 11
579.0
 21
-157.99999999999909
 31
0.0
1001
ACDBBLOCKREPETAG
1070
     1
1071
      343
1005
1345C6
  0
LINE
  5
1345C7
  8
OBJECT
 10
606.0
 20
-175.5
 30
0.0
 11
582.0
 21
-175.5
 31
0.0
1001
ACDBBLOCKREPETAG
1070
     1
1071
      344
1005
1345C7
  0
INSERT
  5
1345C8
  8
OBJECT
  2
*U8
 10
0.0
 20
0.0
 30
0.0
  0
INSERT
  5
1345C9
  8
OBJECT
  2
*U9
 10
0.0
 20
0.0
 30
0.0
  0
LINE
  5
1345CA
  8
OBJECT
 10
89.0
 20
-87.0
 30
0.0
 11
89.0
 21
-80.0
 31
0.0
1001
ACDBBLOCKREPETAG
1070
     1
1071
        1
1005
1345CA
  0
LINE
  5
1345CB
  8
OBJECT
 10
89.0
 20
-80.0
 30
0.0
 11
183.0
 21
-80.0
 31
0.0
1001
ACDBBLOCKREPETAG
1070
     1
1071
        2
1005
1345CB
  0
LINE
  5
1345CC
  8
OBJECT
 10
183.0
 20
-80.0
 30
0.0
 11
183.0
 21
-87.0
 31
0.0
1001
ACDBBLOCKREPETAG
1070
     1
1071
        3
1005
1345CC
  0
LINE
  5
1345CD
  8
OBJECT
 10
183.0
 20
-87.0
 30
0.0
 11
89.0
 21
-87.0
 31
0.0
1001
ACDBBLOCKREPETAG
1070
     1
1071
        4
1005
1345CD
  0
LINE
  5
1345CE
  8
OBJECT
 10
92.0
 20
-87.0
 30
0.0
 11
92.0
 21
-123.0
 31
0.0
1001
ACDBBLOCKREPETAG
1070
     1
1071
        5
1005
1345CE
  0
LINE
  5
1345CF
  8
OBJECT
 10
92.0
 20
-123.0
 30
0.0
 11
180.0
 21
-123.0
 31
0.0
1001
ACDBBLOCKREPETAG
1070
     1
1071
        6
1005
1345CF
  0
LINE
  5
1345D0
  8
OBJECT
 10
180.0
 20
-123.0
 30
0.0
 11
180.0
 21
-87.0
 31
0.0
1001
ACDBBLOCKREPETAG
1070
     1
1071
        7
1005
1345D0
  0
LINE
  5
1345D1
  8
OBJECT
 10
96.5
 20
-127.0
 30
0.0
 11
96.5
 21
-134.0
 31
0.0
1001
ACDBBLOCKREPETAG
1070
     1
1071
        8
1005
1345D1
  0
LINE
  5
1345D2
  8
OBJECT
 10
175.5
 20
-134.0
 30
0.0
 11
175.5
 21
-127.0
 31
0.0
1001
ACDBBLOCKREPETAG
1070
     1
1071
        9
1005
1345D2
  0
LINE
  5
1345D3
  8
OBJECT
 10
175.5
 20
-127.0
 30
0.0
 11
96.5
 21
-127.0
 31
0.0
1001
ACDBBLOCKREPETAG
1070
     1
1071
       10
1005
1345D3
  0
LINE
  5
1345D4
  8
OBJECT
 10
92.0
 20
-123.0
 30
0.0
 11
96.5
 21
-127.0
 31
0.0
1001
ACDBBLOCKREPETAG
1070
     1
1071
       11
1005
1345D4
  0
LINE
  5
1345D5
  8
OBJECT
 10
180.0
 20
-123.0
 30
0.0
 11
175.5
 21
-127.0
 31
0.0
1001
ACDBBLOCKREPETAG
1070
     1
1071
       12
1005
1345D5
  0
LINE
  5
1345D6
  8
OBJECT
 10
74.0
 20
-136.99999999999909
 30
0.0
 11
74.0
 21
-140.0
 31
0.0
1001
ACDBBLOCKREPETAG
1070
     1
1071
       13
1005
1345D6
  0
ARC
  5
1345D7
  8
OBJECT
 10
77.0
 20
-136.99999999999909
 30
0.0
 40
3.0
 50
90.0
 51
180.0
1001
ACDBBLOCKREPETAG
1070
     1
1071
       14
1005
1345D7
  0
LINE
  5
1345D8
  8
OBJECT
 10
198.0
 20
-140.0
 30
0.0
 11
198.0
 21
-137.00000000000091
 31
0.0
1001
ACDBBLOCKREPETAG
1070
     1
1071
       15
1005
1345D8
  0
ARC
  5
1345D9
  8
OBJECT
 10
195.0
 20
-137.00000000000091
 30
0.0
 40
3.0
 50
0.0
 51
90.0
1001
ACDBBLOCKREPETAG
1070
     1
1071
       16
1005
1345D9
  0
LINE
  5
1345DA
  8
OBJECT
 10
195.0
 20
-134.00000000000091
 30
0.0
 11
77.0
 21
-133.99999999999909
 31
0.0
1001
ACDBBLOCKREPETAG
1070
     1
1071
       17
1005
1345DA
  0
LINE
  5
1345DB
  8
HIDDEN
 10
106.0
 20
-132.0
 30
0.0
 11
166.0
 21
-132.0
 31
0.0
1001
ACDBBLOCKREPETAG
1070
     1
1071
      420
1005
1345DB
  0
LINE
  5
1345DC
  8
OBJECT
 10
74.0
 20
-303.0
 30
0.0
 11
74.0
 21
-300.0
 31
0.0
1001
ACDBBLOCKREPETAG
1070
     1
1071
      418
1005
1345DC
  0
ARC
  5
1345DD
  8
OBJECT
 10
77.0
 20
-303.0
 30
0.0
 40
3.0
 50
180.0
 51
270.0
1001
ACDBBLOCKREPETAG
1070
     1
1071
      419
1005
1345DD
  0
LINE
  5
1345DE
  8
OBJECT
 10
198.0
 20
-300.0
 30
0.0
 11
198.0
 21
-303.0
 31
0.0
1001
ACDBBLOCKREPETAG
1070
     1
1071
      420
1005
1345DE
  0
ARC
  5
1345DF
  8
OBJECT
 10
195.0
 20
-303.0
 30
0.0
 40
3.0
 50
270.0
 51
0.0
1001
ACDBBLOCKREPETAG
1070
     1
1071
      421
1005
1345DF
  0
LINE
  5
1345E0
  8
OBJECT
 10
195.0
 20
-306.0
 30
0.0
 11
77.0
 21
-306.0
 31
0.0
1001
ACDBBLOCKREPETAG
1070
     1
1071
      422
1005
1345E0
  0
LINE
  5
1345E1
  8
OBJECT
 10
222.0
 20
-160.99999999999909
 30
0.0
 11
222.0
 21
-278.99999999999909
 31
0.0
1001
ACDBBLOCKREPETAG
1070
     1
1071
      323
1005
1345E1
  0
LINE
  5
1345E2
  8
OBJECT
 10
246.0
 20
-264.5
 30
0.0
 11
246.0
 21
-175.5
 31
0.0
1001
ACDBBLOCKREPETAG
1070
     1
1071
      324
1005
1345E2
  0
LINE
  5
1345E3
  8
OBJECT
 10
246.0
 20
-264.5
 30
0.0
 11
222.0
 21
-264.5
 31
0.0
1001
ACDBBLOCKREPETAG
1070
     1
1071
      325
1005
1345E3
  0
LINE
  5
1345E4
  8
OBJECT
 10
216.0
 20
-281.99999999999909
 30
0.0
 11
219.0
 21
-281.99999999999909
 31
0.0
1001
ACDBBLOCKREPETAG
1070
     1
1071
      326
1005
1345E4
  0
ARC
  5
1345E5
  8
OBJECT
 10
219.0
 20
-278.99999999999909
 30
0.0
 40
3.0
 50
270.0
 51
0.0
1001
ACDBBLOCKREPETAG
1070
     1
1071
      327
1005
1345E5
  0
LINE
  5
1345E6
  8
OBJECT
 10
246.0
 20
-202.17793400000031
 30
0.0
 11
249.83118900000039
 21
-197.89681800000011
 31
0.0
1001
ACDBBLOCKREPETAG
1070
     1
1071
      328
1005
1345E6
  0
ARC
  5
1345E7
  8
OBJECT
 10
256.0
 20
-202.99999999999909
 30
0.0
 40
8.0
 50
341.84164700003799
 51
140.40224699998501
1001
ACDBBLOCKREPETAG
1070
     1
1071
      329
1005
1345E7
  0
ARC
  5
1345E8
  8
OBJECT
 10
258.85059700000062
 20
-203.9349329999994
 30
0.0
 40
5.0
 50
288.4848690000137
 51
341.84164700003799
1001
ACDBBLOCKREPETAG
1070
     1
1071
      330
1005
1345E8
  0
LINE
  5
1345E9
  8
OBJECT
 10
256.0
 20
-215.0
 30
0.0
 11
249.0
 21
-215.0
 31
0.0
1001
ACDBBLOCKREPETAG
1070
     1
1071
      331
1005
1345E9
  0
LINE
  5
1345EA
  8
OBJECT
 10
256.0
 20
-225.0
 30
0.0
 11
249.0
 21
-225.0
 31
0.0
1001
ACDBBLOCKREPETAG
1070
     1
1071
      332
1005
1345EA
  0
LINE
  5
1345EB
  8
OBJECT
 10
256.0
 20
-215.0
 30
0.0
 11
256.0
 21
-225.0
 31
0.0
1001
ACDBBLOCKREPETAG
1070
     1
1071
      333
1005
1345EB
  0
LINE
  5
1345EC
  8
OBJECT
 10
249.0
 20
-212.5
 30
0.0
 11
249.0
 21
-227.5
 31
0.0
1001
ACDBBLOCKREPETAG
1070
     1
1071
      334
1005
1345EC
  0
LINE
  5
1345ED
  8
OBJECT
 10
246.0
 20
-228.25
 30
0.0
 11
249.0
 21
-227.5
 31
0.0
1001
ACDBBLOCKREPETAG
1070
     1
1071
      335
1005
1345ED
  0
LINE
  5
1345EE
  8
OBJECT
 10
246.0
 20
-237.82206700000009
 30
0.0
 11
249.83118900000039
 21
-242.1031820000008
 31
0.0
1001
ACDBBLOCKREPETAG
1070
     1
1071
      336
1005
1345EE
  0
LINE
  5
1345EF
  8
OBJECT
 10
246.0
 20
-211.75
 30
0.0
 11
249.0
 21
-212.5
 31
0.0
1001
ACDBBLOCKREPETAG
1070
     1
1071
      337
1005
1345EF
  0
ARC
  5
1345F0
  8
OBJECT
 10
256.0
 20
-236.99999999999909
 30
0.0
 40
8.0
 50
219.59775300001499
 51
18.158352999961931
1001
ACDBBLOCKREPETAG
1070
     1
1071
      338
1005
1345F0
  0
ARC
  5
1345F1
  8
OBJECT
 10
258.85059700000062
 20
-236.0650670000004
 30
0.0
 40
5.0
 50
18.158352999961931
 51
71.515130999986297
1001
ACDBBLOCKREPETAG
1070
     1
1071
      339
1005
1345F1
  0
LINE
  5
1345F2
  8
OBJECT
 10
260.43586800000048
 20
-231.3230300000005
 30
0.0
 11
249.0
 21
-227.5
 31
0.0
1001
ACDBBLOCKREPETAG
1070
     1
1071
      340
1005
1345F2
  0
LINE
  5
1345F3
  8
OBJECT
 10
260.43586800000048
 20
-208.6769699999995
 30
0.0
 11
249.0
 21
-212.5
 31
0.0
1001
ACDBBLOCKREPETAG
1070
     1
1071
      341
1005
1345F3
  0
ARC
  5
1345F4
  8
OBJECT
 10
219.0
 20
-160.99999999999909
 30
0.0
 40
3.0
 50
0.0
 51
90.0
1001
ACDBBLOCKREPETAG
1070
     1
1071
      342
1005
1345F4
  0
LINE
  5
1345F5
  8
OBJECT
 10
216.0
 20
-157.99999999999909
 30
0.0
 11
219.0
 21
-157.99999999999909
 31
0.0
1001
ACDBBLOCKREPETAG
1070
     1
1071
      343
1005
1345F5
  0
LINE
  5
1345F6
  8
OBJECT
 10
246.0
 20
-175.5
 30
0.0
 11
222.0
 21
-175.5
 31
0.0
1001
ACDBBLOCKREPETAG
1070
     1
1071
      344
1005
1345F6
  0
INSERT
  5
1345F7
  8
OBJECT
  2
*U10
 10
0.0
 20
0.0
 30
0.0
  0
CIRCLE
  5
1345F8
  8
OBJECT
 10
136.0
 20
-220.0
 30
0.0
 40
70.0
1001
ACDBBLOCKREPETAG
1070
     1
1071
       43
1005
1345F8
  0
CIRCLE
  5
1345F9
  8
OBJECT
 10
136.0
 20
-220.0
 30
0.0
 40
77.0
1001
ACDBBLOCKREPETAG
1070
     1
1071
       44
1005
1345F9
  0
ARC
  5
1345FA
  8
OBJECT
 10
136.0
 20
-220.0
 30
0.0
 40
80.0
 50
140.80503257378101
 51
219.19496742621899
1001
ACDBBLOCKREPETAG
1070
     1
1071
       45
1005
1345FA
  0
LINE
  5
1345FB
  8
OBJECT
 10
74.0
 20
-174.33819977267541
 30
0.0
 11
74.0
 21
-140.0
 31
0.0
1001
ACDBBLOCKREPETAG
1070
     1
1071
       46
1005
1345FB
  0
LINE
  5
1345FC
  8
OBJECT
 10
198.0
 20
-158.0
 30
0.0
 11
198.0
 21
-140.0
 31
0.0
1001
ACDBBLOCKREPETAG
1070
     1
1071
       22
1005
1345FC
  0
LINE
  5
1345FD
  8
OBJECT
 10
198.0
 20
-158.0
 30
0.0
 11
216.0
 21
-158.0
 31
0.0
1001
ACDBBLOCKREPETAG
1070
     1
1071
       24
1005
1345FD
  0
LINE
  5
1345FE
  8
OBJECT
 10
198.0
 20
-282.0
 30
0.0
 11
216.0
 21
-282.0
 31
0.0
1001
ACDBBLOCKREPETAG
1070
     1
1071
       25
1005
1345FE
  0
LINE
  5
1345FF
  8
OBJECT
 10
198.0
 20
-282.0
 30
0.0
 11
198.0
 21
-300.0
 31
0.0
1001
ACDBBLOCKREPETAG
1070
     1
1071
       27
1005
1345FF
  0
LINE
  5
134600
  8
OBJECT
 10
74.0
 20
-265.66180022732442
 30
0.0
 11
74.0
 21
-300.0
 31
0.0
1001
ACDBBLOCKREPETAG
1070
     1
1071
       28
1005
134600
  0
LINE
  5
134601
  8
OBJECT
 10
190.4472221513642
 20
-274.44722215136431
 30
0.0
 11
198.0
 21
-282.0
 31
0.0
1001
ACDBBLOCKREPETAG
1070
     1
1071
       37
1005
134601
  0
LINE
  5
134602
  8
OBJECT
 10
190.4472221513642
 20
-165.55277784863571
 30
0.0
 11
198.0
 21
-158.0
 31
0.0
1001
ACDBBLOCKREPETAG
1070
     1
1071
       38
1005
134602
  0
POINT
  5
134603
  8
DOTS
 10
136.0
 20
-220.0
 30
0.0
1001
ACDBBLOCKREPETAG
1070
     1
1071
       39
1005
134603
  0
CIRCLE
  5
134604
  8
OBJECT
 10
136.0
 20
-220.0
 30
0.0
 40
53.5
1001
ACDBBLOCKREPETAG
1070
     1
1071
      153
1005
134604
  0
POLYLINE
  5
134605
  8
HIDDEN
 66
     1
 10
0.0
 20
0.0
 30
0.0
 70
     1
  0
VERTEX
  5
1351CA
  8
HIDDEN
 10
0.0
 20
0.0
 30
0.0
  0
VERTEX
  5
1351CB
  8
HIDDEN
 10
360.0
 20
0.0
 30
0.0
  0
VERTEX
  5
1351CC
  8
HIDDEN
 10
360.0
 20
-464.0
 30
0.0
  0
VERTEX
  5
1351CD
  8
HIDDEN
 10
0.0
 20
-464.0
 30
0.0
  0
SEQEND
  5
1351CE
  8
HIDDEN
  0
POLYLINE
  5
134606
  8
HIDDEN
 66
     1
 10
0.0
 20
0.0
 30
0.0
 70
     1
  0
VERTEX
  5
1351CF
  8
HIDDEN
 10
360.0
 20
0.0
 30
0.0
  0
VERTEX
  5
1351D0
  8
HIDDEN
 10
720.0
 20
0.0
 30
0.0
  0
VERTEX
  5
1351D1
  8
HIDDEN
 10
720.0
 20
-464.0
 30
0.0
  0
VERTEX
  5
1351D2
  8
HIDDEN
 10
360.0
 20
-464.0
 30
0.0
  0
SEQEND
  5
1351D3
  8
HIDDEN
  0
POLYLINE
  5
134607
  8
HIDDEN
 66
     1
 10
0.0
 20
0.0
 30
0.0
 70
     1
  0
VERTEX
  5
1351D4
  8
HIDDEN
 10
0.0
 20
-464.0
 30
0.0
  0
VERTEX
  5
1351D5
  8
HIDDEN
 10
360.0
 20
-464.0
 30
0.0
  0
VERTEX
  5
1351D6
  8
HIDDEN
 10
360.0
 20
-928.0
 30
0.0
  0
VERTEX
  5
1351D7
  8
HIDDEN
 10
0.0
 20
-928.0
 30
0.0
  0
SEQEND
  5
1351D8
  8
HIDDEN
  0
POLYLINE
  5
134608
  8
HIDDEN
 66
     1
 10
0.0
 20
0.0
 30
0.0
 70
     1
  0
VERTEX
  5
1351D9
  8
HIDDEN
 10
360.0
 20
-464.0
 30
0.0
  0
VERTEX
  5
1351DA
  8
HIDDEN
 10
720.0
 20
-464.0
 30
0.0
  0
VERTEX
  5
1351DB
  8
HIDDEN
 10
720.0
 20
-928.0
 30
0.0
  0
VERTEX
  5
1351DC
  8
HIDDEN
 10
360.0
 20
-928.0
 30
0.0
  0
SEQEND
  5
1351DD
  8
HIDDEN
  0
LINE
  5
134609
  8
OBJECT
 10
3923.0
 20
-570.99999999999955
 30
0.0
 11
3923.0
 21
-549.99999999999955
 31
0.0
1001
ACDBBLOCKREPETAG
1070
     1
1071
       36
1005
134609
  0
LINE
  5
13460A
  8
OBJECT
 10
3923.0
 20
-549.99999999999955
 30
0.0
 11
4077.0
 21
-549.99999999999955
 31
0.0
1001
ACDBBLOCKREPETAG
1070
     1
1071
       37
1005
13460A
  0
LINE
  5
13460B
  8
HIDDEN
 10
3943.0
 20
-619.99999999999955
 30
0.0
 11
4057.0
 21
-619.99999999999955
 31
0.0
1001
ACDBBLOCKREPETAG
1070
     1
1071
       38
1005
13460B
  0
LINE
  5
13460C
  8
OBJECT
 10
4077.0
 20
-549.99999999999955
 30
0.0
 11
4077.0
 21
-570.99999999999955
 31
0.0
1001
ACDBBLOCKREPETAG
1070
     1
1071
       39
1005
13460C
  0
LINE
  5
13460D
  8
OBJECT
 10
4077.0
 20
-570.99999999999955
 30
0.0
 11
3923.0
 21
-570.99999999999955
 31
0.0
1001
ACDBBLOCKREPETAG
1070
     1
1071
       40
1005
13460D
  0
LINE
  5
13460E
  8
CENTER
 10
4000.0
 20
-534.99999999999955
 30
0.0
 11
4000.0
 21
-769.99999999999955
 31
0.0
1001
ACDBBLOCKREPETAG
1070
     1
1071
       41
1005
13460E
  0
LINE
  5
13460F
  8
OBJECT
 10
3928.0
 20
-570.99999999999955
 30
0.0
 11
3928.0
 21
-633.99999999999955
 31
0.0
1001
ACDBBLOCKREPETAG
1070
     1
1071
       42
1005
13460F
  0
LINE
  5
134610
  8
OBJECT
 10
4072.0
 20
-633.99999999999955
 30
0.0
 11
4072.0
 21
-570.99999999999955
 31
0.0
1001
ACDBBLOCKREPETAG
1070
     1
1071
       43
1005
134610
  0
LINE
  5
134611
  8
OBJECT
 10
3920.0
 20
-757.99999999999955
 30
0.0
 11
4080.0
 21
-757.99999999999955
 31
0.0
1001
ACDBBLOCKREPETAG
1070
     1
1071
       44
1005
134611
  0
LINE
  5
134612
  8
OBJECT
 10
4080.0
 20
-633.99999999999955
 30
0.0
 11
3920.0
 21
-633.99999999999955
 31
0.0
1001
ACDBBLOCKREPETAG
1070
     1
1071
       45
1005
134612
  0
LINE
  5
134613
  8
OBJECT
 10
3920.0
 20
-757.99999999999955
 30
0.0
 11
3920.0
 21
-769.99999999999955
 31
0.0
1001
ACDBBLOCKREPETAG
1070
     1
1071
       46
1005
134613
  0
LINE
  5
134614
  8
OBJECT
 10
3920.0
 20
-769.99999999999955
 30
0.0
 11
4080.0
 21
-769.99999999999955
 31
0.0
1001
ACDBBLOCKREPETAG
1070
     1
1071
       47
1005
134614
  0
LINE
  5
134615
  8
OBJECT
 10
4080.0
 20
-769.99999999999955
 30
0.0
 11
4080.0
 21
-757.99999999999955
 31
0.0
1001
ACDBBLOCKREPETAG
1070
     1
1071
       48
1005
134615
  0
ARC
  5
134616
  8
OBJECT
 10
4200.6872746716726
 20
-749.40809941010718
 30
0.0
 40
170.6350503965856
 50
137.44134459184301
 51
149.91949581337221
1001
ACDBBLOCKREPETAG
1070
     1
1071
       52
1005
134616
  0
ARC
  5
134617
  8
OBJECT
 10
4200.6872746716726
 20
-642.59190058989179
 30
0.0
 40
170.6350503965856
 50
210.08050418662771
 51
222.55865540815699
1001
ACDBBLOCKREPETAG
1070
     1
1071
       53
1005
134617
  0
ARC
  5
134618
  8
OBJECT
 10
3799.3127253283278
 20
-749.40809941010718
 30
0.0
 40
170.6350503965856
 50
30.080504186774089
 51
42.558655408456282
1001
ACDBBLOCKREPETAG
1070
     1
1071
       54
1005
134618
  0
ARC
  5
134619
  8
OBJECT
 10
3799.3127253283278
 20
-642.59190058989179
 30
0.0
 40
170.6350503965856
 50
317.44134459154373
 51
329.91949581322592
1001
ACDBBLOCKREPETAG
1070
     1
1071
       55
1005
134619
  0
POINT
  5
13461A
  8
DOTS
 10
4000.0
 20
-754.99999999999955
 30
0.0
1001
ACDBBLOCKREPETAG
1070
     1
1071
      184
1005
13461A
  0
LINE
  5
13461B
  8
SLIM
 10
3945.2566704261012
 20
-137.99999999999909
 30
0.0
 11
3955.9548403695781
 21
-127.30183005652231
 31
0.0
1001
GRADIENTCOLOR1ACI
1070
     5
1001
GRADIENTCOLOR2ACI
1070
     2
1001
ACAD
1010
0.0
1020
0.0
1030
0.0
1001
ACDBBLOCKREPETAG
1070
     1
1071
      422
1005
13461B
  0
LINE
  5
13461C
  8
SLIM
 10
3954.2369265471712
 20
-137.99999999999909
 30
0.0
 11
3972.7507744763329
 21
-119.4861520708364
 31
0.0
1001
GRADIENTCOLOR1ACI
1070
     5
1001
GRADIENTCOLOR2ACI
1070
     2
1001
ACAD
1010
0.0
1020
0.0
1030
0.0
1001
ACDBBLOCKREPETAG
1070
     1
1071
      423
1005
13461C
  0
LINE
  5
13461D
  8
SLIM
 10
3973.521224312457
 20
-127.6959583557812
 30
0.0
 11
3984.8575146748631
 21
-116.359667993377
 31
0.0
1001
GRADIENTCOLOR1ACI
1070
     5
1001
GRADIENTCOLOR2ACI
1070
     2
1001
ACAD
1010
0.0
1020
0.0
1030
0.0
1001
ACDBBLOCKREPETAG
1070
     1
1071
      424
1005
13461D
  0
LINE
  5
13461E
  8
SLIM
 10
3985.8944171461271
 20
-124.30302164318159
 30
0.0
 11
3995.0533812002559
 21
-115.1440575890517
 31
0.0
1001
GRADIENTCOLOR1ACI
1070
     5
1001
GRADIENTCOLOR2ACI
1070
     2
1001
ACAD
1010
0.0
1020
0.0
1030
0.0
1001
ACDBBLOCKREPETAG
1070
     1
1071
      425
1005
13461E
  0
LINE
  5
13461F
  8
SLIM
 10
3996.0777327492078
 20
-123.0999621611699
 30
0.0
 11
4000.0
 21
-119.1776949103767
 31
0.0
1001
GRADIENTCOLOR1ACI
1070
     5
1001
GRADIENTCOLOR2ACI
1070
     2
1001
ACAD
1010
0.0
1020
0.0
1030
0.0
1001
ACDBBLOCKREPETAG
1070
     1
1071
      426
1005
13461F
  0
LINE
  5
134620
  8
SLIM
 10
4000.0
 20
-119.1776949103767
 30
0.0
 11
4004.0797313529042
 21
-115.0979635574724
 31
0.0
1001
GRADIENTCOLOR1ACI
1070
     5
1001
GRADIENTCOLOR2ACI
1070
     2
1001
ACAD
1010
0.0
1020
0.0
1030
0.0
1001
ACDBBLOCKREPETAG
1070
     1
1071
      427
1005
134620
  0
LINE
  5
134621
  8
SLIM
 10
4004.9957202542769
 20
-123.1622307771683
 30
0.0
 11
4012.2679784105749
 21
-115.88997262087101
 31
0.0
1001
GRADIENTCOLOR1ACI
1070
     5
1001
GRADIENTCOLOR2ACI
1070
     2
1001
ACAD
1010
0.0
1020
0.0
1030
0.0
1001
ACDBBLOCKREPETAG
1070
     1
1071
      428
1005
134621
  0
LINE
  5
134622
  8
SLIM
 10
4013.028059366964
 20
-124.1101477855505
 30
0.0
 11
4019.7999414573592
 21
-117.3382656951526
 31
0.0
1001
GRADIENTCOLOR1ACI
1070
     5
1001
GRADIENTCOLOR2ACI
1070
     2
1001
ACAD
1010
0.0
1020
0.0
1030
0.0
1001
ACDBBLOCKREPETAG
1070
     1
1071
      429
1005
134622
  0
LINE
  5
134623
  8
SLIM
 10
4020.3740813142458
 20
-125.7443819593383
 30
0.0
 11
4026.7872038672799
 21
-119.3312594063044
 31
0.0
1001
GRADIENTCOLOR1ACI
1070
     5
1001
GRADIENTCOLOR2ACI
1070
     2
1001
ACAD
1010
0.0
1020
0.0
1030
0.0
1001
ACDBBLOCKREPETAG
1070
     1
1071
      430
1005
134623
  0
LINE
  5
134624
  8
SLIM
 10
4027.1524719988752
 20
-127.946247395778
 30
0.0
 11
4033.303003076031
 21
-121.7957163186195
 31
0.0
1001
GRADIENTCOLOR1ACI
1070
     5
1001
GRADIENTCOLOR2ACI
1070
     2
1001
ACAD
1010
0.0
1020
0.0
1030
0.0
1001
ACDBBLOCKREPETAG
1070
     1
1071
      431
1005
134624
  0
LINE
  5
134625
  8
SLIM
 10
4033.4390986513308
 20
-130.63987686439191
 30
0.0
 11
4039.3973119843781
 21
-124.6816635313439
 31
0.0
1001
GRADIENTCOLOR1ACI
1070
     5
1001
GRADIENTCOLOR2ACI
1070
     2
1001
ACAD
1010
0.0
1020
0.0
1030
0.0
1001
ACDBBLOCKREPETAG
1070
     1
1071
      432
1005
134625
  0
LINE
  5
134626
  8
SLIM
 10
4039.284224621797
 20
-133.77500701499321
 30
0.0
 11
4045.1047705343681
 21
-127.95446110242381
 31
0.0
1001
GRADIENTCOLOR1ACI
1070
     5
1001
GRADIENTCOLOR2ACI
1070
     2
1001
ACAD
1010
0.0
1020
0.0
1030
0.0
1001
ACDBBLOCKREPETAG
1070
     1
1071
      433
1005
134626
  0
LINE
  5
134627
  8
SLIM
 10
4044.7212801698038
 20
-137.31820758805651
 30
0.0
 11
4050.4491557891961
 21
-131.59033196866449
 31
0.0
1001
GRADIENTCOLOR1ACI
1070
     5
1001
GRADIENTCOLOR2ACI
1070
     2
1001
ACAD
1010
0.0
1020
0.0
1030
0.0
1001
ACDBBLOCKREPETAG
1070
     1
1071
      434
1005
134627
  0
LINE
  5
134628
  8
SLIM
 10
4053.0197438789291
 20
-137.99999999999909
 30
0.0
 11
4055.4459941864038
 21
-135.57374969252561
 31
0.0
1001
GRADIENTCOLOR1ACI
1070
     5
1001
GRADIENTCOLOR2ACI
1070
     2
1001
ACAD
1010
0.0
1020
0.0
1030
0.0
1001
ACDBBLOCKREPETAG
1070
     1
1071
      435
1005
134628
  0
LINE
  5
134629
  8
CENTER
 10
4000.0
 20
-279.99999999999909
 30
0.0
 11
4000.0
 21
-99.999999999999091
 31
0.0
1001
ACDBBLOCKREPETAG
1070
     1
1071
      160
1005
134629
  0
CIRCLE
  5
13462A
  8
OBJECT
 10
4000.0
 20
-199.99999999999909
 30
0.0
 40
70.0
1001
ACDBBLOCKREPETAG
1070
     1
1071
      161
1005
13462A
  0
CIRCLE
  5
13462B
  8
OBJECT
 10
4000.0
 20
-199.99999999999909
 30
0.0
 40
77.0
1001
ACDBBLOCKREPETAG
1070
     1
1071
      162
1005
13462B
  0
LINE
  5
13462C
  8
OBJECT
 10
4045.661800227324
 20
-137.99999999999909
 30
0.0
 11
4080.0
 21
-137.99999999999909
 31
0.0
1001
ACDBBLOCKREPETAG
1070
     1
1071
      164
1005
13462C
  0
LINE
  5
13462D
  8
OBJECT
 10
4062.0
 20
-261.99999999999909
 30
0.0
 11
4080.0
 21
-261.99999999999909
 31
0.0
1001
ACDBBLOCKREPETAG
1070
     1
1071
      165
1005
13462D
  0
LINE
  5
13462E
  8
OBJECT
 10
4062.0
 20
-261.99999999999909
 30
0.0
 11
4062.0
 21
-279.99999999999909
 31
0.0
1001
ACDBBLOCKREPETAG
1070
     1
1071
      167
1005
13462E
  0
LINE
  5
13462F
  8
OBJECT
 10
3938.0
 20
-261.99999999999909
 30
0.0
 11
3938.0
 21
-279.99999999999909
 31
0.0
1001
ACDBBLOCKREPETAG
1070
     1
1071
      168
1005
13462F
  0
LINE
  5
134630
  8
OBJECT
 10
3938.0
 20
-261.99999999999909
 30
0.0
 11
3920.0
 21
-261.99999999999909
 31
0.0
1001
ACDBBLOCKREPETAG
1070
     1
1071
      170
1005
134630
  0
LINE
  5
134631
  8
OBJECT
 10
3954.338199772676
 20
-137.99999999999909
 30
0.0
 11
3920.0
 21
-137.99999999999909
 31
0.0
1001
ACDBBLOCKREPETAG
1070
     1
1071
      171
1005
134631
  0
LINE
  5
134632
  8
OBJECT
 10
3945.5527778486362
 20
-254.44722215136329
 30
0.0
 11
3938.0
 21
-261.99999999999909
 31
0.0
1001
ACDBBLOCKREPETAG
1070
     1
1071
      180
1005
134632
  0
LINE
  5
134633
  8
OBJECT
 10
4054.4472221513638
 20
-254.44722215136329
 30
0.0
 11
4062.0
 21
-261.99999999999909
 31
0.0
1001
ACDBBLOCKREPETAG
1070
     1
1071
      181
1005
134633
  0
POINT
  5
134634
  8
DOTS
 10
4000.0
 20
-199.99999999999909
 30
0.0
 50
270.0
1001
ACDBBLOCKREPETAG
1070
     1
1071
      182
1005
134634
  0
ARC
  5
134635
  8
OBJECT
 10
4000.0
 20
-199.99999999999909
 30
0.0
 40
85.0
 50
46.837102859806208
 51
133.16289714019371
1001
ACDBBLOCKREPETAG
1070
     1
1071
      183
1005
134635
  0
CIRCLE
  5
134636
  8
OBJECT
 10
4000.0
 20
-199.99999999999909
 30
0.0
 40
53.5
1001
ACDBBLOCKREPETAG
1070
     1
1071
      352
1005
134636
  0
LINE
  5
134637
  8
CENTER
 10
4080.0
 20
-199.99999999999909
 30
0.0
 11
3920.0
 21
-199.99999999999909
 31
0.0
1001
ACDBBLOCKREPETAG
1070
     1
1071
      158
1005
134637
  0
LINE
  5
134638
  8
CENTER
 10
3899.0
 20
-199.99999999999909
 30
0.0
 11
3920.0
 21
-199.99999999999909
 31
0.0
1001
ACDBBLOCKREPETAG
1070
     1
1071
        0
1005
134638
  0
LINE
  5
134639
  8
OBJECT
 10
3917.0
 20
-261.99999999999909
 30
0.0
 11
3920.0
 21
-261.99999999999909
 31
0.0
1001
ACDBBLOCKREPETAG
1070
     1
1071
        1
1005
134639
  0
ARC
  5
13463A
  8
OBJECT
 10
3917.0
 20
-258.99999999999909
 30
0.0
 40
3.0
 50
180.0
 51
270.0
1001
ACDBBLOCKREPETAG
1070
     1
1071
        2
1005
13463A
  0
LINE
  5
13463B
  8
OBJECT
 10
3920.0
 20
-137.99999999999909
 30
0.0
 11
3917.0
 21
-137.99999999999909
 31
0.0
1001
ACDBBLOCKREPETAG
1070
     1
1071
        3
1005
13463B
  0
ARC
  5
13463C
  8
OBJECT
 10
3917.0
 20
-140.99999999999909
 30
0.0
 40
3.0
 50
90.0
 51
180.0
1001
ACDBBLOCKREPETAG
1070
     1
1071
        4
1005
13463C
  0
LINE
  5
13463D
  8
OBJECT
 10
3914.0
 20
-140.99999999999909
 30
0.0
 11
3914.0
 21
-258.99999999999909
 31
0.0
1001
ACDBBLOCKREPETAG
1070
     1
1071
        5
1005
13463D
  0
LINE
  5
13463E
  8
CENTER
 10
4000.0
 20
-279.99999999999909
 30
0.0
 11
4000.0
 21
-334.99999999999892
 31
0.0
1001
ACDBBLOCKREPETAG
1070
     1
1071
      352
1005
13463E
  0
LINE
  5
13463F
  8
OBJECT
 10
4059.0
 20
-285.99999999999892
 30
0.0
 11
3941.0
 21
-285.99999999999892
 31
0.0
1001
ACDBBLOCKREPETAG
1070
     1
1071
      353
1005
13463F
  0
LINE
  5
134640
  8
OBJECT
 10
3955.5
 20
-309.99999999999892
 30
0.0
 11
4044.5
 21
-309.99999999999892
 31
0.0
1001
ACDBBLOCKREPETAG
1070
     1
1071
      354
1005
134640
  0
LINE
  5
134641
  8
OBJECT
 10
3955.5
 20
-309.99999999999892
 30
0.0
 11
3955.5
 21
-285.99999999999892
 31
0.0
1001
ACDBBLOCKREPETAG
1070
     1
1071
      355
1005
134641
  0
LINE
  5
134642
  8
OBJECT
 10
3938.0
 20
-279.99999999999909
 30
0.0
 11
3938.0
 21
-282.99999999999892
 31
0.0
1001
ACDBBLOCKREPETAG
1070
     1
1071
      356
1005
134642
  0
ARC
  5
134643
  8
OBJECT
 10
3941.0
 20
-282.99999999999892
 30
0.0
 40
3.0
 50
180.0
 51
270.0
1001
ACDBBLOCKREPETAG
1070
     1
1071
      357
1005
134643
  0
LINE
  5
134644
  8
OBJECT
 10
4017.8220659999988
 20
-309.99999999999892
 30
0.0
 11
4022.1031819999989
 21
-313.83118899999948
 31
0.0
1001
ACDBBLOCKREPETAG
1070
     1
1071
      358
1005
134644
  0
ARC
  5
134645
  8
OBJECT
 10
4017.0
 20
-319.99999999999892
 30
0.0
 40
8.0
 50
251.8416470000376
 51
50.402247000150382
1001
ACDBBLOCKREPETAG
1070
     1
1071
      359
1005
134645
  0
ARC
  5
134646
  8
OBJECT
 10
4016.0650669999982
 20
-322.8505969999996
 30
0.0
 40
5.0
 50
198.48486899996581
 51
251.8416470000376
1001
ACDBBLOCKREPETAG
1070
     1
1071
      360
1005
134646
  0
LINE
  5
134647
  8
OBJECT
 10
4005.0
 20
-319.99999999999892
 30
0.0
 11
4005.0
 21
-312.99999999999909
 31
0.0
1001
ACDBBLOCKREPETAG
1070
     1
1071
      361
1005
134647
  0
LINE
  5
134648
  8
OBJECT
 10
3995.0
 20
-319.99999999999892
 30
0.0
 11
3995.0
 21
-312.99999999999909
 31
0.0
1001
ACDBBLOCKREPETAG
1070
     1
1071
      362
1005
134648
  0
LINE
  5
134649
  8
OBJECT
 10
4005.0
 20
-319.99999999999892
 30
0.0
 11
3995.0
 21
-319.99999999999892
 31
0.0
1001
ACDBBLOCKREPETAG
1070
     1
1071
      363
1005
134649
  0
LINE
  5
13464A
  8
OBJECT
 10
4007.5
 20
-312.99999999999909
 30
0.0
 11
3992.5000000000009
 21
-312.99999999999909
 31
0.0
1001
ACDBBLOCKREPETAG
1070
     1
1071
      364
1005
13464A
  0
LINE
  5
13464B
  8
OBJECT
 10
3991.7500000000009
 20
-309.99999999999892
 30
0.0
 11
3992.5000000000009
 21
-312.99999999999909
 31
0.0
1001
ACDBBLOCKREPETAG
1070
     1
1071
      365
1005
13464B
  0
LINE
  5
13464C
  8
OBJECT
 10
3982.177932999999
 20
-309.99999999999892
 30
0.0
 11
3977.8968180000011
 21
-313.83118899999948
 31
0.0
1001
ACDBBLOCKREPETAG
1070
     1
1071
      366
1005
13464C
  0
LINE
  5
13464D
  8
OBJECT
 10
4008.25
 20
-309.99999999999892
 30
0.0
 11
4007.5
 21
-312.99999999999909
 31
0.0
1001
ACDBBLOCKREPETAG
1070
     1
1071
      367
1005
13464D
  0
ARC
  5
13464E
  8
OBJECT
 10
3983.0
 20
-319.99999999999892
 30
0.0
 40
8.0
 50
129.59775299984949
 51
288.1583529999624
1001
ACDBBLOCKREPETAG
1070
     1
1071
      368
1005
13464E
  0
ARC
  5
13464F
  8
OBJECT
 10
3983.934933
 20
-322.8505969999996
 30
0.0
 40
5.0
 50
288.1583529999624
 51
341.51513100003109
1001
ACDBBLOCKREPETAG
1070
     1
1071
      369
1005
13464F
  0
LINE
  5
134650
  8
OBJECT
 10
3988.67697
 20
-324.43586799999957
 30
0.0
 11
3992.5000000000009
 21
-312.99999999999909
 31
0.0
1001
ACDBBLOCKREPETAG
1070
     1
1071
      370
1005
134650
  0
LINE
  5
134651
  8
OBJECT
 10
4011.3230299999982
 20
-324.43586799999957
 30
0.0
 11
4007.5
 21
-312.99999999999909
 31
0.0
1001
ACDBBLOCKREPETAG
1070
     1
1071
      371
1005
134651
  0
ARC
  5
134652
  8
OBJECT
 10
4059.0
 20
-282.99999999999892
 30
0.0
 40
3.0
 50
270.0
 51
0.0
1001
ACDBBLOCKREPETAG
1070
     1
1071
      372
1005
134652
  0
LINE
  5
134653
  8
OBJECT
 10
4062.0
 20
-279.99999999999909
 30
0.0
 11
4062.0
 21
-282.99999999999892
 31
0.0
1001
ACDBBLOCKREPETAG
1070
     1
1071
      373
1005
134653
  0
LINE
  5
134654
  8
OBJECT
 10
4044.5
 20
-309.99999999999892
 30
0.0
 11
4044.5
 21
-285.99999999999892
 31
0.0
1001
ACDBBLOCKREPETAG
1070
     1
1071
      374
1005
134654
  0
LINE
  5
134655
  8
OBJECT
 10
4133.0
 20
-137.99999999999909
 30
0.0
 11
4140.0
 21
-137.99999999999909
 31
0.0
1001
ACDBBLOCKREPETAG
1070
     1
1071
       47
1005
134655
  0
LINE
  5
134656
  8
OBJECT
 10
4140.0
 20
-137.99999999999909
 30
0.0
 11
4140.0
 21
-261.99999999999909
 31
0.0
1001
ACDBBLOCKREPETAG
1070
     1
1071
       48
1005
134656
  0
LINE
  5
134657
  8
OBJECT
 10
4140.0
 20
-261.99999999999909
 30
0.0
 11
4133.0
 21
-261.99999999999909
 31
0.0
1001
ACDBBLOCKREPETAG
1070
     1
1071
       49
1005
134657
  0
LINE
  5
134658
  8
OBJECT
 10
4133.0
 20
-261.99999999999909
 30
0.0
 11
4133.0
 21
-137.99999999999909
 31
0.0
1001
ACDBBLOCKREPETAG
1070
     1
1071
       50
1005
134658
  0
LINE
  5
134659
  8
CENTER
 10
4155.0
 20
-199.99999999999909
 30
0.0
 11
4080.0
 21
-199.99999999999909
 31
0.0
1001
ACDBBLOCKREPETAG
1070
     1
1071
       51
1005
134659
  0
LINE
  5
13465A
  8
OBJECT
 10
4133.0
 20
-140.99999999999909
 30
0.0
 11
4097.0
 21
-140.99999999999909
 31
0.0
1001
ACDBBLOCKREPETAG
1070
     1
1071
       52
1005
13465A
  0
LINE
  5
13465B
  8
OBJECT
 10
4097.0
 20
-140.99999999999909
 30
0.0
 11
4097.0
 21
-258.99999999999909
 31
0.0
1001
ACDBBLOCKREPETAG
1070
     1
1071
       53
1005
13465B
  0
LINE
  5
13465C
  8
OBJECT
 10
4097.0
 20
-258.99999999999909
 30
0.0
 11
4133.0
 21
-258.99999999999909
 31
0.0
1001
ACDBBLOCKREPETAG
1070
     1
1071
       54
1005
13465C
  0
LINE
  5
13465D
  8
OBJECT
 10
4093.0
 20
-145.49999999999909
 30
0.0
 11
4086.0
 21
-145.49999999999909
 31
0.0
1001
ACDBBLOCKREPETAG
1070
     1
1071
       55
1005
13465D
  0
LINE
  5
13465E
  8
OBJECT
 10
4086.0
 20
-254.49999999999909
 30
0.0
 11
4093.0
 21
-254.49999999999909
 31
0.0
1001
ACDBBLOCKREPETAG
1070
     1
1071
       56
1005
13465E
  0
LINE
  5
13465F
  8
OBJECT
 10
4093.0
 20
-254.49999999999909
 30
0.0
 11
4093.0
 21
-145.49999999999909
 31
0.0
1001
ACDBBLOCKREPETAG
1070
     1
1071
       57
1005
13465F
  0
LINE
  5
134660
  8
OBJECT
 10
4097.0
 20
-140.99999999999909
 30
0.0
 11
4093.0
 21
-145.49999999999909
 31
0.0
1001
ACDBBLOCKREPETAG
1070
     1
1071
       58
1005
134660
  0
LINE
  5
134661
  8
OBJECT
 10
4097.0
 20
-258.99999999999909
 30
0.0
 11
4093.0
 21
-254.49999999999909
 31
0.0
1001
ACDBBLOCKREPETAG
1070
     1
1071
       59
1005
134661
  0
LINE
  5
134662
  8
OBJECT
 10
4083.0
 20
-137.99999999999909
 30
0.0
 11
4080.0
 21
-137.99999999999909
 31
0.0
1001
ACDBBLOCKREPETAG
1070
     1
1071
       60
1005
134662
  0
ARC
  5
134663
  8
OBJECT
 10
4083.0
 20
-140.99999999999909
 30
0.0
 40
3.0
 50
0.0
 51
90.0
1001
ACDBBLOCKREPETAG
1070
     1
1071
       61
1005
134663
  0
LINE
  5
134664
  8
OBJECT
 10
4080.0
 20
-261.99999999999909
 30
0.0
 11
4083.0
 21
-261.99999999999909
 31
0.0
1001
ACDBBLOCKREPETAG
1070
     1
1071
       62
1005
134664
  0
ARC
  5
134665
  8
OBJECT
 10
4083.0
 20
-258.99999999999909
 30
0.0
 40
3.0
 50
270.0
 51
0.0
1001
ACDBBLOCKREPETAG
1070
     1
1071
       63
1005
134665
  0
LINE
  5
134666
  8
OBJECT
 10
4086.0
 20
-258.99999999999909
 30
0.0
 11
4086.0
 21
-140.99999999999909
 31
0.0
1001
ACDBBLOCKREPETAG
1070
     1
1071
       64
1005
134666
  0
LINE
  5
134667
  8
HIDDEN
 10
4088.0
 20
-155.49999999999909
 30
0.0
 11
4088.0
 21
-244.49999999999909
 31
0.0
1001
ACDBBLOCKREPETAG
1070
     1
1071
       65
1005
134667
  0
LINE
  5
134668
  8
OBJECT
 10
3917.0
 20
-634.0
 30
0.0
 11
3920.0
 21
-634.0
 31
0.0
1001
ACDBBLOCKREPETAG
1070
     1
1071
        1
1005
134668
  0
ARC
  5
134669
  8
OBJECT
 10
3917.0
 20
-637.0
 30
0.0
 40
3.0
 50
90.0
 51
180.0
1001
ACDBBLOCKREPETAG
1070
     1
1071
        2
1005
134669
  0
LINE
  5
13466A
  8
OBJECT
 10
3920.0
 20
-758.0
 30
0.0
 11
3917.0
 21
-758.0
 31
0.0
1001
ACDBBLOCKREPETAG
1070
     1
1071
        3
1005
13466A
  0
ARC
  5
13466B
  8
OBJECT
 10
3917.0
 20
-755.0
 30
0.0
 40
3.0
 50
180.0
 51
270.0
1001
ACDBBLOCKREPETAG
1070
     1
1071
        4
1005
13466B
  0
LINE
  5
13466C
  8
OBJECT
 10
3914.0
 20
-755.0
 30
0.0
 11
3914.0
 21
-637.0
 31
0.0
1001
ACDBBLOCKREPETAG
1070
     1
1071
        5
1005
13466C
  0
CIRCLE
  5
13466D
  8
OBJECT
 10
4000.0
 20
-696.0
 30
0.0
 40
62.0
1001
ACDBBLOCKREPETAG
1070
     1
1071
      227
1005
13466D
  0
CIRCLE
  5
13466E
  8
OBJECT
 10
4000.0
 20
-696.0
 30
0.0
 40
36.333333000000003
1001
ACDBBLOCKREPETAG
1070
     1
1071
      228
1005
13466E
  0
CIRCLE
  5
13466F
  8
OBJECT
 10
4000.0
 20
-696.0
 30
0.0
 40
44.5
1001
ACDBBLOCKREPETAG
1070
     1
1071
      229
1005
13466F
  0
ARC
  5
134670
  8
OBJECT
 10
4000.0
 20
-696.0
 30
0.0
 40
10.0
 50
194.6278610000418
 51
345.37213899995828
1001
ACDBBLOCKREPETAG
1070
     1
1071
      230
1005
134670
  0
ARC
  5
134671
  8
OBJECT
 10
4000.0
 20
-696.0
 30
0.0
 40
7.5
 50
200.41516800005761
 51
339.58483199994242
1001
ACDBBLOCKREPETAG
1070
     1
1071
      231
1005
134671
  0
ARC
  5
134672
  8
OBJECT
 10
3977.0
 20
-696.0
 30
0.0
 40
2.0
 50
91.963657999954648
 51
268.03634200004529
1001
ACDBBLOCKREPETAG
1070
     1
1071
      232
1005
134672
  0
ARC
  5
134673
  8
OBJECT
 10
4000.0
 20
-696.0
 30
0.0
 40
10.0
 50
14.627861000041801
 51
165.3721389999582
1001
ACDBBLOCKREPETAG
1070
     1
1071
      233
1005
134673
  0
CIRCLE
  5
134674
  8
OBJECT
 10
4000.0
 20
-696.0
 30
0.0
 40
4.5
1001
ACDBBLOCKREPETAG
1070
     1
1071
      234
1005
134674
  0
ARC
  5
134675
  8
OBJECT
 10
4000.0
 20
-696.0
 30
0.0
 40
7.5
 50
20.415168000057569
 51
159.58483199994239
1001
ACDBBLOCKREPETAG
1070
     1
1071
      235
1005
134675
  0
ARC
  5
134676
  8
OBJECT
 10
4000.0
 20
-696.0
 30
0.0
 40
24.333333
 50
183.77906500000159
 51
356.22093499999818
1001
ACDBBLOCKREPETAG
1070
     1
1071
      236
1005
134676
  0
ARC
  5
134677
  8
OBJECT
 10
4000.0
 20
-696.0
 30
0.0
 40
24.333333
 50
3.7790650000018511
 51
176.22093499999809
1001
ACDBBLOCKREPETAG
1070
     1
1071
      237
1005
134677
  0
ARC
  5
134678
  8
OBJECT
 10
4023.0
 20
-696.0
 30
0.0
 40
2.0
 50
271.96365799995459
 51
88.036342000045366
1001
ACDBBLOCKREPETAG
1070
     1
1071
      238
1005
134678
  0
LINE
  5
134679
  8
OBJECT
 10
4007.0289220000009
 20
-698.61615099999835
 30
0.0
 11
4023.0685309999981
 21
-697.99882499999865
 31
0.0
1001
ACDBBLOCKREPETAG
1070
     1
1071
      239
1005
134679
  0
LINE
  5
13467A
  8
OBJECT
 10
4007.0289220000009
 20
-693.38384899999983
 30
0.0
 11
4023.0685309999981
 21
-694.00117399999908
 31
0.0
1001
ACDBBLOCKREPETAG
1070
     1
1071
      240
1005
13467A
  0
LINE
  5
13467B
  8
OBJECT
 10
3992.9710769999988
 20
-698.61615099999835
 30
0.0
 11
3976.9314690000001
 21
-697.99882499999865
 31
0.0
1001
ACDBBLOCKREPETAG
1070
     1
1071
      241
1005
13467B
  0
LINE
  5
13467C
  8
OBJECT
 10
3992.9710769999988
 20
-693.38384899999983
 30
0.0
 11
3976.9314690000001
 21
-694.00117399999908
 31
0.0
1001
ACDBBLOCKREPETAG
1070
     1
1071
      242
1005
13467C
  0
LINE
  5
13467D
  8
CENTER
 10
3923.0
 20
-695.9999992574941
 30
0.0
 11
4077.0
 21
-696.00000688055752
 31
0.0
1001
ACDBBLOCKREPETAG
1070
     1
1071
      243
1005
13467D
  0
LINE
  5
13467E
  8
OBJECT
 10
4133.0
 20
-634.0
 30
0.0
 11
4140.0
 21
-634.0
 31
0.0
1001
ACDBBLOCKREPETAG
1070
     1
1071
       45
1005
13467E
  0
LINE
  5
13467F
  8
OBJECT
 10
4140.0
 20
-634.0
 30
0.0
 11
4140.0
 21
-755.0
 31
0.0
1001
ACDBBLOCKREPETAG
1070
     1
1071
       46
1005
13467F
  0
LINE
  5
134680
  8
OBJECT
 10
4133.0
 20
-755.0
 30
0.0
 11
4133.0
 21
-634.0
 31
0.0
1001
ACDBBLOCKREPETAG
1070
     1
1071
       47
1005
134680
  0
LINE
  5
134681
  8
CENTER
 10
4155.0
 20
-696.0
 30
0.0
 11
4071.0
 21
-696.0
 31
0.0
1001
ACDBBLOCKREPETAG
1070
     1
1071
       48
1005
134681
  0
LINE
  5
134682
  8
OBJECT
 10
4133.0
 20
-637.0
 30
0.0
 11
4097.0
 21
-637.0
 31
0.0
1001
ACDBBLOCKREPETAG
1070
     1
1071
       49
1005
134682
  0
LINE
  5
134683
  8
OBJECT
 10
4097.0
 20
-637.0
 30
0.0
 11
4097.0
 21
-755.0
 31
0.0
1001
ACDBBLOCKREPETAG
1070
     1
1071
       50
1005
134683
  0
LINE
  5
134684
  8
OBJECT
 10
4097.0
 20
-755.0
 30
0.0
 11
4140.0
 21
-755.0
 31
0.0
1001
ACDBBLOCKREPETAG
1070
     1
1071
       51
1005
134684
  0
LINE
  5
134685
  8
OBJECT
 10
4093.0
 20
-641.5
 30
0.0
 11
4086.0
 21
-641.5
 31
0.0
1001
ACDBBLOCKREPETAG
1070
     1
1071
       52
1005
134685
  0
LINE
  5
134686
  8
OBJECT
 10
4086.0
 20
-750.49999999999989
 30
0.0
 11
4093.0
 21
-750.49999999999989
 31
0.0
1001
ACDBBLOCKREPETAG
1070
     1
1071
       53
1005
134686
  0
LINE
  5
134687
  8
OBJECT
 10
4093.0
 20
-750.49999999999989
 30
0.0
 11
4093.0
 21
-641.5
 31
0.0
1001
ACDBBLOCKREPETAG
1070
     1
1071
       54
1005
134687
  0
LINE
  5
134688
  8
OBJECT
 10
4097.0
 20
-637.0
 30
0.0
 11
4093.0
 21
-641.5
 31
0.0
1001
ACDBBLOCKREPETAG
1070
     1
1071
       55
1005
134688
  0
LINE
  5
134689
  8
OBJECT
 10
4097.0
 20
-755.0
 30
0.0
 11
4093.0
 21
-750.49999999999989
 31
0.0
1001
ACDBBLOCKREPETAG
1070
     1
1071
       56
1005
134689
  0
LINE
  5
13468A
  8
OBJECT
 10
4083.0
 20
-634.0
 30
0.0
 11
4080.0
 21
-634.0
 31
0.0
1001
ACDBBLOCKREPETAG
1070
     1
1071
       57
1005
13468A
  0
ARC
  5
13468B
  8
OBJECT
 10
4083.0
 20
-637.0
 30
0.0
 40
3.0
 50
0.0
 51
90.0
1001
ACDBBLOCKREPETAG
1070
     1
1071
       58
1005
13468B
  0
LINE
  5
13468C
  8
OBJECT
 10
4080.0
 20
-758.0
 30
0.0
 11
4083.0
 21
-758.0
 31
0.0
1001
ACDBBLOCKREPETAG
1070
     1
1071
       59
1005
13468C
  0
ARC
  5
13468D
  8
OBJECT
 10
4083.0
 20
-755.0
 30
0.0
 40
3.0
 50
270.0
 51
0.0
1001
ACDBBLOCKREPETAG
1070
     1
1071
       60
1005
13468D
  0
LINE
  5
13468E
  8
OBJECT
 10
4086.0
 20
-755.0
 30
0.0
 11
4086.0
 21
-637.0
 31
0.0
1001
ACDBBLOCKREPETAG
1070
     1
1071
       61
1005
13468E
  0
LINE
  5
13468F
  8
HIDDEN
 10
4088.0
 20
-651.5
 30
0.0
 11
4088.0
 21
-740.5
 31
0.0
1001
ACDBBLOCKREPETAG
1070
     1
1071
       63
1005
13468F
  0
TEXT
  5
134690
  8
SLIM
 10
3698.5
 20
-1639.666666666664
 30
0.0
 40
28.0
  1
　※ 掃除口（CO）の正面にはメンテナンススペース
 41
0.75
1001
ACDBBLOCKREPETAG
1070
     1
1071
      103
1005
0
  0
TEXT
  5
134691
  8
SLIM
 10
3707.0999999999999
 20
-1686.3333333333301
 30
0.0
 40
28.0
  1
　　（参考値：80mm以上）を確保してください。
 41
0.75
1001
ACDBBLOCKREPETAG
1070
     1
1071
      103
1005
0
  0
TEXT
  5
134692
  8
SLIM
 10
1698.5
 20
-1438.166666666664
 30
0.0
 40
28.0
  1
　※ 掃除口（CO）の正面にはメンテナンススペース
 41
0.75
1001
ACDBBLOCKREPETAG
1070
     1
1071
      103
1005
0
  0
TEXT
  5
134693
  8
SLIM
 10
1707.0999999999999
 20
-1484.833333333331
 30
0.0
 40
28.0
  1
　　（参考値：80mm以上）を確保してください。
 41
0.75
1001
ACDBBLOCKREPETAG
1070
     1
1071
      103
1005
0
  0
LINE
  5
134694
  8
SLIM
 10
3914.9999999999941
 20
-765.19743878931376
 30
0.0
 11
3925.1974387893092
 21
-754.99999999999875
 31
0.0
1001
ACDBBLOCKREPETAG
1070
     1
1071
        0
1005
0
1001
ACAD
1010
0.0
1020
0.0
1030
0.0
  0
LINE
  5
134695
  8
SLIM
 10
3914.999999999995
 20
-783.15795103145024
 30
0.0
 11
3943.1579510314468
 21
-754.99999999999875
 31
0.0
1001
ACAD
1010
0.0
1020
0.0
1030
0.0
1001
ACDBBLOCKREPETAG
1070
     1
1071
       14
1005
134695
  0
LINE
  5
134696
  8
SLIM
 10
3915.1454972543161
 20
-800.97296601926837
 30
0.0
 11
3961.1184632735849
 21
-754.99999999999875
 31
0.0
1001
ACAD
1010
0.0
1020
0.0
1030
0.0
1001
ACDBBLOCKREPETAG
1070
     1
1071
       15
1005
134696
  0
LINE
  5
134697
  8
SLIM
 10
3917.104627495245
 20
-816.97434802047826
 30
0.0
 11
3979.0789755157239
 21
-754.99999999999875
 31
0.0
1001
ACAD
1010
0.0
1020
0.0
1030
0.0
1001
ACDBBLOCKREPETAG
1070
     1
1071
       16
1005
134697
  0
LINE
  5
134698
  8
SLIM
 10
3919.0637577361722
 20
-832.97573002168861
 30
0.0
 11
3997.0394877578619
 21
-754.99999999999875
 31
0.0
1001
ACAD
1010
0.0
1020
0.0
1030
0.0
1001
ACDBBLOCKREPETAG
1070
     1
1071
       17
1005
134698
  0
LINE
  5
134699
  8
SLIM
 10
3920.0
 20
-849.99999999999875
 30
0.0
 11
4015.0
 21
-754.99999999999875
 31
0.0
1001
ACAD
1010
0.0
1020
0.0
1030
0.0
1001
ACDBBLOCKREPETAG
1070
     1
1071
       18
1005
134699
  0
LINE
  5
13469A
  8
SLIM
 10
3920.0
 20
-867.96051224213716
 30
0.0
 11
4032.9605122421358
 21
-754.99999999999875
 31
0.0
1001
ACAD
1010
0.0
1020
0.0
1030
0.0
1001
ACDBBLOCKREPETAG
1070
     1
1071
       19
1005
13469A
  0
LINE
  5
13469B
  8
SLIM
 10
3920.0
 20
-885.92102448427534
 30
0.0
 11
4050.921024484277
 21
-754.99999999999875
 31
0.0
1001
ACAD
1010
0.0
1020
0.0
1030
0.0
1001
ACDBBLOCKREPETAG
1070
     1
1071
       20
1005
13469B
  0
LINE
  5
13469C
  8
SLIM
 10
3920.0
 20
-903.88153672641363
 30
0.0
 11
4068.8815367264142
 21
-754.99999999999875
 31
0.0
1001
ACAD
1010
0.0
1020
0.0
1030
0.0
1001
ACDBBLOCKREPETAG
1070
     1
1071
       21
1005
13469C
  0
LINE
  5
13469D
  8
SLIM
 10
3920.0
 20
-921.84204896855181
 30
0.0
 11
4085.0000000000068
 21
-756.8420489685451
 31
0.0
1001
ACAD
1010
0.0
1020
0.0
1030
0.0
1001
ACDBBLOCKREPETAG
1070
     1
1071
       22
1005
13469D
  0
LINE
  5
13469E
  8
SLIM
 10
3920.0
 20
-939.80256121069044
 30
0.0
 11
4085.0000000000059
 21
-774.80256121068464
 31
0.0
1001
ACAD
1010
0.0
1020
0.0
1030
0.0
1001
ACDBBLOCKREPETAG
1070
     1
1071
       23
1005
13469E
  0
LINE
  5
13469F
  8
SLIM
 10
3920.0
 20
-957.76307345282862
 30
0.0
 11
4085.0000000000041
 21
-792.76307345282453
 31
0.0
1001
ACAD
1010
0.0
1020
0.0
1030
0.0
1001
ACDBBLOCKREPETAG
1070
     1
1071
       24
1005
13469F
  0
LINE
  5
1346A0
  8
SLIM
 10
3930.0
 20
-965.72358569496646
 30
0.0
 11
3930.7235856949678
 21
-964.99999999999875
 31
0.0
1001
ACAD
1010
0.0
1020
0.0
1030
0.0
1001
ACDBBLOCKREPETAG
1070
     1
1071
       25
1005
1346A0
  0
LINE
  5
1346A1
  8
SLIM
 10
3930.7235856949678
 20
-964.99999999999875
 30
0.0
 11
4083.4738280308079
 21
-812.24975766415855
 31
0.0
1001
ACAD
1010
0.0
1020
0.0
1030
0.0
1001
ACDBBLOCKREPETAG
1070
     1
1071
       26
1005
1346A1
  0
LINE
  5
1346A2
  8
SLIM
 10
3930.0
 20
-983.68409793710521
 30
0.0
 11
3948.6840979371068
 21
-964.99999999999875
 31
0.0
1001
ACAD
1010
0.0
1020
0.0
1030
0.0
1001
ACDBBLOCKREPETAG
1070
     1
1071
       27
1005
1346A2
  0
LINE
  5
1346A3
  8
SLIM
 10
3948.6840979371068
 20
-964.99999999999875
 30
0.0
 11
4080.9680345671368
 21
-832.71606336996786
 31
0.0
1001
ACAD
1010
0.0
1020
0.0
1030
0.0
1001
ACDBBLOCKREPETAG
1070
     1
1071
       28
1005
1346A3
  0
LINE
  5
1346A4
  8
SLIM
 10
3946.6446101792449
 20
-984.99999999999875
 30
0.0
 11
3966.6446101792449
 21
-964.99999999999875
 31
0.0
1001
ACAD
1010
0.0
1020
0.0
1030
0.0
1001
ACDBBLOCKREPETAG
1070
     1
1071
       29
1005
1346A4
  0
LINE
  5
1346A5
  8
SLIM
 10
3966.6446101792449
 20
-964.99999999999875
 30
0.0
 11
4080.0
 21
-851.6446101792435
 31
0.0
1001
ACAD
1010
0.0
1020
0.0
1030
0.0
1001
ACDBBLOCKREPETAG
1070
     1
1071
       30
1005
1346A5
  0
LINE
  5
1346A6
  8
SLIM
 10
3964.6051224213829
 20
-984.99999999999875
 30
0.0
 11
3984.6051224213829
 21
-964.99999999999875
 31
0.0
1001
ACAD
1010
0.0
1020
0.0
1030
0.0
1001
ACDBBLOCKREPETAG
1070
     1
1071
       31
1005
1346A6
  0
LINE
  5
1346A7
  8
SLIM
 10
3984.6051224213829
 20
-964.99999999999875
 30
0.0
 11
4080.0
 21
-869.60512242138225
 31
0.0
1001
ACAD
1010
0.0
1020
0.0
1030
0.0
1001
ACDBBLOCKREPETAG
1070
     1
1071
       32
1005
1346A7
  0
LINE
  5
1346A8
  8
SLIM
 10
3982.565634663521
 20
-984.99999999999875
 30
0.0
 11
4002.565634663521
 21
-964.99999999999875
 31
0.0
1001
ACAD
1010
0.0
1020
0.0
1030
0.0
1001
ACDBBLOCKREPETAG
1070
     1
1071
       33
1005
1346A8
  0
LINE
  5
1346A9
  8
SLIM
 10
4002.565634663521
 20
-964.99999999999875
 30
0.0
 11
4079.9999999999991
 21
-887.56563466352065
 31
0.0
1001
ACAD
1010
0.0
1020
0.0
1030
0.0
1001
ACDBBLOCKREPETAG
1070
     1
1071
       34
1005
1346A9
  0
LINE
  5
1346AA
  8
SLIM
 10
4000.5261469056568
 20
-984.99999999999875
 30
0.0
 11
4020.52614690566
 21
-964.99999999999875
 31
0.0
1001
ACAD
1010
0.0
1020
0.0
1030
0.0
1001
ACDBBLOCKREPETAG
1070
     1
1071
       35
1005
1346AA
  0
LINE
  5
1346AB
  8
SLIM
 10
4020.52614690566
 20
-964.99999999999875
 30
0.0
 11
4079.9999999999991
 21
-905.52614690565963
 31
0.0
1001
ACAD
1010
0.0
1020
0.0
1030
0.0
1001
ACDBBLOCKREPETAG
1070
     1
1071
       36
1005
1346AB
  0
LINE
  5
1346AC
  8
SLIM
 10
4018.486659147798
 20
-984.99999999999875
 30
0.0
 11
4038.486659147798
 21
-964.99999999999864
 31
0.0
1001
ACAD
1010
0.0
1020
0.0
1030
0.0
1001
ACDBBLOCKREPETAG
1070
     1
1071
       37
1005
1346AC
  0
LINE
  5
1346AD
  8
SLIM
 10
4038.486659147798
 20
-964.99999999999864
 30
0.0
 11
4079.9999999999991
 21
-923.48665914779815
 31
0.0
1001
ACAD
1010
0.0
1020
0.0
1030
0.0
1001
ACDBBLOCKREPETAG
1070
     1
1071
       38
1005
1346AD
  0
LINE
  5
1346AE
  8
SLIM
 10
4036.4471713899361
 20
-984.99999999999875
 30
0.0
 11
4056.4471713899361
 21
-964.99999999999864
 31
0.0
1001
ACAD
1010
0.0
1020
0.0
1030
0.0
1001
ACDBBLOCKREPETAG
1070
     1
1071
       39
1005
1346AE
  0
LINE
  5
1346AF
  8
SLIM
 10
4056.4471713899361
 20
-964.99999999999864
 30
0.0
 11
4079.9999999999991
 21
-941.44717138993633
 31
0.0
1001
ACAD
1010
0.0
1020
0.0
1030
0.0
1001
ACDBBLOCKREPETAG
1070
     1
1071
       40
1005
1346AF
  0
LINE
  5
1346B0
  8
SLIM
 10
4054.4076836320728
 20
-984.99999999999875
 30
0.0
 11
4070.0
 21
-969.40768363207314
 31
0.0
1001
ACAD
1010
0.0
1020
0.0
1030
0.0
1001
ACDBBLOCKREPETAG
1070
     1
1071
       41
1005
1346B0
  0
LINE
  5
1346B1
  8
SLIM
 10
4074.4076836320728
 20
-964.99999999999864
 30
0.0
 11
4079.9999999999991
 21
-959.40768363207519
 31
0.0
1001
ACAD
1010
0.0
1020
0.0
1030
0.0
1001
ACDBBLOCKREPETAG
1070
     1
1071
       42
1005
1346B1
  0
LINE
  5
1346B2
  8
OBJECT
 10
3914.9999999999941
 20
-754.99999999999875
 30
0.0
 11
3914.9999999999968
 21
-799.78460339903359
 31
0.0
1001
ACDBBLOCKREPETAG
1070
     1
1071
        1
1005
1346B2
  0
LINE
  5
1346B3
  8
OBJECT
 10
4085.0000000000068
 20
-754.99999999999875
 30
0.0
 11
4085.0000000000032
 21
-799.78460339904063
 31
0.0
1001
ACDBBLOCKREPETAG
1070
     1
1071
        2
1005
1346B3
  0
LINE
  5
1346B4
  8
OBJECT
 10
4085.0000000000068
 20
-754.99999999999875
 30
0.0
 11
3914.9999999999941
 21
-754.99999999999875
 31
0.0
1001
ACDBBLOCKREPETAG
1070
     1
1071
        3
1005
1346B4
  0
LINE
  5
1346B5
  8
OBJECT
 10
4079.9999999999991
 20
-964.99999999999864
 30
0.0
 11
3920.0
 21
-964.99999999999875
 31
0.0
1001
ACDBBLOCKREPETAG
1070
     1
1071
        4
1005
1346B5
  0
LINE
  5
1346B6
  8
OBJECT
 10
3914.9999999999968
 20
-799.78460339903415
 30
0.0
 11
3920.0
 21
-840.62257748298555
 31
0.0
1001
ACDBBLOCKREPETAG
1070
     1
1071
        6
1005
1346B6
  0
LINE
  5
1346B7
  8
OBJECT
 10
3920.0
 20
-840.62257748298555
 30
0.0
 11
3920.0
 21
-964.99999999999875
 31
0.0
1001
ACDBBLOCKREPETAG
1070
     1
1071
        7
1005
1346B7
  0
LINE
  5
1346B8
  8
OBJECT
 10
4085.0000000000032
 20
-799.78460339904063
 30
0.0
 11
4080.0
 21
-840.62257748298555
 31
0.0
1001
ACDBBLOCKREPETAG
1070
     1
1071
        8
1005
1346B8
  0
LINE
  5
1346B9
  8
OBJECT
 10
4080.0
 20
-840.62257748298555
 30
0.0
 11
4079.9999999999991
 21
-964.99999999999864
 31
0.0
1001
ACDBBLOCKREPETAG
1070
     1
1071
        9
1005
1346B9
  0
LINE
  5
1346BA
  8
OBJECT
 10
3930.0
 20
-964.99999999999875
 30
0.0
 11
3930.0
 21
-984.99999999999875
 31
0.0
1001
ACDBBLOCKREPETAG
1070
     1
1071
       10
1005
1346BA
  0
LINE
  5
1346BB
  8
OBJECT
 10
3930.0
 20
-984.99999999999875
 30
0.0
 11
4070.0
 21
-984.99999999999875
 31
0.0
1001
ACDBBLOCKREPETAG
1070
     1
1071
       11
1005
1346BB
  0
LINE
  5
1346BC
  8
OBJECT
 10
4070.0
 20
-984.99999999999875
 30
0.0
 11
4070.0
 21
-964.99999999999864
 31
0.0
1001
ACDBBLOCKREPETAG
1070
     1
1071
       12
1005
1346BC
  0
LINE
  5
1346BD
  8
OBJECT
 10
1923.0
 20
-570.99999999999955
 30
0.0
 11
1923.0
 21
-549.99999999999955
 31
0.0
1001
ACDBBLOCKREPETAG
1070
     1
1071
       36
1005
1346BD
  0
LINE
  5
1346BE
  8
OBJECT
 10
1923.0
 20
-549.99999999999955
 30
0.0
 11
2077.0
 21
-549.99999999999955
 31
0.0
1001
ACDBBLOCKREPETAG
1070
     1
1071
       37
1005
1346BE
  0
LINE
  5
1346BF
  8
HIDDEN
 10
1943.0
 20
-619.99999999999955
 30
0.0
 11
2057.0
 21
-619.99999999999955
 31
0.0
1001
ACDBBLOCKREPETAG
1070
     1
1071
       38
1005
1346BF
  0
LINE
  5
1346C0
  8
OBJECT
 10
2077.0
 20
-549.99999999999955
 30
0.0
 11
2077.0
 21
-570.99999999999955
 31
0.0
1001
ACDBBLOCKREPETAG
1070
     1
1071
       39
1005
1346C0
  0
LINE
  5
1346C1
  8
OBJECT
 10
2077.0
 20
-570.99999999999955
 30
0.0
 11
1923.0
 21
-570.99999999999955
 31
0.0
1001
ACDBBLOCKREPETAG
1070
     1
1071
       40
1005
1346C1
  0
LINE
  5
1346C2
  8
CENTER
 10
2000.0
 20
-534.99999999999955
 30
0.0
 11
2000.0
 21
-769.99999999999955
 31
0.0
1001
ACDBBLOCKREPETAG
1070
     1
1071
       41
1005
1346C2
  0
LINE
  5
1346C3
  8
OBJECT
 10
1928.0
 20
-570.99999999999955
 30
0.0
 11
1928.0
 21
-633.99999999999955
 31
0.0
1001
ACDBBLOCKREPETAG
1070
     1
1071
       42
1005
1346C3
  0
LINE
  5
1346C4
  8
OBJECT
 10
2072.0
 20
-633.99999999999955
 30
0.0
 11
2072.0
 21
-570.99999999999955
 31
0.0
1001
ACDBBLOCKREPETAG
1070
     1
1071
       43
1005
1346C4
  0
LINE
  5
1346C5
  8
OBJECT
 10
1920.0
 20
-757.99999999999955
 30
0.0
 11
2080.0
 21
-757.99999999999955
 31
0.0
1001
ACDBBLOCKREPETAG
1070
     1
1071
       44
1005
1346C5
  0
LINE
  5
1346C6
  8
OBJECT
 10
2080.0
 20
-633.99999999999955
 30
0.0
 11
1920.0
 21
-633.99999999999955
 31
0.0
1001
ACDBBLOCKREPETAG
1070
     1
1071
       45
1005
1346C6
  0
LINE
  5
1346C7
  8
OBJECT
 10
1920.0
 20
-757.99999999999955
 30
0.0
 11
1920.0
 21
-769.99999999999955
 31
0.0
1001
ACDBBLOCKREPETAG
1070
     1
1071
       46
1005
1346C7
  0
LINE
  5
1346C8
  8
OBJECT
 10
1920.0
 20
-769.99999999999955
 30
0.0
 11
2080.0
 21
-769.99999999999955
 31
0.0
1001
ACDBBLOCKREPETAG
1070
     1
1071
       47
1005
1346C8
  0
LINE
  5
1346C9
  8
OBJECT
 10
2080.0
 20
-769.99999999999955
 30
0.0
 11
2080.0
 21
-757.99999999999955
 31
0.0
1001
ACDBBLOCKREPETAG
1070
     1
1071
       48
1005
1346C9
  0
ARC
  5
1346CA
  8
OBJECT
 10
2200.6872746716731
 20
-749.40809941010718
 30
0.0
 40
170.6350503965856
 50
137.44134459184301
 51
149.91949581336559
1001
ACDBBLOCKREPETAG
1070
     1
1071
       52
1005
1346CA
  0
ARC
  5
1346CB
  8
OBJECT
 10
2200.6872746716731
 20
-642.59190058989179
 30
0.0
 40
170.6350503965856
 50
210.0805041866343
 51
222.55865540815699
1001
ACDBBLOCKREPETAG
1070
     1
1071
       53
1005
1346CB
  0
ARC
  5
1346CC
  8
OBJECT
 10
1799.312725328326
 20
-749.40809941010718
 30
0.0
 40
170.6350503965856
 50
30.080504186774089
 51
42.558655408447443
1001
ACDBBLOCKREPETAG
1070
     1
1071
       54
1005
1346CC
  0
ARC
  5
1346CD
  8
OBJECT
 10
1799.312725328326
 20
-642.59190058989179
 30
0.0
 40
170.6350503965856
 50
317.44134459155248
 51
329.91949581322592
1001
ACDBBLOCKREPETAG
1070
     1
1071
       55
1005
1346CD
  0
POINT
  5
1346CE
  8
DOTS
 10
2000.0
 20
-754.99999999999955
 30
0.0
1001
ACDBBLOCKREPETAG
1070
     1
1071
      184
1005
1346CE
  0
CIRCLE
  5
1346CF
  8
OBJECT
 10
5000.0
 20
-3174.9999999999959
 30
0.0
 40
53.5
1001
ACDBBLOCKREPETAG
1070
     1
1071
      344
1005
1346CF
  0
LINE
  5
1346D0
  8
CENTER
 10
5080.0
 20
-3174.9999999999959
 30
0.0
 11
4905.0
 21
-3174.9999999999959
 31
0.0
1001
ACDBBLOCKREPETAG
1070
     1
1071
       14
1005
1346D0
  0
LINE
  5
1346D1
  8
CENTER
 10
5000.0
 20
-3269.9999999999959
 30
0.0
 11
5000.0
 21
-3079.9999999999959
 31
0.0
1001
ACDBBLOCKREPETAG
1070
     1
1071
       15
1005
1346D1
  0
CIRCLE
  5
1346D2
  8
OBJECT
 10
5000.0
 20
-3174.9999999999959
 30
0.0
 40
70.0
1001
ACDBBLOCKREPETAG
1070
     1
1071
       16
1005
1346D2
  0
CIRCLE
  5
1346D3
  8
OBJECT
 10
5000.0
 20
-3174.9999999999959
 30
0.0
 40
77.0
1001
ACDBBLOCKREPETAG
1070
     1
1071
       17
1005
1346D3
  0
ARC
  5
1346D4
  8
OBJECT
 10
5000.0
 20
-3174.9999999999959
 30
0.0
 40
80.0
 50
50.805032573882329
 51
309.19496742611773
1001
ACDBBLOCKREPETAG
1070
     1
1071
       18
1005
1346D4
  0
LINE
  5
1346D5
  8
OBJECT
 10
5045.6618002273253
 20
-3112.9999999999959
 30
0.0
 11
5080.0
 21
-3112.9999999999959
 31
0.0
1001
ACDBBLOCKREPETAG
1070
     1
1071
       19
1005
1346D5
  0
LINE
  5
1346D6
  8
OBJECT
 10
5045.6618002273253
 20
-3236.9999999999959
 30
0.0
 11
5080.0
 21
-3236.9999999999959
 31
0.0
1001
ACDBBLOCKREPETAG
1070
     1
1071
       20
1005
1346D6
  0
POINT
  5
1346D7
  8
DOTS
 10
5000.0
 20
-3174.9999999999959
 30
0.0
1001
ACDBBLOCKREPETAG
1070
     1
1071
       21
1005
1346D7
  0
CIRCLE
  5
1346D8
  8
OBJECT
 10
4000.0
 20
-3174.9999999999959
 30
0.0
 40
53.5
1001
ACDBBLOCKREPETAG
1070
     1
1071
      344
1005
1346D8
  0
LINE
  5
1346D9
  8
CENTER
 10
4080.0
 20
-3174.9999999999959
 30
0.0
 11
3905.0
 21
-3174.9999999999959
 31
0.0
1001
ACDBBLOCKREPETAG
1070
     1
1071
       14
1005
1346D9
  0
LINE
  5
1346DA
  8
CENTER
 10
4000.0
 20
-3269.9999999999959
 30
0.0
 11
4000.0
 21
-3079.9999999999959
 31
0.0
1001
ACDBBLOCKREPETAG
1070
     1
1071
       15
1005
1346DA
  0
CIRCLE
  5
1346DB
  8
OBJECT
 10
4000.0
 20
-3174.9999999999959
 30
0.0
 40
70.0
1001
ACDBBLOCKREPETAG
1070
     1
1071
       16
1005
1346DB
  0
CIRCLE
  5
1346DC
  8
OBJECT
 10
4000.0
 20
-3174.9999999999959
 30
0.0
 40
77.0
1001
ACDBBLOCKREPETAG
1070
     1
1071
       17
1005
1346DC
  0
ARC
  5
1346DD
  8
OBJECT
 10
4000.0
 20
-3174.9999999999959
 30
0.0
 40
80.0
 50
50.805032573862128
 51
309.19496742613791
1001
ACDBBLOCKREPETAG
1070
     1
1071
       18
1005
1346DD
  0
LINE
  5
1346DE
  8
OBJECT
 10
4045.661800227324
 20
-3112.9999999999959
 30
0.0
 11
4080.0
 21
-3112.9999999999959
 31
0.0
1001
ACDBBLOCKREPETAG
1070
     1
1071
       19
1005
1346DE
  0
LINE
  5
1346DF
  8
OBJECT
 10
4045.661800227324
 20
-3236.9999999999959
 30
0.0
 11
4080.0
 21
-3236.9999999999959
 31
0.0
1001
ACDBBLOCKREPETAG
1070
     1
1071
       20
1005
1346DF
  0
POINT
  5
1346E0
  8
DOTS
 10
4000.0
 20
-3174.9999999999959
 30
0.0
1001
ACDBBLOCKREPETAG
1070
     1
1071
       21
1005
1346E0
  0
CIRCLE
  5
1346E1
  8
OBJECT
 10
3000.0
 20
-3174.9999999999959
 30
0.0
 40
53.5
1001
ACDBBLOCKREPETAG
1070
     1
1071
      344
1005
1346E1
  0
LINE
  5
1346E2
  8
CENTER
 10
3080.0
 20
-3174.9999999999959
 30
0.0
 11
2905.0
 21
-3174.9999999999959
 31
0.0
1001
ACDBBLOCKREPETAG
1070
     1
1071
       14
1005
1346E2
  0
LINE
  5
1346E3
  8
CENTER
 10
3000.0
 20
-3269.9999999999959
 30
0.0
 11
3000.0
 21
-3079.9999999999959
 31
0.0
1001
ACDBBLOCKREPETAG
1070
     1
1071
       15
1005
1346E3
  0
CIRCLE
  5
1346E4
  8
OBJECT
 10
3000.0
 20
-3174.9999999999959
 30
0.0
 40
70.0
1001
ACDBBLOCKREPETAG
1070
     1
1071
       16
1005
1346E4
  0
CIRCLE
  5
1346E5
  8
OBJECT
 10
3000.0
 20
-3174.9999999999959
 30
0.0
 40
77.0
1001
ACDBBLOCKREPETAG
1070
     1
1071
       17
1005
1346E5
  0
ARC
  5
1346E6
  8
OBJECT
 10
3000.0
 20
-3174.9999999999959
 30
0.0
 40
80.0
 50
50.805032573862128
 51
309.19496742613791
1001
ACDBBLOCKREPETAG
1070
     1
1071
       18
1005
1346E6
  0
LINE
  5
1346E7
  8
OBJECT
 10
3045.6618002273249
 20
-3112.9999999999959
 30
0.0
 11
3080.0
 21
-3112.9999999999959
 31
0.0
1001
ACDBBLOCKREPETAG
1070
     1
1071
       19
1005
1346E7
  0
LINE
  5
1346E8
  8
OBJECT
 10
3045.6618002273249
 20
-3236.9999999999959
 30
0.0
 11
3080.0
 21
-3236.9999999999959
 31
0.0
1001
ACDBBLOCKREPETAG
1070
     1
1071
       20
1005
1346E8
  0
POINT
  5
1346E9
  8
DOTS
 10
3000.0
 20
-3174.9999999999959
 30
0.0
1001
ACDBBLOCKREPETAG
1070
     1
1071
       21
1005
1346E9
  0
CIRCLE
  5
1346EA
  8
OBJECT
 10
2000.0
 20
-3174.9999999999959
 30
0.0
 40
53.5
1001
ACDBBLOCKREPETAG
1070
     1
1071
      344
1005
1346EA
  0
LINE
  5
1346EB
  8
CENTER
 10
2080.0
 20
-3174.9999999999959
 30
0.0
 11
1905.0
 21
-3174.9999999999959
 31
0.0
1001
ACDBBLOCKREPETAG
1070
     1
1071
       14
1005
1346EB
  0
LINE
  5
1346EC
  8
CENTER
 10
2000.0
 20
-3269.9999999999959
 30
0.0
 11
2000.0
 21
-3079.9999999999959
 31
0.0
1001
ACDBBLOCKREPETAG
1070
     1
1071
       15
1005
1346EC
  0
CIRCLE
  5
1346ED
  8
OBJECT
 10
2000.0
 20
-3174.9999999999959
 30
0.0
 40
70.0
1001
ACDBBLOCKREPETAG
1070
     1
1071
       16
1005
1346ED
  0
CIRCLE
  5
1346EE
  8
OBJECT
 10
2000.0
 20
-3174.9999999999959
 30
0.0
 40
77.0
1001
ACDBBLOCKREPETAG
1070
     1
1071
       17
1005
1346EE
  0
ARC
  5
1346EF
  8
OBJECT
 10
2000.0
 20
-3174.9999999999959
 30
0.0
 40
80.0
 50
50.805032573862128
 51
309.19496742613791
1001
ACDBBLOCKREPETAG
1070
     1
1071
       18
1005
1346EF
  0
LINE
  5
1346F0
  8
OBJECT
 10
2045.6618002273251
 20
-3112.9999999999959
 30
0.0
 11
2080.0
 21
-3112.9999999999959
 31
0.0
1001
ACDBBLOCKREPETAG
1070
     1
1071
       19
1005
1346F0
  0
LINE
  5
1346F1
  8
OBJECT
 10
2045.6618002273251
 20
-3236.9999999999959
 30
0.0
 11
2080.0
 21
-3236.9999999999959
 31
0.0
1001
ACDBBLOCKREPETAG
1070
     1
1071
       20
1005
1346F1
  0
POINT
  5
1346F2
  8
DOTS
 10
2000.0
 20
-3174.9999999999959
 30
0.0
1001
ACDBBLOCKREPETAG
1070
     1
1071
       21
1005
1346F2
  0
CIRCLE
  5
1346F3
  8
OBJECT
 10
2000.0
 20
-199.99999999999909
 30
0.0
 40
53.5
1001
ACDBBLOCKREPETAG
1070
     1
1071
      340
1005
1346F3
  0
LINE
  5
1346F4
  8
CENTER
 10
2080.0
 20
-199.99999999999909
 30
0.0
 11
1920.0
 21
-199.99999999999909
 31
0.0
1001
ACDBBLOCKREPETAG
1070
     1
1071
       49
1005
1346F4
  0
LINE
  5
1346F5
  8
CENTER
 10
2000.0
 20
-279.99999999999909
 30
0.0
 11
2000.0
 21
-104.9999999999991
 31
0.0
1001
ACDBBLOCKREPETAG
1070
     1
1071
       50
1005
1346F5
  0
CIRCLE
  5
1346F6
  8
OBJECT
 10
2000.0
 20
-199.99999999999909
 30
0.0
 40
70.0
1001
ACDBBLOCKREPETAG
1070
     1
1071
       51
1005
1346F6
  0
CIRCLE
  5
1346F7
  8
OBJECT
 10
2000.0
 20
-199.99999999999909
 30
0.0
 40
77.0
1001
ACDBBLOCKREPETAG
1070
     1
1071
       52
1005
1346F7
  0
ARC
  5
1346F8
  8
OBJECT
 10
2000.0
 20
-199.99999999999909
 30
0.0
 40
80.0
 50
50.805032573864182
 51
129.1949674261358
1001
ACDBBLOCKREPETAG
1070
     1
1071
       53
1005
1346F8
  0
LINE
  5
1346F9
  8
OBJECT
 10
2045.6618002273251
 20
-137.99999999999909
 30
0.0
 11
2080.0
 21
-137.99999999999909
 31
0.0
1001
ACDBBLOCKREPETAG
1070
     1
1071
       54
1005
1346F9
  0
LINE
  5
1346FA
  8
OBJECT
 10
2062.0
 20
-261.99999999999909
 30
0.0
 11
2080.0
 21
-261.99999999999909
 31
0.0
1001
ACDBBLOCKREPETAG
1070
     1
1071
       55
1005
1346FA
  0
LINE
  5
1346FB
  8
OBJECT
 10
2062.0
 20
-261.99999999999909
 30
0.0
 11
2062.0
 21
-279.99999999999909
 31
0.0
1001
ACDBBLOCKREPETAG
1070
     1
1071
       57
1005
1346FB
  0
LINE
  5
1346FC
  8
OBJECT
 10
1938.0
 20
-261.99999999999909
 30
0.0
 11
1938.0
 21
-279.99999999999909
 31
0.0
1001
ACDBBLOCKREPETAG
1070
     1
1071
       58
1005
1346FC
  0
POINT
  5
1346FD
  8
DOTS
 10
2000.0
 20
-199.99999999999909
 30
0.0
 50
90.0
1001
ACDBBLOCKREPETAG
1070
     1
1071
       59
1005
1346FD
  0
LINE
  5
1346FE
  8
OBJECT
 10
1938.0
 20
-261.99999999999909
 30
0.0
 11
1920.0
 21
-261.99999999999909
 31
0.0
1001
ACDBBLOCKREPETAG
1070
     1
1071
       60
1005
1346FE
  0
LINE
  5
1346FF
  8
OBJECT
 10
1954.3381997726749
 20
-137.99999999999909
 30
0.0
 11
1920.0
 21
-137.99999999999909
 31
0.0
1001
ACDBBLOCKREPETAG
1070
     1
1071
       61
1005
1346FF
  0
LINE
  5
134700
  8
OBJECT
 10
1945.5527778486351
 20
-254.44722215136329
 30
0.0
 11
1938.0
 21
-261.99999999999909
 31
0.0
1001
ACDBBLOCKREPETAG
1070
     1
1071
       42
1005
134700
  0
LINE
  5
134701
  8
OBJECT
 10
2054.4472221513638
 20
-254.44722215136329
 30
0.0
 11
2062.0
 21
-261.99999999999909
 31
0.0
1001
ACDBBLOCKREPETAG
1070
     1
1071
       43
1005
134701
  0
LINE
  5
134702
  8
CENTER
 10
1899.0
 20
-199.99999999999909
 30
0.0
 11
1920.0
 21
-199.99999999999909
 31
0.0
1001
ACDBBLOCKREPETAG
1070
     1
1071
        0
1005
134702
  0
LINE
  5
134703
  8
OBJECT
 10
1917.0
 20
-261.99999999999909
 30
0.0
 11
1920.0
 21
-261.99999999999909
 31
0.0
1001
ACDBBLOCKREPETAG
1070
     1
1071
        1
1005
134703
  0
ARC
  5
134704
  8
OBJECT
 10
1917.0
 20
-258.99999999999909
 30
0.0
 40
3.0
 50
180.0
 51
270.0
1001
ACDBBLOCKREPETAG
1070
     1
1071
        2
1005
134704
  0
LINE
  5
134705
  8
OBJECT
 10
1920.0
 20
-137.99999999999909
 30
0.0
 11
1917.0
 21
-137.99999999999909
 31
0.0
1001
ACDBBLOCKREPETAG
1070
     1
1071
        3
1005
134705
  0
ARC
  5
134706
  8
OBJECT
 10
1917.0
 20
-140.99999999999909
 30
0.0
 40
3.0
 50
90.0
 51
180.0
1001
ACDBBLOCKREPETAG
1070
     1
1071
        4
1005
134706
  0
LINE
  5
134707
  8
OBJECT
 10
1914.0
 20
-140.99999999999909
 30
0.0
 11
1914.0
 21
-258.99999999999909
 31
0.0
1001
ACDBBLOCKREPETAG
1070
     1
1071
        5
1005
134707
  0
LINE
  5
134708
  8
CENTER
 10
2000.0
 20
-279.99999999999909
 30
0.0
 11
2000.0
 21
-334.99999999999892
 31
0.0
1001
ACDBBLOCKREPETAG
1070
     1
1071
      352
1005
134708
  0
LINE
  5
134709
  8
OBJECT
 10
2059.0
 20
-285.99999999999892
 30
0.0
 11
1941.0
 21
-285.99999999999892
 31
0.0
1001
ACDBBLOCKREPETAG
1070
     1
1071
      353
1005
134709
  0
LINE
  5
13470A
  8
OBJECT
 10
1955.5
 20
-309.99999999999892
 30
0.0
 11
2044.5
 21
-309.99999999999892
 31
0.0
1001
ACDBBLOCKREPETAG
1070
     1
1071
      354
1005
13470A
  0
LINE
  5
13470B
  8
OBJECT
 10
1955.5
 20
-309.99999999999892
 30
0.0
 11
1955.5
 21
-285.99999999999892
 31
0.0
1001
ACDBBLOCKREPETAG
1070
     1
1071
      355
1005
13470B
  0
LINE
  5
13470C
  8
OBJECT
 10
1938.0
 20
-279.99999999999909
 30
0.0
 11
1938.0
 21
-282.99999999999892
 31
0.0
1001
ACDBBLOCKREPETAG
1070
     1
1071
      356
1005
13470C
  0
ARC
  5
13470D
  8
OBJECT
 10
1941.0
 20
-282.99999999999892
 30
0.0
 40
3.0
 50
180.0
 51
270.0
1001
ACDBBLOCKREPETAG
1070
     1
1071
      357
1005
13470D
  0
LINE
  5
13470E
  8
OBJECT
 10
2017.8220660000011
 20
-309.99999999999892
 30
0.0
 11
2022.1031819999989
 21
-313.83118899999948
 31
0.0
1001
ACDBBLOCKREPETAG
1070
     1
1071
      358
1005
13470E
  0
ARC
  5
13470F
  8
OBJECT
 10
2017.0
 20
-319.99999999999892
 30
0.0
 40
8.0
 50
251.8416470000376
 51
50.402247000150382
1001
ACDBBLOCKREPETAG
1070
     1
1071
      359
1005
13470F
  0
ARC
  5
134710
  8
OBJECT
 10
2016.0650669999991
 20
-322.8505969999996
 30
0.0
 40
5.0
 50
198.48486899996169
 51
251.8416470000376
1001
ACDBBLOCKREPETAG
1070
     1
1071
      360
1005
134710
  0
LINE
  5
134711
  8
OBJECT
 10
2005.0
 20
-319.99999999999892
 30
0.0
 11
2005.0
 21
-312.99999999999909
 31
0.0
1001
ACDBBLOCKREPETAG
1070
     1
1071
      361
1005
134711
  0
LINE
  5
134712
  8
OBJECT
 10
1995.0
 20
-319.99999999999892
 30
0.0
 11
1995.0
 21
-312.99999999999909
 31
0.0
1001
ACDBBLOCKREPETAG
1070
     1
1071
      362
1005
134712
  0
LINE
  5
134713
  8
OBJECT
 10
2005.0
 20
-319.99999999999892
 30
0.0
 11
1995.0
 21
-319.99999999999892
 31
0.0
1001
ACDBBLOCKREPETAG
1070
     1
1071
      363
1005
134713
  0
LINE
  5
134714
  8
OBJECT
 10
2007.5
 20
-312.99999999999909
 30
0.0
 11
1992.5
 21
-312.99999999999909
 31
0.0
1001
ACDBBLOCKREPETAG
1070
     1
1071
      364
1005
134714
  0
LINE
  5
134715
  8
OBJECT
 10
1991.75
 20
-309.99999999999892
 30
0.0
 11
1992.5
 21
-312.99999999999909
 31
0.0
1001
ACDBBLOCKREPETAG
1070
     1
1071
      365
1005
134715
  0
LINE
  5
134716
  8
OBJECT
 10
1982.177932999999
 20
-309.99999999999892
 30
0.0
 11
1977.8968180000011
 21
-313.83118899999948
 31
0.0
1001
ACDBBLOCKREPETAG
1070
     1
1071
      366
1005
134716
  0
LINE
  5
134717
  8
OBJECT
 10
2008.25
 20
-309.99999999999892
 30
0.0
 11
2007.5
 21
-312.99999999999909
 31
0.0
1001
ACDBBLOCKREPETAG
1070
     1
1071
      367
1005
134717
  0
ARC
  5
134718
  8
OBJECT
 10
1983.0
 20
-319.99999999999892
 30
0.0
 40
8.0
 50
129.59775299984949
 51
288.1583529999624
1001
ACDBBLOCKREPETAG
1070
     1
1071
      368
1005
134718
  0
ARC
  5
134719
  8
OBJECT
 10
1983.934933
 20
-322.8505969999996
 30
0.0
 40
5.0
 50
288.1583529999624
 51
341.51513100003518
1001
ACDBBLOCKREPETAG
1070
     1
1071
      369
1005
134719
  0
LINE
  5
13471A
  8
OBJECT
 10
1988.67697
 20
-324.43586799999957
 30
0.0
 11
1992.5
 21
-312.99999999999909
 31
0.0
1001
ACDBBLOCKREPETAG
1070
     1
1071
      370
1005
13471A
  0
LINE
  5
13471B
  8
OBJECT
 10
2011.3230299999991
 20
-324.43586799999957
 30
0.0
 11
2007.5
 21
-312.99999999999909
 31
0.0
1001
ACDBBLOCKREPETAG
1070
     1
1071
      371
1005
13471B
  0
ARC
  5
13471C
  8
OBJECT
 10
2059.0
 20
-282.99999999999892
 30
0.0
 40
3.0
 50
270.0
 51
0.0
1001
ACDBBLOCKREPETAG
1070
     1
1071
      372
1005
13471C
  0
LINE
  5
13471D
  8
OBJECT
 10
2062.0
 20
-279.99999999999909
 30
0.0
 11
2062.0
 21
-282.99999999999892
 31
0.0
1001
ACDBBLOCKREPETAG
1070
     1
1071
      373
1005
13471D
  0
LINE
  5
13471E
  8
OBJECT
 10
2044.5
 20
-309.99999999999892
 30
0.0
 11
2044.5
 21
-285.99999999999892
 31
0.0
1001
ACDBBLOCKREPETAG
1070
     1
1071
      374
1005
13471E
  0
LINE
  5
13471F
  8
OBJECT
 10
2133.0
 20
-137.99999999999909
 30
0.0
 11
2140.0
 21
-137.99999999999909
 31
0.0
1001
ACDBBLOCKREPETAG
1070
     1
1071
       47
1005
13471F
  0
LINE
  5
134720
  8
OBJECT
 10
2140.0
 20
-137.99999999999909
 30
0.0
 11
2140.0
 21
-261.99999999999909
 31
0.0
1001
ACDBBLOCKREPETAG
1070
     1
1071
       48
1005
134720
  0
LINE
  5
134721
  8
OBJECT
 10
2140.0
 20
-261.99999999999909
 30
0.0
 11
2133.0
 21
-261.99999999999909
 31
0.0
1001
ACDBBLOCKREPETAG
1070
     1
1071
       49
1005
134721
  0
LINE
  5
134722
  8
OBJECT
 10
2133.0
 20
-261.99999999999909
 30
0.0
 11
2133.0
 21
-137.99999999999909
 31
0.0
1001
ACDBBLOCKREPETAG
1070
     1
1071
       50
1005
134722
  0
LINE
  5
134723
  8
CENTER
 10
2155.0
 20
-199.99999999999909
 30
0.0
 11
2080.0
 21
-199.99999999999909
 31
0.0
1001
ACDBBLOCKREPETAG
1070
     1
1071
       51
1005
134723
  0
LINE
  5
134724
  8
OBJECT
 10
2133.0
 20
-140.99999999999909
 30
0.0
 11
2097.0
 21
-140.99999999999909
 31
0.0
1001
ACDBBLOCKREPETAG
1070
     1
1071
       52
1005
134724
  0
LINE
  5
134725
  8
OBJECT
 10
2097.0
 20
-140.99999999999909
 30
0.0
 11
2097.0
 21
-258.99999999999909
 31
0.0
1001
ACDBBLOCKREPETAG
1070
     1
1071
       53
1005
134725
  0
LINE
  5
134726
  8
OBJECT
 10
2097.0
 20
-258.99999999999909
 30
0.0
 11
2133.0
 21
-258.99999999999909
 31
0.0
1001
ACDBBLOCKREPETAG
1070
     1
1071
       54
1005
134726
  0
LINE
  5
134727
  8
OBJECT
 10
2093.0
 20
-145.49999999999909
 30
0.0
 11
2086.0
 21
-145.49999999999909
 31
0.0
1001
ACDBBLOCKREPETAG
1070
     1
1071
       55
1005
134727
  0
LINE
  5
134728
  8
OBJECT
 10
2086.0
 20
-254.49999999999909
 30
0.0
 11
2093.0
 21
-254.49999999999909
 31
0.0
1001
ACDBBLOCKREPETAG
1070
     1
1071
       56
1005
134728
  0
LINE
  5
134729
  8
OBJECT
 10
2093.0
 20
-254.49999999999909
 30
0.0
 11
2093.0
 21
-145.49999999999909
 31
0.0
1001
ACDBBLOCKREPETAG
1070
     1
1071
       57
1005
134729
  0
LINE
  5
13472A
  8
OBJECT
 10
2097.0
 20
-140.99999999999909
 30
0.0
 11
2093.0
 21
-145.49999999999909
 31
0.0
1001
ACDBBLOCKREPETAG
1070
     1
1071
       58
1005
13472A
  0
LINE
  5
13472B
  8
OBJECT
 10
2097.0
 20
-258.99999999999909
 30
0.0
 11
2093.0
 21
-254.49999999999909
 31
0.0
1001
ACDBBLOCKREPETAG
1070
     1
1071
       59
1005
13472B
  0
LINE
  5
13472C
  8
OBJECT
 10
2083.0
 20
-137.99999999999909
 30
0.0
 11
2080.0
 21
-137.99999999999909
 31
0.0
1001
ACDBBLOCKREPETAG
1070
     1
1071
       60
1005
13472C
  0
ARC
  5
13472D
  8
OBJECT
 10
2083.0
 20
-140.99999999999909
 30
0.0
 40
3.0
 50
0.0
 51
90.0
1001
ACDBBLOCKREPETAG
1070
     1
1071
       61
1005
13472D
  0
LINE
  5
13472E
  8
OBJECT
 10
2080.0
 20
-261.99999999999909
 30
0.0
 11
2083.0
 21
-261.99999999999909
 31
0.0
1001
ACDBBLOCKREPETAG
1070
     1
1071
       62
1005
13472E
  0
ARC
  5
13472F
  8
OBJECT
 10
2083.0
 20
-258.99999999999909
 30
0.0
 40
3.0
 50
270.0
 51
0.0
1001
ACDBBLOCKREPETAG
1070
     1
1071
       63
1005
13472F
  0
LINE
  5
134730
  8
OBJECT
 10
2086.0
 20
-258.99999999999909
 30
0.0
 11
2086.0
 21
-140.99999999999909
 31
0.0
1001
ACDBBLOCKREPETAG
1070
     1
1071
       64
1005
134730
  0
LINE
  5
134731
  8
HIDDEN
 10
2088.0
 20
-155.49999999999909
 30
0.0
 11
2088.0
 21
-244.49999999999909
 31
0.0
1001
ACDBBLOCKREPETAG
1070
     1
1071
       65
1005
134731
  0
LINE
  5
134732
  8
OBJECT
 10
1917.0
 20
-634.0
 30
0.0
 11
1920.0
 21
-634.0
 31
0.0
1001
ACDBBLOCKREPETAG
1070
     1
1071
        1
1005
134732
  0
ARC
  5
134733
  8
OBJECT
 10
1917.0
 20
-637.0
 30
0.0
 40
3.0
 50
90.0
 51
180.0
1001
ACDBBLOCKREPETAG
1070
     1
1071
        2
1005
134733
  0
LINE
  5
134734
  8
OBJECT
 10
1920.0
 20
-758.0
 30
0.0
 11
1917.0
 21
-758.0
 31
0.0
1001
ACDBBLOCKREPETAG
1070
     1
1071
        3
1005
134734
  0
ARC
  5
134735
  8
OBJECT
 10
1917.0
 20
-755.0
 30
0.0
 40
3.0
 50
180.0
 51
270.0
1001
ACDBBLOCKREPETAG
1070
     1
1071
        4
1005
134735
  0
LINE
  5
134736
  8
OBJECT
 10
1914.0
 20
-755.0
 30
0.0
 11
1914.0
 21
-637.0
 31
0.0
1001
ACDBBLOCKREPETAG
1070
     1
1071
        5
1005
134736
  0
CIRCLE
  5
134737
  8
OBJECT
 10
2000.0
 20
-696.0
 30
0.0
 40
62.0
1001
ACDBBLOCKREPETAG
1070
     1
1071
      227
1005
134737
  0
CIRCLE
  5
134738
  8
OBJECT
 10
2000.0
 20
-696.0
 30
0.0
 40
36.333333000000003
1001
ACDBBLOCKREPETAG
1070
     1
1071
      228
1005
134738
  0
CIRCLE
  5
134739
  8
OBJECT
 10
2000.0
 20
-696.0
 30
0.0
 40
44.5
1001
ACDBBLOCKREPETAG
1070
     1
1071
      229
1005
134739
  0
ARC
  5
13473A
  8
OBJECT
 10
2000.0
 20
-696.0
 30
0.0
 40
10.0
 50
194.62786100003839
 51
345.37213899996152
1001
ACDBBLOCKREPETAG
1070
     1
1071
      230
1005
13473A
  0
ARC
  5
13473B
  8
OBJECT
 10
2000.0
 20
-696.0
 30
0.0
 40
7.5
 50
200.41516800005761
 51
339.58483199994242
1001
ACDBBLOCKREPETAG
1070
     1
1071
      231
1005
13473B
  0
ARC
  5
13473C
  8
OBJECT
 10
1977.0
 20
-696.0
 30
0.0
 40
2.0
 50
91.963657999954648
 51
268.03634200004529
1001
ACDBBLOCKREPETAG
1070
     1
1071
      232
1005
13473C
  0
ARC
  5
13473D
  8
OBJECT
 10
2000.0
 20
-696.0
 30
0.0
 40
10.0
 50
14.62786100003852
 51
165.37213899996141
1001
ACDBBLOCKREPETAG
1070
     1
1071
      233
1005
13473D
  0
CIRCLE
  5
13473E
  8
OBJECT
 10
2000.0
 20
-696.0
 30
0.0
 40
4.5
1001
ACDBBLOCKREPETAG
1070
     1
1071
      234
1005
13473E
  0
ARC
  5
13473F
  8
OBJECT
 10
2000.0
 20
-696.0
 30
0.0
 40
7.5
 50
20.415168000057569
 51
159.58483199994239
1001
ACDBBLOCKREPETAG
1070
     1
1071
      235
1005
13473F
  0
ARC
  5
134740
  8
OBJECT
 10
2000.0
 20
-696.0
 30
0.0
 40
24.333333
 50
183.77906500000159
 51
356.22093499999818
1001
ACDBBLOCKREPETAG
1070
     1
1071
      236
1005
134740
  0
ARC
  5
134741
  8
OBJECT
 10
2000.0
 20
-696.0
 30
0.0
 40
24.333333
 50
3.7790650000018511
 51
176.22093499999809
1001
ACDBBLOCKREPETAG
1070
     1
1071
      237
1005
134741
  0
ARC
  5
134742
  8
OBJECT
 10
2023.0
 20
-696.0
 30
0.0
 40
2.0
 50
271.96365799995459
 51
88.036342000045366
1001
ACDBBLOCKREPETAG
1070
     1
1071
      238
1005
134742
  0
LINE
  5
134743
  8
OBJECT
 10
2007.0289220000011
 20
-698.61615099999835
 30
0.0
 11
2023.068531000001
 21
-697.99882499999865
 31
0.0
1001
ACDBBLOCKREPETAG
1070
     1
1071
      239
1005
134743
  0
LINE
  5
134744
  8
OBJECT
 10
2007.0289220000011
 20
-693.38384899999983
 30
0.0
 11
2023.068531000001
 21
-694.00117399999908
 31
0.0
1001
ACDBBLOCKREPETAG
1070
     1
1071
      240
1005
134744
  0
LINE
  5
134745
  8
OBJECT
 10
1992.9710769999981
 20
-698.61615099999835
 30
0.0
 11
1976.931468999999
 21
-697.99882499999865
 31
0.0
1001
ACDBBLOCKREPETAG
1070
     1
1071
      241
1005
134745
  0
LINE
  5
134746
  8
OBJECT
 10
1992.9710769999981
 20
-693.38384899999983
 30
0.0
 11
1976.931468999999
 21
-694.00117399999908
 31
0.0
1001
ACDBBLOCKREPETAG
1070
     1
1071
      242
1005
134746
  0
LINE
  5
134747
  8
CENTER
 10
1923.0
 20
-695.9999992574941
 30
0.0
 11
2077.0
 21
-696.00000688055752
 31
0.0
1001
ACDBBLOCKREPETAG
1070
     1
1071
      243
1005
134747
  0
LINE
  5
134748
  8
OBJECT
 10
2133.0
 20
-634.0
 30
0.0
 11
2140.0
 21
-634.0
 31
0.0
1001
ACDBBLOCKREPETAG
1070
     1
1071
       45
1005
134748
  0
LINE
  5
134749
  8
OBJECT
 10
2140.0
 20
-634.0
 30
0.0
 11
2140.0
 21
-755.0
 31
0.0
1001
ACDBBLOCKREPETAG
1070
     1
1071
       46
1005
134749
  0
LINE
  5
13474A
  8
OBJECT
 10
2133.0
 20
-755.0
 30
0.0
 11
2133.0
 21
-634.0
 31
0.0
1001
ACDBBLOCKREPETAG
1070
     1
1071
       47
1005
13474A
  0
LINE
  5
13474B
  8
CENTER
 10
2155.0
 20
-696.0
 30
0.0
 11
2071.0
 21
-696.0
 31
0.0
1001
ACDBBLOCKREPETAG
1070
     1
1071
       48
1005
13474B
  0
LINE
  5
13474C
  8
OBJECT
 10
2133.0
 20
-637.0
 30
0.0
 11
2097.0
 21
-637.0
 31
0.0
1001
ACDBBLOCKREPETAG
1070
     1
1071
       49
1005
13474C
  0
LINE
  5
13474D
  8
OBJECT
 10
2097.0
 20
-637.0
 30
0.0
 11
2097.0
 21
-755.0
 31
0.0
1001
ACDBBLOCKREPETAG
1070
     1
1071
       50
1005
13474D
  0
LINE
  5
13474E
  8
OBJECT
 10
2097.0
 20
-755.0
 30
0.0
 11
2140.0
 21
-755.0
 31
0.0
1001
ACDBBLOCKREPETAG
1070
     1
1071
       51
1005
13474E
  0
LINE
  5
13474F
  8
OBJECT
 10
2093.0
 20
-641.5
 30
0.0
 11
2086.0
 21
-641.5
 31
0.0
1001
ACDBBLOCKREPETAG
1070
     1
1071
       52
1005
13474F
  0
LINE
  5
134750
  8
OBJECT
 10
2086.0
 20
-750.49999999999989
 30
0.0
 11
2093.0
 21
-750.49999999999989
 31
0.0
1001
ACDBBLOCKREPETAG
1070
     1
1071
       53
1005
134750
  0
LINE
  5
134751
  8
OBJECT
 10
2093.0
 20
-750.49999999999989
 30
0.0
 11
2093.0
 21
-641.5
 31
0.0
1001
ACDBBLOCKREPETAG
1070
     1
1071
       54
1005
134751
  0
LINE
  5
134752
  8
OBJECT
 10
2097.0
 20
-637.0
 30
0.0
 11
2093.0
 21
-641.5
 31
0.0
1001
ACDBBLOCKREPETAG
1070
     1
1071
       55
1005
134752
  0
LINE
  5
134753
  8
OBJECT
 10
2097.0
 20
-755.0
 30
0.0
 11
2093.0
 21
-750.49999999999989
 31
0.0
1001
ACDBBLOCKREPETAG
1070
     1
1071
       56
1005
134753
  0
LINE
  5
134754
  8
OBJECT
 10
2083.0
 20
-634.0
 30
0.0
 11
2080.0
 21
-634.0
 31
0.0
1001
ACDBBLOCKREPETAG
1070
     1
1071
       57
1005
134754
  0
ARC
  5
134755
  8
OBJECT
 10
2083.0
 20
-637.0
 30
0.0
 40
3.0
 50
0.0
 51
90.0
1001
ACDBBLOCKREPETAG
1070
     1
1071
       58
1005
134755
  0
LINE
  5
134756
  8
OBJECT
 10
2080.0
 20
-758.0
 30
0.0
 11
2083.0
 21
-758.0
 31
0.0
1001
ACDBBLOCKREPETAG
1070
     1
1071
       59
1005
134756
  0
ARC
  5
134757
  8
OBJECT
 10
2083.0
 20
-755.0
 30
0.0
 40
3.0
 50
270.0
 51
0.0
1001
ACDBBLOCKREPETAG
1070
     1
1071
       60
1005
134757
  0
LINE
  5
134758
  8
OBJECT
 10
2086.0
 20
-755.0
 30
0.0
 11
2086.0
 21
-637.0
 31
0.0
1001
ACDBBLOCKREPETAG
1070
     1
1071
       61
1005
134758
  0
LINE
  5
134759
  8
HIDDEN
 10
2088.0
 20
-651.5
 30
0.0
 11
2088.0
 21
-740.5
 31
0.0
1001
ACDBBLOCKREPETAG
1070
     1
1071
       63
1005
134759
  0
TEXT
  5
13475A
  8
SLIM
 10
0.0000035665234464
 20
24.000004585317601
 30
0.0
 40
79.999999999972701
  1
枝管バリエーション
 41
0.75
1001
ACDBBLOCKREPETAG
1070
     1
1071
      119
1005
12CC4A
  0
TEXT
  5
13475B
  8
SLIM
 10
1837.75
 20
282.50000000000011
 30
0.0
 40
35.0
  1
（枝管サイズ毎に寸法が異なります。管底の位置は50～100で同じです）
 41
0.75
  0
TEXT
  5
13475C
  8
SLIM
 10
1850.0
 20
369.99999999999989
 30
0.0
 40
100.0
  1
4SR-CO-A3P0
 41
0.75
  0
TEXT
  5
13475D
  8
SLIM
 10
0.0
 20
370.0
 30
0.0
 40
100.0
  1
4SR-CO-AXP0-S
 41
0.75
  0
LINE
  5
13475E
  8
OBJECT
 10
4923.0
 20
-3395.9999999999968
 30
0.0
 11
4923.0
 21
-3374.9999999999968
 31
0.0
1001
ACDBBLOCKREPETAG
1070
     1
1071
        0
1005
13475E
  0
LINE
  5
13475F
  8
OBJECT
 10
4923.0
 20
-3374.9999999999968
 30
0.0
 11
5077.0
 21
-3374.9999999999968
 31
0.0
1001
ACDBBLOCKREPETAG
1070
     1
1071
        1
1005
13475F
  0
LINE
  5
134760
  8
HIDDEN
 10
4943.0
 20
-3444.9999999999968
 30
0.0
 11
5057.0
 21
-3444.9999999999968
 31
0.0
1001
ACDBBLOCKREPETAG
1070
     1
1071
        2
1005
134760
  0
LINE
  5
134761
  8
OBJECT
 10
5077.0
 20
-3374.9999999999968
 30
0.0
 11
5077.0
 21
-3395.9999999999968
 31
0.0
1001
ACDBBLOCKREPETAG
1070
     1
1071
        3
1005
134761
  0
LINE
  5
134762
  8
OBJECT
 10
5077.0
 20
-3395.9999999999968
 30
0.0
 11
4923.0
 21
-3395.9999999999968
 31
0.0
1001
ACDBBLOCKREPETAG
1070
     1
1071
        4
1005
134762
  0
LINE
  5
134763
  8
CENTER
 10
5000.0
 20
-3359.9999999999968
 30
0.0
 11
5000.0
 21
-3594.9999999999968
 31
0.0
1001
ACDBBLOCKREPETAG
1070
     1
1071
        5
1005
134763
  0
LINE
  5
134764
  8
OBJECT
 10
4925.0
 20
-3458.9999999999968
 30
0.0
 11
4925.0
 21
-3582.9999999999968
 31
0.0
1001
ACDBBLOCKREPETAG
1070
     1
1071
        6
1005
134764
  0
LINE
  5
134765
  8
OBJECT
 10
4928.0
 20
-3395.9999999999968
 30
0.0
 11
4928.0
 21
-3458.9999999999968
 31
0.0
1001
ACDBBLOCKREPETAG
1070
     1
1071
        7
1005
134765
  0
LINE
  5
134766
  8
OBJECT
 10
5072.0
 20
-3458.9999999999968
 30
0.0
 11
5072.0
 21
-3395.9999999999968
 31
0.0
1001
ACDBBLOCKREPETAG
1070
     1
1071
        8
1005
134766
  0
LINE
  5
134767
  8
OBJECT
 10
5074.9999999997999
 20
-3582.9999999997758
 30
0.0
 11
5080.0
 21
-3582.9999999999968
 31
0.0
1001
ACDBBLOCKREPETAG
1070
     1
1071
        9
1005
134767
  0
LINE
  5
134768
  8
OBJECT
 10
5080.0
 20
-3458.9999999999968
 30
0.0
 11
4925.0
 21
-3458.9999999999968
 31
0.0
1001
ACDBBLOCKREPETAG
1070
     1
1071
       10
1005
134768
  0
ARC
  5
134769
  8
OBJECT
 10
5200.6872746716726
 20
-3574.408099410105
 30
0.0
 40
170.6350503965856
 50
137.44134459184301
 51
149.9194958133665
1001
ACDBBLOCKREPETAG
1070
     1
1071
       15
1005
134769
  0
ARC
  5
13476A
  8
OBJECT
 10
5118.8455987040506
 20
-3530.8827266953631
 30
0.0
 40
78.072222021763665
 50
147.4551531037684
 51
164.66365997719291
1001
ACDBBLOCKREPETAG
1070
     1
1071
       16
1005
13476A
  0
ARC
  5
13476B
  8
OBJECT
 10
5085.7554349608727
 20
-3520.9999999999968
 30
0.0
 40
43.55353926885617
 50
165.6884523008477
 51
194.3115476991523
1001
ACDBBLOCKREPETAG
1070
     1
1071
       17
1005
13476B
  0
ARC
  5
13476C
  8
OBJECT
 10
5200.6872746716726
 20
-3467.5919005898891
 30
0.0
 40
170.6350503965856
 50
210.0805041866335
 51
222.55865540815699
1001
ACDBBLOCKREPETAG
1070
     1
1071
       18
1005
13476C
  0
ARC
  5
13476D
  8
OBJECT
 10
5118.8455987040506
 20
-3511.1172733046319
 30
0.0
 40
78.072222021763665
 50
195.33634002280701
 51
212.5448468962316
1001
ACDBBLOCKREPETAG
1070
     1
1071
       19
1005
13476D
  0
POINT
  5
13476E
  8
DOTS
 10
5000.0
 20
-3579.9999999999968
 30
0.0
1001
ACDBBLOCKREPETAG
1070
     1
1071
      186
1005
13476E
  0
LINE
  5
13476F
  8
OBJECT
 10
4323.0
 20
-3395.9999999999968
 30
0.0
 11
4323.0
 21
-3374.9999999999968
 31
0.0
1001
ACDBBLOCKREPETAG
1070
     1
1071
       20
1005
13476F
  0
LINE
  5
134770
  8
OBJECT
 10
4323.0
 20
-3374.9999999999968
 30
0.0
 11
4477.0
 21
-3374.9999999999968
 31
0.0
1001
ACDBBLOCKREPETAG
1070
     1
1071
       21
1005
134770
  0
LINE
  5
134771
  8
HIDDEN
 10
4343.0
 20
-3444.9999999999968
 30
0.0
 11
4457.0
 21
-3444.9999999999968
 31
0.0
1001
ACDBBLOCKREPETAG
1070
     1
1071
       22
1005
134771
  0
LINE
  5
134772
  8
OBJECT
 10
4477.0
 20
-3374.9999999999968
 30
0.0
 11
4477.0
 21
-3395.9999999999968
 31
0.0
1001
ACDBBLOCKREPETAG
1070
     1
1071
       23
1005
134772
  0
LINE
  5
134773
  8
OBJECT
 10
4477.0
 20
-3395.9999999999968
 30
0.0
 11
4323.0
 21
-3395.9999999999968
 31
0.0
1001
ACDBBLOCKREPETAG
1070
     1
1071
       24
1005
134773
  0
LINE
  5
134774
  8
CENTER
 10
4400.0
 20
-3359.9999999999968
 30
0.0
 11
4400.0
 21
-3594.9999999999968
 31
0.0
1001
ACDBBLOCKREPETAG
1070
     1
1071
       25
1005
134774
  0
LINE
  5
134775
  8
OBJECT
 10
4325.0
 20
-3458.9999999999968
 30
0.0
 11
4325.0
 21
-3582.9999999999968
 31
0.0
1001
ACDBBLOCKREPETAG
1070
     1
1071
       26
1005
134775
  0
LINE
  5
134776
  8
OBJECT
 10
4328.0
 20
-3395.9999999999968
 30
0.0
 11
4328.0
 21
-3458.9999999999968
 31
0.0
1001
ACDBBLOCKREPETAG
1070
     1
1071
       27
1005
134776
  0
LINE
  5
134777
  8
OBJECT
 10
4472.0
 20
-3458.9999999999968
 30
0.0
 11
4472.0
 21
-3395.9999999999968
 31
0.0
1001
ACDBBLOCKREPETAG
1070
     1
1071
       28
1005
134777
  0
LINE
  5
134778
  8
OBJECT
 10
4475.0
 20
-3458.9999999999968
 30
0.0
 11
4325.0
 21
-3458.9999999999968
 31
0.0
1001
ACDBBLOCKREPETAG
1070
     1
1071
       30
1005
134778
  0
LINE
  5
134779
  8
OBJECT
 10
4475.0
 20
-3458.9999999999968
 30
0.0
 11
4475.0
 21
-3582.9999999999968
 31
0.0
1001
ACDBBLOCKREPETAG
1070
     1
1071
       34
1005
134779
  0
POINT
  5
13477A
  8
DOTS
 10
4400.0
 20
-3579.9999999999968
 30
0.0
1001
ACDBBLOCKREPETAG
1070
     1
1071
      187
1005
13477A
  0
LINE
  5
13477B
  8
OBJECT
 10
3923.0
 20
-3395.9999999999968
 30
0.0
 11
3923.0
 21
-3374.9999999999968
 31
0.0
1001
ACDBBLOCKREPETAG
1070
     1
1071
        0
1005
13477B
  0
LINE
  5
13477C
  8
OBJECT
 10
3923.0
 20
-3374.9999999999968
 30
0.0
 11
4077.0
 21
-3374.9999999999968
 31
0.0
1001
ACDBBLOCKREPETAG
1070
     1
1071
        1
1005
13477C
  0
LINE
  5
13477D
  8
HIDDEN
 10
3943.0
 20
-3444.9999999999968
 30
0.0
 11
4057.0
 21
-3444.9999999999968
 31
0.0
1001
ACDBBLOCKREPETAG
1070
     1
1071
        2
1005
13477D
  0
LINE
  5
13477E
  8
OBJECT
 10
4077.0
 20
-3374.9999999999968
 30
0.0
 11
4077.0
 21
-3395.9999999999968
 31
0.0
1001
ACDBBLOCKREPETAG
1070
     1
1071
        3
1005
13477E
  0
LINE
  5
13477F
  8
OBJECT
 10
4077.0
 20
-3395.9999999999968
 30
0.0
 11
3923.0
 21
-3395.9999999999968
 31
0.0
1001
ACDBBLOCKREPETAG
1070
     1
1071
        4
1005
13477F
  0
LINE
  5
134780
  8
CENTER
 10
4000.0
 20
-3359.9999999999968
 30
0.0
 11
4000.0
 21
-3594.9999999999968
 31
0.0
1001
ACDBBLOCKREPETAG
1070
     1
1071
        5
1005
134780
  0
LINE
  5
134781
  8
OBJECT
 10
3925.0
 20
-3458.9999999999968
 30
0.0
 11
3925.0
 21
-3582.9999999999968
 31
0.0
1001
ACDBBLOCKREPETAG
1070
     1
1071
        6
1005
134781
  0
LINE
  5
134782
  8
OBJECT
 10
3928.0
 20
-3395.9999999999968
 30
0.0
 11
3928.0
 21
-3458.9999999999968
 31
0.0
1001
ACDBBLOCKREPETAG
1070
     1
1071
        7
1005
134782
  0
LINE
  5
134783
  8
OBJECT
 10
4072.0
 20
-3458.9999999999968
 30
0.0
 11
4072.0
 21
-3395.9999999999968
 31
0.0
1001
ACDBBLOCKREPETAG
1070
     1
1071
        8
1005
134783
  0
LINE
  5
134784
  8
OBJECT
 10
4074.999999999799
 20
-3582.9999999997758
 30
0.0
 11
4080.0
 21
-3582.9999999999968
 31
0.0
1001
ACDBBLOCKREPETAG
1070
     1
1071
        9
1005
134784
  0
LINE
  5
134785
  8
OBJECT
 10
4080.0
 20
-3458.9999999999968
 30
0.0
 11
3925.0
 21
-3458.9999999999968
 31
0.0
1001
ACDBBLOCKREPETAG
1070
     1
1071
       10
1005
134785
  0
ARC
  5
134786
  8
OBJECT
 10
4200.6872746716726
 20
-3574.408099410105
 30
0.0
 40
170.6350503965856
 50
137.44134459184301
 51
149.9194958133665
1001
ACDBBLOCKREPETAG
1070
     1
1071
       15
1005
134786
  0
ARC
  5
134787
  8
OBJECT
 10
4118.8455987040506
 20
-3530.8827266953631
 30
0.0
 40
78.072222021763665
 50
147.4551531037684
 51
164.663659977186
1001
ACDBBLOCKREPETAG
1070
     1
1071
       16
1005
134787
  0
ARC
  5
134788
  8
OBJECT
 10
4085.7554349608722
 20
-3520.9999999999968
 30
0.0
 40
43.55353926885617
 50
165.6884523008477
 51
194.3115476991523
1001
ACDBBLOCKREPETAG
1070
     1
1071
       17
1005
134788
  0
ARC
  5
134789
  8
OBJECT
 10
4200.6872746716726
 20
-3467.5919005898891
 30
0.0
 40
170.6350503965856
 50
210.0805041866335
 51
222.55865540815699
1001
ACDBBLOCKREPETAG
1070
     1
1071
       18
1005
134789
  0
ARC
  5
13478A
  8
OBJECT
 10
4118.8455987040506
 20
-3511.1172733046319
 30
0.0
 40
78.072222021763665
 50
195.33634002281391
 51
212.5448468962316
1001
ACDBBLOCKREPETAG
1070
     1
1071
       19
1005
13478A
  0
POINT
  5
13478B
  8
DOTS
 10
4000.0
 20
-3579.9999999999968
 30
0.0
1001
ACDBBLOCKREPETAG
1070
     1
1071
      186
1005
13478B
  0
LINE
  5
13478C
  8
OBJECT
 10
3323.0
 20
-3395.9999999999968
 30
0.0
 11
3323.0
 21
-3374.9999999999968
 31
0.0
1001
ACDBBLOCKREPETAG
1070
     1
1071
       20
1005
13478C
  0
LINE
  5
13478D
  8
OBJECT
 10
3323.0
 20
-3374.9999999999968
 30
0.0
 11
3477.0
 21
-3374.9999999999968
 31
0.0
1001
ACDBBLOCKREPETAG
1070
     1
1071
       21
1005
13478D
  0
LINE
  5
13478E
  8
HIDDEN
 10
3343.0
 20
-3444.9999999999968
 30
0.0
 11
3457.0
 21
-3444.9999999999968
 31
0.0
1001
ACDBBLOCKREPETAG
1070
     1
1071
       22
1005
13478E
  0
LINE
  5
13478F
  8
OBJECT
 10
3477.0
 20
-3374.9999999999968
 30
0.0
 11
3477.0
 21
-3395.9999999999968
 31
0.0
1001
ACDBBLOCKREPETAG
1070
     1
1071
       23
1005
13478F
  0
LINE
  5
134790
  8
OBJECT
 10
3477.0
 20
-3395.9999999999968
 30
0.0
 11
3323.0
 21
-3395.9999999999968
 31
0.0
1001
ACDBBLOCKREPETAG
1070
     1
1071
       24
1005
134790
  0
LINE
  5
134791
  8
CENTER
 10
3400.0
 20
-3359.9999999999968
 30
0.0
 11
3400.0
 21
-3594.9999999999968
 31
0.0
1001
ACDBBLOCKREPETAG
1070
     1
1071
       25
1005
134791
  0
LINE
  5
134792
  8
OBJECT
 10
3325.0
 20
-3458.9999999999968
 30
0.0
 11
3325.0
 21
-3582.9999999999968
 31
0.0
1001
ACDBBLOCKREPETAG
1070
     1
1071
       26
1005
134792
  0
LINE
  5
134793
  8
OBJECT
 10
3328.0
 20
-3395.9999999999968
 30
0.0
 11
3328.0
 21
-3458.9999999999968
 31
0.0
1001
ACDBBLOCKREPETAG
1070
     1
1071
       27
1005
134793
  0
LINE
  5
134794
  8
OBJECT
 10
3472.0
 20
-3458.9999999999968
 30
0.0
 11
3472.0
 21
-3395.9999999999968
 31
0.0
1001
ACDBBLOCKREPETAG
1070
     1
1071
       28
1005
134794
  0
LINE
  5
134795
  8
OBJECT
 10
3475.0
 20
-3458.9999999999968
 30
0.0
 11
3325.0
 21
-3458.9999999999968
 31
0.0
1001
ACDBBLOCKREPETAG
1070
     1
1071
       30
1005
134795
  0
LINE
  5
134796
  8
OBJECT
 10
3475.0
 20
-3458.9999999999968
 30
0.0
 11
3475.0
 21
-3582.9999999999968
 31
0.0
1001
ACDBBLOCKREPETAG
1070
     1
1071
       34
1005
134796
  0
POINT
  5
134797
  8
DOTS
 10
3400.0
 20
-3579.9999999999968
 30
0.0
1001
ACDBBLOCKREPETAG
1070
     1
1071
      187
1005
134797
  0
LINE
  5
134798
  8
OBJECT
 10
2923.0
 20
-3395.9999999999968
 30
0.0
 11
2923.0
 21
-3374.9999999999968
 31
0.0
1001
ACDBBLOCKREPETAG
1070
     1
1071
        0
1005
134798
  0
LINE
  5
134799
  8
OBJECT
 10
2923.0
 20
-3374.9999999999968
 30
0.0
 11
3077.0
 21
-3374.9999999999968
 31
0.0
1001
ACDBBLOCKREPETAG
1070
     1
1071
        1
1005
134799
  0
LINE
  5
13479A
  8
HIDDEN
 10
2943.0
 20
-3444.9999999999968
 30
0.0
 11
3057.0
 21
-3444.9999999999968
 31
0.0
1001
ACDBBLOCKREPETAG
1070
     1
1071
        2
1005
13479A
  0
LINE
  5
13479B
  8
OBJECT
 10
3077.0
 20
-3374.9999999999968
 30
0.0
 11
3077.0
 21
-3395.9999999999968
 31
0.0
1001
ACDBBLOCKREPETAG
1070
     1
1071
        3
1005
13479B
  0
LINE
  5
13479C
  8
OBJECT
 10
3077.0
 20
-3395.9999999999968
 30
0.0
 11
2923.0
 21
-3395.9999999999968
 31
0.0
1001
ACDBBLOCKREPETAG
1070
     1
1071
        4
1005
13479C
  0
LINE
  5
13479D
  8
CENTER
 10
3000.0
 20
-3359.9999999999968
 30
0.0
 11
3000.0
 21
-3594.9999999999968
 31
0.0
1001
ACDBBLOCKREPETAG
1070
     1
1071
        5
1005
13479D
  0
LINE
  5
13479E
  8
OBJECT
 10
2925.0
 20
-3458.9999999999968
 30
0.0
 11
2925.0
 21
-3582.9999999999968
 31
0.0
1001
ACDBBLOCKREPETAG
1070
     1
1071
        6
1005
13479E
  0
LINE
  5
13479F
  8
OBJECT
 10
2928.0
 20
-3395.9999999999968
 30
0.0
 11
2928.0
 21
-3458.9999999999968
 31
0.0
1001
ACDBBLOCKREPETAG
1070
     1
1071
        7
1005
13479F
  0
LINE
  5
1347A0
  8
OBJECT
 10
3072.0
 20
-3458.9999999999968
 30
0.0
 11
3072.0
 21
-3395.9999999999968
 31
0.0
1001
ACDBBLOCKREPETAG
1070
     1
1071
        8
1005
1347A0
  0
LINE
  5
1347A1
  8
OBJECT
 10
3074.9999999997999
 20
-3582.9999999997758
 30
0.0
 11
3080.0
 21
-3582.9999999999968
 31
0.0
1001
ACDBBLOCKREPETAG
1070
     1
1071
        9
1005
1347A1
  0
LINE
  5
1347A2
  8
OBJECT
 10
3080.0
 20
-3458.9999999999968
 30
0.0
 11
2925.0
 21
-3458.9999999999968
 31
0.0
1001
ACDBBLOCKREPETAG
1070
     1
1071
       10
1005
1347A2
  0
ARC
  5
1347A3
  8
OBJECT
 10
3200.6872746716722
 20
-3574.408099410105
 30
0.0
 40
170.6350503965856
 50
137.44134459184301
 51
149.9194958133665
1001
ACDBBLOCKREPETAG
1070
     1
1071
       15
1005
1347A3
  0
ARC
  5
1347A4
  8
OBJECT
 10
3118.8455987040511
 20
-3530.8827266953631
 30
0.0
 40
78.072222021763665
 50
147.4551531037684
 51
164.663659977186
1001
ACDBBLOCKREPETAG
1070
     1
1071
       16
1005
1347A4
  0
ARC
  5
1347A5
  8
OBJECT
 10
3085.7554349608731
 20
-3520.9999999999968
 30
0.0
 40
43.55353926885617
 50
165.6884523008477
 51
194.3115476991523
1001
ACDBBLOCKREPETAG
1070
     1
1071
       17
1005
1347A5
  0
ARC
  5
1347A6
  8
OBJECT
 10
3200.6872746716722
 20
-3467.5919005898891
 30
0.0
 40
170.6350503965856
 50
210.0805041866335
 51
222.55865540815699
1001
ACDBBLOCKREPETAG
1070
     1
1071
       18
1005
1347A6
  0
ARC
  5
1347A7
  8
OBJECT
 10
3118.8455987040511
 20
-3511.1172733046319
 30
0.0
 40
78.072222021763665
 50
195.33634002281391
 51
212.5448468962316
1001
ACDBBLOCKREPETAG
1070
     1
1071
       19
1005
1347A7
  0
POINT
  5
1347A8
  8
DOTS
 10
3000.0
 20
-3579.9999999999968
 30
0.0
1001
ACDBBLOCKREPETAG
1070
     1
1071
      186
1005
1347A8
  0
LINE
  5
1347A9
  8
OBJECT
 10
2323.0
 20
-3395.9999999999968
 30
0.0
 11
2323.0
 21
-3374.9999999999968
 31
0.0
1001
ACDBBLOCKREPETAG
1070
     1
1071
       20
1005
1347A9
  0
LINE
  5
1347AA
  8
OBJECT
 10
2323.0
 20
-3374.9999999999968
 30
0.0
 11
2477.0
 21
-3374.9999999999968
 31
0.0
1001
ACDBBLOCKREPETAG
1070
     1
1071
       21
1005
1347AA
  0
LINE
  5
1347AB
  8
HIDDEN
 10
2343.0
 20
-3444.9999999999968
 30
0.0
 11
2457.0
 21
-3444.9999999999968
 31
0.0
1001
ACDBBLOCKREPETAG
1070
     1
1071
       22
1005
1347AB
  0
LINE
  5
1347AC
  8
OBJECT
 10
2477.0
 20
-3374.9999999999968
 30
0.0
 11
2477.0
 21
-3395.9999999999968
 31
0.0
1001
ACDBBLOCKREPETAG
1070
     1
1071
       23
1005
1347AC
  0
LINE
  5
1347AD
  8
OBJECT
 10
2477.0
 20
-3395.9999999999968
 30
0.0
 11
2323.0
 21
-3395.9999999999968
 31
0.0
1001
ACDBBLOCKREPETAG
1070
     1
1071
       24
1005
1347AD
  0
LINE
  5
1347AE
  8
CENTER
 10
2400.0
 20
-3359.9999999999968
 30
0.0
 11
2400.0
 21
-3594.9999999999968
 31
0.0
1001
ACDBBLOCKREPETAG
1070
     1
1071
       25
1005
1347AE
  0
LINE
  5
1347AF
  8
OBJECT
 10
2325.0
 20
-3458.9999999999968
 30
0.0
 11
2325.0
 21
-3582.9999999999968
 31
0.0
1001
ACDBBLOCKREPETAG
1070
     1
1071
       26
1005
1347AF
  0
LINE
  5
1347B0
  8
OBJECT
 10
2328.0
 20
-3395.9999999999968
 30
0.0
 11
2328.0
 21
-3458.9999999999968
 31
0.0
1001
ACDBBLOCKREPETAG
1070
     1
1071
       27
1005
1347B0
  0
LINE
  5
1347B1
  8
OBJECT
 10
2472.0
 20
-3458.9999999999968
 30
0.0
 11
2472.0
 21
-3395.9999999999968
 31
0.0
1001
ACDBBLOCKREPETAG
1070
     1
1071
       28
1005
1347B1
  0
LINE
  5
1347B2
  8
OBJECT
 10
2475.0
 20
-3458.9999999999968
 30
0.0
 11
2325.0
 21
-3458.9999999999968
 31
0.0
1001
ACDBBLOCKREPETAG
1070
     1
1071
       30
1005
1347B2
  0
LINE
  5
1347B3
  8
OBJECT
 10
2475.0
 20
-3458.9999999999968
 30
0.0
 11
2475.0
 21
-3582.9999999999968
 31
0.0
1001
ACDBBLOCKREPETAG
1070
     1
1071
       34
1005
1347B3
  0
POINT
  5
1347B4
  8
DOTS
 10
2400.0
 20
-3579.9999999999968
 30
0.0
1001
ACDBBLOCKREPETAG
1070
     1
1071
      187
1005
1347B4
  0
LINE
  5
1347B5
  8
OBJECT
 10
1923.0
 20
-3395.9999999999968
 30
0.0
 11
1923.0
 21
-3374.9999999999968
 31
0.0
1001
ACDBBLOCKREPETAG
1070
     1
1071
        0
1005
1347B5
  0
LINE
  5
1347B6
  8
OBJECT
 10
1923.0
 20
-3374.9999999999968
 30
0.0
 11
2077.0
 21
-3374.9999999999968
 31
0.0
1001
ACDBBLOCKREPETAG
1070
     1
1071
        1
1005
1347B6
  0
LINE
  5
1347B7
  8
HIDDEN
 10
1943.0
 20
-3444.9999999999968
 30
0.0
 11
2057.0
 21
-3444.9999999999968
 31
0.0
1001
ACDBBLOCKREPETAG
1070
     1
1071
        2
1005
1347B7
  0
LINE
  5
1347B8
  8
OBJECT
 10
2077.0
 20
-3374.9999999999968
 30
0.0
 11
2077.0
 21
-3395.9999999999968
 31
0.0
1001
ACDBBLOCKREPETAG
1070
     1
1071
        3
1005
1347B8
  0
LINE
  5
1347B9
  8
OBJECT
 10
2077.0
 20
-3395.9999999999968
 30
0.0
 11
1923.0
 21
-3395.9999999999968
 31
0.0
1001
ACDBBLOCKREPETAG
1070
     1
1071
        4
1005
1347B9
  0
LINE
  5
1347BA
  8
CENTER
 10
2000.0
 20
-3359.9999999999968
 30
0.0
 11
2000.0
 21
-3594.9999999999968
 31
0.0
1001
ACDBBLOCKREPETAG
1070
     1
1071
        5
1005
1347BA
  0
LINE
  5
1347BB
  8
OBJECT
 10
1925.0
 20
-3458.9999999999968
 30
0.0
 11
1925.0
 21
-3582.9999999999968
 31
0.0
1001
ACDBBLOCKREPETAG
1070
     1
1071
        6
1005
1347BB
  0
LINE
  5
1347BC
  8
OBJECT
 10
1928.0
 20
-3395.9999999999968
 30
0.0
 11
1928.0
 21
-3458.9999999999968
 31
0.0
1001
ACDBBLOCKREPETAG
1070
     1
1071
        7
1005
1347BC
  0
LINE
  5
1347BD
  8
OBJECT
 10
2072.0
 20
-3458.9999999999968
 30
0.0
 11
2072.0
 21
-3395.9999999999968
 31
0.0
1001
ACDBBLOCKREPETAG
1070
     1
1071
        8
1005
1347BD
  0
LINE
  5
1347BE
  8
OBJECT
 10
2074.999999999799
 20
-3582.9999999997758
 30
0.0
 11
2080.0
 21
-3582.9999999999968
 31
0.0
1001
ACDBBLOCKREPETAG
1070
     1
1071
        9
1005
1347BE
  0
LINE
  5
1347BF
  8
OBJECT
 10
2080.0
 20
-3458.9999999999968
 30
0.0
 11
1925.0
 21
-3458.9999999999968
 31
0.0
1001
ACDBBLOCKREPETAG
1070
     1
1071
       10
1005
1347BF
  0
ARC
  5
1347C0
  8
OBJECT
 10
2200.6872746716731
 20
-3574.408099410105
 30
0.0
 40
170.6350503965856
 50
137.44134459184301
 51
149.91949581335999
1001
ACDBBLOCKREPETAG
1070
     1
1071
       15
1005
1347C0
  0
ARC
  5
1347C1
  8
OBJECT
 10
2118.8455987040511
 20
-3530.8827266953631
 30
0.0
 40
78.072222021763665
 50
147.45515310377539
 51
164.663659977186
1001
ACDBBLOCKREPETAG
1070
     1
1071
       16
1005
1347C1
  0
ARC
  5
1347C2
  8
OBJECT
 10
2085.7554349608731
 20
-3520.9999999999968
 30
0.0
 40
43.55353926885617
 50
165.6884523008477
 51
194.3115476991523
1001
ACDBBLOCKREPETAG
1070
     1
1071
       17
1005
1347C2
  0
ARC
  5
1347C3
  8
OBJECT
 10
2200.6872746716731
 20
-3467.5919005898891
 30
0.0
 40
170.6350503965856
 50
210.08050418664001
 51
222.55865540815699
1001
ACDBBLOCKREPETAG
1070
     1
1071
       18
1005
1347C3
  0
ARC
  5
1347C4
  8
OBJECT
 10
2118.8455987040511
 20
-3511.1172733046319
 30
0.0
 40
78.072222021763665
 50
195.33634002281391
 51
212.54484689622461
1001
ACDBBLOCKREPETAG
1070
     1
1071
       19
1005
1347C4
  0
POINT
  5
1347C5
  8
DOTS
 10
2000.0
 20
-3579.9999999999968
 30
0.0
1001
ACDBBLOCKREPETAG
1070
     1
1071
      186
1005
1347C5
  0
LINE
  5
1347C6
  8
DIM
 10
2150.0
 20
-3221.9999999999959
 30
0.0
 11
2228.479620594459
 21
-3221.9999999999959
 31
0.0
  0
LINE
  5
1347C7
  8
DIM
 10
2150.0
 20
-3127.9999999999959
 30
0.0
 11
2228.479620594459
 21
-3127.9999999999959
 31
0.0
  0
LINE
  5
1347C8
  8
DIM
 10
2218.479620594459
 20
-3201.9999999999959
 30
0.0
 11
2218.479620594459
 21
-3147.9999999999959
 31
0.0
  0
INSERT
  5
1347C9
  8
DIM
  2
_OPEN30
 10
2218.479620594459
 20
-3221.9999999999959
 30
0.0
 41
20.0
 42
20.0
 43
20.0
 50
270.0
  0
INSERT
  5
1347CA
  8
DIM
  2
_OPEN30
 10
2218.479620594459
 20
-3127.9999999999959
 30
0.0
 41
20.0
 42
20.0
 43
20.0
 50
90.0
  0
INSERT
  5
1347CB
  8
OBJECT
  2
*U11
 10
0.0
 20
0.0
 30
0.0
  0
LINE
  5
1347CC
  8
DIM
 10
2150.0
 20
-3579.9999999999968
 30
0.0
 11
2226.8409284037339
 21
-3579.9999999999968
 31
0.0
  0
LINE
  5
1347CD
  8
DIM
 10
2165.0
 20
-3535.9999999999968
 30
0.0
 11
2226.8409284037339
 21
-3535.9999999999968
 31
0.0
  0
LINE
  5
1347CE
  8
DIM
 10
2216.840928403733
 20
-3599.9999999999968
 30
0.0
 11
2216.840928403733
 21
-3619.9999999999968
 31
0.0
  0
LINE
  5
1347CF
  8
DIM
 10
2216.840928403733
 20
-3515.9999999999968
 30
0.0
 11
2216.840928403733
 21
-3495.9999999999968
 31
0.0
  0
LINE
  5
1347D0
  8
DIM
 10
2216.840928403733
 20
-3579.9999999999968
 30
0.0
 11
2216.840928403733
 21
-3535.9999999999968
 31
0.0
  0
INSERT
  5
1347D1
  8
DIM
  2
_OPEN30
 10
2216.840928403733
 20
-3579.9999999999968
 30
0.0
 41
20.0
 42
20.0
 43
20.0
 50
90.0
  0
INSERT
  5
1347D2
  8
DIM
  2
_OPEN30
 10
2216.840928403733
 20
-3535.9999999999968
 30
0.0
 41
20.0
 42
20.0
 43
20.0
 50
270.0
  0
INSERT
  5
1347D3
  8
OBJECT
  2
*U12
 10
0.0
 20
0.0
 30
0.0
  0
LINE
  5
1347D4
  8
DIM
 10
2000.0
 20
-3069.9999999999959
 30
0.0
 11
2000.0
 21
-3037.208121984444
 31
0.0
  0
LINE
  5
1347D5
  8
DIM
 10
2140.0
 20
-3117.9999999999959
 30
0.0
 11
2140.0
 21
-3037.208121984444
 31
0.0
  0
LINE
  5
1347D6
  8
DIM
 10
2020.0
 20
-3047.208121984444
 30
0.0
 11
2120.0
 21
-3047.208121984444
 31
0.0
  0
INSERT
  5
1347D7
  8
DIM
  2
_OPEN30
 10
2000.0
 20
-3047.208121984444
 30
0.0
 41
20.0
 42
20.0
 43
20.0
 50
180.0
  0
INSERT
  5
1347D8
  8
DIM
  2
_OPEN30
 10
2140.0
 20
-3047.208121984444
 30
0.0
 41
20.0
 42
20.0
 43
20.0
  0
INSERT
  5
1347D9
  8
OBJECT
  2
*U13
 10
0.0
 20
0.0
 30
0.0
  0
TEXT
  5
1347DA
  8
SLIM
 10
2631.0
 20
-2952.50001604727
 30
0.0
 40
40.0
  1
C寸法
 41
0.75
  0
TEXT
  5
1347DB
  8
SLIM
 10
2631.0
 20
-2882.50001604727
 30
0.0
 40
40.0
  1
B寸法
 41
0.75
  0
TEXT
  5
1347DC
  8
SLIM
 10
2630.2857142857142
 20
-2812.50001604727
 30
0.0
 40
40.0
  1
A寸法
 41
0.75
  0
TEXT
  5
1347DD
  8
SLIM
 10
3159.2857142857151
 20
-2952.50001604727
 30
0.0
 40
40.0
  1
150
 41
0.75
  0
TEXT
  5
1347DE
  8
SLIM
 10
3029.2857142857151
 20
-2952.50001604727
 30
0.0
 40
40.0
  1
140
 41
0.75
  0
TEXT
  5
1347DF
  8
SLIM
 10
2769.2857142857151
 20
-2952.50001604727
 30
0.0
 40
40.0
  1
140
 41
0.75
  0
TEXT
  5
1347E0
  8
SLIM
 10
2899.2857142857151
 20
-2952.50001604727
 30
0.0
 40
40.0
  1
140
 41
0.75
  0
TEXT
  5
1347E1
  8
SLIM
 10
3170.7142857142858
 20
-2882.50001604727
 30
0.0
 40
40.0
  1
72
 41
0.75
  0
TEXT
  5
1347E2
  8
SLIM
 10
3041.4285714285711
 20
-2882.50001604727
 30
0.0
 40
40.0
  1
59
 41
0.75
  0
TEXT
  5
1347E3
  8
SLIM
 10
2780.0
 20
-2882.50001604727
 30
0.0
 40
40.0
  1
44
 41
0.75
  0
TEXT
  5
1347E4
  8
SLIM
 10
2910.7142857142858
 20
-2882.50001604727
 30
0.0
 40
40.0
  1
52
 41
0.75
  0
TEXT
  5
1347E5
  8
SLIM
 10
2891.0
 20
-2687.50001604727
 30
0.0
 40
40.0
  1
横枝管サイズ
 41
0.75
  0
TEXT
  5
1347E6
  8
SLIM
 10
3136.2857142857151
 20
-2742.50001604727
 30
0.0
 40
30.0
  1
100（4）
 41
0.75
  0
TEXT
  5
1347E7
  8
SLIM
 10
3014.857142857144
 20
-2742.50001604727
 30
0.0
 40
30.0
  1
75（3）
 41
0.75
  0
TEXT
  5
1347E8
  8
SLIM
 10
2884.8571428571431
 20
-2742.50001604727
 30
0.0
 40
30.0
  1
65（2）
 41
0.75
  0
TEXT
  5
1347E9
  8
SLIM
 10
2757.0
 20
-2742.50001604727
 30
0.0
 40
30.0
  1
50（1）
 41
0.75
  0
TEXT
  5
1347EA
  8
SLIM
 10
3159.2857142857151
 20
-2812.50001604727
 30
0.0
 40
40.0
  1
150
 41
0.75
  0
TEXT
  5
1347EB
  8
SLIM
 10
3028.571428571428
 20
-2812.50001604727
 30
0.0
 40
40.0
  1
124
 41
0.75
  0
TEXT
  5
1347EC
  8
SLIM
 10
2780.0
 20
-2812.50001604727
 30
0.0
 40
40.0
  1
94
 41
0.75
  0
TEXT
  5
1347ED
  8
SLIM
 10
2902.1428571428569
 20
-2812.50001604727
 30
0.0
 40
40.0
  1
110
 41
0.75
  0
TEXT
  5
1347EE
  8
SLIM
 10
1849.9999999999991
 20
-2712.5
 30
0.0
 40
75.0
  1
枝管サイズ毎の形状
 41
0.75
  0
LINE
  5
1347EF
  8
OBJECT
 10
5150.0
 20
-3432.9999999999968
 30
0.0
 11
5143.0
 21
-3432.9999999999968
 31
0.0
1001
ACDBBLOCKREPETAG
1070
     1
1071
       64
1005
1347EF
  0
LINE
  5
1347F0
  8
OBJECT
 10
5143.0
 20
-3432.9999999999968
 30
0.0
 11
5143.0
 21
-3579.9999999999968
 31
0.0
1001
ACDBBLOCKREPETAG
1070
     1
1071
       65
1005
1347F0
  0
LINE
  5
1347F1
  8
OBJECT
 10
5101.5
 20
-3435.9999999999968
 30
0.0
 11
5101.5
 21
-3579.9999999999968
 31
0.0
1001
ACDBBLOCKREPETAG
1070
     1
1071
       66
1005
1347F1
  0
LINE
  5
1347F2
  8
OBJECT
 10
5090.0
 20
-3442.4999999999968
 30
0.0
 11
5090.0
 21
-3573.4999999999968
 31
0.0
1001
ACDBBLOCKREPETAG
1070
     1
1071
       67
1005
1347F2
  0
LINE
  5
1347F3
  8
OBJECT
 10
5086.0
 20
-3514.5000000000041
 30
0.0
 11
5086.0
 21
-3579.9999999999968
 31
0.0
1001
ACDBBLOCKREPETAG
1070
     1
1071
       68
1005
1347F3
  0
LINE
  5
1347F4
  8
OBJECT
 10
5150.0
 20
-3579.9999999999968
 30
0.0
 11
5150.0
 21
-3432.9999999999968
 31
0.0
1001
ACDBBLOCKREPETAG
1070
     1
1071
       69
1005
1347F4
  0
LINE
  5
1347F5
  8
CENTER
 10
5165.0
 20
-3507.9999999999968
 30
0.0
 11
5070.4144144144157
 21
-3507.9999999999968
 31
0.0
1001
ACDBBLOCKREPETAG
1070
     1
1071
       70
1005
1347F5
  0
LINE
  5
1347F6
  8
OBJECT
 10
5083.0000000000045
 20
-3582.9999999999968
 30
0.0
 11
5080.0
 21
-3582.9999999999968
 31
0.0
1001
ACDBBLOCKREPETAG
1070
     1
1071
       71
1005
1347F6
  0
ARC
  5
1347F7
  8
OBJECT
 10
5091.8815171830656
 20
-3581.4555591801418
 30
0.0
 40
6.0
 50
60.52411099686767
 51
170.6927439126847
1001
ACDBBLOCKREPETAG
1070
     1
1071
       72
1005
1347F7
  0
ARC
  5
1347F8
  8
OBJECT
 10
5083.0
 20
-3579.9999999999968
 30
0.0
 40
3.0
 50
270.0
 51
350.69274391268482
1001
ACDBBLOCKREPETAG
1070
     1
1071
       73
1005
1347F8
  0
LINE
  5
1347F9
  8
OBJECT
 10
5081.0
 20
-3458.9999999999968
 30
0.0
 11
5080.0
 21
-3458.9999999999968
 31
0.0
1001
ACDBBLOCKREPETAG
1070
     1
1071
       74
1005
1347F9
  0
LINE
  5
1347FA
  8
OBJECT
 10
5150.0
 20
-3579.9999999999968
 30
0.0
 11
5101.5
 21
-3579.9999999999968
 31
0.0
1001
ACDBBLOCKREPETAG
1070
     1
1071
       75
1005
1347FA
  0
LINE
  5
1347FB
  8
OBJECT
 10
5101.5
 20
-3435.9999999999968
 30
0.0
 11
5090.0
 21
-3442.4999999999968
 31
0.0
1001
ACDBBLOCKREPETAG
1070
     1
1071
       76
1005
1347FB
  0
LINE
  5
1347FC
  8
OBJECT
 10
5143.0
 20
-3435.9999999999968
 30
0.0
 11
5101.5
 21
-3435.9999999999968
 31
0.0
1001
ACDBBLOCKREPETAG
1070
     1
1071
       77
1005
1347FC
  0
LINE
  5
1347FD
  8
OBJECT
 10
5086.0
 20
-3514.5000000000041
 30
0.0
 11
5081.0
 21
-3458.9999999999968
 31
0.0
1001
ACDBBLOCKREPETAG
1070
     1
1071
       78
1005
1347FD
  0
LINE
  5
1347FE
  8
OBJECT
 10
5090.0
 20
-3442.4999999999968
 30
0.0
 11
5081.0
 21
-3458.9999999999968
 31
0.0
1001
ACDBBLOCKREPETAG
1070
     1
1071
       79
1005
1347FE
  0
LINE
  5
1347FF
  8
OBJECT
 10
5101.5
 20
-3579.9999999999968
 30
0.0
 11
5094.8338607230708
 21
-3576.232182147819
 31
0.0
1001
ACDBBLOCKREPETAG
1070
     1
1071
       80
1005
1347FF
  0
LINE
  5
134800
  8
HIDDEN
 10
5098.0
 20
-3564.9999999999968
 30
0.0
 11
5098.0
 21
-3450.9999999999968
 31
0.0
1001
ACDBBLOCKREPETAG
1070
     1
1071
       81
1005
134800
  0
LINE
  5
134801
  8
OBJECT
 10
5150.0
 20
-3099.9999999999959
 30
0.0
 11
5143.0
 21
-3099.9999999999959
 31
0.0
1001
ACDBBLOCKREPETAG
1070
     1
1071
       67
1005
134801
  0
LINE
  5
134802
  8
OBJECT
 10
5143.0
 20
-3099.9999999999959
 30
0.0
 11
5143.0
 21
-3249.9999999999959
 31
0.0
1001
ACDBBLOCKREPETAG
1070
     1
1071
       68
1005
134802
  0
LINE
  5
134803
  8
OBJECT
 10
5101.5
 20
-3102.9999999999959
 30
0.0
 11
5101.5
 21
-3246.9999999999959
 31
0.0
1001
ACDBBLOCKREPETAG
1070
     1
1071
       69
1005
134803
  0
LINE
  5
134804
  8
OBJECT
 10
5090.0
 20
-3109.4999999999959
 30
0.0
 11
5090.0
 21
-3240.4999999999959
 31
0.0
1001
ACDBBLOCKREPETAG
1070
     1
1071
       70
1005
134804
  0
LINE
  5
134805
  8
OBJECT
 10
5143.0
 20
-3249.9999999999959
 30
0.0
 11
5150.0
 21
-3249.9999999999959
 31
0.0
1001
ACDBBLOCKREPETAG
1070
     1
1071
       71
1005
134805
  0
LINE
  5
134806
  8
OBJECT
 10
5150.0
 20
-3249.9999999999959
 30
0.0
 11
5150.0
 21
-3099.9999999999959
 31
0.0
1001
ACDBBLOCKREPETAG
1070
     1
1071
       72
1005
134806
  0
LINE
  5
134807
  8
HIDDEN
 10
5098.0
 20
-3231.9999999999959
 30
0.0
 11
5098.0
 21
-3117.9999999999959
 31
0.0
1001
ACDBBLOCKREPETAG
1070
     1
1071
       73
1005
134807
  0
LINE
  5
134808
  8
CENTER
 10
5165.0
 20
-3174.9999999999959
 30
0.0
 11
5080.0
 21
-3174.9999999999959
 31
0.0
1001
ACDBBLOCKREPETAG
1070
     1
1071
       74
1005
134808
  0
LINE
  5
134809
  8
OBJECT
 10
5086.0
 20
-3236.9999999999959
 30
0.0
 11
5080.0
 21
-3236.9999999999959
 31
0.0
1001
ACDBBLOCKREPETAG
1070
     1
1071
       75
1005
134809
  0
LINE
  5
13480A
  8
OBJECT
 10
5143.0
 20
-3246.9999999999959
 30
0.0
 11
5101.5
 21
-3246.9999999999959
 31
0.0
1001
ACDBBLOCKREPETAG
1070
     1
1071
       76
1005
13480A
  0
LINE
  5
13480B
  8
OBJECT
 10
5101.5
 20
-3246.9999999999959
 30
0.0
 11
5090.0
 21
-3240.4999999999959
 31
0.0
1001
ACDBBLOCKREPETAG
1070
     1
1071
       77
1005
13480B
  0
LINE
  5
13480C
  8
OBJECT
 10
5090.0
 20
-3240.4999999999959
 30
0.0
 11
5086.0
 21
-3236.9999999999959
 31
0.0
1001
ACDBBLOCKREPETAG
1070
     1
1071
       78
1005
13480C
  0
LINE
  5
13480D
  8
OBJECT
 10
5101.5
 20
-3102.9999999999959
 30
0.0
 11
5090.0
 21
-3109.4999999999959
 31
0.0
1001
ACDBBLOCKREPETAG
1070
     1
1071
       79
1005
13480D
  0
LINE
  5
13480E
  8
OBJECT
 10
5090.0
 20
-3109.4999999999959
 30
0.0
 11
5086.0
 21
-3112.9999999999959
 31
0.0
1001
ACDBBLOCKREPETAG
1070
     1
1071
       80
1005
13480E
  0
ARC
  5
13480F
  8
OBJECT
 10
5467.9000000000005
 20
-3174.9999999999959
 30
0.0
 40
386.89999999999998
 50
170.77870136260421
 51
189.22129863739571
1001
ACDBBLOCKREPETAG
1070
     1
1071
       81
1005
13480F
  0
LINE
  5
134810
  8
OBJECT
 10
5086.0
 20
-3112.9999999999959
 30
0.0
 11
5080.0
 21
-3112.9999999999959
 31
0.0
1001
ACDBBLOCKREPETAG
1070
     1
1071
       82
1005
134810
  0
LINE
  5
134811
  8
OBJECT
 10
5143.0
 20
-3102.9999999999959
 30
0.0
 11
5101.5
 21
-3102.9999999999959
 31
0.0
1001
ACDBBLOCKREPETAG
1070
     1
1071
       83
1005
134811
  0
TEXT
  5
134812
  8
SLIM
 10
4884.25
 20
-3697.4999999999959
 30
0.0
 40
35.0
  1
通常枝100（4）
 41
0.75
  0
LINE
  5
134813
  8
CENTER
 10
4477.0
 20
-3520.9999999999968
 30
0.0
 11
4323.0
 21
-3520.9999999999968
 31
0.0
1001
ACDBBLOCKREPETAG
1070
     1
1071
       17
1005
134813
  0
CIRCLE
  5
134814
  8
OBJECT
 10
4400.0
 20
-3520.9999999999968
 30
0.0
 40
41.5
1001
ACDBBLOCKREPETAG
1070
     1
1071
       19
1005
134814
  0
CIRCLE
  5
134815
  8
OBJECT
 10
4400.0
 20
-3520.9999999999968
 30
0.0
 40
54.0
1001
ACDBBLOCKREPETAG
1070
     1
1071
       20
1005
134815
  0
ARC
  5
134816
  8
OBJECT
 10
4400.0
 20
-3520.9999999999968
 30
0.0
 40
62.0
 50
287.89655112921122
 51
252.1034488707887
1001
ACDBBLOCKREPETAG
1070
     1
1071
       21
1005
134816
  0
LINE
  5
134817
  8
OBJECT
 10
4380.947441116743
 20
-3579.9999999999968
 30
0.0
 11
4419.052558883257
 21
-3579.9999999999968
 31
0.0
1001
ACDBBLOCKREPETAG
1070
     1
1071
       22
1005
134817
  0
LINE
  5
134818
  8
OBJECT
 10
4133.0
 20
-3458.9999999999968
 30
0.0
 11
4140.0
 21
-3458.9999999999968
 31
0.0
1001
ACDBBLOCKREPETAG
1070
     1
1071
       45
1005
134818
  0
LINE
  5
134819
  8
OBJECT
 10
4140.0
 20
-3458.9999999999968
 30
0.0
 11
4140.0
 21
-3579.9999999999968
 31
0.0
1001
ACDBBLOCKREPETAG
1070
     1
1071
       46
1005
134819
  0
LINE
  5
13481A
  8
OBJECT
 10
4133.0
 20
-3579.9999999999968
 30
0.0
 11
4133.0
 21
-3458.9999999999968
 31
0.0
1001
ACDBBLOCKREPETAG
1070
     1
1071
       47
1005
13481A
  0
LINE
  5
13481B
  8
CENTER
 10
4155.0
 20
-3520.9999999999968
 30
0.0
 11
4071.0
 21
-3520.9999999999968
 31
0.0
1001
ACDBBLOCKREPETAG
1070
     1
1071
       48
1005
13481B
  0
LINE
  5
13481C
  8
OBJECT
 10
4133.0
 20
-3461.9999999999968
 30
0.0
 11
4097.0
 21
-3461.9999999999968
 31
0.0
1001
ACDBBLOCKREPETAG
1070
     1
1071
       49
1005
13481C
  0
LINE
  5
13481D
  8
OBJECT
 10
4097.0
 20
-3461.9999999999968
 30
0.0
 11
4097.0
 21
-3579.9999999999968
 31
0.0
1001
ACDBBLOCKREPETAG
1070
     1
1071
       50
1005
13481D
  0
LINE
  5
13481E
  8
OBJECT
 10
4097.0
 20
-3579.9999999999968
 30
0.0
 11
4140.0
 21
-3579.9999999999968
 31
0.0
1001
ACDBBLOCKREPETAG
1070
     1
1071
       51
1005
13481E
  0
LINE
  5
13481F
  8
OBJECT
 10
4093.0
 20
-3466.4999999999968
 30
0.0
 11
4086.0
 21
-3466.4999999999968
 31
0.0
1001
ACDBBLOCKREPETAG
1070
     1
1071
       52
1005
13481F
  0
LINE
  5
134820
  8
OBJECT
 10
4086.0
 20
-3575.4999999999968
 30
0.0
 11
4093.0
 21
-3575.4999999999968
 31
0.0
1001
ACDBBLOCKREPETAG
1070
     1
1071
       53
1005
134820
  0
LINE
  5
134821
  8
OBJECT
 10
4093.0
 20
-3575.4999999999968
 30
0.0
 11
4093.0
 21
-3466.4999999999968
 31
0.0
1001
ACDBBLOCKREPETAG
1070
     1
1071
       54
1005
134821
  0
LINE
  5
134822
  8
OBJECT
 10
4097.0
 20
-3461.9999999999968
 30
0.0
 11
4093.0
 21
-3466.4999999999968
 31
0.0
1001
ACDBBLOCKREPETAG
1070
     1
1071
       55
1005
134822
  0
LINE
  5
134823
  8
OBJECT
 10
4097.0
 20
-3579.9999999999968
 30
0.0
 11
4093.0
 21
-3575.4999999999968
 31
0.0
1001
ACDBBLOCKREPETAG
1070
     1
1071
       56
1005
134823
  0
LINE
  5
134824
  8
OBJECT
 10
4083.0
 20
-3458.9999999999968
 30
0.0
 11
4080.0
 21
-3458.9999999999968
 31
0.0
1001
ACDBBLOCKREPETAG
1070
     1
1071
       57
1005
134824
  0
ARC
  5
134825
  8
OBJECT
 10
4083.0
 20
-3461.9999999999968
 30
0.0
 40
3.0
 50
0.0
 51
90.0
1001
ACDBBLOCKREPETAG
1070
     1
1071
       58
1005
134825
  0
LINE
  5
134826
  8
OBJECT
 10
4080.0
 20
-3582.9999999999968
 30
0.0
 11
4083.0
 21
-3582.9999999999968
 31
0.0
1001
ACDBBLOCKREPETAG
1070
     1
1071
       59
1005
134826
  0
ARC
  5
134827
  8
OBJECT
 10
4083.0
 20
-3579.9999999999968
 30
0.0
 40
3.0
 50
270.0
 51
0.0
1001
ACDBBLOCKREPETAG
1070
     1
1071
       60
1005
134827
  0
LINE
  5
134828
  8
OBJECT
 10
4086.0
 20
-3579.9999999999968
 30
0.0
 11
4086.0
 21
-3461.9999999999968
 31
0.0
1001
ACDBBLOCKREPETAG
1070
     1
1071
       61
1005
134828
  0
LINE
  5
134829
  8
HIDDEN
 10
4088.0
 20
-3476.4999999999968
 30
0.0
 11
4088.0
 21
-3565.4999999999968
 31
0.0
1001
ACDBBLOCKREPETAG
1070
     1
1071
       63
1005
134829
  0
LINE
  5
13482A
  8
OBJECT
 10
4133.0
 20
-3112.9999999999959
 30
0.0
 11
4140.0
 21
-3112.9999999999959
 31
0.0
1001
ACDBBLOCKREPETAG
1070
     1
1071
       47
1005
13482A
  0
LINE
  5
13482B
  8
OBJECT
 10
4140.0
 20
-3112.9999999999959
 30
0.0
 11
4140.0
 21
-3236.9999999999959
 31
0.0
1001
ACDBBLOCKREPETAG
1070
     1
1071
       48
1005
13482B
  0
LINE
  5
13482C
  8
OBJECT
 10
4140.0
 20
-3236.9999999999959
 30
0.0
 11
4133.0
 21
-3236.9999999999959
 31
0.0
1001
ACDBBLOCKREPETAG
1070
     1
1071
       49
1005
13482C
  0
LINE
  5
13482D
  8
OBJECT
 10
4133.0
 20
-3236.9999999999959
 30
0.0
 11
4133.0
 21
-3112.9999999999959
 31
0.0
1001
ACDBBLOCKREPETAG
1070
     1
1071
       50
1005
13482D
  0
LINE
  5
13482E
  8
CENTER
 10
4155.0
 20
-3174.9999999999959
 30
0.0
 11
4080.0
 21
-3174.9999999999959
 31
0.0
1001
ACDBBLOCKREPETAG
1070
     1
1071
       51
1005
13482E
  0
LINE
  5
13482F
  8
OBJECT
 10
4133.0
 20
-3115.9999999999959
 30
0.0
 11
4097.0
 21
-3115.9999999999959
 31
0.0
1001
ACDBBLOCKREPETAG
1070
     1
1071
       52
1005
13482F
  0
LINE
  5
134830
  8
OBJECT
 10
4097.0
 20
-3115.9999999999959
 30
0.0
 11
4097.0
 21
-3233.9999999999959
 31
0.0
1001
ACDBBLOCKREPETAG
1070
     1
1071
       53
1005
134830
  0
LINE
  5
134831
  8
OBJECT
 10
4097.0
 20
-3233.9999999999959
 30
0.0
 11
4133.0
 21
-3233.9999999999959
 31
0.0
1001
ACDBBLOCKREPETAG
1070
     1
1071
       54
1005
134831
  0
LINE
  5
134832
  8
OBJECT
 10
4093.0
 20
-3120.4999999999959
 30
0.0
 11
4086.0
 21
-3120.4999999999959
 31
0.0
1001
ACDBBLOCKREPETAG
1070
     1
1071
       55
1005
134832
  0
LINE
  5
134833
  8
OBJECT
 10
4086.0
 20
-3229.4999999999959
 30
0.0
 11
4093.0
 21
-3229.4999999999959
 31
0.0
1001
ACDBBLOCKREPETAG
1070
     1
1071
       56
1005
134833
  0
LINE
  5
134834
  8
OBJECT
 10
4093.0
 20
-3229.4999999999959
 30
0.0
 11
4093.0
 21
-3120.4999999999959
 31
0.0
1001
ACDBBLOCKREPETAG
1070
     1
1071
       57
1005
134834
  0
LINE
  5
134835
  8
OBJECT
 10
4097.0
 20
-3115.9999999999959
 30
0.0
 11
4093.0
 21
-3120.4999999999959
 31
0.0
1001
ACDBBLOCKREPETAG
1070
     1
1071
       58
1005
134835
  0
LINE
  5
134836
  8
OBJECT
 10
4097.0
 20
-3233.9999999999959
 30
0.0
 11
4093.0
 21
-3229.4999999999959
 31
0.0
1001
ACDBBLOCKREPETAG
1070
     1
1071
       59
1005
134836
  0
LINE
  5
134837
  8
OBJECT
 10
4083.0
 20
-3112.9999999999959
 30
0.0
 11
4080.0
 21
-3112.9999999999959
 31
0.0
1001
ACDBBLOCKREPETAG
1070
     1
1071
       60
1005
134837
  0
ARC
  5
134838
  8
OBJECT
 10
4083.0
 20
-3115.9999999999959
 30
0.0
 40
3.0
 50
0.0
 51
90.0
1001
ACDBBLOCKREPETAG
1070
     1
1071
       61
1005
134838
  0
LINE
  5
134839
  8
OBJECT
 10
4080.0
 20
-3236.9999999999959
 30
0.0
 11
4083.0
 21
-3236.9999999999959
 31
0.0
1001
ACDBBLOCKREPETAG
1070
     1
1071
       62
1005
134839
  0
ARC
  5
13483A
  8
OBJECT
 10
4083.0
 20
-3233.9999999999959
 30
0.0
 40
3.0
 50
270.0
 51
0.0
1001
ACDBBLOCKREPETAG
1070
     1
1071
       63
1005
13483A
  0
LINE
  5
13483B
  8
OBJECT
 10
4086.0
 20
-3233.9999999999959
 30
0.0
 11
4086.0
 21
-3115.9999999999959
 31
0.0
1001
ACDBBLOCKREPETAG
1070
     1
1071
       64
1005
13483B
  0
LINE
  5
13483C
  8
HIDDEN
 10
4088.0
 20
-3130.4999999999959
 30
0.0
 11
4088.0
 21
-3219.4999999999959
 31
0.0
1001
ACDBBLOCKREPETAG
1070
     1
1071
       65
1005
13483C
  0
TEXT
  5
13483D
  8
SLIM
 10
3894.25
 20
-3697.4999999999959
 30
0.0
 40
35.0
  1
通常枝75（3）
 41
0.75
  0
CIRCLE
  5
13483E
  8
OBJECT
 10
3400.0
 20
-3527.9999999999968
 30
0.0
 40
35.5
1001
ACDBBLOCKREPETAG
1070
     1
1071
       10
1005
13483E
  0
CIRCLE
  5
13483F
  8
OBJECT
 10
3400.0
 20
-3520.9999999999968
 30
0.0
 40
62.0
1001
ACDBBLOCKREPETAG
1070
     1
1071
       11
1005
13483F
  0
LINE
  5
134840
  8
CENTER
 10
3330.0
 20
-3527.9999999999968
 30
0.0
 11
3470.0
 21
-3527.9999999999968
 31
0.0
1001
ACDBBLOCKREPETAG
1070
     1
1071
       12
1005
134840
  0
CIRCLE
  5
134841
  8
OBJECT
 10
3400.0
 20
-3527.9999999999968
 30
0.0
 40
47.0
1001
ACDBBLOCKREPETAG
1070
     1
1071
       14
1005
134841
  0
ARC
  5
134842
  8
OBJECT
 10
3400.0
 20
-3527.9999999999968
 30
0.0
 40
55.0
 50
289.01126526011359
 51
250.98873473988641
1001
ACDBBLOCKREPETAG
1070
     1
1071
       15
1005
134842
  0
LINE
  5
134843
  8
OBJECT
 10
3382.0835271328328
 20
-3579.9999999999968
 30
0.0
 11
3417.9164728671681
 21
-3579.9999999999968
 31
0.0
1001
ACDBBLOCKREPETAG
1070
     1
1071
       16
1005
134843
  0
LINE
  5
134844
  8
OBJECT
 10
3133.0
 20
-3472.9999999999968
 30
0.0
 11
3140.0
 21
-3472.9999999999968
 31
0.0
1001
ACDBBLOCKREPETAG
1070
     1
1071
       26
1005
134844
  0
LINE
  5
134845
  8
OBJECT
 10
3140.0
 20
-3472.9999999999968
 30
0.0
 11
3140.0
 21
-3579.9999999999968
 31
0.0
1001
ACDBBLOCKREPETAG
1070
     1
1071
       27
1005
134845
  0
LINE
  5
134846
  8
OBJECT
 10
3133.0
 20
-3579.9999999999968
 30
0.0
 11
3133.0
 21
-3472.9999999999968
 31
0.0
1001
ACDBBLOCKREPETAG
1070
     1
1071
       28
1005
134846
  0
LINE
  5
134847
  8
CENTER
 10
3155.0
 20
-3527.9999999999968
 30
0.0
 11
3071.0
 21
-3527.9999999999968
 31
0.0
1001
ACDBBLOCKREPETAG
1070
     1
1071
       29
1005
134847
  0
LINE
  5
134848
  8
OBJECT
 10
3133.0
 20
-3475.9999999999968
 30
0.0
 11
3097.0
 21
-3475.9999999999968
 31
0.0
1001
ACDBBLOCKREPETAG
1070
     1
1071
       30
1005
134848
  0
LINE
  5
134849
  8
OBJECT
 10
3097.0
 20
-3475.9999999999968
 30
0.0
 11
3097.0
 21
-3579.9999999999968
 31
0.0
1001
ACDBBLOCKREPETAG
1070
     1
1071
       31
1005
134849
  0
LINE
  5
13484A
  8
OBJECT
 10
3097.0
 20
-3579.9999999999968
 30
0.0
 11
3140.0
 21
-3579.9999999999968
 31
0.0
1001
ACDBBLOCKREPETAG
1070
     1
1071
       32
1005
13484A
  0
LINE
  5
13484B
  8
OBJECT
 10
3093.0
 20
-3480.4999999999968
 30
0.0
 11
3086.0
 21
-3480.4999999999968
 31
0.0
1001
ACDBBLOCKREPETAG
1070
     1
1071
       33
1005
13484B
  0
LINE
  5
13484C
  8
OBJECT
 10
3086.0
 20
-3575.4999999999968
 30
0.0
 11
3093.0
 21
-3575.4999999999968
 31
0.0
1001
ACDBBLOCKREPETAG
1070
     1
1071
       34
1005
13484C
  0
LINE
  5
13484D
  8
OBJECT
 10
3093.0
 20
-3575.4999999999968
 30
0.0
 11
3093.0
 21
-3480.4999999999968
 31
0.0
1001
ACDBBLOCKREPETAG
1070
     1
1071
       35
1005
13484D
  0
LINE
  5
13484E
  8
OBJECT
 10
3097.0
 20
-3475.9999999999968
 30
0.0
 11
3093.0
 21
-3480.4999999999968
 31
0.0
1001
ACDBBLOCKREPETAG
1070
     1
1071
       36
1005
13484E
  0
LINE
  5
13484F
  8
OBJECT
 10
3097.0
 20
-3579.9999999999968
 30
0.0
 11
3093.0
 21
-3575.4999999999968
 31
0.0
1001
ACDBBLOCKREPETAG
1070
     1
1071
       37
1005
13484F
  0
LINE
  5
134850
  8
OBJECT
 10
3083.0
 20
-3458.9999999999968
 30
0.0
 11
3080.0
 21
-3458.9999999999968
 31
0.0
1001
ACDBBLOCKREPETAG
1070
     1
1071
       38
1005
134850
  0
ARC
  5
134851
  8
OBJECT
 10
3083.0
 20
-3461.9999999999968
 30
0.0
 40
3.0
 50
0.0
 51
90.0
1001
ACDBBLOCKREPETAG
1070
     1
1071
       39
1005
134851
  0
LINE
  5
134852
  8
OBJECT
 10
3080.0
 20
-3582.9999999999968
 30
0.0
 11
3083.0
 21
-3582.9999999999968
 31
0.0
1001
ACDBBLOCKREPETAG
1070
     1
1071
       40
1005
134852
  0
ARC
  5
134853
  8
OBJECT
 10
3083.0
 20
-3579.9999999999968
 30
0.0
 40
3.0
 50
270.0
 51
0.0
1001
ACDBBLOCKREPETAG
1070
     1
1071
       41
1005
134853
  0
LINE
  5
134854
  8
OBJECT
 10
3086.0
 20
-3579.9999999999968
 30
0.0
 11
3086.0
 21
-3461.9999999999968
 31
0.0
1001
ACDBBLOCKREPETAG
1070
     1
1071
       42
1005
134854
  0
LINE
  5
134855
  8
HIDDEN
 10
3088.0
 20
-3489.9999999999968
 30
0.0
 11
3088.0
 21
-3565.9999999999968
 31
0.0
1001
ACDBBLOCKREPETAG
1070
     1
1071
       43
1005
134855
  0
LINE
  5
134856
  8
OBJECT
 10
3133.0
 20
-3119.9999999999959
 30
0.0
 11
3140.0
 21
-3119.9999999999959
 31
0.0
1001
ACDBBLOCKREPETAG
1070
     1
1071
       27
1005
134856
  0
LINE
  5
134857
  8
OBJECT
 10
3140.0
 20
-3119.9999999999959
 30
0.0
 11
3140.0
 21
-3229.9999999999959
 31
0.0
1001
ACDBBLOCKREPETAG
1070
     1
1071
       28
1005
134857
  0
LINE
  5
134858
  8
OBJECT
 10
3140.0
 20
-3229.9999999999959
 30
0.0
 11
3133.0
 21
-3229.9999999999959
 31
0.0
1001
ACDBBLOCKREPETAG
1070
     1
1071
       29
1005
134858
  0
LINE
  5
134859
  8
OBJECT
 10
3133.0
 20
-3229.9999999999959
 30
0.0
 11
3133.0
 21
-3119.9999999999959
 31
0.0
1001
ACDBBLOCKREPETAG
1070
     1
1071
       30
1005
134859
  0
LINE
  5
13485A
  8
CENTER
 10
3155.0
 20
-3174.9999999999959
 30
0.0
 11
3080.0
 21
-3174.9999999999959
 31
0.0
1001
ACDBBLOCKREPETAG
1070
     1
1071
       31
1005
13485A
  0
LINE
  5
13485B
  8
OBJECT
 10
3133.0
 20
-3122.9999999999959
 30
0.0
 11
3097.0
 21
-3122.9999999999959
 31
0.0
1001
ACDBBLOCKREPETAG
1070
     1
1071
       32
1005
13485B
  0
LINE
  5
13485C
  8
OBJECT
 10
3097.0
 20
-3122.9999999999959
 30
0.0
 11
3097.0
 21
-3226.9999999999959
 31
0.0
1001
ACDBBLOCKREPETAG
1070
     1
1071
       33
1005
13485C
  0
LINE
  5
13485D
  8
OBJECT
 10
3097.0
 20
-3226.9999999999959
 30
0.0
 11
3133.0
 21
-3226.9999999999959
 31
0.0
1001
ACDBBLOCKREPETAG
1070
     1
1071
       34
1005
13485D
  0
LINE
  5
13485E
  8
OBJECT
 10
3093.0
 20
-3127.4999999999959
 30
0.0
 11
3086.0
 21
-3127.4999999999959
 31
0.0
1001
ACDBBLOCKREPETAG
1070
     1
1071
       35
1005
13485E
  0
LINE
  5
13485F
  8
OBJECT
 10
3086.0
 20
-3222.4999999999959
 30
0.0
 11
3093.0
 21
-3222.4999999999959
 31
0.0
1001
ACDBBLOCKREPETAG
1070
     1
1071
       36
1005
13485F
  0
LINE
  5
134860
  8
OBJECT
 10
3093.0
 20
-3222.4999999999959
 30
0.0
 11
3093.0
 21
-3127.4999999999959
 31
0.0
1001
ACDBBLOCKREPETAG
1070
     1
1071
       37
1005
134860
  0
LINE
  5
134861
  8
OBJECT
 10
3097.0
 20
-3122.9999999999959
 30
0.0
 11
3093.0
 21
-3127.4999999999959
 31
0.0
1001
ACDBBLOCKREPETAG
1070
     1
1071
       38
1005
134861
  0
LINE
  5
134862
  8
OBJECT
 10
3097.0
 20
-3226.9999999999959
 30
0.0
 11
3093.0
 21
-3222.4999999999959
 31
0.0
1001
ACDBBLOCKREPETAG
1070
     1
1071
       39
1005
134862
  0
LINE
  5
134863
  8
OBJECT
 10
3083.0
 20
-3112.9999999999959
 30
0.0
 11
3080.0
 21
-3112.9999999999959
 31
0.0
1001
ACDBBLOCKREPETAG
1070
     1
1071
       40
1005
134863
  0
ARC
  5
134864
  8
OBJECT
 10
3083.0
 20
-3115.9999999999959
 30
0.0
 40
3.0
 50
0.0
 51
90.0
1001
ACDBBLOCKREPETAG
1070
     1
1071
       41
1005
134864
  0
LINE
  5
134865
  8
OBJECT
 10
3080.0
 20
-3236.9999999999959
 30
0.0
 11
3083.0
 21
-3236.9999999999959
 31
0.0
1001
ACDBBLOCKREPETAG
1070
     1
1071
       42
1005
134865
  0
ARC
  5
134866
  8
OBJECT
 10
3083.0
 20
-3233.9999999999959
 30
0.0
 40
3.0
 50
270.0
 51
0.0
1001
ACDBBLOCKREPETAG
1070
     1
1071
       43
1005
134866
  0
LINE
  5
134867
  8
OBJECT
 10
3086.0
 20
-3233.9999999999959
 30
0.0
 11
3086.0
 21
-3115.9999999999959
 31
0.0
1001
ACDBBLOCKREPETAG
1070
     1
1071
       44
1005
134867
  0
LINE
  5
134868
  8
HIDDEN
 10
3088.0
 20
-3136.9999999999959
 30
0.0
 11
3088.0
 21
-3212.9999999999959
 31
0.0
1001
ACDBBLOCKREPETAG
1070
     1
1071
       45
1005
134868
  0
TEXT
  5
134869
  8
SLIM
 10
2894.25
 20
-3697.4999999999959
 30
0.0
 40
35.0
  1
通常枝65（2）
 41
0.75
  0
CIRCLE
  5
13486A
  8
OBJECT
 10
2400.0
 20
-3520.9999999999968
 30
0.0
 40
62.0
1001
ACDBBLOCKREPETAG
1070
     1
1071
        3
1005
13486A
  0
LINE
  5
13486B
  8
CENTER
 10
2338.0
 20
-3535.9999999999968
 30
0.0
 11
2462.0
 21
-3535.9999999999968
 31
0.0
1001
ACDBBLOCKREPETAG
1070
     1
1071
        4
1005
13486B
  0
CIRCLE
  5
13486C
  8
OBJECT
 10
2400.0
 20
-3535.9999999999968
 30
0.0
 40
28.0
1001
ACDBBLOCKREPETAG
1070
     1
1071
        6
1005
13486C
  0
CIRCLE
  5
13486D
  8
OBJECT
 10
2400.0
 20
-3535.9999999999968
 30
0.0
 40
39.0
1001
ACDBBLOCKREPETAG
1070
     1
1071
        7
1005
13486D
  0
ARC
  5
13486E
  8
OBJECT
 10
2400.0
 20
-3535.9999999999968
 30
0.0
 40
47.0
 50
290.58196921144412
 51
249.41803078855591
1001
ACDBBLOCKREPETAG
1070
     1
1071
        8
1005
13486E
  0
LINE
  5
13486F
  8
OBJECT
 10
2383.4772883581431
 20
-3579.9999999999968
 30
0.0
 11
2416.5227116418569
 21
-3579.9999999999968
 31
0.0
1001
ACDBBLOCKREPETAG
1070
     1
1071
        9
1005
13486F
  0
LINE
  5
134870
  8
OBJECT
 10
2133.0
 20
-3488.9999999999968
 30
0.0
 11
2140.0
 21
-3488.9999999999968
 31
0.0
1001
ACDBBLOCKREPETAG
1070
     1
1071
        7
1005
134870
  0
LINE
  5
134871
  8
OBJECT
 10
2140.0
 20
-3488.9999999999968
 30
0.0
 11
2140.0
 21
-3579.9999999999968
 31
0.0
1001
ACDBBLOCKREPETAG
1070
     1
1071
        8
1005
134871
  0
LINE
  5
134872
  8
OBJECT
 10
2133.0
 20
-3579.9999999999968
 30
0.0
 11
2133.0
 21
-3488.9999999999968
 31
0.0
1001
ACDBBLOCKREPETAG
1070
     1
1071
        9
1005
134872
  0
LINE
  5
134873
  8
CENTER
 10
2155.0
 20
-3535.9999999999968
 30
0.0
 11
2071.0
 21
-3535.9999999999968
 31
0.0
1001
ACDBBLOCKREPETAG
1070
     1
1071
       10
1005
134873
  0
LINE
  5
134874
  8
OBJECT
 10
2133.0
 20
-3491.9999999999968
 30
0.0
 11
2097.0
 21
-3491.9999999999968
 31
0.0
1001
ACDBBLOCKREPETAG
1070
     1
1071
       11
1005
134874
  0
LINE
  5
134875
  8
OBJECT
 10
2097.0
 20
-3491.9999999999968
 30
0.0
 11
2097.0
 21
-3579.9999999999968
 31
0.0
1001
ACDBBLOCKREPETAG
1070
     1
1071
       12
1005
134875
  0
LINE
  5
134876
  8
OBJECT
 10
2097.0
 20
-3579.9999999999968
 30
0.0
 11
2140.0
 21
-3579.9999999999968
 31
0.0
1001
ACDBBLOCKREPETAG
1070
     1
1071
       13
1005
134876
  0
LINE
  5
134877
  8
OBJECT
 10
2093.0
 20
-3496.4999999999968
 30
0.0
 11
2086.0
 21
-3496.4999999999968
 31
0.0
1001
ACDBBLOCKREPETAG
1070
     1
1071
       14
1005
134877
  0
LINE
  5
134878
  8
OBJECT
 10
2086.0
 20
-3575.4999999999968
 30
0.0
 11
2093.0
 21
-3575.4999999999968
 31
0.0
1001
ACDBBLOCKREPETAG
1070
     1
1071
       15
1005
134878
  0
LINE
  5
134879
  8
OBJECT
 10
2093.0
 20
-3575.4999999999968
 30
0.0
 11
2093.0
 21
-3496.4999999999968
 31
0.0
1001
ACDBBLOCKREPETAG
1070
     1
1071
       16
1005
134879
  0
LINE
  5
13487A
  8
OBJECT
 10
2097.0
 20
-3491.9999999999968
 30
0.0
 11
2093.0
 21
-3496.4999999999968
 31
0.0
1001
ACDBBLOCKREPETAG
1070
     1
1071
       17
1005
13487A
  0
LINE
  5
13487B
  8
OBJECT
 10
2097.0
 20
-3579.9999999999968
 30
0.0
 11
2093.0
 21
-3575.4999999999968
 31
0.0
1001
ACDBBLOCKREPETAG
1070
     1
1071
       18
1005
13487B
  0
LINE
  5
13487C
  8
OBJECT
 10
2083.0
 20
-3458.9999999999968
 30
0.0
 11
2080.0
 21
-3458.9999999999968
 31
0.0
1001
ACDBBLOCKREPETAG
1070
     1
1071
       19
1005
13487C
  0
ARC
  5
13487D
  8
OBJECT
 10
2083.0
 20
-3461.9999999999968
 30
0.0
 40
3.0
 50
0.0
 51
90.0
1001
ACDBBLOCKREPETAG
1070
     1
1071
       20
1005
13487D
  0
LINE
  5
13487E
  8
OBJECT
 10
2080.0
 20
-3582.9999999999968
 30
0.0
 11
2083.0
 21
-3582.9999999999968
 31
0.0
1001
ACDBBLOCKREPETAG
1070
     1
1071
       21
1005
13487E
  0
ARC
  5
13487F
  8
OBJECT
 10
2083.0
 20
-3579.9999999999968
 30
0.0
 40
3.0
 50
270.0
 51
0.0
1001
ACDBBLOCKREPETAG
1070
     1
1071
       22
1005
13487F
  0
LINE
  5
134880
  8
OBJECT
 10
2086.0
 20
-3579.9999999999968
 30
0.0
 11
2086.0
 21
-3461.9999999999968
 31
0.0
1001
ACDBBLOCKREPETAG
1070
     1
1071
       23
1005
134880
  0
LINE
  5
134881
  8
HIDDEN
 10
2088.0
 20
-3505.9999999999968
 30
0.0
 11
2088.0
 21
-3565.9999999999968
 31
0.0
1001
ACDBBLOCKREPETAG
1070
     1
1071
       24
1005
134881
  0
LINE
  5
134882
  8
OBJECT
 10
2133.0
 20
-3127.9999999999959
 30
0.0
 11
2140.0
 21
-3127.9999999999959
 31
0.0
1001
ACDBBLOCKREPETAG
1070
     1
1071
        7
1005
134882
  0
LINE
  5
134883
  8
OBJECT
 10
2140.0
 20
-3127.9999999999959
 30
0.0
 11
2140.0
 21
-3221.9999999999959
 31
0.0
1001
ACDBBLOCKREPETAG
1070
     1
1071
        8
1005
134883
  0
LINE
  5
134884
  8
OBJECT
 10
2140.0
 20
-3221.9999999999959
 30
0.0
 11
2133.0
 21
-3221.9999999999959
 31
0.0
1001
ACDBBLOCKREPETAG
1070
     1
1071
        9
1005
134884
  0
LINE
  5
134885
  8
OBJECT
 10
2133.0
 20
-3221.9999999999959
 30
0.0
 11
2133.0
 21
-3127.9999999999959
 31
0.0
1001
ACDBBLOCKREPETAG
1070
     1
1071
       10
1005
134885
  0
LINE
  5
134886
  8
CENTER
 10
2155.0
 20
-3174.9999999999959
 30
0.0
 11
2080.0
 21
-3174.9999999999959
 31
0.0
1001
ACDBBLOCKREPETAG
1070
     1
1071
       11
1005
134886
  0
LINE
  5
134887
  8
OBJECT
 10
2133.0
 20
-3130.9999999999959
 30
0.0
 11
2097.0
 21
-3130.9999999999959
 31
0.0
1001
ACDBBLOCKREPETAG
1070
     1
1071
       12
1005
134887
  0
LINE
  5
134888
  8
OBJECT
 10
2097.0
 20
-3130.9999999999959
 30
0.0
 11
2097.0
 21
-3218.9999999999959
 31
0.0
1001
ACDBBLOCKREPETAG
1070
     1
1071
       13
1005
134888
  0
LINE
  5
134889
  8
OBJECT
 10
2097.0
 20
-3218.9999999999959
 30
0.0
 11
2133.0
 21
-3218.9999999999959
 31
0.0
1001
ACDBBLOCKREPETAG
1070
     1
1071
       14
1005
134889
  0
LINE
  5
13488A
  8
OBJECT
 10
2093.0
 20
-3135.4999999999959
 30
0.0
 11
2086.0
 21
-3135.4999999999959
 31
0.0
1001
ACDBBLOCKREPETAG
1070
     1
1071
       15
1005
13488A
  0
LINE
  5
13488B
  8
OBJECT
 10
2086.0
 20
-3214.4999999999959
 30
0.0
 11
2093.0
 21
-3214.4999999999959
 31
0.0
1001
ACDBBLOCKREPETAG
1070
     1
1071
       16
1005
13488B
  0
LINE
  5
13488C
  8
OBJECT
 10
2093.0
 20
-3214.4999999999959
 30
0.0
 11
2093.0
 21
-3135.4999999999959
 31
0.0
1001
ACDBBLOCKREPETAG
1070
     1
1071
       17
1005
13488C
  0
LINE
  5
13488D
  8
OBJECT
 10
2097.0
 20
-3130.9999999999959
 30
0.0
 11
2093.0
 21
-3135.4999999999959
 31
0.0
1001
ACDBBLOCKREPETAG
1070
     1
1071
       18
1005
13488D
  0
LINE
  5
13488E
  8
OBJECT
 10
2097.0
 20
-3218.9999999999959
 30
0.0
 11
2093.0
 21
-3214.4999999999959
 31
0.0
1001
ACDBBLOCKREPETAG
1070
     1
1071
       19
1005
13488E
  0
LINE
  5
13488F
  8
OBJECT
 10
2083.0
 20
-3112.9999999999959
 30
0.0
 11
2080.0
 21
-3112.9999999999959
 31
0.0
1001
ACDBBLOCKREPETAG
1070
     1
1071
       20
1005
13488F
  0
ARC
  5
134890
  8
OBJECT
 10
2083.0
 20
-3115.9999999999959
 30
0.0
 40
3.0
 50
0.0
 51
90.0
1001
ACDBBLOCKREPETAG
1070
     1
1071
       21
1005
134890
  0
LINE
  5
134891
  8
OBJECT
 10
2080.0
 20
-3236.9999999999959
 30
0.0
 11
2083.0
 21
-3236.9999999999959
 31
0.0
1001
ACDBBLOCKREPETAG
1070
     1
1071
       22
1005
134891
  0
ARC
  5
134892
  8
OBJECT
 10
2083.0
 20
-3233.9999999999959
 30
0.0
 40
3.0
 50
270.0
 51
0.0
1001
ACDBBLOCKREPETAG
1070
     1
1071
       23
1005
134892
  0
LINE
  5
134893
  8
OBJECT
 10
2086.0
 20
-3233.9999999999959
 30
0.0
 11
2086.0
 21
-3115.9999999999959
 31
0.0
1001
ACDBBLOCKREPETAG
1070
     1
1071
       24
1005
134893
  0
LINE
  5
134894
  8
HIDDEN
 10
2088.0
 20
-3144.9999999999959
 30
0.0
 11
2088.0
 21
-3204.9999999999959
 31
0.0
1001
ACDBBLOCKREPETAG
1070
     1
1071
       25
1005
134894
  0
TEXT
  5
134895
  8
SLIM
 10
1896.75
 20
-3697.4999999999959
 30
0.0
 40
35.0
  1
通常枝50（1）
 41
0.75
  0
LINE
  5
134896
  8
OBJECT
 10
3930.0
 20
-1079.999999999997
 30
0.0
 11
4070.0
 21
-1079.999999999997
 31
0.0
1001
ACDBBLOCKREPETAG
1070
     1
1071
        0
1005
134896
  0
LINE
  5
134897
  8
OBJECT
 10
3930.0
 20
-1079.999999999997
 30
0.0
 11
3930.0
 21
-839.99999999999704
 31
0.0
1001
ACDBBLOCKREPETAG
1070
     1
1071
        1
1005
134897
  0
LINE
  5
134898
  8
OBJECT
 10
4070.0
 20
-1079.999999999997
 30
0.0
 11
4070.0
 21
-839.99999999999704
 31
0.0
1001
ACDBBLOCKREPETAG
1070
     1
1071
        2
1005
134898
  0
LINE
  5
134899
  8
OBJECT
 10
3930.0
 20
-839.99999999999704
 30
0.0
 11
4070.0
 21
-839.99999999999704
 31
0.0
1001
ACDBBLOCKREPETAG
1070
     1
1071
        3
1005
134899
  0
LINE
  5
13489A
  8
HIDDEN
 10
3937.5
 20
-839.99999999999704
 30
0.0
 11
3937.5
 21
-1079.999999999997
 31
0.0
1001
ACDBBLOCKREPETAG
1070
     1
1071
        4
1005
13489A
  0
LINE
  5
13489B
  8
HIDDEN
 10
4062.5
 20
-839.99999999999704
 30
0.0
 11
4062.5
 21
-1079.999999999997
 31
0.0
1001
ACDBBLOCKREPETAG
1070
     1
1071
        5
1005
13489B
  0
LINE
  5
13489C
  8
CENTER
 10
4000.0
 20
-769.99999999999875
 30
0.0
 11
4000.0
 21
-1094.999999999997
 31
0.0
1001
ACDBBLOCKREPETAG
1070
     1
1071
        6
1005
13489C
  0
LINE
  5
13489D
  8
OBJECT
 10
3925.0
 20
-769.99999999999875
 30
0.0
 11
3925.0
 21
-799.99999999999693
 31
0.0
1001
ACDBBLOCKREPETAG
1070
     1
1071
        7
1005
13489D
  0
LINE
  5
13489E
  8
OBJECT
 10
4075.0000000000032
 20
-769.99999999999875
 30
0.0
 11
4075.0
 21
-799.99999999999693
 31
0.0
1001
ACDBBLOCKREPETAG
1070
     1
1071
        8
1005
13489E
  0
LINE
  5
13489F
  8
OBJECT
 10
3925.0
 20
-799.99999999999693
 30
0.0
 11
4075.0
 21
-799.99999999999693
 31
0.0
1001
ACDBBLOCKREPETAG
1070
     1
1071
        9
1005
13489F
  0
LINE
  5
1348A0
  8
OBJECT
 10
3925.0
 20
-799.99999999999693
 30
0.0
 11
3930.0
 21
-839.99999999999704
 31
0.0
1001
ACDBBLOCKREPETAG
1070
     1
1071
       10
1005
1348A0
  0
LINE
  5
1348A1
  8
OBJECT
 10
4070.0
 20
-839.99999999999704
 30
0.0
 11
4075.0
 21
-799.99999999999693
 31
0.0
1001
ACDBBLOCKREPETAG
1070
     1
1071
       11
1005
1348A1
  0
LINE
  5
1348A2
  8
OBJECT
 10
1930.0
 20
-1079.999999999998
 30
0.0
 11
2070.0
 21
-1079.999999999998
 31
0.0
1001
ACDBBLOCKREPETAG
1070
     1
1071
        0
1005
1348A2
  0
LINE
  5
1348A3
  8
OBJECT
 10
1930.0
 20
-1079.999999999998
 30
0.0
 11
1930.0
 21
-839.99999999999795
 31
0.0
1001
ACDBBLOCKREPETAG
1070
     1
1071
        1
1005
1348A3
  0
LINE
  5
1348A4
  8
OBJECT
 10
2070.0
 20
-1079.999999999998
 30
0.0
 11
2070.0
 21
-839.99999999999795
 31
0.0
1001
ACDBBLOCKREPETAG
1070
     1
1071
        2
1005
1348A4
  0
LINE
  5
1348A5
  8
OBJECT
 10
1930.0
 20
-839.99999999999795
 30
0.0
 11
2070.0
 21
-839.99999999999795
 31
0.0
1001
ACDBBLOCKREPETAG
1070
     1
1071
        3
1005
1348A5
  0
LINE
  5
1348A6
  8
HIDDEN
 10
1937.5
 20
-839.99999999999795
 30
0.0
 11
1937.5
 21
-1079.999999999998
 31
0.0
1001
ACDBBLOCKREPETAG
1070
     1
1071
        4
1005
1348A6
  0
LINE
  5
1348A7
  8
HIDDEN
 10
2062.5
 20
-839.99999999999795
 30
0.0
 11
2062.5
 21
-1079.999999999998
 31
0.0
1001
ACDBBLOCKREPETAG
1070
     1
1071
        5
1005
1348A7
  0
LINE
  5
1348A8
  8
CENTER
 10
2000.0
 20
-769.99999999999955
 30
0.0
 11
2000.0
 21
-1094.999999999997
 31
0.0
1001
ACDBBLOCKREPETAG
1070
     1
1071
        6
1005
1348A8
  0
LINE
  5
1348A9
  8
OBJECT
 10
1925.0
 20
-769.99999999999955
 30
0.0
 11
1925.0
 21
-799.99999999999773
 31
0.0
1001
ACDBBLOCKREPETAG
1070
     1
1071
        7
1005
1348A9
  0
LINE
  5
1348AA
  8
OBJECT
 10
2075.0000000000041
 20
-769.99999999999955
 30
0.0
 11
2075.0
 21
-799.99999999999773
 31
0.0
1001
ACDBBLOCKREPETAG
1070
     1
1071
        8
1005
1348AA
  0
LINE
  5
1348AB
  8
OBJECT
 10
1925.0
 20
-799.99999999999773
 30
0.0
 11
2075.0
 21
-799.99999999999773
 31
0.0
1001
ACDBBLOCKREPETAG
1070
     1
1071
        9
1005
1348AB
  0
LINE
  5
1348AC
  8
OBJECT
 10
1925.0
 20
-799.99999999999773
 30
0.0
 11
1930.0
 21
-839.99999999999795
 31
0.0
1001
ACDBBLOCKREPETAG
1070
     1
1071
       10
1005
1348AC
  0
LINE
  5
1348AD
  8
OBJECT
 10
2070.0
 20
-839.99999999999795
 30
0.0
 11
2075.0
 21
-799.99999999999773
 31
0.0
1001
ACDBBLOCKREPETAG
1070
     1
1071
       11
1005
1348AD
  0
TEXT
  5
1348AE
  8
SLIM
 10
3824.5999999999999
 20
-1408.999999999997
 30
0.0
 40
28.0
  1
※ 対応スラブ厚　180～200
 41
0.75
  0
TEXT
  5
1348AF
  8
SLIM
 10
3611.5
 20
-1502.3333333333301
 30
0.0
 40
28.0
  1
国土交通大臣認定・（財）日本消防設備安全センター性能評定取得品
 41
0.75
  0
TEXT
  5
1348B0
  8
SLIM
 10
3631.1000000000022
 20
-1548.999999999997
 30
0.0
 40
28.0
  1
注）ご採用にあたり、認定書及び評定書の内容をご確認ください。
 41
0.75
  0
TEXT
  5
1348B1
  8
SLIM
 10
3741.6250000000009
 20
-1347.499999999997
 30
0.0
 40
35.0
  1
片受けスタイル（S）＋シンドカット
 41
0.75
  0
TEXT
  5
1348B2
  8
SLIM
 10
1856.25
 20
-1347.499999999998
 30
0.0
 40
35.0
  1
片受けスタイル（S）
 41
0.75
  0
TEXT
  5
1351A9
  8
SLIM
 10
1850.0
 20
532.5
 30
0.0
 40
75.0
  1
側面図の代表機種
 41
0.75
  0
VIEWPORT
  5
F6BA7
 67
     1
  8
0
 10
145.33033752441401
 20
101.8328354358673
 30
0.0
 40
334.0025019414623
 41
222.19657968139651
 68
     1
 69
     1
1001
ACAD
1000
MVIEW
1002
{
1070
    16
1010
0.0
1020
0.0
1030
0.0
1010
0.0
1020
0.0
1030
1.0
1040
0.0
1040
222.19657968139651
1040
145.33033752441401
1040
101.8328354358673
1040
50.0
1040
0.0
1040
0.0
1070
     0
1070
     0
1070
     1
1070
     1
1070
     0
1070
     0
1070
     0
1070
     0
1040
0.0
1040
0.0
1040
0.0
1040
10.0
1040
10.0
1040
10.0
1040
10.0
1070
     0
1002
{
1002
}
1002
}
  0
VIEWPORT
  5
F6BA9
 67
     1
  8
OBJECT
 10
145.3303314447403
 20
101.8328338861465
 30
0.0
 40
232.5285303115844
 41
162.93253421783439
 68
     2
 69
     2
1001
ACAD
1000
MVIEW
1002
{
1070
    16
1010
0.0
1020
0.0
1030
0.0
1010
0.0
1020
0.0
1030
1.0
1040
0.0
1040
25942.55904403147
1040
2377.604457077377
1040
-7591.5176687056619
1040
50.0
1040
0.0
1040
0.0
1070
     0
1070
   600
1070
     1
1070
     1
1070
     0
1070
     0
1070
     0
1070
     0
1040
0.0
1040
0.0
1040
0.0
1040
1.0
1040
1.0
1040
0.0
1040
0.0
1070
     0
1002
{
1002
}
1002
}
  0
ENDSEC
  0
EOF
