  0
SECTION
  2
HEADER
  9
$ACADVER
  1
AC1009
  9
$INSBASE
 10
0.0
 20
0.0
 30
0.0
  9
$EXTMIN
 10
0.0
 20
-3711.9999999987349
 30
0.0
  9
$EXTMAX
 10
5575.0
 20
607.5
 30
0.0
  9
$LIMMIN
 10
0.0
 20
0.0
  9
$LIMMAX
 10
210.0
 20
297.0
  9
$ORTHOMODE
 70
     0
  9
$REGENMODE
 70
     1
  9
$FILLMODE
 70
     1
  9
$QTEXTMODE
 70
     0
  9
$MIRRTEXT
 70
     0
  9
$DRAGMODE
 70
     2
  9
$LTSCALE
 40
1.0
  9
$OSMODE
 70
  2557
  9
$ATTMODE
 70
     1
  9
$TEXTSIZE
 40
4.0
  9
$TRACEWID
 40
0.05
  9
$TEXTSTYLE
  7
STANDARD
  9
$CLAYER
  8
OBJECT
  9
$CELTYPE
  6
BYLAYER
  9
$CECOLOR
 62
   256
  9
$DIMSCALE
 40
10.0
  9
$DIMASZ
 40
2.0
  9
$DIMEXO
 40
1.0
  9
$DIMDLI
 40
10.0
  9
$DIMRND
 40
0.0
  9
$DIMDLE
 40
0.0
  9
$DIMEXE
 40
1.0
  9
$DIMTP
 40
0.0
  9
$DIMTM
 40
0.0
  9
$DIMTXT
 40
3.2000000000000002
  9
$DIMCEN
 40
0.0
  9
$DIMTSZ
 40
0.0
  9
$DIMTOL
 70
     0
  9
$DIMLIM
 70
     0
  9
$DIMTIH
 70
     0
  9
$DIMTOH
 70
     0
  9
$DIMSE1
 70
     0
  9
$DIMSE2
 70
     0
  9
$DIMTAD
 70
     1
  9
$DIMZIN
 70
     8
  9
$DIMBLK
  1
OPEN30
  9
$DIMASO
 70
     1
  9
$DIMSHO
 70
     1
  9
$DIMPOST
  1

  9
$DIMAPOST
  1

  9
$DIMALT
 70
     0
  9
$DIMALTD
 70
     2
  9
$DIMALTF
 40
25.399999999999999
  9
$DIMLFAC
 40
1.0
  9
$DIMTOFL
 70
     1
  9
$DIMTVP
 40
0.0
  9
$DIMTIX
 70
     0
  9
$DIMSOXD
 70
     0
  9
$DIMSAH
 70
     0
  9
$DIMBLK1
  1

  9
$DIMBLK2
  1

  9
$DIMSTYLE
  2
S10
  9
$DIMCLRD
 70
   256
  9
$DIMCLRE
 70
   256
  9
$DIMCLRT
 70
   256
  9
$DIMTFAC
 40
1.0
  9
$DIMGAP
 40
0.9
  9
$LUNITS
 70
     2
  9
$LUPREC
 70
     2
  9
$SKETCHINC
 40
0.1
  9
$FILLETRAD
 40
0.0
  9
$AUNITS
 70
     0
  9
$AUPREC
 70
     2
  9
$MENU
  1
ACAD
  9
$ELEVATION
 40
0.0
  9
$PELEVATION
 40
0.0
  9
$THICKNESS
 40
0.0
  9
$LIMCHECK
 70
     0
  9
$BLIPMODE
 70
     0
  9
$CHAMFERA
 40
2.0
  9
$CHAMFERB
 40
2.0
  9
$SKPOLY
 70
     0
  9
$TDCREATE
 40
2453095.4929404748
  9
$TDUPDATE
 40
2456535.641595718
  9
$TDINDWG
 40
18.3923244213
  9
$TDUSRTIMER
 40
18.392323703700001
  9
$USRTIMER
 70
     1
  9
$ANGBASE
 50
0.0
  9
$ANGDIR
 70
     0
  9
$PDMODE
 70
    35
  9
$PDSIZE
 40
2.0
  9
$PLINEWID
 40
0.0
  9
$COORDS
 70
     1
  9
$SPLFRAME
 70
     0
  9
$SPLINETYPE
 70
     6
  9
$SPLINESEGS
 70
     8
  9
$ATTDIA
 70
     1
  9
$ATTREQ
 70
     1
  9
$HANDLING
 70
     1
  9
$HANDSEED
  5
13A52C
  9
$SURFTAB1
 70
     6
  9
$SURFTAB2
 70
     6
  9
$SURFTYPE
 70
     6
  9
$SURFU
 70
     6
  9
$SURFV
 70
     6
  9
$UCSNAME
  2

  9
$UCSORG
 10
0.0
 20
0.0
 30
0.0
  9
$UCSXDIR
 10
1.0
 20
0.0
 30
0.0
  9
$UCSYDIR
 10
0.0
 20
1.0
 30
0.0
  9
$PUCSNAME
  2

  9
$PUCSORG
 10
0.0
 20
0.0
 30
0.0
  9
$PUCSXDIR
 10
1.0
 20
0.0
 30
0.0
  9
$PUCSYDIR
 10
0.0
 20
1.0
 30
0.0
  9
$USERI1
 70
     0
  9
$USERI2
 70
     0
  9
$USERI3
 70
     0
  9
$USERI4
 70
     0
  9
$USERI5
 70
     0
  9
$USERR1
 40
0.0
  9
$USERR2
 40
0.0
  9
$USERR3
 40
0.0
  9
$USERR4
 40
0.0
  9
$USERR5
 40
0.0
  9
$WORLDVIEW
 70
     1
  9
$SHADEDGE
 70
     3
  9
$SHADEDIF
 70
    70
  9
$TILEMODE
 70
     1
  9
$MAXACTVP
 70
    64
  9
$PLIMCHECK
 70
     0
  9
$PEXTMIN
 10
29.066066288948051
 20
20.366566777229309
 30
0.0
  9
$PEXTMAX
 10
261.5945966005325
 20
183.29910099506381
 30
0.0
  9
$PLIMMIN
 10
-3.17498779296875
 20
-3.1749999523162842
  9
$PLIMMAX
 10
293.83566284179687
 20
206.8406708240509
  9
$UNITMODE
 70
     0
  9
$VISRETAIN
 70
     1
  9
$PLINEGEN
 70
     0
  9
$PSLTSCALE
 70
     1
  0
ENDSEC
  0
SECTION
  2
TABLES
  0
TABLE
  2
VPORT
 70
     1
  0
VPORT
  2
*ACTIVE
 70
     0
 10
0.0
 20
0.0
 11
1.0
 21
1.0
 12
3414.5991785399378
 22
-1663.3455647424059
 13
0.0
 23
0.0
 14
1.0
 24
1.0
 15
0.0
 25
0.0
 16
0.0
 26
0.0
 36
1.0
 17
0.0
 27
0.0
 37
0.0
 40
9564.4930015769114
 41
1.958525345622119
 42
50.0
 43
0.0
 44
0.0
 50
0.0
 51
0.0
 71
     0
 72
   600
 73
     1
 74
     1
 75
     0
 76
     0
 77
     0
 78
     0
  0
ENDTAB
  0
TABLE
  2
LTYPE
 70
     3
  0
LTYPE
  2
CONTINUOUS
 70
     0
  3
Solid line
 72
    65
 73
     0
 40
0.0
  0
LTYPE
  2
ACAD_ISO08W100
 70
     0
  3
ISO long-dash short-dash ____ __ ____ __ ____ _
 72
    65
 73
     4
 40
36.0
 49
24.0
 49
-3.0
 49
6.0
 49
-3.0
  0
LTYPE
  2
ACAD_ISO02W100
 70
     0
  3
ISO dash __ __ __ __ __ __ __ __ __ __ __ __ __
 72
    65
 73
     2
 40
15.0
 49
12.0
 49
-3.0
  0
ENDTAB
  0
TABLE
  2
LAYER
 70
     9
  0
LAYER
  2
0
 70
     0
 62
     7
  6
CONTINUOUS
  0
LAYER
  2
OBJECT
 70
     0
 62
     4
  6
CONTINUOUS
  0
LAYER
  2
DEFPOINTS
 70
     0
 62
     7
  6
CONTINUOUS
  0
LAYER
  2
DIM
 70
     0
 62
     7
  6
CONTINUOUS
  0
LAYER
  2
HIDDEN
 70
     0
 62
     2
  6
ACAD_ISO02W100
  0
LAYER
  2
CENTER
 70
     0
 62
     2
  6
ACAD_ISO08W100
  0
LAYER
  2
DOTS
 70
     0
 62
     1
  6
CONTINUOUS
  0
LAYER
  2
SLIM
 70
     0
 62
     2
  6
CONTINUOUS
  0
ENDTAB
  0
TABLE
  2
STYLE
 70
     2
  0
STYLE
  2
STANDARD
 70
     0
 40
0.0
 41
0.75
 50
0.0
 71
     0
 42
4.0
  3
simplex.shx
  4
bigfont.shx
  0
ENDTAB
  0
TABLE
  2
VIEW
 70
     0
  0
ENDTAB
  0
TABLE
  2
UCS
 70
     0
  0
ENDTAB
  0
TABLE
  2
APPID
 70
    18
  0
APPID
  2
ACAD
 70
     0
  0
APPID
  2
ACADANNOTATIVE
 70
     0
  0
APPID
  2
ACAD_PSEXT
 70
     0
  0
APPID
  2
ACAD_EXEMPT_FROM_CAD_STANDARDS
 70
     0
  0
APPID
  2
ACAECLAYERSTANDARD
 70
     0
  0
APPID
  2
ACAUTHENVIRON
 70
     0
  0
APPID
  2
ACDBDYNAMICBLOCKTRUENAME
 70
     0
  0
APPID
  2
ACDBDYNAMICBLOCKGUID
 70
     0
  0
APPID
  2
ACDBBLOCKREPETAG
 70
     0
  0
APPID
  2
ACDBBLOCKREPBTAG
 70
     0
  0
APPID
  2
ACAD_NAV_VCDISPLAY
 70
     0
  0
APPID
  2
ACAD_DSTYLE_DIMRADIAL_EXTENSION
 70
     0
  0
APPID
  2
ACAD_DSTYLE_DIMJAG
 70
     0
  0
APPID
  2
ACAD_DSTYLE_DIMTALN
 70
     0
  0
APPID
  2
ACADANNOPO
 70
     0
  0
APPID
  2
GRADIENTCOLOR1ACI
 70
     0
  0
APPID
  2
GRADIENTCOLOR2ACI
 70
     0
  0
APPID
  2
ACAD_MLEADERVER
 70
     0
  0
ENDTAB
  0
TABLE
  2
DIMSTYLE
 70
     3
  0
DIMSTYLE
  2
STANDARD
 70
     0
  3

  4

  5

  6

  7

 40
1.0
 41
0.18
 42
0.0625
 43
0.38
 44
0.18
 45
0.0
 46
0.0
 47
0.0
 48
0.0
140
0.18
141
0.09
142
0.0
143
25.399999999999999
144
1.0
145
0.0
146
1.0
147
0.09
 71
     0
 72
     0
 73
     1
 74
     1
 75
     0
 76
     0
 77
     0
 78
     0
170
     0
171
     2
172
     0
173
     0
174
     0
175
     0
176
     0
177
     0
178
     0
  0
DIMSTYLE
  2
S10
 70
     0
  3

  4

  5

  6

  7

 40
10.0
 41
2.0
 42
1.0
 43
10.0
 44
1.0
 45
0.0
 46
0.0
 47
0.0
 48
0.0
140
3.2000000000000002
141
0.0
142
0.0
143
25.399999999999999
144
1.0
145
0.0
146
1.0
147
0.9
 71
     0
 72
     0
 73
     0
 74
     0
 75
     0
 76
     0
 77
     1
 78
     8
170
     0
171
     2
172
     1
173
     0
174
     0
175
     0
176
   256
177
   256
178
   256
  0
ENDTAB
  0
ENDSEC
  0
SECTION
  2
BLOCKS
  0
BLOCK
  8
0
  2
$MODEL_SPACE
 70
     0
 10
0.0
 20
0.0
 30
0.0
  3
$MODEL_SPACE
  1

  0
ENDBLK
  5
13A3BF
  8
0
  0
BLOCK
 67
     1
  8
0
  2
$PAPER_SPACE
 70
     0
 10
0.0
 20
0.0
 30
0.0
  3
$PAPER_SPACE
  1

  0
ENDBLK
  5
13A3BB
 67
     1
  8
0
  0
BLOCK
  8
0
  2
_OPEN30
 70
     0
 10
0.0
 20
0.0
 30
0.0
  3
_OPEN30
  1

  0
LINE
  5
202
  8
0
  6
BYBLOCK
 62
     0
 10
-1.0
 20
0.26794919
 30
0.0
 11
0.0
 21
0.0
 31
0.0
  0
LINE
  5
203
  8
0
  6
BYBLOCK
 62
     0
 10
0.0
 20
0.0
 30
0.0
 11
-1.0
 21
-0.26794919
 31
0.0
  0
LINE
  5
204
  8
0
  6
BYBLOCK
 62
     0
 10
0.0
 20
0.0
 30
0.0
 11
-1.0
 21
0.0
 31
0.0
  0
ENDBLK
  5
206
  8
0
  0
BLOCK
  8
0
  2
*U41
 70
     1
 10
0.0
 20
0.0
 30
0.0
  3
*U41
  1

  0
TEXT
  5
13A274
  8
SLIM
 10
258.00000000003462
 20
-3446.952380953292
 30
0.0
 40
26.0
  1
75
 50
270.0
  0
ENDBLK
  5
13A276
  8
0
  0
BLOCK
  8
0
  2
*U42
 70
     1
 10
0.0
 20
0.0
 30
0.0
  3
*U42
  1

  0
TEXT
  5
13A278
  8
SLIM
 10
125.0476190476536
 20
-3358.7500000009122
 30
0.0
 40
26.0
  1
100
  0
ENDBLK
  5
13A27A
  8
0
  0
BLOCK
  8
0
  2
*U43
 70
     1
 10
0.0
 20
0.0
 30
0.0
  3
*U43
  1

  0
TEXT
  5
13A27C
  8
SLIM
 10
625.2500000001146
 20
-3437.047619048531
 30
0.0
 40
26.0
  1
100
 50
270.0
  0
ENDBLK
  5
13A27E
  8
0
  0
BLOCK
  8
0
  2
*U44
 70
     1
 10
0.0
 20
0.0
 30
0.0
  3
*U44
  1

  0
TEXT
  5
13A280
  8
SLIM
 10
485.04761904773358
 20
-3358.7500000009122
 30
0.0
 40
26.0
  1
100
  0
ENDBLK
  5
13A282
  8
0
  0
BLOCK
  8
0
  2
*U45
 70
     1
 10
0.0
 20
0.0
 30
0.0
  3
*U45
  1

  0
TEXT
  5
13A284
  8
SLIM
 10
618.0000000001146
 20
-2982.9523809532861
 30
0.0
 40
26.0
  1
65
 50
270.0
  0
ENDBLK
  5
13A286
  8
0
  0
BLOCK
  8
0
  2
*U46
 70
     1
 10
0.0
 20
0.0
 30
0.0
  3
*U46
  1

  0
TEXT
  5
13A288
  8
SLIM
 10
485.04761904773358
 20
-2894.7500000009049
 30
0.0
 40
26.0
  1
100
  0
ENDBLK
  5
13A28A
  8
0
  0
BLOCK
  8
0
  2
*U47
 70
     1
 10
0.0
 20
0.0
 30
0.0
  3
*U47
  1

  0
TEXT
  5
13A28C
  8
SLIM
 10
258.00000000003462
 20
-2982.9523809532861
 30
0.0
 40
26.0
  1
50
 50
270.0
  0
ENDBLK
  5
13A28E
  8
0
  0
BLOCK
  8
0
  2
*U48
 70
     1
 10
0.0
 20
0.0
 30
0.0
  3
*U48
  1

  0
TEXT
  5
13A290
  8
SLIM
 10
125.0476190476536
 20
-2894.7500000009049
 30
0.0
 40
26.0
  1
100
  0
ENDBLK
  5
13A292
  8
0
  0
BLOCK
  8
0
  2
*U49
 70
     1
 10
0.0
 20
0.0
 30
0.0
  3
*U49
  1

  0
TEXT
  5
13A294
  8
SLIM
 10
258.00000000003462
 20
-2518.9523809532802
 30
0.0
 40
26.0
  1
75
 50
270.0
  0
ENDBLK
  5
13A296
  8
0
  0
BLOCK
  8
0
  2
*U50
 70
     1
 10
0.0
 20
0.0
 30
0.0
  3
*U50
  1

  0
TEXT
  5
13A298
  8
SLIM
 10
134.9523809524155
 20
-2438.0000000008981
 30
0.0
 40
26.0
  1
75
  0
ENDBLK
  5
13A29A
  8
0
  0
BLOCK
  8
0
  2
*U51
 70
     1
 10
0.0
 20
0.0
 30
0.0
  3
*U51
  1

  0
TEXT
  5
13A29C
  8
SLIM
 10
625.2500000001146
 20
-2509.0476190485178
 30
0.0
 40
26.0
  1
100
 50
270.0
  0
ENDBLK
  5
13A29E
  8
0
  0
BLOCK
  8
0
  2
*U52
 70
     1
 10
0.0
 20
0.0
 30
0.0
  3
*U52
  1

  0
TEXT
  5
13A2A0
  8
SLIM
 10
494.95238095249539
 20
-2438.0000000008981
 30
0.0
 40
26.0
  1
75
  0
ENDBLK
  5
13A2A2
  8
0
  0
BLOCK
  8
0
  2
*U53
 70
     1
 10
0.0
 20
0.0
 30
0.0
  3
*U53
  1

  0
TEXT
  5
13A2A4
  8
SLIM
 10
618.0000000001146
 20
-2054.952380953273
 30
0.0
 40
26.0
  1
65
 50
270.0
  0
ENDBLK
  5
13A2A6
  8
0
  0
BLOCK
  8
0
  2
*U54
 70
     1
 10
0.0
 20
0.0
 30
0.0
  3
*U54
  1

  0
TEXT
  5
13A2A8
  8
SLIM
 10
494.95238095249539
 20
-1974.000000000892
 30
0.0
 40
26.0
  1
75
  0
ENDBLK
  5
13A2AA
  8
0
  0
BLOCK
  8
0
  2
*U55
 70
     1
 10
0.0
 20
0.0
 30
0.0
  3
*U55
  1

  0
TEXT
  5
13A2AC
  8
SLIM
 10
258.00000000003462
 20
-2054.952380953273
 30
0.0
 40
26.0
  1
50
 50
270.0
  0
ENDBLK
  5
13A2AE
  8
0
  0
BLOCK
  8
0
  2
*U56
 70
     1
 10
0.0
 20
0.0
 30
0.0
  3
*U56
  1

  0
TEXT
  5
13A2B0
  8
SLIM
 10
134.9523809524155
 20
-1974.000000000892
 30
0.0
 40
26.0
  1
75
  0
ENDBLK
  5
13A2B2
  8
0
  0
BLOCK
  8
0
  2
*U57
 70
     1
 10
0.0
 20
0.0
 30
0.0
  3
*U57
  1

  0
TEXT
  5
13A2B4
  8
SLIM
 10
258.00000000003462
 20
-1590.9523809532659
 30
0.0
 40
26.0
  1
75
 50
270.0
  0
ENDBLK
  5
13A2B6
  8
0
  0
BLOCK
  8
0
  2
*U58
 70
     1
 10
0.0
 20
0.0
 30
0.0
  3
*U58
  1

  0
TEXT
  5
13A2B8
  8
SLIM
 10
134.9523809524155
 20
-1510.0000000008849
 30
0.0
 40
26.0
  1
65
  0
ENDBLK
  5
13A2BA
  8
0
  0
BLOCK
  8
0
  2
*U59
 70
     1
 10
0.0
 20
0.0
 30
0.0
  3
*U59
  1

  0
TEXT
  5
13A2BC
  8
SLIM
 10
625.2500000001146
 20
-1581.047619048504
 30
0.0
 40
26.0
  1
100
 50
270.0
  0
ENDBLK
  5
13A2BE
  8
0
  0
BLOCK
  8
0
  2
*U60
 70
     1
 10
0.0
 20
0.0
 30
0.0
  3
*U60
  1

  0
TEXT
  5
13A2C0
  8
SLIM
 10
494.95238095249539
 20
-1510.0000000008849
 30
0.0
 40
26.0
  1
65
  0
ENDBLK
  5
13A2C2
  8
0
  0
BLOCK
  8
0
  2
*U61
 70
     1
 10
0.0
 20
0.0
 30
0.0
  3
*U61
  1

  0
TEXT
  5
13A2C4
  8
SLIM
 10
618.0000000001146
 20
-1126.9523809532591
 30
0.0
 40
26.0
  1
65
 50
270.0
  0
ENDBLK
  5
13A2C6
  8
0
  0
BLOCK
  8
0
  2
*U62
 70
     1
 10
0.0
 20
0.0
 30
0.0
  3
*U62
  1

  0
TEXT
  5
13A2C8
  8
SLIM
 10
494.95238095249539
 20
-1046.0000000008779
 30
0.0
 40
26.0
  1
65
  0
ENDBLK
  5
13A2CA
  8
0
  0
BLOCK
  8
0
  2
*U63
 70
     1
 10
0.0
 20
0.0
 30
0.0
  3
*U63
  1

  0
TEXT
  5
13A2CC
  8
SLIM
 10
258.00000000003462
 20
-1126.9523809532591
 30
0.0
 40
26.0
  1
50
 50
270.0
  0
ENDBLK
  5
13A2CE
  8
0
  0
BLOCK
  8
0
  2
*U64
 70
     1
 10
0.0
 20
0.0
 30
0.0
  3
*U64
  1

  0
TEXT
  5
13A2D0
  8
SLIM
 10
134.9523809524155
 20
-1046.0000000008779
 30
0.0
 40
26.0
  1
65
  0
ENDBLK
  5
13A2D2
  8
0
  0
BLOCK
  8
0
  2
*U65
 70
     1
 10
0.0
 20
0.0
 30
0.0
  3
*U65
  1

  0
TEXT
  5
13A2D4
  8
SLIM
 10
258.00000000003462
 20
-662.95238095325271
 30
0.0
 40
26.0
  1
75
 50
270.0
  0
ENDBLK
  5
13A2D6
  8
0
  0
BLOCK
  8
0
  2
*U66
 70
     1
 10
0.0
 20
0.0
 30
0.0
  3
*U66
  1

  0
TEXT
  5
13A2D8
  8
SLIM
 10
134.9523809524155
 20
-582.00000000087175
 30
0.0
 40
26.0
  1
50
  0
ENDBLK
  5
13A2DA
  8
0
  0
BLOCK
  8
0
  2
*U67
 70
     1
 10
0.0
 20
0.0
 30
0.0
  3
*U67
  1

  0
TEXT
  5
13A2DC
  8
SLIM
 10
625.2500000001146
 20
-653.04761904849079
 30
0.0
 40
26.0
  1
100
 50
270.0
  0
ENDBLK
  5
13A2DE
  8
0
  0
BLOCK
  8
0
  2
*U68
 70
     1
 10
0.0
 20
0.0
 30
0.0
  3
*U68
  1

  0
TEXT
  5
13A2E0
  8
SLIM
 10
494.95238095249539
 20
-582.00000000087175
 30
0.0
 40
26.0
  1
50
  0
ENDBLK
  5
13A2E2
  8
0
  0
BLOCK
  8
0
  2
*U69
 70
     1
 10
0.0
 20
0.0
 30
0.0
  3
*U69
  1

  0
TEXT
  5
13A2E4
  8
SLIM
 10
618.0000000001146
 20
-198.95238095324621
 30
0.0
 40
26.0
  1
65
 50
270.0
  0
ENDBLK
  5
13A2E6
  8
0
  0
BLOCK
  8
0
  2
*U70
 70
     1
 10
0.0
 20
0.0
 30
0.0
  3
*U70
  1

  0
TEXT
  5
13A2E8
  8
SLIM
 10
494.95238095249539
 20
-118.0000000008653
 30
0.0
 40
26.0
  1
50
  0
ENDBLK
  5
13A2EA
  8
0
  0
BLOCK
  8
0
  2
*U71
 70
     1
 10
0.0
 20
0.0
 30
0.0
  3
*U71
  1

  0
TEXT
  5
13A2EC
  8
SLIM
 10
258.00000000003462
 20
-198.95238095324621
 30
0.0
 40
26.0
  1
50
 50
270.0
  0
ENDBLK
  5
13A2EE
  8
0
  0
BLOCK
  8
0
  2
*U72
 70
     1
 10
0.0
 20
0.0
 30
0.0
  3
*U72
  1

  0
TEXT
  5
13A2F0
  8
SLIM
 10
134.9523809524155
 20
-118.0000000008653
 30
0.0
 40
26.0
  1
50
  0
ENDBLK
  5
13A2F2
  8
0
  0
BLOCK
  8
0
  2
*U73
 70
     1
 10
0.0
 20
0.0
 30
0.0
  3
*U73
  1

  0
TEXT
  5
13A344
  8
DIM
 10
2209.479620594459
 20
-3184.1428571428528
 30
0.0
 40
32.0
  1
A
 50
90.0
 41
0.75
  0
ENDBLK
  5
13A346
  8
0
  0
BLOCK
  8
0
  2
*U74
 70
     1
 10
0.0
 20
0.0
 30
0.0
  3
*U74
  1

  0
TEXT
  5
13A348
  8
DIM
 10
2207.8409284037348
 20
-3565.9999999999959
 30
0.0
 40
32.0
  1
B
 50
90.0
 41
0.75
  0
ENDBLK
  5
13A34A
  8
0
  0
BLOCK
  8
0
  2
*U75
 70
     1
 10
0.0
 20
0.0
 30
0.0
  3
*U75
  1

  0
TEXT
  5
13A34C
  8
DIM
 10
2061.428571428572
 20
-3038.208121984444
 30
0.0
 40
32.0
  1
C
 41
0.75
  0
ENDBLK
  5
13A34E
  8
0
  0
ENDSEC
  0
SECTION
  2
ENTITIES
  0
LINE
  5
1295F8
  8
OBJECT
 10
1825.0
 20
-3579.9999999999959
 30
0.0
 11
5575.0
 21
-3579.9999999999959
 31
0.0
  0
LINE
  5
1295FA
  8
SLIM
 10
2616.0
 20
-2637.50001604727
 30
0.0
 11
2616.0
 21
-2967.50001604727
 31
0.0
  0
LINE
  5
1295FB
  8
SLIM
 10
2740.0
 20
-2637.50001604727
 30
0.0
 11
2740.0
 21
-2967.50001604727
 31
0.0
  0
LINE
  5
1295FC
  8
SLIM
 10
2870.0
 20
-2697.50001604727
 30
0.0
 11
2870.0
 21
-2967.50001604727
 31
0.0
  0
LINE
  5
1295FD
  8
SLIM
 10
3000.0
 20
-2697.50001604727
 30
0.0
 11
3000.0
 21
-2967.50001604727
 31
0.0
  0
LINE
  5
1295FE
  8
SLIM
 10
3130.0
 20
-2967.50001604727
 30
0.0
 11
3130.0
 21
-2697.50001604727
 31
0.0
  0
LINE
  5
1295FF
  8
SLIM
 10
3260.0
 20
-2967.50001604727
 30
0.0
 11
3260.0
 21
-2637.50001604727
 31
0.0
  0
LINE
  5
129600
  8
SLIM
 10
3260.0
 20
-2637.50001604727
 30
0.0
 11
2616.0
 21
-2637.50001604727
 31
0.0
  0
LINE
  5
129601
  8
SLIM
 10
3260.0
 20
-2697.50001604727
 30
0.0
 11
2740.0
 21
-2697.50001604727
 31
0.0
  0
LINE
  5
129602
  8
SLIM
 10
3260.0
 20
-2757.50001604727
 30
0.0
 11
2616.0
 21
-2757.50001604727
 31
0.0
  0
LINE
  5
129603
  8
SLIM
 10
3260.0
 20
-2827.50001604727
 30
0.0
 11
2616.0
 21
-2827.50001604727
 31
0.0
  0
LINE
  5
129604
  8
SLIM
 10
3260.0
 20
-2897.50001604727
 30
0.0
 11
2616.0
 21
-2897.50001604727
 31
0.0
  0
LINE
  5
129605
  8
SLIM
 10
3260.0
 20
-2967.50001604727
 30
0.0
 11
2616.0
 21
-2967.50001604727
 31
0.0
  0
LINE
  5
12961A
  8
SLIM
 10
2740.0
 20
-2757.50001604727
 30
0.0
 11
2615.9999722746579
 21
-2637.5
 31
0.0
  0
LINE
  5
12964F
  8
OBJECT
 10
5323.0
 20
-3395.9999999999968
 30
0.0
 11
5323.0
 21
-3374.9999999999968
 31
0.0
1001
ACDBBLOCKREPETAG
1070
     1
1071
       20
1005
12964F
  0
LINE
  5
129650
  8
OBJECT
 10
5323.0
 20
-3374.9999999999968
 30
0.0
 11
5477.0
 21
-3374.9999999999968
 31
0.0
1001
ACDBBLOCKREPETAG
1070
     1
1071
       21
1005
129650
  0
LINE
  5
129651
  8
HIDDEN
 10
5343.0
 20
-3444.9999999999968
 30
0.0
 11
5457.0
 21
-3444.9999999999968
 31
0.0
1001
ACDBBLOCKREPETAG
1070
     1
1071
       22
1005
129651
  0
LINE
  5
129652
  8
OBJECT
 10
5477.0
 20
-3374.9999999999968
 30
0.0
 11
5477.0
 21
-3395.9999999999968
 31
0.0
1001
ACDBBLOCKREPETAG
1070
     1
1071
       23
1005
129652
  0
LINE
  5
129653
  8
OBJECT
 10
5477.0
 20
-3395.9999999999968
 30
0.0
 11
5323.0
 21
-3395.9999999999968
 31
0.0
1001
ACDBBLOCKREPETAG
1070
     1
1071
       24
1005
129653
  0
LINE
  5
129654
  8
CENTER
 10
5400.0
 20
-3359.9999999999968
 30
0.0
 11
5400.0
 21
-3594.9999999999968
 31
0.0
1001
ACDBBLOCKREPETAG
1070
     1
1071
       25
1005
129654
  0
LINE
  5
129655
  8
OBJECT
 10
5325.0
 20
-3458.9999999999968
 30
0.0
 11
5325.0
 21
-3582.9999999999968
 31
0.0
1001
ACDBBLOCKREPETAG
1070
     1
1071
       26
1005
129655
  0
LINE
  5
129656
  8
OBJECT
 10
5328.0
 20
-3395.9999999999968
 30
0.0
 11
5328.0
 21
-3458.9999999999968
 31
0.0
1001
ACDBBLOCKREPETAG
1070
     1
1071
       27
1005
129656
  0
LINE
  5
129657
  8
OBJECT
 10
5472.0
 20
-3458.9999999999968
 30
0.0
 11
5472.0
 21
-3395.9999999999968
 31
0.0
1001
ACDBBLOCKREPETAG
1070
     1
1071
       28
1005
129657
  0
LINE
  5
129658
  8
OBJECT
 10
5475.0
 20
-3458.9999999999968
 30
0.0
 11
5456.7802782663139
 21
-3458.9999999999968
 31
0.0
1001
ACDBBLOCKREPETAG
1070
     1
1071
       30
1005
129658
  0
LINE
  5
129659
  8
OBJECT
 10
5475.0
 20
-3458.9999999999968
 30
0.0
 11
5475.0
 21
-3582.9999999999968
 31
0.0
1001
ACDBBLOCKREPETAG
1070
     1
1071
       34
1005
129659
  0
POINT
  5
12965A
  8
DOTS
 10
5400.0
 20
-3579.9999999999968
 30
0.0
1001
ACDBBLOCKREPETAG
1070
     1
1071
      187
1005
12965A
  0
LINE
  5
12965B
  8
CENTER
 10
5310.0
 20
-3507.9999999999968
 30
0.0
 11
5490.0
 21
-3507.9999999999968
 31
0.0
1001
ACDBBLOCKREPETAG
1070
     1
1071
       23
1005
12965B
  0
CIRCLE
  5
12965C
  8
OBJECT
 10
5400.0
 20
-3507.9999999999968
 30
0.0
 40
53.5
1001
ACDBBLOCKREPETAG
1070
     1
1071
       24
1005
12965C
  0
CIRCLE
  5
12965D
  8
OBJECT
 10
5400.0
 20
-3507.9999999999968
 30
0.0
 40
67.0
1001
ACDBBLOCKREPETAG
1070
     1
1071
       25
1005
12965D
  0
ARC
  5
12965E
  8
OBJECT
 10
5400.0
 20
-3507.9999999999968
 30
0.0
 40
75.0
 50
286.26020470824
 51
253.73979529175989
1001
ACDBBLOCKREPETAG
1070
     1
1071
       27
1005
12965E
  0
LINE
  5
12965F
  8
OBJECT
 10
5379.0
 20
-3579.9999999999968
 30
0.0
 11
5421.0
 21
-3579.9999999999968
 31
0.0
1001
ACDBBLOCKREPETAG
1070
     1
1071
       28
1005
12965F
  0
LINE
  5
129660
  8
OBJECT
 10
5343.2197217336861
 20
-3458.9999999999968
 30
0.0
 11
5325.0
 21
-3458.9999999999968
 31
0.0
1001
ACDBBLOCKREPETAG
1070
     1
1071
       30
1005
129658
  0
TEXT
  5
137D0A
  8
SLIM
 10
-0.0000000000000011
 20
282.5
 30
0.0
 40
35.0
  1
※ 100枝（4）がある場合、品名の最後に【管底】が付きます。
 41
0.9
 11
0.0
 21
300.0
 31
0.0
 73
     2
  0
CIRCLE
  5
139175
  8
OBJECT
 10
5000.0
 20
-3174.9999999999959
 30
0.0
 40
53.5
1001
ACDBBLOCKREPETAG
1070
     1
1071
      344
1005
139175
  0
LINE
  5
139176
  8
CENTER
 10
5080.0
 20
-3174.9999999999959
 30
0.0
 11
4905.0
 21
-3174.9999999999959
 31
0.0
1001
ACDBBLOCKREPETAG
1070
     1
1071
       14
1005
139176
  0
LINE
  5
139177
  8
CENTER
 10
5000.0
 20
-3269.9999999999959
 30
0.0
 11
5000.0
 21
-3079.9999999999959
 31
0.0
1001
ACDBBLOCKREPETAG
1070
     1
1071
       15
1005
139177
  0
CIRCLE
  5
139178
  8
OBJECT
 10
5000.0
 20
-3174.9999999999959
 30
0.0
 40
70.0
1001
ACDBBLOCKREPETAG
1070
     1
1071
       16
1005
139178
  0
CIRCLE
  5
139179
  8
OBJECT
 10
5000.0
 20
-3174.9999999999959
 30
0.0
 40
77.0
1001
ACDBBLOCKREPETAG
1070
     1
1071
       17
1005
139179
  0
ARC
  5
13917A
  8
OBJECT
 10
5000.0
 20
-3174.9999999999959
 30
0.0
 40
80.0
 50
50.805032573882329
 51
309.19496742611773
1001
ACDBBLOCKREPETAG
1070
     1
1071
       18
1005
13917A
  0
LINE
  5
13917B
  8
OBJECT
 10
5045.6618002273253
 20
-3112.9999999999959
 30
0.0
 11
5080.0
 21
-3112.9999999999959
 31
0.0
1001
ACDBBLOCKREPETAG
1070
     1
1071
       19
1005
13917B
  0
LINE
  5
13917C
  8
OBJECT
 10
5045.6618002273253
 20
-3236.9999999999959
 30
0.0
 11
5080.0
 21
-3236.9999999999959
 31
0.0
1001
ACDBBLOCKREPETAG
1070
     1
1071
       20
1005
13917C
  0
POINT
  5
13917D
  8
DOTS
 10
5000.0
 20
-3174.9999999999959
 30
0.0
1001
ACDBBLOCKREPETAG
1070
     1
1071
       21
1005
13917D
  0
CIRCLE
  5
13917E
  8
OBJECT
 10
4000.0
 20
-3174.9999999999959
 30
0.0
 40
53.5
1001
ACDBBLOCKREPETAG
1070
     1
1071
      344
1005
13917E
  0
LINE
  5
13917F
  8
CENTER
 10
4080.0
 20
-3174.9999999999959
 30
0.0
 11
3905.0
 21
-3174.9999999999959
 31
0.0
1001
ACDBBLOCKREPETAG
1070
     1
1071
       14
1005
13917F
  0
LINE
  5
139180
  8
CENTER
 10
4000.0
 20
-3269.9999999999959
 30
0.0
 11
4000.0
 21
-3079.9999999999959
 31
0.0
1001
ACDBBLOCKREPETAG
1070
     1
1071
       15
1005
139180
  0
CIRCLE
  5
139181
  8
OBJECT
 10
4000.0
 20
-3174.9999999999959
 30
0.0
 40
70.0
1001
ACDBBLOCKREPETAG
1070
     1
1071
       16
1005
139181
  0
CIRCLE
  5
139182
  8
OBJECT
 10
4000.0
 20
-3174.9999999999959
 30
0.0
 40
77.0
1001
ACDBBLOCKREPETAG
1070
     1
1071
       17
1005
139182
  0
ARC
  5
139183
  8
OBJECT
 10
4000.0
 20
-3174.9999999999959
 30
0.0
 40
80.0
 50
50.805032573862128
 51
309.19496742613791
1001
ACDBBLOCKREPETAG
1070
     1
1071
       18
1005
139183
  0
LINE
  5
139184
  8
OBJECT
 10
4045.661800227324
 20
-3112.9999999999959
 30
0.0
 11
4080.0
 21
-3112.9999999999959
 31
0.0
1001
ACDBBLOCKREPETAG
1070
     1
1071
       19
1005
139184
  0
LINE
  5
139185
  8
OBJECT
 10
4045.661800227324
 20
-3236.9999999999959
 30
0.0
 11
4080.0
 21
-3236.9999999999959
 31
0.0
1001
ACDBBLOCKREPETAG
1070
     1
1071
       20
1005
139185
  0
POINT
  5
139186
  8
DOTS
 10
4000.0
 20
-3174.9999999999959
 30
0.0
1001
ACDBBLOCKREPETAG
1070
     1
1071
       21
1005
139186
  0
CIRCLE
  5
139187
  8
OBJECT
 10
3000.0
 20
-3174.9999999999959
 30
0.0
 40
53.5
1001
ACDBBLOCKREPETAG
1070
     1
1071
      344
1005
139187
  0
LINE
  5
139188
  8
CENTER
 10
3080.0
 20
-3174.9999999999959
 30
0.0
 11
2905.0
 21
-3174.9999999999959
 31
0.0
1001
ACDBBLOCKREPETAG
1070
     1
1071
       14
1005
139188
  0
LINE
  5
139189
  8
CENTER
 10
3000.0
 20
-3269.9999999999959
 30
0.0
 11
3000.0
 21
-3079.9999999999959
 31
0.0
1001
ACDBBLOCKREPETAG
1070
     1
1071
       15
1005
139189
  0
CIRCLE
  5
13918A
  8
OBJECT
 10
3000.0
 20
-3174.9999999999959
 30
0.0
 40
70.0
1001
ACDBBLOCKREPETAG
1070
     1
1071
       16
1005
13918A
  0
CIRCLE
  5
13918B
  8
OBJECT
 10
3000.0
 20
-3174.9999999999959
 30
0.0
 40
77.0
1001
ACDBBLOCKREPETAG
1070
     1
1071
       17
1005
13918B
  0
ARC
  5
13918C
  8
OBJECT
 10
3000.0
 20
-3174.9999999999959
 30
0.0
 40
80.0
 50
50.805032573862128
 51
309.19496742613791
1001
ACDBBLOCKREPETAG
1070
     1
1071
       18
1005
13918C
  0
LINE
  5
13918D
  8
OBJECT
 10
3045.6618002273249
 20
-3112.9999999999959
 30
0.0
 11
3080.0
 21
-3112.9999999999959
 31
0.0
1001
ACDBBLOCKREPETAG
1070
     1
1071
       19
1005
13918D
  0
LINE
  5
13918E
  8
OBJECT
 10
3045.6618002273249
 20
-3236.9999999999959
 30
0.0
 11
3080.0
 21
-3236.9999999999959
 31
0.0
1001
ACDBBLOCKREPETAG
1070
     1
1071
       20
1005
13918E
  0
POINT
  5
13918F
  8
DOTS
 10
3000.0
 20
-3174.9999999999959
 30
0.0
1001
ACDBBLOCKREPETAG
1070
     1
1071
       21
1005
13918F
  0
CIRCLE
  5
139190
  8
OBJECT
 10
2000.0
 20
-3174.9999999999959
 30
0.0
 40
53.5
1001
ACDBBLOCKREPETAG
1070
     1
1071
      344
1005
139190
  0
LINE
  5
139191
  8
CENTER
 10
2080.0
 20
-3174.9999999999959
 30
0.0
 11
1905.0
 21
-3174.9999999999959
 31
0.0
1001
ACDBBLOCKREPETAG
1070
     1
1071
       14
1005
139191
  0
LINE
  5
139192
  8
CENTER
 10
2000.0
 20
-3269.9999999999959
 30
0.0
 11
2000.0
 21
-3079.9999999999959
 31
0.0
1001
ACDBBLOCKREPETAG
1070
     1
1071
       15
1005
139192
  0
CIRCLE
  5
139193
  8
OBJECT
 10
2000.0
 20
-3174.9999999999959
 30
0.0
 40
70.0
1001
ACDBBLOCKREPETAG
1070
     1
1071
       16
1005
139193
  0
CIRCLE
  5
139194
  8
OBJECT
 10
2000.0
 20
-3174.9999999999959
 30
0.0
 40
77.0
1001
ACDBBLOCKREPETAG
1070
     1
1071
       17
1005
139194
  0
ARC
  5
139195
  8
OBJECT
 10
2000.0
 20
-3174.9999999999959
 30
0.0
 40
80.0
 50
50.805032573862128
 51
309.19496742613791
1001
ACDBBLOCKREPETAG
1070
     1
1071
       18
1005
139195
  0
LINE
  5
139196
  8
OBJECT
 10
2045.6618002273251
 20
-3112.9999999999959
 30
0.0
 11
2080.0
 21
-3112.9999999999959
 31
0.0
1001
ACDBBLOCKREPETAG
1070
     1
1071
       19
1005
139196
  0
LINE
  5
139197
  8
OBJECT
 10
2045.6618002273251
 20
-3236.9999999999959
 30
0.0
 11
2080.0
 21
-3236.9999999999959
 31
0.0
1001
ACDBBLOCKREPETAG
1070
     1
1071
       20
1005
139197
  0
POINT
  5
139198
  8
DOTS
 10
2000.0
 20
-3174.9999999999959
 30
0.0
1001
ACDBBLOCKREPETAG
1070
     1
1071
       21
1005
139198
  0
LINE
  5
139199
  8
SLIM
 10
3945.2566704261012
 20
-137.99999999999909
 30
0.0
 11
3955.9548403695781
 21
-127.30183005652231
 31
0.0
1001
GRADIENTCOLOR1ACI
1070
     5
1001
GRADIENTCOLOR2ACI
1070
     2
1001
ACAD
1010
0.0
1020
0.0
1030
0.0
1001
ACDBBLOCKREPETAG
1070
     1
1071
      422
1005
139199
  0
LINE
  5
13919A
  8
SLIM
 10
3954.2369265471712
 20
-137.99999999999909
 30
0.0
 11
3972.7507744763329
 21
-119.4861520708364
 31
0.0
1001
GRADIENTCOLOR1ACI
1070
     5
1001
GRADIENTCOLOR2ACI
1070
     2
1001
ACAD
1010
0.0
1020
0.0
1030
0.0
1001
ACDBBLOCKREPETAG
1070
     1
1071
      423
1005
13919A
  0
LINE
  5
13919B
  8
SLIM
 10
3973.521224312457
 20
-127.6959583557812
 30
0.0
 11
3984.8575146748631
 21
-116.359667993377
 31
0.0
1001
GRADIENTCOLOR1ACI
1070
     5
1001
GRADIENTCOLOR2ACI
1070
     2
1001
ACAD
1010
0.0
1020
0.0
1030
0.0
1001
ACDBBLOCKREPETAG
1070
     1
1071
      424
1005
13919B
  0
LINE
  5
13919C
  8
SLIM
 10
3985.8944171461271
 20
-124.30302164318159
 30
0.0
 11
3995.0533812002559
 21
-115.1440575890517
 31
0.0
1001
GRADIENTCOLOR1ACI
1070
     5
1001
GRADIENTCOLOR2ACI
1070
     2
1001
ACAD
1010
0.0
1020
0.0
1030
0.0
1001
ACDBBLOCKREPETAG
1070
     1
1071
      425
1005
13919C
  0
LINE
  5
13919D
  8
SLIM
 10
3996.0777327492078
 20
-123.0999621611699
 30
0.0
 11
4000.0
 21
-119.1776949103767
 31
0.0
1001
GRADIENTCOLOR1ACI
1070
     5
1001
GRADIENTCOLOR2ACI
1070
     2
1001
ACAD
1010
0.0
1020
0.0
1030
0.0
1001
ACDBBLOCKREPETAG
1070
     1
1071
      426
1005
13919D
  0
LINE
  5
13919E
  8
SLIM
 10
4000.0
 20
-119.1776949103767
 30
0.0
 11
4004.0797313529042
 21
-115.0979635574724
 31
0.0
1001
GRADIENTCOLOR1ACI
1070
     5
1001
GRADIENTCOLOR2ACI
1070
     2
1001
ACAD
1010
0.0
1020
0.0
1030
0.0
1001
ACDBBLOCKREPETAG
1070
     1
1071
      427
1005
13919E
  0
LINE
  5
13919F
  8
SLIM
 10
4004.9957202542769
 20
-123.1622307771683
 30
0.0
 11
4012.2679784105749
 21
-115.88997262087101
 31
0.0
1001
GRADIENTCOLOR1ACI
1070
     5
1001
GRADIENTCOLOR2ACI
1070
     2
1001
ACAD
1010
0.0
1020
0.0
1030
0.0
1001
ACDBBLOCKREPETAG
1070
     1
1071
      428
1005
13919F
  0
LINE
  5
1391A0
  8
SLIM
 10
4013.028059366964
 20
-124.1101477855505
 30
0.0
 11
4019.799941457361
 21
-117.3382656951526
 31
0.0
1001
GRADIENTCOLOR1ACI
1070
     5
1001
GRADIENTCOLOR2ACI
1070
     2
1001
ACAD
1010
0.0
1020
0.0
1030
0.0
1001
ACDBBLOCKREPETAG
1070
     1
1071
      429
1005
1391A0
  0
LINE
  5
1391A1
  8
SLIM
 10
4020.3740813142458
 20
-125.7443819593383
 30
0.0
 11
4026.7872038672799
 21
-119.3312594063044
 31
0.0
1001
GRADIENTCOLOR1ACI
1070
     5
1001
GRADIENTCOLOR2ACI
1070
     2
1001
ACAD
1010
0.0
1020
0.0
1030
0.0
1001
ACDBBLOCKREPETAG
1070
     1
1071
      430
1005
1391A1
  0
LINE
  5
1391A2
  8
SLIM
 10
4027.1524719988752
 20
-127.946247395778
 30
0.0
 11
4033.3030030760328
 21
-121.7957163186195
 31
0.0
1001
GRADIENTCOLOR1ACI
1070
     5
1001
GRADIENTCOLOR2ACI
1070
     2
1001
ACAD
1010
0.0
1020
0.0
1030
0.0
1001
ACDBBLOCKREPETAG
1070
     1
1071
      431
1005
1391A2
  0
LINE
  5
1391A3
  8
SLIM
 10
4033.4390986513308
 20
-130.63987686439191
 30
0.0
 11
4039.3973119843781
 21
-124.6816635313439
 31
0.0
1001
GRADIENTCOLOR1ACI
1070
     5
1001
GRADIENTCOLOR2ACI
1070
     2
1001
ACAD
1010
0.0
1020
0.0
1030
0.0
1001
ACDBBLOCKREPETAG
1070
     1
1071
      432
1005
1391A3
  0
LINE
  5
1391A4
  8
SLIM
 10
4039.284224621797
 20
-133.77500701499321
 30
0.0
 11
4045.1047705343681
 21
-127.95446110242381
 31
0.0
1001
GRADIENTCOLOR1ACI
1070
     5
1001
GRADIENTCOLOR2ACI
1070
     2
1001
ACAD
1010
0.0
1020
0.0
1030
0.0
1001
ACDBBLOCKREPETAG
1070
     1
1071
      433
1005
1391A4
  0
LINE
  5
1391A5
  8
SLIM
 10
4044.7212801698038
 20
-137.31820758805651
 30
0.0
 11
4050.4491557891961
 21
-131.59033196866449
 31
0.0
1001
GRADIENTCOLOR1ACI
1070
     5
1001
GRADIENTCOLOR2ACI
1070
     2
1001
ACAD
1010
0.0
1020
0.0
1030
0.0
1001
ACDBBLOCKREPETAG
1070
     1
1071
      434
1005
1391A5
  0
LINE
  5
1391A6
  8
SLIM
 10
4053.0197438789291
 20
-137.99999999999909
 30
0.0
 11
4055.4459941864038
 21
-135.57374969252561
 31
0.0
1001
GRADIENTCOLOR1ACI
1070
     5
1001
GRADIENTCOLOR2ACI
1070
     2
1001
ACAD
1010
0.0
1020
0.0
1030
0.0
1001
ACDBBLOCKREPETAG
1070
     1
1071
      435
1005
1391A6
  0
LINE
  5
1391A7
  8
CENTER
 10
4000.0
 20
-279.99999999999909
 30
0.0
 11
4000.0
 21
-99.999999999999091
 31
0.0
1001
ACDBBLOCKREPETAG
1070
     1
1071
      160
1005
1391A7
  0
CIRCLE
  5
1391A8
  8
OBJECT
 10
4000.0
 20
-199.99999999999909
 30
0.0
 40
70.0
1001
ACDBBLOCKREPETAG
1070
     1
1071
      161
1005
1391A8
  0
CIRCLE
  5
1391A9
  8
OBJECT
 10
4000.0
 20
-199.99999999999909
 30
0.0
 40
77.0
1001
ACDBBLOCKREPETAG
1070
     1
1071
      162
1005
1391A9
  0
LINE
  5
1391AA
  8
OBJECT
 10
4045.661800227324
 20
-137.99999999999909
 30
0.0
 11
4080.0
 21
-137.99999999999909
 31
0.0
1001
ACDBBLOCKREPETAG
1070
     1
1071
      164
1005
1391AA
  0
LINE
  5
1391AB
  8
OBJECT
 10
4062.0
 20
-261.99999999999909
 30
0.0
 11
4080.0
 21
-261.99999999999909
 31
0.0
1001
ACDBBLOCKREPETAG
1070
     1
1071
      165
1005
1391AB
  0
LINE
  5
1391AC
  8
OBJECT
 10
4062.0
 20
-261.99999999999909
 30
0.0
 11
4062.0
 21
-279.99999999999909
 31
0.0
1001
ACDBBLOCKREPETAG
1070
     1
1071
      167
1005
1391AC
  0
LINE
  5
1391AD
  8
OBJECT
 10
3938.0
 20
-261.99999999999909
 30
0.0
 11
3938.0
 21
-279.99999999999909
 31
0.0
1001
ACDBBLOCKREPETAG
1070
     1
1071
      168
1005
1391AD
  0
LINE
  5
1391AE
  8
OBJECT
 10
3938.0
 20
-261.99999999999909
 30
0.0
 11
3920.0
 21
-261.99999999999909
 31
0.0
1001
ACDBBLOCKREPETAG
1070
     1
1071
      170
1005
1391AE
  0
LINE
  5
1391AF
  8
OBJECT
 10
3954.338199772676
 20
-137.99999999999909
 30
0.0
 11
3920.0
 21
-137.99999999999909
 31
0.0
1001
ACDBBLOCKREPETAG
1070
     1
1071
      171
1005
1391AF
  0
LINE
  5
1391B0
  8
OBJECT
 10
3945.5527778486362
 20
-254.44722215136329
 30
0.0
 11
3938.0
 21
-261.99999999999909
 31
0.0
1001
ACDBBLOCKREPETAG
1070
     1
1071
      180
1005
1391B0
  0
LINE
  5
1391B1
  8
OBJECT
 10
4054.4472221513638
 20
-254.44722215136329
 30
0.0
 11
4062.0
 21
-261.99999999999909
 31
0.0
1001
ACDBBLOCKREPETAG
1070
     1
1071
      181
1005
1391B1
  0
POINT
  5
1391B2
  8
DOTS
 10
4000.0
 20
-199.99999999999909
 30
0.0
 50
270.0
1001
ACDBBLOCKREPETAG
1070
     1
1071
      182
1005
1391B2
  0
ARC
  5
1391B3
  8
OBJECT
 10
4000.0
 20
-199.99999999999909
 30
0.0
 40
85.0
 50
46.837102859806208
 51
133.16289714019371
1001
ACDBBLOCKREPETAG
1070
     1
1071
      183
1005
1391B3
  0
CIRCLE
  5
1391B4
  8
OBJECT
 10
4000.0
 20
-199.99999999999909
 30
0.0
 40
53.5
1001
ACDBBLOCKREPETAG
1070
     1
1071
      352
1005
1391B4
  0
LINE
  5
1391B5
  8
CENTER
 10
4080.0
 20
-199.99999999999909
 30
0.0
 11
3920.0
 21
-199.99999999999909
 31
0.0
1001
ACDBBLOCKREPETAG
1070
     1
1071
      158
1005
1391B5
  0
CIRCLE
  5
1391B6
  8
OBJECT
 10
2000.0
 20
-199.99999999999909
 30
0.0
 40
53.5
1001
ACDBBLOCKREPETAG
1070
     1
1071
      340
1005
1391B6
  0
LINE
  5
1391B7
  8
CENTER
 10
2080.0
 20
-199.99999999999909
 30
0.0
 11
1920.0
 21
-199.99999999999909
 31
0.0
1001
ACDBBLOCKREPETAG
1070
     1
1071
       49
1005
1391B7
  0
LINE
  5
1391B8
  8
CENTER
 10
2000.0
 20
-279.99999999999909
 30
0.0
 11
2000.0
 21
-104.9999999999991
 31
0.0
1001
ACDBBLOCKREPETAG
1070
     1
1071
       50
1005
1391B8
  0
CIRCLE
  5
1391B9
  8
OBJECT
 10
2000.0
 20
-199.99999999999909
 30
0.0
 40
70.0
1001
ACDBBLOCKREPETAG
1070
     1
1071
       51
1005
1391B9
  0
CIRCLE
  5
1391BA
  8
OBJECT
 10
2000.0
 20
-199.99999999999909
 30
0.0
 40
77.0
1001
ACDBBLOCKREPETAG
1070
     1
1071
       52
1005
1391BA
  0
ARC
  5
1391BB
  8
OBJECT
 10
2000.0
 20
-199.99999999999909
 30
0.0
 40
80.0
 50
50.805032573864182
 51
129.1949674261358
1001
ACDBBLOCKREPETAG
1070
     1
1071
       53
1005
1391BB
  0
LINE
  5
1391BC
  8
OBJECT
 10
2045.6618002273251
 20
-137.99999999999909
 30
0.0
 11
2080.0
 21
-137.99999999999909
 31
0.0
1001
ACDBBLOCKREPETAG
1070
     1
1071
       54
1005
1391BC
  0
LINE
  5
1391BD
  8
OBJECT
 10
2062.0
 20
-261.99999999999909
 30
0.0
 11
2080.0
 21
-261.99999999999909
 31
0.0
1001
ACDBBLOCKREPETAG
1070
     1
1071
       55
1005
1391BD
  0
LINE
  5
1391BE
  8
OBJECT
 10
2062.0
 20
-261.99999999999909
 30
0.0
 11
2062.0
 21
-279.99999999999909
 31
0.0
1001
ACDBBLOCKREPETAG
1070
     1
1071
       57
1005
1391BE
  0
LINE
  5
1391BF
  8
OBJECT
 10
1938.0
 20
-261.99999999999909
 30
0.0
 11
1938.0
 21
-279.99999999999909
 31
0.0
1001
ACDBBLOCKREPETAG
1070
     1
1071
       58
1005
1391BF
  0
POINT
  5
1391C0
  8
DOTS
 10
2000.0
 20
-199.99999999999909
 30
0.0
 50
90.0
1001
ACDBBLOCKREPETAG
1070
     1
1071
       59
1005
1391C0
  0
LINE
  5
1391C1
  8
OBJECT
 10
1938.0
 20
-261.99999999999909
 30
0.0
 11
1920.0
 21
-261.99999999999909
 31
0.0
1001
ACDBBLOCKREPETAG
1070
     1
1071
       60
1005
1391C1
  0
LINE
  5
1391C2
  8
OBJECT
 10
1954.3381997726749
 20
-137.99999999999909
 30
0.0
 11
1920.0
 21
-137.99999999999909
 31
0.0
1001
ACDBBLOCKREPETAG
1070
     1
1071
       61
1005
1391C2
  0
LINE
  5
1391C3
  8
OBJECT
 10
1945.5527778486351
 20
-254.44722215136329
 30
0.0
 11
1938.0
 21
-261.99999999999909
 31
0.0
1001
ACDBBLOCKREPETAG
1070
     1
1071
       42
1005
1391C3
  0
LINE
  5
1391C4
  8
OBJECT
 10
2054.4472221513638
 20
-254.44722215136329
 30
0.0
 11
2062.0
 21
-261.99999999999909
 31
0.0
1001
ACDBBLOCKREPETAG
1070
     1
1071
       43
1005
1391C4
  0
CIRCLE
  5
1391C5
  8
OBJECT
 10
515.99999999987813
 20
-3467.9999999988931
 30
0.0
 40
70.0
1001
ACDBBLOCKREPETAG
1070
     1
1071
       43
1005
1391C5
  0
CIRCLE
  5
1391C6
  8
OBJECT
 10
515.99999999987813
 20
-3467.9999999988931
 30
0.0
 40
77.0
1001
ACDBBLOCKREPETAG
1070
     1
1071
       44
1005
1391C6
  0
ARC
  5
1391C7
  8
OBJECT
 10
515.99999999987813
 20
-3467.9999999988931
 30
0.0
 40
80.0
 50
140.80503257378879
 51
219.19496742621121
1001
ACDBBLOCKREPETAG
1070
     1
1071
       45
1005
1391C7
  0
LINE
  5
1391C8
  8
OBJECT
 10
453.99999999987801
 20
-3422.3381997715692
 30
0.0
 11
453.99999999987801
 21
-3387.9999999988931
 31
0.0
1001
ACDBBLOCKREPETAG
1070
     1
1071
       46
1005
1391C8
  0
LINE
  5
1391C9
  8
OBJECT
 10
577.99999999987813
 20
-3405.9999999988931
 30
0.0
 11
577.99999999987813
 21
-3387.9999999988931
 31
0.0
1001
ACDBBLOCKREPETAG
1070
     1
1071
       22
1005
1391C9
  0
LINE
  5
1391CA
  8
OBJECT
 10
577.99999999987813
 20
-3405.9999999988931
 30
0.0
 11
595.99999999987813
 21
-3405.9999999988931
 31
0.0
1001
ACDBBLOCKREPETAG
1070
     1
1071
       24
1005
1391CA
  0
LINE
  5
1391CB
  8
OBJECT
 10
577.99999999987813
 20
-3529.9999999988941
 30
0.0
 11
595.99999999987813
 21
-3529.9999999988941
 31
0.0
1001
ACDBBLOCKREPETAG
1070
     1
1071
       25
1005
1391CB
  0
LINE
  5
1391CC
  8
OBJECT
 10
577.99999999987813
 20
-3529.9999999988941
 30
0.0
 11
577.99999999987813
 21
-3547.9999999988931
 31
0.0
1001
ACDBBLOCKREPETAG
1070
     1
1071
       27
1005
1391CC
  0
LINE
  5
1391CD
  8
OBJECT
 10
453.99999999987801
 20
-3513.6618002262189
 30
0.0
 11
453.99999999987801
 21
-3547.9999999988931
 31
0.0
1001
ACDBBLOCKREPETAG
1070
     1
1071
       28
1005
1391CD
  0
LINE
  5
1391CE
  8
OBJECT
 10
570.44722215124239
 20
-3522.4472221502569
 30
0.0
 11
577.99999999987813
 21
-3529.9999999988941
 31
0.0
1001
ACDBBLOCKREPETAG
1070
     1
1071
       37
1005
1391CE
  0
LINE
  5
1391CF
  8
OBJECT
 10
570.44722215124239
 20
-3413.5527778475298
 30
0.0
 11
577.99999999987813
 21
-3405.9999999988931
 31
0.0
1001
ACDBBLOCKREPETAG
1070
     1
1071
       38
1005
1391CF
  0
POINT
  5
1391D0
  8
DOTS
 10
515.99999999987813
 20
-3467.9999999988931
 30
0.0
1001
ACDBBLOCKREPETAG
1070
     1
1071
       39
1005
1391D0
  0
CIRCLE
  5
1391D1
  8
OBJECT
 10
515.99999999987813
 20
-3467.9999999988931
 30
0.0
 40
53.5
1001
ACDBBLOCKREPETAG
1070
     1
1071
      153
1005
1391D1
  0
CIRCLE
  5
1391D2
  8
OBJECT
 10
156.0
 20
-3467.9999999988931
 30
0.0
 40
70.0
1001
ACDBBLOCKREPETAG
1070
     1
1071
       43
1005
1391D2
  0
CIRCLE
  5
1391D3
  8
OBJECT
 10
156.0
 20
-3467.9999999988931
 30
0.0
 40
77.0
1001
ACDBBLOCKREPETAG
1070
     1
1071
       44
1005
1391D3
  0
ARC
  5
1391D4
  8
OBJECT
 10
156.0
 20
-3467.9999999988931
 30
0.0
 40
80.0
 50
140.80503257378979
 51
219.1949674262101
1001
ACDBBLOCKREPETAG
1070
     1
1071
       45
1005
1391D4
  0
LINE
  5
1391D5
  8
OBJECT
 10
94.0
 20
-3422.3381997715692
 30
0.0
 11
94.0
 21
-3387.9999999988931
 31
0.0
1001
ACDBBLOCKREPETAG
1070
     1
1071
       46
1005
1391D5
  0
LINE
  5
1391D6
  8
OBJECT
 10
218.0
 20
-3405.9999999988931
 30
0.0
 11
218.0
 21
-3387.9999999988931
 31
0.0
1001
ACDBBLOCKREPETAG
1070
     1
1071
       22
1005
1391D6
  0
LINE
  5
1391D7
  8
OBJECT
 10
218.0
 20
-3405.9999999988931
 30
0.0
 11
236.0
 21
-3405.9999999988931
 31
0.0
1001
ACDBBLOCKREPETAG
1070
     1
1071
       24
1005
1391D7
  0
LINE
  5
1391D8
  8
OBJECT
 10
218.0
 20
-3529.9999999988941
 30
0.0
 11
236.0
 21
-3529.9999999988941
 31
0.0
1001
ACDBBLOCKREPETAG
1070
     1
1071
       25
1005
1391D8
  0
LINE
  5
1391D9
  8
OBJECT
 10
218.0
 20
-3529.9999999988941
 30
0.0
 11
218.0
 21
-3547.9999999988931
 31
0.0
1001
ACDBBLOCKREPETAG
1070
     1
1071
       27
1005
1391D9
  0
LINE
  5
1391DA
  8
OBJECT
 10
94.0
 20
-3513.6618002262189
 30
0.0
 11
94.0
 21
-3547.9999999988931
 31
0.0
1001
ACDBBLOCKREPETAG
1070
     1
1071
       28
1005
1391DA
  0
LINE
  5
1391DB
  8
OBJECT
 10
210.44722215136409
 20
-3522.4472221502569
 30
0.0
 11
218.0
 21
-3529.9999999988941
 31
0.0
1001
ACDBBLOCKREPETAG
1070
     1
1071
       37
1005
1391DB
  0
LINE
  5
1391DC
  8
OBJECT
 10
210.44722215136409
 20
-3413.5527778475298
 30
0.0
 11
218.0
 21
-3405.9999999988931
 31
0.0
1001
ACDBBLOCKREPETAG
1070
     1
1071
       38
1005
1391DC
  0
POINT
  5
1391DD
  8
DOTS
 10
156.0
 20
-3467.9999999988931
 30
0.0
1001
ACDBBLOCKREPETAG
1070
     1
1071
       39
1005
1391DD
  0
CIRCLE
  5
1391DE
  8
OBJECT
 10
156.0
 20
-3467.9999999988931
 30
0.0
 40
53.5
1001
ACDBBLOCKREPETAG
1070
     1
1071
      153
1005
1391DE
  0
CIRCLE
  5
1391DF
  8
OBJECT
 10
515.99999999987813
 20
-3003.9999999990509
 30
0.0
 40
70.0
1001
ACDBBLOCKREPETAG
1070
     1
1071
       43
1005
1391DF
  0
CIRCLE
  5
1391E0
  8
OBJECT
 10
515.99999999987813
 20
-3003.9999999990509
 30
0.0
 40
77.0
1001
ACDBBLOCKREPETAG
1070
     1
1071
       44
1005
1391E0
  0
ARC
  5
1391E1
  8
OBJECT
 10
515.99999999987813
 20
-3003.9999999990509
 30
0.0
 40
80.0
 50
140.80503257378879
 51
219.19496742621121
1001
ACDBBLOCKREPETAG
1070
     1
1071
       45
1005
1391E1
  0
LINE
  5
1391E2
  8
OBJECT
 10
453.99999999987801
 20
-2958.338199771727
 30
0.0
 11
453.99999999987801
 21
-2923.9999999990532
 31
0.0
1001
ACDBBLOCKREPETAG
1070
     1
1071
       46
1005
1391E2
  0
LINE
  5
1391E3
  8
OBJECT
 10
577.99999999987813
 20
-2941.9999999990509
 30
0.0
 11
577.99999999987813
 21
-2923.9999999990532
 31
0.0
1001
ACDBBLOCKREPETAG
1070
     1
1071
       22
1005
1391E3
  0
LINE
  5
1391E4
  8
OBJECT
 10
577.99999999987813
 20
-2941.9999999990509
 30
0.0
 11
595.99999999987813
 21
-2941.9999999990509
 31
0.0
1001
ACDBBLOCKREPETAG
1070
     1
1071
       24
1005
1391E4
  0
LINE
  5
1391E5
  8
OBJECT
 10
577.99999999987813
 20
-3065.9999999990532
 30
0.0
 11
595.99999999987813
 21
-3065.9999999990532
 31
0.0
1001
ACDBBLOCKREPETAG
1070
     1
1071
       25
1005
1391E5
  0
LINE
  5
1391E6
  8
OBJECT
 10
577.99999999987813
 20
-3065.9999999990532
 30
0.0
 11
577.99999999987813
 21
-3083.9999999990509
 31
0.0
1001
ACDBBLOCKREPETAG
1070
     1
1071
       27
1005
1391E6
  0
LINE
  5
1391E7
  8
OBJECT
 10
453.99999999987801
 20
-3049.6618002263758
 30
0.0
 11
453.99999999987801
 21
-3083.9999999990509
 31
0.0
1001
ACDBBLOCKREPETAG
1070
     1
1071
       28
1005
1391E7
  0
LINE
  5
1391E8
  8
OBJECT
 10
570.44722215124239
 20
-3058.4472221504161
 30
0.0
 11
577.99999999987813
 21
-3065.9999999990532
 31
0.0
1001
ACDBBLOCKREPETAG
1070
     1
1071
       37
1005
1391E8
  0
LINE
  5
1391E9
  8
OBJECT
 10
570.44722215124239
 20
-2949.5527778476871
 30
0.0
 11
577.99999999987813
 21
-2941.9999999990509
 31
0.0
1001
ACDBBLOCKREPETAG
1070
     1
1071
       38
1005
1391E9
  0
POINT
  5
1391EA
  8
DOTS
 10
515.99999999987813
 20
-3003.9999999990509
 30
0.0
1001
ACDBBLOCKREPETAG
1070
     1
1071
       39
1005
1391EA
  0
CIRCLE
  5
1391EB
  8
OBJECT
 10
515.99999999987813
 20
-3003.9999999990509
 30
0.0
 40
53.5
1001
ACDBBLOCKREPETAG
1070
     1
1071
      153
1005
1391EB
  0
CIRCLE
  5
1391EC
  8
OBJECT
 10
156.0
 20
-3003.9999999990509
 30
0.0
 40
70.0
1001
ACDBBLOCKREPETAG
1070
     1
1071
       43
1005
1391EC
  0
CIRCLE
  5
1391ED
  8
OBJECT
 10
156.0
 20
-3003.9999999990509
 30
0.0
 40
77.0
1001
ACDBBLOCKREPETAG
1070
     1
1071
       44
1005
1391ED
  0
ARC
  5
1391EE
  8
OBJECT
 10
156.0
 20
-3003.9999999990509
 30
0.0
 40
80.0
 50
140.80503257378979
 51
219.1949674262101
1001
ACDBBLOCKREPETAG
1070
     1
1071
       45
1005
1391EE
  0
LINE
  5
1391EF
  8
OBJECT
 10
94.0
 20
-2958.3381997717261
 30
0.0
 11
94.0
 21
-2923.9999999990509
 31
0.0
1001
ACDBBLOCKREPETAG
1070
     1
1071
       46
1005
1391EF
  0
LINE
  5
1391F0
  8
OBJECT
 10
218.0
 20
-2941.9999999990509
 30
0.0
 11
218.0
 21
-2923.9999999990509
 31
0.0
1001
ACDBBLOCKREPETAG
1070
     1
1071
       22
1005
1391F0
  0
LINE
  5
1391F1
  8
OBJECT
 10
218.0
 20
-2941.9999999990509
 30
0.0
 11
236.0
 21
-2941.9999999990509
 31
0.0
1001
ACDBBLOCKREPETAG
1070
     1
1071
       24
1005
1391F1
  0
LINE
  5
1391F2
  8
OBJECT
 10
218.0
 20
-3065.99999999905
 30
0.0
 11
236.0
 21
-3065.99999999905
 31
0.0
1001
ACDBBLOCKREPETAG
1070
     1
1071
       25
1005
1391F2
  0
LINE
  5
1391F3
  8
OBJECT
 10
218.0
 20
-3065.99999999905
 30
0.0
 11
218.0
 21
-3083.9999999990509
 31
0.0
1001
ACDBBLOCKREPETAG
1070
     1
1071
       27
1005
1391F3
  0
LINE
  5
1391F4
  8
OBJECT
 10
94.0
 20
-3049.6618002263749
 30
0.0
 11
94.0
 21
-3083.9999999990509
 31
0.0
1001
ACDBBLOCKREPETAG
1070
     1
1071
       28
1005
1391F4
  0
LINE
  5
1391F5
  8
OBJECT
 10
210.44722215136409
 20
-3058.4472221504152
 30
0.0
 11
218.0
 21
-3065.99999999905
 31
0.0
1001
ACDBBLOCKREPETAG
1070
     1
1071
       37
1005
1391F5
  0
LINE
  5
1391F6
  8
OBJECT
 10
210.44722215136409
 20
-2949.5527778476849
 30
0.0
 11
218.0
 21
-2941.9999999990509
 31
0.0
1001
ACDBBLOCKREPETAG
1070
     1
1071
       38
1005
1391F6
  0
POINT
  5
1391F7
  8
DOTS
 10
156.0
 20
-3003.9999999990509
 30
0.0
1001
ACDBBLOCKREPETAG
1070
     1
1071
       39
1005
1391F7
  0
CIRCLE
  5
1391F8
  8
OBJECT
 10
156.0
 20
-3003.9999999990509
 30
0.0
 40
53.5
1001
ACDBBLOCKREPETAG
1070
     1
1071
      153
1005
1391F8
  0
CIRCLE
  5
1391F9
  8
OBJECT
 10
515.99999999987779
 20
-2539.9999999992101
 30
0.0
 40
70.0
1001
ACDBBLOCKREPETAG
1070
     1
1071
       43
1005
1391F9
  0
CIRCLE
  5
1391FA
  8
OBJECT
 10
515.99999999987779
 20
-2539.9999999992101
 30
0.0
 40
77.0
1001
ACDBBLOCKREPETAG
1070
     1
1071
       44
1005
1391FA
  0
ARC
  5
1391FB
  8
OBJECT
 10
515.99999999987779
 20
-2539.9999999992101
 30
0.0
 40
80.0
 50
140.80503257378879
 51
219.19496742621121
1001
ACDBBLOCKREPETAG
1070
     1
1071
       45
1005
1391FB
  0
LINE
  5
1391FC
  8
OBJECT
 10
453.99999999987767
 20
-2494.3381997718848
 30
0.0
 11
453.99999999987767
 21
-2459.9999999992101
 31
0.0
1001
ACDBBLOCKREPETAG
1070
     1
1071
       46
1005
1391FC
  0
LINE
  5
1391FD
  8
OBJECT
 10
577.99999999987779
 20
-2477.9999999992101
 30
0.0
 11
577.99999999987779
 21
-2459.9999999992101
 31
0.0
1001
ACDBBLOCKREPETAG
1070
     1
1071
       22
1005
1391FD
  0
LINE
  5
1391FE
  8
OBJECT
 10
577.99999999987779
 20
-2477.9999999992101
 30
0.0
 11
595.99999999987756
 21
-2477.9999999992101
 31
0.0
1001
ACDBBLOCKREPETAG
1070
     1
1071
       24
1005
1391FE
  0
LINE
  5
1391FF
  8
OBJECT
 10
577.99999999987779
 20
-2601.9999999992101
 30
0.0
 11
595.99999999987756
 21
-2601.9999999992101
 31
0.0
1001
ACDBBLOCKREPETAG
1070
     1
1071
       25
1005
1391FF
  0
LINE
  5
139200
  8
OBJECT
 10
577.99999999987779
 20
-2601.9999999992101
 30
0.0
 11
577.99999999987779
 21
-2619.9999999992101
 31
0.0
1001
ACDBBLOCKREPETAG
1070
     1
1071
       27
1005
139200
  0
LINE
  5
139201
  8
OBJECT
 10
453.99999999987767
 20
-2585.6618002265341
 30
0.0
 11
453.99999999987767
 21
-2619.9999999992101
 31
0.0
1001
ACDBBLOCKREPETAG
1070
     1
1071
       28
1005
139201
  0
LINE
  5
139202
  8
OBJECT
 10
570.44722215124204
 20
-2594.4472221505739
 30
0.0
 11
577.99999999987779
 21
-2601.9999999992101
 31
0.0
1001
ACDBBLOCKREPETAG
1070
     1
1071
       37
1005
139202
  0
LINE
  5
139203
  8
OBJECT
 10
570.44722215124204
 20
-2485.5527778478449
 30
0.0
 11
577.99999999987779
 21
-2477.9999999992101
 31
0.0
1001
ACDBBLOCKREPETAG
1070
     1
1071
       38
1005
139203
  0
POINT
  5
139204
  8
DOTS
 10
515.99999999987779
 20
-2539.9999999992101
 30
0.0
1001
ACDBBLOCKREPETAG
1070
     1
1071
       39
1005
139204
  0
CIRCLE
  5
139205
  8
OBJECT
 10
515.99999999987779
 20
-2539.9999999992101
 30
0.0
 40
53.5
1001
ACDBBLOCKREPETAG
1070
     1
1071
      153
1005
139205
  0
CIRCLE
  5
139206
  8
OBJECT
 10
155.9999999999996
 20
-2539.9999999992101
 30
0.0
 40
70.0
1001
ACDBBLOCKREPETAG
1070
     1
1071
       43
1005
139206
  0
CIRCLE
  5
139207
  8
OBJECT
 10
155.9999999999996
 20
-2539.9999999992101
 30
0.0
 40
77.0
1001
ACDBBLOCKREPETAG
1070
     1
1071
       44
1005
139207
  0
ARC
  5
139208
  8
OBJECT
 10
155.9999999999996
 20
-2539.9999999992101
 30
0.0
 40
80.0
 50
140.80503257378979
 51
219.1949674262101
1001
ACDBBLOCKREPETAG
1070
     1
1071
       45
1005
139208
  0
LINE
  5
139209
  8
OBJECT
 10
93.999999999999659
 20
-2494.3381997718848
 30
0.0
 11
93.999999999999659
 21
-2459.9999999992101
 31
0.0
1001
ACDBBLOCKREPETAG
1070
     1
1071
       46
1005
139209
  0
LINE
  5
13920A
  8
OBJECT
 10
217.99999999999969
 20
-2477.9999999992101
 30
0.0
 11
217.99999999999969
 21
-2459.9999999992101
 31
0.0
1001
ACDBBLOCKREPETAG
1070
     1
1071
       22
1005
13920A
  0
LINE
  5
13920B
  8
OBJECT
 10
217.99999999999969
 20
-2477.9999999992101
 30
0.0
 11
235.99999999999969
 21
-2477.9999999992101
 31
0.0
1001
ACDBBLOCKREPETAG
1070
     1
1071
       24
1005
13920B
  0
LINE
  5
13920C
  8
OBJECT
 10
217.99999999999969
 20
-2601.9999999992101
 30
0.0
 11
235.99999999999969
 21
-2601.9999999992101
 31
0.0
1001
ACDBBLOCKREPETAG
1070
     1
1071
       25
1005
13920C
  0
LINE
  5
13920D
  8
OBJECT
 10
217.99999999999969
 20
-2601.9999999992101
 30
0.0
 11
217.99999999999969
 21
-2619.9999999992101
 31
0.0
1001
ACDBBLOCKREPETAG
1070
     1
1071
       27
1005
13920D
  0
LINE
  5
13920E
  8
OBJECT
 10
93.999999999999659
 20
-2585.6618002265341
 30
0.0
 11
93.999999999999659
 21
-2619.9999999992101
 31
0.0
1001
ACDBBLOCKREPETAG
1070
     1
1071
       28
1005
13920E
  0
LINE
  5
13920F
  8
OBJECT
 10
210.4472221513638
 20
-2594.4472221505739
 30
0.0
 11
217.99999999999969
 21
-2601.9999999992101
 31
0.0
1001
ACDBBLOCKREPETAG
1070
     1
1071
       37
1005
13920F
  0
LINE
  5
139210
  8
OBJECT
 10
210.4472221513638
 20
-2485.5527778478449
 30
0.0
 11
217.99999999999969
 21
-2477.9999999992101
 31
0.0
1001
ACDBBLOCKREPETAG
1070
     1
1071
       38
1005
139210
  0
POINT
  5
139211
  8
DOTS
 10
155.9999999999996
 20
-2539.9999999992101
 30
0.0
1001
ACDBBLOCKREPETAG
1070
     1
1071
       39
1005
139211
  0
CIRCLE
  5
139212
  8
OBJECT
 10
155.9999999999996
 20
-2539.9999999992101
 30
0.0
 40
53.5
1001
ACDBBLOCKREPETAG
1070
     1
1071
      153
1005
139212
  0
CIRCLE
  5
139213
  8
OBJECT
 10
515.99999999987779
 20
-2075.9999999993679
 30
0.0
 40
70.0
1001
ACDBBLOCKREPETAG
1070
     1
1071
       43
1005
139213
  0
CIRCLE
  5
139214
  8
OBJECT
 10
515.99999999987779
 20
-2075.9999999993679
 30
0.0
 40
77.0
1001
ACDBBLOCKREPETAG
1070
     1
1071
       44
1005
139214
  0
ARC
  5
139215
  8
OBJECT
 10
515.99999999987779
 20
-2075.9999999993679
 30
0.0
 40
80.0
 50
140.80503257378879
 51
219.19496742621121
1001
ACDBBLOCKREPETAG
1070
     1
1071
       45
1005
139215
  0
LINE
  5
139216
  8
OBJECT
 10
453.99999999987767
 20
-2030.3381997720439
 30
0.0
 11
453.99999999987767
 21
-1995.9999999993679
 31
0.0
1001
ACDBBLOCKREPETAG
1070
     1
1071
       46
1005
139216
  0
LINE
  5
139217
  8
OBJECT
 10
577.99999999987779
 20
-2013.9999999993679
 30
0.0
 11
577.99999999987779
 21
-1995.9999999993679
 31
0.0
1001
ACDBBLOCKREPETAG
1070
     1
1071
       22
1005
139217
  0
LINE
  5
139218
  8
OBJECT
 10
577.99999999987779
 20
-2013.9999999993679
 30
0.0
 11
595.99999999987756
 21
-2013.9999999993679
 31
0.0
1001
ACDBBLOCKREPETAG
1070
     1
1071
       24
1005
139218
  0
LINE
  5
139219
  8
OBJECT
 10
577.99999999987779
 20
-2137.9999999993679
 30
0.0
 11
595.99999999987756
 21
-2137.9999999993679
 31
0.0
1001
ACDBBLOCKREPETAG
1070
     1
1071
       25
1005
139219
  0
LINE
  5
13921A
  8
OBJECT
 10
577.99999999987779
 20
-2137.9999999993679
 30
0.0
 11
577.99999999987779
 21
-2155.9999999993679
 31
0.0
1001
ACDBBLOCKREPETAG
1070
     1
1071
       27
1005
13921A
  0
LINE
  5
13921B
  8
OBJECT
 10
453.99999999987767
 20
-2121.6618002266919
 30
0.0
 11
453.99999999987767
 21
-2155.9999999993679
 31
0.0
1001
ACDBBLOCKREPETAG
1070
     1
1071
       28
1005
13921B
  0
LINE
  5
13921C
  8
OBJECT
 10
570.44722215124204
 20
-2130.4472221507322
 30
0.0
 11
577.99999999987779
 21
-2137.9999999993679
 31
0.0
1001
ACDBBLOCKREPETAG
1070
     1
1071
       37
1005
13921C
  0
LINE
  5
13921D
  8
OBJECT
 10
570.44722215124204
 20
-2021.5527778480041
 30
0.0
 11
577.99999999987779
 21
-2013.9999999993679
 31
0.0
1001
ACDBBLOCKREPETAG
1070
     1
1071
       38
1005
13921D
  0
POINT
  5
13921E
  8
DOTS
 10
515.99999999987779
 20
-2075.9999999993679
 30
0.0
1001
ACDBBLOCKREPETAG
1070
     1
1071
       39
1005
13921E
  0
CIRCLE
  5
13921F
  8
OBJECT
 10
515.99999999987779
 20
-2075.9999999993679
 30
0.0
 40
53.5
1001
ACDBBLOCKREPETAG
1070
     1
1071
      153
1005
13921F
  0
CIRCLE
  5
139220
  8
OBJECT
 10
155.9999999999996
 20
-2075.999999999367
 30
0.0
 40
70.0
1001
ACDBBLOCKREPETAG
1070
     1
1071
       43
1005
139220
  0
CIRCLE
  5
139221
  8
OBJECT
 10
155.9999999999996
 20
-2075.999999999367
 30
0.0
 40
77.0
1001
ACDBBLOCKREPETAG
1070
     1
1071
       44
1005
139221
  0
ARC
  5
139222
  8
OBJECT
 10
155.9999999999996
 20
-2075.999999999367
 30
0.0
 40
80.0
 50
140.80503257378979
 51
219.1949674262101
1001
ACDBBLOCKREPETAG
1070
     1
1071
       45
1005
139222
  0
LINE
  5
139223
  8
OBJECT
 10
93.999999999999659
 20
-2030.3381997720419
 30
0.0
 11
93.999999999999659
 21
-1995.999999999367
 31
0.0
1001
ACDBBLOCKREPETAG
1070
     1
1071
       46
1005
139223
  0
LINE
  5
139224
  8
OBJECT
 10
217.99999999999969
 20
-2013.999999999367
 30
0.0
 11
217.99999999999969
 21
-1995.999999999367
 31
0.0
1001
ACDBBLOCKREPETAG
1070
     1
1071
       22
1005
139224
  0
LINE
  5
139225
  8
OBJECT
 10
217.99999999999969
 20
-2013.999999999367
 30
0.0
 11
235.99999999999969
 21
-2013.999999999367
 31
0.0
1001
ACDBBLOCKREPETAG
1070
     1
1071
       24
1005
139225
  0
LINE
  5
139226
  8
OBJECT
 10
217.99999999999969
 20
-2137.999999999367
 30
0.0
 11
235.99999999999969
 21
-2137.999999999367
 31
0.0
1001
ACDBBLOCKREPETAG
1070
     1
1071
       25
1005
139226
  0
LINE
  5
139227
  8
OBJECT
 10
217.99999999999969
 20
-2137.999999999367
 30
0.0
 11
217.99999999999969
 21
-2155.999999999367
 31
0.0
1001
ACDBBLOCKREPETAG
1070
     1
1071
       27
1005
139227
  0
LINE
  5
139228
  8
OBJECT
 10
93.999999999999659
 20
-2121.6618002266919
 30
0.0
 11
93.999999999999659
 21
-2155.999999999367
 31
0.0
1001
ACDBBLOCKREPETAG
1070
     1
1071
       28
1005
139228
  0
LINE
  5
139229
  8
OBJECT
 10
210.4472221513638
 20
-2130.4472221507308
 30
0.0
 11
217.99999999999969
 21
-2137.999999999367
 31
0.0
1001
ACDBBLOCKREPETAG
1070
     1
1071
       37
1005
139229
  0
LINE
  5
13922A
  8
OBJECT
 10
210.4472221513638
 20
-2021.552777848003
 30
0.0
 11
217.99999999999969
 21
-2013.999999999367
 31
0.0
1001
ACDBBLOCKREPETAG
1070
     1
1071
       38
1005
13922A
  0
POINT
  5
13922B
  8
DOTS
 10
155.9999999999996
 20
-2075.999999999367
 30
0.0
1001
ACDBBLOCKREPETAG
1070
     1
1071
       39
1005
13922B
  0
CIRCLE
  5
13922C
  8
OBJECT
 10
155.9999999999996
 20
-2075.999999999367
 30
0.0
 40
53.5
1001
ACDBBLOCKREPETAG
1070
     1
1071
      153
1005
13922C
  0
CIRCLE
  5
13922D
  8
OBJECT
 10
515.99999999987801
 20
-1611.9999999995259
 30
0.0
 40
70.0
1001
ACDBBLOCKREPETAG
1070
     1
1071
       43
1005
13922D
  0
CIRCLE
  5
13922E
  8
OBJECT
 10
515.99999999987801
 20
-1611.9999999995259
 30
0.0
 40
77.0
1001
ACDBBLOCKREPETAG
1070
     1
1071
       44
1005
13922E
  0
ARC
  5
13922F
  8
OBJECT
 10
515.99999999987801
 20
-1611.9999999995259
 30
0.0
 40
80.0
 50
140.8050325737787
 51
219.1949674262213
1001
ACDBBLOCKREPETAG
1070
     1
1071
       45
1005
13922F
  0
LINE
  5
139230
  8
OBJECT
 10
453.99999999987801
 20
-1566.338199772202
 30
0.0
 11
453.99999999987801
 21
-1531.9999999995259
 31
0.0
1001
ACDBBLOCKREPETAG
1070
     1
1071
       46
1005
139230
  0
LINE
  5
139231
  8
OBJECT
 10
577.9999999998779
 20
-1549.9999999995259
 30
0.0
 11
577.9999999998779
 21
-1531.9999999995259
 31
0.0
1001
ACDBBLOCKREPETAG
1070
     1
1071
       22
1005
139231
  0
LINE
  5
139232
  8
OBJECT
 10
577.9999999998779
 20
-1549.9999999995259
 30
0.0
 11
595.99999999987801
 21
-1549.9999999995259
 31
0.0
1001
ACDBBLOCKREPETAG
1070
     1
1071
       24
1005
139232
  0
LINE
  5
139233
  8
OBJECT
 10
577.9999999998779
 20
-1673.9999999995259
 30
0.0
 11
595.99999999987801
 21
-1673.9999999995259
 31
0.0
1001
ACDBBLOCKREPETAG
1070
     1
1071
       25
1005
139233
  0
LINE
  5
139234
  8
OBJECT
 10
577.9999999998779
 20
-1673.9999999995259
 30
0.0
 11
577.9999999998779
 21
-1691.9999999995259
 31
0.0
1001
ACDBBLOCKREPETAG
1070
     1
1071
       27
1005
139234
  0
LINE
  5
139235
  8
OBJECT
 10
453.99999999987801
 20
-1657.661800226851
 30
0.0
 11
453.99999999987801
 21
-1691.9999999995259
 31
0.0
1001
ACDBBLOCKREPETAG
1070
     1
1071
       28
1005
139235
  0
LINE
  5
139236
  8
OBJECT
 10
570.44722215124204
 20
-1666.44722215089
 30
0.0
 11
577.9999999998779
 21
-1673.9999999995259
 31
0.0
1001
ACDBBLOCKREPETAG
1070
     1
1071
       37
1005
139236
  0
LINE
  5
139237
  8
OBJECT
 10
570.44722215124204
 20
-1557.5527778481619
 30
0.0
 11
577.9999999998779
 21
-1549.9999999995259
 31
0.0
1001
ACDBBLOCKREPETAG
1070
     1
1071
       38
1005
139237
  0
POINT
  5
139238
  8
DOTS
 10
515.99999999987801
 20
-1611.9999999995259
 30
0.0
1001
ACDBBLOCKREPETAG
1070
     1
1071
       39
1005
139238
  0
CIRCLE
  5
139239
  8
OBJECT
 10
515.99999999987801
 20
-1611.9999999995259
 30
0.0
 40
53.5
1001
ACDBBLOCKREPETAG
1070
     1
1071
      153
1005
139239
  0
CIRCLE
  5
13923A
  8
OBJECT
 10
155.9999999999998
 20
-1611.9999999995259
 30
0.0
 40
70.0
1001
ACDBBLOCKREPETAG
1070
     1
1071
       43
1005
13923A
  0
CIRCLE
  5
13923B
  8
OBJECT
 10
155.9999999999998
 20
-1611.9999999995259
 30
0.0
 40
77.0
1001
ACDBBLOCKREPETAG
1070
     1
1071
       44
1005
13923B
  0
ARC
  5
13923C
  8
OBJECT
 10
155.9999999999998
 20
-1611.9999999995259
 30
0.0
 40
80.0
 50
140.80503257377961
 51
219.1949674262203
1001
ACDBBLOCKREPETAG
1070
     1
1071
       45
1005
13923C
  0
LINE
  5
13923D
  8
OBJECT
 10
93.999999999999872
 20
-1566.338199772202
 30
0.0
 11
93.999999999999872
 21
-1531.9999999995259
 31
0.0
1001
ACDBBLOCKREPETAG
1070
     1
1071
       46
1005
13923D
  0
LINE
  5
13923E
  8
OBJECT
 10
217.99999999999989
 20
-1549.9999999995259
 30
0.0
 11
217.99999999999989
 21
-1531.9999999995259
 31
0.0
1001
ACDBBLOCKREPETAG
1070
     1
1071
       22
1005
13923E
  0
LINE
  5
13923F
  8
OBJECT
 10
217.99999999999989
 20
-1549.9999999995259
 30
0.0
 11
235.99999999999989
 21
-1549.9999999995259
 31
0.0
1001
ACDBBLOCKREPETAG
1070
     1
1071
       24
1005
13923F
  0
LINE
  5
139240
  8
OBJECT
 10
217.99999999999989
 20
-1673.9999999995259
 30
0.0
 11
235.99999999999989
 21
-1673.9999999995259
 31
0.0
1001
ACDBBLOCKREPETAG
1070
     1
1071
       25
1005
139240
  0
LINE
  5
139241
  8
OBJECT
 10
217.99999999999989
 20
-1673.9999999995259
 30
0.0
 11
217.99999999999989
 21
-1691.9999999995259
 31
0.0
1001
ACDBBLOCKREPETAG
1070
     1
1071
       27
1005
139241
  0
LINE
  5
139242
  8
OBJECT
 10
93.999999999999872
 20
-1657.661800226851
 30
0.0
 11
93.999999999999872
 21
-1691.9999999995259
 31
0.0
1001
ACDBBLOCKREPETAG
1070
     1
1071
       28
1005
139242
  0
LINE
  5
139243
  8
OBJECT
 10
210.44722215136409
 20
-1666.44722215089
 30
0.0
 11
217.99999999999989
 21
-1673.9999999995259
 31
0.0
1001
ACDBBLOCKREPETAG
1070
     1
1071
       37
1005
139243
  0
LINE
  5
139244
  8
OBJECT
 10
210.44722215136409
 20
-1557.5527778481619
 30
0.0
 11
217.99999999999989
 21
-1549.9999999995259
 31
0.0
1001
ACDBBLOCKREPETAG
1070
     1
1071
       38
1005
139244
  0
POINT
  5
139245
  8
DOTS
 10
155.9999999999998
 20
-1611.9999999995259
 30
0.0
1001
ACDBBLOCKREPETAG
1070
     1
1071
       39
1005
139245
  0
CIRCLE
  5
139246
  8
OBJECT
 10
155.9999999999998
 20
-1611.9999999995259
 30
0.0
 40
53.5
1001
ACDBBLOCKREPETAG
1070
     1
1071
      153
1005
139246
  0
CIRCLE
  5
139247
  8
OBJECT
 10
515.99999999987801
 20
-1147.999999999684
 30
0.0
 40
70.0
1001
ACDBBLOCKREPETAG
1070
     1
1071
       43
1005
139247
  0
CIRCLE
  5
139248
  8
OBJECT
 10
515.99999999987801
 20
-1147.999999999684
 30
0.0
 40
77.0
1001
ACDBBLOCKREPETAG
1070
     1
1071
       44
1005
139248
  0
ARC
  5
139249
  8
OBJECT
 10
515.99999999987801
 20
-1147.999999999684
 30
0.0
 40
80.0
 50
140.8050325737787
 51
219.1949674262213
1001
ACDBBLOCKREPETAG
1070
     1
1071
       45
1005
139249
  0
LINE
  5
13924A
  8
OBJECT
 10
453.99999999987801
 20
-1102.33819977236
 30
0.0
 11
453.99999999987801
 21
-1067.999999999684
 31
0.0
1001
ACDBBLOCKREPETAG
1070
     1
1071
       46
1005
13924A
  0
LINE
  5
13924B
  8
OBJECT
 10
577.9999999998779
 20
-1085.999999999684
 30
0.0
 11
577.9999999998779
 21
-1067.999999999684
 31
0.0
1001
ACDBBLOCKREPETAG
1070
     1
1071
       22
1005
13924B
  0
LINE
  5
13924C
  8
OBJECT
 10
577.9999999998779
 20
-1085.999999999684
 30
0.0
 11
595.99999999987801
 21
-1085.999999999684
 31
0.0
1001
ACDBBLOCKREPETAG
1070
     1
1071
       24
1005
13924C
  0
LINE
  5
13924D
  8
OBJECT
 10
577.9999999998779
 20
-1209.999999999684
 30
0.0
 11
595.99999999987801
 21
-1209.999999999684
 31
0.0
1001
ACDBBLOCKREPETAG
1070
     1
1071
       25
1005
13924D
  0
LINE
  5
13924E
  8
OBJECT
 10
577.9999999998779
 20
-1209.999999999684
 30
0.0
 11
577.9999999998779
 21
-1227.999999999684
 31
0.0
1001
ACDBBLOCKREPETAG
1070
     1
1071
       27
1005
13924E
  0
LINE
  5
13924F
  8
OBJECT
 10
453.99999999987801
 20
-1193.6618002270091
 30
0.0
 11
453.99999999987801
 21
-1227.999999999684
 31
0.0
1001
ACDBBLOCKREPETAG
1070
     1
1071
       28
1005
13924F
  0
LINE
  5
139250
  8
OBJECT
 10
570.44722215124204
 20
-1202.4472221510489
 30
0.0
 11
577.9999999998779
 21
-1209.999999999684
 31
0.0
1001
ACDBBLOCKREPETAG
1070
     1
1071
       37
1005
139250
  0
LINE
  5
139251
  8
OBJECT
 10
570.44722215124204
 20
-1093.5527778483199
 30
0.0
 11
577.9999999998779
 21
-1085.999999999684
 31
0.0
1001
ACDBBLOCKREPETAG
1070
     1
1071
       38
1005
139251
  0
POINT
  5
139252
  8
DOTS
 10
515.99999999987801
 20
-1147.999999999684
 30
0.0
1001
ACDBBLOCKREPETAG
1070
     1
1071
       39
1005
139252
  0
CIRCLE
  5
139253
  8
OBJECT
 10
515.99999999987801
 20
-1147.999999999684
 30
0.0
 40
53.5
1001
ACDBBLOCKREPETAG
1070
     1
1071
      153
1005
139253
  0
CIRCLE
  5
139254
  8
OBJECT
 10
155.9999999999998
 20
-1147.999999999683
 30
0.0
 40
70.0
1001
ACDBBLOCKREPETAG
1070
     1
1071
       43
1005
139254
  0
CIRCLE
  5
139255
  8
OBJECT
 10
155.9999999999998
 20
-1147.999999999683
 30
0.0
 40
77.0
1001
ACDBBLOCKREPETAG
1070
     1
1071
       44
1005
139255
  0
ARC
  5
139256
  8
OBJECT
 10
155.9999999999998
 20
-1147.999999999683
 30
0.0
 40
80.0
 50
140.80503257377961
 51
219.1949674262203
1001
ACDBBLOCKREPETAG
1070
     1
1071
       45
1005
139256
  0
LINE
  5
139257
  8
OBJECT
 10
93.999999999999872
 20
-1102.3381997723591
 30
0.0
 11
93.999999999999872
 21
-1067.999999999683
 31
0.0
1001
ACDBBLOCKREPETAG
1070
     1
1071
       46
1005
139257
  0
LINE
  5
139258
  8
OBJECT
 10
217.99999999999989
 20
-1085.999999999683
 30
0.0
 11
217.99999999999989
 21
-1067.999999999683
 31
0.0
1001
ACDBBLOCKREPETAG
1070
     1
1071
       22
1005
139258
  0
LINE
  5
139259
  8
OBJECT
 10
217.99999999999989
 20
-1085.999999999683
 30
0.0
 11
235.99999999999989
 21
-1085.999999999683
 31
0.0
1001
ACDBBLOCKREPETAG
1070
     1
1071
       24
1005
139259
  0
LINE
  5
13925A
  8
OBJECT
 10
217.99999999999989
 20
-1209.999999999683
 30
0.0
 11
235.99999999999989
 21
-1209.999999999683
 31
0.0
1001
ACDBBLOCKREPETAG
1070
     1
1071
       25
1005
13925A
  0
LINE
  5
13925B
  8
OBJECT
 10
217.99999999999989
 20
-1209.999999999683
 30
0.0
 11
217.99999999999989
 21
-1227.999999999683
 31
0.0
1001
ACDBBLOCKREPETAG
1070
     1
1071
       27
1005
13925B
  0
LINE
  5
13925C
  8
OBJECT
 10
93.999999999999872
 20
-1193.6618002270079
 30
0.0
 11
93.999999999999872
 21
-1227.999999999683
 31
0.0
1001
ACDBBLOCKREPETAG
1070
     1
1071
       28
1005
13925C
  0
LINE
  5
13925D
  8
OBJECT
 10
210.44722215136409
 20
-1202.447222151048
 30
0.0
 11
217.99999999999989
 21
-1209.999999999683
 31
0.0
1001
ACDBBLOCKREPETAG
1070
     1
1071
       37
1005
13925D
  0
LINE
  5
13925E
  8
OBJECT
 10
210.44722215136409
 20
-1093.552777848319
 30
0.0
 11
217.99999999999989
 21
-1085.999999999683
 31
0.0
1001
ACDBBLOCKREPETAG
1070
     1
1071
       38
1005
13925E
  0
POINT
  5
13925F
  8
DOTS
 10
155.9999999999998
 20
-1147.999999999683
 30
0.0
1001
ACDBBLOCKREPETAG
1070
     1
1071
       39
1005
13925F
  0
CIRCLE
  5
139260
  8
OBJECT
 10
155.9999999999998
 20
-1147.999999999683
 30
0.0
 40
53.5
1001
ACDBBLOCKREPETAG
1070
     1
1071
      153
1005
139260
  0
CIRCLE
  5
139261
  8
OBJECT
 10
515.99999999987813
 20
-683.99999999984254
 30
0.0
 40
70.0
1001
ACDBBLOCKREPETAG
1070
     1
1071
       43
1005
139261
  0
CIRCLE
  5
139262
  8
OBJECT
 10
515.99999999987813
 20
-683.99999999984254
 30
0.0
 40
77.0
1001
ACDBBLOCKREPETAG
1070
     1
1071
       44
1005
139262
  0
ARC
  5
139263
  8
OBJECT
 10
515.99999999987813
 20
-683.99999999984254
 30
0.0
 40
80.0
 50
140.8050325737787
 51
219.1949674262213
1001
ACDBBLOCKREPETAG
1070
     1
1071
       45
1005
139263
  0
LINE
  5
139264
  8
OBJECT
 10
453.99999999987801
 20
-638.33819977251824
 30
0.0
 11
453.99999999987801
 21
-603.99999999984266
 31
0.0
1001
ACDBBLOCKREPETAG
1070
     1
1071
       46
1005
139264
  0
LINE
  5
139265
  8
OBJECT
 10
577.99999999987813
 20
-621.99999999984254
 30
0.0
 11
577.99999999987813
 21
-603.99999999984266
 31
0.0
1001
ACDBBLOCKREPETAG
1070
     1
1071
       22
1005
139265
  0
LINE
  5
139266
  8
OBJECT
 10
577.99999999987813
 20
-621.99999999984254
 30
0.0
 11
595.99999999987813
 21
-621.99999999984254
 31
0.0
1001
ACDBBLOCKREPETAG
1070
     1
1071
       24
1005
139266
  0
LINE
  5
139267
  8
OBJECT
 10
577.99999999987813
 20
-745.99999999984254
 30
0.0
 11
595.99999999987813
 21
-745.99999999984254
 31
0.0
1001
ACDBBLOCKREPETAG
1070
     1
1071
       25
1005
139267
  0
LINE
  5
139268
  8
OBJECT
 10
577.99999999987813
 20
-745.99999999984254
 30
0.0
 11
577.99999999987813
 21
-763.99999999984254
 31
0.0
1001
ACDBBLOCKREPETAG
1070
     1
1071
       27
1005
139268
  0
LINE
  5
139269
  8
OBJECT
 10
453.99999999987801
 20
-729.66180022716708
 30
0.0
 11
453.99999999987801
 21
-763.99999999984254
 31
0.0
1001
ACDBBLOCKREPETAG
1070
     1
1071
       28
1005
139269
  0
LINE
  5
13926A
  8
OBJECT
 10
570.44722215124239
 20
-738.44722215120669
 30
0.0
 11
577.99999999987813
 21
-745.99999999984254
 31
0.0
1001
ACDBBLOCKREPETAG
1070
     1
1071
       37
1005
13926A
  0
LINE
  5
13926B
  8
OBJECT
 10
570.44722215124239
 20
-629.5527778484784
 30
0.0
 11
577.99999999987813
 21
-621.99999999984254
 31
0.0
1001
ACDBBLOCKREPETAG
1070
     1
1071
       38
1005
13926B
  0
POINT
  5
13926C
  8
DOTS
 10
515.99999999987813
 20
-683.99999999984254
 30
0.0
1001
ACDBBLOCKREPETAG
1070
     1
1071
       39
1005
13926C
  0
CIRCLE
  5
13926D
  8
OBJECT
 10
515.99999999987813
 20
-683.99999999984254
 30
0.0
 40
53.5
1001
ACDBBLOCKREPETAG
1070
     1
1071
      153
1005
13926D
  0
CIRCLE
  5
13926E
  8
OBJECT
 10
156.0
 20
-683.99999999984254
 30
0.0
 40
70.0
1001
ACDBBLOCKREPETAG
1070
     1
1071
       43
1005
13926E
  0
CIRCLE
  5
13926F
  8
OBJECT
 10
156.0
 20
-683.99999999984254
 30
0.0
 40
77.0
1001
ACDBBLOCKREPETAG
1070
     1
1071
       44
1005
13926F
  0
ARC
  5
139270
  8
OBJECT
 10
156.0
 20
-683.99999999984254
 30
0.0
 40
80.0
 50
140.80503257377961
 51
219.1949674262203
1001
ACDBBLOCKREPETAG
1070
     1
1071
       45
1005
139270
  0
LINE
  5
139271
  8
OBJECT
 10
94.0
 20
-638.33819977251824
 30
0.0
 11
94.0
 21
-603.99999999984266
 31
0.0
1001
ACDBBLOCKREPETAG
1070
     1
1071
       46
1005
139271
  0
LINE
  5
139272
  8
OBJECT
 10
218.0
 20
-621.99999999984254
 30
0.0
 11
218.0
 21
-603.99999999984266
 31
0.0
1001
ACDBBLOCKREPETAG
1070
     1
1071
       22
1005
139272
  0
LINE
  5
139273
  8
OBJECT
 10
218.0
 20
-621.99999999984254
 30
0.0
 11
236.0
 21
-621.99999999984254
 31
0.0
1001
ACDBBLOCKREPETAG
1070
     1
1071
       24
1005
139273
  0
LINE
  5
139274
  8
OBJECT
 10
218.0
 20
-745.99999999984254
 30
0.0
 11
236.0
 21
-745.99999999984254
 31
0.0
1001
ACDBBLOCKREPETAG
1070
     1
1071
       25
1005
139274
  0
LINE
  5
139275
  8
OBJECT
 10
218.0
 20
-745.99999999984254
 30
0.0
 11
218.0
 21
-763.99999999984254
 31
0.0
1001
ACDBBLOCKREPETAG
1070
     1
1071
       27
1005
139275
  0
LINE
  5
139276
  8
OBJECT
 10
94.0
 20
-729.66180022716708
 30
0.0
 11
94.0
 21
-763.99999999984254
 31
0.0
1001
ACDBBLOCKREPETAG
1070
     1
1071
       28
1005
139276
  0
LINE
  5
139277
  8
OBJECT
 10
210.44722215136409
 20
-738.44722215120669
 30
0.0
 11
218.0
 21
-745.99999999984254
 31
0.0
1001
ACDBBLOCKREPETAG
1070
     1
1071
       37
1005
139277
  0
LINE
  5
139278
  8
OBJECT
 10
210.44722215136409
 20
-629.5527778484784
 30
0.0
 11
218.0
 21
-621.99999999984254
 31
0.0
1001
ACDBBLOCKREPETAG
1070
     1
1071
       38
1005
139278
  0
POINT
  5
139279
  8
DOTS
 10
156.0
 20
-683.99999999984254
 30
0.0
1001
ACDBBLOCKREPETAG
1070
     1
1071
       39
1005
139279
  0
CIRCLE
  5
13927A
  8
OBJECT
 10
156.0
 20
-683.99999999984254
 30
0.0
 40
53.5
1001
ACDBBLOCKREPETAG
1070
     1
1071
      153
1005
13927A
  0
CIRCLE
  5
13927B
  8
OBJECT
 10
515.99999999987813
 20
-220.00000000000091
 30
0.0
 40
70.0
1001
ACDBBLOCKREPETAG
1070
     1
1071
       43
1005
13927B
  0
CIRCLE
  5
13927C
  8
OBJECT
 10
515.99999999987813
 20
-220.00000000000091
 30
0.0
 40
77.0
1001
ACDBBLOCKREPETAG
1070
     1
1071
       44
1005
13927C
  0
ARC
  5
13927D
  8
OBJECT
 10
515.99999999987813
 20
-220.00000000000091
 30
0.0
 40
80.0
 50
140.80503257378001
 51
219.19496742621999
1001
ACDBBLOCKREPETAG
1070
     1
1071
       45
1005
13927D
  0
LINE
  5
13927E
  8
OBJECT
 10
453.99999999987801
 20
-174.3381997726764
 30
0.0
 11
453.99999999987801
 21
-140.0000000000008
 31
0.0
1001
ACDBBLOCKREPETAG
1070
     1
1071
       46
1005
13927E
  0
LINE
  5
13927F
  8
OBJECT
 10
577.99999999987813
 20
-158.0000000000008
 30
0.0
 11
577.99999999987813
 21
-140.0000000000008
 31
0.0
1001
ACDBBLOCKREPETAG
1070
     1
1071
       22
1005
13927F
  0
LINE
  5
139280
  8
OBJECT
 10
577.99999999987813
 20
-158.0000000000008
 30
0.0
 11
595.99999999987813
 21
-158.0000000000008
 31
0.0
1001
ACDBBLOCKREPETAG
1070
     1
1071
       24
1005
139280
  0
LINE
  5
139281
  8
OBJECT
 10
577.99999999987813
 20
-282.00000000000091
 30
0.0
 11
595.99999999987813
 21
-282.00000000000091
 31
0.0
1001
ACDBBLOCKREPETAG
1070
     1
1071
       25
1005
139281
  0
LINE
  5
139282
  8
OBJECT
 10
577.99999999987813
 20
-282.00000000000091
 30
0.0
 11
577.99999999987813
 21
-300.0000000000008
 31
0.0
1001
ACDBBLOCKREPETAG
1070
     1
1071
       27
1005
139282
  0
LINE
  5
139283
  8
OBJECT
 10
453.99999999987801
 20
-265.66180022732527
 30
0.0
 11
453.99999999987801
 21
-300.0000000000008
 31
0.0
1001
ACDBBLOCKREPETAG
1070
     1
1071
       28
1005
139283
  0
LINE
  5
139284
  8
OBJECT
 10
570.44722215124239
 20
-274.44722215136511
 30
0.0
 11
577.99999999987813
 21
-282.00000000000091
 31
0.0
1001
ACDBBLOCKREPETAG
1070
     1
1071
       37
1005
139284
  0
LINE
  5
139285
  8
OBJECT
 10
570.44722215124239
 20
-165.55277784863659
 30
0.0
 11
577.99999999987813
 21
-158.0000000000008
 31
0.0
1001
ACDBBLOCKREPETAG
1070
     1
1071
       38
1005
139285
  0
POINT
  5
139286
  8
DOTS
 10
515.99999999987813
 20
-220.00000000000091
 30
0.0
1001
ACDBBLOCKREPETAG
1070
     1
1071
       39
1005
139286
  0
CIRCLE
  5
139287
  8
OBJECT
 10
515.99999999987813
 20
-220.00000000000091
 30
0.0
 40
53.5
1001
ACDBBLOCKREPETAG
1070
     1
1071
      153
1005
139287
  0
CIRCLE
  5
139288
  8
OBJECT
 10
156.0
 20
-220.0
 30
0.0
 40
70.0
1001
ACDBBLOCKREPETAG
1070
     1
1071
       43
1005
139288
  0
CIRCLE
  5
139289
  8
OBJECT
 10
156.0
 20
-220.0
 30
0.0
 40
77.0
1001
ACDBBLOCKREPETAG
1070
     1
1071
       44
1005
139289
  0
ARC
  5
13928A
  8
OBJECT
 10
156.0
 20
-220.0
 30
0.0
 40
80.0
 50
140.80503257378101
 51
219.19496742621899
1001
ACDBBLOCKREPETAG
1070
     1
1071
       45
1005
13928A
  0
LINE
  5
13928B
  8
OBJECT
 10
94.0
 20
-174.33819977267541
 30
0.0
 11
94.0
 21
-140.0
 31
0.0
1001
ACDBBLOCKREPETAG
1070
     1
1071
       46
1005
13928B
  0
LINE
  5
13928C
  8
OBJECT
 10
218.0
 20
-158.0
 30
0.0
 11
218.0
 21
-140.0
 31
0.0
1001
ACDBBLOCKREPETAG
1070
     1
1071
       22
1005
13928C
  0
LINE
  5
13928D
  8
OBJECT
 10
218.0
 20
-158.0
 30
0.0
 11
236.0
 21
-158.0
 31
0.0
1001
ACDBBLOCKREPETAG
1070
     1
1071
       24
1005
13928D
  0
LINE
  5
13928E
  8
OBJECT
 10
218.0
 20
-282.0
 30
0.0
 11
236.0
 21
-282.0
 31
0.0
1001
ACDBBLOCKREPETAG
1070
     1
1071
       25
1005
13928E
  0
LINE
  5
13928F
  8
OBJECT
 10
218.0
 20
-282.0
 30
0.0
 11
218.0
 21
-300.0
 31
0.0
1001
ACDBBLOCKREPETAG
1070
     1
1071
       27
1005
13928F
  0
LINE
  5
139290
  8
OBJECT
 10
94.0
 20
-265.66180022732442
 30
0.0
 11
94.0
 21
-300.0
 31
0.0
1001
ACDBBLOCKREPETAG
1070
     1
1071
       28
1005
139290
  0
LINE
  5
139291
  8
OBJECT
 10
210.44722215136409
 20
-274.44722215136431
 30
0.0
 11
218.0
 21
-282.0
 31
0.0
1001
ACDBBLOCKREPETAG
1070
     1
1071
       37
1005
139291
  0
LINE
  5
139292
  8
OBJECT
 10
210.44722215136409
 20
-165.55277784863571
 30
0.0
 11
218.0
 21
-158.0
 31
0.0
1001
ACDBBLOCKREPETAG
1070
     1
1071
       38
1005
139292
  0
POINT
  5
139293
  8
DOTS
 10
156.0
 20
-220.0
 30
0.0
1001
ACDBBLOCKREPETAG
1070
     1
1071
       39
1005
139293
  0
CIRCLE
  5
139294
  8
OBJECT
 10
156.0
 20
-220.0
 30
0.0
 40
53.5
1001
ACDBBLOCKREPETAG
1070
     1
1071
      153
1005
139294
  0
LINE
  5
139295
  8
OBJECT
 10
3923.0
 20
-570.99999999999432
 30
0.0
 11
3923.0
 21
-549.99999999999432
 31
0.0
1001
ACDBBLOCKREPETAG
1070
     1
1071
       36
1005
139295
  0
LINE
  5
139296
  8
OBJECT
 10
3923.0
 20
-549.99999999999432
 30
0.0
 11
4077.0
 21
-549.99999999999432
 31
0.0
1001
ACDBBLOCKREPETAG
1070
     1
1071
       37
1005
139296
  0
LINE
  5
139297
  8
HIDDEN
 10
3943.0
 20
-619.99999999999432
 30
0.0
 11
4057.0
 21
-619.99999999999432
 31
0.0
1001
ACDBBLOCKREPETAG
1070
     1
1071
       38
1005
139297
  0
LINE
  5
139298
  8
OBJECT
 10
4077.0
 20
-549.99999999999432
 30
0.0
 11
4077.0
 21
-570.99999999999432
 31
0.0
1001
ACDBBLOCKREPETAG
1070
     1
1071
       39
1005
139298
  0
LINE
  5
139299
  8
OBJECT
 10
4077.0
 20
-570.99999999999432
 30
0.0
 11
3923.0
 21
-570.99999999999432
 31
0.0
1001
ACDBBLOCKREPETAG
1070
     1
1071
       40
1005
139299
  0
LINE
  5
13929A
  8
CENTER
 10
4000.0
 20
-534.99999999999432
 30
0.0
 11
4000.0
 21
-769.9999999999942
 31
0.0
1001
ACDBBLOCKREPETAG
1070
     1
1071
       41
1005
13929A
  0
LINE
  5
13929B
  8
OBJECT
 10
3928.0
 20
-570.99999999999432
 30
0.0
 11
3928.0
 21
-633.99999999999432
 31
0.0
1001
ACDBBLOCKREPETAG
1070
     1
1071
       42
1005
13929B
  0
LINE
  5
13929C
  8
OBJECT
 10
4072.0
 20
-633.99999999999432
 30
0.0
 11
4072.0
 21
-570.99999999999432
 31
0.0
1001
ACDBBLOCKREPETAG
1070
     1
1071
       43
1005
13929C
  0
LINE
  5
13929D
  8
OBJECT
 10
3920.0
 20
-757.9999999999942
 30
0.0
 11
4080.0
 21
-757.9999999999942
 31
0.0
1001
ACDBBLOCKREPETAG
1070
     1
1071
       44
1005
13929D
  0
LINE
  5
13929E
  8
OBJECT
 10
4080.0
 20
-633.99999999999432
 30
0.0
 11
3920.0
 21
-633.99999999999432
 31
0.0
1001
ACDBBLOCKREPETAG
1070
     1
1071
       45
1005
13929E
  0
LINE
  5
13929F
  8
OBJECT
 10
3920.0
 20
-757.9999999999942
 30
0.0
 11
3920.0
 21
-769.9999999999942
 31
0.0
1001
ACDBBLOCKREPETAG
1070
     1
1071
       46
1005
13929F
  0
LINE
  5
1392A0
  8
OBJECT
 10
3920.0
 20
-769.9999999999942
 30
0.0
 11
4080.0
 21
-769.9999999999942
 31
0.0
1001
ACDBBLOCKREPETAG
1070
     1
1071
       47
1005
1392A0
  0
LINE
  5
1392A1
  8
OBJECT
 10
4080.0
 20
-769.9999999999942
 30
0.0
 11
4080.0
 21
-757.9999999999942
 31
0.0
1001
ACDBBLOCKREPETAG
1070
     1
1071
       48
1005
1392A1
  0
ARC
  5
1392A2
  8
OBJECT
 10
4200.6872746716726
 20
-749.40809941010195
 30
0.0
 40
170.6350503965856
 50
137.44134459184301
 51
149.91949581337221
1001
ACDBBLOCKREPETAG
1070
     1
1071
       52
1005
1392A2
  0
ARC
  5
1392A3
  8
OBJECT
 10
4200.6872746716726
 20
-642.59190058988645
 30
0.0
 40
170.6350503965856
 50
210.08050418662771
 51
222.55865540815699
1001
ACDBBLOCKREPETAG
1070
     1
1071
       53
1005
1392A3
  0
ARC
  5
1392A4
  8
OBJECT
 10
3799.3127253283278
 20
-749.40809941010195
 30
0.0
 40
170.6350503965856
 50
30.080504186774089
 51
42.558655408456282
1001
ACDBBLOCKREPETAG
1070
     1
1071
       54
1005
1392A4
  0
ARC
  5
1392A5
  8
OBJECT
 10
3799.3127253283278
 20
-642.59190058988645
 30
0.0
 40
170.6350503965856
 50
317.44134459154373
 51
329.91949581322592
1001
ACDBBLOCKREPETAG
1070
     1
1071
       55
1005
1392A5
  0
POINT
  5
1392A6
  8
DOTS
 10
4000.0
 20
-754.9999999999942
 30
0.0
1001
ACDBBLOCKREPETAG
1070
     1
1071
      184
1005
1392A6
  0
LINE
  5
1392A7
  8
CENTER
 10
3899.0
 20
-199.99999999999909
 30
0.0
 11
3920.0
 21
-199.99999999999909
 31
0.0
1001
ACDBBLOCKREPETAG
1070
     1
1071
        0
1005
1392A7
  0
LINE
  5
1392A8
  8
OBJECT
 10
3917.0
 20
-261.99999999999909
 30
0.0
 11
3920.0
 21
-261.99999999999909
 31
0.0
1001
ACDBBLOCKREPETAG
1070
     1
1071
        1
1005
1392A8
  0
ARC
  5
1392A9
  8
OBJECT
 10
3917.0
 20
-258.99999999999909
 30
0.0
 40
3.0
 50
180.0
 51
270.0
1001
ACDBBLOCKREPETAG
1070
     1
1071
        2
1005
1392A9
  0
LINE
  5
1392AA
  8
OBJECT
 10
3920.0
 20
-137.99999999999909
 30
0.0
 11
3917.0
 21
-137.99999999999909
 31
0.0
1001
ACDBBLOCKREPETAG
1070
     1
1071
        3
1005
1392AA
  0
ARC
  5
1392AB
  8
OBJECT
 10
3917.0
 20
-140.99999999999909
 30
0.0
 40
3.0
 50
90.0
 51
180.0
1001
ACDBBLOCKREPETAG
1070
     1
1071
        4
1005
1392AB
  0
LINE
  5
1392AC
  8
OBJECT
 10
3914.0
 20
-140.99999999999909
 30
0.0
 11
3914.0
 21
-258.99999999999909
 31
0.0
1001
ACDBBLOCKREPETAG
1070
     1
1071
        5
1005
1392AC
  0
LINE
  5
1392AD
  8
OBJECT
 10
4062.0
 20
-332.99999999999898
 30
0.0
 11
4062.0
 21
-339.99999999999909
 31
0.0
1001
ACDBBLOCKREPETAG
1070
     1
1071
       47
1005
1392AD
  0
LINE
  5
1392AE
  8
OBJECT
 10
4062.0
 20
-339.99999999999909
 30
0.0
 11
3938.0
 21
-339.99999999999909
 31
0.0
1001
ACDBBLOCKREPETAG
1070
     1
1071
       48
1005
1392AE
  0
LINE
  5
1392AF
  8
OBJECT
 10
3938.0
 20
-339.99999999999909
 30
0.0
 11
3938.0
 21
-332.99999999999898
 31
0.0
1001
ACDBBLOCKREPETAG
1070
     1
1071
       49
1005
1392AF
  0
LINE
  5
1392B0
  8
OBJECT
 10
3938.0
 20
-332.99999999999898
 30
0.0
 11
4062.0
 21
-332.99999999999898
 31
0.0
1001
ACDBBLOCKREPETAG
1070
     1
1071
       50
1005
1392B0
  0
LINE
  5
1392B1
  8
CENTER
 10
4000.0
 20
-354.99999999999909
 30
0.0
 11
4000.0
 21
-279.99999999999909
 31
0.0
1001
ACDBBLOCKREPETAG
1070
     1
1071
       51
1005
1392B1
  0
LINE
  5
1392B2
  8
OBJECT
 10
4059.0
 20
-332.99999999999898
 30
0.0
 11
4059.0
 21
-296.99999999999898
 31
0.0
1001
ACDBBLOCKREPETAG
1070
     1
1071
       52
1005
1392B2
  0
LINE
  5
1392B3
  8
OBJECT
 10
4059.0
 20
-296.99999999999898
 30
0.0
 11
3941.0
 21
-296.99999999999898
 31
0.0
1001
ACDBBLOCKREPETAG
1070
     1
1071
       53
1005
1392B3
  0
LINE
  5
1392B4
  8
OBJECT
 10
3941.0
 20
-296.99999999999898
 30
0.0
 11
3941.0
 21
-332.99999999999898
 31
0.0
1001
ACDBBLOCKREPETAG
1070
     1
1071
       54
1005
1392B4
  0
LINE
  5
1392B5
  8
OBJECT
 10
4054.4999999999991
 20
-292.99999999999898
 30
0.0
 11
4054.4999999999991
 21
-285.99999999999898
 31
0.0
1001
ACDBBLOCKREPETAG
1070
     1
1071
       55
1005
1392B5
  0
LINE
  5
1392B6
  8
OBJECT
 10
3945.5
 20
-285.99999999999898
 30
0.0
 11
3945.5
 21
-292.99999999999898
 31
0.0
1001
ACDBBLOCKREPETAG
1070
     1
1071
       56
1005
1392B6
  0
LINE
  5
1392B7
  8
OBJECT
 10
3945.5
 20
-292.99999999999898
 30
0.0
 11
4054.4999999999991
 21
-292.99999999999898
 31
0.0
1001
ACDBBLOCKREPETAG
1070
     1
1071
       57
1005
1392B7
  0
LINE
  5
1392B8
  8
OBJECT
 10
4059.0
 20
-296.99999999999898
 30
0.0
 11
4054.4999999999991
 21
-292.99999999999898
 31
0.0
1001
ACDBBLOCKREPETAG
1070
     1
1071
       58
1005
1392B8
  0
LINE
  5
1392B9
  8
OBJECT
 10
3941.0
 20
-296.99999999999898
 30
0.0
 11
3945.5
 21
-292.99999999999898
 31
0.0
1001
ACDBBLOCKREPETAG
1070
     1
1071
       59
1005
1392B9
  0
LINE
  5
1392BA
  8
OBJECT
 10
4062.0
 20
-283.0
 30
0.0
 11
4062.0
 21
-279.99999999999909
 31
0.0
1001
ACDBBLOCKREPETAG
1070
     1
1071
       60
1005
1392BA
  0
ARC
  5
1392BB
  8
OBJECT
 10
4059.0
 20
-283.0
 30
0.0
 40
3.0
 50
270.0
 51
0.0
1001
ACDBBLOCKREPETAG
1070
     1
1071
       61
1005
1392BB
  0
LINE
  5
1392BC
  8
OBJECT
 10
3938.0
 20
-279.99999999999909
 30
0.0
 11
3938.0
 21
-282.99999999999818
 31
0.0
1001
ACDBBLOCKREPETAG
1070
     1
1071
       62
1005
1392BC
  0
ARC
  5
1392BD
  8
OBJECT
 10
3941.0
 20
-282.99999999999818
 30
0.0
 40
3.0
 50
180.0
 51
270.0
1001
ACDBBLOCKREPETAG
1070
     1
1071
       63
1005
1392BD
  0
LINE
  5
1392BE
  8
OBJECT
 10
3941.0
 20
-285.99999999999818
 30
0.0
 11
4059.0
 21
-286.0
 31
0.0
1001
ACDBBLOCKREPETAG
1070
     1
1071
       64
1005
1392BE
  0
LINE
  5
1392BF
  8
HIDDEN
 10
4044.5
 20
-287.99999999999909
 30
0.0
 11
3955.5
 21
-287.99999999999909
 31
0.0
1001
ACDBBLOCKREPETAG
1070
     1
1071
       65
1005
1392BF
  0
LINE
  5
1392C0
  8
OBJECT
 10
4133.0
 20
-137.99999999999909
 30
0.0
 11
4140.0
 21
-137.99999999999909
 31
0.0
1001
ACDBBLOCKREPETAG
1070
     1
1071
       47
1005
1392C0
  0
LINE
  5
1392C1
  8
OBJECT
 10
4140.0
 20
-137.99999999999909
 30
0.0
 11
4140.0
 21
-261.99999999999909
 31
0.0
1001
ACDBBLOCKREPETAG
1070
     1
1071
       48
1005
1392C1
  0
LINE
  5
1392C2
  8
OBJECT
 10
4140.0
 20
-261.99999999999909
 30
0.0
 11
4133.0
 21
-261.99999999999909
 31
0.0
1001
ACDBBLOCKREPETAG
1070
     1
1071
       49
1005
1392C2
  0
LINE
  5
1392C3
  8
OBJECT
 10
4133.0
 20
-261.99999999999909
 30
0.0
 11
4133.0
 21
-137.99999999999909
 31
0.0
1001
ACDBBLOCKREPETAG
1070
     1
1071
       50
1005
1392C3
  0
LINE
  5
1392C4
  8
CENTER
 10
4155.0
 20
-199.99999999999909
 30
0.0
 11
4080.0
 21
-199.99999999999909
 31
0.0
1001
ACDBBLOCKREPETAG
1070
     1
1071
       51
1005
1392C4
  0
LINE
  5
1392C5
  8
OBJECT
 10
4133.0
 20
-140.99999999999909
 30
0.0
 11
4097.0
 21
-140.99999999999909
 31
0.0
1001
ACDBBLOCKREPETAG
1070
     1
1071
       52
1005
1392C5
  0
LINE
  5
1392C6
  8
OBJECT
 10
4097.0
 20
-140.99999999999909
 30
0.0
 11
4097.0
 21
-258.99999999999909
 31
0.0
1001
ACDBBLOCKREPETAG
1070
     1
1071
       53
1005
1392C6
  0
LINE
  5
1392C7
  8
OBJECT
 10
4097.0
 20
-258.99999999999909
 30
0.0
 11
4133.0
 21
-258.99999999999909
 31
0.0
1001
ACDBBLOCKREPETAG
1070
     1
1071
       54
1005
1392C7
  0
LINE
  5
1392C8
  8
OBJECT
 10
4093.0
 20
-145.49999999999909
 30
0.0
 11
4086.0
 21
-145.49999999999909
 31
0.0
1001
ACDBBLOCKREPETAG
1070
     1
1071
       55
1005
1392C8
  0
LINE
  5
1392C9
  8
OBJECT
 10
4086.0
 20
-254.49999999999909
 30
0.0
 11
4093.0
 21
-254.49999999999909
 31
0.0
1001
ACDBBLOCKREPETAG
1070
     1
1071
       56
1005
1392C9
  0
LINE
  5
1392CA
  8
OBJECT
 10
4093.0
 20
-254.49999999999909
 30
0.0
 11
4093.0
 21
-145.49999999999909
 31
0.0
1001
ACDBBLOCKREPETAG
1070
     1
1071
       57
1005
1392CA
  0
LINE
  5
1392CB
  8
OBJECT
 10
4097.0
 20
-140.99999999999909
 30
0.0
 11
4093.0
 21
-145.49999999999909
 31
0.0
1001
ACDBBLOCKREPETAG
1070
     1
1071
       58
1005
1392CB
  0
LINE
  5
1392CC
  8
OBJECT
 10
4097.0
 20
-258.99999999999909
 30
0.0
 11
4093.0
 21
-254.49999999999909
 31
0.0
1001
ACDBBLOCKREPETAG
1070
     1
1071
       59
1005
1392CC
  0
LINE
  5
1392CD
  8
OBJECT
 10
4083.0
 20
-137.99999999999909
 30
0.0
 11
4080.0
 21
-137.99999999999909
 31
0.0
1001
ACDBBLOCKREPETAG
1070
     1
1071
       60
1005
1392CD
  0
ARC
  5
1392CE
  8
OBJECT
 10
4083.0
 20
-140.99999999999909
 30
0.0
 40
3.0
 50
0.0
 51
90.0
1001
ACDBBLOCKREPETAG
1070
     1
1071
       61
1005
1392CE
  0
LINE
  5
1392CF
  8
OBJECT
 10
4080.0
 20
-261.99999999999909
 30
0.0
 11
4083.0
 21
-261.99999999999909
 31
0.0
1001
ACDBBLOCKREPETAG
1070
     1
1071
       62
1005
1392CF
  0
ARC
  5
1392D0
  8
OBJECT
 10
4083.0
 20
-258.99999999999909
 30
0.0
 40
3.0
 50
270.0
 51
0.0
1001
ACDBBLOCKREPETAG
1070
     1
1071
       63
1005
1392D0
  0
LINE
  5
1392D1
  8
OBJECT
 10
4086.0
 20
-258.99999999999909
 30
0.0
 11
4086.0
 21
-140.99999999999909
 31
0.0
1001
ACDBBLOCKREPETAG
1070
     1
1071
       64
1005
1392D1
  0
LINE
  5
1392D2
  8
HIDDEN
 10
4088.0
 20
-155.49999999999909
 30
0.0
 11
4088.0
 21
-244.49999999999909
 31
0.0
1001
ACDBBLOCKREPETAG
1070
     1
1071
       65
1005
1392D2
  0
LINE
  5
1392D3
  8
OBJECT
 10
3917.0
 20
-634.0
 30
0.0
 11
3920.0
 21
-634.0
 31
0.0
1001
ACDBBLOCKREPETAG
1070
     1
1071
        1
1005
1392D3
  0
ARC
  5
1392D4
  8
OBJECT
 10
3917.0
 20
-637.0
 30
0.0
 40
3.0
 50
90.0
 51
180.0
1001
ACDBBLOCKREPETAG
1070
     1
1071
        2
1005
1392D4
  0
LINE
  5
1392D5
  8
OBJECT
 10
3920.0
 20
-758.0
 30
0.0
 11
3917.0
 21
-758.0
 31
0.0
1001
ACDBBLOCKREPETAG
1070
     1
1071
        3
1005
1392D5
  0
ARC
  5
1392D6
  8
OBJECT
 10
3917.0
 20
-755.0
 30
0.0
 40
3.0
 50
180.0
 51
270.0
1001
ACDBBLOCKREPETAG
1070
     1
1071
        4
1005
1392D6
  0
LINE
  5
1392D7
  8
OBJECT
 10
3914.0
 20
-755.0
 30
0.0
 11
3914.0
 21
-637.0
 31
0.0
1001
ACDBBLOCKREPETAG
1070
     1
1071
        5
1005
1392D7
  0
LINE
  5
1392D8
  8
CENTER
 10
4077.0
 20
-696.0
 30
0.0
 11
3923.0
 21
-696.0
 31
0.0
1001
ACDBBLOCKREPETAG
1070
     1
1071
       17
1005
1392D8
  0
CIRCLE
  5
1392D9
  8
OBJECT
 10
4000.0
 20
-696.0
 30
0.0
 40
41.5
1001
ACDBBLOCKREPETAG
1070
     1
1071
       19
1005
1392D9
  0
CIRCLE
  5
1392DA
  8
OBJECT
 10
4000.0
 20
-696.0
 30
0.0
 40
54.0
1001
ACDBBLOCKREPETAG
1070
     1
1071
       20
1005
1392DA
  0
ARC
  5
1392DB
  8
OBJECT
 10
4000.0
 20
-696.0
 30
0.0
 40
62.0
 50
287.89655112920718
 51
252.10344887079279
1001
ACDBBLOCKREPETAG
1070
     1
1071
       21
1005
1392DB
  0
LINE
  5
1392DC
  8
OBJECT
 10
3980.947441116743
 20
-755.0
 30
0.0
 11
4019.052558883257
 21
-755.0
 31
0.0
1001
ACDBBLOCKREPETAG
1070
     1
1071
       22
1005
1392DC
  0
LINE
  5
1392DD
  8
OBJECT
 10
4133.0
 20
-634.0
 30
0.0
 11
4140.0
 21
-634.0
 31
0.0
1001
ACDBBLOCKREPETAG
1070
     1
1071
       45
1005
1392DD
  0
LINE
  5
1392DE
  8
OBJECT
 10
4140.0
 20
-634.0
 30
0.0
 11
4140.0
 21
-755.0
 31
0.0
1001
ACDBBLOCKREPETAG
1070
     1
1071
       46
1005
1392DE
  0
LINE
  5
1392DF
  8
OBJECT
 10
4133.0
 20
-755.0
 30
0.0
 11
4133.0
 21
-634.0
 31
0.0
1001
ACDBBLOCKREPETAG
1070
     1
1071
       47
1005
1392DF
  0
LINE
  5
1392E0
  8
CENTER
 10
4155.0
 20
-696.0
 30
0.0
 11
4071.0
 21
-696.0
 31
0.0
1001
ACDBBLOCKREPETAG
1070
     1
1071
       48
1005
1392E0
  0
LINE
  5
1392E1
  8
OBJECT
 10
4133.0
 20
-637.0
 30
0.0
 11
4097.0
 21
-637.0
 31
0.0
1001
ACDBBLOCKREPETAG
1070
     1
1071
       49
1005
1392E1
  0
LINE
  5
1392E2
  8
OBJECT
 10
4097.0
 20
-637.0
 30
0.0
 11
4097.0
 21
-755.0
 31
0.0
1001
ACDBBLOCKREPETAG
1070
     1
1071
       50
1005
1392E2
  0
LINE
  5
1392E3
  8
OBJECT
 10
4097.0
 20
-755.0
 30
0.0
 11
4140.0
 21
-755.0
 31
0.0
1001
ACDBBLOCKREPETAG
1070
     1
1071
       51
1005
1392E3
  0
LINE
  5
1392E4
  8
OBJECT
 10
4093.0
 20
-641.5
 30
0.0
 11
4086.0
 21
-641.5
 31
0.0
1001
ACDBBLOCKREPETAG
1070
     1
1071
       52
1005
1392E4
  0
LINE
  5
1392E5
  8
OBJECT
 10
4086.0
 20
-750.49999999999989
 30
0.0
 11
4093.0
 21
-750.49999999999989
 31
0.0
1001
ACDBBLOCKREPETAG
1070
     1
1071
       53
1005
1392E5
  0
LINE
  5
1392E6
  8
OBJECT
 10
4093.0
 20
-750.49999999999989
 30
0.0
 11
4093.0
 21
-641.5
 31
0.0
1001
ACDBBLOCKREPETAG
1070
     1
1071
       54
1005
1392E6
  0
LINE
  5
1392E7
  8
OBJECT
 10
4097.0
 20
-637.0
 30
0.0
 11
4093.0
 21
-641.5
 31
0.0
1001
ACDBBLOCKREPETAG
1070
     1
1071
       55
1005
1392E7
  0
LINE
  5
1392E8
  8
OBJECT
 10
4097.0
 20
-755.0
 30
0.0
 11
4093.0
 21
-750.49999999999989
 31
0.0
1001
ACDBBLOCKREPETAG
1070
     1
1071
       56
1005
1392E8
  0
LINE
  5
1392E9
  8
OBJECT
 10
4083.0
 20
-634.0
 30
0.0
 11
4080.0
 21
-634.0
 31
0.0
1001
ACDBBLOCKREPETAG
1070
     1
1071
       57
1005
1392E9
  0
ARC
  5
1392EA
  8
OBJECT
 10
4083.0
 20
-637.0
 30
0.0
 40
3.0
 50
0.0
 51
90.0
1001
ACDBBLOCKREPETAG
1070
     1
1071
       58
1005
1392EA
  0
LINE
  5
1392EB
  8
OBJECT
 10
4080.0
 20
-758.0
 30
0.0
 11
4083.0
 21
-758.0
 31
0.0
1001
ACDBBLOCKREPETAG
1070
     1
1071
       59
1005
1392EB
  0
ARC
  5
1392EC
  8
OBJECT
 10
4083.0
 20
-755.0
 30
0.0
 40
3.0
 50
270.0
 51
0.0
1001
ACDBBLOCKREPETAG
1070
     1
1071
       60
1005
1392EC
  0
LINE
  5
1392ED
  8
OBJECT
 10
4086.0
 20
-755.0
 30
0.0
 11
4086.0
 21
-637.0
 31
0.0
1001
ACDBBLOCKREPETAG
1070
     1
1071
       61
1005
1392ED
  0
LINE
  5
1392EE
  8
HIDDEN
 10
4088.0
 20
-651.5
 30
0.0
 11
4088.0
 21
-740.5
 31
0.0
1001
ACDBBLOCKREPETAG
1070
     1
1071
       63
1005
1392EE
  0
LINE
  5
1392EF
  8
OBJECT
 10
94.000000000034575
 20
-3551.0000000009109
 30
0.0
 11
94.000000000034575
 21
-3548.0000000009109
 31
0.0
1001
ACDBBLOCKREPETAG
1070
     1
1071
      418
1005
1392EF
  0
ARC
  5
1392F0
  8
OBJECT
 10
97.000000000034561
 20
-3551.0000000009109
 30
0.0
 40
3.0
 50
180.0
 51
270.0
1001
ACDBBLOCKREPETAG
1070
     1
1071
      419
1005
1392F0
  0
LINE
  5
1392F1
  8
OBJECT
 10
218.00000000003459
 20
-3548.0000000009109
 30
0.0
 11
218.00000000003459
 21
-3551.0000000009109
 31
0.0
1001
ACDBBLOCKREPETAG
1070
     1
1071
      420
1005
1392F1
  0
ARC
  5
1392F2
  8
OBJECT
 10
215.00000000003459
 20
-3551.0000000009109
 30
0.0
 40
3.0
 50
270.0
 51
0.0
1001
ACDBBLOCKREPETAG
1070
     1
1071
      421
1005
1392F2
  0
LINE
  5
1392F3
  8
OBJECT
 10
215.00000000003459
 20
-3554.0000000009109
 30
0.0
 11
97.000000000034561
 21
-3554.0000000009109
 31
0.0
1001
ACDBBLOCKREPETAG
1070
     1
1071
      422
1005
1392F3
  0
INSERT
  5
1392F4
  8
OBJECT
  2
*U41
 10
0.0
 20
0.0
 30
0.0
  0
LINE
  5
1392F5
  8
OBJECT
 10
289.00000000003462
 20
-3406.0000000009109
 30
0.0
 11
296.0000000000345
 21
-3406.0000000009109
 31
0.0
1001
ACDBBLOCKREPETAG
1070
     1
1071
       39
1005
1392F5
  0
LINE
  5
1392F6
  8
OBJECT
 10
296.0000000000345
 20
-3406.0000000009109
 30
0.0
 11
296.0000000000345
 21
-3530.0000000009109
 31
0.0
1001
ACDBBLOCKREPETAG
1070
     1
1071
       40
1005
1392F6
  0
LINE
  5
1392F7
  8
OBJECT
 10
296.0000000000345
 20
-3530.0000000009109
 30
0.0
 11
289.00000000003462
 21
-3530.0000000009109
 31
0.0
1001
ACDBBLOCKREPETAG
1070
     1
1071
       41
1005
1392F7
  0
LINE
  5
1392F8
  8
OBJECT
 10
289.00000000003462
 20
-3530.0000000009109
 30
0.0
 11
289.00000000003462
 21
-3406.0000000009109
 31
0.0
1001
ACDBBLOCKREPETAG
1070
     1
1071
       42
1005
1392F8
  0
LINE
  5
1392F9
  8
OBJECT
 10
289.00000000003462
 20
-3409.0000000009109
 30
0.0
 11
253.00000000003459
 21
-3409.0000000009109
 31
0.0
1001
ACDBBLOCKREPETAG
1070
     1
1071
       43
1005
1392F9
  0
LINE
  5
1392FA
  8
OBJECT
 10
253.00000000003459
 20
-3409.0000000009109
 30
0.0
 11
253.00000000003459
 21
-3527.0000000009109
 31
0.0
1001
ACDBBLOCKREPETAG
1070
     1
1071
       44
1005
1392FA
  0
LINE
  5
1392FB
  8
OBJECT
 10
253.00000000003459
 20
-3527.0000000009109
 30
0.0
 11
289.00000000003462
 21
-3527.0000000009109
 31
0.0
1001
ACDBBLOCKREPETAG
1070
     1
1071
       45
1005
1392FB
  0
LINE
  5
1392FC
  8
OBJECT
 10
249.00000000003459
 20
-3413.5000000009122
 30
0.0
 11
242.00000000003459
 21
-3413.5000000009122
 31
0.0
1001
ACDBBLOCKREPETAG
1070
     1
1071
       46
1005
1392FC
  0
LINE
  5
1392FD
  8
OBJECT
 10
242.00000000003459
 20
-3522.5000000009109
 30
0.0
 11
249.00000000003459
 21
-3522.5000000009109
 31
0.0
1001
ACDBBLOCKREPETAG
1070
     1
1071
       47
1005
1392FD
  0
LINE
  5
1392FE
  8
OBJECT
 10
249.00000000003459
 20
-3522.5000000009109
 30
0.0
 11
249.00000000003459
 21
-3413.5000000009122
 31
0.0
1001
ACDBBLOCKREPETAG
1070
     1
1071
       48
1005
1392FE
  0
LINE
  5
1392FF
  8
OBJECT
 10
253.00000000003459
 20
-3409.0000000009109
 30
0.0
 11
249.00000000003459
 21
-3413.5000000009122
 31
0.0
1001
ACDBBLOCKREPETAG
1070
     1
1071
       49
1005
1392FF
  0
LINE
  5
139300
  8
OBJECT
 10
253.00000000003459
 20
-3527.0000000009109
 30
0.0
 11
249.00000000003459
 21
-3522.5000000009109
 31
0.0
1001
ACDBBLOCKREPETAG
1070
     1
1071
       50
1005
139300
  0
LINE
  5
139301
  8
OBJECT
 10
239.00000000003641
 20
-3406.0000000009109
 30
0.0
 11
236.00000000003459
 21
-3406.0000000009109
 31
0.0
1001
ACDBBLOCKREPETAG
1070
     1
1071
       51
1005
139301
  0
ARC
  5
139302
  8
OBJECT
 10
239.00000000003641
 20
-3409.0000000009109
 30
0.0
 40
3.0
 50
0.0
 51
90.0
1001
ACDBBLOCKREPETAG
1070
     1
1071
       52
1005
139302
  0
LINE
  5
139303
  8
OBJECT
 10
236.00000000003459
 20
-3530.0000000009109
 30
0.0
 11
239.00000000003271
 21
-3530.0000000009109
 31
0.0
1001
ACDBBLOCKREPETAG
1070
     1
1071
       53
1005
139303
  0
ARC
  5
139304
  8
OBJECT
 10
239.00000000003271
 20
-3527.0000000009109
 30
0.0
 40
3.0
 50
270.0
 51
0.0
1001
ACDBBLOCKREPETAG
1070
     1
1071
       54
1005
139304
  0
LINE
  5
139305
  8
OBJECT
 10
242.0000000000328
 20
-3527.0000000009109
 30
0.0
 11
242.00000000003641
 21
-3409.0000000009109
 31
0.0
1001
ACDBBLOCKREPETAG
1070
     1
1071
       55
1005
139305
  0
LINE
  5
139306
  8
HIDDEN
 10
244.0000000000345
 20
-3423.5000000009122
 30
0.0
 11
244.0000000000345
 21
-3512.5000000009122
 31
0.0
1001
ACDBBLOCKREPETAG
1070
     1
1071
      430
1005
139306
  0
LINE
  5
139307
  8
OBJECT
 10
81.000000000034561
 20
-3318.0000000009122
 30
0.0
 11
81.000000000034561
 21
-3325.0000000009122
 31
0.0
1001
ACDBBLOCKREPETAG
1070
     1
1071
       57
1005
139307
  0
LINE
  5
139308
  8
OBJECT
 10
81.000000000034561
 20
-3325.0000000009122
 30
0.0
 11
231.0000000000345
 21
-3325.0000000009122
 31
0.0
1001
ACDBBLOCKREPETAG
1070
     1
1071
       58
1005
139308
  0
LINE
  5
139309
  8
OBJECT
 10
84.000000000034575
 20
-3366.5000000009109
 30
0.0
 11
228.00000000003459
 21
-3366.5000000009109
 31
0.0
1001
ACDBBLOCKREPETAG
1070
     1
1071
       59
1005
139309
  0
LINE
  5
13930A
  8
OBJECT
 10
90.500000000034547
 20
-3378.0000000009109
 30
0.0
 11
221.50000000003459
 21
-3378.0000000009109
 31
0.0
1001
ACDBBLOCKREPETAG
1070
     1
1071
       60
1005
13930A
  0
LINE
  5
13930B
  8
OBJECT
 10
231.0000000000345
 20
-3325.0000000009122
 30
0.0
 11
231.0000000000345
 21
-3318.0000000009122
 31
0.0
1001
ACDBBLOCKREPETAG
1070
     1
1071
       61
1005
13930B
  0
LINE
  5
13930C
  8
OBJECT
 10
231.0000000000345
 20
-3318.0000000009122
 30
0.0
 11
81.000000000034561
 21
-3318.0000000009122
 31
0.0
1001
ACDBBLOCKREPETAG
1070
     1
1071
       62
1005
13930C
  0
LINE
  5
13930D
  8
OBJECT
 10
218.00000000003459
 20
-3382.0000000009122
 30
0.0
 11
218.00000000003459
 21
-3388.0000000009109
 31
0.0
1001
ACDBBLOCKREPETAG
1070
     1
1071
       63
1005
13930D
  0
LINE
  5
13930E
  8
OBJECT
 10
228.00000000003459
 20
-3325.0000000009122
 30
0.0
 11
228.00000000003459
 21
-3366.5000000009109
 31
0.0
1001
ACDBBLOCKREPETAG
1070
     1
1071
       64
1005
13930E
  0
LINE
  5
13930F
  8
OBJECT
 10
228.00000000003459
 20
-3366.5000000009109
 30
0.0
 11
221.50000000003459
 21
-3378.0000000009109
 31
0.0
1001
ACDBBLOCKREPETAG
1070
     1
1071
       65
1005
13930F
  0
LINE
  5
139310
  8
OBJECT
 10
221.50000000003459
 20
-3378.0000000009109
 30
0.0
 11
218.00000000003459
 21
-3382.0000000009122
 31
0.0
1001
ACDBBLOCKREPETAG
1070
     1
1071
       66
1005
139310
  0
LINE
  5
139311
  8
OBJECT
 10
84.000000000034575
 20
-3366.5000000009109
 30
0.0
 11
90.500000000034547
 21
-3378.0000000009109
 31
0.0
1001
ACDBBLOCKREPETAG
1070
     1
1071
       67
1005
139311
  0
LINE
  5
139312
  8
OBJECT
 10
90.500000000034547
 20
-3378.0000000009109
 30
0.0
 11
94.000000000034575
 21
-3382.0000000009122
 31
0.0
1001
ACDBBLOCKREPETAG
1070
     1
1071
       68
1005
139312
  0
ARC
  5
139313
  8
OBJECT
 10
156.0000000000345
 20
-3000.1000000009099
 30
0.0
 40
386.89999999999998
 50
260.77870136257849
 51
279.22129863742163
1001
ACDBBLOCKREPETAG
1070
     1
1071
       69
1005
139313
  0
LINE
  5
139314
  8
OBJECT
 10
94.000000000034575
 20
-3382.0000000009122
 30
0.0
 11
94.000000000034575
 21
-3388.0000000009109
 31
0.0
1001
ACDBBLOCKREPETAG
1070
     1
1071
       70
1005
139314
  0
LINE
  5
139315
  8
OBJECT
 10
84.000000000034575
 20
-3325.0000000009122
 30
0.0
 11
84.000000000034575
 21
-3366.5000000009109
 31
0.0
1001
ACDBBLOCKREPETAG
1070
     1
1071
       71
1005
139315
  0
INSERT
  5
139316
  8
OBJECT
  2
*U42
 10
0.0
 20
0.0
 30
0.0
  0
LINE
  5
139317
  8
HIDDEN
 10
213.00000000003459
 20
-3370.0000000009109
 30
0.0
 11
99.000000000034575
 21
-3370.0000000009109
 31
0.0
1001
ACDBBLOCKREPETAG
1070
     1
1071
      431
1005
139317
  0
LINE
  5
139318
  8
OBJECT
 10
454.00000000011448
 20
-3551.0000000009109
 30
0.0
 11
454.00000000011448
 21
-3548.0000000009109
 31
0.0
1001
ACDBBLOCKREPETAG
1070
     1
1071
      418
1005
139318
  0
ARC
  5
139319
  8
OBJECT
 10
457.0000000001146
 20
-3551.0000000009109
 30
0.0
 40
3.0
 50
180.0
 51
270.0
1001
ACDBBLOCKREPETAG
1070
     1
1071
      419
1005
139319
  0
LINE
  5
13931A
  8
OBJECT
 10
578.00000000011448
 20
-3548.0000000009109
 30
0.0
 11
578.00000000011448
 21
-3551.0000000009109
 31
0.0
1001
ACDBBLOCKREPETAG
1070
     1
1071
      420
1005
13931A
  0
ARC
  5
13931B
  8
OBJECT
 10
575.00000000011437
 20
-3551.0000000009109
 30
0.0
 40
3.0
 50
270.0
 51
0.0
1001
ACDBBLOCKREPETAG
1070
     1
1071
      421
1005
13931B
  0
LINE
  5
13931C
  8
OBJECT
 10
575.00000000011437
 20
-3554.0000000009109
 30
0.0
 11
457.0000000001146
 21
-3554.0000000009109
 31
0.0
1001
ACDBBLOCKREPETAG
1070
     1
1071
      422
1005
13931C
  0
LINE
  5
13931D
  8
OBJECT
 10
666.00000000011448
 20
-3393.0000000009122
 30
0.0
 11
659.0000000001146
 21
-3393.0000000009122
 31
0.0
1001
ACDBBLOCKREPETAG
1070
     1
1071
       57
1005
13931D
  0
LINE
  5
13931E
  8
OBJECT
 10
659.0000000001146
 20
-3393.0000000009122
 30
0.0
 11
659.0000000001146
 21
-3543.0000000009122
 31
0.0
1001
ACDBBLOCKREPETAG
1070
     1
1071
       58
1005
13931E
  0
LINE
  5
13931F
  8
OBJECT
 10
617.5000000001146
 20
-3396.0000000009122
 30
0.0
 11
617.5000000001146
 21
-3540.0000000009122
 31
0.0
1001
ACDBBLOCKREPETAG
1070
     1
1071
       59
1005
13931F
  0
LINE
  5
139320
  8
OBJECT
 10
606.0000000001146
 20
-3402.5000000009122
 30
0.0
 11
606.0000000001146
 21
-3533.5000000009122
 31
0.0
1001
ACDBBLOCKREPETAG
1070
     1
1071
       60
1005
139320
  0
LINE
  5
139321
  8
OBJECT
 10
659.0000000001146
 20
-3543.0000000009122
 30
0.0
 11
666.00000000011448
 21
-3543.0000000009122
 31
0.0
1001
ACDBBLOCKREPETAG
1070
     1
1071
       61
1005
139321
  0
LINE
  5
139322
  8
OBJECT
 10
666.00000000011448
 20
-3543.0000000009122
 30
0.0
 11
666.00000000011448
 21
-3393.0000000009122
 31
0.0
1001
ACDBBLOCKREPETAG
1070
     1
1071
       62
1005
139322
  0
LINE
  5
139323
  8
OBJECT
 10
602.0000000001146
 20
-3530.0000000009109
 30
0.0
 11
596.00000000011437
 21
-3530.0000000009109
 31
0.0
1001
ACDBBLOCKREPETAG
1070
     1
1071
       63
1005
139323
  0
LINE
  5
139324
  8
OBJECT
 10
659.0000000001146
 20
-3540.0000000009122
 30
0.0
 11
617.5000000001146
 21
-3540.0000000009122
 31
0.0
1001
ACDBBLOCKREPETAG
1070
     1
1071
       64
1005
139324
  0
LINE
  5
139325
  8
OBJECT
 10
617.5000000001146
 20
-3540.0000000009122
 30
0.0
 11
606.0000000001146
 21
-3533.5000000009122
 31
0.0
1001
ACDBBLOCKREPETAG
1070
     1
1071
       65
1005
139325
  0
LINE
  5
139326
  8
OBJECT
 10
606.0000000001146
 20
-3533.5000000009122
 30
0.0
 11
602.0000000001146
 21
-3530.0000000009109
 31
0.0
1001
ACDBBLOCKREPETAG
1070
     1
1071
       66
1005
139326
  0
LINE
  5
139327
  8
OBJECT
 10
617.5000000001146
 20
-3396.0000000009122
 30
0.0
 11
606.0000000001146
 21
-3402.5000000009122
 31
0.0
1001
ACDBBLOCKREPETAG
1070
     1
1071
       67
1005
139327
  0
LINE
  5
139328
  8
OBJECT
 10
606.0000000001146
 20
-3402.5000000009122
 30
0.0
 11
602.0000000001146
 21
-3406.0000000009109
 31
0.0
1001
ACDBBLOCKREPETAG
1070
     1
1071
       68
1005
139328
  0
ARC
  5
139329
  8
OBJECT
 10
983.90000000011605
 20
-3468.0000000009122
 30
0.0
 40
386.89999999999998
 50
170.77870136263201
 51
189.22129863736799
1001
ACDBBLOCKREPETAG
1070
     1
1071
       69
1005
139329
  0
LINE
  5
13932A
  8
OBJECT
 10
602.0000000001146
 20
-3406.0000000009109
 30
0.0
 11
596.00000000011437
 21
-3406.0000000009109
 31
0.0
1001
ACDBBLOCKREPETAG
1070
     1
1071
       70
1005
13932A
  0
LINE
  5
13932B
  8
OBJECT
 10
659.0000000001146
 20
-3396.0000000009122
 30
0.0
 11
617.5000000001146
 21
-3396.0000000009122
 31
0.0
1001
ACDBBLOCKREPETAG
1070
     1
1071
       71
1005
13932B
  0
INSERT
  5
13932C
  8
OBJECT
  2
*U43
 10
0.0
 20
0.0
 30
0.0
  0
LINE
  5
13932D
  8
HIDDEN
 10
614.0000000001146
 20
-3525.0000000009122
 30
0.0
 11
614.0000000001146
 21
-3411.0000000009122
 31
0.0
1001
ACDBBLOCKREPETAG
1070
     1
1071
      437
1005
13932D
  0
LINE
  5
13932E
  8
OBJECT
 10
441.00000000011448
 20
-3318.0000000009122
 30
0.0
 11
441.00000000011448
 21
-3325.0000000009122
 31
0.0
1001
ACDBBLOCKREPETAG
1070
     1
1071
       57
1005
13932E
  0
LINE
  5
13932F
  8
OBJECT
 10
441.00000000011448
 20
-3325.0000000009122
 30
0.0
 11
591.00000000011448
 21
-3325.0000000009122
 31
0.0
1001
ACDBBLOCKREPETAG
1070
     1
1071
       58
1005
13932F
  0
LINE
  5
139330
  8
OBJECT
 10
444.0000000001146
 20
-3366.5000000009109
 30
0.0
 11
588.00000000011437
 21
-3366.5000000009109
 31
0.0
1001
ACDBBLOCKREPETAG
1070
     1
1071
       59
1005
139330
  0
LINE
  5
139331
  8
OBJECT
 10
450.50000000011448
 20
-3378.0000000009109
 30
0.0
 11
581.5000000001146
 21
-3378.0000000009109
 31
0.0
1001
ACDBBLOCKREPETAG
1070
     1
1071
       60
1005
139331
  0
LINE
  5
139332
  8
OBJECT
 10
591.00000000011448
 20
-3325.0000000009122
 30
0.0
 11
591.00000000011448
 21
-3318.0000000009122
 31
0.0
1001
ACDBBLOCKREPETAG
1070
     1
1071
       61
1005
139332
  0
LINE
  5
139333
  8
OBJECT
 10
591.00000000011448
 20
-3318.0000000009122
 30
0.0
 11
441.00000000011448
 21
-3318.0000000009122
 31
0.0
1001
ACDBBLOCKREPETAG
1070
     1
1071
       62
1005
139333
  0
LINE
  5
139334
  8
OBJECT
 10
578.00000000011448
 20
-3382.0000000009122
 30
0.0
 11
578.00000000011448
 21
-3388.0000000009109
 31
0.0
1001
ACDBBLOCKREPETAG
1070
     1
1071
       63
1005
139334
  0
LINE
  5
139335
  8
OBJECT
 10
588.00000000011437
 20
-3325.0000000009122
 30
0.0
 11
588.00000000011437
 21
-3366.5000000009109
 31
0.0
1001
ACDBBLOCKREPETAG
1070
     1
1071
       64
1005
139335
  0
LINE
  5
139336
  8
OBJECT
 10
588.00000000011437
 20
-3366.5000000009109
 30
0.0
 11
581.5000000001146
 21
-3378.0000000009109
 31
0.0
1001
ACDBBLOCKREPETAG
1070
     1
1071
       65
1005
139336
  0
LINE
  5
139337
  8
OBJECT
 10
581.5000000001146
 20
-3378.0000000009109
 30
0.0
 11
578.00000000011448
 21
-3382.0000000009122
 31
0.0
1001
ACDBBLOCKREPETAG
1070
     1
1071
       66
1005
139337
  0
LINE
  5
139338
  8
OBJECT
 10
444.0000000001146
 20
-3366.5000000009109
 30
0.0
 11
450.50000000011448
 21
-3378.0000000009109
 31
0.0
1001
ACDBBLOCKREPETAG
1070
     1
1071
       67
1005
139338
  0
LINE
  5
139339
  8
OBJECT
 10
450.50000000011448
 20
-3378.0000000009109
 30
0.0
 11
454.00000000011448
 21
-3382.0000000009122
 31
0.0
1001
ACDBBLOCKREPETAG
1070
     1
1071
       68
1005
139339
  0
ARC
  5
13933A
  8
OBJECT
 10
516.00000000011448
 20
-3000.1000000009099
 30
0.0
 40
386.89999999999998
 50
260.77870136257849
 51
279.22129863742163
1001
ACDBBLOCKREPETAG
1070
     1
1071
       69
1005
13933A
  0
LINE
  5
13933B
  8
OBJECT
 10
454.00000000011448
 20
-3382.0000000009122
 30
0.0
 11
454.00000000011448
 21
-3388.0000000009109
 31
0.0
1001
ACDBBLOCKREPETAG
1070
     1
1071
       70
1005
13933B
  0
LINE
  5
13933C
  8
OBJECT
 10
444.0000000001146
 20
-3325.0000000009122
 30
0.0
 11
444.0000000001146
 21
-3366.5000000009109
 31
0.0
1001
ACDBBLOCKREPETAG
1070
     1
1071
       71
1005
13933C
  0
INSERT
  5
13933D
  8
OBJECT
  2
*U44
 10
0.0
 20
0.0
 30
0.0
  0
LINE
  5
13933E
  8
HIDDEN
 10
573.0000000001146
 20
-3370.0000000009109
 30
0.0
 11
459.0000000001146
 21
-3370.0000000009109
 31
0.0
1001
ACDBBLOCKREPETAG
1070
     1
1071
      431
1005
13933E
  0
LINE
  5
13933F
  8
OBJECT
 10
454.00000000011448
 20
-3087.0000000009049
 30
0.0
 11
454.00000000011448
 21
-3084.0000000009049
 31
0.0
1001
ACDBBLOCKREPETAG
1070
     1
1071
      418
1005
13933F
  0
ARC
  5
139340
  8
OBJECT
 10
457.0000000001146
 20
-3087.0000000009049
 30
0.0
 40
3.0
 50
180.0
 51
270.0
1001
ACDBBLOCKREPETAG
1070
     1
1071
      419
1005
139340
  0
LINE
  5
139341
  8
OBJECT
 10
578.00000000011448
 20
-3084.0000000009049
 30
0.0
 11
578.00000000011448
 21
-3087.0000000009049
 31
0.0
1001
ACDBBLOCKREPETAG
1070
     1
1071
      420
1005
139341
  0
ARC
  5
139342
  8
OBJECT
 10
575.00000000011437
 20
-3087.0000000009049
 30
0.0
 40
3.0
 50
270.0
 51
0.0
1001
ACDBBLOCKREPETAG
1070
     1
1071
      421
1005
139342
  0
LINE
  5
139343
  8
OBJECT
 10
575.00000000011437
 20
-3090.0000000009049
 30
0.0
 11
457.0000000001146
 21
-3090.0000000009049
 31
0.0
1001
ACDBBLOCKREPETAG
1070
     1
1071
      422
1005
139343
  0
INSERT
  5
139344
  8
OBJECT
  2
*U45
 10
0.0
 20
0.0
 30
0.0
  0
LINE
  5
139345
  8
OBJECT
 10
649.00000000011448
 20
-2949.0000000009049
 30
0.0
 11
656.0000000001146
 21
-2949.0000000009049
 31
0.0
1001
ACDBBLOCKREPETAG
1070
     1
1071
       20
1005
139345
  0
LINE
  5
139346
  8
OBJECT
 10
656.0000000001146
 20
-2949.0000000009049
 30
0.0
 11
656.0000000001146
 21
-3059.0000000009049
 31
0.0
1001
ACDBBLOCKREPETAG
1070
     1
1071
       21
1005
139346
  0
LINE
  5
139347
  8
OBJECT
 10
656.0000000001146
 20
-3059.0000000009049
 30
0.0
 11
649.00000000011448
 21
-3059.0000000009049
 31
0.0
1001
ACDBBLOCKREPETAG
1070
     1
1071
       22
1005
139347
  0
LINE
  5
139348
  8
OBJECT
 10
649.00000000011448
 20
-3059.0000000009049
 30
0.0
 11
649.00000000011448
 21
-2949.0000000009049
 31
0.0
1001
ACDBBLOCKREPETAG
1070
     1
1071
       23
1005
139348
  0
LINE
  5
139349
  8
OBJECT
 10
649.00000000011448
 20
-2952.0000000009049
 30
0.0
 11
613.0000000001146
 21
-2952.0000000009049
 31
0.0
1001
ACDBBLOCKREPETAG
1070
     1
1071
       24
1005
139349
  0
LINE
  5
13934A
  8
OBJECT
 10
613.0000000001146
 20
-2952.0000000009049
 30
0.0
 11
613.0000000001146
 21
-3056.0000000009049
 31
0.0
1001
ACDBBLOCKREPETAG
1070
     1
1071
       25
1005
13934A
  0
LINE
  5
13934B
  8
OBJECT
 10
613.0000000001146
 20
-3056.0000000009049
 30
0.0
 11
649.00000000011448
 21
-3056.0000000009049
 31
0.0
1001
ACDBBLOCKREPETAG
1070
     1
1071
       26
1005
13934B
  0
LINE
  5
13934C
  8
OBJECT
 10
609.0000000001146
 20
-2956.5000000009049
 30
0.0
 11
602.0000000001146
 21
-2956.5000000009049
 31
0.0
1001
ACDBBLOCKREPETAG
1070
     1
1071
       27
1005
13934C
  0
LINE
  5
13934D
  8
OBJECT
 10
602.0000000001146
 20
-3051.5000000009049
 30
0.0
 11
609.0000000001146
 21
-3051.5000000009049
 31
0.0
1001
ACDBBLOCKREPETAG
1070
     1
1071
       28
1005
13934D
  0
LINE
  5
13934E
  8
OBJECT
 10
609.0000000001146
 20
-3051.5000000009049
 30
0.0
 11
609.0000000001146
 21
-2956.5000000009049
 31
0.0
1001
ACDBBLOCKREPETAG
1070
     1
1071
       29
1005
13934E
  0
LINE
  5
13934F
  8
OBJECT
 10
613.0000000001146
 20
-2952.0000000009049
 30
0.0
 11
609.0000000001146
 21
-2956.5000000009049
 31
0.0
1001
ACDBBLOCKREPETAG
1070
     1
1071
       30
1005
13934F
  0
LINE
  5
139350
  8
OBJECT
 10
613.0000000001146
 20
-3056.0000000009049
 30
0.0
 11
609.0000000001146
 21
-3051.5000000009049
 31
0.0
1001
ACDBBLOCKREPETAG
1070
     1
1071
       31
1005
139350
  0
LINE
  5
139351
  8
OBJECT
 10
599.00000000011619
 20
-2942.0000000009049
 30
0.0
 11
596.00000000011437
 21
-2942.0000000009049
 31
0.0
1001
ACDBBLOCKREPETAG
1070
     1
1071
       32
1005
139351
  0
ARC
  5
139352
  8
OBJECT
 10
599.00000000011619
 20
-2945.0000000009049
 30
0.0
 40
3.0
 50
0.0
 51
90.0
1001
ACDBBLOCKREPETAG
1070
     1
1071
       33
1005
139352
  0
LINE
  5
139353
  8
OBJECT
 10
596.00000000011437
 20
-3066.0000000009049
 30
0.0
 11
599.00000000011278
 21
-3066.0000000009049
 31
0.0
1001
ACDBBLOCKREPETAG
1070
     1
1071
       34
1005
139353
  0
ARC
  5
139354
  8
OBJECT
 10
599.00000000011278
 20
-3063.0000000009049
 30
0.0
 40
3.0
 50
270.0
 51
0.0
1001
ACDBBLOCKREPETAG
1070
     1
1071
       35
1005
139354
  0
LINE
  5
139355
  8
OBJECT
 10
602.00000000011266
 20
-3063.0000000009049
 30
0.0
 11
602.0000000001163
 21
-2945.0000000009049
 31
0.0
1001
ACDBBLOCKREPETAG
1070
     1
1071
       36
1005
139355
  0
LINE
  5
139356
  8
HIDDEN
 10
604.00000000011437
 20
-2966.0000000009049
 30
0.0
 11
604.00000000011437
 21
-3042.0000000009049
 31
0.0
1001
ACDBBLOCKREPETAG
1070
     1
1071
      427
1005
139356
  0
LINE
  5
139357
  8
OBJECT
 10
441.00000000011448
 20
-2854.0000000009049
 30
0.0
 11
441.00000000011448
 21
-2861.0000000009049
 31
0.0
1001
ACDBBLOCKREPETAG
1070
     1
1071
       57
1005
139357
  0
LINE
  5
139358
  8
OBJECT
 10
441.00000000011448
 20
-2861.0000000009049
 30
0.0
 11
591.00000000011448
 21
-2861.0000000009049
 31
0.0
1001
ACDBBLOCKREPETAG
1070
     1
1071
       58
1005
139358
  0
LINE
  5
139359
  8
OBJECT
 10
444.0000000001146
 20
-2902.5000000009049
 30
0.0
 11
588.00000000011437
 21
-2902.5000000009049
 31
0.0
1001
ACDBBLOCKREPETAG
1070
     1
1071
       59
1005
139359
  0
LINE
  5
13935A
  8
OBJECT
 10
450.50000000011448
 20
-2914.0000000009049
 30
0.0
 11
581.5000000001146
 21
-2914.0000000009049
 31
0.0
1001
ACDBBLOCKREPETAG
1070
     1
1071
       60
1005
13935A
  0
LINE
  5
13935B
  8
OBJECT
 10
591.00000000011448
 20
-2861.0000000009049
 30
0.0
 11
591.00000000011448
 21
-2854.0000000009049
 31
0.0
1001
ACDBBLOCKREPETAG
1070
     1
1071
       61
1005
13935B
  0
LINE
  5
13935C
  8
OBJECT
 10
591.00000000011448
 20
-2854.0000000009049
 30
0.0
 11
441.00000000011448
 21
-2854.0000000009049
 31
0.0
1001
ACDBBLOCKREPETAG
1070
     1
1071
       62
1005
13935C
  0
LINE
  5
13935D
  8
OBJECT
 10
578.00000000011448
 20
-2918.0000000009049
 30
0.0
 11
578.00000000011448
 21
-2924.0000000009049
 31
0.0
1001
ACDBBLOCKREPETAG
1070
     1
1071
       63
1005
13935D
  0
LINE
  5
13935E
  8
OBJECT
 10
588.00000000011437
 20
-2861.0000000009049
 30
0.0
 11
588.00000000011437
 21
-2902.5000000009049
 31
0.0
1001
ACDBBLOCKREPETAG
1070
     1
1071
       64
1005
13935E
  0
LINE
  5
13935F
  8
OBJECT
 10
588.00000000011437
 20
-2902.5000000009049
 30
0.0
 11
581.5000000001146
 21
-2914.0000000009049
 31
0.0
1001
ACDBBLOCKREPETAG
1070
     1
1071
       65
1005
13935F
  0
LINE
  5
139360
  8
OBJECT
 10
581.5000000001146
 20
-2914.0000000009049
 30
0.0
 11
578.00000000011448
 21
-2918.0000000009049
 31
0.0
1001
ACDBBLOCKREPETAG
1070
     1
1071
       66
1005
139360
  0
LINE
  5
139361
  8
OBJECT
 10
444.0000000001146
 20
-2902.5000000009049
 30
0.0
 11
450.50000000011448
 21
-2914.0000000009049
 31
0.0
1001
ACDBBLOCKREPETAG
1070
     1
1071
       67
1005
139361
  0
LINE
  5
139362
  8
OBJECT
 10
450.50000000011448
 20
-2914.0000000009049
 30
0.0
 11
454.00000000011448
 21
-2918.0000000009049
 31
0.0
1001
ACDBBLOCKREPETAG
1070
     1
1071
       68
1005
139362
  0
ARC
  5
139363
  8
OBJECT
 10
516.00000000011448
 20
-2536.100000000903
 30
0.0
 40
386.89999999999998
 50
260.77870136257849
 51
279.22129863742163
1001
ACDBBLOCKREPETAG
1070
     1
1071
       69
1005
139363
  0
LINE
  5
139364
  8
OBJECT
 10
454.00000000011448
 20
-2918.0000000009049
 30
0.0
 11
454.00000000011448
 21
-2924.0000000009049
 31
0.0
1001
ACDBBLOCKREPETAG
1070
     1
1071
       70
1005
139364
  0
LINE
  5
139365
  8
OBJECT
 10
444.0000000001146
 20
-2861.0000000009049
 30
0.0
 11
444.0000000001146
 21
-2902.5000000009049
 31
0.0
1001
ACDBBLOCKREPETAG
1070
     1
1071
       71
1005
139365
  0
INSERT
  5
139366
  8
OBJECT
  2
*U46
 10
0.0
 20
0.0
 30
0.0
  0
LINE
  5
139367
  8
HIDDEN
 10
573.0000000001146
 20
-2906.0000000009049
 30
0.0
 11
459.0000000001146
 21
-2906.0000000009049
 31
0.0
1001
ACDBBLOCKREPETAG
1070
     1
1071
      431
1005
139367
  0
LINE
  5
139368
  8
OBJECT
 10
94.000000000034575
 20
-3087.0000000009049
 30
0.0
 11
94.000000000034575
 21
-3084.0000000009049
 31
0.0
1001
ACDBBLOCKREPETAG
1070
     1
1071
      418
1005
139368
  0
ARC
  5
139369
  8
OBJECT
 10
97.000000000034561
 20
-3087.0000000009049
 30
0.0
 40
3.0
 50
180.0
 51
270.0
1001
ACDBBLOCKREPETAG
1070
     1
1071
      419
1005
139369
  0
LINE
  5
13936A
  8
OBJECT
 10
218.00000000003459
 20
-3084.0000000009049
 30
0.0
 11
218.00000000003459
 21
-3087.0000000009049
 31
0.0
1001
ACDBBLOCKREPETAG
1070
     1
1071
      420
1005
13936A
  0
ARC
  5
13936B
  8
OBJECT
 10
215.00000000003459
 20
-3087.0000000009049
 30
0.0
 40
3.0
 50
270.0
 51
0.0
1001
ACDBBLOCKREPETAG
1070
     1
1071
      421
1005
13936B
  0
LINE
  5
13936C
  8
OBJECT
 10
215.00000000003459
 20
-3090.0000000009049
 30
0.0
 11
97.000000000034561
 21
-3090.0000000009049
 31
0.0
1001
ACDBBLOCKREPETAG
1070
     1
1071
      422
1005
13936C
  0
INSERT
  5
13936D
  8
OBJECT
  2
*U47
 10
0.0
 20
0.0
 30
0.0
  0
LINE
  5
13936E
  8
OBJECT
 10
289.00000000003462
 20
-2957.0000000009049
 30
0.0
 11
296.0000000000345
 21
-2957.0000000009049
 31
0.0
1001
ACDBBLOCKREPETAG
1070
     1
1071
        1
1005
13936E
  0
LINE
  5
13936F
  8
OBJECT
 10
296.0000000000345
 20
-2957.0000000009049
 30
0.0
 11
296.0000000000345
 21
-3051.0000000009049
 31
0.0
1001
ACDBBLOCKREPETAG
1070
     1
1071
        2
1005
13936F
  0
LINE
  5
139370
  8
OBJECT
 10
296.0000000000345
 20
-3051.0000000009049
 30
0.0
 11
289.00000000003462
 21
-3051.0000000009049
 31
0.0
1001
ACDBBLOCKREPETAG
1070
     1
1071
        3
1005
139370
  0
LINE
  5
139371
  8
OBJECT
 10
289.00000000003462
 20
-3051.0000000009049
 30
0.0
 11
289.00000000003462
 21
-2957.0000000009049
 31
0.0
1001
ACDBBLOCKREPETAG
1070
     1
1071
        4
1005
139371
  0
LINE
  5
139372
  8
OBJECT
 10
289.00000000003462
 20
-2960.0000000009049
 30
0.0
 11
253.00000000003459
 21
-2960.0000000009049
 31
0.0
1001
ACDBBLOCKREPETAG
1070
     1
1071
        5
1005
139372
  0
LINE
  5
139373
  8
OBJECT
 10
253.00000000003459
 20
-2960.0000000009049
 30
0.0
 11
253.00000000003459
 21
-3048.0000000009049
 31
0.0
1001
ACDBBLOCKREPETAG
1070
     1
1071
        6
1005
139373
  0
LINE
  5
139374
  8
OBJECT
 10
253.00000000003459
 20
-3048.0000000009049
 30
0.0
 11
289.00000000003462
 21
-3048.0000000009049
 31
0.0
1001
ACDBBLOCKREPETAG
1070
     1
1071
        7
1005
139374
  0
LINE
  5
139375
  8
OBJECT
 10
249.00000000003459
 20
-2964.5000000009049
 30
0.0
 11
242.00000000003459
 21
-2964.5000000009049
 31
0.0
1001
ACDBBLOCKREPETAG
1070
     1
1071
        8
1005
139375
  0
LINE
  5
139376
  8
OBJECT
 10
242.00000000003459
 20
-3043.5000000009049
 30
0.0
 11
249.00000000003459
 21
-3043.5000000009049
 31
0.0
1001
ACDBBLOCKREPETAG
1070
     1
1071
        9
1005
139376
  0
LINE
  5
139377
  8
OBJECT
 10
249.00000000003459
 20
-3043.5000000009049
 30
0.0
 11
249.00000000003459
 21
-2964.5000000009049
 31
0.0
1001
ACDBBLOCKREPETAG
1070
     1
1071
       10
1005
139377
  0
LINE
  5
139378
  8
OBJECT
 10
253.00000000003459
 20
-2960.0000000009049
 30
0.0
 11
249.00000000003459
 21
-2964.5000000009049
 31
0.0
1001
ACDBBLOCKREPETAG
1070
     1
1071
       11
1005
139378
  0
LINE
  5
139379
  8
OBJECT
 10
253.00000000003459
 20
-3048.0000000009049
 30
0.0
 11
249.00000000003459
 21
-3043.5000000009049
 31
0.0
1001
ACDBBLOCKREPETAG
1070
     1
1071
       12
1005
139379
  0
LINE
  5
13937A
  8
OBJECT
 10
239.00000000003641
 20
-2942.0000000009049
 30
0.0
 11
236.00000000003459
 21
-2942.0000000009049
 31
0.0
1001
ACDBBLOCKREPETAG
1070
     1
1071
       13
1005
13937A
  0
ARC
  5
13937B
  8
OBJECT
 10
239.00000000003641
 20
-2945.0000000009049
 30
0.0
 40
3.0
 50
0.0
 51
90.0
1001
ACDBBLOCKREPETAG
1070
     1
1071
       14
1005
13937B
  0
LINE
  5
13937C
  8
OBJECT
 10
236.00000000003459
 20
-3066.0000000009049
 30
0.0
 11
239.00000000003271
 21
-3066.0000000009049
 31
0.0
1001
ACDBBLOCKREPETAG
1070
     1
1071
       15
1005
13937C
  0
ARC
  5
13937D
  8
OBJECT
 10
239.00000000003271
 20
-3063.0000000009049
 30
0.0
 40
3.0
 50
270.0
 51
0.0
1001
ACDBBLOCKREPETAG
1070
     1
1071
       16
1005
13937D
  0
LINE
  5
13937E
  8
OBJECT
 10
242.0000000000328
 20
-3063.0000000009049
 30
0.0
 11
242.00000000003641
 21
-2945.0000000009049
 31
0.0
1001
ACDBBLOCKREPETAG
1070
     1
1071
       17
1005
13937E
  0
LINE
  5
13937F
  8
HIDDEN
 10
244.0000000000345
 20
-2974.0000000009049
 30
0.0
 11
244.0000000000345
 21
-3034.0000000009049
 31
0.0
1001
ACDBBLOCKREPETAG
1070
     1
1071
      424
1005
13937F
  0
LINE
  5
139380
  8
OBJECT
 10
81.000000000034561
 20
-2854.0000000009049
 30
0.0
 11
81.000000000034561
 21
-2861.0000000009049
 31
0.0
1001
ACDBBLOCKREPETAG
1070
     1
1071
       57
1005
139380
  0
LINE
  5
139381
  8
OBJECT
 10
81.000000000034561
 20
-2861.0000000009049
 30
0.0
 11
231.0000000000345
 21
-2861.0000000009049
 31
0.0
1001
ACDBBLOCKREPETAG
1070
     1
1071
       58
1005
139381
  0
LINE
  5
139382
  8
OBJECT
 10
84.000000000034575
 20
-2902.5000000009049
 30
0.0
 11
228.00000000003459
 21
-2902.5000000009049
 31
0.0
1001
ACDBBLOCKREPETAG
1070
     1
1071
       59
1005
139382
  0
LINE
  5
139383
  8
OBJECT
 10
90.500000000034547
 20
-2914.0000000009049
 30
0.0
 11
221.50000000003459
 21
-2914.0000000009049
 31
0.0
1001
ACDBBLOCKREPETAG
1070
     1
1071
       60
1005
139383
  0
LINE
  5
139384
  8
OBJECT
 10
231.0000000000345
 20
-2861.0000000009049
 30
0.0
 11
231.0000000000345
 21
-2854.0000000009049
 31
0.0
1001
ACDBBLOCKREPETAG
1070
     1
1071
       61
1005
139384
  0
LINE
  5
139385
  8
OBJECT
 10
231.0000000000345
 20
-2854.0000000009049
 30
0.0
 11
81.000000000034561
 21
-2854.0000000009049
 31
0.0
1001
ACDBBLOCKREPETAG
1070
     1
1071
       62
1005
139385
  0
LINE
  5
139386
  8
OBJECT
 10
218.00000000003459
 20
-2918.0000000009049
 30
0.0
 11
218.00000000003459
 21
-2924.0000000009049
 31
0.0
1001
ACDBBLOCKREPETAG
1070
     1
1071
       63
1005
139386
  0
LINE
  5
139387
  8
OBJECT
 10
228.00000000003459
 20
-2861.0000000009049
 30
0.0
 11
228.00000000003459
 21
-2902.5000000009049
 31
0.0
1001
ACDBBLOCKREPETAG
1070
     1
1071
       64
1005
139387
  0
LINE
  5
139388
  8
OBJECT
 10
228.00000000003459
 20
-2902.5000000009049
 30
0.0
 11
221.50000000003459
 21
-2914.0000000009049
 31
0.0
1001
ACDBBLOCKREPETAG
1070
     1
1071
       65
1005
139388
  0
LINE
  5
139389
  8
OBJECT
 10
221.50000000003459
 20
-2914.0000000009049
 30
0.0
 11
218.00000000003459
 21
-2918.0000000009049
 31
0.0
1001
ACDBBLOCKREPETAG
1070
     1
1071
       66
1005
139389
  0
LINE
  5
13938A
  8
OBJECT
 10
84.000000000034575
 20
-2902.5000000009049
 30
0.0
 11
90.500000000034547
 21
-2914.0000000009049
 31
0.0
1001
ACDBBLOCKREPETAG
1070
     1
1071
       67
1005
13938A
  0
LINE
  5
13938B
  8
OBJECT
 10
90.500000000034547
 20
-2914.0000000009049
 30
0.0
 11
94.000000000034575
 21
-2918.0000000009049
 31
0.0
1001
ACDBBLOCKREPETAG
1070
     1
1071
       68
1005
13938B
  0
ARC
  5
13938C
  8
OBJECT
 10
156.0000000000345
 20
-2536.100000000903
 30
0.0
 40
386.89999999999998
 50
260.77870136257849
 51
279.22129863742163
1001
ACDBBLOCKREPETAG
1070
     1
1071
       69
1005
13938C
  0
LINE
  5
13938D
  8
OBJECT
 10
94.000000000034575
 20
-2918.0000000009049
 30
0.0
 11
94.000000000034575
 21
-2924.0000000009049
 31
0.0
1001
ACDBBLOCKREPETAG
1070
     1
1071
       70
1005
13938D
  0
LINE
  5
13938E
  8
OBJECT
 10
84.000000000034575
 20
-2861.0000000009049
 30
0.0
 11
84.000000000034575
 21
-2902.5000000009049
 31
0.0
1001
ACDBBLOCKREPETAG
1070
     1
1071
       71
1005
13938E
  0
INSERT
  5
13938F
  8
OBJECT
  2
*U48
 10
0.0
 20
0.0
 30
0.0
  0
LINE
  5
139390
  8
HIDDEN
 10
213.00000000003459
 20
-2906.0000000009049
 30
0.0
 11
99.000000000034575
 21
-2906.0000000009049
 31
0.0
1001
ACDBBLOCKREPETAG
1070
     1
1071
      431
1005
139390
  0
LINE
  5
139391
  8
OBJECT
 10
94.000000000034575
 20
-2623.0000000008981
 30
0.0
 11
94.000000000034575
 21
-2620.0000000008981
 31
0.0
1001
ACDBBLOCKREPETAG
1070
     1
1071
      418
1005
139391
  0
ARC
  5
139392
  8
OBJECT
 10
97.000000000034561
 20
-2623.0000000008981
 30
0.0
 40
3.0
 50
180.0
 51
270.0
1001
ACDBBLOCKREPETAG
1070
     1
1071
      419
1005
139392
  0
LINE
  5
139393
  8
OBJECT
 10
218.00000000003459
 20
-2620.0000000008981
 30
0.0
 11
218.00000000003459
 21
-2623.0000000008981
 31
0.0
1001
ACDBBLOCKREPETAG
1070
     1
1071
      420
1005
139393
  0
ARC
  5
139394
  8
OBJECT
 10
215.00000000003459
 20
-2623.0000000008981
 30
0.0
 40
3.0
 50
270.0
 51
0.0
1001
ACDBBLOCKREPETAG
1070
     1
1071
      421
1005
139394
  0
LINE
  5
139395
  8
OBJECT
 10
215.00000000003459
 20
-2626.0000000008981
 30
0.0
 11
97.000000000034561
 21
-2626.0000000008981
 31
0.0
1001
ACDBBLOCKREPETAG
1070
     1
1071
      422
1005
139395
  0
INSERT
  5
139396
  8
OBJECT
  2
*U49
 10
0.0
 20
0.0
 30
0.0
  0
LINE
  5
139397
  8
OBJECT
 10
289.00000000003462
 20
-2478.000000000899
 30
0.0
 11
296.0000000000345
 21
-2478.000000000899
 31
0.0
1001
ACDBBLOCKREPETAG
1070
     1
1071
       39
1005
139397
  0
LINE
  5
139398
  8
OBJECT
 10
296.0000000000345
 20
-2478.000000000899
 30
0.0
 11
296.0000000000345
 21
-2602.0000000008981
 31
0.0
1001
ACDBBLOCKREPETAG
1070
     1
1071
       40
1005
139398
  0
LINE
  5
139399
  8
OBJECT
 10
296.0000000000345
 20
-2602.0000000008981
 30
0.0
 11
289.00000000003462
 21
-2602.0000000008981
 31
0.0
1001
ACDBBLOCKREPETAG
1070
     1
1071
       41
1005
139399
  0
LINE
  5
13939A
  8
OBJECT
 10
289.00000000003462
 20
-2602.0000000008981
 30
0.0
 11
289.00000000003462
 21
-2478.000000000899
 31
0.0
1001
ACDBBLOCKREPETAG
1070
     1
1071
       42
1005
13939A
  0
LINE
  5
13939B
  8
OBJECT
 10
289.00000000003462
 20
-2481.000000000899
 30
0.0
 11
253.00000000003459
 21
-2481.000000000899
 31
0.0
1001
ACDBBLOCKREPETAG
1070
     1
1071
       43
1005
13939B
  0
LINE
  5
13939C
  8
OBJECT
 10
253.00000000003459
 20
-2481.000000000899
 30
0.0
 11
253.00000000003459
 21
-2599.000000000899
 31
0.0
1001
ACDBBLOCKREPETAG
1070
     1
1071
       44
1005
13939C
  0
LINE
  5
13939D
  8
OBJECT
 10
253.00000000003459
 20
-2599.000000000899
 30
0.0
 11
289.00000000003462
 21
-2599.000000000899
 31
0.0
1001
ACDBBLOCKREPETAG
1070
     1
1071
       45
1005
13939D
  0
LINE
  5
13939E
  8
OBJECT
 10
249.00000000003459
 20
-2485.5000000008981
 30
0.0
 11
242.00000000003459
 21
-2485.5000000008981
 31
0.0
1001
ACDBBLOCKREPETAG
1070
     1
1071
       46
1005
13939E
  0
LINE
  5
13939F
  8
OBJECT
 10
242.00000000003459
 20
-2594.5000000008981
 30
0.0
 11
249.00000000003459
 21
-2594.5000000008981
 31
0.0
1001
ACDBBLOCKREPETAG
1070
     1
1071
       47
1005
13939F
  0
LINE
  5
1393A0
  8
OBJECT
 10
249.00000000003459
 20
-2594.5000000008981
 30
0.0
 11
249.00000000003459
 21
-2485.5000000008981
 31
0.0
1001
ACDBBLOCKREPETAG
1070
     1
1071
       48
1005
1393A0
  0
LINE
  5
1393A1
  8
OBJECT
 10
253.00000000003459
 20
-2481.000000000899
 30
0.0
 11
249.00000000003459
 21
-2485.5000000008981
 31
0.0
1001
ACDBBLOCKREPETAG
1070
     1
1071
       49
1005
1393A1
  0
LINE
  5
1393A2
  8
OBJECT
 10
253.00000000003459
 20
-2599.000000000899
 30
0.0
 11
249.00000000003459
 21
-2594.5000000008981
 31
0.0
1001
ACDBBLOCKREPETAG
1070
     1
1071
       50
1005
1393A2
  0
LINE
  5
1393A3
  8
OBJECT
 10
239.00000000003641
 20
-2478.000000000899
 30
0.0
 11
236.00000000003459
 21
-2478.000000000899
 31
0.0
1001
ACDBBLOCKREPETAG
1070
     1
1071
       51
1005
1393A3
  0
ARC
  5
1393A4
  8
OBJECT
 10
239.00000000003641
 20
-2481.000000000899
 30
0.0
 40
3.0
 50
0.0
 51
90.0
1001
ACDBBLOCKREPETAG
1070
     1
1071
       52
1005
1393A4
  0
LINE
  5
1393A5
  8
OBJECT
 10
236.00000000003459
 20
-2602.0000000008981
 30
0.0
 11
239.00000000003271
 21
-2602.0000000008981
 31
0.0
1001
ACDBBLOCKREPETAG
1070
     1
1071
       53
1005
1393A5
  0
ARC
  5
1393A6
  8
OBJECT
 10
239.00000000003271
 20
-2599.000000000899
 30
0.0
 40
3.0
 50
270.0
 51
0.0
1001
ACDBBLOCKREPETAG
1070
     1
1071
       54
1005
1393A6
  0
LINE
  5
1393A7
  8
OBJECT
 10
242.0000000000328
 20
-2599.000000000899
 30
0.0
 11
242.00000000003641
 21
-2481.000000000899
 31
0.0
1001
ACDBBLOCKREPETAG
1070
     1
1071
       55
1005
1393A7
  0
LINE
  5
1393A8
  8
HIDDEN
 10
244.0000000000345
 20
-2495.500000000899
 30
0.0
 11
244.0000000000345
 21
-2584.5000000008981
 31
0.0
1001
ACDBBLOCKREPETAG
1070
     1
1071
      430
1005
1393A8
  0
INSERT
  5
1393A9
  8
OBJECT
  2
*U50
 10
0.0
 20
0.0
 30
0.0
  0
LINE
  5
1393AA
  8
OBJECT
 10
94.000000000034575
 20
-2407.0000000008981
 30
0.0
 11
94.000000000034575
 21
-2400.0000000008981
 31
0.0
1001
ACDBBLOCKREPETAG
1070
     1
1071
       39
1005
1393AA
  0
LINE
  5
1393AB
  8
OBJECT
 10
94.000000000034575
 20
-2400.0000000008981
 30
0.0
 11
218.00000000003459
 21
-2400.0000000008981
 31
0.0
1001
ACDBBLOCKREPETAG
1070
     1
1071
       40
1005
1393AB
  0
LINE
  5
1393AC
  8
OBJECT
 10
218.00000000003459
 20
-2400.0000000008981
 30
0.0
 11
218.00000000003459
 21
-2407.0000000008981
 31
0.0
1001
ACDBBLOCKREPETAG
1070
     1
1071
       41
1005
1393AC
  0
LINE
  5
1393AD
  8
OBJECT
 10
218.00000000003459
 20
-2407.0000000008981
 30
0.0
 11
94.000000000034575
 21
-2407.0000000008981
 31
0.0
1001
ACDBBLOCKREPETAG
1070
     1
1071
       42
1005
1393AD
  0
LINE
  5
1393AE
  8
OBJECT
 10
97.000000000034561
 20
-2407.0000000008981
 30
0.0
 11
97.000000000034561
 21
-2443.0000000008981
 31
0.0
1001
ACDBBLOCKREPETAG
1070
     1
1071
       43
1005
1393AE
  0
LINE
  5
1393AF
  8
OBJECT
 10
97.000000000034561
 20
-2443.0000000008981
 30
0.0
 11
215.00000000003459
 21
-2443.0000000008981
 31
0.0
1001
ACDBBLOCKREPETAG
1070
     1
1071
       44
1005
1393AF
  0
LINE
  5
1393B0
  8
OBJECT
 10
215.00000000003459
 20
-2443.0000000008981
 30
0.0
 11
215.00000000003459
 21
-2407.0000000008981
 31
0.0
1001
ACDBBLOCKREPETAG
1070
     1
1071
       45
1005
1393B0
  0
LINE
  5
1393B1
  8
OBJECT
 10
101.5000000000345
 20
-2447.0000000008981
 30
0.0
 11
101.5000000000345
 21
-2454.0000000008981
 31
0.0
1001
ACDBBLOCKREPETAG
1070
     1
1071
       46
1005
1393B1
  0
LINE
  5
1393B2
  8
OBJECT
 10
210.5000000000345
 20
-2454.0000000008981
 30
0.0
 11
210.5000000000345
 21
-2447.0000000008981
 31
0.0
1001
ACDBBLOCKREPETAG
1070
     1
1071
       47
1005
1393B2
  0
LINE
  5
1393B3
  8
OBJECT
 10
210.5000000000345
 20
-2447.0000000008981
 30
0.0
 11
101.5000000000345
 21
-2447.0000000008981
 31
0.0
1001
ACDBBLOCKREPETAG
1070
     1
1071
       48
1005
1393B3
  0
LINE
  5
1393B4
  8
OBJECT
 10
97.000000000034561
 20
-2443.0000000008981
 30
0.0
 11
101.5000000000345
 21
-2447.0000000008981
 31
0.0
1001
ACDBBLOCKREPETAG
1070
     1
1071
       49
1005
1393B4
  0
LINE
  5
1393B5
  8
OBJECT
 10
215.00000000003459
 20
-2443.0000000008981
 30
0.0
 11
210.5000000000345
 21
-2447.0000000008981
 31
0.0
1001
ACDBBLOCKREPETAG
1070
     1
1071
       50
1005
1393B5
  0
LINE
  5
1393B6
  8
OBJECT
 10
94.000000000034575
 20
-2457.0000000008981
 30
0.0
 11
94.000000000034575
 21
-2460.0000000008981
 31
0.0
1001
ACDBBLOCKREPETAG
1070
     1
1071
       51
1005
1393B6
  0
ARC
  5
1393B7
  8
OBJECT
 10
97.000000000034561
 20
-2457.0000000008981
 30
0.0
 40
3.0
 50
90.0
 51
180.0
1001
ACDBBLOCKREPETAG
1070
     1
1071
       52
1005
1393B7
  0
LINE
  5
1393B8
  8
OBJECT
 10
218.00000000003459
 20
-2460.0000000008981
 30
0.0
 11
218.00000000003459
 21
-2457.0000000008999
 31
0.0
1001
ACDBBLOCKREPETAG
1070
     1
1071
       53
1005
1393B8
  0
ARC
  5
1393B9
  8
OBJECT
 10
215.00000000003459
 20
-2457.0000000008999
 30
0.0
 40
3.0
 50
0.0
 51
90.0
1001
ACDBBLOCKREPETAG
1070
     1
1071
       54
1005
1393B9
  0
LINE
  5
1393BA
  8
OBJECT
 10
215.00000000003459
 20
-2454.000000000899
 30
0.0
 11
97.000000000034561
 21
-2454.0000000008981
 31
0.0
1001
ACDBBLOCKREPETAG
1070
     1
1071
       55
1005
1393BA
  0
LINE
  5
1393BB
  8
HIDDEN
 10
111.5000000000345
 20
-2452.0000000008981
 30
0.0
 11
200.50000000003459
 21
-2452.0000000008981
 31
0.0
1001
ACDBBLOCKREPETAG
1070
     1
1071
      426
1005
1393BB
  0
LINE
  5
1393BC
  8
OBJECT
 10
454.00000000011448
 20
-2623.0000000008981
 30
0.0
 11
454.00000000011448
 21
-2620.0000000008981
 31
0.0
1001
ACDBBLOCKREPETAG
1070
     1
1071
      418
1005
1393BC
  0
ARC
  5
1393BD
  8
OBJECT
 10
457.0000000001146
 20
-2623.0000000008981
 30
0.0
 40
3.0
 50
180.0
 51
270.0
1001
ACDBBLOCKREPETAG
1070
     1
1071
      419
1005
1393BD
  0
LINE
  5
1393BE
  8
OBJECT
 10
578.00000000011448
 20
-2620.0000000008981
 30
0.0
 11
578.00000000011448
 21
-2623.0000000008981
 31
0.0
1001
ACDBBLOCKREPETAG
1070
     1
1071
      420
1005
1393BE
  0
ARC
  5
1393BF
  8
OBJECT
 10
575.00000000011437
 20
-2623.0000000008981
 30
0.0
 40
3.0
 50
270.0
 51
0.0
1001
ACDBBLOCKREPETAG
1070
     1
1071
      421
1005
1393BF
  0
LINE
  5
1393C0
  8
OBJECT
 10
575.00000000011437
 20
-2626.0000000008981
 30
0.0
 11
457.0000000001146
 21
-2626.0000000008981
 31
0.0
1001
ACDBBLOCKREPETAG
1070
     1
1071
      422
1005
1393C0
  0
LINE
  5
1393C1
  8
OBJECT
 10
666.00000000011448
 20
-2465.000000000899
 30
0.0
 11
659.0000000001146
 21
-2465.000000000899
 31
0.0
1001
ACDBBLOCKREPETAG
1070
     1
1071
       57
1005
1393C1
  0
LINE
  5
1393C2
  8
OBJECT
 10
659.0000000001146
 20
-2465.000000000899
 30
0.0
 11
659.0000000001146
 21
-2615.000000000899
 31
0.0
1001
ACDBBLOCKREPETAG
1070
     1
1071
       58
1005
1393C2
  0
LINE
  5
1393C3
  8
OBJECT
 10
617.5000000001146
 20
-2468.0000000008981
 30
0.0
 11
617.5000000001146
 21
-2612.0000000008981
 31
0.0
1001
ACDBBLOCKREPETAG
1070
     1
1071
       59
1005
1393C3
  0
LINE
  5
1393C4
  8
OBJECT
 10
606.0000000001146
 20
-2474.5000000008981
 30
0.0
 11
606.0000000001146
 21
-2605.5000000008981
 31
0.0
1001
ACDBBLOCKREPETAG
1070
     1
1071
       60
1005
1393C4
  0
LINE
  5
1393C5
  8
OBJECT
 10
659.0000000001146
 20
-2615.000000000899
 30
0.0
 11
666.00000000011448
 21
-2615.000000000899
 31
0.0
1001
ACDBBLOCKREPETAG
1070
     1
1071
       61
1005
1393C5
  0
LINE
  5
1393C6
  8
OBJECT
 10
666.00000000011448
 20
-2615.000000000899
 30
0.0
 11
666.00000000011448
 21
-2465.000000000899
 31
0.0
1001
ACDBBLOCKREPETAG
1070
     1
1071
       62
1005
1393C6
  0
LINE
  5
1393C7
  8
OBJECT
 10
602.0000000001146
 20
-2602.0000000008981
 30
0.0
 11
596.00000000011437
 21
-2602.0000000008981
 31
0.0
1001
ACDBBLOCKREPETAG
1070
     1
1071
       63
1005
1393C7
  0
LINE
  5
1393C8
  8
OBJECT
 10
659.0000000001146
 20
-2612.0000000008981
 30
0.0
 11
617.5000000001146
 21
-2612.0000000008981
 31
0.0
1001
ACDBBLOCKREPETAG
1070
     1
1071
       64
1005
1393C8
  0
LINE
  5
1393C9
  8
OBJECT
 10
617.5000000001146
 20
-2612.0000000008981
 30
0.0
 11
606.0000000001146
 21
-2605.5000000008981
 31
0.0
1001
ACDBBLOCKREPETAG
1070
     1
1071
       65
1005
1393C9
  0
LINE
  5
1393CA
  8
OBJECT
 10
606.0000000001146
 20
-2605.5000000008981
 30
0.0
 11
602.0000000001146
 21
-2602.0000000008981
 31
0.0
1001
ACDBBLOCKREPETAG
1070
     1
1071
       66
1005
1393CA
  0
LINE
  5
1393CB
  8
OBJECT
 10
617.5000000001146
 20
-2468.0000000008981
 30
0.0
 11
606.0000000001146
 21
-2474.5000000008981
 31
0.0
1001
ACDBBLOCKREPETAG
1070
     1
1071
       67
1005
1393CB
  0
LINE
  5
1393CC
  8
OBJECT
 10
606.0000000001146
 20
-2474.5000000008981
 30
0.0
 11
602.0000000001146
 21
-2478.000000000899
 31
0.0
1001
ACDBBLOCKREPETAG
1070
     1
1071
       68
1005
1393CC
  0
ARC
  5
1393CD
  8
OBJECT
 10
983.90000000011605
 20
-2540.0000000008981
 30
0.0
 40
386.89999999999998
 50
170.77870136263201
 51
189.22129863736799
1001
ACDBBLOCKREPETAG
1070
     1
1071
       69
1005
1393CD
  0
LINE
  5
1393CE
  8
OBJECT
 10
602.0000000001146
 20
-2478.000000000899
 30
0.0
 11
596.00000000011437
 21
-2478.000000000899
 31
0.0
1001
ACDBBLOCKREPETAG
1070
     1
1071
       70
1005
1393CE
  0
LINE
  5
1393CF
  8
OBJECT
 10
659.0000000001146
 20
-2468.0000000008981
 30
0.0
 11
617.5000000001146
 21
-2468.0000000008981
 31
0.0
1001
ACDBBLOCKREPETAG
1070
     1
1071
       71
1005
1393CF
  0
INSERT
  5
1393D0
  8
OBJECT
  2
*U51
 10
0.0
 20
0.0
 30
0.0
  0
LINE
  5
1393D1
  8
HIDDEN
 10
614.0000000001146
 20
-2597.0000000008981
 30
0.0
 11
614.0000000001146
 21
-2483.0000000008981
 31
0.0
1001
ACDBBLOCKREPETAG
1070
     1
1071
      437
1005
1393D1
  0
INSERT
  5
1393D2
  8
OBJECT
  2
*U52
 10
0.0
 20
0.0
 30
0.0
  0
LINE
  5
1393D3
  8
OBJECT
 10
454.00000000011448
 20
-2407.0000000008981
 30
0.0
 11
454.00000000011448
 21
-2400.0000000008981
 31
0.0
1001
ACDBBLOCKREPETAG
1070
     1
1071
       39
1005
1393D3
  0
LINE
  5
1393D4
  8
OBJECT
 10
454.00000000011448
 20
-2400.0000000008981
 30
0.0
 11
578.00000000011448
 21
-2400.0000000008981
 31
0.0
1001
ACDBBLOCKREPETAG
1070
     1
1071
       40
1005
1393D4
  0
LINE
  5
1393D5
  8
OBJECT
 10
578.00000000011448
 20
-2400.0000000008981
 30
0.0
 11
578.00000000011448
 21
-2407.0000000008981
 31
0.0
1001
ACDBBLOCKREPETAG
1070
     1
1071
       41
1005
1393D5
  0
LINE
  5
1393D6
  8
OBJECT
 10
578.00000000011448
 20
-2407.0000000008981
 30
0.0
 11
454.00000000011448
 21
-2407.0000000008981
 31
0.0
1001
ACDBBLOCKREPETAG
1070
     1
1071
       42
1005
1393D6
  0
LINE
  5
1393D7
  8
OBJECT
 10
457.0000000001146
 20
-2407.0000000008981
 30
0.0
 11
457.0000000001146
 21
-2443.0000000008981
 31
0.0
1001
ACDBBLOCKREPETAG
1070
     1
1071
       43
1005
1393D7
  0
LINE
  5
1393D8
  8
OBJECT
 10
457.0000000001146
 20
-2443.0000000008981
 30
0.0
 11
575.00000000011437
 21
-2443.0000000008981
 31
0.0
1001
ACDBBLOCKREPETAG
1070
     1
1071
       44
1005
1393D8
  0
LINE
  5
1393D9
  8
OBJECT
 10
575.00000000011437
 20
-2443.0000000008981
 30
0.0
 11
575.00000000011437
 21
-2407.0000000008981
 31
0.0
1001
ACDBBLOCKREPETAG
1070
     1
1071
       45
1005
1393D9
  0
LINE
  5
1393DA
  8
OBJECT
 10
461.50000000011448
 20
-2447.0000000008981
 30
0.0
 11
461.50000000011448
 21
-2454.0000000008981
 31
0.0
1001
ACDBBLOCKREPETAG
1070
     1
1071
       46
1005
1393DA
  0
LINE
  5
1393DB
  8
OBJECT
 10
570.50000000011437
 20
-2454.0000000008981
 30
0.0
 11
570.50000000011437
 21
-2447.0000000008981
 31
0.0
1001
ACDBBLOCKREPETAG
1070
     1
1071
       47
1005
1393DB
  0
LINE
  5
1393DC
  8
OBJECT
 10
570.50000000011437
 20
-2447.0000000008981
 30
0.0
 11
461.50000000011448
 21
-2447.0000000008981
 31
0.0
1001
ACDBBLOCKREPETAG
1070
     1
1071
       48
1005
1393DC
  0
LINE
  5
1393DD
  8
OBJECT
 10
457.0000000001146
 20
-2443.0000000008981
 30
0.0
 11
461.50000000011448
 21
-2447.0000000008981
 31
0.0
1001
ACDBBLOCKREPETAG
1070
     1
1071
       49
1005
1393DD
  0
LINE
  5
1393DE
  8
OBJECT
 10
575.00000000011437
 20
-2443.0000000008981
 30
0.0
 11
570.50000000011437
 21
-2447.0000000008981
 31
0.0
1001
ACDBBLOCKREPETAG
1070
     1
1071
       50
1005
1393DE
  0
LINE
  5
1393DF
  8
OBJECT
 10
454.00000000011448
 20
-2457.0000000008981
 30
0.0
 11
454.00000000011448
 21
-2460.0000000008981
 31
0.0
1001
ACDBBLOCKREPETAG
1070
     1
1071
       51
1005
1393DF
  0
ARC
  5
1393E0
  8
OBJECT
 10
457.0000000001146
 20
-2457.0000000008981
 30
0.0
 40
3.0
 50
90.0
 51
180.0
1001
ACDBBLOCKREPETAG
1070
     1
1071
       52
1005
1393E0
  0
LINE
  5
1393E1
  8
OBJECT
 10
578.00000000011448
 20
-2460.0000000008981
 30
0.0
 11
578.00000000011448
 21
-2457.0000000008999
 31
0.0
1001
ACDBBLOCKREPETAG
1070
     1
1071
       53
1005
1393E1
  0
ARC
  5
1393E2
  8
OBJECT
 10
575.00000000011437
 20
-2457.0000000008999
 30
0.0
 40
3.0
 50
0.0
 51
90.0
1001
ACDBBLOCKREPETAG
1070
     1
1071
       54
1005
1393E2
  0
LINE
  5
1393E3
  8
OBJECT
 10
575.00000000011437
 20
-2454.000000000899
 30
0.0
 11
457.0000000001146
 21
-2454.0000000008981
 31
0.0
1001
ACDBBLOCKREPETAG
1070
     1
1071
       55
1005
1393E3
  0
LINE
  5
1393E4
  8
HIDDEN
 10
471.5000000001146
 20
-2452.0000000008981
 30
0.0
 11
560.5000000001146
 21
-2452.0000000008981
 31
0.0
1001
ACDBBLOCKREPETAG
1070
     1
1071
      426
1005
1393E4
  0
LINE
  5
1393E5
  8
OBJECT
 10
454.00000000011448
 20
-2159.0000000008922
 30
0.0
 11
454.00000000011448
 21
-2156.0000000008922
 31
0.0
1001
ACDBBLOCKREPETAG
1070
     1
1071
      418
1005
1393E5
  0
ARC
  5
1393E6
  8
OBJECT
 10
457.0000000001146
 20
-2159.0000000008922
 30
0.0
 40
3.0
 50
180.0
 51
270.0
1001
ACDBBLOCKREPETAG
1070
     1
1071
      419
1005
1393E6
  0
LINE
  5
1393E7
  8
OBJECT
 10
578.00000000011448
 20
-2156.0000000008922
 30
0.0
 11
578.00000000011448
 21
-2159.0000000008922
 31
0.0
1001
ACDBBLOCKREPETAG
1070
     1
1071
      420
1005
1393E7
  0
ARC
  5
1393E8
  8
OBJECT
 10
575.00000000011437
 20
-2159.0000000008922
 30
0.0
 40
3.0
 50
270.0
 51
0.0
1001
ACDBBLOCKREPETAG
1070
     1
1071
      421
1005
1393E8
  0
LINE
  5
1393E9
  8
OBJECT
 10
575.00000000011437
 20
-2162.0000000008922
 30
0.0
 11
457.0000000001146
 21
-2162.0000000008922
 31
0.0
1001
ACDBBLOCKREPETAG
1070
     1
1071
      422
1005
1393E9
  0
INSERT
  5
1393EA
  8
OBJECT
  2
*U53
 10
0.0
 20
0.0
 30
0.0
  0
LINE
  5
1393EB
  8
OBJECT
 10
649.00000000011448
 20
-2021.000000000892
 30
0.0
 11
656.0000000001146
 21
-2021.000000000892
 31
0.0
1001
ACDBBLOCKREPETAG
1070
     1
1071
       20
1005
1393EB
  0
LINE
  5
1393EC
  8
OBJECT
 10
656.0000000001146
 20
-2021.000000000892
 30
0.0
 11
656.0000000001146
 21
-2131.0000000008922
 31
0.0
1001
ACDBBLOCKREPETAG
1070
     1
1071
       21
1005
1393EC
  0
LINE
  5
1393ED
  8
OBJECT
 10
656.0000000001146
 20
-2131.0000000008922
 30
0.0
 11
649.00000000011448
 21
-2131.0000000008922
 31
0.0
1001
ACDBBLOCKREPETAG
1070
     1
1071
       22
1005
1393ED
  0
LINE
  5
1393EE
  8
OBJECT
 10
649.00000000011448
 20
-2131.0000000008922
 30
0.0
 11
649.00000000011448
 21
-2021.000000000892
 31
0.0
1001
ACDBBLOCKREPETAG
1070
     1
1071
       23
1005
1393EE
  0
LINE
  5
1393EF
  8
OBJECT
 10
649.00000000011448
 20
-2024.000000000892
 30
0.0
 11
613.0000000001146
 21
-2024.000000000892
 31
0.0
1001
ACDBBLOCKREPETAG
1070
     1
1071
       24
1005
1393EF
  0
LINE
  5
1393F0
  8
OBJECT
 10
613.0000000001146
 20
-2024.000000000892
 30
0.0
 11
613.0000000001146
 21
-2128.0000000008922
 31
0.0
1001
ACDBBLOCKREPETAG
1070
     1
1071
       25
1005
1393F0
  0
LINE
  5
1393F1
  8
OBJECT
 10
613.0000000001146
 20
-2128.0000000008922
 30
0.0
 11
649.00000000011448
 21
-2128.0000000008922
 31
0.0
1001
ACDBBLOCKREPETAG
1070
     1
1071
       26
1005
1393F1
  0
LINE
  5
1393F2
  8
OBJECT
 10
609.0000000001146
 20
-2028.500000000892
 30
0.0
 11
602.0000000001146
 21
-2028.500000000892
 31
0.0
1001
ACDBBLOCKREPETAG
1070
     1
1071
       27
1005
1393F2
  0
LINE
  5
1393F3
  8
OBJECT
 10
602.0000000001146
 20
-2123.5000000008931
 30
0.0
 11
609.0000000001146
 21
-2123.5000000008931
 31
0.0
1001
ACDBBLOCKREPETAG
1070
     1
1071
       28
1005
1393F3
  0
LINE
  5
1393F4
  8
OBJECT
 10
609.0000000001146
 20
-2123.5000000008931
 30
0.0
 11
609.0000000001146
 21
-2028.500000000892
 31
0.0
1001
ACDBBLOCKREPETAG
1070
     1
1071
       29
1005
1393F4
  0
LINE
  5
1393F5
  8
OBJECT
 10
613.0000000001146
 20
-2024.000000000892
 30
0.0
 11
609.0000000001146
 21
-2028.500000000892
 31
0.0
1001
ACDBBLOCKREPETAG
1070
     1
1071
       30
1005
1393F5
  0
LINE
  5
1393F6
  8
OBJECT
 10
613.0000000001146
 20
-2128.0000000008922
 30
0.0
 11
609.0000000001146
 21
-2123.5000000008931
 31
0.0
1001
ACDBBLOCKREPETAG
1070
     1
1071
       31
1005
1393F6
  0
LINE
  5
1393F7
  8
OBJECT
 10
599.00000000011619
 20
-2014.000000000892
 30
0.0
 11
596.00000000011437
 21
-2014.000000000892
 31
0.0
1001
ACDBBLOCKREPETAG
1070
     1
1071
       32
1005
1393F7
  0
ARC
  5
1393F8
  8
OBJECT
 10
599.00000000011619
 20
-2017.000000000892
 30
0.0
 40
3.0
 50
0.0
 51
90.0
1001
ACDBBLOCKREPETAG
1070
     1
1071
       33
1005
1393F8
  0
LINE
  5
1393F9
  8
OBJECT
 10
596.00000000011437
 20
-2138.0000000008922
 30
0.0
 11
599.00000000011278
 21
-2138.0000000008922
 31
0.0
1001
ACDBBLOCKREPETAG
1070
     1
1071
       34
1005
1393F9
  0
ARC
  5
1393FA
  8
OBJECT
 10
599.00000000011278
 20
-2135.0000000008922
 30
0.0
 40
3.0
 50
270.0
 51
0.0
1001
ACDBBLOCKREPETAG
1070
     1
1071
       35
1005
1393FA
  0
LINE
  5
1393FB
  8
OBJECT
 10
602.00000000011266
 20
-2135.0000000008922
 30
0.0
 11
602.0000000001163
 21
-2017.000000000892
 31
0.0
1001
ACDBBLOCKREPETAG
1070
     1
1071
       36
1005
1393FB
  0
LINE
  5
1393FC
  8
HIDDEN
 10
604.00000000011437
 20
-2038.0000000008911
 30
0.0
 11
604.00000000011437
 21
-2114.0000000008922
 31
0.0
1001
ACDBBLOCKREPETAG
1070
     1
1071
      427
1005
1393FC
  0
INSERT
  5
1393FD
  8
OBJECT
  2
*U54
 10
0.0
 20
0.0
 30
0.0
  0
LINE
  5
1393FE
  8
OBJECT
 10
454.00000000011448
 20
-1943.000000000892
 30
0.0
 11
454.00000000011448
 21
-1936.0000000008911
 31
0.0
1001
ACDBBLOCKREPETAG
1070
     1
1071
       39
1005
1393FE
  0
LINE
  5
1393FF
  8
OBJECT
 10
454.00000000011448
 20
-1936.0000000008911
 30
0.0
 11
578.00000000011448
 21
-1936.0000000008911
 31
0.0
1001
ACDBBLOCKREPETAG
1070
     1
1071
       40
1005
1393FF
  0
LINE
  5
139400
  8
OBJECT
 10
578.00000000011448
 20
-1936.0000000008911
 30
0.0
 11
578.00000000011448
 21
-1943.000000000892
 31
0.0
1001
ACDBBLOCKREPETAG
1070
     1
1071
       41
1005
139400
  0
LINE
  5
139401
  8
OBJECT
 10
578.00000000011448
 20
-1943.000000000892
 30
0.0
 11
454.00000000011448
 21
-1943.000000000892
 31
0.0
1001
ACDBBLOCKREPETAG
1070
     1
1071
       42
1005
139401
  0
LINE
  5
139402
  8
OBJECT
 10
457.0000000001146
 20
-1943.000000000892
 30
0.0
 11
457.0000000001146
 21
-1979.000000000892
 31
0.0
1001
ACDBBLOCKREPETAG
1070
     1
1071
       43
1005
139402
  0
LINE
  5
139403
  8
OBJECT
 10
457.0000000001146
 20
-1979.000000000892
 30
0.0
 11
575.00000000011437
 21
-1979.000000000892
 31
0.0
1001
ACDBBLOCKREPETAG
1070
     1
1071
       44
1005
139403
  0
LINE
  5
139404
  8
OBJECT
 10
575.00000000011437
 20
-1979.000000000892
 30
0.0
 11
575.00000000011437
 21
-1943.000000000892
 31
0.0
1001
ACDBBLOCKREPETAG
1070
     1
1071
       45
1005
139404
  0
LINE
  5
139405
  8
OBJECT
 10
461.50000000011448
 20
-1983.000000000892
 30
0.0
 11
461.50000000011448
 21
-1990.000000000892
 31
0.0
1001
ACDBBLOCKREPETAG
1070
     1
1071
       46
1005
139405
  0
LINE
  5
139406
  8
OBJECT
 10
570.50000000011437
 20
-1990.000000000892
 30
0.0
 11
570.50000000011437
 21
-1983.000000000892
 31
0.0
1001
ACDBBLOCKREPETAG
1070
     1
1071
       47
1005
139406
  0
LINE
  5
139407
  8
OBJECT
 10
570.50000000011437
 20
-1983.000000000892
 30
0.0
 11
461.50000000011448
 21
-1983.000000000892
 31
0.0
1001
ACDBBLOCKREPETAG
1070
     1
1071
       48
1005
139407
  0
LINE
  5
139408
  8
OBJECT
 10
457.0000000001146
 20
-1979.000000000892
 30
0.0
 11
461.50000000011448
 21
-1983.000000000892
 31
0.0
1001
ACDBBLOCKREPETAG
1070
     1
1071
       49
1005
139408
  0
LINE
  5
139409
  8
OBJECT
 10
575.00000000011437
 20
-1979.000000000892
 30
0.0
 11
570.50000000011437
 21
-1983.000000000892
 31
0.0
1001
ACDBBLOCKREPETAG
1070
     1
1071
       50
1005
139409
  0
LINE
  5
13940A
  8
OBJECT
 10
454.00000000011448
 20
-1993.0000000008911
 30
0.0
 11
454.00000000011448
 21
-1996.000000000892
 31
0.0
1001
ACDBBLOCKREPETAG
1070
     1
1071
       51
1005
13940A
  0
ARC
  5
13940B
  8
OBJECT
 10
457.0000000001146
 20
-1993.0000000008911
 30
0.0
 40
3.0
 50
90.0
 51
180.0
1001
ACDBBLOCKREPETAG
1070
     1
1071
       52
1005
13940B
  0
LINE
  5
13940C
  8
OBJECT
 10
578.00000000011448
 20
-1996.000000000892
 30
0.0
 11
578.00000000011448
 21
-1993.0000000008929
 31
0.0
1001
ACDBBLOCKREPETAG
1070
     1
1071
       53
1005
13940C
  0
ARC
  5
13940D
  8
OBJECT
 10
575.00000000011437
 20
-1993.0000000008929
 30
0.0
 40
3.0
 50
0.0
 51
90.0
1001
ACDBBLOCKREPETAG
1070
     1
1071
       54
1005
13940D
  0
LINE
  5
13940E
  8
OBJECT
 10
575.00000000011437
 20
-1990.0000000008929
 30
0.0
 11
457.0000000001146
 21
-1990.0000000008911
 31
0.0
1001
ACDBBLOCKREPETAG
1070
     1
1071
       55
1005
13940E
  0
LINE
  5
13940F
  8
HIDDEN
 10
471.5000000001146
 20
-1988.0000000008911
 30
0.0
 11
560.5000000001146
 21
-1988.0000000008911
 31
0.0
1001
ACDBBLOCKREPETAG
1070
     1
1071
      426
1005
13940F
  0
LINE
  5
139410
  8
OBJECT
 10
94.000000000034575
 20
-2159.0000000008922
 30
0.0
 11
94.000000000034575
 21
-2156.0000000008922
 31
0.0
1001
ACDBBLOCKREPETAG
1070
     1
1071
      418
1005
139410
  0
ARC
  5
139411
  8
OBJECT
 10
97.000000000034561
 20
-2159.0000000008922
 30
0.0
 40
3.0
 50
180.0
 51
270.0
1001
ACDBBLOCKREPETAG
1070
     1
1071
      419
1005
139411
  0
LINE
  5
139412
  8
OBJECT
 10
218.00000000003459
 20
-2156.0000000008922
 30
0.0
 11
218.00000000003459
 21
-2159.0000000008922
 31
0.0
1001
ACDBBLOCKREPETAG
1070
     1
1071
      420
1005
139412
  0
ARC
  5
139413
  8
OBJECT
 10
215.00000000003459
 20
-2159.0000000008922
 30
0.0
 40
3.0
 50
270.0
 51
0.0
1001
ACDBBLOCKREPETAG
1070
     1
1071
      421
1005
139413
  0
LINE
  5
139414
  8
OBJECT
 10
215.00000000003459
 20
-2162.0000000008922
 30
0.0
 11
97.000000000034561
 21
-2162.0000000008922
 31
0.0
1001
ACDBBLOCKREPETAG
1070
     1
1071
      422
1005
139414
  0
INSERT
  5
139415
  8
OBJECT
  2
*U55
 10
0.0
 20
0.0
 30
0.0
  0
LINE
  5
139416
  8
OBJECT
 10
289.00000000003462
 20
-2029.000000000892
 30
0.0
 11
296.0000000000345
 21
-2029.000000000892
 31
0.0
1001
ACDBBLOCKREPETAG
1070
     1
1071
        1
1005
139416
  0
LINE
  5
139417
  8
OBJECT
 10
296.0000000000345
 20
-2029.000000000892
 30
0.0
 11
296.0000000000345
 21
-2123.0000000008922
 31
0.0
1001
ACDBBLOCKREPETAG
1070
     1
1071
        2
1005
139417
  0
LINE
  5
139418
  8
OBJECT
 10
296.0000000000345
 20
-2123.0000000008922
 30
0.0
 11
289.00000000003462
 21
-2123.0000000008922
 31
0.0
1001
ACDBBLOCKREPETAG
1070
     1
1071
        3
1005
139418
  0
LINE
  5
139419
  8
OBJECT
 10
289.00000000003462
 20
-2123.0000000008922
 30
0.0
 11
289.00000000003462
 21
-2029.000000000892
 31
0.0
1001
ACDBBLOCKREPETAG
1070
     1
1071
        4
1005
139419
  0
LINE
  5
13941A
  8
OBJECT
 10
289.00000000003462
 20
-2032.000000000892
 30
0.0
 11
253.00000000003459
 21
-2032.000000000892
 31
0.0
1001
ACDBBLOCKREPETAG
1070
     1
1071
        5
1005
13941A
  0
LINE
  5
13941B
  8
OBJECT
 10
253.00000000003459
 20
-2032.000000000892
 30
0.0
 11
253.00000000003459
 21
-2120.0000000008922
 31
0.0
1001
ACDBBLOCKREPETAG
1070
     1
1071
        6
1005
13941B
  0
LINE
  5
13941C
  8
OBJECT
 10
253.00000000003459
 20
-2120.0000000008922
 30
0.0
 11
289.00000000003462
 21
-2120.0000000008922
 31
0.0
1001
ACDBBLOCKREPETAG
1070
     1
1071
        7
1005
13941C
  0
LINE
  5
13941D
  8
OBJECT
 10
249.00000000003459
 20
-2036.500000000892
 30
0.0
 11
242.00000000003459
 21
-2036.500000000892
 31
0.0
1001
ACDBBLOCKREPETAG
1070
     1
1071
        8
1005
13941D
  0
LINE
  5
13941E
  8
OBJECT
 10
242.00000000003459
 20
-2115.5000000008922
 30
0.0
 11
249.00000000003459
 21
-2115.5000000008922
 31
0.0
1001
ACDBBLOCKREPETAG
1070
     1
1071
        9
1005
13941E
  0
LINE
  5
13941F
  8
OBJECT
 10
249.00000000003459
 20
-2115.5000000008922
 30
0.0
 11
249.00000000003459
 21
-2036.500000000892
 31
0.0
1001
ACDBBLOCKREPETAG
1070
     1
1071
       10
1005
13941F
  0
LINE
  5
139420
  8
OBJECT
 10
253.00000000003459
 20
-2032.000000000892
 30
0.0
 11
249.00000000003459
 21
-2036.500000000892
 31
0.0
1001
ACDBBLOCKREPETAG
1070
     1
1071
       11
1005
139420
  0
LINE
  5
139421
  8
OBJECT
 10
253.00000000003459
 20
-2120.0000000008922
 30
0.0
 11
249.00000000003459
 21
-2115.5000000008922
 31
0.0
1001
ACDBBLOCKREPETAG
1070
     1
1071
       12
1005
139421
  0
LINE
  5
139422
  8
OBJECT
 10
239.00000000003641
 20
-2014.000000000892
 30
0.0
 11
236.00000000003459
 21
-2014.000000000892
 31
0.0
1001
ACDBBLOCKREPETAG
1070
     1
1071
       13
1005
139422
  0
ARC
  5
139423
  8
OBJECT
 10
239.00000000003641
 20
-2017.000000000892
 30
0.0
 40
3.0
 50
0.0
 51
90.0
1001
ACDBBLOCKREPETAG
1070
     1
1071
       14
1005
139423
  0
LINE
  5
139424
  8
OBJECT
 10
236.00000000003459
 20
-2138.0000000008922
 30
0.0
 11
239.00000000003271
 21
-2138.0000000008922
 31
0.0
1001
ACDBBLOCKREPETAG
1070
     1
1071
       15
1005
139424
  0
ARC
  5
139425
  8
OBJECT
 10
239.00000000003271
 20
-2135.0000000008922
 30
0.0
 40
3.0
 50
270.0
 51
0.0
1001
ACDBBLOCKREPETAG
1070
     1
1071
       16
1005
139425
  0
LINE
  5
139426
  8
OBJECT
 10
242.0000000000328
 20
-2135.0000000008922
 30
0.0
 11
242.00000000003641
 21
-2017.000000000892
 31
0.0
1001
ACDBBLOCKREPETAG
1070
     1
1071
       17
1005
139426
  0
LINE
  5
139427
  8
HIDDEN
 10
244.0000000000345
 20
-2046.000000000892
 30
0.0
 11
244.0000000000345
 21
-2106.0000000008922
 31
0.0
1001
ACDBBLOCKREPETAG
1070
     1
1071
      424
1005
139427
  0
INSERT
  5
139428
  8
OBJECT
  2
*U56
 10
0.0
 20
0.0
 30
0.0
  0
LINE
  5
139429
  8
OBJECT
 10
94.000000000034575
 20
-1943.000000000892
 30
0.0
 11
94.000000000034575
 21
-1936.0000000008911
 31
0.0
1001
ACDBBLOCKREPETAG
1070
     1
1071
       39
1005
139429
  0
LINE
  5
13942A
  8
OBJECT
 10
94.000000000034575
 20
-1936.0000000008911
 30
0.0
 11
218.00000000003459
 21
-1936.0000000008911
 31
0.0
1001
ACDBBLOCKREPETAG
1070
     1
1071
       40
1005
13942A
  0
LINE
  5
13942B
  8
OBJECT
 10
218.00000000003459
 20
-1936.0000000008911
 30
0.0
 11
218.00000000003459
 21
-1943.000000000892
 31
0.0
1001
ACDBBLOCKREPETAG
1070
     1
1071
       41
1005
13942B
  0
LINE
  5
13942C
  8
OBJECT
 10
218.00000000003459
 20
-1943.000000000892
 30
0.0
 11
94.000000000034575
 21
-1943.000000000892
 31
0.0
1001
ACDBBLOCKREPETAG
1070
     1
1071
       42
1005
13942C
  0
LINE
  5
13942D
  8
OBJECT
 10
97.000000000034561
 20
-1943.000000000892
 30
0.0
 11
97.000000000034561
 21
-1979.000000000892
 31
0.0
1001
ACDBBLOCKREPETAG
1070
     1
1071
       43
1005
13942D
  0
LINE
  5
13942E
  8
OBJECT
 10
97.000000000034561
 20
-1979.000000000892
 30
0.0
 11
215.00000000003459
 21
-1979.000000000892
 31
0.0
1001
ACDBBLOCKREPETAG
1070
     1
1071
       44
1005
13942E
  0
LINE
  5
13942F
  8
OBJECT
 10
215.00000000003459
 20
-1979.000000000892
 30
0.0
 11
215.00000000003459
 21
-1943.000000000892
 31
0.0
1001
ACDBBLOCKREPETAG
1070
     1
1071
       45
1005
13942F
  0
LINE
  5
139430
  8
OBJECT
 10
101.5000000000345
 20
-1983.000000000892
 30
0.0
 11
101.5000000000345
 21
-1990.000000000892
 31
0.0
1001
ACDBBLOCKREPETAG
1070
     1
1071
       46
1005
139430
  0
LINE
  5
139431
  8
OBJECT
 10
210.5000000000345
 20
-1990.000000000892
 30
0.0
 11
210.5000000000345
 21
-1983.000000000892
 31
0.0
1001
ACDBBLOCKREPETAG
1070
     1
1071
       47
1005
139431
  0
LINE
  5
139432
  8
OBJECT
 10
210.5000000000345
 20
-1983.000000000892
 30
0.0
 11
101.5000000000345
 21
-1983.000000000892
 31
0.0
1001
ACDBBLOCKREPETAG
1070
     1
1071
       48
1005
139432
  0
LINE
  5
139433
  8
OBJECT
 10
97.000000000034561
 20
-1979.000000000892
 30
0.0
 11
101.5000000000345
 21
-1983.000000000892
 31
0.0
1001
ACDBBLOCKREPETAG
1070
     1
1071
       49
1005
139433
  0
LINE
  5
139434
  8
OBJECT
 10
215.00000000003459
 20
-1979.000000000892
 30
0.0
 11
210.5000000000345
 21
-1983.000000000892
 31
0.0
1001
ACDBBLOCKREPETAG
1070
     1
1071
       50
1005
139434
  0
LINE
  5
139435
  8
OBJECT
 10
94.000000000034575
 20
-1993.0000000008911
 30
0.0
 11
94.000000000034575
 21
-1996.000000000892
 31
0.0
1001
ACDBBLOCKREPETAG
1070
     1
1071
       51
1005
139435
  0
ARC
  5
139436
  8
OBJECT
 10
97.000000000034561
 20
-1993.0000000008911
 30
0.0
 40
3.0
 50
90.0
 51
180.0
1001
ACDBBLOCKREPETAG
1070
     1
1071
       52
1005
139436
  0
LINE
  5
139437
  8
OBJECT
 10
218.00000000003459
 20
-1996.000000000892
 30
0.0
 11
218.00000000003459
 21
-1993.0000000008929
 31
0.0
1001
ACDBBLOCKREPETAG
1070
     1
1071
       53
1005
139437
  0
ARC
  5
139438
  8
OBJECT
 10
215.00000000003459
 20
-1993.0000000008929
 30
0.0
 40
3.0
 50
0.0
 51
90.0
1001
ACDBBLOCKREPETAG
1070
     1
1071
       54
1005
139438
  0
LINE
  5
139439
  8
OBJECT
 10
215.00000000003459
 20
-1990.0000000008929
 30
0.0
 11
97.000000000034561
 21
-1990.0000000008911
 31
0.0
1001
ACDBBLOCKREPETAG
1070
     1
1071
       55
1005
139439
  0
LINE
  5
13943A
  8
HIDDEN
 10
111.5000000000345
 20
-1988.0000000008911
 30
0.0
 11
200.50000000003459
 21
-1988.0000000008911
 31
0.0
1001
ACDBBLOCKREPETAG
1070
     1
1071
      426
1005
13943A
  0
LINE
  5
13943B
  8
OBJECT
 10
94.000000000034575
 20
-1695.0000000008849
 30
0.0
 11
94.000000000034575
 21
-1692.000000000884
 31
0.0
1001
ACDBBLOCKREPETAG
1070
     1
1071
      418
1005
13943B
  0
ARC
  5
13943C
  8
OBJECT
 10
97.000000000034561
 20
-1695.0000000008849
 30
0.0
 40
3.0
 50
180.0
 51
270.0
1001
ACDBBLOCKREPETAG
1070
     1
1071
      419
1005
13943C
  0
LINE
  5
13943D
  8
OBJECT
 10
218.00000000003459
 20
-1692.000000000884
 30
0.0
 11
218.00000000003459
 21
-1695.0000000008849
 31
0.0
1001
ACDBBLOCKREPETAG
1070
     1
1071
      420
1005
13943D
  0
ARC
  5
13943E
  8
OBJECT
 10
215.00000000003459
 20
-1695.0000000008849
 30
0.0
 40
3.0
 50
270.0
 51
0.0
1001
ACDBBLOCKREPETAG
1070
     1
1071
      421
1005
13943E
  0
LINE
  5
13943F
  8
OBJECT
 10
215.00000000003459
 20
-1698.0000000008849
 30
0.0
 11
97.000000000034561
 21
-1698.0000000008849
 31
0.0
1001
ACDBBLOCKREPETAG
1070
     1
1071
      422
1005
13943F
  0
INSERT
  5
139440
  8
OBJECT
  2
*U57
 10
0.0
 20
0.0
 30
0.0
  0
LINE
  5
139441
  8
OBJECT
 10
289.00000000003462
 20
-1550.0000000008849
 30
0.0
 11
296.0000000000345
 21
-1550.0000000008849
 31
0.0
1001
ACDBBLOCKREPETAG
1070
     1
1071
       39
1005
139441
  0
LINE
  5
139442
  8
OBJECT
 10
296.0000000000345
 20
-1550.0000000008849
 30
0.0
 11
296.0000000000345
 21
-1674.0000000008849
 31
0.0
1001
ACDBBLOCKREPETAG
1070
     1
1071
       40
1005
139442
  0
LINE
  5
139443
  8
OBJECT
 10
296.0000000000345
 20
-1674.0000000008849
 30
0.0
 11
289.00000000003462
 21
-1674.0000000008849
 31
0.0
1001
ACDBBLOCKREPETAG
1070
     1
1071
       41
1005
139443
  0
LINE
  5
139444
  8
OBJECT
 10
289.00000000003462
 20
-1674.0000000008849
 30
0.0
 11
289.00000000003462
 21
-1550.0000000008849
 31
0.0
1001
ACDBBLOCKREPETAG
1070
     1
1071
       42
1005
139444
  0
LINE
  5
139445
  8
OBJECT
 10
289.00000000003462
 20
-1553.0000000008849
 30
0.0
 11
253.00000000003459
 21
-1553.0000000008849
 31
0.0
1001
ACDBBLOCKREPETAG
1070
     1
1071
       43
1005
139445
  0
LINE
  5
139446
  8
OBJECT
 10
253.00000000003459
 20
-1553.0000000008849
 30
0.0
 11
253.00000000003459
 21
-1671.0000000008849
 31
0.0
1001
ACDBBLOCKREPETAG
1070
     1
1071
       44
1005
139446
  0
LINE
  5
139447
  8
OBJECT
 10
253.00000000003459
 20
-1671.0000000008849
 30
0.0
 11
289.00000000003462
 21
-1671.0000000008849
 31
0.0
1001
ACDBBLOCKREPETAG
1070
     1
1071
       45
1005
139447
  0
LINE
  5
139448
  8
OBJECT
 10
249.00000000003459
 20
-1557.500000000884
 30
0.0
 11
242.00000000003459
 21
-1557.500000000884
 31
0.0
1001
ACDBBLOCKREPETAG
1070
     1
1071
       46
1005
139448
  0
LINE
  5
139449
  8
OBJECT
 10
242.00000000003459
 20
-1666.5000000008849
 30
0.0
 11
249.00000000003459
 21
-1666.5000000008849
 31
0.0
1001
ACDBBLOCKREPETAG
1070
     1
1071
       47
1005
139449
  0
LINE
  5
13944A
  8
OBJECT
 10
249.00000000003459
 20
-1666.5000000008849
 30
0.0
 11
249.00000000003459
 21
-1557.500000000884
 31
0.0
1001
ACDBBLOCKREPETAG
1070
     1
1071
       48
1005
13944A
  0
LINE
  5
13944B
  8
OBJECT
 10
253.00000000003459
 20
-1553.0000000008849
 30
0.0
 11
249.00000000003459
 21
-1557.500000000884
 31
0.0
1001
ACDBBLOCKREPETAG
1070
     1
1071
       49
1005
13944B
  0
LINE
  5
13944C
  8
OBJECT
 10
253.00000000003459
 20
-1671.0000000008849
 30
0.0
 11
249.00000000003459
 21
-1666.5000000008849
 31
0.0
1001
ACDBBLOCKREPETAG
1070
     1
1071
       50
1005
13944C
  0
LINE
  5
13944D
  8
OBJECT
 10
239.00000000003641
 20
-1550.0000000008849
 30
0.0
 11
236.00000000003459
 21
-1550.0000000008849
 31
0.0
1001
ACDBBLOCKREPETAG
1070
     1
1071
       51
1005
13944D
  0
ARC
  5
13944E
  8
OBJECT
 10
239.00000000003641
 20
-1553.0000000008849
 30
0.0
 40
3.0
 50
0.0
 51
90.0
1001
ACDBBLOCKREPETAG
1070
     1
1071
       52
1005
13944E
  0
LINE
  5
13944F
  8
OBJECT
 10
236.00000000003459
 20
-1674.0000000008849
 30
0.0
 11
239.00000000003271
 21
-1674.0000000008849
 31
0.0
1001
ACDBBLOCKREPETAG
1070
     1
1071
       53
1005
13944F
  0
ARC
  5
139450
  8
OBJECT
 10
239.00000000003271
 20
-1671.0000000008849
 30
0.0
 40
3.0
 50
270.0
 51
0.0
1001
ACDBBLOCKREPETAG
1070
     1
1071
       54
1005
139450
  0
LINE
  5
139451
  8
OBJECT
 10
242.0000000000328
 20
-1671.0000000008849
 30
0.0
 11
242.00000000003641
 21
-1553.0000000008849
 31
0.0
1001
ACDBBLOCKREPETAG
1070
     1
1071
       55
1005
139451
  0
LINE
  5
139452
  8
HIDDEN
 10
244.0000000000345
 20
-1567.500000000884
 30
0.0
 11
244.0000000000345
 21
-1656.5000000008849
 31
0.0
1001
ACDBBLOCKREPETAG
1070
     1
1071
      430
1005
139452
  0
INSERT
  5
139453
  8
OBJECT
  2
*U58
 10
0.0
 20
0.0
 30
0.0
  0
LINE
  5
139454
  8
OBJECT
 10
101.0000000000345
 20
-1479.000000000884
 30
0.0
 11
101.0000000000345
 21
-1472.0000000008849
 31
0.0
1001
ACDBBLOCKREPETAG
1070
     1
1071
       20
1005
139454
  0
LINE
  5
139455
  8
OBJECT
 10
101.0000000000345
 20
-1472.0000000008849
 30
0.0
 11
211.00000000003459
 21
-1472.0000000008849
 31
0.0
1001
ACDBBLOCKREPETAG
1070
     1
1071
       21
1005
139455
  0
LINE
  5
139456
  8
OBJECT
 10
211.00000000003459
 20
-1472.0000000008849
 30
0.0
 11
211.00000000003459
 21
-1479.000000000884
 31
0.0
1001
ACDBBLOCKREPETAG
1070
     1
1071
       22
1005
139456
  0
LINE
  5
139457
  8
OBJECT
 10
211.00000000003459
 20
-1479.000000000884
 30
0.0
 11
101.0000000000345
 21
-1479.000000000884
 31
0.0
1001
ACDBBLOCKREPETAG
1070
     1
1071
       23
1005
139457
  0
LINE
  5
139458
  8
OBJECT
 10
104.0000000000345
 20
-1479.000000000884
 30
0.0
 11
104.0000000000345
 21
-1515.0000000008849
 31
0.0
1001
ACDBBLOCKREPETAG
1070
     1
1071
       24
1005
139458
  0
LINE
  5
139459
  8
OBJECT
 10
104.0000000000345
 20
-1515.0000000008849
 30
0.0
 11
208.00000000003459
 21
-1515.0000000008849
 31
0.0
1001
ACDBBLOCKREPETAG
1070
     1
1071
       25
1005
139459
  0
LINE
  5
13945A
  8
OBJECT
 10
208.00000000003459
 20
-1515.0000000008849
 30
0.0
 11
208.00000000003459
 21
-1479.000000000884
 31
0.0
1001
ACDBBLOCKREPETAG
1070
     1
1071
       26
1005
13945A
  0
LINE
  5
13945B
  8
OBJECT
 10
108.5000000000345
 20
-1519.000000000884
 30
0.0
 11
108.5000000000345
 21
-1526.0000000008849
 31
0.0
1001
ACDBBLOCKREPETAG
1070
     1
1071
       27
1005
13945B
  0
LINE
  5
13945C
  8
OBJECT
 10
203.50000000003459
 20
-1526.0000000008849
 30
0.0
 11
203.50000000003459
 21
-1519.000000000884
 31
0.0
1001
ACDBBLOCKREPETAG
1070
     1
1071
       28
1005
13945C
  0
LINE
  5
13945D
  8
OBJECT
 10
203.50000000003459
 20
-1519.000000000884
 30
0.0
 11
108.5000000000345
 21
-1519.000000000884
 31
0.0
1001
ACDBBLOCKREPETAG
1070
     1
1071
       29
1005
13945D
  0
LINE
  5
13945E
  8
OBJECT
 10
104.0000000000345
 20
-1515.0000000008849
 30
0.0
 11
108.5000000000345
 21
-1519.000000000884
 31
0.0
1001
ACDBBLOCKREPETAG
1070
     1
1071
       30
1005
13945E
  0
LINE
  5
13945F
  8
OBJECT
 10
208.00000000003459
 20
-1515.0000000008849
 30
0.0
 11
203.50000000003459
 21
-1519.000000000884
 31
0.0
1001
ACDBBLOCKREPETAG
1070
     1
1071
       31
1005
13945F
  0
LINE
  5
139460
  8
OBJECT
 10
94.000000000034575
 20
-1529.000000000884
 30
0.0
 11
94.000000000034575
 21
-1532.000000000884
 31
0.0
1001
ACDBBLOCKREPETAG
1070
     1
1071
       32
1005
139460
  0
ARC
  5
139461
  8
OBJECT
 10
97.000000000034561
 20
-1529.000000000884
 30
0.0
 40
3.0
 50
90.0
 51
180.0
1001
ACDBBLOCKREPETAG
1070
     1
1071
       33
1005
139461
  0
LINE
  5
139462
  8
OBJECT
 10
218.00000000003459
 20
-1532.000000000884
 30
0.0
 11
218.00000000003459
 21
-1529.0000000008861
 31
0.0
1001
ACDBBLOCKREPETAG
1070
     1
1071
       34
1005
139462
  0
ARC
  5
139463
  8
OBJECT
 10
215.00000000003459
 20
-1529.0000000008861
 30
0.0
 40
3.0
 50
0.0
 51
90.0
1001
ACDBBLOCKREPETAG
1070
     1
1071
       35
1005
139463
  0
LINE
  5
139464
  8
OBJECT
 10
215.00000000003459
 20
-1526.0000000008861
 30
0.0
 11
97.000000000034561
 21
-1526.000000000884
 31
0.0
1001
ACDBBLOCKREPETAG
1070
     1
1071
       36
1005
139464
  0
LINE
  5
139465
  8
HIDDEN
 10
118.0000000000345
 20
-1524.0000000008849
 30
0.0
 11
194.0000000000345
 21
-1524.0000000008849
 31
0.0
1001
ACDBBLOCKREPETAG
1070
     1
1071
      423
1005
139465
  0
LINE
  5
139466
  8
OBJECT
 10
454.00000000011448
 20
-1695.0000000008849
 30
0.0
 11
454.00000000011448
 21
-1692.000000000884
 31
0.0
1001
ACDBBLOCKREPETAG
1070
     1
1071
      418
1005
139466
  0
ARC
  5
139467
  8
OBJECT
 10
457.0000000001146
 20
-1695.0000000008849
 30
0.0
 40
3.0
 50
180.0
 51
270.0
1001
ACDBBLOCKREPETAG
1070
     1
1071
      419
1005
139467
  0
LINE
  5
139468
  8
OBJECT
 10
578.00000000011448
 20
-1692.000000000884
 30
0.0
 11
578.00000000011448
 21
-1695.0000000008849
 31
0.0
1001
ACDBBLOCKREPETAG
1070
     1
1071
      420
1005
139468
  0
ARC
  5
139469
  8
OBJECT
 10
575.00000000011437
 20
-1695.0000000008849
 30
0.0
 40
3.0
 50
270.0
 51
0.0
1001
ACDBBLOCKREPETAG
1070
     1
1071
      421
1005
139469
  0
LINE
  5
13946A
  8
OBJECT
 10
575.00000000011437
 20
-1698.0000000008849
 30
0.0
 11
457.0000000001146
 21
-1698.0000000008849
 31
0.0
1001
ACDBBLOCKREPETAG
1070
     1
1071
      422
1005
13946A
  0
LINE
  5
13946B
  8
OBJECT
 10
666.00000000011448
 20
-1537.000000000884
 30
0.0
 11
659.0000000001146
 21
-1537.000000000884
 31
0.0
1001
ACDBBLOCKREPETAG
1070
     1
1071
       57
1005
13946B
  0
LINE
  5
13946C
  8
OBJECT
 10
659.0000000001146
 20
-1537.000000000884
 30
0.0
 11
659.0000000001146
 21
-1687.0000000008849
 31
0.0
1001
ACDBBLOCKREPETAG
1070
     1
1071
       58
1005
13946C
  0
LINE
  5
13946D
  8
OBJECT
 10
617.5000000001146
 20
-1540.000000000884
 30
0.0
 11
617.5000000001146
 21
-1684.000000000884
 31
0.0
1001
ACDBBLOCKREPETAG
1070
     1
1071
       59
1005
13946D
  0
LINE
  5
13946E
  8
OBJECT
 10
606.0000000001146
 20
-1546.5000000008849
 30
0.0
 11
606.0000000001146
 21
-1677.5000000008849
 31
0.0
1001
ACDBBLOCKREPETAG
1070
     1
1071
       60
1005
13946E
  0
LINE
  5
13946F
  8
OBJECT
 10
659.0000000001146
 20
-1687.0000000008849
 30
0.0
 11
666.00000000011448
 21
-1687.0000000008849
 31
0.0
1001
ACDBBLOCKREPETAG
1070
     1
1071
       61
1005
13946F
  0
LINE
  5
139470
  8
OBJECT
 10
666.00000000011448
 20
-1687.0000000008849
 30
0.0
 11
666.00000000011448
 21
-1537.000000000884
 31
0.0
1001
ACDBBLOCKREPETAG
1070
     1
1071
       62
1005
139470
  0
LINE
  5
139471
  8
OBJECT
 10
602.0000000001146
 20
-1674.0000000008849
 30
0.0
 11
596.00000000011437
 21
-1674.0000000008849
 31
0.0
1001
ACDBBLOCKREPETAG
1070
     1
1071
       63
1005
139471
  0
LINE
  5
139472
  8
OBJECT
 10
659.0000000001146
 20
-1684.000000000884
 30
0.0
 11
617.5000000001146
 21
-1684.000000000884
 31
0.0
1001
ACDBBLOCKREPETAG
1070
     1
1071
       64
1005
139472
  0
LINE
  5
139473
  8
OBJECT
 10
617.5000000001146
 20
-1684.000000000884
 30
0.0
 11
606.0000000001146
 21
-1677.5000000008849
 31
0.0
1001
ACDBBLOCKREPETAG
1070
     1
1071
       65
1005
139473
  0
LINE
  5
139474
  8
OBJECT
 10
606.0000000001146
 20
-1677.5000000008849
 30
0.0
 11
602.0000000001146
 21
-1674.0000000008849
 31
0.0
1001
ACDBBLOCKREPETAG
1070
     1
1071
       66
1005
139474
  0
LINE
  5
139475
  8
OBJECT
 10
617.5000000001146
 20
-1540.000000000884
 30
0.0
 11
606.0000000001146
 21
-1546.5000000008849
 31
0.0
1001
ACDBBLOCKREPETAG
1070
     1
1071
       67
1005
139475
  0
LINE
  5
139476
  8
OBJECT
 10
606.0000000001146
 20
-1546.5000000008849
 30
0.0
 11
602.0000000001146
 21
-1550.0000000008849
 31
0.0
1001
ACDBBLOCKREPETAG
1070
     1
1071
       68
1005
139476
  0
ARC
  5
139477
  8
OBJECT
 10
983.90000000011605
 20
-1612.000000000884
 30
0.0
 40
386.89999999999998
 50
170.77870136263201
 51
189.22129863736799
1001
ACDBBLOCKREPETAG
1070
     1
1071
       69
1005
139477
  0
LINE
  5
139478
  8
OBJECT
 10
602.0000000001146
 20
-1550.0000000008849
 30
0.0
 11
596.00000000011437
 21
-1550.0000000008849
 31
0.0
1001
ACDBBLOCKREPETAG
1070
     1
1071
       70
1005
139478
  0
LINE
  5
139479
  8
OBJECT
 10
659.0000000001146
 20
-1540.000000000884
 30
0.0
 11
617.5000000001146
 21
-1540.000000000884
 31
0.0
1001
ACDBBLOCKREPETAG
1070
     1
1071
       71
1005
139479
  0
INSERT
  5
13947A
  8
OBJECT
  2
*U59
 10
0.0
 20
0.0
 30
0.0
  0
LINE
  5
13947B
  8
HIDDEN
 10
614.0000000001146
 20
-1669.0000000008849
 30
0.0
 11
614.0000000001146
 21
-1555.0000000008849
 31
0.0
1001
ACDBBLOCKREPETAG
1070
     1
1071
      437
1005
13947B
  0
INSERT
  5
13947C
  8
OBJECT
  2
*U60
 10
0.0
 20
0.0
 30
0.0
  0
LINE
  5
13947D
  8
OBJECT
 10
461.0000000001146
 20
-1479.000000000884
 30
0.0
 11
461.0000000001146
 21
-1472.0000000008849
 31
0.0
1001
ACDBBLOCKREPETAG
1070
     1
1071
       20
1005
13947D
  0
LINE
  5
13947E
  8
OBJECT
 10
461.0000000001146
 20
-1472.0000000008849
 30
0.0
 11
571.00000000011437
 21
-1472.0000000008849
 31
0.0
1001
ACDBBLOCKREPETAG
1070
     1
1071
       21
1005
13947E
  0
LINE
  5
13947F
  8
OBJECT
 10
571.00000000011437
 20
-1472.0000000008849
 30
0.0
 11
571.00000000011437
 21
-1479.000000000884
 31
0.0
1001
ACDBBLOCKREPETAG
1070
     1
1071
       22
1005
13947F
  0
LINE
  5
139480
  8
OBJECT
 10
571.00000000011437
 20
-1479.000000000884
 30
0.0
 11
461.0000000001146
 21
-1479.000000000884
 31
0.0
1001
ACDBBLOCKREPETAG
1070
     1
1071
       23
1005
139480
  0
LINE
  5
139481
  8
OBJECT
 10
464.0000000001146
 20
-1479.000000000884
 30
0.0
 11
464.0000000001146
 21
-1515.0000000008849
 31
0.0
1001
ACDBBLOCKREPETAG
1070
     1
1071
       24
1005
139481
  0
LINE
  5
139482
  8
OBJECT
 10
464.0000000001146
 20
-1515.0000000008849
 30
0.0
 11
568.0000000001146
 21
-1515.0000000008849
 31
0.0
1001
ACDBBLOCKREPETAG
1070
     1
1071
       25
1005
139482
  0
LINE
  5
139483
  8
OBJECT
 10
568.0000000001146
 20
-1515.0000000008849
 30
0.0
 11
568.0000000001146
 21
-1479.000000000884
 31
0.0
1001
ACDBBLOCKREPETAG
1070
     1
1071
       26
1005
139483
  0
LINE
  5
139484
  8
OBJECT
 10
468.5000000001146
 20
-1519.000000000884
 30
0.0
 11
468.5000000001146
 21
-1526.0000000008849
 31
0.0
1001
ACDBBLOCKREPETAG
1070
     1
1071
       27
1005
139484
  0
LINE
  5
139485
  8
OBJECT
 10
563.5000000001146
 20
-1526.0000000008849
 30
0.0
 11
563.5000000001146
 21
-1519.000000000884
 31
0.0
1001
ACDBBLOCKREPETAG
1070
     1
1071
       28
1005
139485
  0
LINE
  5
139486
  8
OBJECT
 10
563.5000000001146
 20
-1519.000000000884
 30
0.0
 11
468.5000000001146
 21
-1519.000000000884
 31
0.0
1001
ACDBBLOCKREPETAG
1070
     1
1071
       29
1005
139486
  0
LINE
  5
139487
  8
OBJECT
 10
464.0000000001146
 20
-1515.0000000008849
 30
0.0
 11
468.5000000001146
 21
-1519.000000000884
 31
0.0
1001
ACDBBLOCKREPETAG
1070
     1
1071
       30
1005
139487
  0
LINE
  5
139488
  8
OBJECT
 10
568.0000000001146
 20
-1515.0000000008849
 30
0.0
 11
563.5000000001146
 21
-1519.000000000884
 31
0.0
1001
ACDBBLOCKREPETAG
1070
     1
1071
       31
1005
139488
  0
LINE
  5
139489
  8
OBJECT
 10
454.00000000011448
 20
-1529.000000000884
 30
0.0
 11
454.00000000011448
 21
-1532.000000000884
 31
0.0
1001
ACDBBLOCKREPETAG
1070
     1
1071
       32
1005
139489
  0
ARC
  5
13948A
  8
OBJECT
 10
457.0000000001146
 20
-1529.000000000884
 30
0.0
 40
3.0
 50
90.0
 51
180.0
1001
ACDBBLOCKREPETAG
1070
     1
1071
       33
1005
13948A
  0
LINE
  5
13948B
  8
OBJECT
 10
578.00000000011448
 20
-1532.000000000884
 30
0.0
 11
578.00000000011448
 21
-1529.0000000008861
 31
0.0
1001
ACDBBLOCKREPETAG
1070
     1
1071
       34
1005
13948B
  0
ARC
  5
13948C
  8
OBJECT
 10
575.00000000011437
 20
-1529.0000000008861
 30
0.0
 40
3.0
 50
0.0
 51
90.0
1001
ACDBBLOCKREPETAG
1070
     1
1071
       35
1005
13948C
  0
LINE
  5
13948D
  8
OBJECT
 10
575.00000000011437
 20
-1526.0000000008861
 30
0.0
 11
457.0000000001146
 21
-1526.000000000884
 31
0.0
1001
ACDBBLOCKREPETAG
1070
     1
1071
       36
1005
13948D
  0
LINE
  5
13948E
  8
HIDDEN
 10
478.00000000011448
 20
-1524.0000000008849
 30
0.0
 11
554.00000000011437
 21
-1524.0000000008849
 31
0.0
1001
ACDBBLOCKREPETAG
1070
     1
1071
      423
1005
13948E
  0
LINE
  5
13948F
  8
OBJECT
 10
454.00000000011448
 20
-1231.0000000008779
 30
0.0
 11
454.00000000011448
 21
-1228.0000000008779
 31
0.0
1001
ACDBBLOCKREPETAG
1070
     1
1071
      418
1005
13948F
  0
ARC
  5
139490
  8
OBJECT
 10
457.0000000001146
 20
-1231.0000000008779
 30
0.0
 40
3.0
 50
180.0
 51
270.0
1001
ACDBBLOCKREPETAG
1070
     1
1071
      419
1005
139490
  0
LINE
  5
139491
  8
OBJECT
 10
578.00000000011448
 20
-1228.0000000008779
 30
0.0
 11
578.00000000011448
 21
-1231.0000000008779
 31
0.0
1001
ACDBBLOCKREPETAG
1070
     1
1071
      420
1005
139491
  0
ARC
  5
139492
  8
OBJECT
 10
575.00000000011437
 20
-1231.0000000008779
 30
0.0
 40
3.0
 50
270.0
 51
0.0
1001
ACDBBLOCKREPETAG
1070
     1
1071
      421
1005
139492
  0
LINE
  5
139493
  8
OBJECT
 10
575.00000000011437
 20
-1234.0000000008779
 30
0.0
 11
457.0000000001146
 21
-1234.0000000008779
 31
0.0
1001
ACDBBLOCKREPETAG
1070
     1
1071
      422
1005
139493
  0
INSERT
  5
139494
  8
OBJECT
  2
*U61
 10
0.0
 20
0.0
 30
0.0
  0
LINE
  5
139495
  8
OBJECT
 10
649.00000000011448
 20
-1093.0000000008779
 30
0.0
 11
656.0000000001146
 21
-1093.0000000008779
 31
0.0
1001
ACDBBLOCKREPETAG
1070
     1
1071
       20
1005
139495
  0
LINE
  5
139496
  8
OBJECT
 10
656.0000000001146
 20
-1093.0000000008779
 30
0.0
 11
656.0000000001146
 21
-1203.0000000008779
 31
0.0
1001
ACDBBLOCKREPETAG
1070
     1
1071
       21
1005
139496
  0
LINE
  5
139497
  8
OBJECT
 10
656.0000000001146
 20
-1203.0000000008779
 30
0.0
 11
649.00000000011448
 21
-1203.0000000008779
 31
0.0
1001
ACDBBLOCKREPETAG
1070
     1
1071
       22
1005
139497
  0
LINE
  5
139498
  8
OBJECT
 10
649.00000000011448
 20
-1203.0000000008779
 30
0.0
 11
649.00000000011448
 21
-1093.0000000008779
 31
0.0
1001
ACDBBLOCKREPETAG
1070
     1
1071
       23
1005
139498
  0
LINE
  5
139499
  8
OBJECT
 10
649.00000000011448
 20
-1096.0000000008779
 30
0.0
 11
613.0000000001146
 21
-1096.0000000008779
 31
0.0
1001
ACDBBLOCKREPETAG
1070
     1
1071
       24
1005
139499
  0
LINE
  5
13949A
  8
OBJECT
 10
613.0000000001146
 20
-1096.0000000008779
 30
0.0
 11
613.0000000001146
 21
-1200.0000000008779
 31
0.0
1001
ACDBBLOCKREPETAG
1070
     1
1071
       25
1005
13949A
  0
LINE
  5
13949B
  8
OBJECT
 10
613.0000000001146
 20
-1200.0000000008779
 30
0.0
 11
649.00000000011448
 21
-1200.0000000008779
 31
0.0
1001
ACDBBLOCKREPETAG
1070
     1
1071
       26
1005
13949B
  0
LINE
  5
13949C
  8
OBJECT
 10
609.0000000001146
 20
-1100.5000000008779
 30
0.0
 11
602.0000000001146
 21
-1100.5000000008779
 31
0.0
1001
ACDBBLOCKREPETAG
1070
     1
1071
       27
1005
13949C
  0
LINE
  5
13949D
  8
OBJECT
 10
602.0000000001146
 20
-1195.5000000008779
 30
0.0
 11
609.0000000001146
 21
-1195.5000000008779
 31
0.0
1001
ACDBBLOCKREPETAG
1070
     1
1071
       28
1005
13949D
  0
LINE
  5
13949E
  8
OBJECT
 10
609.0000000001146
 20
-1195.5000000008779
 30
0.0
 11
609.0000000001146
 21
-1100.5000000008779
 31
0.0
1001
ACDBBLOCKREPETAG
1070
     1
1071
       29
1005
13949E
  0
LINE
  5
13949F
  8
OBJECT
 10
613.0000000001146
 20
-1096.0000000008779
 30
0.0
 11
609.0000000001146
 21
-1100.5000000008779
 31
0.0
1001
ACDBBLOCKREPETAG
1070
     1
1071
       30
1005
13949F
  0
LINE
  5
1394A0
  8
OBJECT
 10
613.0000000001146
 20
-1200.0000000008779
 30
0.0
 11
609.0000000001146
 21
-1195.5000000008779
 31
0.0
1001
ACDBBLOCKREPETAG
1070
     1
1071
       31
1005
1394A0
  0
LINE
  5
1394A1
  8
OBJECT
 10
599.00000000011619
 20
-1086.0000000008779
 30
0.0
 11
596.00000000011437
 21
-1086.0000000008779
 31
0.0
1001
ACDBBLOCKREPETAG
1070
     1
1071
       32
1005
1394A1
  0
ARC
  5
1394A2
  8
OBJECT
 10
599.00000000011619
 20
-1089.0000000008779
 30
0.0
 40
3.0
 50
0.0
 51
90.0
1001
ACDBBLOCKREPETAG
1070
     1
1071
       33
1005
1394A2
  0
LINE
  5
1394A3
  8
OBJECT
 10
596.00000000011437
 20
-1210.0000000008779
 30
0.0
 11
599.00000000011278
 21
-1210.0000000008779
 31
0.0
1001
ACDBBLOCKREPETAG
1070
     1
1071
       34
1005
1394A3
  0
ARC
  5
1394A4
  8
OBJECT
 10
599.00000000011278
 20
-1207.0000000008779
 30
0.0
 40
3.0
 50
270.0
 51
0.0
1001
ACDBBLOCKREPETAG
1070
     1
1071
       35
1005
1394A4
  0
LINE
  5
1394A5
  8
OBJECT
 10
602.00000000011266
 20
-1207.0000000008779
 30
0.0
 11
602.0000000001163
 21
-1089.0000000008779
 31
0.0
1001
ACDBBLOCKREPETAG
1070
     1
1071
       36
1005
1394A5
  0
LINE
  5
1394A6
  8
HIDDEN
 10
604.00000000011437
 20
-1110.0000000008779
 30
0.0
 11
604.00000000011437
 21
-1186.0000000008779
 31
0.0
1001
ACDBBLOCKREPETAG
1070
     1
1071
      427
1005
1394A6
  0
INSERT
  5
1394A7
  8
OBJECT
  2
*U62
 10
0.0
 20
0.0
 30
0.0
  0
LINE
  5
1394A8
  8
OBJECT
 10
461.0000000001146
 20
-1015.000000000878
 30
0.0
 11
461.0000000001146
 21
-1008.000000000878
 31
0.0
1001
ACDBBLOCKREPETAG
1070
     1
1071
       20
1005
1394A8
  0
LINE
  5
1394A9
  8
OBJECT
 10
461.0000000001146
 20
-1008.000000000878
 30
0.0
 11
571.00000000011437
 21
-1008.000000000878
 31
0.0
1001
ACDBBLOCKREPETAG
1070
     1
1071
       21
1005
1394A9
  0
LINE
  5
1394AA
  8
OBJECT
 10
571.00000000011437
 20
-1008.000000000878
 30
0.0
 11
571.00000000011437
 21
-1015.000000000878
 31
0.0
1001
ACDBBLOCKREPETAG
1070
     1
1071
       22
1005
1394AA
  0
LINE
  5
1394AB
  8
OBJECT
 10
571.00000000011437
 20
-1015.000000000878
 30
0.0
 11
461.0000000001146
 21
-1015.000000000878
 31
0.0
1001
ACDBBLOCKREPETAG
1070
     1
1071
       23
1005
1394AB
  0
LINE
  5
1394AC
  8
OBJECT
 10
464.0000000001146
 20
-1015.000000000878
 30
0.0
 11
464.0000000001146
 21
-1051.0000000008779
 31
0.0
1001
ACDBBLOCKREPETAG
1070
     1
1071
       24
1005
1394AC
  0
LINE
  5
1394AD
  8
OBJECT
 10
464.0000000001146
 20
-1051.0000000008779
 30
0.0
 11
568.0000000001146
 21
-1051.0000000008779
 31
0.0
1001
ACDBBLOCKREPETAG
1070
     1
1071
       25
1005
1394AD
  0
LINE
  5
1394AE
  8
OBJECT
 10
568.0000000001146
 20
-1051.0000000008779
 30
0.0
 11
568.0000000001146
 21
-1015.000000000878
 31
0.0
1001
ACDBBLOCKREPETAG
1070
     1
1071
       26
1005
1394AE
  0
LINE
  5
1394AF
  8
OBJECT
 10
468.5000000001146
 20
-1055.000000000879
 30
0.0
 11
468.5000000001146
 21
-1062.0000000008779
 31
0.0
1001
ACDBBLOCKREPETAG
1070
     1
1071
       27
1005
1394AF
  0
LINE
  5
1394B0
  8
OBJECT
 10
563.5000000001146
 20
-1062.0000000008779
 30
0.0
 11
563.5000000001146
 21
-1055.000000000879
 31
0.0
1001
ACDBBLOCKREPETAG
1070
     1
1071
       28
1005
1394B0
  0
LINE
  5
1394B1
  8
OBJECT
 10
563.5000000001146
 20
-1055.000000000879
 30
0.0
 11
468.5000000001146
 21
-1055.000000000879
 31
0.0
1001
ACDBBLOCKREPETAG
1070
     1
1071
       29
1005
1394B1
  0
LINE
  5
1394B2
  8
OBJECT
 10
464.0000000001146
 20
-1051.0000000008779
 30
0.0
 11
468.5000000001146
 21
-1055.000000000879
 31
0.0
1001
ACDBBLOCKREPETAG
1070
     1
1071
       30
1005
1394B2
  0
LINE
  5
1394B3
  8
OBJECT
 10
568.0000000001146
 20
-1051.0000000008779
 30
0.0
 11
563.5000000001146
 21
-1055.000000000879
 31
0.0
1001
ACDBBLOCKREPETAG
1070
     1
1071
       31
1005
1394B3
  0
LINE
  5
1394B4
  8
OBJECT
 10
454.00000000011448
 20
-1065.000000000877
 30
0.0
 11
454.00000000011448
 21
-1068.0000000008779
 31
0.0
1001
ACDBBLOCKREPETAG
1070
     1
1071
       32
1005
1394B4
  0
ARC
  5
1394B5
  8
OBJECT
 10
457.0000000001146
 20
-1065.000000000877
 30
0.0
 40
3.0
 50
90.0
 51
180.0
1001
ACDBBLOCKREPETAG
1070
     1
1071
       33
1005
1394B5
  0
LINE
  5
1394B6
  8
OBJECT
 10
578.00000000011448
 20
-1068.0000000008779
 30
0.0
 11
578.00000000011448
 21
-1065.000000000879
 31
0.0
1001
ACDBBLOCKREPETAG
1070
     1
1071
       34
1005
1394B6
  0
ARC
  5
1394B7
  8
OBJECT
 10
575.00000000011437
 20
-1065.000000000879
 30
0.0
 40
3.0
 50
0.0
 51
90.0
1001
ACDBBLOCKREPETAG
1070
     1
1071
       35
1005
1394B7
  0
LINE
  5
1394B8
  8
OBJECT
 10
575.00000000011437
 20
-1062.000000000879
 30
0.0
 11
457.0000000001146
 21
-1062.000000000877
 31
0.0
1001
ACDBBLOCKREPETAG
1070
     1
1071
       36
1005
1394B8
  0
LINE
  5
1394B9
  8
HIDDEN
 10
478.00000000011448
 20
-1060.0000000008779
 30
0.0
 11
554.00000000011437
 21
-1060.0000000008779
 31
0.0
1001
ACDBBLOCKREPETAG
1070
     1
1071
      423
1005
1394B9
  0
LINE
  5
1394BA
  8
OBJECT
 10
94.000000000034575
 20
-1231.0000000008779
 30
0.0
 11
94.000000000034575
 21
-1228.0000000008779
 31
0.0
1001
ACDBBLOCKREPETAG
1070
     1
1071
      418
1005
1394BA
  0
ARC
  5
1394BB
  8
OBJECT
 10
97.000000000034561
 20
-1231.0000000008779
 30
0.0
 40
3.0
 50
180.0
 51
270.0
1001
ACDBBLOCKREPETAG
1070
     1
1071
      419
1005
1394BB
  0
LINE
  5
1394BC
  8
OBJECT
 10
218.00000000003459
 20
-1228.0000000008779
 30
0.0
 11
218.00000000003459
 21
-1231.0000000008779
 31
0.0
1001
ACDBBLOCKREPETAG
1070
     1
1071
      420
1005
1394BC
  0
ARC
  5
1394BD
  8
OBJECT
 10
215.00000000003459
 20
-1231.0000000008779
 30
0.0
 40
3.0
 50
270.0
 51
0.0
1001
ACDBBLOCKREPETAG
1070
     1
1071
      421
1005
1394BD
  0
LINE
  5
1394BE
  8
OBJECT
 10
215.00000000003459
 20
-1234.0000000008779
 30
0.0
 11
97.000000000034561
 21
-1234.0000000008779
 31
0.0
1001
ACDBBLOCKREPETAG
1070
     1
1071
      422
1005
1394BE
  0
INSERT
  5
1394BF
  8
OBJECT
  2
*U63
 10
0.0
 20
0.0
 30
0.0
  0
LINE
  5
1394C0
  8
OBJECT
 10
289.00000000003462
 20
-1101.0000000008779
 30
0.0
 11
296.0000000000345
 21
-1101.0000000008779
 31
0.0
1001
ACDBBLOCKREPETAG
1070
     1
1071
        1
1005
1394C0
  0
LINE
  5
1394C1
  8
OBJECT
 10
296.0000000000345
 20
-1101.0000000008779
 30
0.0
 11
296.0000000000345
 21
-1195.0000000008779
 31
0.0
1001
ACDBBLOCKREPETAG
1070
     1
1071
        2
1005
1394C1
  0
LINE
  5
1394C2
  8
OBJECT
 10
296.0000000000345
 20
-1195.0000000008779
 30
0.0
 11
289.00000000003462
 21
-1195.0000000008779
 31
0.0
1001
ACDBBLOCKREPETAG
1070
     1
1071
        3
1005
1394C2
  0
LINE
  5
1394C3
  8
OBJECT
 10
289.00000000003462
 20
-1195.0000000008779
 30
0.0
 11
289.00000000003462
 21
-1101.0000000008779
 31
0.0
1001
ACDBBLOCKREPETAG
1070
     1
1071
        4
1005
1394C3
  0
LINE
  5
1394C4
  8
OBJECT
 10
289.00000000003462
 20
-1104.0000000008779
 30
0.0
 11
253.00000000003459
 21
-1104.0000000008779
 31
0.0
1001
ACDBBLOCKREPETAG
1070
     1
1071
        5
1005
1394C4
  0
LINE
  5
1394C5
  8
OBJECT
 10
253.00000000003459
 20
-1104.0000000008779
 30
0.0
 11
253.00000000003459
 21
-1192.0000000008779
 31
0.0
1001
ACDBBLOCKREPETAG
1070
     1
1071
        6
1005
1394C5
  0
LINE
  5
1394C6
  8
OBJECT
 10
253.00000000003459
 20
-1192.0000000008779
 30
0.0
 11
289.00000000003462
 21
-1192.0000000008779
 31
0.0
1001
ACDBBLOCKREPETAG
1070
     1
1071
        7
1005
1394C6
  0
LINE
  5
1394C7
  8
OBJECT
 10
249.00000000003459
 20
-1108.5000000008779
 30
0.0
 11
242.00000000003459
 21
-1108.5000000008779
 31
0.0
1001
ACDBBLOCKREPETAG
1070
     1
1071
        8
1005
1394C7
  0
LINE
  5
1394C8
  8
OBJECT
 10
242.00000000003459
 20
-1187.5000000008779
 30
0.0
 11
249.00000000003459
 21
-1187.5000000008779
 31
0.0
1001
ACDBBLOCKREPETAG
1070
     1
1071
        9
1005
1394C8
  0
LINE
  5
1394C9
  8
OBJECT
 10
249.00000000003459
 20
-1187.5000000008779
 30
0.0
 11
249.00000000003459
 21
-1108.5000000008779
 31
0.0
1001
ACDBBLOCKREPETAG
1070
     1
1071
       10
1005
1394C9
  0
LINE
  5
1394CA
  8
OBJECT
 10
253.00000000003459
 20
-1104.0000000008779
 30
0.0
 11
249.00000000003459
 21
-1108.5000000008779
 31
0.0
1001
ACDBBLOCKREPETAG
1070
     1
1071
       11
1005
1394CA
  0
LINE
  5
1394CB
  8
OBJECT
 10
253.00000000003459
 20
-1192.0000000008779
 30
0.0
 11
249.00000000003459
 21
-1187.5000000008779
 31
0.0
1001
ACDBBLOCKREPETAG
1070
     1
1071
       12
1005
1394CB
  0
LINE
  5
1394CC
  8
OBJECT
 10
239.00000000003641
 20
-1086.0000000008779
 30
0.0
 11
236.00000000003459
 21
-1086.0000000008779
 31
0.0
1001
ACDBBLOCKREPETAG
1070
     1
1071
       13
1005
1394CC
  0
ARC
  5
1394CD
  8
OBJECT
 10
239.00000000003641
 20
-1089.0000000008779
 30
0.0
 40
3.0
 50
0.0
 51
90.0
1001
ACDBBLOCKREPETAG
1070
     1
1071
       14
1005
1394CD
  0
LINE
  5
1394CE
  8
OBJECT
 10
236.00000000003459
 20
-1210.0000000008779
 30
0.0
 11
239.00000000003271
 21
-1210.0000000008779
 31
0.0
1001
ACDBBLOCKREPETAG
1070
     1
1071
       15
1005
1394CE
  0
ARC
  5
1394CF
  8
OBJECT
 10
239.00000000003271
 20
-1207.0000000008779
 30
0.0
 40
3.0
 50
270.0
 51
0.0
1001
ACDBBLOCKREPETAG
1070
     1
1071
       16
1005
1394CF
  0
LINE
  5
1394D0
  8
OBJECT
 10
242.0000000000328
 20
-1207.0000000008779
 30
0.0
 11
242.00000000003641
 21
-1089.0000000008779
 31
0.0
1001
ACDBBLOCKREPETAG
1070
     1
1071
       17
1005
1394D0
  0
LINE
  5
1394D1
  8
HIDDEN
 10
244.0000000000345
 20
-1118.0000000008779
 30
0.0
 11
244.0000000000345
 21
-1178.0000000008779
 31
0.0
1001
ACDBBLOCKREPETAG
1070
     1
1071
      424
1005
1394D1
  0
INSERT
  5
1394D2
  8
OBJECT
  2
*U64
 10
0.0
 20
0.0
 30
0.0
  0
LINE
  5
1394D3
  8
OBJECT
 10
101.0000000000345
 20
-1015.000000000878
 30
0.0
 11
101.0000000000345
 21
-1008.000000000878
 31
0.0
1001
ACDBBLOCKREPETAG
1070
     1
1071
       20
1005
1394D3
  0
LINE
  5
1394D4
  8
OBJECT
 10
101.0000000000345
 20
-1008.000000000878
 30
0.0
 11
211.00000000003459
 21
-1008.000000000878
 31
0.0
1001
ACDBBLOCKREPETAG
1070
     1
1071
       21
1005
1394D4
  0
LINE
  5
1394D5
  8
OBJECT
 10
211.00000000003459
 20
-1008.000000000878
 30
0.0
 11
211.00000000003459
 21
-1015.000000000878
 31
0.0
1001
ACDBBLOCKREPETAG
1070
     1
1071
       22
1005
1394D5
  0
LINE
  5
1394D6
  8
OBJECT
 10
211.00000000003459
 20
-1015.000000000878
 30
0.0
 11
101.0000000000345
 21
-1015.000000000878
 31
0.0
1001
ACDBBLOCKREPETAG
1070
     1
1071
       23
1005
1394D6
  0
LINE
  5
1394D7
  8
OBJECT
 10
104.0000000000345
 20
-1015.000000000878
 30
0.0
 11
104.0000000000345
 21
-1051.0000000008779
 31
0.0
1001
ACDBBLOCKREPETAG
1070
     1
1071
       24
1005
1394D7
  0
LINE
  5
1394D8
  8
OBJECT
 10
104.0000000000345
 20
-1051.0000000008779
 30
0.0
 11
208.00000000003459
 21
-1051.0000000008779
 31
0.0
1001
ACDBBLOCKREPETAG
1070
     1
1071
       25
1005
1394D8
  0
LINE
  5
1394D9
  8
OBJECT
 10
208.00000000003459
 20
-1051.0000000008779
 30
0.0
 11
208.00000000003459
 21
-1015.000000000878
 31
0.0
1001
ACDBBLOCKREPETAG
1070
     1
1071
       26
1005
1394D9
  0
LINE
  5
1394DA
  8
OBJECT
 10
108.5000000000345
 20
-1055.000000000879
 30
0.0
 11
108.5000000000345
 21
-1062.0000000008779
 31
0.0
1001
ACDBBLOCKREPETAG
1070
     1
1071
       27
1005
1394DA
  0
LINE
  5
1394DB
  8
OBJECT
 10
203.50000000003459
 20
-1062.0000000008779
 30
0.0
 11
203.50000000003459
 21
-1055.000000000879
 31
0.0
1001
ACDBBLOCKREPETAG
1070
     1
1071
       28
1005
1394DB
  0
LINE
  5
1394DC
  8
OBJECT
 10
203.50000000003459
 20
-1055.000000000879
 30
0.0
 11
108.5000000000345
 21
-1055.000000000879
 31
0.0
1001
ACDBBLOCKREPETAG
1070
     1
1071
       29
1005
1394DC
  0
LINE
  5
1394DD
  8
OBJECT
 10
104.0000000000345
 20
-1051.0000000008779
 30
0.0
 11
108.5000000000345
 21
-1055.000000000879
 31
0.0
1001
ACDBBLOCKREPETAG
1070
     1
1071
       30
1005
1394DD
  0
LINE
  5
1394DE
  8
OBJECT
 10
208.00000000003459
 20
-1051.0000000008779
 30
0.0
 11
203.50000000003459
 21
-1055.000000000879
 31
0.0
1001
ACDBBLOCKREPETAG
1070
     1
1071
       31
1005
1394DE
  0
LINE
  5
1394DF
  8
OBJECT
 10
94.000000000034575
 20
-1065.000000000877
 30
0.0
 11
94.000000000034575
 21
-1068.0000000008779
 31
0.0
1001
ACDBBLOCKREPETAG
1070
     1
1071
       32
1005
1394DF
  0
ARC
  5
1394E0
  8
OBJECT
 10
97.000000000034561
 20
-1065.000000000877
 30
0.0
 40
3.0
 50
90.0
 51
180.0
1001
ACDBBLOCKREPETAG
1070
     1
1071
       33
1005
1394E0
  0
LINE
  5
1394E1
  8
OBJECT
 10
218.00000000003459
 20
-1068.0000000008779
 30
0.0
 11
218.00000000003459
 21
-1065.000000000879
 31
0.0
1001
ACDBBLOCKREPETAG
1070
     1
1071
       34
1005
1394E1
  0
ARC
  5
1394E2
  8
OBJECT
 10
215.00000000003459
 20
-1065.000000000879
 30
0.0
 40
3.0
 50
0.0
 51
90.0
1001
ACDBBLOCKREPETAG
1070
     1
1071
       35
1005
1394E2
  0
LINE
  5
1394E3
  8
OBJECT
 10
215.00000000003459
 20
-1062.000000000879
 30
0.0
 11
97.000000000034561
 21
-1062.000000000877
 31
0.0
1001
ACDBBLOCKREPETAG
1070
     1
1071
       36
1005
1394E3
  0
LINE
  5
1394E4
  8
HIDDEN
 10
118.0000000000345
 20
-1060.0000000008779
 30
0.0
 11
194.0000000000345
 21
-1060.0000000008779
 31
0.0
1001
ACDBBLOCKREPETAG
1070
     1
1071
      423
1005
1394E4
  0
LINE
  5
1394E5
  8
OBJECT
 10
94.000000000034575
 20
-767.00000000087164
 30
0.0
 11
94.000000000034575
 21
-764.00000000087164
 31
0.0
1001
ACDBBLOCKREPETAG
1070
     1
1071
      418
1005
1394E5
  0
ARC
  5
1394E6
  8
OBJECT
 10
97.000000000034561
 20
-767.00000000087164
 30
0.0
 40
3.0
 50
180.0
 51
270.0
1001
ACDBBLOCKREPETAG
1070
     1
1071
      419
1005
1394E6
  0
LINE
  5
1394E7
  8
OBJECT
 10
218.00000000003459
 20
-764.00000000087164
 30
0.0
 11
218.00000000003459
 21
-767.00000000087164
 31
0.0
1001
ACDBBLOCKREPETAG
1070
     1
1071
      420
1005
1394E7
  0
ARC
  5
1394E8
  8
OBJECT
 10
215.00000000003459
 20
-767.00000000087164
 30
0.0
 40
3.0
 50
270.0
 51
0.0
1001
ACDBBLOCKREPETAG
1070
     1
1071
      421
1005
1394E8
  0
LINE
  5
1394E9
  8
OBJECT
 10
215.00000000003459
 20
-770.00000000087164
 30
0.0
 11
97.000000000034561
 21
-770.00000000087164
 31
0.0
1001
ACDBBLOCKREPETAG
1070
     1
1071
      422
1005
1394E9
  0
INSERT
  5
1394EA
  8
OBJECT
  2
*U65
 10
0.0
 20
0.0
 30
0.0
  0
LINE
  5
1394EB
  8
OBJECT
 10
289.00000000003462
 20
-622.00000000087175
 30
0.0
 11
296.0000000000345
 21
-622.00000000087175
 31
0.0
1001
ACDBBLOCKREPETAG
1070
     1
1071
       39
1005
1394EB
  0
LINE
  5
1394EC
  8
OBJECT
 10
296.0000000000345
 20
-622.00000000087175
 30
0.0
 11
296.0000000000345
 21
-746.00000000087164
 31
0.0
1001
ACDBBLOCKREPETAG
1070
     1
1071
       40
1005
1394EC
  0
LINE
  5
1394ED
  8
OBJECT
 10
296.0000000000345
 20
-746.00000000087164
 30
0.0
 11
289.00000000003462
 21
-746.00000000087164
 31
0.0
1001
ACDBBLOCKREPETAG
1070
     1
1071
       41
1005
1394ED
  0
LINE
  5
1394EE
  8
OBJECT
 10
289.00000000003462
 20
-746.00000000087164
 30
0.0
 11
289.00000000003462
 21
-622.00000000087175
 31
0.0
1001
ACDBBLOCKREPETAG
1070
     1
1071
       42
1005
1394EE
  0
LINE
  5
1394EF
  8
OBJECT
 10
289.00000000003462
 20
-625.00000000087175
 30
0.0
 11
253.00000000003459
 21
-625.00000000087175
 31
0.0
1001
ACDBBLOCKREPETAG
1070
     1
1071
       43
1005
1394EF
  0
LINE
  5
1394F0
  8
OBJECT
 10
253.00000000003459
 20
-625.00000000087175
 30
0.0
 11
253.00000000003459
 21
-743.00000000087164
 31
0.0
1001
ACDBBLOCKREPETAG
1070
     1
1071
       44
1005
1394F0
  0
LINE
  5
1394F1
  8
OBJECT
 10
253.00000000003459
 20
-743.00000000087164
 30
0.0
 11
289.00000000003462
 21
-743.00000000087164
 31
0.0
1001
ACDBBLOCKREPETAG
1070
     1
1071
       45
1005
1394F1
  0
LINE
  5
1394F2
  8
OBJECT
 10
249.00000000003459
 20
-629.50000000087175
 30
0.0
 11
242.00000000003459
 21
-629.50000000087175
 31
0.0
1001
ACDBBLOCKREPETAG
1070
     1
1071
       46
1005
1394F2
  0
LINE
  5
1394F3
  8
OBJECT
 10
242.00000000003459
 20
-738.50000000087164
 30
0.0
 11
249.00000000003459
 21
-738.50000000087164
 31
0.0
1001
ACDBBLOCKREPETAG
1070
     1
1071
       47
1005
1394F3
  0
LINE
  5
1394F4
  8
OBJECT
 10
249.00000000003459
 20
-738.50000000087164
 30
0.0
 11
249.00000000003459
 21
-629.50000000087175
 31
0.0
1001
ACDBBLOCKREPETAG
1070
     1
1071
       48
1005
1394F4
  0
LINE
  5
1394F5
  8
OBJECT
 10
253.00000000003459
 20
-625.00000000087175
 30
0.0
 11
249.00000000003459
 21
-629.50000000087175
 31
0.0
1001
ACDBBLOCKREPETAG
1070
     1
1071
       49
1005
1394F5
  0
LINE
  5
1394F6
  8
OBJECT
 10
253.00000000003459
 20
-743.00000000087164
 30
0.0
 11
249.00000000003459
 21
-738.50000000087164
 31
0.0
1001
ACDBBLOCKREPETAG
1070
     1
1071
       50
1005
1394F6
  0
LINE
  5
1394F7
  8
OBJECT
 10
239.00000000003641
 20
-622.00000000087175
 30
0.0
 11
236.00000000003459
 21
-622.00000000087175
 31
0.0
1001
ACDBBLOCKREPETAG
1070
     1
1071
       51
1005
1394F7
  0
ARC
  5
1394F8
  8
OBJECT
 10
239.00000000003641
 20
-625.00000000087175
 30
0.0
 40
3.0
 50
0.0
 51
90.0
1001
ACDBBLOCKREPETAG
1070
     1
1071
       52
1005
1394F8
  0
LINE
  5
1394F9
  8
OBJECT
 10
236.00000000003459
 20
-746.00000000087164
 30
0.0
 11
239.00000000003271
 21
-746.00000000087164
 31
0.0
1001
ACDBBLOCKREPETAG
1070
     1
1071
       53
1005
1394F9
  0
ARC
  5
1394FA
  8
OBJECT
 10
239.00000000003271
 20
-743.00000000087164
 30
0.0
 40
3.0
 50
270.0
 51
0.0
1001
ACDBBLOCKREPETAG
1070
     1
1071
       54
1005
1394FA
  0
LINE
  5
1394FB
  8
OBJECT
 10
242.0000000000328
 20
-743.00000000087164
 30
0.0
 11
242.00000000003641
 21
-625.00000000087175
 31
0.0
1001
ACDBBLOCKREPETAG
1070
     1
1071
       55
1005
1394FB
  0
LINE
  5
1394FC
  8
HIDDEN
 10
244.0000000000345
 20
-639.50000000087175
 30
0.0
 11
244.0000000000345
 21
-728.50000000087164
 31
0.0
1001
ACDBBLOCKREPETAG
1070
     1
1071
      430
1005
1394FC
  0
INSERT
  5
1394FD
  8
OBJECT
  2
*U66
 10
0.0
 20
0.0
 30
0.0
  0
LINE
  5
1394FE
  8
OBJECT
 10
109.0000000000345
 20
-551.00000000087175
 30
0.0
 11
109.0000000000345
 21
-544.00000000087175
 31
0.0
1001
ACDBBLOCKREPETAG
1070
     1
1071
        1
1005
1394FE
  0
LINE
  5
1394FF
  8
OBJECT
 10
109.0000000000345
 20
-544.00000000087175
 30
0.0
 11
203.00000000003459
 21
-544.00000000087175
 31
0.0
1001
ACDBBLOCKREPETAG
1070
     1
1071
        2
1005
1394FF
  0
LINE
  5
139500
  8
OBJECT
 10
203.00000000003459
 20
-544.00000000087175
 30
0.0
 11
203.00000000003459
 21
-551.00000000087175
 31
0.0
1001
ACDBBLOCKREPETAG
1070
     1
1071
        3
1005
139500
  0
LINE
  5
139501
  8
OBJECT
 10
203.00000000003459
 20
-551.00000000087175
 30
0.0
 11
109.0000000000345
 21
-551.00000000087175
 31
0.0
1001
ACDBBLOCKREPETAG
1070
     1
1071
        4
1005
139501
  0
LINE
  5
139502
  8
OBJECT
 10
112.0000000000345
 20
-551.00000000087175
 30
0.0
 11
112.0000000000345
 21
-587.00000000087175
 31
0.0
1001
ACDBBLOCKREPETAG
1070
     1
1071
        5
1005
139502
  0
LINE
  5
139503
  8
OBJECT
 10
112.0000000000345
 20
-587.00000000087175
 30
0.0
 11
200.0000000000345
 21
-587.00000000087175
 31
0.0
1001
ACDBBLOCKREPETAG
1070
     1
1071
        6
1005
139503
  0
LINE
  5
139504
  8
OBJECT
 10
200.0000000000345
 20
-587.00000000087175
 30
0.0
 11
200.0000000000345
 21
-551.00000000087175
 31
0.0
1001
ACDBBLOCKREPETAG
1070
     1
1071
        7
1005
139504
  0
LINE
  5
139505
  8
OBJECT
 10
116.5000000000345
 20
-591.00000000087175
 30
0.0
 11
116.5000000000345
 21
-598.00000000087175
 31
0.0
1001
ACDBBLOCKREPETAG
1070
     1
1071
        8
1005
139505
  0
LINE
  5
139506
  8
OBJECT
 10
195.5000000000345
 20
-598.00000000087175
 30
0.0
 11
195.5000000000345
 21
-591.00000000087175
 31
0.0
1001
ACDBBLOCKREPETAG
1070
     1
1071
        9
1005
139506
  0
LINE
  5
139507
  8
OBJECT
 10
195.5000000000345
 20
-591.00000000087175
 30
0.0
 11
116.5000000000345
 21
-591.00000000087175
 31
0.0
1001
ACDBBLOCKREPETAG
1070
     1
1071
       10
1005
139507
  0
LINE
  5
139508
  8
OBJECT
 10
112.0000000000345
 20
-587.00000000087175
 30
0.0
 11
116.5000000000345
 21
-591.00000000087175
 31
0.0
1001
ACDBBLOCKREPETAG
1070
     1
1071
       11
1005
139508
  0
LINE
  5
139509
  8
OBJECT
 10
200.0000000000345
 20
-587.00000000087175
 30
0.0
 11
195.5000000000345
 21
-591.00000000087175
 31
0.0
1001
ACDBBLOCKREPETAG
1070
     1
1071
       12
1005
139509
  0
LINE
  5
13950A
  8
OBJECT
 10
94.000000000034575
 20
-601.00000000087084
 30
0.0
 11
94.000000000034575
 21
-604.00000000087175
 31
0.0
1001
ACDBBLOCKREPETAG
1070
     1
1071
       13
1005
13950A
  0
ARC
  5
13950B
  8
OBJECT
 10
97.000000000034561
 20
-601.00000000087084
 30
0.0
 40
3.0
 50
90.0
 51
180.0
1001
ACDBBLOCKREPETAG
1070
     1
1071
       14
1005
13950B
  0
LINE
  5
13950C
  8
OBJECT
 10
218.00000000003459
 20
-604.00000000087175
 30
0.0
 11
218.00000000003459
 21
-601.00000000087266
 31
0.0
1001
ACDBBLOCKREPETAG
1070
     1
1071
       15
1005
13950C
  0
ARC
  5
13950D
  8
OBJECT
 10
215.00000000003459
 20
-601.00000000087266
 30
0.0
 40
3.0
 50
0.0
 51
90.0
1001
ACDBBLOCKREPETAG
1070
     1
1071
       16
1005
13950D
  0
LINE
  5
13950E
  8
OBJECT
 10
215.00000000003459
 20
-598.00000000087255
 30
0.0
 11
97.000000000034561
 21
-598.00000000087084
 31
0.0
1001
ACDBBLOCKREPETAG
1070
     1
1071
       17
1005
13950E
  0
LINE
  5
13950F
  8
HIDDEN
 10
126.0000000000345
 20
-596.00000000087175
 30
0.0
 11
186.00000000003439
 21
-596.00000000087175
 31
0.0
1001
ACDBBLOCKREPETAG
1070
     1
1071
      420
1005
13950F
  0
LINE
  5
139510
  8
OBJECT
 10
454.00000000011448
 20
-767.00000000087164
 30
0.0
 11
454.00000000011448
 21
-764.00000000087164
 31
0.0
1001
ACDBBLOCKREPETAG
1070
     1
1071
      418
1005
139510
  0
ARC
  5
139511
  8
OBJECT
 10
457.0000000001146
 20
-767.00000000087164
 30
0.0
 40
3.0
 50
180.0
 51
270.0
1001
ACDBBLOCKREPETAG
1070
     1
1071
      419
1005
139511
  0
LINE
  5
139512
  8
OBJECT
 10
578.00000000011448
 20
-764.00000000087164
 30
0.0
 11
578.00000000011448
 21
-767.00000000087164
 31
0.0
1001
ACDBBLOCKREPETAG
1070
     1
1071
      420
1005
139512
  0
ARC
  5
139513
  8
OBJECT
 10
575.00000000011437
 20
-767.00000000087164
 30
0.0
 40
3.0
 50
270.0
 51
0.0
1001
ACDBBLOCKREPETAG
1070
     1
1071
      421
1005
139513
  0
LINE
  5
139514
  8
OBJECT
 10
575.00000000011437
 20
-770.00000000087164
 30
0.0
 11
457.0000000001146
 21
-770.00000000087164
 31
0.0
1001
ACDBBLOCKREPETAG
1070
     1
1071
      422
1005
139514
  0
LINE
  5
139515
  8
OBJECT
 10
666.00000000011448
 20
-609.00000000087175
 30
0.0
 11
659.0000000001146
 21
-609.00000000087175
 31
0.0
1001
ACDBBLOCKREPETAG
1070
     1
1071
       57
1005
139515
  0
LINE
  5
139516
  8
OBJECT
 10
659.0000000001146
 20
-609.00000000087175
 30
0.0
 11
659.0000000001146
 21
-759.00000000087164
 31
0.0
1001
ACDBBLOCKREPETAG
1070
     1
1071
       58
1005
139516
  0
LINE
  5
139517
  8
OBJECT
 10
617.5000000001146
 20
-612.00000000087175
 30
0.0
 11
617.5000000001146
 21
-756.00000000087164
 31
0.0
1001
ACDBBLOCKREPETAG
1070
     1
1071
       59
1005
139517
  0
LINE
  5
139518
  8
OBJECT
 10
606.0000000001146
 20
-618.50000000087175
 30
0.0
 11
606.0000000001146
 21
-749.50000000087164
 31
0.0
1001
ACDBBLOCKREPETAG
1070
     1
1071
       60
1005
139518
  0
LINE
  5
139519
  8
OBJECT
 10
659.0000000001146
 20
-759.00000000087164
 30
0.0
 11
666.00000000011448
 21
-759.00000000087164
 31
0.0
1001
ACDBBLOCKREPETAG
1070
     1
1071
       61
1005
139519
  0
LINE
  5
13951A
  8
OBJECT
 10
666.00000000011448
 20
-759.00000000087164
 30
0.0
 11
666.00000000011448
 21
-609.00000000087175
 31
0.0
1001
ACDBBLOCKREPETAG
1070
     1
1071
       62
1005
13951A
  0
LINE
  5
13951B
  8
OBJECT
 10
602.0000000001146
 20
-746.00000000087164
 30
0.0
 11
596.00000000011437
 21
-746.00000000087164
 31
0.0
1001
ACDBBLOCKREPETAG
1070
     1
1071
       63
1005
13951B
  0
LINE
  5
13951C
  8
OBJECT
 10
659.0000000001146
 20
-756.00000000087164
 30
0.0
 11
617.5000000001146
 21
-756.00000000087164
 31
0.0
1001
ACDBBLOCKREPETAG
1070
     1
1071
       64
1005
13951C
  0
LINE
  5
13951D
  8
OBJECT
 10
617.5000000001146
 20
-756.00000000087164
 30
0.0
 11
606.0000000001146
 21
-749.50000000087164
 31
0.0
1001
ACDBBLOCKREPETAG
1070
     1
1071
       65
1005
13951D
  0
LINE
  5
13951E
  8
OBJECT
 10
606.0000000001146
 20
-749.50000000087164
 30
0.0
 11
602.0000000001146
 21
-746.00000000087164
 31
0.0
1001
ACDBBLOCKREPETAG
1070
     1
1071
       66
1005
13951E
  0
LINE
  5
13951F
  8
OBJECT
 10
617.5000000001146
 20
-612.00000000087175
 30
0.0
 11
606.0000000001146
 21
-618.50000000087175
 31
0.0
1001
ACDBBLOCKREPETAG
1070
     1
1071
       67
1005
13951F
  0
LINE
  5
139520
  8
OBJECT
 10
606.0000000001146
 20
-618.50000000087175
 30
0.0
 11
602.0000000001146
 21
-622.00000000087175
 31
0.0
1001
ACDBBLOCKREPETAG
1070
     1
1071
       68
1005
139520
  0
ARC
  5
139521
  8
OBJECT
 10
983.90000000011605
 20
-684.00000000087175
 30
0.0
 40
386.89999999999998
 50
170.7787013626384
 51
189.22129863736151
1001
ACDBBLOCKREPETAG
1070
     1
1071
       69
1005
139521
  0
LINE
  5
139522
  8
OBJECT
 10
602.0000000001146
 20
-622.00000000087175
 30
0.0
 11
596.00000000011437
 21
-622.00000000087175
 31
0.0
1001
ACDBBLOCKREPETAG
1070
     1
1071
       70
1005
139522
  0
LINE
  5
139523
  8
OBJECT
 10
659.0000000001146
 20
-612.00000000087175
 30
0.0
 11
617.5000000001146
 21
-612.00000000087175
 31
0.0
1001
ACDBBLOCKREPETAG
1070
     1
1071
       71
1005
139523
  0
INSERT
  5
139524
  8
OBJECT
  2
*U67
 10
0.0
 20
0.0
 30
0.0
  0
LINE
  5
139525
  8
HIDDEN
 10
614.0000000001146
 20
-741.00000000087164
 30
0.0
 11
614.0000000001146
 21
-627.00000000087175
 31
0.0
1001
ACDBBLOCKREPETAG
1070
     1
1071
      437
1005
139525
  0
INSERT
  5
139526
  8
OBJECT
  2
*U68
 10
0.0
 20
0.0
 30
0.0
  0
LINE
  5
139527
  8
OBJECT
 10
469.0000000001146
 20
-551.00000000087175
 30
0.0
 11
469.0000000001146
 21
-544.00000000087175
 31
0.0
1001
ACDBBLOCKREPETAG
1070
     1
1071
        1
1005
139527
  0
LINE
  5
139528
  8
OBJECT
 10
469.0000000001146
 20
-544.00000000087175
 30
0.0
 11
563.00000000011437
 21
-544.00000000087175
 31
0.0
1001
ACDBBLOCKREPETAG
1070
     1
1071
        2
1005
139528
  0
LINE
  5
139529
  8
OBJECT
 10
563.00000000011437
 20
-544.00000000087175
 30
0.0
 11
563.00000000011437
 21
-551.00000000087175
 31
0.0
1001
ACDBBLOCKREPETAG
1070
     1
1071
        3
1005
139529
  0
LINE
  5
13952A
  8
OBJECT
 10
563.00000000011437
 20
-551.00000000087175
 30
0.0
 11
469.0000000001146
 21
-551.00000000087175
 31
0.0
1001
ACDBBLOCKREPETAG
1070
     1
1071
        4
1005
13952A
  0
LINE
  5
13952B
  8
OBJECT
 10
472.0000000001146
 20
-551.00000000087175
 30
0.0
 11
472.0000000001146
 21
-587.00000000087175
 31
0.0
1001
ACDBBLOCKREPETAG
1070
     1
1071
        5
1005
13952B
  0
LINE
  5
13952C
  8
OBJECT
 10
472.0000000001146
 20
-587.00000000087175
 30
0.0
 11
560.0000000001146
 21
-587.00000000087175
 31
0.0
1001
ACDBBLOCKREPETAG
1070
     1
1071
        6
1005
13952C
  0
LINE
  5
13952D
  8
OBJECT
 10
560.0000000001146
 20
-587.00000000087175
 30
0.0
 11
560.0000000001146
 21
-551.00000000087175
 31
0.0
1001
ACDBBLOCKREPETAG
1070
     1
1071
        7
1005
13952D
  0
LINE
  5
13952E
  8
OBJECT
 10
476.5000000001146
 20
-591.00000000087175
 30
0.0
 11
476.5000000001146
 21
-598.00000000087175
 31
0.0
1001
ACDBBLOCKREPETAG
1070
     1
1071
        8
1005
13952E
  0
LINE
  5
13952F
  8
OBJECT
 10
555.5000000001146
 20
-598.00000000087175
 30
0.0
 11
555.5000000001146
 21
-591.00000000087175
 31
0.0
1001
ACDBBLOCKREPETAG
1070
     1
1071
        9
1005
13952F
  0
LINE
  5
139530
  8
OBJECT
 10
555.5000000001146
 20
-591.00000000087175
 30
0.0
 11
476.5000000001146
 21
-591.00000000087175
 31
0.0
1001
ACDBBLOCKREPETAG
1070
     1
1071
       10
1005
139530
  0
LINE
  5
139531
  8
OBJECT
 10
472.0000000001146
 20
-587.00000000087175
 30
0.0
 11
476.5000000001146
 21
-591.00000000087175
 31
0.0
1001
ACDBBLOCKREPETAG
1070
     1
1071
       11
1005
139531
  0
LINE
  5
139532
  8
OBJECT
 10
560.0000000001146
 20
-587.00000000087175
 30
0.0
 11
555.5000000001146
 21
-591.00000000087175
 31
0.0
1001
ACDBBLOCKREPETAG
1070
     1
1071
       12
1005
139532
  0
LINE
  5
139533
  8
OBJECT
 10
454.00000000011448
 20
-601.00000000087084
 30
0.0
 11
454.00000000011448
 21
-604.00000000087175
 31
0.0
1001
ACDBBLOCKREPETAG
1070
     1
1071
       13
1005
139533
  0
ARC
  5
139534
  8
OBJECT
 10
457.0000000001146
 20
-601.00000000087084
 30
0.0
 40
3.0
 50
90.0
 51
180.0
1001
ACDBBLOCKREPETAG
1070
     1
1071
       14
1005
139534
  0
LINE
  5
139535
  8
OBJECT
 10
578.00000000011448
 20
-604.00000000087175
 30
0.0
 11
578.00000000011448
 21
-601.00000000087266
 31
0.0
1001
ACDBBLOCKREPETAG
1070
     1
1071
       15
1005
139535
  0
ARC
  5
139536
  8
OBJECT
 10
575.00000000011437
 20
-601.00000000087266
 30
0.0
 40
3.0
 50
0.0
 51
90.0
1001
ACDBBLOCKREPETAG
1070
     1
1071
       16
1005
139536
  0
LINE
  5
139537
  8
OBJECT
 10
575.00000000011437
 20
-598.00000000087255
 30
0.0
 11
457.0000000001146
 21
-598.00000000087084
 31
0.0
1001
ACDBBLOCKREPETAG
1070
     1
1071
       17
1005
139537
  0
LINE
  5
139538
  8
HIDDEN
 10
486.0000000001146
 20
-596.00000000087175
 30
0.0
 11
546.00000000011437
 21
-596.00000000087175
 31
0.0
1001
ACDBBLOCKREPETAG
1070
     1
1071
      420
1005
139538
  0
LINE
  5
139539
  8
OBJECT
 10
454.00000000011448
 20
-303.00000000086533
 30
0.0
 11
454.00000000011448
 21
-300.00000000086533
 31
0.0
1001
ACDBBLOCKREPETAG
1070
     1
1071
      418
1005
139539
  0
ARC
  5
13953A
  8
OBJECT
 10
457.0000000001146
 20
-303.00000000086533
 30
0.0
 40
3.0
 50
180.0
 51
270.0
1001
ACDBBLOCKREPETAG
1070
     1
1071
      419
1005
13953A
  0
LINE
  5
13953B
  8
OBJECT
 10
578.00000000011448
 20
-300.00000000086533
 30
0.0
 11
578.00000000011448
 21
-303.00000000086533
 31
0.0
1001
ACDBBLOCKREPETAG
1070
     1
1071
      420
1005
13953B
  0
ARC
  5
13953C
  8
OBJECT
 10
575.00000000011437
 20
-303.00000000086533
 30
0.0
 40
3.0
 50
270.0
 51
0.0
1001
ACDBBLOCKREPETAG
1070
     1
1071
      421
1005
13953C
  0
LINE
  5
13953D
  8
OBJECT
 10
575.00000000011437
 20
-306.00000000086533
 30
0.0
 11
457.0000000001146
 21
-306.00000000086533
 31
0.0
1001
ACDBBLOCKREPETAG
1070
     1
1071
      422
1005
13953D
  0
INSERT
  5
13953E
  8
OBJECT
  2
*U69
 10
0.0
 20
0.0
 30
0.0
  0
LINE
  5
13953F
  8
OBJECT
 10
649.00000000011448
 20
-165.0000000008653
 30
0.0
 11
656.0000000001146
 21
-165.0000000008653
 31
0.0
1001
ACDBBLOCKREPETAG
1070
     1
1071
       20
1005
13953F
  0
LINE
  5
139540
  8
OBJECT
 10
656.0000000001146
 20
-165.0000000008653
 30
0.0
 11
656.0000000001146
 21
-275.00000000086533
 31
0.0
1001
ACDBBLOCKREPETAG
1070
     1
1071
       21
1005
139540
  0
LINE
  5
139541
  8
OBJECT
 10
656.0000000001146
 20
-275.00000000086533
 30
0.0
 11
649.00000000011448
 21
-275.00000000086533
 31
0.0
1001
ACDBBLOCKREPETAG
1070
     1
1071
       22
1005
139541
  0
LINE
  5
139542
  8
OBJECT
 10
649.00000000011448
 20
-275.00000000086533
 30
0.0
 11
649.00000000011448
 21
-165.0000000008653
 31
0.0
1001
ACDBBLOCKREPETAG
1070
     1
1071
       23
1005
139542
  0
LINE
  5
139543
  8
OBJECT
 10
649.00000000011448
 20
-168.0000000008653
 30
0.0
 11
613.0000000001146
 21
-168.0000000008653
 31
0.0
1001
ACDBBLOCKREPETAG
1070
     1
1071
       24
1005
139543
  0
LINE
  5
139544
  8
OBJECT
 10
613.0000000001146
 20
-168.0000000008653
 30
0.0
 11
613.0000000001146
 21
-272.00000000086533
 31
0.0
1001
ACDBBLOCKREPETAG
1070
     1
1071
       25
1005
139544
  0
LINE
  5
139545
  8
OBJECT
 10
613.0000000001146
 20
-272.00000000086533
 30
0.0
 11
649.00000000011448
 21
-272.00000000086533
 31
0.0
1001
ACDBBLOCKREPETAG
1070
     1
1071
       26
1005
139545
  0
LINE
  5
139546
  8
OBJECT
 10
609.0000000001146
 20
-172.5000000008653
 30
0.0
 11
602.0000000001146
 21
-172.5000000008653
 31
0.0
1001
ACDBBLOCKREPETAG
1070
     1
1071
       27
1005
139546
  0
LINE
  5
139547
  8
OBJECT
 10
602.0000000001146
 20
-267.50000000086533
 30
0.0
 11
609.0000000001146
 21
-267.50000000086533
 31
0.0
1001
ACDBBLOCKREPETAG
1070
     1
1071
       28
1005
139547
  0
LINE
  5
139548
  8
OBJECT
 10
609.0000000001146
 20
-267.50000000086533
 30
0.0
 11
609.0000000001146
 21
-172.5000000008653
 31
0.0
1001
ACDBBLOCKREPETAG
1070
     1
1071
       29
1005
139548
  0
LINE
  5
139549
  8
OBJECT
 10
613.0000000001146
 20
-168.0000000008653
 30
0.0
 11
609.0000000001146
 21
-172.5000000008653
 31
0.0
1001
ACDBBLOCKREPETAG
1070
     1
1071
       30
1005
139549
  0
LINE
  5
13954A
  8
OBJECT
 10
613.0000000001146
 20
-272.00000000086533
 30
0.0
 11
609.0000000001146
 21
-267.50000000086533
 31
0.0
1001
ACDBBLOCKREPETAG
1070
     1
1071
       31
1005
13954A
  0
LINE
  5
13954B
  8
OBJECT
 10
599.00000000011619
 20
-158.0000000008653
 30
0.0
 11
596.00000000011437
 21
-158.0000000008653
 31
0.0
1001
ACDBBLOCKREPETAG
1070
     1
1071
       32
1005
13954B
  0
ARC
  5
13954C
  8
OBJECT
 10
599.00000000011619
 20
-161.0000000008653
 30
0.0
 40
3.0
 50
0.0
 51
90.0
1001
ACDBBLOCKREPETAG
1070
     1
1071
       33
1005
13954C
  0
LINE
  5
13954D
  8
OBJECT
 10
596.00000000011437
 20
-282.00000000086533
 30
0.0
 11
599.00000000011278
 21
-282.00000000086533
 31
0.0
1001
ACDBBLOCKREPETAG
1070
     1
1071
       34
1005
13954D
  0
ARC
  5
13954E
  8
OBJECT
 10
599.00000000011278
 20
-279.00000000086533
 30
0.0
 40
3.0
 50
270.0
 51
0.0
1001
ACDBBLOCKREPETAG
1070
     1
1071
       35
1005
13954E
  0
LINE
  5
13954F
  8
OBJECT
 10
602.00000000011266
 20
-279.00000000086533
 30
0.0
 11
602.0000000001163
 21
-161.0000000008653
 31
0.0
1001
ACDBBLOCKREPETAG
1070
     1
1071
       36
1005
13954F
  0
LINE
  5
139550
  8
HIDDEN
 10
604.00000000011437
 20
-182.0000000008653
 30
0.0
 11
604.00000000011437
 21
-258.00000000086533
 31
0.0
1001
ACDBBLOCKREPETAG
1070
     1
1071
      427
1005
139550
  0
INSERT
  5
139551
  8
OBJECT
  2
*U70
 10
0.0
 20
0.0
 30
0.0
  0
LINE
  5
139552
  8
OBJECT
 10
469.0000000001146
 20
-87.000000000865299
 30
0.0
 11
469.0000000001146
 21
-80.000000000865313
 31
0.0
1001
ACDBBLOCKREPETAG
1070
     1
1071
        1
1005
139552
  0
LINE
  5
139553
  8
OBJECT
 10
469.0000000001146
 20
-80.000000000865313
 30
0.0
 11
563.00000000011437
 21
-80.000000000865313
 31
0.0
1001
ACDBBLOCKREPETAG
1070
     1
1071
        2
1005
139553
  0
LINE
  5
139554
  8
OBJECT
 10
563.00000000011437
 20
-80.000000000865313
 30
0.0
 11
563.00000000011437
 21
-87.000000000865299
 31
0.0
1001
ACDBBLOCKREPETAG
1070
     1
1071
        3
1005
139554
  0
LINE
  5
139555
  8
OBJECT
 10
563.00000000011437
 20
-87.000000000865299
 30
0.0
 11
469.0000000001146
 21
-87.000000000865299
 31
0.0
1001
ACDBBLOCKREPETAG
1070
     1
1071
        4
1005
139555
  0
LINE
  5
139556
  8
OBJECT
 10
472.0000000001146
 20
-87.000000000865299
 30
0.0
 11
472.0000000001146
 21
-123.0000000008653
 31
0.0
1001
ACDBBLOCKREPETAG
1070
     1
1071
        5
1005
139556
  0
LINE
  5
139557
  8
OBJECT
 10
472.0000000001146
 20
-123.0000000008653
 30
0.0
 11
560.0000000001146
 21
-123.0000000008653
 31
0.0
1001
ACDBBLOCKREPETAG
1070
     1
1071
        6
1005
139557
  0
LINE
  5
139558
  8
OBJECT
 10
560.0000000001146
 20
-123.0000000008653
 30
0.0
 11
560.0000000001146
 21
-87.000000000865299
 31
0.0
1001
ACDBBLOCKREPETAG
1070
     1
1071
        7
1005
139558
  0
LINE
  5
139559
  8
OBJECT
 10
476.5000000001146
 20
-127.0000000008653
 30
0.0
 11
476.5000000001146
 21
-134.0000000008653
 31
0.0
1001
ACDBBLOCKREPETAG
1070
     1
1071
        8
1005
139559
  0
LINE
  5
13955A
  8
OBJECT
 10
555.5000000001146
 20
-134.0000000008653
 30
0.0
 11
555.5000000001146
 21
-127.0000000008653
 31
0.0
1001
ACDBBLOCKREPETAG
1070
     1
1071
        9
1005
13955A
  0
LINE
  5
13955B
  8
OBJECT
 10
555.5000000001146
 20
-127.0000000008653
 30
0.0
 11
476.5000000001146
 21
-127.0000000008653
 31
0.0
1001
ACDBBLOCKREPETAG
1070
     1
1071
       10
1005
13955B
  0
LINE
  5
13955C
  8
OBJECT
 10
472.0000000001146
 20
-123.0000000008653
 30
0.0
 11
476.5000000001146
 21
-127.0000000008653
 31
0.0
1001
ACDBBLOCKREPETAG
1070
     1
1071
       11
1005
13955C
  0
LINE
  5
13955D
  8
OBJECT
 10
560.0000000001146
 20
-123.0000000008653
 30
0.0
 11
555.5000000001146
 21
-127.0000000008653
 31
0.0
1001
ACDBBLOCKREPETAG
1070
     1
1071
       12
1005
13955D
  0
LINE
  5
13955E
  8
OBJECT
 10
454.00000000011448
 20
-137.00000000086439
 30
0.0
 11
454.00000000011448
 21
-140.0000000008653
 31
0.0
1001
ACDBBLOCKREPETAG
1070
     1
1071
       13
1005
13955E
  0
ARC
  5
13955F
  8
OBJECT
 10
457.0000000001146
 20
-137.00000000086439
 30
0.0
 40
3.0
 50
90.0
 51
180.0
1001
ACDBBLOCKREPETAG
1070
     1
1071
       14
1005
13955F
  0
LINE
  5
139560
  8
OBJECT
 10
578.00000000011448
 20
-140.0000000008653
 30
0.0
 11
578.00000000011448
 21
-137.00000000086621
 31
0.0
1001
ACDBBLOCKREPETAG
1070
     1
1071
       15
1005
139560
  0
ARC
  5
139561
  8
OBJECT
 10
575.00000000011437
 20
-137.00000000086621
 30
0.0
 40
3.0
 50
0.0
 51
90.0
1001
ACDBBLOCKREPETAG
1070
     1
1071
       16
1005
139561
  0
LINE
  5
139562
  8
OBJECT
 10
575.00000000011437
 20
-134.00000000086621
 30
0.0
 11
457.0000000001146
 21
-134.00000000086439
 31
0.0
1001
ACDBBLOCKREPETAG
1070
     1
1071
       17
1005
139562
  0
LINE
  5
139563
  8
HIDDEN
 10
486.0000000001146
 20
-132.0000000008653
 30
0.0
 11
546.00000000011437
 21
-132.0000000008653
 31
0.0
1001
ACDBBLOCKREPETAG
1070
     1
1071
      420
1005
139563
  0
LINE
  5
139564
  8
OBJECT
 10
94.000000000034575
 20
-303.00000000086533
 30
0.0
 11
94.000000000034575
 21
-300.00000000086533
 31
0.0
1001
ACDBBLOCKREPETAG
1070
     1
1071
      418
1005
139564
  0
ARC
  5
139565
  8
OBJECT
 10
97.000000000034561
 20
-303.00000000086533
 30
0.0
 40
3.0
 50
180.0
 51
270.0
1001
ACDBBLOCKREPETAG
1070
     1
1071
      419
1005
139565
  0
LINE
  5
139566
  8
OBJECT
 10
218.00000000003459
 20
-300.00000000086533
 30
0.0
 11
218.00000000003459
 21
-303.00000000086533
 31
0.0
1001
ACDBBLOCKREPETAG
1070
     1
1071
      420
1005
139566
  0
ARC
  5
139567
  8
OBJECT
 10
215.00000000003459
 20
-303.00000000086533
 30
0.0
 40
3.0
 50
270.0
 51
0.0
1001
ACDBBLOCKREPETAG
1070
     1
1071
      421
1005
139567
  0
LINE
  5
139568
  8
OBJECT
 10
215.00000000003459
 20
-306.00000000086533
 30
0.0
 11
97.000000000034561
 21
-306.00000000086533
 31
0.0
1001
ACDBBLOCKREPETAG
1070
     1
1071
      422
1005
139568
  0
INSERT
  5
139569
  8
OBJECT
  2
*U71
 10
0.0
 20
0.0
 30
0.0
  0
LINE
  5
13956A
  8
OBJECT
 10
289.00000000003462
 20
-173.0000000008653
 30
0.0
 11
296.0000000000345
 21
-173.0000000008653
 31
0.0
1001
ACDBBLOCKREPETAG
1070
     1
1071
        1
1005
13956A
  0
LINE
  5
13956B
  8
OBJECT
 10
296.0000000000345
 20
-173.0000000008653
 30
0.0
 11
296.0000000000345
 21
-267.00000000086533
 31
0.0
1001
ACDBBLOCKREPETAG
1070
     1
1071
        2
1005
13956B
  0
LINE
  5
13956C
  8
OBJECT
 10
296.0000000000345
 20
-267.00000000086533
 30
0.0
 11
289.00000000003462
 21
-267.00000000086533
 31
0.0
1001
ACDBBLOCKREPETAG
1070
     1
1071
        3
1005
13956C
  0
LINE
  5
13956D
  8
OBJECT
 10
289.00000000003462
 20
-267.00000000086533
 30
0.0
 11
289.00000000003462
 21
-173.0000000008653
 31
0.0
1001
ACDBBLOCKREPETAG
1070
     1
1071
        4
1005
13956D
  0
LINE
  5
13956E
  8
OBJECT
 10
289.00000000003462
 20
-176.0000000008653
 30
0.0
 11
253.00000000003459
 21
-176.0000000008653
 31
0.0
1001
ACDBBLOCKREPETAG
1070
     1
1071
        5
1005
13956E
  0
LINE
  5
13956F
  8
OBJECT
 10
253.00000000003459
 20
-176.0000000008653
 30
0.0
 11
253.00000000003459
 21
-264.00000000086533
 31
0.0
1001
ACDBBLOCKREPETAG
1070
     1
1071
        6
1005
13956F
  0
LINE
  5
139570
  8
OBJECT
 10
253.00000000003459
 20
-264.00000000086533
 30
0.0
 11
289.00000000003462
 21
-264.00000000086533
 31
0.0
1001
ACDBBLOCKREPETAG
1070
     1
1071
        7
1005
139570
  0
LINE
  5
139571
  8
OBJECT
 10
249.00000000003459
 20
-180.5000000008653
 30
0.0
 11
242.00000000003459
 21
-180.5000000008653
 31
0.0
1001
ACDBBLOCKREPETAG
1070
     1
1071
        8
1005
139571
  0
LINE
  5
139572
  8
OBJECT
 10
242.00000000003459
 20
-259.50000000086533
 30
0.0
 11
249.00000000003459
 21
-259.50000000086533
 31
0.0
1001
ACDBBLOCKREPETAG
1070
     1
1071
        9
1005
139572
  0
LINE
  5
139573
  8
OBJECT
 10
249.00000000003459
 20
-259.50000000086533
 30
0.0
 11
249.00000000003459
 21
-180.5000000008653
 31
0.0
1001
ACDBBLOCKREPETAG
1070
     1
1071
       10
1005
139573
  0
LINE
  5
139574
  8
OBJECT
 10
253.00000000003459
 20
-176.0000000008653
 30
0.0
 11
249.00000000003459
 21
-180.5000000008653
 31
0.0
1001
ACDBBLOCKREPETAG
1070
     1
1071
       11
1005
139574
  0
LINE
  5
139575
  8
OBJECT
 10
253.00000000003459
 20
-264.00000000086533
 30
0.0
 11
249.00000000003459
 21
-259.50000000086533
 31
0.0
1001
ACDBBLOCKREPETAG
1070
     1
1071
       12
1005
139575
  0
LINE
  5
139576
  8
OBJECT
 10
239.00000000003641
 20
-158.0000000008653
 30
0.0
 11
236.00000000003459
 21
-158.0000000008653
 31
0.0
1001
ACDBBLOCKREPETAG
1070
     1
1071
       13
1005
139576
  0
ARC
  5
139577
  8
OBJECT
 10
239.00000000003641
 20
-161.0000000008653
 30
0.0
 40
3.0
 50
0.0
 51
90.0
1001
ACDBBLOCKREPETAG
1070
     1
1071
       14
1005
139577
  0
LINE
  5
139578
  8
OBJECT
 10
236.00000000003459
 20
-282.00000000086533
 30
0.0
 11
239.00000000003271
 21
-282.00000000086533
 31
0.0
1001
ACDBBLOCKREPETAG
1070
     1
1071
       15
1005
139578
  0
ARC
  5
139579
  8
OBJECT
 10
239.00000000003271
 20
-279.00000000086533
 30
0.0
 40
3.0
 50
270.0
 51
0.0
1001
ACDBBLOCKREPETAG
1070
     1
1071
       16
1005
139579
  0
LINE
  5
13957A
  8
OBJECT
 10
242.0000000000328
 20
-279.00000000086533
 30
0.0
 11
242.00000000003641
 21
-161.0000000008653
 31
0.0
1001
ACDBBLOCKREPETAG
1070
     1
1071
       17
1005
13957A
  0
LINE
  5
13957B
  8
HIDDEN
 10
244.0000000000345
 20
-190.0000000008653
 30
0.0
 11
244.0000000000345
 21
-250.0000000008653
 31
0.0
1001
ACDBBLOCKREPETAG
1070
     1
1071
      424
1005
13957B
  0
INSERT
  5
13957C
  8
OBJECT
  2
*U72
 10
0.0
 20
0.0
 30
0.0
  0
LINE
  5
13957D
  8
OBJECT
 10
109.0000000000345
 20
-87.000000000865299
 30
0.0
 11
109.0000000000345
 21
-80.000000000865313
 31
0.0
1001
ACDBBLOCKREPETAG
1070
     1
1071
        1
1005
13957D
  0
LINE
  5
13957E
  8
OBJECT
 10
109.0000000000345
 20
-80.000000000865313
 30
0.0
 11
203.00000000003459
 21
-80.000000000865313
 31
0.0
1001
ACDBBLOCKREPETAG
1070
     1
1071
        2
1005
13957E
  0
LINE
  5
13957F
  8
OBJECT
 10
203.00000000003459
 20
-80.000000000865313
 30
0.0
 11
203.00000000003459
 21
-87.000000000865299
 31
0.0
1001
ACDBBLOCKREPETAG
1070
     1
1071
        3
1005
13957F
  0
LINE
  5
139580
  8
OBJECT
 10
203.00000000003459
 20
-87.000000000865299
 30
0.0
 11
109.0000000000345
 21
-87.000000000865299
 31
0.0
1001
ACDBBLOCKREPETAG
1070
     1
1071
        4
1005
139580
  0
LINE
  5
139581
  8
OBJECT
 10
112.0000000000345
 20
-87.000000000865299
 30
0.0
 11
112.0000000000345
 21
-123.0000000008653
 31
0.0
1001
ACDBBLOCKREPETAG
1070
     1
1071
        5
1005
139581
  0
LINE
  5
139582
  8
OBJECT
 10
112.0000000000345
 20
-123.0000000008653
 30
0.0
 11
200.0000000000345
 21
-123.0000000008653
 31
0.0
1001
ACDBBLOCKREPETAG
1070
     1
1071
        6
1005
139582
  0
LINE
  5
139583
  8
OBJECT
 10
200.0000000000345
 20
-123.0000000008653
 30
0.0
 11
200.0000000000345
 21
-87.000000000865299
 31
0.0
1001
ACDBBLOCKREPETAG
1070
     1
1071
        7
1005
139583
  0
LINE
  5
139584
  8
OBJECT
 10
116.5000000000345
 20
-127.0000000008653
 30
0.0
 11
116.5000000000345
 21
-134.0000000008653
 31
0.0
1001
ACDBBLOCKREPETAG
1070
     1
1071
        8
1005
139584
  0
LINE
  5
139585
  8
OBJECT
 10
195.5000000000345
 20
-134.0000000008653
 30
0.0
 11
195.5000000000345
 21
-127.0000000008653
 31
0.0
1001
ACDBBLOCKREPETAG
1070
     1
1071
        9
1005
139585
  0
LINE
  5
139586
  8
OBJECT
 10
195.5000000000345
 20
-127.0000000008653
 30
0.0
 11
116.5000000000345
 21
-127.0000000008653
 31
0.0
1001
ACDBBLOCKREPETAG
1070
     1
1071
       10
1005
139586
  0
LINE
  5
139587
  8
OBJECT
 10
112.0000000000345
 20
-123.0000000008653
 30
0.0
 11
116.5000000000345
 21
-127.0000000008653
 31
0.0
1001
ACDBBLOCKREPETAG
1070
     1
1071
       11
1005
139587
  0
LINE
  5
139588
  8
OBJECT
 10
200.0000000000345
 20
-123.0000000008653
 30
0.0
 11
195.5000000000345
 21
-127.0000000008653
 31
0.0
1001
ACDBBLOCKREPETAG
1070
     1
1071
       12
1005
139588
  0
LINE
  5
139589
  8
OBJECT
 10
94.000000000034575
 20
-137.00000000086439
 30
0.0
 11
94.000000000034575
 21
-140.0000000008653
 31
0.0
1001
ACDBBLOCKREPETAG
1070
     1
1071
       13
1005
139589
  0
ARC
  5
13958A
  8
OBJECT
 10
97.000000000034561
 20
-137.00000000086439
 30
0.0
 40
3.0
 50
90.0
 51
180.0
1001
ACDBBLOCKREPETAG
1070
     1
1071
       14
1005
13958A
  0
LINE
  5
13958B
  8
OBJECT
 10
218.00000000003459
 20
-140.0000000008653
 30
0.0
 11
218.00000000003459
 21
-137.00000000086621
 31
0.0
1001
ACDBBLOCKREPETAG
1070
     1
1071
       15
1005
13958B
  0
ARC
  5
13958C
  8
OBJECT
 10
215.00000000003459
 20
-137.00000000086621
 30
0.0
 40
3.0
 50
0.0
 51
90.0
1001
ACDBBLOCKREPETAG
1070
     1
1071
       16
1005
13958C
  0
LINE
  5
13958D
  8
OBJECT
 10
215.00000000003459
 20
-134.00000000086621
 30
0.0
 11
97.000000000034561
 21
-134.00000000086439
 31
0.0
1001
ACDBBLOCKREPETAG
1070
     1
1071
       17
1005
13958D
  0
LINE
  5
13958E
  8
HIDDEN
 10
126.0000000000345
 20
-132.0000000008653
 30
0.0
 11
186.00000000003439
 21
-132.0000000008653
 31
0.0
1001
ACDBBLOCKREPETAG
1070
     1
1071
      420
1005
13958E
  0
POLYLINE
  5
13958F
  8
HIDDEN
 66
     1
 10
0.0
 20
0.0
 30
0.0
 70
     1
1001
ACDBBLOCKREPETAG
1070
     1
1071
      105
1005
0
  0
VERTEX
  5
13A49C
  8
HIDDEN
 10
359.99999999987818
 20
-0.0000000000008527
 30
0.0
  0
VERTEX
  5
13A49D
  8
HIDDEN
 10
719.99999999975626
 20
-0.0000000000008527
 30
0.0
  0
VERTEX
  5
13A49E
  8
HIDDEN
 10
719.99999999975626
 20
-463.99999999984249
 30
0.0
  0
VERTEX
  5
13A49F
  8
HIDDEN
 10
359.99999999987818
 20
-463.99999999984249
 30
0.0
  0
SEQEND
  5
13A4A0
  8
HIDDEN
  0
POLYLINE
  5
139590
  8
HIDDEN
 66
     1
 10
0.0
 20
0.0
 30
0.0
 70
     1
1001
ACDBBLOCKREPETAG
1070
     1
1071
      110
1005
0
  0
VERTEX
  5
13A4A1
  8
HIDDEN
 10
0.0
 20
-0.0000000000008527
 30
0.0
  0
VERTEX
  5
13A4A2
  8
HIDDEN
 10
359.99999999987818
 20
-0.0000000000008527
 30
0.0
  0
VERTEX
  5
13A4A3
  8
HIDDEN
 10
359.99999999987818
 20
-463.99999999984249
 30
0.0
  0
VERTEX
  5
13A4A4
  8
HIDDEN
 10
0.0
 20
-463.99999999984249
 30
0.0
  0
SEQEND
  5
13A4A5
  8
HIDDEN
  0
POLYLINE
  5
139591
  8
HIDDEN
 66
     1
 10
0.0
 20
0.0
 30
0.0
 70
     1
1001
ACDBBLOCKREPETAG
1070
     1
1071
      120
1005
0
  0
VERTEX
  5
13A4A6
  8
HIDDEN
 10
359.99999999987818
 20
-463.99999999984249
 30
0.0
  0
VERTEX
  5
13A4A7
  8
HIDDEN
 10
719.99999999975626
 20
-463.99999999984249
 30
0.0
  0
VERTEX
  5
13A4A8
  8
HIDDEN
 10
719.99999999975626
 20
-927.99999999968441
 30
0.0
  0
VERTEX
  5
13A4A9
  8
HIDDEN
 10
359.99999999987818
 20
-927.99999999968441
 30
0.0
  0
SEQEND
  5
13A4AA
  8
HIDDEN
  0
POLYLINE
  5
139592
  8
HIDDEN
 66
     1
 10
0.0
 20
0.0
 30
0.0
 70
     1
1001
ACDBBLOCKREPETAG
1070
     1
1071
      125
1005
0
  0
VERTEX
  5
13A4AB
  8
HIDDEN
 10
0.0
 20
-463.99999999984249
 30
0.0
  0
VERTEX
  5
13A4AC
  8
HIDDEN
 10
359.99999999987818
 20
-463.99999999984249
 30
0.0
  0
VERTEX
  5
13A4AD
  8
HIDDEN
 10
359.99999999987818
 20
-927.99999999968441
 30
0.0
  0
VERTEX
  5
13A4AE
  8
HIDDEN
 10
0.0
 20
-927.99999999968441
 30
0.0
  0
SEQEND
  5
13A4AF
  8
HIDDEN
  0
POLYLINE
  5
139593
  8
HIDDEN
 66
     1
 10
0.0
 20
0.0
 30
0.0
 70
     1
1001
ACDBBLOCKREPETAG
1070
     1
1071
      130
1005
0
  0
VERTEX
  5
13A4B0
  8
HIDDEN
 10
359.99999999987818
 20
-927.99999999968441
 30
0.0
  0
VERTEX
  5
13A4B1
  8
HIDDEN
 10
719.99999999975626
 20
-927.99999999968441
 30
0.0
  0
VERTEX
  5
13A4B2
  8
HIDDEN
 10
719.99999999975626
 20
-1391.9999999995259
 30
0.0
  0
VERTEX
  5
13A4B3
  8
HIDDEN
 10
359.99999999987818
 20
-1391.9999999995259
 30
0.0
  0
SEQEND
  5
13A4B4
  8
HIDDEN
  0
POLYLINE
  5
139594
  8
HIDDEN
 66
     1
 10
0.0
 20
0.0
 30
0.0
 70
     1
1001
ACDBBLOCKREPETAG
1070
     1
1071
      135
1005
0
  0
VERTEX
  5
13A4B5
  8
HIDDEN
 10
0.0
 20
-927.99999999968441
 30
0.0
  0
VERTEX
  5
13A4B6
  8
HIDDEN
 10
359.99999999987818
 20
-927.99999999968441
 30
0.0
  0
VERTEX
  5
13A4B7
  8
HIDDEN
 10
359.99999999987818
 20
-1391.9999999995259
 30
0.0
  0
VERTEX
  5
13A4B8
  8
HIDDEN
 10
0.0
 20
-1391.9999999995259
 30
0.0
  0
SEQEND
  5
13A4B9
  8
HIDDEN
  0
POLYLINE
  5
139595
  8
HIDDEN
 66
     1
 10
0.0
 20
0.0
 30
0.0
 70
     1
1001
ACDBBLOCKREPETAG
1070
     1
1071
      140
1005
0
  0
VERTEX
  5
13A4BA
  8
HIDDEN
 10
359.99999999987818
 20
-2783.9999999990532
 30
0.0
  0
VERTEX
  5
13A4BB
  8
HIDDEN
 10
719.99999999975626
 20
-2783.9999999990532
 30
0.0
  0
VERTEX
  5
13A4BC
  8
HIDDEN
 10
719.99999999975626
 20
-3247.9999999988931
 30
0.0
  0
VERTEX
  5
13A4BD
  8
HIDDEN
 10
359.99999999987818
 20
-3247.9999999988931
 30
0.0
  0
SEQEND
  5
13A4BE
  8
HIDDEN
  0
POLYLINE
  5
139596
  8
HIDDEN
 66
     1
 10
0.0
 20
0.0
 30
0.0
 70
     1
1001
ACDBBLOCKREPETAG
1070
     1
1071
      145
1005
0
  0
VERTEX
  5
13A4BF
  8
HIDDEN
 10
0.0
 20
-2783.9999999990532
 30
0.0
  0
VERTEX
  5
13A4C0
  8
HIDDEN
 10
359.99999999987818
 20
-2783.9999999990532
 30
0.0
  0
VERTEX
  5
13A4C1
  8
HIDDEN
 10
359.99999999987818
 20
-3247.9999999988931
 30
0.0
  0
VERTEX
  5
13A4C2
  8
HIDDEN
 10
0.0
 20
-3247.9999999988931
 30
0.0
  0
SEQEND
  5
13A4C3
  8
HIDDEN
  0
POLYLINE
  5
139597
  8
HIDDEN
 66
     1
 10
0.0
 20
0.0
 30
0.0
 70
     1
1001
ACDBBLOCKREPETAG
1070
     1
1071
      150
1005
0
  0
VERTEX
  5
13A4C4
  8
HIDDEN
 10
359.99999999987818
 20
-3247.9999999988931
 30
0.0
  0
VERTEX
  5
13A4C5
  8
HIDDEN
 10
719.99999999975626
 20
-3247.9999999988931
 30
0.0
  0
VERTEX
  5
13A4C6
  8
HIDDEN
 10
719.99999999975626
 20
-3711.9999999987349
 30
0.0
  0
VERTEX
  5
13A4C7
  8
HIDDEN
 10
359.99999999987818
 20
-3711.9999999987349
 30
0.0
  0
SEQEND
  5
13A4C8
  8
HIDDEN
  0
POLYLINE
  5
139598
  8
HIDDEN
 66
     1
 10
0.0
 20
0.0
 30
0.0
 70
     1
1001
ACDBBLOCKREPETAG
1070
     1
1071
      155
1005
0
  0
VERTEX
  5
13A4C9
  8
HIDDEN
 10
0.0
 20
-3247.9999999988931
 30
0.0
  0
VERTEX
  5
13A4CA
  8
HIDDEN
 10
359.99999999987818
 20
-3247.9999999988931
 30
0.0
  0
VERTEX
  5
13A4CB
  8
HIDDEN
 10
359.99999999987818
 20
-3711.9999999987349
 30
0.0
  0
VERTEX
  5
13A4CC
  8
HIDDEN
 10
0.0
 20
-3711.9999999987349
 30
0.0
  0
SEQEND
  5
13A4CD
  8
HIDDEN
  0
POLYLINE
  5
139599
  8
HIDDEN
 66
     1
 10
0.0
 20
0.0
 30
0.0
 70
     1
1001
ACDBBLOCKREPETAG
1070
     1
1071
      160
1005
0
  0
VERTEX
  5
13A4CE
  8
HIDDEN
 10
359.99999999987818
 20
-1391.9999999995259
 30
0.0
  0
VERTEX
  5
13A4CF
  8
HIDDEN
 10
719.99999999975626
 20
-1391.9999999995259
 30
0.0
  0
VERTEX
  5
13A4D0
  8
HIDDEN
 10
719.99999999975626
 20
-1855.9999999993679
 30
0.0
  0
VERTEX
  5
13A4D1
  8
HIDDEN
 10
359.99999999987818
 20
-1855.9999999993679
 30
0.0
  0
SEQEND
  5
13A4D2
  8
HIDDEN
  0
POLYLINE
  5
13959A
  8
HIDDEN
 66
     1
 10
0.0
 20
0.0
 30
0.0
 70
     1
1001
ACDBBLOCKREPETAG
1070
     1
1071
      165
1005
0
  0
VERTEX
  5
13A4D3
  8
HIDDEN
 10
0.0
 20
-1391.9999999995259
 30
0.0
  0
VERTEX
  5
13A4D4
  8
HIDDEN
 10
359.99999999987818
 20
-1391.9999999995259
 30
0.0
  0
VERTEX
  5
13A4D5
  8
HIDDEN
 10
359.99999999987818
 20
-1855.9999999993679
 30
0.0
  0
VERTEX
  5
13A4D6
  8
HIDDEN
 10
0.0
 20
-1855.9999999993679
 30
0.0
  0
SEQEND
  5
13A4D7
  8
HIDDEN
  0
POLYLINE
  5
13959B
  8
HIDDEN
 66
     1
 10
0.0
 20
0.0
 30
0.0
 70
     1
1001
ACDBBLOCKREPETAG
1070
     1
1071
      170
1005
0
  0
VERTEX
  5
13A4D8
  8
HIDDEN
 10
359.99999999987818
 20
-1855.9999999993679
 30
0.0
  0
VERTEX
  5
13A4D9
  8
HIDDEN
 10
719.99999999975626
 20
-1855.9999999993679
 30
0.0
  0
VERTEX
  5
13A4DA
  8
HIDDEN
 10
719.99999999975626
 20
-2319.9999999992101
 30
0.0
  0
VERTEX
  5
13A4DB
  8
HIDDEN
 10
359.99999999987818
 20
-2319.9999999992101
 30
0.0
  0
SEQEND
  5
13A4DC
  8
HIDDEN
  0
POLYLINE
  5
13959C
  8
HIDDEN
 66
     1
 10
0.0
 20
0.0
 30
0.0
 70
     1
1001
ACDBBLOCKREPETAG
1070
     1
1071
      175
1005
0
  0
VERTEX
  5
13A4DD
  8
HIDDEN
 10
0.0
 20
-1855.9999999993679
 30
0.0
  0
VERTEX
  5
13A4DE
  8
HIDDEN
 10
359.99999999987818
 20
-1855.9999999993679
 30
0.0
  0
VERTEX
  5
13A4DF
  8
HIDDEN
 10
359.99999999987818
 20
-2319.9999999992101
 30
0.0
  0
VERTEX
  5
13A4E0
  8
HIDDEN
 10
0.0
 20
-2319.9999999992101
 30
0.0
  0
SEQEND
  5
13A4E1
  8
HIDDEN
  0
POLYLINE
  5
13959D
  8
HIDDEN
 66
     1
 10
0.0
 20
0.0
 30
0.0
 70
     1
1001
ACDBBLOCKREPETAG
1070
     1
1071
      180
1005
0
  0
VERTEX
  5
13A4E2
  8
HIDDEN
 10
359.99999999987818
 20
-2319.9999999992101
 30
0.0
  0
VERTEX
  5
13A4E3
  8
HIDDEN
 10
719.99999999975626
 20
-2319.9999999992101
 30
0.0
  0
VERTEX
  5
13A4E4
  8
HIDDEN
 10
719.99999999975626
 20
-2783.9999999990532
 30
0.0
  0
VERTEX
  5
13A4E5
  8
HIDDEN
 10
359.99999999987818
 20
-2783.9999999990532
 30
0.0
  0
SEQEND
  5
13A4E6
  8
HIDDEN
  0
POLYLINE
  5
13959E
  8
HIDDEN
 66
     1
 10
0.0
 20
0.0
 30
0.0
 70
     1
1001
ACDBBLOCKREPETAG
1070
     1
1071
      185
1005
0
  0
VERTEX
  5
13A4E7
  8
HIDDEN
 10
0.0
 20
-2319.9999999992101
 30
0.0
  0
VERTEX
  5
13A4E8
  8
HIDDEN
 10
359.99999999987818
 20
-2319.9999999992101
 30
0.0
  0
VERTEX
  5
13A4E9
  8
HIDDEN
 10
359.99999999987818
 20
-2783.9999999990532
 30
0.0
  0
VERTEX
  5
13A4EA
  8
HIDDEN
 10
0.0
 20
-2783.9999999990532
 30
0.0
  0
SEQEND
  5
13A4EB
  8
HIDDEN
  0
TEXT
  5
13959F
  8
SLIM
 10
491.99999999981759
 20
-3691.9999999987422
 30
0.0
 40
48.0
  1
C44
 41
0.75
1001
ACDBBLOCKREPETAG
1070
     1
1071
      119
1005
0
  0
TEXT
  5
1395A0
  8
SLIM
 10
132.85714285708241
 20
-3691.9999999987422
 30
0.0
 40
48.0
  1
C43
 41
0.75
1001
ACDBBLOCKREPETAG
1070
     1
1071
      119
1005
0
  0
TEXT
  5
1395A1
  8
SLIM
 10
492.85714285696048
 20
-3227.9999999989
 30
0.0
 40
48.0
  1
C42
 41
0.75
1001
ACDBBLOCKREPETAG
1070
     1
1071
      119
1005
0
  0
TEXT
  5
1395A2
  8
SLIM
 10
140.5714285713681
 20
-3227.9999999989018
 30
0.0
 40
48.0
  1
C41
 41
0.75
1001
ACDBBLOCKREPETAG
1070
     1
1071
      119
1005
0
  0
TEXT
  5
1395A3
  8
SLIM
 10
491.99999999981759
 20
-2763.9999999990591
 30
0.0
 40
48.0
  1
C34
 41
0.75
1001
ACDBBLOCKREPETAG
1070
     1
1071
      119
1005
0
  0
TEXT
  5
1395A4
  8
SLIM
 10
132.85714285708241
 20
-2763.9999999990591
 30
0.0
 40
48.0
  1
C33
 41
0.75
1001
ACDBBLOCKREPETAG
1070
     1
1071
      119
1005
0
  0
TEXT
  5
1395A5
  8
SLIM
 10
492.85714285696048
 20
-2299.9999999992169
 30
0.0
 40
48.0
  1
C32
 41
0.75
1001
ACDBBLOCKREPETAG
1070
     1
1071
      119
1005
0
  0
TEXT
  5
1395A6
  8
SLIM
 10
140.5714285713681
 20
-2299.9999999992169
 30
0.0
 40
48.0
  1
C31
 41
0.75
1001
ACDBBLOCKREPETAG
1070
     1
1071
      119
1005
0
  0
TEXT
  5
1395A7
  8
SLIM
 10
491.99999999981759
 20
-1835.9999999993749
 30
0.0
 40
48.0
  1
C24
 41
0.75
1001
ACDBBLOCKREPETAG
1070
     1
1071
      119
1005
0
  0
TEXT
  5
1395A8
  8
SLIM
 10
132.85714285708241
 20
-1835.9999999993749
 30
0.0
 40
48.0
  1
C23
 41
0.75
1001
ACDBBLOCKREPETAG
1070
     1
1071
      119
1005
0
  0
TEXT
  5
1395A9
  8
SLIM
 10
492.85714285696048
 20
-1371.999999999533
 30
0.0
 40
48.0
  1
C22
 41
0.75
1001
ACDBBLOCKREPETAG
1070
     1
1071
      119
1005
0
  0
TEXT
  5
1395AA
  8
SLIM
 10
140.57142857136759
 20
-1371.999999999533
 30
0.0
 40
48.0
  1
C21
 41
0.75
1001
ACDBBLOCKREPETAG
1070
     1
1071
      119
1005
0
  0
TEXT
  5
1395AB
  8
SLIM
 10
495.42857142838898
 20
-907.99999999969145
 30
0.0
 40
48.0
  1
C14
 41
0.75
1001
ACDBBLOCKREPETAG
1070
     1
1071
      119
1005
0
  0
TEXT
  5
1395AC
  8
SLIM
 10
136.2857142856538
 20
-907.99999999969145
 30
0.0
 40
48.0
  1
C13
 41
0.75
1001
ACDBBLOCKREPETAG
1070
     1
1071
      119
1005
0
  0
TEXT
  5
1395AD
  8
SLIM
 10
496.28571428553192
 20
-443.99999999984971
 30
0.0
 40
48.0
  1
C12
 41
0.75
1001
ACDBBLOCKREPETAG
1070
     1
1071
      119
1005
0
  0
TEXT
  5
1395AE
  8
SLIM
 10
143.9999999999394
 20
-443.99999999984971
 30
0.0
 40
48.0
  1
C11
 41
0.75
1001
ACDBBLOCKREPETAG
1070
     1
1071
      119
1005
0
  0
LINE
  5
1395AF
  8
OBJECT
 10
1923.0
 20
-570.99999999999432
 30
0.0
 11
1923.0
 21
-549.99999999999432
 31
0.0
1001
ACDBBLOCKREPETAG
1070
     1
1071
       36
1005
1395AF
  0
LINE
  5
1395B0
  8
OBJECT
 10
1923.0
 20
-549.99999999999432
 30
0.0
 11
2077.0
 21
-549.99999999999432
 31
0.0
1001
ACDBBLOCKREPETAG
1070
     1
1071
       37
1005
1395B0
  0
LINE
  5
1395B1
  8
HIDDEN
 10
1943.0
 20
-619.99999999999432
 30
0.0
 11
2057.0
 21
-619.99999999999432
 31
0.0
1001
ACDBBLOCKREPETAG
1070
     1
1071
       38
1005
1395B1
  0
LINE
  5
1395B2
  8
OBJECT
 10
2077.0
 20
-549.99999999999432
 30
0.0
 11
2077.0
 21
-570.99999999999432
 31
0.0
1001
ACDBBLOCKREPETAG
1070
     1
1071
       39
1005
1395B2
  0
LINE
  5
1395B3
  8
OBJECT
 10
2077.0
 20
-570.99999999999432
 30
0.0
 11
1923.0
 21
-570.99999999999432
 31
0.0
1001
ACDBBLOCKREPETAG
1070
     1
1071
       40
1005
1395B3
  0
LINE
  5
1395B4
  8
CENTER
 10
2000.0
 20
-534.99999999999432
 30
0.0
 11
2000.0
 21
-769.9999999999942
 31
0.0
1001
ACDBBLOCKREPETAG
1070
     1
1071
       41
1005
1395B4
  0
LINE
  5
1395B5
  8
OBJECT
 10
1928.0
 20
-570.99999999999432
 30
0.0
 11
1928.0
 21
-633.99999999999432
 31
0.0
1001
ACDBBLOCKREPETAG
1070
     1
1071
       42
1005
1395B5
  0
LINE
  5
1395B6
  8
OBJECT
 10
2072.0
 20
-633.99999999999432
 30
0.0
 11
2072.0
 21
-570.99999999999432
 31
0.0
1001
ACDBBLOCKREPETAG
1070
     1
1071
       43
1005
1395B6
  0
LINE
  5
1395B7
  8
OBJECT
 10
1920.0
 20
-757.9999999999942
 30
0.0
 11
2080.0
 21
-757.9999999999942
 31
0.0
1001
ACDBBLOCKREPETAG
1070
     1
1071
       44
1005
1395B7
  0
LINE
  5
1395B8
  8
OBJECT
 10
2080.0
 20
-633.99999999999432
 30
0.0
 11
1920.0
 21
-633.99999999999432
 31
0.0
1001
ACDBBLOCKREPETAG
1070
     1
1071
       45
1005
1395B8
  0
LINE
  5
1395B9
  8
OBJECT
 10
1920.0
 20
-757.9999999999942
 30
0.0
 11
1920.0
 21
-769.9999999999942
 31
0.0
1001
ACDBBLOCKREPETAG
1070
     1
1071
       46
1005
1395B9
  0
LINE
  5
1395BA
  8
OBJECT
 10
1920.0
 20
-769.9999999999942
 30
0.0
 11
2080.0
 21
-769.9999999999942
 31
0.0
1001
ACDBBLOCKREPETAG
1070
     1
1071
       47
1005
1395BA
  0
LINE
  5
1395BB
  8
OBJECT
 10
2080.0
 20
-769.9999999999942
 30
0.0
 11
2080.0
 21
-757.9999999999942
 31
0.0
1001
ACDBBLOCKREPETAG
1070
     1
1071
       48
1005
1395BB
  0
ARC
  5
1395BC
  8
OBJECT
 10
2200.6872746716731
 20
-749.40809941010195
 30
0.0
 40
170.6350503965856
 50
137.44134459184301
 51
149.91949581336559
1001
ACDBBLOCKREPETAG
1070
     1
1071
       52
1005
1395BC
  0
ARC
  5
1395BD
  8
OBJECT
 10
2200.6872746716731
 20
-642.59190058988645
 30
0.0
 40
170.6350503965856
 50
210.0805041866343
 51
222.55865540815699
1001
ACDBBLOCKREPETAG
1070
     1
1071
       53
1005
1395BD
  0
ARC
  5
1395BE
  8
OBJECT
 10
1799.312725328326
 20
-749.40809941010195
 30
0.0
 40
170.6350503965856
 50
30.080504186774089
 51
42.558655408447443
1001
ACDBBLOCKREPETAG
1070
     1
1071
       54
1005
1395BE
  0
ARC
  5
1395BF
  8
OBJECT
 10
1799.312725328326
 20
-642.59190058988645
 30
0.0
 40
170.6350503965856
 50
317.44134459155248
 51
329.91949581322592
1001
ACDBBLOCKREPETAG
1070
     1
1071
       55
1005
1395BF
  0
POINT
  5
1395C0
  8
DOTS
 10
2000.0
 20
-754.9999999999942
 30
0.0
1001
ACDBBLOCKREPETAG
1070
     1
1071
      184
1005
1395C0
  0
LINE
  5
1395C1
  8
CENTER
 10
1899.0
 20
-199.99999999999909
 30
0.0
 11
1920.0
 21
-199.99999999999909
 31
0.0
1001
ACDBBLOCKREPETAG
1070
     1
1071
        0
1005
1395C1
  0
LINE
  5
1395C2
  8
OBJECT
 10
1917.0
 20
-261.99999999999909
 30
0.0
 11
1920.0
 21
-261.99999999999909
 31
0.0
1001
ACDBBLOCKREPETAG
1070
     1
1071
        1
1005
1395C2
  0
ARC
  5
1395C3
  8
OBJECT
 10
1917.0
 20
-258.99999999999909
 30
0.0
 40
3.0
 50
180.0
 51
270.0
1001
ACDBBLOCKREPETAG
1070
     1
1071
        2
1005
1395C3
  0
LINE
  5
1395C4
  8
OBJECT
 10
1920.0
 20
-137.99999999999909
 30
0.0
 11
1917.0
 21
-137.99999999999909
 31
0.0
1001
ACDBBLOCKREPETAG
1070
     1
1071
        3
1005
1395C4
  0
ARC
  5
1395C5
  8
OBJECT
 10
1917.0
 20
-140.99999999999909
 30
0.0
 40
3.0
 50
90.0
 51
180.0
1001
ACDBBLOCKREPETAG
1070
     1
1071
        4
1005
1395C5
  0
LINE
  5
1395C6
  8
OBJECT
 10
1914.0
 20
-140.99999999999909
 30
0.0
 11
1914.0
 21
-258.99999999999909
 31
0.0
1001
ACDBBLOCKREPETAG
1070
     1
1071
        5
1005
1395C6
  0
LINE
  5
1395C7
  8
OBJECT
 10
2062.0
 20
-332.99999999999898
 30
0.0
 11
2062.0
 21
-339.99999999999909
 31
0.0
1001
ACDBBLOCKREPETAG
1070
     1
1071
       47
1005
1395C7
  0
LINE
  5
1395C8
  8
OBJECT
 10
2062.0
 20
-339.99999999999909
 30
0.0
 11
1938.0
 21
-339.99999999999909
 31
0.0
1001
ACDBBLOCKREPETAG
1070
     1
1071
       48
1005
1395C8
  0
LINE
  5
1395C9
  8
OBJECT
 10
1938.0
 20
-339.99999999999909
 30
0.0
 11
1938.0
 21
-332.99999999999898
 31
0.0
1001
ACDBBLOCKREPETAG
1070
     1
1071
       49
1005
1395C9
  0
LINE
  5
1395CA
  8
OBJECT
 10
1938.0
 20
-332.99999999999898
 30
0.0
 11
2062.0
 21
-332.99999999999898
 31
0.0
1001
ACDBBLOCKREPETAG
1070
     1
1071
       50
1005
1395CA
  0
LINE
  5
1395CB
  8
CENTER
 10
2000.0
 20
-354.99999999999909
 30
0.0
 11
2000.0
 21
-279.99999999999909
 31
0.0
1001
ACDBBLOCKREPETAG
1070
     1
1071
       51
1005
1395CB
  0
LINE
  5
1395CC
  8
OBJECT
 10
2059.0
 20
-332.99999999999898
 30
0.0
 11
2059.0
 21
-296.99999999999898
 31
0.0
1001
ACDBBLOCKREPETAG
1070
     1
1071
       52
1005
1395CC
  0
LINE
  5
1395CD
  8
OBJECT
 10
2059.0
 20
-296.99999999999898
 30
0.0
 11
1941.0
 21
-296.99999999999898
 31
0.0
1001
ACDBBLOCKREPETAG
1070
     1
1071
       53
1005
1395CD
  0
LINE
  5
1395CE
  8
OBJECT
 10
1941.0
 20
-296.99999999999898
 30
0.0
 11
1941.0
 21
-332.99999999999898
 31
0.0
1001
ACDBBLOCKREPETAG
1070
     1
1071
       54
1005
1395CE
  0
LINE
  5
1395CF
  8
OBJECT
 10
2054.5
 20
-292.99999999999898
 30
0.0
 11
2054.5
 21
-285.99999999999898
 31
0.0
1001
ACDBBLOCKREPETAG
1070
     1
1071
       55
1005
1395CF
  0
LINE
  5
1395D0
  8
OBJECT
 10
1945.5
 20
-285.99999999999898
 30
0.0
 11
1945.5
 21
-292.99999999999898
 31
0.0
1001
ACDBBLOCKREPETAG
1070
     1
1071
       56
1005
1395D0
  0
LINE
  5
1395D1
  8
OBJECT
 10
1945.5
 20
-292.99999999999898
 30
0.0
 11
2054.5
 21
-292.99999999999898
 31
0.0
1001
ACDBBLOCKREPETAG
1070
     1
1071
       57
1005
1395D1
  0
LINE
  5
1395D2
  8
OBJECT
 10
2059.0
 20
-296.99999999999898
 30
0.0
 11
2054.5
 21
-292.99999999999898
 31
0.0
1001
ACDBBLOCKREPETAG
1070
     1
1071
       58
1005
1395D2
  0
LINE
  5
1395D3
  8
OBJECT
 10
1941.0
 20
-296.99999999999898
 30
0.0
 11
1945.5
 21
-292.99999999999898
 31
0.0
1001
ACDBBLOCKREPETAG
1070
     1
1071
       59
1005
1395D3
  0
LINE
  5
1395D4
  8
OBJECT
 10
2062.0
 20
-283.0
 30
0.0
 11
2062.0
 21
-279.99999999999909
 31
0.0
1001
ACDBBLOCKREPETAG
1070
     1
1071
       60
1005
1395D4
  0
ARC
  5
1395D5
  8
OBJECT
 10
2059.0
 20
-283.0
 30
0.0
 40
3.0
 50
270.0
 51
0.0
1001
ACDBBLOCKREPETAG
1070
     1
1071
       61
1005
1395D5
  0
LINE
  5
1395D6
  8
OBJECT
 10
1938.0
 20
-279.99999999999909
 30
0.0
 11
1938.0
 21
-282.99999999999818
 31
0.0
1001
ACDBBLOCKREPETAG
1070
     1
1071
       62
1005
1395D6
  0
ARC
  5
1395D7
  8
OBJECT
 10
1941.0
 20
-282.99999999999818
 30
0.0
 40
3.0
 50
180.0
 51
270.0
1001
ACDBBLOCKREPETAG
1070
     1
1071
       63
1005
1395D7
  0
LINE
  5
1395D8
  8
OBJECT
 10
1941.0
 20
-285.99999999999818
 30
0.0
 11
2059.0
 21
-286.0
 31
0.0
1001
ACDBBLOCKREPETAG
1070
     1
1071
       64
1005
1395D8
  0
LINE
  5
1395D9
  8
HIDDEN
 10
2044.5
 20
-287.99999999999909
 30
0.0
 11
1955.5
 21
-287.99999999999909
 31
0.0
1001
ACDBBLOCKREPETAG
1070
     1
1071
       65
1005
1395D9
  0
LINE
  5
1395DA
  8
OBJECT
 10
2133.0
 20
-137.99999999999909
 30
0.0
 11
2140.0
 21
-137.99999999999909
 31
0.0
1001
ACDBBLOCKREPETAG
1070
     1
1071
       47
1005
1395DA
  0
LINE
  5
1395DB
  8
OBJECT
 10
2140.0
 20
-137.99999999999909
 30
0.0
 11
2140.0
 21
-261.99999999999909
 31
0.0
1001
ACDBBLOCKREPETAG
1070
     1
1071
       48
1005
1395DB
  0
LINE
  5
1395DC
  8
OBJECT
 10
2140.0
 20
-261.99999999999909
 30
0.0
 11
2133.0
 21
-261.99999999999909
 31
0.0
1001
ACDBBLOCKREPETAG
1070
     1
1071
       49
1005
1395DC
  0
LINE
  5
1395DD
  8
OBJECT
 10
2133.0
 20
-261.99999999999909
 30
0.0
 11
2133.0
 21
-137.99999999999909
 31
0.0
1001
ACDBBLOCKREPETAG
1070
     1
1071
       50
1005
1395DD
  0
LINE
  5
1395DE
  8
CENTER
 10
2155.0
 20
-199.99999999999909
 30
0.0
 11
2080.0
 21
-199.99999999999909
 31
0.0
1001
ACDBBLOCKREPETAG
1070
     1
1071
       51
1005
1395DE
  0
LINE
  5
1395DF
  8
OBJECT
 10
2133.0
 20
-140.99999999999909
 30
0.0
 11
2097.0
 21
-140.99999999999909
 31
0.0
1001
ACDBBLOCKREPETAG
1070
     1
1071
       52
1005
1395DF
  0
LINE
  5
1395E0
  8
OBJECT
 10
2097.0
 20
-140.99999999999909
 30
0.0
 11
2097.0
 21
-258.99999999999909
 31
0.0
1001
ACDBBLOCKREPETAG
1070
     1
1071
       53
1005
1395E0
  0
LINE
  5
1395E1
  8
OBJECT
 10
2097.0
 20
-258.99999999999909
 30
0.0
 11
2133.0
 21
-258.99999999999909
 31
0.0
1001
ACDBBLOCKREPETAG
1070
     1
1071
       54
1005
1395E1
  0
LINE
  5
1395E2
  8
OBJECT
 10
2093.0
 20
-145.49999999999909
 30
0.0
 11
2086.0
 21
-145.49999999999909
 31
0.0
1001
ACDBBLOCKREPETAG
1070
     1
1071
       55
1005
1395E2
  0
LINE
  5
1395E3
  8
OBJECT
 10
2086.0
 20
-254.49999999999909
 30
0.0
 11
2093.0
 21
-254.49999999999909
 31
0.0
1001
ACDBBLOCKREPETAG
1070
     1
1071
       56
1005
1395E3
  0
LINE
  5
1395E4
  8
OBJECT
 10
2093.0
 20
-254.49999999999909
 30
0.0
 11
2093.0
 21
-145.49999999999909
 31
0.0
1001
ACDBBLOCKREPETAG
1070
     1
1071
       57
1005
1395E4
  0
LINE
  5
1395E5
  8
OBJECT
 10
2097.0
 20
-140.99999999999909
 30
0.0
 11
2093.0
 21
-145.49999999999909
 31
0.0
1001
ACDBBLOCKREPETAG
1070
     1
1071
       58
1005
1395E5
  0
LINE
  5
1395E6
  8
OBJECT
 10
2097.0
 20
-258.99999999999909
 30
0.0
 11
2093.0
 21
-254.49999999999909
 31
0.0
1001
ACDBBLOCKREPETAG
1070
     1
1071
       59
1005
1395E6
  0
LINE
  5
1395E7
  8
OBJECT
 10
2083.0
 20
-137.99999999999909
 30
0.0
 11
2080.0
 21
-137.99999999999909
 31
0.0
1001
ACDBBLOCKREPETAG
1070
     1
1071
       60
1005
1395E7
  0
ARC
  5
1395E8
  8
OBJECT
 10
2083.0
 20
-140.99999999999909
 30
0.0
 40
3.0
 50
0.0
 51
90.0
1001
ACDBBLOCKREPETAG
1070
     1
1071
       61
1005
1395E8
  0
LINE
  5
1395E9
  8
OBJECT
 10
2080.0
 20
-261.99999999999909
 30
0.0
 11
2083.0
 21
-261.99999999999909
 31
0.0
1001
ACDBBLOCKREPETAG
1070
     1
1071
       62
1005
1395E9
  0
ARC
  5
1395EA
  8
OBJECT
 10
2083.0
 20
-258.99999999999909
 30
0.0
 40
3.0
 50
270.0
 51
0.0
1001
ACDBBLOCKREPETAG
1070
     1
1071
       63
1005
1395EA
  0
LINE
  5
1395EB
  8
OBJECT
 10
2086.0
 20
-258.99999999999909
 30
0.0
 11
2086.0
 21
-140.99999999999909
 31
0.0
1001
ACDBBLOCKREPETAG
1070
     1
1071
       64
1005
1395EB
  0
LINE
  5
1395EC
  8
HIDDEN
 10
2088.0
 20
-155.49999999999909
 30
0.0
 11
2088.0
 21
-244.49999999999909
 31
0.0
1001
ACDBBLOCKREPETAG
1070
     1
1071
       65
1005
1395EC
  0
LINE
  5
1395ED
  8
OBJECT
 10
1917.0
 20
-634.0
 30
0.0
 11
1920.0
 21
-634.0
 31
0.0
1001
ACDBBLOCKREPETAG
1070
     1
1071
        1
1005
1395ED
  0
ARC
  5
1395EE
  8
OBJECT
 10
1917.0
 20
-637.0
 30
0.0
 40
3.0
 50
90.0
 51
180.0
1001
ACDBBLOCKREPETAG
1070
     1
1071
        2
1005
1395EE
  0
LINE
  5
1395EF
  8
OBJECT
 10
1920.0
 20
-758.0
 30
0.0
 11
1917.0
 21
-758.0
 31
0.0
1001
ACDBBLOCKREPETAG
1070
     1
1071
        3
1005
1395EF
  0
ARC
  5
1395F0
  8
OBJECT
 10
1917.0
 20
-755.0
 30
0.0
 40
3.0
 50
180.0
 51
270.0
1001
ACDBBLOCKREPETAG
1070
     1
1071
        4
1005
1395F0
  0
LINE
  5
1395F1
  8
OBJECT
 10
1914.0
 20
-755.0
 30
0.0
 11
1914.0
 21
-637.0
 31
0.0
1001
ACDBBLOCKREPETAG
1070
     1
1071
        5
1005
1395F1
  0
LINE
  5
1395F2
  8
CENTER
 10
2077.0
 20
-696.0
 30
0.0
 11
1923.0
 21
-696.0
 31
0.0
1001
ACDBBLOCKREPETAG
1070
     1
1071
       17
1005
1395F2
  0
CIRCLE
  5
1395F3
  8
OBJECT
 10
2000.0
 20
-696.0
 30
0.0
 40
41.5
1001
ACDBBLOCKREPETAG
1070
     1
1071
       19
1005
1395F3
  0
CIRCLE
  5
1395F4
  8
OBJECT
 10
2000.0
 20
-696.0
 30
0.0
 40
54.0
1001
ACDBBLOCKREPETAG
1070
     1
1071
       20
1005
1395F4
  0
ARC
  5
1395F5
  8
OBJECT
 10
2000.0
 20
-696.0
 30
0.0
 40
62.0
 50
287.89655112920718
 51
252.10344887079279
1001
ACDBBLOCKREPETAG
1070
     1
1071
       21
1005
1395F5
  0
LINE
  5
1395F6
  8
OBJECT
 10
1980.947441116743
 20
-755.0
 30
0.0
 11
2019.052558883257
 21
-755.0
 31
0.0
1001
ACDBBLOCKREPETAG
1070
     1
1071
       22
1005
1395F6
  0
LINE
  5
1395F7
  8
OBJECT
 10
2133.0
 20
-634.0
 30
0.0
 11
2140.0
 21
-634.0
 31
0.0
1001
ACDBBLOCKREPETAG
1070
     1
1071
       45
1005
1395F7
  0
LINE
  5
1395F8
  8
OBJECT
 10
2140.0
 20
-634.0
 30
0.0
 11
2140.0
 21
-755.0
 31
0.0
1001
ACDBBLOCKREPETAG
1070
     1
1071
       46
1005
1395F8
  0
LINE
  5
1395F9
  8
OBJECT
 10
2133.0
 20
-755.0
 30
0.0
 11
2133.0
 21
-634.0
 31
0.0
1001
ACDBBLOCKREPETAG
1070
     1
1071
       47
1005
1395F9
  0
LINE
  5
1395FA
  8
CENTER
 10
2155.0
 20
-696.0
 30
0.0
 11
2071.0
 21
-696.0
 31
0.0
1001
ACDBBLOCKREPETAG
1070
     1
1071
       48
1005
1395FA
  0
LINE
  5
1395FB
  8
OBJECT
 10
2133.0
 20
-637.0
 30
0.0
 11
2097.0
 21
-637.0
 31
0.0
1001
ACDBBLOCKREPETAG
1070
     1
1071
       49
1005
1395FB
  0
LINE
  5
1395FC
  8
OBJECT
 10
2097.0
 20
-637.0
 30
0.0
 11
2097.0
 21
-755.0
 31
0.0
1001
ACDBBLOCKREPETAG
1070
     1
1071
       50
1005
1395FC
  0
LINE
  5
1395FD
  8
OBJECT
 10
2097.0
 20
-755.0
 30
0.0
 11
2140.0
 21
-755.0
 31
0.0
1001
ACDBBLOCKREPETAG
1070
     1
1071
       51
1005
1395FD
  0
LINE
  5
1395FE
  8
OBJECT
 10
2093.0
 20
-641.5
 30
0.0
 11
2086.0
 21
-641.5
 31
0.0
1001
ACDBBLOCKREPETAG
1070
     1
1071
       52
1005
1395FE
  0
LINE
  5
1395FF
  8
OBJECT
 10
2086.0
 20
-750.49999999999989
 30
0.0
 11
2093.0
 21
-750.49999999999989
 31
0.0
1001
ACDBBLOCKREPETAG
1070
     1
1071
       53
1005
1395FF
  0
LINE
  5
139600
  8
OBJECT
 10
2093.0
 20
-750.49999999999989
 30
0.0
 11
2093.0
 21
-641.5
 31
0.0
1001
ACDBBLOCKREPETAG
1070
     1
1071
       54
1005
139600
  0
LINE
  5
139601
  8
OBJECT
 10
2097.0
 20
-637.0
 30
0.0
 11
2093.0
 21
-641.5
 31
0.0
1001
ACDBBLOCKREPETAG
1070
     1
1071
       55
1005
139601
  0
LINE
  5
139602
  8
OBJECT
 10
2097.0
 20
-755.0
 30
0.0
 11
2093.0
 21
-750.49999999999989
 31
0.0
1001
ACDBBLOCKREPETAG
1070
     1
1071
       56
1005
139602
  0
LINE
  5
139603
  8
OBJECT
 10
2083.0
 20
-634.0
 30
0.0
 11
2080.0
 21
-634.0
 31
0.0
1001
ACDBBLOCKREPETAG
1070
     1
1071
       57
1005
139603
  0
ARC
  5
139604
  8
OBJECT
 10
2083.0
 20
-637.0
 30
0.0
 40
3.0
 50
0.0
 51
90.0
1001
ACDBBLOCKREPETAG
1070
     1
1071
       58
1005
139604
  0
LINE
  5
139605
  8
OBJECT
 10
2080.0
 20
-758.0
 30
0.0
 11
2083.0
 21
-758.0
 31
0.0
1001
ACDBBLOCKREPETAG
1070
     1
1071
       59
1005
139605
  0
ARC
  5
139606
  8
OBJECT
 10
2083.0
 20
-755.0
 30
0.0
 40
3.0
 50
270.0
 51
0.0
1001
ACDBBLOCKREPETAG
1070
     1
1071
       60
1005
139606
  0
LINE
  5
139607
  8
OBJECT
 10
2086.0
 20
-755.0
 30
0.0
 11
2086.0
 21
-637.0
 31
0.0
1001
ACDBBLOCKREPETAG
1070
     1
1071
       61
1005
139607
  0
LINE
  5
139608
  8
HIDDEN
 10
2088.0
 20
-651.5
 30
0.0
 11
2088.0
 21
-740.5
 31
0.0
1001
ACDBBLOCKREPETAG
1070
     1
1071
       63
1005
139608
  0
TEXT
  5
139609
  8
SLIM
 10
0.0000035665234464
 20
24.000004585317601
 30
0.0
 40
79.999999999972701
  1
枝管バリエーション
 41
0.75
1001
ACDBBLOCKREPETAG
1070
     1
1071
      119
1005
137D0B
  0
TEXT
  5
13960A
  8
SLIM
 10
1837.75
 20
282.50000000000011
 30
0.0
 40
35.0
  1
（枝管サイズ毎に寸法が異なります。管底の位置は全サイズで同じです）
 41
0.75
  0
TEXT
  5
13960B
  8
SLIM
 10
1850.0
 20
532.5
 30
0.0
 40
75.0
  1
側面図の代表機種
 41
0.75
  0
TEXT
  5
13960C
  8
SLIM
 10
1850.0
 20
369.99999999999989
 30
0.0
 40
100.0
  1
4SR-C33
 41
0.75
  0
TEXT
  5
13960D
  8
SLIM
 10
0.0
 20
369.99999999999989
 30
0.0
 40
100.0
  1
4SR-CXX-S
 41
0.75
  0
LINE
  5
13960E
  8
OBJECT
 10
4923.0
 20
-3395.9999999999968
 30
0.0
 11
4923.0
 21
-3374.9999999999968
 31
0.0
1001
ACDBBLOCKREPETAG
1070
     1
1071
        0
1005
13960E
  0
LINE
  5
13960F
  8
OBJECT
 10
4923.0
 20
-3374.9999999999968
 30
0.0
 11
5077.0
 21
-3374.9999999999968
 31
0.0
1001
ACDBBLOCKREPETAG
1070
     1
1071
        1
1005
13960F
  0
LINE
  5
139610
  8
HIDDEN
 10
4943.0
 20
-3444.9999999999968
 30
0.0
 11
5057.0
 21
-3444.9999999999968
 31
0.0
1001
ACDBBLOCKREPETAG
1070
     1
1071
        2
1005
139610
  0
LINE
  5
139611
  8
OBJECT
 10
5077.0
 20
-3374.9999999999968
 30
0.0
 11
5077.0
 21
-3395.9999999999968
 31
0.0
1001
ACDBBLOCKREPETAG
1070
     1
1071
        3
1005
139611
  0
LINE
  5
139612
  8
OBJECT
 10
5077.0
 20
-3395.9999999999968
 30
0.0
 11
4923.0
 21
-3395.9999999999968
 31
0.0
1001
ACDBBLOCKREPETAG
1070
     1
1071
        4
1005
139612
  0
LINE
  5
139613
  8
CENTER
 10
5000.0
 20
-3359.9999999999968
 30
0.0
 11
5000.0
 21
-3594.9999999999968
 31
0.0
1001
ACDBBLOCKREPETAG
1070
     1
1071
        5
1005
139613
  0
LINE
  5
139614
  8
OBJECT
 10
4925.0
 20
-3458.9999999999968
 30
0.0
 11
4925.0
 21
-3582.9999999999968
 31
0.0
1001
ACDBBLOCKREPETAG
1070
     1
1071
        6
1005
139614
  0
LINE
  5
139615
  8
OBJECT
 10
4928.0
 20
-3395.9999999999968
 30
0.0
 11
4928.0
 21
-3458.9999999999968
 31
0.0
1001
ACDBBLOCKREPETAG
1070
     1
1071
        7
1005
139615
  0
LINE
  5
139616
  8
OBJECT
 10
5072.0
 20
-3458.9999999999968
 30
0.0
 11
5072.0
 21
-3395.9999999999968
 31
0.0
1001
ACDBBLOCKREPETAG
1070
     1
1071
        8
1005
139616
  0
LINE
  5
139617
  8
OBJECT
 10
5074.9999999997999
 20
-3582.9999999997758
 30
0.0
 11
5080.0
 21
-3582.9999999999968
 31
0.0
1001
ACDBBLOCKREPETAG
1070
     1
1071
        9
1005
139617
  0
LINE
  5
139618
  8
OBJECT
 10
5080.0
 20
-3458.9999999999968
 30
0.0
 11
4925.0
 21
-3458.9999999999968
 31
0.0
1001
ACDBBLOCKREPETAG
1070
     1
1071
       10
1005
139618
  0
ARC
  5
139619
  8
OBJECT
 10
5200.6872746716726
 20
-3574.408099410105
 30
0.0
 40
170.6350503965856
 50
137.44134459184301
 51
149.9194958133665
1001
ACDBBLOCKREPETAG
1070
     1
1071
       15
1005
139619
  0
ARC
  5
13961A
  8
OBJECT
 10
5118.8455987040506
 20
-3530.8827266953631
 30
0.0
 40
78.072222021763665
 50
147.4551531037684
 51
164.66365997719291
1001
ACDBBLOCKREPETAG
1070
     1
1071
       16
1005
13961A
  0
ARC
  5
13961B
  8
OBJECT
 10
5085.7554349608727
 20
-3520.9999999999968
 30
0.0
 40
43.55353926885617
 50
165.6884523008477
 51
194.3115476991523
1001
ACDBBLOCKREPETAG
1070
     1
1071
       17
1005
13961B
  0
ARC
  5
13961C
  8
OBJECT
 10
5200.6872746716726
 20
-3467.5919005898891
 30
0.0
 40
170.6350503965856
 50
210.0805041866335
 51
222.55865540815699
1001
ACDBBLOCKREPETAG
1070
     1
1071
       18
1005
13961C
  0
ARC
  5
13961D
  8
OBJECT
 10
5118.8455987040506
 20
-3511.1172733046319
 30
0.0
 40
78.072222021763665
 50
195.33634002280701
 51
212.5448468962316
1001
ACDBBLOCKREPETAG
1070
     1
1071
       19
1005
13961D
  0
POINT
  5
13961E
  8
DOTS
 10
5000.0
 20
-3579.9999999999968
 30
0.0
1001
ACDBBLOCKREPETAG
1070
     1
1071
      186
1005
13961E
  0
LINE
  5
13961F
  8
OBJECT
 10
4323.0
 20
-3395.9999999999968
 30
0.0
 11
4323.0
 21
-3374.9999999999968
 31
0.0
1001
ACDBBLOCKREPETAG
1070
     1
1071
       20
1005
13961F
  0
LINE
  5
139620
  8
OBJECT
 10
4323.0
 20
-3374.9999999999968
 30
0.0
 11
4477.0
 21
-3374.9999999999968
 31
0.0
1001
ACDBBLOCKREPETAG
1070
     1
1071
       21
1005
139620
  0
LINE
  5
139621
  8
HIDDEN
 10
4343.0
 20
-3444.9999999999968
 30
0.0
 11
4457.0
 21
-3444.9999999999968
 31
0.0
1001
ACDBBLOCKREPETAG
1070
     1
1071
       22
1005
139621
  0
LINE
  5
139622
  8
OBJECT
 10
4477.0
 20
-3374.9999999999968
 30
0.0
 11
4477.0
 21
-3395.9999999999968
 31
0.0
1001
ACDBBLOCKREPETAG
1070
     1
1071
       23
1005
139622
  0
LINE
  5
139623
  8
OBJECT
 10
4477.0
 20
-3395.9999999999968
 30
0.0
 11
4323.0
 21
-3395.9999999999968
 31
0.0
1001
ACDBBLOCKREPETAG
1070
     1
1071
       24
1005
139623
  0
LINE
  5
139624
  8
CENTER
 10
4400.0
 20
-3359.9999999999968
 30
0.0
 11
4400.0
 21
-3594.9999999999968
 31
0.0
1001
ACDBBLOCKREPETAG
1070
     1
1071
       25
1005
139624
  0
LINE
  5
139625
  8
OBJECT
 10
4325.0
 20
-3458.9999999999968
 30
0.0
 11
4325.0
 21
-3582.9999999999968
 31
0.0
1001
ACDBBLOCKREPETAG
1070
     1
1071
       26
1005
139625
  0
LINE
  5
139626
  8
OBJECT
 10
4328.0
 20
-3395.9999999999968
 30
0.0
 11
4328.0
 21
-3458.9999999999968
 31
0.0
1001
ACDBBLOCKREPETAG
1070
     1
1071
       27
1005
139626
  0
LINE
  5
139627
  8
OBJECT
 10
4472.0
 20
-3458.9999999999968
 30
0.0
 11
4472.0
 21
-3395.9999999999968
 31
0.0
1001
ACDBBLOCKREPETAG
1070
     1
1071
       28
1005
139627
  0
LINE
  5
139628
  8
OBJECT
 10
4475.0
 20
-3458.9999999999968
 30
0.0
 11
4325.0
 21
-3458.9999999999968
 31
0.0
1001
ACDBBLOCKREPETAG
1070
     1
1071
       30
1005
139628
  0
LINE
  5
139629
  8
OBJECT
 10
4475.0
 20
-3458.9999999999968
 30
0.0
 11
4475.0
 21
-3582.9999999999968
 31
0.0
1001
ACDBBLOCKREPETAG
1070
     1
1071
       34
1005
139629
  0
POINT
  5
13962A
  8
DOTS
 10
4400.0
 20
-3579.9999999999968
 30
0.0
1001
ACDBBLOCKREPETAG
1070
     1
1071
      187
1005
13962A
  0
LINE
  5
13962B
  8
OBJECT
 10
3923.0
 20
-3395.9999999999968
 30
0.0
 11
3923.0
 21
-3374.9999999999968
 31
0.0
1001
ACDBBLOCKREPETAG
1070
     1
1071
        0
1005
13962B
  0
LINE
  5
13962C
  8
OBJECT
 10
3923.0
 20
-3374.9999999999968
 30
0.0
 11
4077.0
 21
-3374.9999999999968
 31
0.0
1001
ACDBBLOCKREPETAG
1070
     1
1071
        1
1005
13962C
  0
LINE
  5
13962D
  8
HIDDEN
 10
3943.0
 20
-3444.9999999999968
 30
0.0
 11
4057.0
 21
-3444.9999999999968
 31
0.0
1001
ACDBBLOCKREPETAG
1070
     1
1071
        2
1005
13962D
  0
LINE
  5
13962E
  8
OBJECT
 10
4077.0
 20
-3374.9999999999968
 30
0.0
 11
4077.0
 21
-3395.9999999999968
 31
0.0
1001
ACDBBLOCKREPETAG
1070
     1
1071
        3
1005
13962E
  0
LINE
  5
13962F
  8
OBJECT
 10
4077.0
 20
-3395.9999999999968
 30
0.0
 11
3923.0
 21
-3395.9999999999968
 31
0.0
1001
ACDBBLOCKREPETAG
1070
     1
1071
        4
1005
13962F
  0
LINE
  5
139630
  8
CENTER
 10
4000.0
 20
-3359.9999999999968
 30
0.0
 11
4000.0
 21
-3594.9999999999968
 31
0.0
1001
ACDBBLOCKREPETAG
1070
     1
1071
        5
1005
139630
  0
LINE
  5
139631
  8
OBJECT
 10
3925.0
 20
-3458.9999999999968
 30
0.0
 11
3925.0
 21
-3582.9999999999968
 31
0.0
1001
ACDBBLOCKREPETAG
1070
     1
1071
        6
1005
139631
  0
LINE
  5
139632
  8
OBJECT
 10
3928.0
 20
-3395.9999999999968
 30
0.0
 11
3928.0
 21
-3458.9999999999968
 31
0.0
1001
ACDBBLOCKREPETAG
1070
     1
1071
        7
1005
139632
  0
LINE
  5
139633
  8
OBJECT
 10
4072.0
 20
-3458.9999999999968
 30
0.0
 11
4072.0
 21
-3395.9999999999968
 31
0.0
1001
ACDBBLOCKREPETAG
1070
     1
1071
        8
1005
139633
  0
LINE
  5
139634
  8
OBJECT
 10
4074.999999999799
 20
-3582.9999999997758
 30
0.0
 11
4080.0
 21
-3582.9999999999968
 31
0.0
1001
ACDBBLOCKREPETAG
1070
     1
1071
        9
1005
139634
  0
LINE
  5
139635
  8
OBJECT
 10
4080.0
 20
-3458.9999999999968
 30
0.0
 11
3925.0
 21
-3458.9999999999968
 31
0.0
1001
ACDBBLOCKREPETAG
1070
     1
1071
       10
1005
139635
  0
ARC
  5
139636
  8
OBJECT
 10
4200.6872746716726
 20
-3574.408099410105
 30
0.0
 40
170.6350503965856
 50
137.44134459184301
 51
149.9194958133665
1001
ACDBBLOCKREPETAG
1070
     1
1071
       15
1005
139636
  0
ARC
  5
139637
  8
OBJECT
 10
4118.8455987040506
 20
-3530.8827266953631
 30
0.0
 40
78.072222021763665
 50
147.4551531037684
 51
164.663659977186
1001
ACDBBLOCKREPETAG
1070
     1
1071
       16
1005
139637
  0
ARC
  5
139638
  8
OBJECT
 10
4085.7554349608722
 20
-3520.9999999999968
 30
0.0
 40
43.55353926885617
 50
165.6884523008477
 51
194.3115476991523
1001
ACDBBLOCKREPETAG
1070
     1
1071
       17
1005
139638
  0
ARC
  5
139639
  8
OBJECT
 10
4200.6872746716726
 20
-3467.5919005898891
 30
0.0
 40
170.6350503965856
 50
210.0805041866335
 51
222.55865540815699
1001
ACDBBLOCKREPETAG
1070
     1
1071
       18
1005
139639
  0
ARC
  5
13963A
  8
OBJECT
 10
4118.8455987040506
 20
-3511.1172733046319
 30
0.0
 40
78.072222021763665
 50
195.33634002281391
 51
212.5448468962316
1001
ACDBBLOCKREPETAG
1070
     1
1071
       19
1005
13963A
  0
POINT
  5
13963B
  8
DOTS
 10
4000.0
 20
-3579.9999999999968
 30
0.0
1001
ACDBBLOCKREPETAG
1070
     1
1071
      186
1005
13963B
  0
LINE
  5
13963C
  8
OBJECT
 10
3323.0
 20
-3395.9999999999968
 30
0.0
 11
3323.0
 21
-3374.9999999999968
 31
0.0
1001
ACDBBLOCKREPETAG
1070
     1
1071
       20
1005
13963C
  0
LINE
  5
13963D
  8
OBJECT
 10
3323.0
 20
-3374.9999999999968
 30
0.0
 11
3477.0
 21
-3374.9999999999968
 31
0.0
1001
ACDBBLOCKREPETAG
1070
     1
1071
       21
1005
13963D
  0
LINE
  5
13963E
  8
HIDDEN
 10
3343.0
 20
-3444.9999999999968
 30
0.0
 11
3457.0
 21
-3444.9999999999968
 31
0.0
1001
ACDBBLOCKREPETAG
1070
     1
1071
       22
1005
13963E
  0
LINE
  5
13963F
  8
OBJECT
 10
3477.0
 20
-3374.9999999999968
 30
0.0
 11
3477.0
 21
-3395.9999999999968
 31
0.0
1001
ACDBBLOCKREPETAG
1070
     1
1071
       23
1005
13963F
  0
LINE
  5
139640
  8
OBJECT
 10
3477.0
 20
-3395.9999999999968
 30
0.0
 11
3323.0
 21
-3395.9999999999968
 31
0.0
1001
ACDBBLOCKREPETAG
1070
     1
1071
       24
1005
139640
  0
LINE
  5
139641
  8
CENTER
 10
3400.0
 20
-3359.9999999999968
 30
0.0
 11
3400.0
 21
-3594.9999999999968
 31
0.0
1001
ACDBBLOCKREPETAG
1070
     1
1071
       25
1005
139641
  0
LINE
  5
139642
  8
OBJECT
 10
3325.0
 20
-3458.9999999999968
 30
0.0
 11
3325.0
 21
-3582.9999999999968
 31
0.0
1001
ACDBBLOCKREPETAG
1070
     1
1071
       26
1005
139642
  0
LINE
  5
139643
  8
OBJECT
 10
3328.0
 20
-3395.9999999999968
 30
0.0
 11
3328.0
 21
-3458.9999999999968
 31
0.0
1001
ACDBBLOCKREPETAG
1070
     1
1071
       27
1005
139643
  0
LINE
  5
139644
  8
OBJECT
 10
3472.0
 20
-3458.9999999999968
 30
0.0
 11
3472.0
 21
-3395.9999999999968
 31
0.0
1001
ACDBBLOCKREPETAG
1070
     1
1071
       28
1005
139644
  0
LINE
  5
139645
  8
OBJECT
 10
3475.0
 20
-3458.9999999999968
 30
0.0
 11
3325.0
 21
-3458.9999999999968
 31
0.0
1001
ACDBBLOCKREPETAG
1070
     1
1071
       30
1005
139645
  0
LINE
  5
139646
  8
OBJECT
 10
3475.0
 20
-3458.9999999999968
 30
0.0
 11
3475.0
 21
-3582.9999999999968
 31
0.0
1001
ACDBBLOCKREPETAG
1070
     1
1071
       34
1005
139646
  0
POINT
  5
139647
  8
DOTS
 10
3400.0
 20
-3579.9999999999968
 30
0.0
1001
ACDBBLOCKREPETAG
1070
     1
1071
      187
1005
139647
  0
LINE
  5
139648
  8
OBJECT
 10
2923.0
 20
-3395.9999999999968
 30
0.0
 11
2923.0
 21
-3374.9999999999968
 31
0.0
1001
ACDBBLOCKREPETAG
1070
     1
1071
        0
1005
139648
  0
LINE
  5
139649
  8
OBJECT
 10
2923.0
 20
-3374.9999999999968
 30
0.0
 11
3077.0
 21
-3374.9999999999968
 31
0.0
1001
ACDBBLOCKREPETAG
1070
     1
1071
        1
1005
139649
  0
LINE
  5
13964A
  8
HIDDEN
 10
2943.0
 20
-3444.9999999999968
 30
0.0
 11
3057.0
 21
-3444.9999999999968
 31
0.0
1001
ACDBBLOCKREPETAG
1070
     1
1071
        2
1005
13964A
  0
LINE
  5
13964B
  8
OBJECT
 10
3077.0
 20
-3374.9999999999968
 30
0.0
 11
3077.0
 21
-3395.9999999999968
 31
0.0
1001
ACDBBLOCKREPETAG
1070
     1
1071
        3
1005
13964B
  0
LINE
  5
13964C
  8
OBJECT
 10
3077.0
 20
-3395.9999999999968
 30
0.0
 11
2923.0
 21
-3395.9999999999968
 31
0.0
1001
ACDBBLOCKREPETAG
1070
     1
1071
        4
1005
13964C
  0
LINE
  5
13964D
  8
CENTER
 10
3000.0
 20
-3359.9999999999968
 30
0.0
 11
3000.0
 21
-3594.9999999999968
 31
0.0
1001
ACDBBLOCKREPETAG
1070
     1
1071
        5
1005
13964D
  0
LINE
  5
13964E
  8
OBJECT
 10
2925.0
 20
-3458.9999999999968
 30
0.0
 11
2925.0
 21
-3582.9999999999968
 31
0.0
1001
ACDBBLOCKREPETAG
1070
     1
1071
        6
1005
13964E
  0
LINE
  5
13964F
  8
OBJECT
 10
2928.0
 20
-3395.9999999999968
 30
0.0
 11
2928.0
 21
-3458.9999999999968
 31
0.0
1001
ACDBBLOCKREPETAG
1070
     1
1071
        7
1005
13964F
  0
LINE
  5
139650
  8
OBJECT
 10
3072.0
 20
-3458.9999999999968
 30
0.0
 11
3072.0
 21
-3395.9999999999968
 31
0.0
1001
ACDBBLOCKREPETAG
1070
     1
1071
        8
1005
139650
  0
LINE
  5
139651
  8
OBJECT
 10
3074.9999999997999
 20
-3582.9999999997758
 30
0.0
 11
3080.0
 21
-3582.9999999999968
 31
0.0
1001
ACDBBLOCKREPETAG
1070
     1
1071
        9
1005
139651
  0
LINE
  5
139652
  8
OBJECT
 10
3080.0
 20
-3458.9999999999968
 30
0.0
 11
2925.0
 21
-3458.9999999999968
 31
0.0
1001
ACDBBLOCKREPETAG
1070
     1
1071
       10
1005
139652
  0
ARC
  5
139653
  8
OBJECT
 10
3200.6872746716722
 20
-3574.408099410105
 30
0.0
 40
170.6350503965856
 50
137.44134459184301
 51
149.9194958133665
1001
ACDBBLOCKREPETAG
1070
     1
1071
       15
1005
139653
  0
ARC
  5
139654
  8
OBJECT
 10
3118.8455987040511
 20
-3530.8827266953631
 30
0.0
 40
78.072222021763665
 50
147.4551531037684
 51
164.663659977186
1001
ACDBBLOCKREPETAG
1070
     1
1071
       16
1005
139654
  0
ARC
  5
139655
  8
OBJECT
 10
3085.7554349608731
 20
-3520.9999999999968
 30
0.0
 40
43.55353926885617
 50
165.6884523008477
 51
194.3115476991523
1001
ACDBBLOCKREPETAG
1070
     1
1071
       17
1005
139655
  0
ARC
  5
139656
  8
OBJECT
 10
3200.6872746716722
 20
-3467.5919005898891
 30
0.0
 40
170.6350503965856
 50
210.0805041866335
 51
222.55865540815699
1001
ACDBBLOCKREPETAG
1070
     1
1071
       18
1005
139656
  0
ARC
  5
139657
  8
OBJECT
 10
3118.8455987040511
 20
-3511.1172733046319
 30
0.0
 40
78.072222021763665
 50
195.33634002281391
 51
212.5448468962316
1001
ACDBBLOCKREPETAG
1070
     1
1071
       19
1005
139657
  0
POINT
  5
139658
  8
DOTS
 10
3000.0
 20
-3579.9999999999968
 30
0.0
1001
ACDBBLOCKREPETAG
1070
     1
1071
      186
1005
139658
  0
LINE
  5
139659
  8
OBJECT
 10
2323.0
 20
-3395.9999999999968
 30
0.0
 11
2323.0
 21
-3374.9999999999968
 31
0.0
1001
ACDBBLOCKREPETAG
1070
     1
1071
       20
1005
139659
  0
LINE
  5
13965A
  8
OBJECT
 10
2323.0
 20
-3374.9999999999968
 30
0.0
 11
2477.0
 21
-3374.9999999999968
 31
0.0
1001
ACDBBLOCKREPETAG
1070
     1
1071
       21
1005
13965A
  0
LINE
  5
13965B
  8
HIDDEN
 10
2343.0
 20
-3444.9999999999968
 30
0.0
 11
2457.0
 21
-3444.9999999999968
 31
0.0
1001
ACDBBLOCKREPETAG
1070
     1
1071
       22
1005
13965B
  0
LINE
  5
13965C
  8
OBJECT
 10
2477.0
 20
-3374.9999999999968
 30
0.0
 11
2477.0
 21
-3395.9999999999968
 31
0.0
1001
ACDBBLOCKREPETAG
1070
     1
1071
       23
1005
13965C
  0
LINE
  5
13965D
  8
OBJECT
 10
2477.0
 20
-3395.9999999999968
 30
0.0
 11
2323.0
 21
-3395.9999999999968
 31
0.0
1001
ACDBBLOCKREPETAG
1070
     1
1071
       24
1005
13965D
  0
LINE
  5
13965E
  8
CENTER
 10
2400.0
 20
-3359.9999999999968
 30
0.0
 11
2400.0
 21
-3594.9999999999968
 31
0.0
1001
ACDBBLOCKREPETAG
1070
     1
1071
       25
1005
13965E
  0
LINE
  5
13965F
  8
OBJECT
 10
2325.0
 20
-3458.9999999999968
 30
0.0
 11
2325.0
 21
-3582.9999999999968
 31
0.0
1001
ACDBBLOCKREPETAG
1070
     1
1071
       26
1005
13965F
  0
LINE
  5
139660
  8
OBJECT
 10
2328.0
 20
-3395.9999999999968
 30
0.0
 11
2328.0
 21
-3458.9999999999968
 31
0.0
1001
ACDBBLOCKREPETAG
1070
     1
1071
       27
1005
139660
  0
LINE
  5
139661
  8
OBJECT
 10
2472.0
 20
-3458.9999999999968
 30
0.0
 11
2472.0
 21
-3395.9999999999968
 31
0.0
1001
ACDBBLOCKREPETAG
1070
     1
1071
       28
1005
139661
  0
LINE
  5
139662
  8
OBJECT
 10
2475.0
 20
-3458.9999999999968
 30
0.0
 11
2325.0
 21
-3458.9999999999968
 31
0.0
1001
ACDBBLOCKREPETAG
1070
     1
1071
       30
1005
139662
  0
LINE
  5
139663
  8
OBJECT
 10
2475.0
 20
-3458.9999999999968
 30
0.0
 11
2475.0
 21
-3582.9999999999968
 31
0.0
1001
ACDBBLOCKREPETAG
1070
     1
1071
       34
1005
139663
  0
POINT
  5
139664
  8
DOTS
 10
2400.0
 20
-3579.9999999999968
 30
0.0
1001
ACDBBLOCKREPETAG
1070
     1
1071
      187
1005
139664
  0
LINE
  5
139665
  8
OBJECT
 10
1923.0
 20
-3395.9999999999968
 30
0.0
 11
1923.0
 21
-3374.9999999999968
 31
0.0
1001
ACDBBLOCKREPETAG
1070
     1
1071
        0
1005
139665
  0
LINE
  5
139666
  8
OBJECT
 10
1923.0
 20
-3374.9999999999968
 30
0.0
 11
2077.0
 21
-3374.9999999999968
 31
0.0
1001
ACDBBLOCKREPETAG
1070
     1
1071
        1
1005
139666
  0
LINE
  5
139667
  8
HIDDEN
 10
1943.0
 20
-3444.9999999999968
 30
0.0
 11
2057.0
 21
-3444.9999999999968
 31
0.0
1001
ACDBBLOCKREPETAG
1070
     1
1071
        2
1005
139667
  0
LINE
  5
139668
  8
OBJECT
 10
2077.0
 20
-3374.9999999999968
 30
0.0
 11
2077.0
 21
-3395.9999999999968
 31
0.0
1001
ACDBBLOCKREPETAG
1070
     1
1071
        3
1005
139668
  0
LINE
  5
139669
  8
OBJECT
 10
2077.0
 20
-3395.9999999999968
 30
0.0
 11
1923.0
 21
-3395.9999999999968
 31
0.0
1001
ACDBBLOCKREPETAG
1070
     1
1071
        4
1005
139669
  0
LINE
  5
13966A
  8
CENTER
 10
2000.0
 20
-3359.9999999999968
 30
0.0
 11
2000.0
 21
-3594.9999999999968
 31
0.0
1001
ACDBBLOCKREPETAG
1070
     1
1071
        5
1005
13966A
  0
LINE
  5
13966B
  8
OBJECT
 10
1925.0
 20
-3458.9999999999968
 30
0.0
 11
1925.0
 21
-3582.9999999999968
 31
0.0
1001
ACDBBLOCKREPETAG
1070
     1
1071
        6
1005
13966B
  0
LINE
  5
13966C
  8
OBJECT
 10
1928.0
 20
-3395.9999999999968
 30
0.0
 11
1928.0
 21
-3458.9999999999968
 31
0.0
1001
ACDBBLOCKREPETAG
1070
     1
1071
        7
1005
13966C
  0
LINE
  5
13966D
  8
OBJECT
 10
2072.0
 20
-3458.9999999999968
 30
0.0
 11
2072.0
 21
-3395.9999999999968
 31
0.0
1001
ACDBBLOCKREPETAG
1070
     1
1071
        8
1005
13966D
  0
LINE
  5
13966E
  8
OBJECT
 10
2074.999999999799
 20
-3582.9999999997758
 30
0.0
 11
2080.0
 21
-3582.9999999999968
 31
0.0
1001
ACDBBLOCKREPETAG
1070
     1
1071
        9
1005
13966E
  0
LINE
  5
13966F
  8
OBJECT
 10
2080.0
 20
-3458.9999999999968
 30
0.0
 11
1925.0
 21
-3458.9999999999968
 31
0.0
1001
ACDBBLOCKREPETAG
1070
     1
1071
       10
1005
13966F
  0
ARC
  5
139670
  8
OBJECT
 10
2200.6872746716731
 20
-3574.408099410105
 30
0.0
 40
170.6350503965856
 50
137.44134459184301
 51
149.91949581335999
1001
ACDBBLOCKREPETAG
1070
     1
1071
       15
1005
139670
  0
ARC
  5
139671
  8
OBJECT
 10
2118.8455987040511
 20
-3530.8827266953631
 30
0.0
 40
78.072222021763665
 50
147.45515310377539
 51
164.663659977186
1001
ACDBBLOCKREPETAG
1070
     1
1071
       16
1005
139671
  0
ARC
  5
139672
  8
OBJECT
 10
2085.7554349608731
 20
-3520.9999999999968
 30
0.0
 40
43.55353926885617
 50
165.6884523008477
 51
194.3115476991523
1001
ACDBBLOCKREPETAG
1070
     1
1071
       17
1005
139672
  0
ARC
  5
139673
  8
OBJECT
 10
2200.6872746716731
 20
-3467.5919005898891
 30
0.0
 40
170.6350503965856
 50
210.08050418664001
 51
222.55865540815699
1001
ACDBBLOCKREPETAG
1070
     1
1071
       18
1005
139673
  0
ARC
  5
139674
  8
OBJECT
 10
2118.8455987040511
 20
-3511.1172733046319
 30
0.0
 40
78.072222021763665
 50
195.33634002281391
 51
212.54484689622461
1001
ACDBBLOCKREPETAG
1070
     1
1071
       19
1005
139674
  0
POINT
  5
139675
  8
DOTS
 10
2000.0
 20
-3579.9999999999968
 30
0.0
1001
ACDBBLOCKREPETAG
1070
     1
1071
      186
1005
139675
  0
LINE
  5
139676
  8
DIM
 10
2150.0
 20
-3221.9999999999959
 30
0.0
 11
2228.479620594459
 21
-3221.9999999999959
 31
0.0
  0
LINE
  5
139677
  8
DIM
 10
2150.0
 20
-3127.9999999999959
 30
0.0
 11
2228.479620594459
 21
-3127.9999999999959
 31
0.0
  0
LINE
  5
139678
  8
DIM
 10
2218.479620594459
 20
-3201.9999999999959
 30
0.0
 11
2218.479620594459
 21
-3147.9999999999959
 31
0.0
  0
INSERT
  5
139679
  8
DIM
  2
_OPEN30
 10
2218.479620594459
 20
-3221.9999999999959
 30
0.0
 41
20.0
 42
20.0
 43
20.0
 50
270.0
  0
INSERT
  5
13967A
  8
DIM
  2
_OPEN30
 10
2218.479620594459
 20
-3127.9999999999959
 30
0.0
 41
20.0
 42
20.0
 43
20.0
 50
90.0
  0
INSERT
  5
13967B
  8
OBJECT
  2
*U73
 10
0.0
 20
0.0
 30
0.0
  0
LINE
  5
13967C
  8
DIM
 10
2150.0
 20
-3579.9999999999968
 30
0.0
 11
2226.8409284037339
 21
-3579.9999999999968
 31
0.0
  0
LINE
  5
13967D
  8
DIM
 10
2165.0
 20
-3535.9999999999968
 30
0.0
 11
2226.8409284037339
 21
-3535.9999999999968
 31
0.0
  0
LINE
  5
13967E
  8
DIM
 10
2216.840928403733
 20
-3599.9999999999968
 30
0.0
 11
2216.840928403733
 21
-3619.9999999999968
 31
0.0
  0
LINE
  5
13967F
  8
DIM
 10
2216.840928403733
 20
-3515.9999999999968
 30
0.0
 11
2216.840928403733
 21
-3495.9999999999968
 31
0.0
  0
LINE
  5
139680
  8
DIM
 10
2216.840928403733
 20
-3579.9999999999968
 30
0.0
 11
2216.840928403733
 21
-3535.9999999999968
 31
0.0
  0
INSERT
  5
139681
  8
DIM
  2
_OPEN30
 10
2216.840928403733
 20
-3579.9999999999968
 30
0.0
 41
20.0
 42
20.0
 43
20.0
 50
90.0
  0
INSERT
  5
139682
  8
DIM
  2
_OPEN30
 10
2216.840928403733
 20
-3535.9999999999968
 30
0.0
 41
20.0
 42
20.0
 43
20.0
 50
270.0
  0
INSERT
  5
139683
  8
OBJECT
  2
*U74
 10
0.0
 20
0.0
 30
0.0
  0
LINE
  5
139684
  8
DIM
 10
2000.0
 20
-3069.9999999999959
 30
0.0
 11
2000.0
 21
-3037.208121984444
 31
0.0
  0
LINE
  5
139685
  8
DIM
 10
2140.0
 20
-3117.9999999999959
 30
0.0
 11
2140.0
 21
-3037.208121984444
 31
0.0
  0
LINE
  5
139686
  8
DIM
 10
2020.0
 20
-3047.208121984444
 30
0.0
 11
2120.0
 21
-3047.208121984444
 31
0.0
  0
INSERT
  5
139687
  8
DIM
  2
_OPEN30
 10
2000.0
 20
-3047.208121984444
 30
0.0
 41
20.0
 42
20.0
 43
20.0
 50
180.0
  0
INSERT
  5
139688
  8
DIM
  2
_OPEN30
 10
2140.0
 20
-3047.208121984444
 30
0.0
 41
20.0
 42
20.0
 43
20.0
  0
INSERT
  5
139689
  8
OBJECT
  2
*U75
 10
0.0
 20
0.0
 30
0.0
  0
TEXT
  5
13968A
  8
SLIM
 10
2631.0
 20
-2952.50001604727
 30
0.0
 40
40.0
  1
C寸法
 41
0.75
  0
TEXT
  5
13968B
  8
SLIM
 10
2631.0
 20
-2882.50001604727
 30
0.0
 40
40.0
  1
B寸法
 41
0.75
  0
TEXT
  5
13968C
  8
SLIM
 10
2630.2857142857142
 20
-2812.50001604727
 30
0.0
 40
40.0
  1
A寸法
 41
0.75
  0
TEXT
  5
13968D
  8
SLIM
 10
3159.2857142857151
 20
-2952.50001604727
 30
0.0
 40
40.0
  1
150
 41
0.75
  0
TEXT
  5
13968E
  8
SLIM
 10
3029.2857142857151
 20
-2952.50001604727
 30
0.0
 40
40.0
  1
140
 41
0.75
  0
TEXT
  5
13968F
  8
SLIM
 10
2769.2857142857151
 20
-2952.50001604727
 30
0.0
 40
40.0
  1
140
 41
0.75
  0
TEXT
  5
139690
  8
SLIM
 10
2899.2857142857151
 20
-2952.50001604727
 30
0.0
 40
40.0
  1
140
 41
0.75
  0
TEXT
  5
139691
  8
SLIM
 10
3170.7142857142858
 20
-2882.50001604727
 30
0.0
 40
40.0
  1
72
 41
0.75
  0
TEXT
  5
139692
  8
SLIM
 10
3041.4285714285711
 20
-2882.50001604727
 30
0.0
 40
40.0
  1
59
 41
0.75
  0
TEXT
  5
139693
  8
SLIM
 10
2780.0
 20
-2882.50001604727
 30
0.0
 40
40.0
  1
44
 41
0.75
  0
TEXT
  5
139694
  8
SLIM
 10
2910.7142857142858
 20
-2882.50001604727
 30
0.0
 40
40.0
  1
52
 41
0.75
  0
TEXT
  5
139695
  8
SLIM
 10
2891.0
 20
-2687.50001604727
 30
0.0
 40
40.0
  1
横枝管サイズ
 41
0.75
  0
TEXT
  5
139696
  8
SLIM
 10
3136.2857142857151
 20
-2742.50001604727
 30
0.0
 40
30.0
  1
100（4）
 41
0.75
  0
TEXT
  5
139697
  8
SLIM
 10
3014.857142857144
 20
-2742.50001604727
 30
0.0
 40
30.0
  1
75（3）
 41
0.75
  0
TEXT
  5
139698
  8
SLIM
 10
2884.8571428571431
 20
-2742.50001604727
 30
0.0
 40
30.0
  1
65（2）
 41
0.75
  0
TEXT
  5
139699
  8
SLIM
 10
2757.0
 20
-2742.50001604727
 30
0.0
 40
30.0
  1
50（1）
 41
0.75
  0
TEXT
  5
13969A
  8
SLIM
 10
3159.2857142857151
 20
-2812.50001604727
 30
0.0
 40
40.0
  1
150
 41
0.75
  0
TEXT
  5
13969B
  8
SLIM
 10
3028.571428571428
 20
-2812.50001604727
 30
0.0
 40
40.0
  1
124
 41
0.75
  0
TEXT
  5
13969C
  8
SLIM
 10
2780.0
 20
-2812.50001604727
 30
0.0
 40
40.0
  1
94
 41
0.75
  0
TEXT
  5
13969D
  8
SLIM
 10
2902.1428571428569
 20
-2812.50001604727
 30
0.0
 40
40.0
  1
110
 41
0.75
  0
TEXT
  5
13969E
  8
SLIM
 10
1849.9999999999991
 20
-2712.5
 30
0.0
 40
75.0
  1
枝管サイズ毎の形状
 41
0.75
  0
LINE
  5
13969F
  8
OBJECT
 10
5150.0
 20
-3432.9999999999968
 30
0.0
 11
5143.0
 21
-3432.9999999999968
 31
0.0
1001
ACDBBLOCKREPETAG
1070
     1
1071
       64
1005
13969F
  0
LINE
  5
1396A0
  8
OBJECT
 10
5143.0
 20
-3432.9999999999968
 30
0.0
 11
5143.0
 21
-3579.9999999999968
 31
0.0
1001
ACDBBLOCKREPETAG
1070
     1
1071
       65
1005
1396A0
  0
LINE
  5
1396A1
  8
OBJECT
 10
5101.5
 20
-3435.9999999999968
 30
0.0
 11
5101.5
 21
-3579.9999999999968
 31
0.0
1001
ACDBBLOCKREPETAG
1070
     1
1071
       66
1005
1396A1
  0
LINE
  5
1396A2
  8
OBJECT
 10
5090.0
 20
-3442.4999999999968
 30
0.0
 11
5090.0
 21
-3573.4999999999968
 31
0.0
1001
ACDBBLOCKREPETAG
1070
     1
1071
       67
1005
1396A2
  0
LINE
  5
1396A3
  8
OBJECT
 10
5086.0
 20
-3514.5000000000041
 30
0.0
 11
5086.0
 21
-3579.9999999999968
 31
0.0
1001
ACDBBLOCKREPETAG
1070
     1
1071
       68
1005
1396A3
  0
LINE
  5
1396A4
  8
OBJECT
 10
5150.0
 20
-3579.9999999999968
 30
0.0
 11
5150.0
 21
-3432.9999999999968
 31
0.0
1001
ACDBBLOCKREPETAG
1070
     1
1071
       69
1005
1396A4
  0
LINE
  5
1396A5
  8
CENTER
 10
5165.0
 20
-3507.9999999999968
 30
0.0
 11
5070.4144144144157
 21
-3507.9999999999968
 31
0.0
1001
ACDBBLOCKREPETAG
1070
     1
1071
       70
1005
1396A5
  0
LINE
  5
1396A6
  8
OBJECT
 10
5083.0000000000045
 20
-3582.9999999999968
 30
0.0
 11
5080.0
 21
-3582.9999999999968
 31
0.0
1001
ACDBBLOCKREPETAG
1070
     1
1071
       71
1005
1396A6
  0
ARC
  5
1396A7
  8
OBJECT
 10
5091.8815171830656
 20
-3581.4555591801418
 30
0.0
 40
6.0
 50
60.52411099686767
 51
170.6927439126847
1001
ACDBBLOCKREPETAG
1070
     1
1071
       72
1005
1396A7
  0
ARC
  5
1396A8
  8
OBJECT
 10
5083.0
 20
-3579.9999999999968
 30
0.0
 40
3.0
 50
270.0
 51
350.69274391268482
1001
ACDBBLOCKREPETAG
1070
     1
1071
       73
1005
1396A8
  0
LINE
  5
1396A9
  8
OBJECT
 10
5081.0
 20
-3458.9999999999968
 30
0.0
 11
5080.0
 21
-3458.9999999999968
 31
0.0
1001
ACDBBLOCKREPETAG
1070
     1
1071
       74
1005
1396A9
  0
LINE
  5
1396AA
  8
OBJECT
 10
5150.0
 20
-3579.9999999999968
 30
0.0
 11
5101.5
 21
-3579.9999999999968
 31
0.0
1001
ACDBBLOCKREPETAG
1070
     1
1071
       75
1005
1396AA
  0
LINE
  5
1396AB
  8
OBJECT
 10
5101.5
 20
-3435.9999999999968
 30
0.0
 11
5090.0
 21
-3442.4999999999968
 31
0.0
1001
ACDBBLOCKREPETAG
1070
     1
1071
       76
1005
1396AB
  0
LINE
  5
1396AC
  8
OBJECT
 10
5143.0
 20
-3435.9999999999968
 30
0.0
 11
5101.5
 21
-3435.9999999999968
 31
0.0
1001
ACDBBLOCKREPETAG
1070
     1
1071
       77
1005
1396AC
  0
LINE
  5
1396AD
  8
OBJECT
 10
5086.0
 20
-3514.5000000000041
 30
0.0
 11
5081.0
 21
-3458.9999999999968
 31
0.0
1001
ACDBBLOCKREPETAG
1070
     1
1071
       78
1005
1396AD
  0
LINE
  5
1396AE
  8
OBJECT
 10
5090.0
 20
-3442.4999999999968
 30
0.0
 11
5081.0
 21
-3458.9999999999968
 31
0.0
1001
ACDBBLOCKREPETAG
1070
     1
1071
       79
1005
1396AE
  0
LINE
  5
1396AF
  8
OBJECT
 10
5101.5
 20
-3579.9999999999968
 30
0.0
 11
5094.8338607230708
 21
-3576.232182147819
 31
0.0
1001
ACDBBLOCKREPETAG
1070
     1
1071
       80
1005
1396AF
  0
LINE
  5
1396B0
  8
HIDDEN
 10
5098.0
 20
-3564.9999999999968
 30
0.0
 11
5098.0
 21
-3450.9999999999968
 31
0.0
1001
ACDBBLOCKREPETAG
1070
     1
1071
       81
1005
1396B0
  0
LINE
  5
1396B1
  8
OBJECT
 10
5150.0
 20
-3099.9999999999959
 30
0.0
 11
5143.0
 21
-3099.9999999999959
 31
0.0
1001
ACDBBLOCKREPETAG
1070
     1
1071
       67
1005
1396B1
  0
LINE
  5
1396B2
  8
OBJECT
 10
5143.0
 20
-3099.9999999999959
 30
0.0
 11
5143.0
 21
-3249.9999999999959
 31
0.0
1001
ACDBBLOCKREPETAG
1070
     1
1071
       68
1005
1396B2
  0
LINE
  5
1396B3
  8
OBJECT
 10
5101.5
 20
-3102.9999999999959
 30
0.0
 11
5101.5
 21
-3246.9999999999959
 31
0.0
1001
ACDBBLOCKREPETAG
1070
     1
1071
       69
1005
1396B3
  0
LINE
  5
1396B4
  8
OBJECT
 10
5090.0
 20
-3109.4999999999959
 30
0.0
 11
5090.0
 21
-3240.4999999999959
 31
0.0
1001
ACDBBLOCKREPETAG
1070
     1
1071
       70
1005
1396B4
  0
LINE
  5
1396B5
  8
OBJECT
 10
5143.0
 20
-3249.9999999999959
 30
0.0
 11
5150.0
 21
-3249.9999999999959
 31
0.0
1001
ACDBBLOCKREPETAG
1070
     1
1071
       71
1005
1396B5
  0
LINE
  5
1396B6
  8
OBJECT
 10
5150.0
 20
-3249.9999999999959
 30
0.0
 11
5150.0
 21
-3099.9999999999959
 31
0.0
1001
ACDBBLOCKREPETAG
1070
     1
1071
       72
1005
1396B6
  0
LINE
  5
1396B7
  8
HIDDEN
 10
5098.0
 20
-3231.9999999999959
 30
0.0
 11
5098.0
 21
-3117.9999999999959
 31
0.0
1001
ACDBBLOCKREPETAG
1070
     1
1071
       73
1005
1396B7
  0
LINE
  5
1396B8
  8
CENTER
 10
5165.0
 20
-3174.9999999999959
 30
0.0
 11
5080.0
 21
-3174.9999999999959
 31
0.0
1001
ACDBBLOCKREPETAG
1070
     1
1071
       74
1005
1396B8
  0
LINE
  5
1396B9
  8
OBJECT
 10
5086.0
 20
-3236.9999999999959
 30
0.0
 11
5080.0
 21
-3236.9999999999959
 31
0.0
1001
ACDBBLOCKREPETAG
1070
     1
1071
       75
1005
1396B9
  0
LINE
  5
1396BA
  8
OBJECT
 10
5143.0
 20
-3246.9999999999959
 30
0.0
 11
5101.5
 21
-3246.9999999999959
 31
0.0
1001
ACDBBLOCKREPETAG
1070
     1
1071
       76
1005
1396BA
  0
LINE
  5
1396BB
  8
OBJECT
 10
5101.5
 20
-3246.9999999999959
 30
0.0
 11
5090.0
 21
-3240.4999999999959
 31
0.0
1001
ACDBBLOCKREPETAG
1070
     1
1071
       77
1005
1396BB
  0
LINE
  5
1396BC
  8
OBJECT
 10
5090.0
 20
-3240.4999999999959
 30
0.0
 11
5086.0
 21
-3236.9999999999959
 31
0.0
1001
ACDBBLOCKREPETAG
1070
     1
1071
       78
1005
1396BC
  0
LINE
  5
1396BD
  8
OBJECT
 10
5101.5
 20
-3102.9999999999959
 30
0.0
 11
5090.0
 21
-3109.4999999999959
 31
0.0
1001
ACDBBLOCKREPETAG
1070
     1
1071
       79
1005
1396BD
  0
LINE
  5
1396BE
  8
OBJECT
 10
5090.0
 20
-3109.4999999999959
 30
0.0
 11
5086.0
 21
-3112.9999999999959
 31
0.0
1001
ACDBBLOCKREPETAG
1070
     1
1071
       80
1005
1396BE
  0
ARC
  5
1396BF
  8
OBJECT
 10
5467.9000000000005
 20
-3174.9999999999959
 30
0.0
 40
386.89999999999998
 50
170.77870136260421
 51
189.22129863739571
1001
ACDBBLOCKREPETAG
1070
     1
1071
       81
1005
1396BF
  0
LINE
  5
1396C0
  8
OBJECT
 10
5086.0
 20
-3112.9999999999959
 30
0.0
 11
5080.0
 21
-3112.9999999999959
 31
0.0
1001
ACDBBLOCKREPETAG
1070
     1
1071
       82
1005
1396C0
  0
LINE
  5
1396C1
  8
OBJECT
 10
5143.0
 20
-3102.9999999999959
 30
0.0
 11
5101.5
 21
-3102.9999999999959
 31
0.0
1001
ACDBBLOCKREPETAG
1070
     1
1071
       83
1005
1396C1
  0
TEXT
  5
1396C2
  8
SLIM
 10
4884.25
 20
-3697.4999999999959
 30
0.0
 40
35.0
  1
通常枝100（4）
 41
0.75
  0
LINE
  5
1396C3
  8
CENTER
 10
4477.0
 20
-3520.9999999999968
 30
0.0
 11
4323.0
 21
-3520.9999999999968
 31
0.0
1001
ACDBBLOCKREPETAG
1070
     1
1071
       17
1005
1396C3
  0
CIRCLE
  5
1396C4
  8
OBJECT
 10
4400.0
 20
-3520.9999999999968
 30
0.0
 40
41.5
1001
ACDBBLOCKREPETAG
1070
     1
1071
       19
1005
1396C4
  0
CIRCLE
  5
1396C5
  8
OBJECT
 10
4400.0
 20
-3520.9999999999968
 30
0.0
 40
54.0
1001
ACDBBLOCKREPETAG
1070
     1
1071
       20
1005
1396C5
  0
ARC
  5
1396C6
  8
OBJECT
 10
4400.0
 20
-3520.9999999999968
 30
0.0
 40
62.0
 50
287.89655112921122
 51
252.1034488707887
1001
ACDBBLOCKREPETAG
1070
     1
1071
       21
1005
1396C6
  0
LINE
  5
1396C7
  8
OBJECT
 10
4380.947441116743
 20
-3579.9999999999968
 30
0.0
 11
4419.052558883257
 21
-3579.9999999999968
 31
0.0
1001
ACDBBLOCKREPETAG
1070
     1
1071
       22
1005
1396C7
  0
LINE
  5
1396C8
  8
OBJECT
 10
4133.0
 20
-3458.9999999999968
 30
0.0
 11
4140.0
 21
-3458.9999999999968
 31
0.0
1001
ACDBBLOCKREPETAG
1070
     1
1071
       45
1005
1396C8
  0
LINE
  5
1396C9
  8
OBJECT
 10
4140.0
 20
-3458.9999999999968
 30
0.0
 11
4140.0
 21
-3579.9999999999968
 31
0.0
1001
ACDBBLOCKREPETAG
1070
     1
1071
       46
1005
1396C9
  0
LINE
  5
1396CA
  8
OBJECT
 10
4133.0
 20
-3579.9999999999968
 30
0.0
 11
4133.0
 21
-3458.9999999999968
 31
0.0
1001
ACDBBLOCKREPETAG
1070
     1
1071
       47
1005
1396CA
  0
LINE
  5
1396CB
  8
CENTER
 10
4155.0
 20
-3520.9999999999968
 30
0.0
 11
4071.0
 21
-3520.9999999999968
 31
0.0
1001
ACDBBLOCKREPETAG
1070
     1
1071
       48
1005
1396CB
  0
LINE
  5
1396CC
  8
OBJECT
 10
4133.0
 20
-3461.9999999999968
 30
0.0
 11
4097.0
 21
-3461.9999999999968
 31
0.0
1001
ACDBBLOCKREPETAG
1070
     1
1071
       49
1005
1396CC
  0
LINE
  5
1396CD
  8
OBJECT
 10
4097.0
 20
-3461.9999999999968
 30
0.0
 11
4097.0
 21
-3579.9999999999968
 31
0.0
1001
ACDBBLOCKREPETAG
1070
     1
1071
       50
1005
1396CD
  0
LINE
  5
1396CE
  8
OBJECT
 10
4097.0
 20
-3579.9999999999968
 30
0.0
 11
4140.0
 21
-3579.9999999999968
 31
0.0
1001
ACDBBLOCKREPETAG
1070
     1
1071
       51
1005
1396CE
  0
LINE
  5
1396CF
  8
OBJECT
 10
4093.0
 20
-3466.4999999999968
 30
0.0
 11
4086.0
 21
-3466.4999999999968
 31
0.0
1001
ACDBBLOCKREPETAG
1070
     1
1071
       52
1005
1396CF
  0
LINE
  5
1396D0
  8
OBJECT
 10
4086.0
 20
-3575.4999999999968
 30
0.0
 11
4093.0
 21
-3575.4999999999968
 31
0.0
1001
ACDBBLOCKREPETAG
1070
     1
1071
       53
1005
1396D0
  0
LINE
  5
1396D1
  8
OBJECT
 10
4093.0
 20
-3575.4999999999968
 30
0.0
 11
4093.0
 21
-3466.4999999999968
 31
0.0
1001
ACDBBLOCKREPETAG
1070
     1
1071
       54
1005
1396D1
  0
LINE
  5
1396D2
  8
OBJECT
 10
4097.0
 20
-3461.9999999999968
 30
0.0
 11
4093.0
 21
-3466.4999999999968
 31
0.0
1001
ACDBBLOCKREPETAG
1070
     1
1071
       55
1005
1396D2
  0
LINE
  5
1396D3
  8
OBJECT
 10
4097.0
 20
-3579.9999999999968
 30
0.0
 11
4093.0
 21
-3575.4999999999968
 31
0.0
1001
ACDBBLOCKREPETAG
1070
     1
1071
       56
1005
1396D3
  0
LINE
  5
1396D4
  8
OBJECT
 10
4083.0
 20
-3458.9999999999968
 30
0.0
 11
4080.0
 21
-3458.9999999999968
 31
0.0
1001
ACDBBLOCKREPETAG
1070
     1
1071
       57
1005
1396D4
  0
ARC
  5
1396D5
  8
OBJECT
 10
4083.0
 20
-3461.9999999999968
 30
0.0
 40
3.0
 50
0.0
 51
90.0
1001
ACDBBLOCKREPETAG
1070
     1
1071
       58
1005
1396D5
  0
LINE
  5
1396D6
  8
OBJECT
 10
4080.0
 20
-3582.9999999999968
 30
0.0
 11
4083.0
 21
-3582.9999999999968
 31
0.0
1001
ACDBBLOCKREPETAG
1070
     1
1071
       59
1005
1396D6
  0
ARC
  5
1396D7
  8
OBJECT
 10
4083.0
 20
-3579.9999999999968
 30
0.0
 40
3.0
 50
270.0
 51
0.0
1001
ACDBBLOCKREPETAG
1070
     1
1071
       60
1005
1396D7
  0
LINE
  5
1396D8
  8
OBJECT
 10
4086.0
 20
-3579.9999999999968
 30
0.0
 11
4086.0
 21
-3461.9999999999968
 31
0.0
1001
ACDBBLOCKREPETAG
1070
     1
1071
       61
1005
1396D8
  0
LINE
  5
1396D9
  8
HIDDEN
 10
4088.0
 20
-3476.4999999999968
 30
0.0
 11
4088.0
 21
-3565.4999999999968
 31
0.0
1001
ACDBBLOCKREPETAG
1070
     1
1071
       63
1005
1396D9
  0
LINE
  5
1396DA
  8
OBJECT
 10
4133.0
 20
-3112.9999999999959
 30
0.0
 11
4140.0
 21
-3112.9999999999959
 31
0.0
1001
ACDBBLOCKREPETAG
1070
     1
1071
       47
1005
1396DA
  0
LINE
  5
1396DB
  8
OBJECT
 10
4140.0
 20
-3112.9999999999959
 30
0.0
 11
4140.0
 21
-3236.9999999999959
 31
0.0
1001
ACDBBLOCKREPETAG
1070
     1
1071
       48
1005
1396DB
  0
LINE
  5
1396DC
  8
OBJECT
 10
4140.0
 20
-3236.9999999999959
 30
0.0
 11
4133.0
 21
-3236.9999999999959
 31
0.0
1001
ACDBBLOCKREPETAG
1070
     1
1071
       49
1005
1396DC
  0
LINE
  5
1396DD
  8
OBJECT
 10
4133.0
 20
-3236.9999999999959
 30
0.0
 11
4133.0
 21
-3112.9999999999959
 31
0.0
1001
ACDBBLOCKREPETAG
1070
     1
1071
       50
1005
1396DD
  0
LINE
  5
1396DE
  8
CENTER
 10
4155.0
 20
-3174.9999999999959
 30
0.0
 11
4080.0
 21
-3174.9999999999959
 31
0.0
1001
ACDBBLOCKREPETAG
1070
     1
1071
       51
1005
1396DE
  0
LINE
  5
1396DF
  8
OBJECT
 10
4133.0
 20
-3115.9999999999959
 30
0.0
 11
4097.0
 21
-3115.9999999999959
 31
0.0
1001
ACDBBLOCKREPETAG
1070
     1
1071
       52
1005
1396DF
  0
LINE
  5
1396E0
  8
OBJECT
 10
4097.0
 20
-3115.9999999999959
 30
0.0
 11
4097.0
 21
-3233.9999999999959
 31
0.0
1001
ACDBBLOCKREPETAG
1070
     1
1071
       53
1005
1396E0
  0
LINE
  5
1396E1
  8
OBJECT
 10
4097.0
 20
-3233.9999999999959
 30
0.0
 11
4133.0
 21
-3233.9999999999959
 31
0.0
1001
ACDBBLOCKREPETAG
1070
     1
1071
       54
1005
1396E1
  0
LINE
  5
1396E2
  8
OBJECT
 10
4093.0
 20
-3120.4999999999959
 30
0.0
 11
4086.0
 21
-3120.4999999999959
 31
0.0
1001
ACDBBLOCKREPETAG
1070
     1
1071
       55
1005
1396E2
  0
LINE
  5
1396E3
  8
OBJECT
 10
4086.0
 20
-3229.4999999999959
 30
0.0
 11
4093.0
 21
-3229.4999999999959
 31
0.0
1001
ACDBBLOCKREPETAG
1070
     1
1071
       56
1005
1396E3
  0
LINE
  5
1396E4
  8
OBJECT
 10
4093.0
 20
-3229.4999999999959
 30
0.0
 11
4093.0
 21
-3120.4999999999959
 31
0.0
1001
ACDBBLOCKREPETAG
1070
     1
1071
       57
1005
1396E4
  0
LINE
  5
1396E5
  8
OBJECT
 10
4097.0
 20
-3115.9999999999959
 30
0.0
 11
4093.0
 21
-3120.4999999999959
 31
0.0
1001
ACDBBLOCKREPETAG
1070
     1
1071
       58
1005
1396E5
  0
LINE
  5
1396E6
  8
OBJECT
 10
4097.0
 20
-3233.9999999999959
 30
0.0
 11
4093.0
 21
-3229.4999999999959
 31
0.0
1001
ACDBBLOCKREPETAG
1070
     1
1071
       59
1005
1396E6
  0
LINE
  5
1396E7
  8
OBJECT
 10
4083.0
 20
-3112.9999999999959
 30
0.0
 11
4080.0
 21
-3112.9999999999959
 31
0.0
1001
ACDBBLOCKREPETAG
1070
     1
1071
       60
1005
1396E7
  0
ARC
  5
1396E8
  8
OBJECT
 10
4083.0
 20
-3115.9999999999959
 30
0.0
 40
3.0
 50
0.0
 51
90.0
1001
ACDBBLOCKREPETAG
1070
     1
1071
       61
1005
1396E8
  0
LINE
  5
1396E9
  8
OBJECT
 10
4080.0
 20
-3236.9999999999959
 30
0.0
 11
4083.0
 21
-3236.9999999999959
 31
0.0
1001
ACDBBLOCKREPETAG
1070
     1
1071
       62
1005
1396E9
  0
ARC
  5
1396EA
  8
OBJECT
 10
4083.0
 20
-3233.9999999999959
 30
0.0
 40
3.0
 50
270.0
 51
0.0
1001
ACDBBLOCKREPETAG
1070
     1
1071
       63
1005
1396EA
  0
LINE
  5
1396EB
  8
OBJECT
 10
4086.0
 20
-3233.9999999999959
 30
0.0
 11
4086.0
 21
-3115.9999999999959
 31
0.0
1001
ACDBBLOCKREPETAG
1070
     1
1071
       64
1005
1396EB
  0
LINE
  5
1396EC
  8
HIDDEN
 10
4088.0
 20
-3130.4999999999959
 30
0.0
 11
4088.0
 21
-3219.4999999999959
 31
0.0
1001
ACDBBLOCKREPETAG
1070
     1
1071
       65
1005
1396EC
  0
TEXT
  5
1396ED
  8
SLIM
 10
3894.25
 20
-3697.4999999999959
 30
0.0
 40
35.0
  1
通常枝75（3）
 41
0.75
  0
CIRCLE
  5
1396EE
  8
OBJECT
 10
3400.0
 20
-3527.9999999999968
 30
0.0
 40
35.5
1001
ACDBBLOCKREPETAG
1070
     1
1071
       10
1005
1396EE
  0
CIRCLE
  5
1396EF
  8
OBJECT
 10
3400.0
 20
-3520.9999999999968
 30
0.0
 40
62.0
1001
ACDBBLOCKREPETAG
1070
     1
1071
       11
1005
1396EF
  0
LINE
  5
1396F0
  8
CENTER
 10
3330.0
 20
-3527.9999999999968
 30
0.0
 11
3470.0
 21
-3527.9999999999968
 31
0.0
1001
ACDBBLOCKREPETAG
1070
     1
1071
       12
1005
1396F0
  0
CIRCLE
  5
1396F1
  8
OBJECT
 10
3400.0
 20
-3527.9999999999968
 30
0.0
 40
47.0
1001
ACDBBLOCKREPETAG
1070
     1
1071
       14
1005
1396F1
  0
ARC
  5
1396F2
  8
OBJECT
 10
3400.0
 20
-3527.9999999999968
 30
0.0
 40
55.0
 50
289.01126526011359
 51
250.98873473988641
1001
ACDBBLOCKREPETAG
1070
     1
1071
       15
1005
1396F2
  0
LINE
  5
1396F3
  8
OBJECT
 10
3382.0835271328328
 20
-3579.9999999999968
 30
0.0
 11
3417.9164728671681
 21
-3579.9999999999968
 31
0.0
1001
ACDBBLOCKREPETAG
1070
     1
1071
       16
1005
1396F3
  0
LINE
  5
1396F4
  8
OBJECT
 10
3133.0
 20
-3472.9999999999968
 30
0.0
 11
3140.0
 21
-3472.9999999999968
 31
0.0
1001
ACDBBLOCKREPETAG
1070
     1
1071
       26
1005
1396F4
  0
LINE
  5
1396F5
  8
OBJECT
 10
3140.0
 20
-3472.9999999999968
 30
0.0
 11
3140.0
 21
-3579.9999999999968
 31
0.0
1001
ACDBBLOCKREPETAG
1070
     1
1071
       27
1005
1396F5
  0
LINE
  5
1396F6
  8
OBJECT
 10
3133.0
 20
-3579.9999999999968
 30
0.0
 11
3133.0
 21
-3472.9999999999968
 31
0.0
1001
ACDBBLOCKREPETAG
1070
     1
1071
       28
1005
1396F6
  0
LINE
  5
1396F7
  8
CENTER
 10
3155.0
 20
-3527.9999999999968
 30
0.0
 11
3071.0
 21
-3527.9999999999968
 31
0.0
1001
ACDBBLOCKREPETAG
1070
     1
1071
       29
1005
1396F7
  0
LINE
  5
1396F8
  8
OBJECT
 10
3133.0
 20
-3475.9999999999968
 30
0.0
 11
3097.0
 21
-3475.9999999999968
 31
0.0
1001
ACDBBLOCKREPETAG
1070
     1
1071
       30
1005
1396F8
  0
LINE
  5
1396F9
  8
OBJECT
 10
3097.0
 20
-3475.9999999999968
 30
0.0
 11
3097.0
 21
-3579.9999999999968
 31
0.0
1001
ACDBBLOCKREPETAG
1070
     1
1071
       31
1005
1396F9
  0
LINE
  5
1396FA
  8
OBJECT
 10
3097.0
 20
-3579.9999999999968
 30
0.0
 11
3140.0
 21
-3579.9999999999968
 31
0.0
1001
ACDBBLOCKREPETAG
1070
     1
1071
       32
1005
1396FA
  0
LINE
  5
1396FB
  8
OBJECT
 10
3093.0
 20
-3480.4999999999968
 30
0.0
 11
3086.0
 21
-3480.4999999999968
 31
0.0
1001
ACDBBLOCKREPETAG
1070
     1
1071
       33
1005
1396FB
  0
LINE
  5
1396FC
  8
OBJECT
 10
3086.0
 20
-3575.4999999999968
 30
0.0
 11
3093.0
 21
-3575.4999999999968
 31
0.0
1001
ACDBBLOCKREPETAG
1070
     1
1071
       34
1005
1396FC
  0
LINE
  5
1396FD
  8
OBJECT
 10
3093.0
 20
-3575.4999999999968
 30
0.0
 11
3093.0
 21
-3480.4999999999968
 31
0.0
1001
ACDBBLOCKREPETAG
1070
     1
1071
       35
1005
1396FD
  0
LINE
  5
1396FE
  8
OBJECT
 10
3097.0
 20
-3475.9999999999968
 30
0.0
 11
3093.0
 21
-3480.4999999999968
 31
0.0
1001
ACDBBLOCKREPETAG
1070
     1
1071
       36
1005
1396FE
  0
LINE
  5
1396FF
  8
OBJECT
 10
3097.0
 20
-3579.9999999999968
 30
0.0
 11
3093.0
 21
-3575.4999999999968
 31
0.0
1001
ACDBBLOCKREPETAG
1070
     1
1071
       37
1005
1396FF
  0
LINE
  5
139700
  8
OBJECT
 10
3083.0
 20
-3458.9999999999968
 30
0.0
 11
3080.0
 21
-3458.9999999999968
 31
0.0
1001
ACDBBLOCKREPETAG
1070
     1
1071
       38
1005
139700
  0
ARC
  5
139701
  8
OBJECT
 10
3083.0
 20
-3461.9999999999968
 30
0.0
 40
3.0
 50
0.0
 51
90.0
1001
ACDBBLOCKREPETAG
1070
     1
1071
       39
1005
139701
  0
LINE
  5
139702
  8
OBJECT
 10
3080.0
 20
-3582.9999999999968
 30
0.0
 11
3083.0
 21
-3582.9999999999968
 31
0.0
1001
ACDBBLOCKREPETAG
1070
     1
1071
       40
1005
139702
  0
ARC
  5
139703
  8
OBJECT
 10
3083.0
 20
-3579.9999999999968
 30
0.0
 40
3.0
 50
270.0
 51
0.0
1001
ACDBBLOCKREPETAG
1070
     1
1071
       41
1005
139703
  0
LINE
  5
139704
  8
OBJECT
 10
3086.0
 20
-3579.9999999999968
 30
0.0
 11
3086.0
 21
-3461.9999999999968
 31
0.0
1001
ACDBBLOCKREPETAG
1070
     1
1071
       42
1005
139704
  0
LINE
  5
139705
  8
HIDDEN
 10
3088.0
 20
-3489.9999999999968
 30
0.0
 11
3088.0
 21
-3565.9999999999968
 31
0.0
1001
ACDBBLOCKREPETAG
1070
     1
1071
       43
1005
139705
  0
LINE
  5
139706
  8
OBJECT
 10
3133.0
 20
-3119.9999999999959
 30
0.0
 11
3140.0
 21
-3119.9999999999959
 31
0.0
1001
ACDBBLOCKREPETAG
1070
     1
1071
       27
1005
139706
  0
LINE
  5
139707
  8
OBJECT
 10
3140.0
 20
-3119.9999999999959
 30
0.0
 11
3140.0
 21
-3229.9999999999959
 31
0.0
1001
ACDBBLOCKREPETAG
1070
     1
1071
       28
1005
139707
  0
LINE
  5
139708
  8
OBJECT
 10
3140.0
 20
-3229.9999999999959
 30
0.0
 11
3133.0
 21
-3229.9999999999959
 31
0.0
1001
ACDBBLOCKREPETAG
1070
     1
1071
       29
1005
139708
  0
LINE
  5
139709
  8
OBJECT
 10
3133.0
 20
-3229.9999999999959
 30
0.0
 11
3133.0
 21
-3119.9999999999959
 31
0.0
1001
ACDBBLOCKREPETAG
1070
     1
1071
       30
1005
139709
  0
LINE
  5
13970A
  8
CENTER
 10
3155.0
 20
-3174.9999999999959
 30
0.0
 11
3080.0
 21
-3174.9999999999959
 31
0.0
1001
ACDBBLOCKREPETAG
1070
     1
1071
       31
1005
13970A
  0
LINE
  5
13970B
  8
OBJECT
 10
3133.0
 20
-3122.9999999999959
 30
0.0
 11
3097.0
 21
-3122.9999999999959
 31
0.0
1001
ACDBBLOCKREPETAG
1070
     1
1071
       32
1005
13970B
  0
LINE
  5
13970C
  8
OBJECT
 10
3097.0
 20
-3122.9999999999959
 30
0.0
 11
3097.0
 21
-3226.9999999999959
 31
0.0
1001
ACDBBLOCKREPETAG
1070
     1
1071
       33
1005
13970C
  0
LINE
  5
13970D
  8
OBJECT
 10
3097.0
 20
-3226.9999999999959
 30
0.0
 11
3133.0
 21
-3226.9999999999959
 31
0.0
1001
ACDBBLOCKREPETAG
1070
     1
1071
       34
1005
13970D
  0
LINE
  5
13970E
  8
OBJECT
 10
3093.0
 20
-3127.4999999999959
 30
0.0
 11
3086.0
 21
-3127.4999999999959
 31
0.0
1001
ACDBBLOCKREPETAG
1070
     1
1071
       35
1005
13970E
  0
LINE
  5
13970F
  8
OBJECT
 10
3086.0
 20
-3222.4999999999959
 30
0.0
 11
3093.0
 21
-3222.4999999999959
 31
0.0
1001
ACDBBLOCKREPETAG
1070
     1
1071
       36
1005
13970F
  0
LINE
  5
139710
  8
OBJECT
 10
3093.0
 20
-3222.4999999999959
 30
0.0
 11
3093.0
 21
-3127.4999999999959
 31
0.0
1001
ACDBBLOCKREPETAG
1070
     1
1071
       37
1005
139710
  0
LINE
  5
139711
  8
OBJECT
 10
3097.0
 20
-3122.9999999999959
 30
0.0
 11
3093.0
 21
-3127.4999999999959
 31
0.0
1001
ACDBBLOCKREPETAG
1070
     1
1071
       38
1005
139711
  0
LINE
  5
139712
  8
OBJECT
 10
3097.0
 20
-3226.9999999999959
 30
0.0
 11
3093.0
 21
-3222.4999999999959
 31
0.0
1001
ACDBBLOCKREPETAG
1070
     1
1071
       39
1005
139712
  0
LINE
  5
139713
  8
OBJECT
 10
3083.0
 20
-3112.9999999999959
 30
0.0
 11
3080.0
 21
-3112.9999999999959
 31
0.0
1001
ACDBBLOCKREPETAG
1070
     1
1071
       40
1005
139713
  0
ARC
  5
139714
  8
OBJECT
 10
3083.0
 20
-3115.9999999999959
 30
0.0
 40
3.0
 50
0.0
 51
90.0
1001
ACDBBLOCKREPETAG
1070
     1
1071
       41
1005
139714
  0
LINE
  5
139715
  8
OBJECT
 10
3080.0
 20
-3236.9999999999959
 30
0.0
 11
3083.0
 21
-3236.9999999999959
 31
0.0
1001
ACDBBLOCKREPETAG
1070
     1
1071
       42
1005
139715
  0
ARC
  5
139716
  8
OBJECT
 10
3083.0
 20
-3233.9999999999959
 30
0.0
 40
3.0
 50
270.0
 51
0.0
1001
ACDBBLOCKREPETAG
1070
     1
1071
       43
1005
139716
  0
LINE
  5
139717
  8
OBJECT
 10
3086.0
 20
-3233.9999999999959
 30
0.0
 11
3086.0
 21
-3115.9999999999959
 31
0.0
1001
ACDBBLOCKREPETAG
1070
     1
1071
       44
1005
139717
  0
LINE
  5
139718
  8
HIDDEN
 10
3088.0
 20
-3136.9999999999959
 30
0.0
 11
3088.0
 21
-3212.9999999999959
 31
0.0
1001
ACDBBLOCKREPETAG
1070
     1
1071
       45
1005
139718
  0
TEXT
  5
139719
  8
SLIM
 10
2894.25
 20
-3697.4999999999959
 30
0.0
 40
35.0
  1
通常枝65（2）
 41
0.75
  0
CIRCLE
  5
13971A
  8
OBJECT
 10
2400.0
 20
-3520.9999999999968
 30
0.0
 40
62.0
1001
ACDBBLOCKREPETAG
1070
     1
1071
        3
1005
13971A
  0
LINE
  5
13971B
  8
CENTER
 10
2338.0
 20
-3535.9999999999968
 30
0.0
 11
2462.0
 21
-3535.9999999999968
 31
0.0
1001
ACDBBLOCKREPETAG
1070
     1
1071
        4
1005
13971B
  0
CIRCLE
  5
13971C
  8
OBJECT
 10
2400.0
 20
-3535.9999999999968
 30
0.0
 40
28.0
1001
ACDBBLOCKREPETAG
1070
     1
1071
        6
1005
13971C
  0
CIRCLE
  5
13971D
  8
OBJECT
 10
2400.0
 20
-3535.9999999999968
 30
0.0
 40
39.0
1001
ACDBBLOCKREPETAG
1070
     1
1071
        7
1005
13971D
  0
ARC
  5
13971E
  8
OBJECT
 10
2400.0
 20
-3535.9999999999968
 30
0.0
 40
47.0
 50
290.58196921144412
 51
249.41803078855591
1001
ACDBBLOCKREPETAG
1070
     1
1071
        8
1005
13971E
  0
LINE
  5
13971F
  8
OBJECT
 10
2383.4772883581431
 20
-3579.9999999999968
 30
0.0
 11
2416.5227116418569
 21
-3579.9999999999968
 31
0.0
1001
ACDBBLOCKREPETAG
1070
     1
1071
        9
1005
13971F
  0
LINE
  5
139720
  8
OBJECT
 10
2133.0
 20
-3488.9999999999968
 30
0.0
 11
2140.0
 21
-3488.9999999999968
 31
0.0
1001
ACDBBLOCKREPETAG
1070
     1
1071
        7
1005
139720
  0
LINE
  5
139721
  8
OBJECT
 10
2140.0
 20
-3488.9999999999968
 30
0.0
 11
2140.0
 21
-3579.9999999999968
 31
0.0
1001
ACDBBLOCKREPETAG
1070
     1
1071
        8
1005
139721
  0
LINE
  5
139722
  8
OBJECT
 10
2133.0
 20
-3579.9999999999968
 30
0.0
 11
2133.0
 21
-3488.9999999999968
 31
0.0
1001
ACDBBLOCKREPETAG
1070
     1
1071
        9
1005
139722
  0
LINE
  5
139723
  8
CENTER
 10
2155.0
 20
-3535.9999999999968
 30
0.0
 11
2071.0
 21
-3535.9999999999968
 31
0.0
1001
ACDBBLOCKREPETAG
1070
     1
1071
       10
1005
139723
  0
LINE
  5
139724
  8
OBJECT
 10
2133.0
 20
-3491.9999999999968
 30
0.0
 11
2097.0
 21
-3491.9999999999968
 31
0.0
1001
ACDBBLOCKREPETAG
1070
     1
1071
       11
1005
139724
  0
LINE
  5
139725
  8
OBJECT
 10
2097.0
 20
-3491.9999999999968
 30
0.0
 11
2097.0
 21
-3579.9999999999968
 31
0.0
1001
ACDBBLOCKREPETAG
1070
     1
1071
       12
1005
139725
  0
LINE
  5
139726
  8
OBJECT
 10
2097.0
 20
-3579.9999999999968
 30
0.0
 11
2140.0
 21
-3579.9999999999968
 31
0.0
1001
ACDBBLOCKREPETAG
1070
     1
1071
       13
1005
139726
  0
LINE
  5
139727
  8
OBJECT
 10
2093.0
 20
-3496.4999999999968
 30
0.0
 11
2086.0
 21
-3496.4999999999968
 31
0.0
1001
ACDBBLOCKREPETAG
1070
     1
1071
       14
1005
139727
  0
LINE
  5
139728
  8
OBJECT
 10
2086.0
 20
-3575.4999999999968
 30
0.0
 11
2093.0
 21
-3575.4999999999968
 31
0.0
1001
ACDBBLOCKREPETAG
1070
     1
1071
       15
1005
139728
  0
LINE
  5
139729
  8
OBJECT
 10
2093.0
 20
-3575.4999999999968
 30
0.0
 11
2093.0
 21
-3496.4999999999968
 31
0.0
1001
ACDBBLOCKREPETAG
1070
     1
1071
       16
1005
139729
  0
LINE
  5
13972A
  8
OBJECT
 10
2097.0
 20
-3491.9999999999968
 30
0.0
 11
2093.0
 21
-3496.4999999999968
 31
0.0
1001
ACDBBLOCKREPETAG
1070
     1
1071
       17
1005
13972A
  0
LINE
  5
13972B
  8
OBJECT
 10
2097.0
 20
-3579.9999999999968
 30
0.0
 11
2093.0
 21
-3575.4999999999968
 31
0.0
1001
ACDBBLOCKREPETAG
1070
     1
1071
       18
1005
13972B
  0
LINE
  5
13972C
  8
OBJECT
 10
2083.0
 20
-3458.9999999999968
 30
0.0
 11
2080.0
 21
-3458.9999999999968
 31
0.0
1001
ACDBBLOCKREPETAG
1070
     1
1071
       19
1005
13972C
  0
ARC
  5
13972D
  8
OBJECT
 10
2083.0
 20
-3461.9999999999968
 30
0.0
 40
3.0
 50
0.0
 51
90.0
1001
ACDBBLOCKREPETAG
1070
     1
1071
       20
1005
13972D
  0
LINE
  5
13972E
  8
OBJECT
 10
2080.0
 20
-3582.9999999999968
 30
0.0
 11
2083.0
 21
-3582.9999999999968
 31
0.0
1001
ACDBBLOCKREPETAG
1070
     1
1071
       21
1005
13972E
  0
ARC
  5
13972F
  8
OBJECT
 10
2083.0
 20
-3579.9999999999968
 30
0.0
 40
3.0
 50
270.0
 51
0.0
1001
ACDBBLOCKREPETAG
1070
     1
1071
       22
1005
13972F
  0
LINE
  5
139730
  8
OBJECT
 10
2086.0
 20
-3579.9999999999968
 30
0.0
 11
2086.0
 21
-3461.9999999999968
 31
0.0
1001
ACDBBLOCKREPETAG
1070
     1
1071
       23
1005
139730
  0
LINE
  5
139731
  8
HIDDEN
 10
2088.0
 20
-3505.9999999999968
 30
0.0
 11
2088.0
 21
-3565.9999999999968
 31
0.0
1001
ACDBBLOCKREPETAG
1070
     1
1071
       24
1005
139731
  0
LINE
  5
139732
  8
OBJECT
 10
2133.0
 20
-3127.9999999999959
 30
0.0
 11
2140.0
 21
-3127.9999999999959
 31
0.0
1001
ACDBBLOCKREPETAG
1070
     1
1071
        7
1005
139732
  0
LINE
  5
139733
  8
OBJECT
 10
2140.0
 20
-3127.9999999999959
 30
0.0
 11
2140.0
 21
-3221.9999999999959
 31
0.0
1001
ACDBBLOCKREPETAG
1070
     1
1071
        8
1005
139733
  0
LINE
  5
139734
  8
OBJECT
 10
2140.0
 20
-3221.9999999999959
 30
0.0
 11
2133.0
 21
-3221.9999999999959
 31
0.0
1001
ACDBBLOCKREPETAG
1070
     1
1071
        9
1005
139734
  0
LINE
  5
139735
  8
OBJECT
 10
2133.0
 20
-3221.9999999999959
 30
0.0
 11
2133.0
 21
-3127.9999999999959
 31
0.0
1001
ACDBBLOCKREPETAG
1070
     1
1071
       10
1005
139735
  0
LINE
  5
139736
  8
CENTER
 10
2155.0
 20
-3174.9999999999959
 30
0.0
 11
2080.0
 21
-3174.9999999999959
 31
0.0
1001
ACDBBLOCKREPETAG
1070
     1
1071
       11
1005
139736
  0
LINE
  5
139737
  8
OBJECT
 10
2133.0
 20
-3130.9999999999959
 30
0.0
 11
2097.0
 21
-3130.9999999999959
 31
0.0
1001
ACDBBLOCKREPETAG
1070
     1
1071
       12
1005
139737
  0
LINE
  5
139738
  8
OBJECT
 10
2097.0
 20
-3130.9999999999959
 30
0.0
 11
2097.0
 21
-3218.9999999999959
 31
0.0
1001
ACDBBLOCKREPETAG
1070
     1
1071
       13
1005
139738
  0
LINE
  5
139739
  8
OBJECT
 10
2097.0
 20
-3218.9999999999959
 30
0.0
 11
2133.0
 21
-3218.9999999999959
 31
0.0
1001
ACDBBLOCKREPETAG
1070
     1
1071
       14
1005
139739
  0
LINE
  5
13973A
  8
OBJECT
 10
2093.0
 20
-3135.4999999999959
 30
0.0
 11
2086.0
 21
-3135.4999999999959
 31
0.0
1001
ACDBBLOCKREPETAG
1070
     1
1071
       15
1005
13973A
  0
LINE
  5
13973B
  8
OBJECT
 10
2086.0
 20
-3214.4999999999959
 30
0.0
 11
2093.0
 21
-3214.4999999999959
 31
0.0
1001
ACDBBLOCKREPETAG
1070
     1
1071
       16
1005
13973B
  0
LINE
  5
13973C
  8
OBJECT
 10
2093.0
 20
-3214.4999999999959
 30
0.0
 11
2093.0
 21
-3135.4999999999959
 31
0.0
1001
ACDBBLOCKREPETAG
1070
     1
1071
       17
1005
13973C
  0
LINE
  5
13973D
  8
OBJECT
 10
2097.0
 20
-3130.9999999999959
 30
0.0
 11
2093.0
 21
-3135.4999999999959
 31
0.0
1001
ACDBBLOCKREPETAG
1070
     1
1071
       18
1005
13973D
  0
LINE
  5
13973E
  8
OBJECT
 10
2097.0
 20
-3218.9999999999959
 30
0.0
 11
2093.0
 21
-3214.4999999999959
 31
0.0
1001
ACDBBLOCKREPETAG
1070
     1
1071
       19
1005
13973E
  0
LINE
  5
13973F
  8
OBJECT
 10
2083.0
 20
-3112.9999999999959
 30
0.0
 11
2080.0
 21
-3112.9999999999959
 31
0.0
1001
ACDBBLOCKREPETAG
1070
     1
1071
       20
1005
13973F
  0
ARC
  5
139740
  8
OBJECT
 10
2083.0
 20
-3115.9999999999959
 30
0.0
 40
3.0
 50
0.0
 51
90.0
1001
ACDBBLOCKREPETAG
1070
     1
1071
       21
1005
139740
  0
LINE
  5
139741
  8
OBJECT
 10
2080.0
 20
-3236.9999999999959
 30
0.0
 11
2083.0
 21
-3236.9999999999959
 31
0.0
1001
ACDBBLOCKREPETAG
1070
     1
1071
       22
1005
139741
  0
ARC
  5
139742
  8
OBJECT
 10
2083.0
 20
-3233.9999999999959
 30
0.0
 40
3.0
 50
270.0
 51
0.0
1001
ACDBBLOCKREPETAG
1070
     1
1071
       23
1005
139742
  0
LINE
  5
139743
  8
OBJECT
 10
2086.0
 20
-3233.9999999999959
 30
0.0
 11
2086.0
 21
-3115.9999999999959
 31
0.0
1001
ACDBBLOCKREPETAG
1070
     1
1071
       24
1005
139743
  0
LINE
  5
139744
  8
HIDDEN
 10
2088.0
 20
-3144.9999999999959
 30
0.0
 11
2088.0
 21
-3204.9999999999959
 31
0.0
1001
ACDBBLOCKREPETAG
1070
     1
1071
       25
1005
139744
  0
TEXT
  5
139745
  8
SLIM
 10
1896.75
 20
-3697.4999999999959
 30
0.0
 40
35.0
  1
通常枝50（1）
 41
0.75
  0
LINE
  5
139746
  8
SLIM
 10
3914.9999999999941
 20
-765.19743878931376
 30
0.0
 11
3925.1974387893092
 21
-754.99999999999875
 31
0.0
1001
ACDBBLOCKREPETAG
1070
     1
1071
        0
1005
0
1001
ACAD
1010
0.0
1020
0.0
1030
0.0
  0
LINE
  5
139747
  8
SLIM
 10
3914.999999999995
 20
-783.15795103145035
 30
0.0
 11
3943.1579510314468
 21
-754.99999999999875
 31
0.0
1001
ACAD
1010
0.0
1020
0.0
1030
0.0
1001
ACDBBLOCKREPETAG
1070
     1
1071
       14
1005
139747
  0
LINE
  5
139748
  8
SLIM
 10
3915.1454972543161
 20
-800.97296601926837
 30
0.0
 11
3961.1184632735849
 21
-754.99999999999875
 31
0.0
1001
ACAD
1010
0.0
1020
0.0
1030
0.0
1001
ACDBBLOCKREPETAG
1070
     1
1071
       15
1005
139748
  0
LINE
  5
139749
  8
SLIM
 10
3917.104627495245
 20
-816.97434802047826
 30
0.0
 11
3979.0789755157239
 21
-754.99999999999875
 31
0.0
1001
ACAD
1010
0.0
1020
0.0
1030
0.0
1001
ACDBBLOCKREPETAG
1070
     1
1071
       16
1005
139749
  0
LINE
  5
13974A
  8
SLIM
 10
3919.0637577361722
 20
-832.97573002168861
 30
0.0
 11
3997.0394877578619
 21
-754.99999999999875
 31
0.0
1001
ACAD
1010
0.0
1020
0.0
1030
0.0
1001
ACDBBLOCKREPETAG
1070
     1
1071
       17
1005
13974A
  0
LINE
  5
13974B
  8
SLIM
 10
3920.0
 20
-849.99999999999875
 30
0.0
 11
4015.0
 21
-754.99999999999875
 31
0.0
1001
ACAD
1010
0.0
1020
0.0
1030
0.0
1001
ACDBBLOCKREPETAG
1070
     1
1071
       18
1005
13974B
  0
LINE
  5
13974C
  8
SLIM
 10
3920.0
 20
-867.96051224213716
 30
0.0
 11
4032.9605122421372
 21
-754.99999999999875
 31
0.0
1001
ACAD
1010
0.0
1020
0.0
1030
0.0
1001
ACDBBLOCKREPETAG
1070
     1
1071
       19
1005
13974C
  0
LINE
  5
13974D
  8
SLIM
 10
3920.0
 20
-885.92102448427534
 30
0.0
 11
4050.921024484277
 21
-754.99999999999875
 31
0.0
1001
ACAD
1010
0.0
1020
0.0
1030
0.0
1001
ACDBBLOCKREPETAG
1070
     1
1071
       20
1005
13974D
  0
LINE
  5
13974E
  8
SLIM
 10
3920.0
 20
-903.88153672641363
 30
0.0
 11
4068.8815367264142
 21
-754.99999999999875
 31
0.0
1001
ACAD
1010
0.0
1020
0.0
1030
0.0
1001
ACDBBLOCKREPETAG
1070
     1
1071
       21
1005
13974E
  0
LINE
  5
13974F
  8
SLIM
 10
3920.0
 20
-921.84204896855181
 30
0.0
 11
4085.0000000000068
 21
-756.8420489685451
 31
0.0
1001
ACAD
1010
0.0
1020
0.0
1030
0.0
1001
ACDBBLOCKREPETAG
1070
     1
1071
       22
1005
13974F
  0
LINE
  5
139750
  8
SLIM
 10
3920.0
 20
-939.80256121069044
 30
0.0
 11
4085.0000000000059
 21
-774.80256121068464
 31
0.0
1001
ACAD
1010
0.0
1020
0.0
1030
0.0
1001
ACDBBLOCKREPETAG
1070
     1
1071
       23
1005
139750
  0
LINE
  5
139751
  8
SLIM
 10
3920.0
 20
-957.76307345282862
 30
0.0
 11
4085.0000000000041
 21
-792.76307345282453
 31
0.0
1001
ACAD
1010
0.0
1020
0.0
1030
0.0
1001
ACDBBLOCKREPETAG
1070
     1
1071
       24
1005
139751
  0
LINE
  5
139752
  8
SLIM
 10
3930.0
 20
-965.72358569496657
 30
0.0
 11
3930.7235856949678
 21
-964.99999999999875
 31
0.0
1001
ACAD
1010
0.0
1020
0.0
1030
0.0
1001
ACDBBLOCKREPETAG
1070
     1
1071
       25
1005
139752
  0
LINE
  5
139753
  8
SLIM
 10
3930.7235856949678
 20
-964.99999999999875
 30
0.0
 11
4083.4738280308079
 21
-812.24975766415855
 31
0.0
1001
ACAD
1010
0.0
1020
0.0
1030
0.0
1001
ACDBBLOCKREPETAG
1070
     1
1071
       26
1005
139753
  0
LINE
  5
139754
  8
SLIM
 10
3930.0
 20
-983.68409793710521
 30
0.0
 11
3948.6840979371068
 21
-964.99999999999875
 31
0.0
1001
ACAD
1010
0.0
1020
0.0
1030
0.0
1001
ACDBBLOCKREPETAG
1070
     1
1071
       27
1005
139754
  0
LINE
  5
139755
  8
SLIM
 10
3948.6840979371068
 20
-964.99999999999875
 30
0.0
 11
4080.9680345671368
 21
-832.71606336996786
 31
0.0
1001
ACAD
1010
0.0
1020
0.0
1030
0.0
1001
ACDBBLOCKREPETAG
1070
     1
1071
       28
1005
139755
  0
LINE
  5
139756
  8
SLIM
 10
3946.6446101792449
 20
-984.99999999999875
 30
0.0
 11
3966.6446101792449
 21
-964.99999999999875
 31
0.0
1001
ACAD
1010
0.0
1020
0.0
1030
0.0
1001
ACDBBLOCKREPETAG
1070
     1
1071
       29
1005
139756
  0
LINE
  5
139757
  8
SLIM
 10
3966.6446101792449
 20
-964.99999999999875
 30
0.0
 11
4080.0
 21
-851.6446101792435
 31
0.0
1001
ACAD
1010
0.0
1020
0.0
1030
0.0
1001
ACDBBLOCKREPETAG
1070
     1
1071
       30
1005
139757
  0
LINE
  5
139758
  8
SLIM
 10
3964.6051224213829
 20
-984.99999999999875
 30
0.0
 11
3984.6051224213829
 21
-964.99999999999875
 31
0.0
1001
ACAD
1010
0.0
1020
0.0
1030
0.0
1001
ACDBBLOCKREPETAG
1070
     1
1071
       31
1005
139758
  0
LINE
  5
139759
  8
SLIM
 10
3984.6051224213829
 20
-964.99999999999875
 30
0.0
 11
4080.0
 21
-869.60512242138225
 31
0.0
1001
ACAD
1010
0.0
1020
0.0
1030
0.0
1001
ACDBBLOCKREPETAG
1070
     1
1071
       32
1005
139759
  0
LINE
  5
13975A
  8
SLIM
 10
3982.565634663521
 20
-984.99999999999875
 30
0.0
 11
4002.565634663521
 21
-964.99999999999875
 31
0.0
1001
ACAD
1010
0.0
1020
0.0
1030
0.0
1001
ACDBBLOCKREPETAG
1070
     1
1071
       33
1005
13975A
  0
LINE
  5
13975B
  8
SLIM
 10
4002.565634663521
 20
-964.99999999999875
 30
0.0
 11
4079.9999999999991
 21
-887.56563466352065
 31
0.0
1001
ACAD
1010
0.0
1020
0.0
1030
0.0
1001
ACDBBLOCKREPETAG
1070
     1
1071
       34
1005
13975B
  0
LINE
  5
13975C
  8
SLIM
 10
4000.5261469056582
 20
-984.99999999999875
 30
0.0
 11
4020.52614690566
 21
-964.99999999999875
 31
0.0
1001
ACAD
1010
0.0
1020
0.0
1030
0.0
1001
ACDBBLOCKREPETAG
1070
     1
1071
       35
1005
13975C
  0
LINE
  5
13975D
  8
SLIM
 10
4020.52614690566
 20
-964.99999999999875
 30
0.0
 11
4079.9999999999991
 21
-905.52614690565963
 31
0.0
1001
ACAD
1010
0.0
1020
0.0
1030
0.0
1001
ACDBBLOCKREPETAG
1070
     1
1071
       36
1005
13975D
  0
LINE
  5
13975E
  8
SLIM
 10
4018.486659147798
 20
-984.99999999999875
 30
0.0
 11
4038.486659147798
 21
-964.99999999999864
 31
0.0
1001
ACAD
1010
0.0
1020
0.0
1030
0.0
1001
ACDBBLOCKREPETAG
1070
     1
1071
       37
1005
13975E
  0
LINE
  5
13975F
  8
SLIM
 10
4038.486659147798
 20
-964.99999999999864
 30
0.0
 11
4079.9999999999991
 21
-923.48665914779815
 31
0.0
1001
ACAD
1010
0.0
1020
0.0
1030
0.0
1001
ACDBBLOCKREPETAG
1070
     1
1071
       38
1005
13975F
  0
LINE
  5
139760
  8
SLIM
 10
4036.4471713899361
 20
-984.99999999999875
 30
0.0
 11
4056.4471713899361
 21
-964.99999999999864
 31
0.0
1001
ACAD
1010
0.0
1020
0.0
1030
0.0
1001
ACDBBLOCKREPETAG
1070
     1
1071
       39
1005
139760
  0
LINE
  5
139761
  8
SLIM
 10
4056.4471713899361
 20
-964.99999999999864
 30
0.0
 11
4079.9999999999991
 21
-941.44717138993633
 31
0.0
1001
ACAD
1010
0.0
1020
0.0
1030
0.0
1001
ACDBBLOCKREPETAG
1070
     1
1071
       40
1005
139761
  0
LINE
  5
139762
  8
SLIM
 10
4054.4076836320728
 20
-984.99999999999875
 30
0.0
 11
4070.0
 21
-969.40768363207314
 31
0.0
1001
ACAD
1010
0.0
1020
0.0
1030
0.0
1001
ACDBBLOCKREPETAG
1070
     1
1071
       41
1005
139762
  0
LINE
  5
139763
  8
SLIM
 10
4074.4076836320728
 20
-964.99999999999864
 30
0.0
 11
4079.9999999999991
 21
-959.40768363207519
 31
0.0
1001
ACAD
1010
0.0
1020
0.0
1030
0.0
1001
ACDBBLOCKREPETAG
1070
     1
1071
       42
1005
139763
  0
LINE
  5
139764
  8
OBJECT
 10
3914.9999999999941
 20
-754.99999999999875
 30
0.0
 11
3914.9999999999968
 21
-799.78460339903359
 31
0.0
1001
ACDBBLOCKREPETAG
1070
     1
1071
        1
1005
139764
  0
LINE
  5
139765
  8
OBJECT
 10
4085.0000000000068
 20
-754.99999999999875
 30
0.0
 11
4085.0000000000032
 21
-799.78460339904063
 31
0.0
1001
ACDBBLOCKREPETAG
1070
     1
1071
        2
1005
139765
  0
LINE
  5
139766
  8
OBJECT
 10
4085.0000000000068
 20
-754.99999999999875
 30
0.0
 11
3914.9999999999941
 21
-754.99999999999875
 31
0.0
1001
ACDBBLOCKREPETAG
1070
     1
1071
        3
1005
139766
  0
LINE
  5
139767
  8
OBJECT
 10
4079.9999999999991
 20
-964.99999999999864
 30
0.0
 11
3920.0
 21
-964.99999999999875
 31
0.0
1001
ACDBBLOCKREPETAG
1070
     1
1071
        4
1005
139767
  0
LINE
  5
139768
  8
OBJECT
 10
3914.9999999999968
 20
-799.78460339903415
 30
0.0
 11
3920.0
 21
-840.62257748298555
 31
0.0
1001
ACDBBLOCKREPETAG
1070
     1
1071
        6
1005
139768
  0
LINE
  5
139769
  8
OBJECT
 10
3920.0
 20
-840.62257748298555
 30
0.0
 11
3920.0
 21
-964.99999999999875
 31
0.0
1001
ACDBBLOCKREPETAG
1070
     1
1071
        7
1005
139769
  0
LINE
  5
13976A
  8
OBJECT
 10
4085.0000000000032
 20
-799.78460339904063
 30
0.0
 11
4080.0
 21
-840.62257748298555
 31
0.0
1001
ACDBBLOCKREPETAG
1070
     1
1071
        8
1005
13976A
  0
LINE
  5
13976B
  8
OBJECT
 10
4080.0
 20
-840.62257748298555
 30
0.0
 11
4079.9999999999991
 21
-964.99999999999864
 31
0.0
1001
ACDBBLOCKREPETAG
1070
     1
1071
        9
1005
13976B
  0
LINE
  5
13976C
  8
OBJECT
 10
3930.0
 20
-964.99999999999875
 30
0.0
 11
3930.0
 21
-984.99999999999875
 31
0.0
1001
ACDBBLOCKREPETAG
1070
     1
1071
       10
1005
13976C
  0
LINE
  5
13976D
  8
OBJECT
 10
3930.0
 20
-984.99999999999875
 30
0.0
 11
4070.0
 21
-984.99999999999875
 31
0.0
1001
ACDBBLOCKREPETAG
1070
     1
1071
       11
1005
13976D
  0
LINE
  5
13976E
  8
OBJECT
 10
4070.0
 20
-984.99999999999875
 30
0.0
 11
4070.0
 21
-964.99999999999864
 31
0.0
1001
ACDBBLOCKREPETAG
1070
     1
1071
       12
1005
13976E
  0
LINE
  5
13976F
  8
OBJECT
 10
3930.0
 20
-1079.999999999997
 30
0.0
 11
4070.0
 21
-1079.999999999997
 31
0.0
1001
ACDBBLOCKREPETAG
1070
     1
1071
        0
1005
13976F
  0
LINE
  5
139770
  8
OBJECT
 10
3930.0
 20
-1079.999999999997
 30
0.0
 11
3930.0
 21
-839.99999999999704
 31
0.0
1001
ACDBBLOCKREPETAG
1070
     1
1071
        1
1005
139770
  0
LINE
  5
139771
  8
OBJECT
 10
4070.0
 20
-1079.999999999997
 30
0.0
 11
4070.0
 21
-839.99999999999704
 31
0.0
1001
ACDBBLOCKREPETAG
1070
     1
1071
        2
1005
139771
  0
LINE
  5
139772
  8
OBJECT
 10
3930.0
 20
-839.99999999999704
 30
0.0
 11
4070.0
 21
-839.99999999999704
 31
0.0
1001
ACDBBLOCKREPETAG
1070
     1
1071
        3
1005
139772
  0
LINE
  5
139773
  8
HIDDEN
 10
3937.5
 20
-839.99999999999704
 30
0.0
 11
3937.5
 21
-1079.999999999997
 31
0.0
1001
ACDBBLOCKREPETAG
1070
     1
1071
        4
1005
139773
  0
LINE
  5
139774
  8
HIDDEN
 10
4062.5
 20
-839.99999999999704
 30
0.0
 11
4062.5
 21
-1079.999999999997
 31
0.0
1001
ACDBBLOCKREPETAG
1070
     1
1071
        5
1005
139774
  0
LINE
  5
139775
  8
CENTER
 10
4000.0
 20
-769.99999999999875
 30
0.0
 11
4000.0
 21
-1094.999999999997
 31
0.0
1001
ACDBBLOCKREPETAG
1070
     1
1071
        6
1005
139775
  0
LINE
  5
139776
  8
OBJECT
 10
3925.0
 20
-769.99999999999875
 30
0.0
 11
3925.0
 21
-799.99999999999693
 31
0.0
1001
ACDBBLOCKREPETAG
1070
     1
1071
        7
1005
139776
  0
LINE
  5
139777
  8
OBJECT
 10
4075.0000000000032
 20
-769.99999999999875
 30
0.0
 11
4075.0
 21
-799.99999999999693
 31
0.0
1001
ACDBBLOCKREPETAG
1070
     1
1071
        8
1005
139777
  0
LINE
  5
139778
  8
OBJECT
 10
3925.0
 20
-799.99999999999693
 30
0.0
 11
4075.0
 21
-799.99999999999693
 31
0.0
1001
ACDBBLOCKREPETAG
1070
     1
1071
        9
1005
139778
  0
LINE
  5
139779
  8
OBJECT
 10
3925.0
 20
-799.99999999999693
 30
0.0
 11
3930.0
 21
-839.99999999999704
 31
0.0
1001
ACDBBLOCKREPETAG
1070
     1
1071
       10
1005
139779
  0
LINE
  5
13977A
  8
OBJECT
 10
4070.0
 20
-839.99999999999704
 30
0.0
 11
4075.0
 21
-799.99999999999693
 31
0.0
1001
ACDBBLOCKREPETAG
1070
     1
1071
       11
1005
13977A
  0
LINE
  5
13977B
  8
OBJECT
 10
1930.0
 20
-1079.999999999998
 30
0.0
 11
2070.0
 21
-1079.999999999998
 31
0.0
1001
ACDBBLOCKREPETAG
1070
     1
1071
        0
1005
13977B
  0
LINE
  5
13977C
  8
OBJECT
 10
1930.0
 20
-1079.999999999998
 30
0.0
 11
1930.0
 21
-839.99999999999795
 31
0.0
1001
ACDBBLOCKREPETAG
1070
     1
1071
        1
1005
13977C
  0
LINE
  5
13977D
  8
OBJECT
 10
2070.0
 20
-1079.999999999998
 30
0.0
 11
2070.0
 21
-839.99999999999795
 31
0.0
1001
ACDBBLOCKREPETAG
1070
     1
1071
        2
1005
13977D
  0
LINE
  5
13977E
  8
OBJECT
 10
1930.0
 20
-839.99999999999795
 30
0.0
 11
2070.0
 21
-839.99999999999795
 31
0.0
1001
ACDBBLOCKREPETAG
1070
     1
1071
        3
1005
13977E
  0
LINE
  5
13977F
  8
HIDDEN
 10
1937.5
 20
-839.99999999999795
 30
0.0
 11
1937.5
 21
-1079.999999999998
 31
0.0
1001
ACDBBLOCKREPETAG
1070
     1
1071
        4
1005
13977F
  0
LINE
  5
139780
  8
HIDDEN
 10
2062.5
 20
-839.99999999999795
 30
0.0
 11
2062.5
 21
-1079.999999999998
 31
0.0
1001
ACDBBLOCKREPETAG
1070
     1
1071
        5
1005
139780
  0
LINE
  5
139781
  8
CENTER
 10
2000.0
 20
-769.99999999999955
 30
0.0
 11
2000.0
 21
-1094.999999999997
 31
0.0
1001
ACDBBLOCKREPETAG
1070
     1
1071
        6
1005
139781
  0
LINE
  5
139782
  8
OBJECT
 10
1925.0
 20
-769.99999999999955
 30
0.0
 11
1925.0
 21
-799.99999999999773
 31
0.0
1001
ACDBBLOCKREPETAG
1070
     1
1071
        7
1005
139782
  0
LINE
  5
139783
  8
OBJECT
 10
2075.0000000000041
 20
-769.99999999999955
 30
0.0
 11
2075.0
 21
-799.99999999999773
 31
0.0
1001
ACDBBLOCKREPETAG
1070
     1
1071
        8
1005
139783
  0
LINE
  5
139784
  8
OBJECT
 10
1925.0
 20
-799.99999999999773
 30
0.0
 11
2075.0
 21
-799.99999999999773
 31
0.0
1001
ACDBBLOCKREPETAG
1070
     1
1071
        9
1005
139784
  0
LINE
  5
139785
  8
OBJECT
 10
1925.0
 20
-799.99999999999773
 30
0.0
 11
1930.0
 21
-839.99999999999795
 31
0.0
1001
ACDBBLOCKREPETAG
1070
     1
1071
       10
1005
139785
  0
LINE
  5
139786
  8
OBJECT
 10
2070.0
 20
-839.99999999999795
 30
0.0
 11
2075.0
 21
-799.99999999999773
 31
0.0
1001
ACDBBLOCKREPETAG
1070
     1
1071
       11
1005
139786
  0
TEXT
  5
139787
  8
SLIM
 10
3824.5999999999999
 20
-1408.999999999997
 30
0.0
 40
28.0
  1
※ 対応スラブ厚　180～200
 41
0.75
  0
TEXT
  5
139788
  8
SLIM
 10
3611.5
 20
-1502.3333333333301
 30
0.0
 40
28.0
  1
国土交通大臣認定・（財）日本消防設備安全センター性能評定取得品
 41
0.75
  0
TEXT
  5
139789
  8
SLIM
 10
3631.1000000000022
 20
-1548.999999999997
 30
0.0
 40
28.0
  1
注）ご採用にあたり、認定書及び評定書の内容をご確認ください。
 41
0.75
  0
TEXT
  5
13978A
  8
SLIM
 10
3741.6250000000009
 20
-1347.499999999997
 30
0.0
 40
35.0
  1
片受けスタイル（S）＋シンドカット
 41
0.75
  0
TEXT
  5
13978B
  8
SLIM
 10
1856.25
 20
-1347.499999999998
 30
0.0
 40
35.0
  1
片受けスタイル（S）
 41
0.75
  0
VIEWPORT
  5
F6BA7
 67
     1
  8
0
 10
145.33033752441401
 20
101.8328354358673
 30
0.0
 40
334.0025019414623
 41
222.19657968139651
 68
     1
 69
     1
1001
ACAD
1000
MVIEW
1002
{
1070
    16
1010
0.0
1020
0.0
1030
0.0
1010
0.0
1020
0.0
1030
1.0
1040
0.0
1040
222.19657968139651
1040
145.33033752441401
1040
101.8328354358673
1040
50.0
1040
0.0
1040
0.0
1070
     0
1070
     0
1070
     1
1070
     1
1070
     0
1070
     0
1070
     0
1070
     0
1040
0.0
1040
0.0
1040
0.0
1040
10.0
1040
10.0
1040
10.0
1040
10.0
1070
     0
1002
{
1002
}
1002
}
  0
VIEWPORT
  5
F6BA9
 67
     1
  8
OBJECT
 10
145.3303314447403
 20
101.8328338861465
 30
0.0
 40
232.5285303115844
 41
162.93253421783439
 68
     2
 69
     2
1001
ACAD
1000
MVIEW
1002
{
1070
    16
1010
0.0
1020
0.0
1030
0.0
1010
0.0
1020
0.0
1030
1.0
1040
0.0
1040
25942.55904403147
1040
2377.604457077377
1040
-7591.5176687056619
1040
50.0
1040
0.0
1040
0.0
1070
     0
1070
   600
1070
     1
1070
     1
1070
     0
1070
     0
1070
     0
1070
     0
1040
0.0
1040
0.0
1040
0.0
1040
1.0
1040
1.0
1040
0.0
1040
0.0
1070
     0
1002
{
1002
}
1002
}
  0
ENDSEC
  0
EOF
