  0
SECTION
  2
HEADER
  9
$ACADVER
  1
AC1009
  9
$INSBASE
 10
0.0
 20
0.0
 30
0.0
  9
$EXTMIN
 10
0.0
 20
-3817.4999999999959
 30
0.0
  9
$EXTMAX
 10
5575.0
 20
607.5
 30
0.0
  9
$LIMMIN
 10
0.0
 20
0.0
  9
$LIMMAX
 10
210.0
 20
297.0
  9
$ORTHOMODE
 70
     0
  9
$REGENMODE
 70
     1
  9
$FILLMODE
 70
     1
  9
$QTEXTMODE
 70
     0
  9
$MIRRTEXT
 70
     0
  9
$DRAGMODE
 70
     2
  9
$LTSCALE
 40
1.0
  9
$OSMODE
 70
  2557
  9
$ATTMODE
 70
     1
  9
$TEXTSIZE
 40
4.0
  9
$TRACEWID
 40
0.05
  9
$TEXTSTYLE
  7
STANDARD
  9
$CLAYER
  8
OBJECT
  9
$CELTYPE
  6
BYLAYER
  9
$CECOLOR
 62
   256
  9
$DIMSCALE
 40
10.0
  9
$DIMASZ
 40
2.0
  9
$DIMEXO
 40
1.0
  9
$DIMDLI
 40
10.0
  9
$DIMRND
 40
0.0
  9
$DIMDLE
 40
0.0
  9
$DIMEXE
 40
1.0
  9
$DIMTP
 40
0.0
  9
$DIMTM
 40
0.0
  9
$DIMTXT
 40
3.2000000000000002
  9
$DIMCEN
 40
0.0
  9
$DIMTSZ
 40
0.0
  9
$DIMTOL
 70
     0
  9
$DIMLIM
 70
     0
  9
$DIMTIH
 70
     0
  9
$DIMTOH
 70
     0
  9
$DIMSE1
 70
     0
  9
$DIMSE2
 70
     0
  9
$DIMTAD
 70
     1
  9
$DIMZIN
 70
     8
  9
$DIMBLK
  1
OPEN30
  9
$DIMASO
 70
     1
  9
$DIMSHO
 70
     1
  9
$DIMPOST
  1

  9
$DIMAPOST
  1

  9
$DIMALT
 70
     0
  9
$DIMALTD
 70
     2
  9
$DIMALTF
 40
25.399999999999999
  9
$DIMLFAC
 40
1.0
  9
$DIMTOFL
 70
     1
  9
$DIMTVP
 40
0.0
  9
$DIMTIX
 70
     0
  9
$DIMSOXD
 70
     0
  9
$DIMSAH
 70
     0
  9
$DIMBLK1
  1

  9
$DIMBLK2
  1

  9
$DIMSTYLE
  2
S10
  9
$DIMCLRD
 70
   256
  9
$DIMCLRE
 70
   256
  9
$DIMCLRT
 70
   256
  9
$DIMTFAC
 40
1.0
  9
$DIMGAP
 40
0.9
  9
$LUNITS
 70
     2
  9
$LUPREC
 70
     2
  9
$SKETCHINC
 40
0.1
  9
$FILLETRAD
 40
0.0
  9
$AUNITS
 70
     0
  9
$AUPREC
 70
     2
  9
$MENU
  1
ACAD
  9
$ELEVATION
 40
0.0
  9
$PELEVATION
 40
0.0
  9
$THICKNESS
 40
0.0
  9
$LIMCHECK
 70
     0
  9
$BLIPMODE
 70
     0
  9
$CHAMFERA
 40
2.0
  9
$CHAMFERB
 40
2.0
  9
$SKPOLY
 70
     0
  9
$TDCREATE
 40
2453095.4929404748
  9
$TDUPDATE
 40
2456532.5644465508
  9
$TDINDWG
 40
18.4054660185
  9
$TDUSRTIMER
 40
18.405465289399999
  9
$USRTIMER
 70
     1
  9
$ANGBASE
 50
0.0
  9
$ANGDIR
 70
     0
  9
$PDMODE
 70
    35
  9
$PDSIZE
 40
2.0
  9
$PLINEWID
 40
0.0
  9
$COORDS
 70
     1
  9
$SPLFRAME
 70
     0
  9
$SPLINETYPE
 70
     6
  9
$SPLINESEGS
 70
     8
  9
$ATTDIA
 70
     1
  9
$ATTREQ
 70
     1
  9
$HANDLING
 70
     1
  9
$HANDSEED
  5
12DC67
  9
$SURFTAB1
 70
     6
  9
$SURFTAB2
 70
     6
  9
$SURFTYPE
 70
     6
  9
$SURFU
 70
     6
  9
$SURFV
 70
     6
  9
$UCSNAME
  2

  9
$UCSORG
 10
0.0
 20
0.0
 30
0.0
  9
$UCSXDIR
 10
1.0
 20
0.0
 30
0.0
  9
$UCSYDIR
 10
0.0
 20
1.0
 30
0.0
  9
$PUCSNAME
  2

  9
$PUCSORG
 10
0.0
 20
0.0
 30
0.0
  9
$PUCSXDIR
 10
1.0
 20
0.0
 30
0.0
  9
$PUCSYDIR
 10
0.0
 20
1.0
 30
0.0
  9
$USERI1
 70
     0
  9
$USERI2
 70
     0
  9
$USERI3
 70
     0
  9
$USERI4
 70
     0
  9
$USERI5
 70
     0
  9
$USERR1
 40
0.0
  9
$USERR2
 40
0.0
  9
$USERR3
 40
0.0
  9
$USERR4
 40
0.0
  9
$USERR5
 40
0.0
  9
$WORLDVIEW
 70
     1
  9
$SHADEDGE
 70
     3
  9
$SHADEDIF
 70
    70
  9
$TILEMODE
 70
     1
  9
$MAXACTVP
 70
    64
  9
$PLIMCHECK
 70
     0
  9
$PEXTMIN
 10
29.066066288948051
 20
20.366566777229309
 30
0.0
  9
$PEXTMAX
 10
261.5945966005325
 20
183.29910099506381
 30
0.0
  9
$PLIMMIN
 10
-3.17498779296875
 20
-3.1749999523162842
  9
$PLIMMAX
 10
293.83566284179687
 20
206.8406708240509
  9
$UNITMODE
 70
     0
  9
$VISRETAIN
 70
     1
  9
$PLINEGEN
 70
     0
  9
$PSLTSCALE
 70
     1
  0
ENDSEC
  0
SECTION
  2
TABLES
  0
TABLE
  2
VPORT
 70
     1
  0
VPORT
  2
*ACTIVE
 70
     0
 10
0.0
 20
0.0
 11
1.0
 21
1.0
 12
3812.8486436981029
 22
-1647.2736165946219
 13
0.0
 23
0.0
 14
1.0
 24
1.0
 15
0.0
 25
0.0
 16
0.0
 26
0.0
 36
1.0
 17
0.0
 27
0.0
 37
0.0
 40
5388.0755542108163
 41
1.9585253456221201
 42
50.0
 43
0.0
 44
0.0
 50
0.0
 51
0.0
 71
     0
 72
   600
 73
     1
 74
     1
 75
     0
 76
     0
 77
     0
 78
     0
  0
ENDTAB
  0
TABLE
  2
LTYPE
 70
     3
  0
LTYPE
  2
CONTINUOUS
 70
     0
  3
Solid line
 72
    65
 73
     0
 40
0.0
  0
LTYPE
  2
ACAD_ISO08W100
 70
     0
  3
ISO long-dash short-dash ____ __ ____ __ ____ _
 72
    65
 73
     4
 40
36.0
 49
24.0
 49
-3.0
 49
6.0
 49
-3.0
  0
LTYPE
  2
ACAD_ISO02W100
 70
     0
  3
ISO dash __ __ __ __ __ __ __ __ __ __ __ __ __
 72
    65
 73
     2
 40
15.0
 49
12.0
 49
-3.0
  0
ENDTAB
  0
TABLE
  2
LAYER
 70
     8
  0
LAYER
  2
0
 70
     0
 62
     7
  6
CONTINUOUS
  0
LAYER
  2
OBJECT
 70
     0
 62
     4
  6
CONTINUOUS
  0
LAYER
  2
DEFPOINTS
 70
     0
 62
     7
  6
CONTINUOUS
  0
LAYER
  2
DIM
 70
     0
 62
     7
  6
CONTINUOUS
  0
LAYER
  2
HIDDEN
 70
     0
 62
     2
  6
ACAD_ISO02W100
  0
LAYER
  2
CENTER
 70
     0
 62
     2
  6
ACAD_ISO08W100
  0
LAYER
  2
DOTS
 70
     0
 62
     1
  6
CONTINUOUS
  0
LAYER
  2
SLIM
 70
     0
 62
     2
  6
CONTINUOUS
  0
ENDTAB
  0
TABLE
  2
STYLE
 70
     2
  0
STYLE
  2
STANDARD
 70
     0
 40
0.0
 41
0.75
 50
0.0
 71
     0
 42
4.0
  3
simplex.shx
  4
bigfont.shx
  0
ENDTAB
  0
TABLE
  2
VIEW
 70
     0
  0
ENDTAB
  0
TABLE
  2
UCS
 70
     0
  0
ENDTAB
  0
TABLE
  2
APPID
 70
    18
  0
APPID
  2
ACAD
 70
     0
  0
APPID
  2
ACADANNOTATIVE
 70
     0
  0
APPID
  2
ACAD_PSEXT
 70
     0
  0
APPID
  2
ACAD_EXEMPT_FROM_CAD_STANDARDS
 70
     0
  0
APPID
  2
ACAECLAYERSTANDARD
 70
     0
  0
APPID
  2
ACAUTHENVIRON
 70
     0
  0
APPID
  2
ACDBDYNAMICBLOCKTRUENAME
 70
     0
  0
APPID
  2
ACDBDYNAMICBLOCKGUID
 70
     0
  0
APPID
  2
ACDBBLOCKREPETAG
 70
     0
  0
APPID
  2
ACDBBLOCKREPBTAG
 70
     0
  0
APPID
  2
ACAD_NAV_VCDISPLAY
 70
     0
  0
APPID
  2
ACAD_DSTYLE_DIMRADIAL_EXTENSION
 70
     0
  0
APPID
  2
ACAD_DSTYLE_DIMJAG
 70
     0
  0
APPID
  2
ACAD_DSTYLE_DIMTALN
 70
     0
  0
APPID
  2
ACADANNOPO
 70
     0
  0
APPID
  2
GRADIENTCOLOR1ACI
 70
     0
  0
APPID
  2
GRADIENTCOLOR2ACI
 70
     0
  0
APPID
  2
ACAD_MLEADERVER
 70
     0
  0
ENDTAB
  0
TABLE
  2
DIMSTYLE
 70
     3
  0
DIMSTYLE
  2
STANDARD
 70
     0
  3

  4

  5

  6

  7

 40
1.0
 41
0.18
 42
0.0625
 43
0.38
 44
0.18
 45
0.0
 46
0.0
 47
0.0
 48
0.0
140
0.18
141
0.09
142
0.0
143
25.399999999999999
144
1.0
145
0.0
146
1.0
147
0.09
 71
     0
 72
     0
 73
     1
 74
     1
 75
     0
 76
     0
 77
     0
 78
     0
170
     0
171
     2
172
     0
173
     0
174
     0
175
     0
176
     0
177
     0
178
     0
  0
DIMSTYLE
  2
S10
 70
     0
  3

  4

  5

  6

  7

 40
10.0
 41
2.0
 42
1.0
 43
10.0
 44
1.0
 45
0.0
 46
0.0
 47
0.0
 48
0.0
140
3.2000000000000002
141
0.0
142
0.0
143
25.399999999999999
144
1.0
145
0.0
146
1.0
147
0.9
 71
     0
 72
     0
 73
     0
 74
     0
 75
     0
 76
     0
 77
     1
 78
     8
170
     0
171
     2
172
     1
173
     0
174
     0
175
     0
176
   256
177
   256
178
   256
  0
ENDTAB
  0
ENDSEC
  0
SECTION
  2
BLOCKS
  0
BLOCK
  8
0
  2
$MODEL_SPACE
 70
     0
 10
0.0
 20
0.0
 30
0.0
  3
$MODEL_SPACE
  1

  0
ENDBLK
  5
12DB27
  8
0
  0
BLOCK
 67
     1
  8
0
  2
$PAPER_SPACE
 70
     0
 10
0.0
 20
0.0
 30
0.0
  3
$PAPER_SPACE
  1

  0
ENDBLK
  5
12DB23
 67
     1
  8
0
  0
BLOCK
  8
0
  2
_OPEN30
 70
     0
 10
0.0
 20
0.0
 30
0.0
  3
_OPEN30
  1

  0
LINE
  5
202
  8
0
  6
BYBLOCK
 62
     0
 10
-1.0
 20
0.26794919
 30
0.0
 11
0.0
 21
0.0
 31
0.0
  0
LINE
  5
203
  8
0
  6
BYBLOCK
 62
     0
 10
0.0
 20
0.0
 30
0.0
 11
-1.0
 21
-0.26794919
 31
0.0
  0
LINE
  5
204
  8
0
  6
BYBLOCK
 62
     0
 10
0.0
 20
0.0
 30
0.0
 11
-1.0
 21
0.0
 31
0.0
  0
ENDBLK
  5
206
  8
0
  0
BLOCK
  8
0
  2
*U46
 70
     1
 10
0.0
 20
0.0
 30
0.0
  3
*U46
  1

  0
TEXT
  5
12DA5C
  8
SLIM
 10
505.04761904610911
 20
-2187.2499999970728
 30
0.0
 40
26.0
  1
100
  0
ENDBLK
  5
12DA5E
  8
0
  0
BLOCK
  8
0
  2
*U47
 70
     1
 10
0.0
 20
0.0
 30
0.0
  3
*U47
  1

  0
TEXT
  5
12DA60
  8
SLIM
 10
505.04761904610911
 20
-1942.749999997073
 30
0.0
 40
26.0
  1
100
  0
ENDBLK
  5
12DA62
  8
0
  0
BLOCK
  8
0
  2
*U48
 70
     1
 10
0.0
 20
0.0
 30
0.0
  3
*U48
  1

  0
TEXT
  5
12DA64
  8
SLIM
 10
145.04761904623109
 20
-2187.2499999970728
 30
0.0
 40
26.0
  1
100
  0
ENDBLK
  5
12DA66
  8
0
  0
BLOCK
  8
0
  2
*U49
 70
     1
 10
0.0
 20
0.0
 30
0.0
  3
*U49
  1

  0
TEXT
  5
12DA68
  8
SLIM
 10
154.9523809509931
 20
-1949.999999997073
 30
0.0
 40
26.0
  1
75
  0
ENDBLK
  5
12DA6A
  8
0
  0
BLOCK
  8
0
  2
*U50
 70
     1
 10
0.0
 20
0.0
 30
0.0
  3
*U50
  1

  0
TEXT
  5
12DA6C
  8
SLIM
 10
514.95238095087109
 20
-1715.999999997231
 30
0.0
 40
26.0
  1
75
  0
ENDBLK
  5
12DA6E
  8
0
  0
BLOCK
  8
0
  2
*U51
 70
     1
 10
0.0
 20
0.0
 30
0.0
  3
*U51
  1

  0
TEXT
  5
12DA70
  8
SLIM
 10
514.95238095087109
 20
-1485.999999997231
 30
0.0
 40
26.0
  1
75
  0
ENDBLK
  5
12DA72
  8
0
  0
BLOCK
  8
0
  2
*U52
 70
     1
 10
0.0
 20
0.0
 30
0.0
  3
*U52
  1

  0
TEXT
  5
12DA74
  8
SLIM
 10
145.04761904623109
 20
-1723.249999997231
 30
0.0
 40
26.0
  1
100
  0
ENDBLK
  5
12DA76
  8
0
  0
BLOCK
  8
0
  2
*U53
 70
     1
 10
0.0
 20
0.0
 30
0.0
  3
*U53
  1

  0
TEXT
  5
12DA78
  8
SLIM
 10
154.9523809509931
 20
-1485.999999997231
 30
0.0
 40
26.0
  1
65
  0
ENDBLK
  5
12DA7A
  8
0
  0
BLOCK
  8
0
  2
*U54
 70
     1
 10
0.0
 20
0.0
 30
0.0
  3
*U54
  1

  0
TEXT
  5
12DA7C
  8
SLIM
 10
514.95238095087109
 20
-1251.99999999739
 30
0.0
 40
26.0
  1
75
  0
ENDBLK
  5
12DA7E
  8
0
  0
BLOCK
  8
0
  2
*U55
 70
     1
 10
0.0
 20
0.0
 30
0.0
  3
*U55
  1

  0
TEXT
  5
12DA80
  8
SLIM
 10
514.95238095087109
 20
-1021.999999997389
 30
0.0
 40
26.0
  1
65
  0
ENDBLK
  5
12DA82
  8
0
  0
BLOCK
  8
0
  2
*U56
 70
     1
 10
0.0
 20
0.0
 30
0.0
  3
*U56
  1

  0
TEXT
  5
12DA84
  8
SLIM
 10
154.9523809509929
 20
-1251.99999999739
 30
0.0
 40
26.0
  1
65
  0
ENDBLK
  5
12DA86
  8
0
  0
BLOCK
  8
0
  2
*U57
 70
     1
 10
0.0
 20
0.0
 30
0.0
  3
*U57
  1

  0
TEXT
  5
12DA88
  8
SLIM
 10
154.9523809509929
 20
-1021.999999997389
 30
0.0
 40
26.0
  1
65
  0
ENDBLK
  5
12DA8A
  8
0
  0
BLOCK
  8
0
  2
*U58
 70
     1
 10
0.0
 20
0.0
 30
0.0
  3
*U58
  1

  0
TEXT
  5
12DA8C
  8
SLIM
 10
505.04761904610911
 20
-795.24999999754812
 30
0.0
 40
26.0
  1
100
  0
ENDBLK
  5
12DA8E
  8
0
  0
BLOCK
  8
0
  2
*U59
 70
     1
 10
0.0
 20
0.0
 30
0.0
  3
*U59
  1

  0
TEXT
  5
12DA90
  8
SLIM
 10
514.95238095087109
 20
-557.999999997548
 30
0.0
 40
26.0
  1
50
  0
ENDBLK
  5
12DA92
  8
0
  0
BLOCK
  8
0
  2
*U60
 70
     1
 10
0.0
 20
0.0
 30
0.0
  3
*U60
  1

  0
TEXT
  5
12DA94
  8
SLIM
 10
154.95238095099299
 20
-787.99999999754812
 30
0.0
 40
26.0
  1
75
  0
ENDBLK
  5
12DA96
  8
0
  0
BLOCK
  8
0
  2
*U61
 70
     1
 10
0.0
 20
0.0
 30
0.0
  3
*U61
  1

  0
TEXT
  5
12DA98
  8
SLIM
 10
154.95238095099299
 20
-557.999999997548
 30
0.0
 40
26.0
  1
50
  0
ENDBLK
  5
12DA9A
  8
0
  0
BLOCK
  8
0
  2
*U62
 70
     1
 10
0.0
 20
0.0
 30
0.0
  3
*U62
  1

  0
TEXT
  5
12DA9C
  8
SLIM
 10
514.95238095087109
 20
-323.99999999770631
 30
0.0
 40
26.0
  1
65
  0
ENDBLK
  5
12DA9E
  8
0
  0
BLOCK
  8
0
  2
*U63
 70
     1
 10
0.0
 20
0.0
 30
0.0
  3
*U63
  1

  0
TEXT
  5
12DAA0
  8
SLIM
 10
514.95238095087109
 20
-93.99999999770624
 30
0.0
 40
26.0
  1
50
  0
ENDBLK
  5
12DAA2
  8
0
  0
BLOCK
  8
0
  2
*U64
 70
     1
 10
0.0
 20
0.0
 30
0.0
  3
*U64
  1

  0
TEXT
  5
12DAA4
  8
SLIM
 10
154.9523809509931
 20
-323.99999999770631
 30
0.0
 40
26.0
  1
50
  0
ENDBLK
  5
12DAA6
  8
0
  0
BLOCK
  8
0
  2
*U65
 70
     1
 10
0.0
 20
0.0
 30
0.0
  3
*U65
  1

  0
TEXT
  5
12DAA8
  8
SLIM
 10
154.9523809509931
 20
-93.99999999770624
 30
0.0
 40
26.0
  1
50
  0
ENDBLK
  5
12DAAA
  8
0
  0
BLOCK
  8
0
  2
*U66
 70
     1
 10
0.0
 20
0.0
 30
0.0
  3
*U66
  1

  0
TEXT
  5
12DAAC
  8
DIM
 10
2209.479620594459
 20
-3304.1428571428528
 30
0.0
 40
32.0
  1
A
 50
90.0
 41
0.75
  0
ENDBLK
  5
12DAAE
  8
0
  0
BLOCK
  8
0
  2
*U67
 70
     1
 10
0.0
 20
0.0
 30
0.0
  3
*U67
  1

  0
TEXT
  5
12DAB0
  8
DIM
 10
2207.8409284037348
 20
-3685.9999999999959
 30
0.0
 40
32.0
  1
B
 50
90.0
 41
0.75
  0
ENDBLK
  5
12DAB2
  8
0
  0
BLOCK
  8
0
  2
*U68
 70
     1
 10
0.0
 20
0.0
 30
0.0
  3
*U68
  1

  0
TEXT
  5
12DAB4
  8
DIM
 10
2061.428571428572
 20
-3158.208121984444
 30
0.0
 40
32.0
  1
C
 41
0.75
  0
ENDBLK
  5
12DAB6
  8
0
  0
ENDSEC
  0
SECTION
  2
ENTITIES
  0
LINE
  5
12515F
  8
OBJECT
 10
1825.0
 20
-3699.9999999999959
 30
0.0
 11
5575.0
 21
-3699.9999999999959
 31
0.0
  0
LINE
  5
125161
  8
SLIM
 10
2616.0
 20
-2757.50001604727
 30
0.0
 11
2616.0
 21
-3087.50001604727
 31
0.0
  0
LINE
  5
125162
  8
SLIM
 10
2740.0
 20
-2757.50001604727
 30
0.0
 11
2740.0
 21
-3087.50001604727
 31
0.0
  0
LINE
  5
125163
  8
SLIM
 10
2870.0
 20
-2817.50001604727
 30
0.0
 11
2870.0
 21
-3087.50001604727
 31
0.0
  0
LINE
  5
125164
  8
SLIM
 10
3000.0
 20
-2817.50001604727
 30
0.0
 11
3000.0
 21
-3087.50001604727
 31
0.0
  0
LINE
  5
125165
  8
SLIM
 10
3130.0
 20
-3087.50001604727
 30
0.0
 11
3130.0
 21
-2817.50001604727
 31
0.0
  0
LINE
  5
125166
  8
SLIM
 10
3260.0
 20
-3087.50001604727
 30
0.0
 11
3260.0
 21
-2757.50001604727
 31
0.0
  0
LINE
  5
125167
  8
SLIM
 10
3260.0
 20
-2757.50001604727
 30
0.0
 11
2616.0
 21
-2757.50001604727
 31
0.0
  0
LINE
  5
125168
  8
SLIM
 10
3260.0
 20
-2817.50001604727
 30
0.0
 11
2740.0
 21
-2817.50001604727
 31
0.0
  0
LINE
  5
125169
  8
SLIM
 10
3260.0
 20
-2877.50001604727
 30
0.0
 11
2616.0
 21
-2877.50001604727
 31
0.0
  0
LINE
  5
12516A
  8
SLIM
 10
3260.0
 20
-2947.50001604727
 30
0.0
 11
2616.0
 21
-2947.50001604727
 31
0.0
  0
LINE
  5
12516B
  8
SLIM
 10
3260.0
 20
-3017.50001604727
 30
0.0
 11
2616.0
 21
-3017.50001604727
 31
0.0
  0
LINE
  5
12516C
  8
SLIM
 10
3260.0
 20
-3087.50001604727
 30
0.0
 11
2616.0
 21
-3087.50001604727
 31
0.0
  0
LINE
  5
125181
  8
SLIM
 10
2740.0
 20
-2877.50001604727
 30
0.0
 11
2615.9999722746579
 21
-2757.5
 31
0.0
  0
LINE
  5
1251B6
  8
OBJECT
 10
5323.0
 20
-3515.9999999999968
 30
0.0
 11
5323.0
 21
-3494.9999999999968
 31
0.0
1001
ACDBBLOCKREPETAG
1070
     1
1071
       20
1005
1251B6
  0
LINE
  5
1251B7
  8
OBJECT
 10
5323.0
 20
-3494.9999999999968
 30
0.0
 11
5477.0
 21
-3494.9999999999968
 31
0.0
1001
ACDBBLOCKREPETAG
1070
     1
1071
       21
1005
1251B7
  0
LINE
  5
1251B8
  8
HIDDEN
 10
5343.0
 20
-3564.9999999999968
 30
0.0
 11
5457.0
 21
-3564.9999999999968
 31
0.0
1001
ACDBBLOCKREPETAG
1070
     1
1071
       22
1005
1251B8
  0
LINE
  5
1251B9
  8
OBJECT
 10
5477.0
 20
-3494.9999999999968
 30
0.0
 11
5477.0
 21
-3515.9999999999968
 31
0.0
1001
ACDBBLOCKREPETAG
1070
     1
1071
       23
1005
1251B9
  0
LINE
  5
1251BA
  8
OBJECT
 10
5477.0
 20
-3515.9999999999968
 30
0.0
 11
5323.0
 21
-3515.9999999999968
 31
0.0
1001
ACDBBLOCKREPETAG
1070
     1
1071
       24
1005
1251BA
  0
LINE
  5
1251BB
  8
CENTER
 10
5400.0
 20
-3479.9999999999968
 30
0.0
 11
5400.0
 21
-3714.9999999999968
 31
0.0
1001
ACDBBLOCKREPETAG
1070
     1
1071
       25
1005
1251BB
  0
LINE
  5
1251BC
  8
OBJECT
 10
5325.0
 20
-3578.9999999999968
 30
0.0
 11
5325.0
 21
-3702.9999999999968
 31
0.0
1001
ACDBBLOCKREPETAG
1070
     1
1071
       26
1005
1251BC
  0
LINE
  5
1251BD
  8
OBJECT
 10
5328.0
 20
-3515.9999999999968
 30
0.0
 11
5328.0
 21
-3578.9999999999968
 31
0.0
1001
ACDBBLOCKREPETAG
1070
     1
1071
       27
1005
1251BD
  0
LINE
  5
1251BE
  8
OBJECT
 10
5472.0
 20
-3578.9999999999968
 30
0.0
 11
5472.0
 21
-3515.9999999999968
 31
0.0
1001
ACDBBLOCKREPETAG
1070
     1
1071
       28
1005
1251BE
  0
LINE
  5
1251BF
  8
OBJECT
 10
5475.0
 20
-3578.9999999999968
 30
0.0
 11
5456.7802782663139
 21
-3578.9999999999968
 31
0.0
1001
ACDBBLOCKREPETAG
1070
     1
1071
       30
1005
1251BF
  0
LINE
  5
1251C0
  8
OBJECT
 10
5475.0
 20
-3578.9999999999968
 30
0.0
 11
5475.0
 21
-3702.9999999999968
 31
0.0
1001
ACDBBLOCKREPETAG
1070
     1
1071
       34
1005
1251C0
  0
POINT
  5
1251C1
  8
DOTS
 10
5400.0
 20
-3699.9999999999968
 30
0.0
1001
ACDBBLOCKREPETAG
1070
     1
1071
      187
1005
1251C1
  0
LINE
  5
1251C2
  8
CENTER
 10
5310.0
 20
-3627.9999999999968
 30
0.0
 11
5490.0
 21
-3627.9999999999968
 31
0.0
1001
ACDBBLOCKREPETAG
1070
     1
1071
       23
1005
1251C2
  0
CIRCLE
  5
1251C3
  8
OBJECT
 10
5400.0
 20
-3627.9999999999968
 30
0.0
 40
53.5
1001
ACDBBLOCKREPETAG
1070
     1
1071
       24
1005
1251C3
  0
CIRCLE
  5
1251C4
  8
OBJECT
 10
5400.0
 20
-3627.9999999999968
 30
0.0
 40
67.0
1001
ACDBBLOCKREPETAG
1070
     1
1071
       25
1005
1251C4
  0
ARC
  5
1251C5
  8
OBJECT
 10
5400.0
 20
-3627.9999999999968
 30
0.0
 40
75.0
 50
286.26020470824369
 51
253.73979529175631
1001
ACDBBLOCKREPETAG
1070
     1
1071
       27
1005
1251C5
  0
LINE
  5
1251C6
  8
OBJECT
 10
5379.0
 20
-3699.9999999999968
 30
0.0
 11
5421.0
 21
-3699.9999999999968
 31
0.0
1001
ACDBBLOCKREPETAG
1070
     1
1071
       28
1005
1251C6
  0
LINE
  5
1251C7
  8
OBJECT
 10
5343.2197217336861
 20
-3578.9999999999968
 30
0.0
 11
5325.0
 21
-3578.9999999999968
 31
0.0
1001
ACDBBLOCKREPETAG
1070
     1
1071
       30
1005
1251BF
  0
TEXT
  5
12AED7
  8
SLIM
 10
-0.0000000000000011
 20
282.5
 30
0.0
 40
35.0
  1
※ 100枝（4）がある場合、品名の最後に【管底】が付きます。
 41
0.9
 11
0.0
 21
300.0
 31
0.0
 73
     2
  0
CIRCLE
  5
12C2ED
  8
OBJECT
 10
5000.0
 20
-3294.9999999999959
 30
0.0
 40
53.5
1001
ACDBBLOCKREPETAG
1070
     1
1071
      344
1005
12C2ED
  0
LINE
  5
12C2EE
  8
CENTER
 10
5080.0
 20
-3294.9999999999959
 30
0.0
 11
4905.0
 21
-3294.9999999999959
 31
0.0
1001
ACDBBLOCKREPETAG
1070
     1
1071
       14
1005
12C2EE
  0
LINE
  5
12C2EF
  8
CENTER
 10
5000.0
 20
-3389.9999999999968
 30
0.0
 11
5000.0
 21
-3199.9999999999959
 31
0.0
1001
ACDBBLOCKREPETAG
1070
     1
1071
       15
1005
12C2EF
  0
CIRCLE
  5
12C2F0
  8
OBJECT
 10
5000.0
 20
-3294.9999999999959
 30
0.0
 40
70.0
1001
ACDBBLOCKREPETAG
1070
     1
1071
       16
1005
12C2F0
  0
CIRCLE
  5
12C2F1
  8
OBJECT
 10
5000.0
 20
-3294.9999999999959
 30
0.0
 40
77.0
1001
ACDBBLOCKREPETAG
1070
     1
1071
       17
1005
12C2F1
  0
ARC
  5
12C2F2
  8
OBJECT
 10
5000.0
 20
-3294.9999999999959
 30
0.0
 40
80.0
 50
50.805032573882329
 51
309.19496742611773
1001
ACDBBLOCKREPETAG
1070
     1
1071
       18
1005
12C2F2
  0
LINE
  5
12C2F3
  8
OBJECT
 10
5045.6618002273253
 20
-3232.9999999999959
 30
0.0
 11
5080.0
 21
-3232.9999999999959
 31
0.0
1001
ACDBBLOCKREPETAG
1070
     1
1071
       19
1005
12C2F3
  0
LINE
  5
12C2F4
  8
OBJECT
 10
5045.6618002273253
 20
-3356.9999999999959
 30
0.0
 11
5080.0
 21
-3356.9999999999959
 31
0.0
1001
ACDBBLOCKREPETAG
1070
     1
1071
       20
1005
12C2F4
  0
POINT
  5
12C2F5
  8
DOTS
 10
5000.0
 20
-3294.9999999999959
 30
0.0
1001
ACDBBLOCKREPETAG
1070
     1
1071
       21
1005
12C2F5
  0
CIRCLE
  5
12C2F6
  8
OBJECT
 10
4000.0
 20
-3294.9999999999959
 30
0.0
 40
53.5
1001
ACDBBLOCKREPETAG
1070
     1
1071
      344
1005
12C2F6
  0
LINE
  5
12C2F7
  8
CENTER
 10
4080.0
 20
-3294.9999999999959
 30
0.0
 11
3905.0
 21
-3294.9999999999959
 31
0.0
1001
ACDBBLOCKREPETAG
1070
     1
1071
       14
1005
12C2F7
  0
LINE
  5
12C2F8
  8
CENTER
 10
4000.0
 20
-3389.9999999999968
 30
0.0
 11
4000.0
 21
-3199.9999999999959
 31
0.0
1001
ACDBBLOCKREPETAG
1070
     1
1071
       15
1005
12C2F8
  0
CIRCLE
  5
12C2F9
  8
OBJECT
 10
4000.0
 20
-3294.9999999999959
 30
0.0
 40
70.0
1001
ACDBBLOCKREPETAG
1070
     1
1071
       16
1005
12C2F9
  0
CIRCLE
  5
12C2FA
  8
OBJECT
 10
4000.0
 20
-3294.9999999999959
 30
0.0
 40
77.0
1001
ACDBBLOCKREPETAG
1070
     1
1071
       17
1005
12C2FA
  0
ARC
  5
12C2FB
  8
OBJECT
 10
4000.0
 20
-3294.9999999999959
 30
0.0
 40
80.0
 50
50.805032573862128
 51
309.19496742613791
1001
ACDBBLOCKREPETAG
1070
     1
1071
       18
1005
12C2FB
  0
LINE
  5
12C2FC
  8
OBJECT
 10
4045.661800227324
 20
-3232.9999999999959
 30
0.0
 11
4080.0
 21
-3232.9999999999959
 31
0.0
1001
ACDBBLOCKREPETAG
1070
     1
1071
       19
1005
12C2FC
  0
LINE
  5
12C2FD
  8
OBJECT
 10
4045.661800227324
 20
-3356.9999999999959
 30
0.0
 11
4080.0
 21
-3356.9999999999959
 31
0.0
1001
ACDBBLOCKREPETAG
1070
     1
1071
       20
1005
12C2FD
  0
POINT
  5
12C2FE
  8
DOTS
 10
4000.0
 20
-3294.9999999999959
 30
0.0
1001
ACDBBLOCKREPETAG
1070
     1
1071
       21
1005
12C2FE
  0
CIRCLE
  5
12C2FF
  8
OBJECT
 10
3000.0
 20
-3294.9999999999959
 30
0.0
 40
53.5
1001
ACDBBLOCKREPETAG
1070
     1
1071
      344
1005
12C2FF
  0
LINE
  5
12C300
  8
CENTER
 10
3080.0
 20
-3294.9999999999959
 30
0.0
 11
2905.0
 21
-3294.9999999999959
 31
0.0
1001
ACDBBLOCKREPETAG
1070
     1
1071
       14
1005
12C300
  0
LINE
  5
12C301
  8
CENTER
 10
3000.0
 20
-3389.9999999999968
 30
0.0
 11
3000.0
 21
-3199.9999999999959
 31
0.0
1001
ACDBBLOCKREPETAG
1070
     1
1071
       15
1005
12C301
  0
CIRCLE
  5
12C302
  8
OBJECT
 10
3000.0
 20
-3294.9999999999959
 30
0.0
 40
70.0
1001
ACDBBLOCKREPETAG
1070
     1
1071
       16
1005
12C302
  0
CIRCLE
  5
12C303
  8
OBJECT
 10
3000.0
 20
-3294.9999999999959
 30
0.0
 40
77.0
1001
ACDBBLOCKREPETAG
1070
     1
1071
       17
1005
12C303
  0
ARC
  5
12C304
  8
OBJECT
 10
3000.0
 20
-3294.9999999999959
 30
0.0
 40
80.0
 50
50.805032573862128
 51
309.19496742613791
1001
ACDBBLOCKREPETAG
1070
     1
1071
       18
1005
12C304
  0
LINE
  5
12C305
  8
OBJECT
 10
3045.6618002273249
 20
-3232.9999999999959
 30
0.0
 11
3080.0
 21
-3232.9999999999959
 31
0.0
1001
ACDBBLOCKREPETAG
1070
     1
1071
       19
1005
12C305
  0
LINE
  5
12C306
  8
OBJECT
 10
3045.6618002273249
 20
-3356.9999999999959
 30
0.0
 11
3080.0
 21
-3356.9999999999959
 31
0.0
1001
ACDBBLOCKREPETAG
1070
     1
1071
       20
1005
12C306
  0
POINT
  5
12C307
  8
DOTS
 10
3000.0
 20
-3294.9999999999959
 30
0.0
1001
ACDBBLOCKREPETAG
1070
     1
1071
       21
1005
12C307
  0
CIRCLE
  5
12C308
  8
OBJECT
 10
2000.0
 20
-3294.9999999999959
 30
0.0
 40
53.5
1001
ACDBBLOCKREPETAG
1070
     1
1071
      344
1005
12C308
  0
LINE
  5
12C309
  8
CENTER
 10
2080.0
 20
-3294.9999999999959
 30
0.0
 11
1905.0
 21
-3294.9999999999959
 31
0.0
1001
ACDBBLOCKREPETAG
1070
     1
1071
       14
1005
12C309
  0
LINE
  5
12C30A
  8
CENTER
 10
2000.0
 20
-3389.9999999999968
 30
0.0
 11
2000.0
 21
-3199.9999999999959
 31
0.0
1001
ACDBBLOCKREPETAG
1070
     1
1071
       15
1005
12C30A
  0
CIRCLE
  5
12C30B
  8
OBJECT
 10
2000.0
 20
-3294.9999999999959
 30
0.0
 40
70.0
1001
ACDBBLOCKREPETAG
1070
     1
1071
       16
1005
12C30B
  0
CIRCLE
  5
12C30C
  8
OBJECT
 10
2000.0
 20
-3294.9999999999959
 30
0.0
 40
77.0
1001
ACDBBLOCKREPETAG
1070
     1
1071
       17
1005
12C30C
  0
ARC
  5
12C30D
  8
OBJECT
 10
2000.0
 20
-3294.9999999999959
 30
0.0
 40
80.0
 50
50.805032573862128
 51
309.19496742613791
1001
ACDBBLOCKREPETAG
1070
     1
1071
       18
1005
12C30D
  0
LINE
  5
12C30E
  8
OBJECT
 10
2045.6618002273251
 20
-3232.9999999999959
 30
0.0
 11
2080.0
 21
-3232.9999999999959
 31
0.0
1001
ACDBBLOCKREPETAG
1070
     1
1071
       19
1005
12C30E
  0
LINE
  5
12C30F
  8
OBJECT
 10
2045.6618002273251
 20
-3356.9999999999959
 30
0.0
 11
2080.0
 21
-3356.9999999999959
 31
0.0
1001
ACDBBLOCKREPETAG
1070
     1
1071
       20
1005
12C30F
  0
POINT
  5
12C310
  8
DOTS
 10
2000.0
 20
-3294.9999999999959
 30
0.0
1001
ACDBBLOCKREPETAG
1070
     1
1071
       21
1005
12C310
  0
LINE
  5
12C311
  8
SLIM
 10
3945.2566704261012
 20
-137.99999999999909
 30
0.0
 11
3955.9548403695781
 21
-127.30183005652231
 31
0.0
1001
GRADIENTCOLOR1ACI
1070
     5
1001
GRADIENTCOLOR2ACI
1070
     2
1001
ACAD
1010
0.0
1020
0.0
1030
0.0
1001
ACDBBLOCKREPETAG
1070
     1
1071
      422
1005
12C311
  0
LINE
  5
12C312
  8
SLIM
 10
3954.2369265471712
 20
-137.99999999999909
 30
0.0
 11
3972.7507744763329
 21
-119.4861520708364
 31
0.0
1001
GRADIENTCOLOR1ACI
1070
     5
1001
GRADIENTCOLOR2ACI
1070
     2
1001
ACAD
1010
0.0
1020
0.0
1030
0.0
1001
ACDBBLOCKREPETAG
1070
     1
1071
      423
1005
12C312
  0
LINE
  5
12C313
  8
SLIM
 10
3973.521224312457
 20
-127.6959583557812
 30
0.0
 11
3984.8575146748631
 21
-116.359667993377
 31
0.0
1001
GRADIENTCOLOR1ACI
1070
     5
1001
GRADIENTCOLOR2ACI
1070
     2
1001
ACAD
1010
0.0
1020
0.0
1030
0.0
1001
ACDBBLOCKREPETAG
1070
     1
1071
      424
1005
12C313
  0
LINE
  5
12C314
  8
SLIM
 10
3985.8944171461271
 20
-124.30302164318159
 30
0.0
 11
3995.0533812002559
 21
-115.1440575890517
 31
0.0
1001
GRADIENTCOLOR1ACI
1070
     5
1001
GRADIENTCOLOR2ACI
1070
     2
1001
ACAD
1010
0.0
1020
0.0
1030
0.0
1001
ACDBBLOCKREPETAG
1070
     1
1071
      425
1005
12C314
  0
LINE
  5
12C315
  8
SLIM
 10
3996.0777327492078
 20
-123.0999621611699
 30
0.0
 11
4000.0
 21
-119.1776949103767
 31
0.0
1001
GRADIENTCOLOR1ACI
1070
     5
1001
GRADIENTCOLOR2ACI
1070
     2
1001
ACAD
1010
0.0
1020
0.0
1030
0.0
1001
ACDBBLOCKREPETAG
1070
     1
1071
      426
1005
12C315
  0
LINE
  5
12C316
  8
SLIM
 10
4000.0
 20
-119.1776949103767
 30
0.0
 11
4004.0797313529042
 21
-115.0979635574724
 31
0.0
1001
GRADIENTCOLOR1ACI
1070
     5
1001
GRADIENTCOLOR2ACI
1070
     2
1001
ACAD
1010
0.0
1020
0.0
1030
0.0
1001
ACDBBLOCKREPETAG
1070
     1
1071
      427
1005
12C316
  0
LINE
  5
12C317
  8
SLIM
 10
4004.9957202542769
 20
-123.1622307771683
 30
0.0
 11
4012.2679784105749
 21
-115.88997262087101
 31
0.0
1001
GRADIENTCOLOR1ACI
1070
     5
1001
GRADIENTCOLOR2ACI
1070
     2
1001
ACAD
1010
0.0
1020
0.0
1030
0.0
1001
ACDBBLOCKREPETAG
1070
     1
1071
      428
1005
12C317
  0
LINE
  5
12C318
  8
SLIM
 10
4013.028059366964
 20
-124.1101477855505
 30
0.0
 11
4019.799941457361
 21
-117.3382656951526
 31
0.0
1001
GRADIENTCOLOR1ACI
1070
     5
1001
GRADIENTCOLOR2ACI
1070
     2
1001
ACAD
1010
0.0
1020
0.0
1030
0.0
1001
ACDBBLOCKREPETAG
1070
     1
1071
      429
1005
12C318
  0
LINE
  5
12C319
  8
SLIM
 10
4020.3740813142458
 20
-125.7443819593383
 30
0.0
 11
4026.7872038672799
 21
-119.3312594063044
 31
0.0
1001
GRADIENTCOLOR1ACI
1070
     5
1001
GRADIENTCOLOR2ACI
1070
     2
1001
ACAD
1010
0.0
1020
0.0
1030
0.0
1001
ACDBBLOCKREPETAG
1070
     1
1071
      430
1005
12C319
  0
LINE
  5
12C31A
  8
SLIM
 10
4027.1524719988752
 20
-127.946247395778
 30
0.0
 11
4033.3030030760328
 21
-121.7957163186195
 31
0.0
1001
GRADIENTCOLOR1ACI
1070
     5
1001
GRADIENTCOLOR2ACI
1070
     2
1001
ACAD
1010
0.0
1020
0.0
1030
0.0
1001
ACDBBLOCKREPETAG
1070
     1
1071
      431
1005
12C31A
  0
LINE
  5
12C31B
  8
SLIM
 10
4033.4390986513308
 20
-130.63987686439191
 30
0.0
 11
4039.3973119843781
 21
-124.6816635313439
 31
0.0
1001
GRADIENTCOLOR1ACI
1070
     5
1001
GRADIENTCOLOR2ACI
1070
     2
1001
ACAD
1010
0.0
1020
0.0
1030
0.0
1001
ACDBBLOCKREPETAG
1070
     1
1071
      432
1005
12C31B
  0
LINE
  5
12C31C
  8
SLIM
 10
4039.284224621797
 20
-133.77500701499321
 30
0.0
 11
4045.1047705343681
 21
-127.95446110242381
 31
0.0
1001
GRADIENTCOLOR1ACI
1070
     5
1001
GRADIENTCOLOR2ACI
1070
     2
1001
ACAD
1010
0.0
1020
0.0
1030
0.0
1001
ACDBBLOCKREPETAG
1070
     1
1071
      433
1005
12C31C
  0
LINE
  5
12C31D
  8
SLIM
 10
4044.7212801698038
 20
-137.31820758805651
 30
0.0
 11
4050.4491557891961
 21
-131.59033196866449
 31
0.0
1001
GRADIENTCOLOR1ACI
1070
     5
1001
GRADIENTCOLOR2ACI
1070
     2
1001
ACAD
1010
0.0
1020
0.0
1030
0.0
1001
ACDBBLOCKREPETAG
1070
     1
1071
      434
1005
12C31D
  0
LINE
  5
12C31E
  8
SLIM
 10
4053.0197438789291
 20
-137.99999999999909
 30
0.0
 11
4055.4459941864038
 21
-135.57374969252561
 31
0.0
1001
GRADIENTCOLOR1ACI
1070
     5
1001
GRADIENTCOLOR2ACI
1070
     2
1001
ACAD
1010
0.0
1020
0.0
1030
0.0
1001
ACDBBLOCKREPETAG
1070
     1
1071
      435
1005
12C31E
  0
LINE
  5
12C31F
  8
CENTER
 10
4000.0
 20
-279.99999999999909
 30
0.0
 11
4000.0
 21
-99.999999999999091
 31
0.0
1001
ACDBBLOCKREPETAG
1070
     1
1071
      160
1005
12C31F
  0
CIRCLE
  5
12C320
  8
OBJECT
 10
4000.0
 20
-199.99999999999909
 30
0.0
 40
70.0
1001
ACDBBLOCKREPETAG
1070
     1
1071
      161
1005
12C320
  0
CIRCLE
  5
12C321
  8
OBJECT
 10
4000.0
 20
-199.99999999999909
 30
0.0
 40
77.0
1001
ACDBBLOCKREPETAG
1070
     1
1071
      162
1005
12C321
  0
LINE
  5
12C322
  8
OBJECT
 10
4045.661800227324
 20
-137.99999999999909
 30
0.0
 11
4080.0
 21
-137.99999999999909
 31
0.0
1001
ACDBBLOCKREPETAG
1070
     1
1071
      164
1005
12C322
  0
LINE
  5
12C323
  8
OBJECT
 10
4062.0
 20
-261.99999999999909
 30
0.0
 11
4080.0
 21
-261.99999999999909
 31
0.0
1001
ACDBBLOCKREPETAG
1070
     1
1071
      165
1005
12C323
  0
LINE
  5
12C324
  8
OBJECT
 10
4062.0
 20
-261.99999999999909
 30
0.0
 11
4062.0
 21
-279.99999999999909
 31
0.0
1001
ACDBBLOCKREPETAG
1070
     1
1071
      167
1005
12C324
  0
LINE
  5
12C325
  8
OBJECT
 10
3938.0
 20
-261.99999999999909
 30
0.0
 11
3938.0
 21
-279.99999999999909
 31
0.0
1001
ACDBBLOCKREPETAG
1070
     1
1071
      168
1005
12C325
  0
LINE
  5
12C326
  8
OBJECT
 10
3938.0
 20
-261.99999999999909
 30
0.0
 11
3920.0
 21
-261.99999999999909
 31
0.0
1001
ACDBBLOCKREPETAG
1070
     1
1071
      170
1005
12C326
  0
LINE
  5
12C327
  8
OBJECT
 10
3954.338199772676
 20
-137.99999999999909
 30
0.0
 11
3920.0
 21
-137.99999999999909
 31
0.0
1001
ACDBBLOCKREPETAG
1070
     1
1071
      171
1005
12C327
  0
LINE
  5
12C328
  8
OBJECT
 10
3945.5527778486362
 20
-254.44722215136329
 30
0.0
 11
3938.0
 21
-261.99999999999909
 31
0.0
1001
ACDBBLOCKREPETAG
1070
     1
1071
      180
1005
12C328
  0
LINE
  5
12C329
  8
OBJECT
 10
4054.4472221513638
 20
-254.44722215136329
 30
0.0
 11
4062.0
 21
-261.99999999999909
 31
0.0
1001
ACDBBLOCKREPETAG
1070
     1
1071
      181
1005
12C329
  0
POINT
  5
12C32A
  8
DOTS
 10
4000.0
 20
-199.99999999999909
 30
0.0
 50
270.0
1001
ACDBBLOCKREPETAG
1070
     1
1071
      182
1005
12C32A
  0
ARC
  5
12C32B
  8
OBJECT
 10
4000.0
 20
-199.99999999999909
 30
0.0
 40
85.0
 50
46.837102859806208
 51
133.16289714019371
1001
ACDBBLOCKREPETAG
1070
     1
1071
      183
1005
12C32B
  0
CIRCLE
  5
12C32C
  8
OBJECT
 10
4000.0
 20
-199.99999999999909
 30
0.0
 40
53.5
1001
ACDBBLOCKREPETAG
1070
     1
1071
      352
1005
12C32C
  0
LINE
  5
12C32D
  8
CENTER
 10
4080.0
 20
-199.99999999999909
 30
0.0
 11
3920.0
 21
-199.99999999999909
 31
0.0
1001
ACDBBLOCKREPETAG
1070
     1
1071
      158
1005
12C32D
  0
CIRCLE
  5
12C32E
  8
OBJECT
 10
2000.0
 20
-199.99999999999909
 30
0.0
 40
53.5
1001
ACDBBLOCKREPETAG
1070
     1
1071
      340
1005
12C32E
  0
LINE
  5
12C32F
  8
CENTER
 10
2080.0
 20
-199.99999999999909
 30
0.0
 11
1920.0
 21
-199.99999999999909
 31
0.0
1001
ACDBBLOCKREPETAG
1070
     1
1071
       49
1005
12C32F
  0
LINE
  5
12C330
  8
CENTER
 10
2000.0
 20
-279.99999999999909
 30
0.0
 11
2000.0
 21
-104.9999999999991
 31
0.0
1001
ACDBBLOCKREPETAG
1070
     1
1071
       50
1005
12C330
  0
CIRCLE
  5
12C331
  8
OBJECT
 10
2000.0
 20
-199.99999999999909
 30
0.0
 40
70.0
1001
ACDBBLOCKREPETAG
1070
     1
1071
       51
1005
12C331
  0
CIRCLE
  5
12C332
  8
OBJECT
 10
2000.0
 20
-199.99999999999909
 30
0.0
 40
77.0
1001
ACDBBLOCKREPETAG
1070
     1
1071
       52
1005
12C332
  0
ARC
  5
12C333
  8
OBJECT
 10
2000.0
 20
-199.99999999999909
 30
0.0
 40
80.0
 50
50.805032573864182
 51
129.1949674261358
1001
ACDBBLOCKREPETAG
1070
     1
1071
       53
1005
12C333
  0
LINE
  5
12C334
  8
OBJECT
 10
2045.6618002273251
 20
-137.99999999999909
 30
0.0
 11
2080.0
 21
-137.99999999999909
 31
0.0
1001
ACDBBLOCKREPETAG
1070
     1
1071
       54
1005
12C334
  0
LINE
  5
12C335
  8
OBJECT
 10
2062.0
 20
-261.99999999999909
 30
0.0
 11
2080.0
 21
-261.99999999999909
 31
0.0
1001
ACDBBLOCKREPETAG
1070
     1
1071
       55
1005
12C335
  0
LINE
  5
12C336
  8
OBJECT
 10
2062.0
 20
-261.99999999999909
 30
0.0
 11
2062.0
 21
-279.99999999999909
 31
0.0
1001
ACDBBLOCKREPETAG
1070
     1
1071
       57
1005
12C336
  0
LINE
  5
12C337
  8
OBJECT
 10
1938.0
 20
-261.99999999999909
 30
0.0
 11
1938.0
 21
-279.99999999999909
 31
0.0
1001
ACDBBLOCKREPETAG
1070
     1
1071
       58
1005
12C337
  0
POINT
  5
12C338
  8
DOTS
 10
2000.0
 20
-199.99999999999909
 30
0.0
 50
90.0
1001
ACDBBLOCKREPETAG
1070
     1
1071
       59
1005
12C338
  0
LINE
  5
12C339
  8
OBJECT
 10
1938.0
 20
-261.99999999999909
 30
0.0
 11
1920.0
 21
-261.99999999999909
 31
0.0
1001
ACDBBLOCKREPETAG
1070
     1
1071
       60
1005
12C339
  0
LINE
  5
12C33A
  8
OBJECT
 10
1954.3381997726749
 20
-137.99999999999909
 30
0.0
 11
1920.0
 21
-137.99999999999909
 31
0.0
1001
ACDBBLOCKREPETAG
1070
     1
1071
       61
1005
12C33A
  0
LINE
  5
12C33B
  8
OBJECT
 10
1945.5527778486351
 20
-254.44722215136329
 30
0.0
 11
1938.0
 21
-261.99999999999909
 31
0.0
1001
ACDBBLOCKREPETAG
1070
     1
1071
       42
1005
12C33B
  0
LINE
  5
12C33C
  8
OBJECT
 10
2054.4472221513638
 20
-254.44722215136329
 30
0.0
 11
2062.0
 21
-261.99999999999909
 31
0.0
1001
ACDBBLOCKREPETAG
1070
     1
1071
       43
1005
12C33C
  0
TEXT
  5
12C33D
  8
SLIM
 10
1837.75
 20
282.50000000000011
 30
0.0
 40
35.0
  1
（枝管サイズ毎に寸法が異なります。管底の位置は50～100で同じです）
 41
0.75
  0
TEXT
  5
12C33E
  8
SLIM
 10
1850.0
 20
532.5
 30
0.0
 40
75.0
  1
側面図の代表機種
 41
0.75
  0
TEXT
  5
12C33F
  8
SLIM
 10
1850.0
 20
369.99999999999989
 30
0.0
 40
100.0
  1
4SRT-B303（特注品）
 41
0.75
  0
CIRCLE
  5
12C340
  8
OBJECT
 10
535.99999999987813
 20
-2051.999999999367
 30
0.0
 40
70.0
1001
ACDBBLOCKREPETAG
1070
     1
1071
       43
1005
12C340
  0
CIRCLE
  5
12C341
  8
OBJECT
 10
535.99999999987813
 20
-2051.999999999367
 30
0.0
 40
77.0
1001
ACDBBLOCKREPETAG
1070
     1
1071
       44
1005
12C341
  0
ARC
  5
12C342
  8
OBJECT
 10
535.99999999987813
 20
-2051.999999999367
 30
0.0
 40
80.0
 50
140.80503257378879
 51
219.19496742621121
1001
ACDBBLOCKREPETAG
1070
     1
1071
       45
1005
12C342
  0
LINE
  5
12C343
  8
OBJECT
 10
473.99999999987801
 20
-2006.338199772043
 30
0.0
 11
473.99999999987801
 21
-1971.999999999367
 31
0.0
1001
ACDBBLOCKREPETAG
1070
     1
1071
       46
1005
12C343
  0
LINE
  5
12C344
  8
OBJECT
 10
597.99999999987813
 20
-1989.999999999367
 30
0.0
 11
597.99999999987813
 21
-1971.999999999367
 31
0.0
1001
ACDBBLOCKREPETAG
1070
     1
1071
       22
1005
12C344
  0
LINE
  5
12C345
  8
OBJECT
 10
597.99999999987813
 20
-1989.999999999367
 30
0.0
 11
615.99999999987813
 21
-1989.999999999367
 31
0.0
1001
ACDBBLOCKREPETAG
1070
     1
1071
       24
1005
12C345
  0
LINE
  5
12C346
  8
OBJECT
 10
597.99999999987813
 20
-2113.999999999367
 30
0.0
 11
615.99999999987813
 21
-2113.999999999367
 31
0.0
1001
ACDBBLOCKREPETAG
1070
     1
1071
       25
1005
12C346
  0
LINE
  5
12C347
  8
OBJECT
 10
597.99999999987813
 20
-2113.999999999367
 30
0.0
 11
597.99999999987813
 21
-2131.999999999367
 31
0.0
1001
ACDBBLOCKREPETAG
1070
     1
1071
       27
1005
12C347
  0
LINE
  5
12C348
  8
OBJECT
 10
473.99999999987801
 20
-2097.6618002266919
 30
0.0
 11
473.99999999987801
 21
-2131.999999999367
 31
0.0
1001
ACDBBLOCKREPETAG
1070
     1
1071
       28
1005
12C348
  0
LINE
  5
12C349
  8
OBJECT
 10
590.44722215124227
 20
-2106.4472221507308
 30
0.0
 11
597.99999999987813
 21
-2113.999999999367
 31
0.0
1001
ACDBBLOCKREPETAG
1070
     1
1071
       37
1005
12C349
  0
LINE
  5
12C34A
  8
OBJECT
 10
590.44722215124227
 20
-1997.552777848003
 30
0.0
 11
597.99999999987813
 21
-1989.999999999367
 31
0.0
1001
ACDBBLOCKREPETAG
1070
     1
1071
       38
1005
12C34A
  0
POINT
  5
12C34B
  8
DOTS
 10
535.99999999987813
 20
-2051.999999999367
 30
0.0
1001
ACDBBLOCKREPETAG
1070
     1
1071
       39
1005
12C34B
  0
CIRCLE
  5
12C34C
  8
OBJECT
 10
535.99999999987813
 20
-2051.999999999367
 30
0.0
 40
53.5
1001
ACDBBLOCKREPETAG
1070
     1
1071
      153
1005
12C34C
  0
CIRCLE
  5
12C34D
  8
OBJECT
 10
176.0
 20
-2051.999999999367
 30
0.0
 40
70.0
1001
ACDBBLOCKREPETAG
1070
     1
1071
       43
1005
12C34D
  0
CIRCLE
  5
12C34E
  8
OBJECT
 10
176.0
 20
-2051.999999999367
 30
0.0
 40
77.0
1001
ACDBBLOCKREPETAG
1070
     1
1071
       44
1005
12C34E
  0
ARC
  5
12C34F
  8
OBJECT
 10
176.0
 20
-2051.999999999367
 30
0.0
 40
80.0
 50
140.80503257378979
 51
219.1949674262101
1001
ACDBBLOCKREPETAG
1070
     1
1071
       45
1005
12C34F
  0
LINE
  5
12C350
  8
OBJECT
 10
114.0
 20
-2006.338199772043
 30
0.0
 11
114.0
 21
-1971.999999999367
 31
0.0
1001
ACDBBLOCKREPETAG
1070
     1
1071
       46
1005
12C350
  0
LINE
  5
12C351
  8
OBJECT
 10
238.0
 20
-1989.999999999367
 30
0.0
 11
238.0
 21
-1971.999999999367
 31
0.0
1001
ACDBBLOCKREPETAG
1070
     1
1071
       22
1005
12C351
  0
LINE
  5
12C352
  8
OBJECT
 10
238.0
 20
-1989.999999999367
 30
0.0
 11
256.0
 21
-1989.999999999367
 31
0.0
1001
ACDBBLOCKREPETAG
1070
     1
1071
       24
1005
12C352
  0
LINE
  5
12C353
  8
OBJECT
 10
238.0
 20
-2113.999999999367
 30
0.0
 11
256.0
 21
-2113.999999999367
 31
0.0
1001
ACDBBLOCKREPETAG
1070
     1
1071
       25
1005
12C353
  0
LINE
  5
12C354
  8
OBJECT
 10
238.0
 20
-2113.999999999367
 30
0.0
 11
238.0
 21
-2131.999999999367
 31
0.0
1001
ACDBBLOCKREPETAG
1070
     1
1071
       27
1005
12C354
  0
LINE
  5
12C355
  8
OBJECT
 10
114.0
 20
-2097.6618002266919
 30
0.0
 11
114.0
 21
-2131.999999999367
 31
0.0
1001
ACDBBLOCKREPETAG
1070
     1
1071
       28
1005
12C355
  0
LINE
  5
12C356
  8
OBJECT
 10
230.44722215136429
 20
-2106.4472221507308
 30
0.0
 11
238.0
 21
-2113.999999999367
 31
0.0
1001
ACDBBLOCKREPETAG
1070
     1
1071
       37
1005
12C356
  0
LINE
  5
12C357
  8
OBJECT
 10
230.44722215136429
 20
-1997.552777848003
 30
0.0
 11
238.0
 21
-1989.999999999367
 31
0.0
1001
ACDBBLOCKREPETAG
1070
     1
1071
       38
1005
12C357
  0
POINT
  5
12C358
  8
DOTS
 10
176.0
 20
-2051.999999999367
 30
0.0
1001
ACDBBLOCKREPETAG
1070
     1
1071
       39
1005
12C358
  0
CIRCLE
  5
12C359
  8
OBJECT
 10
176.0
 20
-2051.999999999367
 30
0.0
 40
53.5
1001
ACDBBLOCKREPETAG
1070
     1
1071
      153
1005
12C359
  0
CIRCLE
  5
12C35A
  8
OBJECT
 10
535.99999999987813
 20
-1587.999999999525
 30
0.0
 40
70.0
1001
ACDBBLOCKREPETAG
1070
     1
1071
       43
1005
12C35A
  0
CIRCLE
  5
12C35B
  8
OBJECT
 10
535.99999999987813
 20
-1587.999999999525
 30
0.0
 40
77.0
1001
ACDBBLOCKREPETAG
1070
     1
1071
       44
1005
12C35B
  0
ARC
  5
12C35C
  8
OBJECT
 10
535.99999999987813
 20
-1587.999999999525
 30
0.0
 40
80.0
 50
140.8050325737787
 51
219.1949674262213
1001
ACDBBLOCKREPETAG
1070
     1
1071
       45
1005
12C35C
  0
LINE
  5
12C35D
  8
OBJECT
 10
473.99999999987801
 20
-1542.3381997722011
 30
0.0
 11
473.99999999987801
 21
-1507.999999999525
 31
0.0
1001
ACDBBLOCKREPETAG
1070
     1
1071
       46
1005
12C35D
  0
LINE
  5
12C35E
  8
OBJECT
 10
597.99999999987813
 20
-1525.999999999525
 30
0.0
 11
597.99999999987813
 21
-1507.999999999525
 31
0.0
1001
ACDBBLOCKREPETAG
1070
     1
1071
       22
1005
12C35E
  0
LINE
  5
12C35F
  8
OBJECT
 10
597.99999999987813
 20
-1525.999999999525
 30
0.0
 11
615.99999999987813
 21
-1525.999999999525
 31
0.0
1001
ACDBBLOCKREPETAG
1070
     1
1071
       24
1005
12C35F
  0
LINE
  5
12C360
  8
OBJECT
 10
597.99999999987813
 20
-1649.999999999525
 30
0.0
 11
615.99999999987813
 21
-1649.999999999525
 31
0.0
1001
ACDBBLOCKREPETAG
1070
     1
1071
       25
1005
12C360
  0
LINE
  5
12C361
  8
OBJECT
 10
597.99999999987813
 20
-1649.999999999525
 30
0.0
 11
597.99999999987813
 21
-1667.999999999525
 31
0.0
1001
ACDBBLOCKREPETAG
1070
     1
1071
       27
1005
12C361
  0
LINE
  5
12C362
  8
OBJECT
 10
473.99999999987801
 20
-1633.6618002268499
 30
0.0
 11
473.99999999987801
 21
-1667.999999999525
 31
0.0
1001
ACDBBLOCKREPETAG
1070
     1
1071
       28
1005
12C362
  0
LINE
  5
12C363
  8
OBJECT
 10
590.44722215124227
 20
-1642.447222150889
 30
0.0
 11
597.99999999987813
 21
-1649.999999999525
 31
0.0
1001
ACDBBLOCKREPETAG
1070
     1
1071
       37
1005
12C363
  0
LINE
  5
12C364
  8
OBJECT
 10
590.44722215124227
 20
-1533.552777848161
 30
0.0
 11
597.99999999987813
 21
-1525.999999999525
 31
0.0
1001
ACDBBLOCKREPETAG
1070
     1
1071
       38
1005
12C364
  0
POINT
  5
12C365
  8
DOTS
 10
535.99999999987813
 20
-1587.999999999525
 30
0.0
1001
ACDBBLOCKREPETAG
1070
     1
1071
       39
1005
12C365
  0
CIRCLE
  5
12C366
  8
OBJECT
 10
535.99999999987813
 20
-1587.999999999525
 30
0.0
 40
53.5
1001
ACDBBLOCKREPETAG
1070
     1
1071
      153
1005
12C366
  0
CIRCLE
  5
12C367
  8
OBJECT
 10
176.0
 20
-1587.999999999525
 30
0.0
 40
70.0
1001
ACDBBLOCKREPETAG
1070
     1
1071
       43
1005
12C367
  0
CIRCLE
  5
12C368
  8
OBJECT
 10
176.0
 20
-1587.999999999525
 30
0.0
 40
77.0
1001
ACDBBLOCKREPETAG
1070
     1
1071
       44
1005
12C368
  0
ARC
  5
12C369
  8
OBJECT
 10
176.0
 20
-1587.999999999525
 30
0.0
 40
80.0
 50
140.80503257377961
 51
219.1949674262203
1001
ACDBBLOCKREPETAG
1070
     1
1071
       45
1005
12C369
  0
LINE
  5
12C36A
  8
OBJECT
 10
114.0
 20
-1542.3381997722011
 30
0.0
 11
114.0
 21
-1507.999999999525
 31
0.0
1001
ACDBBLOCKREPETAG
1070
     1
1071
       46
1005
12C36A
  0
LINE
  5
12C36B
  8
OBJECT
 10
238.0
 20
-1525.999999999525
 30
0.0
 11
238.0
 21
-1507.999999999525
 31
0.0
1001
ACDBBLOCKREPETAG
1070
     1
1071
       22
1005
12C36B
  0
LINE
  5
12C36C
  8
OBJECT
 10
238.0
 20
-1525.999999999525
 30
0.0
 11
256.0
 21
-1525.999999999525
 31
0.0
1001
ACDBBLOCKREPETAG
1070
     1
1071
       24
1005
12C36C
  0
LINE
  5
12C36D
  8
OBJECT
 10
238.0
 20
-1649.999999999525
 30
0.0
 11
256.0
 21
-1649.999999999525
 31
0.0
1001
ACDBBLOCKREPETAG
1070
     1
1071
       25
1005
12C36D
  0
LINE
  5
12C36E
  8
OBJECT
 10
238.0
 20
-1649.999999999525
 30
0.0
 11
238.0
 21
-1667.999999999525
 31
0.0
1001
ACDBBLOCKREPETAG
1070
     1
1071
       27
1005
12C36E
  0
LINE
  5
12C36F
  8
OBJECT
 10
114.0
 20
-1633.6618002268499
 30
0.0
 11
114.0
 21
-1667.999999999525
 31
0.0
1001
ACDBBLOCKREPETAG
1070
     1
1071
       28
1005
12C36F
  0
LINE
  5
12C370
  8
OBJECT
 10
230.44722215136429
 20
-1642.447222150889
 30
0.0
 11
238.0
 21
-1649.999999999525
 31
0.0
1001
ACDBBLOCKREPETAG
1070
     1
1071
       37
1005
12C370
  0
LINE
  5
12C371
  8
OBJECT
 10
230.44722215136429
 20
-1533.552777848161
 30
0.0
 11
238.0
 21
-1525.999999999525
 31
0.0
1001
ACDBBLOCKREPETAG
1070
     1
1071
       38
1005
12C371
  0
POINT
  5
12C372
  8
DOTS
 10
176.0
 20
-1587.999999999525
 30
0.0
1001
ACDBBLOCKREPETAG
1070
     1
1071
       39
1005
12C372
  0
CIRCLE
  5
12C373
  8
OBJECT
 10
176.0
 20
-1587.999999999525
 30
0.0
 40
53.5
1001
ACDBBLOCKREPETAG
1070
     1
1071
      153
1005
12C373
  0
CIRCLE
  5
12C374
  8
OBJECT
 10
535.99999999987813
 20
-1123.999999999684
 30
0.0
 40
70.0
1001
ACDBBLOCKREPETAG
1070
     1
1071
       43
1005
12C374
  0
CIRCLE
  5
12C375
  8
OBJECT
 10
535.99999999987813
 20
-1123.999999999684
 30
0.0
 40
77.0
1001
ACDBBLOCKREPETAG
1070
     1
1071
       44
1005
12C375
  0
ARC
  5
12C376
  8
OBJECT
 10
535.99999999987813
 20
-1123.999999999684
 30
0.0
 40
80.0
 50
140.8050325737787
 51
219.1949674262213
1001
ACDBBLOCKREPETAG
1070
     1
1071
       45
1005
12C376
  0
LINE
  5
12C377
  8
OBJECT
 10
473.99999999987801
 20
-1078.3381997723591
 30
0.0
 11
473.99999999987801
 21
-1043.999999999684
 31
0.0
1001
ACDBBLOCKREPETAG
1070
     1
1071
       46
1005
12C377
  0
LINE
  5
12C378
  8
OBJECT
 10
597.99999999987813
 20
-1061.999999999684
 30
0.0
 11
597.99999999987813
 21
-1043.999999999684
 31
0.0
1001
ACDBBLOCKREPETAG
1070
     1
1071
       22
1005
12C378
  0
LINE
  5
12C379
  8
OBJECT
 10
597.99999999987813
 20
-1061.999999999684
 30
0.0
 11
615.99999999987813
 21
-1061.999999999684
 31
0.0
1001
ACDBBLOCKREPETAG
1070
     1
1071
       24
1005
12C379
  0
LINE
  5
12C37A
  8
OBJECT
 10
597.99999999987813
 20
-1185.999999999683
 30
0.0
 11
615.99999999987813
 21
-1185.999999999683
 31
0.0
1001
ACDBBLOCKREPETAG
1070
     1
1071
       25
1005
12C37A
  0
LINE
  5
12C37B
  8
OBJECT
 10
597.99999999987813
 20
-1185.999999999683
 30
0.0
 11
597.99999999987813
 21
-1203.999999999683
 31
0.0
1001
ACDBBLOCKREPETAG
1070
     1
1071
       27
1005
12C37B
  0
LINE
  5
12C37C
  8
OBJECT
 10
473.99999999987801
 20
-1169.6618002270079
 30
0.0
 11
473.99999999987801
 21
-1203.999999999683
 31
0.0
1001
ACDBBLOCKREPETAG
1070
     1
1071
       28
1005
12C37C
  0
LINE
  5
12C37D
  8
OBJECT
 10
590.44722215124227
 20
-1178.447222151048
 30
0.0
 11
597.99999999987813
 21
-1185.999999999683
 31
0.0
1001
ACDBBLOCKREPETAG
1070
     1
1071
       37
1005
12C37D
  0
LINE
  5
12C37E
  8
OBJECT
 10
590.44722215124227
 20
-1069.552777848319
 30
0.0
 11
597.99999999987813
 21
-1061.999999999684
 31
0.0
1001
ACDBBLOCKREPETAG
1070
     1
1071
       38
1005
12C37E
  0
POINT
  5
12C37F
  8
DOTS
 10
535.99999999987813
 20
-1123.999999999684
 30
0.0
1001
ACDBBLOCKREPETAG
1070
     1
1071
       39
1005
12C37F
  0
CIRCLE
  5
12C380
  8
OBJECT
 10
535.99999999987813
 20
-1123.999999999684
 30
0.0
 40
53.5
1001
ACDBBLOCKREPETAG
1070
     1
1071
      153
1005
12C380
  0
CIRCLE
  5
12C381
  8
OBJECT
 10
175.9999999999998
 20
-1123.999999999684
 30
0.0
 40
70.0
1001
ACDBBLOCKREPETAG
1070
     1
1071
       43
1005
12C381
  0
CIRCLE
  5
12C382
  8
OBJECT
 10
175.9999999999998
 20
-1123.999999999684
 30
0.0
 40
77.0
1001
ACDBBLOCKREPETAG
1070
     1
1071
       44
1005
12C382
  0
ARC
  5
12C383
  8
OBJECT
 10
175.9999999999998
 20
-1123.999999999684
 30
0.0
 40
80.0
 50
140.80503257377961
 51
219.1949674262203
1001
ACDBBLOCKREPETAG
1070
     1
1071
       45
1005
12C383
  0
LINE
  5
12C384
  8
OBJECT
 10
113.9999999999998
 20
-1078.3381997723591
 30
0.0
 11
113.9999999999998
 21
-1043.999999999684
 31
0.0
1001
ACDBBLOCKREPETAG
1070
     1
1071
       46
1005
12C384
  0
LINE
  5
12C385
  8
OBJECT
 10
237.99999999999989
 20
-1061.999999999684
 30
0.0
 11
237.99999999999989
 21
-1043.999999999684
 31
0.0
1001
ACDBBLOCKREPETAG
1070
     1
1071
       22
1005
12C385
  0
LINE
  5
12C386
  8
OBJECT
 10
237.99999999999989
 20
-1061.999999999684
 30
0.0
 11
255.9999999999998
 21
-1061.999999999684
 31
0.0
1001
ACDBBLOCKREPETAG
1070
     1
1071
       24
1005
12C386
  0
LINE
  5
12C387
  8
OBJECT
 10
237.99999999999989
 20
-1185.999999999684
 30
0.0
 11
255.9999999999998
 21
-1185.999999999684
 31
0.0
1001
ACDBBLOCKREPETAG
1070
     1
1071
       25
1005
12C387
  0
LINE
  5
12C388
  8
OBJECT
 10
237.99999999999989
 20
-1185.999999999684
 30
0.0
 11
237.99999999999989
 21
-1203.999999999684
 31
0.0
1001
ACDBBLOCKREPETAG
1070
     1
1071
       27
1005
12C388
  0
LINE
  5
12C389
  8
OBJECT
 10
113.9999999999998
 20
-1169.6618002270079
 30
0.0
 11
113.9999999999998
 21
-1203.999999999684
 31
0.0
1001
ACDBBLOCKREPETAG
1070
     1
1071
       28
1005
12C389
  0
LINE
  5
12C38A
  8
OBJECT
 10
230.44722215136409
 20
-1178.447222151048
 30
0.0
 11
237.99999999999989
 21
-1185.999999999684
 31
0.0
1001
ACDBBLOCKREPETAG
1070
     1
1071
       37
1005
12C38A
  0
LINE
  5
12C38B
  8
OBJECT
 10
230.44722215136409
 20
-1069.552777848319
 30
0.0
 11
237.99999999999989
 21
-1061.999999999684
 31
0.0
1001
ACDBBLOCKREPETAG
1070
     1
1071
       38
1005
12C38B
  0
POINT
  5
12C38C
  8
DOTS
 10
175.9999999999998
 20
-1123.999999999684
 30
0.0
1001
ACDBBLOCKREPETAG
1070
     1
1071
       39
1005
12C38C
  0
CIRCLE
  5
12C38D
  8
OBJECT
 10
175.9999999999998
 20
-1123.999999999684
 30
0.0
 40
53.5
1001
ACDBBLOCKREPETAG
1070
     1
1071
      153
1005
12C38D
  0
CIRCLE
  5
12C38E
  8
OBJECT
 10
535.99999999987813
 20
-659.99999999984175
 30
0.0
 40
70.0
1001
ACDBBLOCKREPETAG
1070
     1
1071
       43
1005
12C38E
  0
CIRCLE
  5
12C38F
  8
OBJECT
 10
535.99999999987813
 20
-659.99999999984175
 30
0.0
 40
77.0
1001
ACDBBLOCKREPETAG
1070
     1
1071
       44
1005
12C38F
  0
ARC
  5
12C390
  8
OBJECT
 10
535.99999999987813
 20
-659.99999999984175
 30
0.0
 40
80.0
 50
140.8050325737787
 51
219.1949674262213
1001
ACDBBLOCKREPETAG
1070
     1
1071
       45
1005
12C390
  0
LINE
  5
12C391
  8
OBJECT
 10
473.99999999987801
 20
-614.33819977251721
 30
0.0
 11
473.99999999987801
 21
-579.99999999984175
 31
0.0
1001
ACDBBLOCKREPETAG
1070
     1
1071
       46
1005
12C391
  0
LINE
  5
12C392
  8
OBJECT
 10
597.99999999987813
 20
-597.99999999984175
 30
0.0
 11
597.99999999987813
 21
-579.99999999984175
 31
0.0
1001
ACDBBLOCKREPETAG
1070
     1
1071
       22
1005
12C392
  0
LINE
  5
12C393
  8
OBJECT
 10
597.99999999987813
 20
-597.99999999984175
 30
0.0
 11
615.99999999987813
 21
-597.99999999984175
 31
0.0
1001
ACDBBLOCKREPETAG
1070
     1
1071
       24
1005
12C393
  0
LINE
  5
12C394
  8
OBJECT
 10
597.99999999987813
 20
-721.99999999984175
 30
0.0
 11
615.99999999987813
 21
-721.99999999984175
 31
0.0
1001
ACDBBLOCKREPETAG
1070
     1
1071
       25
1005
12C394
  0
LINE
  5
12C395
  8
OBJECT
 10
597.99999999987813
 20
-721.99999999984175
 30
0.0
 11
597.99999999987813
 21
-739.99999999984175
 31
0.0
1001
ACDBBLOCKREPETAG
1070
     1
1071
       27
1005
12C395
  0
LINE
  5
12C396
  8
OBJECT
 10
473.99999999987801
 20
-705.66180022716617
 30
0.0
 11
473.99999999987801
 21
-739.99999999984175
 31
0.0
1001
ACDBBLOCKREPETAG
1070
     1
1071
       28
1005
12C396
  0
LINE
  5
12C397
  8
OBJECT
 10
590.44722215124227
 20
-714.44722215120601
 30
0.0
 11
597.99999999987813
 21
-721.99999999984175
 31
0.0
1001
ACDBBLOCKREPETAG
1070
     1
1071
       37
1005
12C397
  0
LINE
  5
12C398
  8
OBJECT
 10
590.44722215124227
 20
-605.55277784847738
 30
0.0
 11
597.99999999987813
 21
-597.99999999984175
 31
0.0
1001
ACDBBLOCKREPETAG
1070
     1
1071
       38
1005
12C398
  0
POINT
  5
12C399
  8
DOTS
 10
535.99999999987813
 20
-659.99999999984175
 30
0.0
1001
ACDBBLOCKREPETAG
1070
     1
1071
       39
1005
12C399
  0
CIRCLE
  5
12C39A
  8
OBJECT
 10
535.99999999987813
 20
-659.99999999984175
 30
0.0
 40
53.5
1001
ACDBBLOCKREPETAG
1070
     1
1071
      153
1005
12C39A
  0
CIRCLE
  5
12C39B
  8
OBJECT
 10
176.0
 20
-659.99999999984175
 30
0.0
 40
70.0
1001
ACDBBLOCKREPETAG
1070
     1
1071
       43
1005
12C39B
  0
CIRCLE
  5
12C39C
  8
OBJECT
 10
176.0
 20
-659.99999999984175
 30
0.0
 40
77.0
1001
ACDBBLOCKREPETAG
1070
     1
1071
       44
1005
12C39C
  0
ARC
  5
12C39D
  8
OBJECT
 10
176.0
 20
-659.99999999984175
 30
0.0
 40
80.0
 50
140.80503257377961
 51
219.1949674262203
1001
ACDBBLOCKREPETAG
1070
     1
1071
       45
1005
12C39D
  0
LINE
  5
12C39E
  8
OBJECT
 10
114.0
 20
-614.33819977251721
 30
0.0
 11
114.0
 21
-579.99999999984175
 31
0.0
1001
ACDBBLOCKREPETAG
1070
     1
1071
       46
1005
12C39E
  0
LINE
  5
12C39F
  8
OBJECT
 10
238.0
 20
-597.99999999984175
 30
0.0
 11
238.0
 21
-579.99999999984175
 31
0.0
1001
ACDBBLOCKREPETAG
1070
     1
1071
       22
1005
12C39F
  0
LINE
  5
12C3A0
  8
OBJECT
 10
238.0
 20
-597.99999999984175
 30
0.0
 11
256.0
 21
-597.99999999984175
 31
0.0
1001
ACDBBLOCKREPETAG
1070
     1
1071
       24
1005
12C3A0
  0
LINE
  5
12C3A1
  8
OBJECT
 10
238.0
 20
-721.99999999984175
 30
0.0
 11
256.0
 21
-721.99999999984175
 31
0.0
1001
ACDBBLOCKREPETAG
1070
     1
1071
       25
1005
12C3A1
  0
LINE
  5
12C3A2
  8
OBJECT
 10
238.0
 20
-721.99999999984175
 30
0.0
 11
238.0
 21
-739.99999999984175
 31
0.0
1001
ACDBBLOCKREPETAG
1070
     1
1071
       27
1005
12C3A2
  0
LINE
  5
12C3A3
  8
OBJECT
 10
114.0
 20
-705.66180022716617
 30
0.0
 11
114.0
 21
-739.99999999984175
 31
0.0
1001
ACDBBLOCKREPETAG
1070
     1
1071
       28
1005
12C3A3
  0
LINE
  5
12C3A4
  8
OBJECT
 10
230.44722215136429
 20
-714.44722215120601
 30
0.0
 11
238.0
 21
-721.99999999984175
 31
0.0
1001
ACDBBLOCKREPETAG
1070
     1
1071
       37
1005
12C3A4
  0
LINE
  5
12C3A5
  8
OBJECT
 10
230.44722215136429
 20
-605.55277784847738
 30
0.0
 11
238.0
 21
-597.99999999984175
 31
0.0
1001
ACDBBLOCKREPETAG
1070
     1
1071
       38
1005
12C3A5
  0
POINT
  5
12C3A6
  8
DOTS
 10
176.0
 20
-659.99999999984175
 30
0.0
1001
ACDBBLOCKREPETAG
1070
     1
1071
       39
1005
12C3A6
  0
CIRCLE
  5
12C3A7
  8
OBJECT
 10
176.0
 20
-659.99999999984175
 30
0.0
 40
53.5
1001
ACDBBLOCKREPETAG
1070
     1
1071
      153
1005
12C3A7
  0
CIRCLE
  5
12C3A8
  8
OBJECT
 10
535.99999999987813
 20
-196.0
 30
0.0
 40
70.0
1001
ACDBBLOCKREPETAG
1070
     1
1071
       43
1005
12C3A8
  0
CIRCLE
  5
12C3A9
  8
OBJECT
 10
535.99999999987813
 20
-196.0
 30
0.0
 40
77.0
1001
ACDBBLOCKREPETAG
1070
     1
1071
       44
1005
12C3A9
  0
ARC
  5
12C3AA
  8
OBJECT
 10
535.99999999987813
 20
-196.0
 30
0.0
 40
80.0
 50
140.80503257378001
 51
219.19496742621999
1001
ACDBBLOCKREPETAG
1070
     1
1071
       45
1005
12C3AA
  0
LINE
  5
12C3AB
  8
OBJECT
 10
473.99999999987801
 20
-150.33819977267541
 30
0.0
 11
473.99999999987801
 21
-116.0
 31
0.0
1001
ACDBBLOCKREPETAG
1070
     1
1071
       46
1005
12C3AB
  0
LINE
  5
12C3AC
  8
OBJECT
 10
597.99999999987813
 20
-134.0
 30
0.0
 11
597.99999999987813
 21
-116.0
 31
0.0
1001
ACDBBLOCKREPETAG
1070
     1
1071
       22
1005
12C3AC
  0
LINE
  5
12C3AD
  8
OBJECT
 10
597.99999999987813
 20
-134.0
 30
0.0
 11
615.99999999987813
 21
-134.0
 31
0.0
1001
ACDBBLOCKREPETAG
1070
     1
1071
       24
1005
12C3AD
  0
LINE
  5
12C3AE
  8
OBJECT
 10
597.99999999987813
 20
-258.0
 30
0.0
 11
615.99999999987813
 21
-258.0
 31
0.0
1001
ACDBBLOCKREPETAG
1070
     1
1071
       25
1005
12C3AE
  0
LINE
  5
12C3AF
  8
OBJECT
 10
597.99999999987813
 20
-258.0
 30
0.0
 11
597.99999999987813
 21
-276.0
 31
0.0
1001
ACDBBLOCKREPETAG
1070
     1
1071
       27
1005
12C3AF
  0
LINE
  5
12C3B0
  8
OBJECT
 10
473.99999999987801
 20
-241.66180022732439
 30
0.0
 11
473.99999999987801
 21
-276.0
 31
0.0
1001
ACDBBLOCKREPETAG
1070
     1
1071
       28
1005
12C3B0
  0
LINE
  5
12C3B1
  8
OBJECT
 10
590.44722215124227
 20
-250.44722215136429
 30
0.0
 11
597.99999999987813
 21
-258.0
 31
0.0
1001
ACDBBLOCKREPETAG
1070
     1
1071
       37
1005
12C3B1
  0
LINE
  5
12C3B2
  8
OBJECT
 10
590.44722215124227
 20
-141.55277784863571
 30
0.0
 11
597.99999999987813
 21
-134.0
 31
0.0
1001
ACDBBLOCKREPETAG
1070
     1
1071
       38
1005
12C3B2
  0
POINT
  5
12C3B3
  8
DOTS
 10
535.99999999987813
 20
-196.0
 30
0.0
1001
ACDBBLOCKREPETAG
1070
     1
1071
       39
1005
12C3B3
  0
CIRCLE
  5
12C3B4
  8
OBJECT
 10
535.99999999987813
 20
-196.0
 30
0.0
 40
53.5
1001
ACDBBLOCKREPETAG
1070
     1
1071
      153
1005
12C3B4
  0
CIRCLE
  5
12C3B5
  8
OBJECT
 10
176.0
 20
-196.0
 30
0.0
 40
70.0
1001
ACDBBLOCKREPETAG
1070
     1
1071
       43
1005
12C3B5
  0
CIRCLE
  5
12C3B6
  8
OBJECT
 10
176.0
 20
-196.0
 30
0.0
 40
77.0
1001
ACDBBLOCKREPETAG
1070
     1
1071
       44
1005
12C3B6
  0
ARC
  5
12C3B7
  8
OBJECT
 10
176.0
 20
-196.0
 30
0.0
 40
80.0
 50
140.80503257378101
 51
219.19496742621899
1001
ACDBBLOCKREPETAG
1070
     1
1071
       45
1005
12C3B7
  0
LINE
  5
12C3B8
  8
OBJECT
 10
114.0
 20
-150.33819977267541
 30
0.0
 11
114.0
 21
-116.0
 31
0.0
1001
ACDBBLOCKREPETAG
1070
     1
1071
       46
1005
12C3B8
  0
LINE
  5
12C3B9
  8
OBJECT
 10
238.0
 20
-134.0
 30
0.0
 11
238.0
 21
-116.0
 31
0.0
1001
ACDBBLOCKREPETAG
1070
     1
1071
       22
1005
12C3B9
  0
LINE
  5
12C3BA
  8
OBJECT
 10
238.0
 20
-134.0
 30
0.0
 11
256.0
 21
-134.0
 31
0.0
1001
ACDBBLOCKREPETAG
1070
     1
1071
       24
1005
12C3BA
  0
LINE
  5
12C3BB
  8
OBJECT
 10
238.0
 20
-258.0
 30
0.0
 11
256.0
 21
-258.0
 31
0.0
1001
ACDBBLOCKREPETAG
1070
     1
1071
       25
1005
12C3BB
  0
LINE
  5
12C3BC
  8
OBJECT
 10
238.0
 20
-258.0
 30
0.0
 11
238.0
 21
-276.0
 31
0.0
1001
ACDBBLOCKREPETAG
1070
     1
1071
       27
1005
12C3BC
  0
LINE
  5
12C3BD
  8
OBJECT
 10
114.0
 20
-241.66180022732439
 30
0.0
 11
114.0
 21
-276.0
 31
0.0
1001
ACDBBLOCKREPETAG
1070
     1
1071
       28
1005
12C3BD
  0
LINE
  5
12C3BE
  8
OBJECT
 10
230.44722215136429
 20
-250.44722215136429
 30
0.0
 11
238.0
 21
-258.0
 31
0.0
1001
ACDBBLOCKREPETAG
1070
     1
1071
       37
1005
12C3BE
  0
LINE
  5
12C3BF
  8
OBJECT
 10
230.44722215136429
 20
-141.55277784863571
 30
0.0
 11
238.0
 21
-134.0
 31
0.0
1001
ACDBBLOCKREPETAG
1070
     1
1071
       38
1005
12C3BF
  0
POINT
  5
12C3C0
  8
DOTS
 10
176.0
 20
-196.0
 30
0.0
1001
ACDBBLOCKREPETAG
1070
     1
1071
       39
1005
12C3C0
  0
CIRCLE
  5
12C3C1
  8
OBJECT
 10
176.0
 20
-196.0
 30
0.0
 40
53.5
1001
ACDBBLOCKREPETAG
1070
     1
1071
      153
1005
12C3C1
  0
LINE
  5
12C3C2
  8
OBJECT
 10
3867.0
 20
-261.99999999999909
 30
0.0
 11
3860.0
 21
-261.99999999999909
 31
0.0
1001
ACDBBLOCKREPETAG
1070
     1
1071
       47
1005
12C3C2
  0
LINE
  5
12C3C3
  8
OBJECT
 10
3860.0
 20
-261.99999999999909
 30
0.0
 11
3860.0
 21
-137.99999999999909
 31
0.0
1001
ACDBBLOCKREPETAG
1070
     1
1071
       48
1005
12C3C3
  0
LINE
  5
12C3C4
  8
OBJECT
 10
3860.0
 20
-137.99999999999909
 30
0.0
 11
3867.0
 21
-137.99999999999909
 31
0.0
1001
ACDBBLOCKREPETAG
1070
     1
1071
       49
1005
12C3C4
  0
LINE
  5
12C3C5
  8
OBJECT
 10
3867.0
 20
-137.99999999999909
 30
0.0
 11
3867.0
 21
-261.99999999999909
 31
0.0
1001
ACDBBLOCKREPETAG
1070
     1
1071
       50
1005
12C3C5
  0
LINE
  5
12C3C6
  8
CENTER
 10
3845.0
 20
-199.99999999999909
 30
0.0
 11
3920.0
 21
-199.99999999999909
 31
0.0
1001
ACDBBLOCKREPETAG
1070
     1
1071
       51
1005
12C3C6
  0
LINE
  5
12C3C7
  8
OBJECT
 10
3867.0
 20
-258.99999999999909
 30
0.0
 11
3903.0
 21
-258.99999999999909
 31
0.0
1001
ACDBBLOCKREPETAG
1070
     1
1071
       52
1005
12C3C7
  0
LINE
  5
12C3C8
  8
OBJECT
 10
3903.0
 20
-258.99999999999909
 30
0.0
 11
3903.0
 21
-140.99999999999909
 31
0.0
1001
ACDBBLOCKREPETAG
1070
     1
1071
       53
1005
12C3C8
  0
LINE
  5
12C3C9
  8
OBJECT
 10
3903.0
 20
-140.99999999999909
 30
0.0
 11
3867.0
 21
-140.99999999999909
 31
0.0
1001
ACDBBLOCKREPETAG
1070
     1
1071
       54
1005
12C3C9
  0
LINE
  5
12C3CA
  8
OBJECT
 10
3907.0
 20
-254.49999999999909
 30
0.0
 11
3914.0
 21
-254.49999999999909
 31
0.0
1001
ACDBBLOCKREPETAG
1070
     1
1071
       55
1005
12C3CA
  0
LINE
  5
12C3CB
  8
OBJECT
 10
3914.0
 20
-145.49999999999909
 30
0.0
 11
3907.0
 21
-145.49999999999909
 31
0.0
1001
ACDBBLOCKREPETAG
1070
     1
1071
       56
1005
12C3CB
  0
LINE
  5
12C3CC
  8
OBJECT
 10
3907.0
 20
-145.49999999999909
 30
0.0
 11
3907.0
 21
-254.49999999999909
 31
0.0
1001
ACDBBLOCKREPETAG
1070
     1
1071
       57
1005
12C3CC
  0
LINE
  5
12C3CD
  8
OBJECT
 10
3903.0
 20
-258.99999999999909
 30
0.0
 11
3907.0
 21
-254.49999999999909
 31
0.0
1001
ACDBBLOCKREPETAG
1070
     1
1071
       58
1005
12C3CD
  0
LINE
  5
12C3CE
  8
OBJECT
 10
3903.0
 20
-140.99999999999909
 30
0.0
 11
3907.0
 21
-145.49999999999909
 31
0.0
1001
ACDBBLOCKREPETAG
1070
     1
1071
       59
1005
12C3CE
  0
LINE
  5
12C3CF
  8
OBJECT
 10
3917.0
 20
-261.99999999999909
 30
0.0
 11
3920.0
 21
-261.99999999999909
 31
0.0
1001
ACDBBLOCKREPETAG
1070
     1
1071
       60
1005
12C3CF
  0
ARC
  5
12C3D0
  8
OBJECT
 10
3917.0
 20
-258.99999999999909
 30
0.0
 40
3.0
 50
180.0
 51
270.0
1001
ACDBBLOCKREPETAG
1070
     1
1071
       61
1005
12C3D0
  0
LINE
  5
12C3D1
  8
OBJECT
 10
3920.0
 20
-137.99999999999909
 30
0.0
 11
3917.0
 21
-137.99999999999909
 31
0.0
1001
ACDBBLOCKREPETAG
1070
     1
1071
       62
1005
12C3D1
  0
ARC
  5
12C3D2
  8
OBJECT
 10
3917.0
 20
-140.99999999999909
 30
0.0
 40
3.0
 50
90.0
 51
180.0
1001
ACDBBLOCKREPETAG
1070
     1
1071
       63
1005
12C3D2
  0
LINE
  5
12C3D3
  8
OBJECT
 10
3914.0
 20
-140.99999999999909
 30
0.0
 11
3914.0
 21
-258.99999999999909
 31
0.0
1001
ACDBBLOCKREPETAG
1070
     1
1071
       64
1005
12C3D3
  0
LINE
  5
12C3D4
  8
HIDDEN
 10
3912.0
 20
-244.49999999999909
 30
0.0
 11
3912.0
 21
-155.49999999999909
 31
0.0
1001
ACDBBLOCKREPETAG
1070
     1
1071
       65
1005
12C3D4
  0
LINE
  5
12C3D5
  8
CENTER
 10
4000.0
 20
-300.99999999999898
 30
0.0
 11
4000.0
 21
-279.99999999999909
 31
0.0
1001
ACDBBLOCKREPETAG
1070
     1
1071
        0
1005
12C3D5
  0
LINE
  5
12C3D6
  8
OBJECT
 10
4062.0
 20
-283.0
 30
0.0
 11
4062.0
 21
-279.99999999999909
 31
0.0
1001
ACDBBLOCKREPETAG
1070
     1
1071
        1
1005
12C3D6
  0
ARC
  5
12C3D7
  8
OBJECT
 10
4059.0
 20
-283.0
 30
0.0
 40
3.0
 50
270.0
 51
0.0
1001
ACDBBLOCKREPETAG
1070
     1
1071
        2
1005
12C3D7
  0
LINE
  5
12C3D8
  8
OBJECT
 10
3938.0
 20
-279.99999999999909
 30
0.0
 11
3938.0
 21
-282.99999999999818
 31
0.0
1001
ACDBBLOCKREPETAG
1070
     1
1071
        3
1005
12C3D8
  0
ARC
  5
12C3D9
  8
OBJECT
 10
3941.0
 20
-282.99999999999818
 30
0.0
 40
3.0
 50
180.0
 51
270.0
1001
ACDBBLOCKREPETAG
1070
     1
1071
        4
1005
12C3D9
  0
LINE
  5
12C3DA
  8
OBJECT
 10
3941.0
 20
-285.99999999999818
 30
0.0
 11
4059.0
 21
-286.0
 31
0.0
1001
ACDBBLOCKREPETAG
1070
     1
1071
        5
1005
12C3DA
  0
LINE
  5
12C3DB
  8
OBJECT
 10
4133.0
 20
-137.99999999999909
 30
0.0
 11
4140.0
 21
-137.99999999999909
 31
0.0
1001
ACDBBLOCKREPETAG
1070
     1
1071
       47
1005
12C3DB
  0
LINE
  5
12C3DC
  8
OBJECT
 10
4140.0
 20
-137.99999999999909
 30
0.0
 11
4140.0
 21
-261.99999999999909
 31
0.0
1001
ACDBBLOCKREPETAG
1070
     1
1071
       48
1005
12C3DC
  0
LINE
  5
12C3DD
  8
OBJECT
 10
4140.0
 20
-261.99999999999909
 30
0.0
 11
4133.0
 21
-261.99999999999909
 31
0.0
1001
ACDBBLOCKREPETAG
1070
     1
1071
       49
1005
12C3DD
  0
LINE
  5
12C3DE
  8
OBJECT
 10
4133.0
 20
-261.99999999999909
 30
0.0
 11
4133.0
 21
-137.99999999999909
 31
0.0
1001
ACDBBLOCKREPETAG
1070
     1
1071
       50
1005
12C3DE
  0
LINE
  5
12C3DF
  8
CENTER
 10
4155.0
 20
-199.99999999999909
 30
0.0
 11
4080.0
 21
-199.99999999999909
 31
0.0
1001
ACDBBLOCKREPETAG
1070
     1
1071
       51
1005
12C3DF
  0
LINE
  5
12C3E0
  8
OBJECT
 10
4133.0
 20
-140.99999999999909
 30
0.0
 11
4097.0
 21
-140.99999999999909
 31
0.0
1001
ACDBBLOCKREPETAG
1070
     1
1071
       52
1005
12C3E0
  0
LINE
  5
12C3E1
  8
OBJECT
 10
4097.0
 20
-140.99999999999909
 30
0.0
 11
4097.0
 21
-258.99999999999909
 31
0.0
1001
ACDBBLOCKREPETAG
1070
     1
1071
       53
1005
12C3E1
  0
LINE
  5
12C3E2
  8
OBJECT
 10
4097.0
 20
-258.99999999999909
 30
0.0
 11
4133.0
 21
-258.99999999999909
 31
0.0
1001
ACDBBLOCKREPETAG
1070
     1
1071
       54
1005
12C3E2
  0
LINE
  5
12C3E3
  8
OBJECT
 10
4093.0
 20
-145.49999999999909
 30
0.0
 11
4086.0
 21
-145.49999999999909
 31
0.0
1001
ACDBBLOCKREPETAG
1070
     1
1071
       55
1005
12C3E3
  0
LINE
  5
12C3E4
  8
OBJECT
 10
4086.0
 20
-254.49999999999909
 30
0.0
 11
4093.0
 21
-254.49999999999909
 31
0.0
1001
ACDBBLOCKREPETAG
1070
     1
1071
       56
1005
12C3E4
  0
LINE
  5
12C3E5
  8
OBJECT
 10
4093.0
 20
-254.49999999999909
 30
0.0
 11
4093.0
 21
-145.49999999999909
 31
0.0
1001
ACDBBLOCKREPETAG
1070
     1
1071
       57
1005
12C3E5
  0
LINE
  5
12C3E6
  8
OBJECT
 10
4097.0
 20
-140.99999999999909
 30
0.0
 11
4093.0
 21
-145.49999999999909
 31
0.0
1001
ACDBBLOCKREPETAG
1070
     1
1071
       58
1005
12C3E6
  0
LINE
  5
12C3E7
  8
OBJECT
 10
4097.0
 20
-258.99999999999909
 30
0.0
 11
4093.0
 21
-254.49999999999909
 31
0.0
1001
ACDBBLOCKREPETAG
1070
     1
1071
       59
1005
12C3E7
  0
LINE
  5
12C3E8
  8
OBJECT
 10
4083.0
 20
-137.99999999999909
 30
0.0
 11
4080.0
 21
-137.99999999999909
 31
0.0
1001
ACDBBLOCKREPETAG
1070
     1
1071
       60
1005
12C3E8
  0
ARC
  5
12C3E9
  8
OBJECT
 10
4083.0
 20
-140.99999999999909
 30
0.0
 40
3.0
 50
0.0
 51
90.0
1001
ACDBBLOCKREPETAG
1070
     1
1071
       61
1005
12C3E9
  0
LINE
  5
12C3EA
  8
OBJECT
 10
4080.0
 20
-261.99999999999909
 30
0.0
 11
4083.0
 21
-261.99999999999909
 31
0.0
1001
ACDBBLOCKREPETAG
1070
     1
1071
       62
1005
12C3EA
  0
ARC
  5
12C3EB
  8
OBJECT
 10
4083.0
 20
-258.99999999999909
 30
0.0
 40
3.0
 50
270.0
 51
0.0
1001
ACDBBLOCKREPETAG
1070
     1
1071
       63
1005
12C3EB
  0
LINE
  5
12C3EC
  8
OBJECT
 10
4086.0
 20
-258.99999999999909
 30
0.0
 11
4086.0
 21
-140.99999999999909
 31
0.0
1001
ACDBBLOCKREPETAG
1070
     1
1071
       64
1005
12C3EC
  0
LINE
  5
12C3ED
  8
HIDDEN
 10
4088.0
 20
-155.49999999999909
 30
0.0
 11
4088.0
 21
-244.49999999999909
 31
0.0
1001
ACDBBLOCKREPETAG
1070
     1
1071
       65
1005
12C3ED
  0
LINE
  5
12C3EE
  8
OBJECT
 10
3867.0
 20
-634.0
 30
0.0
 11
3860.0
 21
-634.0
 31
0.0
1001
ACDBBLOCKREPETAG
1070
     1
1071
       45
1005
12C3EE
  0
LINE
  5
12C3EF
  8
OBJECT
 10
3860.0
 20
-634.0
 30
0.0
 11
3860.0
 21
-755.0
 31
0.0
1001
ACDBBLOCKREPETAG
1070
     1
1071
       46
1005
12C3EF
  0
LINE
  5
12C3F0
  8
OBJECT
 10
3867.0
 20
-755.0
 30
0.0
 11
3867.0
 21
-634.0
 31
0.0
1001
ACDBBLOCKREPETAG
1070
     1
1071
       47
1005
12C3F0
  0
LINE
  5
12C3F1
  8
CENTER
 10
3845.0
 20
-696.0
 30
0.0
 11
3929.0
 21
-696.0
 31
0.0
1001
ACDBBLOCKREPETAG
1070
     1
1071
       48
1005
12C3F1
  0
LINE
  5
12C3F2
  8
OBJECT
 10
3867.0
 20
-637.0
 30
0.0
 11
3903.0
 21
-637.0
 31
0.0
1001
ACDBBLOCKREPETAG
1070
     1
1071
       49
1005
12C3F2
  0
LINE
  5
12C3F3
  8
OBJECT
 10
3903.0
 20
-637.0
 30
0.0
 11
3903.0
 21
-755.0
 31
0.0
1001
ACDBBLOCKREPETAG
1070
     1
1071
       50
1005
12C3F3
  0
LINE
  5
12C3F4
  8
OBJECT
 10
3903.0
 20
-755.0
 30
0.0
 11
3860.0
 21
-755.0
 31
0.0
1001
ACDBBLOCKREPETAG
1070
     1
1071
       51
1005
12C3F4
  0
LINE
  5
12C3F5
  8
OBJECT
 10
3907.0
 20
-641.5
 30
0.0
 11
3914.0
 21
-641.5
 31
0.0
1001
ACDBBLOCKREPETAG
1070
     1
1071
       52
1005
12C3F5
  0
LINE
  5
12C3F6
  8
OBJECT
 10
3914.0
 20
-750.49999999999989
 30
0.0
 11
3907.0
 21
-750.49999999999989
 31
0.0
1001
ACDBBLOCKREPETAG
1070
     1
1071
       53
1005
12C3F6
  0
LINE
  5
12C3F7
  8
OBJECT
 10
3907.0
 20
-750.49999999999989
 30
0.0
 11
3907.0
 21
-641.5
 31
0.0
1001
ACDBBLOCKREPETAG
1070
     1
1071
       54
1005
12C3F7
  0
LINE
  5
12C3F8
  8
OBJECT
 10
3903.0
 20
-637.0
 30
0.0
 11
3907.0
 21
-641.5
 31
0.0
1001
ACDBBLOCKREPETAG
1070
     1
1071
       55
1005
12C3F8
  0
LINE
  5
12C3F9
  8
OBJECT
 10
3903.0
 20
-755.0
 30
0.0
 11
3907.0
 21
-750.49999999999989
 31
0.0
1001
ACDBBLOCKREPETAG
1070
     1
1071
       56
1005
12C3F9
  0
LINE
  5
12C3FA
  8
OBJECT
 10
3917.0
 20
-634.0
 30
0.0
 11
3920.0
 21
-634.0
 31
0.0
1001
ACDBBLOCKREPETAG
1070
     1
1071
       57
1005
12C3FA
  0
ARC
  5
12C3FB
  8
OBJECT
 10
3917.0
 20
-637.0
 30
0.0
 40
3.0
 50
90.0
 51
180.0
1001
ACDBBLOCKREPETAG
1070
     1
1071
       58
1005
12C3FB
  0
LINE
  5
12C3FC
  8
OBJECT
 10
3920.0
 20
-758.0
 30
0.0
 11
3917.0
 21
-758.0
 31
0.0
1001
ACDBBLOCKREPETAG
1070
     1
1071
       59
1005
12C3FC
  0
ARC
  5
12C3FD
  8
OBJECT
 10
3917.0
 20
-755.0
 30
0.0
 40
3.0
 50
180.0
 51
270.0
1001
ACDBBLOCKREPETAG
1070
     1
1071
       60
1005
12C3FD
  0
LINE
  5
12C3FE
  8
OBJECT
 10
3914.0
 20
-755.0
 30
0.0
 11
3914.0
 21
-637.0
 31
0.0
1001
ACDBBLOCKREPETAG
1070
     1
1071
       61
1005
12C3FE
  0
LINE
  5
12C3FF
  8
HIDDEN
 10
3912.0
 20
-651.5
 30
0.0
 11
3912.0
 21
-740.5
 31
0.0
1001
ACDBBLOCKREPETAG
1070
     1
1071
       63
1005
12C3FF
  0
CIRCLE
  5
12C400
  8
OBJECT
 10
4000.0
 20
-696.0
 30
0.0
 40
62.0
1001
ACDBBLOCKREPETAG
1070
     1
1071
        0
1005
12C400
  0
LINE
  5
12C401
  8
OBJECT
 10
4133.0
 20
-634.0
 30
0.0
 11
4140.0
 21
-634.0
 31
0.0
1001
ACDBBLOCKREPETAG
1070
     1
1071
       45
1005
12C401
  0
LINE
  5
12C402
  8
OBJECT
 10
4140.0
 20
-634.0
 30
0.0
 11
4140.0
 21
-755.0
 31
0.0
1001
ACDBBLOCKREPETAG
1070
     1
1071
       46
1005
12C402
  0
LINE
  5
12C403
  8
OBJECT
 10
4133.0
 20
-755.0
 30
0.0
 11
4133.0
 21
-634.0
 31
0.0
1001
ACDBBLOCKREPETAG
1070
     1
1071
       47
1005
12C403
  0
LINE
  5
12C404
  8
CENTER
 10
4155.0
 20
-696.0
 30
0.0
 11
4071.0
 21
-696.0
 31
0.0
1001
ACDBBLOCKREPETAG
1070
     1
1071
       48
1005
12C404
  0
LINE
  5
12C405
  8
OBJECT
 10
4133.0
 20
-637.0
 30
0.0
 11
4097.0
 21
-637.0
 31
0.0
1001
ACDBBLOCKREPETAG
1070
     1
1071
       49
1005
12C405
  0
LINE
  5
12C406
  8
OBJECT
 10
4097.0
 20
-637.0
 30
0.0
 11
4097.0
 21
-755.0
 31
0.0
1001
ACDBBLOCKREPETAG
1070
     1
1071
       50
1005
12C406
  0
LINE
  5
12C407
  8
OBJECT
 10
4097.0
 20
-755.0
 30
0.0
 11
4140.0
 21
-755.0
 31
0.0
1001
ACDBBLOCKREPETAG
1070
     1
1071
       51
1005
12C407
  0
LINE
  5
12C408
  8
OBJECT
 10
4093.0
 20
-641.5
 30
0.0
 11
4086.0
 21
-641.5
 31
0.0
1001
ACDBBLOCKREPETAG
1070
     1
1071
       52
1005
12C408
  0
LINE
  5
12C409
  8
OBJECT
 10
4086.0
 20
-750.49999999999989
 30
0.0
 11
4093.0
 21
-750.49999999999989
 31
0.0
1001
ACDBBLOCKREPETAG
1070
     1
1071
       53
1005
12C409
  0
LINE
  5
12C40A
  8
OBJECT
 10
4093.0
 20
-750.49999999999989
 30
0.0
 11
4093.0
 21
-641.5
 31
0.0
1001
ACDBBLOCKREPETAG
1070
     1
1071
       54
1005
12C40A
  0
LINE
  5
12C40B
  8
OBJECT
 10
4097.0
 20
-637.0
 30
0.0
 11
4093.0
 21
-641.5
 31
0.0
1001
ACDBBLOCKREPETAG
1070
     1
1071
       55
1005
12C40B
  0
LINE
  5
12C40C
  8
OBJECT
 10
4097.0
 20
-755.0
 30
0.0
 11
4093.0
 21
-750.49999999999989
 31
0.0
1001
ACDBBLOCKREPETAG
1070
     1
1071
       56
1005
12C40C
  0
LINE
  5
12C40D
  8
OBJECT
 10
4083.0
 20
-634.0
 30
0.0
 11
4080.0
 21
-634.0
 31
0.0
1001
ACDBBLOCKREPETAG
1070
     1
1071
       57
1005
12C40D
  0
ARC
  5
12C40E
  8
OBJECT
 10
4083.0
 20
-637.0
 30
0.0
 40
3.0
 50
0.0
 51
90.0
1001
ACDBBLOCKREPETAG
1070
     1
1071
       58
1005
12C40E
  0
LINE
  5
12C40F
  8
OBJECT
 10
4080.0
 20
-758.0
 30
0.0
 11
4083.0
 21
-758.0
 31
0.0
1001
ACDBBLOCKREPETAG
1070
     1
1071
       59
1005
12C40F
  0
ARC
  5
12C410
  8
OBJECT
 10
4083.0
 20
-755.0
 30
0.0
 40
3.0
 50
270.0
 51
0.0
1001
ACDBBLOCKREPETAG
1070
     1
1071
       60
1005
12C410
  0
LINE
  5
12C411
  8
OBJECT
 10
4086.0
 20
-755.0
 30
0.0
 11
4086.0
 21
-637.0
 31
0.0
1001
ACDBBLOCKREPETAG
1070
     1
1071
       61
1005
12C411
  0
LINE
  5
12C412
  8
HIDDEN
 10
4088.0
 20
-651.5
 30
0.0
 11
4088.0
 21
-740.5
 31
0.0
1001
ACDBBLOCKREPETAG
1070
     1
1071
       63
1005
12C412
  0
POLYLINE
  5
12C413
  8
HIDDEN
 66
     1
 10
0.0
 20
0.0
 30
0.0
 70
     1
1001
ACDBBLOCKREPETAG
1070
     1
1071
      105
1005
0
  0
VERTEX
  5
12DBF5
  8
HIDDEN
 10
359.99999999987818
 20
0.0
 30
0.0
  0
VERTEX
  5
12DBF6
  8
HIDDEN
 10
719.99999999975626
 20
0.0
 30
0.0
  0
VERTEX
  5
12DBF7
  8
HIDDEN
 10
719.99999999975626
 20
-463.99999999984158
 30
0.0
  0
VERTEX
  5
12DBF8
  8
HIDDEN
 10
359.99999999987818
 20
-463.99999999984158
 30
0.0
  0
SEQEND
  5
12DBF9
  8
HIDDEN
  0
POLYLINE
  5
12C414
  8
HIDDEN
 66
     1
 10
0.0
 20
0.0
 30
0.0
 70
     1
1001
ACDBBLOCKREPETAG
1070
     1
1071
      110
1005
0
  0
VERTEX
  5
12DBFA
  8
HIDDEN
 10
0.0
 20
0.0
 30
0.0
  0
VERTEX
  5
12DBFB
  8
HIDDEN
 10
359.99999999987818
 20
0.0
 30
0.0
  0
VERTEX
  5
12DBFC
  8
HIDDEN
 10
359.99999999987818
 20
-463.99999999984158
 30
0.0
  0
VERTEX
  5
12DBFD
  8
HIDDEN
 10
0.0
 20
-463.99999999984158
 30
0.0
  0
SEQEND
  5
12DBFE
  8
HIDDEN
  0
POLYLINE
  5
12C415
  8
HIDDEN
 66
     1
 10
0.0
 20
0.0
 30
0.0
 70
     1
1001
ACDBBLOCKREPETAG
1070
     1
1071
      120
1005
0
  0
VERTEX
  5
12DBFF
  8
HIDDEN
 10
359.99999999987818
 20
-463.99999999984158
 30
0.0
  0
VERTEX
  5
12DC00
  8
HIDDEN
 10
719.99999999975626
 20
-463.99999999984158
 30
0.0
  0
VERTEX
  5
12DC01
  8
HIDDEN
 10
719.99999999975626
 20
-927.9999999996835
 30
0.0
  0
VERTEX
  5
12DC02
  8
HIDDEN
 10
359.99999999987818
 20
-927.9999999996835
 30
0.0
  0
SEQEND
  5
12DC03
  8
HIDDEN
  0
POLYLINE
  5
12C416
  8
HIDDEN
 66
     1
 10
0.0
 20
0.0
 30
0.0
 70
     1
1001
ACDBBLOCKREPETAG
1070
     1
1071
      125
1005
0
  0
VERTEX
  5
12DC04
  8
HIDDEN
 10
0.0
 20
-463.99999999984158
 30
0.0
  0
VERTEX
  5
12DC05
  8
HIDDEN
 10
359.99999999987818
 20
-463.99999999984158
 30
0.0
  0
VERTEX
  5
12DC06
  8
HIDDEN
 10
359.99999999987818
 20
-927.9999999996835
 30
0.0
  0
VERTEX
  5
12DC07
  8
HIDDEN
 10
0.0
 20
-927.9999999996835
 30
0.0
  0
SEQEND
  5
12DC08
  8
HIDDEN
  0
POLYLINE
  5
12C417
  8
HIDDEN
 66
     1
 10
0.0
 20
0.0
 30
0.0
 70
     1
1001
ACDBBLOCKREPETAG
1070
     1
1071
      130
1005
0
  0
VERTEX
  5
12DC09
  8
HIDDEN
 10
359.99999999987818
 20
-927.9999999996835
 30
0.0
  0
VERTEX
  5
12DC0A
  8
HIDDEN
 10
719.99999999975626
 20
-927.9999999996835
 30
0.0
  0
VERTEX
  5
12DC0B
  8
HIDDEN
 10
719.99999999975626
 20
-1391.999999999525
 30
0.0
  0
VERTEX
  5
12DC0C
  8
HIDDEN
 10
359.99999999987818
 20
-1391.999999999525
 30
0.0
  0
SEQEND
  5
12DC0D
  8
HIDDEN
  0
POLYLINE
  5
12C418
  8
HIDDEN
 66
     1
 10
0.0
 20
0.0
 30
0.0
 70
     1
1001
ACDBBLOCKREPETAG
1070
     1
1071
      135
1005
0
  0
VERTEX
  5
12DC0E
  8
HIDDEN
 10
0.0
 20
-927.9999999996835
 30
0.0
  0
VERTEX
  5
12DC0F
  8
HIDDEN
 10
359.99999999987818
 20
-927.9999999996835
 30
0.0
  0
VERTEX
  5
12DC10
  8
HIDDEN
 10
359.99999999987818
 20
-1391.999999999525
 30
0.0
  0
VERTEX
  5
12DC11
  8
HIDDEN
 10
0.0
 20
-1391.999999999525
 30
0.0
  0
SEQEND
  5
12DC12
  8
HIDDEN
  0
POLYLINE
  5
12C419
  8
HIDDEN
 66
     1
 10
0.0
 20
0.0
 30
0.0
 70
     1
1001
ACDBBLOCKREPETAG
1070
     1
1071
      160
1005
0
  0
VERTEX
  5
12DC13
  8
HIDDEN
 10
359.99999999987818
 20
-1391.999999999525
 30
0.0
  0
VERTEX
  5
12DC14
  8
HIDDEN
 10
719.99999999975626
 20
-1391.999999999525
 30
0.0
  0
VERTEX
  5
12DC15
  8
HIDDEN
 10
719.99999999975626
 20
-1855.999999999367
 30
0.0
  0
VERTEX
  5
12DC16
  8
HIDDEN
 10
359.99999999987818
 20
-1855.999999999367
 30
0.0
  0
SEQEND
  5
12DC17
  8
HIDDEN
  0
POLYLINE
  5
12C41A
  8
HIDDEN
 66
     1
 10
0.0
 20
0.0
 30
0.0
 70
     1
1001
ACDBBLOCKREPETAG
1070
     1
1071
      165
1005
0
  0
VERTEX
  5
12DC18
  8
HIDDEN
 10
0.0
 20
-1391.999999999525
 30
0.0
  0
VERTEX
  5
12DC19
  8
HIDDEN
 10
359.99999999987818
 20
-1391.999999999525
 30
0.0
  0
VERTEX
  5
12DC1A
  8
HIDDEN
 10
359.99999999987818
 20
-1855.999999999367
 30
0.0
  0
VERTEX
  5
12DC1B
  8
HIDDEN
 10
0.0
 20
-1855.999999999367
 30
0.0
  0
SEQEND
  5
12DC1C
  8
HIDDEN
  0
POLYLINE
  5
12C41B
  8
HIDDEN
 66
     1
 10
0.0
 20
0.0
 30
0.0
 70
     1
1001
ACDBBLOCKREPETAG
1070
     1
1071
      170
1005
0
  0
VERTEX
  5
12DC1D
  8
HIDDEN
 10
359.99999999987818
 20
-1855.999999999367
 30
0.0
  0
VERTEX
  5
12DC1E
  8
HIDDEN
 10
719.99999999975626
 20
-1855.999999999367
 30
0.0
  0
VERTEX
  5
12DC1F
  8
HIDDEN
 10
719.99999999975626
 20
-2319.9999999992092
 30
0.0
  0
VERTEX
  5
12DC20
  8
HIDDEN
 10
359.99999999987818
 20
-2319.9999999992092
 30
0.0
  0
SEQEND
  5
12DC21
  8
HIDDEN
  0
POLYLINE
  5
12C41C
  8
HIDDEN
 66
     1
 10
0.0
 20
0.0
 30
0.0
 70
     1
1001
ACDBBLOCKREPETAG
1070
     1
1071
      175
1005
0
  0
VERTEX
  5
12DC22
  8
HIDDEN
 10
0.0
 20
-1855.999999999367
 30
0.0
  0
VERTEX
  5
12DC23
  8
HIDDEN
 10
359.99999999987818
 20
-1855.999999999367
 30
0.0
  0
VERTEX
  5
12DC24
  8
HIDDEN
 10
359.99999999987818
 20
-2319.9999999992092
 30
0.0
  0
VERTEX
  5
12DC25
  8
HIDDEN
 10
0.0
 20
-2319.9999999992092
 30
0.0
  0
SEQEND
  5
12DC26
  8
HIDDEN
  0
TEXT
  5
12C41D
  8
SLIM
 10
420.17142857124622
 20
-2299.999999999216
 30
0.0
 40
48.0
  1
B404（特）
 41
0.75
1001
ACDBBLOCKREPETAG
1070
     1
1071
      119
1005
12AEEF
  0
LINE
  5
12C41E
  8
OBJECT
 10
610.99999999849024
 20
-2201.9999999970728
 30
0.0
 11
610.99999999849024
 21
-2194.9999999970728
 31
0.0
1001
ACDBBLOCKREPETAG
1070
     1
1071
       57
1005
12C41E
  0
LINE
  5
12C41F
  8
OBJECT
 10
610.99999999849024
 20
-2194.9999999970728
 30
0.0
 11
460.99999999849018
 21
-2194.9999999970728
 31
0.0
1001
ACDBBLOCKREPETAG
1070
     1
1071
       58
1005
12C41F
  0
LINE
  5
12C420
  8
OBJECT
 10
607.99999999849024
 20
-2153.4999999970728
 30
0.0
 11
463.99999999849018
 21
-2153.4999999970728
 31
0.0
1001
ACDBBLOCKREPETAG
1070
     1
1071
       59
1005
12C420
  0
LINE
  5
12C421
  8
OBJECT
 10
601.49999999849024
 20
-2141.9999999970728
 30
0.0
 11
470.49999999849018
 21
-2141.9999999970728
 31
0.0
1001
ACDBBLOCKREPETAG
1070
     1
1071
       60
1005
12C421
  0
LINE
  5
12C422
  8
OBJECT
 10
460.99999999849018
 20
-2194.9999999970728
 30
0.0
 11
460.99999999849018
 21
-2201.9999999970728
 31
0.0
1001
ACDBBLOCKREPETAG
1070
     1
1071
       61
1005
12C422
  0
LINE
  5
12C423
  8
OBJECT
 10
460.99999999849018
 20
-2201.9999999970728
 30
0.0
 11
610.99999999849024
 21
-2201.9999999970728
 31
0.0
1001
ACDBBLOCKREPETAG
1070
     1
1071
       62
1005
12C423
  0
LINE
  5
12C424
  8
OBJECT
 10
473.99999999849018
 20
-2137.9999999970728
 30
0.0
 11
473.99999999849018
 21
-2131.9999999970751
 31
0.0
1001
ACDBBLOCKREPETAG
1070
     1
1071
       63
1005
12C424
  0
LINE
  5
12C425
  8
OBJECT
 10
463.99999999849018
 20
-2194.9999999970728
 30
0.0
 11
463.99999999849018
 21
-2153.4999999970728
 31
0.0
1001
ACDBBLOCKREPETAG
1070
     1
1071
       64
1005
12C425
  0
LINE
  5
12C426
  8
OBJECT
 10
463.99999999849018
 20
-2153.4999999970728
 30
0.0
 11
470.49999999849018
 21
-2141.9999999970728
 31
0.0
1001
ACDBBLOCKREPETAG
1070
     1
1071
       65
1005
12C426
  0
LINE
  5
12C427
  8
OBJECT
 10
470.49999999849018
 20
-2141.9999999970728
 30
0.0
 11
473.99999999849018
 21
-2137.9999999970728
 31
0.0
1001
ACDBBLOCKREPETAG
1070
     1
1071
       66
1005
12C427
  0
LINE
  5
12C428
  8
OBJECT
 10
607.99999999849024
 20
-2153.4999999970728
 30
0.0
 11
601.49999999849024
 21
-2141.9999999970728
 31
0.0
1001
ACDBBLOCKREPETAG
1070
     1
1071
       67
1005
12C428
  0
LINE
  5
12C429
  8
OBJECT
 10
601.49999999849024
 20
-2141.9999999970728
 30
0.0
 11
597.99999999849024
 21
-2137.9999999970728
 31
0.0
1001
ACDBBLOCKREPETAG
1070
     1
1071
       68
1005
12C429
  0
ARC
  5
12C42A
  8
OBJECT
 10
535.99999999849024
 20
-2519.8999999970752
 30
0.0
 40
386.89999999999998
 50
80.778701362368551
 51
99.221298637631435
1001
ACDBBLOCKREPETAG
1070
     1
1071
       69
1005
12C42A
  0
LINE
  5
12C42B
  8
OBJECT
 10
597.99999999849024
 20
-2137.9999999970728
 30
0.0
 11
597.99999999849024
 21
-2131.9999999970751
 31
0.0
1001
ACDBBLOCKREPETAG
1070
     1
1071
       70
1005
12C42B
  0
LINE
  5
12C42C
  8
OBJECT
 10
607.99999999849024
 20
-2194.9999999970728
 30
0.0
 11
607.99999999849024
 21
-2153.4999999970728
 31
0.0
1001
ACDBBLOCKREPETAG
1070
     1
1071
       71
1005
12C42C
  0
INSERT
  5
12C42D
  8
OBJECT
  2
*U46
 10
0.0
 20
0.0
 30
0.0
  0
LINE
  5
12C42E
  8
HIDDEN
 10
478.99999999849018
 20
-2149.9999999970728
 30
0.0
 11
592.99999999849024
 21
-2149.9999999970728
 31
0.0
1001
ACDBBLOCKREPETAG
1070
     1
1071
      437
1005
12C42E
  0
LINE
  5
12C42F
  8
OBJECT
 10
618.99999999849024
 20
-2113.9999999970728
 30
0.0
 11
615.99999999849024
 21
-2113.9999999970728
 31
0.0
1001
ACDBBLOCKREPETAG
1070
     1
1071
      418
1005
12C42F
  0
ARC
  5
12C430
  8
OBJECT
 10
618.99999999849024
 20
-2110.9999999970728
 30
0.0
 40
3.0
 50
270.0
 51
0.0
1001
ACDBBLOCKREPETAG
1070
     1
1071
      419
1005
12C430
  0
LINE
  5
12C431
  8
OBJECT
 10
615.99999999849024
 20
-1989.999999997073
 30
0.0
 11
618.99999999849024
 21
-1989.999999997073
 31
0.0
1001
ACDBBLOCKREPETAG
1070
     1
1071
      420
1005
12C431
  0
ARC
  5
12C432
  8
OBJECT
 10
618.99999999849024
 20
-1992.999999997073
 30
0.0
 40
3.0
 50
0.0
 51
90.0
1001
ACDBBLOCKREPETAG
1070
     1
1071
      421
1005
12C432
  0
LINE
  5
12C433
  8
OBJECT
 10
621.99999999849024
 20
-1992.999999997073
 30
0.0
 11
621.99999999849024
 21
-2110.9999999970728
 31
0.0
1001
ACDBBLOCKREPETAG
1070
     1
1071
      422
1005
12C433
  0
LINE
  5
12C434
  8
OBJECT
 10
460.99999999849018
 20
-1901.999999997073
 30
0.0
 11
460.99999999849018
 21
-1908.999999997073
 31
0.0
1001
ACDBBLOCKREPETAG
1070
     1
1071
       57
1005
12C434
  0
LINE
  5
12C435
  8
OBJECT
 10
460.99999999849018
 20
-1908.999999997073
 30
0.0
 11
610.99999999849024
 21
-1908.999999997073
 31
0.0
1001
ACDBBLOCKREPETAG
1070
     1
1071
       58
1005
12C435
  0
LINE
  5
12C436
  8
OBJECT
 10
463.99999999849018
 20
-1950.499999997073
 30
0.0
 11
607.99999999849024
 21
-1950.499999997073
 31
0.0
1001
ACDBBLOCKREPETAG
1070
     1
1071
       59
1005
12C436
  0
LINE
  5
12C437
  8
OBJECT
 10
470.49999999849018
 20
-1961.999999997073
 30
0.0
 11
601.49999999849024
 21
-1961.999999997073
 31
0.0
1001
ACDBBLOCKREPETAG
1070
     1
1071
       60
1005
12C437
  0
LINE
  5
12C438
  8
OBJECT
 10
610.99999999849024
 20
-1908.999999997073
 30
0.0
 11
610.99999999849024
 21
-1901.999999997073
 31
0.0
1001
ACDBBLOCKREPETAG
1070
     1
1071
       61
1005
12C438
  0
LINE
  5
12C439
  8
OBJECT
 10
610.99999999849024
 20
-1901.999999997073
 30
0.0
 11
460.99999999849018
 21
-1901.999999997073
 31
0.0
1001
ACDBBLOCKREPETAG
1070
     1
1071
       62
1005
12C439
  0
LINE
  5
12C43A
  8
OBJECT
 10
597.99999999849024
 20
-1965.999999997073
 30
0.0
 11
597.99999999849024
 21
-1971.999999997073
 31
0.0
1001
ACDBBLOCKREPETAG
1070
     1
1071
       63
1005
12C43A
  0
LINE
  5
12C43B
  8
OBJECT
 10
607.99999999849024
 20
-1908.999999997073
 30
0.0
 11
607.99999999849024
 21
-1950.499999997073
 31
0.0
1001
ACDBBLOCKREPETAG
1070
     1
1071
       64
1005
12C43B
  0
LINE
  5
12C43C
  8
OBJECT
 10
607.99999999849024
 20
-1950.499999997073
 30
0.0
 11
601.49999999849024
 21
-1961.999999997073
 31
0.0
1001
ACDBBLOCKREPETAG
1070
     1
1071
       65
1005
12C43C
  0
LINE
  5
12C43D
  8
OBJECT
 10
601.49999999849024
 20
-1961.999999997073
 30
0.0
 11
597.99999999849024
 21
-1965.999999997073
 31
0.0
1001
ACDBBLOCKREPETAG
1070
     1
1071
       66
1005
12C43D
  0
LINE
  5
12C43E
  8
OBJECT
 10
463.99999999849018
 20
-1950.499999997073
 30
0.0
 11
470.49999999849018
 21
-1961.999999997073
 31
0.0
1001
ACDBBLOCKREPETAG
1070
     1
1071
       67
1005
12C43E
  0
LINE
  5
12C43F
  8
OBJECT
 10
470.49999999849018
 20
-1961.999999997073
 30
0.0
 11
473.99999999849018
 21
-1965.999999997073
 31
0.0
1001
ACDBBLOCKREPETAG
1070
     1
1071
       68
1005
12C43F
  0
ARC
  5
12C440
  8
OBJECT
 10
535.99999999849024
 20
-1584.099999997072
 30
0.0
 40
386.89999999999998
 50
260.77870136257849
 51
279.22129863742163
1001
ACDBBLOCKREPETAG
1070
     1
1071
       69
1005
12C440
  0
LINE
  5
12C441
  8
OBJECT
 10
473.99999999849018
 20
-1965.999999997073
 30
0.0
 11
473.99999999849018
 21
-1971.999999997073
 31
0.0
1001
ACDBBLOCKREPETAG
1070
     1
1071
       70
1005
12C441
  0
LINE
  5
12C442
  8
OBJECT
 10
463.99999999849018
 20
-1908.999999997073
 30
0.0
 11
463.99999999849018
 21
-1950.499999997073
 31
0.0
1001
ACDBBLOCKREPETAG
1070
     1
1071
       71
1005
12C442
  0
INSERT
  5
12C443
  8
OBJECT
  2
*U47
 10
0.0
 20
0.0
 30
0.0
  0
LINE
  5
12C444
  8
HIDDEN
 10
592.99999999849024
 20
-1953.999999997073
 30
0.0
 11
478.99999999849018
 21
-1953.999999997073
 31
0.0
1001
ACDBBLOCKREPETAG
1070
     1
1071
      431
1005
12C444
  0
TEXT
  5
12C445
  8
SLIM
 10
60.171428571368068
 20
-2299.999999999216
 30
0.0
 40
48.0
  1
B304（特）
 41
0.75
1001
ACDBBLOCKREPETAG
1070
     1
1071
      119
1005
12AEEF
  0
LINE
  5
12C446
  8
OBJECT
 10
250.99999999861211
 20
-2201.9999999970728
 30
0.0
 11
250.99999999861211
 21
-2194.9999999970728
 31
0.0
1001
ACDBBLOCKREPETAG
1070
     1
1071
       57
1005
12C446
  0
LINE
  5
12C447
  8
OBJECT
 10
250.99999999861211
 20
-2194.9999999970728
 30
0.0
 11
100.9999999986121
 21
-2194.9999999970728
 31
0.0
1001
ACDBBLOCKREPETAG
1070
     1
1071
       58
1005
12C447
  0
LINE
  5
12C448
  8
OBJECT
 10
247.99999999861211
 20
-2153.4999999970728
 30
0.0
 11
103.9999999986121
 21
-2153.4999999970728
 31
0.0
1001
ACDBBLOCKREPETAG
1070
     1
1071
       59
1005
12C448
  0
LINE
  5
12C449
  8
OBJECT
 10
241.49999999861211
 20
-2141.9999999970728
 30
0.0
 11
110.4999999986121
 21
-2141.9999999970728
 31
0.0
1001
ACDBBLOCKREPETAG
1070
     1
1071
       60
1005
12C449
  0
LINE
  5
12C44A
  8
OBJECT
 10
100.9999999986121
 20
-2194.9999999970728
 30
0.0
 11
100.9999999986121
 21
-2201.9999999970728
 31
0.0
1001
ACDBBLOCKREPETAG
1070
     1
1071
       61
1005
12C44A
  0
LINE
  5
12C44B
  8
OBJECT
 10
100.9999999986121
 20
-2201.9999999970728
 30
0.0
 11
250.99999999861211
 21
-2201.9999999970728
 31
0.0
1001
ACDBBLOCKREPETAG
1070
     1
1071
       62
1005
12C44B
  0
LINE
  5
12C44C
  8
OBJECT
 10
113.9999999986121
 20
-2137.9999999970728
 30
0.0
 11
113.9999999986121
 21
-2131.9999999970751
 31
0.0
1001
ACDBBLOCKREPETAG
1070
     1
1071
       63
1005
12C44C
  0
LINE
  5
12C44D
  8
OBJECT
 10
103.9999999986121
 20
-2194.9999999970728
 30
0.0
 11
103.9999999986121
 21
-2153.4999999970728
 31
0.0
1001
ACDBBLOCKREPETAG
1070
     1
1071
       64
1005
12C44D
  0
LINE
  5
12C44E
  8
OBJECT
 10
103.9999999986121
 20
-2153.4999999970728
 30
0.0
 11
110.4999999986121
 21
-2141.9999999970728
 31
0.0
1001
ACDBBLOCKREPETAG
1070
     1
1071
       65
1005
12C44E
  0
LINE
  5
12C44F
  8
OBJECT
 10
110.4999999986121
 20
-2141.9999999970728
 30
0.0
 11
113.9999999986121
 21
-2137.9999999970728
 31
0.0
1001
ACDBBLOCKREPETAG
1070
     1
1071
       66
1005
12C44F
  0
LINE
  5
12C450
  8
OBJECT
 10
247.99999999861211
 20
-2153.4999999970728
 30
0.0
 11
241.49999999861211
 21
-2141.9999999970728
 31
0.0
1001
ACDBBLOCKREPETAG
1070
     1
1071
       67
1005
12C450
  0
LINE
  5
12C451
  8
OBJECT
 10
241.49999999861211
 20
-2141.9999999970728
 30
0.0
 11
237.99999999861211
 21
-2137.9999999970728
 31
0.0
1001
ACDBBLOCKREPETAG
1070
     1
1071
       68
1005
12C451
  0
ARC
  5
12C452
  8
OBJECT
 10
175.99999999861211
 20
-2519.8999999970752
 30
0.0
 40
386.89999999999998
 50
80.778701362368551
 51
99.221298637631435
1001
ACDBBLOCKREPETAG
1070
     1
1071
       69
1005
12C452
  0
LINE
  5
12C453
  8
OBJECT
 10
237.99999999861211
 20
-2137.9999999970728
 30
0.0
 11
237.99999999861211
 21
-2131.9999999970751
 31
0.0
1001
ACDBBLOCKREPETAG
1070
     1
1071
       70
1005
12C453
  0
LINE
  5
12C454
  8
OBJECT
 10
247.99999999861211
 20
-2194.9999999970728
 30
0.0
 11
247.99999999861211
 21
-2153.4999999970728
 31
0.0
1001
ACDBBLOCKREPETAG
1070
     1
1071
       71
1005
12C454
  0
INSERT
  5
12C455
  8
OBJECT
  2
*U48
 10
0.0
 20
0.0
 30
0.0
  0
LINE
  5
12C456
  8
HIDDEN
 10
118.9999999986121
 20
-2149.9999999970728
 30
0.0
 11
232.99999999861211
 21
-2149.9999999970728
 31
0.0
1001
ACDBBLOCKREPETAG
1070
     1
1071
      437
1005
12C456
  0
LINE
  5
12C457
  8
OBJECT
 10
258.99999999861211
 20
-2113.9999999970728
 30
0.0
 11
255.99999999861211
 21
-2113.9999999970728
 31
0.0
1001
ACDBBLOCKREPETAG
1070
     1
1071
      418
1005
12C457
  0
ARC
  5
12C458
  8
OBJECT
 10
258.99999999861211
 20
-2110.9999999970728
 30
0.0
 40
3.0
 50
270.0
 51
0.0
1001
ACDBBLOCKREPETAG
1070
     1
1071
      419
1005
12C458
  0
LINE
  5
12C459
  8
OBJECT
 10
255.99999999861211
 20
-1989.999999997073
 30
0.0
 11
258.99999999861211
 21
-1989.999999997073
 31
0.0
1001
ACDBBLOCKREPETAG
1070
     1
1071
      420
1005
12C459
  0
ARC
  5
12C45A
  8
OBJECT
 10
258.99999999861211
 20
-1992.999999997073
 30
0.0
 40
3.0
 50
0.0
 51
90.0
1001
ACDBBLOCKREPETAG
1070
     1
1071
      421
1005
12C45A
  0
LINE
  5
12C45B
  8
OBJECT
 10
261.99999999861211
 20
-1992.999999997073
 30
0.0
 11
261.99999999861211
 21
-2110.9999999970728
 31
0.0
1001
ACDBBLOCKREPETAG
1070
     1
1071
      422
1005
12C45B
  0
INSERT
  5
12C45C
  8
OBJECT
  2
*U49
 10
0.0
 20
0.0
 30
0.0
  0
LINE
  5
12C45D
  8
OBJECT
 10
113.9999999986121
 20
-1918.999999997073
 30
0.0
 11
113.9999999986121
 21
-1911.999999997073
 31
0.0
1001
ACDBBLOCKREPETAG
1070
     1
1071
       39
1005
12C45D
  0
LINE
  5
12C45E
  8
OBJECT
 10
113.9999999986121
 20
-1911.999999997073
 30
0.0
 11
237.99999999861211
 21
-1911.999999997073
 31
0.0
1001
ACDBBLOCKREPETAG
1070
     1
1071
       40
1005
12C45E
  0
LINE
  5
12C45F
  8
OBJECT
 10
237.99999999861211
 20
-1911.999999997073
 30
0.0
 11
237.99999999861211
 21
-1918.999999997073
 31
0.0
1001
ACDBBLOCKREPETAG
1070
     1
1071
       41
1005
12C45F
  0
LINE
  5
12C460
  8
OBJECT
 10
237.99999999861211
 20
-1918.999999997073
 30
0.0
 11
113.9999999986121
 21
-1918.999999997073
 31
0.0
1001
ACDBBLOCKREPETAG
1070
     1
1071
       42
1005
12C460
  0
LINE
  5
12C461
  8
OBJECT
 10
116.9999999986121
 20
-1918.999999997073
 30
0.0
 11
116.9999999986121
 21
-1954.999999997073
 31
0.0
1001
ACDBBLOCKREPETAG
1070
     1
1071
       43
1005
12C461
  0
LINE
  5
12C462
  8
OBJECT
 10
116.9999999986121
 20
-1954.999999997073
 30
0.0
 11
234.99999999861211
 21
-1954.999999997073
 31
0.0
1001
ACDBBLOCKREPETAG
1070
     1
1071
       44
1005
12C462
  0
LINE
  5
12C463
  8
OBJECT
 10
234.99999999861211
 20
-1954.999999997073
 30
0.0
 11
234.99999999861211
 21
-1918.999999997073
 31
0.0
1001
ACDBBLOCKREPETAG
1070
     1
1071
       45
1005
12C463
  0
LINE
  5
12C464
  8
OBJECT
 10
121.4999999986121
 20
-1958.999999997073
 30
0.0
 11
121.4999999986121
 21
-1965.999999997073
 31
0.0
1001
ACDBBLOCKREPETAG
1070
     1
1071
       46
1005
12C464
  0
LINE
  5
12C465
  8
OBJECT
 10
230.49999999861211
 20
-1965.999999997073
 30
0.0
 11
230.49999999861211
 21
-1958.999999997073
 31
0.0
1001
ACDBBLOCKREPETAG
1070
     1
1071
       47
1005
12C465
  0
LINE
  5
12C466
  8
OBJECT
 10
230.49999999861211
 20
-1958.999999997073
 30
0.0
 11
121.4999999986121
 21
-1958.999999997073
 31
0.0
1001
ACDBBLOCKREPETAG
1070
     1
1071
       48
1005
12C466
  0
LINE
  5
12C467
  8
OBJECT
 10
116.9999999986121
 20
-1954.999999997073
 30
0.0
 11
121.4999999986121
 21
-1958.999999997073
 31
0.0
1001
ACDBBLOCKREPETAG
1070
     1
1071
       49
1005
12C467
  0
LINE
  5
12C468
  8
OBJECT
 10
234.99999999861211
 20
-1954.999999997073
 30
0.0
 11
230.49999999861211
 21
-1958.999999997073
 31
0.0
1001
ACDBBLOCKREPETAG
1070
     1
1071
       50
1005
12C468
  0
LINE
  5
12C469
  8
OBJECT
 10
113.9999999986121
 20
-1968.9999999970721
 30
0.0
 11
113.9999999986121
 21
-1971.999999997073
 31
0.0
1001
ACDBBLOCKREPETAG
1070
     1
1071
       51
1005
12C469
  0
ARC
  5
12C46A
  8
OBJECT
 10
116.9999999986121
 20
-1968.9999999970721
 30
0.0
 40
3.0
 50
90.0
 51
180.0
1001
ACDBBLOCKREPETAG
1070
     1
1071
       52
1005
12C46A
  0
LINE
  5
12C46B
  8
OBJECT
 10
237.99999999861211
 20
-1971.999999997073
 30
0.0
 11
237.99999999861211
 21
-1968.999999997073
 31
0.0
1001
ACDBBLOCKREPETAG
1070
     1
1071
       53
1005
12C46B
  0
ARC
  5
12C46C
  8
OBJECT
 10
234.99999999861211
 20
-1968.999999997073
 30
0.0
 40
3.0
 50
0.0
 51
90.0
1001
ACDBBLOCKREPETAG
1070
     1
1071
       54
1005
12C46C
  0
LINE
  5
12C46D
  8
OBJECT
 10
234.99999999861211
 20
-1965.999999997073
 30
0.0
 11
116.9999999986121
 21
-1965.9999999970721
 31
0.0
1001
ACDBBLOCKREPETAG
1070
     1
1071
       55
1005
12C46D
  0
LINE
  5
12C46E
  8
HIDDEN
 10
131.49999999861211
 20
-1963.999999997073
 30
0.0
 11
220.49999999861211
 21
-1963.999999997073
 31
0.0
1001
ACDBBLOCKREPETAG
1070
     1
1071
      426
1005
12C46E
  0
TEXT
  5
12C46F
  8
SLIM
 10
420.17142857124622
 20
-1835.9999999993749
 30
0.0
 40
48.0
  1
B303（特）
 41
0.75
1001
ACDBBLOCKREPETAG
1070
     1
1071
      119
1005
12AEEF
  0
LINE
  5
12C470
  8
OBJECT
 10
597.99999999849024
 20
-1720.999999997231
 30
0.0
 11
597.99999999849024
 21
-1727.999999997231
 31
0.0
1001
ACDBBLOCKREPETAG
1070
     1
1071
       38
1005
12C470
  0
LINE
  5
12C471
  8
OBJECT
 10
597.99999999849024
 20
-1727.999999997231
 30
0.0
 11
473.99999999849018
 21
-1727.999999997231
 31
0.0
1001
ACDBBLOCKREPETAG
1070
     1
1071
       39
1005
12C471
  0
LINE
  5
12C472
  8
OBJECT
 10
473.99999999849018
 20
-1727.999999997231
 30
0.0
 11
473.99999999849018
 21
-1720.999999997231
 31
0.0
1001
ACDBBLOCKREPETAG
1070
     1
1071
       40
1005
12C472
  0
LINE
  5
12C473
  8
OBJECT
 10
473.99999999849018
 20
-1720.999999997231
 30
0.0
 11
597.99999999849024
 21
-1720.999999997231
 31
0.0
1001
ACDBBLOCKREPETAG
1070
     1
1071
       41
1005
12C473
  0
LINE
  5
12C474
  8
OBJECT
 10
594.99999999849024
 20
-1720.999999997231
 30
0.0
 11
594.99999999849024
 21
-1684.999999997231
 31
0.0
1001
ACDBBLOCKREPETAG
1070
     1
1071
       42
1005
12C474
  0
LINE
  5
12C475
  8
OBJECT
 10
594.99999999849024
 20
-1684.999999997231
 30
0.0
 11
476.99999999849018
 21
-1684.999999997231
 31
0.0
1001
ACDBBLOCKREPETAG
1070
     1
1071
       43
1005
12C475
  0
LINE
  5
12C476
  8
OBJECT
 10
476.99999999849018
 20
-1684.999999997231
 30
0.0
 11
476.99999999849018
 21
-1720.999999997231
 31
0.0
1001
ACDBBLOCKREPETAG
1070
     1
1071
       44
1005
12C476
  0
LINE
  5
12C477
  8
OBJECT
 10
590.49999999849024
 20
-1680.999999997231
 30
0.0
 11
590.49999999849024
 21
-1673.999999997231
 31
0.0
1001
ACDBBLOCKREPETAG
1070
     1
1071
       45
1005
12C477
  0
LINE
  5
12C478
  8
OBJECT
 10
481.49999999849018
 20
-1673.999999997231
 30
0.0
 11
481.49999999849018
 21
-1680.999999997231
 31
0.0
1001
ACDBBLOCKREPETAG
1070
     1
1071
       46
1005
12C478
  0
LINE
  5
12C479
  8
OBJECT
 10
481.49999999849018
 20
-1680.999999997231
 30
0.0
 11
590.49999999849024
 21
-1680.999999997231
 31
0.0
1001
ACDBBLOCKREPETAG
1070
     1
1071
       47
1005
12C479
  0
LINE
  5
12C47A
  8
OBJECT
 10
594.99999999849024
 20
-1684.999999997231
 30
0.0
 11
590.49999999849024
 21
-1680.999999997231
 31
0.0
1001
ACDBBLOCKREPETAG
1070
     1
1071
       48
1005
12C47A
  0
LINE
  5
12C47B
  8
OBJECT
 10
476.99999999849018
 20
-1684.999999997231
 30
0.0
 11
481.49999999849018
 21
-1680.999999997231
 31
0.0
1001
ACDBBLOCKREPETAG
1070
     1
1071
       49
1005
12C47B
  0
LINE
  5
12C47C
  8
OBJECT
 10
597.99999999849024
 20
-1670.999999997231
 30
0.0
 11
597.99999999849024
 21
-1667.999999997231
 31
0.0
1001
ACDBBLOCKREPETAG
1070
     1
1071
       50
1005
12C47C
  0
ARC
  5
12C47D
  8
OBJECT
 10
594.99999999849024
 20
-1670.999999997231
 30
0.0
 40
3.0
 50
270.0
 51
0.0
1001
ACDBBLOCKREPETAG
1070
     1
1071
       51
1005
12C47D
  0
LINE
  5
12C47E
  8
OBJECT
 10
473.99999999849018
 20
-1667.999999997231
 30
0.0
 11
473.99999999849018
 21
-1670.999999997231
 31
0.0
1001
ACDBBLOCKREPETAG
1070
     1
1071
       52
1005
12C47E
  0
ARC
  5
12C47F
  8
OBJECT
 10
476.99999999849018
 20
-1670.999999997231
 30
0.0
 40
3.0
 50
180.0
 51
270.0
1001
ACDBBLOCKREPETAG
1070
     1
1071
       53
1005
12C47F
  0
LINE
  5
12C480
  8
OBJECT
 10
476.99999999849018
 20
-1673.9999999972299
 30
0.0
 11
594.99999999849024
 21
-1673.999999997232
 31
0.0
1001
ACDBBLOCKREPETAG
1070
     1
1071
       54
1005
12C480
  0
INSERT
  5
12C481
  8
OBJECT
  2
*U50
 10
0.0
 20
0.0
 30
0.0
  0
LINE
  5
12C482
  8
HIDDEN
 10
580.49999999849024
 20
-1675.999999997231
 30
0.0
 11
491.49999999849018
 21
-1675.999999997231
 31
0.0
1001
ACDBBLOCKREPETAG
1070
     1
1071
      430
1005
12C482
  0
LINE
  5
12C483
  8
OBJECT
 10
618.99999999849024
 20
-1649.999999997231
 30
0.0
 11
615.99999999849024
 21
-1649.999999997231
 31
0.0
1001
ACDBBLOCKREPETAG
1070
     1
1071
      418
1005
12C483
  0
ARC
  5
12C484
  8
OBJECT
 10
618.99999999849024
 20
-1646.999999997231
 30
0.0
 40
3.0
 50
270.0
 51
0.0
1001
ACDBBLOCKREPETAG
1070
     1
1071
      419
1005
12C484
  0
LINE
  5
12C485
  8
OBJECT
 10
615.99999999849024
 20
-1525.999999997231
 30
0.0
 11
618.99999999849024
 21
-1525.999999997231
 31
0.0
1001
ACDBBLOCKREPETAG
1070
     1
1071
      420
1005
12C485
  0
ARC
  5
12C486
  8
OBJECT
 10
618.99999999849024
 20
-1528.999999997231
 30
0.0
 40
3.0
 50
0.0
 51
90.0
1001
ACDBBLOCKREPETAG
1070
     1
1071
      421
1005
12C486
  0
LINE
  5
12C487
  8
OBJECT
 10
621.99999999849024
 20
-1528.999999997231
 30
0.0
 11
621.99999999849024
 21
-1646.999999997231
 31
0.0
1001
ACDBBLOCKREPETAG
1070
     1
1071
      422
1005
12C487
  0
INSERT
  5
12C488
  8
OBJECT
  2
*U51
 10
0.0
 20
0.0
 30
0.0
  0
LINE
  5
12C489
  8
OBJECT
 10
473.99999999849018
 20
-1454.999999997231
 30
0.0
 11
473.99999999849018
 21
-1447.999999997231
 31
0.0
1001
ACDBBLOCKREPETAG
1070
     1
1071
       39
1005
12C489
  0
LINE
  5
12C48A
  8
OBJECT
 10
473.99999999849018
 20
-1447.999999997231
 30
0.0
 11
597.99999999849024
 21
-1447.999999997231
 31
0.0
1001
ACDBBLOCKREPETAG
1070
     1
1071
       40
1005
12C48A
  0
LINE
  5
12C48B
  8
OBJECT
 10
597.99999999849024
 20
-1447.999999997231
 30
0.0
 11
597.99999999849024
 21
-1454.999999997231
 31
0.0
1001
ACDBBLOCKREPETAG
1070
     1
1071
       41
1005
12C48B
  0
LINE
  5
12C48C
  8
OBJECT
 10
597.99999999849024
 20
-1454.999999997231
 30
0.0
 11
473.99999999849018
 21
-1454.999999997231
 31
0.0
1001
ACDBBLOCKREPETAG
1070
     1
1071
       42
1005
12C48C
  0
LINE
  5
12C48D
  8
OBJECT
 10
476.99999999849018
 20
-1454.999999997231
 30
0.0
 11
476.99999999849018
 21
-1490.999999997231
 31
0.0
1001
ACDBBLOCKREPETAG
1070
     1
1071
       43
1005
12C48D
  0
LINE
  5
12C48E
  8
OBJECT
 10
476.99999999849018
 20
-1490.999999997231
 30
0.0
 11
594.99999999849024
 21
-1490.999999997231
 31
0.0
1001
ACDBBLOCKREPETAG
1070
     1
1071
       44
1005
12C48E
  0
LINE
  5
12C48F
  8
OBJECT
 10
594.99999999849024
 20
-1490.999999997231
 30
0.0
 11
594.99999999849024
 21
-1454.999999997231
 31
0.0
1001
ACDBBLOCKREPETAG
1070
     1
1071
       45
1005
12C48F
  0
LINE
  5
12C490
  8
OBJECT
 10
481.49999999849018
 20
-1494.999999997231
 30
0.0
 11
481.49999999849018
 21
-1501.999999997231
 31
0.0
1001
ACDBBLOCKREPETAG
1070
     1
1071
       46
1005
12C490
  0
LINE
  5
12C491
  8
OBJECT
 10
590.49999999849024
 20
-1501.999999997231
 30
0.0
 11
590.49999999849024
 21
-1494.999999997231
 31
0.0
1001
ACDBBLOCKREPETAG
1070
     1
1071
       47
1005
12C491
  0
LINE
  5
12C492
  8
OBJECT
 10
590.49999999849024
 20
-1494.999999997231
 30
0.0
 11
481.49999999849018
 21
-1494.999999997231
 31
0.0
1001
ACDBBLOCKREPETAG
1070
     1
1071
       48
1005
12C492
  0
LINE
  5
12C493
  8
OBJECT
 10
476.99999999849018
 20
-1490.999999997231
 30
0.0
 11
481.49999999849018
 21
-1494.999999997231
 31
0.0
1001
ACDBBLOCKREPETAG
1070
     1
1071
       49
1005
12C493
  0
LINE
  5
12C494
  8
OBJECT
 10
594.99999999849024
 20
-1490.999999997231
 30
0.0
 11
590.49999999849024
 21
-1494.999999997231
 31
0.0
1001
ACDBBLOCKREPETAG
1070
     1
1071
       50
1005
12C494
  0
LINE
  5
12C495
  8
OBJECT
 10
473.99999999849018
 20
-1504.9999999972299
 30
0.0
 11
473.99999999849018
 21
-1507.999999997231
 31
0.0
1001
ACDBBLOCKREPETAG
1070
     1
1071
       51
1005
12C495
  0
ARC
  5
12C496
  8
OBJECT
 10
476.99999999849018
 20
-1504.9999999972299
 30
0.0
 40
3.0
 50
90.0
 51
180.0
1001
ACDBBLOCKREPETAG
1070
     1
1071
       52
1005
12C496
  0
LINE
  5
12C497
  8
OBJECT
 10
597.99999999849024
 20
-1507.999999997231
 30
0.0
 11
597.99999999849024
 21
-1504.999999997232
 31
0.0
1001
ACDBBLOCKREPETAG
1070
     1
1071
       53
1005
12C497
  0
ARC
  5
12C498
  8
OBJECT
 10
594.99999999849024
 20
-1504.999999997232
 30
0.0
 40
3.0
 50
0.0
 51
90.0
1001
ACDBBLOCKREPETAG
1070
     1
1071
       54
1005
12C498
  0
LINE
  5
12C499
  8
OBJECT
 10
594.99999999849024
 20
-1501.999999997232
 30
0.0
 11
476.99999999849018
 21
-1501.9999999972299
 31
0.0
1001
ACDBBLOCKREPETAG
1070
     1
1071
       55
1005
12C499
  0
LINE
  5
12C49A
  8
HIDDEN
 10
491.49999999849018
 20
-1499.999999997231
 30
0.0
 11
580.49999999849024
 21
-1499.999999997231
 31
0.0
1001
ACDBBLOCKREPETAG
1070
     1
1071
      426
1005
12C49A
  0
TEXT
  5
12C49B
  8
SLIM
 10
60.171428571368068
 20
-1835.9999999993749
 30
0.0
 40
48.0
  1
B204（特）
 41
0.75
1001
ACDBBLOCKREPETAG
1070
     1
1071
      119
1005
12AEEF
  0
LINE
  5
12C49C
  8
OBJECT
 10
250.99999999861211
 20
-1737.999999997231
 30
0.0
 11
250.99999999861211
 21
-1730.999999997231
 31
0.0
1001
ACDBBLOCKREPETAG
1070
     1
1071
       57
1005
12C49C
  0
LINE
  5
12C49D
  8
OBJECT
 10
250.99999999861211
 20
-1730.999999997231
 30
0.0
 11
100.9999999986121
 21
-1730.999999997231
 31
0.0
1001
ACDBBLOCKREPETAG
1070
     1
1071
       58
1005
12C49D
  0
LINE
  5
12C49E
  8
OBJECT
 10
247.99999999861211
 20
-1689.499999997232
 30
0.0
 11
103.9999999986121
 21
-1689.499999997232
 31
0.0
1001
ACDBBLOCKREPETAG
1070
     1
1071
       59
1005
12C49E
  0
LINE
  5
12C49F
  8
OBJECT
 10
241.49999999861211
 20
-1677.999999997231
 30
0.0
 11
110.4999999986121
 21
-1677.999999997231
 31
0.0
1001
ACDBBLOCKREPETAG
1070
     1
1071
       60
1005
12C49F
  0
LINE
  5
12C4A0
  8
OBJECT
 10
100.9999999986121
 20
-1730.999999997231
 30
0.0
 11
100.9999999986121
 21
-1737.999999997231
 31
0.0
1001
ACDBBLOCKREPETAG
1070
     1
1071
       61
1005
12C4A0
  0
LINE
  5
12C4A1
  8
OBJECT
 10
100.9999999986121
 20
-1737.999999997231
 30
0.0
 11
250.99999999861211
 21
-1737.999999997231
 31
0.0
1001
ACDBBLOCKREPETAG
1070
     1
1071
       62
1005
12C4A1
  0
LINE
  5
12C4A2
  8
OBJECT
 10
113.9999999986121
 20
-1673.999999997231
 30
0.0
 11
113.9999999986121
 21
-1667.999999997231
 31
0.0
1001
ACDBBLOCKREPETAG
1070
     1
1071
       63
1005
12C4A2
  0
LINE
  5
12C4A3
  8
OBJECT
 10
103.9999999986121
 20
-1730.999999997231
 30
0.0
 11
103.9999999986121
 21
-1689.499999997232
 31
0.0
1001
ACDBBLOCKREPETAG
1070
     1
1071
       64
1005
12C4A3
  0
LINE
  5
12C4A4
  8
OBJECT
 10
103.9999999986121
 20
-1689.499999997232
 30
0.0
 11
110.4999999986121
 21
-1677.999999997231
 31
0.0
1001
ACDBBLOCKREPETAG
1070
     1
1071
       65
1005
12C4A4
  0
LINE
  5
12C4A5
  8
OBJECT
 10
110.4999999986121
 20
-1677.999999997231
 30
0.0
 11
113.9999999986121
 21
-1673.999999997231
 31
0.0
1001
ACDBBLOCKREPETAG
1070
     1
1071
       66
1005
12C4A5
  0
LINE
  5
12C4A6
  8
OBJECT
 10
247.99999999861211
 20
-1689.499999997232
 30
0.0
 11
241.49999999861211
 21
-1677.999999997231
 31
0.0
1001
ACDBBLOCKREPETAG
1070
     1
1071
       67
1005
12C4A6
  0
LINE
  5
12C4A7
  8
OBJECT
 10
241.49999999861211
 20
-1677.999999997231
 30
0.0
 11
237.99999999861211
 21
-1673.999999997231
 31
0.0
1001
ACDBBLOCKREPETAG
1070
     1
1071
       68
1005
12C4A7
  0
ARC
  5
12C4A8
  8
OBJECT
 10
175.99999999861211
 20
-2055.899999997233
 30
0.0
 40
386.89999999999998
 50
80.778701362368551
 51
99.221298637631435
1001
ACDBBLOCKREPETAG
1070
     1
1071
       69
1005
12C4A8
  0
LINE
  5
12C4A9
  8
OBJECT
 10
237.99999999861211
 20
-1673.999999997231
 30
0.0
 11
237.99999999861211
 21
-1667.999999997231
 31
0.0
1001
ACDBBLOCKREPETAG
1070
     1
1071
       70
1005
12C4A9
  0
LINE
  5
12C4AA
  8
OBJECT
 10
247.99999999861211
 20
-1730.999999997231
 30
0.0
 11
247.99999999861211
 21
-1689.499999997232
 31
0.0
1001
ACDBBLOCKREPETAG
1070
     1
1071
       71
1005
12C4AA
  0
INSERT
  5
12C4AB
  8
OBJECT
  2
*U52
 10
0.0
 20
0.0
 30
0.0
  0
LINE
  5
12C4AC
  8
HIDDEN
 10
118.9999999986121
 20
-1685.999999997231
 30
0.0
 11
232.99999999861211
 21
-1685.999999997231
 31
0.0
1001
ACDBBLOCKREPETAG
1070
     1
1071
      437
1005
12C4AC
  0
LINE
  5
12C4AD
  8
OBJECT
 10
258.99999999861211
 20
-1649.999999997231
 30
0.0
 11
255.99999999861211
 21
-1649.999999997231
 31
0.0
1001
ACDBBLOCKREPETAG
1070
     1
1071
      418
1005
12C4AD
  0
ARC
  5
12C4AE
  8
OBJECT
 10
258.99999999861211
 20
-1646.999999997231
 30
0.0
 40
3.0
 50
270.0
 51
0.0
1001
ACDBBLOCKREPETAG
1070
     1
1071
      419
1005
12C4AE
  0
LINE
  5
12C4AF
  8
OBJECT
 10
255.99999999861211
 20
-1525.999999997231
 30
0.0
 11
258.99999999861211
 21
-1525.999999997231
 31
0.0
1001
ACDBBLOCKREPETAG
1070
     1
1071
      420
1005
12C4AF
  0
ARC
  5
12C4B0
  8
OBJECT
 10
258.99999999861211
 20
-1528.999999997231
 30
0.0
 40
3.0
 50
0.0
 51
90.0
1001
ACDBBLOCKREPETAG
1070
     1
1071
      421
1005
12C4B0
  0
LINE
  5
12C4B1
  8
OBJECT
 10
261.99999999861211
 20
-1528.999999997231
 30
0.0
 11
261.99999999861211
 21
-1646.999999997231
 31
0.0
1001
ACDBBLOCKREPETAG
1070
     1
1071
      422
1005
12C4B1
  0
INSERT
  5
12C4B2
  8
OBJECT
  2
*U53
 10
0.0
 20
0.0
 30
0.0
  0
LINE
  5
12C4B3
  8
OBJECT
 10
120.9999999986121
 20
-1454.999999997231
 30
0.0
 11
120.9999999986121
 21
-1447.999999997231
 31
0.0
1001
ACDBBLOCKREPETAG
1070
     1
1071
       20
1005
12C4B3
  0
LINE
  5
12C4B4
  8
OBJECT
 10
120.9999999986121
 20
-1447.999999997231
 30
0.0
 11
230.99999999861211
 21
-1447.999999997231
 31
0.0
1001
ACDBBLOCKREPETAG
1070
     1
1071
       21
1005
12C4B4
  0
LINE
  5
12C4B5
  8
OBJECT
 10
230.99999999861211
 20
-1447.999999997231
 30
0.0
 11
230.99999999861211
 21
-1454.999999997231
 31
0.0
1001
ACDBBLOCKREPETAG
1070
     1
1071
       22
1005
12C4B5
  0
LINE
  5
12C4B6
  8
OBJECT
 10
230.99999999861211
 20
-1454.999999997231
 30
0.0
 11
120.9999999986121
 21
-1454.999999997231
 31
0.0
1001
ACDBBLOCKREPETAG
1070
     1
1071
       23
1005
12C4B6
  0
LINE
  5
12C4B7
  8
OBJECT
 10
123.9999999986121
 20
-1454.999999997231
 30
0.0
 11
123.9999999986121
 21
-1490.999999997231
 31
0.0
1001
ACDBBLOCKREPETAG
1070
     1
1071
       24
1005
12C4B7
  0
LINE
  5
12C4B8
  8
OBJECT
 10
123.9999999986121
 20
-1490.999999997231
 30
0.0
 11
227.99999999861211
 21
-1490.999999997231
 31
0.0
1001
ACDBBLOCKREPETAG
1070
     1
1071
       25
1005
12C4B8
  0
LINE
  5
12C4B9
  8
OBJECT
 10
227.99999999861211
 20
-1490.999999997231
 30
0.0
 11
227.99999999861211
 21
-1454.999999997231
 31
0.0
1001
ACDBBLOCKREPETAG
1070
     1
1071
       26
1005
12C4B9
  0
LINE
  5
12C4BA
  8
OBJECT
 10
128.49999999861211
 20
-1494.999999997231
 30
0.0
 11
128.49999999861211
 21
-1501.999999997231
 31
0.0
1001
ACDBBLOCKREPETAG
1070
     1
1071
       27
1005
12C4BA
  0
LINE
  5
12C4BB
  8
OBJECT
 10
223.49999999861211
 20
-1501.999999997231
 30
0.0
 11
223.49999999861211
 21
-1494.999999997231
 31
0.0
1001
ACDBBLOCKREPETAG
1070
     1
1071
       28
1005
12C4BB
  0
LINE
  5
12C4BC
  8
OBJECT
 10
223.49999999861211
 20
-1494.999999997231
 30
0.0
 11
128.49999999861211
 21
-1494.999999997231
 31
0.0
1001
ACDBBLOCKREPETAG
1070
     1
1071
       29
1005
12C4BC
  0
LINE
  5
12C4BD
  8
OBJECT
 10
123.9999999986121
 20
-1490.999999997231
 30
0.0
 11
128.49999999861211
 21
-1494.999999997231
 31
0.0
1001
ACDBBLOCKREPETAG
1070
     1
1071
       30
1005
12C4BD
  0
LINE
  5
12C4BE
  8
OBJECT
 10
227.99999999861211
 20
-1490.999999997231
 30
0.0
 11
223.49999999861211
 21
-1494.999999997231
 31
0.0
1001
ACDBBLOCKREPETAG
1070
     1
1071
       31
1005
12C4BE
  0
LINE
  5
12C4BF
  8
OBJECT
 10
113.9999999986121
 20
-1504.9999999972299
 30
0.0
 11
113.9999999986121
 21
-1507.999999997231
 31
0.0
1001
ACDBBLOCKREPETAG
1070
     1
1071
       32
1005
12C4BF
  0
ARC
  5
12C4C0
  8
OBJECT
 10
116.9999999986121
 20
-1504.9999999972299
 30
0.0
 40
3.0
 50
90.0
 51
180.0
1001
ACDBBLOCKREPETAG
1070
     1
1071
       33
1005
12C4C0
  0
LINE
  5
12C4C1
  8
OBJECT
 10
237.99999999861211
 20
-1507.999999997231
 30
0.0
 11
237.99999999861211
 21
-1504.999999997232
 31
0.0
1001
ACDBBLOCKREPETAG
1070
     1
1071
       34
1005
12C4C1
  0
ARC
  5
12C4C2
  8
OBJECT
 10
234.99999999861211
 20
-1504.999999997232
 30
0.0
 40
3.0
 50
0.0
 51
90.0
1001
ACDBBLOCKREPETAG
1070
     1
1071
       35
1005
12C4C2
  0
LINE
  5
12C4C3
  8
OBJECT
 10
234.99999999861211
 20
-1501.999999997232
 30
0.0
 11
116.9999999986121
 21
-1501.9999999972299
 31
0.0
1001
ACDBBLOCKREPETAG
1070
     1
1071
       36
1005
12C4C3
  0
LINE
  5
12C4C4
  8
HIDDEN
 10
137.99999999861211
 20
-1499.999999997231
 30
0.0
 11
213.99999999861211
 21
-1499.999999997231
 31
0.0
1001
ACDBBLOCKREPETAG
1070
     1
1071
      423
1005
12C4C4
  0
TEXT
  5
12C4C5
  8
SLIM
 10
420.17142857124622
 20
-1371.9999999995321
 30
0.0
 40
48.0
  1
B203（特）
 41
0.75
1001
ACDBBLOCKREPETAG
1070
     1
1071
      119
1005
12AEEF
  0
LINE
  5
12C4C6
  8
OBJECT
 10
597.99999999849024
 20
-1256.99999999739
 30
0.0
 11
597.99999999849024
 21
-1263.99999999739
 31
0.0
1001
ACDBBLOCKREPETAG
1070
     1
1071
       38
1005
12C4C6
  0
LINE
  5
12C4C7
  8
OBJECT
 10
597.99999999849024
 20
-1263.99999999739
 30
0.0
 11
473.99999999849018
 21
-1263.99999999739
 31
0.0
1001
ACDBBLOCKREPETAG
1070
     1
1071
       39
1005
12C4C7
  0
LINE
  5
12C4C8
  8
OBJECT
 10
473.99999999849018
 20
-1263.99999999739
 30
0.0
 11
473.99999999849018
 21
-1256.99999999739
 31
0.0
1001
ACDBBLOCKREPETAG
1070
     1
1071
       40
1005
12C4C8
  0
LINE
  5
12C4C9
  8
OBJECT
 10
473.99999999849018
 20
-1256.99999999739
 30
0.0
 11
597.99999999849024
 21
-1256.99999999739
 31
0.0
1001
ACDBBLOCKREPETAG
1070
     1
1071
       41
1005
12C4C9
  0
LINE
  5
12C4CA
  8
OBJECT
 10
594.99999999849024
 20
-1256.99999999739
 30
0.0
 11
594.99999999849024
 21
-1220.9999999973891
 31
0.0
1001
ACDBBLOCKREPETAG
1070
     1
1071
       42
1005
12C4CA
  0
LINE
  5
12C4CB
  8
OBJECT
 10
594.99999999849024
 20
-1220.9999999973891
 30
0.0
 11
476.99999999849018
 21
-1220.9999999973891
 31
0.0
1001
ACDBBLOCKREPETAG
1070
     1
1071
       43
1005
12C4CB
  0
LINE
  5
12C4CC
  8
OBJECT
 10
476.99999999849018
 20
-1220.9999999973891
 30
0.0
 11
476.99999999849018
 21
-1256.99999999739
 31
0.0
1001
ACDBBLOCKREPETAG
1070
     1
1071
       44
1005
12C4CC
  0
LINE
  5
12C4CD
  8
OBJECT
 10
590.49999999849024
 20
-1216.99999999739
 30
0.0
 11
590.49999999849024
 21
-1209.99999999739
 31
0.0
1001
ACDBBLOCKREPETAG
1070
     1
1071
       45
1005
12C4CD
  0
LINE
  5
12C4CE
  8
OBJECT
 10
481.49999999849018
 20
-1209.99999999739
 30
0.0
 11
481.49999999849018
 21
-1216.99999999739
 31
0.0
1001
ACDBBLOCKREPETAG
1070
     1
1071
       46
1005
12C4CE
  0
LINE
  5
12C4CF
  8
OBJECT
 10
481.49999999849018
 20
-1216.99999999739
 30
0.0
 11
590.49999999849024
 21
-1216.99999999739
 31
0.0
1001
ACDBBLOCKREPETAG
1070
     1
1071
       47
1005
12C4CF
  0
LINE
  5
12C4D0
  8
OBJECT
 10
594.99999999849024
 20
-1220.9999999973891
 30
0.0
 11
590.49999999849024
 21
-1216.99999999739
 31
0.0
1001
ACDBBLOCKREPETAG
1070
     1
1071
       48
1005
12C4D0
  0
LINE
  5
12C4D1
  8
OBJECT
 10
476.99999999849018
 20
-1220.9999999973891
 30
0.0
 11
481.49999999849018
 21
-1216.99999999739
 31
0.0
1001
ACDBBLOCKREPETAG
1070
     1
1071
       49
1005
12C4D1
  0
LINE
  5
12C4D2
  8
OBJECT
 10
597.99999999849024
 20
-1206.9999999973909
 30
0.0
 11
597.99999999849024
 21
-1203.99999999739
 31
0.0
1001
ACDBBLOCKREPETAG
1070
     1
1071
       50
1005
12C4D2
  0
ARC
  5
12C4D3
  8
OBJECT
 10
594.99999999849024
 20
-1206.9999999973909
 30
0.0
 40
3.0
 50
270.0
 51
0.0
1001
ACDBBLOCKREPETAG
1070
     1
1071
       51
1005
12C4D3
  0
LINE
  5
12C4D4
  8
OBJECT
 10
473.99999999849018
 20
-1203.99999999739
 30
0.0
 11
473.99999999849018
 21
-1206.9999999973891
 31
0.0
1001
ACDBBLOCKREPETAG
1070
     1
1071
       52
1005
12C4D4
  0
ARC
  5
12C4D5
  8
OBJECT
 10
476.99999999849018
 20
-1206.9999999973891
 30
0.0
 40
3.0
 50
180.0
 51
270.0
1001
ACDBBLOCKREPETAG
1070
     1
1071
       53
1005
12C4D5
  0
LINE
  5
12C4D6
  8
OBJECT
 10
476.99999999849018
 20
-1209.9999999973891
 30
0.0
 11
594.99999999849024
 21
-1209.99999999739
 31
0.0
1001
ACDBBLOCKREPETAG
1070
     1
1071
       54
1005
12C4D6
  0
INSERT
  5
12C4D7
  8
OBJECT
  2
*U54
 10
0.0
 20
0.0
 30
0.0
  0
LINE
  5
12C4D8
  8
HIDDEN
 10
580.49999999849024
 20
-1211.99999999739
 30
0.0
 11
491.49999999849018
 21
-1211.99999999739
 31
0.0
1001
ACDBBLOCKREPETAG
1070
     1
1071
      430
1005
12C4D8
  0
LINE
  5
12C4D9
  8
OBJECT
 10
618.99999999849024
 20
-1185.99999999739
 30
0.0
 11
615.99999999849024
 21
-1185.99999999739
 31
0.0
1001
ACDBBLOCKREPETAG
1070
     1
1071
      418
1005
12C4D9
  0
ARC
  5
12C4DA
  8
OBJECT
 10
618.99999999849024
 20
-1182.99999999739
 30
0.0
 40
3.0
 50
270.0
 51
0.0
1001
ACDBBLOCKREPETAG
1070
     1
1071
      419
1005
12C4DA
  0
LINE
  5
12C4DB
  8
OBJECT
 10
615.99999999849024
 20
-1061.9999999973891
 30
0.0
 11
618.99999999849024
 21
-1061.9999999973891
 31
0.0
1001
ACDBBLOCKREPETAG
1070
     1
1071
      420
1005
12C4DB
  0
ARC
  5
12C4DC
  8
OBJECT
 10
618.99999999849024
 20
-1064.99999999739
 30
0.0
 40
3.0
 50
0.0
 51
90.0
1001
ACDBBLOCKREPETAG
1070
     1
1071
      421
1005
12C4DC
  0
LINE
  5
12C4DD
  8
OBJECT
 10
621.99999999849024
 20
-1064.99999999739
 30
0.0
 11
621.99999999849024
 21
-1182.99999999739
 31
0.0
1001
ACDBBLOCKREPETAG
1070
     1
1071
      422
1005
12C4DD
  0
INSERT
  5
12C4DE
  8
OBJECT
  2
*U55
 10
0.0
 20
0.0
 30
0.0
  0
LINE
  5
12C4DF
  8
OBJECT
 10
480.99999999849018
 20
-990.99999999738964
 30
0.0
 11
480.99999999849018
 21
-983.99999999738964
 31
0.0
1001
ACDBBLOCKREPETAG
1070
     1
1071
       20
1005
12C4DF
  0
LINE
  5
12C4E0
  8
OBJECT
 10
480.99999999849018
 20
-983.99999999738964
 30
0.0
 11
590.99999999849024
 21
-983.99999999738964
 31
0.0
1001
ACDBBLOCKREPETAG
1070
     1
1071
       21
1005
12C4E0
  0
LINE
  5
12C4E1
  8
OBJECT
 10
590.99999999849024
 20
-983.99999999738964
 30
0.0
 11
590.99999999849024
 21
-990.99999999738964
 31
0.0
1001
ACDBBLOCKREPETAG
1070
     1
1071
       22
1005
12C4E1
  0
LINE
  5
12C4E2
  8
OBJECT
 10
590.99999999849024
 20
-990.99999999738964
 30
0.0
 11
480.99999999849018
 21
-990.99999999738964
 31
0.0
1001
ACDBBLOCKREPETAG
1070
     1
1071
       23
1005
12C4E2
  0
LINE
  5
12C4E3
  8
OBJECT
 10
483.99999999849018
 20
-990.99999999738964
 30
0.0
 11
483.99999999849018
 21
-1026.99999999739
 31
0.0
1001
ACDBBLOCKREPETAG
1070
     1
1071
       24
1005
12C4E3
  0
LINE
  5
12C4E4
  8
OBJECT
 10
483.99999999849018
 20
-1026.99999999739
 30
0.0
 11
587.99999999849024
 21
-1026.99999999739
 31
0.0
1001
ACDBBLOCKREPETAG
1070
     1
1071
       25
1005
12C4E4
  0
LINE
  5
12C4E5
  8
OBJECT
 10
587.99999999849024
 20
-1026.99999999739
 30
0.0
 11
587.99999999849024
 21
-990.99999999738964
 31
0.0
1001
ACDBBLOCKREPETAG
1070
     1
1071
       26
1005
12C4E5
  0
LINE
  5
12C4E6
  8
OBJECT
 10
488.49999999849018
 20
-1030.99999999739
 30
0.0
 11
488.49999999849018
 21
-1037.9999999973891
 31
0.0
1001
ACDBBLOCKREPETAG
1070
     1
1071
       27
1005
12C4E6
  0
LINE
  5
12C4E7
  8
OBJECT
 10
583.49999999849024
 20
-1037.9999999973891
 30
0.0
 11
583.49999999849024
 21
-1030.99999999739
 31
0.0
1001
ACDBBLOCKREPETAG
1070
     1
1071
       28
1005
12C4E7
  0
LINE
  5
12C4E8
  8
OBJECT
 10
583.49999999849024
 20
-1030.99999999739
 30
0.0
 11
488.49999999849018
 21
-1030.99999999739
 31
0.0
1001
ACDBBLOCKREPETAG
1070
     1
1071
       29
1005
12C4E8
  0
LINE
  5
12C4E9
  8
OBJECT
 10
483.99999999849018
 20
-1026.99999999739
 30
0.0
 11
488.49999999849018
 21
-1030.99999999739
 31
0.0
1001
ACDBBLOCKREPETAG
1070
     1
1071
       30
1005
12C4E9
  0
LINE
  5
12C4EA
  8
OBJECT
 10
587.99999999849024
 20
-1026.99999999739
 30
0.0
 11
583.49999999849024
 21
-1030.99999999739
 31
0.0
1001
ACDBBLOCKREPETAG
1070
     1
1071
       31
1005
12C4EA
  0
LINE
  5
12C4EB
  8
OBJECT
 10
473.99999999849018
 20
-1040.9999999973891
 30
0.0
 11
473.99999999849018
 21
-1043.99999999739
 31
0.0
1001
ACDBBLOCKREPETAG
1070
     1
1071
       32
1005
12C4EB
  0
ARC
  5
12C4EC
  8
OBJECT
 10
476.99999999849018
 20
-1040.9999999973891
 30
0.0
 40
3.0
 50
90.0
 51
180.0
1001
ACDBBLOCKREPETAG
1070
     1
1071
       33
1005
12C4EC
  0
LINE
  5
12C4ED
  8
OBJECT
 10
597.99999999849024
 20
-1043.99999999739
 30
0.0
 11
597.99999999849024
 21
-1040.99999999739
 31
0.0
1001
ACDBBLOCKREPETAG
1070
     1
1071
       34
1005
12C4ED
  0
ARC
  5
12C4EE
  8
OBJECT
 10
594.99999999849024
 20
-1040.99999999739
 30
0.0
 40
3.0
 50
0.0
 51
90.0
1001
ACDBBLOCKREPETAG
1070
     1
1071
       35
1005
12C4EE
  0
LINE
  5
12C4EF
  8
OBJECT
 10
594.99999999849024
 20
-1037.99999999739
 30
0.0
 11
476.99999999849018
 21
-1037.9999999973891
 31
0.0
1001
ACDBBLOCKREPETAG
1070
     1
1071
       36
1005
12C4EF
  0
LINE
  5
12C4F0
  8
HIDDEN
 10
497.99999999849018
 20
-1035.99999999739
 30
0.0
 11
573.99999999849024
 21
-1035.99999999739
 31
0.0
1001
ACDBBLOCKREPETAG
1070
     1
1071
      423
1005
12C4F0
  0
TEXT
  5
12C4F1
  8
SLIM
 10
115.714285714225
 20
-1371.9999999995321
 30
0.0
 40
48.0
  1
B202
 41
0.75
1001
ACDBBLOCKREPETAG
1070
     1
1071
      119
1005
12AEEF
  0
LINE
  5
12C4F2
  8
OBJECT
 10
230.999999998612
 20
-1256.99999999739
 30
0.0
 11
230.999999998612
 21
-1263.99999999739
 31
0.0
1001
ACDBBLOCKREPETAG
1070
     1
1071
       19
1005
12C4F2
  0
LINE
  5
12C4F3
  8
OBJECT
 10
230.999999998612
 20
-1263.99999999739
 30
0.0
 11
120.9999999986119
 21
-1263.99999999739
 31
0.0
1001
ACDBBLOCKREPETAG
1070
     1
1071
       20
1005
12C4F3
  0
LINE
  5
12C4F4
  8
OBJECT
 10
120.9999999986119
 20
-1263.99999999739
 30
0.0
 11
120.9999999986119
 21
-1256.99999999739
 31
0.0
1001
ACDBBLOCKREPETAG
1070
     1
1071
       21
1005
12C4F4
  0
LINE
  5
12C4F5
  8
OBJECT
 10
120.9999999986119
 20
-1256.99999999739
 30
0.0
 11
230.999999998612
 21
-1256.99999999739
 31
0.0
1001
ACDBBLOCKREPETAG
1070
     1
1071
       22
1005
12C4F5
  0
LINE
  5
12C4F6
  8
OBJECT
 10
227.99999999861191
 20
-1256.99999999739
 30
0.0
 11
227.99999999861191
 21
-1220.9999999973891
 31
0.0
1001
ACDBBLOCKREPETAG
1070
     1
1071
       23
1005
12C4F6
  0
LINE
  5
12C4F7
  8
OBJECT
 10
227.99999999861191
 20
-1220.9999999973891
 30
0.0
 11
123.9999999986119
 21
-1220.9999999973891
 31
0.0
1001
ACDBBLOCKREPETAG
1070
     1
1071
       24
1005
12C4F7
  0
LINE
  5
12C4F8
  8
OBJECT
 10
123.9999999986119
 20
-1220.9999999973891
 30
0.0
 11
123.9999999986119
 21
-1256.99999999739
 31
0.0
1001
ACDBBLOCKREPETAG
1070
     1
1071
       25
1005
12C4F8
  0
LINE
  5
12C4F9
  8
OBJECT
 10
223.49999999861191
 20
-1216.99999999739
 30
0.0
 11
223.49999999861191
 21
-1209.99999999739
 31
0.0
1001
ACDBBLOCKREPETAG
1070
     1
1071
       26
1005
12C4F9
  0
LINE
  5
12C4FA
  8
OBJECT
 10
128.49999999861191
 20
-1209.99999999739
 30
0.0
 11
128.49999999861191
 21
-1216.99999999739
 31
0.0
1001
ACDBBLOCKREPETAG
1070
     1
1071
       27
1005
12C4FA
  0
LINE
  5
12C4FB
  8
OBJECT
 10
128.49999999861191
 20
-1216.99999999739
 30
0.0
 11
223.49999999861191
 21
-1216.99999999739
 31
0.0
1001
ACDBBLOCKREPETAG
1070
     1
1071
       28
1005
12C4FB
  0
LINE
  5
12C4FC
  8
OBJECT
 10
227.99999999861191
 20
-1220.9999999973891
 30
0.0
 11
223.49999999861191
 21
-1216.99999999739
 31
0.0
1001
ACDBBLOCKREPETAG
1070
     1
1071
       29
1005
12C4FC
  0
LINE
  5
12C4FD
  8
OBJECT
 10
123.9999999986119
 20
-1220.9999999973891
 30
0.0
 11
128.49999999861191
 21
-1216.99999999739
 31
0.0
1001
ACDBBLOCKREPETAG
1070
     1
1071
       30
1005
12C4FD
  0
LINE
  5
12C4FE
  8
OBJECT
 10
237.99999999861191
 20
-1206.9999999973909
 30
0.0
 11
237.99999999861191
 21
-1203.99999999739
 31
0.0
1001
ACDBBLOCKREPETAG
1070
     1
1071
       31
1005
12C4FE
  0
ARC
  5
12C4FF
  8
OBJECT
 10
234.999999998612
 20
-1206.9999999973909
 30
0.0
 40
3.0
 50
270.0
 51
0.0
1001
ACDBBLOCKREPETAG
1070
     1
1071
       32
1005
12C4FF
  0
LINE
  5
12C500
  8
OBJECT
 10
113.9999999986119
 20
-1203.99999999739
 30
0.0
 11
113.9999999986119
 21
-1206.9999999973891
 31
0.0
1001
ACDBBLOCKREPETAG
1070
     1
1071
       33
1005
12C500
  0
ARC
  5
12C501
  8
OBJECT
 10
116.9999999986119
 20
-1206.9999999973891
 30
0.0
 40
3.0
 50
180.0
 51
270.0
1001
ACDBBLOCKREPETAG
1070
     1
1071
       34
1005
12C501
  0
LINE
  5
12C502
  8
OBJECT
 10
116.9999999986119
 20
-1209.9999999973891
 30
0.0
 11
234.999999998612
 21
-1209.99999999739
 31
0.0
1001
ACDBBLOCKREPETAG
1070
     1
1071
       35
1005
12C502
  0
INSERT
  5
12C503
  8
OBJECT
  2
*U56
 10
0.0
 20
0.0
 30
0.0
  0
LINE
  5
12C504
  8
HIDDEN
 10
213.999999998612
 20
-1211.99999999739
 30
0.0
 11
137.99999999861191
 21
-1211.99999999739
 31
0.0
1001
ACDBBLOCKREPETAG
1070
     1
1071
      427
1005
12C504
  0
LINE
  5
12C505
  8
OBJECT
 10
258.99999999861188
 20
-1185.99999999739
 30
0.0
 11
255.999999998612
 21
-1185.99999999739
 31
0.0
1001
ACDBBLOCKREPETAG
1070
     1
1071
      418
1005
12C505
  0
ARC
  5
12C506
  8
OBJECT
 10
258.99999999861188
 20
-1182.99999999739
 30
0.0
 40
3.0
 50
270.0
 51
0.0
1001
ACDBBLOCKREPETAG
1070
     1
1071
      419
1005
12C506
  0
LINE
  5
12C507
  8
OBJECT
 10
255.999999998612
 20
-1061.9999999973891
 30
0.0
 11
258.99999999861188
 21
-1061.9999999973891
 31
0.0
1001
ACDBBLOCKREPETAG
1070
     1
1071
      420
1005
12C507
  0
ARC
  5
12C508
  8
OBJECT
 10
258.99999999861188
 20
-1064.99999999739
 30
0.0
 40
3.0
 50
0.0
 51
90.0
1001
ACDBBLOCKREPETAG
1070
     1
1071
      421
1005
12C508
  0
LINE
  5
12C509
  8
OBJECT
 10
261.999999998612
 20
-1064.99999999739
 30
0.0
 11
261.999999998612
 21
-1182.99999999739
 31
0.0
1001
ACDBBLOCKREPETAG
1070
     1
1071
      422
1005
12C509
  0
INSERT
  5
12C50A
  8
OBJECT
  2
*U57
 10
0.0
 20
0.0
 30
0.0
  0
LINE
  5
12C50B
  8
OBJECT
 10
120.9999999986119
 20
-990.99999999738964
 30
0.0
 11
120.9999999986119
 21
-983.99999999738964
 31
0.0
1001
ACDBBLOCKREPETAG
1070
     1
1071
       20
1005
12C50B
  0
LINE
  5
12C50C
  8
OBJECT
 10
120.9999999986119
 20
-983.99999999738964
 30
0.0
 11
230.999999998612
 21
-983.99999999738964
 31
0.0
1001
ACDBBLOCKREPETAG
1070
     1
1071
       21
1005
12C50C
  0
LINE
  5
12C50D
  8
OBJECT
 10
230.999999998612
 20
-983.99999999738964
 30
0.0
 11
230.999999998612
 21
-990.99999999738964
 31
0.0
1001
ACDBBLOCKREPETAG
1070
     1
1071
       22
1005
12C50D
  0
LINE
  5
12C50E
  8
OBJECT
 10
230.999999998612
 20
-990.99999999738964
 30
0.0
 11
120.9999999986119
 21
-990.99999999738964
 31
0.0
1001
ACDBBLOCKREPETAG
1070
     1
1071
       23
1005
12C50E
  0
LINE
  5
12C50F
  8
OBJECT
 10
123.9999999986119
 20
-990.99999999738964
 30
0.0
 11
123.9999999986119
 21
-1026.99999999739
 31
0.0
1001
ACDBBLOCKREPETAG
1070
     1
1071
       24
1005
12C50F
  0
LINE
  5
12C510
  8
OBJECT
 10
123.9999999986119
 20
-1026.99999999739
 30
0.0
 11
227.99999999861191
 21
-1026.99999999739
 31
0.0
1001
ACDBBLOCKREPETAG
1070
     1
1071
       25
1005
12C510
  0
LINE
  5
12C511
  8
OBJECT
 10
227.99999999861191
 20
-1026.99999999739
 30
0.0
 11
227.99999999861191
 21
-990.99999999738964
 31
0.0
1001
ACDBBLOCKREPETAG
1070
     1
1071
       26
1005
12C511
  0
LINE
  5
12C512
  8
OBJECT
 10
128.49999999861191
 20
-1030.99999999739
 30
0.0
 11
128.49999999861191
 21
-1037.9999999973891
 31
0.0
1001
ACDBBLOCKREPETAG
1070
     1
1071
       27
1005
12C512
  0
LINE
  5
12C513
  8
OBJECT
 10
223.49999999861191
 20
-1037.9999999973891
 30
0.0
 11
223.49999999861191
 21
-1030.99999999739
 31
0.0
1001
ACDBBLOCKREPETAG
1070
     1
1071
       28
1005
12C513
  0
LINE
  5
12C514
  8
OBJECT
 10
223.49999999861191
 20
-1030.99999999739
 30
0.0
 11
128.49999999861191
 21
-1030.99999999739
 31
0.0
1001
ACDBBLOCKREPETAG
1070
     1
1071
       29
1005
12C514
  0
LINE
  5
12C515
  8
OBJECT
 10
123.9999999986119
 20
-1026.99999999739
 30
0.0
 11
128.49999999861191
 21
-1030.99999999739
 31
0.0
1001
ACDBBLOCKREPETAG
1070
     1
1071
       30
1005
12C515
  0
LINE
  5
12C516
  8
OBJECT
 10
227.99999999861191
 20
-1026.99999999739
 30
0.0
 11
223.49999999861191
 21
-1030.99999999739
 31
0.0
1001
ACDBBLOCKREPETAG
1070
     1
1071
       31
1005
12C516
  0
LINE
  5
12C517
  8
OBJECT
 10
113.9999999986119
 20
-1040.9999999973891
 30
0.0
 11
113.9999999986119
 21
-1043.99999999739
 31
0.0
1001
ACDBBLOCKREPETAG
1070
     1
1071
       32
1005
12C517
  0
ARC
  5
12C518
  8
OBJECT
 10
116.9999999986119
 20
-1040.9999999973891
 30
0.0
 40
3.0
 50
90.0
 51
180.0
1001
ACDBBLOCKREPETAG
1070
     1
1071
       33
1005
12C518
  0
LINE
  5
12C519
  8
OBJECT
 10
237.99999999861191
 20
-1043.99999999739
 30
0.0
 11
237.99999999861191
 21
-1040.99999999739
 31
0.0
1001
ACDBBLOCKREPETAG
1070
     1
1071
       34
1005
12C519
  0
ARC
  5
12C51A
  8
OBJECT
 10
234.999999998612
 20
-1040.99999999739
 30
0.0
 40
3.0
 50
0.0
 51
90.0
1001
ACDBBLOCKREPETAG
1070
     1
1071
       35
1005
12C51A
  0
LINE
  5
12C51B
  8
OBJECT
 10
234.999999998612
 20
-1037.99999999739
 30
0.0
 11
116.9999999986119
 21
-1037.9999999973891
 31
0.0
1001
ACDBBLOCKREPETAG
1070
     1
1071
       36
1005
12C51B
  0
LINE
  5
12C51C
  8
HIDDEN
 10
137.99999999861191
 20
-1035.99999999739
 30
0.0
 11
213.999999998612
 21
-1035.99999999739
 31
0.0
1001
ACDBBLOCKREPETAG
1070
     1
1071
      423
1005
12C51C
  0
TEXT
  5
12C51D
  8
SLIM
 10
423.59999999981761
 20
-907.999999999691
 30
0.0
 40
48.0
  1
B104（特）
 41
0.75
1001
ACDBBLOCKREPETAG
1070
     1
1071
      119
1005
12AEEF
  0
LINE
  5
12C51E
  8
OBJECT
 10
610.99999999849024
 20
-809.999999997548
 30
0.0
 11
610.99999999849024
 21
-802.99999999754823
 31
0.0
1001
ACDBBLOCKREPETAG
1070
     1
1071
       57
1005
12C51E
  0
LINE
  5
12C51F
  8
OBJECT
 10
610.99999999849024
 20
-802.99999999754823
 30
0.0
 11
460.99999999849018
 21
-802.99999999754823
 31
0.0
1001
ACDBBLOCKREPETAG
1070
     1
1071
       58
1005
12C51F
  0
LINE
  5
12C520
  8
OBJECT
 10
607.99999999849024
 20
-761.49999999754812
 30
0.0
 11
463.99999999849018
 21
-761.49999999754812
 31
0.0
1001
ACDBBLOCKREPETAG
1070
     1
1071
       59
1005
12C520
  0
LINE
  5
12C521
  8
OBJECT
 10
601.49999999849024
 20
-749.999999997548
 30
0.0
 11
470.49999999849018
 21
-749.999999997548
 31
0.0
1001
ACDBBLOCKREPETAG
1070
     1
1071
       60
1005
12C521
  0
LINE
  5
12C522
  8
OBJECT
 10
460.99999999849018
 20
-802.99999999754823
 30
0.0
 11
460.99999999849018
 21
-809.999999997548
 31
0.0
1001
ACDBBLOCKREPETAG
1070
     1
1071
       61
1005
12C522
  0
LINE
  5
12C523
  8
OBJECT
 10
460.99999999849018
 20
-809.999999997548
 30
0.0
 11
610.99999999849024
 21
-809.999999997548
 31
0.0
1001
ACDBBLOCKREPETAG
1070
     1
1071
       62
1005
12C523
  0
LINE
  5
12C524
  8
OBJECT
 10
473.99999999849018
 20
-745.999999997548
 30
0.0
 11
473.99999999849018
 21
-739.99999999754812
 31
0.0
1001
ACDBBLOCKREPETAG
1070
     1
1071
       63
1005
12C524
  0
LINE
  5
12C525
  8
OBJECT
 10
463.99999999849018
 20
-802.99999999754823
 30
0.0
 11
463.99999999849018
 21
-761.49999999754812
 31
0.0
1001
ACDBBLOCKREPETAG
1070
     1
1071
       64
1005
12C525
  0
LINE
  5
12C526
  8
OBJECT
 10
463.99999999849018
 20
-761.49999999754812
 30
0.0
 11
470.49999999849018
 21
-749.999999997548
 31
0.0
1001
ACDBBLOCKREPETAG
1070
     1
1071
       65
1005
12C526
  0
LINE
  5
12C527
  8
OBJECT
 10
470.49999999849018
 20
-749.999999997548
 30
0.0
 11
473.99999999849018
 21
-745.999999997548
 31
0.0
1001
ACDBBLOCKREPETAG
1070
     1
1071
       66
1005
12C527
  0
LINE
  5
12C528
  8
OBJECT
 10
607.99999999849024
 20
-761.49999999754812
 30
0.0
 11
601.49999999849024
 21
-749.999999997548
 31
0.0
1001
ACDBBLOCKREPETAG
1070
     1
1071
       67
1005
12C528
  0
LINE
  5
12C529
  8
OBJECT
 10
601.49999999849024
 20
-749.999999997548
 30
0.0
 11
597.99999999849024
 21
-745.999999997548
 31
0.0
1001
ACDBBLOCKREPETAG
1070
     1
1071
       68
1005
12C529
  0
ARC
  5
12C52A
  8
OBJECT
 10
535.99999999849024
 20
-1127.899999997549
 30
0.0
 40
386.89999999999998
 50
80.778701362367499
 51
99.221298637632543
1001
ACDBBLOCKREPETAG
1070
     1
1071
       69
1005
12C52A
  0
LINE
  5
12C52B
  8
OBJECT
 10
597.99999999849024
 20
-745.999999997548
 30
0.0
 11
597.99999999849024
 21
-739.99999999754812
 31
0.0
1001
ACDBBLOCKREPETAG
1070
     1
1071
       70
1005
12C52B
  0
LINE
  5
12C52C
  8
OBJECT
 10
607.99999999849024
 20
-802.99999999754823
 30
0.0
 11
607.99999999849024
 21
-761.49999999754812
 31
0.0
1001
ACDBBLOCKREPETAG
1070
     1
1071
       71
1005
12C52C
  0
INSERT
  5
12C52D
  8
OBJECT
  2
*U58
 10
0.0
 20
0.0
 30
0.0
  0
LINE
  5
12C52E
  8
HIDDEN
 10
478.99999999849018
 20
-757.99999999754812
 30
0.0
 11
592.99999999849024
 21
-757.99999999754812
 31
0.0
1001
ACDBBLOCKREPETAG
1070
     1
1071
      437
1005
12C52E
  0
LINE
  5
12C52F
  8
OBJECT
 10
618.99999999849024
 20
-721.99999999754812
 30
0.0
 11
615.99999999849024
 21
-721.99999999754812
 31
0.0
1001
ACDBBLOCKREPETAG
1070
     1
1071
      418
1005
12C52F
  0
ARC
  5
12C530
  8
OBJECT
 10
618.99999999849024
 20
-718.99999999754812
 30
0.0
 40
3.0
 50
270.0
 51
0.0
1001
ACDBBLOCKREPETAG
1070
     1
1071
      419
1005
12C530
  0
LINE
  5
12C531
  8
OBJECT
 10
615.99999999849024
 20
-597.999999997548
 30
0.0
 11
618.99999999849024
 21
-597.999999997548
 31
0.0
1001
ACDBBLOCKREPETAG
1070
     1
1071
      420
1005
12C531
  0
ARC
  5
12C532
  8
OBJECT
 10
618.99999999849024
 20
-600.99999999754777
 30
0.0
 40
3.0
 50
0.0
 51
90.0
1001
ACDBBLOCKREPETAG
1070
     1
1071
      421
1005
12C532
  0
LINE
  5
12C533
  8
OBJECT
 10
621.99999999849024
 20
-600.99999999754777
 30
0.0
 11
621.99999999849024
 21
-718.99999999754812
 31
0.0
1001
ACDBBLOCKREPETAG
1070
     1
1071
      422
1005
12C533
  0
INSERT
  5
12C534
  8
OBJECT
  2
*U59
 10
0.0
 20
0.0
 30
0.0
  0
LINE
  5
12C535
  8
OBJECT
 10
488.99999999849018
 20
-526.999999997548
 30
0.0
 11
488.99999999849018
 21
-519.999999997548
 31
0.0
1001
ACDBBLOCKREPETAG
1070
     1
1071
        1
1005
12C535
  0
LINE
  5
12C536
  8
OBJECT
 10
488.99999999849018
 20
-519.999999997548
 30
0.0
 11
582.99999999849024
 21
-519.999999997548
 31
0.0
1001
ACDBBLOCKREPETAG
1070
     1
1071
        2
1005
12C536
  0
LINE
  5
12C537
  8
OBJECT
 10
582.99999999849024
 20
-519.999999997548
 30
0.0
 11
582.99999999849024
 21
-526.999999997548
 31
0.0
1001
ACDBBLOCKREPETAG
1070
     1
1071
        3
1005
12C537
  0
LINE
  5
12C538
  8
OBJECT
 10
582.99999999849024
 20
-526.999999997548
 30
0.0
 11
488.99999999849018
 21
-526.999999997548
 31
0.0
1001
ACDBBLOCKREPETAG
1070
     1
1071
        4
1005
12C538
  0
LINE
  5
12C539
  8
OBJECT
 10
491.99999999849018
 20
-526.999999997548
 30
0.0
 11
491.99999999849018
 21
-562.99999999754789
 31
0.0
1001
ACDBBLOCKREPETAG
1070
     1
1071
        5
1005
12C539
  0
LINE
  5
12C53A
  8
OBJECT
 10
491.99999999849018
 20
-562.99999999754789
 30
0.0
 11
579.99999999849024
 21
-562.99999999754789
 31
0.0
1001
ACDBBLOCKREPETAG
1070
     1
1071
        6
1005
12C53A
  0
LINE
  5
12C53B
  8
OBJECT
 10
579.99999999849024
 20
-562.99999999754789
 30
0.0
 11
579.99999999849024
 21
-526.999999997548
 31
0.0
1001
ACDBBLOCKREPETAG
1070
     1
1071
        7
1005
12C53B
  0
LINE
  5
12C53C
  8
OBJECT
 10
496.49999999849018
 20
-566.99999999754789
 30
0.0
 11
496.49999999849018
 21
-573.999999997548
 31
0.0
1001
ACDBBLOCKREPETAG
1070
     1
1071
        8
1005
12C53C
  0
LINE
  5
12C53D
  8
OBJECT
 10
575.49999999849024
 20
-573.999999997548
 30
0.0
 11
575.49999999849024
 21
-566.99999999754789
 31
0.0
1001
ACDBBLOCKREPETAG
1070
     1
1071
        9
1005
12C53D
  0
LINE
  5
12C53E
  8
OBJECT
 10
575.49999999849024
 20
-566.99999999754789
 30
0.0
 11
496.49999999849018
 21
-566.99999999754789
 31
0.0
1001
ACDBBLOCKREPETAG
1070
     1
1071
       10
1005
12C53E
  0
LINE
  5
12C53F
  8
OBJECT
 10
491.99999999849018
 20
-562.99999999754789
 30
0.0
 11
496.49999999849018
 21
-566.99999999754789
 31
0.0
1001
ACDBBLOCKREPETAG
1070
     1
1071
       11
1005
12C53F
  0
LINE
  5
12C540
  8
OBJECT
 10
579.99999999849024
 20
-562.99999999754789
 30
0.0
 11
575.49999999849024
 21
-566.99999999754789
 31
0.0
1001
ACDBBLOCKREPETAG
1070
     1
1071
       12
1005
12C540
  0
LINE
  5
12C541
  8
OBJECT
 10
473.99999999849018
 20
-576.99999999754687
 30
0.0
 11
473.99999999849018
 21
-579.99999999754777
 31
0.0
1001
ACDBBLOCKREPETAG
1070
     1
1071
       13
1005
12C541
  0
ARC
  5
12C542
  8
OBJECT
 10
476.99999999849018
 20
-576.99999999754687
 30
0.0
 40
3.0
 50
90.0
 51
180.0
1001
ACDBBLOCKREPETAG
1070
     1
1071
       14
1005
12C542
  0
LINE
  5
12C543
  8
OBJECT
 10
597.99999999849024
 20
-579.99999999754777
 30
0.0
 11
597.99999999849024
 21
-576.99999999754891
 31
0.0
1001
ACDBBLOCKREPETAG
1070
     1
1071
       15
1005
12C543
  0
ARC
  5
12C544
  8
OBJECT
 10
594.99999999849024
 20
-576.99999999754891
 30
0.0
 40
3.0
 50
0.0
 51
90.0
1001
ACDBBLOCKREPETAG
1070
     1
1071
       16
1005
12C544
  0
LINE
  5
12C545
  8
OBJECT
 10
594.99999999849024
 20
-573.99999999754891
 30
0.0
 11
476.99999999849018
 21
-573.99999999754721
 31
0.0
1001
ACDBBLOCKREPETAG
1070
     1
1071
       17
1005
12C545
  0
LINE
  5
12C546
  8
HIDDEN
 10
505.99999999849018
 20
-571.99999999754777
 30
0.0
 11
565.99999999849024
 21
-571.99999999754777
 31
0.0
1001
ACDBBLOCKREPETAG
1070
     1
1071
      420
1005
12C546
  0
TEXT
  5
12C547
  8
SLIM
 10
63.599999999939421
 20
-907.999999999691
 30
0.0
 40
48.0
  1
B103（特）
 41
0.75
1001
ACDBBLOCKREPETAG
1070
     1
1071
      119
1005
12AEEF
  0
LINE
  5
12C548
  8
OBJECT
 10
237.99999999861211
 20
-792.99999999754812
 30
0.0
 11
237.99999999861211
 21
-799.999999997548
 31
0.0
1001
ACDBBLOCKREPETAG
1070
     1
1071
       38
1005
12C548
  0
LINE
  5
12C549
  8
OBJECT
 10
237.99999999861211
 20
-799.999999997548
 30
0.0
 11
113.999999998612
 21
-799.999999997548
 31
0.0
1001
ACDBBLOCKREPETAG
1070
     1
1071
       39
1005
12C549
  0
LINE
  5
12C54A
  8
OBJECT
 10
113.999999998612
 20
-799.999999997548
 30
0.0
 11
113.999999998612
 21
-792.99999999754812
 31
0.0
1001
ACDBBLOCKREPETAG
1070
     1
1071
       40
1005
12C54A
  0
LINE
  5
12C54B
  8
OBJECT
 10
113.999999998612
 20
-792.99999999754812
 30
0.0
 11
237.99999999861211
 21
-792.99999999754812
 31
0.0
1001
ACDBBLOCKREPETAG
1070
     1
1071
       41
1005
12C54B
  0
LINE
  5
12C54C
  8
OBJECT
 10
234.999999998612
 20
-792.99999999754812
 30
0.0
 11
234.999999998612
 21
-756.99999999754812
 31
0.0
1001
ACDBBLOCKREPETAG
1070
     1
1071
       42
1005
12C54C
  0
LINE
  5
12C54D
  8
OBJECT
 10
234.999999998612
 20
-756.99999999754812
 30
0.0
 11
116.999999998612
 21
-756.99999999754812
 31
0.0
1001
ACDBBLOCKREPETAG
1070
     1
1071
       43
1005
12C54D
  0
LINE
  5
12C54E
  8
OBJECT
 10
116.999999998612
 20
-756.99999999754812
 30
0.0
 11
116.999999998612
 21
-792.99999999754812
 31
0.0
1001
ACDBBLOCKREPETAG
1070
     1
1071
       44
1005
12C54E
  0
LINE
  5
12C54F
  8
OBJECT
 10
230.49999999861211
 20
-752.99999999754812
 30
0.0
 11
230.49999999861211
 21
-745.999999997548
 31
0.0
1001
ACDBBLOCKREPETAG
1070
     1
1071
       45
1005
12C54F
  0
LINE
  5
12C550
  8
OBJECT
 10
121.499999998612
 20
-745.999999997548
 30
0.0
 11
121.499999998612
 21
-752.99999999754812
 31
0.0
1001
ACDBBLOCKREPETAG
1070
     1
1071
       46
1005
12C550
  0
LINE
  5
12C551
  8
OBJECT
 10
121.499999998612
 20
-752.99999999754812
 30
0.0
 11
230.49999999861211
 21
-752.99999999754812
 31
0.0
1001
ACDBBLOCKREPETAG
1070
     1
1071
       47
1005
12C551
  0
LINE
  5
12C552
  8
OBJECT
 10
234.999999998612
 20
-756.99999999754812
 30
0.0
 11
230.49999999861211
 21
-752.99999999754812
 31
0.0
1001
ACDBBLOCKREPETAG
1070
     1
1071
       48
1005
12C552
  0
LINE
  5
12C553
  8
OBJECT
 10
116.999999998612
 20
-756.99999999754812
 30
0.0
 11
121.499999998612
 21
-752.99999999754812
 31
0.0
1001
ACDBBLOCKREPETAG
1070
     1
1071
       49
1005
12C553
  0
LINE
  5
12C554
  8
OBJECT
 10
237.99999999861211
 20
-742.99999999754903
 30
0.0
 11
237.99999999861211
 21
-739.99999999754812
 31
0.0
1001
ACDBBLOCKREPETAG
1070
     1
1071
       50
1005
12C554
  0
ARC
  5
12C555
  8
OBJECT
 10
234.999999998612
 20
-742.99999999754903
 30
0.0
 40
3.0
 50
270.0
 51
0.0
1001
ACDBBLOCKREPETAG
1070
     1
1071
       51
1005
12C555
  0
LINE
  5
12C556
  8
OBJECT
 10
113.999999998612
 20
-739.99999999754812
 30
0.0
 11
113.999999998612
 21
-742.99999999754687
 31
0.0
1001
ACDBBLOCKREPETAG
1070
     1
1071
       52
1005
12C556
  0
ARC
  5
12C557
  8
OBJECT
 10
116.999999998612
 20
-742.99999999754687
 30
0.0
 40
3.0
 50
180.0
 51
270.0
1001
ACDBBLOCKREPETAG
1070
     1
1071
       53
1005
12C557
  0
LINE
  5
12C558
  8
OBJECT
 10
116.999999998612
 20
-745.99999999754721
 30
0.0
 11
234.999999998612
 21
-745.99999999754868
 31
0.0
1001
ACDBBLOCKREPETAG
1070
     1
1071
       54
1005
12C558
  0
INSERT
  5
12C559
  8
OBJECT
  2
*U60
 10
0.0
 20
0.0
 30
0.0
  0
LINE
  5
12C55A
  8
HIDDEN
 10
220.499999998612
 20
-747.99999999754812
 30
0.0
 11
131.499999998612
 21
-747.99999999754812
 31
0.0
1001
ACDBBLOCKREPETAG
1070
     1
1071
      430
1005
12C55A
  0
LINE
  5
12C55B
  8
OBJECT
 10
258.99999999861211
 20
-721.99999999754812
 30
0.0
 11
255.999999998612
 21
-721.99999999754812
 31
0.0
1001
ACDBBLOCKREPETAG
1070
     1
1071
      418
1005
12C55B
  0
ARC
  5
12C55C
  8
OBJECT
 10
258.99999999861211
 20
-718.99999999754812
 30
0.0
 40
3.0
 50
270.0
 51
0.0
1001
ACDBBLOCKREPETAG
1070
     1
1071
      419
1005
12C55C
  0
LINE
  5
12C55D
  8
OBJECT
 10
255.999999998612
 20
-597.999999997548
 30
0.0
 11
258.99999999861211
 21
-597.999999997548
 31
0.0
1001
ACDBBLOCKREPETAG
1070
     1
1071
      420
1005
12C55D
  0
ARC
  5
12C55E
  8
OBJECT
 10
258.99999999861211
 20
-600.99999999754777
 30
0.0
 40
3.0
 50
0.0
 51
90.0
1001
ACDBBLOCKREPETAG
1070
     1
1071
      421
1005
12C55E
  0
LINE
  5
12C55F
  8
OBJECT
 10
261.999999998612
 20
-600.99999999754777
 30
0.0
 11
261.999999998612
 21
-718.99999999754812
 31
0.0
1001
ACDBBLOCKREPETAG
1070
     1
1071
      422
1005
12C55F
  0
INSERT
  5
12C560
  8
OBJECT
  2
*U61
 10
0.0
 20
0.0
 30
0.0
  0
LINE
  5
12C561
  8
OBJECT
 10
128.999999998612
 20
-526.999999997548
 30
0.0
 11
128.999999998612
 21
-519.999999997548
 31
0.0
1001
ACDBBLOCKREPETAG
1070
     1
1071
        1
1005
12C561
  0
LINE
  5
12C562
  8
OBJECT
 10
128.999999998612
 20
-519.999999997548
 30
0.0
 11
222.999999998612
 21
-519.999999997548
 31
0.0
1001
ACDBBLOCKREPETAG
1070
     1
1071
        2
1005
12C562
  0
LINE
  5
12C563
  8
OBJECT
 10
222.999999998612
 20
-519.999999997548
 30
0.0
 11
222.999999998612
 21
-526.999999997548
 31
0.0
1001
ACDBBLOCKREPETAG
1070
     1
1071
        3
1005
12C563
  0
LINE
  5
12C564
  8
OBJECT
 10
222.999999998612
 20
-526.999999997548
 30
0.0
 11
128.999999998612
 21
-526.999999997548
 31
0.0
1001
ACDBBLOCKREPETAG
1070
     1
1071
        4
1005
12C564
  0
LINE
  5
12C565
  8
OBJECT
 10
131.999999998612
 20
-526.999999997548
 30
0.0
 11
131.999999998612
 21
-562.99999999754789
 31
0.0
1001
ACDBBLOCKREPETAG
1070
     1
1071
        5
1005
12C565
  0
LINE
  5
12C566
  8
OBJECT
 10
131.999999998612
 20
-562.99999999754789
 30
0.0
 11
219.99999999861211
 21
-562.99999999754789
 31
0.0
1001
ACDBBLOCKREPETAG
1070
     1
1071
        6
1005
12C566
  0
LINE
  5
12C567
  8
OBJECT
 10
219.99999999861211
 20
-562.99999999754789
 30
0.0
 11
219.99999999861211
 21
-526.999999997548
 31
0.0
1001
ACDBBLOCKREPETAG
1070
     1
1071
        7
1005
12C567
  0
LINE
  5
12C568
  8
OBJECT
 10
136.499999998612
 20
-566.99999999754789
 30
0.0
 11
136.499999998612
 21
-573.999999997548
 31
0.0
1001
ACDBBLOCKREPETAG
1070
     1
1071
        8
1005
12C568
  0
LINE
  5
12C569
  8
OBJECT
 10
215.49999999861211
 20
-573.999999997548
 30
0.0
 11
215.49999999861211
 21
-566.99999999754789
 31
0.0
1001
ACDBBLOCKREPETAG
1070
     1
1071
        9
1005
12C569
  0
LINE
  5
12C56A
  8
OBJECT
 10
215.49999999861211
 20
-566.99999999754789
 30
0.0
 11
136.499999998612
 21
-566.99999999754789
 31
0.0
1001
ACDBBLOCKREPETAG
1070
     1
1071
       10
1005
12C56A
  0
LINE
  5
12C56B
  8
OBJECT
 10
131.999999998612
 20
-562.99999999754789
 30
0.0
 11
136.499999998612
 21
-566.99999999754789
 31
0.0
1001
ACDBBLOCKREPETAG
1070
     1
1071
       11
1005
12C56B
  0
LINE
  5
12C56C
  8
OBJECT
 10
219.99999999861211
 20
-562.99999999754789
 30
0.0
 11
215.49999999861211
 21
-566.99999999754789
 31
0.0
1001
ACDBBLOCKREPETAG
1070
     1
1071
       12
1005
12C56C
  0
LINE
  5
12C56D
  8
OBJECT
 10
113.999999998612
 20
-576.99999999754687
 30
0.0
 11
113.999999998612
 21
-579.99999999754777
 31
0.0
1001
ACDBBLOCKREPETAG
1070
     1
1071
       13
1005
12C56D
  0
ARC
  5
12C56E
  8
OBJECT
 10
116.999999998612
 20
-576.99999999754687
 30
0.0
 40
3.0
 50
90.0
 51
180.0
1001
ACDBBLOCKREPETAG
1070
     1
1071
       14
1005
12C56E
  0
LINE
  5
12C56F
  8
OBJECT
 10
237.99999999861211
 20
-579.99999999754777
 30
0.0
 11
237.99999999861211
 21
-576.99999999754891
 31
0.0
1001
ACDBBLOCKREPETAG
1070
     1
1071
       15
1005
12C56F
  0
ARC
  5
12C570
  8
OBJECT
 10
234.999999998612
 20
-576.99999999754891
 30
0.0
 40
3.0
 50
0.0
 51
90.0
1001
ACDBBLOCKREPETAG
1070
     1
1071
       16
1005
12C570
  0
LINE
  5
12C571
  8
OBJECT
 10
234.999999998612
 20
-573.99999999754891
 30
0.0
 11
116.999999998612
 21
-573.99999999754721
 31
0.0
1001
ACDBBLOCKREPETAG
1070
     1
1071
       17
1005
12C571
  0
LINE
  5
12C572
  8
HIDDEN
 10
145.999999998612
 20
-571.99999999754777
 30
0.0
 11
205.999999998612
 21
-571.99999999754777
 31
0.0
1001
ACDBBLOCKREPETAG
1070
     1
1071
      420
1005
12C572
  0
TEXT
  5
12C573
  8
SLIM
 10
479.14285714267481
 20
-443.99999999984919
 30
0.0
 40
48.0
  1
B102
 41
0.75
1001
ACDBBLOCKREPETAG
1070
     1
1071
      119
1005
12AEEF
  0
LINE
  5
12C574
  8
OBJECT
 10
590.99999999849024
 20
-328.99999999770631
 30
0.0
 11
590.99999999849024
 21
-335.99999999770631
 31
0.0
1001
ACDBBLOCKREPETAG
1070
     1
1071
       19
1005
12C574
  0
LINE
  5
12C575
  8
OBJECT
 10
590.99999999849024
 20
-335.99999999770631
 30
0.0
 11
480.99999999849018
 21
-335.99999999770631
 31
0.0
1001
ACDBBLOCKREPETAG
1070
     1
1071
       20
1005
12C575
  0
LINE
  5
12C576
  8
OBJECT
 10
480.99999999849018
 20
-335.99999999770631
 30
0.0
 11
480.99999999849018
 21
-328.99999999770631
 31
0.0
1001
ACDBBLOCKREPETAG
1070
     1
1071
       21
1005
12C576
  0
LINE
  5
12C577
  8
OBJECT
 10
480.99999999849018
 20
-328.99999999770631
 30
0.0
 11
590.99999999849024
 21
-328.99999999770631
 31
0.0
1001
ACDBBLOCKREPETAG
1070
     1
1071
       22
1005
12C577
  0
LINE
  5
12C578
  8
OBJECT
 10
587.99999999849024
 20
-328.99999999770631
 30
0.0
 11
587.99999999849024
 21
-292.99999999770631
 31
0.0
1001
ACDBBLOCKREPETAG
1070
     1
1071
       23
1005
12C578
  0
LINE
  5
12C579
  8
OBJECT
 10
587.99999999849024
 20
-292.99999999770631
 30
0.0
 11
483.99999999849018
 21
-292.99999999770631
 31
0.0
1001
ACDBBLOCKREPETAG
1070
     1
1071
       24
1005
12C579
  0
LINE
  5
12C57A
  8
OBJECT
 10
483.99999999849018
 20
-292.99999999770631
 30
0.0
 11
483.99999999849018
 21
-328.99999999770631
 31
0.0
1001
ACDBBLOCKREPETAG
1070
     1
1071
       25
1005
12C57A
  0
LINE
  5
12C57B
  8
OBJECT
 10
583.49999999849024
 20
-288.9999999977062
 30
0.0
 11
583.49999999849024
 21
-281.99999999770631
 31
0.0
1001
ACDBBLOCKREPETAG
1070
     1
1071
       26
1005
12C57B
  0
LINE
  5
12C57C
  8
OBJECT
 10
488.49999999849018
 20
-281.99999999770631
 30
0.0
 11
488.49999999849018
 21
-288.9999999977062
 31
0.0
1001
ACDBBLOCKREPETAG
1070
     1
1071
       27
1005
12C57C
  0
LINE
  5
12C57D
  8
OBJECT
 10
488.49999999849018
 20
-288.9999999977062
 30
0.0
 11
583.49999999849024
 21
-288.9999999977062
 31
0.0
1001
ACDBBLOCKREPETAG
1070
     1
1071
       28
1005
12C57D
  0
LINE
  5
12C57E
  8
OBJECT
 10
587.99999999849024
 20
-292.99999999770631
 30
0.0
 11
583.49999999849024
 21
-288.9999999977062
 31
0.0
1001
ACDBBLOCKREPETAG
1070
     1
1071
       29
1005
12C57E
  0
LINE
  5
12C57F
  8
OBJECT
 10
483.99999999849018
 20
-292.99999999770631
 30
0.0
 11
488.49999999849018
 21
-288.9999999977062
 31
0.0
1001
ACDBBLOCKREPETAG
1070
     1
1071
       30
1005
12C57F
  0
LINE
  5
12C580
  8
OBJECT
 10
597.99999999849024
 20
-278.99999999770722
 30
0.0
 11
597.99999999849024
 21
-275.99999999770631
 31
0.0
1001
ACDBBLOCKREPETAG
1070
     1
1071
       31
1005
12C580
  0
ARC
  5
12C581
  8
OBJECT
 10
594.99999999849024
 20
-278.99999999770722
 30
0.0
 40
3.0
 50
270.0
 51
0.0
1001
ACDBBLOCKREPETAG
1070
     1
1071
       32
1005
12C581
  0
LINE
  5
12C582
  8
OBJECT
 10
473.99999999849018
 20
-275.99999999770631
 30
0.0
 11
473.99999999849018
 21
-278.99999999770529
 31
0.0
1001
ACDBBLOCKREPETAG
1070
     1
1071
       33
1005
12C582
  0
ARC
  5
12C583
  8
OBJECT
 10
476.99999999849018
 20
-278.99999999770529
 30
0.0
 40
3.0
 50
180.0
 51
270.0
1001
ACDBBLOCKREPETAG
1070
     1
1071
       34
1005
12C583
  0
LINE
  5
12C584
  8
OBJECT
 10
476.99999999849018
 20
-281.99999999770529
 30
0.0
 11
594.99999999849024
 21
-281.99999999770711
 31
0.0
1001
ACDBBLOCKREPETAG
1070
     1
1071
       35
1005
12C584
  0
INSERT
  5
12C585
  8
OBJECT
  2
*U62
 10
0.0
 20
0.0
 30
0.0
  0
LINE
  5
12C586
  8
HIDDEN
 10
573.99999999849024
 20
-283.99999999770631
 30
0.0
 11
497.99999999849018
 21
-283.99999999770631
 31
0.0
1001
ACDBBLOCKREPETAG
1070
     1
1071
      427
1005
12C586
  0
LINE
  5
12C587
  8
OBJECT
 10
618.99999999849024
 20
-257.9999999977062
 30
0.0
 11
615.99999999849024
 21
-257.9999999977062
 31
0.0
1001
ACDBBLOCKREPETAG
1070
     1
1071
      418
1005
12C587
  0
ARC
  5
12C588
  8
OBJECT
 10
618.99999999849024
 20
-254.99999999770631
 30
0.0
 40
3.0
 50
270.0
 51
0.0
1001
ACDBBLOCKREPETAG
1070
     1
1071
      419
1005
12C588
  0
LINE
  5
12C589
  8
OBJECT
 10
615.99999999849024
 20
-133.9999999977062
 30
0.0
 11
618.99999999849024
 21
-133.9999999977062
 31
0.0
1001
ACDBBLOCKREPETAG
1070
     1
1071
      420
1005
12C589
  0
ARC
  5
12C58A
  8
OBJECT
 10
618.99999999849024
 20
-136.9999999977062
 30
0.0
 40
3.0
 50
0.0
 51
90.0
1001
ACDBBLOCKREPETAG
1070
     1
1071
      421
1005
12C58A
  0
LINE
  5
12C58B
  8
OBJECT
 10
621.99999999849024
 20
-136.9999999977062
 30
0.0
 11
621.99999999849024
 21
-254.99999999770631
 31
0.0
1001
ACDBBLOCKREPETAG
1070
     1
1071
      422
1005
12C58B
  0
INSERT
  5
12C58C
  8
OBJECT
  2
*U63
 10
0.0
 20
0.0
 30
0.0
  0
LINE
  5
12C58D
  8
OBJECT
 10
488.99999999849018
 20
-62.999999997706247
 30
0.0
 11
488.99999999849018
 21
-55.999999997706247
 31
0.0
1001
ACDBBLOCKREPETAG
1070
     1
1071
        1
1005
12C58D
  0
LINE
  5
12C58E
  8
OBJECT
 10
488.99999999849018
 20
-55.999999997706247
 30
0.0
 11
582.99999999849024
 21
-55.999999997706247
 31
0.0
1001
ACDBBLOCKREPETAG
1070
     1
1071
        2
1005
12C58E
  0
LINE
  5
12C58F
  8
OBJECT
 10
582.99999999849024
 20
-55.999999997706247
 30
0.0
 11
582.99999999849024
 21
-62.999999997706247
 31
0.0
1001
ACDBBLOCKREPETAG
1070
     1
1071
        3
1005
12C58F
  0
LINE
  5
12C590
  8
OBJECT
 10
582.99999999849024
 20
-62.999999997706247
 30
0.0
 11
488.99999999849018
 21
-62.999999997706247
 31
0.0
1001
ACDBBLOCKREPETAG
1070
     1
1071
        4
1005
12C590
  0
LINE
  5
12C591
  8
OBJECT
 10
491.99999999849018
 20
-62.999999997706247
 30
0.0
 11
491.99999999849018
 21
-98.99999999770624
 31
0.0
1001
ACDBBLOCKREPETAG
1070
     1
1071
        5
1005
12C591
  0
LINE
  5
12C592
  8
OBJECT
 10
491.99999999849018
 20
-98.99999999770624
 30
0.0
 11
579.99999999849024
 21
-98.99999999770624
 31
0.0
1001
ACDBBLOCKREPETAG
1070
     1
1071
        6
1005
12C592
  0
LINE
  5
12C593
  8
OBJECT
 10
579.99999999849024
 20
-98.99999999770624
 30
0.0
 11
579.99999999849024
 21
-62.999999997706247
 31
0.0
1001
ACDBBLOCKREPETAG
1070
     1
1071
        7
1005
12C593
  0
LINE
  5
12C594
  8
OBJECT
 10
496.49999999849018
 20
-102.9999999977062
 30
0.0
 11
496.49999999849018
 21
-109.9999999977062
 31
0.0
1001
ACDBBLOCKREPETAG
1070
     1
1071
        8
1005
12C594
  0
LINE
  5
12C595
  8
OBJECT
 10
575.49999999849024
 20
-109.9999999977062
 30
0.0
 11
575.49999999849024
 21
-102.9999999977062
 31
0.0
1001
ACDBBLOCKREPETAG
1070
     1
1071
        9
1005
12C595
  0
LINE
  5
12C596
  8
OBJECT
 10
575.49999999849024
 20
-102.9999999977062
 30
0.0
 11
496.49999999849018
 21
-102.9999999977062
 31
0.0
1001
ACDBBLOCKREPETAG
1070
     1
1071
       10
1005
12C596
  0
LINE
  5
12C597
  8
OBJECT
 10
491.99999999849018
 20
-98.99999999770624
 30
0.0
 11
496.49999999849018
 21
-102.9999999977062
 31
0.0
1001
ACDBBLOCKREPETAG
1070
     1
1071
       11
1005
12C597
  0
LINE
  5
12C598
  8
OBJECT
 10
579.99999999849024
 20
-98.99999999770624
 30
0.0
 11
575.49999999849024
 21
-102.9999999977062
 31
0.0
1001
ACDBBLOCKREPETAG
1070
     1
1071
       12
1005
12C598
  0
LINE
  5
12C599
  8
OBJECT
 10
473.99999999849018
 20
-112.9999999977053
 30
0.0
 11
473.99999999849018
 21
-115.9999999977062
 31
0.0
1001
ACDBBLOCKREPETAG
1070
     1
1071
       13
1005
12C599
  0
ARC
  5
12C59A
  8
OBJECT
 10
476.99999999849018
 20
-112.9999999977053
 30
0.0
 40
3.0
 50
90.0
 51
180.0
1001
ACDBBLOCKREPETAG
1070
     1
1071
       14
1005
12C59A
  0
LINE
  5
12C59B
  8
OBJECT
 10
597.99999999849024
 20
-115.9999999977062
 30
0.0
 11
597.99999999849024
 21
-112.99999999770711
 31
0.0
1001
ACDBBLOCKREPETAG
1070
     1
1071
       15
1005
12C59B
  0
ARC
  5
12C59C
  8
OBJECT
 10
594.99999999849024
 20
-112.99999999770711
 30
0.0
 40
3.0
 50
0.0
 51
90.0
1001
ACDBBLOCKREPETAG
1070
     1
1071
       16
1005
12C59C
  0
LINE
  5
12C59D
  8
OBJECT
 10
594.99999999849024
 20
-109.99999999770711
 30
0.0
 11
476.99999999849018
 21
-109.9999999977053
 31
0.0
1001
ACDBBLOCKREPETAG
1070
     1
1071
       17
1005
12C59D
  0
LINE
  5
12C59E
  8
HIDDEN
 10
505.99999999849018
 20
-107.9999999977062
 30
0.0
 11
565.99999999849024
 21
-107.9999999977062
 31
0.0
1001
ACDBBLOCKREPETAG
1070
     1
1071
      420
1005
12C59E
  0
LINE
  5
12C59F
  8
OBJECT
 10
1867.0
 20
-261.99999999999909
 30
0.0
 11
1860.0
 21
-261.99999999999909
 31
0.0
1001
ACDBBLOCKREPETAG
1070
     1
1071
       47
1005
12C59F
  0
LINE
  5
12C5A0
  8
OBJECT
 10
1860.0
 20
-261.99999999999909
 30
0.0
 11
1860.0
 21
-137.99999999999909
 31
0.0
1001
ACDBBLOCKREPETAG
1070
     1
1071
       48
1005
12C5A0
  0
LINE
  5
12C5A1
  8
OBJECT
 10
1860.0
 20
-137.99999999999909
 30
0.0
 11
1867.0
 21
-137.99999999999909
 31
0.0
1001
ACDBBLOCKREPETAG
1070
     1
1071
       49
1005
12C5A1
  0
LINE
  5
12C5A2
  8
OBJECT
 10
1867.0
 20
-137.99999999999909
 30
0.0
 11
1867.0
 21
-261.99999999999909
 31
0.0
1001
ACDBBLOCKREPETAG
1070
     1
1071
       50
1005
12C5A2
  0
LINE
  5
12C5A3
  8
CENTER
 10
1845.0
 20
-199.99999999999909
 30
0.0
 11
1920.0
 21
-199.99999999999909
 31
0.0
1001
ACDBBLOCKREPETAG
1070
     1
1071
       51
1005
12C5A3
  0
LINE
  5
12C5A4
  8
OBJECT
 10
1867.0
 20
-258.99999999999909
 30
0.0
 11
1903.0
 21
-258.99999999999909
 31
0.0
1001
ACDBBLOCKREPETAG
1070
     1
1071
       52
1005
12C5A4
  0
LINE
  5
12C5A5
  8
OBJECT
 10
1903.0
 20
-258.99999999999909
 30
0.0
 11
1903.0
 21
-140.99999999999909
 31
0.0
1001
ACDBBLOCKREPETAG
1070
     1
1071
       53
1005
12C5A5
  0
LINE
  5
12C5A6
  8
OBJECT
 10
1903.0
 20
-140.99999999999909
 30
0.0
 11
1867.0
 21
-140.99999999999909
 31
0.0
1001
ACDBBLOCKREPETAG
1070
     1
1071
       54
1005
12C5A6
  0
LINE
  5
12C5A7
  8
OBJECT
 10
1907.0
 20
-254.49999999999909
 30
0.0
 11
1914.0
 21
-254.49999999999909
 31
0.0
1001
ACDBBLOCKREPETAG
1070
     1
1071
       55
1005
12C5A7
  0
LINE
  5
12C5A8
  8
OBJECT
 10
1914.0
 20
-145.49999999999909
 30
0.0
 11
1907.0
 21
-145.49999999999909
 31
0.0
1001
ACDBBLOCKREPETAG
1070
     1
1071
       56
1005
12C5A8
  0
LINE
  5
12C5A9
  8
OBJECT
 10
1907.0
 20
-145.49999999999909
 30
0.0
 11
1907.0
 21
-254.49999999999909
 31
0.0
1001
ACDBBLOCKREPETAG
1070
     1
1071
       57
1005
12C5A9
  0
LINE
  5
12C5AA
  8
OBJECT
 10
1903.0
 20
-258.99999999999909
 30
0.0
 11
1907.0
 21
-254.49999999999909
 31
0.0
1001
ACDBBLOCKREPETAG
1070
     1
1071
       58
1005
12C5AA
  0
LINE
  5
12C5AB
  8
OBJECT
 10
1903.0
 20
-140.99999999999909
 30
0.0
 11
1907.0
 21
-145.49999999999909
 31
0.0
1001
ACDBBLOCKREPETAG
1070
     1
1071
       59
1005
12C5AB
  0
LINE
  5
12C5AC
  8
OBJECT
 10
1917.0
 20
-261.99999999999909
 30
0.0
 11
1920.0
 21
-261.99999999999909
 31
0.0
1001
ACDBBLOCKREPETAG
1070
     1
1071
       60
1005
12C5AC
  0
ARC
  5
12C5AD
  8
OBJECT
 10
1917.0
 20
-258.99999999999909
 30
0.0
 40
3.0
 50
180.0
 51
270.0
1001
ACDBBLOCKREPETAG
1070
     1
1071
       61
1005
12C5AD
  0
LINE
  5
12C5AE
  8
OBJECT
 10
1920.0
 20
-137.99999999999909
 30
0.0
 11
1917.0
 21
-137.99999999999909
 31
0.0
1001
ACDBBLOCKREPETAG
1070
     1
1071
       62
1005
12C5AE
  0
ARC
  5
12C5AF
  8
OBJECT
 10
1917.0
 20
-140.99999999999909
 30
0.0
 40
3.0
 50
90.0
 51
180.0
1001
ACDBBLOCKREPETAG
1070
     1
1071
       63
1005
12C5AF
  0
LINE
  5
12C5B0
  8
OBJECT
 10
1914.0
 20
-140.99999999999909
 30
0.0
 11
1914.0
 21
-258.99999999999909
 31
0.0
1001
ACDBBLOCKREPETAG
1070
     1
1071
       64
1005
12C5B0
  0
LINE
  5
12C5B1
  8
HIDDEN
 10
1912.0
 20
-244.49999999999909
 30
0.0
 11
1912.0
 21
-155.49999999999909
 31
0.0
1001
ACDBBLOCKREPETAG
1070
     1
1071
       65
1005
12C5B1
  0
LINE
  5
12C5B2
  8
CENTER
 10
2000.0
 20
-300.99999999999898
 30
0.0
 11
2000.0
 21
-279.99999999999909
 31
0.0
1001
ACDBBLOCKREPETAG
1070
     1
1071
        0
1005
12C5B2
  0
LINE
  5
12C5B3
  8
OBJECT
 10
2062.0
 20
-283.0
 30
0.0
 11
2062.0
 21
-279.99999999999909
 31
0.0
1001
ACDBBLOCKREPETAG
1070
     1
1071
        1
1005
12C5B3
  0
ARC
  5
12C5B4
  8
OBJECT
 10
2059.0
 20
-283.0
 30
0.0
 40
3.0
 50
270.0
 51
0.0
1001
ACDBBLOCKREPETAG
1070
     1
1071
        2
1005
12C5B4
  0
LINE
  5
12C5B5
  8
OBJECT
 10
1938.0
 20
-279.99999999999909
 30
0.0
 11
1938.0
 21
-282.99999999999818
 31
0.0
1001
ACDBBLOCKREPETAG
1070
     1
1071
        3
1005
12C5B5
  0
ARC
  5
12C5B6
  8
OBJECT
 10
1941.0
 20
-282.99999999999818
 30
0.0
 40
3.0
 50
180.0
 51
270.0
1001
ACDBBLOCKREPETAG
1070
     1
1071
        4
1005
12C5B6
  0
LINE
  5
12C5B7
  8
OBJECT
 10
1941.0
 20
-285.99999999999818
 30
0.0
 11
2059.0
 21
-286.0
 31
0.0
1001
ACDBBLOCKREPETAG
1070
     1
1071
        5
1005
12C5B7
  0
LINE
  5
12C5B8
  8
OBJECT
 10
2133.0
 20
-137.99999999999909
 30
0.0
 11
2140.0
 21
-137.99999999999909
 31
0.0
1001
ACDBBLOCKREPETAG
1070
     1
1071
       47
1005
12C5B8
  0
LINE
  5
12C5B9
  8
OBJECT
 10
2140.0
 20
-137.99999999999909
 30
0.0
 11
2140.0
 21
-261.99999999999909
 31
0.0
1001
ACDBBLOCKREPETAG
1070
     1
1071
       48
1005
12C5B9
  0
LINE
  5
12C5BA
  8
OBJECT
 10
2140.0
 20
-261.99999999999909
 30
0.0
 11
2133.0
 21
-261.99999999999909
 31
0.0
1001
ACDBBLOCKREPETAG
1070
     1
1071
       49
1005
12C5BA
  0
LINE
  5
12C5BB
  8
OBJECT
 10
2133.0
 20
-261.99999999999909
 30
0.0
 11
2133.0
 21
-137.99999999999909
 31
0.0
1001
ACDBBLOCKREPETAG
1070
     1
1071
       50
1005
12C5BB
  0
LINE
  5
12C5BC
  8
CENTER
 10
2155.0
 20
-199.99999999999909
 30
0.0
 11
2080.0
 21
-199.99999999999909
 31
0.0
1001
ACDBBLOCKREPETAG
1070
     1
1071
       51
1005
12C5BC
  0
LINE
  5
12C5BD
  8
OBJECT
 10
2133.0
 20
-140.99999999999909
 30
0.0
 11
2097.0
 21
-140.99999999999909
 31
0.0
1001
ACDBBLOCKREPETAG
1070
     1
1071
       52
1005
12C5BD
  0
LINE
  5
12C5BE
  8
OBJECT
 10
2097.0
 20
-140.99999999999909
 30
0.0
 11
2097.0
 21
-258.99999999999909
 31
0.0
1001
ACDBBLOCKREPETAG
1070
     1
1071
       53
1005
12C5BE
  0
LINE
  5
12C5BF
  8
OBJECT
 10
2097.0
 20
-258.99999999999909
 30
0.0
 11
2133.0
 21
-258.99999999999909
 31
0.0
1001
ACDBBLOCKREPETAG
1070
     1
1071
       54
1005
12C5BF
  0
LINE
  5
12C5C0
  8
OBJECT
 10
2093.0
 20
-145.49999999999909
 30
0.0
 11
2086.0
 21
-145.49999999999909
 31
0.0
1001
ACDBBLOCKREPETAG
1070
     1
1071
       55
1005
12C5C0
  0
LINE
  5
12C5C1
  8
OBJECT
 10
2086.0
 20
-254.49999999999909
 30
0.0
 11
2093.0
 21
-254.49999999999909
 31
0.0
1001
ACDBBLOCKREPETAG
1070
     1
1071
       56
1005
12C5C1
  0
LINE
  5
12C5C2
  8
OBJECT
 10
2093.0
 20
-254.49999999999909
 30
0.0
 11
2093.0
 21
-145.49999999999909
 31
0.0
1001
ACDBBLOCKREPETAG
1070
     1
1071
       57
1005
12C5C2
  0
LINE
  5
12C5C3
  8
OBJECT
 10
2097.0
 20
-140.99999999999909
 30
0.0
 11
2093.0
 21
-145.49999999999909
 31
0.0
1001
ACDBBLOCKREPETAG
1070
     1
1071
       58
1005
12C5C3
  0
LINE
  5
12C5C4
  8
OBJECT
 10
2097.0
 20
-258.99999999999909
 30
0.0
 11
2093.0
 21
-254.49999999999909
 31
0.0
1001
ACDBBLOCKREPETAG
1070
     1
1071
       59
1005
12C5C4
  0
LINE
  5
12C5C5
  8
OBJECT
 10
2083.0
 20
-137.99999999999909
 30
0.0
 11
2080.0
 21
-137.99999999999909
 31
0.0
1001
ACDBBLOCKREPETAG
1070
     1
1071
       60
1005
12C5C5
  0
ARC
  5
12C5C6
  8
OBJECT
 10
2083.0
 20
-140.99999999999909
 30
0.0
 40
3.0
 50
0.0
 51
90.0
1001
ACDBBLOCKREPETAG
1070
     1
1071
       61
1005
12C5C6
  0
LINE
  5
12C5C7
  8
OBJECT
 10
2080.0
 20
-261.99999999999909
 30
0.0
 11
2083.0
 21
-261.99999999999909
 31
0.0
1001
ACDBBLOCKREPETAG
1070
     1
1071
       62
1005
12C5C7
  0
ARC
  5
12C5C8
  8
OBJECT
 10
2083.0
 20
-258.99999999999909
 30
0.0
 40
3.0
 50
270.0
 51
0.0
1001
ACDBBLOCKREPETAG
1070
     1
1071
       63
1005
12C5C8
  0
LINE
  5
12C5C9
  8
OBJECT
 10
2086.0
 20
-258.99999999999909
 30
0.0
 11
2086.0
 21
-140.99999999999909
 31
0.0
1001
ACDBBLOCKREPETAG
1070
     1
1071
       64
1005
12C5C9
  0
LINE
  5
12C5CA
  8
HIDDEN
 10
2088.0
 20
-155.49999999999909
 30
0.0
 11
2088.0
 21
-244.49999999999909
 31
0.0
1001
ACDBBLOCKREPETAG
1070
     1
1071
       65
1005
12C5CA
  0
LINE
  5
12C5CB
  8
OBJECT
 10
1867.0
 20
-634.0
 30
0.0
 11
1860.0
 21
-634.0
 31
0.0
1001
ACDBBLOCKREPETAG
1070
     1
1071
       45
1005
12C5CB
  0
LINE
  5
12C5CC
  8
OBJECT
 10
1860.0
 20
-634.0
 30
0.0
 11
1860.0
 21
-755.0
 31
0.0
1001
ACDBBLOCKREPETAG
1070
     1
1071
       46
1005
12C5CC
  0
LINE
  5
12C5CD
  8
OBJECT
 10
1867.0
 20
-755.0
 30
0.0
 11
1867.0
 21
-634.0
 31
0.0
1001
ACDBBLOCKREPETAG
1070
     1
1071
       47
1005
12C5CD
  0
LINE
  5
12C5CE
  8
CENTER
 10
1845.0
 20
-696.0
 30
0.0
 11
1929.0
 21
-696.0
 31
0.0
1001
ACDBBLOCKREPETAG
1070
     1
1071
       48
1005
12C5CE
  0
LINE
  5
12C5CF
  8
OBJECT
 10
1867.0
 20
-637.0
 30
0.0
 11
1903.0
 21
-637.0
 31
0.0
1001
ACDBBLOCKREPETAG
1070
     1
1071
       49
1005
12C5CF
  0
LINE
  5
12C5D0
  8
OBJECT
 10
1903.0
 20
-637.0
 30
0.0
 11
1903.0
 21
-755.0
 31
0.0
1001
ACDBBLOCKREPETAG
1070
     1
1071
       50
1005
12C5D0
  0
LINE
  5
12C5D1
  8
OBJECT
 10
1903.0
 20
-755.0
 30
0.0
 11
1860.0
 21
-755.0
 31
0.0
1001
ACDBBLOCKREPETAG
1070
     1
1071
       51
1005
12C5D1
  0
LINE
  5
12C5D2
  8
OBJECT
 10
1907.0
 20
-641.5
 30
0.0
 11
1914.0
 21
-641.5
 31
0.0
1001
ACDBBLOCKREPETAG
1070
     1
1071
       52
1005
12C5D2
  0
LINE
  5
12C5D3
  8
OBJECT
 10
1914.0
 20
-750.49999999999989
 30
0.0
 11
1907.0
 21
-750.49999999999989
 31
0.0
1001
ACDBBLOCKREPETAG
1070
     1
1071
       53
1005
12C5D3
  0
LINE
  5
12C5D4
  8
OBJECT
 10
1907.0
 20
-750.49999999999989
 30
0.0
 11
1907.0
 21
-641.5
 31
0.0
1001
ACDBBLOCKREPETAG
1070
     1
1071
       54
1005
12C5D4
  0
LINE
  5
12C5D5
  8
OBJECT
 10
1903.0
 20
-637.0
 30
0.0
 11
1907.0
 21
-641.5
 31
0.0
1001
ACDBBLOCKREPETAG
1070
     1
1071
       55
1005
12C5D5
  0
LINE
  5
12C5D6
  8
OBJECT
 10
1903.0
 20
-755.0
 30
0.0
 11
1907.0
 21
-750.49999999999989
 31
0.0
1001
ACDBBLOCKREPETAG
1070
     1
1071
       56
1005
12C5D6
  0
LINE
  5
12C5D7
  8
OBJECT
 10
1917.0
 20
-634.0
 30
0.0
 11
1920.0
 21
-634.0
 31
0.0
1001
ACDBBLOCKREPETAG
1070
     1
1071
       57
1005
12C5D7
  0
ARC
  5
12C5D8
  8
OBJECT
 10
1917.0
 20
-637.0
 30
0.0
 40
3.0
 50
90.0
 51
180.0
1001
ACDBBLOCKREPETAG
1070
     1
1071
       58
1005
12C5D8
  0
LINE
  5
12C5D9
  8
OBJECT
 10
1920.0
 20
-758.0
 30
0.0
 11
1917.0
 21
-758.0
 31
0.0
1001
ACDBBLOCKREPETAG
1070
     1
1071
       59
1005
12C5D9
  0
ARC
  5
12C5DA
  8
OBJECT
 10
1917.0
 20
-755.0
 30
0.0
 40
3.0
 50
180.0
 51
270.0
1001
ACDBBLOCKREPETAG
1070
     1
1071
       60
1005
12C5DA
  0
LINE
  5
12C5DB
  8
OBJECT
 10
1914.0
 20
-755.0
 30
0.0
 11
1914.0
 21
-637.0
 31
0.0
1001
ACDBBLOCKREPETAG
1070
     1
1071
       61
1005
12C5DB
  0
LINE
  5
12C5DC
  8
HIDDEN
 10
1912.0
 20
-651.5
 30
0.0
 11
1912.0
 21
-740.5
 31
0.0
1001
ACDBBLOCKREPETAG
1070
     1
1071
       63
1005
12C5DC
  0
CIRCLE
  5
12C5DD
  8
OBJECT
 10
2000.0
 20
-696.0
 30
0.0
 40
62.0
1001
ACDBBLOCKREPETAG
1070
     1
1071
        0
1005
12C5DD
  0
LINE
  5
12C5DE
  8
OBJECT
 10
2133.0
 20
-634.0
 30
0.0
 11
2140.0
 21
-634.0
 31
0.0
1001
ACDBBLOCKREPETAG
1070
     1
1071
       45
1005
12C5DE
  0
LINE
  5
12C5DF
  8
OBJECT
 10
2140.0
 20
-634.0
 30
0.0
 11
2140.0
 21
-755.0
 31
0.0
1001
ACDBBLOCKREPETAG
1070
     1
1071
       46
1005
12C5DF
  0
LINE
  5
12C5E0
  8
OBJECT
 10
2133.0
 20
-755.0
 30
0.0
 11
2133.0
 21
-634.0
 31
0.0
1001
ACDBBLOCKREPETAG
1070
     1
1071
       47
1005
12C5E0
  0
LINE
  5
12C5E1
  8
CENTER
 10
2155.0
 20
-696.0
 30
0.0
 11
2071.0
 21
-696.0
 31
0.0
1001
ACDBBLOCKREPETAG
1070
     1
1071
       48
1005
12C5E1
  0
LINE
  5
12C5E2
  8
OBJECT
 10
2133.0
 20
-637.0
 30
0.0
 11
2097.0
 21
-637.0
 31
0.0
1001
ACDBBLOCKREPETAG
1070
     1
1071
       49
1005
12C5E2
  0
LINE
  5
12C5E3
  8
OBJECT
 10
2097.0
 20
-637.0
 30
0.0
 11
2097.0
 21
-755.0
 31
0.0
1001
ACDBBLOCKREPETAG
1070
     1
1071
       50
1005
12C5E3
  0
LINE
  5
12C5E4
  8
OBJECT
 10
2097.0
 20
-755.0
 30
0.0
 11
2140.0
 21
-755.0
 31
0.0
1001
ACDBBLOCKREPETAG
1070
     1
1071
       51
1005
12C5E4
  0
LINE
  5
12C5E5
  8
OBJECT
 10
2093.0
 20
-641.5
 30
0.0
 11
2086.0
 21
-641.5
 31
0.0
1001
ACDBBLOCKREPETAG
1070
     1
1071
       52
1005
12C5E5
  0
LINE
  5
12C5E6
  8
OBJECT
 10
2086.0
 20
-750.49999999999989
 30
0.0
 11
2093.0
 21
-750.49999999999989
 31
0.0
1001
ACDBBLOCKREPETAG
1070
     1
1071
       53
1005
12C5E6
  0
LINE
  5
12C5E7
  8
OBJECT
 10
2093.0
 20
-750.49999999999989
 30
0.0
 11
2093.0
 21
-641.5
 31
0.0
1001
ACDBBLOCKREPETAG
1070
     1
1071
       54
1005
12C5E7
  0
LINE
  5
12C5E8
  8
OBJECT
 10
2097.0
 20
-637.0
 30
0.0
 11
2093.0
 21
-641.5
 31
0.0
1001
ACDBBLOCKREPETAG
1070
     1
1071
       55
1005
12C5E8
  0
LINE
  5
12C5E9
  8
OBJECT
 10
2097.0
 20
-755.0
 30
0.0
 11
2093.0
 21
-750.49999999999989
 31
0.0
1001
ACDBBLOCKREPETAG
1070
     1
1071
       56
1005
12C5E9
  0
LINE
  5
12C5EA
  8
OBJECT
 10
2083.0
 20
-634.0
 30
0.0
 11
2080.0
 21
-634.0
 31
0.0
1001
ACDBBLOCKREPETAG
1070
     1
1071
       57
1005
12C5EA
  0
ARC
  5
12C5EB
  8
OBJECT
 10
2083.0
 20
-637.0
 30
0.0
 40
3.0
 50
0.0
 51
90.0
1001
ACDBBLOCKREPETAG
1070
     1
1071
       58
1005
12C5EB
  0
LINE
  5
12C5EC
  8
OBJECT
 10
2080.0
 20
-758.0
 30
0.0
 11
2083.0
 21
-758.0
 31
0.0
1001
ACDBBLOCKREPETAG
1070
     1
1071
       59
1005
12C5EC
  0
ARC
  5
12C5ED
  8
OBJECT
 10
2083.0
 20
-755.0
 30
0.0
 40
3.0
 50
270.0
 51
0.0
1001
ACDBBLOCKREPETAG
1070
     1
1071
       60
1005
12C5ED
  0
LINE
  5
12C5EE
  8
OBJECT
 10
2086.0
 20
-755.0
 30
0.0
 11
2086.0
 21
-637.0
 31
0.0
1001
ACDBBLOCKREPETAG
1070
     1
1071
       61
1005
12C5EE
  0
LINE
  5
12C5EF
  8
HIDDEN
 10
2088.0
 20
-651.5
 30
0.0
 11
2088.0
 21
-740.5
 31
0.0
1001
ACDBBLOCKREPETAG
1070
     1
1071
       63
1005
12C5EF
  0
TEXT
  5
12C5F0
  8
SLIM
 10
126.85714285708239
 20
-443.99999999984919
 30
0.0
 40
48.0
  1
B101
 41
0.75
1001
ACDBBLOCKREPETAG
1070
     1
1071
      119
1005
12AEEF
  0
TEXT
  5
12C5F1
  8
SLIM
 10
0.0000035665234464
 20
24.000004585317601
 30
0.0
 40
79.999999999972701
  1
枝管バリエーション
 41
0.75
1001
ACDBBLOCKREPETAG
1070
     1
1071
      119
1005
12AEEE
  0
TEXT
  5
12C5F2
  8
SLIM
 10
-18.199999999993789
 20
-2395.9999999991828
 30
0.0
 40
51.999999999982258
  1
（特）：特注品。対向枝への排水の流入
 41
0.75
1001
ACDBBLOCKREPETAG
1070
     1
1071
      118
1005
12AEED
  0
TEXT
  5
12C5F3
  8
SLIM
 10
0.0
 20
-2465.3333333324931
 30
0.0
 40
51.999999999982258
  1
が無いことを確認した場合のみ製作。
 41
0.75
1001
ACDBBLOCKREPETAG
1070
     1
1071
      118
1005
12AEED
  0
LINE
  5
12C5F4
  8
OBJECT
 10
222.99999999861211
 20
-328.99999999770631
 30
0.0
 11
222.99999999861211
 21
-335.99999999770631
 31
0.0
1001
ACDBBLOCKREPETAG
1070
     1
1071
        0
1005
12C5F4
  0
LINE
  5
12C5F5
  8
OBJECT
 10
222.99999999861211
 20
-335.99999999770631
 30
0.0
 11
128.99999999861211
 21
-335.99999999770631
 31
0.0
1001
ACDBBLOCKREPETAG
1070
     1
1071
        1
1005
12C5F5
  0
LINE
  5
12C5F6
  8
OBJECT
 10
128.99999999861211
 20
-335.99999999770631
 30
0.0
 11
128.99999999861211
 21
-328.99999999770631
 31
0.0
1001
ACDBBLOCKREPETAG
1070
     1
1071
        2
1005
12C5F6
  0
LINE
  5
12C5F7
  8
OBJECT
 10
128.99999999861211
 20
-328.99999999770631
 30
0.0
 11
222.99999999861211
 21
-328.99999999770631
 31
0.0
1001
ACDBBLOCKREPETAG
1070
     1
1071
        3
1005
12C5F7
  0
LINE
  5
12C5F8
  8
OBJECT
 10
219.99999999861211
 20
-328.99999999770631
 30
0.0
 11
219.99999999861211
 21
-292.99999999770631
 31
0.0
1001
ACDBBLOCKREPETAG
1070
     1
1071
        4
1005
12C5F8
  0
LINE
  5
12C5F9
  8
OBJECT
 10
219.99999999861211
 20
-292.99999999770631
 30
0.0
 11
131.99999999861211
 21
-292.99999999770631
 31
0.0
1001
ACDBBLOCKREPETAG
1070
     1
1071
        5
1005
12C5F9
  0
LINE
  5
12C5FA
  8
OBJECT
 10
131.99999999861211
 20
-292.99999999770631
 30
0.0
 11
131.99999999861211
 21
-328.99999999770631
 31
0.0
1001
ACDBBLOCKREPETAG
1070
     1
1071
        6
1005
12C5FA
  0
LINE
  5
12C5FB
  8
OBJECT
 10
215.49999999861211
 20
-288.9999999977062
 30
0.0
 11
215.49999999861211
 21
-281.99999999770631
 31
0.0
1001
ACDBBLOCKREPETAG
1070
     1
1071
        7
1005
12C5FB
  0
LINE
  5
12C5FC
  8
OBJECT
 10
136.49999999861211
 20
-281.99999999770631
 30
0.0
 11
136.49999999861211
 21
-288.9999999977062
 31
0.0
1001
ACDBBLOCKREPETAG
1070
     1
1071
        8
1005
12C5FC
  0
LINE
  5
12C5FD
  8
OBJECT
 10
136.49999999861211
 20
-288.9999999977062
 30
0.0
 11
215.49999999861211
 21
-288.9999999977062
 31
0.0
1001
ACDBBLOCKREPETAG
1070
     1
1071
        9
1005
12C5FD
  0
LINE
  5
12C5FE
  8
OBJECT
 10
219.99999999861211
 20
-292.99999999770631
 30
0.0
 11
215.49999999861211
 21
-288.9999999977062
 31
0.0
1001
ACDBBLOCKREPETAG
1070
     1
1071
       10
1005
12C5FE
  0
LINE
  5
12C5FF
  8
OBJECT
 10
131.99999999861211
 20
-292.99999999770631
 30
0.0
 11
136.49999999861211
 21
-288.9999999977062
 31
0.0
1001
ACDBBLOCKREPETAG
1070
     1
1071
       11
1005
12C5FF
  0
LINE
  5
12C600
  8
OBJECT
 10
237.99999999861211
 20
-278.99999999770722
 30
0.0
 11
237.99999999861211
 21
-275.99999999770631
 31
0.0
1001
ACDBBLOCKREPETAG
1070
     1
1071
       12
1005
12C600
  0
ARC
  5
12C601
  8
OBJECT
 10
234.99999999861211
 20
-278.99999999770722
 30
0.0
 40
3.0
 50
270.0
 51
0.0
1001
ACDBBLOCKREPETAG
1070
     1
1071
       13
1005
12C601
  0
LINE
  5
12C602
  8
OBJECT
 10
113.9999999986121
 20
-275.99999999770631
 30
0.0
 11
113.9999999986121
 21
-278.99999999770529
 31
0.0
1001
ACDBBLOCKREPETAG
1070
     1
1071
       14
1005
12C602
  0
ARC
  5
12C603
  8
OBJECT
 10
116.9999999986121
 20
-278.99999999770529
 30
0.0
 40
3.0
 50
180.0
 51
270.0
1001
ACDBBLOCKREPETAG
1070
     1
1071
       15
1005
12C603
  0
LINE
  5
12C604
  8
OBJECT
 10
116.9999999986121
 20
-281.99999999770529
 30
0.0
 11
234.99999999861211
 21
-281.99999999770711
 31
0.0
1001
ACDBBLOCKREPETAG
1070
     1
1071
       16
1005
12C604
  0
INSERT
  5
12C605
  8
OBJECT
  2
*U64
 10
0.0
 20
0.0
 30
0.0
  0
LINE
  5
12C606
  8
HIDDEN
 10
205.99999999861211
 20
-283.99999999770631
 30
0.0
 11
145.99999999861211
 21
-283.99999999770631
 31
0.0
1001
ACDBBLOCKREPETAG
1070
     1
1071
      424
1005
12C606
  0
LINE
  5
12C607
  8
OBJECT
 10
258.99999999861211
 20
-257.9999999977062
 30
0.0
 11
255.99999999861211
 21
-257.9999999977062
 31
0.0
1001
ACDBBLOCKREPETAG
1070
     1
1071
      418
1005
12C607
  0
ARC
  5
12C608
  8
OBJECT
 10
258.99999999861211
 20
-254.99999999770631
 30
0.0
 40
3.0
 50
270.0
 51
0.0
1001
ACDBBLOCKREPETAG
1070
     1
1071
      419
1005
12C608
  0
LINE
  5
12C609
  8
OBJECT
 10
255.99999999861211
 20
-133.9999999977062
 30
0.0
 11
258.99999999861211
 21
-133.9999999977062
 31
0.0
1001
ACDBBLOCKREPETAG
1070
     1
1071
      420
1005
12C609
  0
ARC
  5
12C60A
  8
OBJECT
 10
258.99999999861211
 20
-136.9999999977062
 30
0.0
 40
3.0
 50
0.0
 51
90.0
1001
ACDBBLOCKREPETAG
1070
     1
1071
      421
1005
12C60A
  0
LINE
  5
12C60B
  8
OBJECT
 10
261.99999999861211
 20
-136.9999999977062
 30
0.0
 11
261.99999999861211
 21
-254.99999999770631
 31
0.0
1001
ACDBBLOCKREPETAG
1070
     1
1071
      422
1005
12C60B
  0
INSERT
  5
12C60C
  8
OBJECT
  2
*U65
 10
0.0
 20
0.0
 30
0.0
  0
LINE
  5
12C60D
  8
OBJECT
 10
128.99999999861211
 20
-62.999999997706247
 30
0.0
 11
128.99999999861211
 21
-55.999999997706247
 31
0.0
1001
ACDBBLOCKREPETAG
1070
     1
1071
        1
1005
12C60D
  0
LINE
  5
12C60E
  8
OBJECT
 10
128.99999999861211
 20
-55.999999997706247
 30
0.0
 11
222.99999999861211
 21
-55.999999997706247
 31
0.0
1001
ACDBBLOCKREPETAG
1070
     1
1071
        2
1005
12C60E
  0
LINE
  5
12C60F
  8
OBJECT
 10
222.99999999861211
 20
-55.999999997706247
 30
0.0
 11
222.99999999861211
 21
-62.999999997706247
 31
0.0
1001
ACDBBLOCKREPETAG
1070
     1
1071
        3
1005
12C60F
  0
LINE
  5
12C610
  8
OBJECT
 10
222.99999999861211
 20
-62.999999997706247
 30
0.0
 11
128.99999999861211
 21
-62.999999997706247
 31
0.0
1001
ACDBBLOCKREPETAG
1070
     1
1071
        4
1005
12C610
  0
LINE
  5
12C611
  8
OBJECT
 10
131.99999999861211
 20
-62.999999997706247
 30
0.0
 11
131.99999999861211
 21
-98.99999999770624
 31
0.0
1001
ACDBBLOCKREPETAG
1070
     1
1071
        5
1005
12C611
  0
LINE
  5
12C612
  8
OBJECT
 10
131.99999999861211
 20
-98.99999999770624
 30
0.0
 11
219.99999999861211
 21
-98.99999999770624
 31
0.0
1001
ACDBBLOCKREPETAG
1070
     1
1071
        6
1005
12C612
  0
LINE
  5
12C613
  8
OBJECT
 10
219.99999999861211
 20
-98.99999999770624
 30
0.0
 11
219.99999999861211
 21
-62.999999997706247
 31
0.0
1001
ACDBBLOCKREPETAG
1070
     1
1071
        7
1005
12C613
  0
LINE
  5
12C614
  8
OBJECT
 10
136.49999999861211
 20
-102.9999999977062
 30
0.0
 11
136.49999999861211
 21
-109.9999999977062
 31
0.0
1001
ACDBBLOCKREPETAG
1070
     1
1071
        8
1005
12C614
  0
LINE
  5
12C615
  8
OBJECT
 10
215.49999999861211
 20
-109.9999999977062
 30
0.0
 11
215.49999999861211
 21
-102.9999999977062
 31
0.0
1001
ACDBBLOCKREPETAG
1070
     1
1071
        9
1005
12C615
  0
LINE
  5
12C616
  8
OBJECT
 10
215.49999999861211
 20
-102.9999999977062
 30
0.0
 11
136.49999999861211
 21
-102.9999999977062
 31
0.0
1001
ACDBBLOCKREPETAG
1070
     1
1071
       10
1005
12C616
  0
LINE
  5
12C617
  8
OBJECT
 10
131.99999999861211
 20
-98.99999999770624
 30
0.0
 11
136.49999999861211
 21
-102.9999999977062
 31
0.0
1001
ACDBBLOCKREPETAG
1070
     1
1071
       11
1005
12C617
  0
LINE
  5
12C618
  8
OBJECT
 10
219.99999999861211
 20
-98.99999999770624
 30
0.0
 11
215.49999999861211
 21
-102.9999999977062
 31
0.0
1001
ACDBBLOCKREPETAG
1070
     1
1071
       12
1005
12C618
  0
LINE
  5
12C619
  8
OBJECT
 10
113.9999999986121
 20
-112.9999999977053
 30
0.0
 11
113.9999999986121
 21
-115.9999999977062
 31
0.0
1001
ACDBBLOCKREPETAG
1070
     1
1071
       13
1005
12C619
  0
ARC
  5
12C61A
  8
OBJECT
 10
116.9999999986121
 20
-112.9999999977053
 30
0.0
 40
3.0
 50
90.0
 51
180.0
1001
ACDBBLOCKREPETAG
1070
     1
1071
       14
1005
12C61A
  0
LINE
  5
12C61B
  8
OBJECT
 10
237.99999999861211
 20
-115.9999999977062
 30
0.0
 11
237.99999999861211
 21
-112.99999999770711
 31
0.0
1001
ACDBBLOCKREPETAG
1070
     1
1071
       15
1005
12C61B
  0
ARC
  5
12C61C
  8
OBJECT
 10
234.99999999861211
 20
-112.99999999770711
 30
0.0
 40
3.0
 50
0.0
 51
90.0
1001
ACDBBLOCKREPETAG
1070
     1
1071
       16
1005
12C61C
  0
LINE
  5
12C61D
  8
OBJECT
 10
234.99999999861211
 20
-109.99999999770711
 30
0.0
 11
116.9999999986121
 21
-109.9999999977053
 31
0.0
1001
ACDBBLOCKREPETAG
1070
     1
1071
       17
1005
12C61D
  0
LINE
  5
12C61E
  8
HIDDEN
 10
145.99999999861211
 20
-107.9999999977062
 30
0.0
 11
205.99999999861211
 21
-107.9999999977062
 31
0.0
1001
ACDBBLOCKREPETAG
1070
     1
1071
      420
1005
12C61E
  0
TEXT
  5
12C61F
  8
SLIM
 10
0.0
 20
370.0
 30
0.0
 40
100.0
  1
4SRT-BX0X-S
 41
0.75
  0
LINE
  5
12C620
  8
OBJECT
 10
4923.0
 20
-3515.9999999999968
 30
0.0
 11
4923.0
 21
-3494.9999999999968
 31
0.0
1001
ACDBBLOCKREPETAG
1070
     1
1071
        0
1005
12C620
  0
LINE
  5
12C621
  8
OBJECT
 10
4923.0
 20
-3494.9999999999968
 30
0.0
 11
5077.0
 21
-3494.9999999999968
 31
0.0
1001
ACDBBLOCKREPETAG
1070
     1
1071
        1
1005
12C621
  0
LINE
  5
12C622
  8
HIDDEN
 10
4943.0
 20
-3564.9999999999968
 30
0.0
 11
5057.0
 21
-3564.9999999999968
 31
0.0
1001
ACDBBLOCKREPETAG
1070
     1
1071
        2
1005
12C622
  0
LINE
  5
12C623
  8
OBJECT
 10
5077.0
 20
-3494.9999999999968
 30
0.0
 11
5077.0
 21
-3515.9999999999968
 31
0.0
1001
ACDBBLOCKREPETAG
1070
     1
1071
        3
1005
12C623
  0
LINE
  5
12C624
  8
OBJECT
 10
5077.0
 20
-3515.9999999999968
 30
0.0
 11
4923.0
 21
-3515.9999999999968
 31
0.0
1001
ACDBBLOCKREPETAG
1070
     1
1071
        4
1005
12C624
  0
LINE
  5
12C625
  8
CENTER
 10
5000.0
 20
-3479.9999999999968
 30
0.0
 11
5000.0
 21
-3714.9999999999968
 31
0.0
1001
ACDBBLOCKREPETAG
1070
     1
1071
        5
1005
12C625
  0
LINE
  5
12C626
  8
OBJECT
 10
4925.0
 20
-3578.9999999999968
 30
0.0
 11
4925.0
 21
-3702.9999999999968
 31
0.0
1001
ACDBBLOCKREPETAG
1070
     1
1071
        6
1005
12C626
  0
LINE
  5
12C627
  8
OBJECT
 10
4928.0
 20
-3515.9999999999968
 30
0.0
 11
4928.0
 21
-3578.9999999999968
 31
0.0
1001
ACDBBLOCKREPETAG
1070
     1
1071
        7
1005
12C627
  0
LINE
  5
12C628
  8
OBJECT
 10
5072.0
 20
-3578.9999999999968
 30
0.0
 11
5072.0
 21
-3515.9999999999968
 31
0.0
1001
ACDBBLOCKREPETAG
1070
     1
1071
        8
1005
12C628
  0
LINE
  5
12C629
  8
OBJECT
 10
5074.9999999997999
 20
-3702.9999999997758
 30
0.0
 11
5080.0
 21
-3702.9999999999968
 31
0.0
1001
ACDBBLOCKREPETAG
1070
     1
1071
        9
1005
12C629
  0
LINE
  5
12C62A
  8
OBJECT
 10
5080.0
 20
-3578.9999999999968
 30
0.0
 11
4925.0
 21
-3578.9999999999968
 31
0.0
1001
ACDBBLOCKREPETAG
1070
     1
1071
       10
1005
12C62A
  0
ARC
  5
12C62B
  8
OBJECT
 10
5200.6872746716726
 20
-3694.408099410105
 30
0.0
 40
170.6350503965856
 50
137.44134459184301
 51
149.9194958133665
1001
ACDBBLOCKREPETAG
1070
     1
1071
       15
1005
12C62B
  0
ARC
  5
12C62C
  8
OBJECT
 10
5118.8455987040506
 20
-3650.8827266953622
 30
0.0
 40
78.072222021763665
 50
147.4551531037684
 51
164.66365997719291
1001
ACDBBLOCKREPETAG
1070
     1
1071
       16
1005
12C62C
  0
ARC
  5
12C62D
  8
OBJECT
 10
5085.7554349608727
 20
-3640.9999999999968
 30
0.0
 40
43.55353926885617
 50
165.6884523008477
 51
194.3115476991523
1001
ACDBBLOCKREPETAG
1070
     1
1071
       17
1005
12C62D
  0
ARC
  5
12C62E
  8
OBJECT
 10
5200.6872746716726
 20
-3587.5919005898891
 30
0.0
 40
170.6350503965856
 50
210.0805041866335
 51
222.55865540815699
1001
ACDBBLOCKREPETAG
1070
     1
1071
       18
1005
12C62E
  0
ARC
  5
12C62F
  8
OBJECT
 10
5118.8455987040506
 20
-3631.1172733046319
 30
0.0
 40
78.072222021763665
 50
195.33634002280701
 51
212.5448468962316
1001
ACDBBLOCKREPETAG
1070
     1
1071
       19
1005
12C62F
  0
POINT
  5
12C630
  8
DOTS
 10
5000.0
 20
-3699.9999999999968
 30
0.0
1001
ACDBBLOCKREPETAG
1070
     1
1071
      186
1005
12C630
  0
LINE
  5
12C631
  8
OBJECT
 10
4323.0
 20
-3515.9999999999968
 30
0.0
 11
4323.0
 21
-3494.9999999999968
 31
0.0
1001
ACDBBLOCKREPETAG
1070
     1
1071
       20
1005
12C631
  0
LINE
  5
12C632
  8
OBJECT
 10
4323.0
 20
-3494.9999999999968
 30
0.0
 11
4477.0
 21
-3494.9999999999968
 31
0.0
1001
ACDBBLOCKREPETAG
1070
     1
1071
       21
1005
12C632
  0
LINE
  5
12C633
  8
HIDDEN
 10
4343.0
 20
-3564.9999999999968
 30
0.0
 11
4457.0
 21
-3564.9999999999968
 31
0.0
1001
ACDBBLOCKREPETAG
1070
     1
1071
       22
1005
12C633
  0
LINE
  5
12C634
  8
OBJECT
 10
4477.0
 20
-3494.9999999999968
 30
0.0
 11
4477.0
 21
-3515.9999999999968
 31
0.0
1001
ACDBBLOCKREPETAG
1070
     1
1071
       23
1005
12C634
  0
LINE
  5
12C635
  8
OBJECT
 10
4477.0
 20
-3515.9999999999968
 30
0.0
 11
4323.0
 21
-3515.9999999999968
 31
0.0
1001
ACDBBLOCKREPETAG
1070
     1
1071
       24
1005
12C635
  0
LINE
  5
12C636
  8
CENTER
 10
4400.0
 20
-3479.9999999999968
 30
0.0
 11
4400.0
 21
-3714.9999999999968
 31
0.0
1001
ACDBBLOCKREPETAG
1070
     1
1071
       25
1005
12C636
  0
LINE
  5
12C637
  8
OBJECT
 10
4325.0
 20
-3578.9999999999968
 30
0.0
 11
4325.0
 21
-3702.9999999999968
 31
0.0
1001
ACDBBLOCKREPETAG
1070
     1
1071
       26
1005
12C637
  0
LINE
  5
12C638
  8
OBJECT
 10
4328.0
 20
-3515.9999999999968
 30
0.0
 11
4328.0
 21
-3578.9999999999968
 31
0.0
1001
ACDBBLOCKREPETAG
1070
     1
1071
       27
1005
12C638
  0
LINE
  5
12C639
  8
OBJECT
 10
4472.0
 20
-3578.9999999999968
 30
0.0
 11
4472.0
 21
-3515.9999999999968
 31
0.0
1001
ACDBBLOCKREPETAG
1070
     1
1071
       28
1005
12C639
  0
LINE
  5
12C63A
  8
OBJECT
 10
4475.0
 20
-3578.9999999999968
 30
0.0
 11
4325.0
 21
-3578.9999999999968
 31
0.0
1001
ACDBBLOCKREPETAG
1070
     1
1071
       30
1005
12C63A
  0
LINE
  5
12C63B
  8
OBJECT
 10
4475.0
 20
-3578.9999999999968
 30
0.0
 11
4475.0
 21
-3702.9999999999968
 31
0.0
1001
ACDBBLOCKREPETAG
1070
     1
1071
       34
1005
12C63B
  0
POINT
  5
12C63C
  8
DOTS
 10
4400.0
 20
-3699.9999999999968
 30
0.0
1001
ACDBBLOCKREPETAG
1070
     1
1071
      187
1005
12C63C
  0
LINE
  5
12C63D
  8
OBJECT
 10
3923.0
 20
-3515.9999999999968
 30
0.0
 11
3923.0
 21
-3494.9999999999968
 31
0.0
1001
ACDBBLOCKREPETAG
1070
     1
1071
        0
1005
12C63D
  0
LINE
  5
12C63E
  8
OBJECT
 10
3923.0
 20
-3494.9999999999968
 30
0.0
 11
4077.0
 21
-3494.9999999999968
 31
0.0
1001
ACDBBLOCKREPETAG
1070
     1
1071
        1
1005
12C63E
  0
LINE
  5
12C63F
  8
HIDDEN
 10
3943.0
 20
-3564.9999999999968
 30
0.0
 11
4057.0
 21
-3564.9999999999968
 31
0.0
1001
ACDBBLOCKREPETAG
1070
     1
1071
        2
1005
12C63F
  0
LINE
  5
12C640
  8
OBJECT
 10
4077.0
 20
-3494.9999999999968
 30
0.0
 11
4077.0
 21
-3515.9999999999968
 31
0.0
1001
ACDBBLOCKREPETAG
1070
     1
1071
        3
1005
12C640
  0
LINE
  5
12C641
  8
OBJECT
 10
4077.0
 20
-3515.9999999999968
 30
0.0
 11
3923.0
 21
-3515.9999999999968
 31
0.0
1001
ACDBBLOCKREPETAG
1070
     1
1071
        4
1005
12C641
  0
LINE
  5
12C642
  8
CENTER
 10
4000.0
 20
-3479.9999999999968
 30
0.0
 11
4000.0
 21
-3714.9999999999968
 31
0.0
1001
ACDBBLOCKREPETAG
1070
     1
1071
        5
1005
12C642
  0
LINE
  5
12C643
  8
OBJECT
 10
3925.0
 20
-3578.9999999999968
 30
0.0
 11
3925.0
 21
-3702.9999999999968
 31
0.0
1001
ACDBBLOCKREPETAG
1070
     1
1071
        6
1005
12C643
  0
LINE
  5
12C644
  8
OBJECT
 10
3928.0
 20
-3515.9999999999968
 30
0.0
 11
3928.0
 21
-3578.9999999999968
 31
0.0
1001
ACDBBLOCKREPETAG
1070
     1
1071
        7
1005
12C644
  0
LINE
  5
12C645
  8
OBJECT
 10
4072.0
 20
-3578.9999999999968
 30
0.0
 11
4072.0
 21
-3515.9999999999968
 31
0.0
1001
ACDBBLOCKREPETAG
1070
     1
1071
        8
1005
12C645
  0
LINE
  5
12C646
  8
OBJECT
 10
4074.999999999799
 20
-3702.9999999997758
 30
0.0
 11
4080.0
 21
-3702.9999999999968
 31
0.0
1001
ACDBBLOCKREPETAG
1070
     1
1071
        9
1005
12C646
  0
LINE
  5
12C647
  8
OBJECT
 10
4080.0
 20
-3578.9999999999968
 30
0.0
 11
3925.0
 21
-3578.9999999999968
 31
0.0
1001
ACDBBLOCKREPETAG
1070
     1
1071
       10
1005
12C647
  0
ARC
  5
12C648
  8
OBJECT
 10
4200.6872746716726
 20
-3694.408099410105
 30
0.0
 40
170.6350503965856
 50
137.44134459184301
 51
149.9194958133665
1001
ACDBBLOCKREPETAG
1070
     1
1071
       15
1005
12C648
  0
ARC
  5
12C649
  8
OBJECT
 10
4118.8455987040506
 20
-3650.8827266953622
 30
0.0
 40
78.072222021763665
 50
147.4551531037684
 51
164.663659977186
1001
ACDBBLOCKREPETAG
1070
     1
1071
       16
1005
12C649
  0
ARC
  5
12C64A
  8
OBJECT
 10
4085.7554349608722
 20
-3640.9999999999968
 30
0.0
 40
43.55353926885617
 50
165.6884523008477
 51
194.3115476991523
1001
ACDBBLOCKREPETAG
1070
     1
1071
       17
1005
12C64A
  0
ARC
  5
12C64B
  8
OBJECT
 10
4200.6872746716726
 20
-3587.5919005898891
 30
0.0
 40
170.6350503965856
 50
210.0805041866335
 51
222.55865540815699
1001
ACDBBLOCKREPETAG
1070
     1
1071
       18
1005
12C64B
  0
ARC
  5
12C64C
  8
OBJECT
 10
4118.8455987040506
 20
-3631.1172733046319
 30
0.0
 40
78.072222021763665
 50
195.33634002281391
 51
212.5448468962316
1001
ACDBBLOCKREPETAG
1070
     1
1071
       19
1005
12C64C
  0
POINT
  5
12C64D
  8
DOTS
 10
4000.0
 20
-3699.9999999999968
 30
0.0
1001
ACDBBLOCKREPETAG
1070
     1
1071
      186
1005
12C64D
  0
LINE
  5
12C64E
  8
OBJECT
 10
3323.0
 20
-3515.9999999999968
 30
0.0
 11
3323.0
 21
-3494.9999999999968
 31
0.0
1001
ACDBBLOCKREPETAG
1070
     1
1071
       20
1005
12C64E
  0
LINE
  5
12C64F
  8
OBJECT
 10
3323.0
 20
-3494.9999999999968
 30
0.0
 11
3477.0
 21
-3494.9999999999968
 31
0.0
1001
ACDBBLOCKREPETAG
1070
     1
1071
       21
1005
12C64F
  0
LINE
  5
12C650
  8
HIDDEN
 10
3343.0
 20
-3564.9999999999968
 30
0.0
 11
3457.0
 21
-3564.9999999999968
 31
0.0
1001
ACDBBLOCKREPETAG
1070
     1
1071
       22
1005
12C650
  0
LINE
  5
12C651
  8
OBJECT
 10
3477.0
 20
-3494.9999999999968
 30
0.0
 11
3477.0
 21
-3515.9999999999968
 31
0.0
1001
ACDBBLOCKREPETAG
1070
     1
1071
       23
1005
12C651
  0
LINE
  5
12C652
  8
OBJECT
 10
3477.0
 20
-3515.9999999999968
 30
0.0
 11
3323.0
 21
-3515.9999999999968
 31
0.0
1001
ACDBBLOCKREPETAG
1070
     1
1071
       24
1005
12C652
  0
LINE
  5
12C653
  8
CENTER
 10
3400.0
 20
-3479.9999999999968
 30
0.0
 11
3400.0
 21
-3714.9999999999968
 31
0.0
1001
ACDBBLOCKREPETAG
1070
     1
1071
       25
1005
12C653
  0
LINE
  5
12C654
  8
OBJECT
 10
3325.0
 20
-3578.9999999999968
 30
0.0
 11
3325.0
 21
-3702.9999999999968
 31
0.0
1001
ACDBBLOCKREPETAG
1070
     1
1071
       26
1005
12C654
  0
LINE
  5
12C655
  8
OBJECT
 10
3328.0
 20
-3515.9999999999968
 30
0.0
 11
3328.0
 21
-3578.9999999999968
 31
0.0
1001
ACDBBLOCKREPETAG
1070
     1
1071
       27
1005
12C655
  0
LINE
  5
12C656
  8
OBJECT
 10
3472.0
 20
-3578.9999999999968
 30
0.0
 11
3472.0
 21
-3515.9999999999968
 31
0.0
1001
ACDBBLOCKREPETAG
1070
     1
1071
       28
1005
12C656
  0
LINE
  5
12C657
  8
OBJECT
 10
3475.0
 20
-3578.9999999999968
 30
0.0
 11
3325.0
 21
-3578.9999999999968
 31
0.0
1001
ACDBBLOCKREPETAG
1070
     1
1071
       30
1005
12C657
  0
LINE
  5
12C658
  8
OBJECT
 10
3475.0
 20
-3578.9999999999968
 30
0.0
 11
3475.0
 21
-3702.9999999999968
 31
0.0
1001
ACDBBLOCKREPETAG
1070
     1
1071
       34
1005
12C658
  0
POINT
  5
12C659
  8
DOTS
 10
3400.0
 20
-3699.9999999999968
 30
0.0
1001
ACDBBLOCKREPETAG
1070
     1
1071
      187
1005
12C659
  0
LINE
  5
12C65A
  8
OBJECT
 10
2923.0
 20
-3515.9999999999968
 30
0.0
 11
2923.0
 21
-3494.9999999999968
 31
0.0
1001
ACDBBLOCKREPETAG
1070
     1
1071
        0
1005
12C65A
  0
LINE
  5
12C65B
  8
OBJECT
 10
2923.0
 20
-3494.9999999999968
 30
0.0
 11
3077.0
 21
-3494.9999999999968
 31
0.0
1001
ACDBBLOCKREPETAG
1070
     1
1071
        1
1005
12C65B
  0
LINE
  5
12C65C
  8
HIDDEN
 10
2943.0
 20
-3564.9999999999968
 30
0.0
 11
3057.0
 21
-3564.9999999999968
 31
0.0
1001
ACDBBLOCKREPETAG
1070
     1
1071
        2
1005
12C65C
  0
LINE
  5
12C65D
  8
OBJECT
 10
3077.0
 20
-3494.9999999999968
 30
0.0
 11
3077.0
 21
-3515.9999999999968
 31
0.0
1001
ACDBBLOCKREPETAG
1070
     1
1071
        3
1005
12C65D
  0
LINE
  5
12C65E
  8
OBJECT
 10
3077.0
 20
-3515.9999999999968
 30
0.0
 11
2923.0
 21
-3515.9999999999968
 31
0.0
1001
ACDBBLOCKREPETAG
1070
     1
1071
        4
1005
12C65E
  0
LINE
  5
12C65F
  8
CENTER
 10
3000.0
 20
-3479.9999999999968
 30
0.0
 11
3000.0
 21
-3714.9999999999968
 31
0.0
1001
ACDBBLOCKREPETAG
1070
     1
1071
        5
1005
12C65F
  0
LINE
  5
12C660
  8
OBJECT
 10
2925.0
 20
-3578.9999999999968
 30
0.0
 11
2925.0
 21
-3702.9999999999968
 31
0.0
1001
ACDBBLOCKREPETAG
1070
     1
1071
        6
1005
12C660
  0
LINE
  5
12C661
  8
OBJECT
 10
2928.0
 20
-3515.9999999999968
 30
0.0
 11
2928.0
 21
-3578.9999999999968
 31
0.0
1001
ACDBBLOCKREPETAG
1070
     1
1071
        7
1005
12C661
  0
LINE
  5
12C662
  8
OBJECT
 10
3072.0
 20
-3578.9999999999968
 30
0.0
 11
3072.0
 21
-3515.9999999999968
 31
0.0
1001
ACDBBLOCKREPETAG
1070
     1
1071
        8
1005
12C662
  0
LINE
  5
12C663
  8
OBJECT
 10
3074.9999999997999
 20
-3702.9999999997758
 30
0.0
 11
3080.0
 21
-3702.9999999999968
 31
0.0
1001
ACDBBLOCKREPETAG
1070
     1
1071
        9
1005
12C663
  0
LINE
  5
12C664
  8
OBJECT
 10
3080.0
 20
-3578.9999999999968
 30
0.0
 11
2925.0
 21
-3578.9999999999968
 31
0.0
1001
ACDBBLOCKREPETAG
1070
     1
1071
       10
1005
12C664
  0
ARC
  5
12C665
  8
OBJECT
 10
3200.6872746716722
 20
-3694.408099410105
 30
0.0
 40
170.6350503965856
 50
137.44134459184301
 51
149.9194958133665
1001
ACDBBLOCKREPETAG
1070
     1
1071
       15
1005
12C665
  0
ARC
  5
12C666
  8
OBJECT
 10
3118.8455987040511
 20
-3650.8827266953622
 30
0.0
 40
78.072222021763665
 50
147.4551531037684
 51
164.663659977186
1001
ACDBBLOCKREPETAG
1070
     1
1071
       16
1005
12C666
  0
ARC
  5
12C667
  8
OBJECT
 10
3085.7554349608731
 20
-3640.9999999999968
 30
0.0
 40
43.55353926885617
 50
165.6884523008477
 51
194.3115476991523
1001
ACDBBLOCKREPETAG
1070
     1
1071
       17
1005
12C667
  0
ARC
  5
12C668
  8
OBJECT
 10
3200.6872746716722
 20
-3587.5919005898891
 30
0.0
 40
170.6350503965856
 50
210.0805041866335
 51
222.55865540815699
1001
ACDBBLOCKREPETAG
1070
     1
1071
       18
1005
12C668
  0
ARC
  5
12C669
  8
OBJECT
 10
3118.8455987040511
 20
-3631.1172733046319
 30
0.0
 40
78.072222021763665
 50
195.33634002281391
 51
212.5448468962316
1001
ACDBBLOCKREPETAG
1070
     1
1071
       19
1005
12C669
  0
POINT
  5
12C66A
  8
DOTS
 10
3000.0
 20
-3699.9999999999968
 30
0.0
1001
ACDBBLOCKREPETAG
1070
     1
1071
      186
1005
12C66A
  0
LINE
  5
12C66B
  8
OBJECT
 10
2323.0
 20
-3515.9999999999968
 30
0.0
 11
2323.0
 21
-3494.9999999999968
 31
0.0
1001
ACDBBLOCKREPETAG
1070
     1
1071
       20
1005
12C66B
  0
LINE
  5
12C66C
  8
OBJECT
 10
2323.0
 20
-3494.9999999999968
 30
0.0
 11
2477.0
 21
-3494.9999999999968
 31
0.0
1001
ACDBBLOCKREPETAG
1070
     1
1071
       21
1005
12C66C
  0
LINE
  5
12C66D
  8
HIDDEN
 10
2343.0
 20
-3564.9999999999968
 30
0.0
 11
2457.0
 21
-3564.9999999999968
 31
0.0
1001
ACDBBLOCKREPETAG
1070
     1
1071
       22
1005
12C66D
  0
LINE
  5
12C66E
  8
OBJECT
 10
2477.0
 20
-3494.9999999999968
 30
0.0
 11
2477.0
 21
-3515.9999999999968
 31
0.0
1001
ACDBBLOCKREPETAG
1070
     1
1071
       23
1005
12C66E
  0
LINE
  5
12C66F
  8
OBJECT
 10
2477.0
 20
-3515.9999999999968
 30
0.0
 11
2323.0
 21
-3515.9999999999968
 31
0.0
1001
ACDBBLOCKREPETAG
1070
     1
1071
       24
1005
12C66F
  0
LINE
  5
12C670
  8
CENTER
 10
2400.0
 20
-3479.9999999999968
 30
0.0
 11
2400.0
 21
-3714.9999999999968
 31
0.0
1001
ACDBBLOCKREPETAG
1070
     1
1071
       25
1005
12C670
  0
LINE
  5
12C671
  8
OBJECT
 10
2325.0
 20
-3578.9999999999968
 30
0.0
 11
2325.0
 21
-3702.9999999999968
 31
0.0
1001
ACDBBLOCKREPETAG
1070
     1
1071
       26
1005
12C671
  0
LINE
  5
12C672
  8
OBJECT
 10
2328.0
 20
-3515.9999999999968
 30
0.0
 11
2328.0
 21
-3578.9999999999968
 31
0.0
1001
ACDBBLOCKREPETAG
1070
     1
1071
       27
1005
12C672
  0
LINE
  5
12C673
  8
OBJECT
 10
2472.0
 20
-3578.9999999999968
 30
0.0
 11
2472.0
 21
-3515.9999999999968
 31
0.0
1001
ACDBBLOCKREPETAG
1070
     1
1071
       28
1005
12C673
  0
LINE
  5
12C674
  8
OBJECT
 10
2475.0
 20
-3578.9999999999968
 30
0.0
 11
2325.0
 21
-3578.9999999999968
 31
0.0
1001
ACDBBLOCKREPETAG
1070
     1
1071
       30
1005
12C674
  0
LINE
  5
12C675
  8
OBJECT
 10
2475.0
 20
-3578.9999999999968
 30
0.0
 11
2475.0
 21
-3702.9999999999968
 31
0.0
1001
ACDBBLOCKREPETAG
1070
     1
1071
       34
1005
12C675
  0
POINT
  5
12C676
  8
DOTS
 10
2400.0
 20
-3699.9999999999968
 30
0.0
1001
ACDBBLOCKREPETAG
1070
     1
1071
      187
1005
12C676
  0
LINE
  5
12C677
  8
OBJECT
 10
1923.0
 20
-3515.9999999999968
 30
0.0
 11
1923.0
 21
-3494.9999999999968
 31
0.0
1001
ACDBBLOCKREPETAG
1070
     1
1071
        0
1005
12C677
  0
LINE
  5
12C678
  8
OBJECT
 10
1923.0
 20
-3494.9999999999968
 30
0.0
 11
2077.0
 21
-3494.9999999999968
 31
0.0
1001
ACDBBLOCKREPETAG
1070
     1
1071
        1
1005
12C678
  0
LINE
  5
12C679
  8
HIDDEN
 10
1943.0
 20
-3564.9999999999968
 30
0.0
 11
2057.0
 21
-3564.9999999999968
 31
0.0
1001
ACDBBLOCKREPETAG
1070
     1
1071
        2
1005
12C679
  0
LINE
  5
12C67A
  8
OBJECT
 10
2077.0
 20
-3494.9999999999968
 30
0.0
 11
2077.0
 21
-3515.9999999999968
 31
0.0
1001
ACDBBLOCKREPETAG
1070
     1
1071
        3
1005
12C67A
  0
LINE
  5
12C67B
  8
OBJECT
 10
2077.0
 20
-3515.9999999999968
 30
0.0
 11
1923.0
 21
-3515.9999999999968
 31
0.0
1001
ACDBBLOCKREPETAG
1070
     1
1071
        4
1005
12C67B
  0
LINE
  5
12C67C
  8
CENTER
 10
2000.0
 20
-3479.9999999999968
 30
0.0
 11
2000.0
 21
-3714.9999999999968
 31
0.0
1001
ACDBBLOCKREPETAG
1070
     1
1071
        5
1005
12C67C
  0
LINE
  5
12C67D
  8
OBJECT
 10
1925.0
 20
-3578.9999999999968
 30
0.0
 11
1925.0
 21
-3702.9999999999968
 31
0.0
1001
ACDBBLOCKREPETAG
1070
     1
1071
        6
1005
12C67D
  0
LINE
  5
12C67E
  8
OBJECT
 10
1928.0
 20
-3515.9999999999968
 30
0.0
 11
1928.0
 21
-3578.9999999999968
 31
0.0
1001
ACDBBLOCKREPETAG
1070
     1
1071
        7
1005
12C67E
  0
LINE
  5
12C67F
  8
OBJECT
 10
2072.0
 20
-3578.9999999999968
 30
0.0
 11
2072.0
 21
-3515.9999999999968
 31
0.0
1001
ACDBBLOCKREPETAG
1070
     1
1071
        8
1005
12C67F
  0
LINE
  5
12C680
  8
OBJECT
 10
2074.999999999799
 20
-3702.9999999997758
 30
0.0
 11
2080.0
 21
-3702.9999999999968
 31
0.0
1001
ACDBBLOCKREPETAG
1070
     1
1071
        9
1005
12C680
  0
LINE
  5
12C681
  8
OBJECT
 10
2080.0
 20
-3578.9999999999968
 30
0.0
 11
1925.0
 21
-3578.9999999999968
 31
0.0
1001
ACDBBLOCKREPETAG
1070
     1
1071
       10
1005
12C681
  0
ARC
  5
12C682
  8
OBJECT
 10
2200.6872746716731
 20
-3694.408099410105
 30
0.0
 40
170.6350503965856
 50
137.44134459184301
 51
149.91949581335999
1001
ACDBBLOCKREPETAG
1070
     1
1071
       15
1005
12C682
  0
ARC
  5
12C683
  8
OBJECT
 10
2118.8455987040511
 20
-3650.8827266953622
 30
0.0
 40
78.072222021763665
 50
147.45515310377539
 51
164.663659977186
1001
ACDBBLOCKREPETAG
1070
     1
1071
       16
1005
12C683
  0
ARC
  5
12C684
  8
OBJECT
 10
2085.7554349608731
 20
-3640.9999999999968
 30
0.0
 40
43.55353926885617
 50
165.6884523008477
 51
194.3115476991523
1001
ACDBBLOCKREPETAG
1070
     1
1071
       17
1005
12C684
  0
ARC
  5
12C685
  8
OBJECT
 10
2200.6872746716731
 20
-3587.5919005898891
 30
0.0
 40
170.6350503965856
 50
210.08050418664001
 51
222.55865540815699
1001
ACDBBLOCKREPETAG
1070
     1
1071
       18
1005
12C685
  0
ARC
  5
12C686
  8
OBJECT
 10
2118.8455987040511
 20
-3631.1172733046319
 30
0.0
 40
78.072222021763665
 50
195.33634002281391
 51
212.54484689622461
1001
ACDBBLOCKREPETAG
1070
     1
1071
       19
1005
12C686
  0
POINT
  5
12C687
  8
DOTS
 10
2000.0
 20
-3699.9999999999968
 30
0.0
1001
ACDBBLOCKREPETAG
1070
     1
1071
      186
1005
12C687
  0
LINE
  5
12C688
  8
DIM
 10
2150.0
 20
-3341.9999999999959
 30
0.0
 11
2228.479620594459
 21
-3341.9999999999959
 31
0.0
  0
LINE
  5
12C689
  8
DIM
 10
2150.0
 20
-3247.9999999999959
 30
0.0
 11
2228.479620594459
 21
-3247.9999999999959
 31
0.0
  0
LINE
  5
12C68A
  8
DIM
 10
2218.479620594459
 20
-3321.9999999999959
 30
0.0
 11
2218.479620594459
 21
-3267.9999999999959
 31
0.0
  0
INSERT
  5
12C68B
  8
DIM
  2
_OPEN30
 10
2218.479620594459
 20
-3341.9999999999959
 30
0.0
 41
20.0
 42
20.0
 43
20.0
 50
270.0
  0
INSERT
  5
12C68C
  8
DIM
  2
_OPEN30
 10
2218.479620594459
 20
-3247.9999999999959
 30
0.0
 41
20.0
 42
20.0
 43
20.0
 50
90.0
  0
INSERT
  5
12C68D
  8
OBJECT
  2
*U66
 10
0.0
 20
0.0
 30
0.0
  0
LINE
  5
12C68E
  8
DIM
 10
2150.0
 20
-3699.9999999999968
 30
0.0
 11
2226.8409284037339
 21
-3699.9999999999968
 31
0.0
  0
LINE
  5
12C68F
  8
DIM
 10
2165.0
 20
-3655.9999999999968
 30
0.0
 11
2226.8409284037339
 21
-3655.9999999999968
 31
0.0
  0
LINE
  5
12C690
  8
DIM
 10
2216.840928403733
 20
-3719.9999999999968
 30
0.0
 11
2216.840928403733
 21
-3739.9999999999968
 31
0.0
  0
LINE
  5
12C691
  8
DIM
 10
2216.840928403733
 20
-3635.9999999999968
 30
0.0
 11
2216.840928403733
 21
-3615.9999999999968
 31
0.0
  0
LINE
  5
12C692
  8
DIM
 10
2216.840928403733
 20
-3699.9999999999968
 30
0.0
 11
2216.840928403733
 21
-3655.9999999999968
 31
0.0
  0
INSERT
  5
12C693
  8
DIM
  2
_OPEN30
 10
2216.840928403733
 20
-3699.9999999999968
 30
0.0
 41
20.0
 42
20.0
 43
20.0
 50
90.0
  0
INSERT
  5
12C694
  8
DIM
  2
_OPEN30
 10
2216.840928403733
 20
-3655.9999999999968
 30
0.0
 41
20.0
 42
20.0
 43
20.0
 50
270.0
  0
INSERT
  5
12C695
  8
OBJECT
  2
*U67
 10
0.0
 20
0.0
 30
0.0
  0
LINE
  5
12C696
  8
DIM
 10
2000.0
 20
-3189.9999999999959
 30
0.0
 11
2000.0
 21
-3157.2081219844449
 31
0.0
  0
LINE
  5
12C697
  8
DIM
 10
2140.0
 20
-3237.9999999999959
 30
0.0
 11
2140.0
 21
-3157.2081219844449
 31
0.0
  0
LINE
  5
12C698
  8
DIM
 10
2020.0
 20
-3167.208121984444
 30
0.0
 11
2120.0
 21
-3167.208121984444
 31
0.0
  0
INSERT
  5
12C699
  8
DIM
  2
_OPEN30
 10
2000.0
 20
-3167.208121984444
 30
0.0
 41
20.0
 42
20.0
 43
20.0
 50
180.0
  0
INSERT
  5
12C69A
  8
DIM
  2
_OPEN30
 10
2140.0
 20
-3167.208121984444
 30
0.0
 41
20.0
 42
20.0
 43
20.0
  0
INSERT
  5
12C69B
  8
OBJECT
  2
*U68
 10
0.0
 20
0.0
 30
0.0
  0
TEXT
  5
12C69C
  8
SLIM
 10
2631.0
 20
-3072.50001604727
 30
0.0
 40
40.0
  1
C寸法
 41
0.75
  0
TEXT
  5
12C69D
  8
SLIM
 10
2631.0
 20
-3002.50001604727
 30
0.0
 40
40.0
  1
B寸法
 41
0.75
  0
TEXT
  5
12C69E
  8
SLIM
 10
2630.2857142857142
 20
-2932.50001604727
 30
0.0
 40
40.0
  1
A寸法
 41
0.75
  0
TEXT
  5
12C69F
  8
SLIM
 10
3159.2857142857151
 20
-3072.50001604727
 30
0.0
 40
40.0
  1
150
 41
0.75
  0
TEXT
  5
12C6A0
  8
SLIM
 10
3029.2857142857151
 20
-3072.50001604727
 30
0.0
 40
40.0
  1
140
 41
0.75
  0
TEXT
  5
12C6A1
  8
SLIM
 10
2769.2857142857151
 20
-3072.50001604727
 30
0.0
 40
40.0
  1
140
 41
0.75
  0
TEXT
  5
12C6A2
  8
SLIM
 10
2899.2857142857151
 20
-3072.50001604727
 30
0.0
 40
40.0
  1
140
 41
0.75
  0
TEXT
  5
12C6A3
  8
SLIM
 10
3170.7142857142858
 20
-3002.50001604727
 30
0.0
 40
40.0
  1
72
 41
0.75
  0
TEXT
  5
12C6A4
  8
SLIM
 10
3041.4285714285711
 20
-3002.50001604727
 30
0.0
 40
40.0
  1
59
 41
0.75
  0
TEXT
  5
12C6A5
  8
SLIM
 10
2780.0
 20
-3002.50001604727
 30
0.0
 40
40.0
  1
44
 41
0.75
  0
TEXT
  5
12C6A6
  8
SLIM
 10
2910.7142857142858
 20
-3002.50001604727
 30
0.0
 40
40.0
  1
52
 41
0.75
  0
TEXT
  5
12C6A7
  8
SLIM
 10
2891.0
 20
-2807.50001604727
 30
0.0
 40
40.0
  1
横枝管サイズ
 41
0.75
  0
TEXT
  5
12C6A8
  8
SLIM
 10
3136.2857142857151
 20
-2862.50001604727
 30
0.0
 40
30.0
  1
100（4）
 41
0.75
  0
TEXT
  5
12C6A9
  8
SLIM
 10
3014.857142857144
 20
-2862.50001604727
 30
0.0
 40
30.0
  1
75（3）
 41
0.75
  0
TEXT
  5
12C6AA
  8
SLIM
 10
2884.8571428571431
 20
-2862.50001604727
 30
0.0
 40
30.0
  1
65（2）
 41
0.75
  0
TEXT
  5
12C6AB
  8
SLIM
 10
2757.0
 20
-2862.50001604727
 30
0.0
 40
30.0
  1
50（1）
 41
0.75
  0
TEXT
  5
12C6AC
  8
SLIM
 10
3159.2857142857151
 20
-2932.50001604727
 30
0.0
 40
40.0
  1
150
 41
0.75
  0
TEXT
  5
12C6AD
  8
SLIM
 10
3028.571428571428
 20
-2932.50001604727
 30
0.0
 40
40.0
  1
124
 41
0.75
  0
TEXT
  5
12C6AE
  8
SLIM
 10
2780.0
 20
-2932.50001604727
 30
0.0
 40
40.0
  1
94
 41
0.75
  0
TEXT
  5
12C6AF
  8
SLIM
 10
2902.1428571428569
 20
-2932.50001604727
 30
0.0
 40
40.0
  1
110
 41
0.75
  0
TEXT
  5
12C6B0
  8
SLIM
 10
1849.9999999999991
 20
-2832.5
 30
0.0
 40
75.0
  1
枝管サイズ毎の形状
 41
0.75
  0
LINE
  5
12C6B1
  8
OBJECT
 10
5150.0
 20
-3552.9999999999968
 30
0.0
 11
5143.0
 21
-3552.9999999999968
 31
0.0
1001
ACDBBLOCKREPETAG
1070
     1
1071
       64
1005
12C6B1
  0
LINE
  5
12C6B2
  8
OBJECT
 10
5143.0
 20
-3552.9999999999968
 30
0.0
 11
5143.0
 21
-3699.9999999999968
 31
0.0
1001
ACDBBLOCKREPETAG
1070
     1
1071
       65
1005
12C6B2
  0
LINE
  5
12C6B3
  8
OBJECT
 10
5101.5
 20
-3555.9999999999968
 30
0.0
 11
5101.5
 21
-3699.9999999999968
 31
0.0
1001
ACDBBLOCKREPETAG
1070
     1
1071
       66
1005
12C6B3
  0
LINE
  5
12C6B4
  8
OBJECT
 10
5090.0
 20
-3562.4999999999968
 30
0.0
 11
5090.0
 21
-3693.4999999999968
 31
0.0
1001
ACDBBLOCKREPETAG
1070
     1
1071
       67
1005
12C6B4
  0
LINE
  5
12C6B5
  8
OBJECT
 10
5086.0
 20
-3634.5000000000041
 30
0.0
 11
5086.0
 21
-3699.9999999999968
 31
0.0
1001
ACDBBLOCKREPETAG
1070
     1
1071
       68
1005
12C6B5
  0
LINE
  5
12C6B6
  8
OBJECT
 10
5150.0
 20
-3699.9999999999968
 30
0.0
 11
5150.0
 21
-3552.9999999999968
 31
0.0
1001
ACDBBLOCKREPETAG
1070
     1
1071
       69
1005
12C6B6
  0
LINE
  5
12C6B7
  8
CENTER
 10
5165.0
 20
-3627.9999999999968
 30
0.0
 11
5070.4144144144157
 21
-3627.9999999999968
 31
0.0
1001
ACDBBLOCKREPETAG
1070
     1
1071
       70
1005
12C6B7
  0
LINE
  5
12C6B8
  8
OBJECT
 10
5083.0000000000045
 20
-3702.9999999999968
 30
0.0
 11
5080.0
 21
-3702.9999999999968
 31
0.0
1001
ACDBBLOCKREPETAG
1070
     1
1071
       71
1005
12C6B8
  0
ARC
  5
12C6B9
  8
OBJECT
 10
5091.8815171830656
 20
-3701.4555591801432
 30
0.0
 40
6.0
 50
60.52411099686767
 51
170.6927439126847
1001
ACDBBLOCKREPETAG
1070
     1
1071
       72
1005
12C6B9
  0
ARC
  5
12C6BA
  8
OBJECT
 10
5083.0
 20
-3699.9999999999968
 30
0.0
 40
3.0
 50
270.0
 51
350.69274391268482
1001
ACDBBLOCKREPETAG
1070
     1
1071
       73
1005
12C6BA
  0
LINE
  5
12C6BB
  8
OBJECT
 10
5081.0
 20
-3578.9999999999968
 30
0.0
 11
5080.0
 21
-3578.9999999999968
 31
0.0
1001
ACDBBLOCKREPETAG
1070
     1
1071
       74
1005
12C6BB
  0
LINE
  5
12C6BC
  8
OBJECT
 10
5150.0
 20
-3699.9999999999968
 30
0.0
 11
5101.5
 21
-3699.9999999999968
 31
0.0
1001
ACDBBLOCKREPETAG
1070
     1
1071
       75
1005
12C6BC
  0
LINE
  5
12C6BD
  8
OBJECT
 10
5101.5
 20
-3555.9999999999968
 30
0.0
 11
5090.0
 21
-3562.4999999999968
 31
0.0
1001
ACDBBLOCKREPETAG
1070
     1
1071
       76
1005
12C6BD
  0
LINE
  5
12C6BE
  8
OBJECT
 10
5143.0
 20
-3555.9999999999968
 30
0.0
 11
5101.5
 21
-3555.9999999999968
 31
0.0
1001
ACDBBLOCKREPETAG
1070
     1
1071
       77
1005
12C6BE
  0
LINE
  5
12C6BF
  8
OBJECT
 10
5086.0
 20
-3634.5000000000041
 30
0.0
 11
5081.0
 21
-3578.9999999999968
 31
0.0
1001
ACDBBLOCKREPETAG
1070
     1
1071
       78
1005
12C6BF
  0
LINE
  5
12C6C0
  8
OBJECT
 10
5090.0
 20
-3562.4999999999968
 30
0.0
 11
5081.0
 21
-3578.9999999999968
 31
0.0
1001
ACDBBLOCKREPETAG
1070
     1
1071
       79
1005
12C6C0
  0
LINE
  5
12C6C1
  8
OBJECT
 10
5101.5
 20
-3699.9999999999968
 30
0.0
 11
5094.8338607230708
 21
-3696.232182147819
 31
0.0
1001
ACDBBLOCKREPETAG
1070
     1
1071
       80
1005
12C6C1
  0
LINE
  5
12C6C2
  8
HIDDEN
 10
5098.0
 20
-3684.9999999999968
 30
0.0
 11
5098.0
 21
-3570.9999999999968
 31
0.0
1001
ACDBBLOCKREPETAG
1070
     1
1071
       81
1005
12C6C2
  0
LINE
  5
12C6C3
  8
OBJECT
 10
5150.0
 20
-3219.9999999999959
 30
0.0
 11
5143.0
 21
-3219.9999999999959
 31
0.0
1001
ACDBBLOCKREPETAG
1070
     1
1071
       67
1005
12C6C3
  0
LINE
  5
12C6C4
  8
OBJECT
 10
5143.0
 20
-3219.9999999999959
 30
0.0
 11
5143.0
 21
-3369.9999999999959
 31
0.0
1001
ACDBBLOCKREPETAG
1070
     1
1071
       68
1005
12C6C4
  0
LINE
  5
12C6C5
  8
OBJECT
 10
5101.5
 20
-3222.9999999999959
 30
0.0
 11
5101.5
 21
-3366.9999999999959
 31
0.0
1001
ACDBBLOCKREPETAG
1070
     1
1071
       69
1005
12C6C5
  0
LINE
  5
12C6C6
  8
OBJECT
 10
5090.0
 20
-3229.4999999999959
 30
0.0
 11
5090.0
 21
-3360.4999999999959
 31
0.0
1001
ACDBBLOCKREPETAG
1070
     1
1071
       70
1005
12C6C6
  0
LINE
  5
12C6C7
  8
OBJECT
 10
5143.0
 20
-3369.9999999999959
 30
0.0
 11
5150.0
 21
-3369.9999999999959
 31
0.0
1001
ACDBBLOCKREPETAG
1070
     1
1071
       71
1005
12C6C7
  0
LINE
  5
12C6C8
  8
OBJECT
 10
5150.0
 20
-3369.9999999999959
 30
0.0
 11
5150.0
 21
-3219.9999999999959
 31
0.0
1001
ACDBBLOCKREPETAG
1070
     1
1071
       72
1005
12C6C8
  0
LINE
  5
12C6C9
  8
HIDDEN
 10
5098.0
 20
-3351.9999999999959
 30
0.0
 11
5098.0
 21
-3237.9999999999959
 31
0.0
1001
ACDBBLOCKREPETAG
1070
     1
1071
       73
1005
12C6C9
  0
LINE
  5
12C6CA
  8
CENTER
 10
5165.0
 20
-3294.9999999999959
 30
0.0
 11
5080.0
 21
-3294.9999999999959
 31
0.0
1001
ACDBBLOCKREPETAG
1070
     1
1071
       74
1005
12C6CA
  0
LINE
  5
12C6CB
  8
OBJECT
 10
5086.0
 20
-3356.9999999999959
 30
0.0
 11
5080.0
 21
-3356.9999999999959
 31
0.0
1001
ACDBBLOCKREPETAG
1070
     1
1071
       75
1005
12C6CB
  0
LINE
  5
12C6CC
  8
OBJECT
 10
5143.0
 20
-3366.9999999999959
 30
0.0
 11
5101.5
 21
-3366.9999999999959
 31
0.0
1001
ACDBBLOCKREPETAG
1070
     1
1071
       76
1005
12C6CC
  0
LINE
  5
12C6CD
  8
OBJECT
 10
5101.5
 20
-3366.9999999999959
 30
0.0
 11
5090.0
 21
-3360.4999999999959
 31
0.0
1001
ACDBBLOCKREPETAG
1070
     1
1071
       77
1005
12C6CD
  0
LINE
  5
12C6CE
  8
OBJECT
 10
5090.0
 20
-3360.4999999999959
 30
0.0
 11
5086.0
 21
-3356.9999999999959
 31
0.0
1001
ACDBBLOCKREPETAG
1070
     1
1071
       78
1005
12C6CE
  0
LINE
  5
12C6CF
  8
OBJECT
 10
5101.5
 20
-3222.9999999999959
 30
0.0
 11
5090.0
 21
-3229.4999999999959
 31
0.0
1001
ACDBBLOCKREPETAG
1070
     1
1071
       79
1005
12C6CF
  0
LINE
  5
12C6D0
  8
OBJECT
 10
5090.0
 20
-3229.4999999999959
 30
0.0
 11
5086.0
 21
-3232.9999999999959
 31
0.0
1001
ACDBBLOCKREPETAG
1070
     1
1071
       80
1005
12C6D0
  0
ARC
  5
12C6D1
  8
OBJECT
 10
5467.9000000000005
 20
-3294.9999999999959
 30
0.0
 40
386.89999999999998
 50
170.77870136260421
 51
189.22129863739571
1001
ACDBBLOCKREPETAG
1070
     1
1071
       81
1005
12C6D1
  0
LINE
  5
12C6D2
  8
OBJECT
 10
5086.0
 20
-3232.9999999999959
 30
0.0
 11
5080.0
 21
-3232.9999999999959
 31
0.0
1001
ACDBBLOCKREPETAG
1070
     1
1071
       82
1005
12C6D2
  0
LINE
  5
12C6D3
  8
OBJECT
 10
5143.0
 20
-3222.9999999999959
 30
0.0
 11
5101.5
 21
-3222.9999999999959
 31
0.0
1001
ACDBBLOCKREPETAG
1070
     1
1071
       83
1005
12C6D3
  0
TEXT
  5
12C6D4
  8
SLIM
 10
4884.25
 20
-3817.4999999999959
 30
0.0
 40
35.0
  1
通常枝100（4）
 41
0.75
  0
LINE
  5
12C6D5
  8
CENTER
 10
4477.0
 20
-3640.9999999999968
 30
0.0
 11
4323.0
 21
-3640.9999999999968
 31
0.0
1001
ACDBBLOCKREPETAG
1070
     1
1071
       17
1005
12C6D5
  0
CIRCLE
  5
12C6D6
  8
OBJECT
 10
4400.0
 20
-3640.9999999999968
 30
0.0
 40
41.5
1001
ACDBBLOCKREPETAG
1070
     1
1071
       19
1005
12C6D6
  0
CIRCLE
  5
12C6D7
  8
OBJECT
 10
4400.0
 20
-3640.9999999999968
 30
0.0
 40
54.0
1001
ACDBBLOCKREPETAG
1070
     1
1071
       20
1005
12C6D7
  0
ARC
  5
12C6D8
  8
OBJECT
 10
4400.0
 20
-3640.9999999999968
 30
0.0
 40
62.0
 50
287.89655112921122
 51
252.1034488707887
1001
ACDBBLOCKREPETAG
1070
     1
1071
       21
1005
12C6D8
  0
LINE
  5
12C6D9
  8
OBJECT
 10
4380.947441116743
 20
-3699.9999999999968
 30
0.0
 11
4419.052558883257
 21
-3699.9999999999968
 31
0.0
1001
ACDBBLOCKREPETAG
1070
     1
1071
       22
1005
12C6D9
  0
LINE
  5
12C6DA
  8
OBJECT
 10
4133.0
 20
-3578.9999999999968
 30
0.0
 11
4140.0
 21
-3578.9999999999968
 31
0.0
1001
ACDBBLOCKREPETAG
1070
     1
1071
       45
1005
12C6DA
  0
LINE
  5
12C6DB
  8
OBJECT
 10
4140.0
 20
-3578.9999999999968
 30
0.0
 11
4140.0
 21
-3699.9999999999968
 31
0.0
1001
ACDBBLOCKREPETAG
1070
     1
1071
       46
1005
12C6DB
  0
LINE
  5
12C6DC
  8
OBJECT
 10
4133.0
 20
-3699.9999999999968
 30
0.0
 11
4133.0
 21
-3578.9999999999968
 31
0.0
1001
ACDBBLOCKREPETAG
1070
     1
1071
       47
1005
12C6DC
  0
LINE
  5
12C6DD
  8
CENTER
 10
4155.0
 20
-3640.9999999999968
 30
0.0
 11
4071.0
 21
-3640.9999999999968
 31
0.0
1001
ACDBBLOCKREPETAG
1070
     1
1071
       48
1005
12C6DD
  0
LINE
  5
12C6DE
  8
OBJECT
 10
4133.0
 20
-3581.9999999999968
 30
0.0
 11
4097.0
 21
-3581.9999999999968
 31
0.0
1001
ACDBBLOCKREPETAG
1070
     1
1071
       49
1005
12C6DE
  0
LINE
  5
12C6DF
  8
OBJECT
 10
4097.0
 20
-3581.9999999999968
 30
0.0
 11
4097.0
 21
-3699.9999999999968
 31
0.0
1001
ACDBBLOCKREPETAG
1070
     1
1071
       50
1005
12C6DF
  0
LINE
  5
12C6E0
  8
OBJECT
 10
4097.0
 20
-3699.9999999999968
 30
0.0
 11
4140.0
 21
-3699.9999999999968
 31
0.0
1001
ACDBBLOCKREPETAG
1070
     1
1071
       51
1005
12C6E0
  0
LINE
  5
12C6E1
  8
OBJECT
 10
4093.0
 20
-3586.4999999999968
 30
0.0
 11
4086.0
 21
-3586.4999999999968
 31
0.0
1001
ACDBBLOCKREPETAG
1070
     1
1071
       52
1005
12C6E1
  0
LINE
  5
12C6E2
  8
OBJECT
 10
4086.0
 20
-3695.4999999999968
 30
0.0
 11
4093.0
 21
-3695.4999999999968
 31
0.0
1001
ACDBBLOCKREPETAG
1070
     1
1071
       53
1005
12C6E2
  0
LINE
  5
12C6E3
  8
OBJECT
 10
4093.0
 20
-3695.4999999999968
 30
0.0
 11
4093.0
 21
-3586.4999999999968
 31
0.0
1001
ACDBBLOCKREPETAG
1070
     1
1071
       54
1005
12C6E3
  0
LINE
  5
12C6E4
  8
OBJECT
 10
4097.0
 20
-3581.9999999999968
 30
0.0
 11
4093.0
 21
-3586.4999999999968
 31
0.0
1001
ACDBBLOCKREPETAG
1070
     1
1071
       55
1005
12C6E4
  0
LINE
  5
12C6E5
  8
OBJECT
 10
4097.0
 20
-3699.9999999999968
 30
0.0
 11
4093.0
 21
-3695.4999999999968
 31
0.0
1001
ACDBBLOCKREPETAG
1070
     1
1071
       56
1005
12C6E5
  0
LINE
  5
12C6E6
  8
OBJECT
 10
4083.0
 20
-3578.9999999999968
 30
0.0
 11
4080.0
 21
-3578.9999999999968
 31
0.0
1001
ACDBBLOCKREPETAG
1070
     1
1071
       57
1005
12C6E6
  0
ARC
  5
12C6E7
  8
OBJECT
 10
4083.0
 20
-3581.9999999999968
 30
0.0
 40
3.0
 50
0.0
 51
90.0
1001
ACDBBLOCKREPETAG
1070
     1
1071
       58
1005
12C6E7
  0
LINE
  5
12C6E8
  8
OBJECT
 10
4080.0
 20
-3702.9999999999968
 30
0.0
 11
4083.0
 21
-3702.9999999999968
 31
0.0
1001
ACDBBLOCKREPETAG
1070
     1
1071
       59
1005
12C6E8
  0
ARC
  5
12C6E9
  8
OBJECT
 10
4083.0
 20
-3699.9999999999968
 30
0.0
 40
3.0
 50
270.0
 51
0.0
1001
ACDBBLOCKREPETAG
1070
     1
1071
       60
1005
12C6E9
  0
LINE
  5
12C6EA
  8
OBJECT
 10
4086.0
 20
-3699.9999999999968
 30
0.0
 11
4086.0
 21
-3581.9999999999968
 31
0.0
1001
ACDBBLOCKREPETAG
1070
     1
1071
       61
1005
12C6EA
  0
LINE
  5
12C6EB
  8
HIDDEN
 10
4088.0
 20
-3596.4999999999968
 30
0.0
 11
4088.0
 21
-3685.4999999999968
 31
0.0
1001
ACDBBLOCKREPETAG
1070
     1
1071
       63
1005
12C6EB
  0
LINE
  5
12C6EC
  8
OBJECT
 10
4133.0
 20
-3232.9999999999959
 30
0.0
 11
4140.0
 21
-3232.9999999999959
 31
0.0
1001
ACDBBLOCKREPETAG
1070
     1
1071
       47
1005
12C6EC
  0
LINE
  5
12C6ED
  8
OBJECT
 10
4140.0
 20
-3232.9999999999959
 30
0.0
 11
4140.0
 21
-3356.9999999999959
 31
0.0
1001
ACDBBLOCKREPETAG
1070
     1
1071
       48
1005
12C6ED
  0
LINE
  5
12C6EE
  8
OBJECT
 10
4140.0
 20
-3356.9999999999959
 30
0.0
 11
4133.0
 21
-3356.9999999999959
 31
0.0
1001
ACDBBLOCKREPETAG
1070
     1
1071
       49
1005
12C6EE
  0
LINE
  5
12C6EF
  8
OBJECT
 10
4133.0
 20
-3356.9999999999959
 30
0.0
 11
4133.0
 21
-3232.9999999999959
 31
0.0
1001
ACDBBLOCKREPETAG
1070
     1
1071
       50
1005
12C6EF
  0
LINE
  5
12C6F0
  8
CENTER
 10
4155.0
 20
-3294.9999999999959
 30
0.0
 11
4080.0
 21
-3294.9999999999959
 31
0.0
1001
ACDBBLOCKREPETAG
1070
     1
1071
       51
1005
12C6F0
  0
LINE
  5
12C6F1
  8
OBJECT
 10
4133.0
 20
-3235.9999999999959
 30
0.0
 11
4097.0
 21
-3235.9999999999959
 31
0.0
1001
ACDBBLOCKREPETAG
1070
     1
1071
       52
1005
12C6F1
  0
LINE
  5
12C6F2
  8
OBJECT
 10
4097.0
 20
-3235.9999999999959
 30
0.0
 11
4097.0
 21
-3353.9999999999959
 31
0.0
1001
ACDBBLOCKREPETAG
1070
     1
1071
       53
1005
12C6F2
  0
LINE
  5
12C6F3
  8
OBJECT
 10
4097.0
 20
-3353.9999999999959
 30
0.0
 11
4133.0
 21
-3353.9999999999959
 31
0.0
1001
ACDBBLOCKREPETAG
1070
     1
1071
       54
1005
12C6F3
  0
LINE
  5
12C6F4
  8
OBJECT
 10
4093.0
 20
-3240.4999999999959
 30
0.0
 11
4086.0
 21
-3240.4999999999959
 31
0.0
1001
ACDBBLOCKREPETAG
1070
     1
1071
       55
1005
12C6F4
  0
LINE
  5
12C6F5
  8
OBJECT
 10
4086.0
 20
-3349.4999999999959
 30
0.0
 11
4093.0
 21
-3349.4999999999959
 31
0.0
1001
ACDBBLOCKREPETAG
1070
     1
1071
       56
1005
12C6F5
  0
LINE
  5
12C6F6
  8
OBJECT
 10
4093.0
 20
-3349.4999999999959
 30
0.0
 11
4093.0
 21
-3240.4999999999959
 31
0.0
1001
ACDBBLOCKREPETAG
1070
     1
1071
       57
1005
12C6F6
  0
LINE
  5
12C6F7
  8
OBJECT
 10
4097.0
 20
-3235.9999999999959
 30
0.0
 11
4093.0
 21
-3240.4999999999959
 31
0.0
1001
ACDBBLOCKREPETAG
1070
     1
1071
       58
1005
12C6F7
  0
LINE
  5
12C6F8
  8
OBJECT
 10
4097.0
 20
-3353.9999999999959
 30
0.0
 11
4093.0
 21
-3349.4999999999959
 31
0.0
1001
ACDBBLOCKREPETAG
1070
     1
1071
       59
1005
12C6F8
  0
LINE
  5
12C6F9
  8
OBJECT
 10
4083.0
 20
-3232.9999999999959
 30
0.0
 11
4080.0
 21
-3232.9999999999959
 31
0.0
1001
ACDBBLOCKREPETAG
1070
     1
1071
       60
1005
12C6F9
  0
ARC
  5
12C6FA
  8
OBJECT
 10
4083.0
 20
-3235.9999999999959
 30
0.0
 40
3.0
 50
0.0
 51
90.0
1001
ACDBBLOCKREPETAG
1070
     1
1071
       61
1005
12C6FA
  0
LINE
  5
12C6FB
  8
OBJECT
 10
4080.0
 20
-3356.9999999999959
 30
0.0
 11
4083.0
 21
-3356.9999999999959
 31
0.0
1001
ACDBBLOCKREPETAG
1070
     1
1071
       62
1005
12C6FB
  0
ARC
  5
12C6FC
  8
OBJECT
 10
4083.0
 20
-3353.9999999999959
 30
0.0
 40
3.0
 50
270.0
 51
0.0
1001
ACDBBLOCKREPETAG
1070
     1
1071
       63
1005
12C6FC
  0
LINE
  5
12C6FD
  8
OBJECT
 10
4086.0
 20
-3353.9999999999959
 30
0.0
 11
4086.0
 21
-3235.9999999999959
 31
0.0
1001
ACDBBLOCKREPETAG
1070
     1
1071
       64
1005
12C6FD
  0
LINE
  5
12C6FE
  8
HIDDEN
 10
4088.0
 20
-3250.4999999999959
 30
0.0
 11
4088.0
 21
-3339.4999999999959
 31
0.0
1001
ACDBBLOCKREPETAG
1070
     1
1071
       65
1005
12C6FE
  0
TEXT
  5
12C6FF
  8
SLIM
 10
3894.25
 20
-3817.4999999999959
 30
0.0
 40
35.0
  1
通常枝75（3）
 41
0.75
  0
CIRCLE
  5
12C700
  8
OBJECT
 10
3400.0
 20
-3647.9999999999968
 30
0.0
 40
35.5
1001
ACDBBLOCKREPETAG
1070
     1
1071
       10
1005
12C700
  0
CIRCLE
  5
12C701
  8
OBJECT
 10
3400.0
 20
-3640.9999999999968
 30
0.0
 40
62.0
1001
ACDBBLOCKREPETAG
1070
     1
1071
       11
1005
12C701
  0
LINE
  5
12C702
  8
CENTER
 10
3330.0
 20
-3647.9999999999968
 30
0.0
 11
3470.0
 21
-3647.9999999999968
 31
0.0
1001
ACDBBLOCKREPETAG
1070
     1
1071
       12
1005
12C702
  0
CIRCLE
  5
12C703
  8
OBJECT
 10
3400.0
 20
-3647.9999999999968
 30
0.0
 40
47.0
1001
ACDBBLOCKREPETAG
1070
     1
1071
       14
1005
12C703
  0
ARC
  5
12C704
  8
OBJECT
 10
3400.0
 20
-3647.9999999999968
 30
0.0
 40
55.0
 50
289.01126526011359
 51
250.98873473988641
1001
ACDBBLOCKREPETAG
1070
     1
1071
       15
1005
12C704
  0
LINE
  5
12C705
  8
OBJECT
 10
3382.0835271328328
 20
-3699.9999999999968
 30
0.0
 11
3417.9164728671681
 21
-3699.9999999999968
 31
0.0
1001
ACDBBLOCKREPETAG
1070
     1
1071
       16
1005
12C705
  0
LINE
  5
12C706
  8
OBJECT
 10
3133.0
 20
-3592.9999999999968
 30
0.0
 11
3140.0
 21
-3592.9999999999968
 31
0.0
1001
ACDBBLOCKREPETAG
1070
     1
1071
       26
1005
12C706
  0
LINE
  5
12C707
  8
OBJECT
 10
3140.0
 20
-3592.9999999999968
 30
0.0
 11
3140.0
 21
-3699.9999999999968
 31
0.0
1001
ACDBBLOCKREPETAG
1070
     1
1071
       27
1005
12C707
  0
LINE
  5
12C708
  8
OBJECT
 10
3133.0
 20
-3699.9999999999968
 30
0.0
 11
3133.0
 21
-3592.9999999999968
 31
0.0
1001
ACDBBLOCKREPETAG
1070
     1
1071
       28
1005
12C708
  0
LINE
  5
12C709
  8
CENTER
 10
3155.0
 20
-3647.9999999999968
 30
0.0
 11
3071.0
 21
-3647.9999999999968
 31
0.0
1001
ACDBBLOCKREPETAG
1070
     1
1071
       29
1005
12C709
  0
LINE
  5
12C70A
  8
OBJECT
 10
3133.0
 20
-3595.9999999999968
 30
0.0
 11
3097.0
 21
-3595.9999999999968
 31
0.0
1001
ACDBBLOCKREPETAG
1070
     1
1071
       30
1005
12C70A
  0
LINE
  5
12C70B
  8
OBJECT
 10
3097.0
 20
-3595.9999999999968
 30
0.0
 11
3097.0
 21
-3699.9999999999968
 31
0.0
1001
ACDBBLOCKREPETAG
1070
     1
1071
       31
1005
12C70B
  0
LINE
  5
12C70C
  8
OBJECT
 10
3097.0
 20
-3699.9999999999968
 30
0.0
 11
3140.0
 21
-3699.9999999999968
 31
0.0
1001
ACDBBLOCKREPETAG
1070
     1
1071
       32
1005
12C70C
  0
LINE
  5
12C70D
  8
OBJECT
 10
3093.0
 20
-3600.4999999999968
 30
0.0
 11
3086.0
 21
-3600.4999999999968
 31
0.0
1001
ACDBBLOCKREPETAG
1070
     1
1071
       33
1005
12C70D
  0
LINE
  5
12C70E
  8
OBJECT
 10
3086.0
 20
-3695.4999999999968
 30
0.0
 11
3093.0
 21
-3695.4999999999968
 31
0.0
1001
ACDBBLOCKREPETAG
1070
     1
1071
       34
1005
12C70E
  0
LINE
  5
12C70F
  8
OBJECT
 10
3093.0
 20
-3695.4999999999968
 30
0.0
 11
3093.0
 21
-3600.4999999999968
 31
0.0
1001
ACDBBLOCKREPETAG
1070
     1
1071
       35
1005
12C70F
  0
LINE
  5
12C710
  8
OBJECT
 10
3097.0
 20
-3595.9999999999968
 30
0.0
 11
3093.0
 21
-3600.4999999999968
 31
0.0
1001
ACDBBLOCKREPETAG
1070
     1
1071
       36
1005
12C710
  0
LINE
  5
12C711
  8
OBJECT
 10
3097.0
 20
-3699.9999999999968
 30
0.0
 11
3093.0
 21
-3695.4999999999968
 31
0.0
1001
ACDBBLOCKREPETAG
1070
     1
1071
       37
1005
12C711
  0
LINE
  5
12C712
  8
OBJECT
 10
3083.0
 20
-3578.9999999999968
 30
0.0
 11
3080.0
 21
-3578.9999999999968
 31
0.0
1001
ACDBBLOCKREPETAG
1070
     1
1071
       38
1005
12C712
  0
ARC
  5
12C713
  8
OBJECT
 10
3083.0
 20
-3581.9999999999968
 30
0.0
 40
3.0
 50
0.0
 51
90.0
1001
ACDBBLOCKREPETAG
1070
     1
1071
       39
1005
12C713
  0
LINE
  5
12C714
  8
OBJECT
 10
3080.0
 20
-3702.9999999999968
 30
0.0
 11
3083.0
 21
-3702.9999999999968
 31
0.0
1001
ACDBBLOCKREPETAG
1070
     1
1071
       40
1005
12C714
  0
ARC
  5
12C715
  8
OBJECT
 10
3083.0
 20
-3699.9999999999968
 30
0.0
 40
3.0
 50
270.0
 51
0.0
1001
ACDBBLOCKREPETAG
1070
     1
1071
       41
1005
12C715
  0
LINE
  5
12C716
  8
OBJECT
 10
3086.0
 20
-3699.9999999999968
 30
0.0
 11
3086.0
 21
-3581.9999999999968
 31
0.0
1001
ACDBBLOCKREPETAG
1070
     1
1071
       42
1005
12C716
  0
LINE
  5
12C717
  8
HIDDEN
 10
3088.0
 20
-3609.9999999999968
 30
0.0
 11
3088.0
 21
-3685.9999999999968
 31
0.0
1001
ACDBBLOCKREPETAG
1070
     1
1071
       43
1005
12C717
  0
LINE
  5
12C718
  8
OBJECT
 10
3133.0
 20
-3239.9999999999968
 30
0.0
 11
3140.0
 21
-3239.9999999999968
 31
0.0
1001
ACDBBLOCKREPETAG
1070
     1
1071
       27
1005
12C718
  0
LINE
  5
12C719
  8
OBJECT
 10
3140.0
 20
-3239.9999999999968
 30
0.0
 11
3140.0
 21
-3349.9999999999959
 31
0.0
1001
ACDBBLOCKREPETAG
1070
     1
1071
       28
1005
12C719
  0
LINE
  5
12C71A
  8
OBJECT
 10
3140.0
 20
-3349.9999999999959
 30
0.0
 11
3133.0
 21
-3349.9999999999959
 31
0.0
1001
ACDBBLOCKREPETAG
1070
     1
1071
       29
1005
12C71A
  0
LINE
  5
12C71B
  8
OBJECT
 10
3133.0
 20
-3349.9999999999959
 30
0.0
 11
3133.0
 21
-3239.9999999999968
 31
0.0
1001
ACDBBLOCKREPETAG
1070
     1
1071
       30
1005
12C71B
  0
LINE
  5
12C71C
  8
CENTER
 10
3155.0
 20
-3294.9999999999959
 30
0.0
 11
3080.0
 21
-3294.9999999999959
 31
0.0
1001
ACDBBLOCKREPETAG
1070
     1
1071
       31
1005
12C71C
  0
LINE
  5
12C71D
  8
OBJECT
 10
3133.0
 20
-3242.9999999999959
 30
0.0
 11
3097.0
 21
-3242.9999999999959
 31
0.0
1001
ACDBBLOCKREPETAG
1070
     1
1071
       32
1005
12C71D
  0
LINE
  5
12C71E
  8
OBJECT
 10
3097.0
 20
-3242.9999999999959
 30
0.0
 11
3097.0
 21
-3346.9999999999959
 31
0.0
1001
ACDBBLOCKREPETAG
1070
     1
1071
       33
1005
12C71E
  0
LINE
  5
12C71F
  8
OBJECT
 10
3097.0
 20
-3346.9999999999959
 30
0.0
 11
3133.0
 21
-3346.9999999999959
 31
0.0
1001
ACDBBLOCKREPETAG
1070
     1
1071
       34
1005
12C71F
  0
LINE
  5
12C720
  8
OBJECT
 10
3093.0
 20
-3247.4999999999959
 30
0.0
 11
3086.0
 21
-3247.4999999999959
 31
0.0
1001
ACDBBLOCKREPETAG
1070
     1
1071
       35
1005
12C720
  0
LINE
  5
12C721
  8
OBJECT
 10
3086.0
 20
-3342.4999999999959
 30
0.0
 11
3093.0
 21
-3342.4999999999959
 31
0.0
1001
ACDBBLOCKREPETAG
1070
     1
1071
       36
1005
12C721
  0
LINE
  5
12C722
  8
OBJECT
 10
3093.0
 20
-3342.4999999999959
 30
0.0
 11
3093.0
 21
-3247.4999999999959
 31
0.0
1001
ACDBBLOCKREPETAG
1070
     1
1071
       37
1005
12C722
  0
LINE
  5
12C723
  8
OBJECT
 10
3097.0
 20
-3242.9999999999959
 30
0.0
 11
3093.0
 21
-3247.4999999999959
 31
0.0
1001
ACDBBLOCKREPETAG
1070
     1
1071
       38
1005
12C723
  0
LINE
  5
12C724
  8
OBJECT
 10
3097.0
 20
-3346.9999999999959
 30
0.0
 11
3093.0
 21
-3342.4999999999959
 31
0.0
1001
ACDBBLOCKREPETAG
1070
     1
1071
       39
1005
12C724
  0
LINE
  5
12C725
  8
OBJECT
 10
3083.0
 20
-3232.9999999999959
 30
0.0
 11
3080.0
 21
-3232.9999999999959
 31
0.0
1001
ACDBBLOCKREPETAG
1070
     1
1071
       40
1005
12C725
  0
ARC
  5
12C726
  8
OBJECT
 10
3083.0
 20
-3235.9999999999959
 30
0.0
 40
3.0
 50
0.0
 51
90.0
1001
ACDBBLOCKREPETAG
1070
     1
1071
       41
1005
12C726
  0
LINE
  5
12C727
  8
OBJECT
 10
3080.0
 20
-3356.9999999999959
 30
0.0
 11
3083.0
 21
-3356.9999999999959
 31
0.0
1001
ACDBBLOCKREPETAG
1070
     1
1071
       42
1005
12C727
  0
ARC
  5
12C728
  8
OBJECT
 10
3083.0
 20
-3353.9999999999959
 30
0.0
 40
3.0
 50
270.0
 51
0.0
1001
ACDBBLOCKREPETAG
1070
     1
1071
       43
1005
12C728
  0
LINE
  5
12C729
  8
OBJECT
 10
3086.0
 20
-3353.9999999999959
 30
0.0
 11
3086.0
 21
-3235.9999999999959
 31
0.0
1001
ACDBBLOCKREPETAG
1070
     1
1071
       44
1005
12C729
  0
LINE
  5
12C72A
  8
HIDDEN
 10
3088.0
 20
-3256.9999999999959
 30
0.0
 11
3088.0
 21
-3332.9999999999968
 31
0.0
1001
ACDBBLOCKREPETAG
1070
     1
1071
       45
1005
12C72A
  0
TEXT
  5
12C72B
  8
SLIM
 10
2894.25
 20
-3817.4999999999959
 30
0.0
 40
35.0
  1
通常枝65（2）
 41
0.75
  0
CIRCLE
  5
12C72C
  8
OBJECT
 10
2400.0
 20
-3640.9999999999968
 30
0.0
 40
62.0
1001
ACDBBLOCKREPETAG
1070
     1
1071
        3
1005
12C72C
  0
LINE
  5
12C72D
  8
CENTER
 10
2338.0
 20
-3655.9999999999968
 30
0.0
 11
2462.0
 21
-3655.9999999999968
 31
0.0
1001
ACDBBLOCKREPETAG
1070
     1
1071
        4
1005
12C72D
  0
CIRCLE
  5
12C72E
  8
OBJECT
 10
2400.0
 20
-3655.9999999999968
 30
0.0
 40
28.0
1001
ACDBBLOCKREPETAG
1070
     1
1071
        6
1005
12C72E
  0
CIRCLE
  5
12C72F
  8
OBJECT
 10
2400.0
 20
-3655.9999999999968
 30
0.0
 40
39.0
1001
ACDBBLOCKREPETAG
1070
     1
1071
        7
1005
12C72F
  0
ARC
  5
12C730
  8
OBJECT
 10
2400.0
 20
-3655.9999999999968
 30
0.0
 40
47.0
 50
290.58196921144412
 51
249.41803078855591
1001
ACDBBLOCKREPETAG
1070
     1
1071
        8
1005
12C730
  0
LINE
  5
12C731
  8
OBJECT
 10
2383.4772883581431
 20
-3699.9999999999968
 30
0.0
 11
2416.5227116418569
 21
-3699.9999999999968
 31
0.0
1001
ACDBBLOCKREPETAG
1070
     1
1071
        9
1005
12C731
  0
LINE
  5
12C732
  8
OBJECT
 10
2133.0
 20
-3608.9999999999968
 30
0.0
 11
2140.0
 21
-3608.9999999999968
 31
0.0
1001
ACDBBLOCKREPETAG
1070
     1
1071
        7
1005
12C732
  0
LINE
  5
12C733
  8
OBJECT
 10
2140.0
 20
-3608.9999999999968
 30
0.0
 11
2140.0
 21
-3699.9999999999968
 31
0.0
1001
ACDBBLOCKREPETAG
1070
     1
1071
        8
1005
12C733
  0
LINE
  5
12C734
  8
OBJECT
 10
2133.0
 20
-3699.9999999999968
 30
0.0
 11
2133.0
 21
-3608.9999999999968
 31
0.0
1001
ACDBBLOCKREPETAG
1070
     1
1071
        9
1005
12C734
  0
LINE
  5
12C735
  8
CENTER
 10
2155.0
 20
-3655.9999999999968
 30
0.0
 11
2071.0
 21
-3655.9999999999968
 31
0.0
1001
ACDBBLOCKREPETAG
1070
     1
1071
       10
1005
12C735
  0
LINE
  5
12C736
  8
OBJECT
 10
2133.0
 20
-3611.9999999999968
 30
0.0
 11
2097.0
 21
-3611.9999999999968
 31
0.0
1001
ACDBBLOCKREPETAG
1070
     1
1071
       11
1005
12C736
  0
LINE
  5
12C737
  8
OBJECT
 10
2097.0
 20
-3611.9999999999968
 30
0.0
 11
2097.0
 21
-3699.9999999999968
 31
0.0
1001
ACDBBLOCKREPETAG
1070
     1
1071
       12
1005
12C737
  0
LINE
  5
12C738
  8
OBJECT
 10
2097.0
 20
-3699.9999999999968
 30
0.0
 11
2140.0
 21
-3699.9999999999968
 31
0.0
1001
ACDBBLOCKREPETAG
1070
     1
1071
       13
1005
12C738
  0
LINE
  5
12C739
  8
OBJECT
 10
2093.0
 20
-3616.4999999999968
 30
0.0
 11
2086.0
 21
-3616.4999999999968
 31
0.0
1001
ACDBBLOCKREPETAG
1070
     1
1071
       14
1005
12C739
  0
LINE
  5
12C73A
  8
OBJECT
 10
2086.0
 20
-3695.4999999999968
 30
0.0
 11
2093.0
 21
-3695.4999999999968
 31
0.0
1001
ACDBBLOCKREPETAG
1070
     1
1071
       15
1005
12C73A
  0
LINE
  5
12C73B
  8
OBJECT
 10
2093.0
 20
-3695.4999999999968
 30
0.0
 11
2093.0
 21
-3616.4999999999968
 31
0.0
1001
ACDBBLOCKREPETAG
1070
     1
1071
       16
1005
12C73B
  0
LINE
  5
12C73C
  8
OBJECT
 10
2097.0
 20
-3611.9999999999968
 30
0.0
 11
2093.0
 21
-3616.4999999999968
 31
0.0
1001
ACDBBLOCKREPETAG
1070
     1
1071
       17
1005
12C73C
  0
LINE
  5
12C73D
  8
OBJECT
 10
2097.0
 20
-3699.9999999999968
 30
0.0
 11
2093.0
 21
-3695.4999999999968
 31
0.0
1001
ACDBBLOCKREPETAG
1070
     1
1071
       18
1005
12C73D
  0
LINE
  5
12C73E
  8
OBJECT
 10
2083.0
 20
-3578.9999999999968
 30
0.0
 11
2080.0
 21
-3578.9999999999968
 31
0.0
1001
ACDBBLOCKREPETAG
1070
     1
1071
       19
1005
12C73E
  0
ARC
  5
12C73F
  8
OBJECT
 10
2083.0
 20
-3581.9999999999968
 30
0.0
 40
3.0
 50
0.0
 51
90.0
1001
ACDBBLOCKREPETAG
1070
     1
1071
       20
1005
12C73F
  0
LINE
  5
12C740
  8
OBJECT
 10
2080.0
 20
-3702.9999999999968
 30
0.0
 11
2083.0
 21
-3702.9999999999968
 31
0.0
1001
ACDBBLOCKREPETAG
1070
     1
1071
       21
1005
12C740
  0
ARC
  5
12C741
  8
OBJECT
 10
2083.0
 20
-3699.9999999999968
 30
0.0
 40
3.0
 50
270.0
 51
0.0
1001
ACDBBLOCKREPETAG
1070
     1
1071
       22
1005
12C741
  0
LINE
  5
12C742
  8
OBJECT
 10
2086.0
 20
-3699.9999999999968
 30
0.0
 11
2086.0
 21
-3581.9999999999968
 31
0.0
1001
ACDBBLOCKREPETAG
1070
     1
1071
       23
1005
12C742
  0
LINE
  5
12C743
  8
HIDDEN
 10
2088.0
 20
-3625.9999999999968
 30
0.0
 11
2088.0
 21
-3685.9999999999968
 31
0.0
1001
ACDBBLOCKREPETAG
1070
     1
1071
       24
1005
12C743
  0
LINE
  5
12C744
  8
OBJECT
 10
2133.0
 20
-3247.9999999999959
 30
0.0
 11
2140.0
 21
-3247.9999999999959
 31
0.0
1001
ACDBBLOCKREPETAG
1070
     1
1071
        7
1005
12C744
  0
LINE
  5
12C745
  8
OBJECT
 10
2140.0
 20
-3247.9999999999959
 30
0.0
 11
2140.0
 21
-3341.9999999999959
 31
0.0
1001
ACDBBLOCKREPETAG
1070
     1
1071
        8
1005
12C745
  0
LINE
  5
12C746
  8
OBJECT
 10
2140.0
 20
-3341.9999999999959
 30
0.0
 11
2133.0
 21
-3341.9999999999959
 31
0.0
1001
ACDBBLOCKREPETAG
1070
     1
1071
        9
1005
12C746
  0
LINE
  5
12C747
  8
OBJECT
 10
2133.0
 20
-3341.9999999999959
 30
0.0
 11
2133.0
 21
-3247.9999999999959
 31
0.0
1001
ACDBBLOCKREPETAG
1070
     1
1071
       10
1005
12C747
  0
LINE
  5
12C748
  8
CENTER
 10
2155.0
 20
-3294.9999999999959
 30
0.0
 11
2080.0
 21
-3294.9999999999959
 31
0.0
1001
ACDBBLOCKREPETAG
1070
     1
1071
       11
1005
12C748
  0
LINE
  5
12C749
  8
OBJECT
 10
2133.0
 20
-3250.9999999999959
 30
0.0
 11
2097.0
 21
-3250.9999999999959
 31
0.0
1001
ACDBBLOCKREPETAG
1070
     1
1071
       12
1005
12C749
  0
LINE
  5
12C74A
  8
OBJECT
 10
2097.0
 20
-3250.9999999999959
 30
0.0
 11
2097.0
 21
-3338.9999999999959
 31
0.0
1001
ACDBBLOCKREPETAG
1070
     1
1071
       13
1005
12C74A
  0
LINE
  5
12C74B
  8
OBJECT
 10
2097.0
 20
-3338.9999999999959
 30
0.0
 11
2133.0
 21
-3338.9999999999959
 31
0.0
1001
ACDBBLOCKREPETAG
1070
     1
1071
       14
1005
12C74B
  0
LINE
  5
12C74C
  8
OBJECT
 10
2093.0
 20
-3255.4999999999959
 30
0.0
 11
2086.0
 21
-3255.4999999999959
 31
0.0
1001
ACDBBLOCKREPETAG
1070
     1
1071
       15
1005
12C74C
  0
LINE
  5
12C74D
  8
OBJECT
 10
2086.0
 20
-3334.4999999999959
 30
0.0
 11
2093.0
 21
-3334.4999999999959
 31
0.0
1001
ACDBBLOCKREPETAG
1070
     1
1071
       16
1005
12C74D
  0
LINE
  5
12C74E
  8
OBJECT
 10
2093.0
 20
-3334.4999999999959
 30
0.0
 11
2093.0
 21
-3255.4999999999959
 31
0.0
1001
ACDBBLOCKREPETAG
1070
     1
1071
       17
1005
12C74E
  0
LINE
  5
12C74F
  8
OBJECT
 10
2097.0
 20
-3250.9999999999959
 30
0.0
 11
2093.0
 21
-3255.4999999999959
 31
0.0
1001
ACDBBLOCKREPETAG
1070
     1
1071
       18
1005
12C74F
  0
LINE
  5
12C750
  8
OBJECT
 10
2097.0
 20
-3338.9999999999959
 30
0.0
 11
2093.0
 21
-3334.4999999999959
 31
0.0
1001
ACDBBLOCKREPETAG
1070
     1
1071
       19
1005
12C750
  0
LINE
  5
12C751
  8
OBJECT
 10
2083.0
 20
-3232.9999999999959
 30
0.0
 11
2080.0
 21
-3232.9999999999959
 31
0.0
1001
ACDBBLOCKREPETAG
1070
     1
1071
       20
1005
12C751
  0
ARC
  5
12C752
  8
OBJECT
 10
2083.0
 20
-3235.9999999999959
 30
0.0
 40
3.0
 50
0.0
 51
90.0
1001
ACDBBLOCKREPETAG
1070
     1
1071
       21
1005
12C752
  0
LINE
  5
12C753
  8
OBJECT
 10
2080.0
 20
-3356.9999999999959
 30
0.0
 11
2083.0
 21
-3356.9999999999959
 31
0.0
1001
ACDBBLOCKREPETAG
1070
     1
1071
       22
1005
12C753
  0
ARC
  5
12C754
  8
OBJECT
 10
2083.0
 20
-3353.9999999999959
 30
0.0
 40
3.0
 50
270.0
 51
0.0
1001
ACDBBLOCKREPETAG
1070
     1
1071
       23
1005
12C754
  0
LINE
  5
12C755
  8
OBJECT
 10
2086.0
 20
-3353.9999999999959
 30
0.0
 11
2086.0
 21
-3235.9999999999959
 31
0.0
1001
ACDBBLOCKREPETAG
1070
     1
1071
       24
1005
12C755
  0
LINE
  5
12C756
  8
HIDDEN
 10
2088.0
 20
-3264.9999999999968
 30
0.0
 11
2088.0
 21
-3324.9999999999959
 31
0.0
1001
ACDBBLOCKREPETAG
1070
     1
1071
       25
1005
12C756
  0
TEXT
  5
12C757
  8
SLIM
 10
1896.75
 20
-3817.4999999999959
 30
0.0
 40
35.0
  1
通常枝50（1）
 41
0.75
  0
LINE
  5
12C758
  8
SLIM
 10
3914.9999999999941
 20
-759.47385309434696
 30
0.0
 11
3919.47385309434
 21
-754.99999999999955
 31
0.0
1001
ACDBBLOCKREPETAG
1070
     1
1071
        0
1005
0
1001
ACAD
1010
0.0
1020
0.0
1030
0.0
  0
LINE
  5
12C759
  8
SLIM
 10
3914.9999999999941
 20
-777.43436533648503
 30
0.0
 11
3937.434365336479
 21
-754.99999999999955
 31
0.0
1001
ACAD
1010
0.0
1020
0.0
1030
0.0
1001
ACDBBLOCKREPETAG
1070
     1
1071
       14
1005
12C759
  0
LINE
  5
12C75A
  8
SLIM
 10
3914.9999999999941
 20
-795.39487757862275
 30
0.0
 11
3955.394877578618
 21
-754.99999999999955
 31
0.0
1001
ACAD
1010
0.0
1020
0.0
1030
0.0
1001
ACDBBLOCKREPETAG
1070
     1
1071
       15
1005
12C75A
  0
LINE
  5
12C75B
  8
SLIM
 10
3914.9999999999941
 20
-813.35538982076082
 30
0.0
 11
3973.3553898207551
 21
-754.99999999999955
 31
0.0
1001
ACAD
1010
0.0
1020
0.0
1030
0.0
1001
ACDBBLOCKREPETAG
1070
     1
1071
       16
1005
12C75B
  0
LINE
  5
12C75C
  8
SLIM
 10
3914.999999999995
 20
-831.31590206289854
 30
0.0
 11
3991.3159020628941
 21
-754.99999999999955
 31
0.0
1001
ACAD
1010
0.0
1020
0.0
1030
0.0
1001
ACDBBLOCKREPETAG
1070
     1
1071
       17
1005
12C75C
  0
LINE
  5
12C75D
  8
SLIM
 10
3914.999999999995
 20
-849.2764143050365
 30
0.0
 11
4009.2764143050308
 21
-754.99999999999955
 31
0.0
1001
ACAD
1010
0.0
1020
0.0
1030
0.0
1001
ACDBBLOCKREPETAG
1070
     1
1071
       18
1005
12C75D
  0
LINE
  5
12C75E
  8
SLIM
 10
3914.999999999995
 20
-867.23692654717422
 30
0.0
 11
4027.2369265471689
 21
-754.99999999999955
 31
0.0
1001
ACAD
1010
0.0
1020
0.0
1030
0.0
1001
ACDBBLOCKREPETAG
1070
     1
1071
       19
1005
12C75E
  0
LINE
  5
12C75F
  8
SLIM
 10
3914.999999999995
 20
-885.1974387893124
 30
0.0
 11
4045.1974387893069
 21
-754.99999999999955
 31
0.0
1001
ACAD
1010
0.0
1020
0.0
1030
0.0
1001
ACDBBLOCKREPETAG
1070
     1
1071
       20
1005
12C75F
  0
LINE
  5
12C760
  8
SLIM
 10
3914.9999999999968
 20
-903.15795103145035
 30
0.0
 11
4063.157951031445
 21
-754.99999999999955
 31
0.0
1001
ACAD
1010
0.0
1020
0.0
1030
0.0
1001
ACDBBLOCKREPETAG
1070
     1
1071
       21
1005
12C760
  0
LINE
  5
12C761
  8
SLIM
 10
3915.1454972543161
 20
-920.97296601926894
 30
0.0
 11
4081.1184632735849
 21
-754.99999999999955
 31
0.0
1001
ACAD
1010
0.0
1020
0.0
1030
0.0
1001
ACDBBLOCKREPETAG
1070
     1
1071
       22
1005
12C761
  0
LINE
  5
12C762
  8
SLIM
 10
3917.104627495245
 20
-936.97434802047894
 30
0.0
 11
4085.0000000000068
 21
-769.07897551571591
 31
0.0
1001
ACAD
1010
0.0
1020
0.0
1030
0.0
1001
ACDBBLOCKREPETAG
1070
     1
1071
       23
1005
12C762
  0
LINE
  5
12C763
  8
SLIM
 10
3919.0637577361722
 20
-952.97573002168929
 30
0.0
 11
4085.0000000000068
 21
-787.03948775785443
 31
0.0
1001
ACAD
1010
0.0
1020
0.0
1030
0.0
1001
ACDBBLOCKREPETAG
1070
     1
1071
       24
1005
12C763
  0
LINE
  5
12C764
  8
SLIM
 10
3920.0
 20
-969.99999999999966
 30
0.0
 11
4085.0000000000068
 21
-804.99999999999341
 31
0.0
1001
ACAD
1010
0.0
1020
0.0
1030
0.0
1001
ACDBBLOCKREPETAG
1070
     1
1071
       25
1005
12C764
  0
LINE
  5
12C765
  8
SLIM
 10
3920.0
 20
-987.96051224213795
 30
0.0
 11
4085.0000000000059
 21
-822.96051224213215
 31
0.0
1001
ACAD
1010
0.0
1020
0.0
1030
0.0
1001
ACDBBLOCKREPETAG
1070
     1
1071
       26
1005
12C765
  0
LINE
  5
12C766
  8
SLIM
 10
3920.0
 20
-1005.921024484276
 30
0.0
 11
4085.0000000000059
 21
-840.92102448427045
 31
0.0
1001
ACAD
1010
0.0
1020
0.0
1030
0.0
1001
ACDBBLOCKREPETAG
1070
     1
1071
       27
1005
12C766
  0
LINE
  5
12C767
  8
SLIM
 10
3920.0
 20
-1023.881536726414
 30
0.0
 11
4085.000000000005
 21
-858.88153672640954
 31
0.0
1001
ACAD
1010
0.0
1020
0.0
1030
0.0
1001
ACDBBLOCKREPETAG
1070
     1
1071
       28
1005
12C767
  0
LINE
  5
12C768
  8
SLIM
 10
3920.0
 20
-1041.842048968552
 30
0.0
 11
4085.0000000000041
 21
-876.84204896854817
 31
0.0
1001
ACAD
1010
0.0
1020
0.0
1030
0.0
1001
ACDBBLOCKREPETAG
1070
     1
1071
       29
1005
12C768
  0
LINE
  5
12C769
  8
SLIM
 10
3920.0
 20
-1059.802561210691
 30
0.0
 11
4085.0000000000041
 21
-894.80256121068692
 31
0.0
1001
ACAD
1010
0.0
1020
0.0
1030
0.0
1001
ACDBBLOCKREPETAG
1070
     1
1071
       30
1005
12C769
  0
LINE
  5
12C76A
  8
SLIM
 10
3920.0
 20
-1077.7630734528291
 30
0.0
 11
4085.0000000000032
 21
-912.76307345282555
 31
0.0
1001
ACAD
1010
0.0
1020
0.0
1030
0.0
1001
ACDBBLOCKREPETAG
1070
     1
1071
       31
1005
12C76A
  0
LINE
  5
12C76B
  8
SLIM
 10
3930.0
 20
-1085.723585694966
 30
0.0
 11
3930.7235856949678
 21
-1084.9999999999991
 31
0.0
1001
ACAD
1010
0.0
1020
0.0
1030
0.0
1001
ACDBBLOCKREPETAG
1070
     1
1071
       32
1005
12C76B
  0
LINE
  5
12C76C
  8
SLIM
 10
3930.7235856949678
 20
-1084.9999999999991
 30
0.0
 11
4083.4738280308079
 21
-932.24975766415935
 31
0.0
1001
ACAD
1010
0.0
1020
0.0
1030
0.0
1001
ACDBBLOCKREPETAG
1070
     1
1071
       33
1005
12C76C
  0
LINE
  5
12C76D
  8
SLIM
 10
3930.0
 20
-1103.6840979371059
 30
0.0
 11
3948.6840979371068
 21
-1084.9999999999991
 31
0.0
1001
ACAD
1010
0.0
1020
0.0
1030
0.0
1001
ACDBBLOCKREPETAG
1070
     1
1071
       34
1005
12C76D
  0
LINE
  5
12C76E
  8
SLIM
 10
3948.6840979371068
 20
-1084.9999999999991
 30
0.0
 11
4080.9680345671368
 21
-952.71606336996854
 31
0.0
1001
ACAD
1010
0.0
1020
0.0
1030
0.0
1001
ACDBBLOCKREPETAG
1070
     1
1071
       35
1005
12C76E
  0
LINE
  5
12C76F
  8
SLIM
 10
3946.6446101792449
 20
-1104.9999999999991
 30
0.0
 11
3966.6446101792449
 21
-1084.9999999999991
 31
0.0
1001
ACAD
1010
0.0
1020
0.0
1030
0.0
1001
ACDBBLOCKREPETAG
1070
     1
1071
       36
1005
12C76F
  0
LINE
  5
12C770
  8
SLIM
 10
3966.6446101792449
 20
-1084.9999999999991
 30
0.0
 11
4080.0
 21
-971.64461017924452
 31
0.0
1001
ACAD
1010
0.0
1020
0.0
1030
0.0
1001
ACDBBLOCKREPETAG
1070
     1
1071
       37
1005
12C770
  0
LINE
  5
12C771
  8
SLIM
 10
3964.6051224213829
 20
-1104.9999999999991
 30
0.0
 11
3984.6051224213829
 21
-1084.9999999999991
 31
0.0
1001
ACAD
1010
0.0
1020
0.0
1030
0.0
1001
ACDBBLOCKREPETAG
1070
     1
1071
       38
1005
12C771
  0
LINE
  5
12C772
  8
SLIM
 10
3984.6051224213829
 20
-1084.9999999999991
 30
0.0
 11
4080.0
 21
-989.60512242138304
 31
0.0
1001
ACAD
1010
0.0
1020
0.0
1030
0.0
1001
ACDBBLOCKREPETAG
1070
     1
1071
       39
1005
12C772
  0
LINE
  5
12C773
  8
SLIM
 10
3982.565634663521
 20
-1104.9999999999991
 30
0.0
 11
4002.565634663521
 21
-1084.9999999999991
 31
0.0
1001
ACAD
1010
0.0
1020
0.0
1030
0.0
1001
ACDBBLOCKREPETAG
1070
     1
1071
       40
1005
12C773
  0
LINE
  5
12C774
  8
SLIM
 10
4002.565634663521
 20
-1084.9999999999991
 30
0.0
 11
4079.9999999999991
 21
-1007.565634663521
 31
0.0
1001
ACAD
1010
0.0
1020
0.0
1030
0.0
1001
ACDBBLOCKREPETAG
1070
     1
1071
       41
1005
12C774
  0
LINE
  5
12C775
  8
SLIM
 10
4000.5261469056582
 20
-1104.9999999999991
 30
0.0
 11
4020.52614690566
 21
-1084.9999999999991
 31
0.0
1001
ACAD
1010
0.0
1020
0.0
1030
0.0
1001
ACDBBLOCKREPETAG
1070
     1
1071
       42
1005
12C775
  0
LINE
  5
12C776
  8
SLIM
 10
4020.52614690566
 20
-1084.9999999999991
 30
0.0
 11
4079.9999999999991
 21
-1025.52614690566
 31
0.0
1001
ACAD
1010
0.0
1020
0.0
1030
0.0
1001
ACDBBLOCKREPETAG
1070
     1
1071
       43
1005
12C776
  0
LINE
  5
12C777
  8
SLIM
 10
4018.486659147798
 20
-1104.9999999999991
 30
0.0
 11
4038.486659147798
 21
-1084.9999999999991
 31
0.0
1001
ACAD
1010
0.0
1020
0.0
1030
0.0
1001
ACDBBLOCKREPETAG
1070
     1
1071
       44
1005
12C777
  0
LINE
  5
12C778
  8
SLIM
 10
4038.486659147798
 20
-1084.9999999999991
 30
0.0
 11
4079.9999999999991
 21
-1043.4866591477989
 31
0.0
1001
ACAD
1010
0.0
1020
0.0
1030
0.0
1001
ACDBBLOCKREPETAG
1070
     1
1071
       45
1005
12C778
  0
LINE
  5
12C779
  8
SLIM
 10
4036.4471713899361
 20
-1104.9999999999991
 30
0.0
 11
4056.4471713899361
 21
-1084.9999999999991
 31
0.0
1001
ACAD
1010
0.0
1020
0.0
1030
0.0
1001
ACDBBLOCKREPETAG
1070
     1
1071
       46
1005
12C779
  0
LINE
  5
12C77A
  8
SLIM
 10
4056.4471713899361
 20
-1084.9999999999991
 30
0.0
 11
4079.9999999999991
 21
-1061.447171389937
 31
0.0
1001
ACAD
1010
0.0
1020
0.0
1030
0.0
1001
ACDBBLOCKREPETAG
1070
     1
1071
       47
1005
12C77A
  0
LINE
  5
12C77B
  8
SLIM
 10
4054.4076836320728
 20
-1104.9999999999991
 30
0.0
 11
4070.0
 21
-1089.4076836320739
 31
0.0
1001
ACAD
1010
0.0
1020
0.0
1030
0.0
1001
ACDBBLOCKREPETAG
1070
     1
1071
       48
1005
12C77B
  0
LINE
  5
12C77C
  8
SLIM
 10
4074.4076836320728
 20
-1084.9999999999991
 30
0.0
 11
4079.9999999999991
 21
-1079.407683632076
 31
0.0
1001
ACAD
1010
0.0
1020
0.0
1030
0.0
1001
ACDBBLOCKREPETAG
1070
     1
1071
       49
1005
12C77C
  0
LINE
  5
12C77D
  8
OBJECT
 10
3914.9999999999941
 20
-754.99999999999955
 30
0.0
 11
3914.9999999999968
 21
-919.78460339903484
 31
0.0
1001
ACDBBLOCKREPETAG
1070
     1
1071
        1
1005
12C77D
  0
LINE
  5
12C77E
  8
OBJECT
 10
4085.0000000000068
 20
-754.99999999999955
 30
0.0
 11
4085.0000000000032
 21
-919.78460339904154
 31
0.0
1001
ACDBBLOCKREPETAG
1070
     1
1071
        2
1005
12C77E
  0
LINE
  5
12C77F
  8
OBJECT
 10
4085.0000000000068
 20
-754.99999999999955
 30
0.0
 11
3914.9999999999941
 21
-754.99999999999955
 31
0.0
1001
ACDBBLOCKREPETAG
1070
     1
1071
        3
1005
12C77F
  0
LINE
  5
12C780
  8
OBJECT
 10
4079.9999999999991
 20
-1084.9999999999991
 30
0.0
 11
3920.0
 21
-1084.9999999999991
 31
0.0
1001
ACDBBLOCKREPETAG
1070
     1
1071
        4
1005
12C780
  0
LINE
  5
12C781
  8
OBJECT
 10
3914.9999999999968
 20
-919.78460339903484
 30
0.0
 11
3920.0
 21
-960.62257748298634
 31
0.0
1001
ACDBBLOCKREPETAG
1070
     1
1071
        6
1005
12C781
  0
LINE
  5
12C782
  8
OBJECT
 10
3920.0
 20
-960.62257748298634
 30
0.0
 11
3920.0
 21
-1084.9999999999991
 31
0.0
1001
ACDBBLOCKREPETAG
1070
     1
1071
        7
1005
12C782
  0
LINE
  5
12C783
  8
OBJECT
 10
4085.0000000000032
 20
-919.78460339904154
 30
0.0
 11
4080.0
 21
-960.62257748298634
 31
0.0
1001
ACDBBLOCKREPETAG
1070
     1
1071
        8
1005
12C783
  0
LINE
  5
12C784
  8
OBJECT
 10
4080.0
 20
-960.62257748298634
 30
0.0
 11
4079.9999999999991
 21
-1084.9999999999991
 31
0.0
1001
ACDBBLOCKREPETAG
1070
     1
1071
        9
1005
12C784
  0
LINE
  5
12C785
  8
OBJECT
 10
3930.0
 20
-1084.9999999999991
 30
0.0
 11
3930.0
 21
-1104.9999999999991
 31
0.0
1001
ACDBBLOCKREPETAG
1070
     1
1071
       10
1005
12C785
  0
LINE
  5
12C786
  8
OBJECT
 10
3930.0
 20
-1104.9999999999991
 30
0.0
 11
4070.0
 21
-1104.9999999999991
 31
0.0
1001
ACDBBLOCKREPETAG
1070
     1
1071
       11
1005
12C786
  0
LINE
  5
12C787
  8
OBJECT
 10
4070.0
 20
-1104.9999999999991
 30
0.0
 11
4070.0
 21
-1084.9999999999991
 31
0.0
1001
ACDBBLOCKREPETAG
1070
     1
1071
       12
1005
12C787
  0
LINE
  5
12C788
  8
OBJECT
 10
3923.0
 20
-570.99999999999955
 30
0.0
 11
3923.0
 21
-549.99999999999955
 31
0.0
1001
ACDBBLOCKREPETAG
1070
     1
1071
       38
1005
12C788
  0
LINE
  5
12C789
  8
OBJECT
 10
3923.0
 20
-549.99999999999955
 30
0.0
 11
4077.0
 21
-549.99999999999955
 31
0.0
1001
ACDBBLOCKREPETAG
1070
     1
1071
       39
1005
12C789
  0
LINE
  5
12C78A
  8
HIDDEN
 10
3943.0
 20
-619.99999999999955
 30
0.0
 11
4057.0
 21
-619.99999999999955
 31
0.0
1001
ACDBBLOCKREPETAG
1070
     1
1071
       40
1005
12C78A
  0
LINE
  5
12C78B
  8
OBJECT
 10
4077.0
 20
-549.99999999999955
 30
0.0
 11
4077.0
 21
-570.99999999999955
 31
0.0
1001
ACDBBLOCKREPETAG
1070
     1
1071
       41
1005
12C78B
  0
LINE
  5
12C78C
  8
OBJECT
 10
4077.0
 20
-570.99999999999955
 30
0.0
 11
3923.0
 21
-570.99999999999955
 31
0.0
1001
ACDBBLOCKREPETAG
1070
     1
1071
       42
1005
12C78C
  0
LINE
  5
12C78D
  8
CENTER
 10
4000.0
 20
-534.99999999999955
 30
0.0
 11
4000.0
 21
-889.99999999999955
 31
0.0
1001
ACDBBLOCKREPETAG
1070
     1
1071
       43
1005
12C78D
  0
LINE
  5
12C78E
  8
OBJECT
 10
3928.0
 20
-570.99999999999955
 30
0.0
 11
3928.0
 21
-633.99999999999955
 31
0.0
1001
ACDBBLOCKREPETAG
1070
     1
1071
       44
1005
12C78E
  0
LINE
  5
12C78F
  8
OBJECT
 10
4072.0
 20
-633.99999999999955
 30
0.0
 11
4072.0
 21
-570.99999999999955
 31
0.0
1001
ACDBBLOCKREPETAG
1070
     1
1071
       45
1005
12C78F
  0
LINE
  5
12C790
  8
OBJECT
 10
3920.0
 20
-877.99999999999955
 30
0.0
 11
4080.0
 21
-877.99999999999955
 31
0.0
1001
ACDBBLOCKREPETAG
1070
     1
1071
       46
1005
12C790
  0
LINE
  5
12C791
  8
OBJECT
 10
4080.0
 20
-633.99999999999955
 30
0.0
 11
3920.0
 21
-633.99999999999955
 31
0.0
1001
ACDBBLOCKREPETAG
1070
     1
1071
       47
1005
12C791
  0
LINE
  5
12C792
  8
OBJECT
 10
3920.0
 20
-877.99999999999955
 30
0.0
 11
3920.0
 21
-889.99999999999955
 31
0.0
1001
ACDBBLOCKREPETAG
1070
     1
1071
       48
1005
12C792
  0
LINE
  5
12C793
  8
OBJECT
 10
3920.0
 20
-889.99999999999955
 30
0.0
 11
4080.0
 21
-889.99999999999955
 31
0.0
1001
ACDBBLOCKREPETAG
1070
     1
1071
       49
1005
12C793
  0
LINE
  5
12C794
  8
OBJECT
 10
4080.0
 20
-889.99999999999955
 30
0.0
 11
4080.0
 21
-877.99999999999955
 31
0.0
1001
ACDBBLOCKREPETAG
1070
     1
1071
       50
1005
12C794
  0
LINE
  5
12C795
  8
OBJECT
 10
4074.9999999998631
 20
-757.99999999985016
 30
0.0
 11
4075.0
 21
-877.99999999999955
 31
0.0
1001
ACDBBLOCKREPETAG
1070
     1
1071
       54
1005
12C795
  0
LINE
  5
12C796
  8
OBJECT
 10
4074.9999908029849
 20
-757.99998602702112
 30
0.0
 11
4080.0
 21
-757.99998602702112
 31
0.0
1001
ACDBBLOCKREPETAG
1070
     1
1071
       55
1005
12C796
  0
LINE
  5
12C797
  8
OBJECT
 10
3925.0000000001392
 20
-757.99999999985016
 30
0.0
 11
3925.0
 21
-877.99999999999955
 31
0.0
1001
ACDBBLOCKREPETAG
1070
     1
1071
       56
1005
12C797
  0
LINE
  5
12C798
  8
OBJECT
 10
3925.0000091970151
 20
-757.99998602702112
 30
0.0
 11
3920.0
 21
-757.99998602702112
 31
0.0
1001
ACDBBLOCKREPETAG
1070
     1
1071
       57
1005
12C798
  0
ARC
  5
12C799
  8
OBJECT
 10
4200.6872746716726
 20
-749.40809941010718
 30
0.0
 40
170.6350503965856
 50
137.44134459184301
 51
149.91949581337221
1001
ACDBBLOCKREPETAG
1070
     1
1071
       58
1005
12C799
  0
ARC
  5
12C79A
  8
OBJECT
 10
4200.6872746716726
 20
-642.59190058989179
 30
0.0
 40
170.6350503965856
 50
210.08050418662771
 51
222.55865540815699
1001
ACDBBLOCKREPETAG
1070
     1
1071
       59
1005
12C79A
  0
ARC
  5
12C79B
  8
OBJECT
 10
3799.3127253283278
 20
-749.40809941010718
 30
0.0
 40
170.6350503965856
 50
30.080504186774089
 51
42.558655408382641
1001
ACDBBLOCKREPETAG
1070
     1
1071
       60
1005
12C79B
  0
ARC
  5
12C79C
  8
OBJECT
 10
3799.3127253283278
 20
-642.59190058989179
 30
0.0
 40
170.6350503965856
 50
317.44134459161722
 51
329.91949581322592
1001
ACDBBLOCKREPETAG
1070
     1
1071
       61
1005
12C79C
  0
POINT
  5
12C79D
  8
DOTS
 10
4000.0
 20
-754.99999999999955
 30
0.0
1001
ACDBBLOCKREPETAG
1070
     1
1071
      185
1005
12C79D
  0
LINE
  5
12C79E
  8
OBJECT
 10
1923.0
 20
-570.99999999999955
 30
0.0
 11
1923.0
 21
-549.99999999999955
 31
0.0
1001
ACDBBLOCKREPETAG
1070
     1
1071
       38
1005
12C79E
  0
LINE
  5
12C79F
  8
OBJECT
 10
1923.0
 20
-549.99999999999955
 30
0.0
 11
2077.0
 21
-549.99999999999955
 31
0.0
1001
ACDBBLOCKREPETAG
1070
     1
1071
       39
1005
12C79F
  0
LINE
  5
12C7A0
  8
HIDDEN
 10
1943.0
 20
-619.99999999999955
 30
0.0
 11
2057.0
 21
-619.99999999999955
 31
0.0
1001
ACDBBLOCKREPETAG
1070
     1
1071
       40
1005
12C7A0
  0
LINE
  5
12C7A1
  8
OBJECT
 10
2077.0
 20
-549.99999999999955
 30
0.0
 11
2077.0
 21
-570.99999999999955
 31
0.0
1001
ACDBBLOCKREPETAG
1070
     1
1071
       41
1005
12C7A1
  0
LINE
  5
12C7A2
  8
OBJECT
 10
2077.0
 20
-570.99999999999955
 30
0.0
 11
1923.0
 21
-570.99999999999955
 31
0.0
1001
ACDBBLOCKREPETAG
1070
     1
1071
       42
1005
12C7A2
  0
LINE
  5
12C7A3
  8
CENTER
 10
2000.0
 20
-534.99999999999955
 30
0.0
 11
2000.0
 21
-889.99999999999955
 31
0.0
1001
ACDBBLOCKREPETAG
1070
     1
1071
       43
1005
12C7A3
  0
LINE
  5
12C7A4
  8
OBJECT
 10
1928.0
 20
-570.99999999999955
 30
0.0
 11
1928.0
 21
-633.99999999999955
 31
0.0
1001
ACDBBLOCKREPETAG
1070
     1
1071
       44
1005
12C7A4
  0
LINE
  5
12C7A5
  8
OBJECT
 10
2072.0
 20
-633.99999999999955
 30
0.0
 11
2072.0
 21
-570.99999999999955
 31
0.0
1001
ACDBBLOCKREPETAG
1070
     1
1071
       45
1005
12C7A5
  0
LINE
  5
12C7A6
  8
OBJECT
 10
1920.0
 20
-877.99999999999955
 30
0.0
 11
2080.0
 21
-877.99999999999955
 31
0.0
1001
ACDBBLOCKREPETAG
1070
     1
1071
       46
1005
12C7A6
  0
LINE
  5
12C7A7
  8
OBJECT
 10
2080.0
 20
-633.99999999999955
 30
0.0
 11
1920.0
 21
-633.99999999999955
 31
0.0
1001
ACDBBLOCKREPETAG
1070
     1
1071
       47
1005
12C7A7
  0
LINE
  5
12C7A8
  8
OBJECT
 10
1920.0
 20
-877.99999999999955
 30
0.0
 11
1920.0
 21
-889.99999999999955
 31
0.0
1001
ACDBBLOCKREPETAG
1070
     1
1071
       48
1005
12C7A8
  0
LINE
  5
12C7A9
  8
OBJECT
 10
1920.0
 20
-889.99999999999955
 30
0.0
 11
2080.0
 21
-889.99999999999955
 31
0.0
1001
ACDBBLOCKREPETAG
1070
     1
1071
       49
1005
12C7A9
  0
LINE
  5
12C7AA
  8
OBJECT
 10
2080.0
 20
-889.99999999999955
 30
0.0
 11
2080.0
 21
-877.99999999999955
 31
0.0
1001
ACDBBLOCKREPETAG
1070
     1
1071
       50
1005
12C7AA
  0
LINE
  5
12C7AB
  8
OBJECT
 10
2074.9999999998622
 20
-757.99999999985016
 30
0.0
 11
2075.0
 21
-877.99999999999955
 31
0.0
1001
ACDBBLOCKREPETAG
1070
     1
1071
       54
1005
12C7AB
  0
LINE
  5
12C7AC
  8
OBJECT
 10
2074.9999908029849
 20
-757.99998602702112
 30
0.0
 11
2080.0
 21
-757.99998602702112
 31
0.0
1001
ACDBBLOCKREPETAG
1070
     1
1071
       55
1005
12C7AC
  0
LINE
  5
12C7AD
  8
OBJECT
 10
1925.000000000138
 20
-757.99999999985016
 30
0.0
 11
1925.0
 21
-877.99999999999955
 31
0.0
1001
ACDBBLOCKREPETAG
1070
     1
1071
       56
1005
12C7AD
  0
LINE
  5
12C7AE
  8
OBJECT
 10
1925.000009197013
 20
-757.99998602702112
 30
0.0
 11
1920.0
 21
-757.99998602702112
 31
0.0
1001
ACDBBLOCKREPETAG
1070
     1
1071
       57
1005
12C7AE
  0
ARC
  5
12C7AF
  8
OBJECT
 10
2200.6872746716731
 20
-749.40809941010718
 30
0.0
 40
170.6350503965856
 50
137.44134459184301
 51
149.91949581336559
1001
ACDBBLOCKREPETAG
1070
     1
1071
       58
1005
12C7AF
  0
ARC
  5
12C7B0
  8
OBJECT
 10
2200.6872746716731
 20
-642.59190058989179
 30
0.0
 40
170.6350503965856
 50
210.0805041866343
 51
222.55865540815699
1001
ACDBBLOCKREPETAG
1070
     1
1071
       59
1005
12C7B0
  0
ARC
  5
12C7B1
  8
OBJECT
 10
1799.312725328326
 20
-749.40809941010718
 30
0.0
 40
170.6350503965856
 50
30.080504186774089
 51
42.558655408382641
1001
ACDBBLOCKREPETAG
1070
     1
1071
       60
1005
12C7B1
  0
ARC
  5
12C7B2
  8
OBJECT
 10
1799.312725328326
 20
-642.59190058989179
 30
0.0
 40
170.6350503965856
 50
317.44134459161722
 51
329.91949581322592
1001
ACDBBLOCKREPETAG
1070
     1
1071
       61
1005
12C7B2
  0
POINT
  5
12C7B3
  8
DOTS
 10
2000.0
 20
-754.99999999999955
 30
0.0
1001
ACDBBLOCKREPETAG
1070
     1
1071
      185
1005
12C7B3
  0
LINE
  5
12C7B4
  8
OBJECT
 10
3930.0
 20
-1199.999999999997
 30
0.0
 11
4070.0
 21
-1199.999999999997
 31
0.0
1001
ACDBBLOCKREPETAG
1070
     1
1071
        0
1005
12C7B4
  0
LINE
  5
12C7B5
  8
OBJECT
 10
3930.0
 20
-1199.999999999997
 30
0.0
 11
3930.0
 21
-959.99999999999693
 31
0.0
1001
ACDBBLOCKREPETAG
1070
     1
1071
        1
1005
12C7B5
  0
LINE
  5
12C7B6
  8
OBJECT
 10
4070.0
 20
-1199.999999999997
 30
0.0
 11
4070.0
 21
-959.99999999999693
 31
0.0
1001
ACDBBLOCKREPETAG
1070
     1
1071
        2
1005
12C7B6
  0
LINE
  5
12C7B7
  8
OBJECT
 10
3930.0
 20
-959.99999999999693
 30
0.0
 11
4070.0
 21
-959.99999999999693
 31
0.0
1001
ACDBBLOCKREPETAG
1070
     1
1071
        3
1005
12C7B7
  0
LINE
  5
12C7B8
  8
HIDDEN
 10
3937.5
 20
-959.99999999999693
 30
0.0
 11
3937.5
 21
-1199.999999999997
 31
0.0
1001
ACDBBLOCKREPETAG
1070
     1
1071
        4
1005
12C7B8
  0
LINE
  5
12C7B9
  8
HIDDEN
 10
4062.5
 20
-959.99999999999693
 30
0.0
 11
4062.5
 21
-1199.999999999997
 31
0.0
1001
ACDBBLOCKREPETAG
1070
     1
1071
        5
1005
12C7B9
  0
LINE
  5
12C7BA
  8
CENTER
 10
4000.0
 20
-889.99999999999875
 30
0.0
 11
4000.0
 21
-1214.999999999997
 31
0.0
1001
ACDBBLOCKREPETAG
1070
     1
1071
        6
1005
12C7BA
  0
LINE
  5
12C7BB
  8
OBJECT
 10
3925.0
 20
-889.99999999999875
 30
0.0
 11
3925.0
 21
-919.99999999999693
 31
0.0
1001
ACDBBLOCKREPETAG
1070
     1
1071
        7
1005
12C7BB
  0
LINE
  5
12C7BC
  8
OBJECT
 10
4075.0000000000032
 20
-889.99999999999875
 30
0.0
 11
4075.0
 21
-919.99999999999693
 31
0.0
1001
ACDBBLOCKREPETAG
1070
     1
1071
        8
1005
12C7BC
  0
LINE
  5
12C7BD
  8
OBJECT
 10
3925.0
 20
-919.99999999999693
 30
0.0
 11
4075.0
 21
-919.99999999999693
 31
0.0
1001
ACDBBLOCKREPETAG
1070
     1
1071
        9
1005
12C7BD
  0
LINE
  5
12C7BE
  8
OBJECT
 10
3925.0
 20
-919.99999999999693
 30
0.0
 11
3930.0
 21
-959.99999999999693
 31
0.0
1001
ACDBBLOCKREPETAG
1070
     1
1071
       10
1005
12C7BE
  0
LINE
  5
12C7BF
  8
OBJECT
 10
4070.0
 20
-959.99999999999693
 30
0.0
 11
4075.0
 21
-919.99999999999693
 31
0.0
1001
ACDBBLOCKREPETAG
1070
     1
1071
       11
1005
12C7BF
  0
LINE
  5
12C7C0
  8
OBJECT
 10
1930.0
 20
-1199.999999999997
 30
0.0
 11
2070.0
 21
-1199.999999999997
 31
0.0
1001
ACDBBLOCKREPETAG
1070
     1
1071
        0
1005
12C7C0
  0
LINE
  5
12C7C1
  8
OBJECT
 10
1930.0
 20
-1199.999999999997
 30
0.0
 11
1930.0
 21
-959.99999999999784
 31
0.0
1001
ACDBBLOCKREPETAG
1070
     1
1071
        1
1005
12C7C1
  0
LINE
  5
12C7C2
  8
OBJECT
 10
2070.0
 20
-1199.999999999997
 30
0.0
 11
2070.0
 21
-959.99999999999784
 31
0.0
1001
ACDBBLOCKREPETAG
1070
     1
1071
        2
1005
12C7C2
  0
LINE
  5
12C7C3
  8
OBJECT
 10
1930.0
 20
-959.99999999999784
 30
0.0
 11
2070.0
 21
-959.99999999999784
 31
0.0
1001
ACDBBLOCKREPETAG
1070
     1
1071
        3
1005
12C7C3
  0
LINE
  5
12C7C4
  8
HIDDEN
 10
1937.5
 20
-959.99999999999784
 30
0.0
 11
1937.5
 21
-1199.999999999997
 31
0.0
1001
ACDBBLOCKREPETAG
1070
     1
1071
        4
1005
12C7C4
  0
LINE
  5
12C7C5
  8
HIDDEN
 10
2062.5
 20
-959.99999999999784
 30
0.0
 11
2062.5
 21
-1199.999999999997
 31
0.0
1001
ACDBBLOCKREPETAG
1070
     1
1071
        5
1005
12C7C5
  0
LINE
  5
12C7C6
  8
CENTER
 10
2000.0
 20
-889.99999999999955
 30
0.0
 11
2000.0
 21
-1214.999999999998
 31
0.0
1001
ACDBBLOCKREPETAG
1070
     1
1071
        6
1005
12C7C6
  0
LINE
  5
12C7C7
  8
OBJECT
 10
1925.0
 20
-889.99999999999955
 30
0.0
 11
1925.0
 21
-919.99999999999761
 31
0.0
1001
ACDBBLOCKREPETAG
1070
     1
1071
        7
1005
12C7C7
  0
LINE
  5
12C7C8
  8
OBJECT
 10
2075.0000000000041
 20
-889.99999999999955
 30
0.0
 11
2075.0
 21
-919.99999999999761
 31
0.0
1001
ACDBBLOCKREPETAG
1070
     1
1071
        8
1005
12C7C8
  0
LINE
  5
12C7C9
  8
OBJECT
 10
1925.0
 20
-919.99999999999761
 30
0.0
 11
2075.0
 21
-919.99999999999761
 31
0.0
1001
ACDBBLOCKREPETAG
1070
     1
1071
        9
1005
12C7C9
  0
LINE
  5
12C7CA
  8
OBJECT
 10
1925.0
 20
-919.99999999999761
 30
0.0
 11
1930.0
 21
-959.99999999999784
 31
0.0
1001
ACDBBLOCKREPETAG
1070
     1
1071
       10
1005
12C7CA
  0
LINE
  5
12C7CB
  8
OBJECT
 10
2070.0
 20
-959.99999999999784
 30
0.0
 11
2075.0
 21
-919.99999999999761
 31
0.0
1001
ACDBBLOCKREPETAG
1070
     1
1071
       11
1005
12C7CB
  0
TEXT
  5
12C7CC
  8
SLIM
 10
3824.5999999999999
 20
-1528.999999999997
 30
0.0
 40
28.0
  1
※ 対応スラブ厚　180～320
 41
0.75
  0
TEXT
  5
12C7CD
  8
SLIM
 10
3611.5
 20
-1622.3333333333301
 30
0.0
 40
28.0
  1
国土交通大臣認定・（財）日本消防設備安全センター性能評定取得品
 41
0.75
  0
TEXT
  5
12C7CE
  8
SLIM
 10
3631.1000000000022
 20
-1668.999999999997
 30
0.0
 40
28.0
  1
注）ご採用にあたり、認定書及び評定書の内容をご確認ください。
 41
0.75
  0
TEXT
  5
12C7CF
  8
SLIM
 10
3741.6250000000009
 20
-1467.499999999997
 30
0.0
 40
35.0
  1
片受けスタイル（S）＋シンドカット
 41
0.75
  0
TEXT
  5
12C7D0
  8
SLIM
 10
1856.25
 20
-1467.499999999998
 30
0.0
 40
35.0
  1
片受けスタイル（S）
 41
0.75
  0
VIEWPORT
  5
F6BA7
 67
     1
  8
0
 10
145.33033752441401
 20
101.8328354358673
 30
0.0
 40
334.0025019414623
 41
222.19657968139651
 68
     1
 69
     1
1001
ACAD
1000
MVIEW
1002
{
1070
    16
1010
0.0
1020
0.0
1030
0.0
1010
0.0
1020
0.0
1030
1.0
1040
0.0
1040
222.19657968139651
1040
145.33033752441401
1040
101.8328354358673
1040
50.0
1040
0.0
1040
0.0
1070
     0
1070
     0
1070
     1
1070
     1
1070
     0
1070
     0
1070
     0
1070
     0
1040
0.0
1040
0.0
1040
0.0
1040
10.0
1040
10.0
1040
10.0
1040
10.0
1070
     0
1002
{
1002
}
1002
}
  0
VIEWPORT
  5
F6BA9
 67
     1
  8
OBJECT
 10
145.3303314447403
 20
101.8328338861465
 30
0.0
 40
232.5285303115844
 41
162.93253421783439
 68
     2
 69
     2
1001
ACAD
1000
MVIEW
1002
{
1070
    16
1010
0.0
1020
0.0
1030
0.0
1010
0.0
1020
0.0
1030
1.0
1040
0.0
1040
25942.55904403147
1040
2377.604457077377
1040
-7591.5176687056619
1040
50.0
1040
0.0
1040
0.0
1070
     0
1070
   600
1070
     1
1070
     1
1070
     0
1070
     0
1070
     0
1070
     0
1040
0.0
1040
0.0
1040
0.0
1040
1.0
1040
1.0
1040
0.0
1040
0.0
1070
     0
1002
{
1002
}
1002
}
  0
ENDSEC
  0
EOF
