  0
SECTION
  2
HEADER
  9
$ACADVER
  1
AC1009
  9
$INSBASE
 10
0.0
 20
0.0
 30
0.0
  9
$EXTMIN
 10
0.0
 20
-3817.4999999999959
 30
0.0
  9
$EXTMAX
 10
5575.0
 20
607.5
 30
0.0
  9
$LIMMIN
 10
0.0
 20
0.0
  9
$LIMMAX
 10
210.0
 20
297.0
  9
$ORTHOMODE
 70
     0
  9
$REGENMODE
 70
     1
  9
$FILLMODE
 70
     1
  9
$QTEXTMODE
 70
     0
  9
$MIRRTEXT
 70
     0
  9
$DRAGMODE
 70
     2
  9
$LTSCALE
 40
1.0
  9
$OSMODE
 70
   125
  9
$ATTMODE
 70
     1
  9
$TEXTSIZE
 40
4.0
  9
$TRACEWID
 40
0.05
  9
$TEXTSTYLE
  7
STANDARD
  9
$CLAYER
  8
OBJECT
  9
$CELTYPE
  6
BYLAYER
  9
$CECOLOR
 62
   256
  9
$DIMSCALE
 40
10.0
  9
$DIMASZ
 40
2.0
  9
$DIMEXO
 40
1.0
  9
$DIMDLI
 40
10.0
  9
$DIMRND
 40
0.0
  9
$DIMDLE
 40
0.0
  9
$DIMEXE
 40
1.0
  9
$DIMTP
 40
0.0
  9
$DIMTM
 40
0.0
  9
$DIMTXT
 40
3.2000000000000002
  9
$DIMCEN
 40
0.0
  9
$DIMTSZ
 40
0.0
  9
$DIMTOL
 70
     0
  9
$DIMLIM
 70
     0
  9
$DIMTIH
 70
     0
  9
$DIMTOH
 70
     0
  9
$DIMSE1
 70
     0
  9
$DIMSE2
 70
     0
  9
$DIMTAD
 70
     1
  9
$DIMZIN
 70
     8
  9
$DIMBLK
  1
OPEN30
  9
$DIMASO
 70
     1
  9
$DIMSHO
 70
     1
  9
$DIMPOST
  1

  9
$DIMAPOST
  1

  9
$DIMALT
 70
     0
  9
$DIMALTD
 70
     2
  9
$DIMALTF
 40
25.399999999999999
  9
$DIMLFAC
 40
1.0
  9
$DIMTOFL
 70
     1
  9
$DIMTVP
 40
0.0
  9
$DIMTIX
 70
     0
  9
$DIMSOXD
 70
     0
  9
$DIMSAH
 70
     0
  9
$DIMBLK1
  1

  9
$DIMBLK2
  1

  9
$DIMSTYLE
  2
S10
  9
$DIMCLRD
 70
   256
  9
$DIMCLRE
 70
   256
  9
$DIMCLRT
 70
   256
  9
$DIMTFAC
 40
1.0
  9
$DIMGAP
 40
0.9
  9
$LUNITS
 70
     2
  9
$LUPREC
 70
     2
  9
$SKETCHINC
 40
0.1
  9
$FILLETRAD
 40
0.0
  9
$AUNITS
 70
     0
  9
$AUPREC
 70
     2
  9
$MENU
  1
ACAD
  9
$ELEVATION
 40
0.0
  9
$PELEVATION
 40
0.0
  9
$THICKNESS
 40
0.0
  9
$LIMCHECK
 70
     0
  9
$BLIPMODE
 70
     0
  9
$CHAMFERA
 40
2.0
  9
$CHAMFERB
 40
2.0
  9
$SKPOLY
 70
     0
  9
$TDCREATE
 40
2453095.4929404748
  9
$TDUPDATE
 40
2456727.8317262852
  9
$TDINDWG
 40
18.3629431134
  9
$TDUSRTIMER
 40
18.362941493099999
  9
$USRTIMER
 70
     1
  9
$ANGBASE
 50
0.0
  9
$ANGDIR
 70
     0
  9
$PDMODE
 70
    35
  9
$PDSIZE
 40
2.0
  9
$PLINEWID
 40
0.0
  9
$COORDS
 70
     1
  9
$SPLFRAME
 70
     0
  9
$SPLINETYPE
 70
     6
  9
$SPLINESEGS
 70
     8
  9
$ATTDIA
 70
     1
  9
$ATTREQ
 70
     1
  9
$HANDLING
 70
     1
  9
$HANDSEED
  5
130F38
  9
$SURFTAB1
 70
     6
  9
$SURFTAB2
 70
     6
  9
$SURFTYPE
 70
     6
  9
$SURFU
 70
     6
  9
$SURFV
 70
     6
  9
$UCSNAME
  2

  9
$UCSORG
 10
0.0
 20
0.0
 30
0.0
  9
$UCSXDIR
 10
1.0
 20
0.0
 30
0.0
  9
$UCSYDIR
 10
0.0
 20
1.0
 30
0.0
  9
$PUCSNAME
  2

  9
$PUCSORG
 10
0.0
 20
0.0
 30
0.0
  9
$PUCSXDIR
 10
1.0
 20
0.0
 30
0.0
  9
$PUCSYDIR
 10
0.0
 20
1.0
 30
0.0
  9
$USERI1
 70
     0
  9
$USERI2
 70
     0
  9
$USERI3
 70
     0
  9
$USERI4
 70
     0
  9
$USERI5
 70
     0
  9
$USERR1
 40
0.0
  9
$USERR2
 40
0.0
  9
$USERR3
 40
0.0
  9
$USERR4
 40
0.0
  9
$USERR5
 40
0.0
  9
$WORLDVIEW
 70
     1
  9
$SHADEDGE
 70
     3
  9
$SHADEDIF
 70
    70
  9
$TILEMODE
 70
     1
  9
$MAXACTVP
 70
    64
  9
$PLIMCHECK
 70
     0
  9
$PEXTMIN
 10
29.066066288948051
 20
20.366566777229309
 30
0.0
  9
$PEXTMAX
 10
261.5945966005325
 20
183.29910099506381
 30
0.0
  9
$PLIMMIN
 10
-3.17498779296875
 20
-3.1749999523162842
  9
$PLIMMAX
 10
293.83566284179687
 20
206.8406708240509
  9
$UNITMODE
 70
     0
  9
$VISRETAIN
 70
     1
  9
$PLINEGEN
 70
     0
  9
$PSLTSCALE
 70
     1
  0
ENDSEC
  0
SECTION
  2
TABLES
  0
TABLE
  2
VPORT
 70
     1
  0
VPORT
  2
*ACTIVE
 70
     0
 10
0.0
 20
0.0
 11
1.0
 21
1.0
 12
3300.3924542805312
 22
-1639.3840734666351
 13
0.0
 23
0.0
 14
1.0
 24
1.0
 15
0.0
 25
0.0
 16
0.0
 26
0.0
 36
1.0
 17
0.0
 27
0.0
 37
0.0
 40
9198.3422127707527
 41
1.628705148205928
 42
50.0
 43
0.0
 44
0.0
 50
0.0
 51
0.0
 71
     0
 72
   600
 73
     1
 74
     1
 75
     0
 76
     0
 77
     0
 78
     0
  0
ENDTAB
  0
TABLE
  2
LTYPE
 70
     3
  0
LTYPE
  2
CONTINUOUS
 70
     0
  3
Solid line
 72
    65
 73
     0
 40
0.0
  0
LTYPE
  2
ACAD_ISO08W100
 70
     0
  3
ISO long-dash short-dash ____ __ ____ __ ____ _
 72
    65
 73
     4
 40
36.0
 49
24.0
 49
-3.0
 49
6.0
 49
-3.0
  0
LTYPE
  2
ACAD_ISO02W100
 70
     0
  3
ISO dash __ __ __ __ __ __ __ __ __ __ __ __ __
 72
    65
 73
     2
 40
15.0
 49
12.0
 49
-3.0
  0
ENDTAB
  0
TABLE
  2
LAYER
 70
     8
  0
LAYER
  2
0
 70
     0
 62
     7
  6
CONTINUOUS
  0
LAYER
  2
OBJECT
 70
     0
 62
     4
  6
CONTINUOUS
  0
LAYER
  2
DEFPOINTS
 70
     0
 62
     7
  6
CONTINUOUS
  0
LAYER
  2
DIM
 70
     0
 62
     7
  6
CONTINUOUS
  0
LAYER
  2
HIDDEN
 70
     0
 62
     2
  6
ACAD_ISO02W100
  0
LAYER
  2
CENTER
 70
     0
 62
     2
  6
ACAD_ISO08W100
  0
LAYER
  2
DOTS
 70
     0
 62
     1
  6
CONTINUOUS
  0
LAYER
  2
SLIM
 70
     0
 62
     2
  6
CONTINUOUS
  0
ENDTAB
  0
TABLE
  2
STYLE
 70
     2
  0
STYLE
  2
STANDARD
 70
     0
 40
0.0
 41
0.75
 50
0.0
 71
     0
 42
4.0
  3
simplex.shx
  4
bigfont.shx
  0
ENDTAB
  0
TABLE
  2
VIEW
 70
     0
  0
ENDTAB
  0
TABLE
  2
UCS
 70
     0
  0
ENDTAB
  0
TABLE
  2
APPID
 70
    18
  0
APPID
  2
ACAD
 70
     0
  0
APPID
  2
ACADANNOTATIVE
 70
     0
  0
APPID
  2
ACAD_PSEXT
 70
     0
  0
APPID
  2
ACAD_EXEMPT_FROM_CAD_STANDARDS
 70
     0
  0
APPID
  2
ACAECLAYERSTANDARD
 70
     0
  0
APPID
  2
ACAUTHENVIRON
 70
     0
  0
APPID
  2
ACDBDYNAMICBLOCKTRUENAME
 70
     0
  0
APPID
  2
ACDBDYNAMICBLOCKGUID
 70
     0
  0
APPID
  2
ACDBBLOCKREPETAG
 70
     0
  0
APPID
  2
ACDBBLOCKREPBTAG
 70
     0
  0
APPID
  2
ACAD_NAV_VCDISPLAY
 70
     0
  0
APPID
  2
ACAD_DSTYLE_DIMRADIAL_EXTENSION
 70
     0
  0
APPID
  2
ACAD_DSTYLE_DIMJAG
 70
     0
  0
APPID
  2
ACAD_DSTYLE_DIMTALN
 70
     0
  0
APPID
  2
ACADANNOPO
 70
     0
  0
APPID
  2
GRADIENTCOLOR1ACI
 70
     0
  0
APPID
  2
GRADIENTCOLOR2ACI
 70
     0
  0
APPID
  2
ACAD_MLEADERVER
 70
     0
  0
ENDTAB
  0
TABLE
  2
DIMSTYLE
 70
     3
  0
DIMSTYLE
  2
STANDARD
 70
     0
  3

  4

  5

  6

  7

 40
1.0
 41
0.18
 42
0.0625
 43
0.38
 44
0.18
 45
0.0
 46
0.0
 47
0.0
 48
0.0
140
0.18
141
0.09
142
0.0
143
25.399999999999999
144
1.0
145
0.0
146
1.0
147
0.09
 71
     0
 72
     0
 73
     1
 74
     1
 75
     0
 76
     0
 77
     0
 78
     0
170
     0
171
     2
172
     0
173
     0
174
     0
175
     0
176
     0
177
     0
178
     0
  0
DIMSTYLE
  2
S10
 70
     0
  3

  4

  5

  6

  7

 40
10.0
 41
2.0
 42
1.0
 43
10.0
 44
1.0
 45
0.0
 46
0.0
 47
0.0
 48
0.0
140
3.2000000000000002
141
0.0
142
0.0
143
25.399999999999999
144
1.0
145
0.0
146
1.0
147
0.9
 71
     0
 72
     0
 73
     0
 74
     0
 75
     0
 76
     0
 77
     1
 78
     8
170
     0
171
     2
172
     1
173
     0
174
     0
175
     0
176
   256
177
   256
178
   256
  0
ENDTAB
  0
ENDSEC
  0
SECTION
  2
BLOCKS
  0
BLOCK
  8
0
  2
$MODEL_SPACE
 70
     0
 10
0.0
 20
0.0
 30
0.0
  3
$MODEL_SPACE
  1

  0
ENDBLK
  5
130E7E
  8
0
  0
BLOCK
 67
     1
  8
0
  2
$PAPER_SPACE
 70
     0
 10
0.0
 20
0.0
 30
0.0
  3
$PAPER_SPACE
  1

  0
ENDBLK
  5
130E7A
 67
     1
  8
0
  0
BLOCK
  8
0
  2
_OPEN30
 70
     0
 10
0.0
 20
0.0
 30
0.0
  3
_OPEN30
  1

  0
LINE
  5
202
  8
0
  6
BYBLOCK
 62
     0
 10
-1.0
 20
0.26794919
 30
0.0
 11
0.0
 21
0.0
 31
0.0
  0
LINE
  5
203
  8
0
  6
BYBLOCK
 62
     0
 10
0.0
 20
0.0
 30
0.0
 11
-1.0
 21
-0.26794919
 31
0.0
  0
LINE
  5
204
  8
0
  6
BYBLOCK
 62
     0
 10
0.0
 20
0.0
 30
0.0
 11
-1.0
 21
0.0
 31
0.0
  0
ENDBLK
  5
206
  8
0
  0
BLOCK
  8
0
  2
*U3
 70
     1
 10
0.0
 20
0.0
 30
0.0
  3
*U3
  1

  0
TEXT
  5
1309FC
  8
SLIM
 10
465.0476190476187
 20
-574.75
 30
0.0
 40
26.0
  1
100
  0
ENDBLK
  5
1309FE
  8
0
  0
BLOCK
  8
0
  2
*U4
 70
     1
 10
0.0
 20
0.0
 30
0.0
  3
*U4
  1

  0
TEXT
  5
130A00
  8
SLIM
 10
636.09523809523796
 20
-697.0
 30
0.0
 40
26.0
  1
CO
  0
ENDBLK
  5
130A02
  8
0
  0
BLOCK
  8
0
  2
*U5
 70
     1
 10
0.0
 20
0.0
 30
0.0
  3
*U5
  1

  0
TEXT
  5
130A04
  8
SLIM
 10
114.95238095238091
 20
-582.0
 30
0.0
 40
26.0
  1
75
  0
ENDBLK
  5
130A06
  8
0
  0
BLOCK
  8
0
  2
*U6
 70
     1
 10
0.0
 20
0.0
 30
0.0
  3
*U6
  1

  0
TEXT
  5
130A08
  8
SLIM
 10
276.09523809523807
 20
-697.0
 30
0.0
 40
26.0
  1
CO
  0
ENDBLK
  5
130A0A
  8
0
  0
BLOCK
  8
0
  2
*U7
 70
     1
 10
0.0
 20
0.0
 30
0.0
  3
*U7
  1

  0
TEXT
  5
130A0C
  8
SLIM
 10
474.95238095238079
 20
-118.0
 30
0.0
 40
26.0
  1
65
  0
ENDBLK
  5
130A0E
  8
0
  0
BLOCK
  8
0
  2
*U8
 70
     1
 10
0.0
 20
0.0
 30
0.0
  3
*U8
  1

  0
TEXT
  5
130A10
  8
SLIM
 10
636.09523809523796
 20
-233.0
 30
0.0
 40
26.0
  1
CO
  0
ENDBLK
  5
130A12
  8
0
  0
BLOCK
  8
0
  2
*U9
 70
     1
 10
0.0
 20
0.0
 30
0.0
  3
*U9
  1

  0
TEXT
  5
130A14
  8
SLIM
 10
114.95238095238091
 20
-118.0
 30
0.0
 40
26.0
  1
50
  0
ENDBLK
  5
130A16
  8
0
  0
BLOCK
  8
0
  2
*U10
 70
     1
 10
0.0
 20
0.0
 30
0.0
  3
*U10
  1

  0
TEXT
  5
130A18
  8
SLIM
 10
276.09523809523807
 20
-233.0
 30
0.0
 40
26.0
  1
CO
  0
ENDBLK
  5
130A1A
  8
0
  0
BLOCK
  8
0
  2
*U11
 70
     1
 10
0.0
 20
0.0
 30
0.0
  3
*U11
  1

  0
TEXT
  5
130A30
  8
DIM
 10
2209.479620594459
 20
-3304.1428571428528
 30
0.0
 40
32.0
  1
A
 50
90.0
 41
0.75
  0
ENDBLK
  5
130A32
  8
0
  0
BLOCK
  8
0
  2
*U12
 70
     1
 10
0.0
 20
0.0
 30
0.0
  3
*U12
  1

  0
TEXT
  5
130A34
  8
DIM
 10
2207.8409284037348
 20
-3685.9999999999959
 30
0.0
 40
32.0
  1
B
 50
90.0
 41
0.75
  0
ENDBLK
  5
130A36
  8
0
  0
BLOCK
  8
0
  2
*U13
 70
     1
 10
0.0
 20
0.0
 30
0.0
  3
*U13
  1

  0
TEXT
  5
130A38
  8
DIM
 10
2061.428571428572
 20
-3158.208121984444
 30
0.0
 40
32.0
  1
C
 41
0.75
  0
ENDBLK
  5
130A3A
  8
0
  0
ENDSEC
  0
SECTION
  2
ENTITIES
  0
LINE
  5
12515F
  8
OBJECT
 10
1825.0
 20
-3699.9999999999959
 30
0.0
 11
5575.0
 21
-3699.9999999999959
 31
0.0
  0
LINE
  5
125161
  8
SLIM
 10
2616.0
 20
-2757.50001604727
 30
0.0
 11
2616.0
 21
-3087.50001604727
 31
0.0
  0
LINE
  5
125162
  8
SLIM
 10
2740.0
 20
-2757.50001604727
 30
0.0
 11
2740.0
 21
-3087.50001604727
 31
0.0
  0
LINE
  5
125163
  8
SLIM
 10
2870.0
 20
-2817.50001604727
 30
0.0
 11
2870.0
 21
-3087.50001604727
 31
0.0
  0
LINE
  5
125164
  8
SLIM
 10
3000.0
 20
-2817.50001604727
 30
0.0
 11
3000.0
 21
-3087.50001604727
 31
0.0
  0
LINE
  5
125165
  8
SLIM
 10
3130.0
 20
-3087.50001604727
 30
0.0
 11
3130.0
 21
-2817.50001604727
 31
0.0
  0
LINE
  5
125166
  8
SLIM
 10
3260.0
 20
-3087.50001604727
 30
0.0
 11
3260.0
 21
-2757.50001604727
 31
0.0
  0
LINE
  5
125167
  8
SLIM
 10
3260.0
 20
-2757.50001604727
 30
0.0
 11
2616.0
 21
-2757.50001604727
 31
0.0
  0
LINE
  5
125168
  8
SLIM
 10
3260.0
 20
-2817.50001604727
 30
0.0
 11
2740.0
 21
-2817.50001604727
 31
0.0
  0
LINE
  5
125169
  8
SLIM
 10
3260.0
 20
-2877.50001604727
 30
0.0
 11
2616.0
 21
-2877.50001604727
 31
0.0
  0
LINE
  5
12516A
  8
SLIM
 10
3260.0
 20
-2947.50001604727
 30
0.0
 11
2616.0
 21
-2947.50001604727
 31
0.0
  0
LINE
  5
12516B
  8
SLIM
 10
3260.0
 20
-3017.50001604727
 30
0.0
 11
2616.0
 21
-3017.50001604727
 31
0.0
  0
LINE
  5
12516C
  8
SLIM
 10
3260.0
 20
-3087.50001604727
 30
0.0
 11
2616.0
 21
-3087.50001604727
 31
0.0
  0
LINE
  5
125181
  8
SLIM
 10
2740.0
 20
-2877.50001604727
 30
0.0
 11
2615.9999722746579
 21
-2757.5
 31
0.0
  0
LINE
  5
1251B6
  8
OBJECT
 10
5323.0
 20
-3515.9999999999968
 30
0.0
 11
5323.0
 21
-3494.9999999999968
 31
0.0
1001
ACDBBLOCKREPETAG
1070
     1
1071
       20
1005
1251B6
  0
LINE
  5
1251B7
  8
OBJECT
 10
5323.0
 20
-3494.9999999999968
 30
0.0
 11
5477.0
 21
-3494.9999999999968
 31
0.0
1001
ACDBBLOCKREPETAG
1070
     1
1071
       21
1005
1251B7
  0
LINE
  5
1251B8
  8
HIDDEN
 10
5343.0
 20
-3564.9999999999968
 30
0.0
 11
5457.0
 21
-3564.9999999999968
 31
0.0
1001
ACDBBLOCKREPETAG
1070
     1
1071
       22
1005
1251B8
  0
LINE
  5
1251B9
  8
OBJECT
 10
5477.0
 20
-3494.9999999999968
 30
0.0
 11
5477.0
 21
-3515.9999999999968
 31
0.0
1001
ACDBBLOCKREPETAG
1070
     1
1071
       23
1005
1251B9
  0
LINE
  5
1251BA
  8
OBJECT
 10
5477.0
 20
-3515.9999999999968
 30
0.0
 11
5323.0
 21
-3515.9999999999968
 31
0.0
1001
ACDBBLOCKREPETAG
1070
     1
1071
       24
1005
1251BA
  0
LINE
  5
1251BB
  8
CENTER
 10
5400.0
 20
-3479.9999999999968
 30
0.0
 11
5400.0
 21
-3714.9999999999968
 31
0.0
1001
ACDBBLOCKREPETAG
1070
     1
1071
       25
1005
1251BB
  0
LINE
  5
1251BC
  8
OBJECT
 10
5325.0
 20
-3578.9999999999968
 30
0.0
 11
5325.0
 21
-3702.9999999999968
 31
0.0
1001
ACDBBLOCKREPETAG
1070
     1
1071
       26
1005
1251BC
  0
LINE
  5
1251BD
  8
OBJECT
 10
5328.0
 20
-3515.9999999999968
 30
0.0
 11
5328.0
 21
-3578.9999999999968
 31
0.0
1001
ACDBBLOCKREPETAG
1070
     1
1071
       27
1005
1251BD
  0
LINE
  5
1251BE
  8
OBJECT
 10
5472.0
 20
-3578.9999999999968
 30
0.0
 11
5472.0
 21
-3515.9999999999968
 31
0.0
1001
ACDBBLOCKREPETAG
1070
     1
1071
       28
1005
1251BE
  0
LINE
  5
1251BF
  8
OBJECT
 10
5475.0
 20
-3578.9999999999968
 30
0.0
 11
5456.7802782663139
 21
-3578.9999999999968
 31
0.0
1001
ACDBBLOCKREPETAG
1070
     1
1071
       30
1005
1251BF
  0
LINE
  5
1251C0
  8
OBJECT
 10
5475.0
 20
-3578.9999999999968
 30
0.0
 11
5475.0
 21
-3702.9999999999968
 31
0.0
1001
ACDBBLOCKREPETAG
1070
     1
1071
       34
1005
1251C0
  0
POINT
  5
1251C1
  8
DOTS
 10
5400.0
 20
-3699.9999999999968
 30
0.0
1001
ACDBBLOCKREPETAG
1070
     1
1071
      187
1005
1251C1
  0
LINE
  5
1251C2
  8
CENTER
 10
5310.0
 20
-3627.9999999999968
 30
0.0
 11
5490.0
 21
-3627.9999999999968
 31
0.0
1001
ACDBBLOCKREPETAG
1070
     1
1071
       23
1005
1251C2
  0
CIRCLE
  5
1251C3
  8
OBJECT
 10
5400.0
 20
-3627.9999999999968
 30
0.0
 40
53.5
1001
ACDBBLOCKREPETAG
1070
     1
1071
       24
1005
1251C3
  0
CIRCLE
  5
1251C4
  8
OBJECT
 10
5400.0
 20
-3627.9999999999968
 30
0.0
 40
67.0
1001
ACDBBLOCKREPETAG
1070
     1
1071
       25
1005
1251C4
  0
ARC
  5
1251C5
  8
OBJECT
 10
5400.0
 20
-3627.9999999999968
 30
0.0
 40
75.0
 50
286.26020470824369
 51
253.73979529175631
1001
ACDBBLOCKREPETAG
1070
     1
1071
       27
1005
1251C5
  0
LINE
  5
1251C6
  8
OBJECT
 10
5379.0
 20
-3699.9999999999968
 30
0.0
 11
5421.0
 21
-3699.9999999999968
 31
0.0
1001
ACDBBLOCKREPETAG
1070
     1
1071
       28
1005
1251C6
  0
LINE
  5
1251C7
  8
OBJECT
 10
5343.2197217336861
 20
-3578.9999999999968
 30
0.0
 11
5325.0
 21
-3578.9999999999968
 31
0.0
1001
ACDBBLOCKREPETAG
1070
     1
1071
       30
1005
1251BF
  0
TEXT
  5
12CC49
  8
SLIM
 10
-0.0000000000000011
 20
282.5
 30
0.0
 40
35.0
  1
※ 100枝（4）がある場合、品名の最後に【管底】が付きます。
 41
0.9
 11
0.0
 21
300.0
 31
0.0
 73
     2
  0
TEXT
  5
130217
  8
SLIM
 10
58.28571428571432
 20
-444.0
 30
0.0
 40
48.0
  1
CO-A1P0
 41
0.75
 72
     4
 11
180.0
 21
-420.0
 31
0.0
  0
TEXT
  5
130218
  8
SLIM
 10
414.85714285714278
 20
-444.0
 30
0.0
 40
48.0
  1
CO-A2P0
 41
0.75
 72
     4
 11
540.0
 21
-420.0
 31
0.0
  0
TEXT
  5
130219
  8
SLIM
 10
54.85714285714289
 20
-908.0
 30
0.0
 40
48.0
  1
CO-A3P0
 41
0.75
 72
     4
 11
180.0
 21
-884.0
 31
0.0
  0
TEXT
  5
13021A
  8
SLIM
 10
414.85714285714278
 20
-908.0
 30
0.0
 40
48.0
  1
CO-A4P0
 41
0.75
 72
     4
 11
540.0
 21
-884.0
 31
0.0
  0
CIRCLE
  5
130222
  8
OBJECT
 10
496.0
 20
-684.0
 30
0.0
 40
70.0
1001
ACDBBLOCKREPETAG
1070
     1
1071
       43
1005
130222
  0
CIRCLE
  5
130223
  8
OBJECT
 10
496.0
 20
-684.0
 30
0.0
 40
77.0
1001
ACDBBLOCKREPETAG
1070
     1
1071
       44
1005
130223
  0
ARC
  5
130224
  8
OBJECT
 10
496.0
 20
-684.0
 30
0.0
 40
80.0
 50
140.8050325737787
 51
219.19496742621919
1001
ACDBBLOCKREPETAG
1070
     1
1071
       45
1005
130224
  0
LINE
  5
130225
  8
OBJECT
 10
434.0
 20
-638.33819977267558
 30
0.0
 11
434.0
 21
-604.0
 31
0.0
1001
ACDBBLOCKREPETAG
1070
     1
1071
       46
1005
130225
  0
LINE
  5
130226
  8
OBJECT
 10
558.0
 20
-622.0
 30
0.0
 11
558.0
 21
-604.0
 31
0.0
1001
ACDBBLOCKREPETAG
1070
     1
1071
       22
1005
130226
  0
LINE
  5
130227
  8
OBJECT
 10
558.0
 20
-622.0
 30
0.0
 11
576.0
 21
-622.0
 31
0.0
1001
ACDBBLOCKREPETAG
1070
     1
1071
       24
1005
130227
  0
LINE
  5
130228
  8
OBJECT
 10
558.0
 20
-746.0
 30
0.0
 11
576.0
 21
-746.0
 31
0.0
1001
ACDBBLOCKREPETAG
1070
     1
1071
       25
1005
130228
  0
LINE
  5
130229
  8
OBJECT
 10
558.0
 20
-746.0
 30
0.0
 11
558.0
 21
-764.0
 31
0.0
1001
ACDBBLOCKREPETAG
1070
     1
1071
       27
1005
130229
  0
LINE
  5
13022A
  8
OBJECT
 10
434.0
 20
-729.66180022732453
 30
0.0
 11
434.0
 21
-764.0
 31
0.0
1001
ACDBBLOCKREPETAG
1070
     1
1071
       28
1005
13022A
  0
LINE
  5
13022B
  8
OBJECT
 10
550.44722215136414
 20
-738.44722215136414
 30
0.0
 11
558.0
 21
-746.0
 31
0.0
1001
ACDBBLOCKREPETAG
1070
     1
1071
       37
1005
13022B
  0
LINE
  5
13022C
  8
OBJECT
 10
550.44722215136414
 20
-629.55277784863563
 30
0.0
 11
558.0
 21
-622.0
 31
0.0
1001
ACDBBLOCKREPETAG
1070
     1
1071
       38
1005
13022C
  0
POINT
  5
13022D
  8
DOTS
 10
496.0
 20
-684.0
 30
0.0
1001
ACDBBLOCKREPETAG
1070
     1
1071
       39
1005
13022D
  0
CIRCLE
  5
13022E
  8
OBJECT
 10
496.0
 20
-684.0
 30
0.0
 40
53.5
1001
ACDBBLOCKREPETAG
1070
     1
1071
      153
1005
13022E
  0
CIRCLE
  5
13022F
  8
OBJECT
 10
136.0
 20
-684.0
 30
0.0
 40
70.0
1001
ACDBBLOCKREPETAG
1070
     1
1071
       43
1005
13022F
  0
CIRCLE
  5
130230
  8
OBJECT
 10
136.0
 20
-684.0
 30
0.0
 40
77.0
1001
ACDBBLOCKREPETAG
1070
     1
1071
       44
1005
130230
  0
ARC
  5
130231
  8
OBJECT
 10
136.0
 20
-684.0
 30
0.0
 40
80.0
 50
140.80503257377961
 51
219.1949674262203
1001
ACDBBLOCKREPETAG
1070
     1
1071
       45
1005
130231
  0
LINE
  5
130232
  8
OBJECT
 10
74.0
 20
-638.33819977267558
 30
0.0
 11
74.0
 21
-604.0
 31
0.0
1001
ACDBBLOCKREPETAG
1070
     1
1071
       46
1005
130232
  0
LINE
  5
130233
  8
OBJECT
 10
198.0
 20
-622.0
 30
0.0
 11
198.0
 21
-604.0
 31
0.0
1001
ACDBBLOCKREPETAG
1070
     1
1071
       22
1005
130233
  0
LINE
  5
130234
  8
OBJECT
 10
198.0
 20
-622.0
 30
0.0
 11
216.0
 21
-622.0
 31
0.0
1001
ACDBBLOCKREPETAG
1070
     1
1071
       24
1005
130234
  0
LINE
  5
130235
  8
OBJECT
 10
198.0
 20
-746.0
 30
0.0
 11
216.0
 21
-746.0
 31
0.0
1001
ACDBBLOCKREPETAG
1070
     1
1071
       25
1005
130235
  0
LINE
  5
130236
  8
OBJECT
 10
198.0
 20
-746.0
 30
0.0
 11
198.0
 21
-764.0
 31
0.0
1001
ACDBBLOCKREPETAG
1070
     1
1071
       27
1005
130236
  0
LINE
  5
130237
  8
OBJECT
 10
74.0
 20
-729.66180022732453
 30
0.0
 11
74.0
 21
-764.0
 31
0.0
1001
ACDBBLOCKREPETAG
1070
     1
1071
       28
1005
130237
  0
LINE
  5
130238
  8
OBJECT
 10
190.4472221513642
 20
-738.44722215136414
 30
0.0
 11
198.0
 21
-746.0
 31
0.0
1001
ACDBBLOCKREPETAG
1070
     1
1071
       37
1005
130238
  0
LINE
  5
130239
  8
OBJECT
 10
190.4472221513642
 20
-629.55277784863563
 30
0.0
 11
198.0
 21
-622.0
 31
0.0
1001
ACDBBLOCKREPETAG
1070
     1
1071
       38
1005
130239
  0
POINT
  5
13023A
  8
DOTS
 10
136.0
 20
-684.0
 30
0.0
1001
ACDBBLOCKREPETAG
1070
     1
1071
       39
1005
13023A
  0
CIRCLE
  5
13023B
  8
OBJECT
 10
136.0
 20
-684.0
 30
0.0
 40
53.5
1001
ACDBBLOCKREPETAG
1070
     1
1071
      153
1005
13023B
  0
CIRCLE
  5
13023C
  8
OBJECT
 10
496.0
 20
-220.0
 30
0.0
 40
70.0
1001
ACDBBLOCKREPETAG
1070
     1
1071
       43
1005
13023C
  0
CIRCLE
  5
13023D
  8
OBJECT
 10
496.0
 20
-220.0
 30
0.0
 40
77.0
1001
ACDBBLOCKREPETAG
1070
     1
1071
       44
1005
13023D
  0
ARC
  5
13023E
  8
OBJECT
 10
496.0
 20
-220.0
 30
0.0
 40
80.0
 50
140.80503257378001
 51
219.194967426218
1001
ACDBBLOCKREPETAG
1070
     1
1071
       45
1005
13023E
  0
LINE
  5
13023F
  8
OBJECT
 10
434.0
 20
-174.33819977267541
 30
0.0
 11
434.0
 21
-140.0
 31
0.0
1001
ACDBBLOCKREPETAG
1070
     1
1071
       46
1005
13023F
  0
LINE
  5
130240
  8
OBJECT
 10
558.0
 20
-158.0
 30
0.0
 11
558.0
 21
-140.0
 31
0.0
1001
ACDBBLOCKREPETAG
1070
     1
1071
       22
1005
130240
  0
LINE
  5
130241
  8
OBJECT
 10
558.0
 20
-158.0
 30
0.0
 11
576.0
 21
-158.0
 31
0.0
1001
ACDBBLOCKREPETAG
1070
     1
1071
       24
1005
130241
  0
LINE
  5
130242
  8
OBJECT
 10
558.0
 20
-282.0
 30
0.0
 11
576.0
 21
-282.0
 31
0.0
1001
ACDBBLOCKREPETAG
1070
     1
1071
       25
1005
130242
  0
LINE
  5
130243
  8
OBJECT
 10
558.0
 20
-282.0
 30
0.0
 11
558.0
 21
-300.0
 31
0.0
1001
ACDBBLOCKREPETAG
1070
     1
1071
       27
1005
130243
  0
LINE
  5
130244
  8
OBJECT
 10
434.0
 20
-265.66180022732442
 30
0.0
 11
434.0
 21
-300.0
 31
0.0
1001
ACDBBLOCKREPETAG
1070
     1
1071
       28
1005
130244
  0
LINE
  5
130245
  8
OBJECT
 10
550.44722215136414
 20
-274.44722215136431
 30
0.0
 11
558.0
 21
-282.0
 31
0.0
1001
ACDBBLOCKREPETAG
1070
     1
1071
       37
1005
130245
  0
LINE
  5
130246
  8
OBJECT
 10
550.44722215136414
 20
-165.55277784863571
 30
0.0
 11
558.0
 21
-158.0
 31
0.0
1001
ACDBBLOCKREPETAG
1070
     1
1071
       38
1005
130246
  0
POINT
  5
130247
  8
DOTS
 10
496.0
 20
-220.0
 30
0.0
1001
ACDBBLOCKREPETAG
1070
     1
1071
       39
1005
130247
  0
CIRCLE
  5
130248
  8
OBJECT
 10
496.0
 20
-220.0
 30
0.0
 40
53.5
1001
ACDBBLOCKREPETAG
1070
     1
1071
      153
1005
130248
  0
LINE
  5
130249
  8
OBJECT
 10
421.0
 20
-534.0
 30
0.0
 11
421.0
 21
-541.0
 31
0.0
1001
ACDBBLOCKREPETAG
1070
     1
1071
       57
1005
130249
  0
LINE
  5
13024A
  8
OBJECT
 10
421.0
 20
-541.0
 30
0.0
 11
571.0
 21
-541.0
 31
0.0
1001
ACDBBLOCKREPETAG
1070
     1
1071
       58
1005
13024A
  0
LINE
  5
13024B
  8
OBJECT
 10
424.0
 20
-582.5
 30
0.0
 11
568.0
 21
-582.5
 31
0.0
1001
ACDBBLOCKREPETAG
1070
     1
1071
       59
1005
13024B
  0
LINE
  5
13024C
  8
OBJECT
 10
430.49999999999989
 20
-594.0
 30
0.0
 11
561.5
 21
-594.0
 31
0.0
1001
ACDBBLOCKREPETAG
1070
     1
1071
       60
1005
13024C
  0
LINE
  5
13024D
  8
OBJECT
 10
571.0
 20
-541.0
 30
0.0
 11
571.0
 21
-534.0
 31
0.0
1001
ACDBBLOCKREPETAG
1070
     1
1071
       61
1005
13024D
  0
LINE
  5
13024E
  8
OBJECT
 10
571.0
 20
-534.0
 30
0.0
 11
421.0
 21
-534.0
 31
0.0
1001
ACDBBLOCKREPETAG
1070
     1
1071
       62
1005
13024E
  0
LINE
  5
13024F
  8
OBJECT
 10
558.0
 20
-598.0
 30
0.0
 11
558.0
 21
-604.0
 31
0.0
1001
ACDBBLOCKREPETAG
1070
     1
1071
       63
1005
13024F
  0
LINE
  5
130250
  8
OBJECT
 10
568.0
 20
-541.0
 30
0.0
 11
568.0
 21
-582.5
 31
0.0
1001
ACDBBLOCKREPETAG
1070
     1
1071
       64
1005
130250
  0
LINE
  5
130251
  8
OBJECT
 10
568.0
 20
-582.5
 30
0.0
 11
561.5
 21
-594.0
 31
0.0
1001
ACDBBLOCKREPETAG
1070
     1
1071
       65
1005
130251
  0
LINE
  5
130252
  8
OBJECT
 10
561.5
 20
-594.0
 30
0.0
 11
558.0
 21
-598.0
 31
0.0
1001
ACDBBLOCKREPETAG
1070
     1
1071
       66
1005
130252
  0
LINE
  5
130253
  8
OBJECT
 10
424.0
 20
-582.5
 30
0.0
 11
430.49999999999989
 21
-594.0
 31
0.0
1001
ACDBBLOCKREPETAG
1070
     1
1071
       67
1005
130253
  0
LINE
  5
130254
  8
OBJECT
 10
430.49999999999989
 20
-594.0
 30
0.0
 11
434.0
 21
-598.0
 31
0.0
1001
ACDBBLOCKREPETAG
1070
     1
1071
       68
1005
130254
  0
ARC
  5
130255
  8
OBJECT
 10
496.0
 20
-216.09999999999849
 30
0.0
 40
386.89999999999998
 50
260.77870136257951
 51
279.22129863742049
1001
ACDBBLOCKREPETAG
1070
     1
1071
       69
1005
130255
  0
LINE
  5
130256
  8
OBJECT
 10
434.0
 20
-598.0
 30
0.0
 11
434.0
 21
-604.0
 31
0.0
1001
ACDBBLOCKREPETAG
1070
     1
1071
       70
1005
130256
  0
LINE
  5
130257
  8
OBJECT
 10
424.0
 20
-541.0
 30
0.0
 11
424.0
 21
-582.5
 31
0.0
1001
ACDBBLOCKREPETAG
1070
     1
1071
       71
1005
130257
  0
INSERT
  5
130258
  8
OBJECT
  2
*U3
 10
0.0
 20
0.0
 30
0.0
  0
LINE
  5
130259
  8
HIDDEN
 10
553.0
 20
-586.0
 30
0.0
 11
439.0
 21
-586.0
 31
0.0
1001
ACDBBLOCKREPETAG
1070
     1
1071
      431
1005
130259
  0
LINE
  5
13025A
  8
OBJECT
 10
434.0
 20
-767.0
 30
0.0
 11
434.0
 21
-764.0
 31
0.0
1001
ACDBBLOCKREPETAG
1070
     1
1071
      418
1005
13025A
  0
ARC
  5
13025B
  8
OBJECT
 10
437.0
 20
-767.0
 30
0.0
 40
3.0
 50
180.0
 51
270.0
1001
ACDBBLOCKREPETAG
1070
     1
1071
      419
1005
13025B
  0
LINE
  5
13025C
  8
OBJECT
 10
558.0
 20
-764.0
 30
0.0
 11
558.0
 21
-767.0
 31
0.0
1001
ACDBBLOCKREPETAG
1070
     1
1071
      420
1005
13025C
  0
ARC
  5
13025D
  8
OBJECT
 10
555.0
 20
-767.0
 30
0.0
 40
3.0
 50
270.0
 51
0.0
1001
ACDBBLOCKREPETAG
1070
     1
1071
      421
1005
13025D
  0
LINE
  5
13025E
  8
OBJECT
 10
555.0
 20
-770.0
 30
0.0
 11
437.0
 21
-770.0
 31
0.0
1001
ACDBBLOCKREPETAG
1070
     1
1071
      422
1005
13025E
  0
LINE
  5
13025F
  8
OBJECT
 10
582.0
 20
-624.9999999999992
 30
0.0
 11
582.0
 21
-742.99999999999875
 31
0.0
1001
ACDBBLOCKREPETAG
1070
     1
1071
      323
1005
13025F
  0
LINE
  5
130260
  8
OBJECT
 10
606.0
 20
-728.5
 30
0.0
 11
606.0
 21
-639.5
 31
0.0
1001
ACDBBLOCKREPETAG
1070
     1
1071
      324
1005
130260
  0
LINE
  5
130261
  8
OBJECT
 10
606.0
 20
-728.5
 30
0.0
 11
582.0
 21
-728.5
 31
0.0
1001
ACDBBLOCKREPETAG
1070
     1
1071
      325
1005
130261
  0
LINE
  5
130262
  8
OBJECT
 10
576.0
 20
-745.99999999999909
 30
0.0
 11
579.0
 21
-745.99999999999909
 31
0.0
1001
ACDBBLOCKREPETAG
1070
     1
1071
      326
1005
130262
  0
ARC
  5
130263
  8
OBJECT
 10
579.0
 20
-742.99999999999875
 30
0.0
 40
3.0
 50
270.0
 51
0.0
1001
ACDBBLOCKREPETAG
1070
     1
1071
      327
1005
130263
  0
LINE
  5
130264
  8
OBJECT
 10
606.0
 20
-666.17793400000005
 30
0.0
 11
609.83118900000045
 21
-661.89681800000017
 31
0.0
1001
ACDBBLOCKREPETAG
1070
     1
1071
      328
1005
130264
  0
ARC
  5
130265
  8
OBJECT
 10
616.0
 20
-666.99999999999909
 30
0.0
 40
8.0
 50
341.8416470000376
 51
140.40224699998851
1001
ACDBBLOCKREPETAG
1070
     1
1071
      329
1005
130265
  0
ARC
  5
130266
  8
OBJECT
 10
618.85059700000045
 20
-667.93493299999955
 30
0.0
 40
5.0
 50
288.48486900001723
 51
341.8416470000376
1001
ACDBBLOCKREPETAG
1070
     1
1071
      330
1005
130266
  0
LINE
  5
130267
  8
OBJECT
 10
616.0
 20
-679.0
 30
0.0
 11
609.0
 21
-679.0
 31
0.0
1001
ACDBBLOCKREPETAG
1070
     1
1071
      331
1005
130267
  0
LINE
  5
130268
  8
OBJECT
 10
616.0
 20
-689.0
 30
0.0
 11
609.0
 21
-689.0
 31
0.0
1001
ACDBBLOCKREPETAG
1070
     1
1071
      332
1005
130268
  0
LINE
  5
130269
  8
OBJECT
 10
616.0
 20
-679.0
 30
0.0
 11
616.0
 21
-689.0
 31
0.0
1001
ACDBBLOCKREPETAG
1070
     1
1071
      333
1005
130269
  0
LINE
  5
13026A
  8
OBJECT
 10
609.0
 20
-676.5
 30
0.0
 11
609.0
 21
-691.5
 31
0.0
1001
ACDBBLOCKREPETAG
1070
     1
1071
      334
1005
13026A
  0
LINE
  5
13026B
  8
OBJECT
 10
606.0
 20
-692.25
 30
0.0
 11
609.0
 21
-691.5
 31
0.0
1001
ACDBBLOCKREPETAG
1070
     1
1071
      335
1005
13026B
  0
LINE
  5
13026C
  8
OBJECT
 10
606.0
 20
-701.82206699999995
 30
0.0
 11
609.83118900000045
 21
-706.10318200000074
 31
0.0
1001
ACDBBLOCKREPETAG
1070
     1
1071
      336
1005
13026C
  0
LINE
  5
13026D
  8
OBJECT
 10
606.0
 20
-675.75
 30
0.0
 11
609.0
 21
-676.5
 31
0.0
1001
ACDBBLOCKREPETAG
1070
     1
1071
      337
1005
13026D
  0
ARC
  5
13026E
  8
OBJECT
 10
616.0
 20
-700.99999999999898
 30
0.0
 40
8.0
 50
219.59775300001141
 51
18.158352999962421
1001
ACDBBLOCKREPETAG
1070
     1
1071
      338
1005
13026E
  0
ARC
  5
13026F
  8
OBJECT
 10
618.85059700000045
 20
-700.06506700000045
 30
0.0
 40
5.0
 50
18.158352999962421
 51
71.515130999982702
1001
ACDBBLOCKREPETAG
1070
     1
1071
      339
1005
13026F
  0
LINE
  5
130270
  8
OBJECT
 10
620.43586800000026
 20
-695.32303000000013
 30
0.0
 11
609.0
 21
-691.5
 31
0.0
1001
ACDBBLOCKREPETAG
1070
     1
1071
      340
1005
130270
  0
LINE
  5
130271
  8
OBJECT
 10
620.43586800000026
 20
-672.67696999999919
 30
0.0
 11
609.0
 21
-676.5
 31
0.0
1001
ACDBBLOCKREPETAG
1070
     1
1071
      341
1005
130271
  0
ARC
  5
130272
  8
OBJECT
 10
579.0
 20
-624.9999999999992
 30
0.0
 40
3.0
 50
0.0
 51
90.0
1001
ACDBBLOCKREPETAG
1070
     1
1071
      342
1005
130272
  0
LINE
  5
130273
  8
OBJECT
 10
576.0
 20
-621.99999999999886
 30
0.0
 11
579.0
 21
-621.99999999999886
 31
0.0
1001
ACDBBLOCKREPETAG
1070
     1
1071
      343
1005
130273
  0
LINE
  5
130274
  8
OBJECT
 10
606.0
 20
-639.5
 30
0.0
 11
582.0
 21
-639.5
 31
0.0
1001
ACDBBLOCKREPETAG
1070
     1
1071
      344
1005
130274
  0
INSERT
  5
130275
  8
OBJECT
  2
*U4
 10
0.0
 20
0.0
 30
0.0
  0
INSERT
  5
130276
  8
OBJECT
  2
*U5
 10
0.0
 20
0.0
 30
0.0
  0
LINE
  5
130277
  8
OBJECT
 10
74.0
 20
-551.0
 30
0.0
 11
74.0
 21
-544.0
 31
0.0
1001
ACDBBLOCKREPETAG
1070
     1
1071
       39
1005
130277
  0
LINE
  5
130278
  8
OBJECT
 10
74.0
 20
-544.0
 30
0.0
 11
198.0
 21
-544.0
 31
0.0
1001
ACDBBLOCKREPETAG
1070
     1
1071
       40
1005
130278
  0
LINE
  5
130279
  8
OBJECT
 10
198.0
 20
-544.0
 30
0.0
 11
198.0
 21
-551.0
 31
0.0
1001
ACDBBLOCKREPETAG
1070
     1
1071
       41
1005
130279
  0
LINE
  5
13027A
  8
OBJECT
 10
198.0
 20
-551.0
 30
0.0
 11
74.0
 21
-551.0
 31
0.0
1001
ACDBBLOCKREPETAG
1070
     1
1071
       42
1005
13027A
  0
LINE
  5
13027B
  8
OBJECT
 10
77.0
 20
-551.0
 30
0.0
 11
77.0
 21
-587.0
 31
0.0
1001
ACDBBLOCKREPETAG
1070
     1
1071
       43
1005
13027B
  0
LINE
  5
13027C
  8
OBJECT
 10
77.0
 20
-587.0
 30
0.0
 11
195.0
 21
-587.0
 31
0.0
1001
ACDBBLOCKREPETAG
1070
     1
1071
       44
1005
13027C
  0
LINE
  5
13027D
  8
OBJECT
 10
195.0
 20
-587.0
 30
0.0
 11
195.0
 21
-551.0
 31
0.0
1001
ACDBBLOCKREPETAG
1070
     1
1071
       45
1005
13027D
  0
LINE
  5
13027E
  8
OBJECT
 10
81.5
 20
-591.0
 30
0.0
 11
81.5
 21
-598.0
 31
0.0
1001
ACDBBLOCKREPETAG
1070
     1
1071
       46
1005
13027E
  0
LINE
  5
13027F
  8
OBJECT
 10
190.5
 20
-598.0
 30
0.0
 11
190.5
 21
-591.0
 31
0.0
1001
ACDBBLOCKREPETAG
1070
     1
1071
       47
1005
13027F
  0
LINE
  5
130280
  8
OBJECT
 10
190.5
 20
-591.0
 30
0.0
 11
81.5
 21
-591.0
 31
0.0
1001
ACDBBLOCKREPETAG
1070
     1
1071
       48
1005
130280
  0
LINE
  5
130281
  8
OBJECT
 10
77.0
 20
-587.0
 30
0.0
 11
81.5
 21
-591.0
 31
0.0
1001
ACDBBLOCKREPETAG
1070
     1
1071
       49
1005
130281
  0
LINE
  5
130282
  8
OBJECT
 10
195.0
 20
-587.0
 30
0.0
 11
190.5
 21
-591.0
 31
0.0
1001
ACDBBLOCKREPETAG
1070
     1
1071
       50
1005
130282
  0
LINE
  5
130283
  8
OBJECT
 10
74.0
 20
-600.99999999999898
 30
0.0
 11
74.0
 21
-604.0
 31
0.0
1001
ACDBBLOCKREPETAG
1070
     1
1071
       51
1005
130283
  0
ARC
  5
130284
  8
OBJECT
 10
77.0
 20
-600.99999999999898
 30
0.0
 40
3.0
 50
90.0
 51
180.0
1001
ACDBBLOCKREPETAG
1070
     1
1071
       52
1005
130284
  0
LINE
  5
130285
  8
OBJECT
 10
198.0
 20
-604.0
 30
0.0
 11
198.0
 21
-601.00000000000068
 31
0.0
1001
ACDBBLOCKREPETAG
1070
     1
1071
       53
1005
130285
  0
ARC
  5
130286
  8
OBJECT
 10
195.0
 20
-601.00000000000068
 30
0.0
 40
3.0
 50
0.0
 51
90.0
1001
ACDBBLOCKREPETAG
1070
     1
1071
       54
1005
130286
  0
LINE
  5
130287
  8
OBJECT
 10
195.0
 20
-598.0000000000008
 30
0.0
 11
77.0
 21
-597.99999999999875
 31
0.0
1001
ACDBBLOCKREPETAG
1070
     1
1071
       55
1005
130287
  0
LINE
  5
130288
  8
HIDDEN
 10
91.5
 20
-596.0
 30
0.0
 11
180.5
 21
-596.0
 31
0.0
1001
ACDBBLOCKREPETAG
1070
     1
1071
      426
1005
130288
  0
LINE
  5
130289
  8
OBJECT
 10
74.0
 20
-767.0
 30
0.0
 11
74.0
 21
-764.0
 31
0.0
1001
ACDBBLOCKREPETAG
1070
     1
1071
      418
1005
130289
  0
ARC
  5
13028A
  8
OBJECT
 10
77.0
 20
-767.0
 30
0.0
 40
3.0
 50
180.0
 51
270.0
1001
ACDBBLOCKREPETAG
1070
     1
1071
      419
1005
13028A
  0
LINE
  5
13028B
  8
OBJECT
 10
198.0
 20
-764.0
 30
0.0
 11
198.0
 21
-767.0
 31
0.0
1001
ACDBBLOCKREPETAG
1070
     1
1071
      420
1005
13028B
  0
ARC
  5
13028C
  8
OBJECT
 10
195.0
 20
-767.0
 30
0.0
 40
3.0
 50
270.0
 51
0.0
1001
ACDBBLOCKREPETAG
1070
     1
1071
      421
1005
13028C
  0
LINE
  5
13028D
  8
OBJECT
 10
195.0
 20
-770.0
 30
0.0
 11
77.0
 21
-770.0
 31
0.0
1001
ACDBBLOCKREPETAG
1070
     1
1071
      422
1005
13028D
  0
LINE
  5
13028E
  8
OBJECT
 10
222.0
 20
-624.9999999999992
 30
0.0
 11
222.0
 21
-742.99999999999875
 31
0.0
1001
ACDBBLOCKREPETAG
1070
     1
1071
      323
1005
13028E
  0
LINE
  5
13028F
  8
OBJECT
 10
246.0
 20
-728.5
 30
0.0
 11
246.0
 21
-639.5
 31
0.0
1001
ACDBBLOCKREPETAG
1070
     1
1071
      324
1005
13028F
  0
LINE
  5
130290
  8
OBJECT
 10
246.0
 20
-728.5
 30
0.0
 11
222.0
 21
-728.5
 31
0.0
1001
ACDBBLOCKREPETAG
1070
     1
1071
      325
1005
130290
  0
LINE
  5
130291
  8
OBJECT
 10
216.0
 20
-745.99999999999909
 30
0.0
 11
219.0
 21
-745.99999999999909
 31
0.0
1001
ACDBBLOCKREPETAG
1070
     1
1071
      326
1005
130291
  0
ARC
  5
130292
  8
OBJECT
 10
219.0
 20
-742.99999999999875
 30
0.0
 40
3.0
 50
270.0
 51
0.0
1001
ACDBBLOCKREPETAG
1070
     1
1071
      327
1005
130292
  0
LINE
  5
130293
  8
OBJECT
 10
246.0
 20
-666.17793400000005
 30
0.0
 11
249.83118900000039
 21
-661.89681800000017
 31
0.0
1001
ACDBBLOCKREPETAG
1070
     1
1071
      328
1005
130293
  0
ARC
  5
130294
  8
OBJECT
 10
256.0
 20
-666.99999999999909
 30
0.0
 40
8.0
 50
341.84164700003799
 51
140.40224699998751
1001
ACDBBLOCKREPETAG
1070
     1
1071
      329
1005
130294
  0
ARC
  5
130295
  8
OBJECT
 10
258.85059700000062
 20
-667.93493299999955
 30
0.0
 40
5.0
 50
288.48486900001421
 51
341.84164700003799
1001
ACDBBLOCKREPETAG
1070
     1
1071
      330
1005
130295
  0
LINE
  5
130296
  8
OBJECT
 10
256.0
 20
-679.0
 30
0.0
 11
249.0
 21
-679.0
 31
0.0
1001
ACDBBLOCKREPETAG
1070
     1
1071
      331
1005
130296
  0
LINE
  5
130297
  8
OBJECT
 10
256.0
 20
-689.0
 30
0.0
 11
249.0
 21
-689.0
 31
0.0
1001
ACDBBLOCKREPETAG
1070
     1
1071
      332
1005
130297
  0
LINE
  5
130298
  8
OBJECT
 10
256.0
 20
-679.0
 30
0.0
 11
256.0
 21
-689.0
 31
0.0
1001
ACDBBLOCKREPETAG
1070
     1
1071
      333
1005
130298
  0
LINE
  5
130299
  8
OBJECT
 10
249.0
 20
-676.5
 30
0.0
 11
249.0
 21
-691.5
 31
0.0
1001
ACDBBLOCKREPETAG
1070
     1
1071
      334
1005
130299
  0
LINE
  5
13029A
  8
OBJECT
 10
246.0
 20
-692.25
 30
0.0
 11
249.0
 21
-691.5
 31
0.0
1001
ACDBBLOCKREPETAG
1070
     1
1071
      335
1005
13029A
  0
LINE
  5
13029B
  8
OBJECT
 10
246.0
 20
-701.82206699999995
 30
0.0
 11
249.83118900000039
 21
-706.10318200000074
 31
0.0
1001
ACDBBLOCKREPETAG
1070
     1
1071
      336
1005
13029B
  0
LINE
  5
13029C
  8
OBJECT
 10
246.0
 20
-675.75
 30
0.0
 11
249.0
 21
-676.5
 31
0.0
1001
ACDBBLOCKREPETAG
1070
     1
1071
      337
1005
13029C
  0
ARC
  5
13029D
  8
OBJECT
 10
256.0
 20
-700.99999999999898
 30
0.0
 40
8.0
 50
219.5977530000124
 51
18.158352999961931
1001
ACDBBLOCKREPETAG
1070
     1
1071
      338
1005
13029D
  0
ARC
  5
13029E
  8
OBJECT
 10
258.85059700000062
 20
-700.06506700000045
 30
0.0
 40
5.0
 50
18.158352999961931
 51
71.515130999985757
1001
ACDBBLOCKREPETAG
1070
     1
1071
      339
1005
13029E
  0
LINE
  5
13029F
  8
OBJECT
 10
260.43586800000048
 20
-695.32303000000013
 30
0.0
 11
249.0
 21
-691.5
 31
0.0
1001
ACDBBLOCKREPETAG
1070
     1
1071
      340
1005
13029F
  0
LINE
  5
1302A0
  8
OBJECT
 10
260.43586800000048
 20
-672.67696999999919
 30
0.0
 11
249.0
 21
-676.5
 31
0.0
1001
ACDBBLOCKREPETAG
1070
     1
1071
      341
1005
1302A0
  0
ARC
  5
1302A1
  8
OBJECT
 10
219.0
 20
-624.9999999999992
 30
0.0
 40
3.0
 50
0.0
 51
90.0
1001
ACDBBLOCKREPETAG
1070
     1
1071
      342
1005
1302A1
  0
LINE
  5
1302A2
  8
OBJECT
 10
216.0
 20
-621.99999999999886
 30
0.0
 11
219.0
 21
-621.99999999999886
 31
0.0
1001
ACDBBLOCKREPETAG
1070
     1
1071
      343
1005
1302A2
  0
LINE
  5
1302A3
  8
OBJECT
 10
246.0
 20
-639.5
 30
0.0
 11
222.0
 21
-639.5
 31
0.0
1001
ACDBBLOCKREPETAG
1070
     1
1071
      344
1005
1302A3
  0
INSERT
  5
1302A4
  8
OBJECT
  2
*U6
 10
0.0
 20
0.0
 30
0.0
  0
INSERT
  5
1302A5
  8
OBJECT
  2
*U7
 10
0.0
 20
0.0
 30
0.0
  0
LINE
  5
1302A6
  8
OBJECT
 10
441.0
 20
-87.0
 30
0.0
 11
441.0
 21
-80.0
 31
0.0
1001
ACDBBLOCKREPETAG
1070
     1
1071
       20
1005
1302A6
  0
LINE
  5
1302A7
  8
OBJECT
 10
441.0
 20
-80.0
 30
0.0
 11
551.0
 21
-80.0
 31
0.0
1001
ACDBBLOCKREPETAG
1070
     1
1071
       21
1005
1302A7
  0
LINE
  5
1302A8
  8
OBJECT
 10
551.0
 20
-80.0
 30
0.0
 11
551.0
 21
-87.0
 31
0.0
1001
ACDBBLOCKREPETAG
1070
     1
1071
       22
1005
1302A8
  0
LINE
  5
1302A9
  8
OBJECT
 10
551.0
 20
-87.0
 30
0.0
 11
441.0
 21
-87.0
 31
0.0
1001
ACDBBLOCKREPETAG
1070
     1
1071
       23
1005
1302A9
  0
LINE
  5
1302AA
  8
OBJECT
 10
444.0
 20
-87.0
 30
0.0
 11
444.0
 21
-123.0
 31
0.0
1001
ACDBBLOCKREPETAG
1070
     1
1071
       24
1005
1302AA
  0
LINE
  5
1302AB
  8
OBJECT
 10
444.0
 20
-123.0
 30
0.0
 11
548.0
 21
-123.0
 31
0.0
1001
ACDBBLOCKREPETAG
1070
     1
1071
       25
1005
1302AB
  0
LINE
  5
1302AC
  8
OBJECT
 10
548.0
 20
-123.0
 30
0.0
 11
548.0
 21
-87.0
 31
0.0
1001
ACDBBLOCKREPETAG
1070
     1
1071
       26
1005
1302AC
  0
LINE
  5
1302AD
  8
OBJECT
 10
448.5
 20
-127.0
 30
0.0
 11
448.5
 21
-134.0
 31
0.0
1001
ACDBBLOCKREPETAG
1070
     1
1071
       27
1005
1302AD
  0
LINE
  5
1302AE
  8
OBJECT
 10
543.5
 20
-134.0
 30
0.0
 11
543.5
 21
-127.0
 31
0.0
1001
ACDBBLOCKREPETAG
1070
     1
1071
       28
1005
1302AE
  0
LINE
  5
1302AF
  8
OBJECT
 10
543.5
 20
-127.0
 30
0.0
 11
448.5
 21
-127.0
 31
0.0
1001
ACDBBLOCKREPETAG
1070
     1
1071
       29
1005
1302AF
  0
LINE
  5
1302B0
  8
OBJECT
 10
444.0
 20
-123.0
 30
0.0
 11
448.5
 21
-127.0
 31
0.0
1001
ACDBBLOCKREPETAG
1070
     1
1071
       30
1005
1302B0
  0
LINE
  5
1302B1
  8
OBJECT
 10
548.0
 20
-123.0
 30
0.0
 11
543.5
 21
-127.0
 31
0.0
1001
ACDBBLOCKREPETAG
1070
     1
1071
       31
1005
1302B1
  0
LINE
  5
1302B2
  8
OBJECT
 10
434.0
 20
-136.99999999999909
 30
0.0
 11
434.0
 21
-140.0
 31
0.0
1001
ACDBBLOCKREPETAG
1070
     1
1071
       32
1005
1302B2
  0
ARC
  5
1302B3
  8
OBJECT
 10
437.0
 20
-136.99999999999909
 30
0.0
 40
3.0
 50
90.0
 51
180.0
1001
ACDBBLOCKREPETAG
1070
     1
1071
       33
1005
1302B3
  0
LINE
  5
1302B4
  8
OBJECT
 10
558.0
 20
-140.0
 30
0.0
 11
558.0
 21
-137.00000000000091
 31
0.0
1001
ACDBBLOCKREPETAG
1070
     1
1071
       34
1005
1302B4
  0
ARC
  5
1302B5
  8
OBJECT
 10
555.0
 20
-137.00000000000091
 30
0.0
 40
3.0
 50
0.0
 51
90.0
1001
ACDBBLOCKREPETAG
1070
     1
1071
       35
1005
1302B5
  0
LINE
  5
1302B6
  8
OBJECT
 10
555.0
 20
-134.00000000000091
 30
0.0
 11
437.0
 21
-133.99999999999909
 31
0.0
1001
ACDBBLOCKREPETAG
1070
     1
1071
       36
1005
1302B6
  0
LINE
  5
1302B7
  8
HIDDEN
 10
458.0
 20
-132.0
 30
0.0
 11
534.0
 21
-132.0
 31
0.0
1001
ACDBBLOCKREPETAG
1070
     1
1071
      423
1005
1302B7
  0
LINE
  5
1302B8
  8
OBJECT
 10
434.0
 20
-303.0
 30
0.0
 11
434.0
 21
-300.0
 31
0.0
1001
ACDBBLOCKREPETAG
1070
     1
1071
      418
1005
1302B8
  0
ARC
  5
1302B9
  8
OBJECT
 10
437.0
 20
-303.0
 30
0.0
 40
3.0
 50
180.0
 51
270.0
1001
ACDBBLOCKREPETAG
1070
     1
1071
      419
1005
1302B9
  0
LINE
  5
1302BA
  8
OBJECT
 10
558.0
 20
-300.0
 30
0.0
 11
558.0
 21
-303.0
 31
0.0
1001
ACDBBLOCKREPETAG
1070
     1
1071
      420
1005
1302BA
  0
ARC
  5
1302BB
  8
OBJECT
 10
555.0
 20
-303.0
 30
0.0
 40
3.0
 50
270.0
 51
0.0
1001
ACDBBLOCKREPETAG
1070
     1
1071
      421
1005
1302BB
  0
LINE
  5
1302BC
  8
OBJECT
 10
555.0
 20
-306.0
 30
0.0
 11
437.0
 21
-306.0
 31
0.0
1001
ACDBBLOCKREPETAG
1070
     1
1071
      422
1005
1302BC
  0
LINE
  5
1302BD
  8
OBJECT
 10
582.0
 20
-160.99999999999909
 30
0.0
 11
582.0
 21
-278.99999999999909
 31
0.0
1001
ACDBBLOCKREPETAG
1070
     1
1071
      323
1005
1302BD
  0
LINE
  5
1302BE
  8
OBJECT
 10
606.0
 20
-264.5
 30
0.0
 11
606.0
 21
-175.5
 31
0.0
1001
ACDBBLOCKREPETAG
1070
     1
1071
      324
1005
1302BE
  0
LINE
  5
1302BF
  8
OBJECT
 10
606.0
 20
-264.5
 30
0.0
 11
582.0
 21
-264.5
 31
0.0
1001
ACDBBLOCKREPETAG
1070
     1
1071
      325
1005
1302BF
  0
LINE
  5
1302C0
  8
OBJECT
 10
576.0
 20
-281.99999999999909
 30
0.0
 11
579.0
 21
-281.99999999999909
 31
0.0
1001
ACDBBLOCKREPETAG
1070
     1
1071
      326
1005
1302C0
  0
ARC
  5
1302C1
  8
OBJECT
 10
579.0
 20
-278.99999999999909
 30
0.0
 40
3.0
 50
270.0
 51
0.0
1001
ACDBBLOCKREPETAG
1070
     1
1071
      327
1005
1302C1
  0
LINE
  5
1302C2
  8
OBJECT
 10
606.0
 20
-202.17793400000031
 30
0.0
 11
609.83118900000045
 21
-197.89681800000011
 31
0.0
1001
ACDBBLOCKREPETAG
1070
     1
1071
      328
1005
1302C2
  0
ARC
  5
1302C3
  8
OBJECT
 10
616.0
 20
-202.99999999999909
 30
0.0
 40
8.0
 50
341.8416470000376
 51
140.40224699998609
1001
ACDBBLOCKREPETAG
1070
     1
1071
      329
1005
1302C3
  0
ARC
  5
1302C4
  8
OBJECT
 10
618.85059700000045
 20
-203.9349329999994
 30
0.0
 40
5.0
 50
288.48486900001677
 51
341.8416470000376
1001
ACDBBLOCKREPETAG
1070
     1
1071
      330
1005
1302C4
  0
LINE
  5
1302C5
  8
OBJECT
 10
616.0
 20
-215.0
 30
0.0
 11
609.0
 21
-215.0
 31
0.0
1001
ACDBBLOCKREPETAG
1070
     1
1071
      331
1005
1302C5
  0
LINE
  5
1302C6
  8
OBJECT
 10
616.0
 20
-225.0
 30
0.0
 11
609.0
 21
-225.0
 31
0.0
1001
ACDBBLOCKREPETAG
1070
     1
1071
      332
1005
1302C6
  0
LINE
  5
1302C7
  8
OBJECT
 10
616.0
 20
-215.0
 30
0.0
 11
616.0
 21
-225.0
 31
0.0
1001
ACDBBLOCKREPETAG
1070
     1
1071
      333
1005
1302C7
  0
LINE
  5
1302C8
  8
OBJECT
 10
609.0
 20
-212.5
 30
0.0
 11
609.0
 21
-227.5
 31
0.0
1001
ACDBBLOCKREPETAG
1070
     1
1071
      334
1005
1302C8
  0
LINE
  5
1302C9
  8
OBJECT
 10
606.0
 20
-228.25
 30
0.0
 11
609.0
 21
-227.5
 31
0.0
1001
ACDBBLOCKREPETAG
1070
     1
1071
      335
1005
1302C9
  0
LINE
  5
1302CA
  8
OBJECT
 10
606.0
 20
-237.82206700000009
 30
0.0
 11
609.83118900000045
 21
-242.1031820000008
 31
0.0
1001
ACDBBLOCKREPETAG
1070
     1
1071
      336
1005
1302CA
  0
LINE
  5
1302CB
  8
OBJECT
 10
606.0
 20
-211.75
 30
0.0
 11
609.0
 21
-212.5
 31
0.0
1001
ACDBBLOCKREPETAG
1070
     1
1071
      337
1005
1302CB
  0
ARC
  5
1302CC
  8
OBJECT
 10
616.0
 20
-236.99999999999909
 30
0.0
 40
8.0
 50
219.59775300001391
 51
18.158352999962421
1001
ACDBBLOCKREPETAG
1070
     1
1071
      338
1005
1302CC
  0
ARC
  5
1302CD
  8
OBJECT
 10
618.85059700000045
 20
-236.0650670000004
 30
0.0
 40
5.0
 50
18.158352999962421
 51
71.515130999983214
1001
ACDBBLOCKREPETAG
1070
     1
1071
      339
1005
1302CD
  0
LINE
  5
1302CE
  8
OBJECT
 10
620.43586800000026
 20
-231.3230300000005
 30
0.0
 11
609.0
 21
-227.5
 31
0.0
1001
ACDBBLOCKREPETAG
1070
     1
1071
      340
1005
1302CE
  0
LINE
  5
1302CF
  8
OBJECT
 10
620.43586800000026
 20
-208.6769699999995
 30
0.0
 11
609.0
 21
-212.5
 31
0.0
1001
ACDBBLOCKREPETAG
1070
     1
1071
      341
1005
1302CF
  0
ARC
  5
1302D0
  8
OBJECT
 10
579.0
 20
-160.99999999999909
 30
0.0
 40
3.0
 50
0.0
 51
90.0
1001
ACDBBLOCKREPETAG
1070
     1
1071
      342
1005
1302D0
  0
LINE
  5
1302D1
  8
OBJECT
 10
576.0
 20
-157.99999999999909
 30
0.0
 11
579.0
 21
-157.99999999999909
 31
0.0
1001
ACDBBLOCKREPETAG
1070
     1
1071
      343
1005
1302D1
  0
LINE
  5
1302D2
  8
OBJECT
 10
606.0
 20
-175.5
 30
0.0
 11
582.0
 21
-175.5
 31
0.0
1001
ACDBBLOCKREPETAG
1070
     1
1071
      344
1005
1302D2
  0
INSERT
  5
1302D3
  8
OBJECT
  2
*U8
 10
0.0
 20
0.0
 30
0.0
  0
INSERT
  5
1302D4
  8
OBJECT
  2
*U9
 10
0.0
 20
0.0
 30
0.0
  0
LINE
  5
1302D5
  8
OBJECT
 10
89.0
 20
-87.0
 30
0.0
 11
89.0
 21
-80.0
 31
0.0
1001
ACDBBLOCKREPETAG
1070
     1
1071
        1
1005
1302D5
  0
LINE
  5
1302D6
  8
OBJECT
 10
89.0
 20
-80.0
 30
0.0
 11
183.0
 21
-80.0
 31
0.0
1001
ACDBBLOCKREPETAG
1070
     1
1071
        2
1005
1302D6
  0
LINE
  5
1302D7
  8
OBJECT
 10
183.0
 20
-80.0
 30
0.0
 11
183.0
 21
-87.0
 31
0.0
1001
ACDBBLOCKREPETAG
1070
     1
1071
        3
1005
1302D7
  0
LINE
  5
1302D8
  8
OBJECT
 10
183.0
 20
-87.0
 30
0.0
 11
89.0
 21
-87.0
 31
0.0
1001
ACDBBLOCKREPETAG
1070
     1
1071
        4
1005
1302D8
  0
LINE
  5
1302D9
  8
OBJECT
 10
92.0
 20
-87.0
 30
0.0
 11
92.0
 21
-123.0
 31
0.0
1001
ACDBBLOCKREPETAG
1070
     1
1071
        5
1005
1302D9
  0
LINE
  5
1302DA
  8
OBJECT
 10
92.0
 20
-123.0
 30
0.0
 11
180.0
 21
-123.0
 31
0.0
1001
ACDBBLOCKREPETAG
1070
     1
1071
        6
1005
1302DA
  0
LINE
  5
1302DB
  8
OBJECT
 10
180.0
 20
-123.0
 30
0.0
 11
180.0
 21
-87.0
 31
0.0
1001
ACDBBLOCKREPETAG
1070
     1
1071
        7
1005
1302DB
  0
LINE
  5
1302DC
  8
OBJECT
 10
96.5
 20
-127.0
 30
0.0
 11
96.5
 21
-134.0
 31
0.0
1001
ACDBBLOCKREPETAG
1070
     1
1071
        8
1005
1302DC
  0
LINE
  5
1302DD
  8
OBJECT
 10
175.5
 20
-134.0
 30
0.0
 11
175.5
 21
-127.0
 31
0.0
1001
ACDBBLOCKREPETAG
1070
     1
1071
        9
1005
1302DD
  0
LINE
  5
1302DE
  8
OBJECT
 10
175.5
 20
-127.0
 30
0.0
 11
96.5
 21
-127.0
 31
0.0
1001
ACDBBLOCKREPETAG
1070
     1
1071
       10
1005
1302DE
  0
LINE
  5
1302DF
  8
OBJECT
 10
92.0
 20
-123.0
 30
0.0
 11
96.5
 21
-127.0
 31
0.0
1001
ACDBBLOCKREPETAG
1070
     1
1071
       11
1005
1302DF
  0
LINE
  5
1302E0
  8
OBJECT
 10
180.0
 20
-123.0
 30
0.0
 11
175.5
 21
-127.0
 31
0.0
1001
ACDBBLOCKREPETAG
1070
     1
1071
       12
1005
1302E0
  0
LINE
  5
1302E1
  8
OBJECT
 10
74.0
 20
-136.99999999999909
 30
0.0
 11
74.0
 21
-140.0
 31
0.0
1001
ACDBBLOCKREPETAG
1070
     1
1071
       13
1005
1302E1
  0
ARC
  5
1302E2
  8
OBJECT
 10
77.0
 20
-136.99999999999909
 30
0.0
 40
3.0
 50
90.0
 51
180.0
1001
ACDBBLOCKREPETAG
1070
     1
1071
       14
1005
1302E2
  0
LINE
  5
1302E3
  8
OBJECT
 10
198.0
 20
-140.0
 30
0.0
 11
198.0
 21
-137.00000000000091
 31
0.0
1001
ACDBBLOCKREPETAG
1070
     1
1071
       15
1005
1302E3
  0
ARC
  5
1302E4
  8
OBJECT
 10
195.0
 20
-137.00000000000091
 30
0.0
 40
3.0
 50
0.0
 51
90.0
1001
ACDBBLOCKREPETAG
1070
     1
1071
       16
1005
1302E4
  0
LINE
  5
1302E5
  8
OBJECT
 10
195.0
 20
-134.00000000000091
 30
0.0
 11
77.0
 21
-133.99999999999909
 31
0.0
1001
ACDBBLOCKREPETAG
1070
     1
1071
       17
1005
1302E5
  0
LINE
  5
1302E6
  8
HIDDEN
 10
106.0
 20
-132.0
 30
0.0
 11
166.0
 21
-132.0
 31
0.0
1001
ACDBBLOCKREPETAG
1070
     1
1071
      420
1005
1302E6
  0
LINE
  5
1302E7
  8
OBJECT
 10
74.0
 20
-303.0
 30
0.0
 11
74.0
 21
-300.0
 31
0.0
1001
ACDBBLOCKREPETAG
1070
     1
1071
      418
1005
1302E7
  0
ARC
  5
1302E8
  8
OBJECT
 10
77.0
 20
-303.0
 30
0.0
 40
3.0
 50
180.0
 51
270.0
1001
ACDBBLOCKREPETAG
1070
     1
1071
      419
1005
1302E8
  0
LINE
  5
1302E9
  8
OBJECT
 10
198.0
 20
-300.0
 30
0.0
 11
198.0
 21
-303.0
 31
0.0
1001
ACDBBLOCKREPETAG
1070
     1
1071
      420
1005
1302E9
  0
ARC
  5
1302EA
  8
OBJECT
 10
195.0
 20
-303.0
 30
0.0
 40
3.0
 50
270.0
 51
0.0
1001
ACDBBLOCKREPETAG
1070
     1
1071
      421
1005
1302EA
  0
LINE
  5
1302EB
  8
OBJECT
 10
195.0
 20
-306.0
 30
0.0
 11
77.0
 21
-306.0
 31
0.0
1001
ACDBBLOCKREPETAG
1070
     1
1071
      422
1005
1302EB
  0
LINE
  5
1302EC
  8
OBJECT
 10
222.0
 20
-160.99999999999909
 30
0.0
 11
222.0
 21
-278.99999999999909
 31
0.0
1001
ACDBBLOCKREPETAG
1070
     1
1071
      323
1005
1302EC
  0
LINE
  5
1302ED
  8
OBJECT
 10
246.0
 20
-264.5
 30
0.0
 11
246.0
 21
-175.5
 31
0.0
1001
ACDBBLOCKREPETAG
1070
     1
1071
      324
1005
1302ED
  0
LINE
  5
1302EE
  8
OBJECT
 10
246.0
 20
-264.5
 30
0.0
 11
222.0
 21
-264.5
 31
0.0
1001
ACDBBLOCKREPETAG
1070
     1
1071
      325
1005
1302EE
  0
LINE
  5
1302EF
  8
OBJECT
 10
216.0
 20
-281.99999999999909
 30
0.0
 11
219.0
 21
-281.99999999999909
 31
0.0
1001
ACDBBLOCKREPETAG
1070
     1
1071
      326
1005
1302EF
  0
ARC
  5
1302F0
  8
OBJECT
 10
219.0
 20
-278.99999999999909
 30
0.0
 40
3.0
 50
270.0
 51
0.0
1001
ACDBBLOCKREPETAG
1070
     1
1071
      327
1005
1302F0
  0
LINE
  5
1302F1
  8
OBJECT
 10
246.0
 20
-202.17793400000031
 30
0.0
 11
249.83118900000039
 21
-197.89681800000011
 31
0.0
1001
ACDBBLOCKREPETAG
1070
     1
1071
      328
1005
1302F1
  0
ARC
  5
1302F2
  8
OBJECT
 10
256.0
 20
-202.99999999999909
 30
0.0
 40
8.0
 50
341.84164700003799
 51
140.40224699998501
1001
ACDBBLOCKREPETAG
1070
     1
1071
      329
1005
1302F2
  0
ARC
  5
1302F3
  8
OBJECT
 10
258.85059700000062
 20
-203.9349329999994
 30
0.0
 40
5.0
 50
288.4848690000137
 51
341.84164700003799
1001
ACDBBLOCKREPETAG
1070
     1
1071
      330
1005
1302F3
  0
LINE
  5
1302F4
  8
OBJECT
 10
256.0
 20
-215.0
 30
0.0
 11
249.0
 21
-215.0
 31
0.0
1001
ACDBBLOCKREPETAG
1070
     1
1071
      331
1005
1302F4
  0
LINE
  5
1302F5
  8
OBJECT
 10
256.0
 20
-225.0
 30
0.0
 11
249.0
 21
-225.0
 31
0.0
1001
ACDBBLOCKREPETAG
1070
     1
1071
      332
1005
1302F5
  0
LINE
  5
1302F6
  8
OBJECT
 10
256.0
 20
-215.0
 30
0.0
 11
256.0
 21
-225.0
 31
0.0
1001
ACDBBLOCKREPETAG
1070
     1
1071
      333
1005
1302F6
  0
LINE
  5
1302F7
  8
OBJECT
 10
249.0
 20
-212.5
 30
0.0
 11
249.0
 21
-227.5
 31
0.0
1001
ACDBBLOCKREPETAG
1070
     1
1071
      334
1005
1302F7
  0
LINE
  5
1302F8
  8
OBJECT
 10
246.0
 20
-228.25
 30
0.0
 11
249.0
 21
-227.5
 31
0.0
1001
ACDBBLOCKREPETAG
1070
     1
1071
      335
1005
1302F8
  0
LINE
  5
1302F9
  8
OBJECT
 10
246.0
 20
-237.82206700000009
 30
0.0
 11
249.83118900000039
 21
-242.1031820000008
 31
0.0
1001
ACDBBLOCKREPETAG
1070
     1
1071
      336
1005
1302F9
  0
LINE
  5
1302FA
  8
OBJECT
 10
246.0
 20
-211.75
 30
0.0
 11
249.0
 21
-212.5
 31
0.0
1001
ACDBBLOCKREPETAG
1070
     1
1071
      337
1005
1302FA
  0
ARC
  5
1302FB
  8
OBJECT
 10
256.0
 20
-236.99999999999909
 30
0.0
 40
8.0
 50
219.59775300001499
 51
18.158352999961931
1001
ACDBBLOCKREPETAG
1070
     1
1071
      338
1005
1302FB
  0
ARC
  5
1302FC
  8
OBJECT
 10
258.85059700000062
 20
-236.0650670000004
 30
0.0
 40
5.0
 50
18.158352999961931
 51
71.515130999986297
1001
ACDBBLOCKREPETAG
1070
     1
1071
      339
1005
1302FC
  0
LINE
  5
1302FD
  8
OBJECT
 10
260.43586800000048
 20
-231.3230300000005
 30
0.0
 11
249.0
 21
-227.5
 31
0.0
1001
ACDBBLOCKREPETAG
1070
     1
1071
      340
1005
1302FD
  0
LINE
  5
1302FE
  8
OBJECT
 10
260.43586800000048
 20
-208.6769699999995
 30
0.0
 11
249.0
 21
-212.5
 31
0.0
1001
ACDBBLOCKREPETAG
1070
     1
1071
      341
1005
1302FE
  0
ARC
  5
1302FF
  8
OBJECT
 10
219.0
 20
-160.99999999999909
 30
0.0
 40
3.0
 50
0.0
 51
90.0
1001
ACDBBLOCKREPETAG
1070
     1
1071
      342
1005
1302FF
  0
LINE
  5
130300
  8
OBJECT
 10
216.0
 20
-157.99999999999909
 30
0.0
 11
219.0
 21
-157.99999999999909
 31
0.0
1001
ACDBBLOCKREPETAG
1070
     1
1071
      343
1005
130300
  0
LINE
  5
130301
  8
OBJECT
 10
246.0
 20
-175.5
 30
0.0
 11
222.0
 21
-175.5
 31
0.0
1001
ACDBBLOCKREPETAG
1070
     1
1071
      344
1005
130301
  0
INSERT
  5
130302
  8
OBJECT
  2
*U10
 10
0.0
 20
0.0
 30
0.0
  0
CIRCLE
  5
130303
  8
OBJECT
 10
136.0
 20
-220.0
 30
0.0
 40
70.0
1001
ACDBBLOCKREPETAG
1070
     1
1071
       43
1005
130303
  0
CIRCLE
  5
130304
  8
OBJECT
 10
136.0
 20
-220.0
 30
0.0
 40
77.0
1001
ACDBBLOCKREPETAG
1070
     1
1071
       44
1005
130304
  0
ARC
  5
130305
  8
OBJECT
 10
136.0
 20
-220.0
 30
0.0
 40
80.0
 50
140.80503257378101
 51
219.19496742621899
1001
ACDBBLOCKREPETAG
1070
     1
1071
       45
1005
130305
  0
LINE
  5
130306
  8
OBJECT
 10
74.0
 20
-174.33819977267541
 30
0.0
 11
74.0
 21
-140.0
 31
0.0
1001
ACDBBLOCKREPETAG
1070
     1
1071
       46
1005
130306
  0
LINE
  5
130307
  8
OBJECT
 10
198.0
 20
-158.0
 30
0.0
 11
198.0
 21
-140.0
 31
0.0
1001
ACDBBLOCKREPETAG
1070
     1
1071
       22
1005
130307
  0
LINE
  5
130308
  8
OBJECT
 10
198.0
 20
-158.0
 30
0.0
 11
216.0
 21
-158.0
 31
0.0
1001
ACDBBLOCKREPETAG
1070
     1
1071
       24
1005
130308
  0
LINE
  5
130309
  8
OBJECT
 10
198.0
 20
-282.0
 30
0.0
 11
216.0
 21
-282.0
 31
0.0
1001
ACDBBLOCKREPETAG
1070
     1
1071
       25
1005
130309
  0
LINE
  5
13030A
  8
OBJECT
 10
198.0
 20
-282.0
 30
0.0
 11
198.0
 21
-300.0
 31
0.0
1001
ACDBBLOCKREPETAG
1070
     1
1071
       27
1005
13030A
  0
LINE
  5
13030B
  8
OBJECT
 10
74.0
 20
-265.66180022732442
 30
0.0
 11
74.0
 21
-300.0
 31
0.0
1001
ACDBBLOCKREPETAG
1070
     1
1071
       28
1005
13030B
  0
LINE
  5
13030C
  8
OBJECT
 10
190.4472221513642
 20
-274.44722215136431
 30
0.0
 11
198.0
 21
-282.0
 31
0.0
1001
ACDBBLOCKREPETAG
1070
     1
1071
       37
1005
13030C
  0
LINE
  5
13030D
  8
OBJECT
 10
190.4472221513642
 20
-165.55277784863571
 30
0.0
 11
198.0
 21
-158.0
 31
0.0
1001
ACDBBLOCKREPETAG
1070
     1
1071
       38
1005
13030D
  0
POINT
  5
13030E
  8
DOTS
 10
136.0
 20
-220.0
 30
0.0
1001
ACDBBLOCKREPETAG
1070
     1
1071
       39
1005
13030E
  0
CIRCLE
  5
13030F
  8
OBJECT
 10
136.0
 20
-220.0
 30
0.0
 40
53.5
1001
ACDBBLOCKREPETAG
1070
     1
1071
      153
1005
13030F
  0
POLYLINE
  5
130310
  8
HIDDEN
 66
     1
 10
0.0
 20
0.0
 30
0.0
 70
     1
  0
VERTEX
  5
130EE4
  8
HIDDEN
 10
0.0
 20
0.0
 30
0.0
  0
VERTEX
  5
130EE5
  8
HIDDEN
 10
360.0
 20
0.0
 30
0.0
  0
VERTEX
  5
130EE6
  8
HIDDEN
 10
360.0
 20
-464.0
 30
0.0
  0
VERTEX
  5
130EE7
  8
HIDDEN
 10
0.0
 20
-464.0
 30
0.0
  0
SEQEND
  5
130EE8
  8
HIDDEN
  0
POLYLINE
  5
130311
  8
HIDDEN
 66
     1
 10
0.0
 20
0.0
 30
0.0
 70
     1
  0
VERTEX
  5
130EE9
  8
HIDDEN
 10
360.0
 20
0.0
 30
0.0
  0
VERTEX
  5
130EEA
  8
HIDDEN
 10
720.0
 20
0.0
 30
0.0
  0
VERTEX
  5
130EEB
  8
HIDDEN
 10
720.0
 20
-464.0
 30
0.0
  0
VERTEX
  5
130EEC
  8
HIDDEN
 10
360.0
 20
-464.0
 30
0.0
  0
SEQEND
  5
130EED
  8
HIDDEN
  0
POLYLINE
  5
130312
  8
HIDDEN
 66
     1
 10
0.0
 20
0.0
 30
0.0
 70
     1
  0
VERTEX
  5
130EEE
  8
HIDDEN
 10
0.0
 20
-464.0
 30
0.0
  0
VERTEX
  5
130EEF
  8
HIDDEN
 10
360.0
 20
-464.0
 30
0.0
  0
VERTEX
  5
130EF0
  8
HIDDEN
 10
360.0
 20
-928.0
 30
0.0
  0
VERTEX
  5
130EF1
  8
HIDDEN
 10
0.0
 20
-928.0
 30
0.0
  0
SEQEND
  5
130EF2
  8
HIDDEN
  0
POLYLINE
  5
130313
  8
HIDDEN
 66
     1
 10
0.0
 20
0.0
 30
0.0
 70
     1
  0
VERTEX
  5
130EF3
  8
HIDDEN
 10
360.0
 20
-464.0
 30
0.0
  0
VERTEX
  5
130EF4
  8
HIDDEN
 10
720.0
 20
-464.0
 30
0.0
  0
VERTEX
  5
130EF5
  8
HIDDEN
 10
720.0
 20
-928.0
 30
0.0
  0
VERTEX
  5
130EF6
  8
HIDDEN
 10
360.0
 20
-928.0
 30
0.0
  0
SEQEND
  5
130EF7
  8
HIDDEN
  0
LINE
  5
130314
  8
SLIM
 10
3945.2566704261012
 20
-137.99999999999909
 30
0.0
 11
3955.9548403695781
 21
-127.30183005652231
 31
0.0
1001
GRADIENTCOLOR1ACI
1070
     5
1001
GRADIENTCOLOR2ACI
1070
     2
1001
ACAD
1010
0.0
1020
0.0
1030
0.0
1001
ACDBBLOCKREPETAG
1070
     1
1071
      422
1005
130314
  0
LINE
  5
130315
  8
SLIM
 10
3954.2369265471712
 20
-137.99999999999909
 30
0.0
 11
3972.7507744763329
 21
-119.4861520708364
 31
0.0
1001
GRADIENTCOLOR1ACI
1070
     5
1001
GRADIENTCOLOR2ACI
1070
     2
1001
ACAD
1010
0.0
1020
0.0
1030
0.0
1001
ACDBBLOCKREPETAG
1070
     1
1071
      423
1005
130315
  0
LINE
  5
130316
  8
SLIM
 10
3973.521224312457
 20
-127.6959583557812
 30
0.0
 11
3984.8575146748631
 21
-116.359667993377
 31
0.0
1001
GRADIENTCOLOR1ACI
1070
     5
1001
GRADIENTCOLOR2ACI
1070
     2
1001
ACAD
1010
0.0
1020
0.0
1030
0.0
1001
ACDBBLOCKREPETAG
1070
     1
1071
      424
1005
130316
  0
LINE
  5
130317
  8
SLIM
 10
3985.8944171461271
 20
-124.30302164318159
 30
0.0
 11
3995.0533812002559
 21
-115.1440575890517
 31
0.0
1001
GRADIENTCOLOR1ACI
1070
     5
1001
GRADIENTCOLOR2ACI
1070
     2
1001
ACAD
1010
0.0
1020
0.0
1030
0.0
1001
ACDBBLOCKREPETAG
1070
     1
1071
      425
1005
130317
  0
LINE
  5
130318
  8
SLIM
 10
3996.0777327492078
 20
-123.0999621611699
 30
0.0
 11
4000.0
 21
-119.1776949103767
 31
0.0
1001
GRADIENTCOLOR1ACI
1070
     5
1001
GRADIENTCOLOR2ACI
1070
     2
1001
ACAD
1010
0.0
1020
0.0
1030
0.0
1001
ACDBBLOCKREPETAG
1070
     1
1071
      426
1005
130318
  0
LINE
  5
130319
  8
SLIM
 10
4000.0
 20
-119.1776949103767
 30
0.0
 11
4004.0797313529042
 21
-115.0979635574724
 31
0.0
1001
GRADIENTCOLOR1ACI
1070
     5
1001
GRADIENTCOLOR2ACI
1070
     2
1001
ACAD
1010
0.0
1020
0.0
1030
0.0
1001
ACDBBLOCKREPETAG
1070
     1
1071
      427
1005
130319
  0
LINE
  5
13031A
  8
SLIM
 10
4004.9957202542769
 20
-123.1622307771683
 30
0.0
 11
4012.2679784105749
 21
-115.88997262087101
 31
0.0
1001
GRADIENTCOLOR1ACI
1070
     5
1001
GRADIENTCOLOR2ACI
1070
     2
1001
ACAD
1010
0.0
1020
0.0
1030
0.0
1001
ACDBBLOCKREPETAG
1070
     1
1071
      428
1005
13031A
  0
LINE
  5
13031B
  8
SLIM
 10
4013.028059366964
 20
-124.1101477855505
 30
0.0
 11
4019.7999414573592
 21
-117.3382656951526
 31
0.0
1001
GRADIENTCOLOR1ACI
1070
     5
1001
GRADIENTCOLOR2ACI
1070
     2
1001
ACAD
1010
0.0
1020
0.0
1030
0.0
1001
ACDBBLOCKREPETAG
1070
     1
1071
      429
1005
13031B
  0
LINE
  5
13031C
  8
SLIM
 10
4020.3740813142458
 20
-125.7443819593383
 30
0.0
 11
4026.7872038672799
 21
-119.3312594063044
 31
0.0
1001
GRADIENTCOLOR1ACI
1070
     5
1001
GRADIENTCOLOR2ACI
1070
     2
1001
ACAD
1010
0.0
1020
0.0
1030
0.0
1001
ACDBBLOCKREPETAG
1070
     1
1071
      430
1005
13031C
  0
LINE
  5
13031D
  8
SLIM
 10
4027.1524719988752
 20
-127.946247395778
 30
0.0
 11
4033.303003076031
 21
-121.7957163186195
 31
0.0
1001
GRADIENTCOLOR1ACI
1070
     5
1001
GRADIENTCOLOR2ACI
1070
     2
1001
ACAD
1010
0.0
1020
0.0
1030
0.0
1001
ACDBBLOCKREPETAG
1070
     1
1071
      431
1005
13031D
  0
LINE
  5
13031E
  8
SLIM
 10
4033.4390986513308
 20
-130.63987686439191
 30
0.0
 11
4039.3973119843781
 21
-124.6816635313439
 31
0.0
1001
GRADIENTCOLOR1ACI
1070
     5
1001
GRADIENTCOLOR2ACI
1070
     2
1001
ACAD
1010
0.0
1020
0.0
1030
0.0
1001
ACDBBLOCKREPETAG
1070
     1
1071
      432
1005
13031E
  0
LINE
  5
13031F
  8
SLIM
 10
4039.284224621797
 20
-133.77500701499321
 30
0.0
 11
4045.1047705343681
 21
-127.95446110242381
 31
0.0
1001
GRADIENTCOLOR1ACI
1070
     5
1001
GRADIENTCOLOR2ACI
1070
     2
1001
ACAD
1010
0.0
1020
0.0
1030
0.0
1001
ACDBBLOCKREPETAG
1070
     1
1071
      433
1005
13031F
  0
LINE
  5
130320
  8
SLIM
 10
4044.7212801698038
 20
-137.31820758805651
 30
0.0
 11
4050.4491557891961
 21
-131.59033196866449
 31
0.0
1001
GRADIENTCOLOR1ACI
1070
     5
1001
GRADIENTCOLOR2ACI
1070
     2
1001
ACAD
1010
0.0
1020
0.0
1030
0.0
1001
ACDBBLOCKREPETAG
1070
     1
1071
      434
1005
130320
  0
LINE
  5
130321
  8
SLIM
 10
4053.0197438789291
 20
-137.99999999999909
 30
0.0
 11
4055.4459941864038
 21
-135.57374969252561
 31
0.0
1001
GRADIENTCOLOR1ACI
1070
     5
1001
GRADIENTCOLOR2ACI
1070
     2
1001
ACAD
1010
0.0
1020
0.0
1030
0.0
1001
ACDBBLOCKREPETAG
1070
     1
1071
      435
1005
130321
  0
LINE
  5
130322
  8
CENTER
 10
4000.0
 20
-279.99999999999909
 30
0.0
 11
4000.0
 21
-99.999999999999091
 31
0.0
1001
ACDBBLOCKREPETAG
1070
     1
1071
      160
1005
130322
  0
CIRCLE
  5
130323
  8
OBJECT
 10
4000.0
 20
-199.99999999999909
 30
0.0
 40
70.0
1001
ACDBBLOCKREPETAG
1070
     1
1071
      161
1005
130323
  0
CIRCLE
  5
130324
  8
OBJECT
 10
4000.0
 20
-199.99999999999909
 30
0.0
 40
77.0
1001
ACDBBLOCKREPETAG
1070
     1
1071
      162
1005
130324
  0
LINE
  5
130325
  8
OBJECT
 10
4045.661800227324
 20
-137.99999999999909
 30
0.0
 11
4080.0
 21
-137.99999999999909
 31
0.0
1001
ACDBBLOCKREPETAG
1070
     1
1071
      164
1005
130325
  0
LINE
  5
130326
  8
OBJECT
 10
4062.0
 20
-261.99999999999909
 30
0.0
 11
4080.0
 21
-261.99999999999909
 31
0.0
1001
ACDBBLOCKREPETAG
1070
     1
1071
      165
1005
130326
  0
LINE
  5
130327
  8
OBJECT
 10
4062.0
 20
-261.99999999999909
 30
0.0
 11
4062.0
 21
-279.99999999999909
 31
0.0
1001
ACDBBLOCKREPETAG
1070
     1
1071
      167
1005
130327
  0
LINE
  5
130328
  8
OBJECT
 10
3938.0
 20
-261.99999999999909
 30
0.0
 11
3938.0
 21
-279.99999999999909
 31
0.0
1001
ACDBBLOCKREPETAG
1070
     1
1071
      168
1005
130328
  0
LINE
  5
130329
  8
OBJECT
 10
3938.0
 20
-261.99999999999909
 30
0.0
 11
3920.0
 21
-261.99999999999909
 31
0.0
1001
ACDBBLOCKREPETAG
1070
     1
1071
      170
1005
130329
  0
LINE
  5
13032A
  8
OBJECT
 10
3954.338199772676
 20
-137.99999999999909
 30
0.0
 11
3920.0
 21
-137.99999999999909
 31
0.0
1001
ACDBBLOCKREPETAG
1070
     1
1071
      171
1005
13032A
  0
LINE
  5
13032B
  8
OBJECT
 10
3945.5527778486362
 20
-254.44722215136329
 30
0.0
 11
3938.0
 21
-261.99999999999909
 31
0.0
1001
ACDBBLOCKREPETAG
1070
     1
1071
      180
1005
13032B
  0
LINE
  5
13032C
  8
OBJECT
 10
4054.4472221513638
 20
-254.44722215136329
 30
0.0
 11
4062.0
 21
-261.99999999999909
 31
0.0
1001
ACDBBLOCKREPETAG
1070
     1
1071
      181
1005
13032C
  0
POINT
  5
13032D
  8
DOTS
 10
4000.0
 20
-199.99999999999909
 30
0.0
 50
270.0
1001
ACDBBLOCKREPETAG
1070
     1
1071
      182
1005
13032D
  0
ARC
  5
13032E
  8
OBJECT
 10
4000.0
 20
-199.99999999999909
 30
0.0
 40
85.0
 50
46.837102859806208
 51
133.16289714019371
1001
ACDBBLOCKREPETAG
1070
     1
1071
      183
1005
13032E
  0
CIRCLE
  5
13032F
  8
OBJECT
 10
4000.0
 20
-199.99999999999909
 30
0.0
 40
53.5
1001
ACDBBLOCKREPETAG
1070
     1
1071
      352
1005
13032F
  0
LINE
  5
130330
  8
CENTER
 10
4080.0
 20
-199.99999999999909
 30
0.0
 11
3920.0
 21
-199.99999999999909
 31
0.0
1001
ACDBBLOCKREPETAG
1070
     1
1071
      158
1005
130330
  0
LINE
  5
130331
  8
CENTER
 10
3899.0
 20
-199.99999999999909
 30
0.0
 11
3920.0
 21
-199.99999999999909
 31
0.0
1001
ACDBBLOCKREPETAG
1070
     1
1071
        0
1005
130331
  0
LINE
  5
130332
  8
OBJECT
 10
3917.0
 20
-261.99999999999909
 30
0.0
 11
3920.0
 21
-261.99999999999909
 31
0.0
1001
ACDBBLOCKREPETAG
1070
     1
1071
        1
1005
130332
  0
ARC
  5
130333
  8
OBJECT
 10
3917.0
 20
-258.99999999999909
 30
0.0
 40
3.0
 50
180.0
 51
270.0
1001
ACDBBLOCKREPETAG
1070
     1
1071
        2
1005
130333
  0
LINE
  5
130334
  8
OBJECT
 10
3920.0
 20
-137.99999999999909
 30
0.0
 11
3917.0
 21
-137.99999999999909
 31
0.0
1001
ACDBBLOCKREPETAG
1070
     1
1071
        3
1005
130334
  0
ARC
  5
130335
  8
OBJECT
 10
3917.0
 20
-140.99999999999909
 30
0.0
 40
3.0
 50
90.0
 51
180.0
1001
ACDBBLOCKREPETAG
1070
     1
1071
        4
1005
130335
  0
LINE
  5
130336
  8
OBJECT
 10
3914.0
 20
-140.99999999999909
 30
0.0
 11
3914.0
 21
-258.99999999999909
 31
0.0
1001
ACDBBLOCKREPETAG
1070
     1
1071
        5
1005
130336
  0
LINE
  5
130337
  8
CENTER
 10
4000.0
 20
-279.99999999999909
 30
0.0
 11
4000.0
 21
-334.99999999999892
 31
0.0
1001
ACDBBLOCKREPETAG
1070
     1
1071
      352
1005
130337
  0
LINE
  5
130338
  8
OBJECT
 10
4059.0
 20
-285.99999999999892
 30
0.0
 11
3941.0
 21
-285.99999999999892
 31
0.0
1001
ACDBBLOCKREPETAG
1070
     1
1071
      353
1005
130338
  0
LINE
  5
130339
  8
OBJECT
 10
3955.5
 20
-309.99999999999892
 30
0.0
 11
4044.5
 21
-309.99999999999892
 31
0.0
1001
ACDBBLOCKREPETAG
1070
     1
1071
      354
1005
130339
  0
LINE
  5
13033A
  8
OBJECT
 10
3955.5
 20
-309.99999999999892
 30
0.0
 11
3955.5
 21
-285.99999999999892
 31
0.0
1001
ACDBBLOCKREPETAG
1070
     1
1071
      355
1005
13033A
  0
LINE
  5
13033B
  8
OBJECT
 10
3938.0
 20
-279.99999999999909
 30
0.0
 11
3938.0
 21
-282.99999999999892
 31
0.0
1001
ACDBBLOCKREPETAG
1070
     1
1071
      356
1005
13033B
  0
ARC
  5
13033C
  8
OBJECT
 10
3941.0
 20
-282.99999999999892
 30
0.0
 40
3.0
 50
180.0
 51
270.0
1001
ACDBBLOCKREPETAG
1070
     1
1071
      357
1005
13033C
  0
LINE
  5
13033D
  8
OBJECT
 10
4017.8220659999988
 20
-309.99999999999892
 30
0.0
 11
4022.1031819999989
 21
-313.83118899999948
 31
0.0
1001
ACDBBLOCKREPETAG
1070
     1
1071
      358
1005
13033D
  0
ARC
  5
13033E
  8
OBJECT
 10
4017.0
 20
-319.99999999999892
 30
0.0
 40
8.0
 50
251.8416470000376
 51
50.402247000150382
1001
ACDBBLOCKREPETAG
1070
     1
1071
      359
1005
13033E
  0
ARC
  5
13033F
  8
OBJECT
 10
4016.0650669999982
 20
-322.8505969999996
 30
0.0
 40
5.0
 50
198.48486899996581
 51
251.8416470000376
1001
ACDBBLOCKREPETAG
1070
     1
1071
      360
1005
13033F
  0
LINE
  5
130340
  8
OBJECT
 10
4005.0
 20
-319.99999999999892
 30
0.0
 11
4005.0
 21
-312.99999999999909
 31
0.0
1001
ACDBBLOCKREPETAG
1070
     1
1071
      361
1005
130340
  0
LINE
  5
130341
  8
OBJECT
 10
3995.0
 20
-319.99999999999892
 30
0.0
 11
3995.0
 21
-312.99999999999909
 31
0.0
1001
ACDBBLOCKREPETAG
1070
     1
1071
      362
1005
130341
  0
LINE
  5
130342
  8
OBJECT
 10
4005.0
 20
-319.99999999999892
 30
0.0
 11
3995.0
 21
-319.99999999999892
 31
0.0
1001
ACDBBLOCKREPETAG
1070
     1
1071
      363
1005
130342
  0
LINE
  5
130343
  8
OBJECT
 10
4007.5
 20
-312.99999999999909
 30
0.0
 11
3992.5000000000009
 21
-312.99999999999909
 31
0.0
1001
ACDBBLOCKREPETAG
1070
     1
1071
      364
1005
130343
  0
LINE
  5
130344
  8
OBJECT
 10
3991.7500000000009
 20
-309.99999999999892
 30
0.0
 11
3992.5000000000009
 21
-312.99999999999909
 31
0.0
1001
ACDBBLOCKREPETAG
1070
     1
1071
      365
1005
130344
  0
LINE
  5
130345
  8
OBJECT
 10
3982.177932999999
 20
-309.99999999999892
 30
0.0
 11
3977.8968180000011
 21
-313.83118899999948
 31
0.0
1001
ACDBBLOCKREPETAG
1070
     1
1071
      366
1005
130345
  0
LINE
  5
130346
  8
OBJECT
 10
4008.25
 20
-309.99999999999892
 30
0.0
 11
4007.5
 21
-312.99999999999909
 31
0.0
1001
ACDBBLOCKREPETAG
1070
     1
1071
      367
1005
130346
  0
ARC
  5
130347
  8
OBJECT
 10
3983.0
 20
-319.99999999999892
 30
0.0
 40
8.0
 50
129.59775299984949
 51
288.1583529999624
1001
ACDBBLOCKREPETAG
1070
     1
1071
      368
1005
130347
  0
ARC
  5
130348
  8
OBJECT
 10
3983.934933
 20
-322.8505969999996
 30
0.0
 40
5.0
 50
288.1583529999624
 51
341.51513100003109
1001
ACDBBLOCKREPETAG
1070
     1
1071
      369
1005
130348
  0
LINE
  5
130349
  8
OBJECT
 10
3988.67697
 20
-324.43586799999957
 30
0.0
 11
3992.5000000000009
 21
-312.99999999999909
 31
0.0
1001
ACDBBLOCKREPETAG
1070
     1
1071
      370
1005
130349
  0
LINE
  5
13034A
  8
OBJECT
 10
4011.3230299999982
 20
-324.43586799999957
 30
0.0
 11
4007.5
 21
-312.99999999999909
 31
0.0
1001
ACDBBLOCKREPETAG
1070
     1
1071
      371
1005
13034A
  0
ARC
  5
13034B
  8
OBJECT
 10
4059.0
 20
-282.99999999999892
 30
0.0
 40
3.0
 50
270.0
 51
0.0
1001
ACDBBLOCKREPETAG
1070
     1
1071
      372
1005
13034B
  0
LINE
  5
13034C
  8
OBJECT
 10
4062.0
 20
-279.99999999999909
 30
0.0
 11
4062.0
 21
-282.99999999999892
 31
0.0
1001
ACDBBLOCKREPETAG
1070
     1
1071
      373
1005
13034C
  0
LINE
  5
13034D
  8
OBJECT
 10
4044.5
 20
-309.99999999999892
 30
0.0
 11
4044.5
 21
-285.99999999999892
 31
0.0
1001
ACDBBLOCKREPETAG
1070
     1
1071
      374
1005
13034D
  0
LINE
  5
13034E
  8
OBJECT
 10
4133.0
 20
-137.99999999999909
 30
0.0
 11
4140.0
 21
-137.99999999999909
 31
0.0
1001
ACDBBLOCKREPETAG
1070
     1
1071
       47
1005
13034E
  0
LINE
  5
13034F
  8
OBJECT
 10
4140.0
 20
-137.99999999999909
 30
0.0
 11
4140.0
 21
-261.99999999999909
 31
0.0
1001
ACDBBLOCKREPETAG
1070
     1
1071
       48
1005
13034F
  0
LINE
  5
130350
  8
OBJECT
 10
4140.0
 20
-261.99999999999909
 30
0.0
 11
4133.0
 21
-261.99999999999909
 31
0.0
1001
ACDBBLOCKREPETAG
1070
     1
1071
       49
1005
130350
  0
LINE
  5
130351
  8
OBJECT
 10
4133.0
 20
-261.99999999999909
 30
0.0
 11
4133.0
 21
-137.99999999999909
 31
0.0
1001
ACDBBLOCKREPETAG
1070
     1
1071
       50
1005
130351
  0
LINE
  5
130352
  8
CENTER
 10
4155.0
 20
-199.99999999999909
 30
0.0
 11
4080.0
 21
-199.99999999999909
 31
0.0
1001
ACDBBLOCKREPETAG
1070
     1
1071
       51
1005
130352
  0
LINE
  5
130353
  8
OBJECT
 10
4133.0
 20
-140.99999999999909
 30
0.0
 11
4097.0
 21
-140.99999999999909
 31
0.0
1001
ACDBBLOCKREPETAG
1070
     1
1071
       52
1005
130353
  0
LINE
  5
130354
  8
OBJECT
 10
4097.0
 20
-140.99999999999909
 30
0.0
 11
4097.0
 21
-258.99999999999909
 31
0.0
1001
ACDBBLOCKREPETAG
1070
     1
1071
       53
1005
130354
  0
LINE
  5
130355
  8
OBJECT
 10
4097.0
 20
-258.99999999999909
 30
0.0
 11
4133.0
 21
-258.99999999999909
 31
0.0
1001
ACDBBLOCKREPETAG
1070
     1
1071
       54
1005
130355
  0
LINE
  5
130356
  8
OBJECT
 10
4093.0
 20
-145.49999999999909
 30
0.0
 11
4086.0
 21
-145.49999999999909
 31
0.0
1001
ACDBBLOCKREPETAG
1070
     1
1071
       55
1005
130356
  0
LINE
  5
130357
  8
OBJECT
 10
4086.0
 20
-254.49999999999909
 30
0.0
 11
4093.0
 21
-254.49999999999909
 31
0.0
1001
ACDBBLOCKREPETAG
1070
     1
1071
       56
1005
130357
  0
LINE
  5
130358
  8
OBJECT
 10
4093.0
 20
-254.49999999999909
 30
0.0
 11
4093.0
 21
-145.49999999999909
 31
0.0
1001
ACDBBLOCKREPETAG
1070
     1
1071
       57
1005
130358
  0
LINE
  5
130359
  8
OBJECT
 10
4097.0
 20
-140.99999999999909
 30
0.0
 11
4093.0
 21
-145.49999999999909
 31
0.0
1001
ACDBBLOCKREPETAG
1070
     1
1071
       58
1005
130359
  0
LINE
  5
13035A
  8
OBJECT
 10
4097.0
 20
-258.99999999999909
 30
0.0
 11
4093.0
 21
-254.49999999999909
 31
0.0
1001
ACDBBLOCKREPETAG
1070
     1
1071
       59
1005
13035A
  0
LINE
  5
13035B
  8
OBJECT
 10
4083.0
 20
-137.99999999999909
 30
0.0
 11
4080.0
 21
-137.99999999999909
 31
0.0
1001
ACDBBLOCKREPETAG
1070
     1
1071
       60
1005
13035B
  0
ARC
  5
13035C
  8
OBJECT
 10
4083.0
 20
-140.99999999999909
 30
0.0
 40
3.0
 50
0.0
 51
90.0
1001
ACDBBLOCKREPETAG
1070
     1
1071
       61
1005
13035C
  0
LINE
  5
13035D
  8
OBJECT
 10
4080.0
 20
-261.99999999999909
 30
0.0
 11
4083.0
 21
-261.99999999999909
 31
0.0
1001
ACDBBLOCKREPETAG
1070
     1
1071
       62
1005
13035D
  0
ARC
  5
13035E
  8
OBJECT
 10
4083.0
 20
-258.99999999999909
 30
0.0
 40
3.0
 50
270.0
 51
0.0
1001
ACDBBLOCKREPETAG
1070
     1
1071
       63
1005
13035E
  0
LINE
  5
13035F
  8
OBJECT
 10
4086.0
 20
-258.99999999999909
 30
0.0
 11
4086.0
 21
-140.99999999999909
 31
0.0
1001
ACDBBLOCKREPETAG
1070
     1
1071
       64
1005
13035F
  0
LINE
  5
130360
  8
HIDDEN
 10
4088.0
 20
-155.49999999999909
 30
0.0
 11
4088.0
 21
-244.49999999999909
 31
0.0
1001
ACDBBLOCKREPETAG
1070
     1
1071
       65
1005
130360
  0
LINE
  5
130361
  8
OBJECT
 10
3917.0
 20
-634.0
 30
0.0
 11
3920.0
 21
-634.0
 31
0.0
1001
ACDBBLOCKREPETAG
1070
     1
1071
        1
1005
130361
  0
ARC
  5
130362
  8
OBJECT
 10
3917.0
 20
-637.0
 30
0.0
 40
3.0
 50
90.0
 51
180.0
1001
ACDBBLOCKREPETAG
1070
     1
1071
        2
1005
130362
  0
LINE
  5
130363
  8
OBJECT
 10
3920.0
 20
-758.0
 30
0.0
 11
3917.0
 21
-758.0
 31
0.0
1001
ACDBBLOCKREPETAG
1070
     1
1071
        3
1005
130363
  0
ARC
  5
130364
  8
OBJECT
 10
3917.0
 20
-755.0
 30
0.0
 40
3.0
 50
180.0
 51
270.0
1001
ACDBBLOCKREPETAG
1070
     1
1071
        4
1005
130364
  0
LINE
  5
130365
  8
OBJECT
 10
3914.0
 20
-755.0
 30
0.0
 11
3914.0
 21
-637.0
 31
0.0
1001
ACDBBLOCKREPETAG
1070
     1
1071
        5
1005
130365
  0
CIRCLE
  5
130366
  8
OBJECT
 10
4000.0
 20
-696.0
 30
0.0
 40
62.0
1001
ACDBBLOCKREPETAG
1070
     1
1071
      227
1005
130366
  0
CIRCLE
  5
130367
  8
OBJECT
 10
4000.0
 20
-696.0
 30
0.0
 40
36.333333000000003
1001
ACDBBLOCKREPETAG
1070
     1
1071
      228
1005
130367
  0
CIRCLE
  5
130368
  8
OBJECT
 10
4000.0
 20
-696.0
 30
0.0
 40
44.5
1001
ACDBBLOCKREPETAG
1070
     1
1071
      229
1005
130368
  0
ARC
  5
130369
  8
OBJECT
 10
4000.0
 20
-696.0
 30
0.0
 40
10.0
 50
194.6278610000418
 51
345.37213899995828
1001
ACDBBLOCKREPETAG
1070
     1
1071
      230
1005
130369
  0
ARC
  5
13036A
  8
OBJECT
 10
4000.0
 20
-696.0
 30
0.0
 40
7.5
 50
200.41516800005761
 51
339.58483199994242
1001
ACDBBLOCKREPETAG
1070
     1
1071
      231
1005
13036A
  0
ARC
  5
13036B
  8
OBJECT
 10
3977.0
 20
-696.0
 30
0.0
 40
2.0
 50
91.963657999954648
 51
268.03634200004529
1001
ACDBBLOCKREPETAG
1070
     1
1071
      232
1005
13036B
  0
ARC
  5
13036C
  8
OBJECT
 10
4000.0
 20
-696.0
 30
0.0
 40
10.0
 50
14.627861000041801
 51
165.3721389999582
1001
ACDBBLOCKREPETAG
1070
     1
1071
      233
1005
13036C
  0
CIRCLE
  5
13036D
  8
OBJECT
 10
4000.0
 20
-696.0
 30
0.0
 40
4.5
1001
ACDBBLOCKREPETAG
1070
     1
1071
      234
1005
13036D
  0
ARC
  5
13036E
  8
OBJECT
 10
4000.0
 20
-696.0
 30
0.0
 40
7.5
 50
20.415168000057569
 51
159.58483199994239
1001
ACDBBLOCKREPETAG
1070
     1
1071
      235
1005
13036E
  0
ARC
  5
13036F
  8
OBJECT
 10
4000.0
 20
-696.0
 30
0.0
 40
24.333333
 50
183.77906500000159
 51
356.22093499999818
1001
ACDBBLOCKREPETAG
1070
     1
1071
      236
1005
13036F
  0
ARC
  5
130370
  8
OBJECT
 10
4000.0
 20
-696.0
 30
0.0
 40
24.333333
 50
3.7790650000018511
 51
176.22093499999809
1001
ACDBBLOCKREPETAG
1070
     1
1071
      237
1005
130370
  0
ARC
  5
130371
  8
OBJECT
 10
4023.0
 20
-696.0
 30
0.0
 40
2.0
 50
271.96365799995459
 51
88.036342000045366
1001
ACDBBLOCKREPETAG
1070
     1
1071
      238
1005
130371
  0
LINE
  5
130372
  8
OBJECT
 10
4007.0289220000009
 20
-698.61615099999835
 30
0.0
 11
4023.0685309999981
 21
-697.99882499999865
 31
0.0
1001
ACDBBLOCKREPETAG
1070
     1
1071
      239
1005
130372
  0
LINE
  5
130373
  8
OBJECT
 10
4007.0289220000009
 20
-693.38384899999983
 30
0.0
 11
4023.0685309999981
 21
-694.00117399999908
 31
0.0
1001
ACDBBLOCKREPETAG
1070
     1
1071
      240
1005
130373
  0
LINE
  5
130374
  8
OBJECT
 10
3992.9710769999988
 20
-698.61615099999835
 30
0.0
 11
3976.9314690000001
 21
-697.99882499999865
 31
0.0
1001
ACDBBLOCKREPETAG
1070
     1
1071
      241
1005
130374
  0
LINE
  5
130375
  8
OBJECT
 10
3992.9710769999988
 20
-693.38384899999983
 30
0.0
 11
3976.9314690000001
 21
-694.00117399999908
 31
0.0
1001
ACDBBLOCKREPETAG
1070
     1
1071
      242
1005
130375
  0
LINE
  5
130376
  8
CENTER
 10
3923.0
 20
-695.9999992574941
 30
0.0
 11
4077.0
 21
-696.00000688055752
 31
0.0
1001
ACDBBLOCKREPETAG
1070
     1
1071
      243
1005
130376
  0
LINE
  5
130377
  8
OBJECT
 10
4133.0
 20
-634.0
 30
0.0
 11
4140.0
 21
-634.0
 31
0.0
1001
ACDBBLOCKREPETAG
1070
     1
1071
       45
1005
130377
  0
LINE
  5
130378
  8
OBJECT
 10
4140.0
 20
-634.0
 30
0.0
 11
4140.0
 21
-755.0
 31
0.0
1001
ACDBBLOCKREPETAG
1070
     1
1071
       46
1005
130378
  0
LINE
  5
130379
  8
OBJECT
 10
4133.0
 20
-755.0
 30
0.0
 11
4133.0
 21
-634.0
 31
0.0
1001
ACDBBLOCKREPETAG
1070
     1
1071
       47
1005
130379
  0
LINE
  5
13037A
  8
CENTER
 10
4155.0
 20
-696.0
 30
0.0
 11
4071.0
 21
-696.0
 31
0.0
1001
ACDBBLOCKREPETAG
1070
     1
1071
       48
1005
13037A
  0
LINE
  5
13037B
  8
OBJECT
 10
4133.0
 20
-637.0
 30
0.0
 11
4097.0
 21
-637.0
 31
0.0
1001
ACDBBLOCKREPETAG
1070
     1
1071
       49
1005
13037B
  0
LINE
  5
13037C
  8
OBJECT
 10
4097.0
 20
-637.0
 30
0.0
 11
4097.0
 21
-755.0
 31
0.0
1001
ACDBBLOCKREPETAG
1070
     1
1071
       50
1005
13037C
  0
LINE
  5
13037D
  8
OBJECT
 10
4097.0
 20
-755.0
 30
0.0
 11
4140.0
 21
-755.0
 31
0.0
1001
ACDBBLOCKREPETAG
1070
     1
1071
       51
1005
13037D
  0
LINE
  5
13037E
  8
OBJECT
 10
4093.0
 20
-641.5
 30
0.0
 11
4086.0
 21
-641.5
 31
0.0
1001
ACDBBLOCKREPETAG
1070
     1
1071
       52
1005
13037E
  0
LINE
  5
13037F
  8
OBJECT
 10
4086.0
 20
-750.49999999999989
 30
0.0
 11
4093.0
 21
-750.49999999999989
 31
0.0
1001
ACDBBLOCKREPETAG
1070
     1
1071
       53
1005
13037F
  0
LINE
  5
130380
  8
OBJECT
 10
4093.0
 20
-750.49999999999989
 30
0.0
 11
4093.0
 21
-641.5
 31
0.0
1001
ACDBBLOCKREPETAG
1070
     1
1071
       54
1005
130380
  0
LINE
  5
130381
  8
OBJECT
 10
4097.0
 20
-637.0
 30
0.0
 11
4093.0
 21
-641.5
 31
0.0
1001
ACDBBLOCKREPETAG
1070
     1
1071
       55
1005
130381
  0
LINE
  5
130382
  8
OBJECT
 10
4097.0
 20
-755.0
 30
0.0
 11
4093.0
 21
-750.49999999999989
 31
0.0
1001
ACDBBLOCKREPETAG
1070
     1
1071
       56
1005
130382
  0
LINE
  5
130383
  8
OBJECT
 10
4083.0
 20
-634.0
 30
0.0
 11
4080.0
 21
-634.0
 31
0.0
1001
ACDBBLOCKREPETAG
1070
     1
1071
       57
1005
130383
  0
ARC
  5
130384
  8
OBJECT
 10
4083.0
 20
-637.0
 30
0.0
 40
3.0
 50
0.0
 51
90.0
1001
ACDBBLOCKREPETAG
1070
     1
1071
       58
1005
130384
  0
LINE
  5
130385
  8
OBJECT
 10
4080.0
 20
-758.0
 30
0.0
 11
4083.0
 21
-758.0
 31
0.0
1001
ACDBBLOCKREPETAG
1070
     1
1071
       59
1005
130385
  0
ARC
  5
130386
  8
OBJECT
 10
4083.0
 20
-755.0
 30
0.0
 40
3.0
 50
270.0
 51
0.0
1001
ACDBBLOCKREPETAG
1070
     1
1071
       60
1005
130386
  0
LINE
  5
130387
  8
OBJECT
 10
4086.0
 20
-755.0
 30
0.0
 11
4086.0
 21
-637.0
 31
0.0
1001
ACDBBLOCKREPETAG
1070
     1
1071
       61
1005
130387
  0
LINE
  5
130388
  8
HIDDEN
 10
4088.0
 20
-651.5
 30
0.0
 11
4088.0
 21
-740.5
 31
0.0
1001
ACDBBLOCKREPETAG
1070
     1
1071
       63
1005
130388
  0
LINE
  5
130389
  8
OBJECT
 10
3923.0
 20
-570.99999999999955
 30
0.0
 11
3923.0
 21
-549.99999999999955
 31
0.0
1001
ACDBBLOCKREPETAG
1070
     1
1071
       38
1005
130389
  0
LINE
  5
13038A
  8
OBJECT
 10
3923.0
 20
-549.99999999999955
 30
0.0
 11
4077.0
 21
-549.99999999999955
 31
0.0
1001
ACDBBLOCKREPETAG
1070
     1
1071
       39
1005
13038A
  0
LINE
  5
13038B
  8
HIDDEN
 10
3943.0
 20
-619.99999999999955
 30
0.0
 11
4057.0
 21
-619.99999999999955
 31
0.0
1001
ACDBBLOCKREPETAG
1070
     1
1071
       40
1005
13038B
  0
LINE
  5
13038C
  8
OBJECT
 10
4077.0
 20
-549.99999999999955
 30
0.0
 11
4077.0
 21
-570.99999999999955
 31
0.0
1001
ACDBBLOCKREPETAG
1070
     1
1071
       41
1005
13038C
  0
LINE
  5
13038D
  8
OBJECT
 10
4077.0
 20
-570.99999999999955
 30
0.0
 11
3923.0
 21
-570.99999999999955
 31
0.0
1001
ACDBBLOCKREPETAG
1070
     1
1071
       42
1005
13038D
  0
LINE
  5
13038E
  8
CENTER
 10
4000.0
 20
-534.99999999999955
 30
0.0
 11
4000.0
 21
-889.99999999999955
 31
0.0
1001
ACDBBLOCKREPETAG
1070
     1
1071
       43
1005
13038E
  0
LINE
  5
13038F
  8
OBJECT
 10
3928.0
 20
-570.99999999999955
 30
0.0
 11
3928.0
 21
-633.99999999999955
 31
0.0
1001
ACDBBLOCKREPETAG
1070
     1
1071
       44
1005
13038F
  0
LINE
  5
130390
  8
OBJECT
 10
4072.0
 20
-633.99999999999955
 30
0.0
 11
4072.0
 21
-570.99999999999955
 31
0.0
1001
ACDBBLOCKREPETAG
1070
     1
1071
       45
1005
130390
  0
LINE
  5
130391
  8
OBJECT
 10
3920.0
 20
-877.99999999999955
 30
0.0
 11
4080.0
 21
-877.99999999999955
 31
0.0
1001
ACDBBLOCKREPETAG
1070
     1
1071
       46
1005
130391
  0
LINE
  5
130392
  8
OBJECT
 10
4080.0
 20
-633.99999999999955
 30
0.0
 11
3920.0
 21
-633.99999999999955
 31
0.0
1001
ACDBBLOCKREPETAG
1070
     1
1071
       47
1005
130392
  0
LINE
  5
130393
  8
OBJECT
 10
3920.0
 20
-877.99999999999955
 30
0.0
 11
3920.0
 21
-889.99999999999955
 31
0.0
1001
ACDBBLOCKREPETAG
1070
     1
1071
       48
1005
130393
  0
LINE
  5
130394
  8
OBJECT
 10
3920.0
 20
-889.99999999999955
 30
0.0
 11
4080.0
 21
-889.99999999999955
 31
0.0
1001
ACDBBLOCKREPETAG
1070
     1
1071
       49
1005
130394
  0
LINE
  5
130395
  8
OBJECT
 10
4080.0
 20
-889.99999999999955
 30
0.0
 11
4080.0
 21
-877.99999999999955
 31
0.0
1001
ACDBBLOCKREPETAG
1070
     1
1071
       50
1005
130395
  0
LINE
  5
130396
  8
OBJECT
 10
4074.9999999998631
 20
-757.99999999984982
 30
0.0
 11
4075.0
 21
-877.99999999999955
 31
0.0
1001
ACDBBLOCKREPETAG
1070
     1
1071
       54
1005
130396
  0
LINE
  5
130397
  8
OBJECT
 10
4074.9999908029849
 20
-757.99998602702112
 30
0.0
 11
4080.0
 21
-757.99998602702112
 31
0.0
1001
ACDBBLOCKREPETAG
1070
     1
1071
       55
1005
130397
  0
LINE
  5
130398
  8
OBJECT
 10
3925.0000000001392
 20
-757.99999999984982
 30
0.0
 11
3925.0
 21
-877.99999999999955
 31
0.0
1001
ACDBBLOCKREPETAG
1070
     1
1071
       56
1005
130398
  0
LINE
  5
130399
  8
OBJECT
 10
3925.0000091970151
 20
-757.99998602702112
 30
0.0
 11
3920.0
 21
-757.99998602702112
 31
0.0
1001
ACDBBLOCKREPETAG
1070
     1
1071
       57
1005
130399
  0
ARC
  5
13039A
  8
OBJECT
 10
4200.6872746716726
 20
-749.40809941010718
 30
0.0
 40
170.6350503965856
 50
137.44134459184301
 51
149.91949581337221
1001
ACDBBLOCKREPETAG
1070
     1
1071
       58
1005
13039A
  0
ARC
  5
13039B
  8
OBJECT
 10
4200.6872746716726
 20
-642.59190058989179
 30
0.0
 40
170.6350503965856
 50
210.08050418662771
 51
222.55865540815699
1001
ACDBBLOCKREPETAG
1070
     1
1071
       59
1005
13039B
  0
ARC
  5
13039C
  8
OBJECT
 10
3799.3127253283278
 20
-749.40809941010718
 30
0.0
 40
170.6350503965856
 50
30.080504186774089
 51
42.558655408382627
1001
ACDBBLOCKREPETAG
1070
     1
1071
       60
1005
13039C
  0
ARC
  5
13039D
  8
OBJECT
 10
3799.3127253283278
 20
-642.59190058989179
 30
0.0
 40
170.6350503965856
 50
317.44134459161722
 51
329.91949581322592
1001
ACDBBLOCKREPETAG
1070
     1
1071
       61
1005
13039D
  0
POINT
  5
13039E
  8
DOTS
 10
4000.0
 20
-754.99999999999955
 30
0.0
1001
ACDBBLOCKREPETAG
1070
     1
1071
      185
1005
13039E
  0
TEXT
  5
13039F
  8
SLIM
 10
3698.5
 20
-1759.666666666664
 30
0.0
 40
28.0
  1
　※ 掃除口（CO）の正面にはメンテナンススペース
 41
0.75
1001
ACDBBLOCKREPETAG
1070
     1
1071
      103
1005
12E1BE
  0
TEXT
  5
1303A0
  8
SLIM
 10
3707.0999999999999
 20
-1806.3333333333301
 30
0.0
 40
28.0
  1
　　（参考値：80mm以上）を確保してください。
 41
0.75
1001
ACDBBLOCKREPETAG
1070
     1
1071
      103
1005
12E1BE
  0
TEXT
  5
1303A1
  8
SLIM
 10
1698.5
 20
-1558.166666666664
 30
0.0
 40
28.0
  1
　※ 掃除口（CO）の正面にはメンテナンススペース
 41
0.75
1001
ACDBBLOCKREPETAG
1070
     1
1071
      103
1005
12E1BE
  0
TEXT
  5
1303A2
  8
SLIM
 10
1707.0999999999999
 20
-1604.833333333331
 30
0.0
 40
28.0
  1
　　（参考値：80mm以上）を確保してください。
 41
0.75
1001
ACDBBLOCKREPETAG
1070
     1
1071
      103
1005
12E1BE
  0
CIRCLE
  5
1303A3
  8
OBJECT
 10
5000.0
 20
-3294.9999999999959
 30
0.0
 40
53.5
1001
ACDBBLOCKREPETAG
1070
     1
1071
      344
1005
1303A3
  0
LINE
  5
1303A4
  8
CENTER
 10
5080.0
 20
-3294.9999999999959
 30
0.0
 11
4905.0
 21
-3294.9999999999959
 31
0.0
1001
ACDBBLOCKREPETAG
1070
     1
1071
       14
1005
1303A4
  0
LINE
  5
1303A5
  8
CENTER
 10
5000.0
 20
-3389.9999999999968
 30
0.0
 11
5000.0
 21
-3199.9999999999959
 31
0.0
1001
ACDBBLOCKREPETAG
1070
     1
1071
       15
1005
1303A5
  0
CIRCLE
  5
1303A6
  8
OBJECT
 10
5000.0
 20
-3294.9999999999959
 30
0.0
 40
70.0
1001
ACDBBLOCKREPETAG
1070
     1
1071
       16
1005
1303A6
  0
CIRCLE
  5
1303A7
  8
OBJECT
 10
5000.0
 20
-3294.9999999999959
 30
0.0
 40
77.0
1001
ACDBBLOCKREPETAG
1070
     1
1071
       17
1005
1303A7
  0
ARC
  5
1303A8
  8
OBJECT
 10
5000.0
 20
-3294.9999999999959
 30
0.0
 40
80.0
 50
50.805032573882329
 51
309.19496742611773
1001
ACDBBLOCKREPETAG
1070
     1
1071
       18
1005
1303A8
  0
LINE
  5
1303A9
  8
OBJECT
 10
5045.6618002273253
 20
-3232.9999999999959
 30
0.0
 11
5080.0
 21
-3232.9999999999959
 31
0.0
1001
ACDBBLOCKREPETAG
1070
     1
1071
       19
1005
1303A9
  0
LINE
  5
1303AA
  8
OBJECT
 10
5045.6618002273253
 20
-3356.9999999999959
 30
0.0
 11
5080.0
 21
-3356.9999999999959
 31
0.0
1001
ACDBBLOCKREPETAG
1070
     1
1071
       20
1005
1303AA
  0
POINT
  5
1303AB
  8
DOTS
 10
5000.0
 20
-3294.9999999999959
 30
0.0
1001
ACDBBLOCKREPETAG
1070
     1
1071
       21
1005
1303AB
  0
CIRCLE
  5
1303AC
  8
OBJECT
 10
4000.0
 20
-3294.9999999999959
 30
0.0
 40
53.5
1001
ACDBBLOCKREPETAG
1070
     1
1071
      344
1005
1303AC
  0
LINE
  5
1303AD
  8
CENTER
 10
4080.0
 20
-3294.9999999999959
 30
0.0
 11
3905.0
 21
-3294.9999999999959
 31
0.0
1001
ACDBBLOCKREPETAG
1070
     1
1071
       14
1005
1303AD
  0
LINE
  5
1303AE
  8
CENTER
 10
4000.0
 20
-3389.9999999999968
 30
0.0
 11
4000.0
 21
-3199.9999999999959
 31
0.0
1001
ACDBBLOCKREPETAG
1070
     1
1071
       15
1005
1303AE
  0
CIRCLE
  5
1303AF
  8
OBJECT
 10
4000.0
 20
-3294.9999999999959
 30
0.0
 40
70.0
1001
ACDBBLOCKREPETAG
1070
     1
1071
       16
1005
1303AF
  0
CIRCLE
  5
1303B0
  8
OBJECT
 10
4000.0
 20
-3294.9999999999959
 30
0.0
 40
77.0
1001
ACDBBLOCKREPETAG
1070
     1
1071
       17
1005
1303B0
  0
ARC
  5
1303B1
  8
OBJECT
 10
4000.0
 20
-3294.9999999999959
 30
0.0
 40
80.0
 50
50.805032573862128
 51
309.19496742613791
1001
ACDBBLOCKREPETAG
1070
     1
1071
       18
1005
1303B1
  0
LINE
  5
1303B2
  8
OBJECT
 10
4045.661800227324
 20
-3232.9999999999959
 30
0.0
 11
4080.0
 21
-3232.9999999999959
 31
0.0
1001
ACDBBLOCKREPETAG
1070
     1
1071
       19
1005
1303B2
  0
LINE
  5
1303B3
  8
OBJECT
 10
4045.661800227324
 20
-3356.9999999999959
 30
0.0
 11
4080.0
 21
-3356.9999999999959
 31
0.0
1001
ACDBBLOCKREPETAG
1070
     1
1071
       20
1005
1303B3
  0
POINT
  5
1303B4
  8
DOTS
 10
4000.0
 20
-3294.9999999999959
 30
0.0
1001
ACDBBLOCKREPETAG
1070
     1
1071
       21
1005
1303B4
  0
CIRCLE
  5
1303B5
  8
OBJECT
 10
3000.0
 20
-3294.9999999999959
 30
0.0
 40
53.5
1001
ACDBBLOCKREPETAG
1070
     1
1071
      344
1005
1303B5
  0
LINE
  5
1303B6
  8
CENTER
 10
3080.0
 20
-3294.9999999999959
 30
0.0
 11
2905.0
 21
-3294.9999999999959
 31
0.0
1001
ACDBBLOCKREPETAG
1070
     1
1071
       14
1005
1303B6
  0
LINE
  5
1303B7
  8
CENTER
 10
3000.0
 20
-3389.9999999999968
 30
0.0
 11
3000.0
 21
-3199.9999999999959
 31
0.0
1001
ACDBBLOCKREPETAG
1070
     1
1071
       15
1005
1303B7
  0
CIRCLE
  5
1303B8
  8
OBJECT
 10
3000.0
 20
-3294.9999999999959
 30
0.0
 40
70.0
1001
ACDBBLOCKREPETAG
1070
     1
1071
       16
1005
1303B8
  0
CIRCLE
  5
1303B9
  8
OBJECT
 10
3000.0
 20
-3294.9999999999959
 30
0.0
 40
77.0
1001
ACDBBLOCKREPETAG
1070
     1
1071
       17
1005
1303B9
  0
ARC
  5
1303BA
  8
OBJECT
 10
3000.0
 20
-3294.9999999999959
 30
0.0
 40
80.0
 50
50.805032573862128
 51
309.19496742613791
1001
ACDBBLOCKREPETAG
1070
     1
1071
       18
1005
1303BA
  0
LINE
  5
1303BB
  8
OBJECT
 10
3045.6618002273249
 20
-3232.9999999999959
 30
0.0
 11
3080.0
 21
-3232.9999999999959
 31
0.0
1001
ACDBBLOCKREPETAG
1070
     1
1071
       19
1005
1303BB
  0
LINE
  5
1303BC
  8
OBJECT
 10
3045.6618002273249
 20
-3356.9999999999959
 30
0.0
 11
3080.0
 21
-3356.9999999999959
 31
0.0
1001
ACDBBLOCKREPETAG
1070
     1
1071
       20
1005
1303BC
  0
POINT
  5
1303BD
  8
DOTS
 10
3000.0
 20
-3294.9999999999959
 30
0.0
1001
ACDBBLOCKREPETAG
1070
     1
1071
       21
1005
1303BD
  0
CIRCLE
  5
1303BE
  8
OBJECT
 10
2000.0
 20
-3294.9999999999959
 30
0.0
 40
53.5
1001
ACDBBLOCKREPETAG
1070
     1
1071
      344
1005
1303BE
  0
LINE
  5
1303BF
  8
CENTER
 10
2080.0
 20
-3294.9999999999959
 30
0.0
 11
1905.0
 21
-3294.9999999999959
 31
0.0
1001
ACDBBLOCKREPETAG
1070
     1
1071
       14
1005
1303BF
  0
LINE
  5
1303C0
  8
CENTER
 10
2000.0
 20
-3389.9999999999968
 30
0.0
 11
2000.0
 21
-3199.9999999999959
 31
0.0
1001
ACDBBLOCKREPETAG
1070
     1
1071
       15
1005
1303C0
  0
CIRCLE
  5
1303C1
  8
OBJECT
 10
2000.0
 20
-3294.9999999999959
 30
0.0
 40
70.0
1001
ACDBBLOCKREPETAG
1070
     1
1071
       16
1005
1303C1
  0
CIRCLE
  5
1303C2
  8
OBJECT
 10
2000.0
 20
-3294.9999999999959
 30
0.0
 40
77.0
1001
ACDBBLOCKREPETAG
1070
     1
1071
       17
1005
1303C2
  0
ARC
  5
1303C3
  8
OBJECT
 10
2000.0
 20
-3294.9999999999959
 30
0.0
 40
80.0
 50
50.805032573862128
 51
309.19496742613791
1001
ACDBBLOCKREPETAG
1070
     1
1071
       18
1005
1303C3
  0
LINE
  5
1303C4
  8
OBJECT
 10
2045.6618002273251
 20
-3232.9999999999959
 30
0.0
 11
2080.0
 21
-3232.9999999999959
 31
0.0
1001
ACDBBLOCKREPETAG
1070
     1
1071
       19
1005
1303C4
  0
LINE
  5
1303C5
  8
OBJECT
 10
2045.6618002273251
 20
-3356.9999999999959
 30
0.0
 11
2080.0
 21
-3356.9999999999959
 31
0.0
1001
ACDBBLOCKREPETAG
1070
     1
1071
       20
1005
1303C5
  0
POINT
  5
1303C6
  8
DOTS
 10
2000.0
 20
-3294.9999999999959
 30
0.0
1001
ACDBBLOCKREPETAG
1070
     1
1071
       21
1005
1303C6
  0
CIRCLE
  5
1303C7
  8
OBJECT
 10
2000.0
 20
-199.99999999999909
 30
0.0
 40
53.5
1001
ACDBBLOCKREPETAG
1070
     1
1071
      340
1005
1303C7
  0
LINE
  5
1303C8
  8
CENTER
 10
2080.0
 20
-199.99999999999909
 30
0.0
 11
1920.0
 21
-199.99999999999909
 31
0.0
1001
ACDBBLOCKREPETAG
1070
     1
1071
       49
1005
1303C8
  0
LINE
  5
1303C9
  8
CENTER
 10
2000.0
 20
-279.99999999999909
 30
0.0
 11
2000.0
 21
-104.9999999999991
 31
0.0
1001
ACDBBLOCKREPETAG
1070
     1
1071
       50
1005
1303C9
  0
CIRCLE
  5
1303CA
  8
OBJECT
 10
2000.0
 20
-199.99999999999909
 30
0.0
 40
70.0
1001
ACDBBLOCKREPETAG
1070
     1
1071
       51
1005
1303CA
  0
CIRCLE
  5
1303CB
  8
OBJECT
 10
2000.0
 20
-199.99999999999909
 30
0.0
 40
77.0
1001
ACDBBLOCKREPETAG
1070
     1
1071
       52
1005
1303CB
  0
ARC
  5
1303CC
  8
OBJECT
 10
2000.0
 20
-199.99999999999909
 30
0.0
 40
80.0
 50
50.805032573864182
 51
129.1949674261358
1001
ACDBBLOCKREPETAG
1070
     1
1071
       53
1005
1303CC
  0
LINE
  5
1303CD
  8
OBJECT
 10
2045.6618002273251
 20
-137.99999999999909
 30
0.0
 11
2080.0
 21
-137.99999999999909
 31
0.0
1001
ACDBBLOCKREPETAG
1070
     1
1071
       54
1005
1303CD
  0
LINE
  5
1303CE
  8
OBJECT
 10
2062.0
 20
-261.99999999999909
 30
0.0
 11
2080.0
 21
-261.99999999999909
 31
0.0
1001
ACDBBLOCKREPETAG
1070
     1
1071
       55
1005
1303CE
  0
LINE
  5
1303CF
  8
OBJECT
 10
2062.0
 20
-261.99999999999909
 30
0.0
 11
2062.0
 21
-279.99999999999909
 31
0.0
1001
ACDBBLOCKREPETAG
1070
     1
1071
       57
1005
1303CF
  0
LINE
  5
1303D0
  8
OBJECT
 10
1938.0
 20
-261.99999999999909
 30
0.0
 11
1938.0
 21
-279.99999999999909
 31
0.0
1001
ACDBBLOCKREPETAG
1070
     1
1071
       58
1005
1303D0
  0
POINT
  5
1303D1
  8
DOTS
 10
2000.0
 20
-199.99999999999909
 30
0.0
 50
90.0
1001
ACDBBLOCKREPETAG
1070
     1
1071
       59
1005
1303D1
  0
LINE
  5
1303D2
  8
OBJECT
 10
1938.0
 20
-261.99999999999909
 30
0.0
 11
1920.0
 21
-261.99999999999909
 31
0.0
1001
ACDBBLOCKREPETAG
1070
     1
1071
       60
1005
1303D2
  0
LINE
  5
1303D3
  8
OBJECT
 10
1954.3381997726749
 20
-137.99999999999909
 30
0.0
 11
1920.0
 21
-137.99999999999909
 31
0.0
1001
ACDBBLOCKREPETAG
1070
     1
1071
       61
1005
1303D3
  0
LINE
  5
1303D4
  8
OBJECT
 10
1945.5527778486351
 20
-254.44722215136329
 30
0.0
 11
1938.0
 21
-261.99999999999909
 31
0.0
1001
ACDBBLOCKREPETAG
1070
     1
1071
       42
1005
1303D4
  0
LINE
  5
1303D5
  8
OBJECT
 10
2054.4472221513638
 20
-254.44722215136329
 30
0.0
 11
2062.0
 21
-261.99999999999909
 31
0.0
1001
ACDBBLOCKREPETAG
1070
     1
1071
       43
1005
1303D5
  0
LINE
  5
1303D6
  8
CENTER
 10
1899.0
 20
-199.99999999999909
 30
0.0
 11
1920.0
 21
-199.99999999999909
 31
0.0
1001
ACDBBLOCKREPETAG
1070
     1
1071
        0
1005
1303D6
  0
LINE
  5
1303D7
  8
OBJECT
 10
1917.0
 20
-261.99999999999909
 30
0.0
 11
1920.0
 21
-261.99999999999909
 31
0.0
1001
ACDBBLOCKREPETAG
1070
     1
1071
        1
1005
1303D7
  0
ARC
  5
1303D8
  8
OBJECT
 10
1917.0
 20
-258.99999999999909
 30
0.0
 40
3.0
 50
180.0
 51
270.0
1001
ACDBBLOCKREPETAG
1070
     1
1071
        2
1005
1303D8
  0
LINE
  5
1303D9
  8
OBJECT
 10
1920.0
 20
-137.99999999999909
 30
0.0
 11
1917.0
 21
-137.99999999999909
 31
0.0
1001
ACDBBLOCKREPETAG
1070
     1
1071
        3
1005
1303D9
  0
ARC
  5
1303DA
  8
OBJECT
 10
1917.0
 20
-140.99999999999909
 30
0.0
 40
3.0
 50
90.0
 51
180.0
1001
ACDBBLOCKREPETAG
1070
     1
1071
        4
1005
1303DA
  0
LINE
  5
1303DB
  8
OBJECT
 10
1914.0
 20
-140.99999999999909
 30
0.0
 11
1914.0
 21
-258.99999999999909
 31
0.0
1001
ACDBBLOCKREPETAG
1070
     1
1071
        5
1005
1303DB
  0
LINE
  5
1303DC
  8
CENTER
 10
2000.0
 20
-279.99999999999909
 30
0.0
 11
2000.0
 21
-334.99999999999892
 31
0.0
1001
ACDBBLOCKREPETAG
1070
     1
1071
      352
1005
1303DC
  0
LINE
  5
1303DD
  8
OBJECT
 10
2059.0
 20
-285.99999999999892
 30
0.0
 11
1941.0
 21
-285.99999999999892
 31
0.0
1001
ACDBBLOCKREPETAG
1070
     1
1071
      353
1005
1303DD
  0
LINE
  5
1303DE
  8
OBJECT
 10
1955.5
 20
-309.99999999999892
 30
0.0
 11
2044.5
 21
-309.99999999999892
 31
0.0
1001
ACDBBLOCKREPETAG
1070
     1
1071
      354
1005
1303DE
  0
LINE
  5
1303DF
  8
OBJECT
 10
1955.5
 20
-309.99999999999892
 30
0.0
 11
1955.5
 21
-285.99999999999892
 31
0.0
1001
ACDBBLOCKREPETAG
1070
     1
1071
      355
1005
1303DF
  0
LINE
  5
1303E0
  8
OBJECT
 10
1938.0
 20
-279.99999999999909
 30
0.0
 11
1938.0
 21
-282.99999999999892
 31
0.0
1001
ACDBBLOCKREPETAG
1070
     1
1071
      356
1005
1303E0
  0
ARC
  5
1303E1
  8
OBJECT
 10
1941.0
 20
-282.99999999999892
 30
0.0
 40
3.0
 50
180.0
 51
270.0
1001
ACDBBLOCKREPETAG
1070
     1
1071
      357
1005
1303E1
  0
LINE
  5
1303E2
  8
OBJECT
 10
2017.8220660000011
 20
-309.99999999999892
 30
0.0
 11
2022.1031819999989
 21
-313.83118899999948
 31
0.0
1001
ACDBBLOCKREPETAG
1070
     1
1071
      358
1005
1303E2
  0
ARC
  5
1303E3
  8
OBJECT
 10
2017.0
 20
-319.99999999999892
 30
0.0
 40
8.0
 50
251.8416470000376
 51
50.402247000150382
1001
ACDBBLOCKREPETAG
1070
     1
1071
      359
1005
1303E3
  0
ARC
  5
1303E4
  8
OBJECT
 10
2016.0650669999991
 20
-322.8505969999996
 30
0.0
 40
5.0
 50
198.48486899996169
 51
251.8416470000376
1001
ACDBBLOCKREPETAG
1070
     1
1071
      360
1005
1303E4
  0
LINE
  5
1303E5
  8
OBJECT
 10
2005.0
 20
-319.99999999999892
 30
0.0
 11
2005.0
 21
-312.99999999999909
 31
0.0
1001
ACDBBLOCKREPETAG
1070
     1
1071
      361
1005
1303E5
  0
LINE
  5
1303E6
  8
OBJECT
 10
1995.0
 20
-319.99999999999892
 30
0.0
 11
1995.0
 21
-312.99999999999909
 31
0.0
1001
ACDBBLOCKREPETAG
1070
     1
1071
      362
1005
1303E6
  0
LINE
  5
1303E7
  8
OBJECT
 10
2005.0
 20
-319.99999999999892
 30
0.0
 11
1995.0
 21
-319.99999999999892
 31
0.0
1001
ACDBBLOCKREPETAG
1070
     1
1071
      363
1005
1303E7
  0
LINE
  5
1303E8
  8
OBJECT
 10
2007.5
 20
-312.99999999999909
 30
0.0
 11
1992.5
 21
-312.99999999999909
 31
0.0
1001
ACDBBLOCKREPETAG
1070
     1
1071
      364
1005
1303E8
  0
LINE
  5
1303E9
  8
OBJECT
 10
1991.75
 20
-309.99999999999892
 30
0.0
 11
1992.5
 21
-312.99999999999909
 31
0.0
1001
ACDBBLOCKREPETAG
1070
     1
1071
      365
1005
1303E9
  0
LINE
  5
1303EA
  8
OBJECT
 10
1982.177932999999
 20
-309.99999999999892
 30
0.0
 11
1977.8968180000011
 21
-313.83118899999948
 31
0.0
1001
ACDBBLOCKREPETAG
1070
     1
1071
      366
1005
1303EA
  0
LINE
  5
1303EB
  8
OBJECT
 10
2008.25
 20
-309.99999999999892
 30
0.0
 11
2007.5
 21
-312.99999999999909
 31
0.0
1001
ACDBBLOCKREPETAG
1070
     1
1071
      367
1005
1303EB
  0
ARC
  5
1303EC
  8
OBJECT
 10
1983.0
 20
-319.99999999999892
 30
0.0
 40
8.0
 50
129.59775299984949
 51
288.1583529999624
1001
ACDBBLOCKREPETAG
1070
     1
1071
      368
1005
1303EC
  0
ARC
  5
1303ED
  8
OBJECT
 10
1983.934933
 20
-322.8505969999996
 30
0.0
 40
5.0
 50
288.1583529999624
 51
341.51513100003518
1001
ACDBBLOCKREPETAG
1070
     1
1071
      369
1005
1303ED
  0
LINE
  5
1303EE
  8
OBJECT
 10
1988.67697
 20
-324.43586799999957
 30
0.0
 11
1992.5
 21
-312.99999999999909
 31
0.0
1001
ACDBBLOCKREPETAG
1070
     1
1071
      370
1005
1303EE
  0
LINE
  5
1303EF
  8
OBJECT
 10
2011.3230299999991
 20
-324.43586799999957
 30
0.0
 11
2007.5
 21
-312.99999999999909
 31
0.0
1001
ACDBBLOCKREPETAG
1070
     1
1071
      371
1005
1303EF
  0
ARC
  5
1303F0
  8
OBJECT
 10
2059.0
 20
-282.99999999999892
 30
0.0
 40
3.0
 50
270.0
 51
0.0
1001
ACDBBLOCKREPETAG
1070
     1
1071
      372
1005
1303F0
  0
LINE
  5
1303F1
  8
OBJECT
 10
2062.0
 20
-279.99999999999909
 30
0.0
 11
2062.0
 21
-282.99999999999892
 31
0.0
1001
ACDBBLOCKREPETAG
1070
     1
1071
      373
1005
1303F1
  0
LINE
  5
1303F2
  8
OBJECT
 10
2044.5
 20
-309.99999999999892
 30
0.0
 11
2044.5
 21
-285.99999999999892
 31
0.0
1001
ACDBBLOCKREPETAG
1070
     1
1071
      374
1005
1303F2
  0
LINE
  5
1303F3
  8
OBJECT
 10
2133.0
 20
-137.99999999999909
 30
0.0
 11
2140.0
 21
-137.99999999999909
 31
0.0
1001
ACDBBLOCKREPETAG
1070
     1
1071
       47
1005
1303F3
  0
LINE
  5
1303F4
  8
OBJECT
 10
2140.0
 20
-137.99999999999909
 30
0.0
 11
2140.0
 21
-261.99999999999909
 31
0.0
1001
ACDBBLOCKREPETAG
1070
     1
1071
       48
1005
1303F4
  0
LINE
  5
1303F5
  8
OBJECT
 10
2140.0
 20
-261.99999999999909
 30
0.0
 11
2133.0
 21
-261.99999999999909
 31
0.0
1001
ACDBBLOCKREPETAG
1070
     1
1071
       49
1005
1303F5
  0
LINE
  5
1303F6
  8
OBJECT
 10
2133.0
 20
-261.99999999999909
 30
0.0
 11
2133.0
 21
-137.99999999999909
 31
0.0
1001
ACDBBLOCKREPETAG
1070
     1
1071
       50
1005
1303F6
  0
LINE
  5
1303F7
  8
CENTER
 10
2155.0
 20
-199.99999999999909
 30
0.0
 11
2080.0
 21
-199.99999999999909
 31
0.0
1001
ACDBBLOCKREPETAG
1070
     1
1071
       51
1005
1303F7
  0
LINE
  5
1303F8
  8
OBJECT
 10
2133.0
 20
-140.99999999999909
 30
0.0
 11
2097.0
 21
-140.99999999999909
 31
0.0
1001
ACDBBLOCKREPETAG
1070
     1
1071
       52
1005
1303F8
  0
LINE
  5
1303F9
  8
OBJECT
 10
2097.0
 20
-140.99999999999909
 30
0.0
 11
2097.0
 21
-258.99999999999909
 31
0.0
1001
ACDBBLOCKREPETAG
1070
     1
1071
       53
1005
1303F9
  0
LINE
  5
1303FA
  8
OBJECT
 10
2097.0
 20
-258.99999999999909
 30
0.0
 11
2133.0
 21
-258.99999999999909
 31
0.0
1001
ACDBBLOCKREPETAG
1070
     1
1071
       54
1005
1303FA
  0
LINE
  5
1303FB
  8
OBJECT
 10
2093.0
 20
-145.49999999999909
 30
0.0
 11
2086.0
 21
-145.49999999999909
 31
0.0
1001
ACDBBLOCKREPETAG
1070
     1
1071
       55
1005
1303FB
  0
LINE
  5
1303FC
  8
OBJECT
 10
2086.0
 20
-254.49999999999909
 30
0.0
 11
2093.0
 21
-254.49999999999909
 31
0.0
1001
ACDBBLOCKREPETAG
1070
     1
1071
       56
1005
1303FC
  0
LINE
  5
1303FD
  8
OBJECT
 10
2093.0
 20
-254.49999999999909
 30
0.0
 11
2093.0
 21
-145.49999999999909
 31
0.0
1001
ACDBBLOCKREPETAG
1070
     1
1071
       57
1005
1303FD
  0
LINE
  5
1303FE
  8
OBJECT
 10
2097.0
 20
-140.99999999999909
 30
0.0
 11
2093.0
 21
-145.49999999999909
 31
0.0
1001
ACDBBLOCKREPETAG
1070
     1
1071
       58
1005
1303FE
  0
LINE
  5
1303FF
  8
OBJECT
 10
2097.0
 20
-258.99999999999909
 30
0.0
 11
2093.0
 21
-254.49999999999909
 31
0.0
1001
ACDBBLOCKREPETAG
1070
     1
1071
       59
1005
1303FF
  0
LINE
  5
130400
  8
OBJECT
 10
2083.0
 20
-137.99999999999909
 30
0.0
 11
2080.0
 21
-137.99999999999909
 31
0.0
1001
ACDBBLOCKREPETAG
1070
     1
1071
       60
1005
130400
  0
ARC
  5
130401
  8
OBJECT
 10
2083.0
 20
-140.99999999999909
 30
0.0
 40
3.0
 50
0.0
 51
90.0
1001
ACDBBLOCKREPETAG
1070
     1
1071
       61
1005
130401
  0
LINE
  5
130402
  8
OBJECT
 10
2080.0
 20
-261.99999999999909
 30
0.0
 11
2083.0
 21
-261.99999999999909
 31
0.0
1001
ACDBBLOCKREPETAG
1070
     1
1071
       62
1005
130402
  0
ARC
  5
130403
  8
OBJECT
 10
2083.0
 20
-258.99999999999909
 30
0.0
 40
3.0
 50
270.0
 51
0.0
1001
ACDBBLOCKREPETAG
1070
     1
1071
       63
1005
130403
  0
LINE
  5
130404
  8
OBJECT
 10
2086.0
 20
-258.99999999999909
 30
0.0
 11
2086.0
 21
-140.99999999999909
 31
0.0
1001
ACDBBLOCKREPETAG
1070
     1
1071
       64
1005
130404
  0
LINE
  5
130405
  8
HIDDEN
 10
2088.0
 20
-155.49999999999909
 30
0.0
 11
2088.0
 21
-244.49999999999909
 31
0.0
1001
ACDBBLOCKREPETAG
1070
     1
1071
       65
1005
130405
  0
LINE
  5
130406
  8
OBJECT
 10
1917.0
 20
-634.0
 30
0.0
 11
1920.0
 21
-634.0
 31
0.0
1001
ACDBBLOCKREPETAG
1070
     1
1071
        1
1005
130406
  0
ARC
  5
130407
  8
OBJECT
 10
1917.0
 20
-637.0
 30
0.0
 40
3.0
 50
90.0
 51
180.0
1001
ACDBBLOCKREPETAG
1070
     1
1071
        2
1005
130407
  0
LINE
  5
130408
  8
OBJECT
 10
1920.0
 20
-758.0
 30
0.0
 11
1917.0
 21
-758.0
 31
0.0
1001
ACDBBLOCKREPETAG
1070
     1
1071
        3
1005
130408
  0
ARC
  5
130409
  8
OBJECT
 10
1917.0
 20
-755.0
 30
0.0
 40
3.0
 50
180.0
 51
270.0
1001
ACDBBLOCKREPETAG
1070
     1
1071
        4
1005
130409
  0
LINE
  5
13040A
  8
OBJECT
 10
1914.0
 20
-755.0
 30
0.0
 11
1914.0
 21
-637.0
 31
0.0
1001
ACDBBLOCKREPETAG
1070
     1
1071
        5
1005
13040A
  0
CIRCLE
  5
13040B
  8
OBJECT
 10
2000.0
 20
-696.0
 30
0.0
 40
62.0
1001
ACDBBLOCKREPETAG
1070
     1
1071
      227
1005
13040B
  0
CIRCLE
  5
13040C
  8
OBJECT
 10
2000.0
 20
-696.0
 30
0.0
 40
36.333333000000003
1001
ACDBBLOCKREPETAG
1070
     1
1071
      228
1005
13040C
  0
CIRCLE
  5
13040D
  8
OBJECT
 10
2000.0
 20
-696.0
 30
0.0
 40
44.5
1001
ACDBBLOCKREPETAG
1070
     1
1071
      229
1005
13040D
  0
ARC
  5
13040E
  8
OBJECT
 10
2000.0
 20
-696.0
 30
0.0
 40
10.0
 50
194.62786100003839
 51
345.37213899996152
1001
ACDBBLOCKREPETAG
1070
     1
1071
      230
1005
13040E
  0
ARC
  5
13040F
  8
OBJECT
 10
2000.0
 20
-696.0
 30
0.0
 40
7.5
 50
200.41516800005761
 51
339.58483199994242
1001
ACDBBLOCKREPETAG
1070
     1
1071
      231
1005
13040F
  0
ARC
  5
130410
  8
OBJECT
 10
1977.0
 20
-696.0
 30
0.0
 40
2.0
 50
91.963657999954648
 51
268.03634200004529
1001
ACDBBLOCKREPETAG
1070
     1
1071
      232
1005
130410
  0
ARC
  5
130411
  8
OBJECT
 10
2000.0
 20
-696.0
 30
0.0
 40
10.0
 50
14.62786100003852
 51
165.37213899996141
1001
ACDBBLOCKREPETAG
1070
     1
1071
      233
1005
130411
  0
CIRCLE
  5
130412
  8
OBJECT
 10
2000.0
 20
-696.0
 30
0.0
 40
4.5
1001
ACDBBLOCKREPETAG
1070
     1
1071
      234
1005
130412
  0
ARC
  5
130413
  8
OBJECT
 10
2000.0
 20
-696.0
 30
0.0
 40
7.5
 50
20.415168000057569
 51
159.58483199994239
1001
ACDBBLOCKREPETAG
1070
     1
1071
      235
1005
130413
  0
ARC
  5
130414
  8
OBJECT
 10
2000.0
 20
-696.0
 30
0.0
 40
24.333333
 50
183.77906500000159
 51
356.22093499999818
1001
ACDBBLOCKREPETAG
1070
     1
1071
      236
1005
130414
  0
ARC
  5
130415
  8
OBJECT
 10
2000.0
 20
-696.0
 30
0.0
 40
24.333333
 50
3.7790650000018511
 51
176.22093499999809
1001
ACDBBLOCKREPETAG
1070
     1
1071
      237
1005
130415
  0
ARC
  5
130416
  8
OBJECT
 10
2023.0
 20
-696.0
 30
0.0
 40
2.0
 50
271.96365799995459
 51
88.036342000045366
1001
ACDBBLOCKREPETAG
1070
     1
1071
      238
1005
130416
  0
LINE
  5
130417
  8
OBJECT
 10
2007.0289220000011
 20
-698.61615099999835
 30
0.0
 11
2023.068531000001
 21
-697.99882499999865
 31
0.0
1001
ACDBBLOCKREPETAG
1070
     1
1071
      239
1005
130417
  0
LINE
  5
130418
  8
OBJECT
 10
2007.0289220000011
 20
-693.38384899999983
 30
0.0
 11
2023.068531000001
 21
-694.00117399999908
 31
0.0
1001
ACDBBLOCKREPETAG
1070
     1
1071
      240
1005
130418
  0
LINE
  5
130419
  8
OBJECT
 10
1992.9710769999981
 20
-698.61615099999835
 30
0.0
 11
1976.931468999999
 21
-697.99882499999865
 31
0.0
1001
ACDBBLOCKREPETAG
1070
     1
1071
      241
1005
130419
  0
LINE
  5
13041A
  8
OBJECT
 10
1992.9710769999981
 20
-693.38384899999983
 30
0.0
 11
1976.931468999999
 21
-694.00117399999908
 31
0.0
1001
ACDBBLOCKREPETAG
1070
     1
1071
      242
1005
13041A
  0
LINE
  5
13041B
  8
CENTER
 10
1923.0
 20
-695.9999992574941
 30
0.0
 11
2077.0
 21
-696.00000688055752
 31
0.0
1001
ACDBBLOCKREPETAG
1070
     1
1071
      243
1005
13041B
  0
LINE
  5
13041C
  8
OBJECT
 10
2133.0
 20
-634.0
 30
0.0
 11
2140.0
 21
-634.0
 31
0.0
1001
ACDBBLOCKREPETAG
1070
     1
1071
       45
1005
13041C
  0
LINE
  5
13041D
  8
OBJECT
 10
2140.0
 20
-634.0
 30
0.0
 11
2140.0
 21
-755.0
 31
0.0
1001
ACDBBLOCKREPETAG
1070
     1
1071
       46
1005
13041D
  0
LINE
  5
13041E
  8
OBJECT
 10
2133.0
 20
-755.0
 30
0.0
 11
2133.0
 21
-634.0
 31
0.0
1001
ACDBBLOCKREPETAG
1070
     1
1071
       47
1005
13041E
  0
LINE
  5
13041F
  8
CENTER
 10
2155.0
 20
-696.0
 30
0.0
 11
2071.0
 21
-696.0
 31
0.0
1001
ACDBBLOCKREPETAG
1070
     1
1071
       48
1005
13041F
  0
LINE
  5
130420
  8
OBJECT
 10
2133.0
 20
-637.0
 30
0.0
 11
2097.0
 21
-637.0
 31
0.0
1001
ACDBBLOCKREPETAG
1070
     1
1071
       49
1005
130420
  0
LINE
  5
130421
  8
OBJECT
 10
2097.0
 20
-637.0
 30
0.0
 11
2097.0
 21
-755.0
 31
0.0
1001
ACDBBLOCKREPETAG
1070
     1
1071
       50
1005
130421
  0
LINE
  5
130422
  8
OBJECT
 10
2097.0
 20
-755.0
 30
0.0
 11
2140.0
 21
-755.0
 31
0.0
1001
ACDBBLOCKREPETAG
1070
     1
1071
       51
1005
130422
  0
LINE
  5
130423
  8
OBJECT
 10
2093.0
 20
-641.5
 30
0.0
 11
2086.0
 21
-641.5
 31
0.0
1001
ACDBBLOCKREPETAG
1070
     1
1071
       52
1005
130423
  0
LINE
  5
130424
  8
OBJECT
 10
2086.0
 20
-750.49999999999989
 30
0.0
 11
2093.0
 21
-750.49999999999989
 31
0.0
1001
ACDBBLOCKREPETAG
1070
     1
1071
       53
1005
130424
  0
LINE
  5
130425
  8
OBJECT
 10
2093.0
 20
-750.49999999999989
 30
0.0
 11
2093.0
 21
-641.5
 31
0.0
1001
ACDBBLOCKREPETAG
1070
     1
1071
       54
1005
130425
  0
LINE
  5
130426
  8
OBJECT
 10
2097.0
 20
-637.0
 30
0.0
 11
2093.0
 21
-641.5
 31
0.0
1001
ACDBBLOCKREPETAG
1070
     1
1071
       55
1005
130426
  0
LINE
  5
130427
  8
OBJECT
 10
2097.0
 20
-755.0
 30
0.0
 11
2093.0
 21
-750.49999999999989
 31
0.0
1001
ACDBBLOCKREPETAG
1070
     1
1071
       56
1005
130427
  0
LINE
  5
130428
  8
OBJECT
 10
2083.0
 20
-634.0
 30
0.0
 11
2080.0
 21
-634.0
 31
0.0
1001
ACDBBLOCKREPETAG
1070
     1
1071
       57
1005
130428
  0
ARC
  5
130429
  8
OBJECT
 10
2083.0
 20
-637.0
 30
0.0
 40
3.0
 50
0.0
 51
90.0
1001
ACDBBLOCKREPETAG
1070
     1
1071
       58
1005
130429
  0
LINE
  5
13042A
  8
OBJECT
 10
2080.0
 20
-758.0
 30
0.0
 11
2083.0
 21
-758.0
 31
0.0
1001
ACDBBLOCKREPETAG
1070
     1
1071
       59
1005
13042A
  0
ARC
  5
13042B
  8
OBJECT
 10
2083.0
 20
-755.0
 30
0.0
 40
3.0
 50
270.0
 51
0.0
1001
ACDBBLOCKREPETAG
1070
     1
1071
       60
1005
13042B
  0
LINE
  5
13042C
  8
OBJECT
 10
2086.0
 20
-755.0
 30
0.0
 11
2086.0
 21
-637.0
 31
0.0
1001
ACDBBLOCKREPETAG
1070
     1
1071
       61
1005
13042C
  0
LINE
  5
13042D
  8
HIDDEN
 10
2088.0
 20
-651.5
 30
0.0
 11
2088.0
 21
-740.5
 31
0.0
1001
ACDBBLOCKREPETAG
1070
     1
1071
       63
1005
13042D
  0
TEXT
  5
13042E
  8
SLIM
 10
0.0000035665234464
 20
24.000004585317601
 30
0.0
 40
79.999999999972701
  1
枝管バリエーション
 41
0.75
1001
ACDBBLOCKREPETAG
1070
     1
1071
      119
1005
12CC4A
  0
TEXT
  5
13042F
  8
SLIM
 10
1837.75
 20
282.50000000000011
 30
0.0
 40
35.0
  1
（枝管サイズ毎に寸法が異なります。管底の位置は50～100で同じです）
 41
0.75
  0
TEXT
  5
130430
  8
SLIM
 10
1850.0
 20
369.99999999999989
 30
0.0
 40
100.0
  1
4SRT-CO-A3P0
 41
0.75
  0
TEXT
  5
130431
  8
SLIM
 10
0.0
 20
370.0
 30
0.0
 40
100.0
  1
4SRT-CO-AXP0-S
 41
0.75
  0
LINE
  5
130432
  8
OBJECT
 10
4923.0
 20
-3515.9999999999968
 30
0.0
 11
4923.0
 21
-3494.9999999999968
 31
0.0
1001
ACDBBLOCKREPETAG
1070
     1
1071
        0
1005
130432
  0
LINE
  5
130433
  8
OBJECT
 10
4923.0
 20
-3494.9999999999968
 30
0.0
 11
5077.0
 21
-3494.9999999999968
 31
0.0
1001
ACDBBLOCKREPETAG
1070
     1
1071
        1
1005
130433
  0
LINE
  5
130434
  8
HIDDEN
 10
4943.0
 20
-3564.9999999999968
 30
0.0
 11
5057.0
 21
-3564.9999999999968
 31
0.0
1001
ACDBBLOCKREPETAG
1070
     1
1071
        2
1005
130434
  0
LINE
  5
130435
  8
OBJECT
 10
5077.0
 20
-3494.9999999999968
 30
0.0
 11
5077.0
 21
-3515.9999999999968
 31
0.0
1001
ACDBBLOCKREPETAG
1070
     1
1071
        3
1005
130435
  0
LINE
  5
130436
  8
OBJECT
 10
5077.0
 20
-3515.9999999999968
 30
0.0
 11
4923.0
 21
-3515.9999999999968
 31
0.0
1001
ACDBBLOCKREPETAG
1070
     1
1071
        4
1005
130436
  0
LINE
  5
130437
  8
CENTER
 10
5000.0
 20
-3479.9999999999968
 30
0.0
 11
5000.0
 21
-3714.9999999999968
 31
0.0
1001
ACDBBLOCKREPETAG
1070
     1
1071
        5
1005
130437
  0
LINE
  5
130438
  8
OBJECT
 10
4925.0
 20
-3578.9999999999968
 30
0.0
 11
4925.0
 21
-3702.9999999999968
 31
0.0
1001
ACDBBLOCKREPETAG
1070
     1
1071
        6
1005
130438
  0
LINE
  5
130439
  8
OBJECT
 10
4928.0
 20
-3515.9999999999968
 30
0.0
 11
4928.0
 21
-3578.9999999999968
 31
0.0
1001
ACDBBLOCKREPETAG
1070
     1
1071
        7
1005
130439
  0
LINE
  5
13043A
  8
OBJECT
 10
5072.0
 20
-3578.9999999999968
 30
0.0
 11
5072.0
 21
-3515.9999999999968
 31
0.0
1001
ACDBBLOCKREPETAG
1070
     1
1071
        8
1005
13043A
  0
LINE
  5
13043B
  8
OBJECT
 10
5074.9999999997999
 20
-3702.9999999997758
 30
0.0
 11
5080.0
 21
-3702.9999999999968
 31
0.0
1001
ACDBBLOCKREPETAG
1070
     1
1071
        9
1005
13043B
  0
LINE
  5
13043C
  8
OBJECT
 10
5080.0
 20
-3578.9999999999968
 30
0.0
 11
4925.0
 21
-3578.9999999999968
 31
0.0
1001
ACDBBLOCKREPETAG
1070
     1
1071
       10
1005
13043C
  0
ARC
  5
13043D
  8
OBJECT
 10
5200.6872746716726
 20
-3694.408099410105
 30
0.0
 40
170.6350503965856
 50
137.44134459184301
 51
149.9194958133665
1001
ACDBBLOCKREPETAG
1070
     1
1071
       15
1005
13043D
  0
ARC
  5
13043E
  8
OBJECT
 10
5118.8455987040506
 20
-3650.8827266953622
 30
0.0
 40
78.072222021763665
 50
147.4551531037684
 51
164.66365997719291
1001
ACDBBLOCKREPETAG
1070
     1
1071
       16
1005
13043E
  0
ARC
  5
13043F
  8
OBJECT
 10
5085.7554349608727
 20
-3640.9999999999968
 30
0.0
 40
43.55353926885617
 50
165.6884523008477
 51
194.3115476991523
1001
ACDBBLOCKREPETAG
1070
     1
1071
       17
1005
13043F
  0
ARC
  5
130440
  8
OBJECT
 10
5200.6872746716726
 20
-3587.5919005898891
 30
0.0
 40
170.6350503965856
 50
210.0805041866335
 51
222.55865540815699
1001
ACDBBLOCKREPETAG
1070
     1
1071
       18
1005
130440
  0
ARC
  5
130441
  8
OBJECT
 10
5118.8455987040506
 20
-3631.1172733046319
 30
0.0
 40
78.072222021763665
 50
195.33634002280701
 51
212.5448468962316
1001
ACDBBLOCKREPETAG
1070
     1
1071
       19
1005
130441
  0
POINT
  5
130442
  8
DOTS
 10
5000.0
 20
-3699.9999999999968
 30
0.0
1001
ACDBBLOCKREPETAG
1070
     1
1071
      186
1005
130442
  0
LINE
  5
130443
  8
OBJECT
 10
4323.0
 20
-3515.9999999999968
 30
0.0
 11
4323.0
 21
-3494.9999999999968
 31
0.0
1001
ACDBBLOCKREPETAG
1070
     1
1071
       20
1005
130443
  0
LINE
  5
130444
  8
OBJECT
 10
4323.0
 20
-3494.9999999999968
 30
0.0
 11
4477.0
 21
-3494.9999999999968
 31
0.0
1001
ACDBBLOCKREPETAG
1070
     1
1071
       21
1005
130444
  0
LINE
  5
130445
  8
HIDDEN
 10
4343.0
 20
-3564.9999999999968
 30
0.0
 11
4457.0
 21
-3564.9999999999968
 31
0.0
1001
ACDBBLOCKREPETAG
1070
     1
1071
       22
1005
130445
  0
LINE
  5
130446
  8
OBJECT
 10
4477.0
 20
-3494.9999999999968
 30
0.0
 11
4477.0
 21
-3515.9999999999968
 31
0.0
1001
ACDBBLOCKREPETAG
1070
     1
1071
       23
1005
130446
  0
LINE
  5
130447
  8
OBJECT
 10
4477.0
 20
-3515.9999999999968
 30
0.0
 11
4323.0
 21
-3515.9999999999968
 31
0.0
1001
ACDBBLOCKREPETAG
1070
     1
1071
       24
1005
130447
  0
LINE
  5
130448
  8
CENTER
 10
4400.0
 20
-3479.9999999999968
 30
0.0
 11
4400.0
 21
-3714.9999999999968
 31
0.0
1001
ACDBBLOCKREPETAG
1070
     1
1071
       25
1005
130448
  0
LINE
  5
130449
  8
OBJECT
 10
4325.0
 20
-3578.9999999999968
 30
0.0
 11
4325.0
 21
-3702.9999999999968
 31
0.0
1001
ACDBBLOCKREPETAG
1070
     1
1071
       26
1005
130449
  0
LINE
  5
13044A
  8
OBJECT
 10
4328.0
 20
-3515.9999999999968
 30
0.0
 11
4328.0
 21
-3578.9999999999968
 31
0.0
1001
ACDBBLOCKREPETAG
1070
     1
1071
       27
1005
13044A
  0
LINE
  5
13044B
  8
OBJECT
 10
4472.0
 20
-3578.9999999999968
 30
0.0
 11
4472.0
 21
-3515.9999999999968
 31
0.0
1001
ACDBBLOCKREPETAG
1070
     1
1071
       28
1005
13044B
  0
LINE
  5
13044C
  8
OBJECT
 10
4475.0
 20
-3578.9999999999968
 30
0.0
 11
4325.0
 21
-3578.9999999999968
 31
0.0
1001
ACDBBLOCKREPETAG
1070
     1
1071
       30
1005
13044C
  0
LINE
  5
13044D
  8
OBJECT
 10
4475.0
 20
-3578.9999999999968
 30
0.0
 11
4475.0
 21
-3702.9999999999968
 31
0.0
1001
ACDBBLOCKREPETAG
1070
     1
1071
       34
1005
13044D
  0
POINT
  5
13044E
  8
DOTS
 10
4400.0
 20
-3699.9999999999968
 30
0.0
1001
ACDBBLOCKREPETAG
1070
     1
1071
      187
1005
13044E
  0
LINE
  5
13044F
  8
OBJECT
 10
3923.0
 20
-3515.9999999999968
 30
0.0
 11
3923.0
 21
-3494.9999999999968
 31
0.0
1001
ACDBBLOCKREPETAG
1070
     1
1071
        0
1005
13044F
  0
LINE
  5
130450
  8
OBJECT
 10
3923.0
 20
-3494.9999999999968
 30
0.0
 11
4077.0
 21
-3494.9999999999968
 31
0.0
1001
ACDBBLOCKREPETAG
1070
     1
1071
        1
1005
130450
  0
LINE
  5
130451
  8
HIDDEN
 10
3943.0
 20
-3564.9999999999968
 30
0.0
 11
4057.0
 21
-3564.9999999999968
 31
0.0
1001
ACDBBLOCKREPETAG
1070
     1
1071
        2
1005
130451
  0
LINE
  5
130452
  8
OBJECT
 10
4077.0
 20
-3494.9999999999968
 30
0.0
 11
4077.0
 21
-3515.9999999999968
 31
0.0
1001
ACDBBLOCKREPETAG
1070
     1
1071
        3
1005
130452
  0
LINE
  5
130453
  8
OBJECT
 10
4077.0
 20
-3515.9999999999968
 30
0.0
 11
3923.0
 21
-3515.9999999999968
 31
0.0
1001
ACDBBLOCKREPETAG
1070
     1
1071
        4
1005
130453
  0
LINE
  5
130454
  8
CENTER
 10
4000.0
 20
-3479.9999999999968
 30
0.0
 11
4000.0
 21
-3714.9999999999968
 31
0.0
1001
ACDBBLOCKREPETAG
1070
     1
1071
        5
1005
130454
  0
LINE
  5
130455
  8
OBJECT
 10
3925.0
 20
-3578.9999999999968
 30
0.0
 11
3925.0
 21
-3702.9999999999968
 31
0.0
1001
ACDBBLOCKREPETAG
1070
     1
1071
        6
1005
130455
  0
LINE
  5
130456
  8
OBJECT
 10
3928.0
 20
-3515.9999999999968
 30
0.0
 11
3928.0
 21
-3578.9999999999968
 31
0.0
1001
ACDBBLOCKREPETAG
1070
     1
1071
        7
1005
130456
  0
LINE
  5
130457
  8
OBJECT
 10
4072.0
 20
-3578.9999999999968
 30
0.0
 11
4072.0
 21
-3515.9999999999968
 31
0.0
1001
ACDBBLOCKREPETAG
1070
     1
1071
        8
1005
130457
  0
LINE
  5
130458
  8
OBJECT
 10
4074.999999999799
 20
-3702.9999999997758
 30
0.0
 11
4080.0
 21
-3702.9999999999968
 31
0.0
1001
ACDBBLOCKREPETAG
1070
     1
1071
        9
1005
130458
  0
LINE
  5
130459
  8
OBJECT
 10
4080.0
 20
-3578.9999999999968
 30
0.0
 11
3925.0
 21
-3578.9999999999968
 31
0.0
1001
ACDBBLOCKREPETAG
1070
     1
1071
       10
1005
130459
  0
ARC
  5
13045A
  8
OBJECT
 10
4200.6872746716726
 20
-3694.408099410105
 30
0.0
 40
170.6350503965856
 50
137.44134459184301
 51
149.9194958133665
1001
ACDBBLOCKREPETAG
1070
     1
1071
       15
1005
13045A
  0
ARC
  5
13045B
  8
OBJECT
 10
4118.8455987040506
 20
-3650.8827266953622
 30
0.0
 40
78.072222021763665
 50
147.4551531037684
 51
164.663659977186
1001
ACDBBLOCKREPETAG
1070
     1
1071
       16
1005
13045B
  0
ARC
  5
13045C
  8
OBJECT
 10
4085.7554349608722
 20
-3640.9999999999968
 30
0.0
 40
43.55353926885617
 50
165.6884523008477
 51
194.3115476991523
1001
ACDBBLOCKREPETAG
1070
     1
1071
       17
1005
13045C
  0
ARC
  5
13045D
  8
OBJECT
 10
4200.6872746716726
 20
-3587.5919005898891
 30
0.0
 40
170.6350503965856
 50
210.0805041866335
 51
222.55865540815699
1001
ACDBBLOCKREPETAG
1070
     1
1071
       18
1005
13045D
  0
ARC
  5
13045E
  8
OBJECT
 10
4118.8455987040506
 20
-3631.1172733046319
 30
0.0
 40
78.072222021763665
 50
195.33634002281391
 51
212.5448468962316
1001
ACDBBLOCKREPETAG
1070
     1
1071
       19
1005
13045E
  0
POINT
  5
13045F
  8
DOTS
 10
4000.0
 20
-3699.9999999999968
 30
0.0
1001
ACDBBLOCKREPETAG
1070
     1
1071
      186
1005
13045F
  0
LINE
  5
130460
  8
OBJECT
 10
3323.0
 20
-3515.9999999999968
 30
0.0
 11
3323.0
 21
-3494.9999999999968
 31
0.0
1001
ACDBBLOCKREPETAG
1070
     1
1071
       20
1005
130460
  0
LINE
  5
130461
  8
OBJECT
 10
3323.0
 20
-3494.9999999999968
 30
0.0
 11
3477.0
 21
-3494.9999999999968
 31
0.0
1001
ACDBBLOCKREPETAG
1070
     1
1071
       21
1005
130461
  0
LINE
  5
130462
  8
HIDDEN
 10
3343.0
 20
-3564.9999999999968
 30
0.0
 11
3457.0
 21
-3564.9999999999968
 31
0.0
1001
ACDBBLOCKREPETAG
1070
     1
1071
       22
1005
130462
  0
LINE
  5
130463
  8
OBJECT
 10
3477.0
 20
-3494.9999999999968
 30
0.0
 11
3477.0
 21
-3515.9999999999968
 31
0.0
1001
ACDBBLOCKREPETAG
1070
     1
1071
       23
1005
130463
  0
LINE
  5
130464
  8
OBJECT
 10
3477.0
 20
-3515.9999999999968
 30
0.0
 11
3323.0
 21
-3515.9999999999968
 31
0.0
1001
ACDBBLOCKREPETAG
1070
     1
1071
       24
1005
130464
  0
LINE
  5
130465
  8
CENTER
 10
3400.0
 20
-3479.9999999999968
 30
0.0
 11
3400.0
 21
-3714.9999999999968
 31
0.0
1001
ACDBBLOCKREPETAG
1070
     1
1071
       25
1005
130465
  0
LINE
  5
130466
  8
OBJECT
 10
3325.0
 20
-3578.9999999999968
 30
0.0
 11
3325.0
 21
-3702.9999999999968
 31
0.0
1001
ACDBBLOCKREPETAG
1070
     1
1071
       26
1005
130466
  0
LINE
  5
130467
  8
OBJECT
 10
3328.0
 20
-3515.9999999999968
 30
0.0
 11
3328.0
 21
-3578.9999999999968
 31
0.0
1001
ACDBBLOCKREPETAG
1070
     1
1071
       27
1005
130467
  0
LINE
  5
130468
  8
OBJECT
 10
3472.0
 20
-3578.9999999999968
 30
0.0
 11
3472.0
 21
-3515.9999999999968
 31
0.0
1001
ACDBBLOCKREPETAG
1070
     1
1071
       28
1005
130468
  0
LINE
  5
130469
  8
OBJECT
 10
3475.0
 20
-3578.9999999999968
 30
0.0
 11
3325.0
 21
-3578.9999999999968
 31
0.0
1001
ACDBBLOCKREPETAG
1070
     1
1071
       30
1005
130469
  0
LINE
  5
13046A
  8
OBJECT
 10
3475.0
 20
-3578.9999999999968
 30
0.0
 11
3475.0
 21
-3702.9999999999968
 31
0.0
1001
ACDBBLOCKREPETAG
1070
     1
1071
       34
1005
13046A
  0
POINT
  5
13046B
  8
DOTS
 10
3400.0
 20
-3699.9999999999968
 30
0.0
1001
ACDBBLOCKREPETAG
1070
     1
1071
      187
1005
13046B
  0
LINE
  5
13046C
  8
OBJECT
 10
2923.0
 20
-3515.9999999999968
 30
0.0
 11
2923.0
 21
-3494.9999999999968
 31
0.0
1001
ACDBBLOCKREPETAG
1070
     1
1071
        0
1005
13046C
  0
LINE
  5
13046D
  8
OBJECT
 10
2923.0
 20
-3494.9999999999968
 30
0.0
 11
3077.0
 21
-3494.9999999999968
 31
0.0
1001
ACDBBLOCKREPETAG
1070
     1
1071
        1
1005
13046D
  0
LINE
  5
13046E
  8
HIDDEN
 10
2943.0
 20
-3564.9999999999968
 30
0.0
 11
3057.0
 21
-3564.9999999999968
 31
0.0
1001
ACDBBLOCKREPETAG
1070
     1
1071
        2
1005
13046E
  0
LINE
  5
13046F
  8
OBJECT
 10
3077.0
 20
-3494.9999999999968
 30
0.0
 11
3077.0
 21
-3515.9999999999968
 31
0.0
1001
ACDBBLOCKREPETAG
1070
     1
1071
        3
1005
13046F
  0
LINE
  5
130470
  8
OBJECT
 10
3077.0
 20
-3515.9999999999968
 30
0.0
 11
2923.0
 21
-3515.9999999999968
 31
0.0
1001
ACDBBLOCKREPETAG
1070
     1
1071
        4
1005
130470
  0
LINE
  5
130471
  8
CENTER
 10
3000.0
 20
-3479.9999999999968
 30
0.0
 11
3000.0
 21
-3714.9999999999968
 31
0.0
1001
ACDBBLOCKREPETAG
1070
     1
1071
        5
1005
130471
  0
LINE
  5
130472
  8
OBJECT
 10
2925.0
 20
-3578.9999999999968
 30
0.0
 11
2925.0
 21
-3702.9999999999968
 31
0.0
1001
ACDBBLOCKREPETAG
1070
     1
1071
        6
1005
130472
  0
LINE
  5
130473
  8
OBJECT
 10
2928.0
 20
-3515.9999999999968
 30
0.0
 11
2928.0
 21
-3578.9999999999968
 31
0.0
1001
ACDBBLOCKREPETAG
1070
     1
1071
        7
1005
130473
  0
LINE
  5
130474
  8
OBJECT
 10
3072.0
 20
-3578.9999999999968
 30
0.0
 11
3072.0
 21
-3515.9999999999968
 31
0.0
1001
ACDBBLOCKREPETAG
1070
     1
1071
        8
1005
130474
  0
LINE
  5
130475
  8
OBJECT
 10
3074.9999999997999
 20
-3702.9999999997758
 30
0.0
 11
3080.0
 21
-3702.9999999999968
 31
0.0
1001
ACDBBLOCKREPETAG
1070
     1
1071
        9
1005
130475
  0
LINE
  5
130476
  8
OBJECT
 10
3080.0
 20
-3578.9999999999968
 30
0.0
 11
2925.0
 21
-3578.9999999999968
 31
0.0
1001
ACDBBLOCKREPETAG
1070
     1
1071
       10
1005
130476
  0
ARC
  5
130477
  8
OBJECT
 10
3200.6872746716722
 20
-3694.408099410105
 30
0.0
 40
170.6350503965856
 50
137.44134459184301
 51
149.9194958133665
1001
ACDBBLOCKREPETAG
1070
     1
1071
       15
1005
130477
  0
ARC
  5
130478
  8
OBJECT
 10
3118.8455987040511
 20
-3650.8827266953622
 30
0.0
 40
78.072222021763665
 50
147.4551531037684
 51
164.663659977186
1001
ACDBBLOCKREPETAG
1070
     1
1071
       16
1005
130478
  0
ARC
  5
130479
  8
OBJECT
 10
3085.7554349608731
 20
-3640.9999999999968
 30
0.0
 40
43.55353926885617
 50
165.6884523008477
 51
194.3115476991523
1001
ACDBBLOCKREPETAG
1070
     1
1071
       17
1005
130479
  0
ARC
  5
13047A
  8
OBJECT
 10
3200.6872746716722
 20
-3587.5919005898891
 30
0.0
 40
170.6350503965856
 50
210.0805041866335
 51
222.55865540815699
1001
ACDBBLOCKREPETAG
1070
     1
1071
       18
1005
13047A
  0
ARC
  5
13047B
  8
OBJECT
 10
3118.8455987040511
 20
-3631.1172733046319
 30
0.0
 40
78.072222021763665
 50
195.33634002281391
 51
212.5448468962316
1001
ACDBBLOCKREPETAG
1070
     1
1071
       19
1005
13047B
  0
POINT
  5
13047C
  8
DOTS
 10
3000.0
 20
-3699.9999999999968
 30
0.0
1001
ACDBBLOCKREPETAG
1070
     1
1071
      186
1005
13047C
  0
LINE
  5
13047D
  8
OBJECT
 10
2323.0
 20
-3515.9999999999968
 30
0.0
 11
2323.0
 21
-3494.9999999999968
 31
0.0
1001
ACDBBLOCKREPETAG
1070
     1
1071
       20
1005
13047D
  0
LINE
  5
13047E
  8
OBJECT
 10
2323.0
 20
-3494.9999999999968
 30
0.0
 11
2477.0
 21
-3494.9999999999968
 31
0.0
1001
ACDBBLOCKREPETAG
1070
     1
1071
       21
1005
13047E
  0
LINE
  5
13047F
  8
HIDDEN
 10
2343.0
 20
-3564.9999999999968
 30
0.0
 11
2457.0
 21
-3564.9999999999968
 31
0.0
1001
ACDBBLOCKREPETAG
1070
     1
1071
       22
1005
13047F
  0
LINE
  5
130480
  8
OBJECT
 10
2477.0
 20
-3494.9999999999968
 30
0.0
 11
2477.0
 21
-3515.9999999999968
 31
0.0
1001
ACDBBLOCKREPETAG
1070
     1
1071
       23
1005
130480
  0
LINE
  5
130481
  8
OBJECT
 10
2477.0
 20
-3515.9999999999968
 30
0.0
 11
2323.0
 21
-3515.9999999999968
 31
0.0
1001
ACDBBLOCKREPETAG
1070
     1
1071
       24
1005
130481
  0
LINE
  5
130482
  8
CENTER
 10
2400.0
 20
-3479.9999999999968
 30
0.0
 11
2400.0
 21
-3714.9999999999968
 31
0.0
1001
ACDBBLOCKREPETAG
1070
     1
1071
       25
1005
130482
  0
LINE
  5
130483
  8
OBJECT
 10
2325.0
 20
-3578.9999999999968
 30
0.0
 11
2325.0
 21
-3702.9999999999968
 31
0.0
1001
ACDBBLOCKREPETAG
1070
     1
1071
       26
1005
130483
  0
LINE
  5
130484
  8
OBJECT
 10
2328.0
 20
-3515.9999999999968
 30
0.0
 11
2328.0
 21
-3578.9999999999968
 31
0.0
1001
ACDBBLOCKREPETAG
1070
     1
1071
       27
1005
130484
  0
LINE
  5
130485
  8
OBJECT
 10
2472.0
 20
-3578.9999999999968
 30
0.0
 11
2472.0
 21
-3515.9999999999968
 31
0.0
1001
ACDBBLOCKREPETAG
1070
     1
1071
       28
1005
130485
  0
LINE
  5
130486
  8
OBJECT
 10
2475.0
 20
-3578.9999999999968
 30
0.0
 11
2325.0
 21
-3578.9999999999968
 31
0.0
1001
ACDBBLOCKREPETAG
1070
     1
1071
       30
1005
130486
  0
LINE
  5
130487
  8
OBJECT
 10
2475.0
 20
-3578.9999999999968
 30
0.0
 11
2475.0
 21
-3702.9999999999968
 31
0.0
1001
ACDBBLOCKREPETAG
1070
     1
1071
       34
1005
130487
  0
POINT
  5
130488
  8
DOTS
 10
2400.0
 20
-3699.9999999999968
 30
0.0
1001
ACDBBLOCKREPETAG
1070
     1
1071
      187
1005
130488
  0
LINE
  5
130489
  8
OBJECT
 10
1923.0
 20
-3515.9999999999968
 30
0.0
 11
1923.0
 21
-3494.9999999999968
 31
0.0
1001
ACDBBLOCKREPETAG
1070
     1
1071
        0
1005
130489
  0
LINE
  5
13048A
  8
OBJECT
 10
1923.0
 20
-3494.9999999999968
 30
0.0
 11
2077.0
 21
-3494.9999999999968
 31
0.0
1001
ACDBBLOCKREPETAG
1070
     1
1071
        1
1005
13048A
  0
LINE
  5
13048B
  8
HIDDEN
 10
1943.0
 20
-3564.9999999999968
 30
0.0
 11
2057.0
 21
-3564.9999999999968
 31
0.0
1001
ACDBBLOCKREPETAG
1070
     1
1071
        2
1005
13048B
  0
LINE
  5
13048C
  8
OBJECT
 10
2077.0
 20
-3494.9999999999968
 30
0.0
 11
2077.0
 21
-3515.9999999999968
 31
0.0
1001
ACDBBLOCKREPETAG
1070
     1
1071
        3
1005
13048C
  0
LINE
  5
13048D
  8
OBJECT
 10
2077.0
 20
-3515.9999999999968
 30
0.0
 11
1923.0
 21
-3515.9999999999968
 31
0.0
1001
ACDBBLOCKREPETAG
1070
     1
1071
        4
1005
13048D
  0
LINE
  5
13048E
  8
CENTER
 10
2000.0
 20
-3479.9999999999968
 30
0.0
 11
2000.0
 21
-3714.9999999999968
 31
0.0
1001
ACDBBLOCKREPETAG
1070
     1
1071
        5
1005
13048E
  0
LINE
  5
13048F
  8
OBJECT
 10
1925.0
 20
-3578.9999999999968
 30
0.0
 11
1925.0
 21
-3702.9999999999968
 31
0.0
1001
ACDBBLOCKREPETAG
1070
     1
1071
        6
1005
13048F
  0
LINE
  5
130490
  8
OBJECT
 10
1928.0
 20
-3515.9999999999968
 30
0.0
 11
1928.0
 21
-3578.9999999999968
 31
0.0
1001
ACDBBLOCKREPETAG
1070
     1
1071
        7
1005
130490
  0
LINE
  5
130491
  8
OBJECT
 10
2072.0
 20
-3578.9999999999968
 30
0.0
 11
2072.0
 21
-3515.9999999999968
 31
0.0
1001
ACDBBLOCKREPETAG
1070
     1
1071
        8
1005
130491
  0
LINE
  5
130492
  8
OBJECT
 10
2074.999999999799
 20
-3702.9999999997758
 30
0.0
 11
2080.0
 21
-3702.9999999999968
 31
0.0
1001
ACDBBLOCKREPETAG
1070
     1
1071
        9
1005
130492
  0
LINE
  5
130493
  8
OBJECT
 10
2080.0
 20
-3578.9999999999968
 30
0.0
 11
1925.0
 21
-3578.9999999999968
 31
0.0
1001
ACDBBLOCKREPETAG
1070
     1
1071
       10
1005
130493
  0
ARC
  5
130494
  8
OBJECT
 10
2200.6872746716731
 20
-3694.408099410105
 30
0.0
 40
170.6350503965856
 50
137.44134459184301
 51
149.91949581335999
1001
ACDBBLOCKREPETAG
1070
     1
1071
       15
1005
130494
  0
ARC
  5
130495
  8
OBJECT
 10
2118.8455987040511
 20
-3650.8827266953622
 30
0.0
 40
78.072222021763665
 50
147.45515310377539
 51
164.663659977186
1001
ACDBBLOCKREPETAG
1070
     1
1071
       16
1005
130495
  0
ARC
  5
130496
  8
OBJECT
 10
2085.7554349608731
 20
-3640.9999999999968
 30
0.0
 40
43.55353926885617
 50
165.6884523008477
 51
194.3115476991523
1001
ACDBBLOCKREPETAG
1070
     1
1071
       17
1005
130496
  0
ARC
  5
130497
  8
OBJECT
 10
2200.6872746716731
 20
-3587.5919005898891
 30
0.0
 40
170.6350503965856
 50
210.08050418664001
 51
222.55865540815699
1001
ACDBBLOCKREPETAG
1070
     1
1071
       18
1005
130497
  0
ARC
  5
130498
  8
OBJECT
 10
2118.8455987040511
 20
-3631.1172733046319
 30
0.0
 40
78.072222021763665
 50
195.33634002281391
 51
212.54484689622461
1001
ACDBBLOCKREPETAG
1070
     1
1071
       19
1005
130498
  0
POINT
  5
130499
  8
DOTS
 10
2000.0
 20
-3699.9999999999968
 30
0.0
1001
ACDBBLOCKREPETAG
1070
     1
1071
      186
1005
130499
  0
LINE
  5
13049A
  8
DIM
 10
2150.0
 20
-3341.9999999999959
 30
0.0
 11
2228.479620594459
 21
-3341.9999999999959
 31
0.0
  0
LINE
  5
13049B
  8
DIM
 10
2150.0
 20
-3247.9999999999959
 30
0.0
 11
2228.479620594459
 21
-3247.9999999999959
 31
0.0
  0
LINE
  5
13049C
  8
DIM
 10
2218.479620594459
 20
-3321.9999999999959
 30
0.0
 11
2218.479620594459
 21
-3267.9999999999959
 31
0.0
  0
INSERT
  5
13049D
  8
DIM
  2
_OPEN30
 10
2218.479620594459
 20
-3341.9999999999959
 30
0.0
 41
20.0
 42
20.0
 43
20.0
 50
270.0
  0
INSERT
  5
13049E
  8
DIM
  2
_OPEN30
 10
2218.479620594459
 20
-3247.9999999999959
 30
0.0
 41
20.0
 42
20.0
 43
20.0
 50
90.0
  0
INSERT
  5
13049F
  8
OBJECT
  2
*U11
 10
0.0
 20
0.0
 30
0.0
  0
LINE
  5
1304A0
  8
DIM
 10
2150.0
 20
-3699.9999999999968
 30
0.0
 11
2226.8409284037339
 21
-3699.9999999999968
 31
0.0
  0
LINE
  5
1304A1
  8
DIM
 10
2165.0
 20
-3655.9999999999968
 30
0.0
 11
2226.8409284037339
 21
-3655.9999999999968
 31
0.0
  0
LINE
  5
1304A2
  8
DIM
 10
2216.840928403733
 20
-3719.9999999999968
 30
0.0
 11
2216.840928403733
 21
-3739.9999999999968
 31
0.0
  0
LINE
  5
1304A3
  8
DIM
 10
2216.840928403733
 20
-3635.9999999999968
 30
0.0
 11
2216.840928403733
 21
-3615.9999999999968
 31
0.0
  0
LINE
  5
1304A4
  8
DIM
 10
2216.840928403733
 20
-3699.9999999999968
 30
0.0
 11
2216.840928403733
 21
-3655.9999999999968
 31
0.0
  0
INSERT
  5
1304A5
  8
DIM
  2
_OPEN30
 10
2216.840928403733
 20
-3699.9999999999968
 30
0.0
 41
20.0
 42
20.0
 43
20.0
 50
90.0
  0
INSERT
  5
1304A6
  8
DIM
  2
_OPEN30
 10
2216.840928403733
 20
-3655.9999999999968
 30
0.0
 41
20.0
 42
20.0
 43
20.0
 50
270.0
  0
INSERT
  5
1304A7
  8
OBJECT
  2
*U12
 10
0.0
 20
0.0
 30
0.0
  0
LINE
  5
1304A8
  8
DIM
 10
2000.0
 20
-3189.9999999999959
 30
0.0
 11
2000.0
 21
-3157.2081219844449
 31
0.0
  0
LINE
  5
1304A9
  8
DIM
 10
2140.0
 20
-3237.9999999999959
 30
0.0
 11
2140.0
 21
-3157.2081219844449
 31
0.0
  0
LINE
  5
1304AA
  8
DIM
 10
2020.0
 20
-3167.208121984444
 30
0.0
 11
2120.0
 21
-3167.208121984444
 31
0.0
  0
INSERT
  5
1304AB
  8
DIM
  2
_OPEN30
 10
2000.0
 20
-3167.208121984444
 30
0.0
 41
20.0
 42
20.0
 43
20.0
 50
180.0
  0
INSERT
  5
1304AC
  8
DIM
  2
_OPEN30
 10
2140.0
 20
-3167.208121984444
 30
0.0
 41
20.0
 42
20.0
 43
20.0
  0
INSERT
  5
1304AD
  8
OBJECT
  2
*U13
 10
0.0
 20
0.0
 30
0.0
  0
TEXT
  5
1304AE
  8
SLIM
 10
2631.0
 20
-3072.50001604727
 30
0.0
 40
40.0
  1
C寸法
 41
0.75
  0
TEXT
  5
1304AF
  8
SLIM
 10
2631.0
 20
-3002.50001604727
 30
0.0
 40
40.0
  1
B寸法
 41
0.75
  0
TEXT
  5
1304B0
  8
SLIM
 10
2630.2857142857142
 20
-2932.50001604727
 30
0.0
 40
40.0
  1
A寸法
 41
0.75
  0
TEXT
  5
1304B1
  8
SLIM
 10
3159.2857142857151
 20
-3072.50001604727
 30
0.0
 40
40.0
  1
150
 41
0.75
  0
TEXT
  5
1304B2
  8
SLIM
 10
3029.2857142857151
 20
-3072.50001604727
 30
0.0
 40
40.0
  1
140
 41
0.75
  0
TEXT
  5
1304B3
  8
SLIM
 10
2769.2857142857151
 20
-3072.50001604727
 30
0.0
 40
40.0
  1
140
 41
0.75
  0
TEXT
  5
1304B4
  8
SLIM
 10
2899.2857142857151
 20
-3072.50001604727
 30
0.0
 40
40.0
  1
140
 41
0.75
  0
TEXT
  5
1304B5
  8
SLIM
 10
3170.7142857142858
 20
-3002.50001604727
 30
0.0
 40
40.0
  1
72
 41
0.75
  0
TEXT
  5
1304B6
  8
SLIM
 10
3041.4285714285711
 20
-3002.50001604727
 30
0.0
 40
40.0
  1
59
 41
0.75
  0
TEXT
  5
1304B7
  8
SLIM
 10
2780.0
 20
-3002.50001604727
 30
0.0
 40
40.0
  1
44
 41
0.75
  0
TEXT
  5
1304B8
  8
SLIM
 10
2910.7142857142858
 20
-3002.50001604727
 30
0.0
 40
40.0
  1
52
 41
0.75
  0
TEXT
  5
1304B9
  8
SLIM
 10
2891.0
 20
-2807.50001604727
 30
0.0
 40
40.0
  1
横枝管サイズ
 41
0.75
  0
TEXT
  5
1304BA
  8
SLIM
 10
3136.2857142857151
 20
-2862.50001604727
 30
0.0
 40
30.0
  1
100（4）
 41
0.75
  0
TEXT
  5
1304BB
  8
SLIM
 10
3014.857142857144
 20
-2862.50001604727
 30
0.0
 40
30.0
  1
75（3）
 41
0.75
  0
TEXT
  5
1304BC
  8
SLIM
 10
2884.8571428571431
 20
-2862.50001604727
 30
0.0
 40
30.0
  1
65（2）
 41
0.75
  0
TEXT
  5
1304BD
  8
SLIM
 10
2757.0
 20
-2862.50001604727
 30
0.0
 40
30.0
  1
50（1）
 41
0.75
  0
TEXT
  5
1304BE
  8
SLIM
 10
3159.2857142857151
 20
-2932.50001604727
 30
0.0
 40
40.0
  1
150
 41
0.75
  0
TEXT
  5
1304BF
  8
SLIM
 10
3028.571428571428
 20
-2932.50001604727
 30
0.0
 40
40.0
  1
124
 41
0.75
  0
TEXT
  5
1304C0
  8
SLIM
 10
2780.0
 20
-2932.50001604727
 30
0.0
 40
40.0
  1
94
 41
0.75
  0
TEXT
  5
1304C1
  8
SLIM
 10
2902.1428571428569
 20
-2932.50001604727
 30
0.0
 40
40.0
  1
110
 41
0.75
  0
TEXT
  5
1304C2
  8
SLIM
 10
1849.9999999999991
 20
-2832.5
 30
0.0
 40
75.0
  1
枝管サイズ毎の形状
 41
0.75
  0
LINE
  5
1304C3
  8
OBJECT
 10
5150.0
 20
-3552.9999999999968
 30
0.0
 11
5143.0
 21
-3552.9999999999968
 31
0.0
1001
ACDBBLOCKREPETAG
1070
     1
1071
       64
1005
1304C3
  0
LINE
  5
1304C4
  8
OBJECT
 10
5143.0
 20
-3552.9999999999968
 30
0.0
 11
5143.0
 21
-3699.9999999999968
 31
0.0
1001
ACDBBLOCKREPETAG
1070
     1
1071
       65
1005
1304C4
  0
LINE
  5
1304C5
  8
OBJECT
 10
5101.5
 20
-3555.9999999999968
 30
0.0
 11
5101.5
 21
-3699.9999999999968
 31
0.0
1001
ACDBBLOCKREPETAG
1070
     1
1071
       66
1005
1304C5
  0
LINE
  5
1304C6
  8
OBJECT
 10
5090.0
 20
-3562.4999999999968
 30
0.0
 11
5090.0
 21
-3693.4999999999968
 31
0.0
1001
ACDBBLOCKREPETAG
1070
     1
1071
       67
1005
1304C6
  0
LINE
  5
1304C7
  8
OBJECT
 10
5086.0
 20
-3634.5000000000041
 30
0.0
 11
5086.0
 21
-3699.9999999999968
 31
0.0
1001
ACDBBLOCKREPETAG
1070
     1
1071
       68
1005
1304C7
  0
LINE
  5
1304C8
  8
OBJECT
 10
5150.0
 20
-3699.9999999999968
 30
0.0
 11
5150.0
 21
-3552.9999999999968
 31
0.0
1001
ACDBBLOCKREPETAG
1070
     1
1071
       69
1005
1304C8
  0
LINE
  5
1304C9
  8
CENTER
 10
5165.0
 20
-3627.9999999999968
 30
0.0
 11
5070.4144144144157
 21
-3627.9999999999968
 31
0.0
1001
ACDBBLOCKREPETAG
1070
     1
1071
       70
1005
1304C9
  0
LINE
  5
1304CA
  8
OBJECT
 10
5083.0000000000045
 20
-3702.9999999999968
 30
0.0
 11
5080.0
 21
-3702.9999999999968
 31
0.0
1001
ACDBBLOCKREPETAG
1070
     1
1071
       71
1005
1304CA
  0
ARC
  5
1304CB
  8
OBJECT
 10
5091.8815171830656
 20
-3701.4555591801432
 30
0.0
 40
6.0
 50
60.52411099686767
 51
170.6927439126847
1001
ACDBBLOCKREPETAG
1070
     1
1071
       72
1005
1304CB
  0
ARC
  5
1304CC
  8
OBJECT
 10
5083.0
 20
-3699.9999999999968
 30
0.0
 40
3.0
 50
270.0
 51
350.69274391268482
1001
ACDBBLOCKREPETAG
1070
     1
1071
       73
1005
1304CC
  0
LINE
  5
1304CD
  8
OBJECT
 10
5081.0
 20
-3578.9999999999968
 30
0.0
 11
5080.0
 21
-3578.9999999999968
 31
0.0
1001
ACDBBLOCKREPETAG
1070
     1
1071
       74
1005
1304CD
  0
LINE
  5
1304CE
  8
OBJECT
 10
5150.0
 20
-3699.9999999999968
 30
0.0
 11
5101.5
 21
-3699.9999999999968
 31
0.0
1001
ACDBBLOCKREPETAG
1070
     1
1071
       75
1005
1304CE
  0
LINE
  5
1304CF
  8
OBJECT
 10
5101.5
 20
-3555.9999999999968
 30
0.0
 11
5090.0
 21
-3562.4999999999968
 31
0.0
1001
ACDBBLOCKREPETAG
1070
     1
1071
       76
1005
1304CF
  0
LINE
  5
1304D0
  8
OBJECT
 10
5143.0
 20
-3555.9999999999968
 30
0.0
 11
5101.5
 21
-3555.9999999999968
 31
0.0
1001
ACDBBLOCKREPETAG
1070
     1
1071
       77
1005
1304D0
  0
LINE
  5
1304D1
  8
OBJECT
 10
5086.0
 20
-3634.5000000000041
 30
0.0
 11
5081.0
 21
-3578.9999999999968
 31
0.0
1001
ACDBBLOCKREPETAG
1070
     1
1071
       78
1005
1304D1
  0
LINE
  5
1304D2
  8
OBJECT
 10
5090.0
 20
-3562.4999999999968
 30
0.0
 11
5081.0
 21
-3578.9999999999968
 31
0.0
1001
ACDBBLOCKREPETAG
1070
     1
1071
       79
1005
1304D2
  0
LINE
  5
1304D3
  8
OBJECT
 10
5101.5
 20
-3699.9999999999968
 30
0.0
 11
5094.8338607230708
 21
-3696.232182147819
 31
0.0
1001
ACDBBLOCKREPETAG
1070
     1
1071
       80
1005
1304D3
  0
LINE
  5
1304D4
  8
HIDDEN
 10
5098.0
 20
-3684.9999999999968
 30
0.0
 11
5098.0
 21
-3570.9999999999968
 31
0.0
1001
ACDBBLOCKREPETAG
1070
     1
1071
       81
1005
1304D4
  0
LINE
  5
1304D5
  8
OBJECT
 10
5150.0
 20
-3219.9999999999959
 30
0.0
 11
5143.0
 21
-3219.9999999999959
 31
0.0
1001
ACDBBLOCKREPETAG
1070
     1
1071
       67
1005
1304D5
  0
LINE
  5
1304D6
  8
OBJECT
 10
5143.0
 20
-3219.9999999999959
 30
0.0
 11
5143.0
 21
-3369.9999999999959
 31
0.0
1001
ACDBBLOCKREPETAG
1070
     1
1071
       68
1005
1304D6
  0
LINE
  5
1304D7
  8
OBJECT
 10
5101.5
 20
-3222.9999999999959
 30
0.0
 11
5101.5
 21
-3366.9999999999959
 31
0.0
1001
ACDBBLOCKREPETAG
1070
     1
1071
       69
1005
1304D7
  0
LINE
  5
1304D8
  8
OBJECT
 10
5090.0
 20
-3229.4999999999959
 30
0.0
 11
5090.0
 21
-3360.4999999999959
 31
0.0
1001
ACDBBLOCKREPETAG
1070
     1
1071
       70
1005
1304D8
  0
LINE
  5
1304D9
  8
OBJECT
 10
5143.0
 20
-3369.9999999999959
 30
0.0
 11
5150.0
 21
-3369.9999999999959
 31
0.0
1001
ACDBBLOCKREPETAG
1070
     1
1071
       71
1005
1304D9
  0
LINE
  5
1304DA
  8
OBJECT
 10
5150.0
 20
-3369.9999999999959
 30
0.0
 11
5150.0
 21
-3219.9999999999959
 31
0.0
1001
ACDBBLOCKREPETAG
1070
     1
1071
       72
1005
1304DA
  0
LINE
  5
1304DB
  8
HIDDEN
 10
5098.0
 20
-3351.9999999999959
 30
0.0
 11
5098.0
 21
-3237.9999999999959
 31
0.0
1001
ACDBBLOCKREPETAG
1070
     1
1071
       73
1005
1304DB
  0
LINE
  5
1304DC
  8
CENTER
 10
5165.0
 20
-3294.9999999999959
 30
0.0
 11
5080.0
 21
-3294.9999999999959
 31
0.0
1001
ACDBBLOCKREPETAG
1070
     1
1071
       74
1005
1304DC
  0
LINE
  5
1304DD
  8
OBJECT
 10
5086.0
 20
-3356.9999999999959
 30
0.0
 11
5080.0
 21
-3356.9999999999959
 31
0.0
1001
ACDBBLOCKREPETAG
1070
     1
1071
       75
1005
1304DD
  0
LINE
  5
1304DE
  8
OBJECT
 10
5143.0
 20
-3366.9999999999959
 30
0.0
 11
5101.5
 21
-3366.9999999999959
 31
0.0
1001
ACDBBLOCKREPETAG
1070
     1
1071
       76
1005
1304DE
  0
LINE
  5
1304DF
  8
OBJECT
 10
5101.5
 20
-3366.9999999999959
 30
0.0
 11
5090.0
 21
-3360.4999999999959
 31
0.0
1001
ACDBBLOCKREPETAG
1070
     1
1071
       77
1005
1304DF
  0
LINE
  5
1304E0
  8
OBJECT
 10
5090.0
 20
-3360.4999999999959
 30
0.0
 11
5086.0
 21
-3356.9999999999959
 31
0.0
1001
ACDBBLOCKREPETAG
1070
     1
1071
       78
1005
1304E0
  0
LINE
  5
1304E1
  8
OBJECT
 10
5101.5
 20
-3222.9999999999959
 30
0.0
 11
5090.0
 21
-3229.4999999999959
 31
0.0
1001
ACDBBLOCKREPETAG
1070
     1
1071
       79
1005
1304E1
  0
LINE
  5
1304E2
  8
OBJECT
 10
5090.0
 20
-3229.4999999999959
 30
0.0
 11
5086.0
 21
-3232.9999999999959
 31
0.0
1001
ACDBBLOCKREPETAG
1070
     1
1071
       80
1005
1304E2
  0
ARC
  5
1304E3
  8
OBJECT
 10
5467.9000000000005
 20
-3294.9999999999959
 30
0.0
 40
386.89999999999998
 50
170.77870136260421
 51
189.22129863739571
1001
ACDBBLOCKREPETAG
1070
     1
1071
       81
1005
1304E3
  0
LINE
  5
1304E4
  8
OBJECT
 10
5086.0
 20
-3232.9999999999959
 30
0.0
 11
5080.0
 21
-3232.9999999999959
 31
0.0
1001
ACDBBLOCKREPETAG
1070
     1
1071
       82
1005
1304E4
  0
LINE
  5
1304E5
  8
OBJECT
 10
5143.0
 20
-3222.9999999999959
 30
0.0
 11
5101.5
 21
-3222.9999999999959
 31
0.0
1001
ACDBBLOCKREPETAG
1070
     1
1071
       83
1005
1304E5
  0
TEXT
  5
1304E6
  8
SLIM
 10
4884.25
 20
-3817.4999999999959
 30
0.0
 40
35.0
  1
通常枝100（4）
 41
0.75
  0
LINE
  5
1304E7
  8
CENTER
 10
4477.0
 20
-3640.9999999999968
 30
0.0
 11
4323.0
 21
-3640.9999999999968
 31
0.0
1001
ACDBBLOCKREPETAG
1070
     1
1071
       17
1005
1304E7
  0
CIRCLE
  5
1304E8
  8
OBJECT
 10
4400.0
 20
-3640.9999999999968
 30
0.0
 40
41.5
1001
ACDBBLOCKREPETAG
1070
     1
1071
       19
1005
1304E8
  0
CIRCLE
  5
1304E9
  8
OBJECT
 10
4400.0
 20
-3640.9999999999968
 30
0.0
 40
54.0
1001
ACDBBLOCKREPETAG
1070
     1
1071
       20
1005
1304E9
  0
ARC
  5
1304EA
  8
OBJECT
 10
4400.0
 20
-3640.9999999999968
 30
0.0
 40
62.0
 50
287.89655112921122
 51
252.1034488707887
1001
ACDBBLOCKREPETAG
1070
     1
1071
       21
1005
1304EA
  0
LINE
  5
1304EB
  8
OBJECT
 10
4380.947441116743
 20
-3699.9999999999968
 30
0.0
 11
4419.052558883257
 21
-3699.9999999999968
 31
0.0
1001
ACDBBLOCKREPETAG
1070
     1
1071
       22
1005
1304EB
  0
LINE
  5
1304EC
  8
OBJECT
 10
4133.0
 20
-3578.9999999999968
 30
0.0
 11
4140.0
 21
-3578.9999999999968
 31
0.0
1001
ACDBBLOCKREPETAG
1070
     1
1071
       45
1005
1304EC
  0
LINE
  5
1304ED
  8
OBJECT
 10
4140.0
 20
-3578.9999999999968
 30
0.0
 11
4140.0
 21
-3699.9999999999968
 31
0.0
1001
ACDBBLOCKREPETAG
1070
     1
1071
       46
1005
1304ED
  0
LINE
  5
1304EE
  8
OBJECT
 10
4133.0
 20
-3699.9999999999968
 30
0.0
 11
4133.0
 21
-3578.9999999999968
 31
0.0
1001
ACDBBLOCKREPETAG
1070
     1
1071
       47
1005
1304EE
  0
LINE
  5
1304EF
  8
CENTER
 10
4155.0
 20
-3640.9999999999968
 30
0.0
 11
4071.0
 21
-3640.9999999999968
 31
0.0
1001
ACDBBLOCKREPETAG
1070
     1
1071
       48
1005
1304EF
  0
LINE
  5
1304F0
  8
OBJECT
 10
4133.0
 20
-3581.9999999999968
 30
0.0
 11
4097.0
 21
-3581.9999999999968
 31
0.0
1001
ACDBBLOCKREPETAG
1070
     1
1071
       49
1005
1304F0
  0
LINE
  5
1304F1
  8
OBJECT
 10
4097.0
 20
-3581.9999999999968
 30
0.0
 11
4097.0
 21
-3699.9999999999968
 31
0.0
1001
ACDBBLOCKREPETAG
1070
     1
1071
       50
1005
1304F1
  0
LINE
  5
1304F2
  8
OBJECT
 10
4097.0
 20
-3699.9999999999968
 30
0.0
 11
4140.0
 21
-3699.9999999999968
 31
0.0
1001
ACDBBLOCKREPETAG
1070
     1
1071
       51
1005
1304F2
  0
LINE
  5
1304F3
  8
OBJECT
 10
4093.0
 20
-3586.4999999999968
 30
0.0
 11
4086.0
 21
-3586.4999999999968
 31
0.0
1001
ACDBBLOCKREPETAG
1070
     1
1071
       52
1005
1304F3
  0
LINE
  5
1304F4
  8
OBJECT
 10
4086.0
 20
-3695.4999999999968
 30
0.0
 11
4093.0
 21
-3695.4999999999968
 31
0.0
1001
ACDBBLOCKREPETAG
1070
     1
1071
       53
1005
1304F4
  0
LINE
  5
1304F5
  8
OBJECT
 10
4093.0
 20
-3695.4999999999968
 30
0.0
 11
4093.0
 21
-3586.4999999999968
 31
0.0
1001
ACDBBLOCKREPETAG
1070
     1
1071
       54
1005
1304F5
  0
LINE
  5
1304F6
  8
OBJECT
 10
4097.0
 20
-3581.9999999999968
 30
0.0
 11
4093.0
 21
-3586.4999999999968
 31
0.0
1001
ACDBBLOCKREPETAG
1070
     1
1071
       55
1005
1304F6
  0
LINE
  5
1304F7
  8
OBJECT
 10
4097.0
 20
-3699.9999999999968
 30
0.0
 11
4093.0
 21
-3695.4999999999968
 31
0.0
1001
ACDBBLOCKREPETAG
1070
     1
1071
       56
1005
1304F7
  0
LINE
  5
1304F8
  8
OBJECT
 10
4083.0
 20
-3578.9999999999968
 30
0.0
 11
4080.0
 21
-3578.9999999999968
 31
0.0
1001
ACDBBLOCKREPETAG
1070
     1
1071
       57
1005
1304F8
  0
ARC
  5
1304F9
  8
OBJECT
 10
4083.0
 20
-3581.9999999999968
 30
0.0
 40
3.0
 50
0.0
 51
90.0
1001
ACDBBLOCKREPETAG
1070
     1
1071
       58
1005
1304F9
  0
LINE
  5
1304FA
  8
OBJECT
 10
4080.0
 20
-3702.9999999999968
 30
0.0
 11
4083.0
 21
-3702.9999999999968
 31
0.0
1001
ACDBBLOCKREPETAG
1070
     1
1071
       59
1005
1304FA
  0
ARC
  5
1304FB
  8
OBJECT
 10
4083.0
 20
-3699.9999999999968
 30
0.0
 40
3.0
 50
270.0
 51
0.0
1001
ACDBBLOCKREPETAG
1070
     1
1071
       60
1005
1304FB
  0
LINE
  5
1304FC
  8
OBJECT
 10
4086.0
 20
-3699.9999999999968
 30
0.0
 11
4086.0
 21
-3581.9999999999968
 31
0.0
1001
ACDBBLOCKREPETAG
1070
     1
1071
       61
1005
1304FC
  0
LINE
  5
1304FD
  8
HIDDEN
 10
4088.0
 20
-3596.4999999999968
 30
0.0
 11
4088.0
 21
-3685.4999999999968
 31
0.0
1001
ACDBBLOCKREPETAG
1070
     1
1071
       63
1005
1304FD
  0
LINE
  5
1304FE
  8
OBJECT
 10
4133.0
 20
-3232.9999999999959
 30
0.0
 11
4140.0
 21
-3232.9999999999959
 31
0.0
1001
ACDBBLOCKREPETAG
1070
     1
1071
       47
1005
1304FE
  0
LINE
  5
1304FF
  8
OBJECT
 10
4140.0
 20
-3232.9999999999959
 30
0.0
 11
4140.0
 21
-3356.9999999999959
 31
0.0
1001
ACDBBLOCKREPETAG
1070
     1
1071
       48
1005
1304FF
  0
LINE
  5
130500
  8
OBJECT
 10
4140.0
 20
-3356.9999999999959
 30
0.0
 11
4133.0
 21
-3356.9999999999959
 31
0.0
1001
ACDBBLOCKREPETAG
1070
     1
1071
       49
1005
130500
  0
LINE
  5
130501
  8
OBJECT
 10
4133.0
 20
-3356.9999999999959
 30
0.0
 11
4133.0
 21
-3232.9999999999959
 31
0.0
1001
ACDBBLOCKREPETAG
1070
     1
1071
       50
1005
130501
  0
LINE
  5
130502
  8
CENTER
 10
4155.0
 20
-3294.9999999999959
 30
0.0
 11
4080.0
 21
-3294.9999999999959
 31
0.0
1001
ACDBBLOCKREPETAG
1070
     1
1071
       51
1005
130502
  0
LINE
  5
130503
  8
OBJECT
 10
4133.0
 20
-3235.9999999999959
 30
0.0
 11
4097.0
 21
-3235.9999999999959
 31
0.0
1001
ACDBBLOCKREPETAG
1070
     1
1071
       52
1005
130503
  0
LINE
  5
130504
  8
OBJECT
 10
4097.0
 20
-3235.9999999999959
 30
0.0
 11
4097.0
 21
-3353.9999999999959
 31
0.0
1001
ACDBBLOCKREPETAG
1070
     1
1071
       53
1005
130504
  0
LINE
  5
130505
  8
OBJECT
 10
4097.0
 20
-3353.9999999999959
 30
0.0
 11
4133.0
 21
-3353.9999999999959
 31
0.0
1001
ACDBBLOCKREPETAG
1070
     1
1071
       54
1005
130505
  0
LINE
  5
130506
  8
OBJECT
 10
4093.0
 20
-3240.4999999999959
 30
0.0
 11
4086.0
 21
-3240.4999999999959
 31
0.0
1001
ACDBBLOCKREPETAG
1070
     1
1071
       55
1005
130506
  0
LINE
  5
130507
  8
OBJECT
 10
4086.0
 20
-3349.4999999999959
 30
0.0
 11
4093.0
 21
-3349.4999999999959
 31
0.0
1001
ACDBBLOCKREPETAG
1070
     1
1071
       56
1005
130507
  0
LINE
  5
130508
  8
OBJECT
 10
4093.0
 20
-3349.4999999999959
 30
0.0
 11
4093.0
 21
-3240.4999999999959
 31
0.0
1001
ACDBBLOCKREPETAG
1070
     1
1071
       57
1005
130508
  0
LINE
  5
130509
  8
OBJECT
 10
4097.0
 20
-3235.9999999999959
 30
0.0
 11
4093.0
 21
-3240.4999999999959
 31
0.0
1001
ACDBBLOCKREPETAG
1070
     1
1071
       58
1005
130509
  0
LINE
  5
13050A
  8
OBJECT
 10
4097.0
 20
-3353.9999999999959
 30
0.0
 11
4093.0
 21
-3349.4999999999959
 31
0.0
1001
ACDBBLOCKREPETAG
1070
     1
1071
       59
1005
13050A
  0
LINE
  5
13050B
  8
OBJECT
 10
4083.0
 20
-3232.9999999999959
 30
0.0
 11
4080.0
 21
-3232.9999999999959
 31
0.0
1001
ACDBBLOCKREPETAG
1070
     1
1071
       60
1005
13050B
  0
ARC
  5
13050C
  8
OBJECT
 10
4083.0
 20
-3235.9999999999959
 30
0.0
 40
3.0
 50
0.0
 51
90.0
1001
ACDBBLOCKREPETAG
1070
     1
1071
       61
1005
13050C
  0
LINE
  5
13050D
  8
OBJECT
 10
4080.0
 20
-3356.9999999999959
 30
0.0
 11
4083.0
 21
-3356.9999999999959
 31
0.0
1001
ACDBBLOCKREPETAG
1070
     1
1071
       62
1005
13050D
  0
ARC
  5
13050E
  8
OBJECT
 10
4083.0
 20
-3353.9999999999959
 30
0.0
 40
3.0
 50
270.0
 51
0.0
1001
ACDBBLOCKREPETAG
1070
     1
1071
       63
1005
13050E
  0
LINE
  5
13050F
  8
OBJECT
 10
4086.0
 20
-3353.9999999999959
 30
0.0
 11
4086.0
 21
-3235.9999999999959
 31
0.0
1001
ACDBBLOCKREPETAG
1070
     1
1071
       64
1005
13050F
  0
LINE
  5
130510
  8
HIDDEN
 10
4088.0
 20
-3250.4999999999959
 30
0.0
 11
4088.0
 21
-3339.4999999999959
 31
0.0
1001
ACDBBLOCKREPETAG
1070
     1
1071
       65
1005
130510
  0
TEXT
  5
130511
  8
SLIM
 10
3894.25
 20
-3817.4999999999959
 30
0.0
 40
35.0
  1
通常枝75（3）
 41
0.75
  0
CIRCLE
  5
130512
  8
OBJECT
 10
3400.0
 20
-3647.9999999999968
 30
0.0
 40
35.5
1001
ACDBBLOCKREPETAG
1070
     1
1071
       10
1005
130512
  0
CIRCLE
  5
130513
  8
OBJECT
 10
3400.0
 20
-3640.9999999999968
 30
0.0
 40
62.0
1001
ACDBBLOCKREPETAG
1070
     1
1071
       11
1005
130513
  0
LINE
  5
130514
  8
CENTER
 10
3330.0
 20
-3647.9999999999968
 30
0.0
 11
3470.0
 21
-3647.9999999999968
 31
0.0
1001
ACDBBLOCKREPETAG
1070
     1
1071
       12
1005
130514
  0
CIRCLE
  5
130515
  8
OBJECT
 10
3400.0
 20
-3647.9999999999968
 30
0.0
 40
47.0
1001
ACDBBLOCKREPETAG
1070
     1
1071
       14
1005
130515
  0
ARC
  5
130516
  8
OBJECT
 10
3400.0
 20
-3647.9999999999968
 30
0.0
 40
55.0
 50
289.01126526011359
 51
250.98873473988641
1001
ACDBBLOCKREPETAG
1070
     1
1071
       15
1005
130516
  0
LINE
  5
130517
  8
OBJECT
 10
3382.0835271328328
 20
-3699.9999999999968
 30
0.0
 11
3417.9164728671681
 21
-3699.9999999999968
 31
0.0
1001
ACDBBLOCKREPETAG
1070
     1
1071
       16
1005
130517
  0
LINE
  5
130518
  8
OBJECT
 10
3133.0
 20
-3592.9999999999968
 30
0.0
 11
3140.0
 21
-3592.9999999999968
 31
0.0
1001
ACDBBLOCKREPETAG
1070
     1
1071
       26
1005
130518
  0
LINE
  5
130519
  8
OBJECT
 10
3140.0
 20
-3592.9999999999968
 30
0.0
 11
3140.0
 21
-3699.9999999999968
 31
0.0
1001
ACDBBLOCKREPETAG
1070
     1
1071
       27
1005
130519
  0
LINE
  5
13051A
  8
OBJECT
 10
3133.0
 20
-3699.9999999999968
 30
0.0
 11
3133.0
 21
-3592.9999999999968
 31
0.0
1001
ACDBBLOCKREPETAG
1070
     1
1071
       28
1005
13051A
  0
LINE
  5
13051B
  8
CENTER
 10
3155.0
 20
-3647.9999999999968
 30
0.0
 11
3071.0
 21
-3647.9999999999968
 31
0.0
1001
ACDBBLOCKREPETAG
1070
     1
1071
       29
1005
13051B
  0
LINE
  5
13051C
  8
OBJECT
 10
3133.0
 20
-3595.9999999999968
 30
0.0
 11
3097.0
 21
-3595.9999999999968
 31
0.0
1001
ACDBBLOCKREPETAG
1070
     1
1071
       30
1005
13051C
  0
LINE
  5
13051D
  8
OBJECT
 10
3097.0
 20
-3595.9999999999968
 30
0.0
 11
3097.0
 21
-3699.9999999999968
 31
0.0
1001
ACDBBLOCKREPETAG
1070
     1
1071
       31
1005
13051D
  0
LINE
  5
13051E
  8
OBJECT
 10
3097.0
 20
-3699.9999999999968
 30
0.0
 11
3140.0
 21
-3699.9999999999968
 31
0.0
1001
ACDBBLOCKREPETAG
1070
     1
1071
       32
1005
13051E
  0
LINE
  5
13051F
  8
OBJECT
 10
3093.0
 20
-3600.4999999999968
 30
0.0
 11
3086.0
 21
-3600.4999999999968
 31
0.0
1001
ACDBBLOCKREPETAG
1070
     1
1071
       33
1005
13051F
  0
LINE
  5
130520
  8
OBJECT
 10
3086.0
 20
-3695.4999999999968
 30
0.0
 11
3093.0
 21
-3695.4999999999968
 31
0.0
1001
ACDBBLOCKREPETAG
1070
     1
1071
       34
1005
130520
  0
LINE
  5
130521
  8
OBJECT
 10
3093.0
 20
-3695.4999999999968
 30
0.0
 11
3093.0
 21
-3600.4999999999968
 31
0.0
1001
ACDBBLOCKREPETAG
1070
     1
1071
       35
1005
130521
  0
LINE
  5
130522
  8
OBJECT
 10
3097.0
 20
-3595.9999999999968
 30
0.0
 11
3093.0
 21
-3600.4999999999968
 31
0.0
1001
ACDBBLOCKREPETAG
1070
     1
1071
       36
1005
130522
  0
LINE
  5
130523
  8
OBJECT
 10
3097.0
 20
-3699.9999999999968
 30
0.0
 11
3093.0
 21
-3695.4999999999968
 31
0.0
1001
ACDBBLOCKREPETAG
1070
     1
1071
       37
1005
130523
  0
LINE
  5
130524
  8
OBJECT
 10
3083.0
 20
-3578.9999999999968
 30
0.0
 11
3080.0
 21
-3578.9999999999968
 31
0.0
1001
ACDBBLOCKREPETAG
1070
     1
1071
       38
1005
130524
  0
ARC
  5
130525
  8
OBJECT
 10
3083.0
 20
-3581.9999999999968
 30
0.0
 40
3.0
 50
0.0
 51
90.0
1001
ACDBBLOCKREPETAG
1070
     1
1071
       39
1005
130525
  0
LINE
  5
130526
  8
OBJECT
 10
3080.0
 20
-3702.9999999999968
 30
0.0
 11
3083.0
 21
-3702.9999999999968
 31
0.0
1001
ACDBBLOCKREPETAG
1070
     1
1071
       40
1005
130526
  0
ARC
  5
130527
  8
OBJECT
 10
3083.0
 20
-3699.9999999999968
 30
0.0
 40
3.0
 50
270.0
 51
0.0
1001
ACDBBLOCKREPETAG
1070
     1
1071
       41
1005
130527
  0
LINE
  5
130528
  8
OBJECT
 10
3086.0
 20
-3699.9999999999968
 30
0.0
 11
3086.0
 21
-3581.9999999999968
 31
0.0
1001
ACDBBLOCKREPETAG
1070
     1
1071
       42
1005
130528
  0
LINE
  5
130529
  8
HIDDEN
 10
3088.0
 20
-3609.9999999999968
 30
0.0
 11
3088.0
 21
-3685.9999999999968
 31
0.0
1001
ACDBBLOCKREPETAG
1070
     1
1071
       43
1005
130529
  0
LINE
  5
13052A
  8
OBJECT
 10
3133.0
 20
-3239.9999999999968
 30
0.0
 11
3140.0
 21
-3239.9999999999968
 31
0.0
1001
ACDBBLOCKREPETAG
1070
     1
1071
       27
1005
13052A
  0
LINE
  5
13052B
  8
OBJECT
 10
3140.0
 20
-3239.9999999999968
 30
0.0
 11
3140.0
 21
-3349.9999999999959
 31
0.0
1001
ACDBBLOCKREPETAG
1070
     1
1071
       28
1005
13052B
  0
LINE
  5
13052C
  8
OBJECT
 10
3140.0
 20
-3349.9999999999959
 30
0.0
 11
3133.0
 21
-3349.9999999999959
 31
0.0
1001
ACDBBLOCKREPETAG
1070
     1
1071
       29
1005
13052C
  0
LINE
  5
13052D
  8
OBJECT
 10
3133.0
 20
-3349.9999999999959
 30
0.0
 11
3133.0
 21
-3239.9999999999968
 31
0.0
1001
ACDBBLOCKREPETAG
1070
     1
1071
       30
1005
13052D
  0
LINE
  5
13052E
  8
CENTER
 10
3155.0
 20
-3294.9999999999959
 30
0.0
 11
3080.0
 21
-3294.9999999999959
 31
0.0
1001
ACDBBLOCKREPETAG
1070
     1
1071
       31
1005
13052E
  0
LINE
  5
13052F
  8
OBJECT
 10
3133.0
 20
-3242.9999999999959
 30
0.0
 11
3097.0
 21
-3242.9999999999959
 31
0.0
1001
ACDBBLOCKREPETAG
1070
     1
1071
       32
1005
13052F
  0
LINE
  5
130530
  8
OBJECT
 10
3097.0
 20
-3242.9999999999959
 30
0.0
 11
3097.0
 21
-3346.9999999999959
 31
0.0
1001
ACDBBLOCKREPETAG
1070
     1
1071
       33
1005
130530
  0
LINE
  5
130531
  8
OBJECT
 10
3097.0
 20
-3346.9999999999959
 30
0.0
 11
3133.0
 21
-3346.9999999999959
 31
0.0
1001
ACDBBLOCKREPETAG
1070
     1
1071
       34
1005
130531
  0
LINE
  5
130532
  8
OBJECT
 10
3093.0
 20
-3247.4999999999959
 30
0.0
 11
3086.0
 21
-3247.4999999999959
 31
0.0
1001
ACDBBLOCKREPETAG
1070
     1
1071
       35
1005
130532
  0
LINE
  5
130533
  8
OBJECT
 10
3086.0
 20
-3342.4999999999959
 30
0.0
 11
3093.0
 21
-3342.4999999999959
 31
0.0
1001
ACDBBLOCKREPETAG
1070
     1
1071
       36
1005
130533
  0
LINE
  5
130534
  8
OBJECT
 10
3093.0
 20
-3342.4999999999959
 30
0.0
 11
3093.0
 21
-3247.4999999999959
 31
0.0
1001
ACDBBLOCKREPETAG
1070
     1
1071
       37
1005
130534
  0
LINE
  5
130535
  8
OBJECT
 10
3097.0
 20
-3242.9999999999959
 30
0.0
 11
3093.0
 21
-3247.4999999999959
 31
0.0
1001
ACDBBLOCKREPETAG
1070
     1
1071
       38
1005
130535
  0
LINE
  5
130536
  8
OBJECT
 10
3097.0
 20
-3346.9999999999959
 30
0.0
 11
3093.0
 21
-3342.4999999999959
 31
0.0
1001
ACDBBLOCKREPETAG
1070
     1
1071
       39
1005
130536
  0
LINE
  5
130537
  8
OBJECT
 10
3083.0
 20
-3232.9999999999959
 30
0.0
 11
3080.0
 21
-3232.9999999999959
 31
0.0
1001
ACDBBLOCKREPETAG
1070
     1
1071
       40
1005
130537
  0
ARC
  5
130538
  8
OBJECT
 10
3083.0
 20
-3235.9999999999959
 30
0.0
 40
3.0
 50
0.0
 51
90.0
1001
ACDBBLOCKREPETAG
1070
     1
1071
       41
1005
130538
  0
LINE
  5
130539
  8
OBJECT
 10
3080.0
 20
-3356.9999999999959
 30
0.0
 11
3083.0
 21
-3356.9999999999959
 31
0.0
1001
ACDBBLOCKREPETAG
1070
     1
1071
       42
1005
130539
  0
ARC
  5
13053A
  8
OBJECT
 10
3083.0
 20
-3353.9999999999959
 30
0.0
 40
3.0
 50
270.0
 51
0.0
1001
ACDBBLOCKREPETAG
1070
     1
1071
       43
1005
13053A
  0
LINE
  5
13053B
  8
OBJECT
 10
3086.0
 20
-3353.9999999999959
 30
0.0
 11
3086.0
 21
-3235.9999999999959
 31
0.0
1001
ACDBBLOCKREPETAG
1070
     1
1071
       44
1005
13053B
  0
LINE
  5
13053C
  8
HIDDEN
 10
3088.0
 20
-3256.9999999999959
 30
0.0
 11
3088.0
 21
-3332.9999999999968
 31
0.0
1001
ACDBBLOCKREPETAG
1070
     1
1071
       45
1005
13053C
  0
TEXT
  5
13053D
  8
SLIM
 10
2894.25
 20
-3817.4999999999959
 30
0.0
 40
35.0
  1
通常枝65（2）
 41
0.75
  0
CIRCLE
  5
13053E
  8
OBJECT
 10
2400.0
 20
-3640.9999999999968
 30
0.0
 40
62.0
1001
ACDBBLOCKREPETAG
1070
     1
1071
        3
1005
13053E
  0
LINE
  5
13053F
  8
CENTER
 10
2338.0
 20
-3655.9999999999968
 30
0.0
 11
2462.0
 21
-3655.9999999999968
 31
0.0
1001
ACDBBLOCKREPETAG
1070
     1
1071
        4
1005
13053F
  0
CIRCLE
  5
130540
  8
OBJECT
 10
2400.0
 20
-3655.9999999999968
 30
0.0
 40
28.0
1001
ACDBBLOCKREPETAG
1070
     1
1071
        6
1005
130540
  0
CIRCLE
  5
130541
  8
OBJECT
 10
2400.0
 20
-3655.9999999999968
 30
0.0
 40
39.0
1001
ACDBBLOCKREPETAG
1070
     1
1071
        7
1005
130541
  0
ARC
  5
130542
  8
OBJECT
 10
2400.0
 20
-3655.9999999999968
 30
0.0
 40
47.0
 50
290.58196921144412
 51
249.41803078855591
1001
ACDBBLOCKREPETAG
1070
     1
1071
        8
1005
130542
  0
LINE
  5
130543
  8
OBJECT
 10
2383.4772883581431
 20
-3699.9999999999968
 30
0.0
 11
2416.5227116418569
 21
-3699.9999999999968
 31
0.0
1001
ACDBBLOCKREPETAG
1070
     1
1071
        9
1005
130543
  0
LINE
  5
130544
  8
OBJECT
 10
2133.0
 20
-3608.9999999999968
 30
0.0
 11
2140.0
 21
-3608.9999999999968
 31
0.0
1001
ACDBBLOCKREPETAG
1070
     1
1071
        7
1005
130544
  0
LINE
  5
130545
  8
OBJECT
 10
2140.0
 20
-3608.9999999999968
 30
0.0
 11
2140.0
 21
-3699.9999999999968
 31
0.0
1001
ACDBBLOCKREPETAG
1070
     1
1071
        8
1005
130545
  0
LINE
  5
130546
  8
OBJECT
 10
2133.0
 20
-3699.9999999999968
 30
0.0
 11
2133.0
 21
-3608.9999999999968
 31
0.0
1001
ACDBBLOCKREPETAG
1070
     1
1071
        9
1005
130546
  0
LINE
  5
130547
  8
CENTER
 10
2155.0
 20
-3655.9999999999968
 30
0.0
 11
2071.0
 21
-3655.9999999999968
 31
0.0
1001
ACDBBLOCKREPETAG
1070
     1
1071
       10
1005
130547
  0
LINE
  5
130548
  8
OBJECT
 10
2133.0
 20
-3611.9999999999968
 30
0.0
 11
2097.0
 21
-3611.9999999999968
 31
0.0
1001
ACDBBLOCKREPETAG
1070
     1
1071
       11
1005
130548
  0
LINE
  5
130549
  8
OBJECT
 10
2097.0
 20
-3611.9999999999968
 30
0.0
 11
2097.0
 21
-3699.9999999999968
 31
0.0
1001
ACDBBLOCKREPETAG
1070
     1
1071
       12
1005
130549
  0
LINE
  5
13054A
  8
OBJECT
 10
2097.0
 20
-3699.9999999999968
 30
0.0
 11
2140.0
 21
-3699.9999999999968
 31
0.0
1001
ACDBBLOCKREPETAG
1070
     1
1071
       13
1005
13054A
  0
LINE
  5
13054B
  8
OBJECT
 10
2093.0
 20
-3616.4999999999968
 30
0.0
 11
2086.0
 21
-3616.4999999999968
 31
0.0
1001
ACDBBLOCKREPETAG
1070
     1
1071
       14
1005
13054B
  0
LINE
  5
13054C
  8
OBJECT
 10
2086.0
 20
-3695.4999999999968
 30
0.0
 11
2093.0
 21
-3695.4999999999968
 31
0.0
1001
ACDBBLOCKREPETAG
1070
     1
1071
       15
1005
13054C
  0
LINE
  5
13054D
  8
OBJECT
 10
2093.0
 20
-3695.4999999999968
 30
0.0
 11
2093.0
 21
-3616.4999999999968
 31
0.0
1001
ACDBBLOCKREPETAG
1070
     1
1071
       16
1005
13054D
  0
LINE
  5
13054E
  8
OBJECT
 10
2097.0
 20
-3611.9999999999968
 30
0.0
 11
2093.0
 21
-3616.4999999999968
 31
0.0
1001
ACDBBLOCKREPETAG
1070
     1
1071
       17
1005
13054E
  0
LINE
  5
13054F
  8
OBJECT
 10
2097.0
 20
-3699.9999999999968
 30
0.0
 11
2093.0
 21
-3695.4999999999968
 31
0.0
1001
ACDBBLOCKREPETAG
1070
     1
1071
       18
1005
13054F
  0
LINE
  5
130550
  8
OBJECT
 10
2083.0
 20
-3578.9999999999968
 30
0.0
 11
2080.0
 21
-3578.9999999999968
 31
0.0
1001
ACDBBLOCKREPETAG
1070
     1
1071
       19
1005
130550
  0
ARC
  5
130551
  8
OBJECT
 10
2083.0
 20
-3581.9999999999968
 30
0.0
 40
3.0
 50
0.0
 51
90.0
1001
ACDBBLOCKREPETAG
1070
     1
1071
       20
1005
130551
  0
LINE
  5
130552
  8
OBJECT
 10
2080.0
 20
-3702.9999999999968
 30
0.0
 11
2083.0
 21
-3702.9999999999968
 31
0.0
1001
ACDBBLOCKREPETAG
1070
     1
1071
       21
1005
130552
  0
ARC
  5
130553
  8
OBJECT
 10
2083.0
 20
-3699.9999999999968
 30
0.0
 40
3.0
 50
270.0
 51
0.0
1001
ACDBBLOCKREPETAG
1070
     1
1071
       22
1005
130553
  0
LINE
  5
130554
  8
OBJECT
 10
2086.0
 20
-3699.9999999999968
 30
0.0
 11
2086.0
 21
-3581.9999999999968
 31
0.0
1001
ACDBBLOCKREPETAG
1070
     1
1071
       23
1005
130554
  0
LINE
  5
130555
  8
HIDDEN
 10
2088.0
 20
-3625.9999999999968
 30
0.0
 11
2088.0
 21
-3685.9999999999968
 31
0.0
1001
ACDBBLOCKREPETAG
1070
     1
1071
       24
1005
130555
  0
LINE
  5
130556
  8
OBJECT
 10
2133.0
 20
-3247.9999999999959
 30
0.0
 11
2140.0
 21
-3247.9999999999959
 31
0.0
1001
ACDBBLOCKREPETAG
1070
     1
1071
        7
1005
130556
  0
LINE
  5
130557
  8
OBJECT
 10
2140.0
 20
-3247.9999999999959
 30
0.0
 11
2140.0
 21
-3341.9999999999959
 31
0.0
1001
ACDBBLOCKREPETAG
1070
     1
1071
        8
1005
130557
  0
LINE
  5
130558
  8
OBJECT
 10
2140.0
 20
-3341.9999999999959
 30
0.0
 11
2133.0
 21
-3341.9999999999959
 31
0.0
1001
ACDBBLOCKREPETAG
1070
     1
1071
        9
1005
130558
  0
LINE
  5
130559
  8
OBJECT
 10
2133.0
 20
-3341.9999999999959
 30
0.0
 11
2133.0
 21
-3247.9999999999959
 31
0.0
1001
ACDBBLOCKREPETAG
1070
     1
1071
       10
1005
130559
  0
LINE
  5
13055A
  8
CENTER
 10
2155.0
 20
-3294.9999999999959
 30
0.0
 11
2080.0
 21
-3294.9999999999959
 31
0.0
1001
ACDBBLOCKREPETAG
1070
     1
1071
       11
1005
13055A
  0
LINE
  5
13055B
  8
OBJECT
 10
2133.0
 20
-3250.9999999999959
 30
0.0
 11
2097.0
 21
-3250.9999999999959
 31
0.0
1001
ACDBBLOCKREPETAG
1070
     1
1071
       12
1005
13055B
  0
LINE
  5
13055C
  8
OBJECT
 10
2097.0
 20
-3250.9999999999959
 30
0.0
 11
2097.0
 21
-3338.9999999999959
 31
0.0
1001
ACDBBLOCKREPETAG
1070
     1
1071
       13
1005
13055C
  0
LINE
  5
13055D
  8
OBJECT
 10
2097.0
 20
-3338.9999999999959
 30
0.0
 11
2133.0
 21
-3338.9999999999959
 31
0.0
1001
ACDBBLOCKREPETAG
1070
     1
1071
       14
1005
13055D
  0
LINE
  5
13055E
  8
OBJECT
 10
2093.0
 20
-3255.4999999999959
 30
0.0
 11
2086.0
 21
-3255.4999999999959
 31
0.0
1001
ACDBBLOCKREPETAG
1070
     1
1071
       15
1005
13055E
  0
LINE
  5
13055F
  8
OBJECT
 10
2086.0
 20
-3334.4999999999959
 30
0.0
 11
2093.0
 21
-3334.4999999999959
 31
0.0
1001
ACDBBLOCKREPETAG
1070
     1
1071
       16
1005
13055F
  0
LINE
  5
130560
  8
OBJECT
 10
2093.0
 20
-3334.4999999999959
 30
0.0
 11
2093.0
 21
-3255.4999999999959
 31
0.0
1001
ACDBBLOCKREPETAG
1070
     1
1071
       17
1005
130560
  0
LINE
  5
130561
  8
OBJECT
 10
2097.0
 20
-3250.9999999999959
 30
0.0
 11
2093.0
 21
-3255.4999999999959
 31
0.0
1001
ACDBBLOCKREPETAG
1070
     1
1071
       18
1005
130561
  0
LINE
  5
130562
  8
OBJECT
 10
2097.0
 20
-3338.9999999999959
 30
0.0
 11
2093.0
 21
-3334.4999999999959
 31
0.0
1001
ACDBBLOCKREPETAG
1070
     1
1071
       19
1005
130562
  0
LINE
  5
130563
  8
OBJECT
 10
2083.0
 20
-3232.9999999999959
 30
0.0
 11
2080.0
 21
-3232.9999999999959
 31
0.0
1001
ACDBBLOCKREPETAG
1070
     1
1071
       20
1005
130563
  0
ARC
  5
130564
  8
OBJECT
 10
2083.0
 20
-3235.9999999999959
 30
0.0
 40
3.0
 50
0.0
 51
90.0
1001
ACDBBLOCKREPETAG
1070
     1
1071
       21
1005
130564
  0
LINE
  5
130565
  8
OBJECT
 10
2080.0
 20
-3356.9999999999959
 30
0.0
 11
2083.0
 21
-3356.9999999999959
 31
0.0
1001
ACDBBLOCKREPETAG
1070
     1
1071
       22
1005
130565
  0
ARC
  5
130566
  8
OBJECT
 10
2083.0
 20
-3353.9999999999959
 30
0.0
 40
3.0
 50
270.0
 51
0.0
1001
ACDBBLOCKREPETAG
1070
     1
1071
       23
1005
130566
  0
LINE
  5
130567
  8
OBJECT
 10
2086.0
 20
-3353.9999999999959
 30
0.0
 11
2086.0
 21
-3235.9999999999959
 31
0.0
1001
ACDBBLOCKREPETAG
1070
     1
1071
       24
1005
130567
  0
LINE
  5
130568
  8
HIDDEN
 10
2088.0
 20
-3264.9999999999968
 30
0.0
 11
2088.0
 21
-3324.9999999999959
 31
0.0
1001
ACDBBLOCKREPETAG
1070
     1
1071
       25
1005
130568
  0
TEXT
  5
130569
  8
SLIM
 10
1896.75
 20
-3817.4999999999959
 30
0.0
 40
35.0
  1
通常枝50（1）
 41
0.75
  0
LINE
  5
13056A
  8
SLIM
 10
3914.9999999999941
 20
-759.47385309434696
 30
0.0
 11
3919.47385309434
 21
-754.99999999999955
 31
0.0
1001
ACDBBLOCKREPETAG
1070
     1
1071
        0
1005
0
1001
ACAD
1010
0.0
1020
0.0
1030
0.0
  0
LINE
  5
13056B
  8
SLIM
 10
3914.9999999999941
 20
-777.43436533648503
 30
0.0
 11
3937.434365336479
 21
-754.99999999999955
 31
0.0
1001
ACAD
1010
0.0
1020
0.0
1030
0.0
1001
ACDBBLOCKREPETAG
1070
     1
1071
       14
1005
13056B
  0
LINE
  5
13056C
  8
SLIM
 10
3914.9999999999941
 20
-795.39487757862275
 30
0.0
 11
3955.394877578618
 21
-754.99999999999955
 31
0.0
1001
ACAD
1010
0.0
1020
0.0
1030
0.0
1001
ACDBBLOCKREPETAG
1070
     1
1071
       15
1005
13056C
  0
LINE
  5
13056D
  8
SLIM
 10
3914.9999999999941
 20
-813.35538982076082
 30
0.0
 11
3973.3553898207551
 21
-754.99999999999955
 31
0.0
1001
ACAD
1010
0.0
1020
0.0
1030
0.0
1001
ACDBBLOCKREPETAG
1070
     1
1071
       16
1005
13056D
  0
LINE
  5
13056E
  8
SLIM
 10
3914.999999999995
 20
-831.31590206289854
 30
0.0
 11
3991.3159020628941
 21
-754.99999999999955
 31
0.0
1001
ACAD
1010
0.0
1020
0.0
1030
0.0
1001
ACDBBLOCKREPETAG
1070
     1
1071
       17
1005
13056E
  0
LINE
  5
13056F
  8
SLIM
 10
3914.999999999995
 20
-849.2764143050365
 30
0.0
 11
4009.2764143050308
 21
-754.99999999999955
 31
0.0
1001
ACAD
1010
0.0
1020
0.0
1030
0.0
1001
ACDBBLOCKREPETAG
1070
     1
1071
       18
1005
13056F
  0
LINE
  5
130570
  8
SLIM
 10
3914.999999999995
 20
-867.23692654717422
 30
0.0
 11
4027.2369265471689
 21
-754.99999999999955
 31
0.0
1001
ACAD
1010
0.0
1020
0.0
1030
0.0
1001
ACDBBLOCKREPETAG
1070
     1
1071
       19
1005
130570
  0
LINE
  5
130571
  8
SLIM
 10
3914.999999999995
 20
-885.1974387893124
 30
0.0
 11
4045.1974387893069
 21
-754.99999999999955
 31
0.0
1001
ACAD
1010
0.0
1020
0.0
1030
0.0
1001
ACDBBLOCKREPETAG
1070
     1
1071
       20
1005
130571
  0
LINE
  5
130572
  8
SLIM
 10
3914.9999999999968
 20
-903.15795103145035
 30
0.0
 11
4063.157951031445
 21
-754.99999999999955
 31
0.0
1001
ACAD
1010
0.0
1020
0.0
1030
0.0
1001
ACDBBLOCKREPETAG
1070
     1
1071
       21
1005
130572
  0
LINE
  5
130573
  8
SLIM
 10
3915.1454972543161
 20
-920.97296601926894
 30
0.0
 11
4081.1184632735849
 21
-754.99999999999955
 31
0.0
1001
ACAD
1010
0.0
1020
0.0
1030
0.0
1001
ACDBBLOCKREPETAG
1070
     1
1071
       22
1005
130573
  0
LINE
  5
130574
  8
SLIM
 10
3917.104627495245
 20
-936.97434802047871
 30
0.0
 11
4085.0000000000068
 21
-769.07897551571591
 31
0.0
1001
ACAD
1010
0.0
1020
0.0
1030
0.0
1001
ACDBBLOCKREPETAG
1070
     1
1071
       23
1005
130574
  0
LINE
  5
130575
  8
SLIM
 10
3919.0637577361722
 20
-952.97573002168929
 30
0.0
 11
4085.0000000000068
 21
-787.03948775785432
 31
0.0
1001
ACAD
1010
0.0
1020
0.0
1030
0.0
1001
ACDBBLOCKREPETAG
1070
     1
1071
       24
1005
130575
  0
LINE
  5
130576
  8
SLIM
 10
3920.0
 20
-969.99999999999966
 30
0.0
 11
4085.0000000000068
 21
-804.99999999999341
 31
0.0
1001
ACAD
1010
0.0
1020
0.0
1030
0.0
1001
ACDBBLOCKREPETAG
1070
     1
1071
       25
1005
130576
  0
LINE
  5
130577
  8
SLIM
 10
3920.0
 20
-987.96051224213795
 30
0.0
 11
4085.0000000000059
 21
-822.96051224213215
 31
0.0
1001
ACAD
1010
0.0
1020
0.0
1030
0.0
1001
ACDBBLOCKREPETAG
1070
     1
1071
       26
1005
130577
  0
LINE
  5
130578
  8
SLIM
 10
3920.0
 20
-1005.921024484276
 30
0.0
 11
4085.0000000000059
 21
-840.92102448427045
 31
0.0
1001
ACAD
1010
0.0
1020
0.0
1030
0.0
1001
ACDBBLOCKREPETAG
1070
     1
1071
       27
1005
130578
  0
LINE
  5
130579
  8
SLIM
 10
3920.0
 20
-1023.881536726414
 30
0.0
 11
4085.000000000005
 21
-858.88153672640954
 31
0.0
1001
ACAD
1010
0.0
1020
0.0
1030
0.0
1001
ACDBBLOCKREPETAG
1070
     1
1071
       28
1005
130579
  0
LINE
  5
13057A
  8
SLIM
 10
3920.0
 20
-1041.842048968552
 30
0.0
 11
4085.0000000000041
 21
-876.84204896854817
 31
0.0
1001
ACAD
1010
0.0
1020
0.0
1030
0.0
1001
ACDBBLOCKREPETAG
1070
     1
1071
       29
1005
13057A
  0
LINE
  5
13057B
  8
SLIM
 10
3920.0
 20
-1059.802561210691
 30
0.0
 11
4085.0000000000041
 21
-894.80256121068692
 31
0.0
1001
ACAD
1010
0.0
1020
0.0
1030
0.0
1001
ACDBBLOCKREPETAG
1070
     1
1071
       30
1005
13057B
  0
LINE
  5
13057C
  8
SLIM
 10
3920.0
 20
-1077.7630734528291
 30
0.0
 11
4085.0000000000032
 21
-912.76307345282555
 31
0.0
1001
ACAD
1010
0.0
1020
0.0
1030
0.0
1001
ACDBBLOCKREPETAG
1070
     1
1071
       31
1005
13057C
  0
LINE
  5
13057D
  8
SLIM
 10
3930.0
 20
-1085.723585694966
 30
0.0
 11
3930.7235856949678
 21
-1084.9999999999991
 31
0.0
1001
ACAD
1010
0.0
1020
0.0
1030
0.0
1001
ACDBBLOCKREPETAG
1070
     1
1071
       32
1005
13057D
  0
LINE
  5
13057E
  8
SLIM
 10
3930.7235856949678
 20
-1084.9999999999991
 30
0.0
 11
4083.4738280308079
 21
-932.24975766415935
 31
0.0
1001
ACAD
1010
0.0
1020
0.0
1030
0.0
1001
ACDBBLOCKREPETAG
1070
     1
1071
       33
1005
13057E
  0
LINE
  5
13057F
  8
SLIM
 10
3930.0
 20
-1103.6840979371059
 30
0.0
 11
3948.6840979371068
 21
-1084.9999999999991
 31
0.0
1001
ACAD
1010
0.0
1020
0.0
1030
0.0
1001
ACDBBLOCKREPETAG
1070
     1
1071
       34
1005
13057F
  0
LINE
  5
130580
  8
SLIM
 10
3948.6840979371068
 20
-1084.9999999999991
 30
0.0
 11
4080.9680345671368
 21
-952.71606336996854
 31
0.0
1001
ACAD
1010
0.0
1020
0.0
1030
0.0
1001
ACDBBLOCKREPETAG
1070
     1
1071
       35
1005
130580
  0
LINE
  5
130581
  8
SLIM
 10
3946.6446101792449
 20
-1104.9999999999991
 30
0.0
 11
3966.6446101792449
 21
-1084.9999999999991
 31
0.0
1001
ACAD
1010
0.0
1020
0.0
1030
0.0
1001
ACDBBLOCKREPETAG
1070
     1
1071
       36
1005
130581
  0
LINE
  5
130582
  8
SLIM
 10
3966.6446101792449
 20
-1084.9999999999991
 30
0.0
 11
4080.0
 21
-971.64461017924452
 31
0.0
1001
ACAD
1010
0.0
1020
0.0
1030
0.0
1001
ACDBBLOCKREPETAG
1070
     1
1071
       37
1005
130582
  0
LINE
  5
130583
  8
SLIM
 10
3964.6051224213829
 20
-1104.9999999999991
 30
0.0
 11
3984.6051224213829
 21
-1084.9999999999991
 31
0.0
1001
ACAD
1010
0.0
1020
0.0
1030
0.0
1001
ACDBBLOCKREPETAG
1070
     1
1071
       38
1005
130583
  0
LINE
  5
130584
  8
SLIM
 10
3984.6051224213829
 20
-1084.9999999999991
 30
0.0
 11
4080.0
 21
-989.60512242138304
 31
0.0
1001
ACAD
1010
0.0
1020
0.0
1030
0.0
1001
ACDBBLOCKREPETAG
1070
     1
1071
       39
1005
130584
  0
LINE
  5
130585
  8
SLIM
 10
3982.565634663521
 20
-1104.9999999999991
 30
0.0
 11
4002.565634663521
 21
-1084.9999999999991
 31
0.0
1001
ACAD
1010
0.0
1020
0.0
1030
0.0
1001
ACDBBLOCKREPETAG
1070
     1
1071
       40
1005
130585
  0
LINE
  5
130586
  8
SLIM
 10
4002.565634663521
 20
-1084.9999999999991
 30
0.0
 11
4079.9999999999991
 21
-1007.565634663521
 31
0.0
1001
ACAD
1010
0.0
1020
0.0
1030
0.0
1001
ACDBBLOCKREPETAG
1070
     1
1071
       41
1005
130586
  0
LINE
  5
130587
  8
SLIM
 10
4000.5261469056568
 20
-1104.9999999999991
 30
0.0
 11
4020.52614690566
 21
-1084.9999999999991
 31
0.0
1001
ACAD
1010
0.0
1020
0.0
1030
0.0
1001
ACDBBLOCKREPETAG
1070
     1
1071
       42
1005
130587
  0
LINE
  5
130588
  8
SLIM
 10
4020.52614690566
 20
-1084.9999999999991
 30
0.0
 11
4079.9999999999991
 21
-1025.52614690566
 31
0.0
1001
ACAD
1010
0.0
1020
0.0
1030
0.0
1001
ACDBBLOCKREPETAG
1070
     1
1071
       43
1005
130588
  0
LINE
  5
130589
  8
SLIM
 10
4018.486659147798
 20
-1104.9999999999991
 30
0.0
 11
4038.486659147798
 21
-1084.9999999999991
 31
0.0
1001
ACAD
1010
0.0
1020
0.0
1030
0.0
1001
ACDBBLOCKREPETAG
1070
     1
1071
       44
1005
130589
  0
LINE
  5
13058A
  8
SLIM
 10
4038.486659147798
 20
-1084.9999999999991
 30
0.0
 11
4079.9999999999991
 21
-1043.4866591477989
 31
0.0
1001
ACAD
1010
0.0
1020
0.0
1030
0.0
1001
ACDBBLOCKREPETAG
1070
     1
1071
       45
1005
13058A
  0
LINE
  5
13058B
  8
SLIM
 10
4036.4471713899361
 20
-1104.9999999999991
 30
0.0
 11
4056.4471713899361
 21
-1084.9999999999991
 31
0.0
1001
ACAD
1010
0.0
1020
0.0
1030
0.0
1001
ACDBBLOCKREPETAG
1070
     1
1071
       46
1005
13058B
  0
LINE
  5
13058C
  8
SLIM
 10
4056.4471713899361
 20
-1084.9999999999991
 30
0.0
 11
4079.9999999999991
 21
-1061.447171389937
 31
0.0
1001
ACAD
1010
0.0
1020
0.0
1030
0.0
1001
ACDBBLOCKREPETAG
1070
     1
1071
       47
1005
13058C
  0
LINE
  5
13058D
  8
SLIM
 10
4054.4076836320728
 20
-1104.9999999999991
 30
0.0
 11
4070.0
 21
-1089.4076836320739
 31
0.0
1001
ACAD
1010
0.0
1020
0.0
1030
0.0
1001
ACDBBLOCKREPETAG
1070
     1
1071
       48
1005
13058D
  0
LINE
  5
13058E
  8
SLIM
 10
4074.4076836320728
 20
-1084.9999999999991
 30
0.0
 11
4079.9999999999991
 21
-1079.407683632076
 31
0.0
1001
ACAD
1010
0.0
1020
0.0
1030
0.0
1001
ACDBBLOCKREPETAG
1070
     1
1071
       49
1005
13058E
  0
LINE
  5
13058F
  8
OBJECT
 10
3914.9999999999941
 20
-754.99999999999955
 30
0.0
 11
3914.9999999999968
 21
-919.78460339903484
 31
0.0
1001
ACDBBLOCKREPETAG
1070
     1
1071
        1
1005
13058F
  0
LINE
  5
130590
  8
OBJECT
 10
4085.0000000000068
 20
-754.99999999999955
 30
0.0
 11
4085.0000000000032
 21
-919.78460339904154
 31
0.0
1001
ACDBBLOCKREPETAG
1070
     1
1071
        2
1005
130590
  0
LINE
  5
130591
  8
OBJECT
 10
4085.0000000000068
 20
-754.99999999999955
 30
0.0
 11
3914.9999999999941
 21
-754.99999999999955
 31
0.0
1001
ACDBBLOCKREPETAG
1070
     1
1071
        3
1005
130591
  0
LINE
  5
130592
  8
OBJECT
 10
4079.9999999999991
 20
-1084.9999999999991
 30
0.0
 11
3920.0
 21
-1084.9999999999991
 31
0.0
1001
ACDBBLOCKREPETAG
1070
     1
1071
        4
1005
130592
  0
LINE
  5
130593
  8
OBJECT
 10
3914.9999999999968
 20
-919.78460339903484
 30
0.0
 11
3920.0
 21
-960.62257748298634
 31
0.0
1001
ACDBBLOCKREPETAG
1070
     1
1071
        6
1005
130593
  0
LINE
  5
130594
  8
OBJECT
 10
3920.0
 20
-960.62257748298634
 30
0.0
 11
3920.0
 21
-1084.9999999999991
 31
0.0
1001
ACDBBLOCKREPETAG
1070
     1
1071
        7
1005
130594
  0
LINE
  5
130595
  8
OBJECT
 10
4085.0000000000032
 20
-919.78460339904154
 30
0.0
 11
4080.0
 21
-960.62257748298634
 31
0.0
1001
ACDBBLOCKREPETAG
1070
     1
1071
        8
1005
130595
  0
LINE
  5
130596
  8
OBJECT
 10
4080.0
 20
-960.62257748298634
 30
0.0
 11
4079.9999999999991
 21
-1084.9999999999991
 31
0.0
1001
ACDBBLOCKREPETAG
1070
     1
1071
        9
1005
130596
  0
LINE
  5
130597
  8
OBJECT
 10
3930.0
 20
-1084.9999999999991
 30
0.0
 11
3930.0
 21
-1104.9999999999991
 31
0.0
1001
ACDBBLOCKREPETAG
1070
     1
1071
       10
1005
130597
  0
LINE
  5
130598
  8
OBJECT
 10
3930.0
 20
-1104.9999999999991
 30
0.0
 11
4070.0
 21
-1104.9999999999991
 31
0.0
1001
ACDBBLOCKREPETAG
1070
     1
1071
       11
1005
130598
  0
LINE
  5
130599
  8
OBJECT
 10
4070.0
 20
-1104.9999999999991
 30
0.0
 11
4070.0
 21
-1084.9999999999991
 31
0.0
1001
ACDBBLOCKREPETAG
1070
     1
1071
       12
1005
130599
  0
LINE
  5
13059A
  8
OBJECT
 10
1923.0
 20
-570.99999999999955
 30
0.0
 11
1923.0
 21
-549.99999999999955
 31
0.0
1001
ACDBBLOCKREPETAG
1070
     1
1071
       38
1005
13059A
  0
LINE
  5
13059B
  8
OBJECT
 10
1923.0
 20
-549.99999999999955
 30
0.0
 11
2077.0
 21
-549.99999999999955
 31
0.0
1001
ACDBBLOCKREPETAG
1070
     1
1071
       39
1005
13059B
  0
LINE
  5
13059C
  8
HIDDEN
 10
1943.0
 20
-619.99999999999955
 30
0.0
 11
2057.0
 21
-619.99999999999955
 31
0.0
1001
ACDBBLOCKREPETAG
1070
     1
1071
       40
1005
13059C
  0
LINE
  5
13059D
  8
OBJECT
 10
2077.0
 20
-549.99999999999955
 30
0.0
 11
2077.0
 21
-570.99999999999955
 31
0.0
1001
ACDBBLOCKREPETAG
1070
     1
1071
       41
1005
13059D
  0
LINE
  5
13059E
  8
OBJECT
 10
2077.0
 20
-570.99999999999955
 30
0.0
 11
1923.0
 21
-570.99999999999955
 31
0.0
1001
ACDBBLOCKREPETAG
1070
     1
1071
       42
1005
13059E
  0
LINE
  5
13059F
  8
CENTER
 10
2000.0
 20
-534.99999999999955
 30
0.0
 11
2000.0
 21
-889.99999999999955
 31
0.0
1001
ACDBBLOCKREPETAG
1070
     1
1071
       43
1005
13059F
  0
LINE
  5
1305A0
  8
OBJECT
 10
1928.0
 20
-570.99999999999955
 30
0.0
 11
1928.0
 21
-633.99999999999955
 31
0.0
1001
ACDBBLOCKREPETAG
1070
     1
1071
       44
1005
1305A0
  0
LINE
  5
1305A1
  8
OBJECT
 10
2072.0
 20
-633.99999999999955
 30
0.0
 11
2072.0
 21
-570.99999999999955
 31
0.0
1001
ACDBBLOCKREPETAG
1070
     1
1071
       45
1005
1305A1
  0
LINE
  5
1305A2
  8
OBJECT
 10
1920.0
 20
-877.99999999999955
 30
0.0
 11
2080.0
 21
-877.99999999999955
 31
0.0
1001
ACDBBLOCKREPETAG
1070
     1
1071
       46
1005
1305A2
  0
LINE
  5
1305A3
  8
OBJECT
 10
2080.0
 20
-633.99999999999955
 30
0.0
 11
1920.0
 21
-633.99999999999955
 31
0.0
1001
ACDBBLOCKREPETAG
1070
     1
1071
       47
1005
1305A3
  0
LINE
  5
1305A4
  8
OBJECT
 10
1920.0
 20
-877.99999999999955
 30
0.0
 11
1920.0
 21
-889.99999999999955
 31
0.0
1001
ACDBBLOCKREPETAG
1070
     1
1071
       48
1005
1305A4
  0
LINE
  5
1305A5
  8
OBJECT
 10
1920.0
 20
-889.99999999999955
 30
0.0
 11
2080.0
 21
-889.99999999999955
 31
0.0
1001
ACDBBLOCKREPETAG
1070
     1
1071
       49
1005
1305A5
  0
LINE
  5
1305A6
  8
OBJECT
 10
2080.0
 20
-889.99999999999955
 30
0.0
 11
2080.0
 21
-877.99999999999955
 31
0.0
1001
ACDBBLOCKREPETAG
1070
     1
1071
       50
1005
1305A6
  0
LINE
  5
1305A7
  8
OBJECT
 10
2074.9999999998622
 20
-757.99999999984982
 30
0.0
 11
2075.0
 21
-877.99999999999955
 31
0.0
1001
ACDBBLOCKREPETAG
1070
     1
1071
       54
1005
1305A7
  0
LINE
  5
1305A8
  8
OBJECT
 10
2074.9999908029849
 20
-757.99998602702112
 30
0.0
 11
2080.0
 21
-757.99998602702112
 31
0.0
1001
ACDBBLOCKREPETAG
1070
     1
1071
       55
1005
1305A8
  0
LINE
  5
1305A9
  8
OBJECT
 10
1925.000000000138
 20
-757.99999999984982
 30
0.0
 11
1925.0
 21
-877.99999999999955
 31
0.0
1001
ACDBBLOCKREPETAG
1070
     1
1071
       56
1005
1305A9
  0
LINE
  5
1305AA
  8
OBJECT
 10
1925.000009197013
 20
-757.99998602702112
 30
0.0
 11
1920.0
 21
-757.99998602702112
 31
0.0
1001
ACDBBLOCKREPETAG
1070
     1
1071
       57
1005
1305AA
  0
ARC
  5
1305AB
  8
OBJECT
 10
2200.6872746716731
 20
-749.40809941010718
 30
0.0
 40
170.6350503965856
 50
137.44134459184301
 51
149.91949581336559
1001
ACDBBLOCKREPETAG
1070
     1
1071
       58
1005
1305AB
  0
ARC
  5
1305AC
  8
OBJECT
 10
2200.6872746716731
 20
-642.59190058989179
 30
0.0
 40
170.6350503965856
 50
210.0805041866343
 51
222.55865540815699
1001
ACDBBLOCKREPETAG
1070
     1
1071
       59
1005
1305AC
  0
ARC
  5
1305AD
  8
OBJECT
 10
1799.312725328326
 20
-749.40809941010718
 30
0.0
 40
170.6350503965856
 50
30.080504186774089
 51
42.558655408382627
1001
ACDBBLOCKREPETAG
1070
     1
1071
       60
1005
1305AD
  0
ARC
  5
1305AE
  8
OBJECT
 10
1799.312725328326
 20
-642.59190058989179
 30
0.0
 40
170.6350503965856
 50
317.44134459161722
 51
329.91949581322592
1001
ACDBBLOCKREPETAG
1070
     1
1071
       61
1005
1305AE
  0
POINT
  5
1305AF
  8
DOTS
 10
2000.0
 20
-754.99999999999955
 30
0.0
1001
ACDBBLOCKREPETAG
1070
     1
1071
      185
1005
1305AF
  0
LINE
  5
1305B0
  8
OBJECT
 10
3930.0
 20
-1199.999999999997
 30
0.0
 11
4070.0
 21
-1199.999999999997
 31
0.0
1001
ACDBBLOCKREPETAG
1070
     1
1071
        0
1005
1305B0
  0
LINE
  5
1305B1
  8
OBJECT
 10
3930.0
 20
-1199.999999999997
 30
0.0
 11
3930.0
 21
-959.9999999999967
 31
0.0
1001
ACDBBLOCKREPETAG
1070
     1
1071
        1
1005
1305B1
  0
LINE
  5
1305B2
  8
OBJECT
 10
4070.0
 20
-1199.999999999997
 30
0.0
 11
4070.0
 21
-959.9999999999967
 31
0.0
1001
ACDBBLOCKREPETAG
1070
     1
1071
        2
1005
1305B2
  0
LINE
  5
1305B3
  8
OBJECT
 10
3930.0
 20
-959.9999999999967
 30
0.0
 11
4070.0
 21
-959.9999999999967
 31
0.0
1001
ACDBBLOCKREPETAG
1070
     1
1071
        3
1005
1305B3
  0
LINE
  5
1305B4
  8
HIDDEN
 10
3937.5
 20
-959.9999999999967
 30
0.0
 11
3937.5
 21
-1199.999999999997
 31
0.0
1001
ACDBBLOCKREPETAG
1070
     1
1071
        4
1005
1305B4
  0
LINE
  5
1305B5
  8
HIDDEN
 10
4062.5
 20
-959.9999999999967
 30
0.0
 11
4062.5
 21
-1199.999999999997
 31
0.0
1001
ACDBBLOCKREPETAG
1070
     1
1071
        5
1005
1305B5
  0
LINE
  5
1305B6
  8
CENTER
 10
4000.0
 20
-889.99999999999875
 30
0.0
 11
4000.0
 21
-1214.999999999997
 31
0.0
1001
ACDBBLOCKREPETAG
1070
     1
1071
        6
1005
1305B6
  0
LINE
  5
1305B7
  8
OBJECT
 10
3925.0
 20
-889.99999999999875
 30
0.0
 11
3925.0
 21
-919.99999999999693
 31
0.0
1001
ACDBBLOCKREPETAG
1070
     1
1071
        7
1005
1305B7
  0
LINE
  5
1305B8
  8
OBJECT
 10
4075.0000000000032
 20
-889.99999999999875
 30
0.0
 11
4075.0
 21
-919.99999999999693
 31
0.0
1001
ACDBBLOCKREPETAG
1070
     1
1071
        8
1005
1305B8
  0
LINE
  5
1305B9
  8
OBJECT
 10
3925.0
 20
-919.99999999999693
 30
0.0
 11
4075.0
 21
-919.99999999999693
 31
0.0
1001
ACDBBLOCKREPETAG
1070
     1
1071
        9
1005
1305B9
  0
LINE
  5
1305BA
  8
OBJECT
 10
3925.0
 20
-919.99999999999693
 30
0.0
 11
3930.0
 21
-959.9999999999967
 31
0.0
1001
ACDBBLOCKREPETAG
1070
     1
1071
       10
1005
1305BA
  0
LINE
  5
1305BB
  8
OBJECT
 10
4070.0
 20
-959.9999999999967
 30
0.0
 11
4075.0
 21
-919.99999999999693
 31
0.0
1001
ACDBBLOCKREPETAG
1070
     1
1071
       11
1005
1305BB
  0
LINE
  5
1305BC
  8
OBJECT
 10
1930.0
 20
-1199.999999999997
 30
0.0
 11
2070.0
 21
-1199.999999999997
 31
0.0
1001
ACDBBLOCKREPETAG
1070
     1
1071
        0
1005
1305BC
  0
LINE
  5
1305BD
  8
OBJECT
 10
1930.0
 20
-1199.999999999997
 30
0.0
 11
1930.0
 21
-959.99999999999784
 31
0.0
1001
ACDBBLOCKREPETAG
1070
     1
1071
        1
1005
1305BD
  0
LINE
  5
1305BE
  8
OBJECT
 10
2070.0
 20
-1199.999999999997
 30
0.0
 11
2070.0
 21
-959.99999999999784
 31
0.0
1001
ACDBBLOCKREPETAG
1070
     1
1071
        2
1005
1305BE
  0
LINE
  5
1305BF
  8
OBJECT
 10
1930.0
 20
-959.99999999999784
 30
0.0
 11
2070.0
 21
-959.99999999999784
 31
0.0
1001
ACDBBLOCKREPETAG
1070
     1
1071
        3
1005
1305BF
  0
LINE
  5
1305C0
  8
HIDDEN
 10
1937.5
 20
-959.99999999999784
 30
0.0
 11
1937.5
 21
-1199.999999999997
 31
0.0
1001
ACDBBLOCKREPETAG
1070
     1
1071
        4
1005
1305C0
  0
LINE
  5
1305C1
  8
HIDDEN
 10
2062.5
 20
-959.99999999999784
 30
0.0
 11
2062.5
 21
-1199.999999999997
 31
0.0
1001
ACDBBLOCKREPETAG
1070
     1
1071
        5
1005
1305C1
  0
LINE
  5
1305C2
  8
CENTER
 10
2000.0
 20
-889.99999999999955
 30
0.0
 11
2000.0
 21
-1214.999999999998
 31
0.0
1001
ACDBBLOCKREPETAG
1070
     1
1071
        6
1005
1305C2
  0
LINE
  5
1305C3
  8
OBJECT
 10
1925.0
 20
-889.99999999999955
 30
0.0
 11
1925.0
 21
-919.99999999999761
 31
0.0
1001
ACDBBLOCKREPETAG
1070
     1
1071
        7
1005
1305C3
  0
LINE
  5
1305C4
  8
OBJECT
 10
2075.0000000000041
 20
-889.99999999999955
 30
0.0
 11
2075.0
 21
-919.99999999999761
 31
0.0
1001
ACDBBLOCKREPETAG
1070
     1
1071
        8
1005
1305C4
  0
LINE
  5
1305C5
  8
OBJECT
 10
1925.0
 20
-919.99999999999761
 30
0.0
 11
2075.0
 21
-919.99999999999761
 31
0.0
1001
ACDBBLOCKREPETAG
1070
     1
1071
        9
1005
1305C5
  0
LINE
  5
1305C6
  8
OBJECT
 10
1925.0
 20
-919.99999999999761
 30
0.0
 11
1930.0
 21
-959.99999999999784
 31
0.0
1001
ACDBBLOCKREPETAG
1070
     1
1071
       10
1005
1305C6
  0
LINE
  5
1305C7
  8
OBJECT
 10
2070.0
 20
-959.99999999999784
 30
0.0
 11
2075.0
 21
-919.99999999999761
 31
0.0
1001
ACDBBLOCKREPETAG
1070
     1
1071
       11
1005
1305C7
  0
TEXT
  5
1305C8
  8
SLIM
 10
3824.5999999999999
 20
-1528.999999999997
 30
0.0
 40
28.0
  1
※ 対応スラブ厚　180～320
 41
0.75
  0
TEXT
  5
1305C9
  8
SLIM
 10
3611.5
 20
-1622.3333333333301
 30
0.0
 40
28.0
  1
国土交通大臣認定・（財）日本消防設備安全センター性能評定取得品
 41
0.75
  0
TEXT
  5
1305CA
  8
SLIM
 10
3631.1000000000022
 20
-1668.999999999997
 30
0.0
 40
28.0
  1
注）ご採用にあたり、認定書及び評定書の内容をご確認ください。
 41
0.75
  0
TEXT
  5
1305CB
  8
SLIM
 10
3741.6250000000009
 20
-1467.499999999997
 30
0.0
 40
35.0
  1
片受けスタイル（S）＋シンドカット
 41
0.75
  0
TEXT
  5
1305CC
  8
SLIM
 10
1856.25
 20
-1467.499999999998
 30
0.0
 40
35.0
  1
片受けスタイル（S）
 41
0.75
  0
TEXT
  5
130EC3
  8
SLIM
 10
1850.0
 20
532.5
 30
0.0
 40
75.0
  1
側面図の代表機種
 41
0.75
  0
VIEWPORT
  5
F6BA7
 67
     1
  8
0
 10
145.33033752441401
 20
101.8328354358673
 30
0.0
 40
334.0025019414623
 41
222.19657968139651
 68
     1
 69
     1
1001
ACAD
1000
MVIEW
1002
{
1070
    16
1010
0.0
1020
0.0
1030
0.0
1010
0.0
1020
0.0
1030
1.0
1040
0.0
1040
222.19657968139651
1040
145.33033752441401
1040
101.8328354358673
1040
50.0
1040
0.0
1040
0.0
1070
     0
1070
     0
1070
     1
1070
     1
1070
     0
1070
     0
1070
     0
1070
     0
1040
0.0
1040
0.0
1040
0.0
1040
10.0
1040
10.0
1040
10.0
1040
10.0
1070
     0
1002
{
1002
}
1002
}
  0
VIEWPORT
  5
F6BA9
 67
     1
  8
OBJECT
 10
145.3303314447403
 20
101.8328338861465
 30
0.0
 40
232.5285303115844
 41
162.93253421783439
 68
     2
 69
     2
1001
ACAD
1000
MVIEW
1002
{
1070
    16
1010
0.0
1020
0.0
1030
0.0
1010
0.0
1020
0.0
1030
1.0
1040
0.0
1040
25942.55904403147
1040
2377.604457077377
1040
-7591.5176687056619
1040
50.0
1040
0.0
1040
0.0
1070
     0
1070
   600
1070
     1
1070
     1
1070
     0
1070
     0
1070
     0
1070
     0
1040
0.0
1040
0.0
1040
0.0
1040
1.0
1040
1.0
1040
0.0
1040
0.0
1070
     0
1002
{
1002
}
1002
}
  0
ENDSEC
  0
EOF
