  0
SECTION
  2
HEADER
  9
$ACADVER
  1
AC1009
  9
$INSBASE
 10
0.0
 20
0.0
 30
0.0
  9
$EXTMIN
 10
0.0
 20
-3817.4999999999959
 30
0.0
  9
$EXTMAX
 10
5575.0
 20
607.5
 30
0.0
  9
$LIMMIN
 10
0.0
 20
0.0
  9
$LIMMAX
 10
210.0
 20
297.0
  9
$ORTHOMODE
 70
     0
  9
$REGENMODE
 70
     1
  9
$FILLMODE
 70
     1
  9
$QTEXTMODE
 70
     0
  9
$MIRRTEXT
 70
     0
  9
$DRAGMODE
 70
     2
  9
$LTSCALE
 40
1.0
  9
$OSMODE
 70
   125
  9
$ATTMODE
 70
     1
  9
$TEXTSIZE
 40
4.0
  9
$TRACEWID
 40
0.05
  9
$TEXTSTYLE
  7
STANDARD
  9
$CLAYER
  8
OBJECT
  9
$CELTYPE
  6
BYLAYER
  9
$CECOLOR
 62
   256
  9
$DIMSCALE
 40
10.0
  9
$DIMASZ
 40
2.0
  9
$DIMEXO
 40
1.0
  9
$DIMDLI
 40
10.0
  9
$DIMRND
 40
0.0
  9
$DIMDLE
 40
0.0
  9
$DIMEXE
 40
1.0
  9
$DIMTP
 40
0.0
  9
$DIMTM
 40
0.0
  9
$DIMTXT
 40
3.2000000000000002
  9
$DIMCEN
 40
0.0
  9
$DIMTSZ
 40
0.0
  9
$DIMTOL
 70
     0
  9
$DIMLIM
 70
     0
  9
$DIMTIH
 70
     0
  9
$DIMTOH
 70
     0
  9
$DIMSE1
 70
     0
  9
$DIMSE2
 70
     0
  9
$DIMTAD
 70
     1
  9
$DIMZIN
 70
     8
  9
$DIMBLK
  1
OPEN30
  9
$DIMASO
 70
     1
  9
$DIMSHO
 70
     1
  9
$DIMPOST
  1

  9
$DIMAPOST
  1

  9
$DIMALT
 70
     0
  9
$DIMALTD
 70
     2
  9
$DIMALTF
 40
25.399999999999999
  9
$DIMLFAC
 40
1.0
  9
$DIMTOFL
 70
     1
  9
$DIMTVP
 40
0.0
  9
$DIMTIX
 70
     0
  9
$DIMSOXD
 70
     0
  9
$DIMSAH
 70
     0
  9
$DIMBLK1
  1

  9
$DIMBLK2
  1

  9
$DIMSTYLE
  2
S10
  9
$DIMCLRD
 70
   256
  9
$DIMCLRE
 70
   256
  9
$DIMCLRT
 70
   256
  9
$DIMTFAC
 40
1.0
  9
$DIMGAP
 40
0.9
  9
$LUNITS
 70
     2
  9
$LUPREC
 70
     2
  9
$SKETCHINC
 40
0.1
  9
$FILLETRAD
 40
0.0
  9
$AUNITS
 70
     0
  9
$AUPREC
 70
     2
  9
$MENU
  1
ACAD
  9
$ELEVATION
 40
0.0
  9
$PELEVATION
 40
0.0
  9
$THICKNESS
 40
0.0
  9
$LIMCHECK
 70
     0
  9
$BLIPMODE
 70
     0
  9
$CHAMFERA
 40
2.0
  9
$CHAMFERB
 40
2.0
  9
$SKPOLY
 70
     0
  9
$TDCREATE
 40
2453095.4929404748
  9
$TDUPDATE
 40
2456727.6867767712
  9
$TDINDWG
 40
18.400995925899998
  9
$TDUSRTIMER
 40
18.400995023099998
  9
$USRTIMER
 70
     1
  9
$ANGBASE
 50
0.0
  9
$ANGDIR
 70
     0
  9
$PDMODE
 70
    35
  9
$PDSIZE
 40
2.0
  9
$PLINEWID
 40
0.0
  9
$COORDS
 70
     1
  9
$SPLFRAME
 70
     0
  9
$SPLINETYPE
 70
     6
  9
$SPLINESEGS
 70
     8
  9
$ATTDIA
 70
     1
  9
$ATTREQ
 70
     1
  9
$HANDLING
 70
     1
  9
$HANDSEED
  5
131D75
  9
$SURFTAB1
 70
     6
  9
$SURFTAB2
 70
     6
  9
$SURFTYPE
 70
     6
  9
$SURFU
 70
     6
  9
$SURFV
 70
     6
  9
$UCSNAME
  2

  9
$UCSORG
 10
0.0
 20
0.0
 30
0.0
  9
$UCSXDIR
 10
1.0
 20
0.0
 30
0.0
  9
$UCSYDIR
 10
0.0
 20
1.0
 30
0.0
  9
$PUCSNAME
  2

  9
$PUCSORG
 10
0.0
 20
0.0
 30
0.0
  9
$PUCSXDIR
 10
1.0
 20
0.0
 30
0.0
  9
$PUCSYDIR
 10
0.0
 20
1.0
 30
0.0
  9
$USERI1
 70
     0
  9
$USERI2
 70
     0
  9
$USERI3
 70
     0
  9
$USERI4
 70
     0
  9
$USERI5
 70
     0
  9
$USERR1
 40
0.0
  9
$USERR2
 40
0.0
  9
$USERR3
 40
0.0
  9
$USERR4
 40
0.0
  9
$USERR5
 40
0.0
  9
$WORLDVIEW
 70
     1
  9
$SHADEDGE
 70
     3
  9
$SHADEDIF
 70
    70
  9
$TILEMODE
 70
     1
  9
$MAXACTVP
 70
    64
  9
$PLIMCHECK
 70
     0
  9
$PEXTMIN
 10
29.066066288948051
 20
20.366566777229309
 30
0.0
  9
$PEXTMAX
 10
261.5945966005325
 20
183.29910099506381
 30
0.0
  9
$PLIMMIN
 10
-3.17498779296875
 20
-3.1749999523162842
  9
$PLIMMAX
 10
293.83566284179687
 20
206.8406708240509
  9
$UNITMODE
 70
     0
  9
$VISRETAIN
 70
     1
  9
$PLINEGEN
 70
     0
  9
$PSLTSCALE
 70
     1
  0
ENDSEC
  0
SECTION
  2
TABLES
  0
TABLE
  2
VPORT
 70
     1
  0
VPORT
  2
*ACTIVE
 70
     0
 10
0.0
 20
0.0
 11
1.0
 21
1.0
 12
5690.2233866510232
 22
-1718.157710046481
 13
0.0
 23
0.0
 14
1.0
 24
1.0
 15
0.0
 25
0.0
 16
0.0
 26
0.0
 36
1.0
 17
0.0
 27
0.0
 37
0.0
 40
10601.24839284548
 41
1.628705148205928
 42
50.0
 43
0.0
 44
0.0
 50
0.0
 51
0.0
 71
     0
 72
   600
 73
     1
 74
     1
 75
     0
 76
     0
 77
     0
 78
     0
  0
ENDTAB
  0
TABLE
  2
LTYPE
 70
     3
  0
LTYPE
  2
CONTINUOUS
 70
     0
  3
Solid line
 72
    65
 73
     0
 40
0.0
  0
LTYPE
  2
ACAD_ISO08W100
 70
     0
  3
ISO long-dash short-dash ____ __ ____ __ ____ _
 72
    65
 73
     4
 40
36.0
 49
24.0
 49
-3.0
 49
6.0
 49
-3.0
  0
LTYPE
  2
ACAD_ISO02W100
 70
     0
  3
ISO dash __ __ __ __ __ __ __ __ __ __ __ __ __
 72
    65
 73
     2
 40
15.0
 49
12.0
 49
-3.0
  0
ENDTAB
  0
TABLE
  2
LAYER
 70
     8
  0
LAYER
  2
0
 70
     0
 62
     7
  6
CONTINUOUS
  0
LAYER
  2
OBJECT
 70
     0
 62
     4
  6
CONTINUOUS
  0
LAYER
  2
DEFPOINTS
 70
     0
 62
     7
  6
CONTINUOUS
  0
LAYER
  2
DIM
 70
     0
 62
     7
  6
CONTINUOUS
  0
LAYER
  2
HIDDEN
 70
     0
 62
     2
  6
ACAD_ISO02W100
  0
LAYER
  2
CENTER
 70
     0
 62
     2
  6
ACAD_ISO08W100
  0
LAYER
  2
DOTS
 70
     0
 62
     1
  6
CONTINUOUS
  0
LAYER
  2
SLIM
 70
     0
 62
     2
  6
CONTINUOUS
  0
ENDTAB
  0
TABLE
  2
STYLE
 70
     2
  0
STYLE
  2
STANDARD
 70
     0
 40
0.0
 41
0.75
 50
0.0
 71
     0
 42
4.0
  3
simplex.shx
  4
bigfont.shx
  0
ENDTAB
  0
TABLE
  2
VIEW
 70
     0
  0
ENDTAB
  0
TABLE
  2
UCS
 70
     0
  0
ENDTAB
  0
TABLE
  2
APPID
 70
    18
  0
APPID
  2
ACAD
 70
     0
  0
APPID
  2
ACADANNOTATIVE
 70
     0
  0
APPID
  2
ACAD_PSEXT
 70
     0
  0
APPID
  2
ACAD_EXEMPT_FROM_CAD_STANDARDS
 70
     0
  0
APPID
  2
ACAECLAYERSTANDARD
 70
     0
  0
APPID
  2
ACAUTHENVIRON
 70
     0
  0
APPID
  2
ACDBDYNAMICBLOCKTRUENAME
 70
     0
  0
APPID
  2
ACDBDYNAMICBLOCKGUID
 70
     0
  0
APPID
  2
ACDBBLOCKREPETAG
 70
     0
  0
APPID
  2
ACDBBLOCKREPBTAG
 70
     0
  0
APPID
  2
ACAD_NAV_VCDISPLAY
 70
     0
  0
APPID
  2
ACAD_DSTYLE_DIMRADIAL_EXTENSION
 70
     0
  0
APPID
  2
ACAD_DSTYLE_DIMJAG
 70
     0
  0
APPID
  2
ACAD_DSTYLE_DIMTALN
 70
     0
  0
APPID
  2
ACADANNOPO
 70
     0
  0
APPID
  2
GRADIENTCOLOR1ACI
 70
     0
  0
APPID
  2
GRADIENTCOLOR2ACI
 70
     0
  0
APPID
  2
ACAD_MLEADERVER
 70
     0
  0
ENDTAB
  0
TABLE
  2
DIMSTYLE
 70
     3
  0
DIMSTYLE
  2
STANDARD
 70
     0
  3

  4

  5

  6

  7

 40
1.0
 41
0.18
 42
0.0625
 43
0.38
 44
0.18
 45
0.0
 46
0.0
 47
0.0
 48
0.0
140
0.18
141
0.09
142
0.0
143
25.399999999999999
144
1.0
145
0.0
146
1.0
147
0.09
 71
     0
 72
     0
 73
     1
 74
     1
 75
     0
 76
     0
 77
     0
 78
     0
170
     0
171
     2
172
     0
173
     0
174
     0
175
     0
176
     0
177
     0
178
     0
  0
DIMSTYLE
  2
S10
 70
     0
  3

  4

  5

  6

  7

 40
10.0
 41
2.0
 42
1.0
 43
10.0
 44
1.0
 45
0.0
 46
0.0
 47
0.0
 48
0.0
140
3.2000000000000002
141
0.0
142
0.0
143
25.399999999999999
144
1.0
145
0.0
146
1.0
147
0.9
 71
     0
 72
     0
 73
     0
 74
     0
 75
     0
 76
     0
 77
     1
 78
     8
170
     0
171
     2
172
     1
173
     0
174
     0
175
     0
176
   256
177
   256
178
   256
  0
ENDTAB
  0
ENDSEC
  0
SECTION
  2
BLOCKS
  0
BLOCK
  8
0
  2
$MODEL_SPACE
 70
     0
 10
0.0
 20
0.0
 30
0.0
  3
$MODEL_SPACE
  1

  0
ENDBLK
  5
131C4F
  8
0
  0
BLOCK
 67
     1
  8
0
  2
$PAPER_SPACE
 70
     0
 10
0.0
 20
0.0
 30
0.0
  3
$PAPER_SPACE
  1

  0
ENDBLK
  5
131C4B
 67
     1
  8
0
  0
BLOCK
  8
0
  2
_OPEN30
 70
     0
 10
0.0
 20
0.0
 30
0.0
  3
_OPEN30
  1

  0
LINE
  5
202
  8
0
  6
BYBLOCK
 62
     0
 10
-1.0
 20
0.26794919
 30
0.0
 11
0.0
 21
0.0
 31
0.0
  0
LINE
  5
203
  8
0
  6
BYBLOCK
 62
     0
 10
0.0
 20
0.0
 30
0.0
 11
-1.0
 21
-0.26794919
 31
0.0
  0
LINE
  5
204
  8
0
  6
BYBLOCK
 62
     0
 10
0.0
 20
0.0
 30
0.0
 11
-1.0
 21
0.0
 31
0.0
  0
ENDBLK
  5
206
  8
0
  0
BLOCK
  8
0
  2
*U3
 70
     1
 10
0.0
 20
0.0
 30
0.0
  3
*U3
  1

  0
TEXT
  5
1310CC
  8
SLIM
 10
258.00000000003462
 20
-3446.952380953292
 30
0.0
 40
26.0
  1
75
 50
270.0
  0
ENDBLK
  5
1310CE
  8
0
  0
BLOCK
  8
0
  2
*U4
 70
     1
 10
0.0
 20
0.0
 30
0.0
  3
*U4
  1

  0
TEXT
  5
1310D0
  8
SLIM
 10
125.0476190476536
 20
-3358.7500000009122
 30
0.0
 40
26.0
  1
100
  0
ENDBLK
  5
1310D2
  8
0
  0
BLOCK
  8
0
  2
*U5
 70
     1
 10
0.0
 20
0.0
 30
0.0
  3
*U5
  1

  0
TEXT
  5
1310D4
  8
SLIM
 10
625.2500000001146
 20
-3437.047619048531
 30
0.0
 40
26.0
  1
100
 50
270.0
  0
ENDBLK
  5
1310D6
  8
0
  0
BLOCK
  8
0
  2
*U6
 70
     1
 10
0.0
 20
0.0
 30
0.0
  3
*U6
  1

  0
TEXT
  5
1310D8
  8
SLIM
 10
485.04761904773358
 20
-3358.7500000009122
 30
0.0
 40
26.0
  1
100
  0
ENDBLK
  5
1310DA
  8
0
  0
BLOCK
  8
0
  2
*U7
 70
     1
 10
0.0
 20
0.0
 30
0.0
  3
*U7
  1

  0
TEXT
  5
1310DC
  8
SLIM
 10
618.0000000001146
 20
-2982.9523809532861
 30
0.0
 40
26.0
  1
65
 50
270.0
  0
ENDBLK
  5
1310DE
  8
0
  0
BLOCK
  8
0
  2
*U8
 70
     1
 10
0.0
 20
0.0
 30
0.0
  3
*U8
  1

  0
TEXT
  5
1310E0
  8
SLIM
 10
485.04761904773358
 20
-2894.7500000009049
 30
0.0
 40
26.0
  1
100
  0
ENDBLK
  5
1310E2
  8
0
  0
BLOCK
  8
0
  2
*U9
 70
     1
 10
0.0
 20
0.0
 30
0.0
  3
*U9
  1

  0
TEXT
  5
1310E4
  8
SLIM
 10
258.00000000003462
 20
-2982.9523809532861
 30
0.0
 40
26.0
  1
50
 50
270.0
  0
ENDBLK
  5
1310E6
  8
0
  0
BLOCK
  8
0
  2
*U10
 70
     1
 10
0.0
 20
0.0
 30
0.0
  3
*U10
  1

  0
TEXT
  5
1310E8
  8
SLIM
 10
125.0476190476536
 20
-2894.7500000009049
 30
0.0
 40
26.0
  1
100
  0
ENDBLK
  5
1310EA
  8
0
  0
BLOCK
  8
0
  2
*U11
 70
     1
 10
0.0
 20
0.0
 30
0.0
  3
*U11
  1

  0
TEXT
  5
1310EC
  8
SLIM
 10
258.00000000003462
 20
-2518.9523809532802
 30
0.0
 40
26.0
  1
75
 50
270.0
  0
ENDBLK
  5
1310EE
  8
0
  0
BLOCK
  8
0
  2
*U12
 70
     1
 10
0.0
 20
0.0
 30
0.0
  3
*U12
  1

  0
TEXT
  5
1310F0
  8
SLIM
 10
134.9523809524155
 20
-2438.0000000008981
 30
0.0
 40
26.0
  1
75
  0
ENDBLK
  5
1310F2
  8
0
  0
BLOCK
  8
0
  2
*U13
 70
     1
 10
0.0
 20
0.0
 30
0.0
  3
*U13
  1

  0
TEXT
  5
1310F4
  8
SLIM
 10
625.2500000001146
 20
-2509.0476190485178
 30
0.0
 40
26.0
  1
100
 50
270.0
  0
ENDBLK
  5
1310F6
  8
0
  0
BLOCK
  8
0
  2
*U14
 70
     1
 10
0.0
 20
0.0
 30
0.0
  3
*U14
  1

  0
TEXT
  5
1310F8
  8
SLIM
 10
494.95238095249528
 20
-2438.0000000008981
 30
0.0
 40
26.0
  1
75
  0
ENDBLK
  5
1310FA
  8
0
  0
BLOCK
  8
0
  2
*U15
 70
     1
 10
0.0
 20
0.0
 30
0.0
  3
*U15
  1

  0
TEXT
  5
1310FC
  8
SLIM
 10
618.0000000001146
 20
-2054.952380953273
 30
0.0
 40
26.0
  1
65
 50
270.0
  0
ENDBLK
  5
1310FE
  8
0
  0
BLOCK
  8
0
  2
*U16
 70
     1
 10
0.0
 20
0.0
 30
0.0
  3
*U16
  1

  0
TEXT
  5
131100
  8
SLIM
 10
494.95238095249528
 20
-1974.000000000892
 30
0.0
 40
26.0
  1
75
  0
ENDBLK
  5
131102
  8
0
  0
BLOCK
  8
0
  2
*U17
 70
     1
 10
0.0
 20
0.0
 30
0.0
  3
*U17
  1

  0
TEXT
  5
131104
  8
SLIM
 10
258.00000000003462
 20
-2054.952380953273
 30
0.0
 40
26.0
  1
50
 50
270.0
  0
ENDBLK
  5
131106
  8
0
  0
BLOCK
  8
0
  2
*U18
 70
     1
 10
0.0
 20
0.0
 30
0.0
  3
*U18
  1

  0
TEXT
  5
131108
  8
SLIM
 10
134.9523809524155
 20
-1974.000000000892
 30
0.0
 40
26.0
  1
75
  0
ENDBLK
  5
13110A
  8
0
  0
BLOCK
  8
0
  2
*U19
 70
     1
 10
0.0
 20
0.0
 30
0.0
  3
*U19
  1

  0
TEXT
  5
13110C
  8
SLIM
 10
258.00000000003462
 20
-1590.9523809532659
 30
0.0
 40
26.0
  1
75
 50
270.0
  0
ENDBLK
  5
13110E
  8
0
  0
BLOCK
  8
0
  2
*U20
 70
     1
 10
0.0
 20
0.0
 30
0.0
  3
*U20
  1

  0
TEXT
  5
131110
  8
SLIM
 10
134.9523809524155
 20
-1510.0000000008849
 30
0.0
 40
26.0
  1
65
  0
ENDBLK
  5
131112
  8
0
  0
BLOCK
  8
0
  2
*U21
 70
     1
 10
0.0
 20
0.0
 30
0.0
  3
*U21
  1

  0
TEXT
  5
131114
  8
SLIM
 10
625.2500000001146
 20
-1581.047619048504
 30
0.0
 40
26.0
  1
100
 50
270.0
  0
ENDBLK
  5
131116
  8
0
  0
BLOCK
  8
0
  2
*U22
 70
     1
 10
0.0
 20
0.0
 30
0.0
  3
*U22
  1

  0
TEXT
  5
131118
  8
SLIM
 10
494.95238095249528
 20
-1510.0000000008849
 30
0.0
 40
26.0
  1
65
  0
ENDBLK
  5
13111A
  8
0
  0
BLOCK
  8
0
  2
*U23
 70
     1
 10
0.0
 20
0.0
 30
0.0
  3
*U23
  1

  0
TEXT
  5
13111C
  8
SLIM
 10
618.0000000001146
 20
-1126.9523809532591
 30
0.0
 40
26.0
  1
65
 50
270.0
  0
ENDBLK
  5
13111E
  8
0
  0
BLOCK
  8
0
  2
*U24
 70
     1
 10
0.0
 20
0.0
 30
0.0
  3
*U24
  1

  0
TEXT
  5
131120
  8
SLIM
 10
494.95238095249528
 20
-1046.0000000008779
 30
0.0
 40
26.0
  1
65
  0
ENDBLK
  5
131122
  8
0
  0
BLOCK
  8
0
  2
*U25
 70
     1
 10
0.0
 20
0.0
 30
0.0
  3
*U25
  1

  0
TEXT
  5
131124
  8
SLIM
 10
258.00000000003462
 20
-1126.9523809532591
 30
0.0
 40
26.0
  1
50
 50
270.0
  0
ENDBLK
  5
131126
  8
0
  0
BLOCK
  8
0
  2
*U26
 70
     1
 10
0.0
 20
0.0
 30
0.0
  3
*U26
  1

  0
TEXT
  5
131128
  8
SLIM
 10
134.9523809524155
 20
-1046.0000000008779
 30
0.0
 40
26.0
  1
65
  0
ENDBLK
  5
13112A
  8
0
  0
BLOCK
  8
0
  2
*U27
 70
     1
 10
0.0
 20
0.0
 30
0.0
  3
*U27
  1

  0
TEXT
  5
13112C
  8
SLIM
 10
258.00000000003462
 20
-662.95238095325271
 30
0.0
 40
26.0
  1
75
 50
270.0
  0
ENDBLK
  5
13112E
  8
0
  0
BLOCK
  8
0
  2
*U28
 70
     1
 10
0.0
 20
0.0
 30
0.0
  3
*U28
  1

  0
TEXT
  5
131130
  8
SLIM
 10
134.9523809524155
 20
-582.00000000087175
 30
0.0
 40
26.0
  1
50
  0
ENDBLK
  5
131132
  8
0
  0
BLOCK
  8
0
  2
*U29
 70
     1
 10
0.0
 20
0.0
 30
0.0
  3
*U29
  1

  0
TEXT
  5
131134
  8
SLIM
 10
625.2500000001146
 20
-653.04761904849079
 30
0.0
 40
26.0
  1
100
 50
270.0
  0
ENDBLK
  5
131136
  8
0
  0
BLOCK
  8
0
  2
*U30
 70
     1
 10
0.0
 20
0.0
 30
0.0
  3
*U30
  1

  0
TEXT
  5
131138
  8
SLIM
 10
494.95238095249528
 20
-582.00000000087175
 30
0.0
 40
26.0
  1
50
  0
ENDBLK
  5
13113A
  8
0
  0
BLOCK
  8
0
  2
*U31
 70
     1
 10
0.0
 20
0.0
 30
0.0
  3
*U31
  1

  0
TEXT
  5
13113C
  8
SLIM
 10
618.0000000001146
 20
-198.95238095324621
 30
0.0
 40
26.0
  1
65
 50
270.0
  0
ENDBLK
  5
13113E
  8
0
  0
BLOCK
  8
0
  2
*U32
 70
     1
 10
0.0
 20
0.0
 30
0.0
  3
*U32
  1

  0
TEXT
  5
131140
  8
SLIM
 10
494.95238095249528
 20
-118.0000000008653
 30
0.0
 40
26.0
  1
50
  0
ENDBLK
  5
131142
  8
0
  0
BLOCK
  8
0
  2
*U33
 70
     1
 10
0.0
 20
0.0
 30
0.0
  3
*U33
  1

  0
TEXT
  5
131144
  8
SLIM
 10
258.00000000003462
 20
-198.95238095324621
 30
0.0
 40
26.0
  1
50
 50
270.0
  0
ENDBLK
  5
131146
  8
0
  0
BLOCK
  8
0
  2
*U34
 70
     1
 10
0.0
 20
0.0
 30
0.0
  3
*U34
  1

  0
TEXT
  5
131148
  8
SLIM
 10
134.9523809524155
 20
-118.0000000008653
 30
0.0
 40
26.0
  1
50
  0
ENDBLK
  5
13114A
  8
0
  0
BLOCK
  8
0
  2
*U35
 70
     1
 10
0.0
 20
0.0
 30
0.0
  3
*U35
  1

  0
TEXT
  5
13119C
  8
DIM
 10
2209.479620594459
 20
-3304.1428571428528
 30
0.0
 40
32.0
  1
A
 50
90.0
 41
0.75
  0
ENDBLK
  5
13119E
  8
0
  0
BLOCK
  8
0
  2
*U36
 70
     1
 10
0.0
 20
0.0
 30
0.0
  3
*U36
  1

  0
TEXT
  5
1311A0
  8
DIM
 10
2207.8409284037348
 20
-3685.9999999999959
 30
0.0
 40
32.0
  1
B
 50
90.0
 41
0.75
  0
ENDBLK
  5
1311A2
  8
0
  0
BLOCK
  8
0
  2
*U37
 70
     1
 10
0.0
 20
0.0
 30
0.0
  3
*U37
  1

  0
TEXT
  5
1311A4
  8
DIM
 10
2061.428571428572
 20
-3158.208121984444
 30
0.0
 40
32.0
  1
C
 41
0.75
  0
ENDBLK
  5
1311A6
  8
0
  0
ENDSEC
  0
SECTION
  2
ENTITIES
  0
LINE
  5
12515F
  8
OBJECT
 10
1825.0
 20
-3699.9999999999959
 30
0.0
 11
5575.0
 21
-3699.9999999999959
 31
0.0
  0
LINE
  5
125161
  8
SLIM
 10
2616.0
 20
-2757.50001604727
 30
0.0
 11
2616.0
 21
-3087.50001604727
 31
0.0
  0
LINE
  5
125162
  8
SLIM
 10
2740.0
 20
-2757.50001604727
 30
0.0
 11
2740.0
 21
-3087.50001604727
 31
0.0
  0
LINE
  5
125163
  8
SLIM
 10
2870.0
 20
-2817.50001604727
 30
0.0
 11
2870.0
 21
-3087.50001604727
 31
0.0
  0
LINE
  5
125164
  8
SLIM
 10
3000.0
 20
-2817.50001604727
 30
0.0
 11
3000.0
 21
-3087.50001604727
 31
0.0
  0
LINE
  5
125165
  8
SLIM
 10
3130.0
 20
-3087.50001604727
 30
0.0
 11
3130.0
 21
-2817.50001604727
 31
0.0
  0
LINE
  5
125166
  8
SLIM
 10
3260.0
 20
-3087.50001604727
 30
0.0
 11
3260.0
 21
-2757.50001604727
 31
0.0
  0
LINE
  5
125167
  8
SLIM
 10
3260.0
 20
-2757.50001604727
 30
0.0
 11
2616.0
 21
-2757.50001604727
 31
0.0
  0
LINE
  5
125168
  8
SLIM
 10
3260.0
 20
-2817.50001604727
 30
0.0
 11
2740.0
 21
-2817.50001604727
 31
0.0
  0
LINE
  5
125169
  8
SLIM
 10
3260.0
 20
-2877.50001604727
 30
0.0
 11
2616.0
 21
-2877.50001604727
 31
0.0
  0
LINE
  5
12516A
  8
SLIM
 10
3260.0
 20
-2947.50001604727
 30
0.0
 11
2616.0
 21
-2947.50001604727
 31
0.0
  0
LINE
  5
12516B
  8
SLIM
 10
3260.0
 20
-3017.50001604727
 30
0.0
 11
2616.0
 21
-3017.50001604727
 31
0.0
  0
LINE
  5
12516C
  8
SLIM
 10
3260.0
 20
-3087.50001604727
 30
0.0
 11
2616.0
 21
-3087.50001604727
 31
0.0
  0
LINE
  5
125181
  8
SLIM
 10
2740.0
 20
-2877.50001604727
 30
0.0
 11
2615.9999722746579
 21
-2757.5
 31
0.0
  0
LINE
  5
1251B6
  8
OBJECT
 10
5323.0
 20
-3515.9999999999968
 30
0.0
 11
5323.0
 21
-3494.9999999999968
 31
0.0
1001
ACDBBLOCKREPETAG
1070
     1
1071
       20
1005
1251B6
  0
LINE
  5
1251B7
  8
OBJECT
 10
5323.0
 20
-3494.9999999999968
 30
0.0
 11
5477.0
 21
-3494.9999999999968
 31
0.0
1001
ACDBBLOCKREPETAG
1070
     1
1071
       21
1005
1251B7
  0
LINE
  5
1251B8
  8
HIDDEN
 10
5343.0
 20
-3564.9999999999968
 30
0.0
 11
5457.0
 21
-3564.9999999999968
 31
0.0
1001
ACDBBLOCKREPETAG
1070
     1
1071
       22
1005
1251B8
  0
LINE
  5
1251B9
  8
OBJECT
 10
5477.0
 20
-3494.9999999999968
 30
0.0
 11
5477.0
 21
-3515.9999999999968
 31
0.0
1001
ACDBBLOCKREPETAG
1070
     1
1071
       23
1005
1251B9
  0
LINE
  5
1251BA
  8
OBJECT
 10
5477.0
 20
-3515.9999999999968
 30
0.0
 11
5323.0
 21
-3515.9999999999968
 31
0.0
1001
ACDBBLOCKREPETAG
1070
     1
1071
       24
1005
1251BA
  0
LINE
  5
1251BB
  8
CENTER
 10
5400.0
 20
-3479.9999999999968
 30
0.0
 11
5400.0
 21
-3714.9999999999968
 31
0.0
1001
ACDBBLOCKREPETAG
1070
     1
1071
       25
1005
1251BB
  0
LINE
  5
1251BC
  8
OBJECT
 10
5325.0
 20
-3578.9999999999968
 30
0.0
 11
5325.0
 21
-3702.9999999999968
 31
0.0
1001
ACDBBLOCKREPETAG
1070
     1
1071
       26
1005
1251BC
  0
LINE
  5
1251BD
  8
OBJECT
 10
5328.0
 20
-3515.9999999999968
 30
0.0
 11
5328.0
 21
-3578.9999999999968
 31
0.0
1001
ACDBBLOCKREPETAG
1070
     1
1071
       27
1005
1251BD
  0
LINE
  5
1251BE
  8
OBJECT
 10
5472.0
 20
-3578.9999999999968
 30
0.0
 11
5472.0
 21
-3515.9999999999968
 31
0.0
1001
ACDBBLOCKREPETAG
1070
     1
1071
       28
1005
1251BE
  0
LINE
  5
1251BF
  8
OBJECT
 10
5475.0
 20
-3578.9999999999968
 30
0.0
 11
5456.7802782663139
 21
-3578.9999999999968
 31
0.0
1001
ACDBBLOCKREPETAG
1070
     1
1071
       30
1005
1251BF
  0
LINE
  5
1251C0
  8
OBJECT
 10
5475.0
 20
-3578.9999999999968
 30
0.0
 11
5475.0
 21
-3702.9999999999968
 31
0.0
1001
ACDBBLOCKREPETAG
1070
     1
1071
       34
1005
1251C0
  0
POINT
  5
1251C1
  8
DOTS
 10
5400.0
 20
-3699.9999999999968
 30
0.0
1001
ACDBBLOCKREPETAG
1070
     1
1071
      187
1005
1251C1
  0
LINE
  5
1251C2
  8
CENTER
 10
5310.0
 20
-3627.9999999999968
 30
0.0
 11
5490.0
 21
-3627.9999999999968
 31
0.0
1001
ACDBBLOCKREPETAG
1070
     1
1071
       23
1005
1251C2
  0
CIRCLE
  5
1251C3
  8
OBJECT
 10
5400.0
 20
-3627.9999999999968
 30
0.0
 40
53.5
1001
ACDBBLOCKREPETAG
1070
     1
1071
       24
1005
1251C3
  0
CIRCLE
  5
1251C4
  8
OBJECT
 10
5400.0
 20
-3627.9999999999968
 30
0.0
 40
67.0
1001
ACDBBLOCKREPETAG
1070
     1
1071
       25
1005
1251C4
  0
ARC
  5
1251C5
  8
OBJECT
 10
5400.0
 20
-3627.9999999999968
 30
0.0
 40
75.0
 50
286.26020470824369
 51
253.73979529175631
1001
ACDBBLOCKREPETAG
1070
     1
1071
       27
1005
1251C5
  0
LINE
  5
1251C6
  8
OBJECT
 10
5379.0
 20
-3699.9999999999968
 30
0.0
 11
5421.0
 21
-3699.9999999999968
 31
0.0
1001
ACDBBLOCKREPETAG
1070
     1
1071
       28
1005
1251C6
  0
LINE
  5
1251C7
  8
OBJECT
 10
5343.2197217336861
 20
-3578.9999999999968
 30
0.0
 11
5325.0
 21
-3578.9999999999968
 31
0.0
1001
ACDBBLOCKREPETAG
1070
     1
1071
       30
1005
1251BF
  0
TEXT
  5
12CC49
  8
SLIM
 10
-0.0000000000000011
 20
282.5
 30
0.0
 40
35.0
  1
※ 100枝（4）がある場合、品名の最後に【管底】が付きます。
 41
0.9
 11
0.0
 21
300.0
 31
0.0
 73
     2
  0
CIRCLE
  5
12E19A
  8
OBJECT
 10
5000.0
 20
-3294.9999999999959
 30
0.0
 40
53.5
1001
ACDBBLOCKREPETAG
1070
     1
1071
      344
1005
12E19A
  0
LINE
  5
12E19B
  8
CENTER
 10
5080.0
 20
-3294.9999999999959
 30
0.0
 11
4905.0
 21
-3294.9999999999959
 31
0.0
1001
ACDBBLOCKREPETAG
1070
     1
1071
       14
1005
12E19B
  0
LINE
  5
12E19C
  8
CENTER
 10
5000.0
 20
-3389.9999999999968
 30
0.0
 11
5000.0
 21
-3199.9999999999959
 31
0.0
1001
ACDBBLOCKREPETAG
1070
     1
1071
       15
1005
12E19C
  0
CIRCLE
  5
12E19D
  8
OBJECT
 10
5000.0
 20
-3294.9999999999959
 30
0.0
 40
70.0
1001
ACDBBLOCKREPETAG
1070
     1
1071
       16
1005
12E19D
  0
CIRCLE
  5
12E19E
  8
OBJECT
 10
5000.0
 20
-3294.9999999999959
 30
0.0
 40
77.0
1001
ACDBBLOCKREPETAG
1070
     1
1071
       17
1005
12E19E
  0
ARC
  5
12E19F
  8
OBJECT
 10
5000.0
 20
-3294.9999999999959
 30
0.0
 40
80.0
 50
50.805032573882329
 51
309.19496742611773
1001
ACDBBLOCKREPETAG
1070
     1
1071
       18
1005
12E19F
  0
LINE
  5
12E1A0
  8
OBJECT
 10
5045.6618002273253
 20
-3232.9999999999959
 30
0.0
 11
5080.0
 21
-3232.9999999999959
 31
0.0
1001
ACDBBLOCKREPETAG
1070
     1
1071
       19
1005
12E1A0
  0
LINE
  5
12E1A1
  8
OBJECT
 10
5045.6618002273253
 20
-3356.9999999999959
 30
0.0
 11
5080.0
 21
-3356.9999999999959
 31
0.0
1001
ACDBBLOCKREPETAG
1070
     1
1071
       20
1005
12E1A1
  0
POINT
  5
12E1A2
  8
DOTS
 10
5000.0
 20
-3294.9999999999959
 30
0.0
1001
ACDBBLOCKREPETAG
1070
     1
1071
       21
1005
12E1A2
  0
CIRCLE
  5
12E1A3
  8
OBJECT
 10
4000.0
 20
-3294.9999999999959
 30
0.0
 40
53.5
1001
ACDBBLOCKREPETAG
1070
     1
1071
      344
1005
12E1A3
  0
LINE
  5
12E1A4
  8
CENTER
 10
4080.0
 20
-3294.9999999999959
 30
0.0
 11
3905.0
 21
-3294.9999999999959
 31
0.0
1001
ACDBBLOCKREPETAG
1070
     1
1071
       14
1005
12E1A4
  0
LINE
  5
12E1A5
  8
CENTER
 10
4000.0
 20
-3389.9999999999968
 30
0.0
 11
4000.0
 21
-3199.9999999999959
 31
0.0
1001
ACDBBLOCKREPETAG
1070
     1
1071
       15
1005
12E1A5
  0
CIRCLE
  5
12E1A6
  8
OBJECT
 10
4000.0
 20
-3294.9999999999959
 30
0.0
 40
70.0
1001
ACDBBLOCKREPETAG
1070
     1
1071
       16
1005
12E1A6
  0
CIRCLE
  5
12E1A7
  8
OBJECT
 10
4000.0
 20
-3294.9999999999959
 30
0.0
 40
77.0
1001
ACDBBLOCKREPETAG
1070
     1
1071
       17
1005
12E1A7
  0
ARC
  5
12E1A8
  8
OBJECT
 10
4000.0
 20
-3294.9999999999959
 30
0.0
 40
80.0
 50
50.805032573862128
 51
309.19496742613791
1001
ACDBBLOCKREPETAG
1070
     1
1071
       18
1005
12E1A8
  0
LINE
  5
12E1A9
  8
OBJECT
 10
4045.661800227324
 20
-3232.9999999999959
 30
0.0
 11
4080.0
 21
-3232.9999999999959
 31
0.0
1001
ACDBBLOCKREPETAG
1070
     1
1071
       19
1005
12E1A9
  0
LINE
  5
12E1AA
  8
OBJECT
 10
4045.661800227324
 20
-3356.9999999999959
 30
0.0
 11
4080.0
 21
-3356.9999999999959
 31
0.0
1001
ACDBBLOCKREPETAG
1070
     1
1071
       20
1005
12E1AA
  0
POINT
  5
12E1AB
  8
DOTS
 10
4000.0
 20
-3294.9999999999959
 30
0.0
1001
ACDBBLOCKREPETAG
1070
     1
1071
       21
1005
12E1AB
  0
CIRCLE
  5
12E1AC
  8
OBJECT
 10
3000.0
 20
-3294.9999999999959
 30
0.0
 40
53.5
1001
ACDBBLOCKREPETAG
1070
     1
1071
      344
1005
12E1AC
  0
LINE
  5
12E1AD
  8
CENTER
 10
3080.0
 20
-3294.9999999999959
 30
0.0
 11
2905.0
 21
-3294.9999999999959
 31
0.0
1001
ACDBBLOCKREPETAG
1070
     1
1071
       14
1005
12E1AD
  0
LINE
  5
12E1AE
  8
CENTER
 10
3000.0
 20
-3389.9999999999968
 30
0.0
 11
3000.0
 21
-3199.9999999999959
 31
0.0
1001
ACDBBLOCKREPETAG
1070
     1
1071
       15
1005
12E1AE
  0
CIRCLE
  5
12E1AF
  8
OBJECT
 10
3000.0
 20
-3294.9999999999959
 30
0.0
 40
70.0
1001
ACDBBLOCKREPETAG
1070
     1
1071
       16
1005
12E1AF
  0
CIRCLE
  5
12E1B0
  8
OBJECT
 10
3000.0
 20
-3294.9999999999959
 30
0.0
 40
77.0
1001
ACDBBLOCKREPETAG
1070
     1
1071
       17
1005
12E1B0
  0
ARC
  5
12E1B1
  8
OBJECT
 10
3000.0
 20
-3294.9999999999959
 30
0.0
 40
80.0
 50
50.805032573862128
 51
309.19496742613791
1001
ACDBBLOCKREPETAG
1070
     1
1071
       18
1005
12E1B1
  0
LINE
  5
12E1B2
  8
OBJECT
 10
3045.6618002273249
 20
-3232.9999999999959
 30
0.0
 11
3080.0
 21
-3232.9999999999959
 31
0.0
1001
ACDBBLOCKREPETAG
1070
     1
1071
       19
1005
12E1B2
  0
LINE
  5
12E1B3
  8
OBJECT
 10
3045.6618002273249
 20
-3356.9999999999959
 30
0.0
 11
3080.0
 21
-3356.9999999999959
 31
0.0
1001
ACDBBLOCKREPETAG
1070
     1
1071
       20
1005
12E1B3
  0
POINT
  5
12E1B4
  8
DOTS
 10
3000.0
 20
-3294.9999999999959
 30
0.0
1001
ACDBBLOCKREPETAG
1070
     1
1071
       21
1005
12E1B4
  0
CIRCLE
  5
12E1B5
  8
OBJECT
 10
2000.0
 20
-3294.9999999999959
 30
0.0
 40
53.5
1001
ACDBBLOCKREPETAG
1070
     1
1071
      344
1005
12E1B5
  0
LINE
  5
12E1B6
  8
CENTER
 10
2080.0
 20
-3294.9999999999959
 30
0.0
 11
1905.0
 21
-3294.9999999999959
 31
0.0
1001
ACDBBLOCKREPETAG
1070
     1
1071
       14
1005
12E1B6
  0
LINE
  5
12E1B7
  8
CENTER
 10
2000.0
 20
-3389.9999999999968
 30
0.0
 11
2000.0
 21
-3199.9999999999959
 31
0.0
1001
ACDBBLOCKREPETAG
1070
     1
1071
       15
1005
12E1B7
  0
CIRCLE
  5
12E1B8
  8
OBJECT
 10
2000.0
 20
-3294.9999999999959
 30
0.0
 40
70.0
1001
ACDBBLOCKREPETAG
1070
     1
1071
       16
1005
12E1B8
  0
CIRCLE
  5
12E1B9
  8
OBJECT
 10
2000.0
 20
-3294.9999999999959
 30
0.0
 40
77.0
1001
ACDBBLOCKREPETAG
1070
     1
1071
       17
1005
12E1B9
  0
ARC
  5
12E1BA
  8
OBJECT
 10
2000.0
 20
-3294.9999999999959
 30
0.0
 40
80.0
 50
50.805032573862128
 51
309.19496742613791
1001
ACDBBLOCKREPETAG
1070
     1
1071
       18
1005
12E1BA
  0
LINE
  5
12E1BB
  8
OBJECT
 10
2045.6618002273251
 20
-3232.9999999999959
 30
0.0
 11
2080.0
 21
-3232.9999999999959
 31
0.0
1001
ACDBBLOCKREPETAG
1070
     1
1071
       19
1005
12E1BB
  0
LINE
  5
12E1BC
  8
OBJECT
 10
2045.6618002273251
 20
-3356.9999999999959
 30
0.0
 11
2080.0
 21
-3356.9999999999959
 31
0.0
1001
ACDBBLOCKREPETAG
1070
     1
1071
       20
1005
12E1BC
  0
POINT
  5
12E1BD
  8
DOTS
 10
2000.0
 20
-3294.9999999999959
 30
0.0
1001
ACDBBLOCKREPETAG
1070
     1
1071
       21
1005
12E1BD
  0
LINE
  5
12E1BE
  8
SLIM
 10
3945.2566704261012
 20
-137.99999999999909
 30
0.0
 11
3955.9548403695781
 21
-127.30183005652231
 31
0.0
1001
GRADIENTCOLOR1ACI
1070
     5
1001
GRADIENTCOLOR2ACI
1070
     2
1001
ACAD
1010
0.0
1020
0.0
1030
0.0
1001
ACDBBLOCKREPETAG
1070
     1
1071
      422
1005
12E1BE
  0
LINE
  5
12E1BF
  8
SLIM
 10
3954.2369265471712
 20
-137.99999999999909
 30
0.0
 11
3972.7507744763329
 21
-119.4861520708364
 31
0.0
1001
GRADIENTCOLOR1ACI
1070
     5
1001
GRADIENTCOLOR2ACI
1070
     2
1001
ACAD
1010
0.0
1020
0.0
1030
0.0
1001
ACDBBLOCKREPETAG
1070
     1
1071
      423
1005
12E1BF
  0
LINE
  5
12E1C0
  8
SLIM
 10
3973.521224312457
 20
-127.6959583557812
 30
0.0
 11
3984.8575146748631
 21
-116.359667993377
 31
0.0
1001
GRADIENTCOLOR1ACI
1070
     5
1001
GRADIENTCOLOR2ACI
1070
     2
1001
ACAD
1010
0.0
1020
0.0
1030
0.0
1001
ACDBBLOCKREPETAG
1070
     1
1071
      424
1005
12E1C0
  0
LINE
  5
12E1C1
  8
SLIM
 10
3985.8944171461271
 20
-124.30302164318159
 30
0.0
 11
3995.0533812002559
 21
-115.1440575890517
 31
0.0
1001
GRADIENTCOLOR1ACI
1070
     5
1001
GRADIENTCOLOR2ACI
1070
     2
1001
ACAD
1010
0.0
1020
0.0
1030
0.0
1001
ACDBBLOCKREPETAG
1070
     1
1071
      425
1005
12E1C1
  0
LINE
  5
12E1C2
  8
SLIM
 10
3996.0777327492078
 20
-123.0999621611699
 30
0.0
 11
4000.0
 21
-119.1776949103767
 31
0.0
1001
GRADIENTCOLOR1ACI
1070
     5
1001
GRADIENTCOLOR2ACI
1070
     2
1001
ACAD
1010
0.0
1020
0.0
1030
0.0
1001
ACDBBLOCKREPETAG
1070
     1
1071
      426
1005
12E1C2
  0
LINE
  5
12E1C3
  8
SLIM
 10
4000.0
 20
-119.1776949103767
 30
0.0
 11
4004.0797313529042
 21
-115.0979635574724
 31
0.0
1001
GRADIENTCOLOR1ACI
1070
     5
1001
GRADIENTCOLOR2ACI
1070
     2
1001
ACAD
1010
0.0
1020
0.0
1030
0.0
1001
ACDBBLOCKREPETAG
1070
     1
1071
      427
1005
12E1C3
  0
LINE
  5
12E1C4
  8
SLIM
 10
4004.9957202542769
 20
-123.1622307771683
 30
0.0
 11
4012.2679784105749
 21
-115.88997262087101
 31
0.0
1001
GRADIENTCOLOR1ACI
1070
     5
1001
GRADIENTCOLOR2ACI
1070
     2
1001
ACAD
1010
0.0
1020
0.0
1030
0.0
1001
ACDBBLOCKREPETAG
1070
     1
1071
      428
1005
12E1C4
  0
LINE
  5
12E1C5
  8
SLIM
 10
4013.028059366964
 20
-124.1101477855505
 30
0.0
 11
4019.7999414573601
 21
-117.3382656951526
 31
0.0
1001
GRADIENTCOLOR1ACI
1070
     5
1001
GRADIENTCOLOR2ACI
1070
     2
1001
ACAD
1010
0.0
1020
0.0
1030
0.0
1001
ACDBBLOCKREPETAG
1070
     1
1071
      429
1005
12E1C5
  0
LINE
  5
12E1C6
  8
SLIM
 10
4020.3740813142458
 20
-125.7443819593383
 30
0.0
 11
4026.7872038672799
 21
-119.3312594063044
 31
0.0
1001
GRADIENTCOLOR1ACI
1070
     5
1001
GRADIENTCOLOR2ACI
1070
     2
1001
ACAD
1010
0.0
1020
0.0
1030
0.0
1001
ACDBBLOCKREPETAG
1070
     1
1071
      430
1005
12E1C6
  0
LINE
  5
12E1C7
  8
SLIM
 10
4027.1524719988752
 20
-127.946247395778
 30
0.0
 11
4033.3030030760319
 21
-121.7957163186195
 31
0.0
1001
GRADIENTCOLOR1ACI
1070
     5
1001
GRADIENTCOLOR2ACI
1070
     2
1001
ACAD
1010
0.0
1020
0.0
1030
0.0
1001
ACDBBLOCKREPETAG
1070
     1
1071
      431
1005
12E1C7
  0
LINE
  5
12E1C8
  8
SLIM
 10
4033.4390986513308
 20
-130.63987686439191
 30
0.0
 11
4039.3973119843781
 21
-124.6816635313439
 31
0.0
1001
GRADIENTCOLOR1ACI
1070
     5
1001
GRADIENTCOLOR2ACI
1070
     2
1001
ACAD
1010
0.0
1020
0.0
1030
0.0
1001
ACDBBLOCKREPETAG
1070
     1
1071
      432
1005
12E1C8
  0
LINE
  5
12E1C9
  8
SLIM
 10
4039.284224621797
 20
-133.77500701499321
 30
0.0
 11
4045.1047705343681
 21
-127.95446110242381
 31
0.0
1001
GRADIENTCOLOR1ACI
1070
     5
1001
GRADIENTCOLOR2ACI
1070
     2
1001
ACAD
1010
0.0
1020
0.0
1030
0.0
1001
ACDBBLOCKREPETAG
1070
     1
1071
      433
1005
12E1C9
  0
LINE
  5
12E1CA
  8
SLIM
 10
4044.7212801698038
 20
-137.31820758805651
 30
0.0
 11
4050.4491557891961
 21
-131.59033196866449
 31
0.0
1001
GRADIENTCOLOR1ACI
1070
     5
1001
GRADIENTCOLOR2ACI
1070
     2
1001
ACAD
1010
0.0
1020
0.0
1030
0.0
1001
ACDBBLOCKREPETAG
1070
     1
1071
      434
1005
12E1CA
  0
LINE
  5
12E1CB
  8
SLIM
 10
4053.0197438789291
 20
-137.99999999999909
 30
0.0
 11
4055.4459941864038
 21
-135.57374969252561
 31
0.0
1001
GRADIENTCOLOR1ACI
1070
     5
1001
GRADIENTCOLOR2ACI
1070
     2
1001
ACAD
1010
0.0
1020
0.0
1030
0.0
1001
ACDBBLOCKREPETAG
1070
     1
1071
      435
1005
12E1CB
  0
LINE
  5
12E1CC
  8
CENTER
 10
4000.0
 20
-279.99999999999909
 30
0.0
 11
4000.0
 21
-99.999999999999091
 31
0.0
1001
ACDBBLOCKREPETAG
1070
     1
1071
      160
1005
12E1CC
  0
CIRCLE
  5
12E1CD
  8
OBJECT
 10
4000.0
 20
-199.99999999999909
 30
0.0
 40
70.0
1001
ACDBBLOCKREPETAG
1070
     1
1071
      161
1005
12E1CD
  0
CIRCLE
  5
12E1CE
  8
OBJECT
 10
4000.0
 20
-199.99999999999909
 30
0.0
 40
77.0
1001
ACDBBLOCKREPETAG
1070
     1
1071
      162
1005
12E1CE
  0
LINE
  5
12E1CF
  8
OBJECT
 10
4045.661800227324
 20
-137.99999999999909
 30
0.0
 11
4080.0
 21
-137.99999999999909
 31
0.0
1001
ACDBBLOCKREPETAG
1070
     1
1071
      164
1005
12E1CF
  0
LINE
  5
12E1D0
  8
OBJECT
 10
4062.0
 20
-261.99999999999909
 30
0.0
 11
4080.0
 21
-261.99999999999909
 31
0.0
1001
ACDBBLOCKREPETAG
1070
     1
1071
      165
1005
12E1D0
  0
LINE
  5
12E1D1
  8
OBJECT
 10
4062.0
 20
-261.99999999999909
 30
0.0
 11
4062.0
 21
-279.99999999999909
 31
0.0
1001
ACDBBLOCKREPETAG
1070
     1
1071
      167
1005
12E1D1
  0
LINE
  5
12E1D2
  8
OBJECT
 10
3938.0
 20
-261.99999999999909
 30
0.0
 11
3938.0
 21
-279.99999999999909
 31
0.0
1001
ACDBBLOCKREPETAG
1070
     1
1071
      168
1005
12E1D2
  0
LINE
  5
12E1D3
  8
OBJECT
 10
3938.0
 20
-261.99999999999909
 30
0.0
 11
3920.0
 21
-261.99999999999909
 31
0.0
1001
ACDBBLOCKREPETAG
1070
     1
1071
      170
1005
12E1D3
  0
LINE
  5
12E1D4
  8
OBJECT
 10
3954.338199772676
 20
-137.99999999999909
 30
0.0
 11
3920.0
 21
-137.99999999999909
 31
0.0
1001
ACDBBLOCKREPETAG
1070
     1
1071
      171
1005
12E1D4
  0
LINE
  5
12E1D5
  8
OBJECT
 10
3945.5527778486362
 20
-254.44722215136329
 30
0.0
 11
3938.0
 21
-261.99999999999909
 31
0.0
1001
ACDBBLOCKREPETAG
1070
     1
1071
      180
1005
12E1D5
  0
LINE
  5
12E1D6
  8
OBJECT
 10
4054.4472221513638
 20
-254.44722215136329
 30
0.0
 11
4062.0
 21
-261.99999999999909
 31
0.0
1001
ACDBBLOCKREPETAG
1070
     1
1071
      181
1005
12E1D6
  0
POINT
  5
12E1D7
  8
DOTS
 10
4000.0
 20
-199.99999999999909
 30
0.0
 50
270.0
1001
ACDBBLOCKREPETAG
1070
     1
1071
      182
1005
12E1D7
  0
ARC
  5
12E1D8
  8
OBJECT
 10
4000.0
 20
-199.99999999999909
 30
0.0
 40
85.0
 50
46.837102859806208
 51
133.16289714019371
1001
ACDBBLOCKREPETAG
1070
     1
1071
      183
1005
12E1D8
  0
CIRCLE
  5
12E1D9
  8
OBJECT
 10
4000.0
 20
-199.99999999999909
 30
0.0
 40
53.5
1001
ACDBBLOCKREPETAG
1070
     1
1071
      352
1005
12E1D9
  0
LINE
  5
12E1DA
  8
CENTER
 10
4080.0
 20
-199.99999999999909
 30
0.0
 11
3920.0
 21
-199.99999999999909
 31
0.0
1001
ACDBBLOCKREPETAG
1070
     1
1071
      158
1005
12E1DA
  0
CIRCLE
  5
12E1DB
  8
OBJECT
 10
2000.0
 20
-199.99999999999909
 30
0.0
 40
53.5
1001
ACDBBLOCKREPETAG
1070
     1
1071
      340
1005
12E1DB
  0
LINE
  5
12E1DC
  8
CENTER
 10
2080.0
 20
-199.99999999999909
 30
0.0
 11
1920.0
 21
-199.99999999999909
 31
0.0
1001
ACDBBLOCKREPETAG
1070
     1
1071
       49
1005
12E1DC
  0
LINE
  5
12E1DD
  8
CENTER
 10
2000.0
 20
-279.99999999999909
 30
0.0
 11
2000.0
 21
-104.9999999999991
 31
0.0
1001
ACDBBLOCKREPETAG
1070
     1
1071
       50
1005
12E1DD
  0
CIRCLE
  5
12E1DE
  8
OBJECT
 10
2000.0
 20
-199.99999999999909
 30
0.0
 40
70.0
1001
ACDBBLOCKREPETAG
1070
     1
1071
       51
1005
12E1DE
  0
CIRCLE
  5
12E1DF
  8
OBJECT
 10
2000.0
 20
-199.99999999999909
 30
0.0
 40
77.0
1001
ACDBBLOCKREPETAG
1070
     1
1071
       52
1005
12E1DF
  0
ARC
  5
12E1E0
  8
OBJECT
 10
2000.0
 20
-199.99999999999909
 30
0.0
 40
80.0
 50
50.805032573864182
 51
129.1949674261358
1001
ACDBBLOCKREPETAG
1070
     1
1071
       53
1005
12E1E0
  0
LINE
  5
12E1E1
  8
OBJECT
 10
2045.6618002273251
 20
-137.99999999999909
 30
0.0
 11
2080.0
 21
-137.99999999999909
 31
0.0
1001
ACDBBLOCKREPETAG
1070
     1
1071
       54
1005
12E1E1
  0
LINE
  5
12E1E2
  8
OBJECT
 10
2062.0
 20
-261.99999999999909
 30
0.0
 11
2080.0
 21
-261.99999999999909
 31
0.0
1001
ACDBBLOCKREPETAG
1070
     1
1071
       55
1005
12E1E2
  0
LINE
  5
12E1E3
  8
OBJECT
 10
2062.0
 20
-261.99999999999909
 30
0.0
 11
2062.0
 21
-279.99999999999909
 31
0.0
1001
ACDBBLOCKREPETAG
1070
     1
1071
       57
1005
12E1E3
  0
LINE
  5
12E1E4
  8
OBJECT
 10
1938.0
 20
-261.99999999999909
 30
0.0
 11
1938.0
 21
-279.99999999999909
 31
0.0
1001
ACDBBLOCKREPETAG
1070
     1
1071
       58
1005
12E1E4
  0
POINT
  5
12E1E5
  8
DOTS
 10
2000.0
 20
-199.99999999999909
 30
0.0
 50
90.0
1001
ACDBBLOCKREPETAG
1070
     1
1071
       59
1005
12E1E5
  0
LINE
  5
12E1E6
  8
OBJECT
 10
1938.0
 20
-261.99999999999909
 30
0.0
 11
1920.0
 21
-261.99999999999909
 31
0.0
1001
ACDBBLOCKREPETAG
1070
     1
1071
       60
1005
12E1E6
  0
LINE
  5
12E1E7
  8
OBJECT
 10
1954.3381997726749
 20
-137.99999999999909
 30
0.0
 11
1920.0
 21
-137.99999999999909
 31
0.0
1001
ACDBBLOCKREPETAG
1070
     1
1071
       61
1005
12E1E7
  0
LINE
  5
12E1E8
  8
OBJECT
 10
1945.5527778486351
 20
-254.44722215136329
 30
0.0
 11
1938.0
 21
-261.99999999999909
 31
0.0
1001
ACDBBLOCKREPETAG
1070
     1
1071
       42
1005
12E1E8
  0
LINE
  5
12E1E9
  8
OBJECT
 10
2054.4472221513638
 20
-254.44722215136329
 30
0.0
 11
2062.0
 21
-261.99999999999909
 31
0.0
1001
ACDBBLOCKREPETAG
1070
     1
1071
       43
1005
12E1E9
  0
CIRCLE
  5
12E1EA
  8
OBJECT
 10
515.99999999987813
 20
-3467.9999999988931
 30
0.0
 40
70.0
1001
ACDBBLOCKREPETAG
1070
     1
1071
       43
1005
12E1EA
  0
CIRCLE
  5
12E1EB
  8
OBJECT
 10
515.99999999987813
 20
-3467.9999999988931
 30
0.0
 40
77.0
1001
ACDBBLOCKREPETAG
1070
     1
1071
       44
1005
12E1EB
  0
ARC
  5
12E1EC
  8
OBJECT
 10
515.99999999987813
 20
-3467.9999999988931
 30
0.0
 40
80.0
 50
140.80503257378879
 51
219.19496742621121
1001
ACDBBLOCKREPETAG
1070
     1
1071
       45
1005
12E1EC
  0
LINE
  5
12E1ED
  8
OBJECT
 10
453.99999999987801
 20
-3422.3381997715692
 30
0.0
 11
453.99999999987801
 21
-3387.9999999988931
 31
0.0
1001
ACDBBLOCKREPETAG
1070
     1
1071
       46
1005
12E1ED
  0
LINE
  5
12E1EE
  8
OBJECT
 10
577.99999999987813
 20
-3405.9999999988931
 30
0.0
 11
577.99999999987813
 21
-3387.9999999988931
 31
0.0
1001
ACDBBLOCKREPETAG
1070
     1
1071
       22
1005
12E1EE
  0
LINE
  5
12E1EF
  8
OBJECT
 10
577.99999999987813
 20
-3405.9999999988931
 30
0.0
 11
595.99999999987813
 21
-3405.9999999988931
 31
0.0
1001
ACDBBLOCKREPETAG
1070
     1
1071
       24
1005
12E1EF
  0
LINE
  5
12E1F0
  8
OBJECT
 10
577.99999999987813
 20
-3529.9999999988941
 30
0.0
 11
595.99999999987813
 21
-3529.9999999988941
 31
0.0
1001
ACDBBLOCKREPETAG
1070
     1
1071
       25
1005
12E1F0
  0
LINE
  5
12E1F1
  8
OBJECT
 10
577.99999999987813
 20
-3529.9999999988941
 30
0.0
 11
577.99999999987813
 21
-3547.9999999988931
 31
0.0
1001
ACDBBLOCKREPETAG
1070
     1
1071
       27
1005
12E1F1
  0
LINE
  5
12E1F2
  8
OBJECT
 10
453.99999999987801
 20
-3513.6618002262189
 30
0.0
 11
453.99999999987801
 21
-3547.9999999988931
 31
0.0
1001
ACDBBLOCKREPETAG
1070
     1
1071
       28
1005
12E1F2
  0
LINE
  5
12E1F3
  8
OBJECT
 10
570.44722215124239
 20
-3522.4472221502569
 30
0.0
 11
577.99999999987813
 21
-3529.9999999988941
 31
0.0
1001
ACDBBLOCKREPETAG
1070
     1
1071
       37
1005
12E1F3
  0
LINE
  5
12E1F4
  8
OBJECT
 10
570.44722215124239
 20
-3413.5527778475298
 30
0.0
 11
577.99999999987813
 21
-3405.9999999988931
 31
0.0
1001
ACDBBLOCKREPETAG
1070
     1
1071
       38
1005
12E1F4
  0
POINT
  5
12E1F5
  8
DOTS
 10
515.99999999987813
 20
-3467.9999999988931
 30
0.0
1001
ACDBBLOCKREPETAG
1070
     1
1071
       39
1005
12E1F5
  0
CIRCLE
  5
12E1F6
  8
OBJECT
 10
515.99999999987813
 20
-3467.9999999988931
 30
0.0
 40
53.5
1001
ACDBBLOCKREPETAG
1070
     1
1071
      153
1005
12E1F6
  0
CIRCLE
  5
12E1F7
  8
OBJECT
 10
156.0
 20
-3467.9999999988931
 30
0.0
 40
70.0
1001
ACDBBLOCKREPETAG
1070
     1
1071
       43
1005
12E1F7
  0
CIRCLE
  5
12E1F8
  8
OBJECT
 10
156.0
 20
-3467.9999999988931
 30
0.0
 40
77.0
1001
ACDBBLOCKREPETAG
1070
     1
1071
       44
1005
12E1F8
  0
ARC
  5
12E1F9
  8
OBJECT
 10
156.0
 20
-3467.9999999988931
 30
0.0
 40
80.0
 50
140.80503257378979
 51
219.1949674262101
1001
ACDBBLOCKREPETAG
1070
     1
1071
       45
1005
12E1F9
  0
LINE
  5
12E1FA
  8
OBJECT
 10
94.0
 20
-3422.3381997715692
 30
0.0
 11
94.0
 21
-3387.9999999988931
 31
0.0
1001
ACDBBLOCKREPETAG
1070
     1
1071
       46
1005
12E1FA
  0
LINE
  5
12E1FB
  8
OBJECT
 10
218.0
 20
-3405.9999999988931
 30
0.0
 11
218.0
 21
-3387.9999999988931
 31
0.0
1001
ACDBBLOCKREPETAG
1070
     1
1071
       22
1005
12E1FB
  0
LINE
  5
12E1FC
  8
OBJECT
 10
218.0
 20
-3405.9999999988931
 30
0.0
 11
236.0
 21
-3405.9999999988931
 31
0.0
1001
ACDBBLOCKREPETAG
1070
     1
1071
       24
1005
12E1FC
  0
LINE
  5
12E1FD
  8
OBJECT
 10
218.0
 20
-3529.9999999988941
 30
0.0
 11
236.0
 21
-3529.9999999988941
 31
0.0
1001
ACDBBLOCKREPETAG
1070
     1
1071
       25
1005
12E1FD
  0
LINE
  5
12E1FE
  8
OBJECT
 10
218.0
 20
-3529.9999999988941
 30
0.0
 11
218.0
 21
-3547.9999999988931
 31
0.0
1001
ACDBBLOCKREPETAG
1070
     1
1071
       27
1005
12E1FE
  0
LINE
  5
12E1FF
  8
OBJECT
 10
94.0
 20
-3513.6618002262189
 30
0.0
 11
94.0
 21
-3547.9999999988931
 31
0.0
1001
ACDBBLOCKREPETAG
1070
     1
1071
       28
1005
12E1FF
  0
LINE
  5
12E200
  8
OBJECT
 10
210.44722215136409
 20
-3522.4472221502569
 30
0.0
 11
218.0
 21
-3529.9999999988941
 31
0.0
1001
ACDBBLOCKREPETAG
1070
     1
1071
       37
1005
12E200
  0
LINE
  5
12E201
  8
OBJECT
 10
210.44722215136409
 20
-3413.5527778475298
 30
0.0
 11
218.0
 21
-3405.9999999988931
 31
0.0
1001
ACDBBLOCKREPETAG
1070
     1
1071
       38
1005
12E201
  0
POINT
  5
12E202
  8
DOTS
 10
156.0
 20
-3467.9999999988931
 30
0.0
1001
ACDBBLOCKREPETAG
1070
     1
1071
       39
1005
12E202
  0
CIRCLE
  5
12E203
  8
OBJECT
 10
156.0
 20
-3467.9999999988931
 30
0.0
 40
53.5
1001
ACDBBLOCKREPETAG
1070
     1
1071
      153
1005
12E203
  0
CIRCLE
  5
12E204
  8
OBJECT
 10
515.99999999987813
 20
-3003.9999999990509
 30
0.0
 40
70.0
1001
ACDBBLOCKREPETAG
1070
     1
1071
       43
1005
12E204
  0
CIRCLE
  5
12E205
  8
OBJECT
 10
515.99999999987813
 20
-3003.9999999990509
 30
0.0
 40
77.0
1001
ACDBBLOCKREPETAG
1070
     1
1071
       44
1005
12E205
  0
ARC
  5
12E206
  8
OBJECT
 10
515.99999999987813
 20
-3003.9999999990509
 30
0.0
 40
80.0
 50
140.80503257378879
 51
219.19496742621121
1001
ACDBBLOCKREPETAG
1070
     1
1071
       45
1005
12E206
  0
LINE
  5
12E207
  8
OBJECT
 10
453.99999999987801
 20
-2958.338199771727
 30
0.0
 11
453.99999999987801
 21
-2923.9999999990532
 31
0.0
1001
ACDBBLOCKREPETAG
1070
     1
1071
       46
1005
12E207
  0
LINE
  5
12E208
  8
OBJECT
 10
577.99999999987813
 20
-2941.9999999990509
 30
0.0
 11
577.99999999987813
 21
-2923.9999999990532
 31
0.0
1001
ACDBBLOCKREPETAG
1070
     1
1071
       22
1005
12E208
  0
LINE
  5
12E209
  8
OBJECT
 10
577.99999999987813
 20
-2941.9999999990509
 30
0.0
 11
595.99999999987813
 21
-2941.9999999990509
 31
0.0
1001
ACDBBLOCKREPETAG
1070
     1
1071
       24
1005
12E209
  0
LINE
  5
12E20A
  8
OBJECT
 10
577.99999999987813
 20
-3065.9999999990532
 30
0.0
 11
595.99999999987813
 21
-3065.9999999990532
 31
0.0
1001
ACDBBLOCKREPETAG
1070
     1
1071
       25
1005
12E20A
  0
LINE
  5
12E20B
  8
OBJECT
 10
577.99999999987813
 20
-3065.9999999990532
 30
0.0
 11
577.99999999987813
 21
-3083.9999999990509
 31
0.0
1001
ACDBBLOCKREPETAG
1070
     1
1071
       27
1005
12E20B
  0
LINE
  5
12E20C
  8
OBJECT
 10
453.99999999987801
 20
-3049.6618002263758
 30
0.0
 11
453.99999999987801
 21
-3083.9999999990509
 31
0.0
1001
ACDBBLOCKREPETAG
1070
     1
1071
       28
1005
12E20C
  0
LINE
  5
12E20D
  8
OBJECT
 10
570.44722215124239
 20
-3058.4472221504161
 30
0.0
 11
577.99999999987813
 21
-3065.9999999990532
 31
0.0
1001
ACDBBLOCKREPETAG
1070
     1
1071
       37
1005
12E20D
  0
LINE
  5
12E20E
  8
OBJECT
 10
570.44722215124239
 20
-2949.5527778476871
 30
0.0
 11
577.99999999987813
 21
-2941.9999999990509
 31
0.0
1001
ACDBBLOCKREPETAG
1070
     1
1071
       38
1005
12E20E
  0
POINT
  5
12E20F
  8
DOTS
 10
515.99999999987813
 20
-3003.9999999990509
 30
0.0
1001
ACDBBLOCKREPETAG
1070
     1
1071
       39
1005
12E20F
  0
CIRCLE
  5
12E210
  8
OBJECT
 10
515.99999999987813
 20
-3003.9999999990509
 30
0.0
 40
53.5
1001
ACDBBLOCKREPETAG
1070
     1
1071
      153
1005
12E210
  0
CIRCLE
  5
12E211
  8
OBJECT
 10
156.0
 20
-3003.9999999990509
 30
0.0
 40
70.0
1001
ACDBBLOCKREPETAG
1070
     1
1071
       43
1005
12E211
  0
CIRCLE
  5
12E212
  8
OBJECT
 10
156.0
 20
-3003.9999999990509
 30
0.0
 40
77.0
1001
ACDBBLOCKREPETAG
1070
     1
1071
       44
1005
12E212
  0
ARC
  5
12E213
  8
OBJECT
 10
156.0
 20
-3003.9999999990509
 30
0.0
 40
80.0
 50
140.80503257378979
 51
219.1949674262101
1001
ACDBBLOCKREPETAG
1070
     1
1071
       45
1005
12E213
  0
LINE
  5
12E214
  8
OBJECT
 10
94.0
 20
-2958.3381997717261
 30
0.0
 11
94.0
 21
-2923.9999999990509
 31
0.0
1001
ACDBBLOCKREPETAG
1070
     1
1071
       46
1005
12E214
  0
LINE
  5
12E215
  8
OBJECT
 10
218.0
 20
-2941.9999999990509
 30
0.0
 11
218.0
 21
-2923.9999999990509
 31
0.0
1001
ACDBBLOCKREPETAG
1070
     1
1071
       22
1005
12E215
  0
LINE
  5
12E216
  8
OBJECT
 10
218.0
 20
-2941.9999999990509
 30
0.0
 11
236.0
 21
-2941.9999999990509
 31
0.0
1001
ACDBBLOCKREPETAG
1070
     1
1071
       24
1005
12E216
  0
LINE
  5
12E217
  8
OBJECT
 10
218.0
 20
-3065.99999999905
 30
0.0
 11
236.0
 21
-3065.99999999905
 31
0.0
1001
ACDBBLOCKREPETAG
1070
     1
1071
       25
1005
12E217
  0
LINE
  5
12E218
  8
OBJECT
 10
218.0
 20
-3065.99999999905
 30
0.0
 11
218.0
 21
-3083.9999999990509
 31
0.0
1001
ACDBBLOCKREPETAG
1070
     1
1071
       27
1005
12E218
  0
LINE
  5
12E219
  8
OBJECT
 10
94.0
 20
-3049.6618002263749
 30
0.0
 11
94.0
 21
-3083.9999999990509
 31
0.0
1001
ACDBBLOCKREPETAG
1070
     1
1071
       28
1005
12E219
  0
LINE
  5
12E21A
  8
OBJECT
 10
210.44722215136409
 20
-3058.4472221504152
 30
0.0
 11
218.0
 21
-3065.99999999905
 31
0.0
1001
ACDBBLOCKREPETAG
1070
     1
1071
       37
1005
12E21A
  0
LINE
  5
12E21B
  8
OBJECT
 10
210.44722215136409
 20
-2949.5527778476849
 30
0.0
 11
218.0
 21
-2941.9999999990509
 31
0.0
1001
ACDBBLOCKREPETAG
1070
     1
1071
       38
1005
12E21B
  0
POINT
  5
12E21C
  8
DOTS
 10
156.0
 20
-3003.9999999990509
 30
0.0
1001
ACDBBLOCKREPETAG
1070
     1
1071
       39
1005
12E21C
  0
CIRCLE
  5
12E21D
  8
OBJECT
 10
156.0
 20
-3003.9999999990509
 30
0.0
 40
53.5
1001
ACDBBLOCKREPETAG
1070
     1
1071
      153
1005
12E21D
  0
CIRCLE
  5
12E21E
  8
OBJECT
 10
515.99999999987779
 20
-2539.9999999992101
 30
0.0
 40
70.0
1001
ACDBBLOCKREPETAG
1070
     1
1071
       43
1005
12E21E
  0
CIRCLE
  5
12E21F
  8
OBJECT
 10
515.99999999987779
 20
-2539.9999999992101
 30
0.0
 40
77.0
1001
ACDBBLOCKREPETAG
1070
     1
1071
       44
1005
12E21F
  0
ARC
  5
12E220
  8
OBJECT
 10
515.99999999987779
 20
-2539.9999999992101
 30
0.0
 40
80.0
 50
140.80503257378879
 51
219.19496742621121
1001
ACDBBLOCKREPETAG
1070
     1
1071
       45
1005
12E220
  0
LINE
  5
12E221
  8
OBJECT
 10
453.99999999987767
 20
-2494.3381997718848
 30
0.0
 11
453.99999999987767
 21
-2459.9999999992101
 31
0.0
1001
ACDBBLOCKREPETAG
1070
     1
1071
       46
1005
12E221
  0
LINE
  5
12E222
  8
OBJECT
 10
577.99999999987779
 20
-2477.9999999992101
 30
0.0
 11
577.99999999987779
 21
-2459.9999999992101
 31
0.0
1001
ACDBBLOCKREPETAG
1070
     1
1071
       22
1005
12E222
  0
LINE
  5
12E223
  8
OBJECT
 10
577.99999999987779
 20
-2477.9999999992101
 30
0.0
 11
595.99999999987756
 21
-2477.9999999992101
 31
0.0
1001
ACDBBLOCKREPETAG
1070
     1
1071
       24
1005
12E223
  0
LINE
  5
12E224
  8
OBJECT
 10
577.99999999987779
 20
-2601.9999999992101
 30
0.0
 11
595.99999999987756
 21
-2601.9999999992101
 31
0.0
1001
ACDBBLOCKREPETAG
1070
     1
1071
       25
1005
12E224
  0
LINE
  5
12E225
  8
OBJECT
 10
577.99999999987779
 20
-2601.9999999992101
 30
0.0
 11
577.99999999987779
 21
-2619.9999999992101
 31
0.0
1001
ACDBBLOCKREPETAG
1070
     1
1071
       27
1005
12E225
  0
LINE
  5
12E226
  8
OBJECT
 10
453.99999999987767
 20
-2585.6618002265341
 30
0.0
 11
453.99999999987767
 21
-2619.9999999992101
 31
0.0
1001
ACDBBLOCKREPETAG
1070
     1
1071
       28
1005
12E226
  0
LINE
  5
12E227
  8
OBJECT
 10
570.44722215124204
 20
-2594.4472221505739
 30
0.0
 11
577.99999999987779
 21
-2601.9999999992101
 31
0.0
1001
ACDBBLOCKREPETAG
1070
     1
1071
       37
1005
12E227
  0
LINE
  5
12E228
  8
OBJECT
 10
570.44722215124204
 20
-2485.5527778478449
 30
0.0
 11
577.99999999987779
 21
-2477.9999999992101
 31
0.0
1001
ACDBBLOCKREPETAG
1070
     1
1071
       38
1005
12E228
  0
POINT
  5
12E229
  8
DOTS
 10
515.99999999987779
 20
-2539.9999999992101
 30
0.0
1001
ACDBBLOCKREPETAG
1070
     1
1071
       39
1005
12E229
  0
CIRCLE
  5
12E22A
  8
OBJECT
 10
515.99999999987779
 20
-2539.9999999992101
 30
0.0
 40
53.5
1001
ACDBBLOCKREPETAG
1070
     1
1071
      153
1005
12E22A
  0
CIRCLE
  5
12E22B
  8
OBJECT
 10
155.9999999999996
 20
-2539.9999999992101
 30
0.0
 40
70.0
1001
ACDBBLOCKREPETAG
1070
     1
1071
       43
1005
12E22B
  0
CIRCLE
  5
12E22C
  8
OBJECT
 10
155.9999999999996
 20
-2539.9999999992101
 30
0.0
 40
77.0
1001
ACDBBLOCKREPETAG
1070
     1
1071
       44
1005
12E22C
  0
ARC
  5
12E22D
  8
OBJECT
 10
155.9999999999996
 20
-2539.9999999992101
 30
0.0
 40
80.0
 50
140.80503257378979
 51
219.1949674262101
1001
ACDBBLOCKREPETAG
1070
     1
1071
       45
1005
12E22D
  0
LINE
  5
12E22E
  8
OBJECT
 10
93.999999999999659
 20
-2494.3381997718848
 30
0.0
 11
93.999999999999659
 21
-2459.9999999992101
 31
0.0
1001
ACDBBLOCKREPETAG
1070
     1
1071
       46
1005
12E22E
  0
LINE
  5
12E22F
  8
OBJECT
 10
217.99999999999969
 20
-2477.9999999992101
 30
0.0
 11
217.99999999999969
 21
-2459.9999999992101
 31
0.0
1001
ACDBBLOCKREPETAG
1070
     1
1071
       22
1005
12E22F
  0
LINE
  5
12E230
  8
OBJECT
 10
217.99999999999969
 20
-2477.9999999992101
 30
0.0
 11
235.99999999999969
 21
-2477.9999999992101
 31
0.0
1001
ACDBBLOCKREPETAG
1070
     1
1071
       24
1005
12E230
  0
LINE
  5
12E231
  8
OBJECT
 10
217.99999999999969
 20
-2601.9999999992101
 30
0.0
 11
235.99999999999969
 21
-2601.9999999992101
 31
0.0
1001
ACDBBLOCKREPETAG
1070
     1
1071
       25
1005
12E231
  0
LINE
  5
12E232
  8
OBJECT
 10
217.99999999999969
 20
-2601.9999999992101
 30
0.0
 11
217.99999999999969
 21
-2619.9999999992101
 31
0.0
1001
ACDBBLOCKREPETAG
1070
     1
1071
       27
1005
12E232
  0
LINE
  5
12E233
  8
OBJECT
 10
93.999999999999659
 20
-2585.6618002265341
 30
0.0
 11
93.999999999999659
 21
-2619.9999999992101
 31
0.0
1001
ACDBBLOCKREPETAG
1070
     1
1071
       28
1005
12E233
  0
LINE
  5
12E234
  8
OBJECT
 10
210.4472221513638
 20
-2594.4472221505739
 30
0.0
 11
217.99999999999969
 21
-2601.9999999992101
 31
0.0
1001
ACDBBLOCKREPETAG
1070
     1
1071
       37
1005
12E234
  0
LINE
  5
12E235
  8
OBJECT
 10
210.4472221513638
 20
-2485.5527778478449
 30
0.0
 11
217.99999999999969
 21
-2477.9999999992101
 31
0.0
1001
ACDBBLOCKREPETAG
1070
     1
1071
       38
1005
12E235
  0
POINT
  5
12E236
  8
DOTS
 10
155.9999999999996
 20
-2539.9999999992101
 30
0.0
1001
ACDBBLOCKREPETAG
1070
     1
1071
       39
1005
12E236
  0
CIRCLE
  5
12E237
  8
OBJECT
 10
155.9999999999996
 20
-2539.9999999992101
 30
0.0
 40
53.5
1001
ACDBBLOCKREPETAG
1070
     1
1071
      153
1005
12E237
  0
CIRCLE
  5
12E238
  8
OBJECT
 10
515.99999999987779
 20
-2075.9999999993679
 30
0.0
 40
70.0
1001
ACDBBLOCKREPETAG
1070
     1
1071
       43
1005
12E238
  0
CIRCLE
  5
12E239
  8
OBJECT
 10
515.99999999987779
 20
-2075.9999999993679
 30
0.0
 40
77.0
1001
ACDBBLOCKREPETAG
1070
     1
1071
       44
1005
12E239
  0
ARC
  5
12E23A
  8
OBJECT
 10
515.99999999987779
 20
-2075.9999999993679
 30
0.0
 40
80.0
 50
140.80503257378879
 51
219.19496742621121
1001
ACDBBLOCKREPETAG
1070
     1
1071
       45
1005
12E23A
  0
LINE
  5
12E23B
  8
OBJECT
 10
453.99999999987767
 20
-2030.3381997720439
 30
0.0
 11
453.99999999987767
 21
-1995.9999999993679
 31
0.0
1001
ACDBBLOCKREPETAG
1070
     1
1071
       46
1005
12E23B
  0
LINE
  5
12E23C
  8
OBJECT
 10
577.99999999987779
 20
-2013.9999999993679
 30
0.0
 11
577.99999999987779
 21
-1995.9999999993679
 31
0.0
1001
ACDBBLOCKREPETAG
1070
     1
1071
       22
1005
12E23C
  0
LINE
  5
12E23D
  8
OBJECT
 10
577.99999999987779
 20
-2013.9999999993679
 30
0.0
 11
595.99999999987756
 21
-2013.9999999993679
 31
0.0
1001
ACDBBLOCKREPETAG
1070
     1
1071
       24
1005
12E23D
  0
LINE
  5
12E23E
  8
OBJECT
 10
577.99999999987779
 20
-2137.9999999993679
 30
0.0
 11
595.99999999987756
 21
-2137.9999999993679
 31
0.0
1001
ACDBBLOCKREPETAG
1070
     1
1071
       25
1005
12E23E
  0
LINE
  5
12E23F
  8
OBJECT
 10
577.99999999987779
 20
-2137.9999999993679
 30
0.0
 11
577.99999999987779
 21
-2155.9999999993679
 31
0.0
1001
ACDBBLOCKREPETAG
1070
     1
1071
       27
1005
12E23F
  0
LINE
  5
12E240
  8
OBJECT
 10
453.99999999987767
 20
-2121.6618002266919
 30
0.0
 11
453.99999999987767
 21
-2155.9999999993679
 31
0.0
1001
ACDBBLOCKREPETAG
1070
     1
1071
       28
1005
12E240
  0
LINE
  5
12E241
  8
OBJECT
 10
570.44722215124204
 20
-2130.4472221507322
 30
0.0
 11
577.99999999987779
 21
-2137.9999999993679
 31
0.0
1001
ACDBBLOCKREPETAG
1070
     1
1071
       37
1005
12E241
  0
LINE
  5
12E242
  8
OBJECT
 10
570.44722215124204
 20
-2021.5527778480041
 30
0.0
 11
577.99999999987779
 21
-2013.9999999993679
 31
0.0
1001
ACDBBLOCKREPETAG
1070
     1
1071
       38
1005
12E242
  0
POINT
  5
12E243
  8
DOTS
 10
515.99999999987779
 20
-2075.9999999993679
 30
0.0
1001
ACDBBLOCKREPETAG
1070
     1
1071
       39
1005
12E243
  0
CIRCLE
  5
12E244
  8
OBJECT
 10
515.99999999987779
 20
-2075.9999999993679
 30
0.0
 40
53.5
1001
ACDBBLOCKREPETAG
1070
     1
1071
      153
1005
12E244
  0
CIRCLE
  5
12E245
  8
OBJECT
 10
155.9999999999996
 20
-2075.999999999367
 30
0.0
 40
70.0
1001
ACDBBLOCKREPETAG
1070
     1
1071
       43
1005
12E245
  0
CIRCLE
  5
12E246
  8
OBJECT
 10
155.9999999999996
 20
-2075.999999999367
 30
0.0
 40
77.0
1001
ACDBBLOCKREPETAG
1070
     1
1071
       44
1005
12E246
  0
ARC
  5
12E247
  8
OBJECT
 10
155.9999999999996
 20
-2075.999999999367
 30
0.0
 40
80.0
 50
140.80503257378979
 51
219.1949674262101
1001
ACDBBLOCKREPETAG
1070
     1
1071
       45
1005
12E247
  0
LINE
  5
12E248
  8
OBJECT
 10
93.999999999999659
 20
-2030.3381997720419
 30
0.0
 11
93.999999999999659
 21
-1995.999999999367
 31
0.0
1001
ACDBBLOCKREPETAG
1070
     1
1071
       46
1005
12E248
  0
LINE
  5
12E249
  8
OBJECT
 10
217.99999999999969
 20
-2013.999999999367
 30
0.0
 11
217.99999999999969
 21
-1995.999999999367
 31
0.0
1001
ACDBBLOCKREPETAG
1070
     1
1071
       22
1005
12E249
  0
LINE
  5
12E24A
  8
OBJECT
 10
217.99999999999969
 20
-2013.999999999367
 30
0.0
 11
235.99999999999969
 21
-2013.999999999367
 31
0.0
1001
ACDBBLOCKREPETAG
1070
     1
1071
       24
1005
12E24A
  0
LINE
  5
12E24B
  8
OBJECT
 10
217.99999999999969
 20
-2137.999999999367
 30
0.0
 11
235.99999999999969
 21
-2137.999999999367
 31
0.0
1001
ACDBBLOCKREPETAG
1070
     1
1071
       25
1005
12E24B
  0
LINE
  5
12E24C
  8
OBJECT
 10
217.99999999999969
 20
-2137.999999999367
 30
0.0
 11
217.99999999999969
 21
-2155.999999999367
 31
0.0
1001
ACDBBLOCKREPETAG
1070
     1
1071
       27
1005
12E24C
  0
LINE
  5
12E24D
  8
OBJECT
 10
93.999999999999659
 20
-2121.6618002266919
 30
0.0
 11
93.999999999999659
 21
-2155.999999999367
 31
0.0
1001
ACDBBLOCKREPETAG
1070
     1
1071
       28
1005
12E24D
  0
LINE
  5
12E24E
  8
OBJECT
 10
210.4472221513638
 20
-2130.4472221507308
 30
0.0
 11
217.99999999999969
 21
-2137.999999999367
 31
0.0
1001
ACDBBLOCKREPETAG
1070
     1
1071
       37
1005
12E24E
  0
LINE
  5
12E24F
  8
OBJECT
 10
210.4472221513638
 20
-2021.552777848003
 30
0.0
 11
217.99999999999969
 21
-2013.999999999367
 31
0.0
1001
ACDBBLOCKREPETAG
1070
     1
1071
       38
1005
12E24F
  0
POINT
  5
12E250
  8
DOTS
 10
155.9999999999996
 20
-2075.999999999367
 30
0.0
1001
ACDBBLOCKREPETAG
1070
     1
1071
       39
1005
12E250
  0
CIRCLE
  5
12E251
  8
OBJECT
 10
155.9999999999996
 20
-2075.999999999367
 30
0.0
 40
53.5
1001
ACDBBLOCKREPETAG
1070
     1
1071
      153
1005
12E251
  0
CIRCLE
  5
12E252
  8
OBJECT
 10
515.99999999987801
 20
-1611.9999999995259
 30
0.0
 40
70.0
1001
ACDBBLOCKREPETAG
1070
     1
1071
       43
1005
12E252
  0
CIRCLE
  5
12E253
  8
OBJECT
 10
515.99999999987801
 20
-1611.9999999995259
 30
0.0
 40
77.0
1001
ACDBBLOCKREPETAG
1070
     1
1071
       44
1005
12E253
  0
ARC
  5
12E254
  8
OBJECT
 10
515.99999999987801
 20
-1611.9999999995259
 30
0.0
 40
80.0
 50
140.8050325737787
 51
219.1949674262213
1001
ACDBBLOCKREPETAG
1070
     1
1071
       45
1005
12E254
  0
LINE
  5
12E255
  8
OBJECT
 10
453.99999999987801
 20
-1566.338199772202
 30
0.0
 11
453.99999999987801
 21
-1531.9999999995259
 31
0.0
1001
ACDBBLOCKREPETAG
1070
     1
1071
       46
1005
12E255
  0
LINE
  5
12E256
  8
OBJECT
 10
577.9999999998779
 20
-1549.9999999995259
 30
0.0
 11
577.9999999998779
 21
-1531.9999999995259
 31
0.0
1001
ACDBBLOCKREPETAG
1070
     1
1071
       22
1005
12E256
  0
LINE
  5
12E257
  8
OBJECT
 10
577.9999999998779
 20
-1549.9999999995259
 30
0.0
 11
595.99999999987801
 21
-1549.9999999995259
 31
0.0
1001
ACDBBLOCKREPETAG
1070
     1
1071
       24
1005
12E257
  0
LINE
  5
12E258
  8
OBJECT
 10
577.9999999998779
 20
-1673.9999999995259
 30
0.0
 11
595.99999999987801
 21
-1673.9999999995259
 31
0.0
1001
ACDBBLOCKREPETAG
1070
     1
1071
       25
1005
12E258
  0
LINE
  5
12E259
  8
OBJECT
 10
577.9999999998779
 20
-1673.9999999995259
 30
0.0
 11
577.9999999998779
 21
-1691.9999999995259
 31
0.0
1001
ACDBBLOCKREPETAG
1070
     1
1071
       27
1005
12E259
  0
LINE
  5
12E25A
  8
OBJECT
 10
453.99999999987801
 20
-1657.661800226851
 30
0.0
 11
453.99999999987801
 21
-1691.9999999995259
 31
0.0
1001
ACDBBLOCKREPETAG
1070
     1
1071
       28
1005
12E25A
  0
LINE
  5
12E25B
  8
OBJECT
 10
570.44722215124204
 20
-1666.44722215089
 30
0.0
 11
577.9999999998779
 21
-1673.9999999995259
 31
0.0
1001
ACDBBLOCKREPETAG
1070
     1
1071
       37
1005
12E25B
  0
LINE
  5
12E25C
  8
OBJECT
 10
570.44722215124204
 20
-1557.5527778481619
 30
0.0
 11
577.9999999998779
 21
-1549.9999999995259
 31
0.0
1001
ACDBBLOCKREPETAG
1070
     1
1071
       38
1005
12E25C
  0
POINT
  5
12E25D
  8
DOTS
 10
515.99999999987801
 20
-1611.9999999995259
 30
0.0
1001
ACDBBLOCKREPETAG
1070
     1
1071
       39
1005
12E25D
  0
CIRCLE
  5
12E25E
  8
OBJECT
 10
515.99999999987801
 20
-1611.9999999995259
 30
0.0
 40
53.5
1001
ACDBBLOCKREPETAG
1070
     1
1071
      153
1005
12E25E
  0
CIRCLE
  5
12E25F
  8
OBJECT
 10
155.9999999999998
 20
-1611.9999999995259
 30
0.0
 40
70.0
1001
ACDBBLOCKREPETAG
1070
     1
1071
       43
1005
12E25F
  0
CIRCLE
  5
12E260
  8
OBJECT
 10
155.9999999999998
 20
-1611.9999999995259
 30
0.0
 40
77.0
1001
ACDBBLOCKREPETAG
1070
     1
1071
       44
1005
12E260
  0
ARC
  5
12E261
  8
OBJECT
 10
155.9999999999998
 20
-1611.9999999995259
 30
0.0
 40
80.0
 50
140.80503257377961
 51
219.1949674262203
1001
ACDBBLOCKREPETAG
1070
     1
1071
       45
1005
12E261
  0
LINE
  5
12E262
  8
OBJECT
 10
93.999999999999872
 20
-1566.338199772202
 30
0.0
 11
93.999999999999872
 21
-1531.9999999995259
 31
0.0
1001
ACDBBLOCKREPETAG
1070
     1
1071
       46
1005
12E262
  0
LINE
  5
12E263
  8
OBJECT
 10
217.99999999999989
 20
-1549.9999999995259
 30
0.0
 11
217.99999999999989
 21
-1531.9999999995259
 31
0.0
1001
ACDBBLOCKREPETAG
1070
     1
1071
       22
1005
12E263
  0
LINE
  5
12E264
  8
OBJECT
 10
217.99999999999989
 20
-1549.9999999995259
 30
0.0
 11
235.99999999999989
 21
-1549.9999999995259
 31
0.0
1001
ACDBBLOCKREPETAG
1070
     1
1071
       24
1005
12E264
  0
LINE
  5
12E265
  8
OBJECT
 10
217.99999999999989
 20
-1673.9999999995259
 30
0.0
 11
235.99999999999989
 21
-1673.9999999995259
 31
0.0
1001
ACDBBLOCKREPETAG
1070
     1
1071
       25
1005
12E265
  0
LINE
  5
12E266
  8
OBJECT
 10
217.99999999999989
 20
-1673.9999999995259
 30
0.0
 11
217.99999999999989
 21
-1691.9999999995259
 31
0.0
1001
ACDBBLOCKREPETAG
1070
     1
1071
       27
1005
12E266
  0
LINE
  5
12E267
  8
OBJECT
 10
93.999999999999872
 20
-1657.661800226851
 30
0.0
 11
93.999999999999872
 21
-1691.9999999995259
 31
0.0
1001
ACDBBLOCKREPETAG
1070
     1
1071
       28
1005
12E267
  0
LINE
  5
12E268
  8
OBJECT
 10
210.44722215136409
 20
-1666.44722215089
 30
0.0
 11
217.99999999999989
 21
-1673.9999999995259
 31
0.0
1001
ACDBBLOCKREPETAG
1070
     1
1071
       37
1005
12E268
  0
LINE
  5
12E269
  8
OBJECT
 10
210.44722215136409
 20
-1557.5527778481619
 30
0.0
 11
217.99999999999989
 21
-1549.9999999995259
 31
0.0
1001
ACDBBLOCKREPETAG
1070
     1
1071
       38
1005
12E269
  0
POINT
  5
12E26A
  8
DOTS
 10
155.9999999999998
 20
-1611.9999999995259
 30
0.0
1001
ACDBBLOCKREPETAG
1070
     1
1071
       39
1005
12E26A
  0
CIRCLE
  5
12E26B
  8
OBJECT
 10
155.9999999999998
 20
-1611.9999999995259
 30
0.0
 40
53.5
1001
ACDBBLOCKREPETAG
1070
     1
1071
      153
1005
12E26B
  0
CIRCLE
  5
12E26C
  8
OBJECT
 10
515.99999999987801
 20
-1147.999999999684
 30
0.0
 40
70.0
1001
ACDBBLOCKREPETAG
1070
     1
1071
       43
1005
12E26C
  0
CIRCLE
  5
12E26D
  8
OBJECT
 10
515.99999999987801
 20
-1147.999999999684
 30
0.0
 40
77.0
1001
ACDBBLOCKREPETAG
1070
     1
1071
       44
1005
12E26D
  0
ARC
  5
12E26E
  8
OBJECT
 10
515.99999999987801
 20
-1147.999999999684
 30
0.0
 40
80.0
 50
140.8050325737787
 51
219.1949674262213
1001
ACDBBLOCKREPETAG
1070
     1
1071
       45
1005
12E26E
  0
LINE
  5
12E26F
  8
OBJECT
 10
453.99999999987801
 20
-1102.33819977236
 30
0.0
 11
453.99999999987801
 21
-1067.999999999684
 31
0.0
1001
ACDBBLOCKREPETAG
1070
     1
1071
       46
1005
12E26F
  0
LINE
  5
12E270
  8
OBJECT
 10
577.9999999998779
 20
-1085.999999999684
 30
0.0
 11
577.9999999998779
 21
-1067.999999999684
 31
0.0
1001
ACDBBLOCKREPETAG
1070
     1
1071
       22
1005
12E270
  0
LINE
  5
12E271
  8
OBJECT
 10
577.9999999998779
 20
-1085.999999999684
 30
0.0
 11
595.99999999987801
 21
-1085.999999999684
 31
0.0
1001
ACDBBLOCKREPETAG
1070
     1
1071
       24
1005
12E271
  0
LINE
  5
12E272
  8
OBJECT
 10
577.9999999998779
 20
-1209.999999999684
 30
0.0
 11
595.99999999987801
 21
-1209.999999999684
 31
0.0
1001
ACDBBLOCKREPETAG
1070
     1
1071
       25
1005
12E272
  0
LINE
  5
12E273
  8
OBJECT
 10
577.9999999998779
 20
-1209.999999999684
 30
0.0
 11
577.9999999998779
 21
-1227.999999999684
 31
0.0
1001
ACDBBLOCKREPETAG
1070
     1
1071
       27
1005
12E273
  0
LINE
  5
12E274
  8
OBJECT
 10
453.99999999987801
 20
-1193.6618002270091
 30
0.0
 11
453.99999999987801
 21
-1227.999999999684
 31
0.0
1001
ACDBBLOCKREPETAG
1070
     1
1071
       28
1005
12E274
  0
LINE
  5
12E275
  8
OBJECT
 10
570.44722215124204
 20
-1202.4472221510489
 30
0.0
 11
577.9999999998779
 21
-1209.999999999684
 31
0.0
1001
ACDBBLOCKREPETAG
1070
     1
1071
       37
1005
12E275
  0
LINE
  5
12E276
  8
OBJECT
 10
570.44722215124204
 20
-1093.5527778483199
 30
0.0
 11
577.9999999998779
 21
-1085.999999999684
 31
0.0
1001
ACDBBLOCKREPETAG
1070
     1
1071
       38
1005
12E276
  0
POINT
  5
12E277
  8
DOTS
 10
515.99999999987801
 20
-1147.999999999684
 30
0.0
1001
ACDBBLOCKREPETAG
1070
     1
1071
       39
1005
12E277
  0
CIRCLE
  5
12E278
  8
OBJECT
 10
515.99999999987801
 20
-1147.999999999684
 30
0.0
 40
53.5
1001
ACDBBLOCKREPETAG
1070
     1
1071
      153
1005
12E278
  0
CIRCLE
  5
12E279
  8
OBJECT
 10
155.9999999999998
 20
-1147.999999999683
 30
0.0
 40
70.0
1001
ACDBBLOCKREPETAG
1070
     1
1071
       43
1005
12E279
  0
CIRCLE
  5
12E27A
  8
OBJECT
 10
155.9999999999998
 20
-1147.999999999683
 30
0.0
 40
77.0
1001
ACDBBLOCKREPETAG
1070
     1
1071
       44
1005
12E27A
  0
ARC
  5
12E27B
  8
OBJECT
 10
155.9999999999998
 20
-1147.999999999683
 30
0.0
 40
80.0
 50
140.80503257377961
 51
219.1949674262203
1001
ACDBBLOCKREPETAG
1070
     1
1071
       45
1005
12E27B
  0
LINE
  5
12E27C
  8
OBJECT
 10
93.999999999999872
 20
-1102.3381997723591
 30
0.0
 11
93.999999999999872
 21
-1067.999999999683
 31
0.0
1001
ACDBBLOCKREPETAG
1070
     1
1071
       46
1005
12E27C
  0
LINE
  5
12E27D
  8
OBJECT
 10
217.99999999999989
 20
-1085.999999999683
 30
0.0
 11
217.99999999999989
 21
-1067.999999999683
 31
0.0
1001
ACDBBLOCKREPETAG
1070
     1
1071
       22
1005
12E27D
  0
LINE
  5
12E27E
  8
OBJECT
 10
217.99999999999989
 20
-1085.999999999683
 30
0.0
 11
235.99999999999989
 21
-1085.999999999683
 31
0.0
1001
ACDBBLOCKREPETAG
1070
     1
1071
       24
1005
12E27E
  0
LINE
  5
12E27F
  8
OBJECT
 10
217.99999999999989
 20
-1209.999999999683
 30
0.0
 11
235.99999999999989
 21
-1209.999999999683
 31
0.0
1001
ACDBBLOCKREPETAG
1070
     1
1071
       25
1005
12E27F
  0
LINE
  5
12E280
  8
OBJECT
 10
217.99999999999989
 20
-1209.999999999683
 30
0.0
 11
217.99999999999989
 21
-1227.999999999683
 31
0.0
1001
ACDBBLOCKREPETAG
1070
     1
1071
       27
1005
12E280
  0
LINE
  5
12E281
  8
OBJECT
 10
93.999999999999872
 20
-1193.6618002270079
 30
0.0
 11
93.999999999999872
 21
-1227.999999999683
 31
0.0
1001
ACDBBLOCKREPETAG
1070
     1
1071
       28
1005
12E281
  0
LINE
  5
12E282
  8
OBJECT
 10
210.44722215136409
 20
-1202.447222151048
 30
0.0
 11
217.99999999999989
 21
-1209.999999999683
 31
0.0
1001
ACDBBLOCKREPETAG
1070
     1
1071
       37
1005
12E282
  0
LINE
  5
12E283
  8
OBJECT
 10
210.44722215136409
 20
-1093.552777848319
 30
0.0
 11
217.99999999999989
 21
-1085.999999999683
 31
0.0
1001
ACDBBLOCKREPETAG
1070
     1
1071
       38
1005
12E283
  0
POINT
  5
12E284
  8
DOTS
 10
155.9999999999998
 20
-1147.999999999683
 30
0.0
1001
ACDBBLOCKREPETAG
1070
     1
1071
       39
1005
12E284
  0
CIRCLE
  5
12E285
  8
OBJECT
 10
155.9999999999998
 20
-1147.999999999683
 30
0.0
 40
53.5
1001
ACDBBLOCKREPETAG
1070
     1
1071
      153
1005
12E285
  0
CIRCLE
  5
12E286
  8
OBJECT
 10
515.99999999987813
 20
-683.99999999984254
 30
0.0
 40
70.0
1001
ACDBBLOCKREPETAG
1070
     1
1071
       43
1005
12E286
  0
CIRCLE
  5
12E287
  8
OBJECT
 10
515.99999999987813
 20
-683.99999999984254
 30
0.0
 40
77.0
1001
ACDBBLOCKREPETAG
1070
     1
1071
       44
1005
12E287
  0
ARC
  5
12E288
  8
OBJECT
 10
515.99999999987813
 20
-683.99999999984254
 30
0.0
 40
80.0
 50
140.8050325737787
 51
219.1949674262213
1001
ACDBBLOCKREPETAG
1070
     1
1071
       45
1005
12E288
  0
LINE
  5
12E289
  8
OBJECT
 10
453.99999999987801
 20
-638.33819977251824
 30
0.0
 11
453.99999999987801
 21
-603.99999999984266
 31
0.0
1001
ACDBBLOCKREPETAG
1070
     1
1071
       46
1005
12E289
  0
LINE
  5
12E28A
  8
OBJECT
 10
577.99999999987813
 20
-621.99999999984254
 30
0.0
 11
577.99999999987813
 21
-603.99999999984266
 31
0.0
1001
ACDBBLOCKREPETAG
1070
     1
1071
       22
1005
12E28A
  0
LINE
  5
12E28B
  8
OBJECT
 10
577.99999999987813
 20
-621.99999999984254
 30
0.0
 11
595.99999999987813
 21
-621.99999999984254
 31
0.0
1001
ACDBBLOCKREPETAG
1070
     1
1071
       24
1005
12E28B
  0
LINE
  5
12E28C
  8
OBJECT
 10
577.99999999987813
 20
-745.99999999984254
 30
0.0
 11
595.99999999987813
 21
-745.99999999984254
 31
0.0
1001
ACDBBLOCKREPETAG
1070
     1
1071
       25
1005
12E28C
  0
LINE
  5
12E28D
  8
OBJECT
 10
577.99999999987813
 20
-745.99999999984254
 30
0.0
 11
577.99999999987813
 21
-763.99999999984254
 31
0.0
1001
ACDBBLOCKREPETAG
1070
     1
1071
       27
1005
12E28D
  0
LINE
  5
12E28E
  8
OBJECT
 10
453.99999999987801
 20
-729.66180022716708
 30
0.0
 11
453.99999999987801
 21
-763.99999999984254
 31
0.0
1001
ACDBBLOCKREPETAG
1070
     1
1071
       28
1005
12E28E
  0
LINE
  5
12E28F
  8
OBJECT
 10
570.44722215124239
 20
-738.44722215120669
 30
0.0
 11
577.99999999987813
 21
-745.99999999984254
 31
0.0
1001
ACDBBLOCKREPETAG
1070
     1
1071
       37
1005
12E28F
  0
LINE
  5
12E290
  8
OBJECT
 10
570.44722215124239
 20
-629.5527778484784
 30
0.0
 11
577.99999999987813
 21
-621.99999999984254
 31
0.0
1001
ACDBBLOCKREPETAG
1070
     1
1071
       38
1005
12E290
  0
POINT
  5
12E291
  8
DOTS
 10
515.99999999987813
 20
-683.99999999984254
 30
0.0
1001
ACDBBLOCKREPETAG
1070
     1
1071
       39
1005
12E291
  0
CIRCLE
  5
12E292
  8
OBJECT
 10
515.99999999987813
 20
-683.99999999984254
 30
0.0
 40
53.5
1001
ACDBBLOCKREPETAG
1070
     1
1071
      153
1005
12E292
  0
CIRCLE
  5
12E293
  8
OBJECT
 10
156.0
 20
-683.99999999984254
 30
0.0
 40
70.0
1001
ACDBBLOCKREPETAG
1070
     1
1071
       43
1005
12E293
  0
CIRCLE
  5
12E294
  8
OBJECT
 10
156.0
 20
-683.99999999984254
 30
0.0
 40
77.0
1001
ACDBBLOCKREPETAG
1070
     1
1071
       44
1005
12E294
  0
ARC
  5
12E295
  8
OBJECT
 10
156.0
 20
-683.99999999984254
 30
0.0
 40
80.0
 50
140.80503257377961
 51
219.1949674262203
1001
ACDBBLOCKREPETAG
1070
     1
1071
       45
1005
12E295
  0
LINE
  5
12E296
  8
OBJECT
 10
94.0
 20
-638.33819977251824
 30
0.0
 11
94.0
 21
-603.99999999984266
 31
0.0
1001
ACDBBLOCKREPETAG
1070
     1
1071
       46
1005
12E296
  0
LINE
  5
12E297
  8
OBJECT
 10
218.0
 20
-621.99999999984254
 30
0.0
 11
218.0
 21
-603.99999999984266
 31
0.0
1001
ACDBBLOCKREPETAG
1070
     1
1071
       22
1005
12E297
  0
LINE
  5
12E298
  8
OBJECT
 10
218.0
 20
-621.99999999984254
 30
0.0
 11
236.0
 21
-621.99999999984254
 31
0.0
1001
ACDBBLOCKREPETAG
1070
     1
1071
       24
1005
12E298
  0
LINE
  5
12E299
  8
OBJECT
 10
218.0
 20
-745.99999999984254
 30
0.0
 11
236.0
 21
-745.99999999984254
 31
0.0
1001
ACDBBLOCKREPETAG
1070
     1
1071
       25
1005
12E299
  0
LINE
  5
12E29A
  8
OBJECT
 10
218.0
 20
-745.99999999984254
 30
0.0
 11
218.0
 21
-763.99999999984254
 31
0.0
1001
ACDBBLOCKREPETAG
1070
     1
1071
       27
1005
12E29A
  0
LINE
  5
12E29B
  8
OBJECT
 10
94.0
 20
-729.66180022716708
 30
0.0
 11
94.0
 21
-763.99999999984254
 31
0.0
1001
ACDBBLOCKREPETAG
1070
     1
1071
       28
1005
12E29B
  0
LINE
  5
12E29C
  8
OBJECT
 10
210.44722215136409
 20
-738.44722215120669
 30
0.0
 11
218.0
 21
-745.99999999984254
 31
0.0
1001
ACDBBLOCKREPETAG
1070
     1
1071
       37
1005
12E29C
  0
LINE
  5
12E29D
  8
OBJECT
 10
210.44722215136409
 20
-629.5527778484784
 30
0.0
 11
218.0
 21
-621.99999999984254
 31
0.0
1001
ACDBBLOCKREPETAG
1070
     1
1071
       38
1005
12E29D
  0
POINT
  5
12E29E
  8
DOTS
 10
156.0
 20
-683.99999999984254
 30
0.0
1001
ACDBBLOCKREPETAG
1070
     1
1071
       39
1005
12E29E
  0
CIRCLE
  5
12E29F
  8
OBJECT
 10
156.0
 20
-683.99999999984254
 30
0.0
 40
53.5
1001
ACDBBLOCKREPETAG
1070
     1
1071
      153
1005
12E29F
  0
CIRCLE
  5
12E2A0
  8
OBJECT
 10
515.99999999987813
 20
-220.00000000000091
 30
0.0
 40
70.0
1001
ACDBBLOCKREPETAG
1070
     1
1071
       43
1005
12E2A0
  0
CIRCLE
  5
12E2A1
  8
OBJECT
 10
515.99999999987813
 20
-220.00000000000091
 30
0.0
 40
77.0
1001
ACDBBLOCKREPETAG
1070
     1
1071
       44
1005
12E2A1
  0
ARC
  5
12E2A2
  8
OBJECT
 10
515.99999999987813
 20
-220.00000000000091
 30
0.0
 40
80.0
 50
140.80503257378001
 51
219.19496742621999
1001
ACDBBLOCKREPETAG
1070
     1
1071
       45
1005
12E2A2
  0
LINE
  5
12E2A3
  8
OBJECT
 10
453.99999999987801
 20
-174.3381997726764
 30
0.0
 11
453.99999999987801
 21
-140.0000000000008
 31
0.0
1001
ACDBBLOCKREPETAG
1070
     1
1071
       46
1005
12E2A3
  0
LINE
  5
12E2A4
  8
OBJECT
 10
577.99999999987813
 20
-158.0000000000008
 30
0.0
 11
577.99999999987813
 21
-140.0000000000008
 31
0.0
1001
ACDBBLOCKREPETAG
1070
     1
1071
       22
1005
12E2A4
  0
LINE
  5
12E2A5
  8
OBJECT
 10
577.99999999987813
 20
-158.0000000000008
 30
0.0
 11
595.99999999987813
 21
-158.0000000000008
 31
0.0
1001
ACDBBLOCKREPETAG
1070
     1
1071
       24
1005
12E2A5
  0
LINE
  5
12E2A6
  8
OBJECT
 10
577.99999999987813
 20
-282.00000000000091
 30
0.0
 11
595.99999999987813
 21
-282.00000000000091
 31
0.0
1001
ACDBBLOCKREPETAG
1070
     1
1071
       25
1005
12E2A6
  0
LINE
  5
12E2A7
  8
OBJECT
 10
577.99999999987813
 20
-282.00000000000091
 30
0.0
 11
577.99999999987813
 21
-300.0000000000008
 31
0.0
1001
ACDBBLOCKREPETAG
1070
     1
1071
       27
1005
12E2A7
  0
LINE
  5
12E2A8
  8
OBJECT
 10
453.99999999987801
 20
-265.66180022732527
 30
0.0
 11
453.99999999987801
 21
-300.0000000000008
 31
0.0
1001
ACDBBLOCKREPETAG
1070
     1
1071
       28
1005
12E2A8
  0
LINE
  5
12E2A9
  8
OBJECT
 10
570.44722215124239
 20
-274.44722215136511
 30
0.0
 11
577.99999999987813
 21
-282.00000000000091
 31
0.0
1001
ACDBBLOCKREPETAG
1070
     1
1071
       37
1005
12E2A9
  0
LINE
  5
12E2AA
  8
OBJECT
 10
570.44722215124239
 20
-165.55277784863659
 30
0.0
 11
577.99999999987813
 21
-158.0000000000008
 31
0.0
1001
ACDBBLOCKREPETAG
1070
     1
1071
       38
1005
12E2AA
  0
POINT
  5
12E2AB
  8
DOTS
 10
515.99999999987813
 20
-220.00000000000091
 30
0.0
1001
ACDBBLOCKREPETAG
1070
     1
1071
       39
1005
12E2AB
  0
CIRCLE
  5
12E2AC
  8
OBJECT
 10
515.99999999987813
 20
-220.00000000000091
 30
0.0
 40
53.5
1001
ACDBBLOCKREPETAG
1070
     1
1071
      153
1005
12E2AC
  0
CIRCLE
  5
12E2AD
  8
OBJECT
 10
156.0
 20
-220.0
 30
0.0
 40
70.0
1001
ACDBBLOCKREPETAG
1070
     1
1071
       43
1005
12E2AD
  0
CIRCLE
  5
12E2AE
  8
OBJECT
 10
156.0
 20
-220.0
 30
0.0
 40
77.0
1001
ACDBBLOCKREPETAG
1070
     1
1071
       44
1005
12E2AE
  0
ARC
  5
12E2AF
  8
OBJECT
 10
156.0
 20
-220.0
 30
0.0
 40
80.0
 50
140.80503257378101
 51
219.19496742621899
1001
ACDBBLOCKREPETAG
1070
     1
1071
       45
1005
12E2AF
  0
LINE
  5
12E2B0
  8
OBJECT
 10
94.0
 20
-174.33819977267541
 30
0.0
 11
94.0
 21
-140.0
 31
0.0
1001
ACDBBLOCKREPETAG
1070
     1
1071
       46
1005
12E2B0
  0
LINE
  5
12E2B1
  8
OBJECT
 10
218.0
 20
-158.0
 30
0.0
 11
218.0
 21
-140.0
 31
0.0
1001
ACDBBLOCKREPETAG
1070
     1
1071
       22
1005
12E2B1
  0
LINE
  5
12E2B2
  8
OBJECT
 10
218.0
 20
-158.0
 30
0.0
 11
236.0
 21
-158.0
 31
0.0
1001
ACDBBLOCKREPETAG
1070
     1
1071
       24
1005
12E2B2
  0
LINE
  5
12E2B3
  8
OBJECT
 10
218.0
 20
-282.0
 30
0.0
 11
236.0
 21
-282.0
 31
0.0
1001
ACDBBLOCKREPETAG
1070
     1
1071
       25
1005
12E2B3
  0
LINE
  5
12E2B4
  8
OBJECT
 10
218.0
 20
-282.0
 30
0.0
 11
218.0
 21
-300.0
 31
0.0
1001
ACDBBLOCKREPETAG
1070
     1
1071
       27
1005
12E2B4
  0
LINE
  5
12E2B5
  8
OBJECT
 10
94.0
 20
-265.66180022732442
 30
0.0
 11
94.0
 21
-300.0
 31
0.0
1001
ACDBBLOCKREPETAG
1070
     1
1071
       28
1005
12E2B5
  0
LINE
  5
12E2B6
  8
OBJECT
 10
210.44722215136409
 20
-274.44722215136431
 30
0.0
 11
218.0
 21
-282.0
 31
0.0
1001
ACDBBLOCKREPETAG
1070
     1
1071
       37
1005
12E2B6
  0
LINE
  5
12E2B7
  8
OBJECT
 10
210.44722215136409
 20
-165.55277784863571
 30
0.0
 11
218.0
 21
-158.0
 31
0.0
1001
ACDBBLOCKREPETAG
1070
     1
1071
       38
1005
12E2B7
  0
POINT
  5
12E2B8
  8
DOTS
 10
156.0
 20
-220.0
 30
0.0
1001
ACDBBLOCKREPETAG
1070
     1
1071
       39
1005
12E2B8
  0
CIRCLE
  5
12E2B9
  8
OBJECT
 10
156.0
 20
-220.0
 30
0.0
 40
53.5
1001
ACDBBLOCKREPETAG
1070
     1
1071
      153
1005
12E2B9
  0
LINE
  5
12E2BA
  8
CENTER
 10
3899.0
 20
-199.99999999999909
 30
0.0
 11
3920.0
 21
-199.99999999999909
 31
0.0
1001
ACDBBLOCKREPETAG
1070
     1
1071
        0
1005
12E2BA
  0
LINE
  5
12E2BB
  8
OBJECT
 10
3917.0
 20
-261.99999999999909
 30
0.0
 11
3920.0
 21
-261.99999999999909
 31
0.0
1001
ACDBBLOCKREPETAG
1070
     1
1071
        1
1005
12E2BB
  0
ARC
  5
12E2BC
  8
OBJECT
 10
3917.0
 20
-258.99999999999909
 30
0.0
 40
3.0
 50
180.0
 51
270.0
1001
ACDBBLOCKREPETAG
1070
     1
1071
        2
1005
12E2BC
  0
LINE
  5
12E2BD
  8
OBJECT
 10
3920.0
 20
-137.99999999999909
 30
0.0
 11
3917.0
 21
-137.99999999999909
 31
0.0
1001
ACDBBLOCKREPETAG
1070
     1
1071
        3
1005
12E2BD
  0
ARC
  5
12E2BE
  8
OBJECT
 10
3917.0
 20
-140.99999999999909
 30
0.0
 40
3.0
 50
90.0
 51
180.0
1001
ACDBBLOCKREPETAG
1070
     1
1071
        4
1005
12E2BE
  0
LINE
  5
12E2BF
  8
OBJECT
 10
3914.0
 20
-140.99999999999909
 30
0.0
 11
3914.0
 21
-258.99999999999909
 31
0.0
1001
ACDBBLOCKREPETAG
1070
     1
1071
        5
1005
12E2BF
  0
LINE
  5
12E2C0
  8
OBJECT
 10
4062.0
 20
-332.99999999999892
 30
0.0
 11
4062.0
 21
-339.99999999999909
 31
0.0
1001
ACDBBLOCKREPETAG
1070
     1
1071
       47
1005
12E2C0
  0
LINE
  5
12E2C1
  8
OBJECT
 10
4062.0
 20
-339.99999999999909
 30
0.0
 11
3938.0
 21
-339.99999999999909
 31
0.0
1001
ACDBBLOCKREPETAG
1070
     1
1071
       48
1005
12E2C1
  0
LINE
  5
12E2C2
  8
OBJECT
 10
3938.0
 20
-339.99999999999909
 30
0.0
 11
3938.0
 21
-332.99999999999892
 31
0.0
1001
ACDBBLOCKREPETAG
1070
     1
1071
       49
1005
12E2C2
  0
LINE
  5
12E2C3
  8
OBJECT
 10
3938.0
 20
-332.99999999999892
 30
0.0
 11
4062.0
 21
-332.99999999999892
 31
0.0
1001
ACDBBLOCKREPETAG
1070
     1
1071
       50
1005
12E2C3
  0
LINE
  5
12E2C4
  8
CENTER
 10
4000.0
 20
-354.99999999999909
 30
0.0
 11
4000.0
 21
-279.99999999999909
 31
0.0
1001
ACDBBLOCKREPETAG
1070
     1
1071
       51
1005
12E2C4
  0
LINE
  5
12E2C5
  8
OBJECT
 10
4059.0
 20
-332.99999999999892
 30
0.0
 11
4059.0
 21
-296.99999999999892
 31
0.0
1001
ACDBBLOCKREPETAG
1070
     1
1071
       52
1005
12E2C5
  0
LINE
  5
12E2C6
  8
OBJECT
 10
4059.0
 20
-296.99999999999892
 30
0.0
 11
3941.0
 21
-296.99999999999892
 31
0.0
1001
ACDBBLOCKREPETAG
1070
     1
1071
       53
1005
12E2C6
  0
LINE
  5
12E2C7
  8
OBJECT
 10
3941.0
 20
-296.99999999999892
 30
0.0
 11
3941.0
 21
-332.99999999999892
 31
0.0
1001
ACDBBLOCKREPETAG
1070
     1
1071
       54
1005
12E2C7
  0
LINE
  5
12E2C8
  8
OBJECT
 10
4054.4999999999991
 20
-292.99999999999892
 30
0.0
 11
4054.4999999999991
 21
-285.99999999999892
 31
0.0
1001
ACDBBLOCKREPETAG
1070
     1
1071
       55
1005
12E2C8
  0
LINE
  5
12E2C9
  8
OBJECT
 10
3945.5
 20
-285.99999999999892
 30
0.0
 11
3945.5
 21
-292.99999999999892
 31
0.0
1001
ACDBBLOCKREPETAG
1070
     1
1071
       56
1005
12E2C9
  0
LINE
  5
12E2CA
  8
OBJECT
 10
3945.5
 20
-292.99999999999892
 30
0.0
 11
4054.4999999999991
 21
-292.99999999999892
 31
0.0
1001
ACDBBLOCKREPETAG
1070
     1
1071
       57
1005
12E2CA
  0
LINE
  5
12E2CB
  8
OBJECT
 10
4059.0
 20
-296.99999999999892
 30
0.0
 11
4054.4999999999991
 21
-292.99999999999892
 31
0.0
1001
ACDBBLOCKREPETAG
1070
     1
1071
       58
1005
12E2CB
  0
LINE
  5
12E2CC
  8
OBJECT
 10
3941.0
 20
-296.99999999999892
 30
0.0
 11
3945.5
 21
-292.99999999999892
 31
0.0
1001
ACDBBLOCKREPETAG
1070
     1
1071
       59
1005
12E2CC
  0
LINE
  5
12E2CD
  8
OBJECT
 10
4062.0
 20
-283.0
 30
0.0
 11
4062.0
 21
-279.99999999999909
 31
0.0
1001
ACDBBLOCKREPETAG
1070
     1
1071
       60
1005
12E2CD
  0
ARC
  5
12E2CE
  8
OBJECT
 10
4059.0
 20
-283.0
 30
0.0
 40
3.0
 50
270.0
 51
0.0
1001
ACDBBLOCKREPETAG
1070
     1
1071
       61
1005
12E2CE
  0
LINE
  5
12E2CF
  8
OBJECT
 10
3938.0
 20
-279.99999999999909
 30
0.0
 11
3938.0
 21
-282.99999999999818
 31
0.0
1001
ACDBBLOCKREPETAG
1070
     1
1071
       62
1005
12E2CF
  0
ARC
  5
12E2D0
  8
OBJECT
 10
3941.0
 20
-282.99999999999818
 30
0.0
 40
3.0
 50
180.0
 51
270.0
1001
ACDBBLOCKREPETAG
1070
     1
1071
       63
1005
12E2D0
  0
LINE
  5
12E2D1
  8
OBJECT
 10
3941.0
 20
-285.99999999999818
 30
0.0
 11
4059.0
 21
-286.0
 31
0.0
1001
ACDBBLOCKREPETAG
1070
     1
1071
       64
1005
12E2D1
  0
LINE
  5
12E2D2
  8
HIDDEN
 10
4044.5
 20
-287.99999999999909
 30
0.0
 11
3955.5
 21
-287.99999999999909
 31
0.0
1001
ACDBBLOCKREPETAG
1070
     1
1071
       65
1005
12E2D2
  0
LINE
  5
12E2D3
  8
OBJECT
 10
4133.0
 20
-137.99999999999909
 30
0.0
 11
4140.0
 21
-137.99999999999909
 31
0.0
1001
ACDBBLOCKREPETAG
1070
     1
1071
       47
1005
12E2D3
  0
LINE
  5
12E2D4
  8
OBJECT
 10
4140.0
 20
-137.99999999999909
 30
0.0
 11
4140.0
 21
-261.99999999999909
 31
0.0
1001
ACDBBLOCKREPETAG
1070
     1
1071
       48
1005
12E2D4
  0
LINE
  5
12E2D5
  8
OBJECT
 10
4140.0
 20
-261.99999999999909
 30
0.0
 11
4133.0
 21
-261.99999999999909
 31
0.0
1001
ACDBBLOCKREPETAG
1070
     1
1071
       49
1005
12E2D5
  0
LINE
  5
12E2D6
  8
OBJECT
 10
4133.0
 20
-261.99999999999909
 30
0.0
 11
4133.0
 21
-137.99999999999909
 31
0.0
1001
ACDBBLOCKREPETAG
1070
     1
1071
       50
1005
12E2D6
  0
LINE
  5
12E2D7
  8
CENTER
 10
4155.0
 20
-199.99999999999909
 30
0.0
 11
4080.0
 21
-199.99999999999909
 31
0.0
1001
ACDBBLOCKREPETAG
1070
     1
1071
       51
1005
12E2D7
  0
LINE
  5
12E2D8
  8
OBJECT
 10
4133.0
 20
-140.99999999999909
 30
0.0
 11
4097.0
 21
-140.99999999999909
 31
0.0
1001
ACDBBLOCKREPETAG
1070
     1
1071
       52
1005
12E2D8
  0
LINE
  5
12E2D9
  8
OBJECT
 10
4097.0
 20
-140.99999999999909
 30
0.0
 11
4097.0
 21
-258.99999999999909
 31
0.0
1001
ACDBBLOCKREPETAG
1070
     1
1071
       53
1005
12E2D9
  0
LINE
  5
12E2DA
  8
OBJECT
 10
4097.0
 20
-258.99999999999909
 30
0.0
 11
4133.0
 21
-258.99999999999909
 31
0.0
1001
ACDBBLOCKREPETAG
1070
     1
1071
       54
1005
12E2DA
  0
LINE
  5
12E2DB
  8
OBJECT
 10
4093.0
 20
-145.49999999999909
 30
0.0
 11
4086.0
 21
-145.49999999999909
 31
0.0
1001
ACDBBLOCKREPETAG
1070
     1
1071
       55
1005
12E2DB
  0
LINE
  5
12E2DC
  8
OBJECT
 10
4086.0
 20
-254.49999999999909
 30
0.0
 11
4093.0
 21
-254.49999999999909
 31
0.0
1001
ACDBBLOCKREPETAG
1070
     1
1071
       56
1005
12E2DC
  0
LINE
  5
12E2DD
  8
OBJECT
 10
4093.0
 20
-254.49999999999909
 30
0.0
 11
4093.0
 21
-145.49999999999909
 31
0.0
1001
ACDBBLOCKREPETAG
1070
     1
1071
       57
1005
12E2DD
  0
LINE
  5
12E2DE
  8
OBJECT
 10
4097.0
 20
-140.99999999999909
 30
0.0
 11
4093.0
 21
-145.49999999999909
 31
0.0
1001
ACDBBLOCKREPETAG
1070
     1
1071
       58
1005
12E2DE
  0
LINE
  5
12E2DF
  8
OBJECT
 10
4097.0
 20
-258.99999999999909
 30
0.0
 11
4093.0
 21
-254.49999999999909
 31
0.0
1001
ACDBBLOCKREPETAG
1070
     1
1071
       59
1005
12E2DF
  0
LINE
  5
12E2E0
  8
OBJECT
 10
4083.0
 20
-137.99999999999909
 30
0.0
 11
4080.0
 21
-137.99999999999909
 31
0.0
1001
ACDBBLOCKREPETAG
1070
     1
1071
       60
1005
12E2E0
  0
ARC
  5
12E2E1
  8
OBJECT
 10
4083.0
 20
-140.99999999999909
 30
0.0
 40
3.0
 50
0.0
 51
90.0
1001
ACDBBLOCKREPETAG
1070
     1
1071
       61
1005
12E2E1
  0
LINE
  5
12E2E2
  8
OBJECT
 10
4080.0
 20
-261.99999999999909
 30
0.0
 11
4083.0
 21
-261.99999999999909
 31
0.0
1001
ACDBBLOCKREPETAG
1070
     1
1071
       62
1005
12E2E2
  0
ARC
  5
12E2E3
  8
OBJECT
 10
4083.0
 20
-258.99999999999909
 30
0.0
 40
3.0
 50
270.0
 51
0.0
1001
ACDBBLOCKREPETAG
1070
     1
1071
       63
1005
12E2E3
  0
LINE
  5
12E2E4
  8
OBJECT
 10
4086.0
 20
-258.99999999999909
 30
0.0
 11
4086.0
 21
-140.99999999999909
 31
0.0
1001
ACDBBLOCKREPETAG
1070
     1
1071
       64
1005
12E2E4
  0
LINE
  5
12E2E5
  8
HIDDEN
 10
4088.0
 20
-155.49999999999909
 30
0.0
 11
4088.0
 21
-244.49999999999909
 31
0.0
1001
ACDBBLOCKREPETAG
1070
     1
1071
       65
1005
12E2E5
  0
LINE
  5
12E2E6
  8
OBJECT
 10
3917.0
 20
-634.0
 30
0.0
 11
3920.0
 21
-634.0
 31
0.0
1001
ACDBBLOCKREPETAG
1070
     1
1071
        1
1005
12E2E6
  0
ARC
  5
12E2E7
  8
OBJECT
 10
3917.0
 20
-637.0
 30
0.0
 40
3.0
 50
90.0
 51
180.0
1001
ACDBBLOCKREPETAG
1070
     1
1071
        2
1005
12E2E7
  0
LINE
  5
12E2E8
  8
OBJECT
 10
3920.0
 20
-758.0
 30
0.0
 11
3917.0
 21
-758.0
 31
0.0
1001
ACDBBLOCKREPETAG
1070
     1
1071
        3
1005
12E2E8
  0
ARC
  5
12E2E9
  8
OBJECT
 10
3917.0
 20
-755.0
 30
0.0
 40
3.0
 50
180.0
 51
270.0
1001
ACDBBLOCKREPETAG
1070
     1
1071
        4
1005
12E2E9
  0
LINE
  5
12E2EA
  8
OBJECT
 10
3914.0
 20
-755.0
 30
0.0
 11
3914.0
 21
-637.0
 31
0.0
1001
ACDBBLOCKREPETAG
1070
     1
1071
        5
1005
12E2EA
  0
LINE
  5
12E2EB
  8
CENTER
 10
4077.0
 20
-696.0
 30
0.0
 11
3923.0
 21
-696.0
 31
0.0
1001
ACDBBLOCKREPETAG
1070
     1
1071
       17
1005
12E2EB
  0
CIRCLE
  5
12E2EC
  8
OBJECT
 10
4000.0
 20
-696.0
 30
0.0
 40
41.5
1001
ACDBBLOCKREPETAG
1070
     1
1071
       19
1005
12E2EC
  0
CIRCLE
  5
12E2ED
  8
OBJECT
 10
4000.0
 20
-696.0
 30
0.0
 40
54.0
1001
ACDBBLOCKREPETAG
1070
     1
1071
       20
1005
12E2ED
  0
ARC
  5
12E2EE
  8
OBJECT
 10
4000.0
 20
-696.0
 30
0.0
 40
62.0
 50
287.89655112920718
 51
252.10344887079279
1001
ACDBBLOCKREPETAG
1070
     1
1071
       21
1005
12E2EE
  0
LINE
  5
12E2EF
  8
OBJECT
 10
3980.947441116743
 20
-755.0
 30
0.0
 11
4019.052558883257
 21
-755.0
 31
0.0
1001
ACDBBLOCKREPETAG
1070
     1
1071
       22
1005
12E2EF
  0
LINE
  5
12E2F0
  8
OBJECT
 10
4133.0
 20
-634.0
 30
0.0
 11
4140.0
 21
-634.0
 31
0.0
1001
ACDBBLOCKREPETAG
1070
     1
1071
       45
1005
12E2F0
  0
LINE
  5
12E2F1
  8
OBJECT
 10
4140.0
 20
-634.0
 30
0.0
 11
4140.0
 21
-755.0
 31
0.0
1001
ACDBBLOCKREPETAG
1070
     1
1071
       46
1005
12E2F1
  0
LINE
  5
12E2F2
  8
OBJECT
 10
4133.0
 20
-755.0
 30
0.0
 11
4133.0
 21
-634.0
 31
0.0
1001
ACDBBLOCKREPETAG
1070
     1
1071
       47
1005
12E2F2
  0
LINE
  5
12E2F3
  8
CENTER
 10
4155.0
 20
-696.0
 30
0.0
 11
4071.0
 21
-696.0
 31
0.0
1001
ACDBBLOCKREPETAG
1070
     1
1071
       48
1005
12E2F3
  0
LINE
  5
12E2F4
  8
OBJECT
 10
4133.0
 20
-637.0
 30
0.0
 11
4097.0
 21
-637.0
 31
0.0
1001
ACDBBLOCKREPETAG
1070
     1
1071
       49
1005
12E2F4
  0
LINE
  5
12E2F5
  8
OBJECT
 10
4097.0
 20
-637.0
 30
0.0
 11
4097.0
 21
-755.0
 31
0.0
1001
ACDBBLOCKREPETAG
1070
     1
1071
       50
1005
12E2F5
  0
LINE
  5
12E2F6
  8
OBJECT
 10
4097.0
 20
-755.0
 30
0.0
 11
4140.0
 21
-755.0
 31
0.0
1001
ACDBBLOCKREPETAG
1070
     1
1071
       51
1005
12E2F6
  0
LINE
  5
12E2F7
  8
OBJECT
 10
4093.0
 20
-641.5
 30
0.0
 11
4086.0
 21
-641.5
 31
0.0
1001
ACDBBLOCKREPETAG
1070
     1
1071
       52
1005
12E2F7
  0
LINE
  5
12E2F8
  8
OBJECT
 10
4086.0
 20
-750.49999999999989
 30
0.0
 11
4093.0
 21
-750.49999999999989
 31
0.0
1001
ACDBBLOCKREPETAG
1070
     1
1071
       53
1005
12E2F8
  0
LINE
  5
12E2F9
  8
OBJECT
 10
4093.0
 20
-750.49999999999989
 30
0.0
 11
4093.0
 21
-641.5
 31
0.0
1001
ACDBBLOCKREPETAG
1070
     1
1071
       54
1005
12E2F9
  0
LINE
  5
12E2FA
  8
OBJECT
 10
4097.0
 20
-637.0
 30
0.0
 11
4093.0
 21
-641.5
 31
0.0
1001
ACDBBLOCKREPETAG
1070
     1
1071
       55
1005
12E2FA
  0
LINE
  5
12E2FB
  8
OBJECT
 10
4097.0
 20
-755.0
 30
0.0
 11
4093.0
 21
-750.49999999999989
 31
0.0
1001
ACDBBLOCKREPETAG
1070
     1
1071
       56
1005
12E2FB
  0
LINE
  5
12E2FC
  8
OBJECT
 10
4083.0
 20
-634.0
 30
0.0
 11
4080.0
 21
-634.0
 31
0.0
1001
ACDBBLOCKREPETAG
1070
     1
1071
       57
1005
12E2FC
  0
ARC
  5
12E2FD
  8
OBJECT
 10
4083.0
 20
-637.0
 30
0.0
 40
3.0
 50
0.0
 51
90.0
1001
ACDBBLOCKREPETAG
1070
     1
1071
       58
1005
12E2FD
  0
LINE
  5
12E2FE
  8
OBJECT
 10
4080.0
 20
-758.0
 30
0.0
 11
4083.0
 21
-758.0
 31
0.0
1001
ACDBBLOCKREPETAG
1070
     1
1071
       59
1005
12E2FE
  0
ARC
  5
12E2FF
  8
OBJECT
 10
4083.0
 20
-755.0
 30
0.0
 40
3.0
 50
270.0
 51
0.0
1001
ACDBBLOCKREPETAG
1070
     1
1071
       60
1005
12E2FF
  0
LINE
  5
12E300
  8
OBJECT
 10
4086.0
 20
-755.0
 30
0.0
 11
4086.0
 21
-637.0
 31
0.0
1001
ACDBBLOCKREPETAG
1070
     1
1071
       61
1005
12E300
  0
LINE
  5
12E301
  8
HIDDEN
 10
4088.0
 20
-651.5
 30
0.0
 11
4088.0
 21
-740.5
 31
0.0
1001
ACDBBLOCKREPETAG
1070
     1
1071
       63
1005
12E301
  0
LINE
  5
12E302
  8
OBJECT
 10
94.000000000034575
 20
-3551.0000000009109
 30
0.0
 11
94.000000000034575
 21
-3548.0000000009109
 31
0.0
1001
ACDBBLOCKREPETAG
1070
     1
1071
      418
1005
12E302
  0
ARC
  5
12E303
  8
OBJECT
 10
97.000000000034561
 20
-3551.0000000009109
 30
0.0
 40
3.0
 50
180.0
 51
270.0
1001
ACDBBLOCKREPETAG
1070
     1
1071
      419
1005
12E303
  0
LINE
  5
12E304
  8
OBJECT
 10
218.00000000003459
 20
-3548.0000000009109
 30
0.0
 11
218.00000000003459
 21
-3551.0000000009109
 31
0.0
1001
ACDBBLOCKREPETAG
1070
     1
1071
      420
1005
12E304
  0
ARC
  5
12E305
  8
OBJECT
 10
215.00000000003459
 20
-3551.0000000009109
 30
0.0
 40
3.0
 50
270.0
 51
0.0
1001
ACDBBLOCKREPETAG
1070
     1
1071
      421
1005
12E305
  0
LINE
  5
12E306
  8
OBJECT
 10
215.00000000003459
 20
-3554.0000000009109
 30
0.0
 11
97.000000000034561
 21
-3554.0000000009109
 31
0.0
1001
ACDBBLOCKREPETAG
1070
     1
1071
      422
1005
12E306
  0
INSERT
  5
12E307
  8
OBJECT
  2
*U3
 10
0.0
 20
0.0
 30
0.0
  0
LINE
  5
12E308
  8
OBJECT
 10
289.00000000003462
 20
-3406.0000000009109
 30
0.0
 11
296.0000000000345
 21
-3406.0000000009109
 31
0.0
1001
ACDBBLOCKREPETAG
1070
     1
1071
       39
1005
12E308
  0
LINE
  5
12E309
  8
OBJECT
 10
296.0000000000345
 20
-3406.0000000009109
 30
0.0
 11
296.0000000000345
 21
-3530.0000000009109
 31
0.0
1001
ACDBBLOCKREPETAG
1070
     1
1071
       40
1005
12E309
  0
LINE
  5
12E30A
  8
OBJECT
 10
296.0000000000345
 20
-3530.0000000009109
 30
0.0
 11
289.00000000003462
 21
-3530.0000000009109
 31
0.0
1001
ACDBBLOCKREPETAG
1070
     1
1071
       41
1005
12E30A
  0
LINE
  5
12E30B
  8
OBJECT
 10
289.00000000003462
 20
-3530.0000000009109
 30
0.0
 11
289.00000000003462
 21
-3406.0000000009109
 31
0.0
1001
ACDBBLOCKREPETAG
1070
     1
1071
       42
1005
12E30B
  0
LINE
  5
12E30C
  8
OBJECT
 10
289.00000000003462
 20
-3409.0000000009109
 30
0.0
 11
253.00000000003459
 21
-3409.0000000009109
 31
0.0
1001
ACDBBLOCKREPETAG
1070
     1
1071
       43
1005
12E30C
  0
LINE
  5
12E30D
  8
OBJECT
 10
253.00000000003459
 20
-3409.0000000009109
 30
0.0
 11
253.00000000003459
 21
-3527.0000000009109
 31
0.0
1001
ACDBBLOCKREPETAG
1070
     1
1071
       44
1005
12E30D
  0
LINE
  5
12E30E
  8
OBJECT
 10
253.00000000003459
 20
-3527.0000000009109
 30
0.0
 11
289.00000000003462
 21
-3527.0000000009109
 31
0.0
1001
ACDBBLOCKREPETAG
1070
     1
1071
       45
1005
12E30E
  0
LINE
  5
12E30F
  8
OBJECT
 10
249.00000000003459
 20
-3413.5000000009122
 30
0.0
 11
242.00000000003459
 21
-3413.5000000009122
 31
0.0
1001
ACDBBLOCKREPETAG
1070
     1
1071
       46
1005
12E30F
  0
LINE
  5
12E310
  8
OBJECT
 10
242.00000000003459
 20
-3522.5000000009109
 30
0.0
 11
249.00000000003459
 21
-3522.5000000009109
 31
0.0
1001
ACDBBLOCKREPETAG
1070
     1
1071
       47
1005
12E310
  0
LINE
  5
12E311
  8
OBJECT
 10
249.00000000003459
 20
-3522.5000000009109
 30
0.0
 11
249.00000000003459
 21
-3413.5000000009122
 31
0.0
1001
ACDBBLOCKREPETAG
1070
     1
1071
       48
1005
12E311
  0
LINE
  5
12E312
  8
OBJECT
 10
253.00000000003459
 20
-3409.0000000009109
 30
0.0
 11
249.00000000003459
 21
-3413.5000000009122
 31
0.0
1001
ACDBBLOCKREPETAG
1070
     1
1071
       49
1005
12E312
  0
LINE
  5
12E313
  8
OBJECT
 10
253.00000000003459
 20
-3527.0000000009109
 30
0.0
 11
249.00000000003459
 21
-3522.5000000009109
 31
0.0
1001
ACDBBLOCKREPETAG
1070
     1
1071
       50
1005
12E313
  0
LINE
  5
12E314
  8
OBJECT
 10
239.00000000003641
 20
-3406.0000000009109
 30
0.0
 11
236.00000000003459
 21
-3406.0000000009109
 31
0.0
1001
ACDBBLOCKREPETAG
1070
     1
1071
       51
1005
12E314
  0
ARC
  5
12E315
  8
OBJECT
 10
239.00000000003641
 20
-3409.0000000009109
 30
0.0
 40
3.0
 50
0.0
 51
90.0
1001
ACDBBLOCKREPETAG
1070
     1
1071
       52
1005
12E315
  0
LINE
  5
12E316
  8
OBJECT
 10
236.00000000003459
 20
-3530.0000000009109
 30
0.0
 11
239.00000000003271
 21
-3530.0000000009109
 31
0.0
1001
ACDBBLOCKREPETAG
1070
     1
1071
       53
1005
12E316
  0
ARC
  5
12E317
  8
OBJECT
 10
239.00000000003271
 20
-3527.0000000009109
 30
0.0
 40
3.0
 50
270.0
 51
0.0
1001
ACDBBLOCKREPETAG
1070
     1
1071
       54
1005
12E317
  0
LINE
  5
12E318
  8
OBJECT
 10
242.0000000000328
 20
-3527.0000000009109
 30
0.0
 11
242.00000000003641
 21
-3409.0000000009109
 31
0.0
1001
ACDBBLOCKREPETAG
1070
     1
1071
       55
1005
12E318
  0
LINE
  5
12E319
  8
HIDDEN
 10
244.0000000000345
 20
-3423.5000000009122
 30
0.0
 11
244.0000000000345
 21
-3512.5000000009122
 31
0.0
1001
ACDBBLOCKREPETAG
1070
     1
1071
      430
1005
12E319
  0
LINE
  5
12E31A
  8
OBJECT
 10
81.000000000034561
 20
-3318.0000000009122
 30
0.0
 11
81.000000000034561
 21
-3325.0000000009122
 31
0.0
1001
ACDBBLOCKREPETAG
1070
     1
1071
       57
1005
12E31A
  0
LINE
  5
12E31B
  8
OBJECT
 10
81.000000000034561
 20
-3325.0000000009122
 30
0.0
 11
231.0000000000345
 21
-3325.0000000009122
 31
0.0
1001
ACDBBLOCKREPETAG
1070
     1
1071
       58
1005
12E31B
  0
LINE
  5
12E31C
  8
OBJECT
 10
84.000000000034575
 20
-3366.5000000009109
 30
0.0
 11
228.00000000003459
 21
-3366.5000000009109
 31
0.0
1001
ACDBBLOCKREPETAG
1070
     1
1071
       59
1005
12E31C
  0
LINE
  5
12E31D
  8
OBJECT
 10
90.500000000034547
 20
-3378.0000000009109
 30
0.0
 11
221.50000000003459
 21
-3378.0000000009109
 31
0.0
1001
ACDBBLOCKREPETAG
1070
     1
1071
       60
1005
12E31D
  0
LINE
  5
12E31E
  8
OBJECT
 10
231.0000000000345
 20
-3325.0000000009122
 30
0.0
 11
231.0000000000345
 21
-3318.0000000009122
 31
0.0
1001
ACDBBLOCKREPETAG
1070
     1
1071
       61
1005
12E31E
  0
LINE
  5
12E31F
  8
OBJECT
 10
231.0000000000345
 20
-3318.0000000009122
 30
0.0
 11
81.000000000034561
 21
-3318.0000000009122
 31
0.0
1001
ACDBBLOCKREPETAG
1070
     1
1071
       62
1005
12E31F
  0
LINE
  5
12E320
  8
OBJECT
 10
218.00000000003459
 20
-3382.0000000009122
 30
0.0
 11
218.00000000003459
 21
-3388.0000000009109
 31
0.0
1001
ACDBBLOCKREPETAG
1070
     1
1071
       63
1005
12E320
  0
LINE
  5
12E321
  8
OBJECT
 10
228.00000000003459
 20
-3325.0000000009122
 30
0.0
 11
228.00000000003459
 21
-3366.5000000009109
 31
0.0
1001
ACDBBLOCKREPETAG
1070
     1
1071
       64
1005
12E321
  0
LINE
  5
12E322
  8
OBJECT
 10
228.00000000003459
 20
-3366.5000000009109
 30
0.0
 11
221.50000000003459
 21
-3378.0000000009109
 31
0.0
1001
ACDBBLOCKREPETAG
1070
     1
1071
       65
1005
12E322
  0
LINE
  5
12E323
  8
OBJECT
 10
221.50000000003459
 20
-3378.0000000009109
 30
0.0
 11
218.00000000003459
 21
-3382.0000000009122
 31
0.0
1001
ACDBBLOCKREPETAG
1070
     1
1071
       66
1005
12E323
  0
LINE
  5
12E324
  8
OBJECT
 10
84.000000000034575
 20
-3366.5000000009109
 30
0.0
 11
90.500000000034547
 21
-3378.0000000009109
 31
0.0
1001
ACDBBLOCKREPETAG
1070
     1
1071
       67
1005
12E324
  0
LINE
  5
12E325
  8
OBJECT
 10
90.500000000034547
 20
-3378.0000000009109
 30
0.0
 11
94.000000000034575
 21
-3382.0000000009122
 31
0.0
1001
ACDBBLOCKREPETAG
1070
     1
1071
       68
1005
12E325
  0
ARC
  5
12E326
  8
OBJECT
 10
156.0000000000345
 20
-3000.1000000009099
 30
0.0
 40
386.89999999999998
 50
260.77870136257849
 51
279.22129863742163
1001
ACDBBLOCKREPETAG
1070
     1
1071
       69
1005
12E326
  0
LINE
  5
12E327
  8
OBJECT
 10
94.000000000034575
 20
-3382.0000000009122
 30
0.0
 11
94.000000000034575
 21
-3388.0000000009109
 31
0.0
1001
ACDBBLOCKREPETAG
1070
     1
1071
       70
1005
12E327
  0
LINE
  5
12E328
  8
OBJECT
 10
84.000000000034575
 20
-3325.0000000009122
 30
0.0
 11
84.000000000034575
 21
-3366.5000000009109
 31
0.0
1001
ACDBBLOCKREPETAG
1070
     1
1071
       71
1005
12E328
  0
INSERT
  5
12E329
  8
OBJECT
  2
*U4
 10
0.0
 20
0.0
 30
0.0
  0
LINE
  5
12E32A
  8
HIDDEN
 10
213.00000000003459
 20
-3370.0000000009109
 30
0.0
 11
99.000000000034575
 21
-3370.0000000009109
 31
0.0
1001
ACDBBLOCKREPETAG
1070
     1
1071
      431
1005
12E32A
  0
LINE
  5
12E32B
  8
OBJECT
 10
454.00000000011448
 20
-3551.0000000009109
 30
0.0
 11
454.00000000011448
 21
-3548.0000000009109
 31
0.0
1001
ACDBBLOCKREPETAG
1070
     1
1071
      418
1005
12E32B
  0
ARC
  5
12E32C
  8
OBJECT
 10
457.0000000001146
 20
-3551.0000000009109
 30
0.0
 40
3.0
 50
180.0
 51
270.0
1001
ACDBBLOCKREPETAG
1070
     1
1071
      419
1005
12E32C
  0
LINE
  5
12E32D
  8
OBJECT
 10
578.00000000011448
 20
-3548.0000000009109
 30
0.0
 11
578.00000000011448
 21
-3551.0000000009109
 31
0.0
1001
ACDBBLOCKREPETAG
1070
     1
1071
      420
1005
12E32D
  0
ARC
  5
12E32E
  8
OBJECT
 10
575.00000000011426
 20
-3551.0000000009109
 30
0.0
 40
3.0
 50
270.0
 51
0.0
1001
ACDBBLOCKREPETAG
1070
     1
1071
      421
1005
12E32E
  0
LINE
  5
12E32F
  8
OBJECT
 10
575.00000000011426
 20
-3554.0000000009109
 30
0.0
 11
457.0000000001146
 21
-3554.0000000009109
 31
0.0
1001
ACDBBLOCKREPETAG
1070
     1
1071
      422
1005
12E32F
  0
LINE
  5
12E330
  8
OBJECT
 10
666.00000000011448
 20
-3393.0000000009122
 30
0.0
 11
659.0000000001146
 21
-3393.0000000009122
 31
0.0
1001
ACDBBLOCKREPETAG
1070
     1
1071
       57
1005
12E330
  0
LINE
  5
12E331
  8
OBJECT
 10
659.0000000001146
 20
-3393.0000000009122
 30
0.0
 11
659.0000000001146
 21
-3543.0000000009122
 31
0.0
1001
ACDBBLOCKREPETAG
1070
     1
1071
       58
1005
12E331
  0
LINE
  5
12E332
  8
OBJECT
 10
617.5000000001146
 20
-3396.0000000009122
 30
0.0
 11
617.5000000001146
 21
-3540.0000000009122
 31
0.0
1001
ACDBBLOCKREPETAG
1070
     1
1071
       59
1005
12E332
  0
LINE
  5
12E333
  8
OBJECT
 10
606.0000000001146
 20
-3402.5000000009122
 30
0.0
 11
606.0000000001146
 21
-3533.5000000009122
 31
0.0
1001
ACDBBLOCKREPETAG
1070
     1
1071
       60
1005
12E333
  0
LINE
  5
12E334
  8
OBJECT
 10
659.0000000001146
 20
-3543.0000000009122
 30
0.0
 11
666.00000000011448
 21
-3543.0000000009122
 31
0.0
1001
ACDBBLOCKREPETAG
1070
     1
1071
       61
1005
12E334
  0
LINE
  5
12E335
  8
OBJECT
 10
666.00000000011448
 20
-3543.0000000009122
 30
0.0
 11
666.00000000011448
 21
-3393.0000000009122
 31
0.0
1001
ACDBBLOCKREPETAG
1070
     1
1071
       62
1005
12E335
  0
LINE
  5
12E336
  8
OBJECT
 10
602.0000000001146
 20
-3530.0000000009109
 30
0.0
 11
596.00000000011426
 21
-3530.0000000009109
 31
0.0
1001
ACDBBLOCKREPETAG
1070
     1
1071
       63
1005
12E336
  0
LINE
  5
12E337
  8
OBJECT
 10
659.0000000001146
 20
-3540.0000000009122
 30
0.0
 11
617.5000000001146
 21
-3540.0000000009122
 31
0.0
1001
ACDBBLOCKREPETAG
1070
     1
1071
       64
1005
12E337
  0
LINE
  5
12E338
  8
OBJECT
 10
617.5000000001146
 20
-3540.0000000009122
 30
0.0
 11
606.0000000001146
 21
-3533.5000000009122
 31
0.0
1001
ACDBBLOCKREPETAG
1070
     1
1071
       65
1005
12E338
  0
LINE
  5
12E339
  8
OBJECT
 10
606.0000000001146
 20
-3533.5000000009122
 30
0.0
 11
602.0000000001146
 21
-3530.0000000009109
 31
0.0
1001
ACDBBLOCKREPETAG
1070
     1
1071
       66
1005
12E339
  0
LINE
  5
12E33A
  8
OBJECT
 10
617.5000000001146
 20
-3396.0000000009122
 30
0.0
 11
606.0000000001146
 21
-3402.5000000009122
 31
0.0
1001
ACDBBLOCKREPETAG
1070
     1
1071
       67
1005
12E33A
  0
LINE
  5
12E33B
  8
OBJECT
 10
606.0000000001146
 20
-3402.5000000009122
 30
0.0
 11
602.0000000001146
 21
-3406.0000000009109
 31
0.0
1001
ACDBBLOCKREPETAG
1070
     1
1071
       68
1005
12E33B
  0
ARC
  5
12E33C
  8
OBJECT
 10
983.90000000011605
 20
-3468.0000000009122
 30
0.0
 40
386.89999999999998
 50
170.77870136263201
 51
189.22129863736799
1001
ACDBBLOCKREPETAG
1070
     1
1071
       69
1005
12E33C
  0
LINE
  5
12E33D
  8
OBJECT
 10
602.0000000001146
 20
-3406.0000000009109
 30
0.0
 11
596.00000000011426
 21
-3406.0000000009109
 31
0.0
1001
ACDBBLOCKREPETAG
1070
     1
1071
       70
1005
12E33D
  0
LINE
  5
12E33E
  8
OBJECT
 10
659.0000000001146
 20
-3396.0000000009122
 30
0.0
 11
617.5000000001146
 21
-3396.0000000009122
 31
0.0
1001
ACDBBLOCKREPETAG
1070
     1
1071
       71
1005
12E33E
  0
INSERT
  5
12E33F
  8
OBJECT
  2
*U5
 10
0.0
 20
0.0
 30
0.0
  0
LINE
  5
12E340
  8
HIDDEN
 10
614.0000000001146
 20
-3525.0000000009122
 30
0.0
 11
614.0000000001146
 21
-3411.0000000009122
 31
0.0
1001
ACDBBLOCKREPETAG
1070
     1
1071
      437
1005
12E340
  0
LINE
  5
12E341
  8
OBJECT
 10
441.00000000011448
 20
-3318.0000000009122
 30
0.0
 11
441.00000000011448
 21
-3325.0000000009122
 31
0.0
1001
ACDBBLOCKREPETAG
1070
     1
1071
       57
1005
12E341
  0
LINE
  5
12E342
  8
OBJECT
 10
441.00000000011448
 20
-3325.0000000009122
 30
0.0
 11
591.00000000011448
 21
-3325.0000000009122
 31
0.0
1001
ACDBBLOCKREPETAG
1070
     1
1071
       58
1005
12E342
  0
LINE
  5
12E343
  8
OBJECT
 10
444.0000000001146
 20
-3366.5000000009109
 30
0.0
 11
588.00000000011426
 21
-3366.5000000009109
 31
0.0
1001
ACDBBLOCKREPETAG
1070
     1
1071
       59
1005
12E343
  0
LINE
  5
12E344
  8
OBJECT
 10
450.50000000011448
 20
-3378.0000000009109
 30
0.0
 11
581.5000000001146
 21
-3378.0000000009109
 31
0.0
1001
ACDBBLOCKREPETAG
1070
     1
1071
       60
1005
12E344
  0
LINE
  5
12E345
  8
OBJECT
 10
591.00000000011448
 20
-3325.0000000009122
 30
0.0
 11
591.00000000011448
 21
-3318.0000000009122
 31
0.0
1001
ACDBBLOCKREPETAG
1070
     1
1071
       61
1005
12E345
  0
LINE
  5
12E346
  8
OBJECT
 10
591.00000000011448
 20
-3318.0000000009122
 30
0.0
 11
441.00000000011448
 21
-3318.0000000009122
 31
0.0
1001
ACDBBLOCKREPETAG
1070
     1
1071
       62
1005
12E346
  0
LINE
  5
12E347
  8
OBJECT
 10
578.00000000011448
 20
-3382.0000000009122
 30
0.0
 11
578.00000000011448
 21
-3388.0000000009109
 31
0.0
1001
ACDBBLOCKREPETAG
1070
     1
1071
       63
1005
12E347
  0
LINE
  5
12E348
  8
OBJECT
 10
588.00000000011426
 20
-3325.0000000009122
 30
0.0
 11
588.00000000011426
 21
-3366.5000000009109
 31
0.0
1001
ACDBBLOCKREPETAG
1070
     1
1071
       64
1005
12E348
  0
LINE
  5
12E349
  8
OBJECT
 10
588.00000000011426
 20
-3366.5000000009109
 30
0.0
 11
581.5000000001146
 21
-3378.0000000009109
 31
0.0
1001
ACDBBLOCKREPETAG
1070
     1
1071
       65
1005
12E349
  0
LINE
  5
12E34A
  8
OBJECT
 10
581.5000000001146
 20
-3378.0000000009109
 30
0.0
 11
578.00000000011448
 21
-3382.0000000009122
 31
0.0
1001
ACDBBLOCKREPETAG
1070
     1
1071
       66
1005
12E34A
  0
LINE
  5
12E34B
  8
OBJECT
 10
444.0000000001146
 20
-3366.5000000009109
 30
0.0
 11
450.50000000011448
 21
-3378.0000000009109
 31
0.0
1001
ACDBBLOCKREPETAG
1070
     1
1071
       67
1005
12E34B
  0
LINE
  5
12E34C
  8
OBJECT
 10
450.50000000011448
 20
-3378.0000000009109
 30
0.0
 11
454.00000000011448
 21
-3382.0000000009122
 31
0.0
1001
ACDBBLOCKREPETAG
1070
     1
1071
       68
1005
12E34C
  0
ARC
  5
12E34D
  8
OBJECT
 10
516.00000000011448
 20
-3000.1000000009099
 30
0.0
 40
386.89999999999998
 50
260.77870136257849
 51
279.22129863742163
1001
ACDBBLOCKREPETAG
1070
     1
1071
       69
1005
12E34D
  0
LINE
  5
12E34E
  8
OBJECT
 10
454.00000000011448
 20
-3382.0000000009122
 30
0.0
 11
454.00000000011448
 21
-3388.0000000009109
 31
0.0
1001
ACDBBLOCKREPETAG
1070
     1
1071
       70
1005
12E34E
  0
LINE
  5
12E34F
  8
OBJECT
 10
444.0000000001146
 20
-3325.0000000009122
 30
0.0
 11
444.0000000001146
 21
-3366.5000000009109
 31
0.0
1001
ACDBBLOCKREPETAG
1070
     1
1071
       71
1005
12E34F
  0
INSERT
  5
12E350
  8
OBJECT
  2
*U6
 10
0.0
 20
0.0
 30
0.0
  0
LINE
  5
12E351
  8
HIDDEN
 10
573.0000000001146
 20
-3370.0000000009109
 30
0.0
 11
459.0000000001146
 21
-3370.0000000009109
 31
0.0
1001
ACDBBLOCKREPETAG
1070
     1
1071
      431
1005
12E351
  0
LINE
  5
12E352
  8
OBJECT
 10
454.00000000011448
 20
-3087.0000000009049
 30
0.0
 11
454.00000000011448
 21
-3084.0000000009049
 31
0.0
1001
ACDBBLOCKREPETAG
1070
     1
1071
      418
1005
12E352
  0
ARC
  5
12E353
  8
OBJECT
 10
457.0000000001146
 20
-3087.0000000009049
 30
0.0
 40
3.0
 50
180.0
 51
270.0
1001
ACDBBLOCKREPETAG
1070
     1
1071
      419
1005
12E353
  0
LINE
  5
12E354
  8
OBJECT
 10
578.00000000011448
 20
-3084.0000000009049
 30
0.0
 11
578.00000000011448
 21
-3087.0000000009049
 31
0.0
1001
ACDBBLOCKREPETAG
1070
     1
1071
      420
1005
12E354
  0
ARC
  5
12E355
  8
OBJECT
 10
575.00000000011426
 20
-3087.0000000009049
 30
0.0
 40
3.0
 50
270.0
 51
0.0
1001
ACDBBLOCKREPETAG
1070
     1
1071
      421
1005
12E355
  0
LINE
  5
12E356
  8
OBJECT
 10
575.00000000011426
 20
-3090.0000000009049
 30
0.0
 11
457.0000000001146
 21
-3090.0000000009049
 31
0.0
1001
ACDBBLOCKREPETAG
1070
     1
1071
      422
1005
12E356
  0
INSERT
  5
12E357
  8
OBJECT
  2
*U7
 10
0.0
 20
0.0
 30
0.0
  0
LINE
  5
12E358
  8
OBJECT
 10
649.00000000011448
 20
-2949.0000000009049
 30
0.0
 11
656.0000000001146
 21
-2949.0000000009049
 31
0.0
1001
ACDBBLOCKREPETAG
1070
     1
1071
       20
1005
12E358
  0
LINE
  5
12E359
  8
OBJECT
 10
656.0000000001146
 20
-2949.0000000009049
 30
0.0
 11
656.0000000001146
 21
-3059.0000000009049
 31
0.0
1001
ACDBBLOCKREPETAG
1070
     1
1071
       21
1005
12E359
  0
LINE
  5
12E35A
  8
OBJECT
 10
656.0000000001146
 20
-3059.0000000009049
 30
0.0
 11
649.00000000011448
 21
-3059.0000000009049
 31
0.0
1001
ACDBBLOCKREPETAG
1070
     1
1071
       22
1005
12E35A
  0
LINE
  5
12E35B
  8
OBJECT
 10
649.00000000011448
 20
-3059.0000000009049
 30
0.0
 11
649.00000000011448
 21
-2949.0000000009049
 31
0.0
1001
ACDBBLOCKREPETAG
1070
     1
1071
       23
1005
12E35B
  0
LINE
  5
12E35C
  8
OBJECT
 10
649.00000000011448
 20
-2952.0000000009049
 30
0.0
 11
613.0000000001146
 21
-2952.0000000009049
 31
0.0
1001
ACDBBLOCKREPETAG
1070
     1
1071
       24
1005
12E35C
  0
LINE
  5
12E35D
  8
OBJECT
 10
613.0000000001146
 20
-2952.0000000009049
 30
0.0
 11
613.0000000001146
 21
-3056.0000000009049
 31
0.0
1001
ACDBBLOCKREPETAG
1070
     1
1071
       25
1005
12E35D
  0
LINE
  5
12E35E
  8
OBJECT
 10
613.0000000001146
 20
-3056.0000000009049
 30
0.0
 11
649.00000000011448
 21
-3056.0000000009049
 31
0.0
1001
ACDBBLOCKREPETAG
1070
     1
1071
       26
1005
12E35E
  0
LINE
  5
12E35F
  8
OBJECT
 10
609.0000000001146
 20
-2956.5000000009049
 30
0.0
 11
602.0000000001146
 21
-2956.5000000009049
 31
0.0
1001
ACDBBLOCKREPETAG
1070
     1
1071
       27
1005
12E35F
  0
LINE
  5
12E360
  8
OBJECT
 10
602.0000000001146
 20
-3051.5000000009049
 30
0.0
 11
609.0000000001146
 21
-3051.5000000009049
 31
0.0
1001
ACDBBLOCKREPETAG
1070
     1
1071
       28
1005
12E360
  0
LINE
  5
12E361
  8
OBJECT
 10
609.0000000001146
 20
-3051.5000000009049
 30
0.0
 11
609.0000000001146
 21
-2956.5000000009049
 31
0.0
1001
ACDBBLOCKREPETAG
1070
     1
1071
       29
1005
12E361
  0
LINE
  5
12E362
  8
OBJECT
 10
613.0000000001146
 20
-2952.0000000009049
 30
0.0
 11
609.0000000001146
 21
-2956.5000000009049
 31
0.0
1001
ACDBBLOCKREPETAG
1070
     1
1071
       30
1005
12E362
  0
LINE
  5
12E363
  8
OBJECT
 10
613.0000000001146
 20
-3056.0000000009049
 30
0.0
 11
609.0000000001146
 21
-3051.5000000009049
 31
0.0
1001
ACDBBLOCKREPETAG
1070
     1
1071
       31
1005
12E363
  0
LINE
  5
12E364
  8
OBJECT
 10
599.00000000011607
 20
-2942.0000000009049
 30
0.0
 11
596.00000000011426
 21
-2942.0000000009049
 31
0.0
1001
ACDBBLOCKREPETAG
1070
     1
1071
       32
1005
12E364
  0
ARC
  5
12E365
  8
OBJECT
 10
599.00000000011607
 20
-2945.0000000009049
 30
0.0
 40
3.0
 50
0.0
 51
90.0
1001
ACDBBLOCKREPETAG
1070
     1
1071
       33
1005
12E365
  0
LINE
  5
12E366
  8
OBJECT
 10
596.00000000011426
 20
-3066.0000000009049
 30
0.0
 11
599.00000000011278
 21
-3066.0000000009049
 31
0.0
1001
ACDBBLOCKREPETAG
1070
     1
1071
       34
1005
12E366
  0
ARC
  5
12E367
  8
OBJECT
 10
599.00000000011278
 20
-3063.0000000009049
 30
0.0
 40
3.0
 50
270.0
 51
0.0
1001
ACDBBLOCKREPETAG
1070
     1
1071
       35
1005
12E367
  0
LINE
  5
12E368
  8
OBJECT
 10
602.00000000011266
 20
-3063.0000000009049
 30
0.0
 11
602.0000000001163
 21
-2945.0000000009049
 31
0.0
1001
ACDBBLOCKREPETAG
1070
     1
1071
       36
1005
12E368
  0
LINE
  5
12E369
  8
HIDDEN
 10
604.00000000011437
 20
-2966.0000000009049
 30
0.0
 11
604.00000000011437
 21
-3042.0000000009049
 31
0.0
1001
ACDBBLOCKREPETAG
1070
     1
1071
      427
1005
12E369
  0
LINE
  5
12E36A
  8
OBJECT
 10
441.00000000011448
 20
-2854.0000000009049
 30
0.0
 11
441.00000000011448
 21
-2861.0000000009049
 31
0.0
1001
ACDBBLOCKREPETAG
1070
     1
1071
       57
1005
12E36A
  0
LINE
  5
12E36B
  8
OBJECT
 10
441.00000000011448
 20
-2861.0000000009049
 30
0.0
 11
591.00000000011448
 21
-2861.0000000009049
 31
0.0
1001
ACDBBLOCKREPETAG
1070
     1
1071
       58
1005
12E36B
  0
LINE
  5
12E36C
  8
OBJECT
 10
444.0000000001146
 20
-2902.5000000009049
 30
0.0
 11
588.00000000011426
 21
-2902.5000000009049
 31
0.0
1001
ACDBBLOCKREPETAG
1070
     1
1071
       59
1005
12E36C
  0
LINE
  5
12E36D
  8
OBJECT
 10
450.50000000011448
 20
-2914.0000000009049
 30
0.0
 11
581.5000000001146
 21
-2914.0000000009049
 31
0.0
1001
ACDBBLOCKREPETAG
1070
     1
1071
       60
1005
12E36D
  0
LINE
  5
12E36E
  8
OBJECT
 10
591.00000000011448
 20
-2861.0000000009049
 30
0.0
 11
591.00000000011448
 21
-2854.0000000009049
 31
0.0
1001
ACDBBLOCKREPETAG
1070
     1
1071
       61
1005
12E36E
  0
LINE
  5
12E36F
  8
OBJECT
 10
591.00000000011448
 20
-2854.0000000009049
 30
0.0
 11
441.00000000011448
 21
-2854.0000000009049
 31
0.0
1001
ACDBBLOCKREPETAG
1070
     1
1071
       62
1005
12E36F
  0
LINE
  5
12E370
  8
OBJECT
 10
578.00000000011448
 20
-2918.0000000009049
 30
0.0
 11
578.00000000011448
 21
-2924.0000000009049
 31
0.0
1001
ACDBBLOCKREPETAG
1070
     1
1071
       63
1005
12E370
  0
LINE
  5
12E371
  8
OBJECT
 10
588.00000000011426
 20
-2861.0000000009049
 30
0.0
 11
588.00000000011426
 21
-2902.5000000009049
 31
0.0
1001
ACDBBLOCKREPETAG
1070
     1
1071
       64
1005
12E371
  0
LINE
  5
12E372
  8
OBJECT
 10
588.00000000011426
 20
-2902.5000000009049
 30
0.0
 11
581.5000000001146
 21
-2914.0000000009049
 31
0.0
1001
ACDBBLOCKREPETAG
1070
     1
1071
       65
1005
12E372
  0
LINE
  5
12E373
  8
OBJECT
 10
581.5000000001146
 20
-2914.0000000009049
 30
0.0
 11
578.00000000011448
 21
-2918.0000000009049
 31
0.0
1001
ACDBBLOCKREPETAG
1070
     1
1071
       66
1005
12E373
  0
LINE
  5
12E374
  8
OBJECT
 10
444.0000000001146
 20
-2902.5000000009049
 30
0.0
 11
450.50000000011448
 21
-2914.0000000009049
 31
0.0
1001
ACDBBLOCKREPETAG
1070
     1
1071
       67
1005
12E374
  0
LINE
  5
12E375
  8
OBJECT
 10
450.50000000011448
 20
-2914.0000000009049
 30
0.0
 11
454.00000000011448
 21
-2918.0000000009049
 31
0.0
1001
ACDBBLOCKREPETAG
1070
     1
1071
       68
1005
12E375
  0
ARC
  5
12E376
  8
OBJECT
 10
516.00000000011448
 20
-2536.100000000903
 30
0.0
 40
386.89999999999998
 50
260.77870136257849
 51
279.22129863742163
1001
ACDBBLOCKREPETAG
1070
     1
1071
       69
1005
12E376
  0
LINE
  5
12E377
  8
OBJECT
 10
454.00000000011448
 20
-2918.0000000009049
 30
0.0
 11
454.00000000011448
 21
-2924.0000000009049
 31
0.0
1001
ACDBBLOCKREPETAG
1070
     1
1071
       70
1005
12E377
  0
LINE
  5
12E378
  8
OBJECT
 10
444.0000000001146
 20
-2861.0000000009049
 30
0.0
 11
444.0000000001146
 21
-2902.5000000009049
 31
0.0
1001
ACDBBLOCKREPETAG
1070
     1
1071
       71
1005
12E378
  0
INSERT
  5
12E379
  8
OBJECT
  2
*U8
 10
0.0
 20
0.0
 30
0.0
  0
LINE
  5
12E37A
  8
HIDDEN
 10
573.0000000001146
 20
-2906.0000000009049
 30
0.0
 11
459.0000000001146
 21
-2906.0000000009049
 31
0.0
1001
ACDBBLOCKREPETAG
1070
     1
1071
      431
1005
12E37A
  0
LINE
  5
12E37B
  8
OBJECT
 10
94.000000000034575
 20
-3087.0000000009049
 30
0.0
 11
94.000000000034575
 21
-3084.0000000009049
 31
0.0
1001
ACDBBLOCKREPETAG
1070
     1
1071
      418
1005
12E37B
  0
ARC
  5
12E37C
  8
OBJECT
 10
97.000000000034561
 20
-3087.0000000009049
 30
0.0
 40
3.0
 50
180.0
 51
270.0
1001
ACDBBLOCKREPETAG
1070
     1
1071
      419
1005
12E37C
  0
LINE
  5
12E37D
  8
OBJECT
 10
218.00000000003459
 20
-3084.0000000009049
 30
0.0
 11
218.00000000003459
 21
-3087.0000000009049
 31
0.0
1001
ACDBBLOCKREPETAG
1070
     1
1071
      420
1005
12E37D
  0
ARC
  5
12E37E
  8
OBJECT
 10
215.00000000003459
 20
-3087.0000000009049
 30
0.0
 40
3.0
 50
270.0
 51
0.0
1001
ACDBBLOCKREPETAG
1070
     1
1071
      421
1005
12E37E
  0
LINE
  5
12E37F
  8
OBJECT
 10
215.00000000003459
 20
-3090.0000000009049
 30
0.0
 11
97.000000000034561
 21
-3090.0000000009049
 31
0.0
1001
ACDBBLOCKREPETAG
1070
     1
1071
      422
1005
12E37F
  0
INSERT
  5
12E380
  8
OBJECT
  2
*U9
 10
0.0
 20
0.0
 30
0.0
  0
LINE
  5
12E381
  8
OBJECT
 10
289.00000000003462
 20
-2957.0000000009049
 30
0.0
 11
296.0000000000345
 21
-2957.0000000009049
 31
0.0
1001
ACDBBLOCKREPETAG
1070
     1
1071
        1
1005
12E381
  0
LINE
  5
12E382
  8
OBJECT
 10
296.0000000000345
 20
-2957.0000000009049
 30
0.0
 11
296.0000000000345
 21
-3051.0000000009049
 31
0.0
1001
ACDBBLOCKREPETAG
1070
     1
1071
        2
1005
12E382
  0
LINE
  5
12E383
  8
OBJECT
 10
296.0000000000345
 20
-3051.0000000009049
 30
0.0
 11
289.00000000003462
 21
-3051.0000000009049
 31
0.0
1001
ACDBBLOCKREPETAG
1070
     1
1071
        3
1005
12E383
  0
LINE
  5
12E384
  8
OBJECT
 10
289.00000000003462
 20
-3051.0000000009049
 30
0.0
 11
289.00000000003462
 21
-2957.0000000009049
 31
0.0
1001
ACDBBLOCKREPETAG
1070
     1
1071
        4
1005
12E384
  0
LINE
  5
12E385
  8
OBJECT
 10
289.00000000003462
 20
-2960.0000000009049
 30
0.0
 11
253.00000000003459
 21
-2960.0000000009049
 31
0.0
1001
ACDBBLOCKREPETAG
1070
     1
1071
        5
1005
12E385
  0
LINE
  5
12E386
  8
OBJECT
 10
253.00000000003459
 20
-2960.0000000009049
 30
0.0
 11
253.00000000003459
 21
-3048.0000000009049
 31
0.0
1001
ACDBBLOCKREPETAG
1070
     1
1071
        6
1005
12E386
  0
LINE
  5
12E387
  8
OBJECT
 10
253.00000000003459
 20
-3048.0000000009049
 30
0.0
 11
289.00000000003462
 21
-3048.0000000009049
 31
0.0
1001
ACDBBLOCKREPETAG
1070
     1
1071
        7
1005
12E387
  0
LINE
  5
12E388
  8
OBJECT
 10
249.00000000003459
 20
-2964.5000000009049
 30
0.0
 11
242.00000000003459
 21
-2964.5000000009049
 31
0.0
1001
ACDBBLOCKREPETAG
1070
     1
1071
        8
1005
12E388
  0
LINE
  5
12E389
  8
OBJECT
 10
242.00000000003459
 20
-3043.5000000009049
 30
0.0
 11
249.00000000003459
 21
-3043.5000000009049
 31
0.0
1001
ACDBBLOCKREPETAG
1070
     1
1071
        9
1005
12E389
  0
LINE
  5
12E38A
  8
OBJECT
 10
249.00000000003459
 20
-3043.5000000009049
 30
0.0
 11
249.00000000003459
 21
-2964.5000000009049
 31
0.0
1001
ACDBBLOCKREPETAG
1070
     1
1071
       10
1005
12E38A
  0
LINE
  5
12E38B
  8
OBJECT
 10
253.00000000003459
 20
-2960.0000000009049
 30
0.0
 11
249.00000000003459
 21
-2964.5000000009049
 31
0.0
1001
ACDBBLOCKREPETAG
1070
     1
1071
       11
1005
12E38B
  0
LINE
  5
12E38C
  8
OBJECT
 10
253.00000000003459
 20
-3048.0000000009049
 30
0.0
 11
249.00000000003459
 21
-3043.5000000009049
 31
0.0
1001
ACDBBLOCKREPETAG
1070
     1
1071
       12
1005
12E38C
  0
LINE
  5
12E38D
  8
OBJECT
 10
239.00000000003641
 20
-2942.0000000009049
 30
0.0
 11
236.00000000003459
 21
-2942.0000000009049
 31
0.0
1001
ACDBBLOCKREPETAG
1070
     1
1071
       13
1005
12E38D
  0
ARC
  5
12E38E
  8
OBJECT
 10
239.00000000003641
 20
-2945.0000000009049
 30
0.0
 40
3.0
 50
0.0
 51
90.0
1001
ACDBBLOCKREPETAG
1070
     1
1071
       14
1005
12E38E
  0
LINE
  5
12E38F
  8
OBJECT
 10
236.00000000003459
 20
-3066.0000000009049
 30
0.0
 11
239.00000000003271
 21
-3066.0000000009049
 31
0.0
1001
ACDBBLOCKREPETAG
1070
     1
1071
       15
1005
12E38F
  0
ARC
  5
12E390
  8
OBJECT
 10
239.00000000003271
 20
-3063.0000000009049
 30
0.0
 40
3.0
 50
270.0
 51
0.0
1001
ACDBBLOCKREPETAG
1070
     1
1071
       16
1005
12E390
  0
LINE
  5
12E391
  8
OBJECT
 10
242.0000000000328
 20
-3063.0000000009049
 30
0.0
 11
242.00000000003641
 21
-2945.0000000009049
 31
0.0
1001
ACDBBLOCKREPETAG
1070
     1
1071
       17
1005
12E391
  0
LINE
  5
12E392
  8
HIDDEN
 10
244.0000000000345
 20
-2974.0000000009049
 30
0.0
 11
244.0000000000345
 21
-3034.0000000009049
 31
0.0
1001
ACDBBLOCKREPETAG
1070
     1
1071
      424
1005
12E392
  0
LINE
  5
12E393
  8
OBJECT
 10
81.000000000034561
 20
-2854.0000000009049
 30
0.0
 11
81.000000000034561
 21
-2861.0000000009049
 31
0.0
1001
ACDBBLOCKREPETAG
1070
     1
1071
       57
1005
12E393
  0
LINE
  5
12E394
  8
OBJECT
 10
81.000000000034561
 20
-2861.0000000009049
 30
0.0
 11
231.0000000000345
 21
-2861.0000000009049
 31
0.0
1001
ACDBBLOCKREPETAG
1070
     1
1071
       58
1005
12E394
  0
LINE
  5
12E395
  8
OBJECT
 10
84.000000000034575
 20
-2902.5000000009049
 30
0.0
 11
228.00000000003459
 21
-2902.5000000009049
 31
0.0
1001
ACDBBLOCKREPETAG
1070
     1
1071
       59
1005
12E395
  0
LINE
  5
12E396
  8
OBJECT
 10
90.500000000034547
 20
-2914.0000000009049
 30
0.0
 11
221.50000000003459
 21
-2914.0000000009049
 31
0.0
1001
ACDBBLOCKREPETAG
1070
     1
1071
       60
1005
12E396
  0
LINE
  5
12E397
  8
OBJECT
 10
231.0000000000345
 20
-2861.0000000009049
 30
0.0
 11
231.0000000000345
 21
-2854.0000000009049
 31
0.0
1001
ACDBBLOCKREPETAG
1070
     1
1071
       61
1005
12E397
  0
LINE
  5
12E398
  8
OBJECT
 10
231.0000000000345
 20
-2854.0000000009049
 30
0.0
 11
81.000000000034561
 21
-2854.0000000009049
 31
0.0
1001
ACDBBLOCKREPETAG
1070
     1
1071
       62
1005
12E398
  0
LINE
  5
12E399
  8
OBJECT
 10
218.00000000003459
 20
-2918.0000000009049
 30
0.0
 11
218.00000000003459
 21
-2924.0000000009049
 31
0.0
1001
ACDBBLOCKREPETAG
1070
     1
1071
       63
1005
12E399
  0
LINE
  5
12E39A
  8
OBJECT
 10
228.00000000003459
 20
-2861.0000000009049
 30
0.0
 11
228.00000000003459
 21
-2902.5000000009049
 31
0.0
1001
ACDBBLOCKREPETAG
1070
     1
1071
       64
1005
12E39A
  0
LINE
  5
12E39B
  8
OBJECT
 10
228.00000000003459
 20
-2902.5000000009049
 30
0.0
 11
221.50000000003459
 21
-2914.0000000009049
 31
0.0
1001
ACDBBLOCKREPETAG
1070
     1
1071
       65
1005
12E39B
  0
LINE
  5
12E39C
  8
OBJECT
 10
221.50000000003459
 20
-2914.0000000009049
 30
0.0
 11
218.00000000003459
 21
-2918.0000000009049
 31
0.0
1001
ACDBBLOCKREPETAG
1070
     1
1071
       66
1005
12E39C
  0
LINE
  5
12E39D
  8
OBJECT
 10
84.000000000034575
 20
-2902.5000000009049
 30
0.0
 11
90.500000000034547
 21
-2914.0000000009049
 31
0.0
1001
ACDBBLOCKREPETAG
1070
     1
1071
       67
1005
12E39D
  0
LINE
  5
12E39E
  8
OBJECT
 10
90.500000000034547
 20
-2914.0000000009049
 30
0.0
 11
94.000000000034575
 21
-2918.0000000009049
 31
0.0
1001
ACDBBLOCKREPETAG
1070
     1
1071
       68
1005
12E39E
  0
ARC
  5
12E39F
  8
OBJECT
 10
156.0000000000345
 20
-2536.100000000903
 30
0.0
 40
386.89999999999998
 50
260.77870136257849
 51
279.22129863742163
1001
ACDBBLOCKREPETAG
1070
     1
1071
       69
1005
12E39F
  0
LINE
  5
12E3A0
  8
OBJECT
 10
94.000000000034575
 20
-2918.0000000009049
 30
0.0
 11
94.000000000034575
 21
-2924.0000000009049
 31
0.0
1001
ACDBBLOCKREPETAG
1070
     1
1071
       70
1005
12E3A0
  0
LINE
  5
12E3A1
  8
OBJECT
 10
84.000000000034575
 20
-2861.0000000009049
 30
0.0
 11
84.000000000034575
 21
-2902.5000000009049
 31
0.0
1001
ACDBBLOCKREPETAG
1070
     1
1071
       71
1005
12E3A1
  0
INSERT
  5
12E3A2
  8
OBJECT
  2
*U10
 10
0.0
 20
0.0
 30
0.0
  0
LINE
  5
12E3A3
  8
HIDDEN
 10
213.00000000003459
 20
-2906.0000000009049
 30
0.0
 11
99.000000000034575
 21
-2906.0000000009049
 31
0.0
1001
ACDBBLOCKREPETAG
1070
     1
1071
      431
1005
12E3A3
  0
LINE
  5
12E3A4
  8
OBJECT
 10
94.000000000034575
 20
-2623.0000000008981
 30
0.0
 11
94.000000000034575
 21
-2620.0000000008981
 31
0.0
1001
ACDBBLOCKREPETAG
1070
     1
1071
      418
1005
12E3A4
  0
ARC
  5
12E3A5
  8
OBJECT
 10
97.000000000034561
 20
-2623.0000000008981
 30
0.0
 40
3.0
 50
180.0
 51
270.0
1001
ACDBBLOCKREPETAG
1070
     1
1071
      419
1005
12E3A5
  0
LINE
  5
12E3A6
  8
OBJECT
 10
218.00000000003459
 20
-2620.0000000008981
 30
0.0
 11
218.00000000003459
 21
-2623.0000000008981
 31
0.0
1001
ACDBBLOCKREPETAG
1070
     1
1071
      420
1005
12E3A6
  0
ARC
  5
12E3A7
  8
OBJECT
 10
215.00000000003459
 20
-2623.0000000008981
 30
0.0
 40
3.0
 50
270.0
 51
0.0
1001
ACDBBLOCKREPETAG
1070
     1
1071
      421
1005
12E3A7
  0
LINE
  5
12E3A8
  8
OBJECT
 10
215.00000000003459
 20
-2626.0000000008981
 30
0.0
 11
97.000000000034561
 21
-2626.0000000008981
 31
0.0
1001
ACDBBLOCKREPETAG
1070
     1
1071
      422
1005
12E3A8
  0
INSERT
  5
12E3A9
  8
OBJECT
  2
*U11
 10
0.0
 20
0.0
 30
0.0
  0
LINE
  5
12E3AA
  8
OBJECT
 10
289.00000000003462
 20
-2478.000000000899
 30
0.0
 11
296.0000000000345
 21
-2478.000000000899
 31
0.0
1001
ACDBBLOCKREPETAG
1070
     1
1071
       39
1005
12E3AA
  0
LINE
  5
12E3AB
  8
OBJECT
 10
296.0000000000345
 20
-2478.000000000899
 30
0.0
 11
296.0000000000345
 21
-2602.0000000008981
 31
0.0
1001
ACDBBLOCKREPETAG
1070
     1
1071
       40
1005
12E3AB
  0
LINE
  5
12E3AC
  8
OBJECT
 10
296.0000000000345
 20
-2602.0000000008981
 30
0.0
 11
289.00000000003462
 21
-2602.0000000008981
 31
0.0
1001
ACDBBLOCKREPETAG
1070
     1
1071
       41
1005
12E3AC
  0
LINE
  5
12E3AD
  8
OBJECT
 10
289.00000000003462
 20
-2602.0000000008981
 30
0.0
 11
289.00000000003462
 21
-2478.000000000899
 31
0.0
1001
ACDBBLOCKREPETAG
1070
     1
1071
       42
1005
12E3AD
  0
LINE
  5
12E3AE
  8
OBJECT
 10
289.00000000003462
 20
-2481.000000000899
 30
0.0
 11
253.00000000003459
 21
-2481.000000000899
 31
0.0
1001
ACDBBLOCKREPETAG
1070
     1
1071
       43
1005
12E3AE
  0
LINE
  5
12E3AF
  8
OBJECT
 10
253.00000000003459
 20
-2481.000000000899
 30
0.0
 11
253.00000000003459
 21
-2599.000000000899
 31
0.0
1001
ACDBBLOCKREPETAG
1070
     1
1071
       44
1005
12E3AF
  0
LINE
  5
12E3B0
  8
OBJECT
 10
253.00000000003459
 20
-2599.000000000899
 30
0.0
 11
289.00000000003462
 21
-2599.000000000899
 31
0.0
1001
ACDBBLOCKREPETAG
1070
     1
1071
       45
1005
12E3B0
  0
LINE
  5
12E3B1
  8
OBJECT
 10
249.00000000003459
 20
-2485.5000000008981
 30
0.0
 11
242.00000000003459
 21
-2485.5000000008981
 31
0.0
1001
ACDBBLOCKREPETAG
1070
     1
1071
       46
1005
12E3B1
  0
LINE
  5
12E3B2
  8
OBJECT
 10
242.00000000003459
 20
-2594.5000000008981
 30
0.0
 11
249.00000000003459
 21
-2594.5000000008981
 31
0.0
1001
ACDBBLOCKREPETAG
1070
     1
1071
       47
1005
12E3B2
  0
LINE
  5
12E3B3
  8
OBJECT
 10
249.00000000003459
 20
-2594.5000000008981
 30
0.0
 11
249.00000000003459
 21
-2485.5000000008981
 31
0.0
1001
ACDBBLOCKREPETAG
1070
     1
1071
       48
1005
12E3B3
  0
LINE
  5
12E3B4
  8
OBJECT
 10
253.00000000003459
 20
-2481.000000000899
 30
0.0
 11
249.00000000003459
 21
-2485.5000000008981
 31
0.0
1001
ACDBBLOCKREPETAG
1070
     1
1071
       49
1005
12E3B4
  0
LINE
  5
12E3B5
  8
OBJECT
 10
253.00000000003459
 20
-2599.000000000899
 30
0.0
 11
249.00000000003459
 21
-2594.5000000008981
 31
0.0
1001
ACDBBLOCKREPETAG
1070
     1
1071
       50
1005
12E3B5
  0
LINE
  5
12E3B6
  8
OBJECT
 10
239.00000000003641
 20
-2478.000000000899
 30
0.0
 11
236.00000000003459
 21
-2478.000000000899
 31
0.0
1001
ACDBBLOCKREPETAG
1070
     1
1071
       51
1005
12E3B6
  0
ARC
  5
12E3B7
  8
OBJECT
 10
239.00000000003641
 20
-2481.000000000899
 30
0.0
 40
3.0
 50
0.0
 51
90.0
1001
ACDBBLOCKREPETAG
1070
     1
1071
       52
1005
12E3B7
  0
LINE
  5
12E3B8
  8
OBJECT
 10
236.00000000003459
 20
-2602.0000000008981
 30
0.0
 11
239.00000000003271
 21
-2602.0000000008981
 31
0.0
1001
ACDBBLOCKREPETAG
1070
     1
1071
       53
1005
12E3B8
  0
ARC
  5
12E3B9
  8
OBJECT
 10
239.00000000003271
 20
-2599.000000000899
 30
0.0
 40
3.0
 50
270.0
 51
0.0
1001
ACDBBLOCKREPETAG
1070
     1
1071
       54
1005
12E3B9
  0
LINE
  5
12E3BA
  8
OBJECT
 10
242.0000000000328
 20
-2599.000000000899
 30
0.0
 11
242.00000000003641
 21
-2481.000000000899
 31
0.0
1001
ACDBBLOCKREPETAG
1070
     1
1071
       55
1005
12E3BA
  0
LINE
  5
12E3BB
  8
HIDDEN
 10
244.0000000000345
 20
-2495.500000000899
 30
0.0
 11
244.0000000000345
 21
-2584.5000000008981
 31
0.0
1001
ACDBBLOCKREPETAG
1070
     1
1071
      430
1005
12E3BB
  0
INSERT
  5
12E3BC
  8
OBJECT
  2
*U12
 10
0.0
 20
0.0
 30
0.0
  0
LINE
  5
12E3BD
  8
OBJECT
 10
94.000000000034575
 20
-2407.0000000008981
 30
0.0
 11
94.000000000034575
 21
-2400.0000000008981
 31
0.0
1001
ACDBBLOCKREPETAG
1070
     1
1071
       39
1005
12E3BD
  0
LINE
  5
12E3BE
  8
OBJECT
 10
94.000000000034575
 20
-2400.0000000008981
 30
0.0
 11
218.00000000003459
 21
-2400.0000000008981
 31
0.0
1001
ACDBBLOCKREPETAG
1070
     1
1071
       40
1005
12E3BE
  0
LINE
  5
12E3BF
  8
OBJECT
 10
218.00000000003459
 20
-2400.0000000008981
 30
0.0
 11
218.00000000003459
 21
-2407.0000000008981
 31
0.0
1001
ACDBBLOCKREPETAG
1070
     1
1071
       41
1005
12E3BF
  0
LINE
  5
12E3C0
  8
OBJECT
 10
218.00000000003459
 20
-2407.0000000008981
 30
0.0
 11
94.000000000034575
 21
-2407.0000000008981
 31
0.0
1001
ACDBBLOCKREPETAG
1070
     1
1071
       42
1005
12E3C0
  0
LINE
  5
12E3C1
  8
OBJECT
 10
97.000000000034561
 20
-2407.0000000008981
 30
0.0
 11
97.000000000034561
 21
-2443.0000000008981
 31
0.0
1001
ACDBBLOCKREPETAG
1070
     1
1071
       43
1005
12E3C1
  0
LINE
  5
12E3C2
  8
OBJECT
 10
97.000000000034561
 20
-2443.0000000008981
 30
0.0
 11
215.00000000003459
 21
-2443.0000000008981
 31
0.0
1001
ACDBBLOCKREPETAG
1070
     1
1071
       44
1005
12E3C2
  0
LINE
  5
12E3C3
  8
OBJECT
 10
215.00000000003459
 20
-2443.0000000008981
 30
0.0
 11
215.00000000003459
 21
-2407.0000000008981
 31
0.0
1001
ACDBBLOCKREPETAG
1070
     1
1071
       45
1005
12E3C3
  0
LINE
  5
12E3C4
  8
OBJECT
 10
101.5000000000345
 20
-2447.0000000008981
 30
0.0
 11
101.5000000000345
 21
-2454.0000000008981
 31
0.0
1001
ACDBBLOCKREPETAG
1070
     1
1071
       46
1005
12E3C4
  0
LINE
  5
12E3C5
  8
OBJECT
 10
210.5000000000345
 20
-2454.0000000008981
 30
0.0
 11
210.5000000000345
 21
-2447.0000000008981
 31
0.0
1001
ACDBBLOCKREPETAG
1070
     1
1071
       47
1005
12E3C5
  0
LINE
  5
12E3C6
  8
OBJECT
 10
210.5000000000345
 20
-2447.0000000008981
 30
0.0
 11
101.5000000000345
 21
-2447.0000000008981
 31
0.0
1001
ACDBBLOCKREPETAG
1070
     1
1071
       48
1005
12E3C6
  0
LINE
  5
12E3C7
  8
OBJECT
 10
97.000000000034561
 20
-2443.0000000008981
 30
0.0
 11
101.5000000000345
 21
-2447.0000000008981
 31
0.0
1001
ACDBBLOCKREPETAG
1070
     1
1071
       49
1005
12E3C7
  0
LINE
  5
12E3C8
  8
OBJECT
 10
215.00000000003459
 20
-2443.0000000008981
 30
0.0
 11
210.5000000000345
 21
-2447.0000000008981
 31
0.0
1001
ACDBBLOCKREPETAG
1070
     1
1071
       50
1005
12E3C8
  0
LINE
  5
12E3C9
  8
OBJECT
 10
94.000000000034575
 20
-2457.0000000008981
 30
0.0
 11
94.000000000034575
 21
-2460.0000000008981
 31
0.0
1001
ACDBBLOCKREPETAG
1070
     1
1071
       51
1005
12E3C9
  0
ARC
  5
12E3CA
  8
OBJECT
 10
97.000000000034561
 20
-2457.0000000008981
 30
0.0
 40
3.0
 50
90.0
 51
180.0
1001
ACDBBLOCKREPETAG
1070
     1
1071
       52
1005
12E3CA
  0
LINE
  5
12E3CB
  8
OBJECT
 10
218.00000000003459
 20
-2460.0000000008981
 30
0.0
 11
218.00000000003459
 21
-2457.0000000008999
 31
0.0
1001
ACDBBLOCKREPETAG
1070
     1
1071
       53
1005
12E3CB
  0
ARC
  5
12E3CC
  8
OBJECT
 10
215.00000000003459
 20
-2457.0000000008999
 30
0.0
 40
3.0
 50
0.0
 51
90.0
1001
ACDBBLOCKREPETAG
1070
     1
1071
       54
1005
12E3CC
  0
LINE
  5
12E3CD
  8
OBJECT
 10
215.00000000003459
 20
-2454.000000000899
 30
0.0
 11
97.000000000034561
 21
-2454.0000000008981
 31
0.0
1001
ACDBBLOCKREPETAG
1070
     1
1071
       55
1005
12E3CD
  0
LINE
  5
12E3CE
  8
HIDDEN
 10
111.5000000000345
 20
-2452.0000000008981
 30
0.0
 11
200.50000000003459
 21
-2452.0000000008981
 31
0.0
1001
ACDBBLOCKREPETAG
1070
     1
1071
      426
1005
12E3CE
  0
LINE
  5
12E3CF
  8
OBJECT
 10
454.00000000011448
 20
-2623.0000000008981
 30
0.0
 11
454.00000000011448
 21
-2620.0000000008981
 31
0.0
1001
ACDBBLOCKREPETAG
1070
     1
1071
      418
1005
12E3CF
  0
ARC
  5
12E3D0
  8
OBJECT
 10
457.0000000001146
 20
-2623.0000000008981
 30
0.0
 40
3.0
 50
180.0
 51
270.0
1001
ACDBBLOCKREPETAG
1070
     1
1071
      419
1005
12E3D0
  0
LINE
  5
12E3D1
  8
OBJECT
 10
578.00000000011448
 20
-2620.0000000008981
 30
0.0
 11
578.00000000011448
 21
-2623.0000000008981
 31
0.0
1001
ACDBBLOCKREPETAG
1070
     1
1071
      420
1005
12E3D1
  0
ARC
  5
12E3D2
  8
OBJECT
 10
575.00000000011426
 20
-2623.0000000008981
 30
0.0
 40
3.0
 50
270.0
 51
0.0
1001
ACDBBLOCKREPETAG
1070
     1
1071
      421
1005
12E3D2
  0
LINE
  5
12E3D3
  8
OBJECT
 10
575.00000000011426
 20
-2626.0000000008981
 30
0.0
 11
457.0000000001146
 21
-2626.0000000008981
 31
0.0
1001
ACDBBLOCKREPETAG
1070
     1
1071
      422
1005
12E3D3
  0
LINE
  5
12E3D4
  8
OBJECT
 10
666.00000000011448
 20
-2465.000000000899
 30
0.0
 11
659.0000000001146
 21
-2465.000000000899
 31
0.0
1001
ACDBBLOCKREPETAG
1070
     1
1071
       57
1005
12E3D4
  0
LINE
  5
12E3D5
  8
OBJECT
 10
659.0000000001146
 20
-2465.000000000899
 30
0.0
 11
659.0000000001146
 21
-2615.000000000899
 31
0.0
1001
ACDBBLOCKREPETAG
1070
     1
1071
       58
1005
12E3D5
  0
LINE
  5
12E3D6
  8
OBJECT
 10
617.5000000001146
 20
-2468.0000000008981
 30
0.0
 11
617.5000000001146
 21
-2612.0000000008981
 31
0.0
1001
ACDBBLOCKREPETAG
1070
     1
1071
       59
1005
12E3D6
  0
LINE
  5
12E3D7
  8
OBJECT
 10
606.0000000001146
 20
-2474.5000000008981
 30
0.0
 11
606.0000000001146
 21
-2605.5000000008981
 31
0.0
1001
ACDBBLOCKREPETAG
1070
     1
1071
       60
1005
12E3D7
  0
LINE
  5
12E3D8
  8
OBJECT
 10
659.0000000001146
 20
-2615.000000000899
 30
0.0
 11
666.00000000011448
 21
-2615.000000000899
 31
0.0
1001
ACDBBLOCKREPETAG
1070
     1
1071
       61
1005
12E3D8
  0
LINE
  5
12E3D9
  8
OBJECT
 10
666.00000000011448
 20
-2615.000000000899
 30
0.0
 11
666.00000000011448
 21
-2465.000000000899
 31
0.0
1001
ACDBBLOCKREPETAG
1070
     1
1071
       62
1005
12E3D9
  0
LINE
  5
12E3DA
  8
OBJECT
 10
602.0000000001146
 20
-2602.0000000008981
 30
0.0
 11
596.00000000011426
 21
-2602.0000000008981
 31
0.0
1001
ACDBBLOCKREPETAG
1070
     1
1071
       63
1005
12E3DA
  0
LINE
  5
12E3DB
  8
OBJECT
 10
659.0000000001146
 20
-2612.0000000008981
 30
0.0
 11
617.5000000001146
 21
-2612.0000000008981
 31
0.0
1001
ACDBBLOCKREPETAG
1070
     1
1071
       64
1005
12E3DB
  0
LINE
  5
12E3DC
  8
OBJECT
 10
617.5000000001146
 20
-2612.0000000008981
 30
0.0
 11
606.0000000001146
 21
-2605.5000000008981
 31
0.0
1001
ACDBBLOCKREPETAG
1070
     1
1071
       65
1005
12E3DC
  0
LINE
  5
12E3DD
  8
OBJECT
 10
606.0000000001146
 20
-2605.5000000008981
 30
0.0
 11
602.0000000001146
 21
-2602.0000000008981
 31
0.0
1001
ACDBBLOCKREPETAG
1070
     1
1071
       66
1005
12E3DD
  0
LINE
  5
12E3DE
  8
OBJECT
 10
617.5000000001146
 20
-2468.0000000008981
 30
0.0
 11
606.0000000001146
 21
-2474.5000000008981
 31
0.0
1001
ACDBBLOCKREPETAG
1070
     1
1071
       67
1005
12E3DE
  0
LINE
  5
12E3DF
  8
OBJECT
 10
606.0000000001146
 20
-2474.5000000008981
 30
0.0
 11
602.0000000001146
 21
-2478.000000000899
 31
0.0
1001
ACDBBLOCKREPETAG
1070
     1
1071
       68
1005
12E3DF
  0
ARC
  5
12E3E0
  8
OBJECT
 10
983.90000000011605
 20
-2540.0000000008981
 30
0.0
 40
386.89999999999998
 50
170.77870136263201
 51
189.22129863736799
1001
ACDBBLOCKREPETAG
1070
     1
1071
       69
1005
12E3E0
  0
LINE
  5
12E3E1
  8
OBJECT
 10
602.0000000001146
 20
-2478.000000000899
 30
0.0
 11
596.00000000011426
 21
-2478.000000000899
 31
0.0
1001
ACDBBLOCKREPETAG
1070
     1
1071
       70
1005
12E3E1
  0
LINE
  5
12E3E2
  8
OBJECT
 10
659.0000000001146
 20
-2468.0000000008981
 30
0.0
 11
617.5000000001146
 21
-2468.0000000008981
 31
0.0
1001
ACDBBLOCKREPETAG
1070
     1
1071
       71
1005
12E3E2
  0
INSERT
  5
12E3E3
  8
OBJECT
  2
*U13
 10
0.0
 20
0.0
 30
0.0
  0
LINE
  5
12E3E4
  8
HIDDEN
 10
614.0000000001146
 20
-2597.0000000008981
 30
0.0
 11
614.0000000001146
 21
-2483.0000000008981
 31
0.0
1001
ACDBBLOCKREPETAG
1070
     1
1071
      437
1005
12E3E4
  0
INSERT
  5
12E3E5
  8
OBJECT
  2
*U14
 10
0.0
 20
0.0
 30
0.0
  0
LINE
  5
12E3E6
  8
OBJECT
 10
454.00000000011448
 20
-2407.0000000008981
 30
0.0
 11
454.00000000011448
 21
-2400.0000000008981
 31
0.0
1001
ACDBBLOCKREPETAG
1070
     1
1071
       39
1005
12E3E6
  0
LINE
  5
12E3E7
  8
OBJECT
 10
454.00000000011448
 20
-2400.0000000008981
 30
0.0
 11
578.00000000011448
 21
-2400.0000000008981
 31
0.0
1001
ACDBBLOCKREPETAG
1070
     1
1071
       40
1005
12E3E7
  0
LINE
  5
12E3E8
  8
OBJECT
 10
578.00000000011448
 20
-2400.0000000008981
 30
0.0
 11
578.00000000011448
 21
-2407.0000000008981
 31
0.0
1001
ACDBBLOCKREPETAG
1070
     1
1071
       41
1005
12E3E8
  0
LINE
  5
12E3E9
  8
OBJECT
 10
578.00000000011448
 20
-2407.0000000008981
 30
0.0
 11
454.00000000011448
 21
-2407.0000000008981
 31
0.0
1001
ACDBBLOCKREPETAG
1070
     1
1071
       42
1005
12E3E9
  0
LINE
  5
12E3EA
  8
OBJECT
 10
457.0000000001146
 20
-2407.0000000008981
 30
0.0
 11
457.0000000001146
 21
-2443.0000000008981
 31
0.0
1001
ACDBBLOCKREPETAG
1070
     1
1071
       43
1005
12E3EA
  0
LINE
  5
12E3EB
  8
OBJECT
 10
457.0000000001146
 20
-2443.0000000008981
 30
0.0
 11
575.00000000011426
 21
-2443.0000000008981
 31
0.0
1001
ACDBBLOCKREPETAG
1070
     1
1071
       44
1005
12E3EB
  0
LINE
  5
12E3EC
  8
OBJECT
 10
575.00000000011426
 20
-2443.0000000008981
 30
0.0
 11
575.00000000011426
 21
-2407.0000000008981
 31
0.0
1001
ACDBBLOCKREPETAG
1070
     1
1071
       45
1005
12E3EC
  0
LINE
  5
12E3ED
  8
OBJECT
 10
461.50000000011448
 20
-2447.0000000008981
 30
0.0
 11
461.50000000011448
 21
-2454.0000000008981
 31
0.0
1001
ACDBBLOCKREPETAG
1070
     1
1071
       46
1005
12E3ED
  0
LINE
  5
12E3EE
  8
OBJECT
 10
570.50000000011437
 20
-2454.0000000008981
 30
0.0
 11
570.50000000011437
 21
-2447.0000000008981
 31
0.0
1001
ACDBBLOCKREPETAG
1070
     1
1071
       47
1005
12E3EE
  0
LINE
  5
12E3EF
  8
OBJECT
 10
570.50000000011437
 20
-2447.0000000008981
 30
0.0
 11
461.50000000011448
 21
-2447.0000000008981
 31
0.0
1001
ACDBBLOCKREPETAG
1070
     1
1071
       48
1005
12E3EF
  0
LINE
  5
12E3F0
  8
OBJECT
 10
457.0000000001146
 20
-2443.0000000008981
 30
0.0
 11
461.50000000011448
 21
-2447.0000000008981
 31
0.0
1001
ACDBBLOCKREPETAG
1070
     1
1071
       49
1005
12E3F0
  0
LINE
  5
12E3F1
  8
OBJECT
 10
575.00000000011426
 20
-2443.0000000008981
 30
0.0
 11
570.50000000011437
 21
-2447.0000000008981
 31
0.0
1001
ACDBBLOCKREPETAG
1070
     1
1071
       50
1005
12E3F1
  0
LINE
  5
12E3F2
  8
OBJECT
 10
454.00000000011448
 20
-2457.0000000008981
 30
0.0
 11
454.00000000011448
 21
-2460.0000000008981
 31
0.0
1001
ACDBBLOCKREPETAG
1070
     1
1071
       51
1005
12E3F2
  0
ARC
  5
12E3F3
  8
OBJECT
 10
457.0000000001146
 20
-2457.0000000008981
 30
0.0
 40
3.0
 50
90.0
 51
180.0
1001
ACDBBLOCKREPETAG
1070
     1
1071
       52
1005
12E3F3
  0
LINE
  5
12E3F4
  8
OBJECT
 10
578.00000000011448
 20
-2460.0000000008981
 30
0.0
 11
578.00000000011448
 21
-2457.0000000008999
 31
0.0
1001
ACDBBLOCKREPETAG
1070
     1
1071
       53
1005
12E3F4
  0
ARC
  5
12E3F5
  8
OBJECT
 10
575.00000000011426
 20
-2457.0000000008999
 30
0.0
 40
3.0
 50
0.0
 51
90.0
1001
ACDBBLOCKREPETAG
1070
     1
1071
       54
1005
12E3F5
  0
LINE
  5
12E3F6
  8
OBJECT
 10
575.00000000011426
 20
-2454.000000000899
 30
0.0
 11
457.0000000001146
 21
-2454.0000000008981
 31
0.0
1001
ACDBBLOCKREPETAG
1070
     1
1071
       55
1005
12E3F6
  0
LINE
  5
12E3F7
  8
HIDDEN
 10
471.5000000001146
 20
-2452.0000000008981
 30
0.0
 11
560.5000000001146
 21
-2452.0000000008981
 31
0.0
1001
ACDBBLOCKREPETAG
1070
     1
1071
      426
1005
12E3F7
  0
LINE
  5
12E3F8
  8
OBJECT
 10
454.00000000011448
 20
-2159.0000000008922
 30
0.0
 11
454.00000000011448
 21
-2156.0000000008922
 31
0.0
1001
ACDBBLOCKREPETAG
1070
     1
1071
      418
1005
12E3F8
  0
ARC
  5
12E3F9
  8
OBJECT
 10
457.0000000001146
 20
-2159.0000000008922
 30
0.0
 40
3.0
 50
180.0
 51
270.0
1001
ACDBBLOCKREPETAG
1070
     1
1071
      419
1005
12E3F9
  0
LINE
  5
12E3FA
  8
OBJECT
 10
578.00000000011448
 20
-2156.0000000008922
 30
0.0
 11
578.00000000011448
 21
-2159.0000000008922
 31
0.0
1001
ACDBBLOCKREPETAG
1070
     1
1071
      420
1005
12E3FA
  0
ARC
  5
12E3FB
  8
OBJECT
 10
575.00000000011426
 20
-2159.0000000008922
 30
0.0
 40
3.0
 50
270.0
 51
0.0
1001
ACDBBLOCKREPETAG
1070
     1
1071
      421
1005
12E3FB
  0
LINE
  5
12E3FC
  8
OBJECT
 10
575.00000000011426
 20
-2162.0000000008922
 30
0.0
 11
457.0000000001146
 21
-2162.0000000008922
 31
0.0
1001
ACDBBLOCKREPETAG
1070
     1
1071
      422
1005
12E3FC
  0
INSERT
  5
12E3FD
  8
OBJECT
  2
*U15
 10
0.0
 20
0.0
 30
0.0
  0
LINE
  5
12E3FE
  8
OBJECT
 10
649.00000000011448
 20
-2021.000000000892
 30
0.0
 11
656.0000000001146
 21
-2021.000000000892
 31
0.0
1001
ACDBBLOCKREPETAG
1070
     1
1071
       20
1005
12E3FE
  0
LINE
  5
12E3FF
  8
OBJECT
 10
656.0000000001146
 20
-2021.000000000892
 30
0.0
 11
656.0000000001146
 21
-2131.0000000008922
 31
0.0
1001
ACDBBLOCKREPETAG
1070
     1
1071
       21
1005
12E3FF
  0
LINE
  5
12E400
  8
OBJECT
 10
656.0000000001146
 20
-2131.0000000008922
 30
0.0
 11
649.00000000011448
 21
-2131.0000000008922
 31
0.0
1001
ACDBBLOCKREPETAG
1070
     1
1071
       22
1005
12E400
  0
LINE
  5
12E401
  8
OBJECT
 10
649.00000000011448
 20
-2131.0000000008922
 30
0.0
 11
649.00000000011448
 21
-2021.000000000892
 31
0.0
1001
ACDBBLOCKREPETAG
1070
     1
1071
       23
1005
12E401
  0
LINE
  5
12E402
  8
OBJECT
 10
649.00000000011448
 20
-2024.000000000892
 30
0.0
 11
613.0000000001146
 21
-2024.000000000892
 31
0.0
1001
ACDBBLOCKREPETAG
1070
     1
1071
       24
1005
12E402
  0
LINE
  5
12E403
  8
OBJECT
 10
613.0000000001146
 20
-2024.000000000892
 30
0.0
 11
613.0000000001146
 21
-2128.0000000008922
 31
0.0
1001
ACDBBLOCKREPETAG
1070
     1
1071
       25
1005
12E403
  0
LINE
  5
12E404
  8
OBJECT
 10
613.0000000001146
 20
-2128.0000000008922
 30
0.0
 11
649.00000000011448
 21
-2128.0000000008922
 31
0.0
1001
ACDBBLOCKREPETAG
1070
     1
1071
       26
1005
12E404
  0
LINE
  5
12E405
  8
OBJECT
 10
609.0000000001146
 20
-2028.500000000892
 30
0.0
 11
602.0000000001146
 21
-2028.500000000892
 31
0.0
1001
ACDBBLOCKREPETAG
1070
     1
1071
       27
1005
12E405
  0
LINE
  5
12E406
  8
OBJECT
 10
602.0000000001146
 20
-2123.5000000008931
 30
0.0
 11
609.0000000001146
 21
-2123.5000000008931
 31
0.0
1001
ACDBBLOCKREPETAG
1070
     1
1071
       28
1005
12E406
  0
LINE
  5
12E407
  8
OBJECT
 10
609.0000000001146
 20
-2123.5000000008931
 30
0.0
 11
609.0000000001146
 21
-2028.500000000892
 31
0.0
1001
ACDBBLOCKREPETAG
1070
     1
1071
       29
1005
12E407
  0
LINE
  5
12E408
  8
OBJECT
 10
613.0000000001146
 20
-2024.000000000892
 30
0.0
 11
609.0000000001146
 21
-2028.500000000892
 31
0.0
1001
ACDBBLOCKREPETAG
1070
     1
1071
       30
1005
12E408
  0
LINE
  5
12E409
  8
OBJECT
 10
613.0000000001146
 20
-2128.0000000008922
 30
0.0
 11
609.0000000001146
 21
-2123.5000000008931
 31
0.0
1001
ACDBBLOCKREPETAG
1070
     1
1071
       31
1005
12E409
  0
LINE
  5
12E40A
  8
OBJECT
 10
599.00000000011607
 20
-2014.000000000892
 30
0.0
 11
596.00000000011426
 21
-2014.000000000892
 31
0.0
1001
ACDBBLOCKREPETAG
1070
     1
1071
       32
1005
12E40A
  0
ARC
  5
12E40B
  8
OBJECT
 10
599.00000000011607
 20
-2017.000000000892
 30
0.0
 40
3.0
 50
0.0
 51
90.0
1001
ACDBBLOCKREPETAG
1070
     1
1071
       33
1005
12E40B
  0
LINE
  5
12E40C
  8
OBJECT
 10
596.00000000011426
 20
-2138.0000000008922
 30
0.0
 11
599.00000000011278
 21
-2138.0000000008922
 31
0.0
1001
ACDBBLOCKREPETAG
1070
     1
1071
       34
1005
12E40C
  0
ARC
  5
12E40D
  8
OBJECT
 10
599.00000000011278
 20
-2135.0000000008922
 30
0.0
 40
3.0
 50
270.0
 51
0.0
1001
ACDBBLOCKREPETAG
1070
     1
1071
       35
1005
12E40D
  0
LINE
  5
12E40E
  8
OBJECT
 10
602.00000000011266
 20
-2135.0000000008922
 30
0.0
 11
602.0000000001163
 21
-2017.000000000892
 31
0.0
1001
ACDBBLOCKREPETAG
1070
     1
1071
       36
1005
12E40E
  0
LINE
  5
12E40F
  8
HIDDEN
 10
604.00000000011437
 20
-2038.0000000008911
 30
0.0
 11
604.00000000011437
 21
-2114.0000000008922
 31
0.0
1001
ACDBBLOCKREPETAG
1070
     1
1071
      427
1005
12E40F
  0
INSERT
  5
12E410
  8
OBJECT
  2
*U16
 10
0.0
 20
0.0
 30
0.0
  0
LINE
  5
12E411
  8
OBJECT
 10
454.00000000011448
 20
-1943.000000000892
 30
0.0
 11
454.00000000011448
 21
-1936.0000000008911
 31
0.0
1001
ACDBBLOCKREPETAG
1070
     1
1071
       39
1005
12E411
  0
LINE
  5
12E412
  8
OBJECT
 10
454.00000000011448
 20
-1936.0000000008911
 30
0.0
 11
578.00000000011448
 21
-1936.0000000008911
 31
0.0
1001
ACDBBLOCKREPETAG
1070
     1
1071
       40
1005
12E412
  0
LINE
  5
12E413
  8
OBJECT
 10
578.00000000011448
 20
-1936.0000000008911
 30
0.0
 11
578.00000000011448
 21
-1943.000000000892
 31
0.0
1001
ACDBBLOCKREPETAG
1070
     1
1071
       41
1005
12E413
  0
LINE
  5
12E414
  8
OBJECT
 10
578.00000000011448
 20
-1943.000000000892
 30
0.0
 11
454.00000000011448
 21
-1943.000000000892
 31
0.0
1001
ACDBBLOCKREPETAG
1070
     1
1071
       42
1005
12E414
  0
LINE
  5
12E415
  8
OBJECT
 10
457.0000000001146
 20
-1943.000000000892
 30
0.0
 11
457.0000000001146
 21
-1979.000000000892
 31
0.0
1001
ACDBBLOCKREPETAG
1070
     1
1071
       43
1005
12E415
  0
LINE
  5
12E416
  8
OBJECT
 10
457.0000000001146
 20
-1979.000000000892
 30
0.0
 11
575.00000000011426
 21
-1979.000000000892
 31
0.0
1001
ACDBBLOCKREPETAG
1070
     1
1071
       44
1005
12E416
  0
LINE
  5
12E417
  8
OBJECT
 10
575.00000000011426
 20
-1979.000000000892
 30
0.0
 11
575.00000000011426
 21
-1943.000000000892
 31
0.0
1001
ACDBBLOCKREPETAG
1070
     1
1071
       45
1005
12E417
  0
LINE
  5
12E418
  8
OBJECT
 10
461.50000000011448
 20
-1983.000000000892
 30
0.0
 11
461.50000000011448
 21
-1990.000000000892
 31
0.0
1001
ACDBBLOCKREPETAG
1070
     1
1071
       46
1005
12E418
  0
LINE
  5
12E419
  8
OBJECT
 10
570.50000000011437
 20
-1990.000000000892
 30
0.0
 11
570.50000000011437
 21
-1983.000000000892
 31
0.0
1001
ACDBBLOCKREPETAG
1070
     1
1071
       47
1005
12E419
  0
LINE
  5
12E41A
  8
OBJECT
 10
570.50000000011437
 20
-1983.000000000892
 30
0.0
 11
461.50000000011448
 21
-1983.000000000892
 31
0.0
1001
ACDBBLOCKREPETAG
1070
     1
1071
       48
1005
12E41A
  0
LINE
  5
12E41B
  8
OBJECT
 10
457.0000000001146
 20
-1979.000000000892
 30
0.0
 11
461.50000000011448
 21
-1983.000000000892
 31
0.0
1001
ACDBBLOCKREPETAG
1070
     1
1071
       49
1005
12E41B
  0
LINE
  5
12E41C
  8
OBJECT
 10
575.00000000011426
 20
-1979.000000000892
 30
0.0
 11
570.50000000011437
 21
-1983.000000000892
 31
0.0
1001
ACDBBLOCKREPETAG
1070
     1
1071
       50
1005
12E41C
  0
LINE
  5
12E41D
  8
OBJECT
 10
454.00000000011448
 20
-1993.0000000008911
 30
0.0
 11
454.00000000011448
 21
-1996.000000000892
 31
0.0
1001
ACDBBLOCKREPETAG
1070
     1
1071
       51
1005
12E41D
  0
ARC
  5
12E41E
  8
OBJECT
 10
457.0000000001146
 20
-1993.0000000008911
 30
0.0
 40
3.0
 50
90.0
 51
180.0
1001
ACDBBLOCKREPETAG
1070
     1
1071
       52
1005
12E41E
  0
LINE
  5
12E41F
  8
OBJECT
 10
578.00000000011448
 20
-1996.000000000892
 30
0.0
 11
578.00000000011448
 21
-1993.0000000008929
 31
0.0
1001
ACDBBLOCKREPETAG
1070
     1
1071
       53
1005
12E41F
  0
ARC
  5
12E420
  8
OBJECT
 10
575.00000000011426
 20
-1993.0000000008929
 30
0.0
 40
3.0
 50
0.0
 51
90.0
1001
ACDBBLOCKREPETAG
1070
     1
1071
       54
1005
12E420
  0
LINE
  5
12E421
  8
OBJECT
 10
575.00000000011426
 20
-1990.0000000008929
 30
0.0
 11
457.0000000001146
 21
-1990.0000000008911
 31
0.0
1001
ACDBBLOCKREPETAG
1070
     1
1071
       55
1005
12E421
  0
LINE
  5
12E422
  8
HIDDEN
 10
471.5000000001146
 20
-1988.0000000008911
 30
0.0
 11
560.5000000001146
 21
-1988.0000000008911
 31
0.0
1001
ACDBBLOCKREPETAG
1070
     1
1071
      426
1005
12E422
  0
LINE
  5
12E423
  8
OBJECT
 10
94.000000000034575
 20
-2159.0000000008922
 30
0.0
 11
94.000000000034575
 21
-2156.0000000008922
 31
0.0
1001
ACDBBLOCKREPETAG
1070
     1
1071
      418
1005
12E423
  0
ARC
  5
12E424
  8
OBJECT
 10
97.000000000034561
 20
-2159.0000000008922
 30
0.0
 40
3.0
 50
180.0
 51
270.0
1001
ACDBBLOCKREPETAG
1070
     1
1071
      419
1005
12E424
  0
LINE
  5
12E425
  8
OBJECT
 10
218.00000000003459
 20
-2156.0000000008922
 30
0.0
 11
218.00000000003459
 21
-2159.0000000008922
 31
0.0
1001
ACDBBLOCKREPETAG
1070
     1
1071
      420
1005
12E425
  0
ARC
  5
12E426
  8
OBJECT
 10
215.00000000003459
 20
-2159.0000000008922
 30
0.0
 40
3.0
 50
270.0
 51
0.0
1001
ACDBBLOCKREPETAG
1070
     1
1071
      421
1005
12E426
  0
LINE
  5
12E427
  8
OBJECT
 10
215.00000000003459
 20
-2162.0000000008922
 30
0.0
 11
97.000000000034561
 21
-2162.0000000008922
 31
0.0
1001
ACDBBLOCKREPETAG
1070
     1
1071
      422
1005
12E427
  0
INSERT
  5
12E428
  8
OBJECT
  2
*U17
 10
0.0
 20
0.0
 30
0.0
  0
LINE
  5
12E429
  8
OBJECT
 10
289.00000000003462
 20
-2029.000000000892
 30
0.0
 11
296.0000000000345
 21
-2029.000000000892
 31
0.0
1001
ACDBBLOCKREPETAG
1070
     1
1071
        1
1005
12E429
  0
LINE
  5
12E42A
  8
OBJECT
 10
296.0000000000345
 20
-2029.000000000892
 30
0.0
 11
296.0000000000345
 21
-2123.0000000008922
 31
0.0
1001
ACDBBLOCKREPETAG
1070
     1
1071
        2
1005
12E42A
  0
LINE
  5
12E42B
  8
OBJECT
 10
296.0000000000345
 20
-2123.0000000008922
 30
0.0
 11
289.00000000003462
 21
-2123.0000000008922
 31
0.0
1001
ACDBBLOCKREPETAG
1070
     1
1071
        3
1005
12E42B
  0
LINE
  5
12E42C
  8
OBJECT
 10
289.00000000003462
 20
-2123.0000000008922
 30
0.0
 11
289.00000000003462
 21
-2029.000000000892
 31
0.0
1001
ACDBBLOCKREPETAG
1070
     1
1071
        4
1005
12E42C
  0
LINE
  5
12E42D
  8
OBJECT
 10
289.00000000003462
 20
-2032.000000000892
 30
0.0
 11
253.00000000003459
 21
-2032.000000000892
 31
0.0
1001
ACDBBLOCKREPETAG
1070
     1
1071
        5
1005
12E42D
  0
LINE
  5
12E42E
  8
OBJECT
 10
253.00000000003459
 20
-2032.000000000892
 30
0.0
 11
253.00000000003459
 21
-2120.0000000008922
 31
0.0
1001
ACDBBLOCKREPETAG
1070
     1
1071
        6
1005
12E42E
  0
LINE
  5
12E42F
  8
OBJECT
 10
253.00000000003459
 20
-2120.0000000008922
 30
0.0
 11
289.00000000003462
 21
-2120.0000000008922
 31
0.0
1001
ACDBBLOCKREPETAG
1070
     1
1071
        7
1005
12E42F
  0
LINE
  5
12E430
  8
OBJECT
 10
249.00000000003459
 20
-2036.500000000892
 30
0.0
 11
242.00000000003459
 21
-2036.500000000892
 31
0.0
1001
ACDBBLOCKREPETAG
1070
     1
1071
        8
1005
12E430
  0
LINE
  5
12E431
  8
OBJECT
 10
242.00000000003459
 20
-2115.5000000008922
 30
0.0
 11
249.00000000003459
 21
-2115.5000000008922
 31
0.0
1001
ACDBBLOCKREPETAG
1070
     1
1071
        9
1005
12E431
  0
LINE
  5
12E432
  8
OBJECT
 10
249.00000000003459
 20
-2115.5000000008922
 30
0.0
 11
249.00000000003459
 21
-2036.500000000892
 31
0.0
1001
ACDBBLOCKREPETAG
1070
     1
1071
       10
1005
12E432
  0
LINE
  5
12E433
  8
OBJECT
 10
253.00000000003459
 20
-2032.000000000892
 30
0.0
 11
249.00000000003459
 21
-2036.500000000892
 31
0.0
1001
ACDBBLOCKREPETAG
1070
     1
1071
       11
1005
12E433
  0
LINE
  5
12E434
  8
OBJECT
 10
253.00000000003459
 20
-2120.0000000008922
 30
0.0
 11
249.00000000003459
 21
-2115.5000000008922
 31
0.0
1001
ACDBBLOCKREPETAG
1070
     1
1071
       12
1005
12E434
  0
LINE
  5
12E435
  8
OBJECT
 10
239.00000000003641
 20
-2014.000000000892
 30
0.0
 11
236.00000000003459
 21
-2014.000000000892
 31
0.0
1001
ACDBBLOCKREPETAG
1070
     1
1071
       13
1005
12E435
  0
ARC
  5
12E436
  8
OBJECT
 10
239.00000000003641
 20
-2017.000000000892
 30
0.0
 40
3.0
 50
0.0
 51
90.0
1001
ACDBBLOCKREPETAG
1070
     1
1071
       14
1005
12E436
  0
LINE
  5
12E437
  8
OBJECT
 10
236.00000000003459
 20
-2138.0000000008922
 30
0.0
 11
239.00000000003271
 21
-2138.0000000008922
 31
0.0
1001
ACDBBLOCKREPETAG
1070
     1
1071
       15
1005
12E437
  0
ARC
  5
12E438
  8
OBJECT
 10
239.00000000003271
 20
-2135.0000000008922
 30
0.0
 40
3.0
 50
270.0
 51
0.0
1001
ACDBBLOCKREPETAG
1070
     1
1071
       16
1005
12E438
  0
LINE
  5
12E439
  8
OBJECT
 10
242.0000000000328
 20
-2135.0000000008922
 30
0.0
 11
242.00000000003641
 21
-2017.000000000892
 31
0.0
1001
ACDBBLOCKREPETAG
1070
     1
1071
       17
1005
12E439
  0
LINE
  5
12E43A
  8
HIDDEN
 10
244.0000000000345
 20
-2046.000000000892
 30
0.0
 11
244.0000000000345
 21
-2106.0000000008922
 31
0.0
1001
ACDBBLOCKREPETAG
1070
     1
1071
      424
1005
12E43A
  0
INSERT
  5
12E43B
  8
OBJECT
  2
*U18
 10
0.0
 20
0.0
 30
0.0
  0
LINE
  5
12E43C
  8
OBJECT
 10
94.000000000034575
 20
-1943.000000000892
 30
0.0
 11
94.000000000034575
 21
-1936.0000000008911
 31
0.0
1001
ACDBBLOCKREPETAG
1070
     1
1071
       39
1005
12E43C
  0
LINE
  5
12E43D
  8
OBJECT
 10
94.000000000034575
 20
-1936.0000000008911
 30
0.0
 11
218.00000000003459
 21
-1936.0000000008911
 31
0.0
1001
ACDBBLOCKREPETAG
1070
     1
1071
       40
1005
12E43D
  0
LINE
  5
12E43E
  8
OBJECT
 10
218.00000000003459
 20
-1936.0000000008911
 30
0.0
 11
218.00000000003459
 21
-1943.000000000892
 31
0.0
1001
ACDBBLOCKREPETAG
1070
     1
1071
       41
1005
12E43E
  0
LINE
  5
12E43F
  8
OBJECT
 10
218.00000000003459
 20
-1943.000000000892
 30
0.0
 11
94.000000000034575
 21
-1943.000000000892
 31
0.0
1001
ACDBBLOCKREPETAG
1070
     1
1071
       42
1005
12E43F
  0
LINE
  5
12E440
  8
OBJECT
 10
97.000000000034561
 20
-1943.000000000892
 30
0.0
 11
97.000000000034561
 21
-1979.000000000892
 31
0.0
1001
ACDBBLOCKREPETAG
1070
     1
1071
       43
1005
12E440
  0
LINE
  5
12E441
  8
OBJECT
 10
97.000000000034561
 20
-1979.000000000892
 30
0.0
 11
215.00000000003459
 21
-1979.000000000892
 31
0.0
1001
ACDBBLOCKREPETAG
1070
     1
1071
       44
1005
12E441
  0
LINE
  5
12E442
  8
OBJECT
 10
215.00000000003459
 20
-1979.000000000892
 30
0.0
 11
215.00000000003459
 21
-1943.000000000892
 31
0.0
1001
ACDBBLOCKREPETAG
1070
     1
1071
       45
1005
12E442
  0
LINE
  5
12E443
  8
OBJECT
 10
101.5000000000345
 20
-1983.000000000892
 30
0.0
 11
101.5000000000345
 21
-1990.000000000892
 31
0.0
1001
ACDBBLOCKREPETAG
1070
     1
1071
       46
1005
12E443
  0
LINE
  5
12E444
  8
OBJECT
 10
210.5000000000345
 20
-1990.000000000892
 30
0.0
 11
210.5000000000345
 21
-1983.000000000892
 31
0.0
1001
ACDBBLOCKREPETAG
1070
     1
1071
       47
1005
12E444
  0
LINE
  5
12E445
  8
OBJECT
 10
210.5000000000345
 20
-1983.000000000892
 30
0.0
 11
101.5000000000345
 21
-1983.000000000892
 31
0.0
1001
ACDBBLOCKREPETAG
1070
     1
1071
       48
1005
12E445
  0
LINE
  5
12E446
  8
OBJECT
 10
97.000000000034561
 20
-1979.000000000892
 30
0.0
 11
101.5000000000345
 21
-1983.000000000892
 31
0.0
1001
ACDBBLOCKREPETAG
1070
     1
1071
       49
1005
12E446
  0
LINE
  5
12E447
  8
OBJECT
 10
215.00000000003459
 20
-1979.000000000892
 30
0.0
 11
210.5000000000345
 21
-1983.000000000892
 31
0.0
1001
ACDBBLOCKREPETAG
1070
     1
1071
       50
1005
12E447
  0
LINE
  5
12E448
  8
OBJECT
 10
94.000000000034575
 20
-1993.0000000008911
 30
0.0
 11
94.000000000034575
 21
-1996.000000000892
 31
0.0
1001
ACDBBLOCKREPETAG
1070
     1
1071
       51
1005
12E448
  0
ARC
  5
12E449
  8
OBJECT
 10
97.000000000034561
 20
-1993.0000000008911
 30
0.0
 40
3.0
 50
90.0
 51
180.0
1001
ACDBBLOCKREPETAG
1070
     1
1071
       52
1005
12E449
  0
LINE
  5
12E44A
  8
OBJECT
 10
218.00000000003459
 20
-1996.000000000892
 30
0.0
 11
218.00000000003459
 21
-1993.0000000008929
 31
0.0
1001
ACDBBLOCKREPETAG
1070
     1
1071
       53
1005
12E44A
  0
ARC
  5
12E44B
  8
OBJECT
 10
215.00000000003459
 20
-1993.0000000008929
 30
0.0
 40
3.0
 50
0.0
 51
90.0
1001
ACDBBLOCKREPETAG
1070
     1
1071
       54
1005
12E44B
  0
LINE
  5
12E44C
  8
OBJECT
 10
215.00000000003459
 20
-1990.0000000008929
 30
0.0
 11
97.000000000034561
 21
-1990.0000000008911
 31
0.0
1001
ACDBBLOCKREPETAG
1070
     1
1071
       55
1005
12E44C
  0
LINE
  5
12E44D
  8
HIDDEN
 10
111.5000000000345
 20
-1988.0000000008911
 30
0.0
 11
200.50000000003459
 21
-1988.0000000008911
 31
0.0
1001
ACDBBLOCKREPETAG
1070
     1
1071
      426
1005
12E44D
  0
LINE
  5
12E44E
  8
OBJECT
 10
94.000000000034575
 20
-1695.0000000008849
 30
0.0
 11
94.000000000034575
 21
-1692.000000000884
 31
0.0
1001
ACDBBLOCKREPETAG
1070
     1
1071
      418
1005
12E44E
  0
ARC
  5
12E44F
  8
OBJECT
 10
97.000000000034561
 20
-1695.0000000008849
 30
0.0
 40
3.0
 50
180.0
 51
270.0
1001
ACDBBLOCKREPETAG
1070
     1
1071
      419
1005
12E44F
  0
LINE
  5
12E450
  8
OBJECT
 10
218.00000000003459
 20
-1692.000000000884
 30
0.0
 11
218.00000000003459
 21
-1695.0000000008849
 31
0.0
1001
ACDBBLOCKREPETAG
1070
     1
1071
      420
1005
12E450
  0
ARC
  5
12E451
  8
OBJECT
 10
215.00000000003459
 20
-1695.0000000008849
 30
0.0
 40
3.0
 50
270.0
 51
0.0
1001
ACDBBLOCKREPETAG
1070
     1
1071
      421
1005
12E451
  0
LINE
  5
12E452
  8
OBJECT
 10
215.00000000003459
 20
-1698.0000000008849
 30
0.0
 11
97.000000000034561
 21
-1698.0000000008849
 31
0.0
1001
ACDBBLOCKREPETAG
1070
     1
1071
      422
1005
12E452
  0
INSERT
  5
12E453
  8
OBJECT
  2
*U19
 10
0.0
 20
0.0
 30
0.0
  0
LINE
  5
12E454
  8
OBJECT
 10
289.00000000003462
 20
-1550.0000000008849
 30
0.0
 11
296.0000000000345
 21
-1550.0000000008849
 31
0.0
1001
ACDBBLOCKREPETAG
1070
     1
1071
       39
1005
12E454
  0
LINE
  5
12E455
  8
OBJECT
 10
296.0000000000345
 20
-1550.0000000008849
 30
0.0
 11
296.0000000000345
 21
-1674.0000000008849
 31
0.0
1001
ACDBBLOCKREPETAG
1070
     1
1071
       40
1005
12E455
  0
LINE
  5
12E456
  8
OBJECT
 10
296.0000000000345
 20
-1674.0000000008849
 30
0.0
 11
289.00000000003462
 21
-1674.0000000008849
 31
0.0
1001
ACDBBLOCKREPETAG
1070
     1
1071
       41
1005
12E456
  0
LINE
  5
12E457
  8
OBJECT
 10
289.00000000003462
 20
-1674.0000000008849
 30
0.0
 11
289.00000000003462
 21
-1550.0000000008849
 31
0.0
1001
ACDBBLOCKREPETAG
1070
     1
1071
       42
1005
12E457
  0
LINE
  5
12E458
  8
OBJECT
 10
289.00000000003462
 20
-1553.0000000008849
 30
0.0
 11
253.00000000003459
 21
-1553.0000000008849
 31
0.0
1001
ACDBBLOCKREPETAG
1070
     1
1071
       43
1005
12E458
  0
LINE
  5
12E459
  8
OBJECT
 10
253.00000000003459
 20
-1553.0000000008849
 30
0.0
 11
253.00000000003459
 21
-1671.0000000008849
 31
0.0
1001
ACDBBLOCKREPETAG
1070
     1
1071
       44
1005
12E459
  0
LINE
  5
12E45A
  8
OBJECT
 10
253.00000000003459
 20
-1671.0000000008849
 30
0.0
 11
289.00000000003462
 21
-1671.0000000008849
 31
0.0
1001
ACDBBLOCKREPETAG
1070
     1
1071
       45
1005
12E45A
  0
LINE
  5
12E45B
  8
OBJECT
 10
249.00000000003459
 20
-1557.500000000884
 30
0.0
 11
242.00000000003459
 21
-1557.500000000884
 31
0.0
1001
ACDBBLOCKREPETAG
1070
     1
1071
       46
1005
12E45B
  0
LINE
  5
12E45C
  8
OBJECT
 10
242.00000000003459
 20
-1666.5000000008849
 30
0.0
 11
249.00000000003459
 21
-1666.5000000008849
 31
0.0
1001
ACDBBLOCKREPETAG
1070
     1
1071
       47
1005
12E45C
  0
LINE
  5
12E45D
  8
OBJECT
 10
249.00000000003459
 20
-1666.5000000008849
 30
0.0
 11
249.00000000003459
 21
-1557.500000000884
 31
0.0
1001
ACDBBLOCKREPETAG
1070
     1
1071
       48
1005
12E45D
  0
LINE
  5
12E45E
  8
OBJECT
 10
253.00000000003459
 20
-1553.0000000008849
 30
0.0
 11
249.00000000003459
 21
-1557.500000000884
 31
0.0
1001
ACDBBLOCKREPETAG
1070
     1
1071
       49
1005
12E45E
  0
LINE
  5
12E45F
  8
OBJECT
 10
253.00000000003459
 20
-1671.0000000008849
 30
0.0
 11
249.00000000003459
 21
-1666.5000000008849
 31
0.0
1001
ACDBBLOCKREPETAG
1070
     1
1071
       50
1005
12E45F
  0
LINE
  5
12E460
  8
OBJECT
 10
239.00000000003641
 20
-1550.0000000008849
 30
0.0
 11
236.00000000003459
 21
-1550.0000000008849
 31
0.0
1001
ACDBBLOCKREPETAG
1070
     1
1071
       51
1005
12E460
  0
ARC
  5
12E461
  8
OBJECT
 10
239.00000000003641
 20
-1553.0000000008849
 30
0.0
 40
3.0
 50
0.0
 51
90.0
1001
ACDBBLOCKREPETAG
1070
     1
1071
       52
1005
12E461
  0
LINE
  5
12E462
  8
OBJECT
 10
236.00000000003459
 20
-1674.0000000008849
 30
0.0
 11
239.00000000003271
 21
-1674.0000000008849
 31
0.0
1001
ACDBBLOCKREPETAG
1070
     1
1071
       53
1005
12E462
  0
ARC
  5
12E463
  8
OBJECT
 10
239.00000000003271
 20
-1671.0000000008849
 30
0.0
 40
3.0
 50
270.0
 51
0.0
1001
ACDBBLOCKREPETAG
1070
     1
1071
       54
1005
12E463
  0
LINE
  5
12E464
  8
OBJECT
 10
242.0000000000328
 20
-1671.0000000008849
 30
0.0
 11
242.00000000003641
 21
-1553.0000000008849
 31
0.0
1001
ACDBBLOCKREPETAG
1070
     1
1071
       55
1005
12E464
  0
LINE
  5
12E465
  8
HIDDEN
 10
244.0000000000345
 20
-1567.500000000884
 30
0.0
 11
244.0000000000345
 21
-1656.5000000008849
 31
0.0
1001
ACDBBLOCKREPETAG
1070
     1
1071
      430
1005
12E465
  0
INSERT
  5
12E466
  8
OBJECT
  2
*U20
 10
0.0
 20
0.0
 30
0.0
  0
LINE
  5
12E467
  8
OBJECT
 10
101.0000000000345
 20
-1479.000000000884
 30
0.0
 11
101.0000000000345
 21
-1472.0000000008849
 31
0.0
1001
ACDBBLOCKREPETAG
1070
     1
1071
       20
1005
12E467
  0
LINE
  5
12E468
  8
OBJECT
 10
101.0000000000345
 20
-1472.0000000008849
 30
0.0
 11
211.00000000003459
 21
-1472.0000000008849
 31
0.0
1001
ACDBBLOCKREPETAG
1070
     1
1071
       21
1005
12E468
  0
LINE
  5
12E469
  8
OBJECT
 10
211.00000000003459
 20
-1472.0000000008849
 30
0.0
 11
211.00000000003459
 21
-1479.000000000884
 31
0.0
1001
ACDBBLOCKREPETAG
1070
     1
1071
       22
1005
12E469
  0
LINE
  5
12E46A
  8
OBJECT
 10
211.00000000003459
 20
-1479.000000000884
 30
0.0
 11
101.0000000000345
 21
-1479.000000000884
 31
0.0
1001
ACDBBLOCKREPETAG
1070
     1
1071
       23
1005
12E46A
  0
LINE
  5
12E46B
  8
OBJECT
 10
104.0000000000345
 20
-1479.000000000884
 30
0.0
 11
104.0000000000345
 21
-1515.0000000008849
 31
0.0
1001
ACDBBLOCKREPETAG
1070
     1
1071
       24
1005
12E46B
  0
LINE
  5
12E46C
  8
OBJECT
 10
104.0000000000345
 20
-1515.0000000008849
 30
0.0
 11
208.00000000003459
 21
-1515.0000000008849
 31
0.0
1001
ACDBBLOCKREPETAG
1070
     1
1071
       25
1005
12E46C
  0
LINE
  5
12E46D
  8
OBJECT
 10
208.00000000003459
 20
-1515.0000000008849
 30
0.0
 11
208.00000000003459
 21
-1479.000000000884
 31
0.0
1001
ACDBBLOCKREPETAG
1070
     1
1071
       26
1005
12E46D
  0
LINE
  5
12E46E
  8
OBJECT
 10
108.5000000000345
 20
-1519.000000000884
 30
0.0
 11
108.5000000000345
 21
-1526.0000000008849
 31
0.0
1001
ACDBBLOCKREPETAG
1070
     1
1071
       27
1005
12E46E
  0
LINE
  5
12E46F
  8
OBJECT
 10
203.50000000003459
 20
-1526.0000000008849
 30
0.0
 11
203.50000000003459
 21
-1519.000000000884
 31
0.0
1001
ACDBBLOCKREPETAG
1070
     1
1071
       28
1005
12E46F
  0
LINE
  5
12E470
  8
OBJECT
 10
203.50000000003459
 20
-1519.000000000884
 30
0.0
 11
108.5000000000345
 21
-1519.000000000884
 31
0.0
1001
ACDBBLOCKREPETAG
1070
     1
1071
       29
1005
12E470
  0
LINE
  5
12E471
  8
OBJECT
 10
104.0000000000345
 20
-1515.0000000008849
 30
0.0
 11
108.5000000000345
 21
-1519.000000000884
 31
0.0
1001
ACDBBLOCKREPETAG
1070
     1
1071
       30
1005
12E471
  0
LINE
  5
12E472
  8
OBJECT
 10
208.00000000003459
 20
-1515.0000000008849
 30
0.0
 11
203.50000000003459
 21
-1519.000000000884
 31
0.0
1001
ACDBBLOCKREPETAG
1070
     1
1071
       31
1005
12E472
  0
LINE
  5
12E473
  8
OBJECT
 10
94.000000000034575
 20
-1529.000000000884
 30
0.0
 11
94.000000000034575
 21
-1532.000000000884
 31
0.0
1001
ACDBBLOCKREPETAG
1070
     1
1071
       32
1005
12E473
  0
ARC
  5
12E474
  8
OBJECT
 10
97.000000000034561
 20
-1529.000000000884
 30
0.0
 40
3.0
 50
90.0
 51
180.0
1001
ACDBBLOCKREPETAG
1070
     1
1071
       33
1005
12E474
  0
LINE
  5
12E475
  8
OBJECT
 10
218.00000000003459
 20
-1532.000000000884
 30
0.0
 11
218.00000000003459
 21
-1529.0000000008861
 31
0.0
1001
ACDBBLOCKREPETAG
1070
     1
1071
       34
1005
12E475
  0
ARC
  5
12E476
  8
OBJECT
 10
215.00000000003459
 20
-1529.0000000008861
 30
0.0
 40
3.0
 50
0.0
 51
90.0
1001
ACDBBLOCKREPETAG
1070
     1
1071
       35
1005
12E476
  0
LINE
  5
12E477
  8
OBJECT
 10
215.00000000003459
 20
-1526.0000000008861
 30
0.0
 11
97.000000000034561
 21
-1526.000000000884
 31
0.0
1001
ACDBBLOCKREPETAG
1070
     1
1071
       36
1005
12E477
  0
LINE
  5
12E478
  8
HIDDEN
 10
118.0000000000345
 20
-1524.0000000008849
 30
0.0
 11
194.0000000000345
 21
-1524.0000000008849
 31
0.0
1001
ACDBBLOCKREPETAG
1070
     1
1071
      423
1005
12E478
  0
LINE
  5
12E479
  8
OBJECT
 10
454.00000000011448
 20
-1695.0000000008849
 30
0.0
 11
454.00000000011448
 21
-1692.000000000884
 31
0.0
1001
ACDBBLOCKREPETAG
1070
     1
1071
      418
1005
12E479
  0
ARC
  5
12E47A
  8
OBJECT
 10
457.0000000001146
 20
-1695.0000000008849
 30
0.0
 40
3.0
 50
180.0
 51
270.0
1001
ACDBBLOCKREPETAG
1070
     1
1071
      419
1005
12E47A
  0
LINE
  5
12E47B
  8
OBJECT
 10
578.00000000011448
 20
-1692.000000000884
 30
0.0
 11
578.00000000011448
 21
-1695.0000000008849
 31
0.0
1001
ACDBBLOCKREPETAG
1070
     1
1071
      420
1005
12E47B
  0
ARC
  5
12E47C
  8
OBJECT
 10
575.00000000011426
 20
-1695.0000000008849
 30
0.0
 40
3.0
 50
270.0
 51
0.0
1001
ACDBBLOCKREPETAG
1070
     1
1071
      421
1005
12E47C
  0
LINE
  5
12E47D
  8
OBJECT
 10
575.00000000011426
 20
-1698.0000000008849
 30
0.0
 11
457.0000000001146
 21
-1698.0000000008849
 31
0.0
1001
ACDBBLOCKREPETAG
1070
     1
1071
      422
1005
12E47D
  0
LINE
  5
12E47E
  8
OBJECT
 10
666.00000000011448
 20
-1537.000000000884
 30
0.0
 11
659.0000000001146
 21
-1537.000000000884
 31
0.0
1001
ACDBBLOCKREPETAG
1070
     1
1071
       57
1005
12E47E
  0
LINE
  5
12E47F
  8
OBJECT
 10
659.0000000001146
 20
-1537.000000000884
 30
0.0
 11
659.0000000001146
 21
-1687.0000000008849
 31
0.0
1001
ACDBBLOCKREPETAG
1070
     1
1071
       58
1005
12E47F
  0
LINE
  5
12E480
  8
OBJECT
 10
617.5000000001146
 20
-1540.000000000884
 30
0.0
 11
617.5000000001146
 21
-1684.000000000884
 31
0.0
1001
ACDBBLOCKREPETAG
1070
     1
1071
       59
1005
12E480
  0
LINE
  5
12E481
  8
OBJECT
 10
606.0000000001146
 20
-1546.5000000008849
 30
0.0
 11
606.0000000001146
 21
-1677.5000000008849
 31
0.0
1001
ACDBBLOCKREPETAG
1070
     1
1071
       60
1005
12E481
  0
LINE
  5
12E482
  8
OBJECT
 10
659.0000000001146
 20
-1687.0000000008849
 30
0.0
 11
666.00000000011448
 21
-1687.0000000008849
 31
0.0
1001
ACDBBLOCKREPETAG
1070
     1
1071
       61
1005
12E482
  0
LINE
  5
12E483
  8
OBJECT
 10
666.00000000011448
 20
-1687.0000000008849
 30
0.0
 11
666.00000000011448
 21
-1537.000000000884
 31
0.0
1001
ACDBBLOCKREPETAG
1070
     1
1071
       62
1005
12E483
  0
LINE
  5
12E484
  8
OBJECT
 10
602.0000000001146
 20
-1674.0000000008849
 30
0.0
 11
596.00000000011426
 21
-1674.0000000008849
 31
0.0
1001
ACDBBLOCKREPETAG
1070
     1
1071
       63
1005
12E484
  0
LINE
  5
12E485
  8
OBJECT
 10
659.0000000001146
 20
-1684.000000000884
 30
0.0
 11
617.5000000001146
 21
-1684.000000000884
 31
0.0
1001
ACDBBLOCKREPETAG
1070
     1
1071
       64
1005
12E485
  0
LINE
  5
12E486
  8
OBJECT
 10
617.5000000001146
 20
-1684.000000000884
 30
0.0
 11
606.0000000001146
 21
-1677.5000000008849
 31
0.0
1001
ACDBBLOCKREPETAG
1070
     1
1071
       65
1005
12E486
  0
LINE
  5
12E487
  8
OBJECT
 10
606.0000000001146
 20
-1677.5000000008849
 30
0.0
 11
602.0000000001146
 21
-1674.0000000008849
 31
0.0
1001
ACDBBLOCKREPETAG
1070
     1
1071
       66
1005
12E487
  0
LINE
  5
12E488
  8
OBJECT
 10
617.5000000001146
 20
-1540.000000000884
 30
0.0
 11
606.0000000001146
 21
-1546.5000000008849
 31
0.0
1001
ACDBBLOCKREPETAG
1070
     1
1071
       67
1005
12E488
  0
LINE
  5
12E489
  8
OBJECT
 10
606.0000000001146
 20
-1546.5000000008849
 30
0.0
 11
602.0000000001146
 21
-1550.0000000008849
 31
0.0
1001
ACDBBLOCKREPETAG
1070
     1
1071
       68
1005
12E489
  0
ARC
  5
12E48A
  8
OBJECT
 10
983.90000000011605
 20
-1612.000000000884
 30
0.0
 40
386.89999999999998
 50
170.77870136263201
 51
189.22129863736799
1001
ACDBBLOCKREPETAG
1070
     1
1071
       69
1005
12E48A
  0
LINE
  5
12E48B
  8
OBJECT
 10
602.0000000001146
 20
-1550.0000000008849
 30
0.0
 11
596.00000000011426
 21
-1550.0000000008849
 31
0.0
1001
ACDBBLOCKREPETAG
1070
     1
1071
       70
1005
12E48B
  0
LINE
  5
12E48C
  8
OBJECT
 10
659.0000000001146
 20
-1540.000000000884
 30
0.0
 11
617.5000000001146
 21
-1540.000000000884
 31
0.0
1001
ACDBBLOCKREPETAG
1070
     1
1071
       71
1005
12E48C
  0
INSERT
  5
12E48D
  8
OBJECT
  2
*U21
 10
0.0
 20
0.0
 30
0.0
  0
LINE
  5
12E48E
  8
HIDDEN
 10
614.0000000001146
 20
-1669.0000000008849
 30
0.0
 11
614.0000000001146
 21
-1555.0000000008849
 31
0.0
1001
ACDBBLOCKREPETAG
1070
     1
1071
      437
1005
12E48E
  0
INSERT
  5
12E48F
  8
OBJECT
  2
*U22
 10
0.0
 20
0.0
 30
0.0
  0
LINE
  5
12E490
  8
OBJECT
 10
461.0000000001146
 20
-1479.000000000884
 30
0.0
 11
461.0000000001146
 21
-1472.0000000008849
 31
0.0
1001
ACDBBLOCKREPETAG
1070
     1
1071
       20
1005
12E490
  0
LINE
  5
12E491
  8
OBJECT
 10
461.0000000001146
 20
-1472.0000000008849
 30
0.0
 11
571.00000000011426
 21
-1472.0000000008849
 31
0.0
1001
ACDBBLOCKREPETAG
1070
     1
1071
       21
1005
12E491
  0
LINE
  5
12E492
  8
OBJECT
 10
571.00000000011426
 20
-1472.0000000008849
 30
0.0
 11
571.00000000011426
 21
-1479.000000000884
 31
0.0
1001
ACDBBLOCKREPETAG
1070
     1
1071
       22
1005
12E492
  0
LINE
  5
12E493
  8
OBJECT
 10
571.00000000011426
 20
-1479.000000000884
 30
0.0
 11
461.0000000001146
 21
-1479.000000000884
 31
0.0
1001
ACDBBLOCKREPETAG
1070
     1
1071
       23
1005
12E493
  0
LINE
  5
12E494
  8
OBJECT
 10
464.0000000001146
 20
-1479.000000000884
 30
0.0
 11
464.0000000001146
 21
-1515.0000000008849
 31
0.0
1001
ACDBBLOCKREPETAG
1070
     1
1071
       24
1005
12E494
  0
LINE
  5
12E495
  8
OBJECT
 10
464.0000000001146
 20
-1515.0000000008849
 30
0.0
 11
568.0000000001146
 21
-1515.0000000008849
 31
0.0
1001
ACDBBLOCKREPETAG
1070
     1
1071
       25
1005
12E495
  0
LINE
  5
12E496
  8
OBJECT
 10
568.0000000001146
 20
-1515.0000000008849
 30
0.0
 11
568.0000000001146
 21
-1479.000000000884
 31
0.0
1001
ACDBBLOCKREPETAG
1070
     1
1071
       26
1005
12E496
  0
LINE
  5
12E497
  8
OBJECT
 10
468.5000000001146
 20
-1519.000000000884
 30
0.0
 11
468.5000000001146
 21
-1526.0000000008849
 31
0.0
1001
ACDBBLOCKREPETAG
1070
     1
1071
       27
1005
12E497
  0
LINE
  5
12E498
  8
OBJECT
 10
563.5000000001146
 20
-1526.0000000008849
 30
0.0
 11
563.5000000001146
 21
-1519.000000000884
 31
0.0
1001
ACDBBLOCKREPETAG
1070
     1
1071
       28
1005
12E498
  0
LINE
  5
12E499
  8
OBJECT
 10
563.5000000001146
 20
-1519.000000000884
 30
0.0
 11
468.5000000001146
 21
-1519.000000000884
 31
0.0
1001
ACDBBLOCKREPETAG
1070
     1
1071
       29
1005
12E499
  0
LINE
  5
12E49A
  8
OBJECT
 10
464.0000000001146
 20
-1515.0000000008849
 30
0.0
 11
468.5000000001146
 21
-1519.000000000884
 31
0.0
1001
ACDBBLOCKREPETAG
1070
     1
1071
       30
1005
12E49A
  0
LINE
  5
12E49B
  8
OBJECT
 10
568.0000000001146
 20
-1515.0000000008849
 30
0.0
 11
563.5000000001146
 21
-1519.000000000884
 31
0.0
1001
ACDBBLOCKREPETAG
1070
     1
1071
       31
1005
12E49B
  0
LINE
  5
12E49C
  8
OBJECT
 10
454.00000000011448
 20
-1529.000000000884
 30
0.0
 11
454.00000000011448
 21
-1532.000000000884
 31
0.0
1001
ACDBBLOCKREPETAG
1070
     1
1071
       32
1005
12E49C
  0
ARC
  5
12E49D
  8
OBJECT
 10
457.0000000001146
 20
-1529.000000000884
 30
0.0
 40
3.0
 50
90.0
 51
180.0
1001
ACDBBLOCKREPETAG
1070
     1
1071
       33
1005
12E49D
  0
LINE
  5
12E49E
  8
OBJECT
 10
578.00000000011448
 20
-1532.000000000884
 30
0.0
 11
578.00000000011448
 21
-1529.0000000008861
 31
0.0
1001
ACDBBLOCKREPETAG
1070
     1
1071
       34
1005
12E49E
  0
ARC
  5
12E49F
  8
OBJECT
 10
575.00000000011426
 20
-1529.0000000008861
 30
0.0
 40
3.0
 50
0.0
 51
90.0
1001
ACDBBLOCKREPETAG
1070
     1
1071
       35
1005
12E49F
  0
LINE
  5
12E4A0
  8
OBJECT
 10
575.00000000011426
 20
-1526.0000000008861
 30
0.0
 11
457.0000000001146
 21
-1526.000000000884
 31
0.0
1001
ACDBBLOCKREPETAG
1070
     1
1071
       36
1005
12E4A0
  0
LINE
  5
12E4A1
  8
HIDDEN
 10
478.00000000011448
 20
-1524.0000000008849
 30
0.0
 11
554.00000000011437
 21
-1524.0000000008849
 31
0.0
1001
ACDBBLOCKREPETAG
1070
     1
1071
      423
1005
12E4A1
  0
LINE
  5
12E4A2
  8
OBJECT
 10
454.00000000011448
 20
-1231.0000000008779
 30
0.0
 11
454.00000000011448
 21
-1228.0000000008779
 31
0.0
1001
ACDBBLOCKREPETAG
1070
     1
1071
      418
1005
12E4A2
  0
ARC
  5
12E4A3
  8
OBJECT
 10
457.0000000001146
 20
-1231.0000000008779
 30
0.0
 40
3.0
 50
180.0
 51
270.0
1001
ACDBBLOCKREPETAG
1070
     1
1071
      419
1005
12E4A3
  0
LINE
  5
12E4A4
  8
OBJECT
 10
578.00000000011448
 20
-1228.0000000008779
 30
0.0
 11
578.00000000011448
 21
-1231.0000000008779
 31
0.0
1001
ACDBBLOCKREPETAG
1070
     1
1071
      420
1005
12E4A4
  0
ARC
  5
12E4A5
  8
OBJECT
 10
575.00000000011426
 20
-1231.0000000008779
 30
0.0
 40
3.0
 50
270.0
 51
0.0
1001
ACDBBLOCKREPETAG
1070
     1
1071
      421
1005
12E4A5
  0
LINE
  5
12E4A6
  8
OBJECT
 10
575.00000000011426
 20
-1234.0000000008779
 30
0.0
 11
457.0000000001146
 21
-1234.0000000008779
 31
0.0
1001
ACDBBLOCKREPETAG
1070
     1
1071
      422
1005
12E4A6
  0
INSERT
  5
12E4A7
  8
OBJECT
  2
*U23
 10
0.0
 20
0.0
 30
0.0
  0
LINE
  5
12E4A8
  8
OBJECT
 10
649.00000000011448
 20
-1093.0000000008779
 30
0.0
 11
656.0000000001146
 21
-1093.0000000008779
 31
0.0
1001
ACDBBLOCKREPETAG
1070
     1
1071
       20
1005
12E4A8
  0
LINE
  5
12E4A9
  8
OBJECT
 10
656.0000000001146
 20
-1093.0000000008779
 30
0.0
 11
656.0000000001146
 21
-1203.0000000008779
 31
0.0
1001
ACDBBLOCKREPETAG
1070
     1
1071
       21
1005
12E4A9
  0
LINE
  5
12E4AA
  8
OBJECT
 10
656.0000000001146
 20
-1203.0000000008779
 30
0.0
 11
649.00000000011448
 21
-1203.0000000008779
 31
0.0
1001
ACDBBLOCKREPETAG
1070
     1
1071
       22
1005
12E4AA
  0
LINE
  5
12E4AB
  8
OBJECT
 10
649.00000000011448
 20
-1203.0000000008779
 30
0.0
 11
649.00000000011448
 21
-1093.0000000008779
 31
0.0
1001
ACDBBLOCKREPETAG
1070
     1
1071
       23
1005
12E4AB
  0
LINE
  5
12E4AC
  8
OBJECT
 10
649.00000000011448
 20
-1096.0000000008779
 30
0.0
 11
613.0000000001146
 21
-1096.0000000008779
 31
0.0
1001
ACDBBLOCKREPETAG
1070
     1
1071
       24
1005
12E4AC
  0
LINE
  5
12E4AD
  8
OBJECT
 10
613.0000000001146
 20
-1096.0000000008779
 30
0.0
 11
613.0000000001146
 21
-1200.0000000008779
 31
0.0
1001
ACDBBLOCKREPETAG
1070
     1
1071
       25
1005
12E4AD
  0
LINE
  5
12E4AE
  8
OBJECT
 10
613.0000000001146
 20
-1200.0000000008779
 30
0.0
 11
649.00000000011448
 21
-1200.0000000008779
 31
0.0
1001
ACDBBLOCKREPETAG
1070
     1
1071
       26
1005
12E4AE
  0
LINE
  5
12E4AF
  8
OBJECT
 10
609.0000000001146
 20
-1100.5000000008779
 30
0.0
 11
602.0000000001146
 21
-1100.5000000008779
 31
0.0
1001
ACDBBLOCKREPETAG
1070
     1
1071
       27
1005
12E4AF
  0
LINE
  5
12E4B0
  8
OBJECT
 10
602.0000000001146
 20
-1195.5000000008779
 30
0.0
 11
609.0000000001146
 21
-1195.5000000008779
 31
0.0
1001
ACDBBLOCKREPETAG
1070
     1
1071
       28
1005
12E4B0
  0
LINE
  5
12E4B1
  8
OBJECT
 10
609.0000000001146
 20
-1195.5000000008779
 30
0.0
 11
609.0000000001146
 21
-1100.5000000008779
 31
0.0
1001
ACDBBLOCKREPETAG
1070
     1
1071
       29
1005
12E4B1
  0
LINE
  5
12E4B2
  8
OBJECT
 10
613.0000000001146
 20
-1096.0000000008779
 30
0.0
 11
609.0000000001146
 21
-1100.5000000008779
 31
0.0
1001
ACDBBLOCKREPETAG
1070
     1
1071
       30
1005
12E4B2
  0
LINE
  5
12E4B3
  8
OBJECT
 10
613.0000000001146
 20
-1200.0000000008779
 30
0.0
 11
609.0000000001146
 21
-1195.5000000008779
 31
0.0
1001
ACDBBLOCKREPETAG
1070
     1
1071
       31
1005
12E4B3
  0
LINE
  5
12E4B4
  8
OBJECT
 10
599.00000000011607
 20
-1086.0000000008779
 30
0.0
 11
596.00000000011426
 21
-1086.0000000008779
 31
0.0
1001
ACDBBLOCKREPETAG
1070
     1
1071
       32
1005
12E4B4
  0
ARC
  5
12E4B5
  8
OBJECT
 10
599.00000000011607
 20
-1089.0000000008779
 30
0.0
 40
3.0
 50
0.0
 51
90.0
1001
ACDBBLOCKREPETAG
1070
     1
1071
       33
1005
12E4B5
  0
LINE
  5
12E4B6
  8
OBJECT
 10
596.00000000011426
 20
-1210.0000000008779
 30
0.0
 11
599.00000000011278
 21
-1210.0000000008779
 31
0.0
1001
ACDBBLOCKREPETAG
1070
     1
1071
       34
1005
12E4B6
  0
ARC
  5
12E4B7
  8
OBJECT
 10
599.00000000011278
 20
-1207.0000000008779
 30
0.0
 40
3.0
 50
270.0
 51
0.0
1001
ACDBBLOCKREPETAG
1070
     1
1071
       35
1005
12E4B7
  0
LINE
  5
12E4B8
  8
OBJECT
 10
602.00000000011266
 20
-1207.0000000008779
 30
0.0
 11
602.0000000001163
 21
-1089.0000000008779
 31
0.0
1001
ACDBBLOCKREPETAG
1070
     1
1071
       36
1005
12E4B8
  0
LINE
  5
12E4B9
  8
HIDDEN
 10
604.00000000011437
 20
-1110.0000000008779
 30
0.0
 11
604.00000000011437
 21
-1186.0000000008779
 31
0.0
1001
ACDBBLOCKREPETAG
1070
     1
1071
      427
1005
12E4B9
  0
INSERT
  5
12E4BA
  8
OBJECT
  2
*U24
 10
0.0
 20
0.0
 30
0.0
  0
LINE
  5
12E4BB
  8
OBJECT
 10
461.0000000001146
 20
-1015.000000000878
 30
0.0
 11
461.0000000001146
 21
-1008.000000000878
 31
0.0
1001
ACDBBLOCKREPETAG
1070
     1
1071
       20
1005
12E4BB
  0
LINE
  5
12E4BC
  8
OBJECT
 10
461.0000000001146
 20
-1008.000000000878
 30
0.0
 11
571.00000000011426
 21
-1008.000000000878
 31
0.0
1001
ACDBBLOCKREPETAG
1070
     1
1071
       21
1005
12E4BC
  0
LINE
  5
12E4BD
  8
OBJECT
 10
571.00000000011426
 20
-1008.000000000878
 30
0.0
 11
571.00000000011426
 21
-1015.000000000878
 31
0.0
1001
ACDBBLOCKREPETAG
1070
     1
1071
       22
1005
12E4BD
  0
LINE
  5
12E4BE
  8
OBJECT
 10
571.00000000011426
 20
-1015.000000000878
 30
0.0
 11
461.0000000001146
 21
-1015.000000000878
 31
0.0
1001
ACDBBLOCKREPETAG
1070
     1
1071
       23
1005
12E4BE
  0
LINE
  5
12E4BF
  8
OBJECT
 10
464.0000000001146
 20
-1015.000000000878
 30
0.0
 11
464.0000000001146
 21
-1051.0000000008779
 31
0.0
1001
ACDBBLOCKREPETAG
1070
     1
1071
       24
1005
12E4BF
  0
LINE
  5
12E4C0
  8
OBJECT
 10
464.0000000001146
 20
-1051.0000000008779
 30
0.0
 11
568.0000000001146
 21
-1051.0000000008779
 31
0.0
1001
ACDBBLOCKREPETAG
1070
     1
1071
       25
1005
12E4C0
  0
LINE
  5
12E4C1
  8
OBJECT
 10
568.0000000001146
 20
-1051.0000000008779
 30
0.0
 11
568.0000000001146
 21
-1015.000000000878
 31
0.0
1001
ACDBBLOCKREPETAG
1070
     1
1071
       26
1005
12E4C1
  0
LINE
  5
12E4C2
  8
OBJECT
 10
468.5000000001146
 20
-1055.000000000879
 30
0.0
 11
468.5000000001146
 21
-1062.0000000008779
 31
0.0
1001
ACDBBLOCKREPETAG
1070
     1
1071
       27
1005
12E4C2
  0
LINE
  5
12E4C3
  8
OBJECT
 10
563.5000000001146
 20
-1062.0000000008779
 30
0.0
 11
563.5000000001146
 21
-1055.000000000879
 31
0.0
1001
ACDBBLOCKREPETAG
1070
     1
1071
       28
1005
12E4C3
  0
LINE
  5
12E4C4
  8
OBJECT
 10
563.5000000001146
 20
-1055.000000000879
 30
0.0
 11
468.5000000001146
 21
-1055.000000000879
 31
0.0
1001
ACDBBLOCKREPETAG
1070
     1
1071
       29
1005
12E4C4
  0
LINE
  5
12E4C5
  8
OBJECT
 10
464.0000000001146
 20
-1051.0000000008779
 30
0.0
 11
468.5000000001146
 21
-1055.000000000879
 31
0.0
1001
ACDBBLOCKREPETAG
1070
     1
1071
       30
1005
12E4C5
  0
LINE
  5
12E4C6
  8
OBJECT
 10
568.0000000001146
 20
-1051.0000000008779
 30
0.0
 11
563.5000000001146
 21
-1055.000000000879
 31
0.0
1001
ACDBBLOCKREPETAG
1070
     1
1071
       31
1005
12E4C6
  0
LINE
  5
12E4C7
  8
OBJECT
 10
454.00000000011448
 20
-1065.000000000877
 30
0.0
 11
454.00000000011448
 21
-1068.0000000008779
 31
0.0
1001
ACDBBLOCKREPETAG
1070
     1
1071
       32
1005
12E4C7
  0
ARC
  5
12E4C8
  8
OBJECT
 10
457.0000000001146
 20
-1065.000000000877
 30
0.0
 40
3.0
 50
90.0
 51
180.0
1001
ACDBBLOCKREPETAG
1070
     1
1071
       33
1005
12E4C8
  0
LINE
  5
12E4C9
  8
OBJECT
 10
578.00000000011448
 20
-1068.0000000008779
 30
0.0
 11
578.00000000011448
 21
-1065.000000000879
 31
0.0
1001
ACDBBLOCKREPETAG
1070
     1
1071
       34
1005
12E4C9
  0
ARC
  5
12E4CA
  8
OBJECT
 10
575.00000000011426
 20
-1065.000000000879
 30
0.0
 40
3.0
 50
0.0
 51
90.0
1001
ACDBBLOCKREPETAG
1070
     1
1071
       35
1005
12E4CA
  0
LINE
  5
12E4CB
  8
OBJECT
 10
575.00000000011426
 20
-1062.000000000879
 30
0.0
 11
457.0000000001146
 21
-1062.000000000877
 31
0.0
1001
ACDBBLOCKREPETAG
1070
     1
1071
       36
1005
12E4CB
  0
LINE
  5
12E4CC
  8
HIDDEN
 10
478.00000000011448
 20
-1060.0000000008779
 30
0.0
 11
554.00000000011437
 21
-1060.0000000008779
 31
0.0
1001
ACDBBLOCKREPETAG
1070
     1
1071
      423
1005
12E4CC
  0
LINE
  5
12E4CD
  8
OBJECT
 10
94.000000000034575
 20
-1231.0000000008779
 30
0.0
 11
94.000000000034575
 21
-1228.0000000008779
 31
0.0
1001
ACDBBLOCKREPETAG
1070
     1
1071
      418
1005
12E4CD
  0
ARC
  5
12E4CE
  8
OBJECT
 10
97.000000000034561
 20
-1231.0000000008779
 30
0.0
 40
3.0
 50
180.0
 51
270.0
1001
ACDBBLOCKREPETAG
1070
     1
1071
      419
1005
12E4CE
  0
LINE
  5
12E4CF
  8
OBJECT
 10
218.00000000003459
 20
-1228.0000000008779
 30
0.0
 11
218.00000000003459
 21
-1231.0000000008779
 31
0.0
1001
ACDBBLOCKREPETAG
1070
     1
1071
      420
1005
12E4CF
  0
ARC
  5
12E4D0
  8
OBJECT
 10
215.00000000003459
 20
-1231.0000000008779
 30
0.0
 40
3.0
 50
270.0
 51
0.0
1001
ACDBBLOCKREPETAG
1070
     1
1071
      421
1005
12E4D0
  0
LINE
  5
12E4D1
  8
OBJECT
 10
215.00000000003459
 20
-1234.0000000008779
 30
0.0
 11
97.000000000034561
 21
-1234.0000000008779
 31
0.0
1001
ACDBBLOCKREPETAG
1070
     1
1071
      422
1005
12E4D1
  0
INSERT
  5
12E4D2
  8
OBJECT
  2
*U25
 10
0.0
 20
0.0
 30
0.0
  0
LINE
  5
12E4D3
  8
OBJECT
 10
289.00000000003462
 20
-1101.0000000008779
 30
0.0
 11
296.0000000000345
 21
-1101.0000000008779
 31
0.0
1001
ACDBBLOCKREPETAG
1070
     1
1071
        1
1005
12E4D3
  0
LINE
  5
12E4D4
  8
OBJECT
 10
296.0000000000345
 20
-1101.0000000008779
 30
0.0
 11
296.0000000000345
 21
-1195.0000000008779
 31
0.0
1001
ACDBBLOCKREPETAG
1070
     1
1071
        2
1005
12E4D4
  0
LINE
  5
12E4D5
  8
OBJECT
 10
296.0000000000345
 20
-1195.0000000008779
 30
0.0
 11
289.00000000003462
 21
-1195.0000000008779
 31
0.0
1001
ACDBBLOCKREPETAG
1070
     1
1071
        3
1005
12E4D5
  0
LINE
  5
12E4D6
  8
OBJECT
 10
289.00000000003462
 20
-1195.0000000008779
 30
0.0
 11
289.00000000003462
 21
-1101.0000000008779
 31
0.0
1001
ACDBBLOCKREPETAG
1070
     1
1071
        4
1005
12E4D6
  0
LINE
  5
12E4D7
  8
OBJECT
 10
289.00000000003462
 20
-1104.0000000008779
 30
0.0
 11
253.00000000003459
 21
-1104.0000000008779
 31
0.0
1001
ACDBBLOCKREPETAG
1070
     1
1071
        5
1005
12E4D7
  0
LINE
  5
12E4D8
  8
OBJECT
 10
253.00000000003459
 20
-1104.0000000008779
 30
0.0
 11
253.00000000003459
 21
-1192.0000000008779
 31
0.0
1001
ACDBBLOCKREPETAG
1070
     1
1071
        6
1005
12E4D8
  0
LINE
  5
12E4D9
  8
OBJECT
 10
253.00000000003459
 20
-1192.0000000008779
 30
0.0
 11
289.00000000003462
 21
-1192.0000000008779
 31
0.0
1001
ACDBBLOCKREPETAG
1070
     1
1071
        7
1005
12E4D9
  0
LINE
  5
12E4DA
  8
OBJECT
 10
249.00000000003459
 20
-1108.5000000008779
 30
0.0
 11
242.00000000003459
 21
-1108.5000000008779
 31
0.0
1001
ACDBBLOCKREPETAG
1070
     1
1071
        8
1005
12E4DA
  0
LINE
  5
12E4DB
  8
OBJECT
 10
242.00000000003459
 20
-1187.5000000008779
 30
0.0
 11
249.00000000003459
 21
-1187.5000000008779
 31
0.0
1001
ACDBBLOCKREPETAG
1070
     1
1071
        9
1005
12E4DB
  0
LINE
  5
12E4DC
  8
OBJECT
 10
249.00000000003459
 20
-1187.5000000008779
 30
0.0
 11
249.00000000003459
 21
-1108.5000000008779
 31
0.0
1001
ACDBBLOCKREPETAG
1070
     1
1071
       10
1005
12E4DC
  0
LINE
  5
12E4DD
  8
OBJECT
 10
253.00000000003459
 20
-1104.0000000008779
 30
0.0
 11
249.00000000003459
 21
-1108.5000000008779
 31
0.0
1001
ACDBBLOCKREPETAG
1070
     1
1071
       11
1005
12E4DD
  0
LINE
  5
12E4DE
  8
OBJECT
 10
253.00000000003459
 20
-1192.0000000008779
 30
0.0
 11
249.00000000003459
 21
-1187.5000000008779
 31
0.0
1001
ACDBBLOCKREPETAG
1070
     1
1071
       12
1005
12E4DE
  0
LINE
  5
12E4DF
  8
OBJECT
 10
239.00000000003641
 20
-1086.0000000008779
 30
0.0
 11
236.00000000003459
 21
-1086.0000000008779
 31
0.0
1001
ACDBBLOCKREPETAG
1070
     1
1071
       13
1005
12E4DF
  0
ARC
  5
12E4E0
  8
OBJECT
 10
239.00000000003641
 20
-1089.0000000008779
 30
0.0
 40
3.0
 50
0.0
 51
90.0
1001
ACDBBLOCKREPETAG
1070
     1
1071
       14
1005
12E4E0
  0
LINE
  5
12E4E1
  8
OBJECT
 10
236.00000000003459
 20
-1210.0000000008779
 30
0.0
 11
239.00000000003271
 21
-1210.0000000008779
 31
0.0
1001
ACDBBLOCKREPETAG
1070
     1
1071
       15
1005
12E4E1
  0
ARC
  5
12E4E2
  8
OBJECT
 10
239.00000000003271
 20
-1207.0000000008779
 30
0.0
 40
3.0
 50
270.0
 51
0.0
1001
ACDBBLOCKREPETAG
1070
     1
1071
       16
1005
12E4E2
  0
LINE
  5
12E4E3
  8
OBJECT
 10
242.0000000000328
 20
-1207.0000000008779
 30
0.0
 11
242.00000000003641
 21
-1089.0000000008779
 31
0.0
1001
ACDBBLOCKREPETAG
1070
     1
1071
       17
1005
12E4E3
  0
LINE
  5
12E4E4
  8
HIDDEN
 10
244.0000000000345
 20
-1118.0000000008779
 30
0.0
 11
244.0000000000345
 21
-1178.0000000008779
 31
0.0
1001
ACDBBLOCKREPETAG
1070
     1
1071
      424
1005
12E4E4
  0
INSERT
  5
12E4E5
  8
OBJECT
  2
*U26
 10
0.0
 20
0.0
 30
0.0
  0
LINE
  5
12E4E6
  8
OBJECT
 10
101.0000000000345
 20
-1015.000000000878
 30
0.0
 11
101.0000000000345
 21
-1008.000000000878
 31
0.0
1001
ACDBBLOCKREPETAG
1070
     1
1071
       20
1005
12E4E6
  0
LINE
  5
12E4E7
  8
OBJECT
 10
101.0000000000345
 20
-1008.000000000878
 30
0.0
 11
211.00000000003459
 21
-1008.000000000878
 31
0.0
1001
ACDBBLOCKREPETAG
1070
     1
1071
       21
1005
12E4E7
  0
LINE
  5
12E4E8
  8
OBJECT
 10
211.00000000003459
 20
-1008.000000000878
 30
0.0
 11
211.00000000003459
 21
-1015.000000000878
 31
0.0
1001
ACDBBLOCKREPETAG
1070
     1
1071
       22
1005
12E4E8
  0
LINE
  5
12E4E9
  8
OBJECT
 10
211.00000000003459
 20
-1015.000000000878
 30
0.0
 11
101.0000000000345
 21
-1015.000000000878
 31
0.0
1001
ACDBBLOCKREPETAG
1070
     1
1071
       23
1005
12E4E9
  0
LINE
  5
12E4EA
  8
OBJECT
 10
104.0000000000345
 20
-1015.000000000878
 30
0.0
 11
104.0000000000345
 21
-1051.0000000008779
 31
0.0
1001
ACDBBLOCKREPETAG
1070
     1
1071
       24
1005
12E4EA
  0
LINE
  5
12E4EB
  8
OBJECT
 10
104.0000000000345
 20
-1051.0000000008779
 30
0.0
 11
208.00000000003459
 21
-1051.0000000008779
 31
0.0
1001
ACDBBLOCKREPETAG
1070
     1
1071
       25
1005
12E4EB
  0
LINE
  5
12E4EC
  8
OBJECT
 10
208.00000000003459
 20
-1051.0000000008779
 30
0.0
 11
208.00000000003459
 21
-1015.000000000878
 31
0.0
1001
ACDBBLOCKREPETAG
1070
     1
1071
       26
1005
12E4EC
  0
LINE
  5
12E4ED
  8
OBJECT
 10
108.5000000000345
 20
-1055.000000000879
 30
0.0
 11
108.5000000000345
 21
-1062.0000000008779
 31
0.0
1001
ACDBBLOCKREPETAG
1070
     1
1071
       27
1005
12E4ED
  0
LINE
  5
12E4EE
  8
OBJECT
 10
203.50000000003459
 20
-1062.0000000008779
 30
0.0
 11
203.50000000003459
 21
-1055.000000000879
 31
0.0
1001
ACDBBLOCKREPETAG
1070
     1
1071
       28
1005
12E4EE
  0
LINE
  5
12E4EF
  8
OBJECT
 10
203.50000000003459
 20
-1055.000000000879
 30
0.0
 11
108.5000000000345
 21
-1055.000000000879
 31
0.0
1001
ACDBBLOCKREPETAG
1070
     1
1071
       29
1005
12E4EF
  0
LINE
  5
12E4F0
  8
OBJECT
 10
104.0000000000345
 20
-1051.0000000008779
 30
0.0
 11
108.5000000000345
 21
-1055.000000000879
 31
0.0
1001
ACDBBLOCKREPETAG
1070
     1
1071
       30
1005
12E4F0
  0
LINE
  5
12E4F1
  8
OBJECT
 10
208.00000000003459
 20
-1051.0000000008779
 30
0.0
 11
203.50000000003459
 21
-1055.000000000879
 31
0.0
1001
ACDBBLOCKREPETAG
1070
     1
1071
       31
1005
12E4F1
  0
LINE
  5
12E4F2
  8
OBJECT
 10
94.000000000034575
 20
-1065.000000000877
 30
0.0
 11
94.000000000034575
 21
-1068.0000000008779
 31
0.0
1001
ACDBBLOCKREPETAG
1070
     1
1071
       32
1005
12E4F2
  0
ARC
  5
12E4F3
  8
OBJECT
 10
97.000000000034561
 20
-1065.000000000877
 30
0.0
 40
3.0
 50
90.0
 51
180.0
1001
ACDBBLOCKREPETAG
1070
     1
1071
       33
1005
12E4F3
  0
LINE
  5
12E4F4
  8
OBJECT
 10
218.00000000003459
 20
-1068.0000000008779
 30
0.0
 11
218.00000000003459
 21
-1065.000000000879
 31
0.0
1001
ACDBBLOCKREPETAG
1070
     1
1071
       34
1005
12E4F4
  0
ARC
  5
12E4F5
  8
OBJECT
 10
215.00000000003459
 20
-1065.000000000879
 30
0.0
 40
3.0
 50
0.0
 51
90.0
1001
ACDBBLOCKREPETAG
1070
     1
1071
       35
1005
12E4F5
  0
LINE
  5
12E4F6
  8
OBJECT
 10
215.00000000003459
 20
-1062.000000000879
 30
0.0
 11
97.000000000034561
 21
-1062.000000000877
 31
0.0
1001
ACDBBLOCKREPETAG
1070
     1
1071
       36
1005
12E4F6
  0
LINE
  5
12E4F7
  8
HIDDEN
 10
118.0000000000345
 20
-1060.0000000008779
 30
0.0
 11
194.0000000000345
 21
-1060.0000000008779
 31
0.0
1001
ACDBBLOCKREPETAG
1070
     1
1071
      423
1005
12E4F7
  0
LINE
  5
12E4F8
  8
OBJECT
 10
94.000000000034575
 20
-767.00000000087164
 30
0.0
 11
94.000000000034575
 21
-764.00000000087164
 31
0.0
1001
ACDBBLOCKREPETAG
1070
     1
1071
      418
1005
12E4F8
  0
ARC
  5
12E4F9
  8
OBJECT
 10
97.000000000034561
 20
-767.00000000087164
 30
0.0
 40
3.0
 50
180.0
 51
270.0
1001
ACDBBLOCKREPETAG
1070
     1
1071
      419
1005
12E4F9
  0
LINE
  5
12E4FA
  8
OBJECT
 10
218.00000000003459
 20
-764.00000000087164
 30
0.0
 11
218.00000000003459
 21
-767.00000000087164
 31
0.0
1001
ACDBBLOCKREPETAG
1070
     1
1071
      420
1005
12E4FA
  0
ARC
  5
12E4FB
  8
OBJECT
 10
215.00000000003459
 20
-767.00000000087164
 30
0.0
 40
3.0
 50
270.0
 51
0.0
1001
ACDBBLOCKREPETAG
1070
     1
1071
      421
1005
12E4FB
  0
LINE
  5
12E4FC
  8
OBJECT
 10
215.00000000003459
 20
-770.00000000087164
 30
0.0
 11
97.000000000034561
 21
-770.00000000087164
 31
0.0
1001
ACDBBLOCKREPETAG
1070
     1
1071
      422
1005
12E4FC
  0
INSERT
  5
12E4FD
  8
OBJECT
  2
*U27
 10
0.0
 20
0.0
 30
0.0
  0
LINE
  5
12E4FE
  8
OBJECT
 10
289.00000000003462
 20
-622.00000000087175
 30
0.0
 11
296.0000000000345
 21
-622.00000000087175
 31
0.0
1001
ACDBBLOCKREPETAG
1070
     1
1071
       39
1005
12E4FE
  0
LINE
  5
12E4FF
  8
OBJECT
 10
296.0000000000345
 20
-622.00000000087175
 30
0.0
 11
296.0000000000345
 21
-746.00000000087164
 31
0.0
1001
ACDBBLOCKREPETAG
1070
     1
1071
       40
1005
12E4FF
  0
LINE
  5
12E500
  8
OBJECT
 10
296.0000000000345
 20
-746.00000000087164
 30
0.0
 11
289.00000000003462
 21
-746.00000000087164
 31
0.0
1001
ACDBBLOCKREPETAG
1070
     1
1071
       41
1005
12E500
  0
LINE
  5
12E501
  8
OBJECT
 10
289.00000000003462
 20
-746.00000000087164
 30
0.0
 11
289.00000000003462
 21
-622.00000000087175
 31
0.0
1001
ACDBBLOCKREPETAG
1070
     1
1071
       42
1005
12E501
  0
LINE
  5
12E502
  8
OBJECT
 10
289.00000000003462
 20
-625.00000000087175
 30
0.0
 11
253.00000000003459
 21
-625.00000000087175
 31
0.0
1001
ACDBBLOCKREPETAG
1070
     1
1071
       43
1005
12E502
  0
LINE
  5
12E503
  8
OBJECT
 10
253.00000000003459
 20
-625.00000000087175
 30
0.0
 11
253.00000000003459
 21
-743.00000000087164
 31
0.0
1001
ACDBBLOCKREPETAG
1070
     1
1071
       44
1005
12E503
  0
LINE
  5
12E504
  8
OBJECT
 10
253.00000000003459
 20
-743.00000000087164
 30
0.0
 11
289.00000000003462
 21
-743.00000000087164
 31
0.0
1001
ACDBBLOCKREPETAG
1070
     1
1071
       45
1005
12E504
  0
LINE
  5
12E505
  8
OBJECT
 10
249.00000000003459
 20
-629.50000000087175
 30
0.0
 11
242.00000000003459
 21
-629.50000000087175
 31
0.0
1001
ACDBBLOCKREPETAG
1070
     1
1071
       46
1005
12E505
  0
LINE
  5
12E506
  8
OBJECT
 10
242.00000000003459
 20
-738.50000000087164
 30
0.0
 11
249.00000000003459
 21
-738.50000000087164
 31
0.0
1001
ACDBBLOCKREPETAG
1070
     1
1071
       47
1005
12E506
  0
LINE
  5
12E507
  8
OBJECT
 10
249.00000000003459
 20
-738.50000000087164
 30
0.0
 11
249.00000000003459
 21
-629.50000000087175
 31
0.0
1001
ACDBBLOCKREPETAG
1070
     1
1071
       48
1005
12E507
  0
LINE
  5
12E508
  8
OBJECT
 10
253.00000000003459
 20
-625.00000000087175
 30
0.0
 11
249.00000000003459
 21
-629.50000000087175
 31
0.0
1001
ACDBBLOCKREPETAG
1070
     1
1071
       49
1005
12E508
  0
LINE
  5
12E509
  8
OBJECT
 10
253.00000000003459
 20
-743.00000000087164
 30
0.0
 11
249.00000000003459
 21
-738.50000000087164
 31
0.0
1001
ACDBBLOCKREPETAG
1070
     1
1071
       50
1005
12E509
  0
LINE
  5
12E50A
  8
OBJECT
 10
239.00000000003641
 20
-622.00000000087175
 30
0.0
 11
236.00000000003459
 21
-622.00000000087175
 31
0.0
1001
ACDBBLOCKREPETAG
1070
     1
1071
       51
1005
12E50A
  0
ARC
  5
12E50B
  8
OBJECT
 10
239.00000000003641
 20
-625.00000000087175
 30
0.0
 40
3.0
 50
0.0
 51
90.0
1001
ACDBBLOCKREPETAG
1070
     1
1071
       52
1005
12E50B
  0
LINE
  5
12E50C
  8
OBJECT
 10
236.00000000003459
 20
-746.00000000087164
 30
0.0
 11
239.00000000003271
 21
-746.00000000087164
 31
0.0
1001
ACDBBLOCKREPETAG
1070
     1
1071
       53
1005
12E50C
  0
ARC
  5
12E50D
  8
OBJECT
 10
239.00000000003271
 20
-743.00000000087164
 30
0.0
 40
3.0
 50
270.0
 51
0.0
1001
ACDBBLOCKREPETAG
1070
     1
1071
       54
1005
12E50D
  0
LINE
  5
12E50E
  8
OBJECT
 10
242.0000000000328
 20
-743.00000000087164
 30
0.0
 11
242.00000000003641
 21
-625.00000000087175
 31
0.0
1001
ACDBBLOCKREPETAG
1070
     1
1071
       55
1005
12E50E
  0
LINE
  5
12E50F
  8
HIDDEN
 10
244.0000000000345
 20
-639.50000000087175
 30
0.0
 11
244.0000000000345
 21
-728.50000000087164
 31
0.0
1001
ACDBBLOCKREPETAG
1070
     1
1071
      430
1005
12E50F
  0
INSERT
  5
12E510
  8
OBJECT
  2
*U28
 10
0.0
 20
0.0
 30
0.0
  0
LINE
  5
12E511
  8
OBJECT
 10
109.0000000000345
 20
-551.00000000087175
 30
0.0
 11
109.0000000000345
 21
-544.00000000087175
 31
0.0
1001
ACDBBLOCKREPETAG
1070
     1
1071
        1
1005
12E511
  0
LINE
  5
12E512
  8
OBJECT
 10
109.0000000000345
 20
-544.00000000087175
 30
0.0
 11
203.00000000003459
 21
-544.00000000087175
 31
0.0
1001
ACDBBLOCKREPETAG
1070
     1
1071
        2
1005
12E512
  0
LINE
  5
12E513
  8
OBJECT
 10
203.00000000003459
 20
-544.00000000087175
 30
0.0
 11
203.00000000003459
 21
-551.00000000087175
 31
0.0
1001
ACDBBLOCKREPETAG
1070
     1
1071
        3
1005
12E513
  0
LINE
  5
12E514
  8
OBJECT
 10
203.00000000003459
 20
-551.00000000087175
 30
0.0
 11
109.0000000000345
 21
-551.00000000087175
 31
0.0
1001
ACDBBLOCKREPETAG
1070
     1
1071
        4
1005
12E514
  0
LINE
  5
12E515
  8
OBJECT
 10
112.0000000000345
 20
-551.00000000087175
 30
0.0
 11
112.0000000000345
 21
-587.00000000087175
 31
0.0
1001
ACDBBLOCKREPETAG
1070
     1
1071
        5
1005
12E515
  0
LINE
  5
12E516
  8
OBJECT
 10
112.0000000000345
 20
-587.00000000087175
 30
0.0
 11
200.0000000000345
 21
-587.00000000087175
 31
0.0
1001
ACDBBLOCKREPETAG
1070
     1
1071
        6
1005
12E516
  0
LINE
  5
12E517
  8
OBJECT
 10
200.0000000000345
 20
-587.00000000087175
 30
0.0
 11
200.0000000000345
 21
-551.00000000087175
 31
0.0
1001
ACDBBLOCKREPETAG
1070
     1
1071
        7
1005
12E517
  0
LINE
  5
12E518
  8
OBJECT
 10
116.5000000000345
 20
-591.00000000087175
 30
0.0
 11
116.5000000000345
 21
-598.00000000087175
 31
0.0
1001
ACDBBLOCKREPETAG
1070
     1
1071
        8
1005
12E518
  0
LINE
  5
12E519
  8
OBJECT
 10
195.5000000000345
 20
-598.00000000087175
 30
0.0
 11
195.5000000000345
 21
-591.00000000087175
 31
0.0
1001
ACDBBLOCKREPETAG
1070
     1
1071
        9
1005
12E519
  0
LINE
  5
12E51A
  8
OBJECT
 10
195.5000000000345
 20
-591.00000000087175
 30
0.0
 11
116.5000000000345
 21
-591.00000000087175
 31
0.0
1001
ACDBBLOCKREPETAG
1070
     1
1071
       10
1005
12E51A
  0
LINE
  5
12E51B
  8
OBJECT
 10
112.0000000000345
 20
-587.00000000087175
 30
0.0
 11
116.5000000000345
 21
-591.00000000087175
 31
0.0
1001
ACDBBLOCKREPETAG
1070
     1
1071
       11
1005
12E51B
  0
LINE
  5
12E51C
  8
OBJECT
 10
200.0000000000345
 20
-587.00000000087175
 30
0.0
 11
195.5000000000345
 21
-591.00000000087175
 31
0.0
1001
ACDBBLOCKREPETAG
1070
     1
1071
       12
1005
12E51C
  0
LINE
  5
12E51D
  8
OBJECT
 10
94.000000000034575
 20
-601.00000000087084
 30
0.0
 11
94.000000000034575
 21
-604.00000000087175
 31
0.0
1001
ACDBBLOCKREPETAG
1070
     1
1071
       13
1005
12E51D
  0
ARC
  5
12E51E
  8
OBJECT
 10
97.000000000034561
 20
-601.00000000087084
 30
0.0
 40
3.0
 50
90.0
 51
180.0
1001
ACDBBLOCKREPETAG
1070
     1
1071
       14
1005
12E51E
  0
LINE
  5
12E51F
  8
OBJECT
 10
218.00000000003459
 20
-604.00000000087175
 30
0.0
 11
218.00000000003459
 21
-601.00000000087266
 31
0.0
1001
ACDBBLOCKREPETAG
1070
     1
1071
       15
1005
12E51F
  0
ARC
  5
12E520
  8
OBJECT
 10
215.00000000003459
 20
-601.00000000087266
 30
0.0
 40
3.0
 50
0.0
 51
90.0
1001
ACDBBLOCKREPETAG
1070
     1
1071
       16
1005
12E520
  0
LINE
  5
12E521
  8
OBJECT
 10
215.00000000003459
 20
-598.00000000087255
 30
0.0
 11
97.000000000034561
 21
-598.00000000087084
 31
0.0
1001
ACDBBLOCKREPETAG
1070
     1
1071
       17
1005
12E521
  0
LINE
  5
12E522
  8
HIDDEN
 10
126.0000000000345
 20
-596.00000000087175
 30
0.0
 11
186.00000000003439
 21
-596.00000000087175
 31
0.0
1001
ACDBBLOCKREPETAG
1070
     1
1071
      420
1005
12E522
  0
LINE
  5
12E523
  8
OBJECT
 10
454.00000000011448
 20
-767.00000000087164
 30
0.0
 11
454.00000000011448
 21
-764.00000000087164
 31
0.0
1001
ACDBBLOCKREPETAG
1070
     1
1071
      418
1005
12E523
  0
ARC
  5
12E524
  8
OBJECT
 10
457.0000000001146
 20
-767.00000000087164
 30
0.0
 40
3.0
 50
180.0
 51
270.0
1001
ACDBBLOCKREPETAG
1070
     1
1071
      419
1005
12E524
  0
LINE
  5
12E525
  8
OBJECT
 10
578.00000000011448
 20
-764.00000000087164
 30
0.0
 11
578.00000000011448
 21
-767.00000000087164
 31
0.0
1001
ACDBBLOCKREPETAG
1070
     1
1071
      420
1005
12E525
  0
ARC
  5
12E526
  8
OBJECT
 10
575.00000000011426
 20
-767.00000000087164
 30
0.0
 40
3.0
 50
270.0
 51
0.0
1001
ACDBBLOCKREPETAG
1070
     1
1071
      421
1005
12E526
  0
LINE
  5
12E527
  8
OBJECT
 10
575.00000000011426
 20
-770.00000000087164
 30
0.0
 11
457.0000000001146
 21
-770.00000000087164
 31
0.0
1001
ACDBBLOCKREPETAG
1070
     1
1071
      422
1005
12E527
  0
LINE
  5
12E528
  8
OBJECT
 10
666.00000000011448
 20
-609.00000000087175
 30
0.0
 11
659.0000000001146
 21
-609.00000000087175
 31
0.0
1001
ACDBBLOCKREPETAG
1070
     1
1071
       57
1005
12E528
  0
LINE
  5
12E529
  8
OBJECT
 10
659.0000000001146
 20
-609.00000000087175
 30
0.0
 11
659.0000000001146
 21
-759.00000000087164
 31
0.0
1001
ACDBBLOCKREPETAG
1070
     1
1071
       58
1005
12E529
  0
LINE
  5
12E52A
  8
OBJECT
 10
617.5000000001146
 20
-612.00000000087175
 30
0.0
 11
617.5000000001146
 21
-756.00000000087164
 31
0.0
1001
ACDBBLOCKREPETAG
1070
     1
1071
       59
1005
12E52A
  0
LINE
  5
12E52B
  8
OBJECT
 10
606.0000000001146
 20
-618.50000000087175
 30
0.0
 11
606.0000000001146
 21
-749.50000000087164
 31
0.0
1001
ACDBBLOCKREPETAG
1070
     1
1071
       60
1005
12E52B
  0
LINE
  5
12E52C
  8
OBJECT
 10
659.0000000001146
 20
-759.00000000087164
 30
0.0
 11
666.00000000011448
 21
-759.00000000087164
 31
0.0
1001
ACDBBLOCKREPETAG
1070
     1
1071
       61
1005
12E52C
  0
LINE
  5
12E52D
  8
OBJECT
 10
666.00000000011448
 20
-759.00000000087164
 30
0.0
 11
666.00000000011448
 21
-609.00000000087175
 31
0.0
1001
ACDBBLOCKREPETAG
1070
     1
1071
       62
1005
12E52D
  0
LINE
  5
12E52E
  8
OBJECT
 10
602.0000000001146
 20
-746.00000000087164
 30
0.0
 11
596.00000000011426
 21
-746.00000000087164
 31
0.0
1001
ACDBBLOCKREPETAG
1070
     1
1071
       63
1005
12E52E
  0
LINE
  5
12E52F
  8
OBJECT
 10
659.0000000001146
 20
-756.00000000087164
 30
0.0
 11
617.5000000001146
 21
-756.00000000087164
 31
0.0
1001
ACDBBLOCKREPETAG
1070
     1
1071
       64
1005
12E52F
  0
LINE
  5
12E530
  8
OBJECT
 10
617.5000000001146
 20
-756.00000000087164
 30
0.0
 11
606.0000000001146
 21
-749.50000000087164
 31
0.0
1001
ACDBBLOCKREPETAG
1070
     1
1071
       65
1005
12E530
  0
LINE
  5
12E531
  8
OBJECT
 10
606.0000000001146
 20
-749.50000000087164
 30
0.0
 11
602.0000000001146
 21
-746.00000000087164
 31
0.0
1001
ACDBBLOCKREPETAG
1070
     1
1071
       66
1005
12E531
  0
LINE
  5
12E532
  8
OBJECT
 10
617.5000000001146
 20
-612.00000000087175
 30
0.0
 11
606.0000000001146
 21
-618.50000000087175
 31
0.0
1001
ACDBBLOCKREPETAG
1070
     1
1071
       67
1005
12E532
  0
LINE
  5
12E533
  8
OBJECT
 10
606.0000000001146
 20
-618.50000000087175
 30
0.0
 11
602.0000000001146
 21
-622.00000000087175
 31
0.0
1001
ACDBBLOCKREPETAG
1070
     1
1071
       68
1005
12E533
  0
ARC
  5
12E534
  8
OBJECT
 10
983.90000000011605
 20
-684.00000000087175
 30
0.0
 40
386.89999999999998
 50
170.7787013626384
 51
189.22129863736151
1001
ACDBBLOCKREPETAG
1070
     1
1071
       69
1005
12E534
  0
LINE
  5
12E535
  8
OBJECT
 10
602.0000000001146
 20
-622.00000000087175
 30
0.0
 11
596.00000000011426
 21
-622.00000000087175
 31
0.0
1001
ACDBBLOCKREPETAG
1070
     1
1071
       70
1005
12E535
  0
LINE
  5
12E536
  8
OBJECT
 10
659.0000000001146
 20
-612.00000000087175
 30
0.0
 11
617.5000000001146
 21
-612.00000000087175
 31
0.0
1001
ACDBBLOCKREPETAG
1070
     1
1071
       71
1005
12E536
  0
INSERT
  5
12E537
  8
OBJECT
  2
*U29
 10
0.0
 20
0.0
 30
0.0
  0
LINE
  5
12E538
  8
HIDDEN
 10
614.0000000001146
 20
-741.00000000087164
 30
0.0
 11
614.0000000001146
 21
-627.00000000087175
 31
0.0
1001
ACDBBLOCKREPETAG
1070
     1
1071
      437
1005
12E538
  0
INSERT
  5
12E539
  8
OBJECT
  2
*U30
 10
0.0
 20
0.0
 30
0.0
  0
LINE
  5
12E53A
  8
OBJECT
 10
469.0000000001146
 20
-551.00000000087175
 30
0.0
 11
469.0000000001146
 21
-544.00000000087175
 31
0.0
1001
ACDBBLOCKREPETAG
1070
     1
1071
        1
1005
12E53A
  0
LINE
  5
12E53B
  8
OBJECT
 10
469.0000000001146
 20
-544.00000000087175
 30
0.0
 11
563.00000000011426
 21
-544.00000000087175
 31
0.0
1001
ACDBBLOCKREPETAG
1070
     1
1071
        2
1005
12E53B
  0
LINE
  5
12E53C
  8
OBJECT
 10
563.00000000011426
 20
-544.00000000087175
 30
0.0
 11
563.00000000011426
 21
-551.00000000087175
 31
0.0
1001
ACDBBLOCKREPETAG
1070
     1
1071
        3
1005
12E53C
  0
LINE
  5
12E53D
  8
OBJECT
 10
563.00000000011426
 20
-551.00000000087175
 30
0.0
 11
469.0000000001146
 21
-551.00000000087175
 31
0.0
1001
ACDBBLOCKREPETAG
1070
     1
1071
        4
1005
12E53D
  0
LINE
  5
12E53E
  8
OBJECT
 10
472.0000000001146
 20
-551.00000000087175
 30
0.0
 11
472.0000000001146
 21
-587.00000000087175
 31
0.0
1001
ACDBBLOCKREPETAG
1070
     1
1071
        5
1005
12E53E
  0
LINE
  5
12E53F
  8
OBJECT
 10
472.0000000001146
 20
-587.00000000087175
 30
0.0
 11
560.0000000001146
 21
-587.00000000087175
 31
0.0
1001
ACDBBLOCKREPETAG
1070
     1
1071
        6
1005
12E53F
  0
LINE
  5
12E540
  8
OBJECT
 10
560.0000000001146
 20
-587.00000000087175
 30
0.0
 11
560.0000000001146
 21
-551.00000000087175
 31
0.0
1001
ACDBBLOCKREPETAG
1070
     1
1071
        7
1005
12E540
  0
LINE
  5
12E541
  8
OBJECT
 10
476.5000000001146
 20
-591.00000000087175
 30
0.0
 11
476.5000000001146
 21
-598.00000000087175
 31
0.0
1001
ACDBBLOCKREPETAG
1070
     1
1071
        8
1005
12E541
  0
LINE
  5
12E542
  8
OBJECT
 10
555.5000000001146
 20
-598.00000000087175
 30
0.0
 11
555.5000000001146
 21
-591.00000000087175
 31
0.0
1001
ACDBBLOCKREPETAG
1070
     1
1071
        9
1005
12E542
  0
LINE
  5
12E543
  8
OBJECT
 10
555.5000000001146
 20
-591.00000000087175
 30
0.0
 11
476.5000000001146
 21
-591.00000000087175
 31
0.0
1001
ACDBBLOCKREPETAG
1070
     1
1071
       10
1005
12E543
  0
LINE
  5
12E544
  8
OBJECT
 10
472.0000000001146
 20
-587.00000000087175
 30
0.0
 11
476.5000000001146
 21
-591.00000000087175
 31
0.0
1001
ACDBBLOCKREPETAG
1070
     1
1071
       11
1005
12E544
  0
LINE
  5
12E545
  8
OBJECT
 10
560.0000000001146
 20
-587.00000000087175
 30
0.0
 11
555.5000000001146
 21
-591.00000000087175
 31
0.0
1001
ACDBBLOCKREPETAG
1070
     1
1071
       12
1005
12E545
  0
LINE
  5
12E546
  8
OBJECT
 10
454.00000000011448
 20
-601.00000000087084
 30
0.0
 11
454.00000000011448
 21
-604.00000000087175
 31
0.0
1001
ACDBBLOCKREPETAG
1070
     1
1071
       13
1005
12E546
  0
ARC
  5
12E547
  8
OBJECT
 10
457.0000000001146
 20
-601.00000000087084
 30
0.0
 40
3.0
 50
90.0
 51
180.0
1001
ACDBBLOCKREPETAG
1070
     1
1071
       14
1005
12E547
  0
LINE
  5
12E548
  8
OBJECT
 10
578.00000000011448
 20
-604.00000000087175
 30
0.0
 11
578.00000000011448
 21
-601.00000000087266
 31
0.0
1001
ACDBBLOCKREPETAG
1070
     1
1071
       15
1005
12E548
  0
ARC
  5
12E549
  8
OBJECT
 10
575.00000000011426
 20
-601.00000000087266
 30
0.0
 40
3.0
 50
0.0
 51
90.0
1001
ACDBBLOCKREPETAG
1070
     1
1071
       16
1005
12E549
  0
LINE
  5
12E54A
  8
OBJECT
 10
575.00000000011426
 20
-598.00000000087255
 30
0.0
 11
457.0000000001146
 21
-598.00000000087084
 31
0.0
1001
ACDBBLOCKREPETAG
1070
     1
1071
       17
1005
12E54A
  0
LINE
  5
12E54B
  8
HIDDEN
 10
486.0000000001146
 20
-596.00000000087175
 30
0.0
 11
546.00000000011426
 21
-596.00000000087175
 31
0.0
1001
ACDBBLOCKREPETAG
1070
     1
1071
      420
1005
12E54B
  0
LINE
  5
12E54C
  8
OBJECT
 10
454.00000000011448
 20
-303.00000000086533
 30
0.0
 11
454.00000000011448
 21
-300.00000000086533
 31
0.0
1001
ACDBBLOCKREPETAG
1070
     1
1071
      418
1005
12E54C
  0
ARC
  5
12E54D
  8
OBJECT
 10
457.0000000001146
 20
-303.00000000086533
 30
0.0
 40
3.0
 50
180.0
 51
270.0
1001
ACDBBLOCKREPETAG
1070
     1
1071
      419
1005
12E54D
  0
LINE
  5
12E54E
  8
OBJECT
 10
578.00000000011448
 20
-300.00000000086533
 30
0.0
 11
578.00000000011448
 21
-303.00000000086533
 31
0.0
1001
ACDBBLOCKREPETAG
1070
     1
1071
      420
1005
12E54E
  0
ARC
  5
12E54F
  8
OBJECT
 10
575.00000000011426
 20
-303.00000000086533
 30
0.0
 40
3.0
 50
270.0
 51
0.0
1001
ACDBBLOCKREPETAG
1070
     1
1071
      421
1005
12E54F
  0
LINE
  5
12E550
  8
OBJECT
 10
575.00000000011426
 20
-306.00000000086533
 30
0.0
 11
457.0000000001146
 21
-306.00000000086533
 31
0.0
1001
ACDBBLOCKREPETAG
1070
     1
1071
      422
1005
12E550
  0
INSERT
  5
12E551
  8
OBJECT
  2
*U31
 10
0.0
 20
0.0
 30
0.0
  0
LINE
  5
12E552
  8
OBJECT
 10
649.00000000011448
 20
-165.0000000008653
 30
0.0
 11
656.0000000001146
 21
-165.0000000008653
 31
0.0
1001
ACDBBLOCKREPETAG
1070
     1
1071
       20
1005
12E552
  0
LINE
  5
12E553
  8
OBJECT
 10
656.0000000001146
 20
-165.0000000008653
 30
0.0
 11
656.0000000001146
 21
-275.00000000086533
 31
0.0
1001
ACDBBLOCKREPETAG
1070
     1
1071
       21
1005
12E553
  0
LINE
  5
12E554
  8
OBJECT
 10
656.0000000001146
 20
-275.00000000086533
 30
0.0
 11
649.00000000011448
 21
-275.00000000086533
 31
0.0
1001
ACDBBLOCKREPETAG
1070
     1
1071
       22
1005
12E554
  0
LINE
  5
12E555
  8
OBJECT
 10
649.00000000011448
 20
-275.00000000086533
 30
0.0
 11
649.00000000011448
 21
-165.0000000008653
 31
0.0
1001
ACDBBLOCKREPETAG
1070
     1
1071
       23
1005
12E555
  0
LINE
  5
12E556
  8
OBJECT
 10
649.00000000011448
 20
-168.0000000008653
 30
0.0
 11
613.0000000001146
 21
-168.0000000008653
 31
0.0
1001
ACDBBLOCKREPETAG
1070
     1
1071
       24
1005
12E556
  0
LINE
  5
12E557
  8
OBJECT
 10
613.0000000001146
 20
-168.0000000008653
 30
0.0
 11
613.0000000001146
 21
-272.00000000086533
 31
0.0
1001
ACDBBLOCKREPETAG
1070
     1
1071
       25
1005
12E557
  0
LINE
  5
12E558
  8
OBJECT
 10
613.0000000001146
 20
-272.00000000086533
 30
0.0
 11
649.00000000011448
 21
-272.00000000086533
 31
0.0
1001
ACDBBLOCKREPETAG
1070
     1
1071
       26
1005
12E558
  0
LINE
  5
12E559
  8
OBJECT
 10
609.0000000001146
 20
-172.5000000008653
 30
0.0
 11
602.0000000001146
 21
-172.5000000008653
 31
0.0
1001
ACDBBLOCKREPETAG
1070
     1
1071
       27
1005
12E559
  0
LINE
  5
12E55A
  8
OBJECT
 10
602.0000000001146
 20
-267.50000000086533
 30
0.0
 11
609.0000000001146
 21
-267.50000000086533
 31
0.0
1001
ACDBBLOCKREPETAG
1070
     1
1071
       28
1005
12E55A
  0
LINE
  5
12E55B
  8
OBJECT
 10
609.0000000001146
 20
-267.50000000086533
 30
0.0
 11
609.0000000001146
 21
-172.5000000008653
 31
0.0
1001
ACDBBLOCKREPETAG
1070
     1
1071
       29
1005
12E55B
  0
LINE
  5
12E55C
  8
OBJECT
 10
613.0000000001146
 20
-168.0000000008653
 30
0.0
 11
609.0000000001146
 21
-172.5000000008653
 31
0.0
1001
ACDBBLOCKREPETAG
1070
     1
1071
       30
1005
12E55C
  0
LINE
  5
12E55D
  8
OBJECT
 10
613.0000000001146
 20
-272.00000000086533
 30
0.0
 11
609.0000000001146
 21
-267.50000000086533
 31
0.0
1001
ACDBBLOCKREPETAG
1070
     1
1071
       31
1005
12E55D
  0
LINE
  5
12E55E
  8
OBJECT
 10
599.00000000011607
 20
-158.0000000008653
 30
0.0
 11
596.00000000011426
 21
-158.0000000008653
 31
0.0
1001
ACDBBLOCKREPETAG
1070
     1
1071
       32
1005
12E55E
  0
ARC
  5
12E55F
  8
OBJECT
 10
599.00000000011607
 20
-161.0000000008653
 30
0.0
 40
3.0
 50
0.0
 51
90.0
1001
ACDBBLOCKREPETAG
1070
     1
1071
       33
1005
12E55F
  0
LINE
  5
12E560
  8
OBJECT
 10
596.00000000011426
 20
-282.00000000086533
 30
0.0
 11
599.00000000011278
 21
-282.00000000086533
 31
0.0
1001
ACDBBLOCKREPETAG
1070
     1
1071
       34
1005
12E560
  0
ARC
  5
12E561
  8
OBJECT
 10
599.00000000011278
 20
-279.00000000086533
 30
0.0
 40
3.0
 50
270.0
 51
0.0
1001
ACDBBLOCKREPETAG
1070
     1
1071
       35
1005
12E561
  0
LINE
  5
12E562
  8
OBJECT
 10
602.00000000011266
 20
-279.00000000086533
 30
0.0
 11
602.0000000001163
 21
-161.0000000008653
 31
0.0
1001
ACDBBLOCKREPETAG
1070
     1
1071
       36
1005
12E562
  0
LINE
  5
12E563
  8
HIDDEN
 10
604.00000000011437
 20
-182.0000000008653
 30
0.0
 11
604.00000000011437
 21
-258.00000000086533
 31
0.0
1001
ACDBBLOCKREPETAG
1070
     1
1071
      427
1005
12E563
  0
INSERT
  5
12E564
  8
OBJECT
  2
*U32
 10
0.0
 20
0.0
 30
0.0
  0
LINE
  5
12E565
  8
OBJECT
 10
469.0000000001146
 20
-87.000000000865299
 30
0.0
 11
469.0000000001146
 21
-80.000000000865313
 31
0.0
1001
ACDBBLOCKREPETAG
1070
     1
1071
        1
1005
12E565
  0
LINE
  5
12E566
  8
OBJECT
 10
469.0000000001146
 20
-80.000000000865313
 30
0.0
 11
563.00000000011426
 21
-80.000000000865313
 31
0.0
1001
ACDBBLOCKREPETAG
1070
     1
1071
        2
1005
12E566
  0
LINE
  5
12E567
  8
OBJECT
 10
563.00000000011426
 20
-80.000000000865313
 30
0.0
 11
563.00000000011426
 21
-87.000000000865299
 31
0.0
1001
ACDBBLOCKREPETAG
1070
     1
1071
        3
1005
12E567
  0
LINE
  5
12E568
  8
OBJECT
 10
563.00000000011426
 20
-87.000000000865299
 30
0.0
 11
469.0000000001146
 21
-87.000000000865299
 31
0.0
1001
ACDBBLOCKREPETAG
1070
     1
1071
        4
1005
12E568
  0
LINE
  5
12E569
  8
OBJECT
 10
472.0000000001146
 20
-87.000000000865299
 30
0.0
 11
472.0000000001146
 21
-123.0000000008653
 31
0.0
1001
ACDBBLOCKREPETAG
1070
     1
1071
        5
1005
12E569
  0
LINE
  5
12E56A
  8
OBJECT
 10
472.0000000001146
 20
-123.0000000008653
 30
0.0
 11
560.0000000001146
 21
-123.0000000008653
 31
0.0
1001
ACDBBLOCKREPETAG
1070
     1
1071
        6
1005
12E56A
  0
LINE
  5
12E56B
  8
OBJECT
 10
560.0000000001146
 20
-123.0000000008653
 30
0.0
 11
560.0000000001146
 21
-87.000000000865299
 31
0.0
1001
ACDBBLOCKREPETAG
1070
     1
1071
        7
1005
12E56B
  0
LINE
  5
12E56C
  8
OBJECT
 10
476.5000000001146
 20
-127.0000000008653
 30
0.0
 11
476.5000000001146
 21
-134.0000000008653
 31
0.0
1001
ACDBBLOCKREPETAG
1070
     1
1071
        8
1005
12E56C
  0
LINE
  5
12E56D
  8
OBJECT
 10
555.5000000001146
 20
-134.0000000008653
 30
0.0
 11
555.5000000001146
 21
-127.0000000008653
 31
0.0
1001
ACDBBLOCKREPETAG
1070
     1
1071
        9
1005
12E56D
  0
LINE
  5
12E56E
  8
OBJECT
 10
555.5000000001146
 20
-127.0000000008653
 30
0.0
 11
476.5000000001146
 21
-127.0000000008653
 31
0.0
1001
ACDBBLOCKREPETAG
1070
     1
1071
       10
1005
12E56E
  0
LINE
  5
12E56F
  8
OBJECT
 10
472.0000000001146
 20
-123.0000000008653
 30
0.0
 11
476.5000000001146
 21
-127.0000000008653
 31
0.0
1001
ACDBBLOCKREPETAG
1070
     1
1071
       11
1005
12E56F
  0
LINE
  5
12E570
  8
OBJECT
 10
560.0000000001146
 20
-123.0000000008653
 30
0.0
 11
555.5000000001146
 21
-127.0000000008653
 31
0.0
1001
ACDBBLOCKREPETAG
1070
     1
1071
       12
1005
12E570
  0
LINE
  5
12E571
  8
OBJECT
 10
454.00000000011448
 20
-137.00000000086439
 30
0.0
 11
454.00000000011448
 21
-140.0000000008653
 31
0.0
1001
ACDBBLOCKREPETAG
1070
     1
1071
       13
1005
12E571
  0
ARC
  5
12E572
  8
OBJECT
 10
457.0000000001146
 20
-137.00000000086439
 30
0.0
 40
3.0
 50
90.0
 51
180.0
1001
ACDBBLOCKREPETAG
1070
     1
1071
       14
1005
12E572
  0
LINE
  5
12E573
  8
OBJECT
 10
578.00000000011448
 20
-140.0000000008653
 30
0.0
 11
578.00000000011448
 21
-137.00000000086621
 31
0.0
1001
ACDBBLOCKREPETAG
1070
     1
1071
       15
1005
12E573
  0
ARC
  5
12E574
  8
OBJECT
 10
575.00000000011426
 20
-137.00000000086621
 30
0.0
 40
3.0
 50
0.0
 51
90.0
1001
ACDBBLOCKREPETAG
1070
     1
1071
       16
1005
12E574
  0
LINE
  5
12E575
  8
OBJECT
 10
575.00000000011426
 20
-134.00000000086621
 30
0.0
 11
457.0000000001146
 21
-134.00000000086439
 31
0.0
1001
ACDBBLOCKREPETAG
1070
     1
1071
       17
1005
12E575
  0
LINE
  5
12E576
  8
HIDDEN
 10
486.0000000001146
 20
-132.0000000008653
 30
0.0
 11
546.00000000011426
 21
-132.0000000008653
 31
0.0
1001
ACDBBLOCKREPETAG
1070
     1
1071
      420
1005
12E576
  0
LINE
  5
12E577
  8
OBJECT
 10
94.000000000034575
 20
-303.00000000086533
 30
0.0
 11
94.000000000034575
 21
-300.00000000086533
 31
0.0
1001
ACDBBLOCKREPETAG
1070
     1
1071
      418
1005
12E577
  0
ARC
  5
12E578
  8
OBJECT
 10
97.000000000034561
 20
-303.00000000086533
 30
0.0
 40
3.0
 50
180.0
 51
270.0
1001
ACDBBLOCKREPETAG
1070
     1
1071
      419
1005
12E578
  0
LINE
  5
12E579
  8
OBJECT
 10
218.00000000003459
 20
-300.00000000086533
 30
0.0
 11
218.00000000003459
 21
-303.00000000086533
 31
0.0
1001
ACDBBLOCKREPETAG
1070
     1
1071
      420
1005
12E579
  0
ARC
  5
12E57A
  8
OBJECT
 10
215.00000000003459
 20
-303.00000000086533
 30
0.0
 40
3.0
 50
270.0
 51
0.0
1001
ACDBBLOCKREPETAG
1070
     1
1071
      421
1005
12E57A
  0
LINE
  5
12E57B
  8
OBJECT
 10
215.00000000003459
 20
-306.00000000086533
 30
0.0
 11
97.000000000034561
 21
-306.00000000086533
 31
0.0
1001
ACDBBLOCKREPETAG
1070
     1
1071
      422
1005
12E57B
  0
INSERT
  5
12E57C
  8
OBJECT
  2
*U33
 10
0.0
 20
0.0
 30
0.0
  0
LINE
  5
12E57D
  8
OBJECT
 10
289.00000000003462
 20
-173.0000000008653
 30
0.0
 11
296.0000000000345
 21
-173.0000000008653
 31
0.0
1001
ACDBBLOCKREPETAG
1070
     1
1071
        1
1005
12E57D
  0
LINE
  5
12E57E
  8
OBJECT
 10
296.0000000000345
 20
-173.0000000008653
 30
0.0
 11
296.0000000000345
 21
-267.00000000086533
 31
0.0
1001
ACDBBLOCKREPETAG
1070
     1
1071
        2
1005
12E57E
  0
LINE
  5
12E57F
  8
OBJECT
 10
296.0000000000345
 20
-267.00000000086533
 30
0.0
 11
289.00000000003462
 21
-267.00000000086533
 31
0.0
1001
ACDBBLOCKREPETAG
1070
     1
1071
        3
1005
12E57F
  0
LINE
  5
12E580
  8
OBJECT
 10
289.00000000003462
 20
-267.00000000086533
 30
0.0
 11
289.00000000003462
 21
-173.0000000008653
 31
0.0
1001
ACDBBLOCKREPETAG
1070
     1
1071
        4
1005
12E580
  0
LINE
  5
12E581
  8
OBJECT
 10
289.00000000003462
 20
-176.0000000008653
 30
0.0
 11
253.00000000003459
 21
-176.0000000008653
 31
0.0
1001
ACDBBLOCKREPETAG
1070
     1
1071
        5
1005
12E581
  0
LINE
  5
12E582
  8
OBJECT
 10
253.00000000003459
 20
-176.0000000008653
 30
0.0
 11
253.00000000003459
 21
-264.00000000086533
 31
0.0
1001
ACDBBLOCKREPETAG
1070
     1
1071
        6
1005
12E582
  0
LINE
  5
12E583
  8
OBJECT
 10
253.00000000003459
 20
-264.00000000086533
 30
0.0
 11
289.00000000003462
 21
-264.00000000086533
 31
0.0
1001
ACDBBLOCKREPETAG
1070
     1
1071
        7
1005
12E583
  0
LINE
  5
12E584
  8
OBJECT
 10
249.00000000003459
 20
-180.5000000008653
 30
0.0
 11
242.00000000003459
 21
-180.5000000008653
 31
0.0
1001
ACDBBLOCKREPETAG
1070
     1
1071
        8
1005
12E584
  0
LINE
  5
12E585
  8
OBJECT
 10
242.00000000003459
 20
-259.50000000086533
 30
0.0
 11
249.00000000003459
 21
-259.50000000086533
 31
0.0
1001
ACDBBLOCKREPETAG
1070
     1
1071
        9
1005
12E585
  0
LINE
  5
12E586
  8
OBJECT
 10
249.00000000003459
 20
-259.50000000086533
 30
0.0
 11
249.00000000003459
 21
-180.5000000008653
 31
0.0
1001
ACDBBLOCKREPETAG
1070
     1
1071
       10
1005
12E586
  0
LINE
  5
12E587
  8
OBJECT
 10
253.00000000003459
 20
-176.0000000008653
 30
0.0
 11
249.00000000003459
 21
-180.5000000008653
 31
0.0
1001
ACDBBLOCKREPETAG
1070
     1
1071
       11
1005
12E587
  0
LINE
  5
12E588
  8
OBJECT
 10
253.00000000003459
 20
-264.00000000086533
 30
0.0
 11
249.00000000003459
 21
-259.50000000086533
 31
0.0
1001
ACDBBLOCKREPETAG
1070
     1
1071
       12
1005
12E588
  0
LINE
  5
12E589
  8
OBJECT
 10
239.00000000003641
 20
-158.0000000008653
 30
0.0
 11
236.00000000003459
 21
-158.0000000008653
 31
0.0
1001
ACDBBLOCKREPETAG
1070
     1
1071
       13
1005
12E589
  0
ARC
  5
12E58A
  8
OBJECT
 10
239.00000000003641
 20
-161.0000000008653
 30
0.0
 40
3.0
 50
0.0
 51
90.0
1001
ACDBBLOCKREPETAG
1070
     1
1071
       14
1005
12E58A
  0
LINE
  5
12E58B
  8
OBJECT
 10
236.00000000003459
 20
-282.00000000086533
 30
0.0
 11
239.00000000003271
 21
-282.00000000086533
 31
0.0
1001
ACDBBLOCKREPETAG
1070
     1
1071
       15
1005
12E58B
  0
ARC
  5
12E58C
  8
OBJECT
 10
239.00000000003271
 20
-279.00000000086533
 30
0.0
 40
3.0
 50
270.0
 51
0.0
1001
ACDBBLOCKREPETAG
1070
     1
1071
       16
1005
12E58C
  0
LINE
  5
12E58D
  8
OBJECT
 10
242.0000000000328
 20
-279.00000000086533
 30
0.0
 11
242.00000000003641
 21
-161.0000000008653
 31
0.0
1001
ACDBBLOCKREPETAG
1070
     1
1071
       17
1005
12E58D
  0
LINE
  5
12E58E
  8
HIDDEN
 10
244.0000000000345
 20
-190.0000000008653
 30
0.0
 11
244.0000000000345
 21
-250.0000000008653
 31
0.0
1001
ACDBBLOCKREPETAG
1070
     1
1071
      424
1005
12E58E
  0
INSERT
  5
12E58F
  8
OBJECT
  2
*U34
 10
0.0
 20
0.0
 30
0.0
  0
LINE
  5
12E590
  8
OBJECT
 10
109.0000000000345
 20
-87.000000000865299
 30
0.0
 11
109.0000000000345
 21
-80.000000000865313
 31
0.0
1001
ACDBBLOCKREPETAG
1070
     1
1071
        1
1005
12E590
  0
LINE
  5
12E591
  8
OBJECT
 10
109.0000000000345
 20
-80.000000000865313
 30
0.0
 11
203.00000000003459
 21
-80.000000000865313
 31
0.0
1001
ACDBBLOCKREPETAG
1070
     1
1071
        2
1005
12E591
  0
LINE
  5
12E592
  8
OBJECT
 10
203.00000000003459
 20
-80.000000000865313
 30
0.0
 11
203.00000000003459
 21
-87.000000000865299
 31
0.0
1001
ACDBBLOCKREPETAG
1070
     1
1071
        3
1005
12E592
  0
LINE
  5
12E593
  8
OBJECT
 10
203.00000000003459
 20
-87.000000000865299
 30
0.0
 11
109.0000000000345
 21
-87.000000000865299
 31
0.0
1001
ACDBBLOCKREPETAG
1070
     1
1071
        4
1005
12E593
  0
LINE
  5
12E594
  8
OBJECT
 10
112.0000000000345
 20
-87.000000000865299
 30
0.0
 11
112.0000000000345
 21
-123.0000000008653
 31
0.0
1001
ACDBBLOCKREPETAG
1070
     1
1071
        5
1005
12E594
  0
LINE
  5
12E595
  8
OBJECT
 10
112.0000000000345
 20
-123.0000000008653
 30
0.0
 11
200.0000000000345
 21
-123.0000000008653
 31
0.0
1001
ACDBBLOCKREPETAG
1070
     1
1071
        6
1005
12E595
  0
LINE
  5
12E596
  8
OBJECT
 10
200.0000000000345
 20
-123.0000000008653
 30
0.0
 11
200.0000000000345
 21
-87.000000000865299
 31
0.0
1001
ACDBBLOCKREPETAG
1070
     1
1071
        7
1005
12E596
  0
LINE
  5
12E597
  8
OBJECT
 10
116.5000000000345
 20
-127.0000000008653
 30
0.0
 11
116.5000000000345
 21
-134.0000000008653
 31
0.0
1001
ACDBBLOCKREPETAG
1070
     1
1071
        8
1005
12E597
  0
LINE
  5
12E598
  8
OBJECT
 10
195.5000000000345
 20
-134.0000000008653
 30
0.0
 11
195.5000000000345
 21
-127.0000000008653
 31
0.0
1001
ACDBBLOCKREPETAG
1070
     1
1071
        9
1005
12E598
  0
LINE
  5
12E599
  8
OBJECT
 10
195.5000000000345
 20
-127.0000000008653
 30
0.0
 11
116.5000000000345
 21
-127.0000000008653
 31
0.0
1001
ACDBBLOCKREPETAG
1070
     1
1071
       10
1005
12E599
  0
LINE
  5
12E59A
  8
OBJECT
 10
112.0000000000345
 20
-123.0000000008653
 30
0.0
 11
116.5000000000345
 21
-127.0000000008653
 31
0.0
1001
ACDBBLOCKREPETAG
1070
     1
1071
       11
1005
12E59A
  0
LINE
  5
12E59B
  8
OBJECT
 10
200.0000000000345
 20
-123.0000000008653
 30
0.0
 11
195.5000000000345
 21
-127.0000000008653
 31
0.0
1001
ACDBBLOCKREPETAG
1070
     1
1071
       12
1005
12E59B
  0
LINE
  5
12E59C
  8
OBJECT
 10
94.000000000034575
 20
-137.00000000086439
 30
0.0
 11
94.000000000034575
 21
-140.0000000008653
 31
0.0
1001
ACDBBLOCKREPETAG
1070
     1
1071
       13
1005
12E59C
  0
ARC
  5
12E59D
  8
OBJECT
 10
97.000000000034561
 20
-137.00000000086439
 30
0.0
 40
3.0
 50
90.0
 51
180.0
1001
ACDBBLOCKREPETAG
1070
     1
1071
       14
1005
12E59D
  0
LINE
  5
12E59E
  8
OBJECT
 10
218.00000000003459
 20
-140.0000000008653
 30
0.0
 11
218.00000000003459
 21
-137.00000000086621
 31
0.0
1001
ACDBBLOCKREPETAG
1070
     1
1071
       15
1005
12E59E
  0
ARC
  5
12E59F
  8
OBJECT
 10
215.00000000003459
 20
-137.00000000086621
 30
0.0
 40
3.0
 50
0.0
 51
90.0
1001
ACDBBLOCKREPETAG
1070
     1
1071
       16
1005
12E59F
  0
LINE
  5
12E5A0
  8
OBJECT
 10
215.00000000003459
 20
-134.00000000086621
 30
0.0
 11
97.000000000034561
 21
-134.00000000086439
 31
0.0
1001
ACDBBLOCKREPETAG
1070
     1
1071
       17
1005
12E5A0
  0
LINE
  5
12E5A1
  8
HIDDEN
 10
126.0000000000345
 20
-132.0000000008653
 30
0.0
 11
186.00000000003439
 21
-132.0000000008653
 31
0.0
1001
ACDBBLOCKREPETAG
1070
     1
1071
      420
1005
12E5A1
  0
POLYLINE
  5
12E5A2
  8
HIDDEN
 66
     1
 10
0.0
 20
0.0
 30
0.0
 70
     1
1001
ACDBBLOCKREPETAG
1070
     1
1071
      105
1005
0
  0
VERTEX
  5
131CE5
  8
HIDDEN
 10
359.99999999987818
 20
-0.0000000000008527
 30
0.0
  0
VERTEX
  5
131CE6
  8
HIDDEN
 10
719.99999999975626
 20
-0.0000000000008527
 30
0.0
  0
VERTEX
  5
131CE7
  8
HIDDEN
 10
719.99999999975626
 20
-463.99999999984249
 30
0.0
  0
VERTEX
  5
131CE8
  8
HIDDEN
 10
359.99999999987818
 20
-463.99999999984249
 30
0.0
  0
SEQEND
  5
131CE9
  8
HIDDEN
  0
POLYLINE
  5
12E5A3
  8
HIDDEN
 66
     1
 10
0.0
 20
0.0
 30
0.0
 70
     1
1001
ACDBBLOCKREPETAG
1070
     1
1071
      110
1005
0
  0
VERTEX
  5
131CEA
  8
HIDDEN
 10
0.0
 20
-0.0000000000008527
 30
0.0
  0
VERTEX
  5
131CEB
  8
HIDDEN
 10
359.99999999987818
 20
-0.0000000000008527
 30
0.0
  0
VERTEX
  5
131CEC
  8
HIDDEN
 10
359.99999999987818
 20
-463.99999999984249
 30
0.0
  0
VERTEX
  5
131CED
  8
HIDDEN
 10
0.0
 20
-463.99999999984249
 30
0.0
  0
SEQEND
  5
131CEE
  8
HIDDEN
  0
POLYLINE
  5
12E5A4
  8
HIDDEN
 66
     1
 10
0.0
 20
0.0
 30
0.0
 70
     1
1001
ACDBBLOCKREPETAG
1070
     1
1071
      120
1005
0
  0
VERTEX
  5
131CEF
  8
HIDDEN
 10
359.99999999987818
 20
-463.99999999984249
 30
0.0
  0
VERTEX
  5
131CF0
  8
HIDDEN
 10
719.99999999975626
 20
-463.99999999984249
 30
0.0
  0
VERTEX
  5
131CF1
  8
HIDDEN
 10
719.99999999975626
 20
-927.99999999968441
 30
0.0
  0
VERTEX
  5
131CF2
  8
HIDDEN
 10
359.99999999987818
 20
-927.99999999968441
 30
0.0
  0
SEQEND
  5
131CF3
  8
HIDDEN
  0
POLYLINE
  5
12E5A5
  8
HIDDEN
 66
     1
 10
0.0
 20
0.0
 30
0.0
 70
     1
1001
ACDBBLOCKREPETAG
1070
     1
1071
      125
1005
0
  0
VERTEX
  5
131CF4
  8
HIDDEN
 10
0.0
 20
-463.99999999984249
 30
0.0
  0
VERTEX
  5
131CF5
  8
HIDDEN
 10
359.99999999987818
 20
-463.99999999984249
 30
0.0
  0
VERTEX
  5
131CF6
  8
HIDDEN
 10
359.99999999987818
 20
-927.99999999968441
 30
0.0
  0
VERTEX
  5
131CF7
  8
HIDDEN
 10
0.0
 20
-927.99999999968441
 30
0.0
  0
SEQEND
  5
131CF8
  8
HIDDEN
  0
POLYLINE
  5
12E5A6
  8
HIDDEN
 66
     1
 10
0.0
 20
0.0
 30
0.0
 70
     1
1001
ACDBBLOCKREPETAG
1070
     1
1071
      130
1005
0
  0
VERTEX
  5
131CF9
  8
HIDDEN
 10
359.99999999987818
 20
-927.99999999968441
 30
0.0
  0
VERTEX
  5
131CFA
  8
HIDDEN
 10
719.99999999975626
 20
-927.99999999968441
 30
0.0
  0
VERTEX
  5
131CFB
  8
HIDDEN
 10
719.99999999975626
 20
-1391.9999999995259
 30
0.0
  0
VERTEX
  5
131CFC
  8
HIDDEN
 10
359.99999999987818
 20
-1391.9999999995259
 30
0.0
  0
SEQEND
  5
131CFD
  8
HIDDEN
  0
POLYLINE
  5
12E5A7
  8
HIDDEN
 66
     1
 10
0.0
 20
0.0
 30
0.0
 70
     1
1001
ACDBBLOCKREPETAG
1070
     1
1071
      135
1005
0
  0
VERTEX
  5
131CFE
  8
HIDDEN
 10
0.0
 20
-927.99999999968441
 30
0.0
  0
VERTEX
  5
131CFF
  8
HIDDEN
 10
359.99999999987818
 20
-927.99999999968441
 30
0.0
  0
VERTEX
  5
131D00
  8
HIDDEN
 10
359.99999999987818
 20
-1391.9999999995259
 30
0.0
  0
VERTEX
  5
131D01
  8
HIDDEN
 10
0.0
 20
-1391.9999999995259
 30
0.0
  0
SEQEND
  5
131D02
  8
HIDDEN
  0
POLYLINE
  5
12E5A8
  8
HIDDEN
 66
     1
 10
0.0
 20
0.0
 30
0.0
 70
     1
1001
ACDBBLOCKREPETAG
1070
     1
1071
      140
1005
0
  0
VERTEX
  5
131D03
  8
HIDDEN
 10
359.99999999987818
 20
-2783.9999999990532
 30
0.0
  0
VERTEX
  5
131D04
  8
HIDDEN
 10
719.99999999975626
 20
-2783.9999999990532
 30
0.0
  0
VERTEX
  5
131D05
  8
HIDDEN
 10
719.99999999975626
 20
-3247.9999999988931
 30
0.0
  0
VERTEX
  5
131D06
  8
HIDDEN
 10
359.99999999987818
 20
-3247.9999999988931
 30
0.0
  0
SEQEND
  5
131D07
  8
HIDDEN
  0
POLYLINE
  5
12E5A9
  8
HIDDEN
 66
     1
 10
0.0
 20
0.0
 30
0.0
 70
     1
1001
ACDBBLOCKREPETAG
1070
     1
1071
      145
1005
0
  0
VERTEX
  5
131D08
  8
HIDDEN
 10
0.0
 20
-2783.9999999990532
 30
0.0
  0
VERTEX
  5
131D09
  8
HIDDEN
 10
359.99999999987818
 20
-2783.9999999990532
 30
0.0
  0
VERTEX
  5
131D0A
  8
HIDDEN
 10
359.99999999987818
 20
-3247.9999999988931
 30
0.0
  0
VERTEX
  5
131D0B
  8
HIDDEN
 10
0.0
 20
-3247.9999999988931
 30
0.0
  0
SEQEND
  5
131D0C
  8
HIDDEN
  0
POLYLINE
  5
12E5AA
  8
HIDDEN
 66
     1
 10
0.0
 20
0.0
 30
0.0
 70
     1
1001
ACDBBLOCKREPETAG
1070
     1
1071
      150
1005
0
  0
VERTEX
  5
131D0D
  8
HIDDEN
 10
359.99999999987818
 20
-3247.9999999988931
 30
0.0
  0
VERTEX
  5
131D0E
  8
HIDDEN
 10
719.99999999975626
 20
-3247.9999999988931
 30
0.0
  0
VERTEX
  5
131D0F
  8
HIDDEN
 10
719.99999999975626
 20
-3711.9999999987349
 30
0.0
  0
VERTEX
  5
131D10
  8
HIDDEN
 10
359.99999999987818
 20
-3711.9999999987349
 30
0.0
  0
SEQEND
  5
131D11
  8
HIDDEN
  0
POLYLINE
  5
12E5AB
  8
HIDDEN
 66
     1
 10
0.0
 20
0.0
 30
0.0
 70
     1
1001
ACDBBLOCKREPETAG
1070
     1
1071
      155
1005
0
  0
VERTEX
  5
131D12
  8
HIDDEN
 10
0.0
 20
-3247.9999999988931
 30
0.0
  0
VERTEX
  5
131D13
  8
HIDDEN
 10
359.99999999987818
 20
-3247.9999999988931
 30
0.0
  0
VERTEX
  5
131D14
  8
HIDDEN
 10
359.99999999987818
 20
-3711.9999999987349
 30
0.0
  0
VERTEX
  5
131D15
  8
HIDDEN
 10
0.0
 20
-3711.9999999987349
 30
0.0
  0
SEQEND
  5
131D16
  8
HIDDEN
  0
POLYLINE
  5
12E5AC
  8
HIDDEN
 66
     1
 10
0.0
 20
0.0
 30
0.0
 70
     1
1001
ACDBBLOCKREPETAG
1070
     1
1071
      160
1005
0
  0
VERTEX
  5
131D17
  8
HIDDEN
 10
359.99999999987818
 20
-1391.9999999995259
 30
0.0
  0
VERTEX
  5
131D18
  8
HIDDEN
 10
719.99999999975626
 20
-1391.9999999995259
 30
0.0
  0
VERTEX
  5
131D19
  8
HIDDEN
 10
719.99999999975626
 20
-1855.9999999993679
 30
0.0
  0
VERTEX
  5
131D1A
  8
HIDDEN
 10
359.99999999987818
 20
-1855.9999999993679
 30
0.0
  0
SEQEND
  5
131D1B
  8
HIDDEN
  0
POLYLINE
  5
12E5AD
  8
HIDDEN
 66
     1
 10
0.0
 20
0.0
 30
0.0
 70
     1
1001
ACDBBLOCKREPETAG
1070
     1
1071
      165
1005
0
  0
VERTEX
  5
131D1C
  8
HIDDEN
 10
0.0
 20
-1391.9999999995259
 30
0.0
  0
VERTEX
  5
131D1D
  8
HIDDEN
 10
359.99999999987818
 20
-1391.9999999995259
 30
0.0
  0
VERTEX
  5
131D1E
  8
HIDDEN
 10
359.99999999987818
 20
-1855.9999999993679
 30
0.0
  0
VERTEX
  5
131D1F
  8
HIDDEN
 10
0.0
 20
-1855.9999999993679
 30
0.0
  0
SEQEND
  5
131D20
  8
HIDDEN
  0
POLYLINE
  5
12E5AE
  8
HIDDEN
 66
     1
 10
0.0
 20
0.0
 30
0.0
 70
     1
1001
ACDBBLOCKREPETAG
1070
     1
1071
      170
1005
0
  0
VERTEX
  5
131D21
  8
HIDDEN
 10
359.99999999987818
 20
-1855.9999999993679
 30
0.0
  0
VERTEX
  5
131D22
  8
HIDDEN
 10
719.99999999975626
 20
-1855.9999999993679
 30
0.0
  0
VERTEX
  5
131D23
  8
HIDDEN
 10
719.99999999975626
 20
-2319.9999999992101
 30
0.0
  0
VERTEX
  5
131D24
  8
HIDDEN
 10
359.99999999987818
 20
-2319.9999999992101
 30
0.0
  0
SEQEND
  5
131D25
  8
HIDDEN
  0
POLYLINE
  5
12E5AF
  8
HIDDEN
 66
     1
 10
0.0
 20
0.0
 30
0.0
 70
     1
1001
ACDBBLOCKREPETAG
1070
     1
1071
      175
1005
0
  0
VERTEX
  5
131D26
  8
HIDDEN
 10
0.0
 20
-1855.9999999993679
 30
0.0
  0
VERTEX
  5
131D27
  8
HIDDEN
 10
359.99999999987818
 20
-1855.9999999993679
 30
0.0
  0
VERTEX
  5
131D28
  8
HIDDEN
 10
359.99999999987818
 20
-2319.9999999992101
 30
0.0
  0
VERTEX
  5
131D29
  8
HIDDEN
 10
0.0
 20
-2319.9999999992101
 30
0.0
  0
SEQEND
  5
131D2A
  8
HIDDEN
  0
POLYLINE
  5
12E5B0
  8
HIDDEN
 66
     1
 10
0.0
 20
0.0
 30
0.0
 70
     1
1001
ACDBBLOCKREPETAG
1070
     1
1071
      180
1005
0
  0
VERTEX
  5
131D2B
  8
HIDDEN
 10
359.99999999987818
 20
-2319.9999999992101
 30
0.0
  0
VERTEX
  5
131D2C
  8
HIDDEN
 10
719.99999999975626
 20
-2319.9999999992101
 30
0.0
  0
VERTEX
  5
131D2D
  8
HIDDEN
 10
719.99999999975626
 20
-2783.9999999990532
 30
0.0
  0
VERTEX
  5
131D2E
  8
HIDDEN
 10
359.99999999987818
 20
-2783.9999999990532
 30
0.0
  0
SEQEND
  5
131D2F
  8
HIDDEN
  0
POLYLINE
  5
12E5B1
  8
HIDDEN
 66
     1
 10
0.0
 20
0.0
 30
0.0
 70
     1
1001
ACDBBLOCKREPETAG
1070
     1
1071
      185
1005
0
  0
VERTEX
  5
131D30
  8
HIDDEN
 10
0.0
 20
-2319.9999999992101
 30
0.0
  0
VERTEX
  5
131D31
  8
HIDDEN
 10
359.99999999987818
 20
-2319.9999999992101
 30
0.0
  0
VERTEX
  5
131D32
  8
HIDDEN
 10
359.99999999987818
 20
-2783.9999999990532
 30
0.0
  0
VERTEX
  5
131D33
  8
HIDDEN
 10
0.0
 20
-2783.9999999990532
 30
0.0
  0
SEQEND
  5
131D34
  8
HIDDEN
  0
TEXT
  5
12E5B2
  8
SLIM
 10
491.99999999981759
 20
-3691.9999999987422
 30
0.0
 40
48.0
  1
C44
 41
0.75
1001
ACDBBLOCKREPETAG
1070
     1
1071
      119
1005
0
  0
TEXT
  5
12E5B3
  8
SLIM
 10
132.85714285708241
 20
-3691.9999999987422
 30
0.0
 40
48.0
  1
C43
 41
0.75
1001
ACDBBLOCKREPETAG
1070
     1
1071
      119
1005
0
  0
TEXT
  5
12E5B4
  8
SLIM
 10
492.85714285696048
 20
-3227.9999999989
 30
0.0
 40
48.0
  1
C42
 41
0.75
1001
ACDBBLOCKREPETAG
1070
     1
1071
      119
1005
0
  0
TEXT
  5
12E5B5
  8
SLIM
 10
140.5714285713681
 20
-3227.9999999989018
 30
0.0
 40
48.0
  1
C41
 41
0.75
1001
ACDBBLOCKREPETAG
1070
     1
1071
      119
1005
0
  0
TEXT
  5
12E5B6
  8
SLIM
 10
491.99999999981759
 20
-2763.9999999990591
 30
0.0
 40
48.0
  1
C34
 41
0.75
1001
ACDBBLOCKREPETAG
1070
     1
1071
      119
1005
0
  0
TEXT
  5
12E5B7
  8
SLIM
 10
132.85714285708241
 20
-2763.9999999990591
 30
0.0
 40
48.0
  1
C33
 41
0.75
1001
ACDBBLOCKREPETAG
1070
     1
1071
      119
1005
0
  0
TEXT
  5
12E5B8
  8
SLIM
 10
492.85714285696048
 20
-2299.9999999992169
 30
0.0
 40
48.0
  1
C32
 41
0.75
1001
ACDBBLOCKREPETAG
1070
     1
1071
      119
1005
0
  0
TEXT
  5
12E5B9
  8
SLIM
 10
140.5714285713681
 20
-2299.9999999992169
 30
0.0
 40
48.0
  1
C31
 41
0.75
1001
ACDBBLOCKREPETAG
1070
     1
1071
      119
1005
0
  0
TEXT
  5
12E5BA
  8
SLIM
 10
491.99999999981759
 20
-1835.9999999993749
 30
0.0
 40
48.0
  1
C24
 41
0.75
1001
ACDBBLOCKREPETAG
1070
     1
1071
      119
1005
0
  0
TEXT
  5
12E5BB
  8
SLIM
 10
132.85714285708241
 20
-1835.9999999993749
 30
0.0
 40
48.0
  1
C23
 41
0.75
1001
ACDBBLOCKREPETAG
1070
     1
1071
      119
1005
0
  0
TEXT
  5
12E5BC
  8
SLIM
 10
492.85714285696048
 20
-1371.999999999533
 30
0.0
 40
48.0
  1
C22
 41
0.75
1001
ACDBBLOCKREPETAG
1070
     1
1071
      119
1005
0
  0
TEXT
  5
12E5BD
  8
SLIM
 10
140.57142857136759
 20
-1371.999999999533
 30
0.0
 40
48.0
  1
C21
 41
0.75
1001
ACDBBLOCKREPETAG
1070
     1
1071
      119
1005
0
  0
TEXT
  5
12E5BE
  8
SLIM
 10
495.42857142838892
 20
-907.99999999969123
 30
0.0
 40
48.0
  1
C14
 41
0.75
1001
ACDBBLOCKREPETAG
1070
     1
1071
      119
1005
0
  0
TEXT
  5
12E5BF
  8
SLIM
 10
136.2857142856538
 20
-907.99999999969123
 30
0.0
 40
48.0
  1
C13
 41
0.75
1001
ACDBBLOCKREPETAG
1070
     1
1071
      119
1005
0
  0
TEXT
  5
12E5C0
  8
SLIM
 10
496.28571428553192
 20
-443.99999999984971
 30
0.0
 40
48.0
  1
C12
 41
0.75
1001
ACDBBLOCKREPETAG
1070
     1
1071
      119
1005
0
  0
TEXT
  5
12E5C1
  8
SLIM
 10
143.9999999999394
 20
-443.99999999984971
 30
0.0
 40
48.0
  1
C11
 41
0.75
1001
ACDBBLOCKREPETAG
1070
     1
1071
      119
1005
0
  0
LINE
  5
12E5C2
  8
CENTER
 10
1899.0
 20
-199.99999999999909
 30
0.0
 11
1920.0
 21
-199.99999999999909
 31
0.0
1001
ACDBBLOCKREPETAG
1070
     1
1071
        0
1005
12E5C2
  0
LINE
  5
12E5C3
  8
OBJECT
 10
1917.0
 20
-261.99999999999909
 30
0.0
 11
1920.0
 21
-261.99999999999909
 31
0.0
1001
ACDBBLOCKREPETAG
1070
     1
1071
        1
1005
12E5C3
  0
ARC
  5
12E5C4
  8
OBJECT
 10
1917.0
 20
-258.99999999999909
 30
0.0
 40
3.0
 50
180.0
 51
270.0
1001
ACDBBLOCKREPETAG
1070
     1
1071
        2
1005
12E5C4
  0
LINE
  5
12E5C5
  8
OBJECT
 10
1920.0
 20
-137.99999999999909
 30
0.0
 11
1917.0
 21
-137.99999999999909
 31
0.0
1001
ACDBBLOCKREPETAG
1070
     1
1071
        3
1005
12E5C5
  0
ARC
  5
12E5C6
  8
OBJECT
 10
1917.0
 20
-140.99999999999909
 30
0.0
 40
3.0
 50
90.0
 51
180.0
1001
ACDBBLOCKREPETAG
1070
     1
1071
        4
1005
12E5C6
  0
LINE
  5
12E5C7
  8
OBJECT
 10
1914.0
 20
-140.99999999999909
 30
0.0
 11
1914.0
 21
-258.99999999999909
 31
0.0
1001
ACDBBLOCKREPETAG
1070
     1
1071
        5
1005
12E5C7
  0
LINE
  5
12E5C8
  8
OBJECT
 10
2062.0
 20
-332.99999999999892
 30
0.0
 11
2062.0
 21
-339.99999999999909
 31
0.0
1001
ACDBBLOCKREPETAG
1070
     1
1071
       47
1005
12E5C8
  0
LINE
  5
12E5C9
  8
OBJECT
 10
2062.0
 20
-339.99999999999909
 30
0.0
 11
1938.0
 21
-339.99999999999909
 31
0.0
1001
ACDBBLOCKREPETAG
1070
     1
1071
       48
1005
12E5C9
  0
LINE
  5
12E5CA
  8
OBJECT
 10
1938.0
 20
-339.99999999999909
 30
0.0
 11
1938.0
 21
-332.99999999999892
 31
0.0
1001
ACDBBLOCKREPETAG
1070
     1
1071
       49
1005
12E5CA
  0
LINE
  5
12E5CB
  8
OBJECT
 10
1938.0
 20
-332.99999999999892
 30
0.0
 11
2062.0
 21
-332.99999999999892
 31
0.0
1001
ACDBBLOCKREPETAG
1070
     1
1071
       50
1005
12E5CB
  0
LINE
  5
12E5CC
  8
CENTER
 10
2000.0
 20
-354.99999999999909
 30
0.0
 11
2000.0
 21
-279.99999999999909
 31
0.0
1001
ACDBBLOCKREPETAG
1070
     1
1071
       51
1005
12E5CC
  0
LINE
  5
12E5CD
  8
OBJECT
 10
2059.0
 20
-332.99999999999892
 30
0.0
 11
2059.0
 21
-296.99999999999892
 31
0.0
1001
ACDBBLOCKREPETAG
1070
     1
1071
       52
1005
12E5CD
  0
LINE
  5
12E5CE
  8
OBJECT
 10
2059.0
 20
-296.99999999999892
 30
0.0
 11
1941.0
 21
-296.99999999999892
 31
0.0
1001
ACDBBLOCKREPETAG
1070
     1
1071
       53
1005
12E5CE
  0
LINE
  5
12E5CF
  8
OBJECT
 10
1941.0
 20
-296.99999999999892
 30
0.0
 11
1941.0
 21
-332.99999999999892
 31
0.0
1001
ACDBBLOCKREPETAG
1070
     1
1071
       54
1005
12E5CF
  0
LINE
  5
12E5D0
  8
OBJECT
 10
2054.5
 20
-292.99999999999892
 30
0.0
 11
2054.5
 21
-285.99999999999892
 31
0.0
1001
ACDBBLOCKREPETAG
1070
     1
1071
       55
1005
12E5D0
  0
LINE
  5
12E5D1
  8
OBJECT
 10
1945.5
 20
-285.99999999999892
 30
0.0
 11
1945.5
 21
-292.99999999999892
 31
0.0
1001
ACDBBLOCKREPETAG
1070
     1
1071
       56
1005
12E5D1
  0
LINE
  5
12E5D2
  8
OBJECT
 10
1945.5
 20
-292.99999999999892
 30
0.0
 11
2054.5
 21
-292.99999999999892
 31
0.0
1001
ACDBBLOCKREPETAG
1070
     1
1071
       57
1005
12E5D2
  0
LINE
  5
12E5D3
  8
OBJECT
 10
2059.0
 20
-296.99999999999892
 30
0.0
 11
2054.5
 21
-292.99999999999892
 31
0.0
1001
ACDBBLOCKREPETAG
1070
     1
1071
       58
1005
12E5D3
  0
LINE
  5
12E5D4
  8
OBJECT
 10
1941.0
 20
-296.99999999999892
 30
0.0
 11
1945.5
 21
-292.99999999999892
 31
0.0
1001
ACDBBLOCKREPETAG
1070
     1
1071
       59
1005
12E5D4
  0
LINE
  5
12E5D5
  8
OBJECT
 10
2062.0
 20
-283.0
 30
0.0
 11
2062.0
 21
-279.99999999999909
 31
0.0
1001
ACDBBLOCKREPETAG
1070
     1
1071
       60
1005
12E5D5
  0
ARC
  5
12E5D6
  8
OBJECT
 10
2059.0
 20
-283.0
 30
0.0
 40
3.0
 50
270.0
 51
0.0
1001
ACDBBLOCKREPETAG
1070
     1
1071
       61
1005
12E5D6
  0
LINE
  5
12E5D7
  8
OBJECT
 10
1938.0
 20
-279.99999999999909
 30
0.0
 11
1938.0
 21
-282.99999999999818
 31
0.0
1001
ACDBBLOCKREPETAG
1070
     1
1071
       62
1005
12E5D7
  0
ARC
  5
12E5D8
  8
OBJECT
 10
1941.0
 20
-282.99999999999818
 30
0.0
 40
3.0
 50
180.0
 51
270.0
1001
ACDBBLOCKREPETAG
1070
     1
1071
       63
1005
12E5D8
  0
LINE
  5
12E5D9
  8
OBJECT
 10
1941.0
 20
-285.99999999999818
 30
0.0
 11
2059.0
 21
-286.0
 31
0.0
1001
ACDBBLOCKREPETAG
1070
     1
1071
       64
1005
12E5D9
  0
LINE
  5
12E5DA
  8
HIDDEN
 10
2044.5
 20
-287.99999999999909
 30
0.0
 11
1955.5
 21
-287.99999999999909
 31
0.0
1001
ACDBBLOCKREPETAG
1070
     1
1071
       65
1005
12E5DA
  0
LINE
  5
12E5DB
  8
OBJECT
 10
2133.0
 20
-137.99999999999909
 30
0.0
 11
2140.0
 21
-137.99999999999909
 31
0.0
1001
ACDBBLOCKREPETAG
1070
     1
1071
       47
1005
12E5DB
  0
LINE
  5
12E5DC
  8
OBJECT
 10
2140.0
 20
-137.99999999999909
 30
0.0
 11
2140.0
 21
-261.99999999999909
 31
0.0
1001
ACDBBLOCKREPETAG
1070
     1
1071
       48
1005
12E5DC
  0
LINE
  5
12E5DD
  8
OBJECT
 10
2140.0
 20
-261.99999999999909
 30
0.0
 11
2133.0
 21
-261.99999999999909
 31
0.0
1001
ACDBBLOCKREPETAG
1070
     1
1071
       49
1005
12E5DD
  0
LINE
  5
12E5DE
  8
OBJECT
 10
2133.0
 20
-261.99999999999909
 30
0.0
 11
2133.0
 21
-137.99999999999909
 31
0.0
1001
ACDBBLOCKREPETAG
1070
     1
1071
       50
1005
12E5DE
  0
LINE
  5
12E5DF
  8
CENTER
 10
2155.0
 20
-199.99999999999909
 30
0.0
 11
2080.0
 21
-199.99999999999909
 31
0.0
1001
ACDBBLOCKREPETAG
1070
     1
1071
       51
1005
12E5DF
  0
LINE
  5
12E5E0
  8
OBJECT
 10
2133.0
 20
-140.99999999999909
 30
0.0
 11
2097.0
 21
-140.99999999999909
 31
0.0
1001
ACDBBLOCKREPETAG
1070
     1
1071
       52
1005
12E5E0
  0
LINE
  5
12E5E1
  8
OBJECT
 10
2097.0
 20
-140.99999999999909
 30
0.0
 11
2097.0
 21
-258.99999999999909
 31
0.0
1001
ACDBBLOCKREPETAG
1070
     1
1071
       53
1005
12E5E1
  0
LINE
  5
12E5E2
  8
OBJECT
 10
2097.0
 20
-258.99999999999909
 30
0.0
 11
2133.0
 21
-258.99999999999909
 31
0.0
1001
ACDBBLOCKREPETAG
1070
     1
1071
       54
1005
12E5E2
  0
LINE
  5
12E5E3
  8
OBJECT
 10
2093.0
 20
-145.49999999999909
 30
0.0
 11
2086.0
 21
-145.49999999999909
 31
0.0
1001
ACDBBLOCKREPETAG
1070
     1
1071
       55
1005
12E5E3
  0
LINE
  5
12E5E4
  8
OBJECT
 10
2086.0
 20
-254.49999999999909
 30
0.0
 11
2093.0
 21
-254.49999999999909
 31
0.0
1001
ACDBBLOCKREPETAG
1070
     1
1071
       56
1005
12E5E4
  0
LINE
  5
12E5E5
  8
OBJECT
 10
2093.0
 20
-254.49999999999909
 30
0.0
 11
2093.0
 21
-145.49999999999909
 31
0.0
1001
ACDBBLOCKREPETAG
1070
     1
1071
       57
1005
12E5E5
  0
LINE
  5
12E5E6
  8
OBJECT
 10
2097.0
 20
-140.99999999999909
 30
0.0
 11
2093.0
 21
-145.49999999999909
 31
0.0
1001
ACDBBLOCKREPETAG
1070
     1
1071
       58
1005
12E5E6
  0
LINE
  5
12E5E7
  8
OBJECT
 10
2097.0
 20
-258.99999999999909
 30
0.0
 11
2093.0
 21
-254.49999999999909
 31
0.0
1001
ACDBBLOCKREPETAG
1070
     1
1071
       59
1005
12E5E7
  0
LINE
  5
12E5E8
  8
OBJECT
 10
2083.0
 20
-137.99999999999909
 30
0.0
 11
2080.0
 21
-137.99999999999909
 31
0.0
1001
ACDBBLOCKREPETAG
1070
     1
1071
       60
1005
12E5E8
  0
ARC
  5
12E5E9
  8
OBJECT
 10
2083.0
 20
-140.99999999999909
 30
0.0
 40
3.0
 50
0.0
 51
90.0
1001
ACDBBLOCKREPETAG
1070
     1
1071
       61
1005
12E5E9
  0
LINE
  5
12E5EA
  8
OBJECT
 10
2080.0
 20
-261.99999999999909
 30
0.0
 11
2083.0
 21
-261.99999999999909
 31
0.0
1001
ACDBBLOCKREPETAG
1070
     1
1071
       62
1005
12E5EA
  0
ARC
  5
12E5EB
  8
OBJECT
 10
2083.0
 20
-258.99999999999909
 30
0.0
 40
3.0
 50
270.0
 51
0.0
1001
ACDBBLOCKREPETAG
1070
     1
1071
       63
1005
12E5EB
  0
LINE
  5
12E5EC
  8
OBJECT
 10
2086.0
 20
-258.99999999999909
 30
0.0
 11
2086.0
 21
-140.99999999999909
 31
0.0
1001
ACDBBLOCKREPETAG
1070
     1
1071
       64
1005
12E5EC
  0
LINE
  5
12E5ED
  8
HIDDEN
 10
2088.0
 20
-155.49999999999909
 30
0.0
 11
2088.0
 21
-244.49999999999909
 31
0.0
1001
ACDBBLOCKREPETAG
1070
     1
1071
       65
1005
12E5ED
  0
LINE
  5
12E5EE
  8
OBJECT
 10
1917.0
 20
-634.0
 30
0.0
 11
1920.0
 21
-634.0
 31
0.0
1001
ACDBBLOCKREPETAG
1070
     1
1071
        1
1005
12E5EE
  0
ARC
  5
12E5EF
  8
OBJECT
 10
1917.0
 20
-637.0
 30
0.0
 40
3.0
 50
90.0
 51
180.0
1001
ACDBBLOCKREPETAG
1070
     1
1071
        2
1005
12E5EF
  0
LINE
  5
12E5F0
  8
OBJECT
 10
1920.0
 20
-758.0
 30
0.0
 11
1917.0
 21
-758.0
 31
0.0
1001
ACDBBLOCKREPETAG
1070
     1
1071
        3
1005
12E5F0
  0
ARC
  5
12E5F1
  8
OBJECT
 10
1917.0
 20
-755.0
 30
0.0
 40
3.0
 50
180.0
 51
270.0
1001
ACDBBLOCKREPETAG
1070
     1
1071
        4
1005
12E5F1
  0
LINE
  5
12E5F2
  8
OBJECT
 10
1914.0
 20
-755.0
 30
0.0
 11
1914.0
 21
-637.0
 31
0.0
1001
ACDBBLOCKREPETAG
1070
     1
1071
        5
1005
12E5F2
  0
LINE
  5
12E5F3
  8
CENTER
 10
2077.0
 20
-696.0
 30
0.0
 11
1923.0
 21
-696.0
 31
0.0
1001
ACDBBLOCKREPETAG
1070
     1
1071
       17
1005
12E5F3
  0
CIRCLE
  5
12E5F4
  8
OBJECT
 10
2000.0
 20
-696.0
 30
0.0
 40
41.5
1001
ACDBBLOCKREPETAG
1070
     1
1071
       19
1005
12E5F4
  0
CIRCLE
  5
12E5F5
  8
OBJECT
 10
2000.0
 20
-696.0
 30
0.0
 40
54.0
1001
ACDBBLOCKREPETAG
1070
     1
1071
       20
1005
12E5F5
  0
ARC
  5
12E5F6
  8
OBJECT
 10
2000.0
 20
-696.0
 30
0.0
 40
62.0
 50
287.89655112920718
 51
252.10344887079279
1001
ACDBBLOCKREPETAG
1070
     1
1071
       21
1005
12E5F6
  0
LINE
  5
12E5F7
  8
OBJECT
 10
1980.947441116743
 20
-755.0
 30
0.0
 11
2019.052558883257
 21
-755.0
 31
0.0
1001
ACDBBLOCKREPETAG
1070
     1
1071
       22
1005
12E5F7
  0
LINE
  5
12E5F8
  8
OBJECT
 10
2133.0
 20
-634.0
 30
0.0
 11
2140.0
 21
-634.0
 31
0.0
1001
ACDBBLOCKREPETAG
1070
     1
1071
       45
1005
12E5F8
  0
LINE
  5
12E5F9
  8
OBJECT
 10
2140.0
 20
-634.0
 30
0.0
 11
2140.0
 21
-755.0
 31
0.0
1001
ACDBBLOCKREPETAG
1070
     1
1071
       46
1005
12E5F9
  0
LINE
  5
12E5FA
  8
OBJECT
 10
2133.0
 20
-755.0
 30
0.0
 11
2133.0
 21
-634.0
 31
0.0
1001
ACDBBLOCKREPETAG
1070
     1
1071
       47
1005
12E5FA
  0
LINE
  5
12E5FB
  8
CENTER
 10
2155.0
 20
-696.0
 30
0.0
 11
2071.0
 21
-696.0
 31
0.0
1001
ACDBBLOCKREPETAG
1070
     1
1071
       48
1005
12E5FB
  0
LINE
  5
12E5FC
  8
OBJECT
 10
2133.0
 20
-637.0
 30
0.0
 11
2097.0
 21
-637.0
 31
0.0
1001
ACDBBLOCKREPETAG
1070
     1
1071
       49
1005
12E5FC
  0
LINE
  5
12E5FD
  8
OBJECT
 10
2097.0
 20
-637.0
 30
0.0
 11
2097.0
 21
-755.0
 31
0.0
1001
ACDBBLOCKREPETAG
1070
     1
1071
       50
1005
12E5FD
  0
LINE
  5
12E5FE
  8
OBJECT
 10
2097.0
 20
-755.0
 30
0.0
 11
2140.0
 21
-755.0
 31
0.0
1001
ACDBBLOCKREPETAG
1070
     1
1071
       51
1005
12E5FE
  0
LINE
  5
12E5FF
  8
OBJECT
 10
2093.0
 20
-641.5
 30
0.0
 11
2086.0
 21
-641.5
 31
0.0
1001
ACDBBLOCKREPETAG
1070
     1
1071
       52
1005
12E5FF
  0
LINE
  5
12E600
  8
OBJECT
 10
2086.0
 20
-750.49999999999989
 30
0.0
 11
2093.0
 21
-750.49999999999989
 31
0.0
1001
ACDBBLOCKREPETAG
1070
     1
1071
       53
1005
12E600
  0
LINE
  5
12E601
  8
OBJECT
 10
2093.0
 20
-750.49999999999989
 30
0.0
 11
2093.0
 21
-641.5
 31
0.0
1001
ACDBBLOCKREPETAG
1070
     1
1071
       54
1005
12E601
  0
LINE
  5
12E602
  8
OBJECT
 10
2097.0
 20
-637.0
 30
0.0
 11
2093.0
 21
-641.5
 31
0.0
1001
ACDBBLOCKREPETAG
1070
     1
1071
       55
1005
12E602
  0
LINE
  5
12E603
  8
OBJECT
 10
2097.0
 20
-755.0
 30
0.0
 11
2093.0
 21
-750.49999999999989
 31
0.0
1001
ACDBBLOCKREPETAG
1070
     1
1071
       56
1005
12E603
  0
LINE
  5
12E604
  8
OBJECT
 10
2083.0
 20
-634.0
 30
0.0
 11
2080.0
 21
-634.0
 31
0.0
1001
ACDBBLOCKREPETAG
1070
     1
1071
       57
1005
12E604
  0
ARC
  5
12E605
  8
OBJECT
 10
2083.0
 20
-637.0
 30
0.0
 40
3.0
 50
0.0
 51
90.0
1001
ACDBBLOCKREPETAG
1070
     1
1071
       58
1005
12E605
  0
LINE
  5
12E606
  8
OBJECT
 10
2080.0
 20
-758.0
 30
0.0
 11
2083.0
 21
-758.0
 31
0.0
1001
ACDBBLOCKREPETAG
1070
     1
1071
       59
1005
12E606
  0
ARC
  5
12E607
  8
OBJECT
 10
2083.0
 20
-755.0
 30
0.0
 40
3.0
 50
270.0
 51
0.0
1001
ACDBBLOCKREPETAG
1070
     1
1071
       60
1005
12E607
  0
LINE
  5
12E608
  8
OBJECT
 10
2086.0
 20
-755.0
 30
0.0
 11
2086.0
 21
-637.0
 31
0.0
1001
ACDBBLOCKREPETAG
1070
     1
1071
       61
1005
12E608
  0
LINE
  5
12E609
  8
HIDDEN
 10
2088.0
 20
-651.5
 30
0.0
 11
2088.0
 21
-740.5
 31
0.0
1001
ACDBBLOCKREPETAG
1070
     1
1071
       63
1005
12E609
  0
TEXT
  5
12E60A
  8
SLIM
 10
0.0000035665234464
 20
24.000004585317601
 30
0.0
 40
79.999999999972701
  1
枝管バリエーション
 41
0.75
1001
ACDBBLOCKREPETAG
1070
     1
1071
      119
1005
12CC4A
  0
TEXT
  5
12E60B
  8
SLIM
 10
1837.75
 20
282.50000000000011
 30
0.0
 40
35.0
  1
（枝管サイズ毎に寸法が異なります。管底の位置は50～100で同じです）
 41
0.75
  0
TEXT
  5
12E60C
  8
SLIM
 10
1850.0
 20
369.99999999999989
 30
0.0
 40
100.0
  1
4SRT-C33
 41
0.75
  0
TEXT
  5
12E60D
  8
SLIM
 10
0.0
 20
369.99999999999989
 30
0.0
 40
100.0
  1
4SRT-CXX-S
 41
0.75
  0
LINE
  5
12E60E
  8
OBJECT
 10
4923.0
 20
-3515.9999999999968
 30
0.0
 11
4923.0
 21
-3494.9999999999968
 31
0.0
1001
ACDBBLOCKREPETAG
1070
     1
1071
        0
1005
12E60E
  0
LINE
  5
12E60F
  8
OBJECT
 10
4923.0
 20
-3494.9999999999968
 30
0.0
 11
5077.0
 21
-3494.9999999999968
 31
0.0
1001
ACDBBLOCKREPETAG
1070
     1
1071
        1
1005
12E60F
  0
LINE
  5
12E610
  8
HIDDEN
 10
4943.0
 20
-3564.9999999999968
 30
0.0
 11
5057.0
 21
-3564.9999999999968
 31
0.0
1001
ACDBBLOCKREPETAG
1070
     1
1071
        2
1005
12E610
  0
LINE
  5
12E611
  8
OBJECT
 10
5077.0
 20
-3494.9999999999968
 30
0.0
 11
5077.0
 21
-3515.9999999999968
 31
0.0
1001
ACDBBLOCKREPETAG
1070
     1
1071
        3
1005
12E611
  0
LINE
  5
12E612
  8
OBJECT
 10
5077.0
 20
-3515.9999999999968
 30
0.0
 11
4923.0
 21
-3515.9999999999968
 31
0.0
1001
ACDBBLOCKREPETAG
1070
     1
1071
        4
1005
12E612
  0
LINE
  5
12E613
  8
CENTER
 10
5000.0
 20
-3479.9999999999968
 30
0.0
 11
5000.0
 21
-3714.9999999999968
 31
0.0
1001
ACDBBLOCKREPETAG
1070
     1
1071
        5
1005
12E613
  0
LINE
  5
12E614
  8
OBJECT
 10
4925.0
 20
-3578.9999999999968
 30
0.0
 11
4925.0
 21
-3702.9999999999968
 31
0.0
1001
ACDBBLOCKREPETAG
1070
     1
1071
        6
1005
12E614
  0
LINE
  5
12E615
  8
OBJECT
 10
4928.0
 20
-3515.9999999999968
 30
0.0
 11
4928.0
 21
-3578.9999999999968
 31
0.0
1001
ACDBBLOCKREPETAG
1070
     1
1071
        7
1005
12E615
  0
LINE
  5
12E616
  8
OBJECT
 10
5072.0
 20
-3578.9999999999968
 30
0.0
 11
5072.0
 21
-3515.9999999999968
 31
0.0
1001
ACDBBLOCKREPETAG
1070
     1
1071
        8
1005
12E616
  0
LINE
  5
12E617
  8
OBJECT
 10
5074.9999999997999
 20
-3702.9999999997758
 30
0.0
 11
5080.0
 21
-3702.9999999999968
 31
0.0
1001
ACDBBLOCKREPETAG
1070
     1
1071
        9
1005
12E617
  0
LINE
  5
12E618
  8
OBJECT
 10
5080.0
 20
-3578.9999999999968
 30
0.0
 11
4925.0
 21
-3578.9999999999968
 31
0.0
1001
ACDBBLOCKREPETAG
1070
     1
1071
       10
1005
12E618
  0
ARC
  5
12E619
  8
OBJECT
 10
5200.6872746716726
 20
-3694.408099410105
 30
0.0
 40
170.6350503965856
 50
137.44134459184301
 51
149.9194958133665
1001
ACDBBLOCKREPETAG
1070
     1
1071
       15
1005
12E619
  0
ARC
  5
12E61A
  8
OBJECT
 10
5118.8455987040506
 20
-3650.8827266953622
 30
0.0
 40
78.072222021763665
 50
147.4551531037684
 51
164.66365997719291
1001
ACDBBLOCKREPETAG
1070
     1
1071
       16
1005
12E61A
  0
ARC
  5
12E61B
  8
OBJECT
 10
5085.7554349608727
 20
-3640.9999999999968
 30
0.0
 40
43.55353926885617
 50
165.6884523008477
 51
194.3115476991523
1001
ACDBBLOCKREPETAG
1070
     1
1071
       17
1005
12E61B
  0
ARC
  5
12E61C
  8
OBJECT
 10
5200.6872746716726
 20
-3587.5919005898891
 30
0.0
 40
170.6350503965856
 50
210.0805041866335
 51
222.55865540815699
1001
ACDBBLOCKREPETAG
1070
     1
1071
       18
1005
12E61C
  0
ARC
  5
12E61D
  8
OBJECT
 10
5118.8455987040506
 20
-3631.1172733046319
 30
0.0
 40
78.072222021763665
 50
195.33634002280701
 51
212.5448468962316
1001
ACDBBLOCKREPETAG
1070
     1
1071
       19
1005
12E61D
  0
POINT
  5
12E61E
  8
DOTS
 10
5000.0
 20
-3699.9999999999968
 30
0.0
1001
ACDBBLOCKREPETAG
1070
     1
1071
      186
1005
12E61E
  0
LINE
  5
12E61F
  8
OBJECT
 10
4323.0
 20
-3515.9999999999968
 30
0.0
 11
4323.0
 21
-3494.9999999999968
 31
0.0
1001
ACDBBLOCKREPETAG
1070
     1
1071
       20
1005
12E61F
  0
LINE
  5
12E620
  8
OBJECT
 10
4323.0
 20
-3494.9999999999968
 30
0.0
 11
4477.0
 21
-3494.9999999999968
 31
0.0
1001
ACDBBLOCKREPETAG
1070
     1
1071
       21
1005
12E620
  0
LINE
  5
12E621
  8
HIDDEN
 10
4343.0
 20
-3564.9999999999968
 30
0.0
 11
4457.0
 21
-3564.9999999999968
 31
0.0
1001
ACDBBLOCKREPETAG
1070
     1
1071
       22
1005
12E621
  0
LINE
  5
12E622
  8
OBJECT
 10
4477.0
 20
-3494.9999999999968
 30
0.0
 11
4477.0
 21
-3515.9999999999968
 31
0.0
1001
ACDBBLOCKREPETAG
1070
     1
1071
       23
1005
12E622
  0
LINE
  5
12E623
  8
OBJECT
 10
4477.0
 20
-3515.9999999999968
 30
0.0
 11
4323.0
 21
-3515.9999999999968
 31
0.0
1001
ACDBBLOCKREPETAG
1070
     1
1071
       24
1005
12E623
  0
LINE
  5
12E624
  8
CENTER
 10
4400.0
 20
-3479.9999999999968
 30
0.0
 11
4400.0
 21
-3714.9999999999968
 31
0.0
1001
ACDBBLOCKREPETAG
1070
     1
1071
       25
1005
12E624
  0
LINE
  5
12E625
  8
OBJECT
 10
4325.0
 20
-3578.9999999999968
 30
0.0
 11
4325.0
 21
-3702.9999999999968
 31
0.0
1001
ACDBBLOCKREPETAG
1070
     1
1071
       26
1005
12E625
  0
LINE
  5
12E626
  8
OBJECT
 10
4328.0
 20
-3515.9999999999968
 30
0.0
 11
4328.0
 21
-3578.9999999999968
 31
0.0
1001
ACDBBLOCKREPETAG
1070
     1
1071
       27
1005
12E626
  0
LINE
  5
12E627
  8
OBJECT
 10
4472.0
 20
-3578.9999999999968
 30
0.0
 11
4472.0
 21
-3515.9999999999968
 31
0.0
1001
ACDBBLOCKREPETAG
1070
     1
1071
       28
1005
12E627
  0
LINE
  5
12E628
  8
OBJECT
 10
4475.0
 20
-3578.9999999999968
 30
0.0
 11
4325.0
 21
-3578.9999999999968
 31
0.0
1001
ACDBBLOCKREPETAG
1070
     1
1071
       30
1005
12E628
  0
LINE
  5
12E629
  8
OBJECT
 10
4475.0
 20
-3578.9999999999968
 30
0.0
 11
4475.0
 21
-3702.9999999999968
 31
0.0
1001
ACDBBLOCKREPETAG
1070
     1
1071
       34
1005
12E629
  0
POINT
  5
12E62A
  8
DOTS
 10
4400.0
 20
-3699.9999999999968
 30
0.0
1001
ACDBBLOCKREPETAG
1070
     1
1071
      187
1005
12E62A
  0
LINE
  5
12E62B
  8
OBJECT
 10
3923.0
 20
-3515.9999999999968
 30
0.0
 11
3923.0
 21
-3494.9999999999968
 31
0.0
1001
ACDBBLOCKREPETAG
1070
     1
1071
        0
1005
12E62B
  0
LINE
  5
12E62C
  8
OBJECT
 10
3923.0
 20
-3494.9999999999968
 30
0.0
 11
4077.0
 21
-3494.9999999999968
 31
0.0
1001
ACDBBLOCKREPETAG
1070
     1
1071
        1
1005
12E62C
  0
LINE
  5
12E62D
  8
HIDDEN
 10
3943.0
 20
-3564.9999999999968
 30
0.0
 11
4057.0
 21
-3564.9999999999968
 31
0.0
1001
ACDBBLOCKREPETAG
1070
     1
1071
        2
1005
12E62D
  0
LINE
  5
12E62E
  8
OBJECT
 10
4077.0
 20
-3494.9999999999968
 30
0.0
 11
4077.0
 21
-3515.9999999999968
 31
0.0
1001
ACDBBLOCKREPETAG
1070
     1
1071
        3
1005
12E62E
  0
LINE
  5
12E62F
  8
OBJECT
 10
4077.0
 20
-3515.9999999999968
 30
0.0
 11
3923.0
 21
-3515.9999999999968
 31
0.0
1001
ACDBBLOCKREPETAG
1070
     1
1071
        4
1005
12E62F
  0
LINE
  5
12E630
  8
CENTER
 10
4000.0
 20
-3479.9999999999968
 30
0.0
 11
4000.0
 21
-3714.9999999999968
 31
0.0
1001
ACDBBLOCKREPETAG
1070
     1
1071
        5
1005
12E630
  0
LINE
  5
12E631
  8
OBJECT
 10
3925.0
 20
-3578.9999999999968
 30
0.0
 11
3925.0
 21
-3702.9999999999968
 31
0.0
1001
ACDBBLOCKREPETAG
1070
     1
1071
        6
1005
12E631
  0
LINE
  5
12E632
  8
OBJECT
 10
3928.0
 20
-3515.9999999999968
 30
0.0
 11
3928.0
 21
-3578.9999999999968
 31
0.0
1001
ACDBBLOCKREPETAG
1070
     1
1071
        7
1005
12E632
  0
LINE
  5
12E633
  8
OBJECT
 10
4072.0
 20
-3578.9999999999968
 30
0.0
 11
4072.0
 21
-3515.9999999999968
 31
0.0
1001
ACDBBLOCKREPETAG
1070
     1
1071
        8
1005
12E633
  0
LINE
  5
12E634
  8
OBJECT
 10
4074.999999999799
 20
-3702.9999999997758
 30
0.0
 11
4080.0
 21
-3702.9999999999968
 31
0.0
1001
ACDBBLOCKREPETAG
1070
     1
1071
        9
1005
12E634
  0
LINE
  5
12E635
  8
OBJECT
 10
4080.0
 20
-3578.9999999999968
 30
0.0
 11
3925.0
 21
-3578.9999999999968
 31
0.0
1001
ACDBBLOCKREPETAG
1070
     1
1071
       10
1005
12E635
  0
ARC
  5
12E636
  8
OBJECT
 10
4200.6872746716726
 20
-3694.408099410105
 30
0.0
 40
170.6350503965856
 50
137.44134459184301
 51
149.9194958133665
1001
ACDBBLOCKREPETAG
1070
     1
1071
       15
1005
12E636
  0
ARC
  5
12E637
  8
OBJECT
 10
4118.8455987040506
 20
-3650.8827266953622
 30
0.0
 40
78.072222021763665
 50
147.4551531037684
 51
164.663659977186
1001
ACDBBLOCKREPETAG
1070
     1
1071
       16
1005
12E637
  0
ARC
  5
12E638
  8
OBJECT
 10
4085.7554349608722
 20
-3640.9999999999968
 30
0.0
 40
43.55353926885617
 50
165.6884523008477
 51
194.3115476991523
1001
ACDBBLOCKREPETAG
1070
     1
1071
       17
1005
12E638
  0
ARC
  5
12E639
  8
OBJECT
 10
4200.6872746716726
 20
-3587.5919005898891
 30
0.0
 40
170.6350503965856
 50
210.0805041866335
 51
222.55865540815699
1001
ACDBBLOCKREPETAG
1070
     1
1071
       18
1005
12E639
  0
ARC
  5
12E63A
  8
OBJECT
 10
4118.8455987040506
 20
-3631.1172733046319
 30
0.0
 40
78.072222021763665
 50
195.33634002281391
 51
212.5448468962316
1001
ACDBBLOCKREPETAG
1070
     1
1071
       19
1005
12E63A
  0
POINT
  5
12E63B
  8
DOTS
 10
4000.0
 20
-3699.9999999999968
 30
0.0
1001
ACDBBLOCKREPETAG
1070
     1
1071
      186
1005
12E63B
  0
LINE
  5
12E63C
  8
OBJECT
 10
3323.0
 20
-3515.9999999999968
 30
0.0
 11
3323.0
 21
-3494.9999999999968
 31
0.0
1001
ACDBBLOCKREPETAG
1070
     1
1071
       20
1005
12E63C
  0
LINE
  5
12E63D
  8
OBJECT
 10
3323.0
 20
-3494.9999999999968
 30
0.0
 11
3477.0
 21
-3494.9999999999968
 31
0.0
1001
ACDBBLOCKREPETAG
1070
     1
1071
       21
1005
12E63D
  0
LINE
  5
12E63E
  8
HIDDEN
 10
3343.0
 20
-3564.9999999999968
 30
0.0
 11
3457.0
 21
-3564.9999999999968
 31
0.0
1001
ACDBBLOCKREPETAG
1070
     1
1071
       22
1005
12E63E
  0
LINE
  5
12E63F
  8
OBJECT
 10
3477.0
 20
-3494.9999999999968
 30
0.0
 11
3477.0
 21
-3515.9999999999968
 31
0.0
1001
ACDBBLOCKREPETAG
1070
     1
1071
       23
1005
12E63F
  0
LINE
  5
12E640
  8
OBJECT
 10
3477.0
 20
-3515.9999999999968
 30
0.0
 11
3323.0
 21
-3515.9999999999968
 31
0.0
1001
ACDBBLOCKREPETAG
1070
     1
1071
       24
1005
12E640
  0
LINE
  5
12E641
  8
CENTER
 10
3400.0
 20
-3479.9999999999968
 30
0.0
 11
3400.0
 21
-3714.9999999999968
 31
0.0
1001
ACDBBLOCKREPETAG
1070
     1
1071
       25
1005
12E641
  0
LINE
  5
12E642
  8
OBJECT
 10
3325.0
 20
-3578.9999999999968
 30
0.0
 11
3325.0
 21
-3702.9999999999968
 31
0.0
1001
ACDBBLOCKREPETAG
1070
     1
1071
       26
1005
12E642
  0
LINE
  5
12E643
  8
OBJECT
 10
3328.0
 20
-3515.9999999999968
 30
0.0
 11
3328.0
 21
-3578.9999999999968
 31
0.0
1001
ACDBBLOCKREPETAG
1070
     1
1071
       27
1005
12E643
  0
LINE
  5
12E644
  8
OBJECT
 10
3472.0
 20
-3578.9999999999968
 30
0.0
 11
3472.0
 21
-3515.9999999999968
 31
0.0
1001
ACDBBLOCKREPETAG
1070
     1
1071
       28
1005
12E644
  0
LINE
  5
12E645
  8
OBJECT
 10
3475.0
 20
-3578.9999999999968
 30
0.0
 11
3325.0
 21
-3578.9999999999968
 31
0.0
1001
ACDBBLOCKREPETAG
1070
     1
1071
       30
1005
12E645
  0
LINE
  5
12E646
  8
OBJECT
 10
3475.0
 20
-3578.9999999999968
 30
0.0
 11
3475.0
 21
-3702.9999999999968
 31
0.0
1001
ACDBBLOCKREPETAG
1070
     1
1071
       34
1005
12E646
  0
POINT
  5
12E647
  8
DOTS
 10
3400.0
 20
-3699.9999999999968
 30
0.0
1001
ACDBBLOCKREPETAG
1070
     1
1071
      187
1005
12E647
  0
LINE
  5
12E648
  8
OBJECT
 10
2923.0
 20
-3515.9999999999968
 30
0.0
 11
2923.0
 21
-3494.9999999999968
 31
0.0
1001
ACDBBLOCKREPETAG
1070
     1
1071
        0
1005
12E648
  0
LINE
  5
12E649
  8
OBJECT
 10
2923.0
 20
-3494.9999999999968
 30
0.0
 11
3077.0
 21
-3494.9999999999968
 31
0.0
1001
ACDBBLOCKREPETAG
1070
     1
1071
        1
1005
12E649
  0
LINE
  5
12E64A
  8
HIDDEN
 10
2943.0
 20
-3564.9999999999968
 30
0.0
 11
3057.0
 21
-3564.9999999999968
 31
0.0
1001
ACDBBLOCKREPETAG
1070
     1
1071
        2
1005
12E64A
  0
LINE
  5
12E64B
  8
OBJECT
 10
3077.0
 20
-3494.9999999999968
 30
0.0
 11
3077.0
 21
-3515.9999999999968
 31
0.0
1001
ACDBBLOCKREPETAG
1070
     1
1071
        3
1005
12E64B
  0
LINE
  5
12E64C
  8
OBJECT
 10
3077.0
 20
-3515.9999999999968
 30
0.0
 11
2923.0
 21
-3515.9999999999968
 31
0.0
1001
ACDBBLOCKREPETAG
1070
     1
1071
        4
1005
12E64C
  0
LINE
  5
12E64D
  8
CENTER
 10
3000.0
 20
-3479.9999999999968
 30
0.0
 11
3000.0
 21
-3714.9999999999968
 31
0.0
1001
ACDBBLOCKREPETAG
1070
     1
1071
        5
1005
12E64D
  0
LINE
  5
12E64E
  8
OBJECT
 10
2925.0
 20
-3578.9999999999968
 30
0.0
 11
2925.0
 21
-3702.9999999999968
 31
0.0
1001
ACDBBLOCKREPETAG
1070
     1
1071
        6
1005
12E64E
  0
LINE
  5
12E64F
  8
OBJECT
 10
2928.0
 20
-3515.9999999999968
 30
0.0
 11
2928.0
 21
-3578.9999999999968
 31
0.0
1001
ACDBBLOCKREPETAG
1070
     1
1071
        7
1005
12E64F
  0
LINE
  5
12E650
  8
OBJECT
 10
3072.0
 20
-3578.9999999999968
 30
0.0
 11
3072.0
 21
-3515.9999999999968
 31
0.0
1001
ACDBBLOCKREPETAG
1070
     1
1071
        8
1005
12E650
  0
LINE
  5
12E651
  8
OBJECT
 10
3074.9999999997999
 20
-3702.9999999997758
 30
0.0
 11
3080.0
 21
-3702.9999999999968
 31
0.0
1001
ACDBBLOCKREPETAG
1070
     1
1071
        9
1005
12E651
  0
LINE
  5
12E652
  8
OBJECT
 10
3080.0
 20
-3578.9999999999968
 30
0.0
 11
2925.0
 21
-3578.9999999999968
 31
0.0
1001
ACDBBLOCKREPETAG
1070
     1
1071
       10
1005
12E652
  0
ARC
  5
12E653
  8
OBJECT
 10
3200.6872746716722
 20
-3694.408099410105
 30
0.0
 40
170.6350503965856
 50
137.44134459184301
 51
149.9194958133665
1001
ACDBBLOCKREPETAG
1070
     1
1071
       15
1005
12E653
  0
ARC
  5
12E654
  8
OBJECT
 10
3118.8455987040511
 20
-3650.8827266953622
 30
0.0
 40
78.072222021763665
 50
147.4551531037684
 51
164.663659977186
1001
ACDBBLOCKREPETAG
1070
     1
1071
       16
1005
12E654
  0
ARC
  5
12E655
  8
OBJECT
 10
3085.7554349608731
 20
-3640.9999999999968
 30
0.0
 40
43.55353926885617
 50
165.6884523008477
 51
194.3115476991523
1001
ACDBBLOCKREPETAG
1070
     1
1071
       17
1005
12E655
  0
ARC
  5
12E656
  8
OBJECT
 10
3200.6872746716722
 20
-3587.5919005898891
 30
0.0
 40
170.6350503965856
 50
210.0805041866335
 51
222.55865540815699
1001
ACDBBLOCKREPETAG
1070
     1
1071
       18
1005
12E656
  0
ARC
  5
12E657
  8
OBJECT
 10
3118.8455987040511
 20
-3631.1172733046319
 30
0.0
 40
78.072222021763665
 50
195.33634002281391
 51
212.5448468962316
1001
ACDBBLOCKREPETAG
1070
     1
1071
       19
1005
12E657
  0
POINT
  5
12E658
  8
DOTS
 10
3000.0
 20
-3699.9999999999968
 30
0.0
1001
ACDBBLOCKREPETAG
1070
     1
1071
      186
1005
12E658
  0
LINE
  5
12E659
  8
OBJECT
 10
2323.0
 20
-3515.9999999999968
 30
0.0
 11
2323.0
 21
-3494.9999999999968
 31
0.0
1001
ACDBBLOCKREPETAG
1070
     1
1071
       20
1005
12E659
  0
LINE
  5
12E65A
  8
OBJECT
 10
2323.0
 20
-3494.9999999999968
 30
0.0
 11
2477.0
 21
-3494.9999999999968
 31
0.0
1001
ACDBBLOCKREPETAG
1070
     1
1071
       21
1005
12E65A
  0
LINE
  5
12E65B
  8
HIDDEN
 10
2343.0
 20
-3564.9999999999968
 30
0.0
 11
2457.0
 21
-3564.9999999999968
 31
0.0
1001
ACDBBLOCKREPETAG
1070
     1
1071
       22
1005
12E65B
  0
LINE
  5
12E65C
  8
OBJECT
 10
2477.0
 20
-3494.9999999999968
 30
0.0
 11
2477.0
 21
-3515.9999999999968
 31
0.0
1001
ACDBBLOCKREPETAG
1070
     1
1071
       23
1005
12E65C
  0
LINE
  5
12E65D
  8
OBJECT
 10
2477.0
 20
-3515.9999999999968
 30
0.0
 11
2323.0
 21
-3515.9999999999968
 31
0.0
1001
ACDBBLOCKREPETAG
1070
     1
1071
       24
1005
12E65D
  0
LINE
  5
12E65E
  8
CENTER
 10
2400.0
 20
-3479.9999999999968
 30
0.0
 11
2400.0
 21
-3714.9999999999968
 31
0.0
1001
ACDBBLOCKREPETAG
1070
     1
1071
       25
1005
12E65E
  0
LINE
  5
12E65F
  8
OBJECT
 10
2325.0
 20
-3578.9999999999968
 30
0.0
 11
2325.0
 21
-3702.9999999999968
 31
0.0
1001
ACDBBLOCKREPETAG
1070
     1
1071
       26
1005
12E65F
  0
LINE
  5
12E660
  8
OBJECT
 10
2328.0
 20
-3515.9999999999968
 30
0.0
 11
2328.0
 21
-3578.9999999999968
 31
0.0
1001
ACDBBLOCKREPETAG
1070
     1
1071
       27
1005
12E660
  0
LINE
  5
12E661
  8
OBJECT
 10
2472.0
 20
-3578.9999999999968
 30
0.0
 11
2472.0
 21
-3515.9999999999968
 31
0.0
1001
ACDBBLOCKREPETAG
1070
     1
1071
       28
1005
12E661
  0
LINE
  5
12E662
  8
OBJECT
 10
2475.0
 20
-3578.9999999999968
 30
0.0
 11
2325.0
 21
-3578.9999999999968
 31
0.0
1001
ACDBBLOCKREPETAG
1070
     1
1071
       30
1005
12E662
  0
LINE
  5
12E663
  8
OBJECT
 10
2475.0
 20
-3578.9999999999968
 30
0.0
 11
2475.0
 21
-3702.9999999999968
 31
0.0
1001
ACDBBLOCKREPETAG
1070
     1
1071
       34
1005
12E663
  0
POINT
  5
12E664
  8
DOTS
 10
2400.0
 20
-3699.9999999999968
 30
0.0
1001
ACDBBLOCKREPETAG
1070
     1
1071
      187
1005
12E664
  0
LINE
  5
12E665
  8
OBJECT
 10
1923.0
 20
-3515.9999999999968
 30
0.0
 11
1923.0
 21
-3494.9999999999968
 31
0.0
1001
ACDBBLOCKREPETAG
1070
     1
1071
        0
1005
12E665
  0
LINE
  5
12E666
  8
OBJECT
 10
1923.0
 20
-3494.9999999999968
 30
0.0
 11
2077.0
 21
-3494.9999999999968
 31
0.0
1001
ACDBBLOCKREPETAG
1070
     1
1071
        1
1005
12E666
  0
LINE
  5
12E667
  8
HIDDEN
 10
1943.0
 20
-3564.9999999999968
 30
0.0
 11
2057.0
 21
-3564.9999999999968
 31
0.0
1001
ACDBBLOCKREPETAG
1070
     1
1071
        2
1005
12E667
  0
LINE
  5
12E668
  8
OBJECT
 10
2077.0
 20
-3494.9999999999968
 30
0.0
 11
2077.0
 21
-3515.9999999999968
 31
0.0
1001
ACDBBLOCKREPETAG
1070
     1
1071
        3
1005
12E668
  0
LINE
  5
12E669
  8
OBJECT
 10
2077.0
 20
-3515.9999999999968
 30
0.0
 11
1923.0
 21
-3515.9999999999968
 31
0.0
1001
ACDBBLOCKREPETAG
1070
     1
1071
        4
1005
12E669
  0
LINE
  5
12E66A
  8
CENTER
 10
2000.0
 20
-3479.9999999999968
 30
0.0
 11
2000.0
 21
-3714.9999999999968
 31
0.0
1001
ACDBBLOCKREPETAG
1070
     1
1071
        5
1005
12E66A
  0
LINE
  5
12E66B
  8
OBJECT
 10
1925.0
 20
-3578.9999999999968
 30
0.0
 11
1925.0
 21
-3702.9999999999968
 31
0.0
1001
ACDBBLOCKREPETAG
1070
     1
1071
        6
1005
12E66B
  0
LINE
  5
12E66C
  8
OBJECT
 10
1928.0
 20
-3515.9999999999968
 30
0.0
 11
1928.0
 21
-3578.9999999999968
 31
0.0
1001
ACDBBLOCKREPETAG
1070
     1
1071
        7
1005
12E66C
  0
LINE
  5
12E66D
  8
OBJECT
 10
2072.0
 20
-3578.9999999999968
 30
0.0
 11
2072.0
 21
-3515.9999999999968
 31
0.0
1001
ACDBBLOCKREPETAG
1070
     1
1071
        8
1005
12E66D
  0
LINE
  5
12E66E
  8
OBJECT
 10
2074.999999999799
 20
-3702.9999999997758
 30
0.0
 11
2080.0
 21
-3702.9999999999968
 31
0.0
1001
ACDBBLOCKREPETAG
1070
     1
1071
        9
1005
12E66E
  0
LINE
  5
12E66F
  8
OBJECT
 10
2080.0
 20
-3578.9999999999968
 30
0.0
 11
1925.0
 21
-3578.9999999999968
 31
0.0
1001
ACDBBLOCKREPETAG
1070
     1
1071
       10
1005
12E66F
  0
ARC
  5
12E670
  8
OBJECT
 10
2200.6872746716731
 20
-3694.408099410105
 30
0.0
 40
170.6350503965856
 50
137.44134459184301
 51
149.91949581335999
1001
ACDBBLOCKREPETAG
1070
     1
1071
       15
1005
12E670
  0
ARC
  5
12E671
  8
OBJECT
 10
2118.8455987040511
 20
-3650.8827266953622
 30
0.0
 40
78.072222021763665
 50
147.45515310377539
 51
164.663659977186
1001
ACDBBLOCKREPETAG
1070
     1
1071
       16
1005
12E671
  0
ARC
  5
12E672
  8
OBJECT
 10
2085.7554349608731
 20
-3640.9999999999968
 30
0.0
 40
43.55353926885617
 50
165.6884523008477
 51
194.3115476991523
1001
ACDBBLOCKREPETAG
1070
     1
1071
       17
1005
12E672
  0
ARC
  5
12E673
  8
OBJECT
 10
2200.6872746716731
 20
-3587.5919005898891
 30
0.0
 40
170.6350503965856
 50
210.08050418664001
 51
222.55865540815699
1001
ACDBBLOCKREPETAG
1070
     1
1071
       18
1005
12E673
  0
ARC
  5
12E674
  8
OBJECT
 10
2118.8455987040511
 20
-3631.1172733046319
 30
0.0
 40
78.072222021763665
 50
195.33634002281391
 51
212.54484689622461
1001
ACDBBLOCKREPETAG
1070
     1
1071
       19
1005
12E674
  0
POINT
  5
12E675
  8
DOTS
 10
2000.0
 20
-3699.9999999999968
 30
0.0
1001
ACDBBLOCKREPETAG
1070
     1
1071
      186
1005
12E675
  0
LINE
  5
12E676
  8
DIM
 10
2150.0
 20
-3341.9999999999959
 30
0.0
 11
2228.479620594459
 21
-3341.9999999999959
 31
0.0
  0
LINE
  5
12E677
  8
DIM
 10
2150.0
 20
-3247.9999999999959
 30
0.0
 11
2228.479620594459
 21
-3247.9999999999959
 31
0.0
  0
LINE
  5
12E678
  8
DIM
 10
2218.479620594459
 20
-3321.9999999999959
 30
0.0
 11
2218.479620594459
 21
-3267.9999999999959
 31
0.0
  0
INSERT
  5
12E679
  8
DIM
  2
_OPEN30
 10
2218.479620594459
 20
-3341.9999999999959
 30
0.0
 41
20.0
 42
20.0
 43
20.0
 50
270.0
  0
INSERT
  5
12E67A
  8
DIM
  2
_OPEN30
 10
2218.479620594459
 20
-3247.9999999999959
 30
0.0
 41
20.0
 42
20.0
 43
20.0
 50
90.0
  0
INSERT
  5
12E67B
  8
OBJECT
  2
*U35
 10
0.0
 20
0.0
 30
0.0
  0
LINE
  5
12E67C
  8
DIM
 10
2150.0
 20
-3699.9999999999968
 30
0.0
 11
2226.8409284037339
 21
-3699.9999999999968
 31
0.0
  0
LINE
  5
12E67D
  8
DIM
 10
2165.0
 20
-3655.9999999999968
 30
0.0
 11
2226.8409284037339
 21
-3655.9999999999968
 31
0.0
  0
LINE
  5
12E67E
  8
DIM
 10
2216.840928403733
 20
-3719.9999999999968
 30
0.0
 11
2216.840928403733
 21
-3739.9999999999968
 31
0.0
  0
LINE
  5
12E67F
  8
DIM
 10
2216.840928403733
 20
-3635.9999999999968
 30
0.0
 11
2216.840928403733
 21
-3615.9999999999968
 31
0.0
  0
LINE
  5
12E680
  8
DIM
 10
2216.840928403733
 20
-3699.9999999999968
 30
0.0
 11
2216.840928403733
 21
-3655.9999999999968
 31
0.0
  0
INSERT
  5
12E681
  8
DIM
  2
_OPEN30
 10
2216.840928403733
 20
-3699.9999999999968
 30
0.0
 41
20.0
 42
20.0
 43
20.0
 50
90.0
  0
INSERT
  5
12E682
  8
DIM
  2
_OPEN30
 10
2216.840928403733
 20
-3655.9999999999968
 30
0.0
 41
20.0
 42
20.0
 43
20.0
 50
270.0
  0
INSERT
  5
12E683
  8
OBJECT
  2
*U36
 10
0.0
 20
0.0
 30
0.0
  0
LINE
  5
12E684
  8
DIM
 10
2000.0
 20
-3189.9999999999959
 30
0.0
 11
2000.0
 21
-3157.2081219844449
 31
0.0
  0
LINE
  5
12E685
  8
DIM
 10
2140.0
 20
-3237.9999999999959
 30
0.0
 11
2140.0
 21
-3157.2081219844449
 31
0.0
  0
LINE
  5
12E686
  8
DIM
 10
2020.0
 20
-3167.208121984444
 30
0.0
 11
2120.0
 21
-3167.208121984444
 31
0.0
  0
INSERT
  5
12E687
  8
DIM
  2
_OPEN30
 10
2000.0
 20
-3167.208121984444
 30
0.0
 41
20.0
 42
20.0
 43
20.0
 50
180.0
  0
INSERT
  5
12E688
  8
DIM
  2
_OPEN30
 10
2140.0
 20
-3167.208121984444
 30
0.0
 41
20.0
 42
20.0
 43
20.0
  0
INSERT
  5
12E689
  8
OBJECT
  2
*U37
 10
0.0
 20
0.0
 30
0.0
  0
TEXT
  5
12E68A
  8
SLIM
 10
2631.0
 20
-3072.50001604727
 30
0.0
 40
40.0
  1
C寸法
 41
0.75
  0
TEXT
  5
12E68B
  8
SLIM
 10
2631.0
 20
-3002.50001604727
 30
0.0
 40
40.0
  1
B寸法
 41
0.75
  0
TEXT
  5
12E68C
  8
SLIM
 10
2630.2857142857142
 20
-2932.50001604727
 30
0.0
 40
40.0
  1
A寸法
 41
0.75
  0
TEXT
  5
12E68D
  8
SLIM
 10
3159.2857142857151
 20
-3072.50001604727
 30
0.0
 40
40.0
  1
150
 41
0.75
  0
TEXT
  5
12E68E
  8
SLIM
 10
3029.2857142857151
 20
-3072.50001604727
 30
0.0
 40
40.0
  1
140
 41
0.75
  0
TEXT
  5
12E68F
  8
SLIM
 10
2769.2857142857151
 20
-3072.50001604727
 30
0.0
 40
40.0
  1
140
 41
0.75
  0
TEXT
  5
12E690
  8
SLIM
 10
2899.2857142857151
 20
-3072.50001604727
 30
0.0
 40
40.0
  1
140
 41
0.75
  0
TEXT
  5
12E691
  8
SLIM
 10
3170.7142857142858
 20
-3002.50001604727
 30
0.0
 40
40.0
  1
72
 41
0.75
  0
TEXT
  5
12E692
  8
SLIM
 10
3041.4285714285711
 20
-3002.50001604727
 30
0.0
 40
40.0
  1
59
 41
0.75
  0
TEXT
  5
12E693
  8
SLIM
 10
2780.0
 20
-3002.50001604727
 30
0.0
 40
40.0
  1
44
 41
0.75
  0
TEXT
  5
12E694
  8
SLIM
 10
2910.7142857142858
 20
-3002.50001604727
 30
0.0
 40
40.0
  1
52
 41
0.75
  0
TEXT
  5
12E695
  8
SLIM
 10
2891.0
 20
-2807.50001604727
 30
0.0
 40
40.0
  1
横枝管サイズ
 41
0.75
  0
TEXT
  5
12E696
  8
SLIM
 10
3136.2857142857151
 20
-2862.50001604727
 30
0.0
 40
30.0
  1
100（4）
 41
0.75
  0
TEXT
  5
12E697
  8
SLIM
 10
3014.857142857144
 20
-2862.50001604727
 30
0.0
 40
30.0
  1
75（3）
 41
0.75
  0
TEXT
  5
12E698
  8
SLIM
 10
2884.8571428571431
 20
-2862.50001604727
 30
0.0
 40
30.0
  1
65（2）
 41
0.75
  0
TEXT
  5
12E699
  8
SLIM
 10
2757.0
 20
-2862.50001604727
 30
0.0
 40
30.0
  1
50（1）
 41
0.75
  0
TEXT
  5
12E69A
  8
SLIM
 10
3159.2857142857151
 20
-2932.50001604727
 30
0.0
 40
40.0
  1
150
 41
0.75
  0
TEXT
  5
12E69B
  8
SLIM
 10
3028.571428571428
 20
-2932.50001604727
 30
0.0
 40
40.0
  1
124
 41
0.75
  0
TEXT
  5
12E69C
  8
SLIM
 10
2780.0
 20
-2932.50001604727
 30
0.0
 40
40.0
  1
94
 41
0.75
  0
TEXT
  5
12E69D
  8
SLIM
 10
2902.1428571428569
 20
-2932.50001604727
 30
0.0
 40
40.0
  1
110
 41
0.75
  0
TEXT
  5
12E69E
  8
SLIM
 10
1849.9999999999991
 20
-2832.5
 30
0.0
 40
75.0
  1
枝管サイズ毎の形状
 41
0.75
  0
LINE
  5
12E69F
  8
OBJECT
 10
5150.0
 20
-3552.9999999999968
 30
0.0
 11
5143.0
 21
-3552.9999999999968
 31
0.0
1001
ACDBBLOCKREPETAG
1070
     1
1071
       64
1005
12E69F
  0
LINE
  5
12E6A0
  8
OBJECT
 10
5143.0
 20
-3552.9999999999968
 30
0.0
 11
5143.0
 21
-3699.9999999999968
 31
0.0
1001
ACDBBLOCKREPETAG
1070
     1
1071
       65
1005
12E6A0
  0
LINE
  5
12E6A1
  8
OBJECT
 10
5101.5
 20
-3555.9999999999968
 30
0.0
 11
5101.5
 21
-3699.9999999999968
 31
0.0
1001
ACDBBLOCKREPETAG
1070
     1
1071
       66
1005
12E6A1
  0
LINE
  5
12E6A2
  8
OBJECT
 10
5090.0
 20
-3562.4999999999968
 30
0.0
 11
5090.0
 21
-3693.4999999999968
 31
0.0
1001
ACDBBLOCKREPETAG
1070
     1
1071
       67
1005
12E6A2
  0
LINE
  5
12E6A3
  8
OBJECT
 10
5086.0
 20
-3634.5000000000041
 30
0.0
 11
5086.0
 21
-3699.9999999999968
 31
0.0
1001
ACDBBLOCKREPETAG
1070
     1
1071
       68
1005
12E6A3
  0
LINE
  5
12E6A4
  8
OBJECT
 10
5150.0
 20
-3699.9999999999968
 30
0.0
 11
5150.0
 21
-3552.9999999999968
 31
0.0
1001
ACDBBLOCKREPETAG
1070
     1
1071
       69
1005
12E6A4
  0
LINE
  5
12E6A5
  8
CENTER
 10
5165.0
 20
-3627.9999999999968
 30
0.0
 11
5070.4144144144157
 21
-3627.9999999999968
 31
0.0
1001
ACDBBLOCKREPETAG
1070
     1
1071
       70
1005
12E6A5
  0
LINE
  5
12E6A6
  8
OBJECT
 10
5083.0000000000045
 20
-3702.9999999999968
 30
0.0
 11
5080.0
 21
-3702.9999999999968
 31
0.0
1001
ACDBBLOCKREPETAG
1070
     1
1071
       71
1005
12E6A6
  0
ARC
  5
12E6A7
  8
OBJECT
 10
5091.8815171830656
 20
-3701.4555591801432
 30
0.0
 40
6.0
 50
60.52411099686767
 51
170.6927439126847
1001
ACDBBLOCKREPETAG
1070
     1
1071
       72
1005
12E6A7
  0
ARC
  5
12E6A8
  8
OBJECT
 10
5083.0
 20
-3699.9999999999968
 30
0.0
 40
3.0
 50
270.0
 51
350.69274391268482
1001
ACDBBLOCKREPETAG
1070
     1
1071
       73
1005
12E6A8
  0
LINE
  5
12E6A9
  8
OBJECT
 10
5081.0
 20
-3578.9999999999968
 30
0.0
 11
5080.0
 21
-3578.9999999999968
 31
0.0
1001
ACDBBLOCKREPETAG
1070
     1
1071
       74
1005
12E6A9
  0
LINE
  5
12E6AA
  8
OBJECT
 10
5150.0
 20
-3699.9999999999968
 30
0.0
 11
5101.5
 21
-3699.9999999999968
 31
0.0
1001
ACDBBLOCKREPETAG
1070
     1
1071
       75
1005
12E6AA
  0
LINE
  5
12E6AB
  8
OBJECT
 10
5101.5
 20
-3555.9999999999968
 30
0.0
 11
5090.0
 21
-3562.4999999999968
 31
0.0
1001
ACDBBLOCKREPETAG
1070
     1
1071
       76
1005
12E6AB
  0
LINE
  5
12E6AC
  8
OBJECT
 10
5143.0
 20
-3555.9999999999968
 30
0.0
 11
5101.5
 21
-3555.9999999999968
 31
0.0
1001
ACDBBLOCKREPETAG
1070
     1
1071
       77
1005
12E6AC
  0
LINE
  5
12E6AD
  8
OBJECT
 10
5086.0
 20
-3634.5000000000041
 30
0.0
 11
5081.0
 21
-3578.9999999999968
 31
0.0
1001
ACDBBLOCKREPETAG
1070
     1
1071
       78
1005
12E6AD
  0
LINE
  5
12E6AE
  8
OBJECT
 10
5090.0
 20
-3562.4999999999968
 30
0.0
 11
5081.0
 21
-3578.9999999999968
 31
0.0
1001
ACDBBLOCKREPETAG
1070
     1
1071
       79
1005
12E6AE
  0
LINE
  5
12E6AF
  8
OBJECT
 10
5101.5
 20
-3699.9999999999968
 30
0.0
 11
5094.8338607230708
 21
-3696.232182147819
 31
0.0
1001
ACDBBLOCKREPETAG
1070
     1
1071
       80
1005
12E6AF
  0
LINE
  5
12E6B0
  8
HIDDEN
 10
5098.0
 20
-3684.9999999999968
 30
0.0
 11
5098.0
 21
-3570.9999999999968
 31
0.0
1001
ACDBBLOCKREPETAG
1070
     1
1071
       81
1005
12E6B0
  0
LINE
  5
12E6B1
  8
OBJECT
 10
5150.0
 20
-3219.9999999999959
 30
0.0
 11
5143.0
 21
-3219.9999999999959
 31
0.0
1001
ACDBBLOCKREPETAG
1070
     1
1071
       67
1005
12E6B1
  0
LINE
  5
12E6B2
  8
OBJECT
 10
5143.0
 20
-3219.9999999999959
 30
0.0
 11
5143.0
 21
-3369.9999999999959
 31
0.0
1001
ACDBBLOCKREPETAG
1070
     1
1071
       68
1005
12E6B2
  0
LINE
  5
12E6B3
  8
OBJECT
 10
5101.5
 20
-3222.9999999999959
 30
0.0
 11
5101.5
 21
-3366.9999999999959
 31
0.0
1001
ACDBBLOCKREPETAG
1070
     1
1071
       69
1005
12E6B3
  0
LINE
  5
12E6B4
  8
OBJECT
 10
5090.0
 20
-3229.4999999999959
 30
0.0
 11
5090.0
 21
-3360.4999999999959
 31
0.0
1001
ACDBBLOCKREPETAG
1070
     1
1071
       70
1005
12E6B4
  0
LINE
  5
12E6B5
  8
OBJECT
 10
5143.0
 20
-3369.9999999999959
 30
0.0
 11
5150.0
 21
-3369.9999999999959
 31
0.0
1001
ACDBBLOCKREPETAG
1070
     1
1071
       71
1005
12E6B5
  0
LINE
  5
12E6B6
  8
OBJECT
 10
5150.0
 20
-3369.9999999999959
 30
0.0
 11
5150.0
 21
-3219.9999999999959
 31
0.0
1001
ACDBBLOCKREPETAG
1070
     1
1071
       72
1005
12E6B6
  0
LINE
  5
12E6B7
  8
HIDDEN
 10
5098.0
 20
-3351.9999999999959
 30
0.0
 11
5098.0
 21
-3237.9999999999959
 31
0.0
1001
ACDBBLOCKREPETAG
1070
     1
1071
       73
1005
12E6B7
  0
LINE
  5
12E6B8
  8
CENTER
 10
5165.0
 20
-3294.9999999999959
 30
0.0
 11
5080.0
 21
-3294.9999999999959
 31
0.0
1001
ACDBBLOCKREPETAG
1070
     1
1071
       74
1005
12E6B8
  0
LINE
  5
12E6B9
  8
OBJECT
 10
5086.0
 20
-3356.9999999999959
 30
0.0
 11
5080.0
 21
-3356.9999999999959
 31
0.0
1001
ACDBBLOCKREPETAG
1070
     1
1071
       75
1005
12E6B9
  0
LINE
  5
12E6BA
  8
OBJECT
 10
5143.0
 20
-3366.9999999999959
 30
0.0
 11
5101.5
 21
-3366.9999999999959
 31
0.0
1001
ACDBBLOCKREPETAG
1070
     1
1071
       76
1005
12E6BA
  0
LINE
  5
12E6BB
  8
OBJECT
 10
5101.5
 20
-3366.9999999999959
 30
0.0
 11
5090.0
 21
-3360.4999999999959
 31
0.0
1001
ACDBBLOCKREPETAG
1070
     1
1071
       77
1005
12E6BB
  0
LINE
  5
12E6BC
  8
OBJECT
 10
5090.0
 20
-3360.4999999999959
 30
0.0
 11
5086.0
 21
-3356.9999999999959
 31
0.0
1001
ACDBBLOCKREPETAG
1070
     1
1071
       78
1005
12E6BC
  0
LINE
  5
12E6BD
  8
OBJECT
 10
5101.5
 20
-3222.9999999999959
 30
0.0
 11
5090.0
 21
-3229.4999999999959
 31
0.0
1001
ACDBBLOCKREPETAG
1070
     1
1071
       79
1005
12E6BD
  0
LINE
  5
12E6BE
  8
OBJECT
 10
5090.0
 20
-3229.4999999999959
 30
0.0
 11
5086.0
 21
-3232.9999999999959
 31
0.0
1001
ACDBBLOCKREPETAG
1070
     1
1071
       80
1005
12E6BE
  0
ARC
  5
12E6BF
  8
OBJECT
 10
5467.9000000000005
 20
-3294.9999999999959
 30
0.0
 40
386.89999999999998
 50
170.77870136260421
 51
189.22129863739571
1001
ACDBBLOCKREPETAG
1070
     1
1071
       81
1005
12E6BF
  0
LINE
  5
12E6C0
  8
OBJECT
 10
5086.0
 20
-3232.9999999999959
 30
0.0
 11
5080.0
 21
-3232.9999999999959
 31
0.0
1001
ACDBBLOCKREPETAG
1070
     1
1071
       82
1005
12E6C0
  0
LINE
  5
12E6C1
  8
OBJECT
 10
5143.0
 20
-3222.9999999999959
 30
0.0
 11
5101.5
 21
-3222.9999999999959
 31
0.0
1001
ACDBBLOCKREPETAG
1070
     1
1071
       83
1005
12E6C1
  0
TEXT
  5
12E6C2
  8
SLIM
 10
4884.25
 20
-3817.4999999999959
 30
0.0
 40
35.0
  1
通常枝100（4）
 41
0.75
  0
LINE
  5
12E6C3
  8
CENTER
 10
4477.0
 20
-3640.9999999999968
 30
0.0
 11
4323.0
 21
-3640.9999999999968
 31
0.0
1001
ACDBBLOCKREPETAG
1070
     1
1071
       17
1005
12E6C3
  0
CIRCLE
  5
12E6C4
  8
OBJECT
 10
4400.0
 20
-3640.9999999999968
 30
0.0
 40
41.5
1001
ACDBBLOCKREPETAG
1070
     1
1071
       19
1005
12E6C4
  0
CIRCLE
  5
12E6C5
  8
OBJECT
 10
4400.0
 20
-3640.9999999999968
 30
0.0
 40
54.0
1001
ACDBBLOCKREPETAG
1070
     1
1071
       20
1005
12E6C5
  0
ARC
  5
12E6C6
  8
OBJECT
 10
4400.0
 20
-3640.9999999999968
 30
0.0
 40
62.0
 50
287.89655112921122
 51
252.1034488707887
1001
ACDBBLOCKREPETAG
1070
     1
1071
       21
1005
12E6C6
  0
LINE
  5
12E6C7
  8
OBJECT
 10
4380.947441116743
 20
-3699.9999999999968
 30
0.0
 11
4419.052558883257
 21
-3699.9999999999968
 31
0.0
1001
ACDBBLOCKREPETAG
1070
     1
1071
       22
1005
12E6C7
  0
LINE
  5
12E6C8
  8
OBJECT
 10
4133.0
 20
-3578.9999999999968
 30
0.0
 11
4140.0
 21
-3578.9999999999968
 31
0.0
1001
ACDBBLOCKREPETAG
1070
     1
1071
       45
1005
12E6C8
  0
LINE
  5
12E6C9
  8
OBJECT
 10
4140.0
 20
-3578.9999999999968
 30
0.0
 11
4140.0
 21
-3699.9999999999968
 31
0.0
1001
ACDBBLOCKREPETAG
1070
     1
1071
       46
1005
12E6C9
  0
LINE
  5
12E6CA
  8
OBJECT
 10
4133.0
 20
-3699.9999999999968
 30
0.0
 11
4133.0
 21
-3578.9999999999968
 31
0.0
1001
ACDBBLOCKREPETAG
1070
     1
1071
       47
1005
12E6CA
  0
LINE
  5
12E6CB
  8
CENTER
 10
4155.0
 20
-3640.9999999999968
 30
0.0
 11
4071.0
 21
-3640.9999999999968
 31
0.0
1001
ACDBBLOCKREPETAG
1070
     1
1071
       48
1005
12E6CB
  0
LINE
  5
12E6CC
  8
OBJECT
 10
4133.0
 20
-3581.9999999999968
 30
0.0
 11
4097.0
 21
-3581.9999999999968
 31
0.0
1001
ACDBBLOCKREPETAG
1070
     1
1071
       49
1005
12E6CC
  0
LINE
  5
12E6CD
  8
OBJECT
 10
4097.0
 20
-3581.9999999999968
 30
0.0
 11
4097.0
 21
-3699.9999999999968
 31
0.0
1001
ACDBBLOCKREPETAG
1070
     1
1071
       50
1005
12E6CD
  0
LINE
  5
12E6CE
  8
OBJECT
 10
4097.0
 20
-3699.9999999999968
 30
0.0
 11
4140.0
 21
-3699.9999999999968
 31
0.0
1001
ACDBBLOCKREPETAG
1070
     1
1071
       51
1005
12E6CE
  0
LINE
  5
12E6CF
  8
OBJECT
 10
4093.0
 20
-3586.4999999999968
 30
0.0
 11
4086.0
 21
-3586.4999999999968
 31
0.0
1001
ACDBBLOCKREPETAG
1070
     1
1071
       52
1005
12E6CF
  0
LINE
  5
12E6D0
  8
OBJECT
 10
4086.0
 20
-3695.4999999999968
 30
0.0
 11
4093.0
 21
-3695.4999999999968
 31
0.0
1001
ACDBBLOCKREPETAG
1070
     1
1071
       53
1005
12E6D0
  0
LINE
  5
12E6D1
  8
OBJECT
 10
4093.0
 20
-3695.4999999999968
 30
0.0
 11
4093.0
 21
-3586.4999999999968
 31
0.0
1001
ACDBBLOCKREPETAG
1070
     1
1071
       54
1005
12E6D1
  0
LINE
  5
12E6D2
  8
OBJECT
 10
4097.0
 20
-3581.9999999999968
 30
0.0
 11
4093.0
 21
-3586.4999999999968
 31
0.0
1001
ACDBBLOCKREPETAG
1070
     1
1071
       55
1005
12E6D2
  0
LINE
  5
12E6D3
  8
OBJECT
 10
4097.0
 20
-3699.9999999999968
 30
0.0
 11
4093.0
 21
-3695.4999999999968
 31
0.0
1001
ACDBBLOCKREPETAG
1070
     1
1071
       56
1005
12E6D3
  0
LINE
  5
12E6D4
  8
OBJECT
 10
4083.0
 20
-3578.9999999999968
 30
0.0
 11
4080.0
 21
-3578.9999999999968
 31
0.0
1001
ACDBBLOCKREPETAG
1070
     1
1071
       57
1005
12E6D4
  0
ARC
  5
12E6D5
  8
OBJECT
 10
4083.0
 20
-3581.9999999999968
 30
0.0
 40
3.0
 50
0.0
 51
90.0
1001
ACDBBLOCKREPETAG
1070
     1
1071
       58
1005
12E6D5
  0
LINE
  5
12E6D6
  8
OBJECT
 10
4080.0
 20
-3702.9999999999968
 30
0.0
 11
4083.0
 21
-3702.9999999999968
 31
0.0
1001
ACDBBLOCKREPETAG
1070
     1
1071
       59
1005
12E6D6
  0
ARC
  5
12E6D7
  8
OBJECT
 10
4083.0
 20
-3699.9999999999968
 30
0.0
 40
3.0
 50
270.0
 51
0.0
1001
ACDBBLOCKREPETAG
1070
     1
1071
       60
1005
12E6D7
  0
LINE
  5
12E6D8
  8
OBJECT
 10
4086.0
 20
-3699.9999999999968
 30
0.0
 11
4086.0
 21
-3581.9999999999968
 31
0.0
1001
ACDBBLOCKREPETAG
1070
     1
1071
       61
1005
12E6D8
  0
LINE
  5
12E6D9
  8
HIDDEN
 10
4088.0
 20
-3596.4999999999968
 30
0.0
 11
4088.0
 21
-3685.4999999999968
 31
0.0
1001
ACDBBLOCKREPETAG
1070
     1
1071
       63
1005
12E6D9
  0
LINE
  5
12E6DA
  8
OBJECT
 10
4133.0
 20
-3232.9999999999959
 30
0.0
 11
4140.0
 21
-3232.9999999999959
 31
0.0
1001
ACDBBLOCKREPETAG
1070
     1
1071
       47
1005
12E6DA
  0
LINE
  5
12E6DB
  8
OBJECT
 10
4140.0
 20
-3232.9999999999959
 30
0.0
 11
4140.0
 21
-3356.9999999999959
 31
0.0
1001
ACDBBLOCKREPETAG
1070
     1
1071
       48
1005
12E6DB
  0
LINE
  5
12E6DC
  8
OBJECT
 10
4140.0
 20
-3356.9999999999959
 30
0.0
 11
4133.0
 21
-3356.9999999999959
 31
0.0
1001
ACDBBLOCKREPETAG
1070
     1
1071
       49
1005
12E6DC
  0
LINE
  5
12E6DD
  8
OBJECT
 10
4133.0
 20
-3356.9999999999959
 30
0.0
 11
4133.0
 21
-3232.9999999999959
 31
0.0
1001
ACDBBLOCKREPETAG
1070
     1
1071
       50
1005
12E6DD
  0
LINE
  5
12E6DE
  8
CENTER
 10
4155.0
 20
-3294.9999999999959
 30
0.0
 11
4080.0
 21
-3294.9999999999959
 31
0.0
1001
ACDBBLOCKREPETAG
1070
     1
1071
       51
1005
12E6DE
  0
LINE
  5
12E6DF
  8
OBJECT
 10
4133.0
 20
-3235.9999999999959
 30
0.0
 11
4097.0
 21
-3235.9999999999959
 31
0.0
1001
ACDBBLOCKREPETAG
1070
     1
1071
       52
1005
12E6DF
  0
LINE
  5
12E6E0
  8
OBJECT
 10
4097.0
 20
-3235.9999999999959
 30
0.0
 11
4097.0
 21
-3353.9999999999959
 31
0.0
1001
ACDBBLOCKREPETAG
1070
     1
1071
       53
1005
12E6E0
  0
LINE
  5
12E6E1
  8
OBJECT
 10
4097.0
 20
-3353.9999999999959
 30
0.0
 11
4133.0
 21
-3353.9999999999959
 31
0.0
1001
ACDBBLOCKREPETAG
1070
     1
1071
       54
1005
12E6E1
  0
LINE
  5
12E6E2
  8
OBJECT
 10
4093.0
 20
-3240.4999999999959
 30
0.0
 11
4086.0
 21
-3240.4999999999959
 31
0.0
1001
ACDBBLOCKREPETAG
1070
     1
1071
       55
1005
12E6E2
  0
LINE
  5
12E6E3
  8
OBJECT
 10
4086.0
 20
-3349.4999999999959
 30
0.0
 11
4093.0
 21
-3349.4999999999959
 31
0.0
1001
ACDBBLOCKREPETAG
1070
     1
1071
       56
1005
12E6E3
  0
LINE
  5
12E6E4
  8
OBJECT
 10
4093.0
 20
-3349.4999999999959
 30
0.0
 11
4093.0
 21
-3240.4999999999959
 31
0.0
1001
ACDBBLOCKREPETAG
1070
     1
1071
       57
1005
12E6E4
  0
LINE
  5
12E6E5
  8
OBJECT
 10
4097.0
 20
-3235.9999999999959
 30
0.0
 11
4093.0
 21
-3240.4999999999959
 31
0.0
1001
ACDBBLOCKREPETAG
1070
     1
1071
       58
1005
12E6E5
  0
LINE
  5
12E6E6
  8
OBJECT
 10
4097.0
 20
-3353.9999999999959
 30
0.0
 11
4093.0
 21
-3349.4999999999959
 31
0.0
1001
ACDBBLOCKREPETAG
1070
     1
1071
       59
1005
12E6E6
  0
LINE
  5
12E6E7
  8
OBJECT
 10
4083.0
 20
-3232.9999999999959
 30
0.0
 11
4080.0
 21
-3232.9999999999959
 31
0.0
1001
ACDBBLOCKREPETAG
1070
     1
1071
       60
1005
12E6E7
  0
ARC
  5
12E6E8
  8
OBJECT
 10
4083.0
 20
-3235.9999999999959
 30
0.0
 40
3.0
 50
0.0
 51
90.0
1001
ACDBBLOCKREPETAG
1070
     1
1071
       61
1005
12E6E8
  0
LINE
  5
12E6E9
  8
OBJECT
 10
4080.0
 20
-3356.9999999999959
 30
0.0
 11
4083.0
 21
-3356.9999999999959
 31
0.0
1001
ACDBBLOCKREPETAG
1070
     1
1071
       62
1005
12E6E9
  0
ARC
  5
12E6EA
  8
OBJECT
 10
4083.0
 20
-3353.9999999999959
 30
0.0
 40
3.0
 50
270.0
 51
0.0
1001
ACDBBLOCKREPETAG
1070
     1
1071
       63
1005
12E6EA
  0
LINE
  5
12E6EB
  8
OBJECT
 10
4086.0
 20
-3353.9999999999959
 30
0.0
 11
4086.0
 21
-3235.9999999999959
 31
0.0
1001
ACDBBLOCKREPETAG
1070
     1
1071
       64
1005
12E6EB
  0
LINE
  5
12E6EC
  8
HIDDEN
 10
4088.0
 20
-3250.4999999999959
 30
0.0
 11
4088.0
 21
-3339.4999999999959
 31
0.0
1001
ACDBBLOCKREPETAG
1070
     1
1071
       65
1005
12E6EC
  0
TEXT
  5
12E6ED
  8
SLIM
 10
3894.25
 20
-3817.4999999999959
 30
0.0
 40
35.0
  1
通常枝75（3）
 41
0.75
  0
CIRCLE
  5
12E6EE
  8
OBJECT
 10
3400.0
 20
-3647.9999999999968
 30
0.0
 40
35.5
1001
ACDBBLOCKREPETAG
1070
     1
1071
       10
1005
12E6EE
  0
CIRCLE
  5
12E6EF
  8
OBJECT
 10
3400.0
 20
-3640.9999999999968
 30
0.0
 40
62.0
1001
ACDBBLOCKREPETAG
1070
     1
1071
       11
1005
12E6EF
  0
LINE
  5
12E6F0
  8
CENTER
 10
3330.0
 20
-3647.9999999999968
 30
0.0
 11
3470.0
 21
-3647.9999999999968
 31
0.0
1001
ACDBBLOCKREPETAG
1070
     1
1071
       12
1005
12E6F0
  0
CIRCLE
  5
12E6F1
  8
OBJECT
 10
3400.0
 20
-3647.9999999999968
 30
0.0
 40
47.0
1001
ACDBBLOCKREPETAG
1070
     1
1071
       14
1005
12E6F1
  0
ARC
  5
12E6F2
  8
OBJECT
 10
3400.0
 20
-3647.9999999999968
 30
0.0
 40
55.0
 50
289.01126526011359
 51
250.98873473988641
1001
ACDBBLOCKREPETAG
1070
     1
1071
       15
1005
12E6F2
  0
LINE
  5
12E6F3
  8
OBJECT
 10
3382.0835271328328
 20
-3699.9999999999968
 30
0.0
 11
3417.9164728671681
 21
-3699.9999999999968
 31
0.0
1001
ACDBBLOCKREPETAG
1070
     1
1071
       16
1005
12E6F3
  0
LINE
  5
12E6F4
  8
OBJECT
 10
3133.0
 20
-3592.9999999999968
 30
0.0
 11
3140.0
 21
-3592.9999999999968
 31
0.0
1001
ACDBBLOCKREPETAG
1070
     1
1071
       26
1005
12E6F4
  0
LINE
  5
12E6F5
  8
OBJECT
 10
3140.0
 20
-3592.9999999999968
 30
0.0
 11
3140.0
 21
-3699.9999999999968
 31
0.0
1001
ACDBBLOCKREPETAG
1070
     1
1071
       27
1005
12E6F5
  0
LINE
  5
12E6F6
  8
OBJECT
 10
3133.0
 20
-3699.9999999999968
 30
0.0
 11
3133.0
 21
-3592.9999999999968
 31
0.0
1001
ACDBBLOCKREPETAG
1070
     1
1071
       28
1005
12E6F6
  0
LINE
  5
12E6F7
  8
CENTER
 10
3155.0
 20
-3647.9999999999968
 30
0.0
 11
3071.0
 21
-3647.9999999999968
 31
0.0
1001
ACDBBLOCKREPETAG
1070
     1
1071
       29
1005
12E6F7
  0
LINE
  5
12E6F8
  8
OBJECT
 10
3133.0
 20
-3595.9999999999968
 30
0.0
 11
3097.0
 21
-3595.9999999999968
 31
0.0
1001
ACDBBLOCKREPETAG
1070
     1
1071
       30
1005
12E6F8
  0
LINE
  5
12E6F9
  8
OBJECT
 10
3097.0
 20
-3595.9999999999968
 30
0.0
 11
3097.0
 21
-3699.9999999999968
 31
0.0
1001
ACDBBLOCKREPETAG
1070
     1
1071
       31
1005
12E6F9
  0
LINE
  5
12E6FA
  8
OBJECT
 10
3097.0
 20
-3699.9999999999968
 30
0.0
 11
3140.0
 21
-3699.9999999999968
 31
0.0
1001
ACDBBLOCKREPETAG
1070
     1
1071
       32
1005
12E6FA
  0
LINE
  5
12E6FB
  8
OBJECT
 10
3093.0
 20
-3600.4999999999968
 30
0.0
 11
3086.0
 21
-3600.4999999999968
 31
0.0
1001
ACDBBLOCKREPETAG
1070
     1
1071
       33
1005
12E6FB
  0
LINE
  5
12E6FC
  8
OBJECT
 10
3086.0
 20
-3695.4999999999968
 30
0.0
 11
3093.0
 21
-3695.4999999999968
 31
0.0
1001
ACDBBLOCKREPETAG
1070
     1
1071
       34
1005
12E6FC
  0
LINE
  5
12E6FD
  8
OBJECT
 10
3093.0
 20
-3695.4999999999968
 30
0.0
 11
3093.0
 21
-3600.4999999999968
 31
0.0
1001
ACDBBLOCKREPETAG
1070
     1
1071
       35
1005
12E6FD
  0
LINE
  5
12E6FE
  8
OBJECT
 10
3097.0
 20
-3595.9999999999968
 30
0.0
 11
3093.0
 21
-3600.4999999999968
 31
0.0
1001
ACDBBLOCKREPETAG
1070
     1
1071
       36
1005
12E6FE
  0
LINE
  5
12E6FF
  8
OBJECT
 10
3097.0
 20
-3699.9999999999968
 30
0.0
 11
3093.0
 21
-3695.4999999999968
 31
0.0
1001
ACDBBLOCKREPETAG
1070
     1
1071
       37
1005
12E6FF
  0
LINE
  5
12E700
  8
OBJECT
 10
3083.0
 20
-3578.9999999999968
 30
0.0
 11
3080.0
 21
-3578.9999999999968
 31
0.0
1001
ACDBBLOCKREPETAG
1070
     1
1071
       38
1005
12E700
  0
ARC
  5
12E701
  8
OBJECT
 10
3083.0
 20
-3581.9999999999968
 30
0.0
 40
3.0
 50
0.0
 51
90.0
1001
ACDBBLOCKREPETAG
1070
     1
1071
       39
1005
12E701
  0
LINE
  5
12E702
  8
OBJECT
 10
3080.0
 20
-3702.9999999999968
 30
0.0
 11
3083.0
 21
-3702.9999999999968
 31
0.0
1001
ACDBBLOCKREPETAG
1070
     1
1071
       40
1005
12E702
  0
ARC
  5
12E703
  8
OBJECT
 10
3083.0
 20
-3699.9999999999968
 30
0.0
 40
3.0
 50
270.0
 51
0.0
1001
ACDBBLOCKREPETAG
1070
     1
1071
       41
1005
12E703
  0
LINE
  5
12E704
  8
OBJECT
 10
3086.0
 20
-3699.9999999999968
 30
0.0
 11
3086.0
 21
-3581.9999999999968
 31
0.0
1001
ACDBBLOCKREPETAG
1070
     1
1071
       42
1005
12E704
  0
LINE
  5
12E705
  8
HIDDEN
 10
3088.0
 20
-3609.9999999999968
 30
0.0
 11
3088.0
 21
-3685.9999999999968
 31
0.0
1001
ACDBBLOCKREPETAG
1070
     1
1071
       43
1005
12E705
  0
LINE
  5
12E706
  8
OBJECT
 10
3133.0
 20
-3239.9999999999968
 30
0.0
 11
3140.0
 21
-3239.9999999999968
 31
0.0
1001
ACDBBLOCKREPETAG
1070
     1
1071
       27
1005
12E706
  0
LINE
  5
12E707
  8
OBJECT
 10
3140.0
 20
-3239.9999999999968
 30
0.0
 11
3140.0
 21
-3349.9999999999959
 31
0.0
1001
ACDBBLOCKREPETAG
1070
     1
1071
       28
1005
12E707
  0
LINE
  5
12E708
  8
OBJECT
 10
3140.0
 20
-3349.9999999999959
 30
0.0
 11
3133.0
 21
-3349.9999999999959
 31
0.0
1001
ACDBBLOCKREPETAG
1070
     1
1071
       29
1005
12E708
  0
LINE
  5
12E709
  8
OBJECT
 10
3133.0
 20
-3349.9999999999959
 30
0.0
 11
3133.0
 21
-3239.9999999999968
 31
0.0
1001
ACDBBLOCKREPETAG
1070
     1
1071
       30
1005
12E709
  0
LINE
  5
12E70A
  8
CENTER
 10
3155.0
 20
-3294.9999999999959
 30
0.0
 11
3080.0
 21
-3294.9999999999959
 31
0.0
1001
ACDBBLOCKREPETAG
1070
     1
1071
       31
1005
12E70A
  0
LINE
  5
12E70B
  8
OBJECT
 10
3133.0
 20
-3242.9999999999959
 30
0.0
 11
3097.0
 21
-3242.9999999999959
 31
0.0
1001
ACDBBLOCKREPETAG
1070
     1
1071
       32
1005
12E70B
  0
LINE
  5
12E70C
  8
OBJECT
 10
3097.0
 20
-3242.9999999999959
 30
0.0
 11
3097.0
 21
-3346.9999999999959
 31
0.0
1001
ACDBBLOCKREPETAG
1070
     1
1071
       33
1005
12E70C
  0
LINE
  5
12E70D
  8
OBJECT
 10
3097.0
 20
-3346.9999999999959
 30
0.0
 11
3133.0
 21
-3346.9999999999959
 31
0.0
1001
ACDBBLOCKREPETAG
1070
     1
1071
       34
1005
12E70D
  0
LINE
  5
12E70E
  8
OBJECT
 10
3093.0
 20
-3247.4999999999959
 30
0.0
 11
3086.0
 21
-3247.4999999999959
 31
0.0
1001
ACDBBLOCKREPETAG
1070
     1
1071
       35
1005
12E70E
  0
LINE
  5
12E70F
  8
OBJECT
 10
3086.0
 20
-3342.4999999999959
 30
0.0
 11
3093.0
 21
-3342.4999999999959
 31
0.0
1001
ACDBBLOCKREPETAG
1070
     1
1071
       36
1005
12E70F
  0
LINE
  5
12E710
  8
OBJECT
 10
3093.0
 20
-3342.4999999999959
 30
0.0
 11
3093.0
 21
-3247.4999999999959
 31
0.0
1001
ACDBBLOCKREPETAG
1070
     1
1071
       37
1005
12E710
  0
LINE
  5
12E711
  8
OBJECT
 10
3097.0
 20
-3242.9999999999959
 30
0.0
 11
3093.0
 21
-3247.4999999999959
 31
0.0
1001
ACDBBLOCKREPETAG
1070
     1
1071
       38
1005
12E711
  0
LINE
  5
12E712
  8
OBJECT
 10
3097.0
 20
-3346.9999999999959
 30
0.0
 11
3093.0
 21
-3342.4999999999959
 31
0.0
1001
ACDBBLOCKREPETAG
1070
     1
1071
       39
1005
12E712
  0
LINE
  5
12E713
  8
OBJECT
 10
3083.0
 20
-3232.9999999999959
 30
0.0
 11
3080.0
 21
-3232.9999999999959
 31
0.0
1001
ACDBBLOCKREPETAG
1070
     1
1071
       40
1005
12E713
  0
ARC
  5
12E714
  8
OBJECT
 10
3083.0
 20
-3235.9999999999959
 30
0.0
 40
3.0
 50
0.0
 51
90.0
1001
ACDBBLOCKREPETAG
1070
     1
1071
       41
1005
12E714
  0
LINE
  5
12E715
  8
OBJECT
 10
3080.0
 20
-3356.9999999999959
 30
0.0
 11
3083.0
 21
-3356.9999999999959
 31
0.0
1001
ACDBBLOCKREPETAG
1070
     1
1071
       42
1005
12E715
  0
ARC
  5
12E716
  8
OBJECT
 10
3083.0
 20
-3353.9999999999959
 30
0.0
 40
3.0
 50
270.0
 51
0.0
1001
ACDBBLOCKREPETAG
1070
     1
1071
       43
1005
12E716
  0
LINE
  5
12E717
  8
OBJECT
 10
3086.0
 20
-3353.9999999999959
 30
0.0
 11
3086.0
 21
-3235.9999999999959
 31
0.0
1001
ACDBBLOCKREPETAG
1070
     1
1071
       44
1005
12E717
  0
LINE
  5
12E718
  8
HIDDEN
 10
3088.0
 20
-3256.9999999999959
 30
0.0
 11
3088.0
 21
-3332.9999999999968
 31
0.0
1001
ACDBBLOCKREPETAG
1070
     1
1071
       45
1005
12E718
  0
TEXT
  5
12E719
  8
SLIM
 10
2894.25
 20
-3817.4999999999959
 30
0.0
 40
35.0
  1
通常枝65（2）
 41
0.75
  0
CIRCLE
  5
12E71A
  8
OBJECT
 10
2400.0
 20
-3640.9999999999968
 30
0.0
 40
62.0
1001
ACDBBLOCKREPETAG
1070
     1
1071
        3
1005
12E71A
  0
LINE
  5
12E71B
  8
CENTER
 10
2338.0
 20
-3655.9999999999968
 30
0.0
 11
2462.0
 21
-3655.9999999999968
 31
0.0
1001
ACDBBLOCKREPETAG
1070
     1
1071
        4
1005
12E71B
  0
CIRCLE
  5
12E71C
  8
OBJECT
 10
2400.0
 20
-3655.9999999999968
 30
0.0
 40
28.0
1001
ACDBBLOCKREPETAG
1070
     1
1071
        6
1005
12E71C
  0
CIRCLE
  5
12E71D
  8
OBJECT
 10
2400.0
 20
-3655.9999999999968
 30
0.0
 40
39.0
1001
ACDBBLOCKREPETAG
1070
     1
1071
        7
1005
12E71D
  0
ARC
  5
12E71E
  8
OBJECT
 10
2400.0
 20
-3655.9999999999968
 30
0.0
 40
47.0
 50
290.58196921144412
 51
249.41803078855591
1001
ACDBBLOCKREPETAG
1070
     1
1071
        8
1005
12E71E
  0
LINE
  5
12E71F
  8
OBJECT
 10
2383.4772883581431
 20
-3699.9999999999968
 30
0.0
 11
2416.5227116418569
 21
-3699.9999999999968
 31
0.0
1001
ACDBBLOCKREPETAG
1070
     1
1071
        9
1005
12E71F
  0
LINE
  5
12E720
  8
OBJECT
 10
2133.0
 20
-3608.9999999999968
 30
0.0
 11
2140.0
 21
-3608.9999999999968
 31
0.0
1001
ACDBBLOCKREPETAG
1070
     1
1071
        7
1005
12E720
  0
LINE
  5
12E721
  8
OBJECT
 10
2140.0
 20
-3608.9999999999968
 30
0.0
 11
2140.0
 21
-3699.9999999999968
 31
0.0
1001
ACDBBLOCKREPETAG
1070
     1
1071
        8
1005
12E721
  0
LINE
  5
12E722
  8
OBJECT
 10
2133.0
 20
-3699.9999999999968
 30
0.0
 11
2133.0
 21
-3608.9999999999968
 31
0.0
1001
ACDBBLOCKREPETAG
1070
     1
1071
        9
1005
12E722
  0
LINE
  5
12E723
  8
CENTER
 10
2155.0
 20
-3655.9999999999968
 30
0.0
 11
2071.0
 21
-3655.9999999999968
 31
0.0
1001
ACDBBLOCKREPETAG
1070
     1
1071
       10
1005
12E723
  0
LINE
  5
12E724
  8
OBJECT
 10
2133.0
 20
-3611.9999999999968
 30
0.0
 11
2097.0
 21
-3611.9999999999968
 31
0.0
1001
ACDBBLOCKREPETAG
1070
     1
1071
       11
1005
12E724
  0
LINE
  5
12E725
  8
OBJECT
 10
2097.0
 20
-3611.9999999999968
 30
0.0
 11
2097.0
 21
-3699.9999999999968
 31
0.0
1001
ACDBBLOCKREPETAG
1070
     1
1071
       12
1005
12E725
  0
LINE
  5
12E726
  8
OBJECT
 10
2097.0
 20
-3699.9999999999968
 30
0.0
 11
2140.0
 21
-3699.9999999999968
 31
0.0
1001
ACDBBLOCKREPETAG
1070
     1
1071
       13
1005
12E726
  0
LINE
  5
12E727
  8
OBJECT
 10
2093.0
 20
-3616.4999999999968
 30
0.0
 11
2086.0
 21
-3616.4999999999968
 31
0.0
1001
ACDBBLOCKREPETAG
1070
     1
1071
       14
1005
12E727
  0
LINE
  5
12E728
  8
OBJECT
 10
2086.0
 20
-3695.4999999999968
 30
0.0
 11
2093.0
 21
-3695.4999999999968
 31
0.0
1001
ACDBBLOCKREPETAG
1070
     1
1071
       15
1005
12E728
  0
LINE
  5
12E729
  8
OBJECT
 10
2093.0
 20
-3695.4999999999968
 30
0.0
 11
2093.0
 21
-3616.4999999999968
 31
0.0
1001
ACDBBLOCKREPETAG
1070
     1
1071
       16
1005
12E729
  0
LINE
  5
12E72A
  8
OBJECT
 10
2097.0
 20
-3611.9999999999968
 30
0.0
 11
2093.0
 21
-3616.4999999999968
 31
0.0
1001
ACDBBLOCKREPETAG
1070
     1
1071
       17
1005
12E72A
  0
LINE
  5
12E72B
  8
OBJECT
 10
2097.0
 20
-3699.9999999999968
 30
0.0
 11
2093.0
 21
-3695.4999999999968
 31
0.0
1001
ACDBBLOCKREPETAG
1070
     1
1071
       18
1005
12E72B
  0
LINE
  5
12E72C
  8
OBJECT
 10
2083.0
 20
-3578.9999999999968
 30
0.0
 11
2080.0
 21
-3578.9999999999968
 31
0.0
1001
ACDBBLOCKREPETAG
1070
     1
1071
       19
1005
12E72C
  0
ARC
  5
12E72D
  8
OBJECT
 10
2083.0
 20
-3581.9999999999968
 30
0.0
 40
3.0
 50
0.0
 51
90.0
1001
ACDBBLOCKREPETAG
1070
     1
1071
       20
1005
12E72D
  0
LINE
  5
12E72E
  8
OBJECT
 10
2080.0
 20
-3702.9999999999968
 30
0.0
 11
2083.0
 21
-3702.9999999999968
 31
0.0
1001
ACDBBLOCKREPETAG
1070
     1
1071
       21
1005
12E72E
  0
ARC
  5
12E72F
  8
OBJECT
 10
2083.0
 20
-3699.9999999999968
 30
0.0
 40
3.0
 50
270.0
 51
0.0
1001
ACDBBLOCKREPETAG
1070
     1
1071
       22
1005
12E72F
  0
LINE
  5
12E730
  8
OBJECT
 10
2086.0
 20
-3699.9999999999968
 30
0.0
 11
2086.0
 21
-3581.9999999999968
 31
0.0
1001
ACDBBLOCKREPETAG
1070
     1
1071
       23
1005
12E730
  0
LINE
  5
12E731
  8
HIDDEN
 10
2088.0
 20
-3625.9999999999968
 30
0.0
 11
2088.0
 21
-3685.9999999999968
 31
0.0
1001
ACDBBLOCKREPETAG
1070
     1
1071
       24
1005
12E731
  0
LINE
  5
12E732
  8
OBJECT
 10
2133.0
 20
-3247.9999999999959
 30
0.0
 11
2140.0
 21
-3247.9999999999959
 31
0.0
1001
ACDBBLOCKREPETAG
1070
     1
1071
        7
1005
12E732
  0
LINE
  5
12E733
  8
OBJECT
 10
2140.0
 20
-3247.9999999999959
 30
0.0
 11
2140.0
 21
-3341.9999999999959
 31
0.0
1001
ACDBBLOCKREPETAG
1070
     1
1071
        8
1005
12E733
  0
LINE
  5
12E734
  8
OBJECT
 10
2140.0
 20
-3341.9999999999959
 30
0.0
 11
2133.0
 21
-3341.9999999999959
 31
0.0
1001
ACDBBLOCKREPETAG
1070
     1
1071
        9
1005
12E734
  0
LINE
  5
12E735
  8
OBJECT
 10
2133.0
 20
-3341.9999999999959
 30
0.0
 11
2133.0
 21
-3247.9999999999959
 31
0.0
1001
ACDBBLOCKREPETAG
1070
     1
1071
       10
1005
12E735
  0
LINE
  5
12E736
  8
CENTER
 10
2155.0
 20
-3294.9999999999959
 30
0.0
 11
2080.0
 21
-3294.9999999999959
 31
0.0
1001
ACDBBLOCKREPETAG
1070
     1
1071
       11
1005
12E736
  0
LINE
  5
12E737
  8
OBJECT
 10
2133.0
 20
-3250.9999999999959
 30
0.0
 11
2097.0
 21
-3250.9999999999959
 31
0.0
1001
ACDBBLOCKREPETAG
1070
     1
1071
       12
1005
12E737
  0
LINE
  5
12E738
  8
OBJECT
 10
2097.0
 20
-3250.9999999999959
 30
0.0
 11
2097.0
 21
-3338.9999999999959
 31
0.0
1001
ACDBBLOCKREPETAG
1070
     1
1071
       13
1005
12E738
  0
LINE
  5
12E739
  8
OBJECT
 10
2097.0
 20
-3338.9999999999959
 30
0.0
 11
2133.0
 21
-3338.9999999999959
 31
0.0
1001
ACDBBLOCKREPETAG
1070
     1
1071
       14
1005
12E739
  0
LINE
  5
12E73A
  8
OBJECT
 10
2093.0
 20
-3255.4999999999959
 30
0.0
 11
2086.0
 21
-3255.4999999999959
 31
0.0
1001
ACDBBLOCKREPETAG
1070
     1
1071
       15
1005
12E73A
  0
LINE
  5
12E73B
  8
OBJECT
 10
2086.0
 20
-3334.4999999999959
 30
0.0
 11
2093.0
 21
-3334.4999999999959
 31
0.0
1001
ACDBBLOCKREPETAG
1070
     1
1071
       16
1005
12E73B
  0
LINE
  5
12E73C
  8
OBJECT
 10
2093.0
 20
-3334.4999999999959
 30
0.0
 11
2093.0
 21
-3255.4999999999959
 31
0.0
1001
ACDBBLOCKREPETAG
1070
     1
1071
       17
1005
12E73C
  0
LINE
  5
12E73D
  8
OBJECT
 10
2097.0
 20
-3250.9999999999959
 30
0.0
 11
2093.0
 21
-3255.4999999999959
 31
0.0
1001
ACDBBLOCKREPETAG
1070
     1
1071
       18
1005
12E73D
  0
LINE
  5
12E73E
  8
OBJECT
 10
2097.0
 20
-3338.9999999999959
 30
0.0
 11
2093.0
 21
-3334.4999999999959
 31
0.0
1001
ACDBBLOCKREPETAG
1070
     1
1071
       19
1005
12E73E
  0
LINE
  5
12E73F
  8
OBJECT
 10
2083.0
 20
-3232.9999999999959
 30
0.0
 11
2080.0
 21
-3232.9999999999959
 31
0.0
1001
ACDBBLOCKREPETAG
1070
     1
1071
       20
1005
12E73F
  0
ARC
  5
12E740
  8
OBJECT
 10
2083.0
 20
-3235.9999999999959
 30
0.0
 40
3.0
 50
0.0
 51
90.0
1001
ACDBBLOCKREPETAG
1070
     1
1071
       21
1005
12E740
  0
LINE
  5
12E741
  8
OBJECT
 10
2080.0
 20
-3356.9999999999959
 30
0.0
 11
2083.0
 21
-3356.9999999999959
 31
0.0
1001
ACDBBLOCKREPETAG
1070
     1
1071
       22
1005
12E741
  0
ARC
  5
12E742
  8
OBJECT
 10
2083.0
 20
-3353.9999999999959
 30
0.0
 40
3.0
 50
270.0
 51
0.0
1001
ACDBBLOCKREPETAG
1070
     1
1071
       23
1005
12E742
  0
LINE
  5
12E743
  8
OBJECT
 10
2086.0
 20
-3353.9999999999959
 30
0.0
 11
2086.0
 21
-3235.9999999999959
 31
0.0
1001
ACDBBLOCKREPETAG
1070
     1
1071
       24
1005
12E743
  0
LINE
  5
12E744
  8
HIDDEN
 10
2088.0
 20
-3264.9999999999968
 30
0.0
 11
2088.0
 21
-3324.9999999999959
 31
0.0
1001
ACDBBLOCKREPETAG
1070
     1
1071
       25
1005
12E744
  0
TEXT
  5
12E745
  8
SLIM
 10
1896.75
 20
-3817.4999999999959
 30
0.0
 40
35.0
  1
通常枝50（1）
 41
0.75
  0
LINE
  5
12E746
  8
SLIM
 10
3914.9999999999941
 20
-759.47385309434696
 30
0.0
 11
3919.47385309434
 21
-754.99999999999955
 31
0.0
1001
ACDBBLOCKREPETAG
1070
     1
1071
        0
1005
0
1001
ACAD
1010
0.0
1020
0.0
1030
0.0
  0
LINE
  5
12E747
  8
SLIM
 10
3914.9999999999941
 20
-777.43436533648503
 30
0.0
 11
3937.434365336479
 21
-754.99999999999955
 31
0.0
1001
ACAD
1010
0.0
1020
0.0
1030
0.0
1001
ACDBBLOCKREPETAG
1070
     1
1071
       14
1005
12E747
  0
LINE
  5
12E748
  8
SLIM
 10
3914.9999999999941
 20
-795.39487757862275
 30
0.0
 11
3955.394877578618
 21
-754.99999999999955
 31
0.0
1001
ACAD
1010
0.0
1020
0.0
1030
0.0
1001
ACDBBLOCKREPETAG
1070
     1
1071
       15
1005
12E748
  0
LINE
  5
12E749
  8
SLIM
 10
3914.9999999999941
 20
-813.35538982076082
 30
0.0
 11
3973.3553898207551
 21
-754.99999999999955
 31
0.0
1001
ACAD
1010
0.0
1020
0.0
1030
0.0
1001
ACDBBLOCKREPETAG
1070
     1
1071
       16
1005
12E749
  0
LINE
  5
12E74A
  8
SLIM
 10
3914.999999999995
 20
-831.31590206289854
 30
0.0
 11
3991.3159020628941
 21
-754.99999999999955
 31
0.0
1001
ACAD
1010
0.0
1020
0.0
1030
0.0
1001
ACDBBLOCKREPETAG
1070
     1
1071
       17
1005
12E74A
  0
LINE
  5
12E74B
  8
SLIM
 10
3914.999999999995
 20
-849.2764143050365
 30
0.0
 11
4009.2764143050308
 21
-754.99999999999955
 31
0.0
1001
ACAD
1010
0.0
1020
0.0
1030
0.0
1001
ACDBBLOCKREPETAG
1070
     1
1071
       18
1005
12E74B
  0
LINE
  5
12E74C
  8
SLIM
 10
3914.999999999995
 20
-867.23692654717422
 30
0.0
 11
4027.2369265471689
 21
-754.99999999999955
 31
0.0
1001
ACAD
1010
0.0
1020
0.0
1030
0.0
1001
ACDBBLOCKREPETAG
1070
     1
1071
       19
1005
12E74C
  0
LINE
  5
12E74D
  8
SLIM
 10
3914.999999999995
 20
-885.1974387893124
 30
0.0
 11
4045.1974387893069
 21
-754.99999999999955
 31
0.0
1001
ACAD
1010
0.0
1020
0.0
1030
0.0
1001
ACDBBLOCKREPETAG
1070
     1
1071
       20
1005
12E74D
  0
LINE
  5
12E74E
  8
SLIM
 10
3914.9999999999968
 20
-903.15795103145035
 30
0.0
 11
4063.157951031445
 21
-754.99999999999955
 31
0.0
1001
ACAD
1010
0.0
1020
0.0
1030
0.0
1001
ACDBBLOCKREPETAG
1070
     1
1071
       21
1005
12E74E
  0
LINE
  5
12E74F
  8
SLIM
 10
3915.1454972543161
 20
-920.97296601926894
 30
0.0
 11
4081.1184632735849
 21
-754.99999999999955
 31
0.0
1001
ACAD
1010
0.0
1020
0.0
1030
0.0
1001
ACDBBLOCKREPETAG
1070
     1
1071
       22
1005
12E74F
  0
LINE
  5
12E750
  8
SLIM
 10
3917.104627495245
 20
-936.97434802047871
 30
0.0
 11
4085.0000000000068
 21
-769.07897551571591
 31
0.0
1001
ACAD
1010
0.0
1020
0.0
1030
0.0
1001
ACDBBLOCKREPETAG
1070
     1
1071
       23
1005
12E750
  0
LINE
  5
12E751
  8
SLIM
 10
3919.0637577361722
 20
-952.9757300216894
 30
0.0
 11
4085.0000000000068
 21
-787.03948775785432
 31
0.0
1001
ACAD
1010
0.0
1020
0.0
1030
0.0
1001
ACDBBLOCKREPETAG
1070
     1
1071
       24
1005
12E751
  0
LINE
  5
12E752
  8
SLIM
 10
3920.0
 20
-969.99999999999966
 30
0.0
 11
4085.0000000000068
 21
-804.99999999999341
 31
0.0
1001
ACAD
1010
0.0
1020
0.0
1030
0.0
1001
ACDBBLOCKREPETAG
1070
     1
1071
       25
1005
12E752
  0
LINE
  5
12E753
  8
SLIM
 10
3920.0
 20
-987.96051224213795
 30
0.0
 11
4085.0000000000059
 21
-822.96051224213215
 31
0.0
1001
ACAD
1010
0.0
1020
0.0
1030
0.0
1001
ACDBBLOCKREPETAG
1070
     1
1071
       26
1005
12E753
  0
LINE
  5
12E754
  8
SLIM
 10
3920.0
 20
-1005.921024484276
 30
0.0
 11
4085.0000000000059
 21
-840.92102448427045
 31
0.0
1001
ACAD
1010
0.0
1020
0.0
1030
0.0
1001
ACDBBLOCKREPETAG
1070
     1
1071
       27
1005
12E754
  0
LINE
  5
12E755
  8
SLIM
 10
3920.0
 20
-1023.881536726414
 30
0.0
 11
4085.000000000005
 21
-858.88153672640954
 31
0.0
1001
ACAD
1010
0.0
1020
0.0
1030
0.0
1001
ACDBBLOCKREPETAG
1070
     1
1071
       28
1005
12E755
  0
LINE
  5
12E756
  8
SLIM
 10
3920.0
 20
-1041.842048968552
 30
0.0
 11
4085.0000000000041
 21
-876.84204896854817
 31
0.0
1001
ACAD
1010
0.0
1020
0.0
1030
0.0
1001
ACDBBLOCKREPETAG
1070
     1
1071
       29
1005
12E756
  0
LINE
  5
12E757
  8
SLIM
 10
3920.0
 20
-1059.802561210691
 30
0.0
 11
4085.0000000000041
 21
-894.80256121068692
 31
0.0
1001
ACAD
1010
0.0
1020
0.0
1030
0.0
1001
ACDBBLOCKREPETAG
1070
     1
1071
       30
1005
12E757
  0
LINE
  5
12E758
  8
SLIM
 10
3920.0
 20
-1077.7630734528291
 30
0.0
 11
4085.0000000000032
 21
-912.76307345282555
 31
0.0
1001
ACAD
1010
0.0
1020
0.0
1030
0.0
1001
ACDBBLOCKREPETAG
1070
     1
1071
       31
1005
12E758
  0
LINE
  5
12E759
  8
SLIM
 10
3930.0
 20
-1085.723585694966
 30
0.0
 11
3930.7235856949678
 21
-1084.9999999999991
 31
0.0
1001
ACAD
1010
0.0
1020
0.0
1030
0.0
1001
ACDBBLOCKREPETAG
1070
     1
1071
       32
1005
12E759
  0
LINE
  5
12E75A
  8
SLIM
 10
3930.7235856949678
 20
-1084.9999999999991
 30
0.0
 11
4083.4738280308079
 21
-932.24975766415935
 31
0.0
1001
ACAD
1010
0.0
1020
0.0
1030
0.0
1001
ACDBBLOCKREPETAG
1070
     1
1071
       33
1005
12E75A
  0
LINE
  5
12E75B
  8
SLIM
 10
3930.0
 20
-1103.6840979371059
 30
0.0
 11
3948.6840979371068
 21
-1084.9999999999991
 31
0.0
1001
ACAD
1010
0.0
1020
0.0
1030
0.0
1001
ACDBBLOCKREPETAG
1070
     1
1071
       34
1005
12E75B
  0
LINE
  5
12E75C
  8
SLIM
 10
3948.6840979371068
 20
-1084.9999999999991
 30
0.0
 11
4080.9680345671368
 21
-952.71606336996854
 31
0.0
1001
ACAD
1010
0.0
1020
0.0
1030
0.0
1001
ACDBBLOCKREPETAG
1070
     1
1071
       35
1005
12E75C
  0
LINE
  5
12E75D
  8
SLIM
 10
3946.6446101792449
 20
-1104.9999999999991
 30
0.0
 11
3966.6446101792449
 21
-1084.9999999999991
 31
0.0
1001
ACAD
1010
0.0
1020
0.0
1030
0.0
1001
ACDBBLOCKREPETAG
1070
     1
1071
       36
1005
12E75D
  0
LINE
  5
12E75E
  8
SLIM
 10
3966.6446101792449
 20
-1084.9999999999991
 30
0.0
 11
4080.0
 21
-971.64461017924452
 31
0.0
1001
ACAD
1010
0.0
1020
0.0
1030
0.0
1001
ACDBBLOCKREPETAG
1070
     1
1071
       37
1005
12E75E
  0
LINE
  5
12E75F
  8
SLIM
 10
3964.6051224213829
 20
-1104.9999999999991
 30
0.0
 11
3984.6051224213829
 21
-1084.9999999999991
 31
0.0
1001
ACAD
1010
0.0
1020
0.0
1030
0.0
1001
ACDBBLOCKREPETAG
1070
     1
1071
       38
1005
12E75F
  0
LINE
  5
12E760
  8
SLIM
 10
3984.6051224213829
 20
-1084.9999999999991
 30
0.0
 11
4080.0
 21
-989.60512242138304
 31
0.0
1001
ACAD
1010
0.0
1020
0.0
1030
0.0
1001
ACDBBLOCKREPETAG
1070
     1
1071
       39
1005
12E760
  0
LINE
  5
12E761
  8
SLIM
 10
3982.565634663521
 20
-1104.9999999999991
 30
0.0
 11
4002.565634663521
 21
-1084.9999999999991
 31
0.0
1001
ACAD
1010
0.0
1020
0.0
1030
0.0
1001
ACDBBLOCKREPETAG
1070
     1
1071
       40
1005
12E761
  0
LINE
  5
12E762
  8
SLIM
 10
4002.565634663521
 20
-1084.9999999999991
 30
0.0
 11
4079.9999999999991
 21
-1007.565634663521
 31
0.0
1001
ACAD
1010
0.0
1020
0.0
1030
0.0
1001
ACDBBLOCKREPETAG
1070
     1
1071
       41
1005
12E762
  0
LINE
  5
12E763
  8
SLIM
 10
4000.5261469056568
 20
-1104.9999999999991
 30
0.0
 11
4020.52614690566
 21
-1084.9999999999991
 31
0.0
1001
ACAD
1010
0.0
1020
0.0
1030
0.0
1001
ACDBBLOCKREPETAG
1070
     1
1071
       42
1005
12E763
  0
LINE
  5
12E764
  8
SLIM
 10
4020.52614690566
 20
-1084.9999999999991
 30
0.0
 11
4079.9999999999991
 21
-1025.52614690566
 31
0.0
1001
ACAD
1010
0.0
1020
0.0
1030
0.0
1001
ACDBBLOCKREPETAG
1070
     1
1071
       43
1005
12E764
  0
LINE
  5
12E765
  8
SLIM
 10
4018.486659147798
 20
-1104.9999999999991
 30
0.0
 11
4038.486659147798
 21
-1084.9999999999991
 31
0.0
1001
ACAD
1010
0.0
1020
0.0
1030
0.0
1001
ACDBBLOCKREPETAG
1070
     1
1071
       44
1005
12E765
  0
LINE
  5
12E766
  8
SLIM
 10
4038.486659147798
 20
-1084.9999999999991
 30
0.0
 11
4079.9999999999991
 21
-1043.4866591477989
 31
0.0
1001
ACAD
1010
0.0
1020
0.0
1030
0.0
1001
ACDBBLOCKREPETAG
1070
     1
1071
       45
1005
12E766
  0
LINE
  5
12E767
  8
SLIM
 10
4036.4471713899361
 20
-1104.9999999999991
 30
0.0
 11
4056.4471713899361
 21
-1084.9999999999991
 31
0.0
1001
ACAD
1010
0.0
1020
0.0
1030
0.0
1001
ACDBBLOCKREPETAG
1070
     1
1071
       46
1005
12E767
  0
LINE
  5
12E768
  8
SLIM
 10
4056.4471713899361
 20
-1084.9999999999991
 30
0.0
 11
4079.9999999999991
 21
-1061.447171389937
 31
0.0
1001
ACAD
1010
0.0
1020
0.0
1030
0.0
1001
ACDBBLOCKREPETAG
1070
     1
1071
       47
1005
12E768
  0
LINE
  5
12E769
  8
SLIM
 10
4054.4076836320728
 20
-1104.9999999999991
 30
0.0
 11
4070.0
 21
-1089.4076836320739
 31
0.0
1001
ACAD
1010
0.0
1020
0.0
1030
0.0
1001
ACDBBLOCKREPETAG
1070
     1
1071
       48
1005
12E769
  0
LINE
  5
12E76A
  8
SLIM
 10
4074.4076836320728
 20
-1084.9999999999991
 30
0.0
 11
4079.9999999999991
 21
-1079.407683632076
 31
0.0
1001
ACAD
1010
0.0
1020
0.0
1030
0.0
1001
ACDBBLOCKREPETAG
1070
     1
1071
       49
1005
12E76A
  0
LINE
  5
12E76B
  8
OBJECT
 10
3914.9999999999941
 20
-754.99999999999955
 30
0.0
 11
3914.9999999999968
 21
-919.78460339903484
 31
0.0
1001
ACDBBLOCKREPETAG
1070
     1
1071
        1
1005
12E76B
  0
LINE
  5
12E76C
  8
OBJECT
 10
4085.0000000000068
 20
-754.99999999999955
 30
0.0
 11
4085.0000000000032
 21
-919.78460339904154
 31
0.0
1001
ACDBBLOCKREPETAG
1070
     1
1071
        2
1005
12E76C
  0
LINE
  5
12E76D
  8
OBJECT
 10
4085.0000000000068
 20
-754.99999999999955
 30
0.0
 11
3914.9999999999941
 21
-754.99999999999955
 31
0.0
1001
ACDBBLOCKREPETAG
1070
     1
1071
        3
1005
12E76D
  0
LINE
  5
12E76E
  8
OBJECT
 10
4079.9999999999991
 20
-1084.9999999999991
 30
0.0
 11
3920.0
 21
-1084.9999999999991
 31
0.0
1001
ACDBBLOCKREPETAG
1070
     1
1071
        4
1005
12E76E
  0
LINE
  5
12E76F
  8
OBJECT
 10
3914.9999999999968
 20
-919.78460339903484
 30
0.0
 11
3920.0
 21
-960.62257748298634
 31
0.0
1001
ACDBBLOCKREPETAG
1070
     1
1071
        6
1005
12E76F
  0
LINE
  5
12E770
  8
OBJECT
 10
3920.0
 20
-960.62257748298634
 30
0.0
 11
3920.0
 21
-1084.9999999999991
 31
0.0
1001
ACDBBLOCKREPETAG
1070
     1
1071
        7
1005
12E770
  0
LINE
  5
12E771
  8
OBJECT
 10
4085.0000000000032
 20
-919.78460339904154
 30
0.0
 11
4080.0
 21
-960.62257748298634
 31
0.0
1001
ACDBBLOCKREPETAG
1070
     1
1071
        8
1005
12E771
  0
LINE
  5
12E772
  8
OBJECT
 10
4080.0
 20
-960.62257748298634
 30
0.0
 11
4079.9999999999991
 21
-1084.9999999999991
 31
0.0
1001
ACDBBLOCKREPETAG
1070
     1
1071
        9
1005
12E772
  0
LINE
  5
12E773
  8
OBJECT
 10
3930.0
 20
-1084.9999999999991
 30
0.0
 11
3930.0
 21
-1104.9999999999991
 31
0.0
1001
ACDBBLOCKREPETAG
1070
     1
1071
       10
1005
12E773
  0
LINE
  5
12E774
  8
OBJECT
 10
3930.0
 20
-1104.9999999999991
 30
0.0
 11
4070.0
 21
-1104.9999999999991
 31
0.0
1001
ACDBBLOCKREPETAG
1070
     1
1071
       11
1005
12E774
  0
LINE
  5
12E775
  8
OBJECT
 10
4070.0
 20
-1104.9999999999991
 30
0.0
 11
4070.0
 21
-1084.9999999999991
 31
0.0
1001
ACDBBLOCKREPETAG
1070
     1
1071
       12
1005
12E775
  0
LINE
  5
12E776
  8
OBJECT
 10
3923.0
 20
-570.99999999999955
 30
0.0
 11
3923.0
 21
-549.99999999999955
 31
0.0
1001
ACDBBLOCKREPETAG
1070
     1
1071
       38
1005
12E776
  0
LINE
  5
12E777
  8
OBJECT
 10
3923.0
 20
-549.99999999999955
 30
0.0
 11
4077.0
 21
-549.99999999999955
 31
0.0
1001
ACDBBLOCKREPETAG
1070
     1
1071
       39
1005
12E777
  0
LINE
  5
12E778
  8
HIDDEN
 10
3943.0
 20
-619.99999999999955
 30
0.0
 11
4057.0
 21
-619.99999999999955
 31
0.0
1001
ACDBBLOCKREPETAG
1070
     1
1071
       40
1005
12E778
  0
LINE
  5
12E779
  8
OBJECT
 10
4077.0
 20
-549.99999999999955
 30
0.0
 11
4077.0
 21
-570.99999999999955
 31
0.0
1001
ACDBBLOCKREPETAG
1070
     1
1071
       41
1005
12E779
  0
LINE
  5
12E77A
  8
OBJECT
 10
4077.0
 20
-570.99999999999955
 30
0.0
 11
3923.0
 21
-570.99999999999955
 31
0.0
1001
ACDBBLOCKREPETAG
1070
     1
1071
       42
1005
12E77A
  0
LINE
  5
12E77B
  8
CENTER
 10
4000.0
 20
-534.99999999999955
 30
0.0
 11
4000.0
 21
-889.99999999999955
 31
0.0
1001
ACDBBLOCKREPETAG
1070
     1
1071
       43
1005
12E77B
  0
LINE
  5
12E77C
  8
OBJECT
 10
3928.0
 20
-570.99999999999955
 30
0.0
 11
3928.0
 21
-633.99999999999955
 31
0.0
1001
ACDBBLOCKREPETAG
1070
     1
1071
       44
1005
12E77C
  0
LINE
  5
12E77D
  8
OBJECT
 10
4072.0
 20
-633.99999999999955
 30
0.0
 11
4072.0
 21
-570.99999999999955
 31
0.0
1001
ACDBBLOCKREPETAG
1070
     1
1071
       45
1005
12E77D
  0
LINE
  5
12E77E
  8
OBJECT
 10
3920.0
 20
-877.99999999999955
 30
0.0
 11
4080.0
 21
-877.99999999999955
 31
0.0
1001
ACDBBLOCKREPETAG
1070
     1
1071
       46
1005
12E77E
  0
LINE
  5
12E77F
  8
OBJECT
 10
4080.0
 20
-633.99999999999955
 30
0.0
 11
3920.0
 21
-633.99999999999955
 31
0.0
1001
ACDBBLOCKREPETAG
1070
     1
1071
       47
1005
12E77F
  0
LINE
  5
12E780
  8
OBJECT
 10
3920.0
 20
-877.99999999999955
 30
0.0
 11
3920.0
 21
-889.99999999999955
 31
0.0
1001
ACDBBLOCKREPETAG
1070
     1
1071
       48
1005
12E780
  0
LINE
  5
12E781
  8
OBJECT
 10
3920.0
 20
-889.99999999999955
 30
0.0
 11
4080.0
 21
-889.99999999999955
 31
0.0
1001
ACDBBLOCKREPETAG
1070
     1
1071
       49
1005
12E781
  0
LINE
  5
12E782
  8
OBJECT
 10
4080.0
 20
-889.99999999999955
 30
0.0
 11
4080.0
 21
-877.99999999999955
 31
0.0
1001
ACDBBLOCKREPETAG
1070
     1
1071
       50
1005
12E782
  0
LINE
  5
12E783
  8
OBJECT
 10
4074.9999999998631
 20
-757.99999999985005
 30
0.0
 11
4075.0
 21
-877.99999999999955
 31
0.0
1001
ACDBBLOCKREPETAG
1070
     1
1071
       54
1005
12E783
  0
LINE
  5
12E784
  8
OBJECT
 10
4074.9999908029849
 20
-757.99998602702112
 30
0.0
 11
4080.0
 21
-757.99998602702112
 31
0.0
1001
ACDBBLOCKREPETAG
1070
     1
1071
       55
1005
12E784
  0
LINE
  5
12E785
  8
OBJECT
 10
3925.0000000001392
 20
-757.99999999985005
 30
0.0
 11
3925.0
 21
-877.99999999999955
 31
0.0
1001
ACDBBLOCKREPETAG
1070
     1
1071
       56
1005
12E785
  0
LINE
  5
12E786
  8
OBJECT
 10
3925.0000091970151
 20
-757.99998602702112
 30
0.0
 11
3920.0
 21
-757.99998602702112
 31
0.0
1001
ACDBBLOCKREPETAG
1070
     1
1071
       57
1005
12E786
  0
ARC
  5
12E787
  8
OBJECT
 10
4200.6872746716726
 20
-749.40809941010718
 30
0.0
 40
170.6350503965856
 50
137.44134459184301
 51
149.91949581337221
1001
ACDBBLOCKREPETAG
1070
     1
1071
       58
1005
12E787
  0
ARC
  5
12E788
  8
OBJECT
 10
4200.6872746716726
 20
-642.59190058989179
 30
0.0
 40
170.6350503965856
 50
210.08050418662771
 51
222.55865540815699
1001
ACDBBLOCKREPETAG
1070
     1
1071
       59
1005
12E788
  0
ARC
  5
12E789
  8
OBJECT
 10
3799.3127253283278
 20
-749.40809941010718
 30
0.0
 40
170.6350503965856
 50
30.080504186774089
 51
42.558655408382627
1001
ACDBBLOCKREPETAG
1070
     1
1071
       60
1005
12E789
  0
ARC
  5
12E78A
  8
OBJECT
 10
3799.3127253283278
 20
-642.59190058989179
 30
0.0
 40
170.6350503965856
 50
317.44134459161722
 51
329.91949581322592
1001
ACDBBLOCKREPETAG
1070
     1
1071
       61
1005
12E78A
  0
POINT
  5
12E78B
  8
DOTS
 10
4000.0
 20
-754.99999999999955
 30
0.0
1001
ACDBBLOCKREPETAG
1070
     1
1071
      185
1005
12E78B
  0
LINE
  5
12E78C
  8
OBJECT
 10
1923.0
 20
-570.99999999999955
 30
0.0
 11
1923.0
 21
-549.99999999999955
 31
0.0
1001
ACDBBLOCKREPETAG
1070
     1
1071
       38
1005
12E78C
  0
LINE
  5
12E78D
  8
OBJECT
 10
1923.0
 20
-549.99999999999955
 30
0.0
 11
2077.0
 21
-549.99999999999955
 31
0.0
1001
ACDBBLOCKREPETAG
1070
     1
1071
       39
1005
12E78D
  0
LINE
  5
12E78E
  8
HIDDEN
 10
1943.0
 20
-619.99999999999955
 30
0.0
 11
2057.0
 21
-619.99999999999955
 31
0.0
1001
ACDBBLOCKREPETAG
1070
     1
1071
       40
1005
12E78E
  0
LINE
  5
12E78F
  8
OBJECT
 10
2077.0
 20
-549.99999999999955
 30
0.0
 11
2077.0
 21
-570.99999999999955
 31
0.0
1001
ACDBBLOCKREPETAG
1070
     1
1071
       41
1005
12E78F
  0
LINE
  5
12E790
  8
OBJECT
 10
2077.0
 20
-570.99999999999955
 30
0.0
 11
1923.0
 21
-570.99999999999955
 31
0.0
1001
ACDBBLOCKREPETAG
1070
     1
1071
       42
1005
12E790
  0
LINE
  5
12E791
  8
CENTER
 10
2000.0
 20
-534.99999999999955
 30
0.0
 11
2000.0
 21
-889.99999999999955
 31
0.0
1001
ACDBBLOCKREPETAG
1070
     1
1071
       43
1005
12E791
  0
LINE
  5
12E792
  8
OBJECT
 10
1928.0
 20
-570.99999999999955
 30
0.0
 11
1928.0
 21
-633.99999999999955
 31
0.0
1001
ACDBBLOCKREPETAG
1070
     1
1071
       44
1005
12E792
  0
LINE
  5
12E793
  8
OBJECT
 10
2072.0
 20
-633.99999999999955
 30
0.0
 11
2072.0
 21
-570.99999999999955
 31
0.0
1001
ACDBBLOCKREPETAG
1070
     1
1071
       45
1005
12E793
  0
LINE
  5
12E794
  8
OBJECT
 10
1920.0
 20
-877.99999999999955
 30
0.0
 11
2080.0
 21
-877.99999999999955
 31
0.0
1001
ACDBBLOCKREPETAG
1070
     1
1071
       46
1005
12E794
  0
LINE
  5
12E795
  8
OBJECT
 10
2080.0
 20
-633.99999999999955
 30
0.0
 11
1920.0
 21
-633.99999999999955
 31
0.0
1001
ACDBBLOCKREPETAG
1070
     1
1071
       47
1005
12E795
  0
LINE
  5
12E796
  8
OBJECT
 10
1920.0
 20
-877.99999999999955
 30
0.0
 11
1920.0
 21
-889.99999999999955
 31
0.0
1001
ACDBBLOCKREPETAG
1070
     1
1071
       48
1005
12E796
  0
LINE
  5
12E797
  8
OBJECT
 10
1920.0
 20
-889.99999999999955
 30
0.0
 11
2080.0
 21
-889.99999999999955
 31
0.0
1001
ACDBBLOCKREPETAG
1070
     1
1071
       49
1005
12E797
  0
LINE
  5
12E798
  8
OBJECT
 10
2080.0
 20
-889.99999999999955
 30
0.0
 11
2080.0
 21
-877.99999999999955
 31
0.0
1001
ACDBBLOCKREPETAG
1070
     1
1071
       50
1005
12E798
  0
LINE
  5
12E799
  8
OBJECT
 10
2074.9999999998622
 20
-757.99999999985005
 30
0.0
 11
2075.0
 21
-877.99999999999955
 31
0.0
1001
ACDBBLOCKREPETAG
1070
     1
1071
       54
1005
12E799
  0
LINE
  5
12E79A
  8
OBJECT
 10
2074.9999908029849
 20
-757.99998602702112
 30
0.0
 11
2080.0
 21
-757.99998602702112
 31
0.0
1001
ACDBBLOCKREPETAG
1070
     1
1071
       55
1005
12E79A
  0
LINE
  5
12E79B
  8
OBJECT
 10
1925.000000000138
 20
-757.99999999985005
 30
0.0
 11
1925.0
 21
-877.99999999999955
 31
0.0
1001
ACDBBLOCKREPETAG
1070
     1
1071
       56
1005
12E79B
  0
LINE
  5
12E79C
  8
OBJECT
 10
1925.000009197013
 20
-757.99998602702112
 30
0.0
 11
1920.0
 21
-757.99998602702112
 31
0.0
1001
ACDBBLOCKREPETAG
1070
     1
1071
       57
1005
12E79C
  0
ARC
  5
12E79D
  8
OBJECT
 10
2200.6872746716731
 20
-749.40809941010718
 30
0.0
 40
170.6350503965856
 50
137.44134459184301
 51
149.91949581336559
1001
ACDBBLOCKREPETAG
1070
     1
1071
       58
1005
12E79D
  0
ARC
  5
12E79E
  8
OBJECT
 10
2200.6872746716731
 20
-642.59190058989179
 30
0.0
 40
170.6350503965856
 50
210.0805041866343
 51
222.55865540815699
1001
ACDBBLOCKREPETAG
1070
     1
1071
       59
1005
12E79E
  0
ARC
  5
12E79F
  8
OBJECT
 10
1799.312725328326
 20
-749.40809941010718
 30
0.0
 40
170.6350503965856
 50
30.080504186774089
 51
42.558655408382627
1001
ACDBBLOCKREPETAG
1070
     1
1071
       60
1005
12E79F
  0
ARC
  5
12E7A0
  8
OBJECT
 10
1799.312725328326
 20
-642.59190058989179
 30
0.0
 40
170.6350503965856
 50
317.44134459161722
 51
329.91949581322592
1001
ACDBBLOCKREPETAG
1070
     1
1071
       61
1005
12E7A0
  0
POINT
  5
12E7A1
  8
DOTS
 10
2000.0
 20
-754.99999999999955
 30
0.0
1001
ACDBBLOCKREPETAG
1070
     1
1071
      185
1005
12E7A1
  0
LINE
  5
12E7A2
  8
OBJECT
 10
3930.0
 20
-1199.999999999997
 30
0.0
 11
4070.0
 21
-1199.999999999997
 31
0.0
1001
ACDBBLOCKREPETAG
1070
     1
1071
        0
1005
12E7A2
  0
LINE
  5
12E7A3
  8
OBJECT
 10
3930.0
 20
-1199.999999999997
 30
0.0
 11
3930.0
 21
-959.9999999999967
 31
0.0
1001
ACDBBLOCKREPETAG
1070
     1
1071
        1
1005
12E7A3
  0
LINE
  5
12E7A4
  8
OBJECT
 10
4070.0
 20
-1199.999999999997
 30
0.0
 11
4070.0
 21
-959.9999999999967
 31
0.0
1001
ACDBBLOCKREPETAG
1070
     1
1071
        2
1005
12E7A4
  0
LINE
  5
12E7A5
  8
OBJECT
 10
3930.0
 20
-959.9999999999967
 30
0.0
 11
4070.0
 21
-959.9999999999967
 31
0.0
1001
ACDBBLOCKREPETAG
1070
     1
1071
        3
1005
12E7A5
  0
LINE
  5
12E7A6
  8
HIDDEN
 10
3937.5
 20
-959.9999999999967
 30
0.0
 11
3937.5
 21
-1199.999999999997
 31
0.0
1001
ACDBBLOCKREPETAG
1070
     1
1071
        4
1005
12E7A6
  0
LINE
  5
12E7A7
  8
HIDDEN
 10
4062.5
 20
-959.9999999999967
 30
0.0
 11
4062.5
 21
-1199.999999999997
 31
0.0
1001
ACDBBLOCKREPETAG
1070
     1
1071
        5
1005
12E7A7
  0
LINE
  5
12E7A8
  8
CENTER
 10
4000.0
 20
-889.99999999999875
 30
0.0
 11
4000.0
 21
-1214.999999999997
 31
0.0
1001
ACDBBLOCKREPETAG
1070
     1
1071
        6
1005
12E7A8
  0
LINE
  5
12E7A9
  8
OBJECT
 10
3925.0
 20
-889.99999999999875
 30
0.0
 11
3925.0
 21
-919.99999999999693
 31
0.0
1001
ACDBBLOCKREPETAG
1070
     1
1071
        7
1005
12E7A9
  0
LINE
  5
12E7AA
  8
OBJECT
 10
4075.0000000000032
 20
-889.99999999999875
 30
0.0
 11
4075.0
 21
-919.99999999999693
 31
0.0
1001
ACDBBLOCKREPETAG
1070
     1
1071
        8
1005
12E7AA
  0
LINE
  5
12E7AB
  8
OBJECT
 10
3925.0
 20
-919.99999999999693
 30
0.0
 11
4075.0
 21
-919.99999999999693
 31
0.0
1001
ACDBBLOCKREPETAG
1070
     1
1071
        9
1005
12E7AB
  0
LINE
  5
12E7AC
  8
OBJECT
 10
3925.0
 20
-919.99999999999693
 30
0.0
 11
3930.0
 21
-959.9999999999967
 31
0.0
1001
ACDBBLOCKREPETAG
1070
     1
1071
       10
1005
12E7AC
  0
LINE
  5
12E7AD
  8
OBJECT
 10
4070.0
 20
-959.9999999999967
 30
0.0
 11
4075.0
 21
-919.99999999999693
 31
0.0
1001
ACDBBLOCKREPETAG
1070
     1
1071
       11
1005
12E7AD
  0
LINE
  5
12E7AE
  8
OBJECT
 10
1930.0
 20
-1199.999999999997
 30
0.0
 11
2070.0
 21
-1199.999999999997
 31
0.0
1001
ACDBBLOCKREPETAG
1070
     1
1071
        0
1005
12E7AE
  0
LINE
  5
12E7AF
  8
OBJECT
 10
1930.0
 20
-1199.999999999997
 30
0.0
 11
1930.0
 21
-959.99999999999784
 31
0.0
1001
ACDBBLOCKREPETAG
1070
     1
1071
        1
1005
12E7AF
  0
LINE
  5
12E7B0
  8
OBJECT
 10
2070.0
 20
-1199.999999999997
 30
0.0
 11
2070.0
 21
-959.99999999999784
 31
0.0
1001
ACDBBLOCKREPETAG
1070
     1
1071
        2
1005
12E7B0
  0
LINE
  5
12E7B1
  8
OBJECT
 10
1930.0
 20
-959.99999999999784
 30
0.0
 11
2070.0
 21
-959.99999999999784
 31
0.0
1001
ACDBBLOCKREPETAG
1070
     1
1071
        3
1005
12E7B1
  0
LINE
  5
12E7B2
  8
HIDDEN
 10
1937.5
 20
-959.99999999999784
 30
0.0
 11
1937.5
 21
-1199.999999999997
 31
0.0
1001
ACDBBLOCKREPETAG
1070
     1
1071
        4
1005
12E7B2
  0
LINE
  5
12E7B3
  8
HIDDEN
 10
2062.5
 20
-959.99999999999784
 30
0.0
 11
2062.5
 21
-1199.999999999997
 31
0.0
1001
ACDBBLOCKREPETAG
1070
     1
1071
        5
1005
12E7B3
  0
LINE
  5
12E7B4
  8
CENTER
 10
2000.0
 20
-889.99999999999955
 30
0.0
 11
2000.0
 21
-1214.999999999998
 31
0.0
1001
ACDBBLOCKREPETAG
1070
     1
1071
        6
1005
12E7B4
  0
LINE
  5
12E7B5
  8
OBJECT
 10
1925.0
 20
-889.99999999999955
 30
0.0
 11
1925.0
 21
-919.99999999999761
 31
0.0
1001
ACDBBLOCKREPETAG
1070
     1
1071
        7
1005
12E7B5
  0
LINE
  5
12E7B6
  8
OBJECT
 10
2075.0000000000041
 20
-889.99999999999955
 30
0.0
 11
2075.0
 21
-919.99999999999761
 31
0.0
1001
ACDBBLOCKREPETAG
1070
     1
1071
        8
1005
12E7B6
  0
LINE
  5
12E7B7
  8
OBJECT
 10
1925.0
 20
-919.99999999999761
 30
0.0
 11
2075.0
 21
-919.99999999999761
 31
0.0
1001
ACDBBLOCKREPETAG
1070
     1
1071
        9
1005
12E7B7
  0
LINE
  5
12E7B8
  8
OBJECT
 10
1925.0
 20
-919.99999999999761
 30
0.0
 11
1930.0
 21
-959.99999999999784
 31
0.0
1001
ACDBBLOCKREPETAG
1070
     1
1071
       10
1005
12E7B8
  0
LINE
  5
12E7B9
  8
OBJECT
 10
2070.0
 20
-959.99999999999784
 30
0.0
 11
2075.0
 21
-919.99999999999761
 31
0.0
1001
ACDBBLOCKREPETAG
1070
     1
1071
       11
1005
12E7B9
  0
TEXT
  5
12E7BA
  8
SLIM
 10
3824.5999999999999
 20
-1528.999999999997
 30
0.0
 40
28.0
  1
※ 対応スラブ厚　180～320
 41
0.75
  0
TEXT
  5
12E7BB
  8
SLIM
 10
3611.5
 20
-1622.3333333333301
 30
0.0
 40
28.0
  1
国土交通大臣認定・（財）日本消防設備安全センター性能評定取得品
 41
0.75
  0
TEXT
  5
12E7BC
  8
SLIM
 10
3631.1000000000022
 20
-1668.999999999997
 30
0.0
 40
28.0
  1
注）ご採用にあたり、認定書及び評定書の内容をご確認ください。
 41
0.75
  0
TEXT
  5
12E7BD
  8
SLIM
 10
3741.6250000000009
 20
-1467.499999999997
 30
0.0
 40
35.0
  1
片受けスタイル（S）＋シンドカット
 41
0.75
  0
TEXT
  5
12E7BE
  8
SLIM
 10
1856.25
 20
-1467.499999999998
 30
0.0
 40
35.0
  1
片受けスタイル（S）
 41
0.75
  0
TEXT
  5
131CC4
  8
SLIM
 10
1850.0
 20
532.5
 30
0.0
 40
75.0
  1
側面図の代表機種
 41
0.75
  0
VIEWPORT
  5
F6BA7
 67
     1
  8
0
 10
145.33033752441401
 20
101.8328354358673
 30
0.0
 40
334.0025019414623
 41
222.19657968139651
 68
     1
 69
     1
1001
ACAD
1000
MVIEW
1002
{
1070
    16
1010
0.0
1020
0.0
1030
0.0
1010
0.0
1020
0.0
1030
1.0
1040
0.0
1040
222.19657968139651
1040
145.33033752441401
1040
101.8328354358673
1040
50.0
1040
0.0
1040
0.0
1070
     0
1070
     0
1070
     1
1070
     1
1070
     0
1070
     0
1070
     0
1070
     0
1040
0.0
1040
0.0
1040
0.0
1040
10.0
1040
10.0
1040
10.0
1040
10.0
1070
     0
1002
{
1002
}
1002
}
  0
VIEWPORT
  5
F6BA9
 67
     1
  8
OBJECT
 10
145.3303314447403
 20
101.8328338861465
 30
0.0
 40
232.5285303115844
 41
162.93253421783439
 68
     2
 69
     2
1001
ACAD
1000
MVIEW
1002
{
1070
    16
1010
0.0
1020
0.0
1030
0.0
1010
0.0
1020
0.0
1030
1.0
1040
0.0
1040
25942.55904403147
1040
2377.604457077377
1040
-7591.5176687056619
1040
50.0
1040
0.0
1040
0.0
1070
     0
1070
   600
1070
     1
1070
     1
1070
     0
1070
     0
1070
     0
1070
     0
1040
0.0
1040
0.0
1040
0.0
1040
1.0
1040
1.0
1040
0.0
1040
0.0
1070
     0
1002
{
1002
}
1002
}
  0
ENDSEC
  0
EOF
