  0
SECTION
  2
HEADER
  9
$ACADVER
  1
AC1009
  9
$INSBASE
 10
0.0
 20
0.0
 30
0.0
  9
$EXTMIN
 10
0.0
 20
-3817.4999999999959
 30
0.0
  9
$EXTMAX
 10
5575.0
 20
607.5
 30
0.0
  9
$LIMMIN
 10
0.0
 20
0.0
  9
$LIMMAX
 10
210.0
 20
297.0
  9
$ORTHOMODE
 70
     0
  9
$REGENMODE
 70
     1
  9
$FILLMODE
 70
     1
  9
$QTEXTMODE
 70
     0
  9
$MIRRTEXT
 70
     0
  9
$DRAGMODE
 70
     2
  9
$LTSCALE
 40
1.0
  9
$OSMODE
 70
   125
  9
$ATTMODE
 70
     1
  9
$TEXTSIZE
 40
4.0
  9
$TRACEWID
 40
0.05
  9
$TEXTSTYLE
  7
STANDARD
  9
$CLAYER
  8
OBJECT
  9
$CELTYPE
  6
BYLAYER
  9
$CECOLOR
 62
   256
  9
$DIMSCALE
 40
10.0
  9
$DIMASZ
 40
2.0
  9
$DIMEXO
 40
1.0
  9
$DIMDLI
 40
10.0
  9
$DIMRND
 40
0.0
  9
$DIMDLE
 40
0.0
  9
$DIMEXE
 40
1.0
  9
$DIMTP
 40
0.0
  9
$DIMTM
 40
0.0
  9
$DIMTXT
 40
3.2000000000000002
  9
$DIMCEN
 40
0.0
  9
$DIMTSZ
 40
0.0
  9
$DIMTOL
 70
     0
  9
$DIMLIM
 70
     0
  9
$DIMTIH
 70
     0
  9
$DIMTOH
 70
     0
  9
$DIMSE1
 70
     0
  9
$DIMSE2
 70
     0
  9
$DIMTAD
 70
     1
  9
$DIMZIN
 70
     8
  9
$DIMBLK
  1
OPEN30
  9
$DIMASO
 70
     1
  9
$DIMSHO
 70
     1
  9
$DIMPOST
  1

  9
$DIMAPOST
  1

  9
$DIMALT
 70
     0
  9
$DIMALTD
 70
     2
  9
$DIMALTF
 40
25.399999999999999
  9
$DIMLFAC
 40
1.0
  9
$DIMTOFL
 70
     1
  9
$DIMTVP
 40
0.0
  9
$DIMTIX
 70
     0
  9
$DIMSOXD
 70
     0
  9
$DIMSAH
 70
     0
  9
$DIMBLK1
  1

  9
$DIMBLK2
  1

  9
$DIMSTYLE
  2
S10
  9
$DIMCLRD
 70
   256
  9
$DIMCLRE
 70
   256
  9
$DIMCLRT
 70
   256
  9
$DIMTFAC
 40
1.0
  9
$DIMGAP
 40
0.9
  9
$LUNITS
 70
     2
  9
$LUPREC
 70
     2
  9
$SKETCHINC
 40
0.1
  9
$FILLETRAD
 40
0.0
  9
$AUNITS
 70
     0
  9
$AUPREC
 70
     2
  9
$MENU
  1
ACAD
  9
$ELEVATION
 40
0.0
  9
$PELEVATION
 40
0.0
  9
$THICKNESS
 40
0.0
  9
$LIMCHECK
 70
     0
  9
$BLIPMODE
 70
     0
  9
$CHAMFERA
 40
2.0
  9
$CHAMFERB
 40
2.0
  9
$SKPOLY
 70
     0
  9
$TDCREATE
 40
2453095.4929404748
  9
$TDUPDATE
 40
2456727.6955405562
  9
$TDINDWG
 40
18.358020740699999
  9
$TDUSRTIMER
 40
18.358019930600001
  9
$USRTIMER
 70
     1
  9
$ANGBASE
 50
0.0
  9
$ANGDIR
 70
     0
  9
$PDMODE
 70
    35
  9
$PDSIZE
 40
2.0
  9
$PLINEWID
 40
0.0
  9
$COORDS
 70
     1
  9
$SPLFRAME
 70
     0
  9
$SPLINETYPE
 70
     6
  9
$SPLINESEGS
 70
     8
  9
$ATTDIA
 70
     1
  9
$ATTREQ
 70
     1
  9
$HANDLING
 70
     1
  9
$HANDSEED
  5
131373
  9
$SURFTAB1
 70
     6
  9
$SURFTAB2
 70
     6
  9
$SURFTYPE
 70
     6
  9
$SURFU
 70
     6
  9
$SURFV
 70
     6
  9
$UCSNAME
  2

  9
$UCSORG
 10
0.0
 20
0.0
 30
0.0
  9
$UCSXDIR
 10
1.0
 20
0.0
 30
0.0
  9
$UCSYDIR
 10
0.0
 20
1.0
 30
0.0
  9
$PUCSNAME
  2

  9
$PUCSORG
 10
0.0
 20
0.0
 30
0.0
  9
$PUCSXDIR
 10
1.0
 20
0.0
 30
0.0
  9
$PUCSYDIR
 10
0.0
 20
1.0
 30
0.0
  9
$USERI1
 70
     0
  9
$USERI2
 70
     0
  9
$USERI3
 70
     0
  9
$USERI4
 70
     0
  9
$USERI5
 70
     0
  9
$USERR1
 40
0.0
  9
$USERR2
 40
0.0
  9
$USERR3
 40
0.0
  9
$USERR4
 40
0.0
  9
$USERR5
 40
0.0
  9
$WORLDVIEW
 70
     1
  9
$SHADEDGE
 70
     3
  9
$SHADEDIF
 70
    70
  9
$TILEMODE
 70
     1
  9
$MAXACTVP
 70
    64
  9
$PLIMCHECK
 70
     0
  9
$PEXTMIN
 10
29.066066288948051
 20
20.366566777229309
 30
0.0
  9
$PEXTMAX
 10
261.5945966005325
 20
183.29910099506381
 30
0.0
  9
$PLIMMIN
 10
-3.17498779296875
 20
-3.1749999523162842
  9
$PLIMMAX
 10
293.83566284179687
 20
206.8406708240509
  9
$UNITMODE
 70
     0
  9
$VISRETAIN
 70
     1
  9
$PLINEGEN
 70
     0
  9
$PSLTSCALE
 70
     1
  0
ENDSEC
  0
SECTION
  2
TABLES
  0
TABLE
  2
VPORT
 70
     1
  0
VPORT
  2
*ACTIVE
 70
     0
 10
0.0
 20
0.0
 11
1.0
 21
1.0
 12
3921.440275380352
 22
-1881.591048678707
 13
0.0
 23
0.0
 14
1.0
 24
1.0
 15
0.0
 25
0.0
 16
0.0
 26
0.0
 36
1.0
 17
0.0
 27
0.0
 37
0.0
 40
7456.5125852040474
 41
1.628705148205928
 42
50.0
 43
0.0
 44
0.0
 50
0.0
 51
0.0
 71
     0
 72
   600
 73
     1
 74
     1
 75
     0
 76
     0
 77
     0
 78
     0
  0
ENDTAB
  0
TABLE
  2
LTYPE
 70
     4
  0
LTYPE
  2
CONTINUOUS
 70
     0
  3
Solid line
 72
    65
 73
     0
 40
0.0
  0
LTYPE
  2
ACAD_ISO08W100
 70
     0
  3
ISO long-dash short-dash ____ __ ____ __ ____ _
 72
    65
 73
     4
 40
36.0
 49
24.0
 49
-3.0
 49
6.0
 49
-3.0
  0
LTYPE
  2
ACAD_ISO02W100
 70
     0
  3
ISO dash __ __ __ __ __ __ __ __ __ __ __ __ __
 72
    65
 73
     2
 40
15.0
 49
12.0
 49
-3.0
  0
ENDTAB
  0
TABLE
  2
LAYER
 70
     8
  0
LAYER
  2
0
 70
     0
 62
     7
  6
CONTINUOUS
  0
LAYER
  2
OBJECT
 70
     0
 62
     4
  6
CONTINUOUS
  0
LAYER
  2
DEFPOINTS
 70
     0
 62
     7
  6
CONTINUOUS
  0
LAYER
  2
DIM
 70
     0
 62
     7
  6
CONTINUOUS
  0
LAYER
  2
HIDDEN
 70
     0
 62
     2
  6
ACAD_ISO02W100
  0
LAYER
  2
CENTER
 70
     0
 62
     2
  6
ACAD_ISO08W100
  0
LAYER
  2
DOTS
 70
     0
 62
     1
  6
CONTINUOUS
  0
LAYER
  2
SLIM
 70
     0
 62
     2
  6
CONTINUOUS
  0
ENDTAB
  0
TABLE
  2
STYLE
 70
     2
  0
STYLE
  2
STANDARD
 70
     0
 40
0.0
 41
0.75
 50
0.0
 71
     0
 42
4.0
  3
simplex.shx
  4
bigfont.shx
  0
ENDTAB
  0
TABLE
  2
VIEW
 70
     0
  0
ENDTAB
  0
TABLE
  2
UCS
 70
     0
  0
ENDTAB
  0
TABLE
  2
APPID
 70
    18
  0
APPID
  2
ACAD
 70
     0
  0
APPID
  2
ACADANNOTATIVE
 70
     0
  0
APPID
  2
ACAD_PSEXT
 70
     0
  0
APPID
  2
ACAD_EXEMPT_FROM_CAD_STANDARDS
 70
     0
  0
APPID
  2
ACAECLAYERSTANDARD
 70
     0
  0
APPID
  2
ACAUTHENVIRON
 70
     0
  0
APPID
  2
ACDBDYNAMICBLOCKTRUENAME
 70
     0
  0
APPID
  2
ACDBDYNAMICBLOCKGUID
 70
     0
  0
APPID
  2
ACDBBLOCKREPETAG
 70
     0
  0
APPID
  2
ACDBBLOCKREPBTAG
 70
     0
  0
APPID
  2
ACAD_NAV_VCDISPLAY
 70
     0
  0
APPID
  2
ACAD_DSTYLE_DIMRADIAL_EXTENSION
 70
     0
  0
APPID
  2
ACAD_DSTYLE_DIMJAG
 70
     0
  0
APPID
  2
ACAD_DSTYLE_DIMTALN
 70
     0
  0
APPID
  2
ACADANNOPO
 70
     0
  0
APPID
  2
GRADIENTCOLOR1ACI
 70
     0
  0
APPID
  2
GRADIENTCOLOR2ACI
 70
     0
  0
APPID
  2
ACAD_MLEADERVER
 70
     0
  0
ENDTAB
  0
TABLE
  2
DIMSTYLE
 70
     3
  0
DIMSTYLE
  2
STANDARD
 70
     0
  3

  4

  5

  6

  7

 40
1.0
 41
0.18
 42
0.0625
 43
0.38
 44
0.18
 45
0.0
 46
0.0
 47
0.0
 48
0.0
140
0.18
141
0.09
142
0.0
143
25.399999999999999
144
1.0
145
0.0
146
1.0
147
0.09
 71
     0
 72
     0
 73
     1
 74
     1
 75
     0
 76
     0
 77
     0
 78
     0
170
     0
171
     2
172
     0
173
     0
174
     0
175
     0
176
     0
177
     0
178
     0
  0
DIMSTYLE
  2
S10
 70
     0
  3

  4

  5

  6

  7

 40
10.0
 41
2.0
 42
1.0
 43
10.0
 44
1.0
 45
0.0
 46
0.0
 47
0.0
 48
0.0
140
3.2000000000000002
141
0.0
142
0.0
143
25.399999999999999
144
1.0
145
0.0
146
1.0
147
0.9
 71
     0
 72
     0
 73
     0
 74
     0
 75
     0
 76
     0
 77
     1
 78
     8
170
     0
171
     2
172
     1
173
     0
174
     0
175
     0
176
   256
177
   256
178
   256
  0
ENDTAB
  0
ENDSEC
  0
SECTION
  2
BLOCKS
  0
BLOCK
  8
0
  2
$MODEL_SPACE
 70
     0
 10
0.0
 20
0.0
 30
0.0
  3
$MODEL_SPACE
  1

  0
ENDBLK
  5
13123A
  8
0
  0
BLOCK
 67
     1
  8
0
  2
$PAPER_SPACE
 70
     0
 10
0.0
 20
0.0
 30
0.0
  3
$PAPER_SPACE
  1

  0
ENDBLK
  5
131236
 67
     1
  8
0
  0
BLOCK
  8
0
  2
_OPEN30
 70
     0
 10
0.0
 20
0.0
 30
0.0
  3
_OPEN30
  1

  0
LINE
  5
202
  8
0
  6
BYBLOCK
 62
     0
 10
-1.0
 20
0.26794919
 30
0.0
 11
0.0
 21
0.0
 31
0.0
  0
LINE
  5
203
  8
0
  6
BYBLOCK
 62
     0
 10
0.0
 20
0.0
 30
0.0
 11
-1.0
 21
-0.26794919
 31
0.0
  0
LINE
  5
204
  8
0
  6
BYBLOCK
 62
     0
 10
0.0
 20
0.0
 30
0.0
 11
-1.0
 21
0.0
 31
0.0
  0
ENDBLK
  5
206
  8
0
  0
BLOCK
  8
0
  2
*U3
 70
     1
 10
0.0
 20
0.0
 30
0.0
  3
*U3
  1

  0
TEXT
  5
130DF7
  8
SLIM
 10
122.5714285686164
 20
-583.00000000000716
 30
0.0
 40
26.0
  1
75U
  0
ENDBLK
  5
130DF9
  8
0
  0
BLOCK
  8
0
  2
*U4
 70
     1
 10
0.0
 20
0.0
 30
0.0
  3
*U4
  1

  0
TEXT
  5
130E10
  8
SLIM
 10
482.57142856869831
 20
-583.00000000000716
 30
0.0
 40
26.0
  1
75U
  0
ENDBLK
  5
130E12
  8
0
  0
BLOCK
  8
0
  2
*U5
 70
     1
 10
0.0
 20
0.0
 30
0.0
  3
*U5
  1

  0
TEXT
  5
130E29
  8
SLIM
 10
482.57142856869831
 20
-119.0000000000036
 30
0.0
 40
26.0
  1
75U
  0
ENDBLK
  5
130E2B
  8
0
  0
BLOCK
  8
0
  2
*U6
 70
     1
 10
0.0
 20
0.0
 30
0.0
  3
*U6
  1

  0
TEXT
  5
130E42
  8
SLIM
 10
122.5714285686164
 20
-119.0000000000036
 30
0.0
 40
26.0
  1
75U
  0
ENDBLK
  5
130E44
  8
0
  0
BLOCK
  8
0
  2
*U7
 70
     1
 10
0.0
 20
0.0
 30
0.0
  3
*U7
  1

  0
TEXT
  5
130E46
  8
SLIM
 10
257.9999999971879
 20
-698.95238095179525
 30
0.0
 40
26.0
  1
75
 50
270.0
  0
ENDBLK
  5
130E48
  8
0
  0
BLOCK
  8
0
  2
*U8
 70
     1
 10
0.0
 20
0.0
 30
0.0
  3
*U8
  1

  0
TEXT
  5
130E4A
  8
SLIM
 10
625.24999999726958
 20
-689.04761904703321
 30
0.0
 40
26.0
  1
100
 50
270.0
  0
ENDBLK
  5
130E4C
  8
0
  0
BLOCK
  8
0
  2
*U9
 70
     1
 10
0.0
 20
0.0
 30
0.0
  3
*U9
  1

  0
TEXT
  5
130E4E
  8
SLIM
 10
617.9999999972697
 20
-234.95238095179161
 30
0.0
 40
26.0
  1
65
 50
270.0
  0
ENDBLK
  5
130E50
  8
0
  0
BLOCK
  8
0
  2
*U10
 70
     1
 10
0.0
 20
0.0
 30
0.0
  3
*U10
  1

  0
TEXT
  5
130E52
  8
SLIM
 10
257.9999999971879
 20
-234.95238095179161
 30
0.0
 40
26.0
  1
50
 50
270.0
  0
ENDBLK
  5
130E54
  8
0
  0
BLOCK
  8
0
  2
*U11
 70
     1
 10
0.0
 20
0.0
 30
0.0
  3
*U11
  1

  0
TEXT
  5
130E94
  8
DIM
 10
2209.479620594459
 20
-3304.1428571428528
 30
0.0
 40
32.0
  1
A
 50
90.0
 41
0.75
  0
ENDBLK
  5
130E96
  8
0
  0
BLOCK
  8
0
  2
*U12
 70
     1
 10
0.0
 20
0.0
 30
0.0
  3
*U12
  1

  0
TEXT
  5
130E98
  8
DIM
 10
2207.8409284037348
 20
-3685.9999999999959
 30
0.0
 40
32.0
  1
B
 50
90.0
 41
0.75
  0
ENDBLK
  5
130E9A
  8
0
  0
BLOCK
  8
0
  2
*U13
 70
     1
 10
0.0
 20
0.0
 30
0.0
  3
*U13
  1

  0
TEXT
  5
130E9C
  8
DIM
 10
2061.428571428572
 20
-3158.208121984444
 30
0.0
 40
32.0
  1
C
 41
0.75
  0
ENDBLK
  5
130E9E
  8
0
  0
ENDSEC
  0
SECTION
  2
ENTITIES
  0
LINE
  5
12515F
  8
OBJECT
 10
1825.0
 20
-3699.9999999999959
 30
0.0
 11
5575.0
 21
-3699.9999999999959
 31
0.0
  0
LINE
  5
125161
  8
SLIM
 10
2616.0
 20
-2757.50001604727
 30
0.0
 11
2616.0
 21
-3087.50001604727
 31
0.0
  0
LINE
  5
125162
  8
SLIM
 10
2740.0
 20
-2757.50001604727
 30
0.0
 11
2740.0
 21
-3087.50001604727
 31
0.0
  0
LINE
  5
125163
  8
SLIM
 10
2870.0
 20
-2817.50001604727
 30
0.0
 11
2870.0
 21
-3087.50001604727
 31
0.0
  0
LINE
  5
125164
  8
SLIM
 10
3000.0
 20
-2817.50001604727
 30
0.0
 11
3000.0
 21
-3087.50001604727
 31
0.0
  0
LINE
  5
125165
  8
SLIM
 10
3130.0
 20
-3087.50001604727
 30
0.0
 11
3130.0
 21
-2817.50001604727
 31
0.0
  0
LINE
  5
125166
  8
SLIM
 10
3260.0
 20
-3087.50001604727
 30
0.0
 11
3260.0
 21
-2757.50001604727
 31
0.0
  0
LINE
  5
125167
  8
SLIM
 10
3260.0
 20
-2757.50001604727
 30
0.0
 11
2616.0
 21
-2757.50001604727
 31
0.0
  0
LINE
  5
125168
  8
SLIM
 10
3260.0
 20
-2817.50001604727
 30
0.0
 11
2740.0
 21
-2817.50001604727
 31
0.0
  0
LINE
  5
125169
  8
SLIM
 10
3260.0
 20
-2877.50001604727
 30
0.0
 11
2616.0
 21
-2877.50001604727
 31
0.0
  0
LINE
  5
12516A
  8
SLIM
 10
3260.0
 20
-2947.50001604727
 30
0.0
 11
2616.0
 21
-2947.50001604727
 31
0.0
  0
LINE
  5
12516B
  8
SLIM
 10
3260.0
 20
-3017.50001604727
 30
0.0
 11
2616.0
 21
-3017.50001604727
 31
0.0
  0
LINE
  5
12516C
  8
SLIM
 10
3260.0
 20
-3087.50001604727
 30
0.0
 11
2616.0
 21
-3087.50001604727
 31
0.0
  0
LINE
  5
125181
  8
SLIM
 10
2740.0
 20
-2877.50001604727
 30
0.0
 11
2615.9999722746579
 21
-2757.5
 31
0.0
  0
LINE
  5
1251B6
  8
OBJECT
 10
5323.0
 20
-3515.9999999999968
 30
0.0
 11
5323.0
 21
-3494.9999999999968
 31
0.0
1001
ACDBBLOCKREPETAG
1070
     1
1071
       20
1005
1251B6
  0
LINE
  5
1251B7
  8
OBJECT
 10
5323.0
 20
-3494.9999999999968
 30
0.0
 11
5477.0
 21
-3494.9999999999968
 31
0.0
1001
ACDBBLOCKREPETAG
1070
     1
1071
       21
1005
1251B7
  0
LINE
  5
1251B8
  8
HIDDEN
 10
5343.0
 20
-3564.9999999999968
 30
0.0
 11
5457.0
 21
-3564.9999999999968
 31
0.0
1001
ACDBBLOCKREPETAG
1070
     1
1071
       22
1005
1251B8
  0
LINE
  5
1251B9
  8
OBJECT
 10
5477.0
 20
-3494.9999999999968
 30
0.0
 11
5477.0
 21
-3515.9999999999968
 31
0.0
1001
ACDBBLOCKREPETAG
1070
     1
1071
       23
1005
1251B9
  0
LINE
  5
1251BA
  8
OBJECT
 10
5477.0
 20
-3515.9999999999968
 30
0.0
 11
5323.0
 21
-3515.9999999999968
 31
0.0
1001
ACDBBLOCKREPETAG
1070
     1
1071
       24
1005
1251BA
  0
LINE
  5
1251BB
  8
CENTER
 10
5400.0
 20
-3479.9999999999968
 30
0.0
 11
5400.0
 21
-3714.9999999999968
 31
0.0
1001
ACDBBLOCKREPETAG
1070
     1
1071
       25
1005
1251BB
  0
LINE
  5
1251BC
  8
OBJECT
 10
5325.0
 20
-3578.9999999999968
 30
0.0
 11
5325.0
 21
-3702.9999999999968
 31
0.0
1001
ACDBBLOCKREPETAG
1070
     1
1071
       26
1005
1251BC
  0
LINE
  5
1251BD
  8
OBJECT
 10
5328.0
 20
-3515.9999999999968
 30
0.0
 11
5328.0
 21
-3578.9999999999968
 31
0.0
1001
ACDBBLOCKREPETAG
1070
     1
1071
       27
1005
1251BD
  0
LINE
  5
1251BE
  8
OBJECT
 10
5472.0
 20
-3578.9999999999968
 30
0.0
 11
5472.0
 21
-3515.9999999999968
 31
0.0
1001
ACDBBLOCKREPETAG
1070
     1
1071
       28
1005
1251BE
  0
LINE
  5
1251BF
  8
OBJECT
 10
5475.0
 20
-3578.9999999999968
 30
0.0
 11
5456.7802782663139
 21
-3578.9999999999968
 31
0.0
1001
ACDBBLOCKREPETAG
1070
     1
1071
       30
1005
1251BF
  0
LINE
  5
1251C0
  8
OBJECT
 10
5475.0
 20
-3578.9999999999968
 30
0.0
 11
5475.0
 21
-3702.9999999999968
 31
0.0
1001
ACDBBLOCKREPETAG
1070
     1
1071
       34
1005
1251C0
  0
POINT
  5
1251C1
  8
DOTS
 10
5400.0
 20
-3699.9999999999968
 30
0.0
1001
ACDBBLOCKREPETAG
1070
     1
1071
      187
1005
1251C1
  0
LINE
  5
1251C2
  8
CENTER
 10
5310.0
 20
-3627.9999999999968
 30
0.0
 11
5490.0
 21
-3627.9999999999968
 31
0.0
1001
ACDBBLOCKREPETAG
1070
     1
1071
       23
1005
1251C2
  0
CIRCLE
  5
1251C3
  8
OBJECT
 10
5400.0
 20
-3627.9999999999968
 30
0.0
 40
53.5
1001
ACDBBLOCKREPETAG
1070
     1
1071
       24
1005
1251C3
  0
CIRCLE
  5
1251C4
  8
OBJECT
 10
5400.0
 20
-3627.9999999999968
 30
0.0
 40
67.0
1001
ACDBBLOCKREPETAG
1070
     1
1071
       25
1005
1251C4
  0
ARC
  5
1251C5
  8
OBJECT
 10
5400.0
 20
-3627.9999999999968
 30
0.0
 40
75.0
 50
286.26020470824369
 51
253.73979529175631
1001
ACDBBLOCKREPETAG
1070
     1
1071
       27
1005
1251C5
  0
LINE
  5
1251C6
  8
OBJECT
 10
5379.0
 20
-3699.9999999999968
 30
0.0
 11
5421.0
 21
-3699.9999999999968
 31
0.0
1001
ACDBBLOCKREPETAG
1070
     1
1071
       28
1005
1251C6
  0
LINE
  5
1251C7
  8
OBJECT
 10
5343.2197217336861
 20
-3578.9999999999968
 30
0.0
 11
5325.0
 21
-3578.9999999999968
 31
0.0
1001
ACDBBLOCKREPETAG
1070
     1
1071
       30
1005
1251BF
  0
TEXT
  5
12CC49
  8
SLIM
 10
-0.0000000000000011
 20
282.5
 30
0.0
 40
35.0
  1
※ 100枝（4）がある場合、品名の最後に【管底】が付きます。
 41
0.9
 11
0.0
 21
300.0
 31
0.0
 73
     2
  0
TEXT
  5
12FFB1
  8
SLIM
 10
139.7142857142874
 20
-444.0
 30
0.0
 40
48.0
  1
U71
 41
0.75
 72
     4
 11
180.00000000000171
 21
-420.0
 31
0.0
  0
TEXT
  5
12FFB2
  8
SLIM
 10
132.00000000000131
 20
-908.0
 30
0.0
 40
48.0
  1
U73
 41
0.75
 72
     4
 11
180.00000000000131
 21
-884.0
 31
0.0
  0
TEXT
  5
12FFB3
  8
SLIM
 10
492.00000000000119
 20
-444.0
 30
0.0
 40
48.0
  1
U72
 41
0.75
 72
     4
 11
540.00000000000125
 21
-420.0
 31
0.0
  0
TEXT
  5
12FFB4
  8
SLIM
 10
491.14285714285842
 20
-908.0
 30
0.0
 40
48.0
  1
U74
 41
0.75
 72
     4
 11
540.00000000000125
 21
-884.0
 31
0.0
  0
CIRCLE
  5
1305C2
  8
OBJECT
 10
515.99999999668398
 20
-720.00000000014893
 30
0.0
 40
70.0
1001
ACDBBLOCKREPETAG
1070
     1
1071
       43
1005
1305C2
  0
CIRCLE
  5
1305C3
  8
OBJECT
 10
515.99999999668398
 20
-720.00000000014893
 30
0.0
 40
77.0
1001
ACDBBLOCKREPETAG
1070
     1
1071
       44
1005
1305C3
  0
ARC
  5
1305C4
  8
OBJECT
 10
515.99999999668398
 20
-720.00000000014893
 30
0.0
 40
80.0
 50
140.8050325737787
 51
219.1949674262213
1001
ACDBBLOCKREPETAG
1070
     1
1071
       45
1005
1305C4
  0
LINE
  5
1305C5
  8
OBJECT
 10
453.99999999668393
 20
-674.33819977282474
 30
0.0
 11
453.99999999668393
 21
-640.00000000014904
 31
0.0
1001
ACDBBLOCKREPETAG
1070
     1
1071
       46
1005
1305C5
  0
LINE
  5
1305C6
  8
OBJECT
 10
577.99999999668398
 20
-658.00000000014904
 30
0.0
 11
577.99999999668398
 21
-640.00000000014904
 31
0.0
1001
ACDBBLOCKREPETAG
1070
     1
1071
       22
1005
1305C6
  0
LINE
  5
1305C7
  8
OBJECT
 10
577.99999999668398
 20
-658.00000000014904
 30
0.0
 11
595.99999999668375
 21
-658.00000000014904
 31
0.0
1001
ACDBBLOCKREPETAG
1070
     1
1071
       24
1005
1305C7
  0
LINE
  5
1305C8
  8
OBJECT
 10
577.99999999668398
 20
-782.00000000014893
 30
0.0
 11
595.99999999668375
 21
-782.00000000014893
 31
0.0
1001
ACDBBLOCKREPETAG
1070
     1
1071
       25
1005
1305C8
  0
LINE
  5
1305C9
  8
OBJECT
 10
577.99999999668398
 20
-782.00000000014893
 30
0.0
 11
577.99999999668398
 21
-800.00000000014882
 31
0.0
1001
ACDBBLOCKREPETAG
1070
     1
1071
       27
1005
1305C9
  0
LINE
  5
1305CA
  8
OBJECT
 10
453.99999999668393
 20
-765.66180022747335
 30
0.0
 11
453.99999999668393
 21
-800.00000000014882
 31
0.0
1001
ACDBBLOCKREPETAG
1070
     1
1071
       28
1005
1305CA
  0
LINE
  5
1305CB
  8
OBJECT
 10
570.44722214804813
 20
-774.44722215151353
 30
0.0
 11
577.99999999668398
 21
-782.00000000014893
 31
0.0
1001
ACDBBLOCKREPETAG
1070
     1
1071
       37
1005
1305CB
  0
LINE
  5
1305CC
  8
OBJECT
 10
570.44722214804813
 20
-665.5527778487849
 30
0.0
 11
577.99999999668398
 21
-658.00000000014904
 31
0.0
1001
ACDBBLOCKREPETAG
1070
     1
1071
       38
1005
1305CC
  0
POINT
  5
1305CD
  8
DOTS
 10
515.99999999668398
 20
-720.00000000014893
 30
0.0
1001
ACDBBLOCKREPETAG
1070
     1
1071
       39
1005
1305CD
  0
CIRCLE
  5
1305CE
  8
OBJECT
 10
515.99999999668398
 20
-720.00000000014893
 30
0.0
 40
53.5
1001
ACDBBLOCKREPETAG
1070
     1
1071
      153
1005
1305CE
  0
CIRCLE
  5
1305CF
  8
OBJECT
 10
155.9999999970114
 20
-720.00000000014893
 30
0.0
 40
70.0
1001
ACDBBLOCKREPETAG
1070
     1
1071
       43
1005
1305CF
  0
CIRCLE
  5
1305D0
  8
OBJECT
 10
155.9999999970114
 20
-720.00000000014893
 30
0.0
 40
77.0
1001
ACDBBLOCKREPETAG
1070
     1
1071
       44
1005
1305D0
  0
ARC
  5
1305D1
  8
OBJECT
 10
155.9999999970114
 20
-720.00000000014893
 30
0.0
 40
80.0
 50
140.80503257377961
 51
219.1949674262203
1001
ACDBBLOCKREPETAG
1070
     1
1071
       45
1005
1305D1
  0
LINE
  5
1305D2
  8
OBJECT
 10
93.999999997011415
 20
-674.33819977282474
 30
0.0
 11
93.999999997011415
 21
-640.00000000014904
 31
0.0
1001
ACDBBLOCKREPETAG
1070
     1
1071
       46
1005
1305D2
  0
LINE
  5
1305D3
  8
OBJECT
 10
217.9999999970114
 20
-658.00000000014904
 30
0.0
 11
217.9999999970114
 21
-640.00000000014904
 31
0.0
1001
ACDBBLOCKREPETAG
1070
     1
1071
       22
1005
1305D3
  0
LINE
  5
1305D4
  8
OBJECT
 10
217.9999999970114
 20
-658.00000000014904
 30
0.0
 11
235.9999999970114
 21
-658.00000000014904
 31
0.0
1001
ACDBBLOCKREPETAG
1070
     1
1071
       24
1005
1305D4
  0
LINE
  5
1305D5
  8
OBJECT
 10
217.9999999970114
 20
-782.00000000014893
 30
0.0
 11
235.9999999970114
 21
-782.00000000014893
 31
0.0
1001
ACDBBLOCKREPETAG
1070
     1
1071
       25
1005
1305D5
  0
LINE
  5
1305D6
  8
OBJECT
 10
217.9999999970114
 20
-782.00000000014893
 30
0.0
 11
217.9999999970114
 21
-800.00000000014882
 31
0.0
1001
ACDBBLOCKREPETAG
1070
     1
1071
       27
1005
1305D6
  0
LINE
  5
1305D7
  8
OBJECT
 10
93.999999997011415
 20
-765.66180022747335
 30
0.0
 11
93.999999997011415
 21
-800.00000000014882
 31
0.0
1001
ACDBBLOCKREPETAG
1070
     1
1071
       28
1005
1305D7
  0
LINE
  5
1305D8
  8
OBJECT
 10
210.44722214837569
 20
-774.44722215151353
 30
0.0
 11
217.9999999970114
 21
-782.00000000014893
 31
0.0
1001
ACDBBLOCKREPETAG
1070
     1
1071
       37
1005
1305D8
  0
LINE
  5
1305D9
  8
OBJECT
 10
210.44722214837569
 20
-665.5527778487849
 30
0.0
 11
217.9999999970114
 21
-658.00000000014904
 31
0.0
1001
ACDBBLOCKREPETAG
1070
     1
1071
       38
1005
1305D9
  0
POINT
  5
1305DA
  8
DOTS
 10
155.9999999970114
 20
-720.00000000014893
 30
0.0
1001
ACDBBLOCKREPETAG
1070
     1
1071
       39
1005
1305DA
  0
CIRCLE
  5
1305DB
  8
OBJECT
 10
155.9999999970114
 20
-720.00000000014893
 30
0.0
 40
53.5
1001
ACDBBLOCKREPETAG
1070
     1
1071
      153
1005
1305DB
  0
CIRCLE
  5
1305DC
  8
OBJECT
 10
515.99999999668398
 20
-256.00000000004371
 30
0.0
 40
70.0
1001
ACDBBLOCKREPETAG
1070
     1
1071
       43
1005
1305DC
  0
CIRCLE
  5
1305DD
  8
OBJECT
 10
515.99999999668398
 20
-256.00000000004371
 30
0.0
 40
77.0
1001
ACDBBLOCKREPETAG
1070
     1
1071
       44
1005
1305DD
  0
ARC
  5
1305DE
  8
OBJECT
 10
515.99999999668398
 20
-256.00000000004371
 30
0.0
 40
80.0
 50
140.80503257378001
 51
219.1949674262213
1001
ACDBBLOCKREPETAG
1070
     1
1071
       45
1005
1305DE
  0
LINE
  5
1305DF
  8
OBJECT
 10
453.99999999668393
 20
-210.33819977271929
 30
0.0
 11
453.99999999668393
 21
-176.0000000000436
 31
0.0
1001
ACDBBLOCKREPETAG
1070
     1
1071
       46
1005
1305DF
  0
LINE
  5
1305E0
  8
OBJECT
 10
577.99999999668398
 20
-194.0000000000436
 30
0.0
 11
577.99999999668398
 21
-176.0000000000436
 31
0.0
1001
ACDBBLOCKREPETAG
1070
     1
1071
       22
1005
1305E0
  0
LINE
  5
1305E1
  8
OBJECT
 10
577.99999999668398
 20
-194.0000000000436
 30
0.0
 11
595.99999999668375
 21
-194.0000000000436
 31
0.0
1001
ACDBBLOCKREPETAG
1070
     1
1071
       24
1005
1305E1
  0
LINE
  5
1305E2
  8
OBJECT
 10
577.99999999668398
 20
-318.00000000004371
 30
0.0
 11
595.99999999668375
 21
-318.00000000004371
 31
0.0
1001
ACDBBLOCKREPETAG
1070
     1
1071
       25
1005
1305E2
  0
LINE
  5
1305E3
  8
OBJECT
 10
577.99999999668398
 20
-318.00000000004371
 30
0.0
 11
577.99999999668398
 21
-336.0000000000436
 31
0.0
1001
ACDBBLOCKREPETAG
1070
     1
1071
       27
1005
1305E3
  0
LINE
  5
1305E4
  8
OBJECT
 10
453.99999999668393
 20
-301.66180022736808
 30
0.0
 11
453.99999999668393
 21
-336.0000000000436
 31
0.0
1001
ACDBBLOCKREPETAG
1070
     1
1071
       28
1005
1305E4
  0
LINE
  5
1305E5
  8
OBJECT
 10
570.44722214804813
 20
-310.44722215140791
 30
0.0
 11
577.99999999668398
 21
-318.00000000004371
 31
0.0
1001
ACDBBLOCKREPETAG
1070
     1
1071
       37
1005
1305E5
  0
LINE
  5
1305E6
  8
OBJECT
 10
570.44722214804813
 20
-201.5527778486794
 30
0.0
 11
577.99999999668398
 21
-194.0000000000436
 31
0.0
1001
ACDBBLOCKREPETAG
1070
     1
1071
       38
1005
1305E6
  0
POINT
  5
1305E7
  8
DOTS
 10
515.99999999668398
 20
-256.00000000004371
 30
0.0
1001
ACDBBLOCKREPETAG
1070
     1
1071
       39
1005
1305E7
  0
CIRCLE
  5
1305E8
  8
OBJECT
 10
515.99999999668398
 20
-256.00000000004371
 30
0.0
 40
53.5
1001
ACDBBLOCKREPETAG
1070
     1
1071
      153
1005
1305E8
  0
CIRCLE
  5
1305E9
  8
OBJECT
 10
155.9999999970114
 20
-256.00000000004371
 30
0.0
 40
70.0
1001
ACDBBLOCKREPETAG
1070
     1
1071
       43
1005
1305E9
  0
CIRCLE
  5
1305EA
  8
OBJECT
 10
155.9999999970114
 20
-256.00000000004371
 30
0.0
 40
77.0
1001
ACDBBLOCKREPETAG
1070
     1
1071
       44
1005
1305EA
  0
ARC
  5
1305EB
  8
OBJECT
 10
155.9999999970114
 20
-256.00000000004371
 30
0.0
 40
80.0
 50
140.80503257378101
 51
219.1949674262203
1001
ACDBBLOCKREPETAG
1070
     1
1071
       45
1005
1305EB
  0
LINE
  5
1305EC
  8
OBJECT
 10
93.999999997011415
 20
-210.33819977271929
 30
0.0
 11
93.999999997011415
 21
-176.0000000000436
 31
0.0
1001
ACDBBLOCKREPETAG
1070
     1
1071
       46
1005
1305EC
  0
LINE
  5
1305ED
  8
OBJECT
 10
217.9999999970114
 20
-194.0000000000436
 30
0.0
 11
217.9999999970114
 21
-176.0000000000436
 31
0.0
1001
ACDBBLOCKREPETAG
1070
     1
1071
       22
1005
1305ED
  0
LINE
  5
1305EE
  8
OBJECT
 10
217.9999999970114
 20
-194.0000000000436
 30
0.0
 11
235.9999999970114
 21
-194.0000000000436
 31
0.0
1001
ACDBBLOCKREPETAG
1070
     1
1071
       24
1005
1305EE
  0
LINE
  5
1305EF
  8
OBJECT
 10
217.9999999970114
 20
-318.00000000004371
 30
0.0
 11
235.9999999970114
 21
-318.00000000004371
 31
0.0
1001
ACDBBLOCKREPETAG
1070
     1
1071
       25
1005
1305EF
  0
LINE
  5
1305F0
  8
OBJECT
 10
217.9999999970114
 20
-318.00000000004371
 30
0.0
 11
217.9999999970114
 21
-336.0000000000436
 31
0.0
1001
ACDBBLOCKREPETAG
1070
     1
1071
       27
1005
1305F0
  0
LINE
  5
1305F1
  8
OBJECT
 10
93.999999997011415
 20
-301.66180022736808
 30
0.0
 11
93.999999997011415
 21
-336.0000000000436
 31
0.0
1001
ACDBBLOCKREPETAG
1070
     1
1071
       28
1005
1305F1
  0
LINE
  5
1305F2
  8
OBJECT
 10
210.44722214837569
 20
-310.44722215140791
 30
0.0
 11
217.9999999970114
 21
-318.00000000004371
 31
0.0
1001
ACDBBLOCKREPETAG
1070
     1
1071
       37
1005
1305F2
  0
LINE
  5
1305F3
  8
OBJECT
 10
210.44722214837569
 20
-201.5527778486794
 30
0.0
 11
217.9999999970114
 21
-194.0000000000436
 31
0.0
1001
ACDBBLOCKREPETAG
1070
     1
1071
       38
1005
1305F3
  0
POINT
  5
1305F4
  8
DOTS
 10
155.9999999970114
 20
-256.00000000004371
 30
0.0
1001
ACDBBLOCKREPETAG
1070
     1
1071
       39
1005
1305F4
  0
CIRCLE
  5
1305F5
  8
OBJECT
 10
155.9999999970114
 20
-256.00000000004371
 30
0.0
 40
53.5
1001
ACDBBLOCKREPETAG
1070
     1
1071
      153
1005
1305F5
  0
LINE
  5
1305F6
  8
OBJECT
 10
217.9999999971879
 20
-640.00000000000728
 30
0.0
 11
217.9999999971879
 21
-637.00000000000716
 31
0.0
1001
ACDBBLOCKREPETAG
1070
     1
1071
      141
1005
1305F6
  0
ARC
  5
1305F7
  8
OBJECT
 10
214.99999999718781
 20
-637.00000000000716
 30
0.0
 40
3.0
 50
0.0
 51
90.0
1001
ACDBBLOCKREPETAG
1070
     1
1071
      142
1005
1305F7
  0
LINE
  5
1305F8
  8
OBJECT
 10
93.999999997191424
 20
-640.00000000000728
 30
0.0
 11
93.999999997191424
 21
-637.00000000000716
 31
0.0
1001
ACDBBLOCKREPETAG
1070
     1
1071
      143
1005
1305F8
  0
LINE
  5
1305F9
  8
OBJECT
 10
96.999999997187842
 20
-634.00000000000716
 30
0.0
 11
96.999999997184204
 21
-611.34527240647412
 31
0.0
1001
ACDBBLOCKREPETAG
1070
     1
1071
      144
1005
1305F9
  0
LINE
  5
1305FA
  8
OBJECT
 10
214.99999999719151
 20
-634.00000000000716
 30
0.0
 11
214.99999999718781
 21
-611.34527240647446
 31
0.0
1001
ACDBBLOCKREPETAG
1070
     1
1071
      145
1005
1305FA
  0
LINE
  5
1305FB
  8
OBJECT
 10
96.99999999719148
 20
-634.00000000000716
 30
0.0
 11
214.99999999718781
 21
-634.00000000000716
 31
0.0
1001
ACDBBLOCKREPETAG
1070
     1
1071
      146
1005
1305FB
  0
ARC
  5
1305FC
  8
OBJECT
 10
96.99999999719148
 20
-637.00000000000716
 30
0.0
 40
3.0
 50
90.0
 51
180.0
1001
ACDBBLOCKREPETAG
1070
     1
1071
      147
1005
1305FC
  0
ARC
  5
1305FD
  8
OBJECT
 10
155.99999999718781
 20
-570.00000000000728
 30
0.0
 40
61.0
 50
127.1672854612744
 51
172.83271453873201
1001
ACDBBLOCKREPETAG
1070
     1
1071
      149
1005
1305FD
  0
ARC
  5
1305FE
  8
OBJECT
 10
155.99999999718781
 20
-570.00000000000728
 30
0.0
 40
61.0
 50
247.16728546121581
 51
292.83271453878172
1001
ACDBBLOCKREPETAG
1070
     1
1071
      150
1005
1305FE
  0
ARC
  5
1305FF
  8
OBJECT
 10
155.99999999718781
 20
-570.00000000000728
 30
0.0
 40
61.0
 50
7.1672854612680084
 51
52.832714538725519
1001
ACDBBLOCKREPETAG
1070
     1
1071
      151
1005
1305FF
  0
CIRCLE
  5
130600
  8
SLIM
 10
155.99999999718781
 20
-506.00000000000711
 30
0.0
 40
4.0
1001
ACDBBLOCKREPETAG
1070
     1
1071
      152
1005
130600
  0
ARC
  5
130601
  8
OBJECT
 10
155.99999999718781
 20
-506.00000000000711
 30
0.0
 40
10.0
 50
52.832714538725519
 51
127.1672854612744
1001
ACDBBLOCKREPETAG
1070
     1
1071
      153
1005
130601
  0
LINE
  5
130602
  8
OBJECT
 10
119.1472027884338
 20
-521.39062500000955
 30
0.0
 11
149.9585578318183
 21
-498.03125000000722
 31
0.0
1001
ACDBBLOCKREPETAG
1070
     1
1071
      154
1005
130602
  0
LINE
  5
130603
  8
OBJECT
 10
192.8527972059419
 20
-521.39062500000955
 30
0.0
 11
162.0414421625573
 21
-498.03125000000722
 31
0.0
1001
ACDBBLOCKREPETAG
1070
     1
1071
      155
1005
130603
  0
CIRCLE
  5
130604
  8
SLIM
 10
100.57437415498499
 20
-602.00000000000728
 30
0.0
 40
3.9999999999999991
1001
ACDBBLOCKREPETAG
1070
     1
1071
      156
1005
130604
  0
ARC
  5
130605
  8
OBJECT
 10
100.57437415498499
 20
-602.00000000000728
 30
0.0
 40
9.9999999999999982
 50
172.8327145387714
 51
247.16728546121581
1001
ACDBBLOCKREPETAG
1070
     1
1071
      157
1005
130605
  0
LINE
  5
130606
  8
OBJECT
 10
132.329444989482
 20
-626.22014608330301
 30
0.0
 11
96.693955301259848
 21
-611.21641739071163
 31
0.0
1001
ACDBBLOCKREPETAG
1070
     1
1071
      158
1005
130606
  0
LINE
  5
130607
  8
OBJECT
 10
95.476647780727944
 20
-562.38922891670882
 30
0.0
 11
90.652513135890317
 21
-600.7523326093027
 31
0.0
1001
ACDBBLOCKREPETAG
1070
     1
1071
      159
1005
130607
  0
CIRCLE
  5
130608
  8
SLIM
 10
211.4256258393907
 20
-602.00000000000728
 30
0.0
 40
4.0
1001
ACDBBLOCKREPETAG
1070
     1
1071
      160
1005
130608
  0
ARC
  5
130609
  8
OBJECT
 10
211.4256258393907
 20
-602.00000000000728
 30
0.0
 40
10.0
 50
292.83271453878172
 51
7.1672854612286221
1001
ACDBBLOCKREPETAG
1070
     1
1071
      161
1005
130609
  0
LINE
  5
13060A
  8
OBJECT
 10
216.52335221364771
 20
-562.38922891670882
 30
0.0
 11
221.3474868584853
 21
-600.7523326093027
 31
0.0
1001
ACDBBLOCKREPETAG
1070
     1
1071
      162
1005
13060A
  0
LINE
  5
13060B
  8
OBJECT
 10
179.67055500489371
 20
-626.22014608330301
 30
0.0
 11
215.30604469311581
 21
-611.21641739071163
 31
0.0
1001
ACDBBLOCKREPETAG
1070
     1
1071
      163
1005
13060B
  0
CIRCLE
  5
13060C
  8
OBJECT
 10
155.99999999718781
 20
-570.00000000000728
 30
0.0
 40
46.0
1001
ACDBBLOCKREPETAG
1070
     1
1071
      164
1005
13060C
  0
POLYLINE
  5
13060D
  8
SLIM
 66
     1
 10
0.0
 20
0.0
 30
0.0
 70
     1
1001
ACDBBLOCKREPETAG
1070
     1
1071
      165
1005
13060D
  0
VERTEX
  5
1312A1
  8
SLIM
 10
149.49999999718781
 20
-509.75277674974132
 30
0.0
  0
VERTEX
  5
1312A2
  8
SLIM
 10
155.99999999718781
 20
-513.50555349947172
 30
0.0
  0
VERTEX
  5
1312A3
  8
SLIM
 10
162.49999999718781
 20
-509.75277674974132
 30
0.0
  0
VERTEX
  5
1312A4
  8
SLIM
 10
162.49999999718781
 20
-502.24722325027318
 30
0.0
  0
VERTEX
  5
1312A5
  8
SLIM
 10
155.99999999718781
 20
-498.49444650054278
 30
0.0
  0
VERTEX
  5
1312A6
  8
SLIM
 10
149.49999999718781
 20
-502.24722325027318
 30
0.0
  0
SEQEND
  5
1312A7
  8
SLIM
  0
POLYLINE
  5
13060E
  8
SLIM
 66
     1
 10
0.0
 20
0.0
 30
0.0
 70
     1
1001
ACDBBLOCKREPETAG
1070
     1
1071
      166
1005
13060E
  0
VERTEX
  5
1312A8
  8
SLIM
 10
107.07437415498489
 20
-605.75277674973904
 30
0.0
  0
VERTEX
  5
1312A9
  8
SLIM
 10
107.07437415498489
 20
-598.24722325027506
 30
0.0
  0
VERTEX
  5
1312AA
  8
SLIM
 10
100.57437415498499
 20
-594.49444650054147
 30
0.0
  0
VERTEX
  5
1312AB
  8
SLIM
 10
94.074374154981371
 20
-598.24722325027551
 30
0.0
  0
VERTEX
  5
1312AC
  8
SLIM
 10
94.074374154984952
 20
-605.75277674973927
 30
0.0
  0
VERTEX
  5
1312AD
  8
SLIM
 10
100.5743741549813
 20
-609.50555349947297
 30
0.0
  0
SEQEND
  5
1312AE
  8
SLIM
  0
POLYLINE
  5
13060F
  8
SLIM
 66
     1
 10
0.0
 20
0.0
 30
0.0
 70
     1
1001
ACDBBLOCKREPETAG
1070
     1
1071
      167
1005
13060F
  0
VERTEX
  5
1312AF
  8
SLIM
 10
211.4256258393907
 20
-594.49444650054147
 30
0.0
  0
VERTEX
  5
1312B0
  8
SLIM
 10
204.9256258393907
 20
-598.24722325027506
 30
0.0
  0
VERTEX
  5
1312B1
  8
SLIM
 10
204.9256258393907
 20
-605.75277674973904
 30
0.0
  0
VERTEX
  5
1312B2
  8
SLIM
 10
211.42562583939431
 20
-609.50555349947297
 30
0.0
  0
VERTEX
  5
1312B3
  8
SLIM
 10
217.9256258393907
 20
-605.75277674973927
 30
0.0
  0
VERTEX
  5
1312B4
  8
SLIM
 10
217.9256258393944
 20
-598.24722325027551
 30
0.0
  0
SEQEND
  5
1312B5
  8
SLIM
  0
INSERT
  5
130610
  8
OBJECT
  2
*U3
 10
0.0
 20
0.0
 30
0.0
  0
LINE
  5
130611
  8
OBJECT
 10
577.99999999726936
 20
-640.00000000000728
 30
0.0
 11
577.99999999726936
 21
-637.00000000000716
 31
0.0
1001
ACDBBLOCKREPETAG
1070
     1
1071
      141
1005
130611
  0
ARC
  5
130612
  8
OBJECT
 10
574.9999999972697
 20
-637.00000000000716
 30
0.0
 40
3.0
 50
0.0
 51
90.0
1001
ACDBBLOCKREPETAG
1070
     1
1071
      142
1005
130612
  0
LINE
  5
130613
  8
OBJECT
 10
453.99999999727322
 20
-640.00000000000728
 30
0.0
 11
453.99999999727322
 21
-637.00000000000716
 31
0.0
1001
ACDBBLOCKREPETAG
1070
     1
1071
      143
1005
130613
  0
LINE
  5
130614
  8
OBJECT
 10
456.99999999726953
 20
-634.00000000000716
 30
0.0
 11
456.999999997266
 21
-611.34527240647412
 31
0.0
1001
ACDBBLOCKREPETAG
1070
     1
1071
      144
1005
130614
  0
LINE
  5
130615
  8
OBJECT
 10
574.99999999727322
 20
-634.00000000000716
 30
0.0
 11
574.9999999972697
 21
-611.34527240647446
 31
0.0
1001
ACDBBLOCKREPETAG
1070
     1
1071
      145
1005
130615
  0
LINE
  5
130616
  8
OBJECT
 10
456.99999999727328
 20
-634.00000000000716
 30
0.0
 11
574.9999999972697
 21
-634.00000000000716
 31
0.0
1001
ACDBBLOCKREPETAG
1070
     1
1071
      146
1005
130616
  0
ARC
  5
130617
  8
OBJECT
 10
456.99999999727328
 20
-637.00000000000716
 30
0.0
 40
3.0
 50
90.0
 51
180.0
1001
ACDBBLOCKREPETAG
1070
     1
1071
      147
1005
130617
  0
ARC
  5
130618
  8
OBJECT
 10
515.99999999726936
 20
-570.00000000000728
 30
0.0
 40
61.0
 50
127.1672854612758
 51
172.83271453873181
1001
ACDBBLOCKREPETAG
1070
     1
1071
      149
1005
130618
  0
ARC
  5
130619
  8
OBJECT
 10
515.99999999726936
 20
-570.00000000000728
 30
0.0
 40
61.0
 50
247.1672854612128
 51
292.83271453878461
1001
ACDBBLOCKREPETAG
1070
     1
1071
      150
1005
130619
  0
ARC
  5
13061A
  8
OBJECT
 10
515.99999999726936
 20
-570.00000000000728
 30
0.0
 40
61.0
 50
7.1672854612682118
 51
52.832714538724233
1001
ACDBBLOCKREPETAG
1070
     1
1071
      151
1005
13061A
  0
CIRCLE
  5
13061B
  8
SLIM
 10
515.99999999726936
 20
-506.00000000000711
 30
0.0
 40
4.0
1001
ACDBBLOCKREPETAG
1070
     1
1071
      152
1005
13061B
  0
ARC
  5
13061C
  8
OBJECT
 10
515.99999999726936
 20
-506.00000000000711
 30
0.0
 40
10.0
 50
52.832714538724233
 51
127.1672854612758
1001
ACDBBLOCKREPETAG
1070
     1
1071
      153
1005
13061C
  0
LINE
  5
13061D
  8
OBJECT
 10
479.14720278851559
 20
-521.39062500000955
 30
0.0
 11
509.95855783190001
 21
-498.03125000000722
 31
0.0
1001
ACDBBLOCKREPETAG
1070
     1
1071
      154
1005
13061D
  0
LINE
  5
13061E
  8
OBJECT
 10
552.85279720602375
 20
-521.39062500000955
 30
0.0
 11
522.04144216263921
 21
-498.03125000000722
 31
0.0
1001
ACDBBLOCKREPETAG
1070
     1
1071
      155
1005
13061E
  0
CIRCLE
  5
13061F
  8
SLIM
 10
460.57437415506678
 20
-602.00000000000728
 30
0.0
 40
3.9999999999999991
1001
ACDBBLOCKREPETAG
1070
     1
1071
      156
1005
13061F
  0
ARC
  5
130620
  8
OBJECT
 10
460.57437415506678
 20
-602.00000000000728
 30
0.0
 40
9.9999999999999982
 50
172.8327145387714
 51
247.1672854612128
1001
ACDBBLOCKREPETAG
1070
     1
1071
      157
1005
130620
  0
LINE
  5
130621
  8
OBJECT
 10
492.3294449895638
 20
-626.22014608330301
 30
0.0
 11
456.69395530134159
 21
-611.21641739071163
 31
0.0
1001
ACDBBLOCKREPETAG
1070
     1
1071
      158
1005
130621
  0
LINE
  5
130622
  8
OBJECT
 10
455.47664778080963
 20
-562.38922891670882
 30
0.0
 11
450.65251313597219
 21
-600.7523326093027
 31
0.0
1001
ACDBBLOCKREPETAG
1070
     1
1071
      159
1005
130622
  0
CIRCLE
  5
130623
  8
SLIM
 10
571.42562583947245
 20
-602.00000000000728
 30
0.0
 40
4.0
1001
ACDBBLOCKREPETAG
1070
     1
1071
      160
1005
130623
  0
ARC
  5
130624
  8
OBJECT
 10
571.42562583947245
 20
-602.00000000000728
 30
0.0
 40
10.0
 50
292.83271453878461
 51
7.1672854612286221
1001
ACDBBLOCKREPETAG
1070
     1
1071
      161
1005
130624
  0
LINE
  5
130625
  8
OBJECT
 10
576.52335221372959
 20
-562.38922891670882
 30
0.0
 11
581.34748685856721
 21
-600.7523326093027
 31
0.0
1001
ACDBBLOCKREPETAG
1070
     1
1071
      162
1005
130625
  0
LINE
  5
130626
  8
OBJECT
 10
539.67055500497554
 20
-626.22014608330301
 30
0.0
 11
575.30604469319735
 21
-611.21641739071163
 31
0.0
1001
ACDBBLOCKREPETAG
1070
     1
1071
      163
1005
130626
  0
CIRCLE
  5
130627
  8
OBJECT
 10
515.99999999726936
 20
-570.00000000000728
 30
0.0
 40
46.0
1001
ACDBBLOCKREPETAG
1070
     1
1071
      164
1005
130627
  0
POLYLINE
  5
130628
  8
SLIM
 66
     1
 10
0.0
 20
0.0
 30
0.0
 70
     1
1001
ACDBBLOCKREPETAG
1070
     1
1071
      165
1005
130628
  0
VERTEX
  5
1312B6
  8
SLIM
 10
509.4999999972697
 20
-509.75277674974132
 30
0.0
  0
VERTEX
  5
1312B7
  8
SLIM
 10
515.99999999726936
 20
-513.50555349947172
 30
0.0
  0
VERTEX
  5
1312B8
  8
SLIM
 10
522.4999999972697
 20
-509.75277674974132
 30
0.0
  0
VERTEX
  5
1312B9
  8
SLIM
 10
522.4999999972697
 20
-502.24722325027318
 30
0.0
  0
VERTEX
  5
1312BA
  8
SLIM
 10
515.99999999726936
 20
-498.49444650054278
 30
0.0
  0
VERTEX
  5
1312BB
  8
SLIM
 10
509.4999999972697
 20
-502.24722325027318
 30
0.0
  0
SEQEND
  5
1312BC
  8
SLIM
  0
POLYLINE
  5
130629
  8
SLIM
 66
     1
 10
0.0
 20
0.0
 30
0.0
 70
     1
1001
ACDBBLOCKREPETAG
1070
     1
1071
      166
1005
130629
  0
VERTEX
  5
1312BD
  8
SLIM
 10
467.07437415506678
 20
-605.75277674973904
 30
0.0
  0
VERTEX
  5
1312BE
  8
SLIM
 10
467.07437415506678
 20
-598.24722325027506
 30
0.0
  0
VERTEX
  5
1312BF
  8
SLIM
 10
460.57437415506678
 20
-594.49444650054147
 30
0.0
  0
VERTEX
  5
1312C0
  8
SLIM
 10
454.0743741550632
 20
-598.24722325027551
 30
0.0
  0
VERTEX
  5
1312C1
  8
SLIM
 10
454.07437415506678
 20
-605.75277674973927
 30
0.0
  0
VERTEX
  5
1312C2
  8
SLIM
 10
460.57437415506308
 20
-609.50555349947297
 30
0.0
  0
SEQEND
  5
1312C3
  8
SLIM
  0
POLYLINE
  5
13062A
  8
SLIM
 66
     1
 10
0.0
 20
0.0
 30
0.0
 70
     1
1001
ACDBBLOCKREPETAG
1070
     1
1071
      167
1005
13062A
  0
VERTEX
  5
1312C4
  8
SLIM
 10
571.42562583947245
 20
-594.49444650054147
 30
0.0
  0
VERTEX
  5
1312C5
  8
SLIM
 10
564.92562583947245
 20
-598.24722325027506
 30
0.0
  0
VERTEX
  5
1312C6
  8
SLIM
 10
564.92562583947245
 20
-605.75277674973904
 30
0.0
  0
VERTEX
  5
1312C7
  8
SLIM
 10
571.4256258394762
 20
-609.50555349947297
 30
0.0
  0
VERTEX
  5
1312C8
  8
SLIM
 10
577.92562583947245
 20
-605.75277674973927
 30
0.0
  0
VERTEX
  5
1312C9
  8
SLIM
 10
577.92562583947586
 20
-598.24722325027551
 30
0.0
  0
SEQEND
  5
1312CA
  8
SLIM
  0
INSERT
  5
13062B
  8
OBJECT
  2
*U4
 10
0.0
 20
0.0
 30
0.0
  0
LINE
  5
13062C
  8
OBJECT
 10
577.99999999726936
 20
-176.00000000000361
 30
0.0
 11
577.99999999726936
 21
-173.00000000000361
 31
0.0
1001
ACDBBLOCKREPETAG
1070
     1
1071
      141
1005
13062C
  0
ARC
  5
13062D
  8
OBJECT
 10
574.9999999972697
 20
-173.00000000000361
 30
0.0
 40
3.0
 50
0.0
 51
90.0
1001
ACDBBLOCKREPETAG
1070
     1
1071
      142
1005
13062D
  0
LINE
  5
13062E
  8
OBJECT
 10
453.99999999727322
 20
-176.00000000000361
 30
0.0
 11
453.99999999727322
 21
-173.00000000000361
 31
0.0
1001
ACDBBLOCKREPETAG
1070
     1
1071
      143
1005
13062E
  0
LINE
  5
13062F
  8
OBJECT
 10
456.99999999726953
 20
-170.00000000000361
 30
0.0
 11
456.999999997266
 21
-147.34527240647051
 31
0.0
1001
ACDBBLOCKREPETAG
1070
     1
1071
      144
1005
13062F
  0
LINE
  5
130630
  8
OBJECT
 10
574.99999999727322
 20
-170.00000000000361
 30
0.0
 11
574.9999999972697
 21
-147.34527240647091
 31
0.0
1001
ACDBBLOCKREPETAG
1070
     1
1071
      145
1005
130630
  0
LINE
  5
130631
  8
OBJECT
 10
456.99999999727328
 20
-170.00000000000361
 30
0.0
 11
574.9999999972697
 21
-170.00000000000361
 31
0.0
1001
ACDBBLOCKREPETAG
1070
     1
1071
      146
1005
130631
  0
ARC
  5
130632
  8
OBJECT
 10
456.99999999727328
 20
-173.00000000000361
 30
0.0
 40
3.0
 50
90.0
 51
180.0
1001
ACDBBLOCKREPETAG
1070
     1
1071
      147
1005
130632
  0
ARC
  5
130633
  8
OBJECT
 10
515.99999999726936
 20
-106.0000000000036
 30
0.0
 40
61.0
 50
127.1672854612758
 51
172.83271453873181
1001
ACDBBLOCKREPETAG
1070
     1
1071
      149
1005
130633
  0
ARC
  5
130634
  8
OBJECT
 10
515.99999999726936
 20
-106.0000000000036
 30
0.0
 40
61.0
 50
247.16728546121399
 51
292.83271453878598
1001
ACDBBLOCKREPETAG
1070
     1
1071
      150
1005
130634
  0
ARC
  5
130635
  8
OBJECT
 10
515.99999999726936
 20
-106.0000000000036
 30
0.0
 40
61.0
 50
7.1672854612682118
 51
52.832714538724233
1001
ACDBBLOCKREPETAG
1070
     1
1071
      151
1005
130635
  0
CIRCLE
  5
130636
  8
SLIM
 10
515.99999999726936
 20
-42.000000000003638
 30
0.0
 40
4.0
1001
ACDBBLOCKREPETAG
1070
     1
1071
      152
1005
130636
  0
ARC
  5
130637
  8
OBJECT
 10
515.99999999726936
 20
-42.000000000003638
 30
0.0
 40
10.0
 50
52.832714538724233
 51
127.1672854612758
1001
ACDBBLOCKREPETAG
1070
     1
1071
      153
1005
130637
  0
LINE
  5
130638
  8
OBJECT
 10
479.14720278851559
 20
-57.39062500000589
 30
0.0
 11
509.95855783190001
 21
-34.031250000003638
 31
0.0
1001
ACDBBLOCKREPETAG
1070
     1
1071
      154
1005
130638
  0
LINE
  5
130639
  8
OBJECT
 10
552.85279720602375
 20
-57.39062500000589
 30
0.0
 11
522.04144216263921
 21
-34.031250000003638
 31
0.0
1001
ACDBBLOCKREPETAG
1070
     1
1071
      155
1005
130639
  0
CIRCLE
  5
13063A
  8
SLIM
 10
460.57437415506678
 20
-138.00000000000361
 30
0.0
 40
3.9999999999999991
1001
ACDBBLOCKREPETAG
1070
     1
1071
      156
1005
13063A
  0
ARC
  5
13063B
  8
OBJECT
 10
460.57437415506678
 20
-138.00000000000361
 30
0.0
 40
9.9999999999999982
 50
172.8327145387714
 51
247.16728546121399
1001
ACDBBLOCKREPETAG
1070
     1
1071
      157
1005
13063B
  0
LINE
  5
13063C
  8
OBJECT
 10
492.3294449895638
 20
-162.22014608329931
 30
0.0
 11
456.69395530134159
 21
-147.2164173907081
 31
0.0
1001
ACDBBLOCKREPETAG
1070
     1
1071
      158
1005
13063C
  0
LINE
  5
13063D
  8
OBJECT
 10
455.47664778080963
 20
-98.38922891670515
 30
0.0
 11
450.65251313597219
 21
-136.75233260929909
 31
0.0
1001
ACDBBLOCKREPETAG
1070
     1
1071
      159
1005
13063D
  0
CIRCLE
  5
13063E
  8
SLIM
 10
571.42562583947245
 20
-138.00000000000361
 30
0.0
 40
4.0
1001
ACDBBLOCKREPETAG
1070
     1
1071
      160
1005
13063E
  0
ARC
  5
13063F
  8
OBJECT
 10
571.42562583947245
 20
-138.00000000000361
 30
0.0
 40
10.0
 50
292.83271453878598
 51
7.1672854612286221
1001
ACDBBLOCKREPETAG
1070
     1
1071
      161
1005
13063F
  0
LINE
  5
130640
  8
OBJECT
 10
576.52335221372959
 20
-98.38922891670515
 30
0.0
 11
581.34748685856721
 21
-136.75233260929909
 31
0.0
1001
ACDBBLOCKREPETAG
1070
     1
1071
      162
1005
130640
  0
LINE
  5
130641
  8
OBJECT
 10
539.67055500497554
 20
-162.22014608329931
 30
0.0
 11
575.30604469319735
 21
-147.2164173907081
 31
0.0
1001
ACDBBLOCKREPETAG
1070
     1
1071
      163
1005
130641
  0
CIRCLE
  5
130642
  8
OBJECT
 10
515.99999999726936
 20
-106.0000000000036
 30
0.0
 40
46.0
1001
ACDBBLOCKREPETAG
1070
     1
1071
      164
1005
130642
  0
POLYLINE
  5
130643
  8
SLIM
 66
     1
 10
0.0
 20
0.0
 30
0.0
 70
     1
1001
ACDBBLOCKREPETAG
1070
     1
1071
      165
1005
130643
  0
VERTEX
  5
1312CB
  8
SLIM
 10
509.4999999972697
 20
-45.752776749737677
 30
0.0
  0
VERTEX
  5
1312CC
  8
SLIM
 10
515.99999999726936
 20
-49.505553499468078
 30
0.0
  0
VERTEX
  5
1312CD
  8
SLIM
 10
522.4999999972697
 20
-45.752776749737677
 30
0.0
  0
VERTEX
  5
1312CE
  8
SLIM
 10
522.4999999972697
 20
-38.247223250269613
 30
0.0
  0
VERTEX
  5
1312CF
  8
SLIM
 10
515.99999999726936
 20
-34.494446500539198
 30
0.0
  0
VERTEX
  5
1312D0
  8
SLIM
 10
509.4999999972697
 20
-38.247223250269613
 30
0.0
  0
SEQEND
  5
1312D1
  8
SLIM
  0
POLYLINE
  5
130644
  8
SLIM
 66
     1
 10
0.0
 20
0.0
 30
0.0
 70
     1
1001
ACDBBLOCKREPETAG
1070
     1
1071
      166
1005
130644
  0
VERTEX
  5
1312D2
  8
SLIM
 10
467.07437415506678
 20
-141.7527767497354
 30
0.0
  0
VERTEX
  5
1312D3
  8
SLIM
 10
467.07437415506678
 20
-134.24722325027139
 30
0.0
  0
VERTEX
  5
1312D4
  8
SLIM
 10
460.57437415506678
 20
-130.4944465005378
 30
0.0
  0
VERTEX
  5
1312D5
  8
SLIM
 10
454.0743741550632
 20
-134.24722325027179
 30
0.0
  0
VERTEX
  5
1312D6
  8
SLIM
 10
454.07437415506678
 20
-141.7527767497358
 30
0.0
  0
VERTEX
  5
1312D7
  8
SLIM
 10
460.57437415506308
 20
-145.50555349946941
 30
0.0
  0
SEQEND
  5
1312D8
  8
SLIM
  0
POLYLINE
  5
130645
  8
SLIM
 66
     1
 10
0.0
 20
0.0
 30
0.0
 70
     1
1001
ACDBBLOCKREPETAG
1070
     1
1071
      167
1005
130645
  0
VERTEX
  5
1312D9
  8
SLIM
 10
571.42562583947245
 20
-130.4944465005378
 30
0.0
  0
VERTEX
  5
1312DA
  8
SLIM
 10
564.92562583947245
 20
-134.24722325027139
 30
0.0
  0
VERTEX
  5
1312DB
  8
SLIM
 10
564.92562583947245
 20
-141.7527767497354
 30
0.0
  0
VERTEX
  5
1312DC
  8
SLIM
 10
571.4256258394762
 20
-145.50555349946941
 30
0.0
  0
VERTEX
  5
1312DD
  8
SLIM
 10
577.92562583947245
 20
-141.7527767497358
 30
0.0
  0
VERTEX
  5
1312DE
  8
SLIM
 10
577.92562583947586
 20
-134.24722325027179
 30
0.0
  0
SEQEND
  5
1312DF
  8
SLIM
  0
INSERT
  5
130646
  8
OBJECT
  2
*U5
 10
0.0
 20
0.0
 30
0.0
  0
LINE
  5
130647
  8
OBJECT
 10
217.9999999971879
 20
-176.00000000000361
 30
0.0
 11
217.9999999971879
 21
-173.00000000000361
 31
0.0
1001
ACDBBLOCKREPETAG
1070
     1
1071
      141
1005
130647
  0
ARC
  5
130648
  8
OBJECT
 10
214.99999999718781
 20
-173.00000000000361
 30
0.0
 40
3.0
 50
0.0
 51
90.0
1001
ACDBBLOCKREPETAG
1070
     1
1071
      142
1005
130648
  0
LINE
  5
130649
  8
OBJECT
 10
93.999999997191424
 20
-176.00000000000361
 30
0.0
 11
93.999999997191424
 21
-173.00000000000361
 31
0.0
1001
ACDBBLOCKREPETAG
1070
     1
1071
      143
1005
130649
  0
LINE
  5
13064A
  8
OBJECT
 10
96.999999997187842
 20
-170.00000000000361
 30
0.0
 11
96.999999997184204
 21
-147.34527240647051
 31
0.0
1001
ACDBBLOCKREPETAG
1070
     1
1071
      144
1005
13064A
  0
LINE
  5
13064B
  8
OBJECT
 10
214.99999999719151
 20
-170.00000000000361
 30
0.0
 11
214.99999999718781
 21
-147.34527240647091
 31
0.0
1001
ACDBBLOCKREPETAG
1070
     1
1071
      145
1005
13064B
  0
LINE
  5
13064C
  8
OBJECT
 10
96.99999999719148
 20
-170.00000000000361
 30
0.0
 11
214.99999999718781
 21
-170.00000000000361
 31
0.0
1001
ACDBBLOCKREPETAG
1070
     1
1071
      146
1005
13064C
  0
ARC
  5
13064D
  8
OBJECT
 10
96.99999999719148
 20
-173.00000000000361
 30
0.0
 40
3.0
 50
90.0
 51
180.0
1001
ACDBBLOCKREPETAG
1070
     1
1071
      147
1005
13064D
  0
ARC
  5
13064E
  8
OBJECT
 10
155.99999999718781
 20
-106.0000000000036
 30
0.0
 40
61.0
 50
127.1672854612744
 51
172.83271453873201
1001
ACDBBLOCKREPETAG
1070
     1
1071
      149
1005
13064E
  0
ARC
  5
13064F
  8
OBJECT
 10
155.99999999718781
 20
-106.0000000000036
 30
0.0
 40
61.0
 50
247.16728546121701
 51
292.83271453878308
1001
ACDBBLOCKREPETAG
1070
     1
1071
      150
1005
13064F
  0
ARC
  5
130650
  8
OBJECT
 10
155.99999999718781
 20
-106.0000000000036
 30
0.0
 40
61.0
 50
7.1672854612680084
 51
52.832714538725519
1001
ACDBBLOCKREPETAG
1070
     1
1071
      151
1005
130650
  0
CIRCLE
  5
130651
  8
SLIM
 10
155.99999999718781
 20
-42.000000000003638
 30
0.0
 40
4.0
1001
ACDBBLOCKREPETAG
1070
     1
1071
      152
1005
130651
  0
ARC
  5
130652
  8
OBJECT
 10
155.99999999718781
 20
-42.000000000003638
 30
0.0
 40
10.0
 50
52.832714538725519
 51
127.1672854612744
1001
ACDBBLOCKREPETAG
1070
     1
1071
      153
1005
130652
  0
LINE
  5
130653
  8
OBJECT
 10
119.1472027884338
 20
-57.39062500000589
 30
0.0
 11
149.9585578318183
 21
-34.031250000003638
 31
0.0
1001
ACDBBLOCKREPETAG
1070
     1
1071
      154
1005
130653
  0
LINE
  5
130654
  8
OBJECT
 10
192.8527972059419
 20
-57.39062500000589
 30
0.0
 11
162.0414421625573
 21
-34.031250000003638
 31
0.0
1001
ACDBBLOCKREPETAG
1070
     1
1071
      155
1005
130654
  0
CIRCLE
  5
130655
  8
SLIM
 10
100.57437415498499
 20
-138.00000000000361
 30
0.0
 40
3.9999999999999991
1001
ACDBBLOCKREPETAG
1070
     1
1071
      156
1005
130655
  0
ARC
  5
130656
  8
OBJECT
 10
100.57437415498499
 20
-138.00000000000361
 30
0.0
 40
9.9999999999999982
 50
172.8327145387714
 51
247.16728546121701
1001
ACDBBLOCKREPETAG
1070
     1
1071
      157
1005
130656
  0
LINE
  5
130657
  8
OBJECT
 10
132.329444989482
 20
-162.22014608329931
 30
0.0
 11
96.693955301259848
 21
-147.2164173907081
 31
0.0
1001
ACDBBLOCKREPETAG
1070
     1
1071
      158
1005
130657
  0
LINE
  5
130658
  8
OBJECT
 10
95.476647780727944
 20
-98.38922891670515
 30
0.0
 11
90.652513135890317
 21
-136.75233260929909
 31
0.0
1001
ACDBBLOCKREPETAG
1070
     1
1071
      159
1005
130658
  0
CIRCLE
  5
130659
  8
SLIM
 10
211.4256258393907
 20
-138.00000000000361
 30
0.0
 40
4.0
1001
ACDBBLOCKREPETAG
1070
     1
1071
      160
1005
130659
  0
ARC
  5
13065A
  8
OBJECT
 10
211.4256258393907
 20
-138.00000000000361
 30
0.0
 40
10.0
 50
292.83271453878308
 51
7.1672854612286221
1001
ACDBBLOCKREPETAG
1070
     1
1071
      161
1005
13065A
  0
LINE
  5
13065B
  8
OBJECT
 10
216.52335221364771
 20
-98.38922891670515
 30
0.0
 11
221.3474868584853
 21
-136.75233260929909
 31
0.0
1001
ACDBBLOCKREPETAG
1070
     1
1071
      162
1005
13065B
  0
LINE
  5
13065C
  8
OBJECT
 10
179.67055500489371
 20
-162.22014608329931
 30
0.0
 11
215.30604469311581
 21
-147.2164173907081
 31
0.0
1001
ACDBBLOCKREPETAG
1070
     1
1071
      163
1005
13065C
  0
CIRCLE
  5
13065D
  8
OBJECT
 10
155.99999999718781
 20
-106.0000000000036
 30
0.0
 40
46.0
1001
ACDBBLOCKREPETAG
1070
     1
1071
      164
1005
13065D
  0
POLYLINE
  5
13065E
  8
SLIM
 66
     1
 10
0.0
 20
0.0
 30
0.0
 70
     1
1001
ACDBBLOCKREPETAG
1070
     1
1071
      165
1005
13065E
  0
VERTEX
  5
1312E0
  8
SLIM
 10
149.49999999718781
 20
-45.752776749737677
 30
0.0
  0
VERTEX
  5
1312E1
  8
SLIM
 10
155.99999999718781
 20
-49.505553499468078
 30
0.0
  0
VERTEX
  5
1312E2
  8
SLIM
 10
162.49999999718781
 20
-45.752776749737677
 30
0.0
  0
VERTEX
  5
1312E3
  8
SLIM
 10
162.49999999718781
 20
-38.247223250269613
 30
0.0
  0
VERTEX
  5
1312E4
  8
SLIM
 10
155.99999999718781
 20
-34.494446500539198
 30
0.0
  0
VERTEX
  5
1312E5
  8
SLIM
 10
149.49999999718781
 20
-38.247223250269613
 30
0.0
  0
SEQEND
  5
1312E6
  8
SLIM
  0
POLYLINE
  5
13065F
  8
SLIM
 66
     1
 10
0.0
 20
0.0
 30
0.0
 70
     1
1001
ACDBBLOCKREPETAG
1070
     1
1071
      166
1005
13065F
  0
VERTEX
  5
1312E7
  8
SLIM
 10
107.07437415498489
 20
-141.7527767497354
 30
0.0
  0
VERTEX
  5
1312E8
  8
SLIM
 10
107.07437415498489
 20
-134.24722325027139
 30
0.0
  0
VERTEX
  5
1312E9
  8
SLIM
 10
100.57437415498499
 20
-130.4944465005378
 30
0.0
  0
VERTEX
  5
1312EA
  8
SLIM
 10
94.074374154981371
 20
-134.24722325027179
 30
0.0
  0
VERTEX
  5
1312EB
  8
SLIM
 10
94.074374154984952
 20
-141.7527767497358
 30
0.0
  0
VERTEX
  5
1312EC
  8
SLIM
 10
100.5743741549813
 20
-145.50555349946941
 30
0.0
  0
SEQEND
  5
1312ED
  8
SLIM
  0
POLYLINE
  5
130660
  8
SLIM
 66
     1
 10
0.0
 20
0.0
 30
0.0
 70
     1
1001
ACDBBLOCKREPETAG
1070
     1
1071
      167
1005
130660
  0
VERTEX
  5
1312EE
  8
SLIM
 10
211.4256258393907
 20
-130.4944465005378
 30
0.0
  0
VERTEX
  5
1312EF
  8
SLIM
 10
204.9256258393907
 20
-134.24722325027139
 30
0.0
  0
VERTEX
  5
1312F0
  8
SLIM
 10
204.9256258393907
 20
-141.7527767497354
 30
0.0
  0
VERTEX
  5
1312F1
  8
SLIM
 10
211.42562583939431
 20
-145.50555349946941
 30
0.0
  0
VERTEX
  5
1312F2
  8
SLIM
 10
217.9256258393907
 20
-141.7527767497358
 30
0.0
  0
VERTEX
  5
1312F3
  8
SLIM
 10
217.9256258393944
 20
-134.24722325027179
 30
0.0
  0
SEQEND
  5
1312F4
  8
SLIM
  0
INSERT
  5
130661
  8
OBJECT
  2
*U6
 10
0.0
 20
0.0
 30
0.0
  0
LINE
  5
130662
  8
OBJECT
 10
93.999999997187857
 20
-802.99999999941394
 30
0.0
 11
93.999999997187857
 21
-799.9999999994144
 31
0.0
1001
ACDBBLOCKREPETAG
1070
     1
1071
      418
1005
130662
  0
ARC
  5
130663
  8
OBJECT
 10
96.999999997187842
 20
-802.99999999941394
 30
0.0
 40
3.0
 50
180.0
 51
270.0
1001
ACDBBLOCKREPETAG
1070
     1
1071
      419
1005
130663
  0
LINE
  5
130664
  8
OBJECT
 10
217.9999999971879
 20
-799.9999999994144
 30
0.0
 11
217.9999999971879
 21
-802.99999999941394
 31
0.0
1001
ACDBBLOCKREPETAG
1070
     1
1071
      420
1005
130664
  0
ARC
  5
130665
  8
OBJECT
 10
214.99999999718781
 20
-802.99999999941394
 30
0.0
 40
3.0
 50
270.0
 51
0.0
1001
ACDBBLOCKREPETAG
1070
     1
1071
      421
1005
130665
  0
LINE
  5
130666
  8
OBJECT
 10
214.99999999718781
 20
-805.99999999941429
 30
0.0
 11
96.999999997187842
 21
-805.99999999941429
 31
0.0
1001
ACDBBLOCKREPETAG
1070
     1
1071
      422
1005
130666
  0
INSERT
  5
130667
  8
OBJECT
  2
*U7
 10
0.0
 20
0.0
 30
0.0
  0
LINE
  5
130668
  8
OBJECT
 10
288.9999999971879
 20
-657.9999999994144
 30
0.0
 11
295.99999999718779
 21
-657.9999999994144
 31
0.0
1001
ACDBBLOCKREPETAG
1070
     1
1071
       39
1005
130668
  0
LINE
  5
130669
  8
OBJECT
 10
295.99999999718779
 20
-657.9999999994144
 30
0.0
 11
295.99999999718779
 21
-781.99999999941394
 31
0.0
1001
ACDBBLOCKREPETAG
1070
     1
1071
       40
1005
130669
  0
LINE
  5
13066A
  8
OBJECT
 10
295.99999999718779
 20
-781.99999999941394
 30
0.0
 11
288.9999999971879
 21
-781.99999999941394
 31
0.0
1001
ACDBBLOCKREPETAG
1070
     1
1071
       41
1005
13066A
  0
LINE
  5
13066B
  8
OBJECT
 10
288.9999999971879
 20
-781.99999999941394
 30
0.0
 11
288.9999999971879
 21
-657.9999999994144
 31
0.0
1001
ACDBBLOCKREPETAG
1070
     1
1071
       42
1005
13066B
  0
LINE
  5
13066C
  8
OBJECT
 10
288.9999999971879
 20
-660.99999999941406
 30
0.0
 11
252.99999999718781
 21
-660.99999999941406
 31
0.0
1001
ACDBBLOCKREPETAG
1070
     1
1071
       43
1005
13066C
  0
LINE
  5
13066D
  8
OBJECT
 10
252.99999999718781
 20
-660.99999999941406
 30
0.0
 11
252.99999999718781
 21
-778.9999999994144
 31
0.0
1001
ACDBBLOCKREPETAG
1070
     1
1071
       44
1005
13066D
  0
LINE
  5
13066E
  8
OBJECT
 10
252.99999999718781
 20
-778.9999999994144
 30
0.0
 11
288.9999999971879
 21
-778.9999999994144
 31
0.0
1001
ACDBBLOCKREPETAG
1070
     1
1071
       45
1005
13066E
  0
LINE
  5
13066F
  8
OBJECT
 10
248.99999999718781
 20
-665.49999999941406
 30
0.0
 11
241.99999999718781
 21
-665.49999999941406
 31
0.0
1001
ACDBBLOCKREPETAG
1070
     1
1071
       46
1005
13066F
  0
LINE
  5
130670
  8
OBJECT
 10
241.99999999718781
 20
-774.4999999994144
 30
0.0
 11
248.99999999718781
 21
-774.4999999994144
 31
0.0
1001
ACDBBLOCKREPETAG
1070
     1
1071
       47
1005
130670
  0
LINE
  5
130671
  8
OBJECT
 10
248.99999999718781
 20
-774.4999999994144
 30
0.0
 11
248.99999999718781
 21
-665.49999999941406
 31
0.0
1001
ACDBBLOCKREPETAG
1070
     1
1071
       48
1005
130671
  0
LINE
  5
130672
  8
OBJECT
 10
252.99999999718781
 20
-660.99999999941406
 30
0.0
 11
248.99999999718781
 21
-665.49999999941406
 31
0.0
1001
ACDBBLOCKREPETAG
1070
     1
1071
       49
1005
130672
  0
LINE
  5
130673
  8
OBJECT
 10
252.99999999718781
 20
-778.9999999994144
 30
0.0
 11
248.99999999718781
 21
-774.4999999994144
 31
0.0
1001
ACDBBLOCKREPETAG
1070
     1
1071
       50
1005
130673
  0
LINE
  5
130674
  8
OBJECT
 10
238.99999999718969
 20
-657.9999999994144
 30
0.0
 11
235.99999999718781
 21
-657.9999999994144
 31
0.0
1001
ACDBBLOCKREPETAG
1070
     1
1071
       51
1005
130674
  0
ARC
  5
130675
  8
OBJECT
 10
238.99999999718969
 20
-660.99999999941406
 30
0.0
 40
3.0
 50
0.0
 51
90.0
1001
ACDBBLOCKREPETAG
1070
     1
1071
       52
1005
130675
  0
LINE
  5
130676
  8
OBJECT
 10
235.99999999718781
 20
-781.99999999941394
 30
0.0
 11
238.99999999718599
 21
-781.99999999941394
 31
0.0
1001
ACDBBLOCKREPETAG
1070
     1
1071
       53
1005
130676
  0
ARC
  5
130677
  8
OBJECT
 10
238.99999999718599
 20
-778.9999999994144
 30
0.0
 40
3.0
 50
270.0
 51
0.0
1001
ACDBBLOCKREPETAG
1070
     1
1071
       54
1005
130677
  0
LINE
  5
130678
  8
OBJECT
 10
241.99999999718599
 20
-778.9999999994144
 30
0.0
 11
241.99999999718969
 21
-660.99999999941406
 31
0.0
1001
ACDBBLOCKREPETAG
1070
     1
1071
       55
1005
130678
  0
LINE
  5
130679
  8
HIDDEN
 10
243.99999999718781
 20
-675.4999999994144
 30
0.0
 11
243.99999999718781
 21
-764.49999999941406
 31
0.0
1001
ACDBBLOCKREPETAG
1070
     1
1071
      430
1005
130679
  0
LINE
  5
13067A
  8
OBJECT
 10
453.9999999972697
 20
-802.99999999941394
 30
0.0
 11
453.9999999972697
 21
-799.9999999994144
 31
0.0
1001
ACDBBLOCKREPETAG
1070
     1
1071
      418
1005
13067A
  0
ARC
  5
13067B
  8
OBJECT
 10
456.99999999726953
 20
-802.99999999941394
 30
0.0
 40
3.0
 50
180.0
 51
270.0
1001
ACDBBLOCKREPETAG
1070
     1
1071
      419
1005
13067B
  0
LINE
  5
13067C
  8
OBJECT
 10
577.99999999726936
 20
-799.9999999994144
 30
0.0
 11
577.99999999726936
 21
-802.99999999941394
 31
0.0
1001
ACDBBLOCKREPETAG
1070
     1
1071
      420
1005
13067C
  0
ARC
  5
13067D
  8
OBJECT
 10
574.9999999972697
 20
-802.99999999941394
 30
0.0
 40
3.0
 50
270.0
 51
0.0
1001
ACDBBLOCKREPETAG
1070
     1
1071
      421
1005
13067D
  0
LINE
  5
13067E
  8
OBJECT
 10
574.9999999972697
 20
-805.99999999941429
 30
0.0
 11
456.99999999726953
 21
-805.99999999941429
 31
0.0
1001
ACDBBLOCKREPETAG
1070
     1
1071
      422
1005
13067E
  0
LINE
  5
13067F
  8
OBJECT
 10
665.9999999972697
 20
-644.99999999941406
 30
0.0
 11
658.9999999972697
 21
-644.99999999941406
 31
0.0
1001
ACDBBLOCKREPETAG
1070
     1
1071
       57
1005
13067F
  0
LINE
  5
130680
  8
OBJECT
 10
658.9999999972697
 20
-644.99999999941406
 30
0.0
 11
658.9999999972697
 21
-794.99999999941394
 31
0.0
1001
ACDBBLOCKREPETAG
1070
     1
1071
       58
1005
130680
  0
LINE
  5
130681
  8
OBJECT
 10
617.4999999972697
 20
-647.99999999941417
 30
0.0
 11
617.4999999972697
 21
-791.9999999994144
 31
0.0
1001
ACDBBLOCKREPETAG
1070
     1
1071
       59
1005
130681
  0
LINE
  5
130682
  8
OBJECT
 10
605.9999999972697
 20
-654.4999999994144
 30
0.0
 11
605.9999999972697
 21
-785.49999999941406
 31
0.0
1001
ACDBBLOCKREPETAG
1070
     1
1071
       60
1005
130682
  0
LINE
  5
130683
  8
OBJECT
 10
658.9999999972697
 20
-794.99999999941394
 30
0.0
 11
665.9999999972697
 21
-794.99999999941394
 31
0.0
1001
ACDBBLOCKREPETAG
1070
     1
1071
       61
1005
130683
  0
LINE
  5
130684
  8
OBJECT
 10
665.9999999972697
 20
-794.99999999941394
 30
0.0
 11
665.9999999972697
 21
-644.99999999941406
 31
0.0
1001
ACDBBLOCKREPETAG
1070
     1
1071
       62
1005
130684
  0
LINE
  5
130685
  8
OBJECT
 10
601.99999999726958
 20
-781.99999999941394
 30
0.0
 11
595.9999999972697
 21
-781.99999999941394
 31
0.0
1001
ACDBBLOCKREPETAG
1070
     1
1071
       63
1005
130685
  0
LINE
  5
130686
  8
OBJECT
 10
658.9999999972697
 20
-791.9999999994144
 30
0.0
 11
617.4999999972697
 21
-791.9999999994144
 31
0.0
1001
ACDBBLOCKREPETAG
1070
     1
1071
       64
1005
130686
  0
LINE
  5
130687
  8
OBJECT
 10
617.4999999972697
 20
-791.9999999994144
 30
0.0
 11
605.9999999972697
 21
-785.49999999941406
 31
0.0
1001
ACDBBLOCKREPETAG
1070
     1
1071
       65
1005
130687
  0
LINE
  5
130688
  8
OBJECT
 10
605.9999999972697
 20
-785.49999999941406
 30
0.0
 11
601.99999999726958
 21
-781.99999999941394
 31
0.0
1001
ACDBBLOCKREPETAG
1070
     1
1071
       66
1005
130688
  0
LINE
  5
130689
  8
OBJECT
 10
617.4999999972697
 20
-647.99999999941417
 30
0.0
 11
605.9999999972697
 21
-654.4999999994144
 31
0.0
1001
ACDBBLOCKREPETAG
1070
     1
1071
       67
1005
130689
  0
LINE
  5
13068A
  8
OBJECT
 10
605.9999999972697
 20
-654.4999999994144
 30
0.0
 11
601.99999999726958
 21
-657.9999999994144
 31
0.0
1001
ACDBBLOCKREPETAG
1070
     1
1071
       68
1005
13068A
  0
ARC
  5
13068B
  8
OBJECT
 10
983.89999999727115
 20
-719.99999999941394
 30
0.0
 40
386.89999999999998
 50
170.7787013626384
 51
189.22129863736151
1001
ACDBBLOCKREPETAG
1070
     1
1071
       69
1005
13068B
  0
LINE
  5
13068C
  8
OBJECT
 10
601.99999999726958
 20
-657.9999999994144
 30
0.0
 11
595.9999999972697
 21
-657.9999999994144
 31
0.0
1001
ACDBBLOCKREPETAG
1070
     1
1071
       70
1005
13068C
  0
LINE
  5
13068D
  8
OBJECT
 10
658.9999999972697
 20
-647.99999999941417
 30
0.0
 11
617.4999999972697
 21
-647.99999999941417
 31
0.0
1001
ACDBBLOCKREPETAG
1070
     1
1071
       71
1005
13068D
  0
INSERT
  5
13068E
  8
OBJECT
  2
*U8
 10
0.0
 20
0.0
 30
0.0
  0
LINE
  5
13068F
  8
HIDDEN
 10
613.9999999972697
 20
-776.99999999941406
 30
0.0
 11
613.9999999972697
 21
-662.9999999994144
 31
0.0
1001
ACDBBLOCKREPETAG
1070
     1
1071
      437
1005
13068F
  0
LINE
  5
130690
  8
OBJECT
 10
453.9999999972697
 20
-338.9999999994107
 30
0.0
 11
453.9999999972697
 21
-335.99999999941048
 31
0.0
1001
ACDBBLOCKREPETAG
1070
     1
1071
      418
1005
130690
  0
ARC
  5
130691
  8
OBJECT
 10
456.99999999726953
 20
-338.9999999994107
 30
0.0
 40
3.0
 50
180.0
 51
270.0
1001
ACDBBLOCKREPETAG
1070
     1
1071
      419
1005
130691
  0
LINE
  5
130692
  8
OBJECT
 10
577.99999999726936
 20
-335.99999999941048
 30
0.0
 11
577.99999999726936
 21
-338.9999999994107
 31
0.0
1001
ACDBBLOCKREPETAG
1070
     1
1071
      420
1005
130692
  0
ARC
  5
130693
  8
OBJECT
 10
574.9999999972697
 20
-338.9999999994107
 30
0.0
 40
3.0
 50
270.0
 51
0.0
1001
ACDBBLOCKREPETAG
1070
     1
1071
      421
1005
130693
  0
LINE
  5
130694
  8
OBJECT
 10
574.9999999972697
 20
-341.99999999941048
 30
0.0
 11
456.99999999726953
 21
-341.99999999941048
 31
0.0
1001
ACDBBLOCKREPETAG
1070
     1
1071
      422
1005
130694
  0
INSERT
  5
130695
  8
OBJECT
  2
*U9
 10
0.0
 20
0.0
 30
0.0
  0
LINE
  5
130696
  8
OBJECT
 10
648.99999999726936
 20
-200.9999999994107
 30
0.0
 11
655.9999999972697
 21
-200.9999999994107
 31
0.0
1001
ACDBBLOCKREPETAG
1070
     1
1071
       20
1005
130696
  0
LINE
  5
130697
  8
OBJECT
 10
655.9999999972697
 20
-200.9999999994107
 30
0.0
 11
655.9999999972697
 21
-310.99999999941048
 31
0.0
1001
ACDBBLOCKREPETAG
1070
     1
1071
       21
1005
130697
  0
LINE
  5
130698
  8
OBJECT
 10
655.9999999972697
 20
-310.99999999941048
 30
0.0
 11
648.99999999726936
 21
-310.99999999941048
 31
0.0
1001
ACDBBLOCKREPETAG
1070
     1
1071
       22
1005
130698
  0
LINE
  5
130699
  8
OBJECT
 10
648.99999999726936
 20
-310.99999999941048
 30
0.0
 11
648.99999999726936
 21
-200.9999999994107
 31
0.0
1001
ACDBBLOCKREPETAG
1070
     1
1071
       23
1005
130699
  0
LINE
  5
13069A
  8
OBJECT
 10
648.99999999726936
 20
-203.99999999941059
 30
0.0
 11
612.9999999972697
 21
-203.99999999941059
 31
0.0
1001
ACDBBLOCKREPETAG
1070
     1
1071
       24
1005
13069A
  0
LINE
  5
13069B
  8
OBJECT
 10
612.9999999972697
 20
-203.99999999941059
 30
0.0
 11
612.9999999972697
 21
-307.9999999994107
 31
0.0
1001
ACDBBLOCKREPETAG
1070
     1
1071
       25
1005
13069B
  0
LINE
  5
13069C
  8
OBJECT
 10
612.9999999972697
 20
-307.9999999994107
 30
0.0
 11
648.99999999726936
 21
-307.9999999994107
 31
0.0
1001
ACDBBLOCKREPETAG
1070
     1
1071
       26
1005
13069C
  0
LINE
  5
13069D
  8
OBJECT
 10
608.9999999972697
 20
-208.49999999941059
 30
0.0
 11
601.99999999726958
 21
-208.49999999941059
 31
0.0
1001
ACDBBLOCKREPETAG
1070
     1
1071
       27
1005
13069D
  0
LINE
  5
13069E
  8
OBJECT
 10
601.99999999726958
 20
-303.4999999994107
 30
0.0
 11
608.9999999972697
 21
-303.4999999994107
 31
0.0
1001
ACDBBLOCKREPETAG
1070
     1
1071
       28
1005
13069E
  0
LINE
  5
13069F
  8
OBJECT
 10
608.9999999972697
 20
-303.4999999994107
 30
0.0
 11
608.9999999972697
 21
-208.49999999941059
 31
0.0
1001
ACDBBLOCKREPETAG
1070
     1
1071
       29
1005
13069F
  0
LINE
  5
1306A0
  8
OBJECT
 10
612.9999999972697
 20
-203.99999999941059
 30
0.0
 11
608.9999999972697
 21
-208.49999999941059
 31
0.0
1001
ACDBBLOCKREPETAG
1070
     1
1071
       30
1005
1306A0
  0
LINE
  5
1306A1
  8
OBJECT
 10
612.9999999972697
 20
-307.9999999994107
 30
0.0
 11
608.9999999972697
 21
-303.4999999994107
 31
0.0
1001
ACDBBLOCKREPETAG
1070
     1
1071
       31
1005
1306A1
  0
LINE
  5
1306A2
  8
OBJECT
 10
598.99999999727152
 20
-193.99999999941051
 30
0.0
 11
595.9999999972697
 21
-193.99999999941051
 31
0.0
1001
ACDBBLOCKREPETAG
1070
     1
1071
       32
1005
1306A2
  0
ARC
  5
1306A3
  8
OBJECT
 10
598.99999999727152
 20
-196.99999999941051
 30
0.0
 40
3.0
 50
0.0
 51
90.0
1001
ACDBBLOCKREPETAG
1070
     1
1071
       33
1005
1306A3
  0
LINE
  5
1306A4
  8
OBJECT
 10
595.9999999972697
 20
-317.9999999994107
 30
0.0
 11
598.99999999726776
 21
-317.9999999994107
 31
0.0
1001
ACDBBLOCKREPETAG
1070
     1
1071
       34
1005
1306A4
  0
ARC
  5
1306A5
  8
OBJECT
 10
598.99999999726776
 20
-314.99999999941048
 30
0.0
 40
3.0
 50
270.0
 51
0.0
1001
ACDBBLOCKREPETAG
1070
     1
1071
       35
1005
1306A5
  0
LINE
  5
1306A6
  8
OBJECT
 10
601.99999999726788
 20
-314.99999999941048
 30
0.0
 11
601.99999999727152
 21
-196.99999999941051
 31
0.0
1001
ACDBBLOCKREPETAG
1070
     1
1071
       36
1005
1306A6
  0
LINE
  5
1306A7
  8
HIDDEN
 10
603.9999999972697
 20
-217.9999999994107
 30
0.0
 11
603.9999999972697
 21
-293.99999999941048
 31
0.0
1001
ACDBBLOCKREPETAG
1070
     1
1071
      427
1005
1306A7
  0
LINE
  5
1306A8
  8
OBJECT
 10
93.999999997187857
 20
-338.9999999994107
 30
0.0
 11
93.999999997187857
 21
-335.99999999941048
 31
0.0
1001
ACDBBLOCKREPETAG
1070
     1
1071
      418
1005
1306A8
  0
ARC
  5
1306A9
  8
OBJECT
 10
96.999999997187842
 20
-338.9999999994107
 30
0.0
 40
3.0
 50
180.0
 51
270.0
1001
ACDBBLOCKREPETAG
1070
     1
1071
      419
1005
1306A9
  0
LINE
  5
1306AA
  8
OBJECT
 10
217.9999999971879
 20
-335.99999999941048
 30
0.0
 11
217.9999999971879
 21
-338.9999999994107
 31
0.0
1001
ACDBBLOCKREPETAG
1070
     1
1071
      420
1005
1306AA
  0
ARC
  5
1306AB
  8
OBJECT
 10
214.99999999718781
 20
-338.9999999994107
 30
0.0
 40
3.0
 50
270.0
 51
0.0
1001
ACDBBLOCKREPETAG
1070
     1
1071
      421
1005
1306AB
  0
LINE
  5
1306AC
  8
OBJECT
 10
214.99999999718781
 20
-341.99999999941048
 30
0.0
 11
96.999999997187842
 21
-341.99999999941048
 31
0.0
1001
ACDBBLOCKREPETAG
1070
     1
1071
      422
1005
1306AC
  0
INSERT
  5
1306AD
  8
OBJECT
  2
*U10
 10
0.0
 20
0.0
 30
0.0
  0
LINE
  5
1306AE
  8
OBJECT
 10
288.9999999971879
 20
-208.99999999941051
 30
0.0
 11
295.99999999718779
 21
-208.99999999941051
 31
0.0
1001
ACDBBLOCKREPETAG
1070
     1
1071
        1
1005
1306AE
  0
LINE
  5
1306AF
  8
OBJECT
 10
295.99999999718779
 20
-208.99999999941051
 30
0.0
 11
295.99999999718779
 21
-302.9999999994107
 31
0.0
1001
ACDBBLOCKREPETAG
1070
     1
1071
        2
1005
1306AF
  0
LINE
  5
1306B0
  8
OBJECT
 10
295.99999999718779
 20
-302.9999999994107
 30
0.0
 11
288.9999999971879
 21
-302.9999999994107
 31
0.0
1001
ACDBBLOCKREPETAG
1070
     1
1071
        3
1005
1306B0
  0
LINE
  5
1306B1
  8
OBJECT
 10
288.9999999971879
 20
-302.9999999994107
 30
0.0
 11
288.9999999971879
 21
-208.99999999941051
 31
0.0
1001
ACDBBLOCKREPETAG
1070
     1
1071
        4
1005
1306B1
  0
LINE
  5
1306B2
  8
OBJECT
 10
288.9999999971879
 20
-211.9999999994107
 30
0.0
 11
252.99999999718781
 21
-211.9999999994107
 31
0.0
1001
ACDBBLOCKREPETAG
1070
     1
1071
        5
1005
1306B2
  0
LINE
  5
1306B3
  8
OBJECT
 10
252.99999999718781
 20
-211.9999999994107
 30
0.0
 11
252.99999999718781
 21
-299.99999999941059
 31
0.0
1001
ACDBBLOCKREPETAG
1070
     1
1071
        6
1005
1306B3
  0
LINE
  5
1306B4
  8
OBJECT
 10
252.99999999718781
 20
-299.99999999941059
 30
0.0
 11
288.9999999971879
 21
-299.99999999941059
 31
0.0
1001
ACDBBLOCKREPETAG
1070
     1
1071
        7
1005
1306B4
  0
LINE
  5
1306B5
  8
OBJECT
 10
248.99999999718781
 20
-216.49999999941059
 30
0.0
 11
241.99999999718781
 21
-216.49999999941059
 31
0.0
1001
ACDBBLOCKREPETAG
1070
     1
1071
        8
1005
1306B5
  0
LINE
  5
1306B6
  8
OBJECT
 10
241.99999999718781
 20
-295.4999999994107
 30
0.0
 11
248.99999999718781
 21
-295.4999999994107
 31
0.0
1001
ACDBBLOCKREPETAG
1070
     1
1071
        9
1005
1306B6
  0
LINE
  5
1306B7
  8
OBJECT
 10
248.99999999718781
 20
-295.4999999994107
 30
0.0
 11
248.99999999718781
 21
-216.49999999941059
 31
0.0
1001
ACDBBLOCKREPETAG
1070
     1
1071
       10
1005
1306B7
  0
LINE
  5
1306B8
  8
OBJECT
 10
252.99999999718781
 20
-211.9999999994107
 30
0.0
 11
248.99999999718781
 21
-216.49999999941059
 31
0.0
1001
ACDBBLOCKREPETAG
1070
     1
1071
       11
1005
1306B8
  0
LINE
  5
1306B9
  8
OBJECT
 10
252.99999999718781
 20
-299.99999999941059
 30
0.0
 11
248.99999999718781
 21
-295.4999999994107
 31
0.0
1001
ACDBBLOCKREPETAG
1070
     1
1071
       12
1005
1306B9
  0
LINE
  5
1306BA
  8
OBJECT
 10
238.99999999718969
 20
-193.99999999941051
 30
0.0
 11
235.99999999718781
 21
-193.99999999941051
 31
0.0
1001
ACDBBLOCKREPETAG
1070
     1
1071
       13
1005
1306BA
  0
ARC
  5
1306BB
  8
OBJECT
 10
238.99999999718969
 20
-196.99999999941051
 30
0.0
 40
3.0
 50
0.0
 51
90.0
1001
ACDBBLOCKREPETAG
1070
     1
1071
       14
1005
1306BB
  0
LINE
  5
1306BC
  8
OBJECT
 10
235.99999999718781
 20
-317.9999999994107
 30
0.0
 11
238.99999999718599
 21
-317.9999999994107
 31
0.0
1001
ACDBBLOCKREPETAG
1070
     1
1071
       15
1005
1306BC
  0
ARC
  5
1306BD
  8
OBJECT
 10
238.99999999718599
 20
-314.99999999941048
 30
0.0
 40
3.0
 50
270.0
 51
0.0
1001
ACDBBLOCKREPETAG
1070
     1
1071
       16
1005
1306BD
  0
LINE
  5
1306BE
  8
OBJECT
 10
241.99999999718599
 20
-314.99999999941048
 30
0.0
 11
241.99999999718969
 21
-196.99999999941051
 31
0.0
1001
ACDBBLOCKREPETAG
1070
     1
1071
       17
1005
1306BE
  0
LINE
  5
1306BF
  8
HIDDEN
 10
243.99999999718781
 20
-225.9999999994107
 30
0.0
 11
243.99999999718781
 21
-285.99999999941048
 31
0.0
1001
ACDBBLOCKREPETAG
1070
     1
1071
      424
1005
1306BF
  0
POLYLINE
  5
1306C0
  8
HIDDEN
 66
     1
 10
0.0
 20
0.0
 30
0.0
 70
     1
  0
VERTEX
  5
1312F5
  8
HIDDEN
 10
0.0
 20
0.0
 30
0.0
  0
VERTEX
  5
1312F6
  8
HIDDEN
 10
360.0
 20
0.0
 30
0.0
  0
VERTEX
  5
1312F7
  8
HIDDEN
 10
360.0
 20
-464.0
 30
0.0
  0
VERTEX
  5
1312F8
  8
HIDDEN
 10
0.0
 20
-464.0
 30
0.0
  0
SEQEND
  5
1312F9
  8
HIDDEN
  0
POLYLINE
  5
1306C1
  8
HIDDEN
 66
     1
 10
0.0
 20
0.0
 30
0.0
 70
     1
  0
VERTEX
  5
1312FA
  8
HIDDEN
 10
360.0
 20
0.0
 30
0.0
  0
VERTEX
  5
1312FB
  8
HIDDEN
 10
720.0
 20
0.0
 30
0.0
  0
VERTEX
  5
1312FC
  8
HIDDEN
 10
720.0
 20
-464.0
 30
0.0
  0
VERTEX
  5
1312FD
  8
HIDDEN
 10
360.0
 20
-464.0
 30
0.0
  0
SEQEND
  5
1312FE
  8
HIDDEN
  0
POLYLINE
  5
1306C2
  8
HIDDEN
 66
     1
 10
0.0
 20
0.0
 30
0.0
 70
     1
  0
VERTEX
  5
1312FF
  8
HIDDEN
 10
0.0
 20
-464.0
 30
0.0
  0
VERTEX
  5
131300
  8
HIDDEN
 10
360.0
 20
-464.0
 30
0.0
  0
VERTEX
  5
131301
  8
HIDDEN
 10
360.0
 20
-928.0
 30
0.0
  0
VERTEX
  5
131302
  8
HIDDEN
 10
0.0
 20
-928.0
 30
0.0
  0
SEQEND
  5
131303
  8
HIDDEN
  0
POLYLINE
  5
1306C3
  8
HIDDEN
 66
     1
 10
0.0
 20
0.0
 30
0.0
 70
     1
  0
VERTEX
  5
131304
  8
HIDDEN
 10
360.0
 20
-464.0
 30
0.0
  0
VERTEX
  5
131305
  8
HIDDEN
 10
720.0
 20
-464.0
 30
0.0
  0
VERTEX
  5
131306
  8
HIDDEN
 10
720.0
 20
-928.0
 30
0.0
  0
VERTEX
  5
131307
  8
HIDDEN
 10
360.0
 20
-928.0
 30
0.0
  0
SEQEND
  5
131308
  8
HIDDEN
  0
CIRCLE
  5
1306C4
  8
OBJECT
 10
5000.0
 20
-3294.9999999999959
 30
0.0
 40
53.5
1001
ACDBBLOCKREPETAG
1070
     1
1071
      344
1005
1306C4
  0
LINE
  5
1306C5
  8
CENTER
 10
5080.0
 20
-3294.9999999999959
 30
0.0
 11
4905.0
 21
-3294.9999999999959
 31
0.0
1001
ACDBBLOCKREPETAG
1070
     1
1071
       14
1005
1306C5
  0
LINE
  5
1306C6
  8
CENTER
 10
5000.0
 20
-3389.9999999999968
 30
0.0
 11
5000.0
 21
-3199.9999999999959
 31
0.0
1001
ACDBBLOCKREPETAG
1070
     1
1071
       15
1005
1306C6
  0
CIRCLE
  5
1306C7
  8
OBJECT
 10
5000.0
 20
-3294.9999999999959
 30
0.0
 40
70.0
1001
ACDBBLOCKREPETAG
1070
     1
1071
       16
1005
1306C7
  0
CIRCLE
  5
1306C8
  8
OBJECT
 10
5000.0
 20
-3294.9999999999959
 30
0.0
 40
77.0
1001
ACDBBLOCKREPETAG
1070
     1
1071
       17
1005
1306C8
  0
ARC
  5
1306C9
  8
OBJECT
 10
5000.0
 20
-3294.9999999999959
 30
0.0
 40
80.0
 50
50.805032573882329
 51
309.19496742611773
1001
ACDBBLOCKREPETAG
1070
     1
1071
       18
1005
1306C9
  0
LINE
  5
1306CA
  8
OBJECT
 10
5045.6618002273253
 20
-3232.9999999999959
 30
0.0
 11
5080.0
 21
-3232.9999999999959
 31
0.0
1001
ACDBBLOCKREPETAG
1070
     1
1071
       19
1005
1306CA
  0
LINE
  5
1306CB
  8
OBJECT
 10
5045.6618002273253
 20
-3356.9999999999959
 30
0.0
 11
5080.0
 21
-3356.9999999999959
 31
0.0
1001
ACDBBLOCKREPETAG
1070
     1
1071
       20
1005
1306CB
  0
POINT
  5
1306CC
  8
DOTS
 10
5000.0
 20
-3294.9999999999959
 30
0.0
1001
ACDBBLOCKREPETAG
1070
     1
1071
       21
1005
1306CC
  0
CIRCLE
  5
1306CD
  8
OBJECT
 10
4000.0
 20
-3294.9999999999959
 30
0.0
 40
53.5
1001
ACDBBLOCKREPETAG
1070
     1
1071
      344
1005
1306CD
  0
LINE
  5
1306CE
  8
CENTER
 10
4080.0
 20
-3294.9999999999959
 30
0.0
 11
3905.0
 21
-3294.9999999999959
 31
0.0
1001
ACDBBLOCKREPETAG
1070
     1
1071
       14
1005
1306CE
  0
LINE
  5
1306CF
  8
CENTER
 10
4000.0
 20
-3389.9999999999968
 30
0.0
 11
4000.0
 21
-3199.9999999999959
 31
0.0
1001
ACDBBLOCKREPETAG
1070
     1
1071
       15
1005
1306CF
  0
CIRCLE
  5
1306D0
  8
OBJECT
 10
4000.0
 20
-3294.9999999999959
 30
0.0
 40
70.0
1001
ACDBBLOCKREPETAG
1070
     1
1071
       16
1005
1306D0
  0
CIRCLE
  5
1306D1
  8
OBJECT
 10
4000.0
 20
-3294.9999999999959
 30
0.0
 40
77.0
1001
ACDBBLOCKREPETAG
1070
     1
1071
       17
1005
1306D1
  0
ARC
  5
1306D2
  8
OBJECT
 10
4000.0
 20
-3294.9999999999959
 30
0.0
 40
80.0
 50
50.805032573862128
 51
309.19496742613791
1001
ACDBBLOCKREPETAG
1070
     1
1071
       18
1005
1306D2
  0
LINE
  5
1306D3
  8
OBJECT
 10
4045.661800227324
 20
-3232.9999999999959
 30
0.0
 11
4080.0
 21
-3232.9999999999959
 31
0.0
1001
ACDBBLOCKREPETAG
1070
     1
1071
       19
1005
1306D3
  0
LINE
  5
1306D4
  8
OBJECT
 10
4045.661800227324
 20
-3356.9999999999959
 30
0.0
 11
4080.0
 21
-3356.9999999999959
 31
0.0
1001
ACDBBLOCKREPETAG
1070
     1
1071
       20
1005
1306D4
  0
POINT
  5
1306D5
  8
DOTS
 10
4000.0
 20
-3294.9999999999959
 30
0.0
1001
ACDBBLOCKREPETAG
1070
     1
1071
       21
1005
1306D5
  0
CIRCLE
  5
1306D6
  8
OBJECT
 10
3000.0
 20
-3294.9999999999959
 30
0.0
 40
53.5
1001
ACDBBLOCKREPETAG
1070
     1
1071
      344
1005
1306D6
  0
LINE
  5
1306D7
  8
CENTER
 10
3080.0
 20
-3294.9999999999959
 30
0.0
 11
2905.0
 21
-3294.9999999999959
 31
0.0
1001
ACDBBLOCKREPETAG
1070
     1
1071
       14
1005
1306D7
  0
LINE
  5
1306D8
  8
CENTER
 10
3000.0
 20
-3389.9999999999968
 30
0.0
 11
3000.0
 21
-3199.9999999999959
 31
0.0
1001
ACDBBLOCKREPETAG
1070
     1
1071
       15
1005
1306D8
  0
CIRCLE
  5
1306D9
  8
OBJECT
 10
3000.0
 20
-3294.9999999999959
 30
0.0
 40
70.0
1001
ACDBBLOCKREPETAG
1070
     1
1071
       16
1005
1306D9
  0
CIRCLE
  5
1306DA
  8
OBJECT
 10
3000.0
 20
-3294.9999999999959
 30
0.0
 40
77.0
1001
ACDBBLOCKREPETAG
1070
     1
1071
       17
1005
1306DA
  0
ARC
  5
1306DB
  8
OBJECT
 10
3000.0
 20
-3294.9999999999959
 30
0.0
 40
80.0
 50
50.805032573862128
 51
309.19496742613791
1001
ACDBBLOCKREPETAG
1070
     1
1071
       18
1005
1306DB
  0
LINE
  5
1306DC
  8
OBJECT
 10
3045.6618002273249
 20
-3232.9999999999959
 30
0.0
 11
3080.0
 21
-3232.9999999999959
 31
0.0
1001
ACDBBLOCKREPETAG
1070
     1
1071
       19
1005
1306DC
  0
LINE
  5
1306DD
  8
OBJECT
 10
3045.6618002273249
 20
-3356.9999999999959
 30
0.0
 11
3080.0
 21
-3356.9999999999959
 31
0.0
1001
ACDBBLOCKREPETAG
1070
     1
1071
       20
1005
1306DD
  0
POINT
  5
1306DE
  8
DOTS
 10
3000.0
 20
-3294.9999999999959
 30
0.0
1001
ACDBBLOCKREPETAG
1070
     1
1071
       21
1005
1306DE
  0
CIRCLE
  5
1306DF
  8
OBJECT
 10
2000.0
 20
-3294.9999999999959
 30
0.0
 40
53.5
1001
ACDBBLOCKREPETAG
1070
     1
1071
      344
1005
1306DF
  0
LINE
  5
1306E0
  8
CENTER
 10
2080.0
 20
-3294.9999999999959
 30
0.0
 11
1905.0
 21
-3294.9999999999959
 31
0.0
1001
ACDBBLOCKREPETAG
1070
     1
1071
       14
1005
1306E0
  0
LINE
  5
1306E1
  8
CENTER
 10
2000.0
 20
-3389.9999999999968
 30
0.0
 11
2000.0
 21
-3199.9999999999959
 31
0.0
1001
ACDBBLOCKREPETAG
1070
     1
1071
       15
1005
1306E1
  0
CIRCLE
  5
1306E2
  8
OBJECT
 10
2000.0
 20
-3294.9999999999959
 30
0.0
 40
70.0
1001
ACDBBLOCKREPETAG
1070
     1
1071
       16
1005
1306E2
  0
CIRCLE
  5
1306E3
  8
OBJECT
 10
2000.0
 20
-3294.9999999999959
 30
0.0
 40
77.0
1001
ACDBBLOCKREPETAG
1070
     1
1071
       17
1005
1306E3
  0
ARC
  5
1306E4
  8
OBJECT
 10
2000.0
 20
-3294.9999999999959
 30
0.0
 40
80.0
 50
50.805032573862128
 51
309.19496742613791
1001
ACDBBLOCKREPETAG
1070
     1
1071
       18
1005
1306E4
  0
LINE
  5
1306E5
  8
OBJECT
 10
2045.6618002273251
 20
-3232.9999999999959
 30
0.0
 11
2080.0
 21
-3232.9999999999959
 31
0.0
1001
ACDBBLOCKREPETAG
1070
     1
1071
       19
1005
1306E5
  0
LINE
  5
1306E6
  8
OBJECT
 10
2045.6618002273251
 20
-3356.9999999999959
 30
0.0
 11
2080.0
 21
-3356.9999999999959
 31
0.0
1001
ACDBBLOCKREPETAG
1070
     1
1071
       20
1005
1306E6
  0
POINT
  5
1306E7
  8
DOTS
 10
2000.0
 20
-3294.9999999999959
 30
0.0
1001
ACDBBLOCKREPETAG
1070
     1
1071
       21
1005
1306E7
  0
LINE
  5
1306E8
  8
SLIM
 10
3945.2566704261012
 20
-137.99999999999909
 30
0.0
 11
3955.9548403695781
 21
-127.30183005652231
 31
0.0
1001
GRADIENTCOLOR1ACI
1070
     5
1001
GRADIENTCOLOR2ACI
1070
     2
1001
ACAD
1010
0.0
1020
0.0
1030
0.0
1001
ACDBBLOCKREPETAG
1070
     1
1071
      422
1005
1306E8
  0
LINE
  5
1306E9
  8
SLIM
 10
3954.2369265471712
 20
-137.99999999999909
 30
0.0
 11
3972.7507744763329
 21
-119.4861520708364
 31
0.0
1001
GRADIENTCOLOR1ACI
1070
     5
1001
GRADIENTCOLOR2ACI
1070
     2
1001
ACAD
1010
0.0
1020
0.0
1030
0.0
1001
ACDBBLOCKREPETAG
1070
     1
1071
      423
1005
1306E9
  0
LINE
  5
1306EA
  8
SLIM
 10
3973.521224312457
 20
-127.6959583557812
 30
0.0
 11
3984.8575146748631
 21
-116.359667993377
 31
0.0
1001
GRADIENTCOLOR1ACI
1070
     5
1001
GRADIENTCOLOR2ACI
1070
     2
1001
ACAD
1010
0.0
1020
0.0
1030
0.0
1001
ACDBBLOCKREPETAG
1070
     1
1071
      424
1005
1306EA
  0
LINE
  5
1306EB
  8
SLIM
 10
3985.8944171461271
 20
-124.30302164318159
 30
0.0
 11
3995.0533812002559
 21
-115.1440575890517
 31
0.0
1001
GRADIENTCOLOR1ACI
1070
     5
1001
GRADIENTCOLOR2ACI
1070
     2
1001
ACAD
1010
0.0
1020
0.0
1030
0.0
1001
ACDBBLOCKREPETAG
1070
     1
1071
      425
1005
1306EB
  0
LINE
  5
1306EC
  8
SLIM
 10
3996.0777327492078
 20
-123.0999621611699
 30
0.0
 11
4000.0
 21
-119.1776949103767
 31
0.0
1001
GRADIENTCOLOR1ACI
1070
     5
1001
GRADIENTCOLOR2ACI
1070
     2
1001
ACAD
1010
0.0
1020
0.0
1030
0.0
1001
ACDBBLOCKREPETAG
1070
     1
1071
      426
1005
1306EC
  0
LINE
  5
1306ED
  8
SLIM
 10
4000.0
 20
-119.1776949103767
 30
0.0
 11
4004.0797313529042
 21
-115.0979635574724
 31
0.0
1001
GRADIENTCOLOR1ACI
1070
     5
1001
GRADIENTCOLOR2ACI
1070
     2
1001
ACAD
1010
0.0
1020
0.0
1030
0.0
1001
ACDBBLOCKREPETAG
1070
     1
1071
      427
1005
1306ED
  0
LINE
  5
1306EE
  8
SLIM
 10
4004.9957202542769
 20
-123.1622307771683
 30
0.0
 11
4012.2679784105749
 21
-115.88997262087101
 31
0.0
1001
GRADIENTCOLOR1ACI
1070
     5
1001
GRADIENTCOLOR2ACI
1070
     2
1001
ACAD
1010
0.0
1020
0.0
1030
0.0
1001
ACDBBLOCKREPETAG
1070
     1
1071
      428
1005
1306EE
  0
LINE
  5
1306EF
  8
SLIM
 10
4013.028059366964
 20
-124.1101477855505
 30
0.0
 11
4019.7999414573601
 21
-117.3382656951526
 31
0.0
1001
GRADIENTCOLOR1ACI
1070
     5
1001
GRADIENTCOLOR2ACI
1070
     2
1001
ACAD
1010
0.0
1020
0.0
1030
0.0
1001
ACDBBLOCKREPETAG
1070
     1
1071
      429
1005
1306EF
  0
LINE
  5
1306F0
  8
SLIM
 10
4020.3740813142458
 20
-125.7443819593383
 30
0.0
 11
4026.7872038672799
 21
-119.3312594063044
 31
0.0
1001
GRADIENTCOLOR1ACI
1070
     5
1001
GRADIENTCOLOR2ACI
1070
     2
1001
ACAD
1010
0.0
1020
0.0
1030
0.0
1001
ACDBBLOCKREPETAG
1070
     1
1071
      430
1005
1306F0
  0
LINE
  5
1306F1
  8
SLIM
 10
4027.1524719988752
 20
-127.946247395778
 30
0.0
 11
4033.3030030760319
 21
-121.7957163186195
 31
0.0
1001
GRADIENTCOLOR1ACI
1070
     5
1001
GRADIENTCOLOR2ACI
1070
     2
1001
ACAD
1010
0.0
1020
0.0
1030
0.0
1001
ACDBBLOCKREPETAG
1070
     1
1071
      431
1005
1306F1
  0
LINE
  5
1306F2
  8
SLIM
 10
4033.4390986513308
 20
-130.63987686439191
 30
0.0
 11
4039.3973119843781
 21
-124.6816635313439
 31
0.0
1001
GRADIENTCOLOR1ACI
1070
     5
1001
GRADIENTCOLOR2ACI
1070
     2
1001
ACAD
1010
0.0
1020
0.0
1030
0.0
1001
ACDBBLOCKREPETAG
1070
     1
1071
      432
1005
1306F2
  0
LINE
  5
1306F3
  8
SLIM
 10
4039.284224621797
 20
-133.77500701499321
 30
0.0
 11
4045.1047705343681
 21
-127.95446110242381
 31
0.0
1001
GRADIENTCOLOR1ACI
1070
     5
1001
GRADIENTCOLOR2ACI
1070
     2
1001
ACAD
1010
0.0
1020
0.0
1030
0.0
1001
ACDBBLOCKREPETAG
1070
     1
1071
      433
1005
1306F3
  0
LINE
  5
1306F4
  8
SLIM
 10
4044.7212801698038
 20
-137.31820758805651
 30
0.0
 11
4050.4491557891961
 21
-131.59033196866449
 31
0.0
1001
GRADIENTCOLOR1ACI
1070
     5
1001
GRADIENTCOLOR2ACI
1070
     2
1001
ACAD
1010
0.0
1020
0.0
1030
0.0
1001
ACDBBLOCKREPETAG
1070
     1
1071
      434
1005
1306F4
  0
LINE
  5
1306F5
  8
SLIM
 10
4053.0197438789291
 20
-137.99999999999909
 30
0.0
 11
4055.4459941864038
 21
-135.57374969252561
 31
0.0
1001
GRADIENTCOLOR1ACI
1070
     5
1001
GRADIENTCOLOR2ACI
1070
     2
1001
ACAD
1010
0.0
1020
0.0
1030
0.0
1001
ACDBBLOCKREPETAG
1070
     1
1071
      435
1005
1306F5
  0
LINE
  5
1306F6
  8
CENTER
 10
4000.0
 20
-279.99999999999909
 30
0.0
 11
4000.0
 21
-99.999999999999091
 31
0.0
1001
ACDBBLOCKREPETAG
1070
     1
1071
      160
1005
1306F6
  0
CIRCLE
  5
1306F7
  8
OBJECT
 10
4000.0
 20
-199.99999999999909
 30
0.0
 40
70.0
1001
ACDBBLOCKREPETAG
1070
     1
1071
      161
1005
1306F7
  0
CIRCLE
  5
1306F8
  8
OBJECT
 10
4000.0
 20
-199.99999999999909
 30
0.0
 40
77.0
1001
ACDBBLOCKREPETAG
1070
     1
1071
      162
1005
1306F8
  0
LINE
  5
1306F9
  8
OBJECT
 10
4045.661800227324
 20
-137.99999999999909
 30
0.0
 11
4080.0
 21
-137.99999999999909
 31
0.0
1001
ACDBBLOCKREPETAG
1070
     1
1071
      164
1005
1306F9
  0
LINE
  5
1306FA
  8
OBJECT
 10
4062.0
 20
-261.99999999999909
 30
0.0
 11
4080.0
 21
-261.99999999999909
 31
0.0
1001
ACDBBLOCKREPETAG
1070
     1
1071
      165
1005
1306FA
  0
LINE
  5
1306FB
  8
OBJECT
 10
4062.0
 20
-261.99999999999909
 30
0.0
 11
4062.0
 21
-279.99999999999909
 31
0.0
1001
ACDBBLOCKREPETAG
1070
     1
1071
      167
1005
1306FB
  0
LINE
  5
1306FC
  8
OBJECT
 10
3938.0
 20
-261.99999999999909
 30
0.0
 11
3938.0
 21
-279.99999999999909
 31
0.0
1001
ACDBBLOCKREPETAG
1070
     1
1071
      168
1005
1306FC
  0
LINE
  5
1306FD
  8
OBJECT
 10
3938.0
 20
-261.99999999999909
 30
0.0
 11
3920.0
 21
-261.99999999999909
 31
0.0
1001
ACDBBLOCKREPETAG
1070
     1
1071
      170
1005
1306FD
  0
LINE
  5
1306FE
  8
OBJECT
 10
3954.338199772676
 20
-137.99999999999909
 30
0.0
 11
3920.0
 21
-137.99999999999909
 31
0.0
1001
ACDBBLOCKREPETAG
1070
     1
1071
      171
1005
1306FE
  0
LINE
  5
1306FF
  8
OBJECT
 10
3945.5527778486362
 20
-254.44722215136329
 30
0.0
 11
3938.0
 21
-261.99999999999909
 31
0.0
1001
ACDBBLOCKREPETAG
1070
     1
1071
      180
1005
1306FF
  0
LINE
  5
130700
  8
OBJECT
 10
4054.4472221513638
 20
-254.44722215136329
 30
0.0
 11
4062.0
 21
-261.99999999999909
 31
0.0
1001
ACDBBLOCKREPETAG
1070
     1
1071
      181
1005
130700
  0
POINT
  5
130701
  8
DOTS
 10
4000.0
 20
-199.99999999999909
 30
0.0
 50
270.0
1001
ACDBBLOCKREPETAG
1070
     1
1071
      182
1005
130701
  0
ARC
  5
130702
  8
OBJECT
 10
4000.0
 20
-199.99999999999909
 30
0.0
 40
85.0
 50
46.837102859806208
 51
133.16289714019371
1001
ACDBBLOCKREPETAG
1070
     1
1071
      183
1005
130702
  0
CIRCLE
  5
130703
  8
OBJECT
 10
4000.0
 20
-199.99999999999909
 30
0.0
 40
53.5
1001
ACDBBLOCKREPETAG
1070
     1
1071
      352
1005
130703
  0
LINE
  5
130704
  8
CENTER
 10
4080.0
 20
-199.99999999999909
 30
0.0
 11
3920.0
 21
-199.99999999999909
 31
0.0
1001
ACDBBLOCKREPETAG
1070
     1
1071
      158
1005
130704
  0
CIRCLE
  5
130705
  8
OBJECT
 10
2000.0
 20
-199.99999999999909
 30
0.0
 40
53.5
1001
ACDBBLOCKREPETAG
1070
     1
1071
      340
1005
130705
  0
LINE
  5
130706
  8
CENTER
 10
2080.0
 20
-199.99999999999909
 30
0.0
 11
1920.0
 21
-199.99999999999909
 31
0.0
1001
ACDBBLOCKREPETAG
1070
     1
1071
       49
1005
130706
  0
LINE
  5
130707
  8
CENTER
 10
2000.0
 20
-279.99999999999909
 30
0.0
 11
2000.0
 21
-104.9999999999991
 31
0.0
1001
ACDBBLOCKREPETAG
1070
     1
1071
       50
1005
130707
  0
CIRCLE
  5
130708
  8
OBJECT
 10
2000.0
 20
-199.99999999999909
 30
0.0
 40
70.0
1001
ACDBBLOCKREPETAG
1070
     1
1071
       51
1005
130708
  0
CIRCLE
  5
130709
  8
OBJECT
 10
2000.0
 20
-199.99999999999909
 30
0.0
 40
77.0
1001
ACDBBLOCKREPETAG
1070
     1
1071
       52
1005
130709
  0
ARC
  5
13070A
  8
OBJECT
 10
2000.0
 20
-199.99999999999909
 30
0.0
 40
80.0
 50
50.805032573864182
 51
129.1949674261358
1001
ACDBBLOCKREPETAG
1070
     1
1071
       53
1005
13070A
  0
LINE
  5
13070B
  8
OBJECT
 10
2045.6618002273251
 20
-137.99999999999909
 30
0.0
 11
2080.0
 21
-137.99999999999909
 31
0.0
1001
ACDBBLOCKREPETAG
1070
     1
1071
       54
1005
13070B
  0
LINE
  5
13070C
  8
OBJECT
 10
2062.0
 20
-261.99999999999909
 30
0.0
 11
2080.0
 21
-261.99999999999909
 31
0.0
1001
ACDBBLOCKREPETAG
1070
     1
1071
       55
1005
13070C
  0
LINE
  5
13070D
  8
OBJECT
 10
2062.0
 20
-261.99999999999909
 30
0.0
 11
2062.0
 21
-279.99999999999909
 31
0.0
1001
ACDBBLOCKREPETAG
1070
     1
1071
       57
1005
13070D
  0
LINE
  5
13070E
  8
OBJECT
 10
1938.0
 20
-261.99999999999909
 30
0.0
 11
1938.0
 21
-279.99999999999909
 31
0.0
1001
ACDBBLOCKREPETAG
1070
     1
1071
       58
1005
13070E
  0
POINT
  5
13070F
  8
DOTS
 10
2000.0
 20
-199.99999999999909
 30
0.0
 50
90.0
1001
ACDBBLOCKREPETAG
1070
     1
1071
       59
1005
13070F
  0
LINE
  5
130710
  8
OBJECT
 10
1938.0
 20
-261.99999999999909
 30
0.0
 11
1920.0
 21
-261.99999999999909
 31
0.0
1001
ACDBBLOCKREPETAG
1070
     1
1071
       60
1005
130710
  0
LINE
  5
130711
  8
OBJECT
 10
1954.3381997726749
 20
-137.99999999999909
 30
0.0
 11
1920.0
 21
-137.99999999999909
 31
0.0
1001
ACDBBLOCKREPETAG
1070
     1
1071
       61
1005
130711
  0
LINE
  5
130712
  8
OBJECT
 10
1945.5527778486351
 20
-254.44722215136329
 30
0.0
 11
1938.0
 21
-261.99999999999909
 31
0.0
1001
ACDBBLOCKREPETAG
1070
     1
1071
       42
1005
130712
  0
LINE
  5
130713
  8
OBJECT
 10
2054.4472221513638
 20
-254.44722215136329
 30
0.0
 11
2062.0
 21
-261.99999999999909
 31
0.0
1001
ACDBBLOCKREPETAG
1070
     1
1071
       43
1005
130713
  0
LINE
  5
130714
  8
CENTER
 10
3899.0
 20
-199.99999999999909
 30
0.0
 11
3920.0
 21
-199.99999999999909
 31
0.0
1001
ACDBBLOCKREPETAG
1070
     1
1071
        0
1005
130714
  0
LINE
  5
130715
  8
OBJECT
 10
3917.0
 20
-261.99999999999909
 30
0.0
 11
3920.0
 21
-261.99999999999909
 31
0.0
1001
ACDBBLOCKREPETAG
1070
     1
1071
        1
1005
130715
  0
ARC
  5
130716
  8
OBJECT
 10
3917.0
 20
-258.99999999999909
 30
0.0
 40
3.0
 50
180.0
 51
270.0
1001
ACDBBLOCKREPETAG
1070
     1
1071
        2
1005
130716
  0
LINE
  5
130717
  8
OBJECT
 10
3920.0
 20
-137.99999999999909
 30
0.0
 11
3917.0
 21
-137.99999999999909
 31
0.0
1001
ACDBBLOCKREPETAG
1070
     1
1071
        3
1005
130717
  0
ARC
  5
130718
  8
OBJECT
 10
3917.0
 20
-140.99999999999909
 30
0.0
 40
3.0
 50
90.0
 51
180.0
1001
ACDBBLOCKREPETAG
1070
     1
1071
        4
1005
130718
  0
LINE
  5
130719
  8
OBJECT
 10
3914.0
 20
-140.99999999999909
 30
0.0
 11
3914.0
 21
-258.99999999999909
 31
0.0
1001
ACDBBLOCKREPETAG
1070
     1
1071
        5
1005
130719
  0
LINE
  5
13071A
  8
OBJECT
 10
4062.0
 20
-332.99999999999892
 30
0.0
 11
4062.0
 21
-339.99999999999909
 31
0.0
1001
ACDBBLOCKREPETAG
1070
     1
1071
       47
1005
13071A
  0
LINE
  5
13071B
  8
OBJECT
 10
4062.0
 20
-339.99999999999909
 30
0.0
 11
3938.0
 21
-339.99999999999909
 31
0.0
1001
ACDBBLOCKREPETAG
1070
     1
1071
       48
1005
13071B
  0
LINE
  5
13071C
  8
OBJECT
 10
3938.0
 20
-339.99999999999909
 30
0.0
 11
3938.0
 21
-332.99999999999892
 31
0.0
1001
ACDBBLOCKREPETAG
1070
     1
1071
       49
1005
13071C
  0
LINE
  5
13071D
  8
OBJECT
 10
3938.0
 20
-332.99999999999892
 30
0.0
 11
4062.0
 21
-332.99999999999892
 31
0.0
1001
ACDBBLOCKREPETAG
1070
     1
1071
       50
1005
13071D
  0
LINE
  5
13071E
  8
CENTER
 10
4000.0
 20
-354.99999999999909
 30
0.0
 11
4000.0
 21
-279.99999999999909
 31
0.0
1001
ACDBBLOCKREPETAG
1070
     1
1071
       51
1005
13071E
  0
LINE
  5
13071F
  8
OBJECT
 10
4059.0
 20
-332.99999999999892
 30
0.0
 11
4059.0
 21
-296.99999999999892
 31
0.0
1001
ACDBBLOCKREPETAG
1070
     1
1071
       52
1005
13071F
  0
LINE
  5
130720
  8
OBJECT
 10
4059.0
 20
-296.99999999999892
 30
0.0
 11
3941.0
 21
-296.99999999999892
 31
0.0
1001
ACDBBLOCKREPETAG
1070
     1
1071
       53
1005
130720
  0
LINE
  5
130721
  8
OBJECT
 10
3941.0
 20
-296.99999999999892
 30
0.0
 11
3941.0
 21
-332.99999999999892
 31
0.0
1001
ACDBBLOCKREPETAG
1070
     1
1071
       54
1005
130721
  0
LINE
  5
130722
  8
OBJECT
 10
4054.4999999999991
 20
-292.99999999999892
 30
0.0
 11
4054.4999999999991
 21
-285.99999999999892
 31
0.0
1001
ACDBBLOCKREPETAG
1070
     1
1071
       55
1005
130722
  0
LINE
  5
130723
  8
OBJECT
 10
3945.5
 20
-285.99999999999892
 30
0.0
 11
3945.5
 21
-292.99999999999892
 31
0.0
1001
ACDBBLOCKREPETAG
1070
     1
1071
       56
1005
130723
  0
LINE
  5
130724
  8
OBJECT
 10
3945.5
 20
-292.99999999999892
 30
0.0
 11
4054.4999999999991
 21
-292.99999999999892
 31
0.0
1001
ACDBBLOCKREPETAG
1070
     1
1071
       57
1005
130724
  0
LINE
  5
130725
  8
OBJECT
 10
4059.0
 20
-296.99999999999892
 30
0.0
 11
4054.4999999999991
 21
-292.99999999999892
 31
0.0
1001
ACDBBLOCKREPETAG
1070
     1
1071
       58
1005
130725
  0
LINE
  5
130726
  8
OBJECT
 10
3941.0
 20
-296.99999999999892
 30
0.0
 11
3945.5
 21
-292.99999999999892
 31
0.0
1001
ACDBBLOCKREPETAG
1070
     1
1071
       59
1005
130726
  0
LINE
  5
130727
  8
OBJECT
 10
4062.0
 20
-283.0
 30
0.0
 11
4062.0
 21
-279.99999999999909
 31
0.0
1001
ACDBBLOCKREPETAG
1070
     1
1071
       60
1005
130727
  0
ARC
  5
130728
  8
OBJECT
 10
4059.0
 20
-283.0
 30
0.0
 40
3.0
 50
270.0
 51
0.0
1001
ACDBBLOCKREPETAG
1070
     1
1071
       61
1005
130728
  0
LINE
  5
130729
  8
OBJECT
 10
3938.0
 20
-279.99999999999909
 30
0.0
 11
3938.0
 21
-282.99999999999818
 31
0.0
1001
ACDBBLOCKREPETAG
1070
     1
1071
       62
1005
130729
  0
ARC
  5
13072A
  8
OBJECT
 10
3941.0
 20
-282.99999999999818
 30
0.0
 40
3.0
 50
180.0
 51
270.0
1001
ACDBBLOCKREPETAG
1070
     1
1071
       63
1005
13072A
  0
LINE
  5
13072B
  8
OBJECT
 10
3941.0
 20
-285.99999999999818
 30
0.0
 11
4059.0
 21
-286.0
 31
0.0
1001
ACDBBLOCKREPETAG
1070
     1
1071
       64
1005
13072B
  0
LINE
  5
13072C
  8
HIDDEN
 10
4044.5
 20
-287.99999999999909
 30
0.0
 11
3955.5
 21
-287.99999999999909
 31
0.0
1001
ACDBBLOCKREPETAG
1070
     1
1071
       65
1005
13072C
  0
LINE
  5
13072D
  8
CENTER
 10
4080.0
 20
-199.99999999999909
 30
0.0
 11
4239.0
 21
-199.99999999999909
 31
0.0
1001
ACDBBLOCKREPETAG
1070
     1
1071
      155
1005
13072D
  0
LINE
  5
13072E
  8
OBJECT
 10
4080.0
 20
-261.99999999999909
 30
0.0
 11
4083.0
 21
-261.99999999999909
 31
0.0
1001
ACDBBLOCKREPETAG
1070
     1
1071
      156
1005
13072E
  0
ARC
  5
13072F
  8
OBJECT
 10
4083.0
 20
-258.99999999999909
 30
0.0
 40
3.0
 50
270.0
 51
0.0
1001
ACDBBLOCKREPETAG
1070
     1
1071
      157
1005
13072F
  0
LINE
  5
130730
  8
OBJECT
 10
4080.0
 20
-138.0000000000027
 30
0.0
 11
4083.0
 21
-138.0000000000027
 31
0.0
1001
ACDBBLOCKREPETAG
1070
     1
1071
      158
1005
130730
  0
LINE
  5
130731
  8
OBJECT
 10
4086.0
 20
-140.99999999999909
 30
0.0
 11
4108.6547275935336
 21
-140.9999999999954
 31
0.0
1001
ACDBBLOCKREPETAG
1070
     1
1071
      159
1005
130731
  0
LINE
  5
130732
  8
OBJECT
 10
4086.0
 20
-259.00000000000267
 30
0.0
 11
4108.6547275935336
 21
-258.99999999999909
 31
0.0
1001
ACDBBLOCKREPETAG
1070
     1
1071
      160
1005
130732
  0
LINE
  5
130733
  8
CENTER
 10
4150.0
 20
-123.5195984073716
 30
0.0
 11
4150.0
 21
-276.48040159262649
 31
0.0
1001
ACDBBLOCKREPETAG
1070
     1
1071
      161
1005
130733
  0
LINE
  5
130734
  8
OBJECT
 10
4086.0
 20
-141.0000000000027
 30
0.0
 11
4086.0
 21
-258.99999999999909
 31
0.0
1001
ACDBBLOCKREPETAG
1070
     1
1071
      162
1005
130734
  0
ARC
  5
130735
  8
OBJECT
 10
4083.0
 20
-141.0000000000027
 30
0.0
 40
3.0
 50
0.0
 51
90.0
1001
ACDBBLOCKREPETAG
1070
     1
1071
      163
1005
130735
  0
ARC
  5
130736
  8
OBJECT
 10
4150.0
 20
-199.99999999999909
 30
0.0
 40
61.0
 50
37.167285461274467
 51
82.832714538705744
1001
ACDBBLOCKREPETAG
1070
     1
1071
      165
1005
130736
  0
ARC
  5
130737
  8
OBJECT
 10
4150.0
 20
-199.99999999999909
 30
0.0
 40
61.0
 50
157.16728546126831
 51
202.83271453873161
1001
ACDBBLOCKREPETAG
1070
     1
1071
      166
1005
130737
  0
ARC
  5
130738
  8
OBJECT
 10
4150.0
 20
-199.99999999999909
 30
0.0
 40
61.0
 50
277.16728546129423
 51
322.83271453872419
1001
ACDBBLOCKREPETAG
1070
     1
1071
      167
1005
130738
  0
CIRCLE
  5
130739
  8
SLIM
 10
4214.0
 20
-199.99999999999909
 30
0.0
 40
4.0
1001
ACDBBLOCKREPETAG
1070
     1
1071
      168
1005
130739
  0
ARC
  5
13073A
  8
OBJECT
 10
4214.0
 20
-199.99999999999909
 30
0.0
 40
10.0
 50
322.83271453872419
 51
37.167285461274467
1001
ACDBBLOCKREPETAG
1070
     1
1071
      169
1005
13073A
  0
LINE
  5
13073B
  8
OBJECT
 10
4198.6093749999973
 20
-163.14720279124501
 30
0.0
 11
4221.96875
 21
-193.9585578346296
 31
0.0
1001
ACDBBLOCKREPETAG
1070
     1
1071
      170
1005
13073B
  0
LINE
  5
13073C
  8
OBJECT
 10
4198.6093749999973
 20
-236.8527972087532
 30
0.0
 11
4221.96875
 21
-206.04144216536861
 31
0.0
1001
ACDBBLOCKREPETAG
1070
     1
1071
      171
1005
13073C
  0
CIRCLE
  5
13073D
  8
SLIM
 10
4118.0
 20
-144.5743741577962
 30
0.0
 40
3.9999999999999991
1001
ACDBBLOCKREPETAG
1070
     1
1071
      172
1005
13073D
  0
ARC
  5
13073E
  8
OBJECT
 10
4118.0
 20
-144.5743741577962
 30
0.0
 40
9.9999999999999982
 50
82.832714538705744
 51
157.16728546126831
1001
ACDBBLOCKREPETAG
1070
     1
1071
      173
1005
13073E
  0
LINE
  5
13073F
  8
OBJECT
 10
4093.7798539167038
 20
-176.32944499229319
 30
0.0
 11
4108.783582609296
 21
-140.6939553040711
 31
0.0
1001
ACDBBLOCKREPETAG
1070
     1
1071
      174
1005
13073F
  0
LINE
  5
130740
  8
OBJECT
 10
4157.6107710832966
 20
-139.47664778353919
 30
0.0
 11
4119.247667390704
 21
-134.65251313870161
 31
0.0
1001
ACDBBLOCKREPETAG
1070
     1
1071
      175
1005
130740
  0
CIRCLE
  5
130741
  8
SLIM
 10
4118.0
 20
-255.4256258422019
 30
0.0
 40
4.0
1001
ACDBBLOCKREPETAG
1070
     1
1071
      176
1005
130741
  0
ARC
  5
130742
  8
OBJECT
 10
4118.0
 20
-255.4256258422019
 30
0.0
 40
10.0
 50
202.83271453873161
 51
277.16728546129423
1001
ACDBBLOCKREPETAG
1070
     1
1071
      177
1005
130742
  0
LINE
  5
130743
  8
OBJECT
 10
4157.6107710832966
 20
-260.52335221645899
 30
0.0
 11
4119.247667390704
 21
-265.3474868612966
 31
0.0
1001
ACDBBLOCKREPETAG
1070
     1
1071
      178
1005
130743
  0
LINE
  5
130744
  8
OBJECT
 10
4093.7798539167038
 20
-223.67055500770491
 30
0.0
 11
4108.783582609296
 21
-259.30604469592708
 31
0.0
1001
ACDBBLOCKREPETAG
1070
     1
1071
      179
1005
130744
  0
CIRCLE
  5
130745
  8
OBJECT
 10
4150.0
 20
-199.99999999999909
 30
0.0
 40
46.0
1001
ACDBBLOCKREPETAG
1070
     1
1071
      180
1005
130745
  0
POLYLINE
  5
130746
  8
SLIM
 66
     1
 10
0.0
 20
0.0
 30
0.0
 70
     1
1001
ACDBBLOCKREPETAG
1070
     1
1071
      181
1005
130746
  0
VERTEX
  5
131309
  8
SLIM
 10
4210.247223250266
 20
-193.49999999999909
 30
0.0
  0
VERTEX
  5
13130A
  8
SLIM
 10
4206.4944465005347
 20
-199.99999999999909
 30
0.0
  0
VERTEX
  5
13130B
  8
SLIM
 10
4210.247223250266
 20
-206.49999999999909
 30
0.0
  0
VERTEX
  5
13130C
  8
SLIM
 10
4217.7527767497322
 20
-206.49999999999909
 30
0.0
  0
VERTEX
  5
13130D
  8
SLIM
 10
4221.5055534994644
 20
-199.99999999999909
 30
0.0
  0
VERTEX
  5
13130E
  8
SLIM
 10
4217.7527767497322
 20
-193.49999999999909
 30
0.0
  0
SEQEND
  5
13130F
  8
SLIM
  0
POLYLINE
  5
130747
  8
SLIM
 66
     1
 10
0.0
 20
0.0
 30
0.0
 70
     1
1001
ACDBBLOCKREPETAG
1070
     1
1071
      182
1005
130747
  0
VERTEX
  5
131310
  8
SLIM
 10
4114.2472232502687
 20
-151.0743741577962
 30
0.0
  0
VERTEX
  5
131311
  8
SLIM
 10
4121.752776749734
 20
-151.0743741577962
 30
0.0
  0
VERTEX
  5
131312
  8
SLIM
 10
4125.5055534994644
 20
-144.5743741577962
 30
0.0
  0
VERTEX
  5
131313
  8
SLIM
 10
4121.7527767497286
 20
-138.07437415779259
 30
0.0
  0
VERTEX
  5
131314
  8
SLIM
 10
4114.2472232502687
 20
-138.0743741577962
 30
0.0
  0
VERTEX
  5
131315
  8
SLIM
 10
4110.4944465005347
 20
-144.57437415779259
 30
0.0
  0
SEQEND
  5
131316
  8
SLIM
  0
POLYLINE
  5
130748
  8
SLIM
 66
     1
 10
0.0
 20
0.0
 30
0.0
 70
     1
1001
ACDBBLOCKREPETAG
1070
     1
1071
      183
1005
130748
  0
VERTEX
  5
131317
  8
SLIM
 10
4125.5055534994644
 20
-255.4256258422019
 30
0.0
  0
VERTEX
  5
131318
  8
SLIM
 10
4121.7527767497286
 20
-248.9256258422019
 30
0.0
  0
VERTEX
  5
131319
  8
SLIM
 10
4114.2472232502687
 20
-248.9256258422019
 30
0.0
  0
VERTEX
  5
13131A
  8
SLIM
 10
4110.4944465005347
 20
-255.42562584220559
 30
0.0
  0
VERTEX
  5
13131B
  8
SLIM
 10
4114.247223250266
 20
-261.9256258422019
 30
0.0
  0
VERTEX
  5
13131C
  8
SLIM
 10
4121.7527767497286
 20
-261.92562584220559
 30
0.0
  0
SEQEND
  5
13131D
  8
SLIM
  0
LINE
  5
130749
  8
OBJECT
 10
3917.0
 20
-634.0
 30
0.0
 11
3920.0
 21
-634.0
 31
0.0
1001
ACDBBLOCKREPETAG
1070
     1
1071
        1
1005
130749
  0
ARC
  5
13074A
  8
OBJECT
 10
3917.0
 20
-637.0
 30
0.0
 40
3.0
 50
90.0
 51
180.0
1001
ACDBBLOCKREPETAG
1070
     1
1071
        2
1005
13074A
  0
LINE
  5
13074B
  8
OBJECT
 10
3920.0
 20
-758.0
 30
0.0
 11
3917.0
 21
-758.0
 31
0.0
1001
ACDBBLOCKREPETAG
1070
     1
1071
        3
1005
13074B
  0
ARC
  5
13074C
  8
OBJECT
 10
3917.0
 20
-755.0
 30
0.0
 40
3.0
 50
180.0
 51
270.0
1001
ACDBBLOCKREPETAG
1070
     1
1071
        4
1005
13074C
  0
LINE
  5
13074D
  8
OBJECT
 10
3914.0
 20
-755.0
 30
0.0
 11
3914.0
 21
-637.0
 31
0.0
1001
ACDBBLOCKREPETAG
1070
     1
1071
        5
1005
13074D
  0
LINE
  5
13074E
  8
CENTER
 10
4077.0
 20
-696.0
 30
0.0
 11
3923.0
 21
-696.0
 31
0.0
1001
ACDBBLOCKREPETAG
1070
     1
1071
       17
1005
13074E
  0
CIRCLE
  5
13074F
  8
OBJECT
 10
4000.0
 20
-696.0
 30
0.0
 40
41.5
1001
ACDBBLOCKREPETAG
1070
     1
1071
       19
1005
13074F
  0
CIRCLE
  5
130750
  8
OBJECT
 10
4000.0
 20
-696.0
 30
0.0
 40
54.0
1001
ACDBBLOCKREPETAG
1070
     1
1071
       20
1005
130750
  0
ARC
  5
130751
  8
OBJECT
 10
4000.0
 20
-696.0
 30
0.0
 40
62.0
 50
287.89655112920718
 51
252.10344887079279
1001
ACDBBLOCKREPETAG
1070
     1
1071
       21
1005
130751
  0
LINE
  5
130752
  8
OBJECT
 10
3980.947441116743
 20
-755.0
 30
0.0
 11
4019.052558883257
 21
-755.0
 31
0.0
1001
ACDBBLOCKREPETAG
1070
     1
1071
       22
1005
130752
  0
LINE
  5
130753
  8
OBJECT
 10
4114.0
 20
-588.0
 30
0.0
 11
4114.0
 21
-586.0
 31
0.0
1001
ACDBBLOCKREPETAG
1070
     1
1071
      157
1005
130753
  0
ARC
  5
130754
  8
OBJECT
 10
4155.1865574982548
 20
-606.0
 30
0.0
 40
59.0
 50
229.20276883323919
 51
270.0
1001
ACDBBLOCKREPETAG
1070
     1
1071
      158
1005
130754
  0
LINE
  5
130755
  8
OBJECT
 10
4224.0
 20
-594.5
 30
0.0
 11
4089.0
 21
-594.5
 31
0.0
1001
ACDBBLOCKREPETAG
1070
     1
1071
      159
1005
130755
  0
LINE
  5
130756
  8
OBJECT
 10
4089.0
 20
-607.5
 30
0.0
 11
4224.0
 21
-607.5
 31
0.0
1001
ACDBBLOCKREPETAG
1070
     1
1071
      160
1005
130756
  0
LINE
  5
130757
  8
OBJECT
 10
4089.0
 20
-594.5
 30
0.0
 11
4089.0
 21
-607.5
 31
0.0
1001
ACDBBLOCKREPETAG
1070
     1
1071
      161
1005
130757
  0
LINE
  5
130758
  8
OBJECT
 10
4096.0
 20
-616.5
 30
0.0
 11
4096.0
 21
-607.5
 31
0.0
1001
ACDBBLOCKREPETAG
1070
     1
1071
      162
1005
130758
  0
LINE
  5
130759
  8
OBJECT
 10
4114.0
 20
-620.0
 30
0.0
 11
4114.0
 21
-607.5
 31
0.0
1001
ACDBBLOCKREPETAG
1070
     1
1071
      163
1005
130759
  0
LINE
  5
13075A
  8
OBJECT
 10
4204.0
 20
-616.5
 30
0.0
 11
4204.0
 21
-607.5
 31
0.0
1001
ACDBBLOCKREPETAG
1070
     1
1071
      164
1005
13075A
  0
LINE
  5
13075B
  8
OBJECT
 10
4224.0
 20
-594.5
 30
0.0
 11
4224.0
 21
-607.5
 31
0.0
1001
ACDBBLOCKREPETAG
1070
     1
1071
      165
1005
13075B
  0
LINE
  5
13075C
  8
OBJECT
 10
4122.0
 20
-620.0
 30
0.0
 11
4122.0
 21
-607.5
 31
0.0
1001
ACDBBLOCKREPETAG
1070
     1
1071
      166
1005
13075C
  0
LINE
  5
13075D
  8
OBJECT
 10
4114.0
 20
-616.5
 30
0.0
 11
4095.0
 21
-616.5
 31
0.0
1001
ACDBBLOCKREPETAG
1070
     1
1071
      167
1005
13075D
  0
LINE
  5
13075E
  8
OBJECT
 10
4095.0
 20
-620.0
 30
0.0
 11
4095.0
 21
-616.5
 31
0.0
1001
ACDBBLOCKREPETAG
1070
     1
1071
      168
1005
13075E
  0
LINE
  5
13075F
  8
OBJECT
 10
4122.0
 20
-616.5
 30
0.0
 11
4205.0
 21
-616.5
 31
0.0
1001
ACDBBLOCKREPETAG
1070
     1
1071
      169
1005
13075F
  0
LINE
  5
130760
  8
OBJECT
 10
4205.0
 20
-616.5
 30
0.0
 11
4205.0
 21
-620.0
 31
0.0
1001
ACDBBLOCKREPETAG
1070
     1
1071
      170
1005
130760
  0
LINE
  5
130761
  8
OBJECT
 10
4110.4944465005347
 20
-594.5
 30
0.0
 11
4110.4944465005347
 21
-588.0
 31
0.0
1001
ACDBBLOCKREPETAG
1070
     1
1071
      171
1005
130761
  0
LINE
  5
130762
  8
OBJECT
 10
4109.0
 20
-633.0
 30
0.0
 11
4109.0
 21
-638.0
 31
0.0
1001
ACDBBLOCKREPETAG
1070
     1
1071
      172
1005
130762
  0
LINE
  5
130763
  8
OBJECT
 10
4109.0
 20
-638.0
 30
0.0
 11
4127.0
 21
-638.0
 31
0.0
1001
ACDBBLOCKREPETAG
1070
     1
1071
      173
1005
130763
  0
LINE
  5
130764
  8
OBJECT
 10
4127.0
 20
-633.0
 30
0.0
 11
4127.0
 21
-638.0
 31
0.0
1001
ACDBBLOCKREPETAG
1070
     1
1071
      174
1005
130764
  0
LINE
  5
130765
  8
OBJECT
 10
4089.0000000000032
 20
-620.0
 30
0.0
 11
4224.0
 21
-620.0
 31
0.0
1001
ACDBBLOCKREPETAG
1070
     1
1071
      175
1005
130765
  0
LINE
  5
130766
  8
OBJECT
 10
4224.0
 20
-620.0
 30
0.0
 11
4224.0
 21
-633.0
 31
0.0
1001
ACDBBLOCKREPETAG
1070
     1
1071
      176
1005
130766
  0
LINE
  5
130767
  8
OBJECT
 10
4116.6369002447618
 20
-650.6645712577473
 30
0.0
 11
4096.1702980000009
 21
-633.0
 31
0.0
1001
ACDBBLOCKREPETAG
1070
     1
1071
      177
1005
130767
  0
LINE
  5
130768
  8
OBJECT
 10
4201.0000000000036
 20
-640.65708264965724
 30
0.0
 11
4201.0000000000036
 21
-665.0
 31
0.0
1001
ACDBBLOCKREPETAG
1070
     1
1071
      178
1005
130768
  0
LINE
  5
130769
  8
OBJECT
 10
4155.1865574982548
 20
-665.0
 30
0.0
 11
4201.0000000000036
 21
-665.0
 31
0.0
1001
ACDBBLOCKREPETAG
1070
     1
1071
      179
1005
130769
  0
ARC
  5
13076A
  8
OBJECT
 10
4110.5
 20
-666.5
 30
0.0
 40
84.0
 50
277.05348487097029
 51
1.023193303671255
1001
ACDBBLOCKREPETAG
1070
     1
1071
      180
1005
13076A
  0
LINE
  5
13076B
  8
OBJECT
 10
4086.0
 20
-754.1720031702107
 30
0.0
 11
4120.8148488128827
 21
-749.86428428270381
 31
0.0
1001
ACDBBLOCKREPETAG
1070
     1
1071
      181
1005
13076B
  0
LINE
  5
13076C
  8
OBJECT
 10
4086.0000000000032
 20
-755.00000000000102
 30
0.0
 11
4086.0000000000032
 21
-634.0
 31
0.0
1001
ACDBBLOCKREPETAG
1070
     1
1071
      182
1005
13076C
  0
ARC
  5
13076D
  8
OBJECT
 10
4083.0000000000032
 20
-755.00000000000102
 30
0.0
 40
3.0
 50
270.0
 51
0.0
1001
ACDBBLOCKREPETAG
1070
     1
1071
      183
1005
13076D
  0
LINE
  5
13076E
  8
OBJECT
 10
4096.1702980000009
 20
-633.0
 30
0.0
 11
4224.0
 21
-633.0
 31
0.0
1001
ACDBBLOCKREPETAG
1070
     1
1071
      184
1005
13076E
  0
LINE
  5
13076F
  8
OBJECT
 10
4105.0539138517233
 20
-640.65708264965724
 30
0.0
 11
4201.0000000000036
 21
-640.65708264965724
 31
0.0
1001
ACDBBLOCKREPETAG
1070
     1
1071
      185
1005
13076F
  0
LINE
  5
130770
  8
OBJECT
 10
4205.0
 20
-635.89006764214901
 30
0.0
 11
4201.0000000000036
 21
-640.65708264965724
 31
0.0
1001
ACDBBLOCKREPETAG
1070
     1
1071
      186
1005
130770
  0
LINE
  5
130771
  8
OBJECT
 10
4089.0000000000032
 20
-620.0
 30
0.0
 11
4089.0000000000068
 21
-634.0
 31
0.0
1001
ACDBBLOCKREPETAG
1070
     1
1071
      187
1005
130771
  0
LINE
  5
130772
  8
HIDDEN
 10
4105.5
 20
-660.0
 30
0.0
 11
4194.5
 21
-660.0
 31
0.0
1001
ACDBBLOCKREPETAG
1070
     1
1071
      188
1005
130772
  0
LINE
  5
130773
  8
OBJECT
 10
4114.0
 20
-586.0
 30
0.0
 11
4122.0
 21
-586.0
 31
0.0
1001
ACDBBLOCKREPETAG
1070
     1
1071
      189
1005
130773
  0
LINE
  5
130774
  8
OBJECT
 10
4122.0
 20
-588.0
 30
0.0
 11
4122.0
 21
-586.0
 31
0.0
1001
ACDBBLOCKREPETAG
1070
     1
1071
      190
1005
130774
  0
LINE
  5
130775
  8
OBJECT
 10
4110.4944465005347
 20
-588.0
 30
0.0
 11
4125.5055534994644
 21
-588.0
 31
0.0
1001
ACDBBLOCKREPETAG
1070
     1
1071
      191
1005
130775
  0
LINE
  5
130776
  8
CENTER
 10
4150.0
 20
-679.77158855533253
 30
0.0
 11
4150.0
 21
-579.49999999999989
 31
0.0
1001
ACDBBLOCKREPETAG
1070
     1
1071
      193
1005
130776
  0
LINE
  5
130777
  8
OBJECT
 10
4080.0
 20
-758.0
 30
0.0
 11
4083.0000000000032
 21
-758.0000000000008
 31
0.0
1001
ACDBBLOCKREPETAG
1070
     1
1071
      194
1005
130777
  0
LINE
  5
130778
  8
OBJECT
 10
4080.0
 20
-634.0
 30
0.0
 11
4089.0000000000068
 21
-634.0
 31
0.0
1001
ACDBBLOCKREPETAG
1070
     1
1071
      195
1005
130778
  0
LINE
  5
130779
  8
OBJECT
 10
4114.2471969783946
 20
-594.49998110541117
 30
0.0
 11
4114.2471969783946
 21
-587.99998110541117
 31
0.0
1001
ACDBBLOCKREPETAG
1070
     1
1071
      196
1005
130779
  0
LINE
  5
13077A
  8
OBJECT
 10
4125.5055534994644
 20
-594.5
 30
0.0
 11
4125.5055534994644
 21
-588.0
 31
0.0
1001
ACDBBLOCKREPETAG
1070
     1
1071
      197
1005
13077A
  0
LINE
  5
13077B
  8
OBJECT
 10
4121.7528030216054
 20
-594.49998110541117
 30
0.0
 11
4121.7528030216054
 21
-587.99998110541117
 31
0.0
1001
ACDBBLOCKREPETAG
1070
     1
1071
      198
1005
13077B
  0
LINE
  5
13077C
  8
OBJECT
 10
4210.0
 20
-588.0
 30
0.0
 11
4210.0
 21
-586.0
 31
0.0
1001
ACDBBLOCKREPETAG
1070
     1
1071
      199
1005
13077C
  0
LINE
  5
13077D
  8
OBJECT
 10
4210.0
 20
-620.0
 30
0.0
 11
4210.0
 21
-607.5
 31
0.0
1001
ACDBBLOCKREPETAG
1070
     1
1071
      200
1005
13077D
  0
LINE
  5
13077E
  8
OBJECT
 10
4218.0
 20
-620.0
 30
0.0
 11
4218.0
 21
-607.5
 31
0.0
1001
ACDBBLOCKREPETAG
1070
     1
1071
      201
1005
13077E
  0
LINE
  5
13077F
  8
OBJECT
 10
4206.4944465005347
 20
-594.5
 30
0.0
 11
4206.4944465005347
 21
-588.0
 31
0.0
1001
ACDBBLOCKREPETAG
1070
     1
1071
      202
1005
13077F
  0
LINE
  5
130780
  8
OBJECT
 10
4205.0
 20
-633.0
 30
0.0
 11
4205.0
 21
-638.0
 31
0.0
1001
ACDBBLOCKREPETAG
1070
     1
1071
      203
1005
130780
  0
LINE
  5
130781
  8
OBJECT
 10
4205.0
 20
-638.0
 30
0.0
 11
4223.0
 21
-638.0
 31
0.0
1001
ACDBBLOCKREPETAG
1070
     1
1071
      204
1005
130781
  0
LINE
  5
130782
  8
OBJECT
 10
4223.0
 20
-633.0
 30
0.0
 11
4223.0
 21
-638.0
 31
0.0
1001
ACDBBLOCKREPETAG
1070
     1
1071
      205
1005
130782
  0
LINE
  5
130783
  8
OBJECT
 10
4210.0
 20
-586.0
 30
0.0
 11
4218.0
 21
-586.0
 31
0.0
1001
ACDBBLOCKREPETAG
1070
     1
1071
      206
1005
130783
  0
LINE
  5
130784
  8
OBJECT
 10
4218.0
 20
-588.0
 30
0.0
 11
4218.0
 21
-586.0
 31
0.0
1001
ACDBBLOCKREPETAG
1070
     1
1071
      207
1005
130784
  0
LINE
  5
130785
  8
OBJECT
 10
4206.4944465005347
 20
-588.0
 30
0.0
 11
4221.5055534994644
 21
-588.0
 31
0.0
1001
ACDBBLOCKREPETAG
1070
     1
1071
      208
1005
130785
  0
LINE
  5
130786
  8
OBJECT
 10
4210.2471969783946
 20
-594.49998110541117
 30
0.0
 11
4210.2471969783946
 21
-587.99998110541117
 31
0.0
1001
ACDBBLOCKREPETAG
1070
     1
1071
      209
1005
130786
  0
LINE
  5
130787
  8
OBJECT
 10
4221.5055534994644
 20
-594.5
 30
0.0
 11
4221.5055534994644
 21
-588.0
 31
0.0
1001
ACDBBLOCKREPETAG
1070
     1
1071
      210
1005
130787
  0
LINE
  5
130788
  8
OBJECT
 10
4217.7528030216054
 20
-594.49998110541117
 30
0.0
 11
4217.7528030216054
 21
-587.99998110541117
 31
0.0
1001
ACDBBLOCKREPETAG
1070
     1
1071
      211
1005
130788
  0
LINE
  5
130789
  8
CENTER
 10
1899.0
 20
-199.99999999999909
 30
0.0
 11
1920.0
 21
-199.99999999999909
 31
0.0
1001
ACDBBLOCKREPETAG
1070
     1
1071
        0
1005
130789
  0
LINE
  5
13078A
  8
OBJECT
 10
1917.0
 20
-261.99999999999909
 30
0.0
 11
1920.0
 21
-261.99999999999909
 31
0.0
1001
ACDBBLOCKREPETAG
1070
     1
1071
        1
1005
13078A
  0
ARC
  5
13078B
  8
OBJECT
 10
1917.0
 20
-258.99999999999909
 30
0.0
 40
3.0
 50
180.0
 51
270.0
1001
ACDBBLOCKREPETAG
1070
     1
1071
        2
1005
13078B
  0
LINE
  5
13078C
  8
OBJECT
 10
1920.0
 20
-137.99999999999909
 30
0.0
 11
1917.0
 21
-137.99999999999909
 31
0.0
1001
ACDBBLOCKREPETAG
1070
     1
1071
        3
1005
13078C
  0
ARC
  5
13078D
  8
OBJECT
 10
1917.0
 20
-140.99999999999909
 30
0.0
 40
3.0
 50
90.0
 51
180.0
1001
ACDBBLOCKREPETAG
1070
     1
1071
        4
1005
13078D
  0
LINE
  5
13078E
  8
OBJECT
 10
1914.0
 20
-140.99999999999909
 30
0.0
 11
1914.0
 21
-258.99999999999909
 31
0.0
1001
ACDBBLOCKREPETAG
1070
     1
1071
        5
1005
13078E
  0
LINE
  5
13078F
  8
OBJECT
 10
2062.0
 20
-332.99999999999892
 30
0.0
 11
2062.0
 21
-339.99999999999909
 31
0.0
1001
ACDBBLOCKREPETAG
1070
     1
1071
       47
1005
13078F
  0
LINE
  5
130790
  8
OBJECT
 10
2062.0
 20
-339.99999999999909
 30
0.0
 11
1938.0
 21
-339.99999999999909
 31
0.0
1001
ACDBBLOCKREPETAG
1070
     1
1071
       48
1005
130790
  0
LINE
  5
130791
  8
OBJECT
 10
1938.0
 20
-339.99999999999909
 30
0.0
 11
1938.0
 21
-332.99999999999892
 31
0.0
1001
ACDBBLOCKREPETAG
1070
     1
1071
       49
1005
130791
  0
LINE
  5
130792
  8
OBJECT
 10
1938.0
 20
-332.99999999999892
 30
0.0
 11
2062.0
 21
-332.99999999999892
 31
0.0
1001
ACDBBLOCKREPETAG
1070
     1
1071
       50
1005
130792
  0
LINE
  5
130793
  8
CENTER
 10
2000.0
 20
-354.99999999999909
 30
0.0
 11
2000.0
 21
-279.99999999999909
 31
0.0
1001
ACDBBLOCKREPETAG
1070
     1
1071
       51
1005
130793
  0
LINE
  5
130794
  8
OBJECT
 10
2059.0
 20
-332.99999999999892
 30
0.0
 11
2059.0
 21
-296.99999999999892
 31
0.0
1001
ACDBBLOCKREPETAG
1070
     1
1071
       52
1005
130794
  0
LINE
  5
130795
  8
OBJECT
 10
2059.0
 20
-296.99999999999892
 30
0.0
 11
1941.0
 21
-296.99999999999892
 31
0.0
1001
ACDBBLOCKREPETAG
1070
     1
1071
       53
1005
130795
  0
LINE
  5
130796
  8
OBJECT
 10
1941.0
 20
-296.99999999999892
 30
0.0
 11
1941.0
 21
-332.99999999999892
 31
0.0
1001
ACDBBLOCKREPETAG
1070
     1
1071
       54
1005
130796
  0
LINE
  5
130797
  8
OBJECT
 10
2054.5
 20
-292.99999999999892
 30
0.0
 11
2054.5
 21
-285.99999999999892
 31
0.0
1001
ACDBBLOCKREPETAG
1070
     1
1071
       55
1005
130797
  0
LINE
  5
130798
  8
OBJECT
 10
1945.5
 20
-285.99999999999892
 30
0.0
 11
1945.5
 21
-292.99999999999892
 31
0.0
1001
ACDBBLOCKREPETAG
1070
     1
1071
       56
1005
130798
  0
LINE
  5
130799
  8
OBJECT
 10
1945.5
 20
-292.99999999999892
 30
0.0
 11
2054.5
 21
-292.99999999999892
 31
0.0
1001
ACDBBLOCKREPETAG
1070
     1
1071
       57
1005
130799
  0
LINE
  5
13079A
  8
OBJECT
 10
2059.0
 20
-296.99999999999892
 30
0.0
 11
2054.5
 21
-292.99999999999892
 31
0.0
1001
ACDBBLOCKREPETAG
1070
     1
1071
       58
1005
13079A
  0
LINE
  5
13079B
  8
OBJECT
 10
1941.0
 20
-296.99999999999892
 30
0.0
 11
1945.5
 21
-292.99999999999892
 31
0.0
1001
ACDBBLOCKREPETAG
1070
     1
1071
       59
1005
13079B
  0
LINE
  5
13079C
  8
OBJECT
 10
2062.0
 20
-283.0
 30
0.0
 11
2062.0
 21
-279.99999999999909
 31
0.0
1001
ACDBBLOCKREPETAG
1070
     1
1071
       60
1005
13079C
  0
ARC
  5
13079D
  8
OBJECT
 10
2059.0
 20
-283.0
 30
0.0
 40
3.0
 50
270.0
 51
0.0
1001
ACDBBLOCKREPETAG
1070
     1
1071
       61
1005
13079D
  0
LINE
  5
13079E
  8
OBJECT
 10
1938.0
 20
-279.99999999999909
 30
0.0
 11
1938.0
 21
-282.99999999999818
 31
0.0
1001
ACDBBLOCKREPETAG
1070
     1
1071
       62
1005
13079E
  0
ARC
  5
13079F
  8
OBJECT
 10
1941.0
 20
-282.99999999999818
 30
0.0
 40
3.0
 50
180.0
 51
270.0
1001
ACDBBLOCKREPETAG
1070
     1
1071
       63
1005
13079F
  0
LINE
  5
1307A0
  8
OBJECT
 10
1941.0
 20
-285.99999999999818
 30
0.0
 11
2059.0
 21
-286.0
 31
0.0
1001
ACDBBLOCKREPETAG
1070
     1
1071
       64
1005
1307A0
  0
LINE
  5
1307A1
  8
HIDDEN
 10
2044.5
 20
-287.99999999999909
 30
0.0
 11
1955.5
 21
-287.99999999999909
 31
0.0
1001
ACDBBLOCKREPETAG
1070
     1
1071
       65
1005
1307A1
  0
LINE
  5
1307A2
  8
CENTER
 10
2080.0
 20
-199.99999999999909
 30
0.0
 11
2239.0
 21
-199.99999999999909
 31
0.0
1001
ACDBBLOCKREPETAG
1070
     1
1071
      155
1005
1307A2
  0
LINE
  5
1307A3
  8
OBJECT
 10
2080.0
 20
-261.99999999999909
 30
0.0
 11
2083.0
 21
-261.99999999999909
 31
0.0
1001
ACDBBLOCKREPETAG
1070
     1
1071
      156
1005
1307A3
  0
ARC
  5
1307A4
  8
OBJECT
 10
2083.0
 20
-258.99999999999909
 30
0.0
 40
3.0
 50
270.0
 51
0.0
1001
ACDBBLOCKREPETAG
1070
     1
1071
      157
1005
1307A4
  0
LINE
  5
1307A5
  8
OBJECT
 10
2080.0
 20
-138.0000000000027
 30
0.0
 11
2083.0
 21
-138.0000000000027
 31
0.0
1001
ACDBBLOCKREPETAG
1070
     1
1071
      158
1005
1307A5
  0
LINE
  5
1307A6
  8
OBJECT
 10
2086.0
 20
-140.99999999999909
 30
0.0
 11
2108.6547275935341
 21
-140.9999999999954
 31
0.0
1001
ACDBBLOCKREPETAG
1070
     1
1071
      159
1005
1307A6
  0
LINE
  5
1307A7
  8
OBJECT
 10
2086.0
 20
-259.00000000000267
 30
0.0
 11
2108.6547275935341
 21
-258.99999999999909
 31
0.0
1001
ACDBBLOCKREPETAG
1070
     1
1071
      160
1005
1307A7
  0
LINE
  5
1307A8
  8
CENTER
 10
2150.0
 20
-123.5195984073716
 30
0.0
 11
2150.0
 21
-276.48040159262649
 31
0.0
1001
ACDBBLOCKREPETAG
1070
     1
1071
      161
1005
1307A8
  0
LINE
  5
1307A9
  8
OBJECT
 10
2086.0
 20
-141.0000000000027
 30
0.0
 11
2086.0
 21
-258.99999999999909
 31
0.0
1001
ACDBBLOCKREPETAG
1070
     1
1071
      162
1005
1307A9
  0
ARC
  5
1307AA
  8
OBJECT
 10
2083.0
 20
-141.0000000000027
 30
0.0
 40
3.0
 50
0.0
 51
90.0
1001
ACDBBLOCKREPETAG
1070
     1
1071
      163
1005
1307AA
  0
ARC
  5
1307AB
  8
OBJECT
 10
2150.0
 20
-199.99999999999909
 30
0.0
 40
61.0
 50
37.167285461274467
 51
82.832714538705744
1001
ACDBBLOCKREPETAG
1070
     1
1071
      165
1005
1307AB
  0
ARC
  5
1307AC
  8
OBJECT
 10
2150.0
 20
-199.99999999999909
 30
0.0
 40
61.0
 50
157.16728546126831
 51
202.83271453873161
1001
ACDBBLOCKREPETAG
1070
     1
1071
      166
1005
1307AC
  0
ARC
  5
1307AD
  8
OBJECT
 10
2150.0
 20
-199.99999999999909
 30
0.0
 40
61.0
 50
277.16728546129423
 51
322.83271453872419
1001
ACDBBLOCKREPETAG
1070
     1
1071
      167
1005
1307AD
  0
CIRCLE
  5
1307AE
  8
SLIM
 10
2214.0
 20
-199.99999999999909
 30
0.0
 40
4.0
1001
ACDBBLOCKREPETAG
1070
     1
1071
      168
1005
1307AE
  0
ARC
  5
1307AF
  8
OBJECT
 10
2214.0
 20
-199.99999999999909
 30
0.0
 40
10.0
 50
322.83271453872419
 51
37.167285461274467
1001
ACDBBLOCKREPETAG
1070
     1
1071
      169
1005
1307AF
  0
LINE
  5
1307B0
  8
OBJECT
 10
2198.6093749999959
 20
-163.14720279124501
 30
0.0
 11
2221.96875
 21
-193.9585578346296
 31
0.0
1001
ACDBBLOCKREPETAG
1070
     1
1071
      170
1005
1307B0
  0
LINE
  5
1307B1
  8
OBJECT
 10
2198.6093749999959
 20
-236.8527972087532
 30
0.0
 11
2221.96875
 21
-206.04144216536861
 31
0.0
1001
ACDBBLOCKREPETAG
1070
     1
1071
      171
1005
1307B1
  0
CIRCLE
  5
1307B2
  8
SLIM
 10
2118.0
 20
-144.5743741577962
 30
0.0
 40
3.9999999999999991
1001
ACDBBLOCKREPETAG
1070
     1
1071
      172
1005
1307B2
  0
ARC
  5
1307B3
  8
OBJECT
 10
2118.0
 20
-144.5743741577962
 30
0.0
 40
9.9999999999999982
 50
82.832714538705744
 51
157.16728546126831
1001
ACDBBLOCKREPETAG
1070
     1
1071
      173
1005
1307B3
  0
LINE
  5
1307B4
  8
OBJECT
 10
2093.7798539167052
 20
-176.32944499229319
 30
0.0
 11
2108.783582609296
 21
-140.6939553040711
 31
0.0
1001
ACDBBLOCKREPETAG
1070
     1
1071
      174
1005
1307B4
  0
LINE
  5
1307B5
  8
OBJECT
 10
2157.6107710832989
 20
-139.47664778353919
 30
0.0
 11
2119.247667390704
 21
-134.65251313870161
 31
0.0
1001
ACDBBLOCKREPETAG
1070
     1
1071
      175
1005
1307B5
  0
CIRCLE
  5
1307B6
  8
SLIM
 10
2118.0
 20
-255.4256258422019
 30
0.0
 40
4.0
1001
ACDBBLOCKREPETAG
1070
     1
1071
      176
1005
1307B6
  0
ARC
  5
1307B7
  8
OBJECT
 10
2118.0
 20
-255.4256258422019
 30
0.0
 40
10.0
 50
202.83271453873161
 51
277.16728546129423
1001
ACDBBLOCKREPETAG
1070
     1
1071
      177
1005
1307B7
  0
LINE
  5
1307B8
  8
OBJECT
 10
2157.6107710832989
 20
-260.52335221645899
 30
0.0
 11
2119.247667390704
 21
-265.3474868612966
 31
0.0
1001
ACDBBLOCKREPETAG
1070
     1
1071
      178
1005
1307B8
  0
LINE
  5
1307B9
  8
OBJECT
 10
2093.7798539167052
 20
-223.67055500770491
 30
0.0
 11
2108.783582609296
 21
-259.30604469592708
 31
0.0
1001
ACDBBLOCKREPETAG
1070
     1
1071
      179
1005
1307B9
  0
CIRCLE
  5
1307BA
  8
OBJECT
 10
2150.0
 20
-199.99999999999909
 30
0.0
 40
46.0
1001
ACDBBLOCKREPETAG
1070
     1
1071
      180
1005
1307BA
  0
POLYLINE
  5
1307BB
  8
SLIM
 66
     1
 10
0.0
 20
0.0
 30
0.0
 70
     1
1001
ACDBBLOCKREPETAG
1070
     1
1071
      181
1005
1307BB
  0
VERTEX
  5
13131E
  8
SLIM
 10
2210.247223250266
 20
-193.49999999999909
 30
0.0
  0
VERTEX
  5
13131F
  8
SLIM
 10
2206.494446500536
 20
-199.99999999999909
 30
0.0
  0
VERTEX
  5
131320
  8
SLIM
 10
2210.247223250266
 20
-206.49999999999909
 30
0.0
  0
VERTEX
  5
131321
  8
SLIM
 10
2217.752776749734
 20
-206.49999999999909
 30
0.0
  0
VERTEX
  5
131322
  8
SLIM
 10
2221.505553499464
 20
-199.99999999999909
 30
0.0
  0
VERTEX
  5
131323
  8
SLIM
 10
2217.752776749734
 20
-193.49999999999909
 30
0.0
  0
SEQEND
  5
131324
  8
SLIM
  0
POLYLINE
  5
1307BC
  8
SLIM
 66
     1
 10
0.0
 20
0.0
 30
0.0
 70
     1
1001
ACDBBLOCKREPETAG
1070
     1
1071
      182
1005
1307BC
  0
VERTEX
  5
131325
  8
SLIM
 10
2114.2472232502701
 20
-151.0743741577962
 30
0.0
  0
VERTEX
  5
131326
  8
SLIM
 10
2121.752776749734
 20
-151.0743741577962
 30
0.0
  0
VERTEX
  5
131327
  8
SLIM
 10
2125.5055534994649
 20
-144.5743741577962
 30
0.0
  0
VERTEX
  5
131328
  8
SLIM
 10
2121.7527767497309
 20
-138.07437415779259
 30
0.0
  0
VERTEX
  5
131329
  8
SLIM
 10
2114.2472232502701
 20
-138.0743741577962
 30
0.0
  0
VERTEX
  5
13132A
  8
SLIM
 10
2110.494446500536
 20
-144.57437415779259
 30
0.0
  0
SEQEND
  5
13132B
  8
SLIM
  0
POLYLINE
  5
1307BD
  8
SLIM
 66
     1
 10
0.0
 20
0.0
 30
0.0
 70
     1
1001
ACDBBLOCKREPETAG
1070
     1
1071
      183
1005
1307BD
  0
VERTEX
  5
13132C
  8
SLIM
 10
2125.5055534994649
 20
-255.4256258422019
 30
0.0
  0
VERTEX
  5
13132D
  8
SLIM
 10
2121.7527767497309
 20
-248.9256258422019
 30
0.0
  0
VERTEX
  5
13132E
  8
SLIM
 10
2114.2472232502701
 20
-248.9256258422019
 30
0.0
  0
VERTEX
  5
13132F
  8
SLIM
 10
2110.494446500536
 20
-255.42562584220559
 30
0.0
  0
VERTEX
  5
131330
  8
SLIM
 10
2114.247223250266
 20
-261.9256258422019
 30
0.0
  0
VERTEX
  5
131331
  8
SLIM
 10
2121.7527767497309
 20
-261.92562584220559
 30
0.0
  0
SEQEND
  5
131332
  8
SLIM
  0
LINE
  5
1307BE
  8
OBJECT
 10
1917.0
 20
-634.0
 30
0.0
 11
1920.0
 21
-634.0
 31
0.0
1001
ACDBBLOCKREPETAG
1070
     1
1071
        1
1005
1307BE
  0
ARC
  5
1307BF
  8
OBJECT
 10
1917.0
 20
-637.0
 30
0.0
 40
3.0
 50
90.0
 51
180.0
1001
ACDBBLOCKREPETAG
1070
     1
1071
        2
1005
1307BF
  0
LINE
  5
1307C0
  8
OBJECT
 10
1920.0
 20
-758.0
 30
0.0
 11
1917.0
 21
-758.0
 31
0.0
1001
ACDBBLOCKREPETAG
1070
     1
1071
        3
1005
1307C0
  0
ARC
  5
1307C1
  8
OBJECT
 10
1917.0
 20
-755.0
 30
0.0
 40
3.0
 50
180.0
 51
270.0
1001
ACDBBLOCKREPETAG
1070
     1
1071
        4
1005
1307C1
  0
LINE
  5
1307C2
  8
OBJECT
 10
1914.0
 20
-755.0
 30
0.0
 11
1914.0
 21
-637.0
 31
0.0
1001
ACDBBLOCKREPETAG
1070
     1
1071
        5
1005
1307C2
  0
LINE
  5
1307C3
  8
CENTER
 10
2077.0
 20
-696.0
 30
0.0
 11
1923.0
 21
-696.0
 31
0.0
1001
ACDBBLOCKREPETAG
1070
     1
1071
       17
1005
1307C3
  0
CIRCLE
  5
1307C4
  8
OBJECT
 10
2000.0
 20
-696.0
 30
0.0
 40
41.5
1001
ACDBBLOCKREPETAG
1070
     1
1071
       19
1005
1307C4
  0
CIRCLE
  5
1307C5
  8
OBJECT
 10
2000.0
 20
-696.0
 30
0.0
 40
54.0
1001
ACDBBLOCKREPETAG
1070
     1
1071
       20
1005
1307C5
  0
ARC
  5
1307C6
  8
OBJECT
 10
2000.0
 20
-696.0
 30
0.0
 40
62.0
 50
287.89655112920718
 51
252.10344887079279
1001
ACDBBLOCKREPETAG
1070
     1
1071
       21
1005
1307C6
  0
LINE
  5
1307C7
  8
OBJECT
 10
1980.947441116743
 20
-755.0
 30
0.0
 11
2019.052558883257
 21
-755.0
 31
0.0
1001
ACDBBLOCKREPETAG
1070
     1
1071
       22
1005
1307C7
  0
LINE
  5
1307C8
  8
OBJECT
 10
2114.0
 20
-588.0
 30
0.0
 11
2114.0
 21
-586.0
 31
0.0
1001
ACDBBLOCKREPETAG
1070
     1
1071
      157
1005
1307C8
  0
ARC
  5
1307C9
  8
OBJECT
 10
2155.1865574982548
 20
-606.0
 30
0.0
 40
59.0
 50
229.20276883323919
 51
270.0
1001
ACDBBLOCKREPETAG
1070
     1
1071
      158
1005
1307C9
  0
LINE
  5
1307CA
  8
OBJECT
 10
2224.0
 20
-594.5
 30
0.0
 11
2089.0
 21
-594.5
 31
0.0
1001
ACDBBLOCKREPETAG
1070
     1
1071
      159
1005
1307CA
  0
LINE
  5
1307CB
  8
OBJECT
 10
2089.0
 20
-607.5
 30
0.0
 11
2224.0
 21
-607.5
 31
0.0
1001
ACDBBLOCKREPETAG
1070
     1
1071
      160
1005
1307CB
  0
LINE
  5
1307CC
  8
OBJECT
 10
2089.0
 20
-594.5
 30
0.0
 11
2089.0
 21
-607.5
 31
0.0
1001
ACDBBLOCKREPETAG
1070
     1
1071
      161
1005
1307CC
  0
LINE
  5
1307CD
  8
OBJECT
 10
2096.0
 20
-616.5
 30
0.0
 11
2096.0
 21
-607.5
 31
0.0
1001
ACDBBLOCKREPETAG
1070
     1
1071
      162
1005
1307CD
  0
LINE
  5
1307CE
  8
OBJECT
 10
2114.0
 20
-620.0
 30
0.0
 11
2114.0
 21
-607.5
 31
0.0
1001
ACDBBLOCKREPETAG
1070
     1
1071
      163
1005
1307CE
  0
LINE
  5
1307CF
  8
OBJECT
 10
2204.0
 20
-616.5
 30
0.0
 11
2204.0
 21
-607.5
 31
0.0
1001
ACDBBLOCKREPETAG
1070
     1
1071
      164
1005
1307CF
  0
LINE
  5
1307D0
  8
OBJECT
 10
2224.0
 20
-594.5
 30
0.0
 11
2224.0
 21
-607.5
 31
0.0
1001
ACDBBLOCKREPETAG
1070
     1
1071
      165
1005
1307D0
  0
LINE
  5
1307D1
  8
OBJECT
 10
2122.0
 20
-620.0
 30
0.0
 11
2122.0
 21
-607.5
 31
0.0
1001
ACDBBLOCKREPETAG
1070
     1
1071
      166
1005
1307D1
  0
LINE
  5
1307D2
  8
OBJECT
 10
2114.0
 20
-616.5
 30
0.0
 11
2095.0
 21
-616.5
 31
0.0
1001
ACDBBLOCKREPETAG
1070
     1
1071
      167
1005
1307D2
  0
LINE
  5
1307D3
  8
OBJECT
 10
2095.0
 20
-620.0
 30
0.0
 11
2095.0
 21
-616.5
 31
0.0
1001
ACDBBLOCKREPETAG
1070
     1
1071
      168
1005
1307D3
  0
LINE
  5
1307D4
  8
OBJECT
 10
2122.0
 20
-616.5
 30
0.0
 11
2205.0
 21
-616.5
 31
0.0
1001
ACDBBLOCKREPETAG
1070
     1
1071
      169
1005
1307D4
  0
LINE
  5
1307D5
  8
OBJECT
 10
2205.0
 20
-616.5
 30
0.0
 11
2205.0
 21
-620.0
 31
0.0
1001
ACDBBLOCKREPETAG
1070
     1
1071
      170
1005
1307D5
  0
LINE
  5
1307D6
  8
OBJECT
 10
2110.494446500536
 20
-594.5
 30
0.0
 11
2110.494446500536
 21
-588.0
 31
0.0
1001
ACDBBLOCKREPETAG
1070
     1
1071
      171
1005
1307D6
  0
LINE
  5
1307D7
  8
OBJECT
 10
2109.0
 20
-633.0
 30
0.0
 11
2109.0
 21
-638.0
 31
0.0
1001
ACDBBLOCKREPETAG
1070
     1
1071
      172
1005
1307D7
  0
LINE
  5
1307D8
  8
OBJECT
 10
2109.0
 20
-638.0
 30
0.0
 11
2127.0
 21
-638.0
 31
0.0
1001
ACDBBLOCKREPETAG
1070
     1
1071
      173
1005
1307D8
  0
LINE
  5
1307D9
  8
OBJECT
 10
2127.0
 20
-633.0
 30
0.0
 11
2127.0
 21
-638.0
 31
0.0
1001
ACDBBLOCKREPETAG
1070
     1
1071
      174
1005
1307D9
  0
LINE
  5
1307DA
  8
OBJECT
 10
2089.0000000000032
 20
-620.0
 30
0.0
 11
2224.0
 21
-620.0
 31
0.0
1001
ACDBBLOCKREPETAG
1070
     1
1071
      175
1005
1307DA
  0
LINE
  5
1307DB
  8
OBJECT
 10
2224.0
 20
-620.0
 30
0.0
 11
2224.0
 21
-633.0
 31
0.0
1001
ACDBBLOCKREPETAG
1070
     1
1071
      176
1005
1307DB
  0
LINE
  5
1307DC
  8
OBJECT
 10
2116.636900244765
 20
-650.6645712577473
 30
0.0
 11
2096.170298
 21
-633.0
 31
0.0
1001
ACDBBLOCKREPETAG
1070
     1
1071
      177
1005
1307DC
  0
LINE
  5
1307DD
  8
OBJECT
 10
2201.0000000000041
 20
-640.65708264965724
 30
0.0
 11
2201.0000000000041
 21
-665.0
 31
0.0
1001
ACDBBLOCKREPETAG
1070
     1
1071
      178
1005
1307DD
  0
LINE
  5
1307DE
  8
OBJECT
 10
2155.1865574982548
 20
-665.0
 30
0.0
 11
2201.0000000000041
 21
-665.0
 31
0.0
1001
ACDBBLOCKREPETAG
1070
     1
1071
      179
1005
1307DE
  0
ARC
  5
1307DF
  8
OBJECT
 10
2110.5
 20
-666.5
 30
0.0
 40
84.0
 50
277.05348487097029
 51
1.023193303671255
1001
ACDBBLOCKREPETAG
1070
     1
1071
      180
1005
1307DF
  0
LINE
  5
1307E0
  8
OBJECT
 10
2086.0
 20
-754.1720031702107
 30
0.0
 11
2120.8148488128832
 21
-749.86428428270381
 31
0.0
1001
ACDBBLOCKREPETAG
1070
     1
1071
      181
1005
1307E0
  0
LINE
  5
1307E1
  8
OBJECT
 10
2086.0000000000041
 20
-755.00000000000102
 30
0.0
 11
2086.0000000000041
 21
-634.0
 31
0.0
1001
ACDBBLOCKREPETAG
1070
     1
1071
      182
1005
1307E1
  0
ARC
  5
1307E2
  8
OBJECT
 10
2083.0000000000041
 20
-755.00000000000102
 30
0.0
 40
3.0
 50
270.0
 51
0.0
1001
ACDBBLOCKREPETAG
1070
     1
1071
      183
1005
1307E2
  0
LINE
  5
1307E3
  8
OBJECT
 10
2096.170298
 20
-633.0
 30
0.0
 11
2224.0
 21
-633.0
 31
0.0
1001
ACDBBLOCKREPETAG
1070
     1
1071
      184
1005
1307E3
  0
LINE
  5
1307E4
  8
OBJECT
 10
2105.0539138517229
 20
-640.65708264965724
 30
0.0
 11
2201.0000000000041
 21
-640.65708264965724
 31
0.0
1001
ACDBBLOCKREPETAG
1070
     1
1071
      185
1005
1307E4
  0
LINE
  5
1307E5
  8
OBJECT
 10
2205.0
 20
-635.89006764214901
 30
0.0
 11
2201.0000000000041
 21
-640.65708264965724
 31
0.0
1001
ACDBBLOCKREPETAG
1070
     1
1071
      186
1005
1307E5
  0
LINE
  5
1307E6
  8
OBJECT
 10
2089.0000000000032
 20
-620.0
 30
0.0
 11
2089.0000000000068
 21
-634.0
 31
0.0
1001
ACDBBLOCKREPETAG
1070
     1
1071
      187
1005
1307E6
  0
LINE
  5
1307E7
  8
HIDDEN
 10
2105.5
 20
-660.0
 30
0.0
 11
2194.5
 21
-660.0
 31
0.0
1001
ACDBBLOCKREPETAG
1070
     1
1071
      188
1005
1307E7
  0
LINE
  5
1307E8
  8
OBJECT
 10
2114.0
 20
-586.0
 30
0.0
 11
2122.0
 21
-586.0
 31
0.0
1001
ACDBBLOCKREPETAG
1070
     1
1071
      189
1005
1307E8
  0
LINE
  5
1307E9
  8
OBJECT
 10
2122.0
 20
-588.0
 30
0.0
 11
2122.0
 21
-586.0
 31
0.0
1001
ACDBBLOCKREPETAG
1070
     1
1071
      190
1005
1307E9
  0
LINE
  5
1307EA
  8
OBJECT
 10
2110.494446500536
 20
-588.0
 30
0.0
 11
2125.5055534994649
 21
-588.0
 31
0.0
1001
ACDBBLOCKREPETAG
1070
     1
1071
      191
1005
1307EA
  0
LINE
  5
1307EB
  8
CENTER
 10
2150.0
 20
-679.77158855533253
 30
0.0
 11
2150.0
 21
-579.49999999999989
 31
0.0
1001
ACDBBLOCKREPETAG
1070
     1
1071
      193
1005
1307EB
  0
LINE
  5
1307EC
  8
OBJECT
 10
2080.0
 20
-758.0
 30
0.0
 11
2083.0000000000041
 21
-758.0000000000008
 31
0.0
1001
ACDBBLOCKREPETAG
1070
     1
1071
      194
1005
1307EC
  0
LINE
  5
1307ED
  8
OBJECT
 10
2080.0
 20
-634.0
 30
0.0
 11
2089.0000000000068
 21
-634.0
 31
0.0
1001
ACDBBLOCKREPETAG
1070
     1
1071
      195
1005
1307ED
  0
LINE
  5
1307EE
  8
OBJECT
 10
2114.247196978396
 20
-594.49998110541117
 30
0.0
 11
2114.247196978396
 21
-587.99998110541117
 31
0.0
1001
ACDBBLOCKREPETAG
1070
     1
1071
      196
1005
1307EE
  0
LINE
  5
1307EF
  8
OBJECT
 10
2125.5055534994649
 20
-594.5
 30
0.0
 11
2125.5055534994649
 21
-588.0
 31
0.0
1001
ACDBBLOCKREPETAG
1070
     1
1071
      197
1005
1307EF
  0
LINE
  5
1307F0
  8
OBJECT
 10
2121.7528030216049
 20
-594.49998110541117
 30
0.0
 11
2121.7528030216049
 21
-587.99998110541117
 31
0.0
1001
ACDBBLOCKREPETAG
1070
     1
1071
      198
1005
1307F0
  0
LINE
  5
1307F1
  8
OBJECT
 10
2210.0
 20
-588.0
 30
0.0
 11
2210.0
 21
-586.0
 31
0.0
1001
ACDBBLOCKREPETAG
1070
     1
1071
      199
1005
1307F1
  0
LINE
  5
1307F2
  8
OBJECT
 10
2210.0
 20
-620.0
 30
0.0
 11
2210.0
 21
-607.5
 31
0.0
1001
ACDBBLOCKREPETAG
1070
     1
1071
      200
1005
1307F2
  0
LINE
  5
1307F3
  8
OBJECT
 10
2218.0
 20
-620.0
 30
0.0
 11
2218.0
 21
-607.5
 31
0.0
1001
ACDBBLOCKREPETAG
1070
     1
1071
      201
1005
1307F3
  0
LINE
  5
1307F4
  8
OBJECT
 10
2206.494446500536
 20
-594.5
 30
0.0
 11
2206.494446500536
 21
-588.0
 31
0.0
1001
ACDBBLOCKREPETAG
1070
     1
1071
      202
1005
1307F4
  0
LINE
  5
1307F5
  8
OBJECT
 10
2205.0
 20
-633.0
 30
0.0
 11
2205.0
 21
-638.0
 31
0.0
1001
ACDBBLOCKREPETAG
1070
     1
1071
      203
1005
1307F5
  0
LINE
  5
1307F6
  8
OBJECT
 10
2205.0
 20
-638.0
 30
0.0
 11
2223.0
 21
-638.0
 31
0.0
1001
ACDBBLOCKREPETAG
1070
     1
1071
      204
1005
1307F6
  0
LINE
  5
1307F7
  8
OBJECT
 10
2223.0
 20
-633.0
 30
0.0
 11
2223.0
 21
-638.0
 31
0.0
1001
ACDBBLOCKREPETAG
1070
     1
1071
      205
1005
1307F7
  0
LINE
  5
1307F8
  8
OBJECT
 10
2210.0
 20
-586.0
 30
0.0
 11
2218.0
 21
-586.0
 31
0.0
1001
ACDBBLOCKREPETAG
1070
     1
1071
      206
1005
1307F8
  0
LINE
  5
1307F9
  8
OBJECT
 10
2218.0
 20
-588.0
 30
0.0
 11
2218.0
 21
-586.0
 31
0.0
1001
ACDBBLOCKREPETAG
1070
     1
1071
      207
1005
1307F9
  0
LINE
  5
1307FA
  8
OBJECT
 10
2206.494446500536
 20
-588.0
 30
0.0
 11
2221.505553499464
 21
-588.0
 31
0.0
1001
ACDBBLOCKREPETAG
1070
     1
1071
      208
1005
1307FA
  0
LINE
  5
1307FB
  8
OBJECT
 10
2210.247196978396
 20
-594.49998110541117
 30
0.0
 11
2210.247196978396
 21
-587.99998110541117
 31
0.0
1001
ACDBBLOCKREPETAG
1070
     1
1071
      209
1005
1307FB
  0
LINE
  5
1307FC
  8
OBJECT
 10
2221.505553499464
 20
-594.5
 30
0.0
 11
2221.505553499464
 21
-588.0
 31
0.0
1001
ACDBBLOCKREPETAG
1070
     1
1071
      210
1005
1307FC
  0
LINE
  5
1307FD
  8
OBJECT
 10
2217.7528030216049
 20
-594.49998110541117
 30
0.0
 11
2217.7528030216049
 21
-587.99998110541117
 31
0.0
1001
ACDBBLOCKREPETAG
1070
     1
1071
      211
1005
1307FD
  0
TEXT
  5
1307FE
  8
SLIM
 10
0.0000035665234464
 20
24.000004585317601
 30
0.0
 40
79.999999999972701
  1
枝管バリエーション
 41
0.75
1001
ACDBBLOCKREPETAG
1070
     1
1071
      119
1005
12CC4A
  0
TEXT
  5
1307FF
  8
SLIM
 10
1837.75
 20
282.50000000000011
 30
0.0
 40
35.0
  1
（枝管サイズ毎に寸法が異なります。管底の位置は50～100で同じです）
 41
0.75
  0
TEXT
  5
130800
  8
SLIM
 10
1850.0
 20
369.99999999999989
 30
0.0
 40
100.0
  1
4SRT-U73
 41
0.75
  0
TEXT
  5
130801
  8
SLIM
 10
0.0
 20
369.99999999999989
 30
0.0
 40
100.0
  1
4SRT-U7X-S
 41
0.75
  0
LINE
  5
130802
  8
OBJECT
 10
4923.0
 20
-3515.9999999999968
 30
0.0
 11
4923.0
 21
-3494.9999999999968
 31
0.0
1001
ACDBBLOCKREPETAG
1070
     1
1071
        0
1005
130802
  0
LINE
  5
130803
  8
OBJECT
 10
4923.0
 20
-3494.9999999999968
 30
0.0
 11
5077.0
 21
-3494.9999999999968
 31
0.0
1001
ACDBBLOCKREPETAG
1070
     1
1071
        1
1005
130803
  0
LINE
  5
130804
  8
HIDDEN
 10
4943.0
 20
-3564.9999999999968
 30
0.0
 11
5057.0
 21
-3564.9999999999968
 31
0.0
1001
ACDBBLOCKREPETAG
1070
     1
1071
        2
1005
130804
  0
LINE
  5
130805
  8
OBJECT
 10
5077.0
 20
-3494.9999999999968
 30
0.0
 11
5077.0
 21
-3515.9999999999968
 31
0.0
1001
ACDBBLOCKREPETAG
1070
     1
1071
        3
1005
130805
  0
LINE
  5
130806
  8
OBJECT
 10
5077.0
 20
-3515.9999999999968
 30
0.0
 11
4923.0
 21
-3515.9999999999968
 31
0.0
1001
ACDBBLOCKREPETAG
1070
     1
1071
        4
1005
130806
  0
LINE
  5
130807
  8
CENTER
 10
5000.0
 20
-3479.9999999999968
 30
0.0
 11
5000.0
 21
-3714.9999999999968
 31
0.0
1001
ACDBBLOCKREPETAG
1070
     1
1071
        5
1005
130807
  0
LINE
  5
130808
  8
OBJECT
 10
4925.0
 20
-3578.9999999999968
 30
0.0
 11
4925.0
 21
-3702.9999999999968
 31
0.0
1001
ACDBBLOCKREPETAG
1070
     1
1071
        6
1005
130808
  0
LINE
  5
130809
  8
OBJECT
 10
4928.0
 20
-3515.9999999999968
 30
0.0
 11
4928.0
 21
-3578.9999999999968
 31
0.0
1001
ACDBBLOCKREPETAG
1070
     1
1071
        7
1005
130809
  0
LINE
  5
13080A
  8
OBJECT
 10
5072.0
 20
-3578.9999999999968
 30
0.0
 11
5072.0
 21
-3515.9999999999968
 31
0.0
1001
ACDBBLOCKREPETAG
1070
     1
1071
        8
1005
13080A
  0
LINE
  5
13080B
  8
OBJECT
 10
5074.9999999997999
 20
-3702.9999999997758
 30
0.0
 11
5080.0
 21
-3702.9999999999968
 31
0.0
1001
ACDBBLOCKREPETAG
1070
     1
1071
        9
1005
13080B
  0
LINE
  5
13080C
  8
OBJECT
 10
5080.0
 20
-3578.9999999999968
 30
0.0
 11
4925.0
 21
-3578.9999999999968
 31
0.0
1001
ACDBBLOCKREPETAG
1070
     1
1071
       10
1005
13080C
  0
ARC
  5
13080D
  8
OBJECT
 10
5200.6872746716726
 20
-3694.408099410105
 30
0.0
 40
170.6350503965856
 50
137.44134459184301
 51
149.9194958133665
1001
ACDBBLOCKREPETAG
1070
     1
1071
       15
1005
13080D
  0
ARC
  5
13080E
  8
OBJECT
 10
5118.8455987040506
 20
-3650.8827266953622
 30
0.0
 40
78.072222021763665
 50
147.4551531037684
 51
164.66365997719291
1001
ACDBBLOCKREPETAG
1070
     1
1071
       16
1005
13080E
  0
ARC
  5
13080F
  8
OBJECT
 10
5085.7554349608727
 20
-3640.9999999999968
 30
0.0
 40
43.55353926885617
 50
165.6884523008477
 51
194.3115476991523
1001
ACDBBLOCKREPETAG
1070
     1
1071
       17
1005
13080F
  0
ARC
  5
130810
  8
OBJECT
 10
5200.6872746716726
 20
-3587.5919005898891
 30
0.0
 40
170.6350503965856
 50
210.0805041866335
 51
222.55865540815699
1001
ACDBBLOCKREPETAG
1070
     1
1071
       18
1005
130810
  0
ARC
  5
130811
  8
OBJECT
 10
5118.8455987040506
 20
-3631.1172733046319
 30
0.0
 40
78.072222021763665
 50
195.33634002280701
 51
212.5448468962316
1001
ACDBBLOCKREPETAG
1070
     1
1071
       19
1005
130811
  0
POINT
  5
130812
  8
DOTS
 10
5000.0
 20
-3699.9999999999968
 30
0.0
1001
ACDBBLOCKREPETAG
1070
     1
1071
      186
1005
130812
  0
LINE
  5
130813
  8
OBJECT
 10
4323.0
 20
-3515.9999999999968
 30
0.0
 11
4323.0
 21
-3494.9999999999968
 31
0.0
1001
ACDBBLOCKREPETAG
1070
     1
1071
       20
1005
130813
  0
LINE
  5
130814
  8
OBJECT
 10
4323.0
 20
-3494.9999999999968
 30
0.0
 11
4477.0
 21
-3494.9999999999968
 31
0.0
1001
ACDBBLOCKREPETAG
1070
     1
1071
       21
1005
130814
  0
LINE
  5
130815
  8
HIDDEN
 10
4343.0
 20
-3564.9999999999968
 30
0.0
 11
4457.0
 21
-3564.9999999999968
 31
0.0
1001
ACDBBLOCKREPETAG
1070
     1
1071
       22
1005
130815
  0
LINE
  5
130816
  8
OBJECT
 10
4477.0
 20
-3494.9999999999968
 30
0.0
 11
4477.0
 21
-3515.9999999999968
 31
0.0
1001
ACDBBLOCKREPETAG
1070
     1
1071
       23
1005
130816
  0
LINE
  5
130817
  8
OBJECT
 10
4477.0
 20
-3515.9999999999968
 30
0.0
 11
4323.0
 21
-3515.9999999999968
 31
0.0
1001
ACDBBLOCKREPETAG
1070
     1
1071
       24
1005
130817
  0
LINE
  5
130818
  8
CENTER
 10
4400.0
 20
-3479.9999999999968
 30
0.0
 11
4400.0
 21
-3714.9999999999968
 31
0.0
1001
ACDBBLOCKREPETAG
1070
     1
1071
       25
1005
130818
  0
LINE
  5
130819
  8
OBJECT
 10
4325.0
 20
-3578.9999999999968
 30
0.0
 11
4325.0
 21
-3702.9999999999968
 31
0.0
1001
ACDBBLOCKREPETAG
1070
     1
1071
       26
1005
130819
  0
LINE
  5
13081A
  8
OBJECT
 10
4328.0
 20
-3515.9999999999968
 30
0.0
 11
4328.0
 21
-3578.9999999999968
 31
0.0
1001
ACDBBLOCKREPETAG
1070
     1
1071
       27
1005
13081A
  0
LINE
  5
13081B
  8
OBJECT
 10
4472.0
 20
-3578.9999999999968
 30
0.0
 11
4472.0
 21
-3515.9999999999968
 31
0.0
1001
ACDBBLOCKREPETAG
1070
     1
1071
       28
1005
13081B
  0
LINE
  5
13081C
  8
OBJECT
 10
4475.0
 20
-3578.9999999999968
 30
0.0
 11
4325.0
 21
-3578.9999999999968
 31
0.0
1001
ACDBBLOCKREPETAG
1070
     1
1071
       30
1005
13081C
  0
LINE
  5
13081D
  8
OBJECT
 10
4475.0
 20
-3578.9999999999968
 30
0.0
 11
4475.0
 21
-3702.9999999999968
 31
0.0
1001
ACDBBLOCKREPETAG
1070
     1
1071
       34
1005
13081D
  0
POINT
  5
13081E
  8
DOTS
 10
4400.0
 20
-3699.9999999999968
 30
0.0
1001
ACDBBLOCKREPETAG
1070
     1
1071
      187
1005
13081E
  0
LINE
  5
13081F
  8
OBJECT
 10
3923.0
 20
-3515.9999999999968
 30
0.0
 11
3923.0
 21
-3494.9999999999968
 31
0.0
1001
ACDBBLOCKREPETAG
1070
     1
1071
        0
1005
13081F
  0
LINE
  5
130820
  8
OBJECT
 10
3923.0
 20
-3494.9999999999968
 30
0.0
 11
4077.0
 21
-3494.9999999999968
 31
0.0
1001
ACDBBLOCKREPETAG
1070
     1
1071
        1
1005
130820
  0
LINE
  5
130821
  8
HIDDEN
 10
3943.0
 20
-3564.9999999999968
 30
0.0
 11
4057.0
 21
-3564.9999999999968
 31
0.0
1001
ACDBBLOCKREPETAG
1070
     1
1071
        2
1005
130821
  0
LINE
  5
130822
  8
OBJECT
 10
4077.0
 20
-3494.9999999999968
 30
0.0
 11
4077.0
 21
-3515.9999999999968
 31
0.0
1001
ACDBBLOCKREPETAG
1070
     1
1071
        3
1005
130822
  0
LINE
  5
130823
  8
OBJECT
 10
4077.0
 20
-3515.9999999999968
 30
0.0
 11
3923.0
 21
-3515.9999999999968
 31
0.0
1001
ACDBBLOCKREPETAG
1070
     1
1071
        4
1005
130823
  0
LINE
  5
130824
  8
CENTER
 10
4000.0
 20
-3479.9999999999968
 30
0.0
 11
4000.0
 21
-3714.9999999999968
 31
0.0
1001
ACDBBLOCKREPETAG
1070
     1
1071
        5
1005
130824
  0
LINE
  5
130825
  8
OBJECT
 10
3925.0
 20
-3578.9999999999968
 30
0.0
 11
3925.0
 21
-3702.9999999999968
 31
0.0
1001
ACDBBLOCKREPETAG
1070
     1
1071
        6
1005
130825
  0
LINE
  5
130826
  8
OBJECT
 10
3928.0
 20
-3515.9999999999968
 30
0.0
 11
3928.0
 21
-3578.9999999999968
 31
0.0
1001
ACDBBLOCKREPETAG
1070
     1
1071
        7
1005
130826
  0
LINE
  5
130827
  8
OBJECT
 10
4072.0
 20
-3578.9999999999968
 30
0.0
 11
4072.0
 21
-3515.9999999999968
 31
0.0
1001
ACDBBLOCKREPETAG
1070
     1
1071
        8
1005
130827
  0
LINE
  5
130828
  8
OBJECT
 10
4074.999999999799
 20
-3702.9999999997758
 30
0.0
 11
4080.0
 21
-3702.9999999999968
 31
0.0
1001
ACDBBLOCKREPETAG
1070
     1
1071
        9
1005
130828
  0
LINE
  5
130829
  8
OBJECT
 10
4080.0
 20
-3578.9999999999968
 30
0.0
 11
3925.0
 21
-3578.9999999999968
 31
0.0
1001
ACDBBLOCKREPETAG
1070
     1
1071
       10
1005
130829
  0
ARC
  5
13082A
  8
OBJECT
 10
4200.6872746716726
 20
-3694.408099410105
 30
0.0
 40
170.6350503965856
 50
137.44134459184301
 51
149.9194958133665
1001
ACDBBLOCKREPETAG
1070
     1
1071
       15
1005
13082A
  0
ARC
  5
13082B
  8
OBJECT
 10
4118.8455987040506
 20
-3650.8827266953622
 30
0.0
 40
78.072222021763665
 50
147.4551531037684
 51
164.663659977186
1001
ACDBBLOCKREPETAG
1070
     1
1071
       16
1005
13082B
  0
ARC
  5
13082C
  8
OBJECT
 10
4085.7554349608722
 20
-3640.9999999999968
 30
0.0
 40
43.55353926885617
 50
165.6884523008477
 51
194.3115476991523
1001
ACDBBLOCKREPETAG
1070
     1
1071
       17
1005
13082C
  0
ARC
  5
13082D
  8
OBJECT
 10
4200.6872746716726
 20
-3587.5919005898891
 30
0.0
 40
170.6350503965856
 50
210.0805041866335
 51
222.55865540815699
1001
ACDBBLOCKREPETAG
1070
     1
1071
       18
1005
13082D
  0
ARC
  5
13082E
  8
OBJECT
 10
4118.8455987040506
 20
-3631.1172733046319
 30
0.0
 40
78.072222021763665
 50
195.33634002281391
 51
212.5448468962316
1001
ACDBBLOCKREPETAG
1070
     1
1071
       19
1005
13082E
  0
POINT
  5
13082F
  8
DOTS
 10
4000.0
 20
-3699.9999999999968
 30
0.0
1001
ACDBBLOCKREPETAG
1070
     1
1071
      186
1005
13082F
  0
LINE
  5
130830
  8
OBJECT
 10
3323.0
 20
-3515.9999999999968
 30
0.0
 11
3323.0
 21
-3494.9999999999968
 31
0.0
1001
ACDBBLOCKREPETAG
1070
     1
1071
       20
1005
130830
  0
LINE
  5
130831
  8
OBJECT
 10
3323.0
 20
-3494.9999999999968
 30
0.0
 11
3477.0
 21
-3494.9999999999968
 31
0.0
1001
ACDBBLOCKREPETAG
1070
     1
1071
       21
1005
130831
  0
LINE
  5
130832
  8
HIDDEN
 10
3343.0
 20
-3564.9999999999968
 30
0.0
 11
3457.0
 21
-3564.9999999999968
 31
0.0
1001
ACDBBLOCKREPETAG
1070
     1
1071
       22
1005
130832
  0
LINE
  5
130833
  8
OBJECT
 10
3477.0
 20
-3494.9999999999968
 30
0.0
 11
3477.0
 21
-3515.9999999999968
 31
0.0
1001
ACDBBLOCKREPETAG
1070
     1
1071
       23
1005
130833
  0
LINE
  5
130834
  8
OBJECT
 10
3477.0
 20
-3515.9999999999968
 30
0.0
 11
3323.0
 21
-3515.9999999999968
 31
0.0
1001
ACDBBLOCKREPETAG
1070
     1
1071
       24
1005
130834
  0
LINE
  5
130835
  8
CENTER
 10
3400.0
 20
-3479.9999999999968
 30
0.0
 11
3400.0
 21
-3714.9999999999968
 31
0.0
1001
ACDBBLOCKREPETAG
1070
     1
1071
       25
1005
130835
  0
LINE
  5
130836
  8
OBJECT
 10
3325.0
 20
-3578.9999999999968
 30
0.0
 11
3325.0
 21
-3702.9999999999968
 31
0.0
1001
ACDBBLOCKREPETAG
1070
     1
1071
       26
1005
130836
  0
LINE
  5
130837
  8
OBJECT
 10
3328.0
 20
-3515.9999999999968
 30
0.0
 11
3328.0
 21
-3578.9999999999968
 31
0.0
1001
ACDBBLOCKREPETAG
1070
     1
1071
       27
1005
130837
  0
LINE
  5
130838
  8
OBJECT
 10
3472.0
 20
-3578.9999999999968
 30
0.0
 11
3472.0
 21
-3515.9999999999968
 31
0.0
1001
ACDBBLOCKREPETAG
1070
     1
1071
       28
1005
130838
  0
LINE
  5
130839
  8
OBJECT
 10
3475.0
 20
-3578.9999999999968
 30
0.0
 11
3325.0
 21
-3578.9999999999968
 31
0.0
1001
ACDBBLOCKREPETAG
1070
     1
1071
       30
1005
130839
  0
LINE
  5
13083A
  8
OBJECT
 10
3475.0
 20
-3578.9999999999968
 30
0.0
 11
3475.0
 21
-3702.9999999999968
 31
0.0
1001
ACDBBLOCKREPETAG
1070
     1
1071
       34
1005
13083A
  0
POINT
  5
13083B
  8
DOTS
 10
3400.0
 20
-3699.9999999999968
 30
0.0
1001
ACDBBLOCKREPETAG
1070
     1
1071
      187
1005
13083B
  0
LINE
  5
13083C
  8
OBJECT
 10
2923.0
 20
-3515.9999999999968
 30
0.0
 11
2923.0
 21
-3494.9999999999968
 31
0.0
1001
ACDBBLOCKREPETAG
1070
     1
1071
        0
1005
13083C
  0
LINE
  5
13083D
  8
OBJECT
 10
2923.0
 20
-3494.9999999999968
 30
0.0
 11
3077.0
 21
-3494.9999999999968
 31
0.0
1001
ACDBBLOCKREPETAG
1070
     1
1071
        1
1005
13083D
  0
LINE
  5
13083E
  8
HIDDEN
 10
2943.0
 20
-3564.9999999999968
 30
0.0
 11
3057.0
 21
-3564.9999999999968
 31
0.0
1001
ACDBBLOCKREPETAG
1070
     1
1071
        2
1005
13083E
  0
LINE
  5
13083F
  8
OBJECT
 10
3077.0
 20
-3494.9999999999968
 30
0.0
 11
3077.0
 21
-3515.9999999999968
 31
0.0
1001
ACDBBLOCKREPETAG
1070
     1
1071
        3
1005
13083F
  0
LINE
  5
130840
  8
OBJECT
 10
3077.0
 20
-3515.9999999999968
 30
0.0
 11
2923.0
 21
-3515.9999999999968
 31
0.0
1001
ACDBBLOCKREPETAG
1070
     1
1071
        4
1005
130840
  0
LINE
  5
130841
  8
CENTER
 10
3000.0
 20
-3479.9999999999968
 30
0.0
 11
3000.0
 21
-3714.9999999999968
 31
0.0
1001
ACDBBLOCKREPETAG
1070
     1
1071
        5
1005
130841
  0
LINE
  5
130842
  8
OBJECT
 10
2925.0
 20
-3578.9999999999968
 30
0.0
 11
2925.0
 21
-3702.9999999999968
 31
0.0
1001
ACDBBLOCKREPETAG
1070
     1
1071
        6
1005
130842
  0
LINE
  5
130843
  8
OBJECT
 10
2928.0
 20
-3515.9999999999968
 30
0.0
 11
2928.0
 21
-3578.9999999999968
 31
0.0
1001
ACDBBLOCKREPETAG
1070
     1
1071
        7
1005
130843
  0
LINE
  5
130844
  8
OBJECT
 10
3072.0
 20
-3578.9999999999968
 30
0.0
 11
3072.0
 21
-3515.9999999999968
 31
0.0
1001
ACDBBLOCKREPETAG
1070
     1
1071
        8
1005
130844
  0
LINE
  5
130845
  8
OBJECT
 10
3074.9999999997999
 20
-3702.9999999997758
 30
0.0
 11
3080.0
 21
-3702.9999999999968
 31
0.0
1001
ACDBBLOCKREPETAG
1070
     1
1071
        9
1005
130845
  0
LINE
  5
130846
  8
OBJECT
 10
3080.0
 20
-3578.9999999999968
 30
0.0
 11
2925.0
 21
-3578.9999999999968
 31
0.0
1001
ACDBBLOCKREPETAG
1070
     1
1071
       10
1005
130846
  0
ARC
  5
130847
  8
OBJECT
 10
3200.6872746716722
 20
-3694.408099410105
 30
0.0
 40
170.6350503965856
 50
137.44134459184301
 51
149.9194958133665
1001
ACDBBLOCKREPETAG
1070
     1
1071
       15
1005
130847
  0
ARC
  5
130848
  8
OBJECT
 10
3118.8455987040511
 20
-3650.8827266953622
 30
0.0
 40
78.072222021763665
 50
147.4551531037684
 51
164.663659977186
1001
ACDBBLOCKREPETAG
1070
     1
1071
       16
1005
130848
  0
ARC
  5
130849
  8
OBJECT
 10
3085.7554349608731
 20
-3640.9999999999968
 30
0.0
 40
43.55353926885617
 50
165.6884523008477
 51
194.3115476991523
1001
ACDBBLOCKREPETAG
1070
     1
1071
       17
1005
130849
  0
ARC
  5
13084A
  8
OBJECT
 10
3200.6872746716722
 20
-3587.5919005898891
 30
0.0
 40
170.6350503965856
 50
210.0805041866335
 51
222.55865540815699
1001
ACDBBLOCKREPETAG
1070
     1
1071
       18
1005
13084A
  0
ARC
  5
13084B
  8
OBJECT
 10
3118.8455987040511
 20
-3631.1172733046319
 30
0.0
 40
78.072222021763665
 50
195.33634002281391
 51
212.5448468962316
1001
ACDBBLOCKREPETAG
1070
     1
1071
       19
1005
13084B
  0
POINT
  5
13084C
  8
DOTS
 10
3000.0
 20
-3699.9999999999968
 30
0.0
1001
ACDBBLOCKREPETAG
1070
     1
1071
      186
1005
13084C
  0
LINE
  5
13084D
  8
OBJECT
 10
2323.0
 20
-3515.9999999999968
 30
0.0
 11
2323.0
 21
-3494.9999999999968
 31
0.0
1001
ACDBBLOCKREPETAG
1070
     1
1071
       20
1005
13084D
  0
LINE
  5
13084E
  8
OBJECT
 10
2323.0
 20
-3494.9999999999968
 30
0.0
 11
2477.0
 21
-3494.9999999999968
 31
0.0
1001
ACDBBLOCKREPETAG
1070
     1
1071
       21
1005
13084E
  0
LINE
  5
13084F
  8
HIDDEN
 10
2343.0
 20
-3564.9999999999968
 30
0.0
 11
2457.0
 21
-3564.9999999999968
 31
0.0
1001
ACDBBLOCKREPETAG
1070
     1
1071
       22
1005
13084F
  0
LINE
  5
130850
  8
OBJECT
 10
2477.0
 20
-3494.9999999999968
 30
0.0
 11
2477.0
 21
-3515.9999999999968
 31
0.0
1001
ACDBBLOCKREPETAG
1070
     1
1071
       23
1005
130850
  0
LINE
  5
130851
  8
OBJECT
 10
2477.0
 20
-3515.9999999999968
 30
0.0
 11
2323.0
 21
-3515.9999999999968
 31
0.0
1001
ACDBBLOCKREPETAG
1070
     1
1071
       24
1005
130851
  0
LINE
  5
130852
  8
CENTER
 10
2400.0
 20
-3479.9999999999968
 30
0.0
 11
2400.0
 21
-3714.9999999999968
 31
0.0
1001
ACDBBLOCKREPETAG
1070
     1
1071
       25
1005
130852
  0
LINE
  5
130853
  8
OBJECT
 10
2325.0
 20
-3578.9999999999968
 30
0.0
 11
2325.0
 21
-3702.9999999999968
 31
0.0
1001
ACDBBLOCKREPETAG
1070
     1
1071
       26
1005
130853
  0
LINE
  5
130854
  8
OBJECT
 10
2328.0
 20
-3515.9999999999968
 30
0.0
 11
2328.0
 21
-3578.9999999999968
 31
0.0
1001
ACDBBLOCKREPETAG
1070
     1
1071
       27
1005
130854
  0
LINE
  5
130855
  8
OBJECT
 10
2472.0
 20
-3578.9999999999968
 30
0.0
 11
2472.0
 21
-3515.9999999999968
 31
0.0
1001
ACDBBLOCKREPETAG
1070
     1
1071
       28
1005
130855
  0
LINE
  5
130856
  8
OBJECT
 10
2475.0
 20
-3578.9999999999968
 30
0.0
 11
2325.0
 21
-3578.9999999999968
 31
0.0
1001
ACDBBLOCKREPETAG
1070
     1
1071
       30
1005
130856
  0
LINE
  5
130857
  8
OBJECT
 10
2475.0
 20
-3578.9999999999968
 30
0.0
 11
2475.0
 21
-3702.9999999999968
 31
0.0
1001
ACDBBLOCKREPETAG
1070
     1
1071
       34
1005
130857
  0
POINT
  5
130858
  8
DOTS
 10
2400.0
 20
-3699.9999999999968
 30
0.0
1001
ACDBBLOCKREPETAG
1070
     1
1071
      187
1005
130858
  0
LINE
  5
130859
  8
OBJECT
 10
1923.0
 20
-3515.9999999999968
 30
0.0
 11
1923.0
 21
-3494.9999999999968
 31
0.0
1001
ACDBBLOCKREPETAG
1070
     1
1071
        0
1005
130859
  0
LINE
  5
13085A
  8
OBJECT
 10
1923.0
 20
-3494.9999999999968
 30
0.0
 11
2077.0
 21
-3494.9999999999968
 31
0.0
1001
ACDBBLOCKREPETAG
1070
     1
1071
        1
1005
13085A
  0
LINE
  5
13085B
  8
HIDDEN
 10
1943.0
 20
-3564.9999999999968
 30
0.0
 11
2057.0
 21
-3564.9999999999968
 31
0.0
1001
ACDBBLOCKREPETAG
1070
     1
1071
        2
1005
13085B
  0
LINE
  5
13085C
  8
OBJECT
 10
2077.0
 20
-3494.9999999999968
 30
0.0
 11
2077.0
 21
-3515.9999999999968
 31
0.0
1001
ACDBBLOCKREPETAG
1070
     1
1071
        3
1005
13085C
  0
LINE
  5
13085D
  8
OBJECT
 10
2077.0
 20
-3515.9999999999968
 30
0.0
 11
1923.0
 21
-3515.9999999999968
 31
0.0
1001
ACDBBLOCKREPETAG
1070
     1
1071
        4
1005
13085D
  0
LINE
  5
13085E
  8
CENTER
 10
2000.0
 20
-3479.9999999999968
 30
0.0
 11
2000.0
 21
-3714.9999999999968
 31
0.0
1001
ACDBBLOCKREPETAG
1070
     1
1071
        5
1005
13085E
  0
LINE
  5
13085F
  8
OBJECT
 10
1925.0
 20
-3578.9999999999968
 30
0.0
 11
1925.0
 21
-3702.9999999999968
 31
0.0
1001
ACDBBLOCKREPETAG
1070
     1
1071
        6
1005
13085F
  0
LINE
  5
130860
  8
OBJECT
 10
1928.0
 20
-3515.9999999999968
 30
0.0
 11
1928.0
 21
-3578.9999999999968
 31
0.0
1001
ACDBBLOCKREPETAG
1070
     1
1071
        7
1005
130860
  0
LINE
  5
130861
  8
OBJECT
 10
2072.0
 20
-3578.9999999999968
 30
0.0
 11
2072.0
 21
-3515.9999999999968
 31
0.0
1001
ACDBBLOCKREPETAG
1070
     1
1071
        8
1005
130861
  0
LINE
  5
130862
  8
OBJECT
 10
2074.999999999799
 20
-3702.9999999997758
 30
0.0
 11
2080.0
 21
-3702.9999999999968
 31
0.0
1001
ACDBBLOCKREPETAG
1070
     1
1071
        9
1005
130862
  0
LINE
  5
130863
  8
OBJECT
 10
2080.0
 20
-3578.9999999999968
 30
0.0
 11
1925.0
 21
-3578.9999999999968
 31
0.0
1001
ACDBBLOCKREPETAG
1070
     1
1071
       10
1005
130863
  0
ARC
  5
130864
  8
OBJECT
 10
2200.6872746716731
 20
-3694.408099410105
 30
0.0
 40
170.6350503965856
 50
137.44134459184301
 51
149.91949581335999
1001
ACDBBLOCKREPETAG
1070
     1
1071
       15
1005
130864
  0
ARC
  5
130865
  8
OBJECT
 10
2118.8455987040511
 20
-3650.8827266953622
 30
0.0
 40
78.072222021763665
 50
147.45515310377539
 51
164.663659977186
1001
ACDBBLOCKREPETAG
1070
     1
1071
       16
1005
130865
  0
ARC
  5
130866
  8
OBJECT
 10
2085.7554349608731
 20
-3640.9999999999968
 30
0.0
 40
43.55353926885617
 50
165.6884523008477
 51
194.3115476991523
1001
ACDBBLOCKREPETAG
1070
     1
1071
       17
1005
130866
  0
ARC
  5
130867
  8
OBJECT
 10
2200.6872746716731
 20
-3587.5919005898891
 30
0.0
 40
170.6350503965856
 50
210.08050418664001
 51
222.55865540815699
1001
ACDBBLOCKREPETAG
1070
     1
1071
       18
1005
130867
  0
ARC
  5
130868
  8
OBJECT
 10
2118.8455987040511
 20
-3631.1172733046319
 30
0.0
 40
78.072222021763665
 50
195.33634002281391
 51
212.54484689622461
1001
ACDBBLOCKREPETAG
1070
     1
1071
       19
1005
130868
  0
POINT
  5
130869
  8
DOTS
 10
2000.0
 20
-3699.9999999999968
 30
0.0
1001
ACDBBLOCKREPETAG
1070
     1
1071
      186
1005
130869
  0
LINE
  5
13086A
  8
DIM
 10
2150.0
 20
-3341.9999999999959
 30
0.0
 11
2228.479620594459
 21
-3341.9999999999959
 31
0.0
  0
LINE
  5
13086B
  8
DIM
 10
2150.0
 20
-3247.9999999999959
 30
0.0
 11
2228.479620594459
 21
-3247.9999999999959
 31
0.0
  0
LINE
  5
13086C
  8
DIM
 10
2218.479620594459
 20
-3321.9999999999959
 30
0.0
 11
2218.479620594459
 21
-3267.9999999999959
 31
0.0
  0
INSERT
  5
13086D
  8
DIM
  2
_OPEN30
 10
2218.479620594459
 20
-3341.9999999999959
 30
0.0
 41
20.0
 42
20.0
 43
20.0
 50
270.0
  0
INSERT
  5
13086E
  8
DIM
  2
_OPEN30
 10
2218.479620594459
 20
-3247.9999999999959
 30
0.0
 41
20.0
 42
20.0
 43
20.0
 50
90.0
  0
INSERT
  5
13086F
  8
OBJECT
  2
*U11
 10
0.0
 20
0.0
 30
0.0
  0
LINE
  5
130870
  8
DIM
 10
2150.0
 20
-3699.9999999999968
 30
0.0
 11
2226.8409284037339
 21
-3699.9999999999968
 31
0.0
  0
LINE
  5
130871
  8
DIM
 10
2165.0
 20
-3655.9999999999968
 30
0.0
 11
2226.8409284037339
 21
-3655.9999999999968
 31
0.0
  0
LINE
  5
130872
  8
DIM
 10
2216.840928403733
 20
-3719.9999999999968
 30
0.0
 11
2216.840928403733
 21
-3739.9999999999968
 31
0.0
  0
LINE
  5
130873
  8
DIM
 10
2216.840928403733
 20
-3635.9999999999968
 30
0.0
 11
2216.840928403733
 21
-3615.9999999999968
 31
0.0
  0
LINE
  5
130874
  8
DIM
 10
2216.840928403733
 20
-3699.9999999999968
 30
0.0
 11
2216.840928403733
 21
-3655.9999999999968
 31
0.0
  0
INSERT
  5
130875
  8
DIM
  2
_OPEN30
 10
2216.840928403733
 20
-3699.9999999999968
 30
0.0
 41
20.0
 42
20.0
 43
20.0
 50
90.0
  0
INSERT
  5
130876
  8
DIM
  2
_OPEN30
 10
2216.840928403733
 20
-3655.9999999999968
 30
0.0
 41
20.0
 42
20.0
 43
20.0
 50
270.0
  0
INSERT
  5
130877
  8
OBJECT
  2
*U12
 10
0.0
 20
0.0
 30
0.0
  0
LINE
  5
130878
  8
DIM
 10
2000.0
 20
-3189.9999999999959
 30
0.0
 11
2000.0
 21
-3157.2081219844449
 31
0.0
  0
LINE
  5
130879
  8
DIM
 10
2140.0
 20
-3237.9999999999959
 30
0.0
 11
2140.0
 21
-3157.2081219844449
 31
0.0
  0
LINE
  5
13087A
  8
DIM
 10
2020.0
 20
-3167.208121984444
 30
0.0
 11
2120.0
 21
-3167.208121984444
 31
0.0
  0
INSERT
  5
13087B
  8
DIM
  2
_OPEN30
 10
2000.0
 20
-3167.208121984444
 30
0.0
 41
20.0
 42
20.0
 43
20.0
 50
180.0
  0
INSERT
  5
13087C
  8
DIM
  2
_OPEN30
 10
2140.0
 20
-3167.208121984444
 30
0.0
 41
20.0
 42
20.0
 43
20.0
  0
INSERT
  5
13087D
  8
OBJECT
  2
*U13
 10
0.0
 20
0.0
 30
0.0
  0
TEXT
  5
13087E
  8
SLIM
 10
2631.0
 20
-3072.50001604727
 30
0.0
 40
40.0
  1
C寸法
 41
0.75
  0
TEXT
  5
13087F
  8
SLIM
 10
2631.0
 20
-3002.50001604727
 30
0.0
 40
40.0
  1
B寸法
 41
0.75
  0
TEXT
  5
130880
  8
SLIM
 10
2630.2857142857142
 20
-2932.50001604727
 30
0.0
 40
40.0
  1
A寸法
 41
0.75
  0
TEXT
  5
130881
  8
SLIM
 10
3159.2857142857151
 20
-3072.50001604727
 30
0.0
 40
40.0
  1
150
 41
0.75
  0
TEXT
  5
130882
  8
SLIM
 10
3029.2857142857151
 20
-3072.50001604727
 30
0.0
 40
40.0
  1
140
 41
0.75
  0
TEXT
  5
130883
  8
SLIM
 10
2769.2857142857151
 20
-3072.50001604727
 30
0.0
 40
40.0
  1
140
 41
0.75
  0
TEXT
  5
130884
  8
SLIM
 10
2899.2857142857151
 20
-3072.50001604727
 30
0.0
 40
40.0
  1
140
 41
0.75
  0
TEXT
  5
130885
  8
SLIM
 10
3170.7142857142858
 20
-3002.50001604727
 30
0.0
 40
40.0
  1
72
 41
0.75
  0
TEXT
  5
130886
  8
SLIM
 10
3041.4285714285711
 20
-3002.50001604727
 30
0.0
 40
40.0
  1
59
 41
0.75
  0
TEXT
  5
130887
  8
SLIM
 10
2780.0
 20
-3002.50001604727
 30
0.0
 40
40.0
  1
44
 41
0.75
  0
TEXT
  5
130888
  8
SLIM
 10
2910.7142857142858
 20
-3002.50001604727
 30
0.0
 40
40.0
  1
52
 41
0.75
  0
TEXT
  5
130889
  8
SLIM
 10
2891.0
 20
-2807.50001604727
 30
0.0
 40
40.0
  1
横枝管サイズ
 41
0.75
  0
TEXT
  5
13088A
  8
SLIM
 10
3136.2857142857151
 20
-2862.50001604727
 30
0.0
 40
30.0
  1
100（4）
 41
0.75
  0
TEXT
  5
13088B
  8
SLIM
 10
3014.857142857144
 20
-2862.50001604727
 30
0.0
 40
30.0
  1
75（3）
 41
0.75
  0
TEXT
  5
13088C
  8
SLIM
 10
2884.8571428571431
 20
-2862.50001604727
 30
0.0
 40
30.0
  1
65（2）
 41
0.75
  0
TEXT
  5
13088D
  8
SLIM
 10
2757.0
 20
-2862.50001604727
 30
0.0
 40
30.0
  1
50（1）
 41
0.75
  0
TEXT
  5
13088E
  8
SLIM
 10
3159.2857142857151
 20
-2932.50001604727
 30
0.0
 40
40.0
  1
150
 41
0.75
  0
TEXT
  5
13088F
  8
SLIM
 10
3028.571428571428
 20
-2932.50001604727
 30
0.0
 40
40.0
  1
124
 41
0.75
  0
TEXT
  5
130890
  8
SLIM
 10
2780.0
 20
-2932.50001604727
 30
0.0
 40
40.0
  1
94
 41
0.75
  0
TEXT
  5
130891
  8
SLIM
 10
2902.1428571428569
 20
-2932.50001604727
 30
0.0
 40
40.0
  1
110
 41
0.75
  0
TEXT
  5
130892
  8
SLIM
 10
1849.9999999999991
 20
-2832.5
 30
0.0
 40
75.0
  1
枝管サイズ毎の形状
 41
0.75
  0
LINE
  5
130893
  8
OBJECT
 10
5150.0
 20
-3552.9999999999968
 30
0.0
 11
5143.0
 21
-3552.9999999999968
 31
0.0
1001
ACDBBLOCKREPETAG
1070
     1
1071
       64
1005
130893
  0
LINE
  5
130894
  8
OBJECT
 10
5143.0
 20
-3552.9999999999968
 30
0.0
 11
5143.0
 21
-3699.9999999999968
 31
0.0
1001
ACDBBLOCKREPETAG
1070
     1
1071
       65
1005
130894
  0
LINE
  5
130895
  8
OBJECT
 10
5101.5
 20
-3555.9999999999968
 30
0.0
 11
5101.5
 21
-3699.9999999999968
 31
0.0
1001
ACDBBLOCKREPETAG
1070
     1
1071
       66
1005
130895
  0
LINE
  5
130896
  8
OBJECT
 10
5090.0
 20
-3562.4999999999968
 30
0.0
 11
5090.0
 21
-3693.4999999999968
 31
0.0
1001
ACDBBLOCKREPETAG
1070
     1
1071
       67
1005
130896
  0
LINE
  5
130897
  8
OBJECT
 10
5086.0
 20
-3634.5000000000041
 30
0.0
 11
5086.0
 21
-3699.9999999999968
 31
0.0
1001
ACDBBLOCKREPETAG
1070
     1
1071
       68
1005
130897
  0
LINE
  5
130898
  8
OBJECT
 10
5150.0
 20
-3699.9999999999968
 30
0.0
 11
5150.0
 21
-3552.9999999999968
 31
0.0
1001
ACDBBLOCKREPETAG
1070
     1
1071
       69
1005
130898
  0
LINE
  5
130899
  8
CENTER
 10
5165.0
 20
-3627.9999999999968
 30
0.0
 11
5070.4144144144157
 21
-3627.9999999999968
 31
0.0
1001
ACDBBLOCKREPETAG
1070
     1
1071
       70
1005
130899
  0
LINE
  5
13089A
  8
OBJECT
 10
5083.0000000000045
 20
-3702.9999999999968
 30
0.0
 11
5080.0
 21
-3702.9999999999968
 31
0.0
1001
ACDBBLOCKREPETAG
1070
     1
1071
       71
1005
13089A
  0
ARC
  5
13089B
  8
OBJECT
 10
5091.8815171830656
 20
-3701.4555591801432
 30
0.0
 40
6.0
 50
60.52411099686767
 51
170.6927439126847
1001
ACDBBLOCKREPETAG
1070
     1
1071
       72
1005
13089B
  0
ARC
  5
13089C
  8
OBJECT
 10
5083.0
 20
-3699.9999999999968
 30
0.0
 40
3.0
 50
270.0
 51
350.69274391268482
1001
ACDBBLOCKREPETAG
1070
     1
1071
       73
1005
13089C
  0
LINE
  5
13089D
  8
OBJECT
 10
5081.0
 20
-3578.9999999999968
 30
0.0
 11
5080.0
 21
-3578.9999999999968
 31
0.0
1001
ACDBBLOCKREPETAG
1070
     1
1071
       74
1005
13089D
  0
LINE
  5
13089E
  8
OBJECT
 10
5150.0
 20
-3699.9999999999968
 30
0.0
 11
5101.5
 21
-3699.9999999999968
 31
0.0
1001
ACDBBLOCKREPETAG
1070
     1
1071
       75
1005
13089E
  0
LINE
  5
13089F
  8
OBJECT
 10
5101.5
 20
-3555.9999999999968
 30
0.0
 11
5090.0
 21
-3562.4999999999968
 31
0.0
1001
ACDBBLOCKREPETAG
1070
     1
1071
       76
1005
13089F
  0
LINE
  5
1308A0
  8
OBJECT
 10
5143.0
 20
-3555.9999999999968
 30
0.0
 11
5101.5
 21
-3555.9999999999968
 31
0.0
1001
ACDBBLOCKREPETAG
1070
     1
1071
       77
1005
1308A0
  0
LINE
  5
1308A1
  8
OBJECT
 10
5086.0
 20
-3634.5000000000041
 30
0.0
 11
5081.0
 21
-3578.9999999999968
 31
0.0
1001
ACDBBLOCKREPETAG
1070
     1
1071
       78
1005
1308A1
  0
LINE
  5
1308A2
  8
OBJECT
 10
5090.0
 20
-3562.4999999999968
 30
0.0
 11
5081.0
 21
-3578.9999999999968
 31
0.0
1001
ACDBBLOCKREPETAG
1070
     1
1071
       79
1005
1308A2
  0
LINE
  5
1308A3
  8
OBJECT
 10
5101.5
 20
-3699.9999999999968
 30
0.0
 11
5094.8338607230708
 21
-3696.232182147819
 31
0.0
1001
ACDBBLOCKREPETAG
1070
     1
1071
       80
1005
1308A3
  0
LINE
  5
1308A4
  8
HIDDEN
 10
5098.0
 20
-3684.9999999999968
 30
0.0
 11
5098.0
 21
-3570.9999999999968
 31
0.0
1001
ACDBBLOCKREPETAG
1070
     1
1071
       81
1005
1308A4
  0
LINE
  5
1308A5
  8
OBJECT
 10
5150.0
 20
-3219.9999999999959
 30
0.0
 11
5143.0
 21
-3219.9999999999959
 31
0.0
1001
ACDBBLOCKREPETAG
1070
     1
1071
       67
1005
1308A5
  0
LINE
  5
1308A6
  8
OBJECT
 10
5143.0
 20
-3219.9999999999959
 30
0.0
 11
5143.0
 21
-3369.9999999999959
 31
0.0
1001
ACDBBLOCKREPETAG
1070
     1
1071
       68
1005
1308A6
  0
LINE
  5
1308A7
  8
OBJECT
 10
5101.5
 20
-3222.9999999999959
 30
0.0
 11
5101.5
 21
-3366.9999999999959
 31
0.0
1001
ACDBBLOCKREPETAG
1070
     1
1071
       69
1005
1308A7
  0
LINE
  5
1308A8
  8
OBJECT
 10
5090.0
 20
-3229.4999999999959
 30
0.0
 11
5090.0
 21
-3360.4999999999959
 31
0.0
1001
ACDBBLOCKREPETAG
1070
     1
1071
       70
1005
1308A8
  0
LINE
  5
1308A9
  8
OBJECT
 10
5143.0
 20
-3369.9999999999959
 30
0.0
 11
5150.0
 21
-3369.9999999999959
 31
0.0
1001
ACDBBLOCKREPETAG
1070
     1
1071
       71
1005
1308A9
  0
LINE
  5
1308AA
  8
OBJECT
 10
5150.0
 20
-3369.9999999999959
 30
0.0
 11
5150.0
 21
-3219.9999999999959
 31
0.0
1001
ACDBBLOCKREPETAG
1070
     1
1071
       72
1005
1308AA
  0
LINE
  5
1308AB
  8
HIDDEN
 10
5098.0
 20
-3351.9999999999959
 30
0.0
 11
5098.0
 21
-3237.9999999999959
 31
0.0
1001
ACDBBLOCKREPETAG
1070
     1
1071
       73
1005
1308AB
  0
LINE
  5
1308AC
  8
CENTER
 10
5165.0
 20
-3294.9999999999959
 30
0.0
 11
5080.0
 21
-3294.9999999999959
 31
0.0
1001
ACDBBLOCKREPETAG
1070
     1
1071
       74
1005
1308AC
  0
LINE
  5
1308AD
  8
OBJECT
 10
5086.0
 20
-3356.9999999999959
 30
0.0
 11
5080.0
 21
-3356.9999999999959
 31
0.0
1001
ACDBBLOCKREPETAG
1070
     1
1071
       75
1005
1308AD
  0
LINE
  5
1308AE
  8
OBJECT
 10
5143.0
 20
-3366.9999999999959
 30
0.0
 11
5101.5
 21
-3366.9999999999959
 31
0.0
1001
ACDBBLOCKREPETAG
1070
     1
1071
       76
1005
1308AE
  0
LINE
  5
1308AF
  8
OBJECT
 10
5101.5
 20
-3366.9999999999959
 30
0.0
 11
5090.0
 21
-3360.4999999999959
 31
0.0
1001
ACDBBLOCKREPETAG
1070
     1
1071
       77
1005
1308AF
  0
LINE
  5
1308B0
  8
OBJECT
 10
5090.0
 20
-3360.4999999999959
 30
0.0
 11
5086.0
 21
-3356.9999999999959
 31
0.0
1001
ACDBBLOCKREPETAG
1070
     1
1071
       78
1005
1308B0
  0
LINE
  5
1308B1
  8
OBJECT
 10
5101.5
 20
-3222.9999999999959
 30
0.0
 11
5090.0
 21
-3229.4999999999959
 31
0.0
1001
ACDBBLOCKREPETAG
1070
     1
1071
       79
1005
1308B1
  0
LINE
  5
1308B2
  8
OBJECT
 10
5090.0
 20
-3229.4999999999959
 30
0.0
 11
5086.0
 21
-3232.9999999999959
 31
0.0
1001
ACDBBLOCKREPETAG
1070
     1
1071
       80
1005
1308B2
  0
ARC
  5
1308B3
  8
OBJECT
 10
5467.9000000000005
 20
-3294.9999999999959
 30
0.0
 40
386.89999999999998
 50
170.77870136260421
 51
189.22129863739571
1001
ACDBBLOCKREPETAG
1070
     1
1071
       81
1005
1308B3
  0
LINE
  5
1308B4
  8
OBJECT
 10
5086.0
 20
-3232.9999999999959
 30
0.0
 11
5080.0
 21
-3232.9999999999959
 31
0.0
1001
ACDBBLOCKREPETAG
1070
     1
1071
       82
1005
1308B4
  0
LINE
  5
1308B5
  8
OBJECT
 10
5143.0
 20
-3222.9999999999959
 30
0.0
 11
5101.5
 21
-3222.9999999999959
 31
0.0
1001
ACDBBLOCKREPETAG
1070
     1
1071
       83
1005
1308B5
  0
TEXT
  5
1308B6
  8
SLIM
 10
4884.25
 20
-3817.4999999999959
 30
0.0
 40
35.0
  1
通常枝100（4）
 41
0.75
  0
LINE
  5
1308B7
  8
CENTER
 10
4477.0
 20
-3640.9999999999968
 30
0.0
 11
4323.0
 21
-3640.9999999999968
 31
0.0
1001
ACDBBLOCKREPETAG
1070
     1
1071
       17
1005
1308B7
  0
CIRCLE
  5
1308B8
  8
OBJECT
 10
4400.0
 20
-3640.9999999999968
 30
0.0
 40
41.5
1001
ACDBBLOCKREPETAG
1070
     1
1071
       19
1005
1308B8
  0
CIRCLE
  5
1308B9
  8
OBJECT
 10
4400.0
 20
-3640.9999999999968
 30
0.0
 40
54.0
1001
ACDBBLOCKREPETAG
1070
     1
1071
       20
1005
1308B9
  0
ARC
  5
1308BA
  8
OBJECT
 10
4400.0
 20
-3640.9999999999968
 30
0.0
 40
62.0
 50
287.89655112921122
 51
252.1034488707887
1001
ACDBBLOCKREPETAG
1070
     1
1071
       21
1005
1308BA
  0
LINE
  5
1308BB
  8
OBJECT
 10
4380.947441116743
 20
-3699.9999999999968
 30
0.0
 11
4419.052558883257
 21
-3699.9999999999968
 31
0.0
1001
ACDBBLOCKREPETAG
1070
     1
1071
       22
1005
1308BB
  0
LINE
  5
1308BC
  8
OBJECT
 10
4133.0
 20
-3578.9999999999968
 30
0.0
 11
4140.0
 21
-3578.9999999999968
 31
0.0
1001
ACDBBLOCKREPETAG
1070
     1
1071
       45
1005
1308BC
  0
LINE
  5
1308BD
  8
OBJECT
 10
4140.0
 20
-3578.9999999999968
 30
0.0
 11
4140.0
 21
-3699.9999999999968
 31
0.0
1001
ACDBBLOCKREPETAG
1070
     1
1071
       46
1005
1308BD
  0
LINE
  5
1308BE
  8
OBJECT
 10
4133.0
 20
-3699.9999999999968
 30
0.0
 11
4133.0
 21
-3578.9999999999968
 31
0.0
1001
ACDBBLOCKREPETAG
1070
     1
1071
       47
1005
1308BE
  0
LINE
  5
1308BF
  8
CENTER
 10
4155.0
 20
-3640.9999999999968
 30
0.0
 11
4071.0
 21
-3640.9999999999968
 31
0.0
1001
ACDBBLOCKREPETAG
1070
     1
1071
       48
1005
1308BF
  0
LINE
  5
1308C0
  8
OBJECT
 10
4133.0
 20
-3581.9999999999968
 30
0.0
 11
4097.0
 21
-3581.9999999999968
 31
0.0
1001
ACDBBLOCKREPETAG
1070
     1
1071
       49
1005
1308C0
  0
LINE
  5
1308C1
  8
OBJECT
 10
4097.0
 20
-3581.9999999999968
 30
0.0
 11
4097.0
 21
-3699.9999999999968
 31
0.0
1001
ACDBBLOCKREPETAG
1070
     1
1071
       50
1005
1308C1
  0
LINE
  5
1308C2
  8
OBJECT
 10
4097.0
 20
-3699.9999999999968
 30
0.0
 11
4140.0
 21
-3699.9999999999968
 31
0.0
1001
ACDBBLOCKREPETAG
1070
     1
1071
       51
1005
1308C2
  0
LINE
  5
1308C3
  8
OBJECT
 10
4093.0
 20
-3586.4999999999968
 30
0.0
 11
4086.0
 21
-3586.4999999999968
 31
0.0
1001
ACDBBLOCKREPETAG
1070
     1
1071
       52
1005
1308C3
  0
LINE
  5
1308C4
  8
OBJECT
 10
4086.0
 20
-3695.4999999999968
 30
0.0
 11
4093.0
 21
-3695.4999999999968
 31
0.0
1001
ACDBBLOCKREPETAG
1070
     1
1071
       53
1005
1308C4
  0
LINE
  5
1308C5
  8
OBJECT
 10
4093.0
 20
-3695.4999999999968
 30
0.0
 11
4093.0
 21
-3586.4999999999968
 31
0.0
1001
ACDBBLOCKREPETAG
1070
     1
1071
       54
1005
1308C5
  0
LINE
  5
1308C6
  8
OBJECT
 10
4097.0
 20
-3581.9999999999968
 30
0.0
 11
4093.0
 21
-3586.4999999999968
 31
0.0
1001
ACDBBLOCKREPETAG
1070
     1
1071
       55
1005
1308C6
  0
LINE
  5
1308C7
  8
OBJECT
 10
4097.0
 20
-3699.9999999999968
 30
0.0
 11
4093.0
 21
-3695.4999999999968
 31
0.0
1001
ACDBBLOCKREPETAG
1070
     1
1071
       56
1005
1308C7
  0
LINE
  5
1308C8
  8
OBJECT
 10
4083.0
 20
-3578.9999999999968
 30
0.0
 11
4080.0
 21
-3578.9999999999968
 31
0.0
1001
ACDBBLOCKREPETAG
1070
     1
1071
       57
1005
1308C8
  0
ARC
  5
1308C9
  8
OBJECT
 10
4083.0
 20
-3581.9999999999968
 30
0.0
 40
3.0
 50
0.0
 51
90.0
1001
ACDBBLOCKREPETAG
1070
     1
1071
       58
1005
1308C9
  0
LINE
  5
1308CA
  8
OBJECT
 10
4080.0
 20
-3702.9999999999968
 30
0.0
 11
4083.0
 21
-3702.9999999999968
 31
0.0
1001
ACDBBLOCKREPETAG
1070
     1
1071
       59
1005
1308CA
  0
ARC
  5
1308CB
  8
OBJECT
 10
4083.0
 20
-3699.9999999999968
 30
0.0
 40
3.0
 50
270.0
 51
0.0
1001
ACDBBLOCKREPETAG
1070
     1
1071
       60
1005
1308CB
  0
LINE
  5
1308CC
  8
OBJECT
 10
4086.0
 20
-3699.9999999999968
 30
0.0
 11
4086.0
 21
-3581.9999999999968
 31
0.0
1001
ACDBBLOCKREPETAG
1070
     1
1071
       61
1005
1308CC
  0
LINE
  5
1308CD
  8
HIDDEN
 10
4088.0
 20
-3596.4999999999968
 30
0.0
 11
4088.0
 21
-3685.4999999999968
 31
0.0
1001
ACDBBLOCKREPETAG
1070
     1
1071
       63
1005
1308CD
  0
LINE
  5
1308CE
  8
OBJECT
 10
4133.0
 20
-3232.9999999999959
 30
0.0
 11
4140.0
 21
-3232.9999999999959
 31
0.0
1001
ACDBBLOCKREPETAG
1070
     1
1071
       47
1005
1308CE
  0
LINE
  5
1308CF
  8
OBJECT
 10
4140.0
 20
-3232.9999999999959
 30
0.0
 11
4140.0
 21
-3356.9999999999959
 31
0.0
1001
ACDBBLOCKREPETAG
1070
     1
1071
       48
1005
1308CF
  0
LINE
  5
1308D0
  8
OBJECT
 10
4140.0
 20
-3356.9999999999959
 30
0.0
 11
4133.0
 21
-3356.9999999999959
 31
0.0
1001
ACDBBLOCKREPETAG
1070
     1
1071
       49
1005
1308D0
  0
LINE
  5
1308D1
  8
OBJECT
 10
4133.0
 20
-3356.9999999999959
 30
0.0
 11
4133.0
 21
-3232.9999999999959
 31
0.0
1001
ACDBBLOCKREPETAG
1070
     1
1071
       50
1005
1308D1
  0
LINE
  5
1308D2
  8
CENTER
 10
4155.0
 20
-3294.9999999999959
 30
0.0
 11
4080.0
 21
-3294.9999999999959
 31
0.0
1001
ACDBBLOCKREPETAG
1070
     1
1071
       51
1005
1308D2
  0
LINE
  5
1308D3
  8
OBJECT
 10
4133.0
 20
-3235.9999999999959
 30
0.0
 11
4097.0
 21
-3235.9999999999959
 31
0.0
1001
ACDBBLOCKREPETAG
1070
     1
1071
       52
1005
1308D3
  0
LINE
  5
1308D4
  8
OBJECT
 10
4097.0
 20
-3235.9999999999959
 30
0.0
 11
4097.0
 21
-3353.9999999999959
 31
0.0
1001
ACDBBLOCKREPETAG
1070
     1
1071
       53
1005
1308D4
  0
LINE
  5
1308D5
  8
OBJECT
 10
4097.0
 20
-3353.9999999999959
 30
0.0
 11
4133.0
 21
-3353.9999999999959
 31
0.0
1001
ACDBBLOCKREPETAG
1070
     1
1071
       54
1005
1308D5
  0
LINE
  5
1308D6
  8
OBJECT
 10
4093.0
 20
-3240.4999999999959
 30
0.0
 11
4086.0
 21
-3240.4999999999959
 31
0.0
1001
ACDBBLOCKREPETAG
1070
     1
1071
       55
1005
1308D6
  0
LINE
  5
1308D7
  8
OBJECT
 10
4086.0
 20
-3349.4999999999959
 30
0.0
 11
4093.0
 21
-3349.4999999999959
 31
0.0
1001
ACDBBLOCKREPETAG
1070
     1
1071
       56
1005
1308D7
  0
LINE
  5
1308D8
  8
OBJECT
 10
4093.0
 20
-3349.4999999999959
 30
0.0
 11
4093.0
 21
-3240.4999999999959
 31
0.0
1001
ACDBBLOCKREPETAG
1070
     1
1071
       57
1005
1308D8
  0
LINE
  5
1308D9
  8
OBJECT
 10
4097.0
 20
-3235.9999999999959
 30
0.0
 11
4093.0
 21
-3240.4999999999959
 31
0.0
1001
ACDBBLOCKREPETAG
1070
     1
1071
       58
1005
1308D9
  0
LINE
  5
1308DA
  8
OBJECT
 10
4097.0
 20
-3353.9999999999959
 30
0.0
 11
4093.0
 21
-3349.4999999999959
 31
0.0
1001
ACDBBLOCKREPETAG
1070
     1
1071
       59
1005
1308DA
  0
LINE
  5
1308DB
  8
OBJECT
 10
4083.0
 20
-3232.9999999999959
 30
0.0
 11
4080.0
 21
-3232.9999999999959
 31
0.0
1001
ACDBBLOCKREPETAG
1070
     1
1071
       60
1005
1308DB
  0
ARC
  5
1308DC
  8
OBJECT
 10
4083.0
 20
-3235.9999999999959
 30
0.0
 40
3.0
 50
0.0
 51
90.0
1001
ACDBBLOCKREPETAG
1070
     1
1071
       61
1005
1308DC
  0
LINE
  5
1308DD
  8
OBJECT
 10
4080.0
 20
-3356.9999999999959
 30
0.0
 11
4083.0
 21
-3356.9999999999959
 31
0.0
1001
ACDBBLOCKREPETAG
1070
     1
1071
       62
1005
1308DD
  0
ARC
  5
1308DE
  8
OBJECT
 10
4083.0
 20
-3353.9999999999959
 30
0.0
 40
3.0
 50
270.0
 51
0.0
1001
ACDBBLOCKREPETAG
1070
     1
1071
       63
1005
1308DE
  0
LINE
  5
1308DF
  8
OBJECT
 10
4086.0
 20
-3353.9999999999959
 30
0.0
 11
4086.0
 21
-3235.9999999999959
 31
0.0
1001
ACDBBLOCKREPETAG
1070
     1
1071
       64
1005
1308DF
  0
LINE
  5
1308E0
  8
HIDDEN
 10
4088.0
 20
-3250.4999999999959
 30
0.0
 11
4088.0
 21
-3339.4999999999959
 31
0.0
1001
ACDBBLOCKREPETAG
1070
     1
1071
       65
1005
1308E0
  0
TEXT
  5
1308E1
  8
SLIM
 10
3894.25
 20
-3817.4999999999959
 30
0.0
 40
35.0
  1
通常枝75（3）
 41
0.75
  0
CIRCLE
  5
1308E2
  8
OBJECT
 10
3400.0
 20
-3647.9999999999968
 30
0.0
 40
35.5
1001
ACDBBLOCKREPETAG
1070
     1
1071
       10
1005
1308E2
  0
CIRCLE
  5
1308E3
  8
OBJECT
 10
3400.0
 20
-3640.9999999999968
 30
0.0
 40
62.0
1001
ACDBBLOCKREPETAG
1070
     1
1071
       11
1005
1308E3
  0
LINE
  5
1308E4
  8
CENTER
 10
3330.0
 20
-3647.9999999999968
 30
0.0
 11
3470.0
 21
-3647.9999999999968
 31
0.0
1001
ACDBBLOCKREPETAG
1070
     1
1071
       12
1005
1308E4
  0
CIRCLE
  5
1308E5
  8
OBJECT
 10
3400.0
 20
-3647.9999999999968
 30
0.0
 40
47.0
1001
ACDBBLOCKREPETAG
1070
     1
1071
       14
1005
1308E5
  0
ARC
  5
1308E6
  8
OBJECT
 10
3400.0
 20
-3647.9999999999968
 30
0.0
 40
55.0
 50
289.01126526011359
 51
250.98873473988641
1001
ACDBBLOCKREPETAG
1070
     1
1071
       15
1005
1308E6
  0
LINE
  5
1308E7
  8
OBJECT
 10
3382.0835271328328
 20
-3699.9999999999968
 30
0.0
 11
3417.9164728671681
 21
-3699.9999999999968
 31
0.0
1001
ACDBBLOCKREPETAG
1070
     1
1071
       16
1005
1308E7
  0
LINE
  5
1308E8
  8
OBJECT
 10
3133.0
 20
-3592.9999999999968
 30
0.0
 11
3140.0
 21
-3592.9999999999968
 31
0.0
1001
ACDBBLOCKREPETAG
1070
     1
1071
       26
1005
1308E8
  0
LINE
  5
1308E9
  8
OBJECT
 10
3140.0
 20
-3592.9999999999968
 30
0.0
 11
3140.0
 21
-3699.9999999999968
 31
0.0
1001
ACDBBLOCKREPETAG
1070
     1
1071
       27
1005
1308E9
  0
LINE
  5
1308EA
  8
OBJECT
 10
3133.0
 20
-3699.9999999999968
 30
0.0
 11
3133.0
 21
-3592.9999999999968
 31
0.0
1001
ACDBBLOCKREPETAG
1070
     1
1071
       28
1005
1308EA
  0
LINE
  5
1308EB
  8
CENTER
 10
3155.0
 20
-3647.9999999999968
 30
0.0
 11
3071.0
 21
-3647.9999999999968
 31
0.0
1001
ACDBBLOCKREPETAG
1070
     1
1071
       29
1005
1308EB
  0
LINE
  5
1308EC
  8
OBJECT
 10
3133.0
 20
-3595.9999999999968
 30
0.0
 11
3097.0
 21
-3595.9999999999968
 31
0.0
1001
ACDBBLOCKREPETAG
1070
     1
1071
       30
1005
1308EC
  0
LINE
  5
1308ED
  8
OBJECT
 10
3097.0
 20
-3595.9999999999968
 30
0.0
 11
3097.0
 21
-3699.9999999999968
 31
0.0
1001
ACDBBLOCKREPETAG
1070
     1
1071
       31
1005
1308ED
  0
LINE
  5
1308EE
  8
OBJECT
 10
3097.0
 20
-3699.9999999999968
 30
0.0
 11
3140.0
 21
-3699.9999999999968
 31
0.0
1001
ACDBBLOCKREPETAG
1070
     1
1071
       32
1005
1308EE
  0
LINE
  5
1308EF
  8
OBJECT
 10
3093.0
 20
-3600.4999999999968
 30
0.0
 11
3086.0
 21
-3600.4999999999968
 31
0.0
1001
ACDBBLOCKREPETAG
1070
     1
1071
       33
1005
1308EF
  0
LINE
  5
1308F0
  8
OBJECT
 10
3086.0
 20
-3695.4999999999968
 30
0.0
 11
3093.0
 21
-3695.4999999999968
 31
0.0
1001
ACDBBLOCKREPETAG
1070
     1
1071
       34
1005
1308F0
  0
LINE
  5
1308F1
  8
OBJECT
 10
3093.0
 20
-3695.4999999999968
 30
0.0
 11
3093.0
 21
-3600.4999999999968
 31
0.0
1001
ACDBBLOCKREPETAG
1070
     1
1071
       35
1005
1308F1
  0
LINE
  5
1308F2
  8
OBJECT
 10
3097.0
 20
-3595.9999999999968
 30
0.0
 11
3093.0
 21
-3600.4999999999968
 31
0.0
1001
ACDBBLOCKREPETAG
1070
     1
1071
       36
1005
1308F2
  0
LINE
  5
1308F3
  8
OBJECT
 10
3097.0
 20
-3699.9999999999968
 30
0.0
 11
3093.0
 21
-3695.4999999999968
 31
0.0
1001
ACDBBLOCKREPETAG
1070
     1
1071
       37
1005
1308F3
  0
LINE
  5
1308F4
  8
OBJECT
 10
3083.0
 20
-3578.9999999999968
 30
0.0
 11
3080.0
 21
-3578.9999999999968
 31
0.0
1001
ACDBBLOCKREPETAG
1070
     1
1071
       38
1005
1308F4
  0
ARC
  5
1308F5
  8
OBJECT
 10
3083.0
 20
-3581.9999999999968
 30
0.0
 40
3.0
 50
0.0
 51
90.0
1001
ACDBBLOCKREPETAG
1070
     1
1071
       39
1005
1308F5
  0
LINE
  5
1308F6
  8
OBJECT
 10
3080.0
 20
-3702.9999999999968
 30
0.0
 11
3083.0
 21
-3702.9999999999968
 31
0.0
1001
ACDBBLOCKREPETAG
1070
     1
1071
       40
1005
1308F6
  0
ARC
  5
1308F7
  8
OBJECT
 10
3083.0
 20
-3699.9999999999968
 30
0.0
 40
3.0
 50
270.0
 51
0.0
1001
ACDBBLOCKREPETAG
1070
     1
1071
       41
1005
1308F7
  0
LINE
  5
1308F8
  8
OBJECT
 10
3086.0
 20
-3699.9999999999968
 30
0.0
 11
3086.0
 21
-3581.9999999999968
 31
0.0
1001
ACDBBLOCKREPETAG
1070
     1
1071
       42
1005
1308F8
  0
LINE
  5
1308F9
  8
HIDDEN
 10
3088.0
 20
-3609.9999999999968
 30
0.0
 11
3088.0
 21
-3685.9999999999968
 31
0.0
1001
ACDBBLOCKREPETAG
1070
     1
1071
       43
1005
1308F9
  0
LINE
  5
1308FA
  8
OBJECT
 10
3133.0
 20
-3239.9999999999968
 30
0.0
 11
3140.0
 21
-3239.9999999999968
 31
0.0
1001
ACDBBLOCKREPETAG
1070
     1
1071
       27
1005
1308FA
  0
LINE
  5
1308FB
  8
OBJECT
 10
3140.0
 20
-3239.9999999999968
 30
0.0
 11
3140.0
 21
-3349.9999999999959
 31
0.0
1001
ACDBBLOCKREPETAG
1070
     1
1071
       28
1005
1308FB
  0
LINE
  5
1308FC
  8
OBJECT
 10
3140.0
 20
-3349.9999999999959
 30
0.0
 11
3133.0
 21
-3349.9999999999959
 31
0.0
1001
ACDBBLOCKREPETAG
1070
     1
1071
       29
1005
1308FC
  0
LINE
  5
1308FD
  8
OBJECT
 10
3133.0
 20
-3349.9999999999959
 30
0.0
 11
3133.0
 21
-3239.9999999999968
 31
0.0
1001
ACDBBLOCKREPETAG
1070
     1
1071
       30
1005
1308FD
  0
LINE
  5
1308FE
  8
CENTER
 10
3155.0
 20
-3294.9999999999959
 30
0.0
 11
3080.0
 21
-3294.9999999999959
 31
0.0
1001
ACDBBLOCKREPETAG
1070
     1
1071
       31
1005
1308FE
  0
LINE
  5
1308FF
  8
OBJECT
 10
3133.0
 20
-3242.9999999999959
 30
0.0
 11
3097.0
 21
-3242.9999999999959
 31
0.0
1001
ACDBBLOCKREPETAG
1070
     1
1071
       32
1005
1308FF
  0
LINE
  5
130900
  8
OBJECT
 10
3097.0
 20
-3242.9999999999959
 30
0.0
 11
3097.0
 21
-3346.9999999999959
 31
0.0
1001
ACDBBLOCKREPETAG
1070
     1
1071
       33
1005
130900
  0
LINE
  5
130901
  8
OBJECT
 10
3097.0
 20
-3346.9999999999959
 30
0.0
 11
3133.0
 21
-3346.9999999999959
 31
0.0
1001
ACDBBLOCKREPETAG
1070
     1
1071
       34
1005
130901
  0
LINE
  5
130902
  8
OBJECT
 10
3093.0
 20
-3247.4999999999959
 30
0.0
 11
3086.0
 21
-3247.4999999999959
 31
0.0
1001
ACDBBLOCKREPETAG
1070
     1
1071
       35
1005
130902
  0
LINE
  5
130903
  8
OBJECT
 10
3086.0
 20
-3342.4999999999959
 30
0.0
 11
3093.0
 21
-3342.4999999999959
 31
0.0
1001
ACDBBLOCKREPETAG
1070
     1
1071
       36
1005
130903
  0
LINE
  5
130904
  8
OBJECT
 10
3093.0
 20
-3342.4999999999959
 30
0.0
 11
3093.0
 21
-3247.4999999999959
 31
0.0
1001
ACDBBLOCKREPETAG
1070
     1
1071
       37
1005
130904
  0
LINE
  5
130905
  8
OBJECT
 10
3097.0
 20
-3242.9999999999959
 30
0.0
 11
3093.0
 21
-3247.4999999999959
 31
0.0
1001
ACDBBLOCKREPETAG
1070
     1
1071
       38
1005
130905
  0
LINE
  5
130906
  8
OBJECT
 10
3097.0
 20
-3346.9999999999959
 30
0.0
 11
3093.0
 21
-3342.4999999999959
 31
0.0
1001
ACDBBLOCKREPETAG
1070
     1
1071
       39
1005
130906
  0
LINE
  5
130907
  8
OBJECT
 10
3083.0
 20
-3232.9999999999959
 30
0.0
 11
3080.0
 21
-3232.9999999999959
 31
0.0
1001
ACDBBLOCKREPETAG
1070
     1
1071
       40
1005
130907
  0
ARC
  5
130908
  8
OBJECT
 10
3083.0
 20
-3235.9999999999959
 30
0.0
 40
3.0
 50
0.0
 51
90.0
1001
ACDBBLOCKREPETAG
1070
     1
1071
       41
1005
130908
  0
LINE
  5
130909
  8
OBJECT
 10
3080.0
 20
-3356.9999999999959
 30
0.0
 11
3083.0
 21
-3356.9999999999959
 31
0.0
1001
ACDBBLOCKREPETAG
1070
     1
1071
       42
1005
130909
  0
ARC
  5
13090A
  8
OBJECT
 10
3083.0
 20
-3353.9999999999959
 30
0.0
 40
3.0
 50
270.0
 51
0.0
1001
ACDBBLOCKREPETAG
1070
     1
1071
       43
1005
13090A
  0
LINE
  5
13090B
  8
OBJECT
 10
3086.0
 20
-3353.9999999999959
 30
0.0
 11
3086.0
 21
-3235.9999999999959
 31
0.0
1001
ACDBBLOCKREPETAG
1070
     1
1071
       44
1005
13090B
  0
LINE
  5
13090C
  8
HIDDEN
 10
3088.0
 20
-3256.9999999999959
 30
0.0
 11
3088.0
 21
-3332.9999999999968
 31
0.0
1001
ACDBBLOCKREPETAG
1070
     1
1071
       45
1005
13090C
  0
TEXT
  5
13090D
  8
SLIM
 10
2894.25
 20
-3817.4999999999959
 30
0.0
 40
35.0
  1
通常枝65（2）
 41
0.75
  0
CIRCLE
  5
13090E
  8
OBJECT
 10
2400.0
 20
-3640.9999999999968
 30
0.0
 40
62.0
1001
ACDBBLOCKREPETAG
1070
     1
1071
        3
1005
13090E
  0
LINE
  5
13090F
  8
CENTER
 10
2338.0
 20
-3655.9999999999968
 30
0.0
 11
2462.0
 21
-3655.9999999999968
 31
0.0
1001
ACDBBLOCKREPETAG
1070
     1
1071
        4
1005
13090F
  0
CIRCLE
  5
130910
  8
OBJECT
 10
2400.0
 20
-3655.9999999999968
 30
0.0
 40
28.0
1001
ACDBBLOCKREPETAG
1070
     1
1071
        6
1005
130910
  0
CIRCLE
  5
130911
  8
OBJECT
 10
2400.0
 20
-3655.9999999999968
 30
0.0
 40
39.0
1001
ACDBBLOCKREPETAG
1070
     1
1071
        7
1005
130911
  0
ARC
  5
130912
  8
OBJECT
 10
2400.0
 20
-3655.9999999999968
 30
0.0
 40
47.0
 50
290.58196921144412
 51
249.41803078855591
1001
ACDBBLOCKREPETAG
1070
     1
1071
        8
1005
130912
  0
LINE
  5
130913
  8
OBJECT
 10
2383.4772883581431
 20
-3699.9999999999968
 30
0.0
 11
2416.5227116418569
 21
-3699.9999999999968
 31
0.0
1001
ACDBBLOCKREPETAG
1070
     1
1071
        9
1005
130913
  0
LINE
  5
130914
  8
OBJECT
 10
2133.0
 20
-3608.9999999999968
 30
0.0
 11
2140.0
 21
-3608.9999999999968
 31
0.0
1001
ACDBBLOCKREPETAG
1070
     1
1071
        7
1005
130914
  0
LINE
  5
130915
  8
OBJECT
 10
2140.0
 20
-3608.9999999999968
 30
0.0
 11
2140.0
 21
-3699.9999999999968
 31
0.0
1001
ACDBBLOCKREPETAG
1070
     1
1071
        8
1005
130915
  0
LINE
  5
130916
  8
OBJECT
 10
2133.0
 20
-3699.9999999999968
 30
0.0
 11
2133.0
 21
-3608.9999999999968
 31
0.0
1001
ACDBBLOCKREPETAG
1070
     1
1071
        9
1005
130916
  0
LINE
  5
130917
  8
CENTER
 10
2155.0
 20
-3655.9999999999968
 30
0.0
 11
2071.0
 21
-3655.9999999999968
 31
0.0
1001
ACDBBLOCKREPETAG
1070
     1
1071
       10
1005
130917
  0
LINE
  5
130918
  8
OBJECT
 10
2133.0
 20
-3611.9999999999968
 30
0.0
 11
2097.0
 21
-3611.9999999999968
 31
0.0
1001
ACDBBLOCKREPETAG
1070
     1
1071
       11
1005
130918
  0
LINE
  5
130919
  8
OBJECT
 10
2097.0
 20
-3611.9999999999968
 30
0.0
 11
2097.0
 21
-3699.9999999999968
 31
0.0
1001
ACDBBLOCKREPETAG
1070
     1
1071
       12
1005
130919
  0
LINE
  5
13091A
  8
OBJECT
 10
2097.0
 20
-3699.9999999999968
 30
0.0
 11
2140.0
 21
-3699.9999999999968
 31
0.0
1001
ACDBBLOCKREPETAG
1070
     1
1071
       13
1005
13091A
  0
LINE
  5
13091B
  8
OBJECT
 10
2093.0
 20
-3616.4999999999968
 30
0.0
 11
2086.0
 21
-3616.4999999999968
 31
0.0
1001
ACDBBLOCKREPETAG
1070
     1
1071
       14
1005
13091B
  0
LINE
  5
13091C
  8
OBJECT
 10
2086.0
 20
-3695.4999999999968
 30
0.0
 11
2093.0
 21
-3695.4999999999968
 31
0.0
1001
ACDBBLOCKREPETAG
1070
     1
1071
       15
1005
13091C
  0
LINE
  5
13091D
  8
OBJECT
 10
2093.0
 20
-3695.4999999999968
 30
0.0
 11
2093.0
 21
-3616.4999999999968
 31
0.0
1001
ACDBBLOCKREPETAG
1070
     1
1071
       16
1005
13091D
  0
LINE
  5
13091E
  8
OBJECT
 10
2097.0
 20
-3611.9999999999968
 30
0.0
 11
2093.0
 21
-3616.4999999999968
 31
0.0
1001
ACDBBLOCKREPETAG
1070
     1
1071
       17
1005
13091E
  0
LINE
  5
13091F
  8
OBJECT
 10
2097.0
 20
-3699.9999999999968
 30
0.0
 11
2093.0
 21
-3695.4999999999968
 31
0.0
1001
ACDBBLOCKREPETAG
1070
     1
1071
       18
1005
13091F
  0
LINE
  5
130920
  8
OBJECT
 10
2083.0
 20
-3578.9999999999968
 30
0.0
 11
2080.0
 21
-3578.9999999999968
 31
0.0
1001
ACDBBLOCKREPETAG
1070
     1
1071
       19
1005
130920
  0
ARC
  5
130921
  8
OBJECT
 10
2083.0
 20
-3581.9999999999968
 30
0.0
 40
3.0
 50
0.0
 51
90.0
1001
ACDBBLOCKREPETAG
1070
     1
1071
       20
1005
130921
  0
LINE
  5
130922
  8
OBJECT
 10
2080.0
 20
-3702.9999999999968
 30
0.0
 11
2083.0
 21
-3702.9999999999968
 31
0.0
1001
ACDBBLOCKREPETAG
1070
     1
1071
       21
1005
130922
  0
ARC
  5
130923
  8
OBJECT
 10
2083.0
 20
-3699.9999999999968
 30
0.0
 40
3.0
 50
270.0
 51
0.0
1001
ACDBBLOCKREPETAG
1070
     1
1071
       22
1005
130923
  0
LINE
  5
130924
  8
OBJECT
 10
2086.0
 20
-3699.9999999999968
 30
0.0
 11
2086.0
 21
-3581.9999999999968
 31
0.0
1001
ACDBBLOCKREPETAG
1070
     1
1071
       23
1005
130924
  0
LINE
  5
130925
  8
HIDDEN
 10
2088.0
 20
-3625.9999999999968
 30
0.0
 11
2088.0
 21
-3685.9999999999968
 31
0.0
1001
ACDBBLOCKREPETAG
1070
     1
1071
       24
1005
130925
  0
LINE
  5
130926
  8
OBJECT
 10
2133.0
 20
-3247.9999999999959
 30
0.0
 11
2140.0
 21
-3247.9999999999959
 31
0.0
1001
ACDBBLOCKREPETAG
1070
     1
1071
        7
1005
130926
  0
LINE
  5
130927
  8
OBJECT
 10
2140.0
 20
-3247.9999999999959
 30
0.0
 11
2140.0
 21
-3341.9999999999959
 31
0.0
1001
ACDBBLOCKREPETAG
1070
     1
1071
        8
1005
130927
  0
LINE
  5
130928
  8
OBJECT
 10
2140.0
 20
-3341.9999999999959
 30
0.0
 11
2133.0
 21
-3341.9999999999959
 31
0.0
1001
ACDBBLOCKREPETAG
1070
     1
1071
        9
1005
130928
  0
LINE
  5
130929
  8
OBJECT
 10
2133.0
 20
-3341.9999999999959
 30
0.0
 11
2133.0
 21
-3247.9999999999959
 31
0.0
1001
ACDBBLOCKREPETAG
1070
     1
1071
       10
1005
130929
  0
LINE
  5
13092A
  8
CENTER
 10
2155.0
 20
-3294.9999999999959
 30
0.0
 11
2080.0
 21
-3294.9999999999959
 31
0.0
1001
ACDBBLOCKREPETAG
1070
     1
1071
       11
1005
13092A
  0
LINE
  5
13092B
  8
OBJECT
 10
2133.0
 20
-3250.9999999999959
 30
0.0
 11
2097.0
 21
-3250.9999999999959
 31
0.0
1001
ACDBBLOCKREPETAG
1070
     1
1071
       12
1005
13092B
  0
LINE
  5
13092C
  8
OBJECT
 10
2097.0
 20
-3250.9999999999959
 30
0.0
 11
2097.0
 21
-3338.9999999999959
 31
0.0
1001
ACDBBLOCKREPETAG
1070
     1
1071
       13
1005
13092C
  0
LINE
  5
13092D
  8
OBJECT
 10
2097.0
 20
-3338.9999999999959
 30
0.0
 11
2133.0
 21
-3338.9999999999959
 31
0.0
1001
ACDBBLOCKREPETAG
1070
     1
1071
       14
1005
13092D
  0
LINE
  5
13092E
  8
OBJECT
 10
2093.0
 20
-3255.4999999999959
 30
0.0
 11
2086.0
 21
-3255.4999999999959
 31
0.0
1001
ACDBBLOCKREPETAG
1070
     1
1071
       15
1005
13092E
  0
LINE
  5
13092F
  8
OBJECT
 10
2086.0
 20
-3334.4999999999959
 30
0.0
 11
2093.0
 21
-3334.4999999999959
 31
0.0
1001
ACDBBLOCKREPETAG
1070
     1
1071
       16
1005
13092F
  0
LINE
  5
130930
  8
OBJECT
 10
2093.0
 20
-3334.4999999999959
 30
0.0
 11
2093.0
 21
-3255.4999999999959
 31
0.0
1001
ACDBBLOCKREPETAG
1070
     1
1071
       17
1005
130930
  0
LINE
  5
130931
  8
OBJECT
 10
2097.0
 20
-3250.9999999999959
 30
0.0
 11
2093.0
 21
-3255.4999999999959
 31
0.0
1001
ACDBBLOCKREPETAG
1070
     1
1071
       18
1005
130931
  0
LINE
  5
130932
  8
OBJECT
 10
2097.0
 20
-3338.9999999999959
 30
0.0
 11
2093.0
 21
-3334.4999999999959
 31
0.0
1001
ACDBBLOCKREPETAG
1070
     1
1071
       19
1005
130932
  0
LINE
  5
130933
  8
OBJECT
 10
2083.0
 20
-3232.9999999999959
 30
0.0
 11
2080.0
 21
-3232.9999999999959
 31
0.0
1001
ACDBBLOCKREPETAG
1070
     1
1071
       20
1005
130933
  0
ARC
  5
130934
  8
OBJECT
 10
2083.0
 20
-3235.9999999999959
 30
0.0
 40
3.0
 50
0.0
 51
90.0
1001
ACDBBLOCKREPETAG
1070
     1
1071
       21
1005
130934
  0
LINE
  5
130935
  8
OBJECT
 10
2080.0
 20
-3356.9999999999959
 30
0.0
 11
2083.0
 21
-3356.9999999999959
 31
0.0
1001
ACDBBLOCKREPETAG
1070
     1
1071
       22
1005
130935
  0
ARC
  5
130936
  8
OBJECT
 10
2083.0
 20
-3353.9999999999959
 30
0.0
 40
3.0
 50
270.0
 51
0.0
1001
ACDBBLOCKREPETAG
1070
     1
1071
       23
1005
130936
  0
LINE
  5
130937
  8
OBJECT
 10
2086.0
 20
-3353.9999999999959
 30
0.0
 11
2086.0
 21
-3235.9999999999959
 31
0.0
1001
ACDBBLOCKREPETAG
1070
     1
1071
       24
1005
130937
  0
LINE
  5
130938
  8
HIDDEN
 10
2088.0
 20
-3264.9999999999968
 30
0.0
 11
2088.0
 21
-3324.9999999999959
 31
0.0
1001
ACDBBLOCKREPETAG
1070
     1
1071
       25
1005
130938
  0
TEXT
  5
130939
  8
SLIM
 10
1896.75
 20
-3817.4999999999959
 30
0.0
 40
35.0
  1
通常枝50（1）
 41
0.75
  0
LINE
  5
13093A
  8
SLIM
 10
3914.9999999999941
 20
-759.47385309434696
 30
0.0
 11
3919.47385309434
 21
-754.99999999999955
 31
0.0
1001
ACDBBLOCKREPETAG
1070
     1
1071
        0
1005
0
1001
ACAD
1010
0.0
1020
0.0
1030
0.0
  0
LINE
  5
13093B
  8
SLIM
 10
3914.9999999999941
 20
-777.43436533648503
 30
0.0
 11
3937.434365336479
 21
-754.99999999999955
 31
0.0
1001
ACAD
1010
0.0
1020
0.0
1030
0.0
1001
ACDBBLOCKREPETAG
1070
     1
1071
       14
1005
13093B
  0
LINE
  5
13093C
  8
SLIM
 10
3914.9999999999941
 20
-795.39487757862275
 30
0.0
 11
3955.394877578618
 21
-754.99999999999955
 31
0.0
1001
ACAD
1010
0.0
1020
0.0
1030
0.0
1001
ACDBBLOCKREPETAG
1070
     1
1071
       15
1005
13093C
  0
LINE
  5
13093D
  8
SLIM
 10
3914.9999999999941
 20
-813.35538982076082
 30
0.0
 11
3973.3553898207551
 21
-754.99999999999955
 31
0.0
1001
ACAD
1010
0.0
1020
0.0
1030
0.0
1001
ACDBBLOCKREPETAG
1070
     1
1071
       16
1005
13093D
  0
LINE
  5
13093E
  8
SLIM
 10
3914.999999999995
 20
-831.31590206289854
 30
0.0
 11
3991.3159020628941
 21
-754.99999999999955
 31
0.0
1001
ACAD
1010
0.0
1020
0.0
1030
0.0
1001
ACDBBLOCKREPETAG
1070
     1
1071
       17
1005
13093E
  0
LINE
  5
13093F
  8
SLIM
 10
3914.999999999995
 20
-849.2764143050365
 30
0.0
 11
4009.2764143050308
 21
-754.99999999999955
 31
0.0
1001
ACAD
1010
0.0
1020
0.0
1030
0.0
1001
ACDBBLOCKREPETAG
1070
     1
1071
       18
1005
13093F
  0
LINE
  5
130940
  8
SLIM
 10
3914.999999999995
 20
-867.23692654717422
 30
0.0
 11
4027.2369265471689
 21
-754.99999999999955
 31
0.0
1001
ACAD
1010
0.0
1020
0.0
1030
0.0
1001
ACDBBLOCKREPETAG
1070
     1
1071
       19
1005
130940
  0
LINE
  5
130941
  8
SLIM
 10
3914.999999999995
 20
-885.1974387893124
 30
0.0
 11
4045.1974387893069
 21
-754.99999999999955
 31
0.0
1001
ACAD
1010
0.0
1020
0.0
1030
0.0
1001
ACDBBLOCKREPETAG
1070
     1
1071
       20
1005
130941
  0
LINE
  5
130942
  8
SLIM
 10
3914.9999999999968
 20
-903.15795103145035
 30
0.0
 11
4063.157951031445
 21
-754.99999999999955
 31
0.0
1001
ACAD
1010
0.0
1020
0.0
1030
0.0
1001
ACDBBLOCKREPETAG
1070
     1
1071
       21
1005
130942
  0
LINE
  5
130943
  8
SLIM
 10
3915.1454972543161
 20
-920.97296601926894
 30
0.0
 11
4081.1184632735849
 21
-754.99999999999955
 31
0.0
1001
ACAD
1010
0.0
1020
0.0
1030
0.0
1001
ACDBBLOCKREPETAG
1070
     1
1071
       22
1005
130943
  0
LINE
  5
130944
  8
SLIM
 10
3917.104627495245
 20
-936.97434802047871
 30
0.0
 11
4085.0000000000068
 21
-769.07897551571591
 31
0.0
1001
ACAD
1010
0.0
1020
0.0
1030
0.0
1001
ACDBBLOCKREPETAG
1070
     1
1071
       23
1005
130944
  0
LINE
  5
130945
  8
SLIM
 10
3919.0637577361722
 20
-952.9757300216894
 30
0.0
 11
4085.0000000000068
 21
-787.03948775785432
 31
0.0
1001
ACAD
1010
0.0
1020
0.0
1030
0.0
1001
ACDBBLOCKREPETAG
1070
     1
1071
       24
1005
130945
  0
LINE
  5
130946
  8
SLIM
 10
3920.0
 20
-969.99999999999966
 30
0.0
 11
4085.0000000000068
 21
-804.99999999999341
 31
0.0
1001
ACAD
1010
0.0
1020
0.0
1030
0.0
1001
ACDBBLOCKREPETAG
1070
     1
1071
       25
1005
130946
  0
LINE
  5
130947
  8
SLIM
 10
3920.0
 20
-987.96051224213795
 30
0.0
 11
4085.0000000000059
 21
-822.96051224213215
 31
0.0
1001
ACAD
1010
0.0
1020
0.0
1030
0.0
1001
ACDBBLOCKREPETAG
1070
     1
1071
       26
1005
130947
  0
LINE
  5
130948
  8
SLIM
 10
3920.0
 20
-1005.921024484276
 30
0.0
 11
4085.0000000000059
 21
-840.92102448427045
 31
0.0
1001
ACAD
1010
0.0
1020
0.0
1030
0.0
1001
ACDBBLOCKREPETAG
1070
     1
1071
       27
1005
130948
  0
LINE
  5
130949
  8
SLIM
 10
3920.0
 20
-1023.881536726414
 30
0.0
 11
4085.000000000005
 21
-858.88153672640954
 31
0.0
1001
ACAD
1010
0.0
1020
0.0
1030
0.0
1001
ACDBBLOCKREPETAG
1070
     1
1071
       28
1005
130949
  0
LINE
  5
13094A
  8
SLIM
 10
3920.0
 20
-1041.842048968552
 30
0.0
 11
4085.0000000000041
 21
-876.84204896854817
 31
0.0
1001
ACAD
1010
0.0
1020
0.0
1030
0.0
1001
ACDBBLOCKREPETAG
1070
     1
1071
       29
1005
13094A
  0
LINE
  5
13094B
  8
SLIM
 10
3920.0
 20
-1059.802561210691
 30
0.0
 11
4085.0000000000041
 21
-894.80256121068692
 31
0.0
1001
ACAD
1010
0.0
1020
0.0
1030
0.0
1001
ACDBBLOCKREPETAG
1070
     1
1071
       30
1005
13094B
  0
LINE
  5
13094C
  8
SLIM
 10
3920.0
 20
-1077.7630734528291
 30
0.0
 11
4085.0000000000032
 21
-912.76307345282555
 31
0.0
1001
ACAD
1010
0.0
1020
0.0
1030
0.0
1001
ACDBBLOCKREPETAG
1070
     1
1071
       31
1005
13094C
  0
LINE
  5
13094D
  8
SLIM
 10
3930.0
 20
-1085.723585694966
 30
0.0
 11
3930.7235856949678
 21
-1084.9999999999991
 31
0.0
1001
ACAD
1010
0.0
1020
0.0
1030
0.0
1001
ACDBBLOCKREPETAG
1070
     1
1071
       32
1005
13094D
  0
LINE
  5
13094E
  8
SLIM
 10
3930.7235856949678
 20
-1084.9999999999991
 30
0.0
 11
4083.4738280308079
 21
-932.24975766415935
 31
0.0
1001
ACAD
1010
0.0
1020
0.0
1030
0.0
1001
ACDBBLOCKREPETAG
1070
     1
1071
       33
1005
13094E
  0
LINE
  5
13094F
  8
SLIM
 10
3930.0
 20
-1103.6840979371059
 30
0.0
 11
3948.6840979371068
 21
-1084.9999999999991
 31
0.0
1001
ACAD
1010
0.0
1020
0.0
1030
0.0
1001
ACDBBLOCKREPETAG
1070
     1
1071
       34
1005
13094F
  0
LINE
  5
130950
  8
SLIM
 10
3948.6840979371068
 20
-1084.9999999999991
 30
0.0
 11
4080.9680345671368
 21
-952.71606336996854
 31
0.0
1001
ACAD
1010
0.0
1020
0.0
1030
0.0
1001
ACDBBLOCKREPETAG
1070
     1
1071
       35
1005
130950
  0
LINE
  5
130951
  8
SLIM
 10
3946.6446101792449
 20
-1104.9999999999991
 30
0.0
 11
3966.6446101792449
 21
-1084.9999999999991
 31
0.0
1001
ACAD
1010
0.0
1020
0.0
1030
0.0
1001
ACDBBLOCKREPETAG
1070
     1
1071
       36
1005
130951
  0
LINE
  5
130952
  8
SLIM
 10
3966.6446101792449
 20
-1084.9999999999991
 30
0.0
 11
4080.0
 21
-971.64461017924452
 31
0.0
1001
ACAD
1010
0.0
1020
0.0
1030
0.0
1001
ACDBBLOCKREPETAG
1070
     1
1071
       37
1005
130952
  0
LINE
  5
130953
  8
SLIM
 10
3964.6051224213829
 20
-1104.9999999999991
 30
0.0
 11
3984.6051224213829
 21
-1084.9999999999991
 31
0.0
1001
ACAD
1010
0.0
1020
0.0
1030
0.0
1001
ACDBBLOCKREPETAG
1070
     1
1071
       38
1005
130953
  0
LINE
  5
130954
  8
SLIM
 10
3984.6051224213829
 20
-1084.9999999999991
 30
0.0
 11
4080.0
 21
-989.60512242138304
 31
0.0
1001
ACAD
1010
0.0
1020
0.0
1030
0.0
1001
ACDBBLOCKREPETAG
1070
     1
1071
       39
1005
130954
  0
LINE
  5
130955
  8
SLIM
 10
3982.565634663521
 20
-1104.9999999999991
 30
0.0
 11
4002.565634663521
 21
-1084.9999999999991
 31
0.0
1001
ACAD
1010
0.0
1020
0.0
1030
0.0
1001
ACDBBLOCKREPETAG
1070
     1
1071
       40
1005
130955
  0
LINE
  5
130956
  8
SLIM
 10
4002.565634663521
 20
-1084.9999999999991
 30
0.0
 11
4079.9999999999991
 21
-1007.565634663521
 31
0.0
1001
ACAD
1010
0.0
1020
0.0
1030
0.0
1001
ACDBBLOCKREPETAG
1070
     1
1071
       41
1005
130956
  0
LINE
  5
130957
  8
SLIM
 10
4000.5261469056568
 20
-1104.9999999999991
 30
0.0
 11
4020.52614690566
 21
-1084.9999999999991
 31
0.0
1001
ACAD
1010
0.0
1020
0.0
1030
0.0
1001
ACDBBLOCKREPETAG
1070
     1
1071
       42
1005
130957
  0
LINE
  5
130958
  8
SLIM
 10
4020.52614690566
 20
-1084.9999999999991
 30
0.0
 11
4079.9999999999991
 21
-1025.52614690566
 31
0.0
1001
ACAD
1010
0.0
1020
0.0
1030
0.0
1001
ACDBBLOCKREPETAG
1070
     1
1071
       43
1005
130958
  0
LINE
  5
130959
  8
SLIM
 10
4018.486659147798
 20
-1104.9999999999991
 30
0.0
 11
4038.486659147798
 21
-1084.9999999999991
 31
0.0
1001
ACAD
1010
0.0
1020
0.0
1030
0.0
1001
ACDBBLOCKREPETAG
1070
     1
1071
       44
1005
130959
  0
LINE
  5
13095A
  8
SLIM
 10
4038.486659147798
 20
-1084.9999999999991
 30
0.0
 11
4079.9999999999991
 21
-1043.4866591477989
 31
0.0
1001
ACAD
1010
0.0
1020
0.0
1030
0.0
1001
ACDBBLOCKREPETAG
1070
     1
1071
       45
1005
13095A
  0
LINE
  5
13095B
  8
SLIM
 10
4036.4471713899361
 20
-1104.9999999999991
 30
0.0
 11
4056.4471713899361
 21
-1084.9999999999991
 31
0.0
1001
ACAD
1010
0.0
1020
0.0
1030
0.0
1001
ACDBBLOCKREPETAG
1070
     1
1071
       46
1005
13095B
  0
LINE
  5
13095C
  8
SLIM
 10
4056.4471713899361
 20
-1084.9999999999991
 30
0.0
 11
4079.9999999999991
 21
-1061.447171389937
 31
0.0
1001
ACAD
1010
0.0
1020
0.0
1030
0.0
1001
ACDBBLOCKREPETAG
1070
     1
1071
       47
1005
13095C
  0
LINE
  5
13095D
  8
SLIM
 10
4054.4076836320728
 20
-1104.9999999999991
 30
0.0
 11
4070.0
 21
-1089.4076836320739
 31
0.0
1001
ACAD
1010
0.0
1020
0.0
1030
0.0
1001
ACDBBLOCKREPETAG
1070
     1
1071
       48
1005
13095D
  0
LINE
  5
13095E
  8
SLIM
 10
4074.4076836320728
 20
-1084.9999999999991
 30
0.0
 11
4079.9999999999991
 21
-1079.407683632076
 31
0.0
1001
ACAD
1010
0.0
1020
0.0
1030
0.0
1001
ACDBBLOCKREPETAG
1070
     1
1071
       49
1005
13095E
  0
LINE
  5
13095F
  8
OBJECT
 10
3914.9999999999941
 20
-754.99999999999955
 30
0.0
 11
3914.9999999999968
 21
-919.78460339903484
 31
0.0
1001
ACDBBLOCKREPETAG
1070
     1
1071
        1
1005
13095F
  0
LINE
  5
130960
  8
OBJECT
 10
4085.0000000000068
 20
-754.99999999999955
 30
0.0
 11
4085.0000000000032
 21
-919.78460339904154
 31
0.0
1001
ACDBBLOCKREPETAG
1070
     1
1071
        2
1005
130960
  0
LINE
  5
130961
  8
OBJECT
 10
4085.0000000000068
 20
-754.99999999999955
 30
0.0
 11
3914.9999999999941
 21
-754.99999999999955
 31
0.0
1001
ACDBBLOCKREPETAG
1070
     1
1071
        3
1005
130961
  0
LINE
  5
130962
  8
OBJECT
 10
4079.9999999999991
 20
-1084.9999999999991
 30
0.0
 11
3920.0
 21
-1084.9999999999991
 31
0.0
1001
ACDBBLOCKREPETAG
1070
     1
1071
        4
1005
130962
  0
LINE
  5
130963
  8
OBJECT
 10
3914.9999999999968
 20
-919.78460339903484
 30
0.0
 11
3920.0
 21
-960.62257748298634
 31
0.0
1001
ACDBBLOCKREPETAG
1070
     1
1071
        6
1005
130963
  0
LINE
  5
130964
  8
OBJECT
 10
3920.0
 20
-960.62257748298634
 30
0.0
 11
3920.0
 21
-1084.9999999999991
 31
0.0
1001
ACDBBLOCKREPETAG
1070
     1
1071
        7
1005
130964
  0
LINE
  5
130965
  8
OBJECT
 10
4085.0000000000032
 20
-919.78460339904154
 30
0.0
 11
4080.0
 21
-960.62257748298634
 31
0.0
1001
ACDBBLOCKREPETAG
1070
     1
1071
        8
1005
130965
  0
LINE
  5
130966
  8
OBJECT
 10
4080.0
 20
-960.62257748298634
 30
0.0
 11
4079.9999999999991
 21
-1084.9999999999991
 31
0.0
1001
ACDBBLOCKREPETAG
1070
     1
1071
        9
1005
130966
  0
LINE
  5
130967
  8
OBJECT
 10
3930.0
 20
-1084.9999999999991
 30
0.0
 11
3930.0
 21
-1104.9999999999991
 31
0.0
1001
ACDBBLOCKREPETAG
1070
     1
1071
       10
1005
130967
  0
LINE
  5
130968
  8
OBJECT
 10
3930.0
 20
-1104.9999999999991
 30
0.0
 11
4070.0
 21
-1104.9999999999991
 31
0.0
1001
ACDBBLOCKREPETAG
1070
     1
1071
       11
1005
130968
  0
LINE
  5
130969
  8
OBJECT
 10
4070.0
 20
-1104.9999999999991
 30
0.0
 11
4070.0
 21
-1084.9999999999991
 31
0.0
1001
ACDBBLOCKREPETAG
1070
     1
1071
       12
1005
130969
  0
LINE
  5
13096A
  8
OBJECT
 10
3923.0
 20
-570.99999999999955
 30
0.0
 11
3923.0
 21
-549.99999999999955
 31
0.0
1001
ACDBBLOCKREPETAG
1070
     1
1071
       38
1005
13096A
  0
LINE
  5
13096B
  8
OBJECT
 10
3923.0
 20
-549.99999999999955
 30
0.0
 11
4077.0
 21
-549.99999999999955
 31
0.0
1001
ACDBBLOCKREPETAG
1070
     1
1071
       39
1005
13096B
  0
LINE
  5
13096C
  8
HIDDEN
 10
3943.0
 20
-619.99999999999955
 30
0.0
 11
4057.0
 21
-619.99999999999955
 31
0.0
1001
ACDBBLOCKREPETAG
1070
     1
1071
       40
1005
13096C
  0
LINE
  5
13096D
  8
OBJECT
 10
4077.0
 20
-549.99999999999955
 30
0.0
 11
4077.0
 21
-570.99999999999955
 31
0.0
1001
ACDBBLOCKREPETAG
1070
     1
1071
       41
1005
13096D
  0
LINE
  5
13096E
  8
OBJECT
 10
4077.0
 20
-570.99999999999955
 30
0.0
 11
3923.0
 21
-570.99999999999955
 31
0.0
1001
ACDBBLOCKREPETAG
1070
     1
1071
       42
1005
13096E
  0
LINE
  5
13096F
  8
CENTER
 10
4000.0
 20
-534.99999999999955
 30
0.0
 11
4000.0
 21
-889.99999999999955
 31
0.0
1001
ACDBBLOCKREPETAG
1070
     1
1071
       43
1005
13096F
  0
LINE
  5
130970
  8
OBJECT
 10
3928.0
 20
-570.99999999999955
 30
0.0
 11
3928.0
 21
-633.99999999999955
 31
0.0
1001
ACDBBLOCKREPETAG
1070
     1
1071
       44
1005
130970
  0
LINE
  5
130971
  8
OBJECT
 10
4072.0
 20
-633.99999999999955
 30
0.0
 11
4072.0
 21
-570.99999999999955
 31
0.0
1001
ACDBBLOCKREPETAG
1070
     1
1071
       45
1005
130971
  0
LINE
  5
130972
  8
OBJECT
 10
3920.0
 20
-877.99999999999955
 30
0.0
 11
4080.0
 21
-877.99999999999955
 31
0.0
1001
ACDBBLOCKREPETAG
1070
     1
1071
       46
1005
130972
  0
LINE
  5
130973
  8
OBJECT
 10
4080.0
 20
-633.99999999999955
 30
0.0
 11
3920.0
 21
-633.99999999999955
 31
0.0
1001
ACDBBLOCKREPETAG
1070
     1
1071
       47
1005
130973
  0
LINE
  5
130974
  8
OBJECT
 10
3920.0
 20
-877.99999999999955
 30
0.0
 11
3920.0
 21
-889.99999999999955
 31
0.0
1001
ACDBBLOCKREPETAG
1070
     1
1071
       48
1005
130974
  0
LINE
  5
130975
  8
OBJECT
 10
3920.0
 20
-889.99999999999955
 30
0.0
 11
4080.0
 21
-889.99999999999955
 31
0.0
1001
ACDBBLOCKREPETAG
1070
     1
1071
       49
1005
130975
  0
LINE
  5
130976
  8
OBJECT
 10
4080.0
 20
-889.99999999999955
 30
0.0
 11
4080.0
 21
-877.99999999999955
 31
0.0
1001
ACDBBLOCKREPETAG
1070
     1
1071
       50
1005
130976
  0
LINE
  5
130977
  8
OBJECT
 10
4074.9999999998631
 20
-757.99999999985005
 30
0.0
 11
4075.0
 21
-877.99999999999955
 31
0.0
1001
ACDBBLOCKREPETAG
1070
     1
1071
       54
1005
130977
  0
LINE
  5
130978
  8
OBJECT
 10
4074.9999908029849
 20
-757.99998602702112
 30
0.0
 11
4080.0
 21
-757.99998602702112
 31
0.0
1001
ACDBBLOCKREPETAG
1070
     1
1071
       55
1005
130978
  0
LINE
  5
130979
  8
OBJECT
 10
3925.0000000001392
 20
-757.99999999985005
 30
0.0
 11
3925.0
 21
-877.99999999999955
 31
0.0
1001
ACDBBLOCKREPETAG
1070
     1
1071
       56
1005
130979
  0
LINE
  5
13097A
  8
OBJECT
 10
3925.0000091970151
 20
-757.99998602702112
 30
0.0
 11
3920.0
 21
-757.99998602702112
 31
0.0
1001
ACDBBLOCKREPETAG
1070
     1
1071
       57
1005
13097A
  0
ARC
  5
13097B
  8
OBJECT
 10
4200.6872746716726
 20
-749.40809941010718
 30
0.0
 40
170.6350503965856
 50
137.44134459184301
 51
149.91949581337221
1001
ACDBBLOCKREPETAG
1070
     1
1071
       58
1005
13097B
  0
ARC
  5
13097C
  8
OBJECT
 10
4200.6872746716726
 20
-642.59190058989179
 30
0.0
 40
170.6350503965856
 50
210.08050418662771
 51
222.55865540815699
1001
ACDBBLOCKREPETAG
1070
     1
1071
       59
1005
13097C
  0
ARC
  5
13097D
  8
OBJECT
 10
3799.3127253283278
 20
-749.40809941010718
 30
0.0
 40
170.6350503965856
 50
30.080504186774089
 51
42.558655408382627
1001
ACDBBLOCKREPETAG
1070
     1
1071
       60
1005
13097D
  0
ARC
  5
13097E
  8
OBJECT
 10
3799.3127253283278
 20
-642.59190058989179
 30
0.0
 40
170.6350503965856
 50
317.44134459161722
 51
329.91949581322592
1001
ACDBBLOCKREPETAG
1070
     1
1071
       61
1005
13097E
  0
POINT
  5
13097F
  8
DOTS
 10
4000.0
 20
-754.99999999999955
 30
0.0
1001
ACDBBLOCKREPETAG
1070
     1
1071
      185
1005
13097F
  0
LINE
  5
130980
  8
OBJECT
 10
1923.0
 20
-570.99999999999955
 30
0.0
 11
1923.0
 21
-549.99999999999955
 31
0.0
1001
ACDBBLOCKREPETAG
1070
     1
1071
       38
1005
130980
  0
LINE
  5
130981
  8
OBJECT
 10
1923.0
 20
-549.99999999999955
 30
0.0
 11
2077.0
 21
-549.99999999999955
 31
0.0
1001
ACDBBLOCKREPETAG
1070
     1
1071
       39
1005
130981
  0
LINE
  5
130982
  8
HIDDEN
 10
1943.0
 20
-619.99999999999955
 30
0.0
 11
2057.0
 21
-619.99999999999955
 31
0.0
1001
ACDBBLOCKREPETAG
1070
     1
1071
       40
1005
130982
  0
LINE
  5
130983
  8
OBJECT
 10
2077.0
 20
-549.99999999999955
 30
0.0
 11
2077.0
 21
-570.99999999999955
 31
0.0
1001
ACDBBLOCKREPETAG
1070
     1
1071
       41
1005
130983
  0
LINE
  5
130984
  8
OBJECT
 10
2077.0
 20
-570.99999999999955
 30
0.0
 11
1923.0
 21
-570.99999999999955
 31
0.0
1001
ACDBBLOCKREPETAG
1070
     1
1071
       42
1005
130984
  0
LINE
  5
130985
  8
CENTER
 10
2000.0
 20
-534.99999999999955
 30
0.0
 11
2000.0
 21
-889.99999999999955
 31
0.0
1001
ACDBBLOCKREPETAG
1070
     1
1071
       43
1005
130985
  0
LINE
  5
130986
  8
OBJECT
 10
1928.0
 20
-570.99999999999955
 30
0.0
 11
1928.0
 21
-633.99999999999955
 31
0.0
1001
ACDBBLOCKREPETAG
1070
     1
1071
       44
1005
130986
  0
LINE
  5
130987
  8
OBJECT
 10
2072.0
 20
-633.99999999999955
 30
0.0
 11
2072.0
 21
-570.99999999999955
 31
0.0
1001
ACDBBLOCKREPETAG
1070
     1
1071
       45
1005
130987
  0
LINE
  5
130988
  8
OBJECT
 10
1920.0
 20
-877.99999999999955
 30
0.0
 11
2080.0
 21
-877.99999999999955
 31
0.0
1001
ACDBBLOCKREPETAG
1070
     1
1071
       46
1005
130988
  0
LINE
  5
130989
  8
OBJECT
 10
2080.0
 20
-633.99999999999955
 30
0.0
 11
1920.0
 21
-633.99999999999955
 31
0.0
1001
ACDBBLOCKREPETAG
1070
     1
1071
       47
1005
130989
  0
LINE
  5
13098A
  8
OBJECT
 10
1920.0
 20
-877.99999999999955
 30
0.0
 11
1920.0
 21
-889.99999999999955
 31
0.0
1001
ACDBBLOCKREPETAG
1070
     1
1071
       48
1005
13098A
  0
LINE
  5
13098B
  8
OBJECT
 10
1920.0
 20
-889.99999999999955
 30
0.0
 11
2080.0
 21
-889.99999999999955
 31
0.0
1001
ACDBBLOCKREPETAG
1070
     1
1071
       49
1005
13098B
  0
LINE
  5
13098C
  8
OBJECT
 10
2080.0
 20
-889.99999999999955
 30
0.0
 11
2080.0
 21
-877.99999999999955
 31
0.0
1001
ACDBBLOCKREPETAG
1070
     1
1071
       50
1005
13098C
  0
LINE
  5
13098D
  8
OBJECT
 10
2074.9999999998622
 20
-757.99999999985005
 30
0.0
 11
2075.0
 21
-877.99999999999955
 31
0.0
1001
ACDBBLOCKREPETAG
1070
     1
1071
       54
1005
13098D
  0
LINE
  5
13098E
  8
OBJECT
 10
2074.9999908029849
 20
-757.99998602702112
 30
0.0
 11
2080.0
 21
-757.99998602702112
 31
0.0
1001
ACDBBLOCKREPETAG
1070
     1
1071
       55
1005
13098E
  0
LINE
  5
13098F
  8
OBJECT
 10
1925.000000000138
 20
-757.99999999985005
 30
0.0
 11
1925.0
 21
-877.99999999999955
 31
0.0
1001
ACDBBLOCKREPETAG
1070
     1
1071
       56
1005
13098F
  0
LINE
  5
130990
  8
OBJECT
 10
1925.000009197013
 20
-757.99998602702112
 30
0.0
 11
1920.0
 21
-757.99998602702112
 31
0.0
1001
ACDBBLOCKREPETAG
1070
     1
1071
       57
1005
130990
  0
ARC
  5
130991
  8
OBJECT
 10
2200.6872746716731
 20
-749.40809941010718
 30
0.0
 40
170.6350503965856
 50
137.44134459184301
 51
149.91949581336559
1001
ACDBBLOCKREPETAG
1070
     1
1071
       58
1005
130991
  0
ARC
  5
130992
  8
OBJECT
 10
2200.6872746716731
 20
-642.59190058989179
 30
0.0
 40
170.6350503965856
 50
210.0805041866343
 51
222.55865540815699
1001
ACDBBLOCKREPETAG
1070
     1
1071
       59
1005
130992
  0
ARC
  5
130993
  8
OBJECT
 10
1799.312725328326
 20
-749.40809941010718
 30
0.0
 40
170.6350503965856
 50
30.080504186774089
 51
42.558655408382627
1001
ACDBBLOCKREPETAG
1070
     1
1071
       60
1005
130993
  0
ARC
  5
130994
  8
OBJECT
 10
1799.312725328326
 20
-642.59190058989179
 30
0.0
 40
170.6350503965856
 50
317.44134459161722
 51
329.91949581322592
1001
ACDBBLOCKREPETAG
1070
     1
1071
       61
1005
130994
  0
POINT
  5
130995
  8
DOTS
 10
2000.0
 20
-754.99999999999955
 30
0.0
1001
ACDBBLOCKREPETAG
1070
     1
1071
      185
1005
130995
  0
LINE
  5
130996
  8
OBJECT
 10
3930.0
 20
-1199.999999999997
 30
0.0
 11
4070.0
 21
-1199.999999999997
 31
0.0
1001
ACDBBLOCKREPETAG
1070
     1
1071
        0
1005
130996
  0
LINE
  5
130997
  8
OBJECT
 10
3930.0
 20
-1199.999999999997
 30
0.0
 11
3930.0
 21
-959.9999999999967
 31
0.0
1001
ACDBBLOCKREPETAG
1070
     1
1071
        1
1005
130997
  0
LINE
  5
130998
  8
OBJECT
 10
4070.0
 20
-1199.999999999997
 30
0.0
 11
4070.0
 21
-959.9999999999967
 31
0.0
1001
ACDBBLOCKREPETAG
1070
     1
1071
        2
1005
130998
  0
LINE
  5
130999
  8
OBJECT
 10
3930.0
 20
-959.9999999999967
 30
0.0
 11
4070.0
 21
-959.9999999999967
 31
0.0
1001
ACDBBLOCKREPETAG
1070
     1
1071
        3
1005
130999
  0
LINE
  5
13099A
  8
HIDDEN
 10
3937.5
 20
-959.9999999999967
 30
0.0
 11
3937.5
 21
-1199.999999999997
 31
0.0
1001
ACDBBLOCKREPETAG
1070
     1
1071
        4
1005
13099A
  0
LINE
  5
13099B
  8
HIDDEN
 10
4062.5
 20
-959.9999999999967
 30
0.0
 11
4062.5
 21
-1199.999999999997
 31
0.0
1001
ACDBBLOCKREPETAG
1070
     1
1071
        5
1005
13099B
  0
LINE
  5
13099C
  8
CENTER
 10
4000.0
 20
-889.99999999999875
 30
0.0
 11
4000.0
 21
-1214.999999999997
 31
0.0
1001
ACDBBLOCKREPETAG
1070
     1
1071
        6
1005
13099C
  0
LINE
  5
13099D
  8
OBJECT
 10
3925.0
 20
-889.99999999999875
 30
0.0
 11
3925.0
 21
-919.99999999999693
 31
0.0
1001
ACDBBLOCKREPETAG
1070
     1
1071
        7
1005
13099D
  0
LINE
  5
13099E
  8
OBJECT
 10
4075.0000000000032
 20
-889.99999999999875
 30
0.0
 11
4075.0
 21
-919.99999999999693
 31
0.0
1001
ACDBBLOCKREPETAG
1070
     1
1071
        8
1005
13099E
  0
LINE
  5
13099F
  8
OBJECT
 10
3925.0
 20
-919.99999999999693
 30
0.0
 11
4075.0
 21
-919.99999999999693
 31
0.0
1001
ACDBBLOCKREPETAG
1070
     1
1071
        9
1005
13099F
  0
LINE
  5
1309A0
  8
OBJECT
 10
3925.0
 20
-919.99999999999693
 30
0.0
 11
3930.0
 21
-959.9999999999967
 31
0.0
1001
ACDBBLOCKREPETAG
1070
     1
1071
       10
1005
1309A0
  0
LINE
  5
1309A1
  8
OBJECT
 10
4070.0
 20
-959.9999999999967
 30
0.0
 11
4075.0
 21
-919.99999999999693
 31
0.0
1001
ACDBBLOCKREPETAG
1070
     1
1071
       11
1005
1309A1
  0
LINE
  5
1309A2
  8
OBJECT
 10
1930.0
 20
-1199.999999999997
 30
0.0
 11
2070.0
 21
-1199.999999999997
 31
0.0
1001
ACDBBLOCKREPETAG
1070
     1
1071
        0
1005
1309A2
  0
LINE
  5
1309A3
  8
OBJECT
 10
1930.0
 20
-1199.999999999997
 30
0.0
 11
1930.0
 21
-959.99999999999784
 31
0.0
1001
ACDBBLOCKREPETAG
1070
     1
1071
        1
1005
1309A3
  0
LINE
  5
1309A4
  8
OBJECT
 10
2070.0
 20
-1199.999999999997
 30
0.0
 11
2070.0
 21
-959.99999999999784
 31
0.0
1001
ACDBBLOCKREPETAG
1070
     1
1071
        2
1005
1309A4
  0
LINE
  5
1309A5
  8
OBJECT
 10
1930.0
 20
-959.99999999999784
 30
0.0
 11
2070.0
 21
-959.99999999999784
 31
0.0
1001
ACDBBLOCKREPETAG
1070
     1
1071
        3
1005
1309A5
  0
LINE
  5
1309A6
  8
HIDDEN
 10
1937.5
 20
-959.99999999999784
 30
0.0
 11
1937.5
 21
-1199.999999999997
 31
0.0
1001
ACDBBLOCKREPETAG
1070
     1
1071
        4
1005
1309A6
  0
LINE
  5
1309A7
  8
HIDDEN
 10
2062.5
 20
-959.99999999999784
 30
0.0
 11
2062.5
 21
-1199.999999999997
 31
0.0
1001
ACDBBLOCKREPETAG
1070
     1
1071
        5
1005
1309A7
  0
LINE
  5
1309A8
  8
CENTER
 10
2000.0
 20
-889.99999999999955
 30
0.0
 11
2000.0
 21
-1214.999999999998
 31
0.0
1001
ACDBBLOCKREPETAG
1070
     1
1071
        6
1005
1309A8
  0
LINE
  5
1309A9
  8
OBJECT
 10
1925.0
 20
-889.99999999999955
 30
0.0
 11
1925.0
 21
-919.99999999999761
 31
0.0
1001
ACDBBLOCKREPETAG
1070
     1
1071
        7
1005
1309A9
  0
LINE
  5
1309AA
  8
OBJECT
 10
2075.0000000000041
 20
-889.99999999999955
 30
0.0
 11
2075.0
 21
-919.99999999999761
 31
0.0
1001
ACDBBLOCKREPETAG
1070
     1
1071
        8
1005
1309AA
  0
LINE
  5
1309AB
  8
OBJECT
 10
1925.0
 20
-919.99999999999761
 30
0.0
 11
2075.0
 21
-919.99999999999761
 31
0.0
1001
ACDBBLOCKREPETAG
1070
     1
1071
        9
1005
1309AB
  0
LINE
  5
1309AC
  8
OBJECT
 10
1925.0
 20
-919.99999999999761
 30
0.0
 11
1930.0
 21
-959.99999999999784
 31
0.0
1001
ACDBBLOCKREPETAG
1070
     1
1071
       10
1005
1309AC
  0
LINE
  5
1309AD
  8
OBJECT
 10
2070.0
 20
-959.99999999999784
 30
0.0
 11
2075.0
 21
-919.99999999999761
 31
0.0
1001
ACDBBLOCKREPETAG
1070
     1
1071
       11
1005
1309AD
  0
TEXT
  5
1309AE
  8
SLIM
 10
3824.5999999999999
 20
-1528.999999999997
 30
0.0
 40
28.0
  1
※ 対応スラブ厚　180～320
 41
0.75
  0
TEXT
  5
1309AF
  8
SLIM
 10
3611.5
 20
-1622.3333333333301
 30
0.0
 40
28.0
  1
国土交通大臣認定・（財）日本消防設備安全センター性能評定取得品
 41
0.75
  0
TEXT
  5
1309B0
  8
SLIM
 10
3631.1000000000022
 20
-1668.999999999997
 30
0.0
 40
28.0
  1
注）ご採用にあたり、認定書及び評定書の内容をご確認ください。
 41
0.75
  0
TEXT
  5
1309B1
  8
SLIM
 10
3741.6250000000009
 20
-1467.499999999997
 30
0.0
 40
35.0
  1
片受けスタイル（S）＋シンドカット
 41
0.75
  0
TEXT
  5
1309B2
  8
SLIM
 10
1856.25
 20
-1467.499999999998
 30
0.0
 40
35.0
  1
片受けスタイル（S）
 41
0.75
  0
TEXT
  5
131280
  8
SLIM
 10
1850.0
 20
532.5
 30
0.0
 40
75.0
  1
側面図の代表機種
 41
0.75
  0
VIEWPORT
  5
F6BA7
 67
     1
  8
0
 10
145.33033752441401
 20
101.8328354358673
 30
0.0
 40
334.0025019414623
 41
222.19657968139651
 68
     1
 69
     1
1001
ACAD
1000
MVIEW
1002
{
1070
    16
1010
0.0
1020
0.0
1030
0.0
1010
0.0
1020
0.0
1030
1.0
1040
0.0
1040
222.19657968139651
1040
145.33033752441401
1040
101.8328354358673
1040
50.0
1040
0.0
1040
0.0
1070
     0
1070
     0
1070
     1
1070
     1
1070
     0
1070
     0
1070
     0
1070
     0
1040
0.0
1040
0.0
1040
0.0
1040
10.0
1040
10.0
1040
10.0
1040
10.0
1070
     0
1002
{
1002
}
1002
}
  0
VIEWPORT
  5
F6BA9
 67
     1
  8
OBJECT
 10
145.3303314447403
 20
101.8328338861465
 30
0.0
 40
232.5285303115844
 41
162.93253421783439
 68
     2
 69
     2
1001
ACAD
1000
MVIEW
1002
{
1070
    16
1010
0.0
1020
0.0
1030
0.0
1010
0.0
1020
0.0
1030
1.0
1040
0.0
1040
25942.55904403147
1040
2377.604457077377
1040
-7591.5176687056619
1040
50.0
1040
0.0
1040
0.0
1070
     0
1070
   600
1070
     1
1070
     1
1070
     0
1070
     0
1070
     0
1070
     0
1040
0.0
1040
0.0
1040
0.0
1040
1.0
1040
1.0
1040
0.0
1040
0.0
1070
     0
1002
{
1002
}
1002
}
  0
ENDSEC
  0
EOF
