  0
SECTION
  2
HEADER
  9
$ACADVER
  1
AC1009
  9
$INSBASE
 10
0.0
 20
0.0
 30
0.0
  9
$EXTMIN
 10
0.0
 20
-1568.999999999997
 30
0.0
  9
$EXTMAX
 10
4387.0999999999931
 20
470.00000000000011
 30
0.0
  9
$LIMMIN
 10
0.0
 20
0.0
  9
$LIMMAX
 10
210.0
 20
297.0
  9
$ORTHOMODE
 70
     0
  9
$REGENMODE
 70
     1
  9
$FILLMODE
 70
     1
  9
$QTEXTMODE
 70
     0
  9
$MIRRTEXT
 70
     0
  9
$DRAGMODE
 70
     2
  9
$LTSCALE
 40
1.0
  9
$OSMODE
 70
   125
  9
$ATTMODE
 70
     1
  9
$TEXTSIZE
 40
4.0
  9
$TRACEWID
 40
0.05
  9
$TEXTSTYLE
  7
STANDARD
  9
$CLAYER
  8
OBJECT
  9
$CELTYPE
  6
BYLAYER
  9
$CECOLOR
 62
   256
  9
$DIMSCALE
 40
10.0
  9
$DIMASZ
 40
2.0
  9
$DIMEXO
 40
1.0
  9
$DIMDLI
 40
10.0
  9
$DIMRND
 40
0.0
  9
$DIMDLE
 40
0.0
  9
$DIMEXE
 40
1.0
  9
$DIMTP
 40
0.0
  9
$DIMTM
 40
0.0
  9
$DIMTXT
 40
3.2000000000000002
  9
$DIMCEN
 40
0.0
  9
$DIMTSZ
 40
0.0
  9
$DIMTOL
 70
     0
  9
$DIMLIM
 70
     0
  9
$DIMTIH
 70
     0
  9
$DIMTOH
 70
     0
  9
$DIMSE1
 70
     0
  9
$DIMSE2
 70
     0
  9
$DIMTAD
 70
     1
  9
$DIMZIN
 70
     8
  9
$DIMBLK
  1
OPEN30
  9
$DIMASO
 70
     1
  9
$DIMSHO
 70
     1
  9
$DIMPOST
  1

  9
$DIMAPOST
  1

  9
$DIMALT
 70
     0
  9
$DIMALTD
 70
     2
  9
$DIMALTF
 40
25.399999999999999
  9
$DIMLFAC
 40
1.0
  9
$DIMTOFL
 70
     1
  9
$DIMTVP
 40
0.0
  9
$DIMTIX
 70
     0
  9
$DIMSOXD
 70
     0
  9
$DIMSAH
 70
     0
  9
$DIMBLK1
  1

  9
$DIMBLK2
  1

  9
$DIMSTYLE
  2
S10
  9
$DIMCLRD
 70
   256
  9
$DIMCLRE
 70
   256
  9
$DIMCLRT
 70
   256
  9
$DIMTFAC
 40
1.0
  9
$DIMGAP
 40
0.9
  9
$LUNITS
 70
     2
  9
$LUPREC
 70
     2
  9
$SKETCHINC
 40
0.1
  9
$FILLETRAD
 40
0.0
  9
$AUNITS
 70
     0
  9
$AUPREC
 70
     2
  9
$MENU
  1
ACAD
  9
$ELEVATION
 40
0.0
  9
$PELEVATION
 40
0.0
  9
$THICKNESS
 40
0.0
  9
$LIMCHECK
 70
     0
  9
$BLIPMODE
 70
     0
  9
$CHAMFERA
 40
2.0
  9
$CHAMFERB
 40
2.0
  9
$SKPOLY
 70
     0
  9
$TDCREATE
 40
2453095.4929404748
  9
$TDUPDATE
 40
2456678.793537165
  9
$TDINDWG
 40
18.346786354199999
  9
$TDUSRTIMER
 40
18.346785624999999
  9
$USRTIMER
 70
     1
  9
$ANGBASE
 50
0.0
  9
$ANGDIR
 70
     0
  9
$PDMODE
 70
    35
  9
$PDSIZE
 40
2.0
  9
$PLINEWID
 40
0.0
  9
$COORDS
 70
     1
  9
$SPLFRAME
 70
     0
  9
$SPLINETYPE
 70
     6
  9
$SPLINESEGS
 70
     8
  9
$ATTDIA
 70
     1
  9
$ATTREQ
 70
     1
  9
$HANDLING
 70
     1
  9
$HANDSEED
  5
1224FC
  9
$SURFTAB1
 70
     6
  9
$SURFTAB2
 70
     6
  9
$SURFTYPE
 70
     6
  9
$SURFU
 70
     6
  9
$SURFV
 70
     6
  9
$UCSNAME
  2

  9
$UCSORG
 10
0.0
 20
0.0
 30
0.0
  9
$UCSXDIR
 10
1.0
 20
0.0
 30
0.0
  9
$UCSYDIR
 10
0.0
 20
1.0
 30
0.0
  9
$PUCSNAME
  2

  9
$PUCSORG
 10
0.0
 20
0.0
 30
0.0
  9
$PUCSXDIR
 10
1.0
 20
0.0
 30
0.0
  9
$PUCSYDIR
 10
0.0
 20
1.0
 30
0.0
  9
$USERI1
 70
     0
  9
$USERI2
 70
     0
  9
$USERI3
 70
     0
  9
$USERI4
 70
     0
  9
$USERI5
 70
     0
  9
$USERR1
 40
0.0
  9
$USERR2
 40
0.0
  9
$USERR3
 40
0.0
  9
$USERR4
 40
0.0
  9
$USERR5
 40
0.0
  9
$WORLDVIEW
 70
     1
  9
$SHADEDGE
 70
     3
  9
$SHADEDIF
 70
    70
  9
$TILEMODE
 70
     1
  9
$MAXACTVP
 70
    64
  9
$PLIMCHECK
 70
     0
  9
$PEXTMIN
 10
29.066066288948051
 20
20.366566777229309
 30
0.0
  9
$PEXTMAX
 10
261.5945966005325
 20
183.29910099506381
 30
0.0
  9
$PLIMMIN
 10
-3.17498779296875
 20
-3.1749999523162842
  9
$PLIMMAX
 10
293.83566284179687
 20
206.8406708240509
  9
$UNITMODE
 70
     0
  9
$VISRETAIN
 70
     1
  9
$PLINEGEN
 70
     0
  9
$PSLTSCALE
 70
     1
  0
ENDSEC
  0
SECTION
  2
TABLES
  0
TABLE
  2
VPORT
 70
     1
  0
VPORT
  2
*ACTIVE
 70
     0
 10
0.0
 20
0.0
 11
1.0
 21
1.0
 12
4520.505856380456
 22
-913.4754394563588
 13
0.0
 23
0.0
 14
1.0
 24
1.0
 15
0.0
 25
0.0
 16
0.0
 26
0.0
 36
1.0
 17
0.0
 27
0.0
 37
0.0
 40
5711.7056370692771
 41
1.964560862865947
 42
50.0
 43
0.0
 44
0.0
 50
0.0
 51
0.0
 71
     0
 72
   600
 73
     1
 74
     1
 75
     0
 76
     0
 77
     0
 78
     0
  0
ENDTAB
  0
TABLE
  2
LTYPE
 70
     5
  0
LTYPE
  2
CONTINUOUS
 70
     0
  3
Solid line
 72
    65
 73
     0
 40
0.0
  0
LTYPE
  2
PHANTOM2
 70
     0
  3
___ _ _ ___ _ _ ___ _ _ ___ _ _
 72
    65
 73
     6
 40
1.25
 49
0.625
 49
-0.125
 49
0.125
 49
-0.125
 49
0.125
 49
-0.125
  0
LTYPE
  2
ACAD_ISO08W100
 70
     0
  3
ISO long-dash short-dash ____ __ ____ __ ____ _
 72
    65
 73
     4
 40
36.0
 49
24.0
 49
-3.0
 49
6.0
 49
-3.0
  0
LTYPE
  2
ACAD_ISO02W100
 70
     0
  3
ISO dash __ __ __ __ __ __ __ __ __ __ __ __ __
 72
    65
 73
     2
 40
15.0
 49
12.0
 49
-3.0
  0
ENDTAB
  0
TABLE
  2
LAYER
 70
     7
  0
LAYER
  2
0
 70
     0
 62
     7
  6
CONTINUOUS
  0
LAYER
  2
OBJECT
 70
     0
 62
     4
  6
CONTINUOUS
  0
LAYER
  2
DEFPOINTS
 70
     0
 62
     7
  6
CONTINUOUS
  0
LAYER
  2
HIDDEN
 70
     0
 62
     2
  6
ACAD_ISO02W100
  0
LAYER
  2
CENTER
 70
     0
 62
     2
  6
ACAD_ISO08W100
  0
LAYER
  2
DOTS
 70
     0
 62
     1
  6
CONTINUOUS
  0
LAYER
  2
SLIM
 70
     0
 62
     2
  6
CONTINUOUS
  0
ENDTAB
  0
TABLE
  2
STYLE
 70
     2
  0
STYLE
  2
STANDARD
 70
     0
 40
0.0
 41
0.75
 50
0.0
 71
     0
 42
4.0
  3
simplex.shx
  4
bigfont.shx
  0
STYLE
  2
ANNOTATIVE
 70
     0
 40
0.0
 41
1.0
 50
0.0
 71
     0
 42
0.2
  3
txt
  4

  0
ENDTAB
  0
TABLE
  2
VIEW
 70
     0
  0
ENDTAB
  0
TABLE
  2
UCS
 70
     0
  0
ENDTAB
  0
TABLE
  2
APPID
 70
    18
  0
APPID
  2
ACAD
 70
     0
  0
APPID
  2
ACADANNOTATIVE
 70
     0
  0
APPID
  2
ACAD_PSEXT
 70
     0
  0
APPID
  2
ACAD_EXEMPT_FROM_CAD_STANDARDS
 70
     0
  0
APPID
  2
ACAECLAYERSTANDARD
 70
     0
  0
APPID
  2
ACAUTHENVIRON
 70
     0
  0
APPID
  2
ACDBDYNAMICBLOCKTRUENAME
 70
     0
  0
APPID
  2
ACDBDYNAMICBLOCKGUID
 70
     0
  0
APPID
  2
ACDBBLOCKREPETAG
 70
     0
  0
APPID
  2
ACDBBLOCKREPBTAG
 70
     0
  0
APPID
  2
ACAD_NAV_VCDISPLAY
 70
     0
  0
APPID
  2
ACAD_DSTYLE_DIMRADIAL_EXTENSION
 70
     0
  0
APPID
  2
ACAD_DSTYLE_DIMJAG
 70
     0
  0
APPID
  2
ACAD_DSTYLE_DIMTALN
 70
     0
  0
APPID
  2
ACADANNOPO
 70
     0
  0
APPID
  2
GRADIENTCOLOR1ACI
 70
     0
  0
APPID
  2
GRADIENTCOLOR2ACI
 70
     0
  0
APPID
  2
ACAD_MLEADERVER
 70
     0
  0
ENDTAB
  0
TABLE
  2
DIMSTYLE
 70
     3
  0
DIMSTYLE
  2
STANDARD
 70
     0
  3

  4

  5

  6

  7

 40
1.0
 41
0.18
 42
0.0625
 43
0.38
 44
0.18
 45
0.0
 46
0.0
 47
0.0
 48
0.0
140
0.18
141
0.09
142
0.0
143
25.399999999999999
144
1.0
145
0.0
146
1.0
147
0.09
 71
     0
 72
     0
 73
     1
 74
     1
 75
     0
 76
     0
 77
     0
 78
     0
170
     0
171
     2
172
     0
173
     0
174
     0
175
     0
176
     0
177
     0
178
     0
  0
DIMSTYLE
  2
ANNOTATIVE
 70
     0
  3

  4

  5

  6

  7

 40
1.0
 41
0.18
 42
0.0625
 43
0.38
 44
0.18
 45
0.0
 46
0.0
 47
0.0
 48
0.0
140
0.18
141
0.09
142
0.0
143
25.399999999999999
144
1.0
145
0.0
146
1.0
147
0.09
 71
     0
 72
     0
 73
     1
 74
     1
 75
     0
 76
     0
 77
     0
 78
     0
170
     0
171
     2
172
     0
173
     0
174
     0
175
     0
176
     0
177
     0
178
     0
  0
DIMSTYLE
  2
S10
 70
     0
  3

  4

  5

  6

  7

 40
10.0
 41
2.0
 42
1.0
 43
10.0
 44
1.0
 45
0.0
 46
0.0
 47
0.0
 48
0.0
140
3.2000000000000002
141
0.0
142
0.0
143
25.399999999999999
144
1.0
145
0.0
146
1.0
147
0.9
 71
     0
 72
     0
 73
     0
 74
     0
 75
     0
 76
     0
 77
     1
 78
     8
170
     0
171
     2
172
     1
173
     0
174
     0
175
     0
176
   256
177
   256
178
   256
  0
ENDTAB
  0
ENDSEC
  0
SECTION
  2
BLOCKS
  0
BLOCK
  8
0
  2
$MODEL_SPACE
 70
     0
 10
0.0
 20
0.0
 30
0.0
  3
$MODEL_SPACE
  1

  0
ENDBLK
  5
122473
  8
0
  0
BLOCK
 67
     1
  8
0
  2
$PAPER_SPACE
 70
     0
 10
0.0
 20
0.0
 30
0.0
  3
$PAPER_SPACE
  1

  0
ENDBLK
  5
12246F
 67
     1
  8
0
  0
BLOCK
  8
0
  2
_OPEN30
 70
     0
 10
0.0
 20
0.0
 30
0.0
  3
_OPEN30
  1

  0
LINE
  5
202
  8
0
  6
BYBLOCK
 62
     0
 10
-1.0
 20
0.26794919
 30
0.0
 11
0.0
 21
0.0
 31
0.0
  0
LINE
  5
203
  8
0
  6
BYBLOCK
 62
     0
 10
0.0
 20
0.0
 30
0.0
 11
-1.0
 21
-0.26794919
 31
0.0
  0
LINE
  5
204
  8
0
  6
BYBLOCK
 62
     0
 10
0.0
 20
0.0
 30
0.0
 11
-1.0
 21
0.0
 31
0.0
  0
ENDBLK
  5
206
  8
0
  0
ENDSEC
  0
SECTION
  2
ENTITIES
  0
LINE
  5
1221A4
  8
SLIM
 10
3927.3018300565232
 20
-155.95484036957691
 30
0.0
 11
3955.9548403695781
 21
-127.30183005652231
 31
0.0
1001
GRADIENTCOLOR1ACI
1070
     5
1001
GRADIENTCOLOR2ACI
1070
     2
1001
ACAD
1010
0.0
1020
0.0
1030
0.0
1001
ACDBBLOCKREPETAG
1070
     1
1071
      436
1005
1221A4
  0
LINE
  5
1221A5
  8
SLIM
 10
3919.4861520708369
 20
-172.75077447633191
 30
0.0
 11
3938.2903089572728
 21
-153.94661758989659
 31
0.0
1001
GRADIENTCOLOR1ACI
1070
     5
1001
GRADIENTCOLOR2ACI
1070
     2
1001
ACAD
1010
0.0
1020
0.0
1030
0.0
1001
ACDBBLOCKREPETAG
1070
     1
1071
      437
1005
1221A5
  0
LINE
  5
1221A6
  8
SLIM
 10
3953.946617589897
 20
-138.29030895727169
 30
0.0
 11
3972.7507744763329
 21
-119.4861520708364
 31
0.0
1001
GRADIENTCOLOR1ACI
1070
     5
1001
GRADIENTCOLOR2ACI
1070
     2
1001
ACAD
1010
0.0
1020
0.0
1030
0.0
1001
ACDBBLOCKREPETAG
1070
     1
1071
      438
1005
1221A6
  0
LINE
  5
1221A7
  8
SLIM
 10
3916.359667993378
 20
-184.8575146748604
 30
0.0
 11
3927.6959583557841
 21
-173.5212243124561
 31
0.0
1001
GRADIENTCOLOR1ACI
1070
     5
1001
GRADIENTCOLOR2ACI
1070
     2
1001
ACAD
1010
0.0
1020
0.0
1030
0.0
1001
ACDBBLOCKREPETAG
1070
     1
1071
      439
1005
1221A7
  0
LINE
  5
1221A8
  8
SLIM
 10
3973.521224312457
 20
-127.6959583557812
 30
0.0
 11
3984.8575146748631
 21
-116.359667993377
 31
0.0
1001
GRADIENTCOLOR1ACI
1070
     5
1001
GRADIENTCOLOR2ACI
1070
     2
1001
ACAD
1010
0.0
1020
0.0
1030
0.0
1001
ACDBBLOCKREPETAG
1070
     1
1071
      440
1005
1221A8
  0
LINE
  5
1221A9
  8
SLIM
 10
3915.1440575890529
 20
-195.0533812002549
 30
0.0
 11
3924.303021643183
 21
-185.89441714612491
 31
0.0
1001
GRADIENTCOLOR1ACI
1070
     5
1001
GRADIENTCOLOR2ACI
1070
     2
1001
ACAD
1010
0.0
1020
0.0
1030
0.0
1001
ACDBBLOCKREPETAG
1070
     1
1071
      441
1005
1221A9
  0
LINE
  5
1221AA
  8
SLIM
 10
3985.8944171461271
 20
-124.30302164318159
 30
0.0
 11
3995.0533812002559
 21
-115.1440575890517
 31
0.0
1001
GRADIENTCOLOR1ACI
1070
     5
1001
GRADIENTCOLOR2ACI
1070
     2
1001
ACAD
1010
0.0
1020
0.0
1030
0.0
1001
ACDBBLOCKREPETAG
1070
     1
1071
      442
1005
1221AA
  0
LINE
  5
1221AB
  8
SLIM
 10
3915.097963557474
 20
-204.07973135290339
 30
0.0
 11
3919.1776949103769
 21
-199.99999999999909
 31
0.0
1001
GRADIENTCOLOR1ACI
1070
     5
1001
GRADIENTCOLOR2ACI
1070
     2
1001
ACAD
1010
0.0
1020
0.0
1030
0.0
1001
ACDBBLOCKREPETAG
1070
     1
1071
      443
1005
1221AB
  0
LINE
  5
1221AC
  8
SLIM
 10
4000.0
 20
-119.1776949103767
 30
0.0
 11
4004.0797313529042
 21
-115.0979635574724
 31
0.0
1001
GRADIENTCOLOR1ACI
1070
     5
1001
GRADIENTCOLOR2ACI
1070
     2
1001
ACAD
1010
0.0
1020
0.0
1030
0.0
1001
ACDBBLOCKREPETAG
1070
     1
1071
      444
1005
1221AC
  0
LINE
  5
1221AD
  8
SLIM
 10
3919.1776949103769
 20
-199.99999999999909
 30
0.0
 11
3923.0999621611709
 21
-196.07773274920581
 31
0.0
1001
GRADIENTCOLOR1ACI
1070
     5
1001
GRADIENTCOLOR2ACI
1070
     2
1001
ACAD
1010
0.0
1020
0.0
1030
0.0
1001
ACDBBLOCKREPETAG
1070
     1
1071
      445
1005
1221AD
  0
LINE
  5
1221AE
  8
SLIM
 10
3996.0777327492078
 20
-123.0999621611699
 30
0.0
 11
4000.0
 21
-119.1776949103767
 31
0.0
1001
GRADIENTCOLOR1ACI
1070
     5
1001
GRADIENTCOLOR2ACI
1070
     2
1001
ACAD
1010
0.0
1020
0.0
1030
0.0
1001
ACDBBLOCKREPETAG
1070
     1
1071
      446
1005
1221AE
  0
LINE
  5
1221AF
  8
SLIM
 10
3915.8899726208729
 20
-212.26797841057399
 30
0.0
 11
3923.162230777169
 21
-204.9957202542767
 31
0.0
1001
GRADIENTCOLOR1ACI
1070
     5
1001
GRADIENTCOLOR2ACI
1070
     2
1001
ACAD
1010
0.0
1020
0.0
1030
0.0
1001
ACDBBLOCKREPETAG
1070
     1
1071
      447
1005
1221AF
  0
LINE
  5
1221B0
  8
SLIM
 10
4004.9957202542769
 20
-123.1622307771683
 30
0.0
 11
4012.2679784105749
 21
-115.88997262087101
 31
0.0
1001
GRADIENTCOLOR1ACI
1070
     5
1001
GRADIENTCOLOR2ACI
1070
     2
1001
ACAD
1010
0.0
1020
0.0
1030
0.0
1001
ACDBBLOCKREPETAG
1070
     1
1071
      448
1005
1221B0
  0
LINE
  5
1221B1
  8
SLIM
 10
3917.338265695154
 20
-219.79994145736151
 30
0.0
 11
3924.1101477855509
 21
-213.02805936696359
 31
0.0
1001
GRADIENTCOLOR1ACI
1070
     5
1001
GRADIENTCOLOR2ACI
1070
     2
1001
ACAD
1010
0.0
1020
0.0
1030
0.0
1001
ACDBBLOCKREPETAG
1070
     1
1071
      449
1005
1221B1
  0
LINE
  5
1221B2
  8
SLIM
 10
4013.028059366964
 20
-124.1101477855505
 30
0.0
 11
4019.7999414573601
 21
-117.3382656951526
 31
0.0
1001
GRADIENTCOLOR1ACI
1070
     5
1001
GRADIENTCOLOR2ACI
1070
     2
1001
ACAD
1010
0.0
1020
0.0
1030
0.0
1001
ACDBBLOCKREPETAG
1070
     1
1071
      450
1005
1221B2
  0
LINE
  5
1221B3
  8
SLIM
 10
3919.331259406305
 20
-226.78720386727881
 30
0.0
 11
3925.7443819593391
 21
-220.3740813142449
 31
0.0
1001
GRADIENTCOLOR1ACI
1070
     5
1001
GRADIENTCOLOR2ACI
1070
     2
1001
ACAD
1010
0.0
1020
0.0
1030
0.0
1001
ACDBBLOCKREPETAG
1070
     1
1071
      451
1005
1221B3
  0
LINE
  5
1221B4
  8
SLIM
 10
4020.3740813142458
 20
-125.7443819593384
 30
0.0
 11
4026.7872038672799
 21
-119.3312594063044
 31
0.0
1001
GRADIENTCOLOR1ACI
1070
     5
1001
GRADIENTCOLOR2ACI
1070
     2
1001
ACAD
1010
0.0
1020
0.0
1030
0.0
1001
ACDBBLOCKREPETAG
1070
     1
1071
      452
1005
1221B4
  0
LINE
  5
1221B5
  8
SLIM
 10
3921.795716318622
 20
-233.30300307603289
 30
0.0
 11
3927.9462473957792
 21
-227.1524719988744
 31
0.0
1001
GRADIENTCOLOR1ACI
1070
     5
1001
GRADIENTCOLOR2ACI
1070
     2
1001
ACAD
1010
0.0
1020
0.0
1030
0.0
1001
ACDBBLOCKREPETAG
1070
     1
1071
      453
1005
1221B5
  0
LINE
  5
1221B6
  8
SLIM
 10
4027.1524719988752
 20
-127.946247395778
 30
0.0
 11
4033.3030030760319
 21
-121.7957163186195
 31
0.0
1001
GRADIENTCOLOR1ACI
1070
     5
1001
GRADIENTCOLOR2ACI
1070
     2
1001
ACAD
1010
0.0
1020
0.0
1030
0.0
1001
ACDBBLOCKREPETAG
1070
     1
1071
      454
1005
1221B6
  0
LINE
  5
1221B7
  8
SLIM
 10
3924.6816635313448
 20
-239.39731198437769
 30
0.0
 11
3930.6398768643921
 21
-233.4390986513296
 31
0.0
1001
GRADIENTCOLOR1ACI
1070
     5
1001
GRADIENTCOLOR2ACI
1070
     2
1001
ACAD
1010
0.0
1020
0.0
1030
0.0
1001
ACDBBLOCKREPETAG
1070
     1
1071
      455
1005
1221B7
  0
LINE
  5
1221B8
  8
SLIM
 10
4033.4390986513308
 20
-130.63987686439199
 30
0.0
 11
4039.3973119843781
 21
-124.6816635313439
 31
0.0
1001
GRADIENTCOLOR1ACI
1070
     5
1001
GRADIENTCOLOR2ACI
1070
     2
1001
ACAD
1010
0.0
1020
0.0
1030
0.0
1001
ACDBBLOCKREPETAG
1070
     1
1071
      456
1005
1221B8
  0
LINE
  5
1221B9
  8
SLIM
 10
3927.9544611024248
 20
-245.10477053436691
 30
0.0
 11
3933.775007014995
 21
-239.28422462179759
 31
0.0
1001
GRADIENTCOLOR1ACI
1070
     5
1001
GRADIENTCOLOR2ACI
1070
     2
1001
ACAD
1010
0.0
1020
0.0
1030
0.0
1001
ACDBBLOCKREPETAG
1070
     1
1071
      457
1005
1221B9
  0
LINE
  5
1221BA
  8
SLIM
 10
4039.284224621797
 20
-133.77500701499321
 30
0.0
 11
4045.1047705343681
 21
-127.95446110242381
 31
0.0
1001
GRADIENTCOLOR1ACI
1070
     5
1001
GRADIENTCOLOR2ACI
1070
     2
1001
ACAD
1010
0.0
1020
0.0
1030
0.0
1001
ACDBBLOCKREPETAG
1070
     1
1071
      458
1005
1221BA
  0
LINE
  5
1221BB
  8
SLIM
 10
3931.5903319686659
 20
-250.4491557891954
 30
0.0
 11
3937.3182075880568
 21
-244.72128016980341
 31
0.0
1001
GRADIENTCOLOR1ACI
1070
     5
1001
GRADIENTCOLOR2ACI
1070
     2
1001
ACAD
1010
0.0
1020
0.0
1030
0.0
1001
ACDBBLOCKREPETAG
1070
     1
1071
      459
1005
1221BB
  0
LINE
  5
1221BC
  8
SLIM
 10
4044.7212801698038
 20
-137.31820758805651
 30
0.0
 11
4050.4491557891961
 21
-131.59033196866449
 31
0.0
1001
GRADIENTCOLOR1ACI
1070
     5
1001
GRADIENTCOLOR2ACI
1070
     2
1001
ACAD
1010
0.0
1020
0.0
1030
0.0
1001
ACDBBLOCKREPETAG
1070
     1
1071
      460
1005
1221BC
  0
LINE
  5
1221BD
  8
SLIM
 10
3935.5737496925258
 20
-255.4459941864034
 30
0.0
 11
3941.24811054159
 21
-249.77163333734029
 31
0.0
1001
GRADIENTCOLOR1ACI
1070
     5
1001
GRADIENTCOLOR2ACI
1070
     2
1001
ACAD
1010
0.0
1020
0.0
1030
0.0
1001
ACDBBLOCKREPETAG
1070
     1
1071
      461
1005
1221BD
  0
LINE
  5
1221BE
  8
SLIM
 10
4053.0197438789291
 20
-137.99999999999909
 30
0.0
 11
4055.4459941864038
 21
-135.57374969252561
 31
0.0
1001
GRADIENTCOLOR1ACI
1070
     5
1001
GRADIENTCOLOR2ACI
1070
     2
1001
ACAD
1010
0.0
1020
0.0
1030
0.0
1001
ACDBBLOCKREPETAG
1070
     1
1071
      462
1005
1221BE
  0
LINE
  5
1221BF
  8
SLIM
 10
3939.8959235991442
 20
-260.10407640085572
 30
0.0
 11
3945.5527778486362
 21
-254.44722215136329
 31
0.0
1001
GRADIENTCOLOR1ACI
1070
     5
1001
GRADIENTCOLOR2ACI
1070
     2
1001
ACAD
1010
0.0
1020
0.0
1030
0.0
1001
ACDBBLOCKREPETAG
1070
     1
1071
      463
1005
1221BF
  0
LINE
  5
1221C0
  8
SLIM
 10
3944.5540058135962
 20
-264.4262503074724
 30
0.0
 11
3950.2283666626599
 21
-258.75188945840949
 31
0.0
1001
GRADIENTCOLOR1ACI
1070
     5
1001
GRADIENTCOLOR2ACI
1070
     2
1001
ACAD
1010
0.0
1020
0.0
1030
0.0
1001
ACDBBLOCKREPETAG
1070
     1
1071
      464
1005
1221C0
  0
LINE
  5
1221C1
  8
SLIM
 10
3949.5508442108039
 20
-268.40966803133369
 30
0.0
 11
3955.2787198301962
 21
-262.68179241194167
 31
0.0
1001
GRADIENTCOLOR1ACI
1070
     5
1001
GRADIENTCOLOR2ACI
1070
     2
1001
ACAD
1010
0.0
1020
0.0
1030
0.0
1001
ACDBBLOCKREPETAG
1070
     1
1071
      465
1005
1221C1
  0
LINE
  5
1221C2
  8
SLIM
 10
3954.8952294656328
 20
-272.04553889757437
 30
0.0
 11
3960.7157753782012
 21
-266.22499298500497
 31
0.0
1001
GRADIENTCOLOR1ACI
1070
     5
1001
GRADIENTCOLOR2ACI
1070
     2
1001
ACAD
1010
0.0
1020
0.0
1030
0.0
1001
ACDBBLOCKREPETAG
1070
     1
1071
      466
1005
1221C2
  0
LINE
  5
1221C3
  8
SLIM
 10
3960.602688015621
 20
-275.31833646865431
 30
0.0
 11
3966.560901348671
 21
-269.36012313560622
 31
0.0
1001
GRADIENTCOLOR1ACI
1070
     5
1001
GRADIENTCOLOR2ACI
1070
     2
1001
ACAD
1010
0.0
1020
0.0
1030
0.0
1001
ACDBBLOCKREPETAG
1070
     1
1071
      467
1005
1221C3
  0
LINE
  5
1221C4
  8
SLIM
 10
3966.6969969239681
 20
-278.20428368137868
 30
0.0
 11
3972.8475280011248
 21
-272.05375260422022
 31
0.0
1001
GRADIENTCOLOR1ACI
1070
     5
1001
GRADIENTCOLOR2ACI
1070
     2
1001
ACAD
1010
0.0
1020
0.0
1030
0.0
1001
ACDBBLOCKREPETAG
1070
     1
1071
      468
1005
1221C4
  0
LINE
  5
1221C5
  8
SLIM
 10
3973.2127961327192
 20
-280.66874059369371
 30
0.0
 11
3979.6259186857542
 21
-274.25561804065973
 31
0.0
1001
GRADIENTCOLOR1ACI
1070
     5
1001
GRADIENTCOLOR2ACI
1070
     2
1001
ACAD
1010
0.0
1020
0.0
1030
0.0
1001
ACDBBLOCKREPETAG
1070
     1
1071
      469
1005
1221C5
  0
LINE
  5
1221C6
  8
SLIM
 10
3980.200058542639
 20
-282.6617343048456
 30
0.0
 11
3986.971940633035
 21
-275.88985221444773
 31
0.0
1001
GRADIENTCOLOR1ACI
1070
     5
1001
GRADIENTCOLOR2ACI
1070
     2
1001
ACAD
1010
0.0
1020
0.0
1030
0.0
1001
ACDBBLOCKREPETAG
1070
     1
1071
      470
1005
1221C6
  0
LINE
  5
1221C7
  8
SLIM
 10
3987.7320215894251
 20
-284.11002737912702
 30
0.0
 11
3995.0042797457209
 21
-276.83776922282988
 31
0.0
1001
GRADIENTCOLOR1ACI
1070
     5
1001
GRADIENTCOLOR2ACI
1070
     2
1001
ACAD
1010
0.0
1020
0.0
1030
0.0
1001
ACDBBLOCKREPETAG
1070
     1
1071
      471
1005
1221C7
  0
LINE
  5
1221C8
  8
SLIM
 10
3995.9202686470958
 20
-284.9020364425258
 30
0.0
 11
4000.0
 21
-280.82230508962152
 31
0.0
1001
GRADIENTCOLOR1ACI
1070
     5
1001
GRADIENTCOLOR2ACI
1070
     2
1001
ACAD
1010
0.0
1020
0.0
1030
0.0
1001
ACDBBLOCKREPETAG
1070
     1
1071
      472
1005
1221C8
  0
LINE
  5
1221C9
  8
SLIM
 10
4000.0
 20
-280.82230508962152
 30
0.0
 11
4003.9222672507922
 21
-276.90003783882821
 31
0.0
1001
GRADIENTCOLOR1ACI
1070
     5
1001
GRADIENTCOLOR2ACI
1070
     2
1001
ACAD
1010
0.0
1020
0.0
1030
0.0
1001
ACDBBLOCKREPETAG
1070
     1
1071
      473
1005
1221C9
  0
LINE
  5
1221CA
  8
SLIM
 10
4004.9466187997441
 20
-284.85594241094651
 30
0.0
 11
4014.1055828538729
 21
-275.6969783568166
 31
0.0
1001
GRADIENTCOLOR1ACI
1070
     5
1001
GRADIENTCOLOR2ACI
1070
     2
1001
ACAD
1010
0.0
1020
0.0
1030
0.0
1001
ACDBBLOCKREPETAG
1070
     1
1071
      474
1005
1221CA
  0
LINE
  5
1221CB
  8
SLIM
 10
4015.1424853251392
 20
-283.64033200662118
 30
0.0
 11
4026.4787756875421
 21
-272.30404164421702
 31
0.0
1001
GRADIENTCOLOR1ACI
1070
     5
1001
GRADIENTCOLOR2ACI
1070
     2
1001
ACAD
1010
0.0
1020
0.0
1030
0.0
1001
ACDBBLOCKREPETAG
1070
     1
1071
      475
1005
1221CB
  0
LINE
  5
1221CC
  8
SLIM
 10
4027.2492255236671
 20
-280.51384792916173
 30
0.0
 11
4045.7630734528302
 21
-261.99999999999909
 31
0.0
1001
GRADIENTCOLOR1ACI
1070
     5
1001
GRADIENTCOLOR2ACI
1070
     2
1001
ACAD
1010
0.0
1020
0.0
1030
0.0
1001
ACDBBLOCKREPETAG
1070
     1
1071
      476
1005
1221CC
  0
LINE
  5
1221CD
  8
SLIM
 10
4044.0451596304219
 20
-272.69816994347582
 30
0.0
 11
4054.7433295738979
 21
-261.99999999999909
 31
0.0
1001
GRADIENTCOLOR1ACI
1070
     5
1001
GRADIENTCOLOR2ACI
1070
     2
1001
ACAD
1010
0.0
1020
0.0
1030
0.0
1001
ACDBBLOCKREPETAG
1070
     1
1071
      477
1005
1221CD
  0
LINE
  5
1221CE
  8
CENTER
 10
4080.0
 20
-199.99999999999909
 30
0.0
 11
3900.0
 21
-199.99999999999909
 31
0.0
1001
ACDBBLOCKREPETAG
1070
     1
1071
      187
1005
1221CE
  0
LINE
  5
1221CF
  8
CENTER
 10
4000.0
 20
-299.99999999999892
 30
0.0
 11
4000.0
 21
-99.999999999999091
 31
0.0
1001
ACDBBLOCKREPETAG
1070
     1
1071
      188
1005
1221CF
  0
CIRCLE
  5
1221D0
  8
OBJECT
 10
4000.0
 20
-199.99999999999909
 30
0.0
 40
70.0
1001
ACDBBLOCKREPETAG
1070
     1
1071
      189
1005
1221D0
  0
CIRCLE
  5
1221D1
  8
OBJECT
 10
4000.0
 20
-199.99999999999909
 30
0.0
 40
77.0
1001
ACDBBLOCKREPETAG
1070
     1
1071
      190
1005
1221D1
  0
LINE
  5
1221D2
  8
OBJECT
 10
4045.661800227324
 20
-137.99999999999909
 30
0.0
 11
4080.0
 21
-137.99999999999909
 31
0.0
1001
ACDBBLOCKREPETAG
1070
     1
1071
      192
1005
1221D2
  0
LINE
  5
1221D3
  8
OBJECT
 10
4045.661800227324
 20
-261.99999999999909
 30
0.0
 11
4080.0
 21
-261.99999999999909
 31
0.0
1001
ACDBBLOCKREPETAG
1070
     1
1071
      193
1005
1221D3
  0
POINT
  5
1221D4
  8
DOTS
 10
4000.0
 20
-199.99999999999909
 30
0.0
1001
ACDBBLOCKREPETAG
1070
     1
1071
      194
1005
1221D4
  0
ARC
  5
1221D5
  8
OBJECT
 10
4000.0
 20
-199.99999999999909
 30
0.0
 40
85.0
 50
46.837102859834147
 51
313.16289714016602
1001
ACDBBLOCKREPETAG
1070
     1
1071
      202
1005
1221D5
  0
CIRCLE
  5
1221D6
  8
OBJECT
 10
4000.0
 20
-199.99999999999909
 30
0.0
 40
53.5
1001
ACDBBLOCKREPETAG
1070
     1
1071
      356
1005
1221D6
  0
CIRCLE
  5
1221D7
  8
OBJECT
 10
2000.0
 20
-199.99999999999909
 30
0.0
 40
53.5
1001
ACDBBLOCKREPETAG
1070
     1
1071
      344
1005
1221D7
  0
LINE
  5
1221D8
  8
CENTER
 10
2080.0
 20
-199.99999999999909
 30
0.0
 11
1905.0
 21
-199.99999999999909
 31
0.0
1001
ACDBBLOCKREPETAG
1070
     1
1071
       14
1005
1221D8
  0
LINE
  5
1221D9
  8
CENTER
 10
2000.0
 20
-294.99999999999892
 30
0.0
 11
2000.0
 21
-104.9999999999991
 31
0.0
1001
ACDBBLOCKREPETAG
1070
     1
1071
       15
1005
1221D9
  0
CIRCLE
  5
1221DA
  8
OBJECT
 10
2000.0
 20
-199.99999999999909
 30
0.0
 40
70.0
1001
ACDBBLOCKREPETAG
1070
     1
1071
       16
1005
1221DA
  0
CIRCLE
  5
1221DB
  8
OBJECT
 10
2000.0
 20
-199.99999999999909
 30
0.0
 40
77.0
1001
ACDBBLOCKREPETAG
1070
     1
1071
       17
1005
1221DB
  0
ARC
  5
1221DC
  8
OBJECT
 10
2000.0
 20
-199.99999999999909
 30
0.0
 40
80.0
 50
50.805032573864182
 51
309.1949674261358
1001
ACDBBLOCKREPETAG
1070
     1
1071
       18
1005
1221DC
  0
LINE
  5
1221DD
  8
OBJECT
 10
2045.6618002273251
 20
-137.99999999999909
 30
0.0
 11
2080.0
 21
-137.99999999999909
 31
0.0
1001
ACDBBLOCKREPETAG
1070
     1
1071
       19
1005
1221DD
  0
LINE
  5
1221DE
  8
OBJECT
 10
2045.6618002273251
 20
-261.99999999999909
 30
0.0
 11
2080.0
 21
-261.99999999999909
 31
0.0
1001
ACDBBLOCKREPETAG
1070
     1
1071
       20
1005
1221DE
  0
POINT
  5
1221DF
  8
DOTS
 10
2000.0
 20
-199.99999999999909
 30
0.0
1001
ACDBBLOCKREPETAG
1070
     1
1071
       21
1005
1221DF
  0
LINE
  5
1221E0
  8
SLIM
 10
3914.9999999999941
 20
-659.47385309434696
 30
0.0
 11
3919.47385309434
 21
-654.99999999999966
 31
0.0
1001
ACDBBLOCKREPETAG
1070
     1
1071
        0
1005
0
1001
ACAD
1010
0.0
1020
0.0
1030
0.0
  0
LINE
  5
1221E1
  8
SLIM
 10
3914.9999999999941
 20
-677.43436533648492
 30
0.0
 11
3937.434365336479
 21
-654.99999999999966
 31
0.0
1001
ACAD
1010
0.0
1020
0.0
1030
0.0
1001
ACDBBLOCKREPETAG
1070
     1
1071
       14
1005
1221E1
  0
LINE
  5
1221E2
  8
SLIM
 10
3914.9999999999941
 20
-695.39487757862275
 30
0.0
 11
3955.394877578618
 21
-654.99999999999966
 31
0.0
1001
ACAD
1010
0.0
1020
0.0
1030
0.0
1001
ACDBBLOCKREPETAG
1070
     1
1071
       15
1005
1221E2
  0
LINE
  5
1221E3
  8
SLIM
 10
3914.9999999999941
 20
-713.35538982076082
 30
0.0
 11
3973.3553898207551
 21
-654.99999999999966
 31
0.0
1001
ACAD
1010
0.0
1020
0.0
1030
0.0
1001
ACDBBLOCKREPETAG
1070
     1
1071
       16
1005
1221E3
  0
LINE
  5
1221E4
  8
SLIM
 10
3914.999999999995
 20
-731.31590206289854
 30
0.0
 11
3991.3159020628941
 21
-654.99999999999966
 31
0.0
1001
ACAD
1010
0.0
1020
0.0
1030
0.0
1001
ACDBBLOCKREPETAG
1070
     1
1071
       17
1005
1221E4
  0
LINE
  5
1221E5
  8
SLIM
 10
3914.999999999995
 20
-749.27641430503661
 30
0.0
 11
4009.2764143050308
 21
-654.99999999999966
 31
0.0
1001
ACAD
1010
0.0
1020
0.0
1030
0.0
1001
ACDBBLOCKREPETAG
1070
     1
1071
       18
1005
1221E5
  0
LINE
  5
1221E6
  8
SLIM
 10
3914.999999999995
 20
-767.23692654717422
 30
0.0
 11
4027.2369265471689
 21
-654.99999999999966
 31
0.0
1001
ACAD
1010
0.0
1020
0.0
1030
0.0
1001
ACDBBLOCKREPETAG
1070
     1
1071
       19
1005
1221E6
  0
LINE
  5
1221E7
  8
SLIM
 10
3914.999999999995
 20
-785.1974387893124
 30
0.0
 11
4045.1974387893069
 21
-654.99999999999966
 31
0.0
1001
ACAD
1010
0.0
1020
0.0
1030
0.0
1001
ACDBBLOCKREPETAG
1070
     1
1071
       20
1005
1221E7
  0
LINE
  5
1221E8
  8
SLIM
 10
3914.9999999999968
 20
-803.15795103145024
 30
0.0
 11
4063.157951031445
 21
-654.99999999999966
 31
0.0
1001
ACAD
1010
0.0
1020
0.0
1030
0.0
1001
ACDBBLOCKREPETAG
1070
     1
1071
       21
1005
1221E8
  0
LINE
  5
1221E9
  8
SLIM
 10
3915.1454972543161
 20
-820.97296601926894
 30
0.0
 11
4081.1184632735849
 21
-654.99999999999966
 31
0.0
1001
ACAD
1010
0.0
1020
0.0
1030
0.0
1001
ACDBBLOCKREPETAG
1070
     1
1071
       22
1005
1221E9
  0
LINE
  5
1221EA
  8
SLIM
 10
3917.104627495245
 20
-836.97434802047871
 30
0.0
 11
4085.0000000000068
 21
-669.07897551571602
 31
0.0
1001
ACAD
1010
0.0
1020
0.0
1030
0.0
1001
ACDBBLOCKREPETAG
1070
     1
1071
       23
1005
1221EA
  0
LINE
  5
1221EB
  8
SLIM
 10
3919.0637577361722
 20
-852.9757300216894
 30
0.0
 11
4085.0000000000068
 21
-687.03948775785454
 31
0.0
1001
ACAD
1010
0.0
1020
0.0
1030
0.0
1001
ACDBBLOCKREPETAG
1070
     1
1071
       24
1005
1221EB
  0
LINE
  5
1221EC
  8
SLIM
 10
3920.0
 20
-869.99999999999955
 30
0.0
 11
4085.0000000000068
 21
-704.99999999999341
 31
0.0
1001
ACAD
1010
0.0
1020
0.0
1030
0.0
1001
ACDBBLOCKREPETAG
1070
     1
1071
       25
1005
1221EC
  0
LINE
  5
1221ED
  8
SLIM
 10
3920.0
 20
-887.96051224213795
 30
0.0
 11
4085.0000000000059
 21
-722.96051224213215
 31
0.0
1001
ACAD
1010
0.0
1020
0.0
1030
0.0
1001
ACDBBLOCKREPETAG
1070
     1
1071
       26
1005
1221ED
  0
LINE
  5
1221EE
  8
SLIM
 10
3920.0
 20
-905.9210244842759
 30
0.0
 11
4085.0000000000059
 21
-740.92102448427033
 31
0.0
1001
ACAD
1010
0.0
1020
0.0
1030
0.0
1001
ACDBBLOCKREPETAG
1070
     1
1071
       27
1005
1221EE
  0
LINE
  5
1221EF
  8
SLIM
 10
3920.0
 20
-923.88153672641431
 30
0.0
 11
4085.000000000005
 21
-758.88153672640942
 31
0.0
1001
ACAD
1010
0.0
1020
0.0
1030
0.0
1001
ACDBBLOCKREPETAG
1070
     1
1071
       28
1005
1221EF
  0
LINE
  5
1221F0
  8
SLIM
 10
3920.0
 20
-941.84204896855272
 30
0.0
 11
4085.0000000000041
 21
-776.84204896854817
 31
0.0
1001
ACAD
1010
0.0
1020
0.0
1030
0.0
1001
ACDBBLOCKREPETAG
1070
     1
1071
       29
1005
1221F0
  0
LINE
  5
1221F1
  8
SLIM
 10
3920.0
 20
-959.80256121069101
 30
0.0
 11
4085.0000000000041
 21
-794.80256121068692
 31
0.0
1001
ACAD
1010
0.0
1020
0.0
1030
0.0
1001
ACDBBLOCKREPETAG
1070
     1
1071
       30
1005
1221F1
  0
LINE
  5
1221F2
  8
SLIM
 10
3920.0
 20
-977.76307345282919
 30
0.0
 11
4085.0000000000032
 21
-812.76307345282555
 31
0.0
1001
ACAD
1010
0.0
1020
0.0
1030
0.0
1001
ACDBBLOCKREPETAG
1070
     1
1071
       31
1005
1221F2
  0
LINE
  5
1221F3
  8
SLIM
 10
3930.0
 20
-985.7235856949676
 30
0.0
 11
3930.7235856949678
 21
-984.99999999999955
 31
0.0
1001
ACAD
1010
0.0
1020
0.0
1030
0.0
1001
ACDBBLOCKREPETAG
1070
     1
1071
       32
1005
1221F3
  0
LINE
  5
1221F4
  8
SLIM
 10
3930.7235856949678
 20
-984.99999999999955
 30
0.0
 11
4083.4738280308079
 21
-832.24975766415889
 31
0.0
1001
ACAD
1010
0.0
1020
0.0
1030
0.0
1001
ACDBBLOCKREPETAG
1070
     1
1071
       33
1005
1221F4
  0
LINE
  5
1221F5
  8
SLIM
 10
3930.0
 20
-1003.684097937106
 30
0.0
 11
3948.6840979371068
 21
-984.99999999999955
 31
0.0
1001
ACAD
1010
0.0
1020
0.0
1030
0.0
1001
ACDBBLOCKREPETAG
1070
     1
1071
       34
1005
1221F5
  0
LINE
  5
1221F6
  8
SLIM
 10
3948.6840979371068
 20
-984.99999999999955
 30
0.0
 11
4080.9680345671368
 21
-852.71606336996854
 31
0.0
1001
ACAD
1010
0.0
1020
0.0
1030
0.0
1001
ACDBBLOCKREPETAG
1070
     1
1071
       35
1005
1221F6
  0
LINE
  5
1221F7
  8
SLIM
 10
3946.6446101792449
 20
-1004.999999999999
 30
0.0
 11
3966.6446101792449
 21
-984.99999999999955
 31
0.0
1001
ACAD
1010
0.0
1020
0.0
1030
0.0
1001
ACDBBLOCKREPETAG
1070
     1
1071
       36
1005
1221F7
  0
LINE
  5
1221F8
  8
SLIM
 10
3966.6446101792449
 20
-984.99999999999943
 30
0.0
 11
4080.0
 21
-871.64461017924452
 31
0.0
1001
ACAD
1010
0.0
1020
0.0
1030
0.0
1001
ACDBBLOCKREPETAG
1070
     1
1071
       37
1005
1221F8
  0
LINE
  5
1221F9
  8
SLIM
 10
3964.6051224213829
 20
-1004.999999999999
 30
0.0
 11
3984.6051224213829
 21
-984.99999999999943
 31
0.0
1001
ACAD
1010
0.0
1020
0.0
1030
0.0
1001
ACDBBLOCKREPETAG
1070
     1
1071
       38
1005
1221F9
  0
LINE
  5
1221FA
  8
SLIM
 10
3984.6051224213829
 20
-984.99999999999943
 30
0.0
 11
4080.0
 21
-889.60512242138304
 31
0.0
1001
ACAD
1010
0.0
1020
0.0
1030
0.0
1001
ACDBBLOCKREPETAG
1070
     1
1071
       39
1005
1221FA
  0
LINE
  5
1221FB
  8
SLIM
 10
3982.565634663521
 20
-1004.999999999999
 30
0.0
 11
4002.565634663521
 21
-984.99999999999943
 31
0.0
1001
ACAD
1010
0.0
1020
0.0
1030
0.0
1001
ACDBBLOCKREPETAG
1070
     1
1071
       40
1005
1221FB
  0
LINE
  5
1221FC
  8
SLIM
 10
4002.565634663521
 20
-984.99999999999943
 30
0.0
 11
4079.9999999999991
 21
-907.56563466352145
 31
0.0
1001
ACAD
1010
0.0
1020
0.0
1030
0.0
1001
ACDBBLOCKREPETAG
1070
     1
1071
       41
1005
1221FC
  0
LINE
  5
1221FD
  8
SLIM
 10
4000.5261469056568
 20
-1004.999999999999
 30
0.0
 11
4020.52614690566
 21
-984.99999999999943
 31
0.0
1001
ACAD
1010
0.0
1020
0.0
1030
0.0
1001
ACDBBLOCKREPETAG
1070
     1
1071
       42
1005
1221FD
  0
LINE
  5
1221FE
  8
SLIM
 10
4020.52614690566
 20
-984.9999999999992
 30
0.0
 11
4079.9999999999991
 21
-925.5261469056602
 31
0.0
1001
ACAD
1010
0.0
1020
0.0
1030
0.0
1001
ACDBBLOCKREPETAG
1070
     1
1071
       43
1005
1221FE
  0
LINE
  5
1221FF
  8
SLIM
 10
4018.486659147798
 20
-1004.999999999999
 30
0.0
 11
4038.486659147798
 21
-984.9999999999992
 31
0.0
1001
ACAD
1010
0.0
1020
0.0
1030
0.0
1001
ACDBBLOCKREPETAG
1070
     1
1071
       44
1005
1221FF
  0
LINE
  5
122200
  8
SLIM
 10
4038.486659147798
 20
-984.9999999999992
 30
0.0
 11
4079.9999999999991
 21
-943.48665914779872
 31
0.0
1001
ACAD
1010
0.0
1020
0.0
1030
0.0
1001
ACDBBLOCKREPETAG
1070
     1
1071
       45
1005
122200
  0
LINE
  5
122201
  8
SLIM
 10
4036.4471713899361
 20
-1004.999999999999
 30
0.0
 11
4056.4471713899361
 21
-984.9999999999992
 31
0.0
1001
ACAD
1010
0.0
1020
0.0
1030
0.0
1001
ACDBBLOCKREPETAG
1070
     1
1071
       46
1005
122201
  0
LINE
  5
122202
  8
SLIM
 10
4056.4471713899361
 20
-984.9999999999992
 30
0.0
 11
4079.9999999999991
 21
-961.44717138993735
 31
0.0
1001
ACAD
1010
0.0
1020
0.0
1030
0.0
1001
ACDBBLOCKREPETAG
1070
     1
1071
       47
1005
122202
  0
LINE
  5
122203
  8
SLIM
 10
4054.4076836320728
 20
-1004.999999999999
 30
0.0
 11
4070.0
 21
-989.40768363207383
 31
0.0
1001
ACAD
1010
0.0
1020
0.0
1030
0.0
1001
ACDBBLOCKREPETAG
1070
     1
1071
       48
1005
122203
  0
LINE
  5
122204
  8
SLIM
 10
4074.4076836320728
 20
-984.9999999999992
 30
0.0
 11
4079.9999999999991
 21
-979.40768363207553
 31
0.0
1001
ACAD
1010
0.0
1020
0.0
1030
0.0
1001
ACDBBLOCKREPETAG
1070
     1
1071
       49
1005
122204
  0
LINE
  5
122205
  8
OBJECT
 10
3914.9999999999941
 20
-654.99999999999966
 30
0.0
 11
3914.9999999999968
 21
-819.78460339903484
 31
0.0
1001
ACDBBLOCKREPETAG
1070
     1
1071
        1
1005
122205
  0
LINE
  5
122206
  8
OBJECT
 10
4085.0000000000068
 20
-654.99999999999966
 30
0.0
 11
4085.0000000000032
 21
-819.78460339904143
 31
0.0
1001
ACDBBLOCKREPETAG
1070
     1
1071
        2
1005
122206
  0
LINE
  5
122207
  8
OBJECT
 10
4085.0000000000068
 20
-654.99999999999966
 30
0.0
 11
3914.9999999999941
 21
-654.99999999999966
 31
0.0
1001
ACDBBLOCKREPETAG
1070
     1
1071
        3
1005
122207
  0
LINE
  5
122208
  8
OBJECT
 10
4079.9999999999991
 20
-984.9999999999992
 30
0.0
 11
3920.0
 21
-984.99999999999955
 31
0.0
1001
ACDBBLOCKREPETAG
1070
     1
1071
        4
1005
122208
  0
LINE
  5
122209
  8
OBJECT
 10
3914.9999999999968
 20
-819.78460339903484
 30
0.0
 11
3920.0
 21
-860.62257748298634
 31
0.0
1001
ACDBBLOCKREPETAG
1070
     1
1071
        6
1005
122209
  0
LINE
  5
12220A
  8
OBJECT
 10
3920.0
 20
-860.62257748298634
 30
0.0
 11
3920.0
 21
-984.99999999999955
 31
0.0
1001
ACDBBLOCKREPETAG
1070
     1
1071
        7
1005
12220A
  0
LINE
  5
12220B
  8
OBJECT
 10
4085.0000000000032
 20
-819.78460339904143
 30
0.0
 11
4080.0
 21
-860.62257748298634
 31
0.0
1001
ACDBBLOCKREPETAG
1070
     1
1071
        8
1005
12220B
  0
LINE
  5
12220C
  8
OBJECT
 10
4080.0
 20
-860.62257748298634
 30
0.0
 11
4079.9999999999991
 21
-984.9999999999992
 31
0.0
1001
ACDBBLOCKREPETAG
1070
     1
1071
        9
1005
12220C
  0
LINE
  5
12220D
  8
OBJECT
 10
3930.0
 20
-984.99999999999955
 30
0.0
 11
3930.0
 21
-1004.999999999999
 31
0.0
1001
ACDBBLOCKREPETAG
1070
     1
1071
       10
1005
12220D
  0
LINE
  5
12220E
  8
OBJECT
 10
3930.0
 20
-1004.999999999999
 30
0.0
 11
4070.0
 21
-1004.999999999999
 31
0.0
1001
ACDBBLOCKREPETAG
1070
     1
1071
       11
1005
12220E
  0
LINE
  5
12220F
  8
OBJECT
 10
4070.0
 20
-1004.999999999999
 30
0.0
 11
4070.0
 21
-984.9999999999992
 31
0.0
1001
ACDBBLOCKREPETAG
1070
     1
1071
       12
1005
12220F
  0
LINE
  5
122210
  8
OBJECT
 10
3923.0
 20
-470.99999999999932
 30
0.0
 11
3923.0
 21
-449.99999999999932
 31
0.0
1001
ACDBBLOCKREPETAG
1070
     1
1071
        0
1005
122210
  0
LINE
  5
122211
  8
OBJECT
 10
3923.0
 20
-449.99999999999932
 30
0.0
 11
4077.0
 21
-449.99999999999932
 31
0.0
1001
ACDBBLOCKREPETAG
1070
     1
1071
        1
1005
122211
  0
LINE
  5
122212
  8
HIDDEN
 10
3943.0
 20
-519.99999999999955
 30
0.0
 11
4057.0
 21
-519.99999999999955
 31
0.0
1001
ACDBBLOCKREPETAG
1070
     1
1071
        2
1005
122212
  0
LINE
  5
122213
  8
OBJECT
 10
4077.0
 20
-449.99999999999932
 30
0.0
 11
4077.0
 21
-470.99999999999932
 31
0.0
1001
ACDBBLOCKREPETAG
1070
     1
1071
        3
1005
122213
  0
LINE
  5
122214
  8
OBJECT
 10
4077.0
 20
-470.99999999999932
 30
0.0
 11
3923.0
 21
-470.99999999999932
 31
0.0
1001
ACDBBLOCKREPETAG
1070
     1
1071
        4
1005
122214
  0
LINE
  5
122215
  8
CENTER
 10
4000.0
 20
-434.99999999999949
 30
0.0
 11
4000.0
 21
-789.99999999999955
 31
0.0
1001
ACDBBLOCKREPETAG
1070
     1
1071
        5
1005
122215
  0
LINE
  5
122216
  8
OBJECT
 10
3925.0
 20
-533.99999999999955
 30
0.0
 11
3925.0
 21
-777.99999999999955
 31
0.0
1001
ACDBBLOCKREPETAG
1070
     1
1071
        6
1005
122216
  0
LINE
  5
122217
  8
OBJECT
 10
3928.0
 20
-470.99999999999932
 30
0.0
 11
3928.0
 21
-533.99999999999955
 31
0.0
1001
ACDBBLOCKREPETAG
1070
     1
1071
        7
1005
122217
  0
LINE
  5
122218
  8
OBJECT
 10
4072.0
 20
-533.99999999999955
 30
0.0
 11
4072.0
 21
-470.99999999999932
 31
0.0
1001
ACDBBLOCKREPETAG
1070
     1
1071
        8
1005
122218
  0
LINE
  5
122219
  8
OBJECT
 10
3920.0
 20
-777.99999999999955
 30
0.0
 11
4080.0
 21
-777.99999999999955
 31
0.0
1001
ACDBBLOCKREPETAG
1070
     1
1071
        9
1005
122219
  0
LINE
  5
12221A
  8
OBJECT
 10
4080.0
 20
-533.99999999999955
 30
0.0
 11
3925.0
 21
-533.99999999999955
 31
0.0
1001
ACDBBLOCKREPETAG
1070
     1
1071
       10
1005
12221A
  0
LINE
  5
12221B
  8
OBJECT
 10
3920.0
 20
-777.99999999999955
 30
0.0
 11
3920.0
 21
-789.99999999999955
 31
0.0
1001
ACDBBLOCKREPETAG
1070
     1
1071
       11
1005
12221B
  0
LINE
  5
12221C
  8
OBJECT
 10
3920.0
 20
-789.99999999999955
 30
0.0
 11
4080.0
 21
-789.99999999999955
 31
0.0
1001
ACDBBLOCKREPETAG
1070
     1
1071
       12
1005
12221C
  0
LINE
  5
12221D
  8
OBJECT
 10
4080.0
 20
-789.99999999999955
 30
0.0
 11
4080.0
 21
-777.99999999999955
 31
0.0
1001
ACDBBLOCKREPETAG
1070
     1
1071
       13
1005
12221D
  0
LINE
  5
12221E
  8
OBJECT
 10
4074.9999999998631
 20
-657.99999999985039
 30
0.0
 11
4075.0
 21
-777.99999999999955
 31
0.0
1001
ACDBBLOCKREPETAG
1070
     1
1071
       15
1005
12221E
  0
LINE
  5
12221F
  8
OBJECT
 10
4074.9999908029849
 20
-657.99998602702135
 30
0.0
 11
4080.0
 21
-657.99998602702135
 31
0.0
1001
ACDBBLOCKREPETAG
1070
     1
1071
       16
1005
12221F
  0
ARC
  5
122220
  8
OBJECT
 10
4200.6872746716726
 20
-649.40809941010718
 30
0.0
 40
170.6350503965856
 50
137.44134459184301
 51
149.91949581337221
1001
ACDBBLOCKREPETAG
1070
     1
1071
       17
1005
122220
  0
ARC
  5
122221
  8
OBJECT
 10
4118.8455987040506
 20
-605.88272669536445
 30
0.0
 40
78.072222021763665
 50
147.4551531038623
 51
164.6636599771798
1001
ACDBBLOCKREPETAG
1070
     1
1071
       18
1005
122221
  0
ARC
  5
122222
  8
OBJECT
 10
4085.7554349608722
 20
-595.99999999999955
 30
0.0
 40
43.55353926885617
 50
165.6884523007466
 51
194.3115476992534
1001
ACDBBLOCKREPETAG
1070
     1
1071
       19
1005
122222
  0
ARC
  5
122223
  8
OBJECT
 10
4200.6872746716726
 20
-542.59190058989179
 30
0.0
 40
170.6350503965856
 50
210.08050418662771
 51
222.55865540815699
1001
ACDBBLOCKREPETAG
1070
     1
1071
       20
1005
122223
  0
ARC
  5
122224
  8
OBJECT
 10
4118.8455987040506
 20
-586.11727330463452
 30
0.0
 40
78.072222021763665
 50
195.3363400228202
 51
212.5448468961377
1001
ACDBBLOCKREPETAG
1070
     1
1071
       21
1005
122224
  0
POINT
  5
122225
  8
DOTS
 10
4000.0
 20
-654.99999999999966
 30
0.0
1001
ACDBBLOCKREPETAG
1070
     1
1071
      187
1005
122225
  0
LINE
  5
122226
  8
OBJECT
 10
1923.0
 20
-470.99999999999932
 30
0.0
 11
1923.0
 21
-449.99999999999932
 31
0.0
1001
ACDBBLOCKREPETAG
1070
     1
1071
        0
1005
122226
  0
LINE
  5
122227
  8
OBJECT
 10
1923.0
 20
-449.99999999999932
 30
0.0
 11
2077.0
 21
-449.99999999999932
 31
0.0
1001
ACDBBLOCKREPETAG
1070
     1
1071
        1
1005
122227
  0
LINE
  5
122228
  8
HIDDEN
 10
1943.0
 20
-519.99999999999955
 30
0.0
 11
2057.0
 21
-519.99999999999955
 31
0.0
1001
ACDBBLOCKREPETAG
1070
     1
1071
        2
1005
122228
  0
LINE
  5
122229
  8
OBJECT
 10
2077.0
 20
-449.99999999999932
 30
0.0
 11
2077.0
 21
-470.99999999999932
 31
0.0
1001
ACDBBLOCKREPETAG
1070
     1
1071
        3
1005
122229
  0
LINE
  5
12222A
  8
OBJECT
 10
2077.0
 20
-470.99999999999932
 30
0.0
 11
1923.0
 21
-470.99999999999932
 31
0.0
1001
ACDBBLOCKREPETAG
1070
     1
1071
        4
1005
12222A
  0
LINE
  5
12222B
  8
CENTER
 10
2000.0
 20
-434.99999999999949
 30
0.0
 11
2000.0
 21
-789.99999999999955
 31
0.0
1001
ACDBBLOCKREPETAG
1070
     1
1071
        5
1005
12222B
  0
LINE
  5
12222C
  8
OBJECT
 10
1925.0
 20
-533.99999999999955
 30
0.0
 11
1925.0
 21
-777.99999999999955
 31
0.0
1001
ACDBBLOCKREPETAG
1070
     1
1071
        6
1005
12222C
  0
LINE
  5
12222D
  8
OBJECT
 10
1928.0
 20
-470.99999999999932
 30
0.0
 11
1928.0
 21
-533.99999999999955
 31
0.0
1001
ACDBBLOCKREPETAG
1070
     1
1071
        7
1005
12222D
  0
LINE
  5
12222E
  8
OBJECT
 10
2072.0
 20
-533.99999999999955
 30
0.0
 11
2072.0
 21
-470.99999999999932
 31
0.0
1001
ACDBBLOCKREPETAG
1070
     1
1071
        8
1005
12222E
  0
LINE
  5
12222F
  8
OBJECT
 10
1920.0
 20
-777.99999999999955
 30
0.0
 11
2080.0
 21
-777.99999999999955
 31
0.0
1001
ACDBBLOCKREPETAG
1070
     1
1071
        9
1005
12222F
  0
LINE
  5
122230
  8
OBJECT
 10
2080.0
 20
-533.99999999999955
 30
0.0
 11
1925.0
 21
-533.99999999999955
 31
0.0
1001
ACDBBLOCKREPETAG
1070
     1
1071
       10
1005
122230
  0
LINE
  5
122231
  8
OBJECT
 10
1920.0
 20
-777.99999999999955
 30
0.0
 11
1920.0
 21
-789.99999999999955
 31
0.0
1001
ACDBBLOCKREPETAG
1070
     1
1071
       11
1005
122231
  0
LINE
  5
122232
  8
OBJECT
 10
1920.0
 20
-789.99999999999955
 30
0.0
 11
2080.0
 21
-789.99999999999955
 31
0.0
1001
ACDBBLOCKREPETAG
1070
     1
1071
       12
1005
122232
  0
LINE
  5
122233
  8
OBJECT
 10
2080.0
 20
-789.99999999999955
 30
0.0
 11
2080.0
 21
-777.99999999999955
 31
0.0
1001
ACDBBLOCKREPETAG
1070
     1
1071
       13
1005
122233
  0
LINE
  5
122234
  8
OBJECT
 10
2074.9999999998622
 20
-657.99999999985039
 30
0.0
 11
2075.0
 21
-777.99999999999955
 31
0.0
1001
ACDBBLOCKREPETAG
1070
     1
1071
       15
1005
122234
  0
LINE
  5
122235
  8
OBJECT
 10
2074.9999908029849
 20
-657.99998602702135
 30
0.0
 11
2080.0
 21
-657.99998602702135
 31
0.0
1001
ACDBBLOCKREPETAG
1070
     1
1071
       16
1005
122235
  0
ARC
  5
122236
  8
OBJECT
 10
2200.6872746716731
 20
-649.40809941010718
 30
0.0
 40
170.6350503965856
 50
137.44134459184301
 51
149.91949581336559
1001
ACDBBLOCKREPETAG
1070
     1
1071
       17
1005
122236
  0
ARC
  5
122237
  8
OBJECT
 10
2118.8455987040511
 20
-605.88272669536445
 30
0.0
 40
78.072222021763665
 50
147.4551531038623
 51
164.6636599771798
1001
ACDBBLOCKREPETAG
1070
     1
1071
       18
1005
122237
  0
ARC
  5
122238
  8
OBJECT
 10
2085.7554349608731
 20
-595.99999999999955
 30
0.0
 40
43.55353926885617
 50
165.6884523007466
 51
194.3115476992534
1001
ACDBBLOCKREPETAG
1070
     1
1071
       19
1005
122238
  0
ARC
  5
122239
  8
OBJECT
 10
2200.6872746716731
 20
-542.59190058989179
 30
0.0
 40
170.6350503965856
 50
210.0805041866343
 51
222.55865540815699
1001
ACDBBLOCKREPETAG
1070
     1
1071
       20
1005
122239
  0
ARC
  5
12223A
  8
OBJECT
 10
2118.8455987040511
 20
-586.11727330463452
 30
0.0
 40
78.072222021763665
 50
195.3363400228202
 51
212.5448468961377
1001
ACDBBLOCKREPETAG
1070
     1
1071
       21
1005
12223A
  0
POINT
  5
12223B
  8
DOTS
 10
2000.0
 20
-654.99999999999966
 30
0.0
1001
ACDBBLOCKREPETAG
1070
     1
1071
      187
1005
12223B
  0
LINE
  5
12223C
  8
OBJECT
 10
3930.0
 20
-1099.999999999997
 30
0.0
 11
4070.0
 21
-1099.999999999997
 31
0.0
1001
ACDBBLOCKREPETAG
1070
     1
1071
        0
1005
12223C
  0
LINE
  5
12223D
  8
OBJECT
 10
3930.0
 20
-1099.999999999997
 30
0.0
 11
3930.0
 21
-859.99999999999693
 31
0.0
1001
ACDBBLOCKREPETAG
1070
     1
1071
        1
1005
12223D
  0
LINE
  5
12223E
  8
OBJECT
 10
4070.0
 20
-1099.999999999997
 30
0.0
 11
4070.0
 21
-859.99999999999693
 31
0.0
1001
ACDBBLOCKREPETAG
1070
     1
1071
        2
1005
12223E
  0
LINE
  5
12223F
  8
OBJECT
 10
3930.0
 20
-859.99999999999693
 30
0.0
 11
4070.0
 21
-859.99999999999693
 31
0.0
1001
ACDBBLOCKREPETAG
1070
     1
1071
        3
1005
12223F
  0
LINE
  5
122240
  8
HIDDEN
 10
3937.5
 20
-859.99999999999693
 30
0.0
 11
3937.5
 21
-1099.999999999997
 31
0.0
1001
ACDBBLOCKREPETAG
1070
     1
1071
        4
1005
122240
  0
LINE
  5
122241
  8
HIDDEN
 10
4062.5
 20
-859.99999999999693
 30
0.0
 11
4062.5
 21
-1099.999999999997
 31
0.0
1001
ACDBBLOCKREPETAG
1070
     1
1071
        5
1005
122241
  0
LINE
  5
122242
  8
CENTER
 10
4000.0
 20
-789.99999999999875
 30
0.0
 11
4000.0
 21
-1114.999999999997
 31
0.0
1001
ACDBBLOCKREPETAG
1070
     1
1071
        6
1005
122242
  0
LINE
  5
122243
  8
OBJECT
 10
3925.0
 20
-789.99999999999875
 30
0.0
 11
3925.0
 21
-819.99999999999693
 31
0.0
1001
ACDBBLOCKREPETAG
1070
     1
1071
        7
1005
122243
  0
LINE
  5
122244
  8
OBJECT
 10
4075.0000000000032
 20
-789.99999999999875
 30
0.0
 11
4075.0
 21
-819.99999999999693
 31
0.0
1001
ACDBBLOCKREPETAG
1070
     1
1071
        8
1005
122244
  0
LINE
  5
122245
  8
OBJECT
 10
3925.0
 20
-819.99999999999693
 30
0.0
 11
4075.0
 21
-819.99999999999693
 31
0.0
1001
ACDBBLOCKREPETAG
1070
     1
1071
        9
1005
122245
  0
LINE
  5
122246
  8
OBJECT
 10
3925.0
 20
-819.99999999999693
 30
0.0
 11
3930.0
 21
-859.99999999999693
 31
0.0
1001
ACDBBLOCKREPETAG
1070
     1
1071
       10
1005
122246
  0
LINE
  5
122247
  8
OBJECT
 10
4070.0
 20
-859.99999999999693
 30
0.0
 11
4075.0
 21
-819.99999999999693
 31
0.0
1001
ACDBBLOCKREPETAG
1070
     1
1071
       11
1005
122247
  0
LINE
  5
122248
  8
OBJECT
 10
1930.0
 20
-1099.999999999997
 30
0.0
 11
2070.0
 21
-1099.999999999997
 31
0.0
1001
ACDBBLOCKREPETAG
1070
     1
1071
        0
1005
122248
  0
LINE
  5
122249
  8
OBJECT
 10
1930.0
 20
-1099.999999999997
 30
0.0
 11
1930.0
 21
-859.99999999999784
 31
0.0
1001
ACDBBLOCKREPETAG
1070
     1
1071
        1
1005
122249
  0
LINE
  5
12224A
  8
OBJECT
 10
2070.0
 20
-1099.999999999997
 30
0.0
 11
2070.0
 21
-859.99999999999784
 31
0.0
1001
ACDBBLOCKREPETAG
1070
     1
1071
        2
1005
12224A
  0
LINE
  5
12224B
  8
OBJECT
 10
1930.0
 20
-859.99999999999784
 30
0.0
 11
2070.0
 21
-859.99999999999784
 31
0.0
1001
ACDBBLOCKREPETAG
1070
     1
1071
        3
1005
12224B
  0
LINE
  5
12224C
  8
HIDDEN
 10
1937.5
 20
-859.99999999999784
 30
0.0
 11
1937.5
 21
-1099.999999999997
 31
0.0
1001
ACDBBLOCKREPETAG
1070
     1
1071
        4
1005
12224C
  0
LINE
  5
12224D
  8
HIDDEN
 10
2062.5
 20
-859.99999999999784
 30
0.0
 11
2062.5
 21
-1099.999999999997
 31
0.0
1001
ACDBBLOCKREPETAG
1070
     1
1071
        5
1005
12224D
  0
LINE
  5
12224E
  8
CENTER
 10
2000.0
 20
-789.99999999999955
 30
0.0
 11
2000.0
 21
-1114.999999999997
 31
0.0
1001
ACDBBLOCKREPETAG
1070
     1
1071
        6
1005
12224E
  0
LINE
  5
12224F
  8
OBJECT
 10
1925.0
 20
-789.99999999999955
 30
0.0
 11
1925.0
 21
-819.99999999999773
 31
0.0
1001
ACDBBLOCKREPETAG
1070
     1
1071
        7
1005
12224F
  0
LINE
  5
122250
  8
OBJECT
 10
2075.0000000000041
 20
-789.99999999999955
 30
0.0
 11
2075.0
 21
-819.99999999999773
 31
0.0
1001
ACDBBLOCKREPETAG
1070
     1
1071
        8
1005
122250
  0
LINE
  5
122251
  8
OBJECT
 10
1925.0
 20
-819.99999999999773
 30
0.0
 11
2075.0
 21
-819.99999999999773
 31
0.0
1001
ACDBBLOCKREPETAG
1070
     1
1071
        9
1005
122251
  0
LINE
  5
122252
  8
OBJECT
 10
1925.0
 20
-819.99999999999773
 30
0.0
 11
1930.0
 21
-859.99999999999784
 31
0.0
1001
ACDBBLOCKREPETAG
1070
     1
1071
       10
1005
122252
  0
LINE
  5
122253
  8
OBJECT
 10
2070.0
 20
-859.99999999999784
 30
0.0
 11
2075.0
 21
-819.99999999999773
 31
0.0
1001
ACDBBLOCKREPETAG
1070
     1
1071
       11
1005
122253
  0
LINE
  5
122254
  8
OBJECT
 10
4202.9999999999854
 20
-137.99999999999841
 30
0.0
 11
4209.9999999999854
 21
-137.99999999999841
 31
0.0
1001
ACDBBLOCKREPETAG
1070
     1
1071
       85
1005
122254
  0
LINE
  5
122255
  8
OBJECT
 10
4209.9999999999854
 20
-137.99999999999841
 30
0.0
 11
4209.9999999999854
 21
-261.99999999999841
 31
0.0
1001
ACDBBLOCKREPETAG
1070
     1
1071
       86
1005
122255
  0
LINE
  5
122256
  8
OBJECT
 10
4209.9999999999854
 20
-261.99999999999841
 30
0.0
 11
4202.9999999999854
 21
-261.99999999999841
 31
0.0
1001
ACDBBLOCKREPETAG
1070
     1
1071
       87
1005
122256
  0
LINE
  5
122257
  8
OBJECT
 10
4202.9999999999854
 20
-261.99999999999841
 30
0.0
 11
4202.9999999999854
 21
-137.99999999999841
 31
0.0
1001
ACDBBLOCKREPETAG
1070
     1
1071
       88
1005
122257
  0
LINE
  5
122258
  8
CENTER
 10
4224.9999999999864
 20
-199.99999999999841
 30
0.0
 11
4080.0
 21
-199.99999999999841
 31
0.0
1001
ACDBBLOCKREPETAG
1070
     1
1071
       89
1005
122258
  0
LINE
  5
122259
  8
OBJECT
 10
4149.9999749641856
 20
-245.0000000000021
 30
0.0
 11
4086.0000000000009
 21
-244.99999999999841
 31
0.0
1001
ACDBBLOCKREPETAG
1070
     1
1071
       90
1005
122259
  0
LINE
  5
12225A
  8
OBJECT
 10
4149.9999749641856
 20
-154.99999999999841
 30
0.0
 11
4086.0000000000009
 21
-154.99999999999841
 31
0.0
1001
ACDBBLOCKREPETAG
1070
     1
1071
       91
1005
12225A
  0
LINE
  5
12225B
  8
OBJECT
 10
4202.9999999999854
 20
-140.99999999999841
 30
0.0
 11
4166.9999999999854
 21
-140.99999999999841
 31
0.0
1001
ACDBBLOCKREPETAG
1070
     1
1071
       92
1005
12225B
  0
LINE
  5
12225C
  8
OBJECT
 10
4166.9999999999854
 20
-140.99999999999841
 30
0.0
 11
4166.9999999999854
 21
-258.99999999999841
 31
0.0
1001
ACDBBLOCKREPETAG
1070
     1
1071
       93
1005
12225C
  0
LINE
  5
12225D
  8
OBJECT
 10
4166.9999999999854
 20
-258.99999999999841
 30
0.0
 11
4202.9999999999854
 21
-258.99999999999841
 31
0.0
1001
ACDBBLOCKREPETAG
1070
     1
1071
       94
1005
12225D
  0
LINE
  5
12225E
  8
OBJECT
 10
4162.9999999999854
 20
-145.49999999999841
 30
0.0
 11
4149.9999999999864
 21
-145.49999999999841
 31
0.0
1001
ACDBBLOCKREPETAG
1070
     1
1071
       95
1005
12225E
  0
LINE
  5
12225F
  8
OBJECT
 10
4149.9999999999864
 20
-254.49999999999841
 30
0.0
 11
4162.9999999999854
 21
-254.49999999999841
 31
0.0
1001
ACDBBLOCKREPETAG
1070
     1
1071
       96
1005
12225F
  0
LINE
  5
122260
  8
OBJECT
 10
4162.9999999999854
 20
-254.49999999999841
 30
0.0
 11
4162.9999999999854
 21
-145.49999999999841
 31
0.0
1001
ACDBBLOCKREPETAG
1070
     1
1071
       97
1005
122260
  0
LINE
  5
122261
  8
OBJECT
 10
4166.9999999999854
 20
-140.99999999999841
 30
0.0
 11
4162.9999999999854
 21
-145.49999999999841
 31
0.0
1001
ACDBBLOCKREPETAG
1070
     1
1071
       98
1005
122261
  0
LINE
  5
122262
  8
OBJECT
 10
4166.9999999999854
 20
-258.99999999999841
 30
0.0
 11
4162.9999999999854
 21
-254.49999999999841
 31
0.0
1001
ACDBBLOCKREPETAG
1070
     1
1071
       99
1005
122262
  0
LINE
  5
122263
  8
OBJECT
 10
4083.0000000000009
 20
-137.99999999999841
 30
0.0
 11
4080.0
 21
-137.99999999999841
 31
0.0
1001
ACDBBLOCKREPETAG
1070
     1
1071
      100
1005
122263
  0
ARC
  5
122264
  8
OBJECT
 10
4083.0000000000009
 20
-140.99999999999841
 30
0.0
 40
3.0
 50
0.0
 51
90.0
1001
ACDBBLOCKREPETAG
1070
     1
1071
      101
1005
122264
  0
LINE
  5
122265
  8
OBJECT
 10
4080.0
 20
-261.99999999999841
 30
0.0
 11
4083.0000000000009
 21
-261.99999999999841
 31
0.0
1001
ACDBBLOCKREPETAG
1070
     1
1071
      102
1005
122265
  0
ARC
  5
122266
  8
OBJECT
 10
4083.0000000000009
 20
-258.99999999999841
 30
0.0
 40
3.0
 50
270.0
 51
0.0
1001
ACDBBLOCKREPETAG
1070
     1
1071
      103
1005
122266
  0
LINE
  5
122267
  8
OBJECT
 10
4086.0000000000009
 20
-258.99999999999841
 30
0.0
 11
4086.0000000000009
 21
-210.3227903203572
 31
0.0
1001
ACDBBLOCKREPETAG
1070
     1
1071
      104
1005
122267
  0
LINE
  5
122268
  8
OBJECT
 10
4086.0000000000009
 20
-189.67720967963959
 30
0.0
 11
4086.0000000000009
 21
-140.99999999999841
 31
0.0
1001
ACDBBLOCKREPETAG
1070
     1
1071
      105
1005
122268
  0
LINE
  5
122269
  8
HIDDEN
 10
4157.9999999999864
 20
-155.49999999999841
 30
0.0
 11
4157.9999999999864
 21
-244.49999999999841
 31
0.0
1001
ACDBBLOCKREPETAG
1070
     1
1071
      106
1005
122269
  0
LINE
  5
12226A
  8
OBJECT
 10
4149.9999749641856
 20
-254.49995092380971
 30
0.0
 11
4149.9999749641856
 21
-145.49995092380979
 31
0.0
1001
ACDBBLOCKREPETAG
1070
     1
1071
      108
1005
12226A
  0
ARC
  5
12226B
  8
OBJECT
 10
4129.8000000000247
 20
-199.99999999999841
 30
0.0
 40
45.000000000000547
 50
90.0
 51
270.0
1001
ACDBBLOCKREPETAG
1070
     1
1071
      109
1005
12226B
  0
LINE
  5
12226C
  8
OBJECT
 10
4202.9999999999854
 20
-483.0
 30
0.0
 11
4209.9999999999854
 21
-483.0
 31
0.0
1001
ACDBBLOCKREPETAG
1070
     1
1071
       83
1005
12226C
  0
LINE
  5
12226D
  8
OBJECT
 10
4209.9999999999854
 20
-483.0
 30
0.0
 11
4209.9999999999854
 21
-607.00000000000011
 31
0.0
1001
ACDBBLOCKREPETAG
1070
     1
1071
       84
1005
12226D
  0
LINE
  5
12226E
  8
OBJECT
 10
4085.9999999999859
 20
-553.3502637757266
 30
0.0
 11
4085.9999999999859
 21
-655.00000000000011
 31
0.0
1001
ACDBBLOCKREPETAG
1070
     1
1071
       85
1005
12226E
  0
LINE
  5
12226F
  8
OBJECT
 10
4209.9999999999854
 20
-607.00000000000011
 30
0.0
 11
4202.9999999999854
 21
-607.00000000000011
 31
0.0
1001
ACDBBLOCKREPETAG
1070
     1
1071
       86
1005
12226F
  0
LINE
  5
122270
  8
OBJECT
 10
4202.9999999999854
 20
-607.00000000000011
 30
0.0
 11
4202.9999999999854
 21
-483.0
 31
0.0
1001
ACDBBLOCKREPETAG
1070
     1
1071
       87
1005
122270
  0
LINE
  5
122271
  8
CENTER
 10
4134.9999999999854
 20
-545.00000000000011
 30
0.0
 11
4224.9999999999864
 21
-545.00000000000011
 31
0.0
1001
ACDBBLOCKREPETAG
1070
     1
1071
       88
1005
122271
  0
LINE
  5
122272
  8
OBJECT
 10
4079.9999999999832
 20
-657.9999999999992
 30
0.0
 11
4082.999999999985
 21
-658.0
 31
0.0
1001
ACDBBLOCKREPETAG
1070
     1
1071
       89
1005
122272
  0
ARC
  5
122273
  8
OBJECT
 10
4082.999999999985
 20
-655.00000000000011
 30
0.0
 40
3.0
 50
270.0
 51
0.0
1001
ACDBBLOCKREPETAG
1070
     1
1071
       90
1005
122273
  0
LINE
  5
122274
  8
OBJECT
 10
4202.9999999999854
 20
-486.00000000000023
 30
0.0
 11
4166.9999999999854
 21
-486.00000000000023
 31
0.0
1001
ACDBBLOCKREPETAG
1070
     1
1071
       91
1005
122274
  0
LINE
  5
122275
  8
OBJECT
 10
4166.9999999999854
 20
-486.00000000000023
 30
0.0
 11
4166.9999999999854
 21
-604.0
 31
0.0
1001
ACDBBLOCKREPETAG
1070
     1
1071
       92
1005
122275
  0
LINE
  5
122276
  8
OBJECT
 10
4162.9999999999854
 20
-490.50000000000023
 30
0.0
 11
4162.9999999999854
 21
-599.5
 31
0.0
1001
ACDBBLOCKREPETAG
1070
     1
1071
       93
1005
122276
  0
LINE
  5
122277
  8
OBJECT
 10
4162.9999999999854
 20
-490.50000000000023
 30
0.0
 11
4149.9999999999864
 21
-490.50000000000023
 31
0.0
1001
ACDBBLOCKREPETAG
1070
     1
1071
       94
1005
122277
  0
LINE
  5
122278
  8
OBJECT
 10
4166.9999999999854
 20
-604.0
 30
0.0
 11
4202.9999999999854
 21
-604.0
 31
0.0
1001
ACDBBLOCKREPETAG
1070
     1
1071
       95
1005
122278
  0
LINE
  5
122279
  8
OBJECT
 10
4166.9999999999854
 20
-486.00000000000023
 30
0.0
 11
4162.9999999999854
 21
-490.50000000000023
 31
0.0
1001
ACDBBLOCKREPETAG
1070
     1
1071
       96
1005
122279
  0
LINE
  5
12227A
  8
OBJECT
 10
4149.9999999999864
 20
-490.50000000000023
 30
0.0
 11
4149.9999999999864
 21
-575.74491827928716
 31
0.0
1001
ACDBBLOCKREPETAG
1070
     1
1071
       97
1005
12227A
  0
ARC
  5
12227B
  8
OBJECT
 10
4152.7999999999838
 20
-585.00000000000011
 30
0.0
 40
85.0
 50
91.887731891831123
 51
143.1301023540934
1001
ACDBBLOCKREPETAG
1070
     1
1071
       98
1005
12227B
  0
LINE
  5
12227C
  8
HIDDEN
 10
4157.9999999999864
 20
-500.5
 30
0.0
 11
4157.9999999999864
 21
-589.50000000000011
 31
0.0
1001
ACDBBLOCKREPETAG
1070
     1
1071
      100
1005
12227C
  0
LINE
  5
12227D
  8
OBJECT
 10
4085.9999999999859
 20
-651.07945073181713
 30
0.0
 11
4156.6313199210299
 21
-599.5
 31
0.0
1001
ACDBBLOCKREPETAG
1070
     1
1071
      101
1005
12227D
  0
LINE
  5
12227E
  8
OBJECT
 10
4079.9999999999832
 20
-533.99999999999909
 30
0.0
 11
4084.7999999999852
 21
-533.99999999999909
 31
0.0
1001
ACDBBLOCKREPETAG
1070
     1
1071
      102
1005
12227E
  0
LINE
  5
12227F
  8
OBJECT
 10
4085.9999999999859
 20
-553.35026377572945
 30
0.0
 11
4084.7999999999852
 21
-533.99999999999909
 31
0.0
1001
ACDBBLOCKREPETAG
1070
     1
1071
      103
1005
12227F
  0
LINE
  5
122280
  8
OBJECT
 10
4162.9999999999854
 20
-599.5
 30
0.0
 11
4156.6313199210299
 21
-599.5
 31
0.0
1001
ACDBBLOCKREPETAG
1070
     1
1071
      104
1005
122280
  0
LINE
  5
122281
  8
OBJECT
 10
4166.9999999999854
 20
-604.0
 30
0.0
 11
4162.9999999999854
 21
-599.5
 31
0.0
1001
ACDBBLOCKREPETAG
1070
     1
1071
      105
1005
122281
  0
LINE
  5
122282
  8
OBJECT
 10
2202.9999999999859
 20
-483.0000000000008
 30
0.0
 11
2209.9999999999859
 21
-483.0000000000008
 31
0.0
1001
ACDBBLOCKREPETAG
1070
     1
1071
       83
1005
122282
  0
LINE
  5
122283
  8
OBJECT
 10
2209.9999999999859
 20
-483.0000000000008
 30
0.0
 11
2209.9999999999859
 21
-607.0000000000008
 31
0.0
1001
ACDBBLOCKREPETAG
1070
     1
1071
       84
1005
122283
  0
LINE
  5
122284
  8
OBJECT
 10
2085.9999999999859
 20
-553.3502637757274
 30
0.0
 11
2085.9999999999859
 21
-655.00000000000068
 31
0.0
1001
ACDBBLOCKREPETAG
1070
     1
1071
       85
1005
122284
  0
LINE
  5
122285
  8
OBJECT
 10
2209.9999999999859
 20
-607.0000000000008
 30
0.0
 11
2202.9999999999859
 21
-607.0000000000008
 31
0.0
1001
ACDBBLOCKREPETAG
1070
     1
1071
       86
1005
122285
  0
LINE
  5
122286
  8
OBJECT
 10
2202.9999999999859
 20
-607.0000000000008
 30
0.0
 11
2202.9999999999859
 21
-483.0000000000008
 31
0.0
1001
ACDBBLOCKREPETAG
1070
     1
1071
       87
1005
122286
  0
LINE
  5
122287
  8
CENTER
 10
2134.9999999999859
 20
-545.0000000000008
 30
0.0
 11
2224.999999999985
 21
-545.0000000000008
 31
0.0
1001
ACDBBLOCKREPETAG
1070
     1
1071
       88
1005
122287
  0
LINE
  5
122288
  8
OBJECT
 10
2079.9999999999809
 20
-658.0
 30
0.0
 11
2082.999999999985
 21
-658.0000000000008
 31
0.0
1001
ACDBBLOCKREPETAG
1070
     1
1071
       89
1005
122288
  0
ARC
  5
122289
  8
OBJECT
 10
2082.999999999985
 20
-655.00000000000068
 30
0.0
 40
3.0
 50
270.0
 51
0.0
1001
ACDBBLOCKREPETAG
1070
     1
1071
       90
1005
122289
  0
LINE
  5
12228A
  8
OBJECT
 10
2202.9999999999859
 20
-486.0000000000008
 30
0.0
 11
2166.9999999999859
 21
-486.0000000000008
 31
0.0
1001
ACDBBLOCKREPETAG
1070
     1
1071
       91
1005
12228A
  0
LINE
  5
12228B
  8
OBJECT
 10
2166.9999999999859
 20
-486.0000000000008
 30
0.0
 11
2166.9999999999859
 21
-604.0000000000008
 31
0.0
1001
ACDBBLOCKREPETAG
1070
     1
1071
       92
1005
12228B
  0
LINE
  5
12228C
  8
OBJECT
 10
2162.9999999999859
 20
-490.5000000000008
 30
0.0
 11
2162.9999999999859
 21
-599.5000000000008
 31
0.0
1001
ACDBBLOCKREPETAG
1070
     1
1071
       93
1005
12228C
  0
LINE
  5
12228D
  8
OBJECT
 10
2162.9999999999859
 20
-490.5000000000008
 30
0.0
 11
2149.9999999999859
 21
-490.5000000000008
 31
0.0
1001
ACDBBLOCKREPETAG
1070
     1
1071
       94
1005
12228D
  0
LINE
  5
12228E
  8
OBJECT
 10
2166.9999999999859
 20
-604.0000000000008
 30
0.0
 11
2202.9999999999859
 21
-604.0000000000008
 31
0.0
1001
ACDBBLOCKREPETAG
1070
     1
1071
       95
1005
12228E
  0
LINE
  5
12228F
  8
OBJECT
 10
2166.9999999999859
 20
-486.0000000000008
 30
0.0
 11
2162.9999999999859
 21
-490.5000000000008
 31
0.0
1001
ACDBBLOCKREPETAG
1070
     1
1071
       96
1005
12228F
  0
LINE
  5
122290
  8
OBJECT
 10
2149.9999999999859
 20
-490.5000000000008
 30
0.0
 11
2149.9999999999859
 21
-575.74491827928784
 31
0.0
1001
ACDBBLOCKREPETAG
1070
     1
1071
       97
1005
122290
  0
ARC
  5
122291
  8
OBJECT
 10
2152.7999999999838
 20
-585.00000000000068
 30
0.0
 40
85.0
 50
91.887731891831123
 51
143.1301023540934
1001
ACDBBLOCKREPETAG
1070
     1
1071
       98
1005
122291
  0
LINE
  5
122292
  8
HIDDEN
 10
2157.9999999999859
 20
-500.5000000000008
 30
0.0
 11
2157.9999999999859
 21
-589.5000000000008
 31
0.0
1001
ACDBBLOCKREPETAG
1070
     1
1071
      100
1005
122292
  0
LINE
  5
122293
  8
OBJECT
 10
2085.9999999999859
 20
-651.07945073181781
 30
0.0
 11
2156.6313199210308
 21
-599.5000000000008
 31
0.0
1001
ACDBBLOCKREPETAG
1070
     1
1071
      101
1005
122293
  0
LINE
  5
122294
  8
OBJECT
 10
2079.9999999999809
 20
-534.0
 30
0.0
 11
2084.7999999999852
 21
-534.0
 31
0.0
1001
ACDBBLOCKREPETAG
1070
     1
1071
      102
1005
122294
  0
LINE
  5
122295
  8
OBJECT
 10
2085.9999999999859
 20
-553.35026377573001
 30
0.0
 11
2084.7999999999852
 21
-534.0
 31
0.0
1001
ACDBBLOCKREPETAG
1070
     1
1071
      103
1005
122295
  0
LINE
  5
122296
  8
OBJECT
 10
2162.9999999999859
 20
-599.5000000000008
 30
0.0
 11
2156.6313199210308
 21
-599.5000000000008
 31
0.0
1001
ACDBBLOCKREPETAG
1070
     1
1071
      104
1005
122296
  0
LINE
  5
122297
  8
OBJECT
 10
2166.9999999999859
 20
-604.0000000000008
 30
0.0
 11
2162.9999999999859
 21
-599.5000000000008
 31
0.0
1001
ACDBBLOCKREPETAG
1070
     1
1071
      105
1005
122297
  0
LINE
  5
122298
  8
OBJECT
 10
2202.9999999999859
 20
-137.99999999999909
 30
0.0
 11
2209.9999999999859
 21
-137.99999999999909
 31
0.0
1001
ACDBBLOCKREPETAG
1070
     1
1071
       85
1005
122298
  0
LINE
  5
122299
  8
OBJECT
 10
2209.9999999999859
 20
-137.99999999999909
 30
0.0
 11
2209.9999999999859
 21
-261.99999999999909
 31
0.0
1001
ACDBBLOCKREPETAG
1070
     1
1071
       86
1005
122299
  0
LINE
  5
12229A
  8
OBJECT
 10
2209.9999999999859
 20
-261.99999999999909
 30
0.0
 11
2202.9999999999859
 21
-261.99999999999909
 31
0.0
1001
ACDBBLOCKREPETAG
1070
     1
1071
       87
1005
12229A
  0
LINE
  5
12229B
  8
OBJECT
 10
2202.9999999999859
 20
-261.99999999999909
 30
0.0
 11
2202.9999999999859
 21
-137.99999999999909
 31
0.0
1001
ACDBBLOCKREPETAG
1070
     1
1071
       88
1005
12229B
  0
LINE
  5
12229C
  8
CENTER
 10
2224.999999999985
 20
-199.99999999999909
 30
0.0
 11
2080.0
 21
-199.99999999999909
 31
0.0
1001
ACDBBLOCKREPETAG
1070
     1
1071
       89
1005
12229C
  0
LINE
  5
12229D
  8
OBJECT
 10
2149.9999749641861
 20
-245.0000000000027
 30
0.0
 11
2086.0
 21
-244.99999999999909
 31
0.0
1001
ACDBBLOCKREPETAG
1070
     1
1071
       90
1005
12229D
  0
LINE
  5
12229E
  8
OBJECT
 10
2149.9999749641861
 20
-154.99999999999909
 30
0.0
 11
2086.0
 21
-154.99999999999909
 31
0.0
1001
ACDBBLOCKREPETAG
1070
     1
1071
       91
1005
12229E
  0
LINE
  5
12229F
  8
OBJECT
 10
2202.9999999999859
 20
-140.99999999999909
 30
0.0
 11
2166.9999999999859
 21
-140.99999999999909
 31
0.0
1001
ACDBBLOCKREPETAG
1070
     1
1071
       92
1005
12229F
  0
LINE
  5
1222A0
  8
OBJECT
 10
2166.9999999999859
 20
-140.99999999999909
 30
0.0
 11
2166.9999999999859
 21
-258.99999999999909
 31
0.0
1001
ACDBBLOCKREPETAG
1070
     1
1071
       93
1005
1222A0
  0
LINE
  5
1222A1
  8
OBJECT
 10
2166.9999999999859
 20
-258.99999999999909
 30
0.0
 11
2202.9999999999859
 21
-258.99999999999909
 31
0.0
1001
ACDBBLOCKREPETAG
1070
     1
1071
       94
1005
1222A1
  0
LINE
  5
1222A2
  8
OBJECT
 10
2162.9999999999859
 20
-145.49999999999909
 30
0.0
 11
2149.9999999999859
 21
-145.49999999999909
 31
0.0
1001
ACDBBLOCKREPETAG
1070
     1
1071
       95
1005
1222A2
  0
LINE
  5
1222A3
  8
OBJECT
 10
2149.9999999999859
 20
-254.49999999999909
 30
0.0
 11
2162.9999999999859
 21
-254.49999999999909
 31
0.0
1001
ACDBBLOCKREPETAG
1070
     1
1071
       96
1005
1222A3
  0
LINE
  5
1222A4
  8
OBJECT
 10
2162.9999999999859
 20
-254.49999999999909
 30
0.0
 11
2162.9999999999859
 21
-145.49999999999909
 31
0.0
1001
ACDBBLOCKREPETAG
1070
     1
1071
       97
1005
1222A4
  0
LINE
  5
1222A5
  8
OBJECT
 10
2166.9999999999859
 20
-140.99999999999909
 30
0.0
 11
2162.9999999999859
 21
-145.49999999999909
 31
0.0
1001
ACDBBLOCKREPETAG
1070
     1
1071
       98
1005
1222A5
  0
LINE
  5
1222A6
  8
OBJECT
 10
2166.9999999999859
 20
-258.99999999999909
 30
0.0
 11
2162.9999999999859
 21
-254.49999999999909
 31
0.0
1001
ACDBBLOCKREPETAG
1070
     1
1071
       99
1005
1222A6
  0
LINE
  5
1222A7
  8
OBJECT
 10
2083.0
 20
-137.99999999999909
 30
0.0
 11
2080.0
 21
-137.99999999999909
 31
0.0
1001
ACDBBLOCKREPETAG
1070
     1
1071
      100
1005
1222A7
  0
ARC
  5
1222A8
  8
OBJECT
 10
2083.0
 20
-140.99999999999909
 30
0.0
 40
3.0
 50
0.0
 51
90.0
1001
ACDBBLOCKREPETAG
1070
     1
1071
      101
1005
1222A8
  0
LINE
  5
1222A9
  8
OBJECT
 10
2080.0
 20
-261.99999999999909
 30
0.0
 11
2083.0
 21
-261.99999999999909
 31
0.0
1001
ACDBBLOCKREPETAG
1070
     1
1071
      102
1005
1222A9
  0
ARC
  5
1222AA
  8
OBJECT
 10
2083.0
 20
-258.99999999999909
 30
0.0
 40
3.0
 50
270.0
 51
0.0
1001
ACDBBLOCKREPETAG
1070
     1
1071
      103
1005
1222AA
  0
LINE
  5
1222AB
  8
OBJECT
 10
2086.0
 20
-258.99999999999909
 30
0.0
 11
2086.0
 21
-210.3227903203578
 31
0.0
1001
ACDBBLOCKREPETAG
1070
     1
1071
      104
1005
1222AB
  0
LINE
  5
1222AC
  8
OBJECT
 10
2086.0
 20
-189.6772096796403
 30
0.0
 11
2086.0
 21
-140.99999999999909
 31
0.0
1001
ACDBBLOCKREPETAG
1070
     1
1071
      105
1005
1222AC
  0
LINE
  5
1222AD
  8
HIDDEN
 10
2157.9999999999859
 20
-155.49999999999909
 30
0.0
 11
2157.9999999999859
 21
-244.49999999999909
 31
0.0
1001
ACDBBLOCKREPETAG
1070
     1
1071
      106
1005
1222AD
  0
LINE
  5
1222AE
  8
OBJECT
 10
2149.9999749641861
 20
-254.4999509238105
 30
0.0
 11
2149.9999749641861
 21
-145.4999509238105
 31
0.0
1001
ACDBBLOCKREPETAG
1070
     1
1071
      108
1005
1222AE
  0
ARC
  5
1222AF
  8
OBJECT
 10
2129.8000000000252
 20
-199.99999999999909
 30
0.0
 40
45.000000000000547
 50
90.0
 51
270.0
1001
ACDBBLOCKREPETAG
1070
     1
1071
      109
1005
1222AF
  0
TEXT
  5
1222B0
  8
SLIM
 10
3824.5999999999999
 20
-1428.999999999997
 30
0.0
 40
28.0
  1
※ 対応スラブ厚　180～320
 41
0.75
  0
TEXT
  5
1222B1
  8
SLIM
 10
3611.5
 20
-1522.3333333333301
 30
0.0
 40
28.0
  1
国土交通大臣認定・（財）日本消防設備安全センター性能評定取得品
 41
0.75
  0
TEXT
  5
1222B2
  8
SLIM
 10
3631.1000000000022
 20
-1568.999999999997
 30
0.0
 40
28.0
  1
注）ご採用にあたり、認定書及び評定書の内容をご確認ください。
 41
0.75
  0
TEXT
  5
1222B3
  8
SLIM
 10
3741.6250000000009
 20
-1367.499999999997
 30
0.0
 40
35.0
  1
片受けスタイル（S）＋シンドカット
 41
0.75
  0
TEXT
  5
1222B4
  8
SLIM
 10
1856.25
 20
-1367.499999999998
 30
0.0
 40
35.0
  1
片受けスタイル（S）
 41
0.75
  0
TEXT
  5
1222B5
  8
SLIM
 10
0.0
 20
369.99999999999989
 30
0.0
 40
100.0
  1
4SRT-Z6-P110-S
 41
0.75
  0
VIEWPORT
  5
F6BA7
 67
     1
  8
0
 10
145.33033752441401
 20
101.8328354358673
 30
0.0
 40
334.0025019414623
 41
222.19657968139651
 68
     1
 69
     1
1001
ACAD
1000
MVIEW
1002
{
1070
    16
1010
0.0
1020
0.0
1030
0.0
1010
0.0
1020
0.0
1030
1.0
1040
0.0
1040
222.19657968139651
1040
145.33033752441401
1040
101.8328354358673
1040
50.0
1040
0.0
1040
0.0
1070
     0
1070
     0
1070
     1
1070
     1
1070
     0
1070
     0
1070
     0
1070
     0
1040
0.0
1040
0.0
1040
0.0
1040
10.0
1040
10.0
1040
10.0
1040
10.0
1070
     0
1002
{
1002
}
1002
}
  0
VIEWPORT
  5
F6BA9
 67
     1
  8
OBJECT
 10
145.3303314447403
 20
101.8328338861465
 30
0.0
 40
232.5285303115844
 41
162.93253421783439
 68
     2
 69
     2
1001
ACAD
1000
MVIEW
1002
{
1070
    16
1010
0.0
1020
0.0
1030
0.0
1010
0.0
1020
0.0
1030
1.0
1040
0.0
1040
25942.55904403147
1040
2377.604457077377
1040
-7591.5176687056619
1040
50.0
1040
0.0
1040
0.0
1070
     0
1070
   600
1070
     1
1070
     1
1070
     0
1070
     0
1070
     0
1070
     0
1040
0.0
1040
0.0
1040
0.0
1040
1.0
1040
1.0
1040
0.0
1040
0.0
1070
     0
1002
{
1002
}
1002
}
  0
ENDSEC
  0
EOF
