  0
SECTION
  2
HEADER
  9
$ACADVER
  1
AC1009
  9
$INSBASE
 10
0.0
 20
0.0
 30
0.0
  9
$EXTMIN
 10
-0.0000000000002274
 20
-3817.4999999999959
 30
0.0
  9
$EXTMAX
 10
5155.0
 20
769.99999999999989
 30
0.0
  9
$LIMMIN
 10
0.0
 20
0.0
  9
$LIMMAX
 10
210.0
 20
297.0
  9
$ORTHOMODE
 70
     0
  9
$REGENMODE
 70
     1
  9
$FILLMODE
 70
     1
  9
$QTEXTMODE
 70
     0
  9
$MIRRTEXT
 70
     0
  9
$DRAGMODE
 70
     2
  9
$LTSCALE
 40
1.0
  9
$OSMODE
 70
  2557
  9
$ATTMODE
 70
     1
  9
$TEXTSIZE
 40
4.0
  9
$TRACEWID
 40
0.05
  9
$TEXTSTYLE
  7
STANDARD
  9
$CLAYER
  8
OBJECT
  9
$CELTYPE
  6
BYLAYER
  9
$CECOLOR
 62
   256
  9
$DIMSCALE
 40
10.0
  9
$DIMASZ
 40
2.0
  9
$DIMEXO
 40
1.0
  9
$DIMDLI
 40
10.0
  9
$DIMRND
 40
0.0
  9
$DIMDLE
 40
0.0
  9
$DIMEXE
 40
1.0
  9
$DIMTP
 40
0.0
  9
$DIMTM
 40
0.0
  9
$DIMTXT
 40
3.2000000000000002
  9
$DIMCEN
 40
0.0
  9
$DIMTSZ
 40
0.0
  9
$DIMTOL
 70
     0
  9
$DIMLIM
 70
     0
  9
$DIMTIH
 70
     0
  9
$DIMTOH
 70
     0
  9
$DIMSE1
 70
     0
  9
$DIMSE2
 70
     0
  9
$DIMTAD
 70
     1
  9
$DIMZIN
 70
     8
  9
$DIMBLK
  1
OPEN30
  9
$DIMASO
 70
     1
  9
$DIMSHO
 70
     1
  9
$DIMPOST
  1

  9
$DIMAPOST
  1

  9
$DIMALT
 70
     0
  9
$DIMALTD
 70
     2
  9
$DIMALTF
 40
25.399999999999999
  9
$DIMLFAC
 40
1.0
  9
$DIMTOFL
 70
     1
  9
$DIMTVP
 40
0.0
  9
$DIMTIX
 70
     0
  9
$DIMSOXD
 70
     0
  9
$DIMSAH
 70
     0
  9
$DIMBLK1
  1

  9
$DIMBLK2
  1

  9
$DIMSTYLE
  2
S10
  9
$DIMCLRD
 70
   256
  9
$DIMCLRE
 70
   256
  9
$DIMCLRT
 70
   256
  9
$DIMTFAC
 40
1.0
  9
$DIMGAP
 40
0.9
  9
$LUNITS
 70
     2
  9
$LUPREC
 70
     2
  9
$SKETCHINC
 40
0.1
  9
$FILLETRAD
 40
0.0
  9
$AUNITS
 70
     0
  9
$AUPREC
 70
     2
  9
$MENU
  1
ACAD
  9
$ELEVATION
 40
0.0
  9
$PELEVATION
 40
0.0
  9
$THICKNESS
 40
0.0
  9
$LIMCHECK
 70
     0
  9
$BLIPMODE
 70
     0
  9
$CHAMFERA
 40
2.0
  9
$CHAMFERB
 40
2.0
  9
$SKPOLY
 70
     0
  9
$TDCREATE
 40
2453095.4929404748
  9
$TDUPDATE
 40
2456581.5498730792
  9
$TDINDWG
 40
19.9319598264
  9
$TDUSRTIMER
 40
19.9319587269
  9
$USRTIMER
 70
     1
  9
$ANGBASE
 50
0.0
  9
$ANGDIR
 70
     0
  9
$PDMODE
 70
    35
  9
$PDSIZE
 40
2.0
  9
$PLINEWID
 40
0.0
  9
$COORDS
 70
     1
  9
$SPLFRAME
 70
     0
  9
$SPLINETYPE
 70
     6
  9
$SPLINESEGS
 70
     8
  9
$ATTDIA
 70
     1
  9
$ATTREQ
 70
     1
  9
$HANDLING
 70
     1
  9
$HANDSEED
  5
1286FC
  9
$SURFTAB1
 70
     6
  9
$SURFTAB2
 70
     6
  9
$SURFTYPE
 70
     6
  9
$SURFU
 70
     6
  9
$SURFV
 70
     6
  9
$UCSNAME
  2

  9
$UCSORG
 10
0.0
 20
0.0
 30
0.0
  9
$UCSXDIR
 10
1.0
 20
0.0
 30
0.0
  9
$UCSYDIR
 10
0.0
 20
1.0
 30
0.0
  9
$PUCSNAME
  2

  9
$PUCSORG
 10
0.0
 20
0.0
 30
0.0
  9
$PUCSXDIR
 10
1.0
 20
0.0
 30
0.0
  9
$PUCSYDIR
 10
0.0
 20
1.0
 30
0.0
  9
$USERI1
 70
     0
  9
$USERI2
 70
     0
  9
$USERI3
 70
     0
  9
$USERI4
 70
     0
  9
$USERI5
 70
     0
  9
$USERR1
 40
0.0
  9
$USERR2
 40
0.0
  9
$USERR3
 40
0.0
  9
$USERR4
 40
0.0
  9
$USERR5
 40
0.0
  9
$WORLDVIEW
 70
     1
  9
$SHADEDGE
 70
     3
  9
$SHADEDIF
 70
    70
  9
$TILEMODE
 70
     1
  9
$MAXACTVP
 70
    64
  9
$PLIMCHECK
 70
     0
  9
$PEXTMIN
 10
29.066066288948051
 20
20.366566777229309
 30
0.0
  9
$PEXTMAX
 10
261.5945966005325
 20
183.29910099506381
 30
0.0
  9
$PLIMMIN
 10
-3.17498779296875
 20
-3.1749999523162842
  9
$PLIMMAX
 10
293.83566284179687
 20
206.8406708240509
  9
$UNITMODE
 70
     0
  9
$VISRETAIN
 70
     1
  9
$PLINEGEN
 70
     0
  9
$PSLTSCALE
 70
     1
  0
ENDSEC
  0
SECTION
  2
TABLES
  0
TABLE
  2
VPORT
 70
     1
  0
VPORT
  2
*ACTIVE
 70
     0
 10
0.0
 20
0.0
 11
1.0
 21
1.0
 12
2297.9553747366199
 22
-566.25019115202838
 13
0.0
 23
0.0
 14
1.0
 24
1.0
 15
0.0
 25
0.0
 16
0.0
 26
0.0
 36
1.0
 17
0.0
 27
0.0
 37
0.0
 40
2997.7052919607931
 41
1.964560862865947
 42
50.0
 43
0.0
 44
0.0
 50
0.0
 51
0.0
 71
     0
 72
   600
 73
     1
 74
     1
 75
     0
 76
     0
 77
     0
 78
     0
  0
ENDTAB
  0
TABLE
  2
LTYPE
 70
     3
  0
LTYPE
  2
CONTINUOUS
 70
     0
  3
Solid line
 72
    65
 73
     0
 40
0.0
  0
LTYPE
  2
ACAD_ISO08W100
 70
     0
  3
ISO long-dash short-dash ____ __ ____ __ ____ _
 72
    65
 73
     4
 40
36.0
 49
24.0
 49
-3.0
 49
6.0
 49
-3.0
  0
LTYPE
  2
ACAD_ISO02W100
 70
     0
  3
ISO dash __ __ __ __ __ __ __ __ __ __ __ __ __
 72
    65
 73
     2
 40
15.0
 49
12.0
 49
-3.0
  0
ENDTAB
  0
TABLE
  2
LAYER
 70
     8
  0
LAYER
  2
0
 70
     0
 62
     7
  6
CONTINUOUS
  0
LAYER
  2
OBJECT
 70
     0
 62
     4
  6
CONTINUOUS
  0
LAYER
  2
DEFPOINTS
 70
     0
 62
     7
  6
CONTINUOUS
  0
LAYER
  2
DIM
 70
     0
 62
     7
  6
CONTINUOUS
  0
LAYER
  2
HIDDEN
 70
     0
 62
     2
  6
ACAD_ISO02W100
  0
LAYER
  2
CENTER
 70
     0
 62
     2
  6
ACAD_ISO08W100
  0
LAYER
  2
DOTS
 70
     0
 62
     1
  6
CONTINUOUS
  0
LAYER
  2
SLIM
 70
     0
 62
     2
  6
CONTINUOUS
  0
ENDTAB
  0
TABLE
  2
STYLE
 70
     2
  0
STYLE
  2
STANDARD
 70
     0
 40
0.0
 41
0.75
 50
0.0
 71
     0
 42
4.0
  3
simplex.shx
  4
bigfont.shx
  0
ENDTAB
  0
TABLE
  2
VIEW
 70
     0
  0
ENDTAB
  0
TABLE
  2
UCS
 70
     0
  0
ENDTAB
  0
TABLE
  2
APPID
 70
    20
  0
APPID
  2
ACAD
 70
     0
  0
APPID
  2
ACADANNOTATIVE
 70
     0
  0
APPID
  2
ACAD_PSEXT
 70
     0
  0
APPID
  2
ACAD_EXEMPT_FROM_CAD_STANDARDS
 70
     0
  0
APPID
  2
ACAECLAYERSTANDARD
 70
     0
  0
APPID
  2
ACAUTHENVIRON
 70
     0
  0
APPID
  2
ACDBDYNAMICBLOCKTRUENAME
 70
     0
  0
APPID
  2
ACDBDYNAMICBLOCKGUID
 70
     0
  0
APPID
  2
ACDBBLOCKREPETAG
 70
     0
  0
APPID
  2
ACDBBLOCKREPBTAG
 70
     0
  0
APPID
  2
ACAD_NAV_VCDISPLAY
 70
     0
  0
APPID
  2
ACAD_DSTYLE_DIMRADIAL_EXTENSION
 70
     0
  0
APPID
  2
ACAD_DSTYLE_DIMJAG
 70
     0
  0
APPID
  2
ACAD_DSTYLE_DIMTALN
 70
     0
  0
APPID
  2
ACADANNOPO
 70
     0
  0
APPID
  2
GRADIENTCOLOR1ACI
 70
     0
  0
APPID
  2
GRADIENTCOLOR2ACI
 70
     0
  0
APPID
  2
ACADANNOMONITORALERTICONDI
 70
     0
  0
APPID
  2
CONTENTBLOCKICON
 70
     0
  0
APPID
  2
ACAD_MLEADERVER
 70
     0
  0
ENDTAB
  0
TABLE
  2
DIMSTYLE
 70
     3
  0
DIMSTYLE
  2
STANDARD
 70
     0
  3

  4

  5

  6

  7

 40
1.0
 41
0.18
 42
0.0625
 43
0.38
 44
0.18
 45
0.0
 46
0.0
 47
0.0
 48
0.0
140
0.18
141
0.09
142
0.0
143
25.399999999999999
144
1.0
145
0.0
146
1.0
147
0.09
 71
     0
 72
     0
 73
     1
 74
     1
 75
     0
 76
     0
 77
     0
 78
     0
170
     0
171
     2
172
     0
173
     0
174
     0
175
     0
176
     0
177
     0
178
     0
  0
DIMSTYLE
  2
S10
 70
     0
  3

  4

  5

  6

  7

 40
10.0
 41
2.0
 42
1.0
 43
10.0
 44
1.0
 45
0.0
 46
0.0
 47
0.0
 48
0.0
140
3.2000000000000002
141
0.0
142
0.0
143
25.399999999999999
144
1.0
145
0.0
146
1.0
147
0.9
 71
     0
 72
     0
 73
     0
 74
     0
 75
     0
 76
     0
 77
     1
 78
     8
170
     0
171
     2
172
     1
173
     0
174
     0
175
     0
176
   256
177
   256
178
   256
  0
ENDTAB
  0
ENDSEC
  0
SECTION
  2
BLOCKS
  0
BLOCK
  8
0
  2
$MODEL_SPACE
 70
     0
 10
0.0
 20
0.0
 30
0.0
  3
$MODEL_SPACE
  1

  0
ENDBLK
  5
128648
  8
0
  0
BLOCK
 67
     1
  8
0
  2
$PAPER_SPACE
 70
     0
 10
0.0
 20
0.0
 30
0.0
  3
$PAPER_SPACE
  1

  0
ENDBLK
  5
128644
 67
     1
  8
0
  0
BLOCK
  8
0
  2
_OPEN30
 70
     0
 10
0.0
 20
0.0
 30
0.0
  3
_OPEN30
  1

  0
LINE
  5
202
  8
0
  6
BYBLOCK
 62
     0
 10
-1.0
 20
0.26794919
 30
0.0
 11
0.0
 21
0.0
 31
0.0
  0
LINE
  5
203
  8
0
  6
BYBLOCK
 62
     0
 10
0.0
 20
0.0
 30
0.0
 11
-1.0
 21
-0.26794919
 31
0.0
  0
LINE
  5
204
  8
0
  6
BYBLOCK
 62
     0
 10
0.0
 20
0.0
 30
0.0
 11
-1.0
 21
0.0
 31
0.0
  0
ENDBLK
  5
206
  8
0
  0
BLOCK
  8
0
  2
*U3
 70
     1
 10
0.0
 20
0.0
 30
0.0
  3
*U3
  1

  0
TEXT
  5
128465
  8
SLIM
 10
112.9999999999997
 20
-1481.047619047619
 30
0.0
 40
26.0
  1
75
 50
90.0
  0
ENDBLK
  5
128467
  8
0
  0
BLOCK
  8
0
  2
*U4
 70
     1
 10
0.0
 20
0.0
 30
0.0
  3
*U4
  1

  0
TEXT
  5
128469
  8
SLIM
 10
472.99999999999949
 20
-1017.047619047619
 30
0.0
 40
26.0
  1
65
 50
90.0
  0
ENDBLK
  5
12846B
  8
0
  0
BLOCK
  8
0
  2
*U5
 70
     1
 10
0.0
 20
0.0
 30
0.0
  3
*U5
  1

  0
TEXT
  5
12846D
  8
SLIM
 10
112.9999999999997
 20
-1017.047619047619
 30
0.0
 40
26.0
  1
50
 50
90.0
  0
ENDBLK
  5
12846F
  8
0
  0
BLOCK
  8
0
  2
*U6
 70
     1
 10
0.0
 20
0.0
 30
0.0
  3
*U6
  1

  0
TEXT
  5
128471
  8
DIM
 10
4334.1164560757752
 20
-1132.7428571428511
 30
0.0
 40
32.0
  1
390-P（シンドカット）
 50
90.0
 41
0.75
  0
ENDBLK
  5
128473
  8
0
  0
BLOCK
  8
0
  2
*U7
 70
     1
 10
0.0
 20
0.0
 30
0.0
  3
*U7
  1

  0
TEXT
  5
128475
  8
DIM
 10
4700.4245816727553
 20
-779.00000000000239
 30
0.0
 40
32.0
  1
P
 50
90.0
 41
0.75
  0
ENDBLK
  5
128477
  8
0
  0
BLOCK
  8
0
  2
*U8
 70
     1
 10
0.0
 20
0.0
 30
0.0
  3
*U8
  1

  0
TEXT
  5
128479
  8
DIM
 10
2700.4245816727562
 20
-778.99999999999682
 30
0.0
 40
32.0
  1
P
 50
90.0
 41
0.75
  0
ENDBLK
  5
12847B
  8
0
  0
BLOCK
  8
0
  2
*U9
 70
     1
 10
0.0
 20
0.0
 30
0.0
  3
*U9
  1

  0
TEXT
  5
12847D
  8
DIM
 10
2709.4796205944631
 20
-3304.1428571428528
 30
0.0
 40
32.0
  1
A
 50
90.0
 41
0.75
  0
ENDBLK
  5
12847F
  8
0
  0
BLOCK
  8
0
  2
*U10
 70
     1
 10
0.0
 20
0.0
 30
0.0
  3
*U10
  1

  0
TEXT
  5
128481
  8
DIM
 10
2707.8409284037348
 20
-3685.9999999999968
 30
0.0
 40
32.0
  1
B
 50
90.0
 41
0.75
  0
ENDBLK
  5
128483
  8
0
  0
BLOCK
  8
0
  2
*U11
 70
     1
 10
0.0
 20
0.0
 30
0.0
  3
*U11
  1

  0
TEXT
  5
128485
  8
DIM
 10
2561.428571428572
 20
-3158.208121984444
 30
0.0
 40
32.0
  1
C
 41
0.75
  0
ENDBLK
  5
128487
  8
0
  0
BLOCK
  8
0
  2
*U12
 70
     1
 10
0.0
 20
0.0
 30
0.0
  3
*U12
  1

  0
TEXT
  5
12849D
  8
SLIM
 10
158.9523809524228
 20
-130.00000000017181
 30
0.0
 40
26.0
  1
75
  0
ENDBLK
  5
12849F
  8
0
  0
ENDSEC
  0
SECTION
  2
ENTITIES
  0
LINE
  5
1251AE
  8
OBJECT
 10
2325.0000000000009
 20
-3699.9999999999968
 30
0.0
 11
5075.0000000000009
 21
-3699.9999999999968
 31
0.0
  0
LINE
  5
1251B0
  8
SLIM
 10
3256.0
 20
-2757.50001604727
 30
0.0
 11
3256.0
 21
-3087.50001604727
 31
0.0
  0
LINE
  5
1251B1
  8
SLIM
 10
3380.0000000000009
 20
-2757.50001604727
 30
0.0
 11
3380.0000000000009
 21
-3087.50001604727
 31
0.0
  0
LINE
  5
1251B2
  8
SLIM
 10
3510.0000000000018
 20
-2817.5000160472709
 30
0.0
 11
3510.0000000000018
 21
-3087.50001604727
 31
0.0
  0
LINE
  5
1251B3
  8
SLIM
 10
3640.0000000000009
 20
-2817.5000160472709
 30
0.0
 11
3640.0000000000009
 21
-3087.50001604727
 31
0.0
  0
LINE
  5
1251B4
  8
SLIM
 10
3770.0
 20
-3087.50001604727
 30
0.0
 11
3770.0
 21
-2757.50001604727
 31
0.0
  0
LINE
  5
1251B5
  8
SLIM
 10
3770.0
 20
-2757.50001604727
 30
0.0
 11
3256.0
 21
-2757.50001604727
 31
0.0
  0
LINE
  5
1251B6
  8
SLIM
 10
3770.0
 20
-2817.5000160472709
 30
0.0
 11
3380.0000000000009
 21
-2817.5000160472709
 31
0.0
  0
LINE
  5
1251B7
  8
SLIM
 10
3770.0
 20
-2877.5000160472709
 30
0.0
 11
3256.0
 21
-2877.5000160472709
 31
0.0
  0
LINE
  5
1251B8
  8
SLIM
 10
3770.0
 20
-2947.5000160472709
 30
0.0
 11
3256.0
 21
-2947.5000160472709
 31
0.0
  0
LINE
  5
1251B9
  8
SLIM
 10
3770.0
 20
-3017.5000160472709
 30
0.0
 11
3256.0
 21
-3017.5000160472709
 31
0.0
  0
LINE
  5
1251BA
  8
SLIM
 10
3770.0
 20
-3087.50001604727
 30
0.0
 11
3256.0
 21
-3087.50001604727
 31
0.0
  0
LINE
  5
1251CB
  8
SLIM
 10
3380.0000000000009
 20
-2877.5000160472709
 30
0.0
 11
3255.9999722746579
 21
-2757.5000000000018
 31
0.0
  0
LINE
  5
1251CF
  8
CENTER
 10
2580.0
 20
-3294.9999999999968
 30
0.0
 11
2410.0
 21
-3294.9999999999968
 31
0.0
1001
ACDBBLOCKREPETAG
1070
     1
1071
       14
1005
0
  0
LINE
  5
1251D0
  8
CENTER
 10
2500.0
 20
-3384.9999999999968
 30
0.0
 11
2500.0
 21
-3204.9999999999959
 31
0.0
1001
ACDBBLOCKREPETAG
1070
     1
1071
       15
1005
0
  0
CIRCLE
  5
1251D1
  8
OBJECT
 10
2500.0
 20
-3294.9999999999968
 30
0.0
 40
70.0
1001
ACDBBLOCKREPETAG
1070
     1
1071
       16
1005
0
  0
CIRCLE
  5
1251D2
  8
OBJECT
 10
2500.0
 20
-3294.9999999999968
 30
0.0
 40
75.0
1001
ACDBBLOCKREPETAG
1070
     1
1071
       17
1005
0
  0
LINE
  5
1251DA
  8
CENTER
 10
2500.0
 20
-3479.9999999999991
 30
0.0
 11
2500.0
 21
-3726.9999999999991
 31
0.0
1001
ACDBBLOCKREPETAG
1070
     1
1071
       25
1005
1251DA
  0
LINE
  5
1251DB
  8
OBJECT
 10
2425.0000000000009
 20
-3494.9999999999968
 30
0.0
 11
2425.0000000000009
 21
-3714.9999999999968
 31
0.0
1001
ACDBBLOCKREPETAG
1070
     1
1071
       26
1005
1251DB
  0
LINE
  5
1251DC
  8
OBJECT
 10
2575.0000000000009
 20
-3494.9999999999968
 30
0.0
 11
2575.0000000000009
 21
-3591.5000000000618
 31
0.0
1001
ACDBBLOCKREPETAG
1070
     1
1071
       34
1005
1251DC
  0
LINE
  5
1251E4
  8
OBJECT
 10
2575.0000000000009
 20
-3697.4999999999991
 30
0.0
 11
2575.0000000000009
 21
-3714.9999999999968
 31
0.0
1001
ACDBBLOCKREPETAG
1070
     1
1071
       34
1005
1251DC
  0
LINE
  5
1251E5
  8
CENTER
 10
2900.0
 20
-3479.9999999999991
 30
0.0
 11
2900.0
 21
-3726.9999999999991
 31
0.0
1001
ACDBBLOCKREPETAG
1070
     1
1071
       25
1005
1251DA
  0
LINE
  5
1251E6
  8
OBJECT
 10
2825.0000000000009
 20
-3494.9999999999968
 30
0.0
 11
2825.0000000000009
 21
-3714.9999999999968
 31
0.0
1001
ACDBBLOCKREPETAG
1070
     1
1071
       26
1005
1251DB
  0
LINE
  5
1251E7
  8
OBJECT
 10
2975.0000000000009
 20
-3494.9999999999968
 30
0.0
 11
2975.0
 21
-3714.9999999999982
 31
0.0
1001
ACDBBLOCKREPETAG
1070
     1
1071
       34
1005
1251DC
  0
LINE
  5
1251EF
  8
CENTER
 10
3580.0
 20
-3294.9999999999968
 30
0.0
 11
3410.0
 21
-3294.9999999999968
 31
0.0
1001
ACDBBLOCKREPETAG
1070
     1
1071
       14
1005
0
  0
LINE
  5
1251F0
  8
CENTER
 10
3500.0
 20
-3384.9999999999968
 30
0.0
 11
3500.0
 21
-3204.9999999999959
 31
0.0
1001
ACDBBLOCKREPETAG
1070
     1
1071
       15
1005
0
  0
CIRCLE
  5
1251F1
  8
OBJECT
 10
3500.0
 20
-3294.9999999999968
 30
0.0
 40
70.0
1001
ACDBBLOCKREPETAG
1070
     1
1071
       16
1005
0
  0
CIRCLE
  5
1251F2
  8
OBJECT
 10
3500.0
 20
-3294.9999999999968
 30
0.0
 40
75.0
1001
ACDBBLOCKREPETAG
1070
     1
1071
       17
1005
0
  0
LINE
  5
1251FA
  8
CENTER
 10
3500.0000000000018
 20
-3479.9999999999991
 30
0.0
 11
3500.0000000000018
 21
-3726.9999999999991
 31
0.0
1001
ACDBBLOCKREPETAG
1070
     1
1071
       25
1005
1251DA
  0
LINE
  5
1251FB
  8
OBJECT
 10
3425.0000000000018
 20
-3494.9999999999968
 30
0.0
 11
3425.0000000000018
 21
-3714.9999999999968
 31
0.0
1001
ACDBBLOCKREPETAG
1070
     1
1071
       26
1005
1251DB
  0
LINE
  5
1251FC
  8
OBJECT
 10
3575.0000000000009
 20
-3494.9999999999968
 30
0.0
 11
3575.0000000000009
 21
-3591.5000000000618
 31
0.0
1001
ACDBBLOCKREPETAG
1070
     1
1071
       34
1005
1251DC
  0
LINE
  5
1251FD
  8
OBJECT
 10
3575.0000000000009
 20
-3697.4999999999991
 30
0.0
 11
3575.0000000000009
 21
-3714.9999999999968
 31
0.0
1001
ACDBBLOCKREPETAG
1070
     1
1071
       34
1005
1251DC
  0
LINE
  5
125205
  8
CENTER
 10
3900.0000000000018
 20
-3479.9999999999991
 30
0.0
 11
3900.0000000000018
 21
-3726.9999999999991
 31
0.0
1001
ACDBBLOCKREPETAG
1070
     1
1071
       25
1005
1251DA
  0
LINE
  5
125206
  8
OBJECT
 10
3825.0000000000009
 20
-3494.9999999999968
 30
0.0
 11
3825.0000000000009
 21
-3714.9999999999968
 31
0.0
1001
ACDBBLOCKREPETAG
1070
     1
1071
       26
1005
1251DB
  0
LINE
  5
125207
  8
OBJECT
 10
3975.0000000000009
 20
-3494.9999999999968
 30
0.0
 11
3975.0
 21
-3714.9999999999982
 31
0.0
1001
ACDBBLOCKREPETAG
1070
     1
1071
       34
1005
1251DC
  0
LINE
  5
12520F
  8
CENTER
 10
4580.0
 20
-3294.9999999999968
 30
0.0
 11
4410.0
 21
-3294.9999999999968
 31
0.0
1001
ACDBBLOCKREPETAG
1070
     1
1071
       14
1005
0
  0
LINE
  5
125210
  8
CENTER
 10
4500.0
 20
-3384.9999999999968
 30
0.0
 11
4500.0
 21
-3204.9999999999959
 31
0.0
1001
ACDBBLOCKREPETAG
1070
     1
1071
       15
1005
0
  0
CIRCLE
  5
125211
  8
OBJECT
 10
4500.0
 20
-3294.9999999999968
 30
0.0
 40
70.0
1001
ACDBBLOCKREPETAG
1070
     1
1071
       16
1005
0
  0
CIRCLE
  5
125212
  8
OBJECT
 10
4500.0
 20
-3294.9999999999968
 30
0.0
 40
75.0
1001
ACDBBLOCKREPETAG
1070
     1
1071
       17
1005
0
  0
LINE
  5
12521A
  8
CENTER
 10
4500.0
 20
-3479.9999999999991
 30
0.0
 11
4500.0
 21
-3726.9999999999991
 31
0.0
1001
ACDBBLOCKREPETAG
1070
     1
1071
       25
1005
1251DA
  0
LINE
  5
12521B
  8
OBJECT
 10
4425.0
 20
-3494.9999999999968
 30
0.0
 11
4425.0
 21
-3714.9999999999968
 31
0.0
1001
ACDBBLOCKREPETAG
1070
     1
1071
       26
1005
1251DB
  0
LINE
  5
12521C
  8
OBJECT
 10
4575.0000000000009
 20
-3494.9999999999968
 30
0.0
 11
4575.0000000000009
 21
-3591.5000000000618
 31
0.0
1001
ACDBBLOCKREPETAG
1070
     1
1071
       34
1005
1251DC
  0
LINE
  5
12521D
  8
OBJECT
 10
4575.0000000000009
 20
-3697.4999999999991
 30
0.0
 11
4575.0000000000009
 21
-3714.9999999999968
 31
0.0
1001
ACDBBLOCKREPETAG
1070
     1
1071
       34
1005
1251DC
  0
LINE
  5
125225
  8
CENTER
 10
4900.0000000000009
 20
-3479.9999999999991
 30
0.0
 11
4900.0000000000009
 21
-3726.9999999999991
 31
0.0
1001
ACDBBLOCKREPETAG
1070
     1
1071
       25
1005
1251DA
  0
LINE
  5
125226
  8
OBJECT
 10
4825.0000000000009
 20
-3494.9999999999968
 30
0.0
 11
4825.0000000000009
 21
-3714.9999999999968
 31
0.0
1001
ACDBBLOCKREPETAG
1070
     1
1071
       26
1005
1251DB
  0
LINE
  5
125227
  8
OBJECT
 10
4975.0000000000009
 20
-3494.9999999999968
 30
0.0
 11
4975.0
 21
-3714.9999999999982
 31
0.0
1001
ACDBBLOCKREPETAG
1070
     1
1071
       34
1005
1251DC
  0
POINT
  5
12522F
  8
DOTS
 10
2500.0
 20
-3294.9999999999968
 30
0.0
  0
POINT
  5
125230
  8
DOTS
 10
2500.0
 20
-3699.9999999999968
 30
0.0
  0
POINT
  5
125231
  8
DOTS
 10
3500.0000000000018
 20
-3699.9999999999968
 30
0.0
  0
POINT
  5
125232
  8
DOTS
 10
3500.0
 20
-3294.9999999999968
 30
0.0
  0
POINT
  5
125233
  8
DOTS
 10
4500.0
 20
-3294.9999999999968
 30
0.0
  0
POINT
  5
125234
  8
DOTS
 10
4500.0
 20
-3699.9999999999968
 30
0.0
  0
LINE
  5
127ECA
  8
OBJECT
 10
2555.0
 20
-66.999999999999034
 30
0.0
 11
2555.0
 21
-59.999999999999041
 31
0.0
1001
ACDBBLOCKREPETAG
1070
     1
1071
       20
1005
127ECA
  0
LINE
  5
127ECB
  8
OBJECT
 10
2555.0
 20
-59.999999999999041
 30
0.0
 11
2445.0
 21
-59.999999999999091
 31
0.0
1001
ACDBBLOCKREPETAG
1070
     1
1071
       21
1005
127ECB
  0
LINE
  5
127ECC
  8
OBJECT
 10
2445.0
 20
-59.999999999999091
 30
0.0
 11
2445.0
 21
-66.999999999999091
 31
0.0
1001
ACDBBLOCKREPETAG
1070
     1
1071
       22
1005
127ECC
  0
LINE
  5
127ECD
  8
OBJECT
 10
2445.0
 20
-66.999999999999091
 30
0.0
 11
2555.0
 21
-66.999999999999034
 31
0.0
1001
ACDBBLOCKREPETAG
1070
     1
1071
       23
1005
127ECD
  0
LINE
  5
127ECE
  8
CENTER
 10
2500.0
 20
-44.999999999999091
 30
0.0
 11
2500.0
 21
-119.9999999999991
 31
0.0
1001
ACDBBLOCKREPETAG
1070
     1
1071
       24
1005
127ECE
  0
LINE
  5
127ECF
  8
OBJECT
 10
2552.0
 20
-66.999999999999034
 30
0.0
 11
2552.0
 21
-102.99999999999901
 31
0.0
1001
ACDBBLOCKREPETAG
1070
     1
1071
       25
1005
127ECF
  0
LINE
  5
127ED0
  8
OBJECT
 10
2552.0
 20
-102.99999999999901
 30
0.0
 11
2448.0
 21
-102.9999999999991
 31
0.0
1001
ACDBBLOCKREPETAG
1070
     1
1071
       26
1005
127ED0
  0
LINE
  5
127ED1
  8
OBJECT
 10
2448.0
 20
-102.9999999999991
 30
0.0
 11
2448.0
 21
-66.999999999999091
 31
0.0
1001
ACDBBLOCKREPETAG
1070
     1
1071
       27
1005
127ED1
  0
LINE
  5
127ED2
  8
OBJECT
 10
2547.5
 20
-106.99999999999901
 30
0.0
 11
2547.5
 21
-115.49999999999901
 31
0.0
1001
ACDBBLOCKREPETAG
1070
     1
1071
       28
1005
127ED2
  0
LINE
  5
127ED3
  8
OBJECT
 10
2452.5000000000009
 20
-115.4999999999991
 30
0.0
 11
2452.5000000000009
 21
-106.9999999999991
 31
0.0
1001
ACDBBLOCKREPETAG
1070
     1
1071
       29
1005
127ED3
  0
LINE
  5
127ED4
  8
OBJECT
 10
2452.5000000000009
 20
-106.9999999999991
 30
0.0
 11
2547.5
 21
-106.99999999999901
 31
0.0
1001
ACDBBLOCKREPETAG
1070
     1
1071
       30
1005
127ED4
  0
LINE
  5
127ED5
  8
OBJECT
 10
2552.0
 20
-102.99999999999901
 30
0.0
 11
2547.5
 21
-106.99999999999901
 31
0.0
1001
ACDBBLOCKREPETAG
1070
     1
1071
       31
1005
127ED5
  0
LINE
  5
127ED6
  8
OBJECT
 10
2448.0
 20
-102.9999999999991
 30
0.0
 11
2452.5000000000009
 21
-106.9999999999991
 31
0.0
1001
ACDBBLOCKREPETAG
1070
     1
1071
       32
1005
127ED6
  0
LINE
  5
127ED7
  8
OBJECT
 10
2450.5
 20
-115.5000000000009
 30
0.0
 11
2549.5
 21
-115.49999999999901
 31
0.0
1001
ACDBBLOCKREPETAG
1070
     1
1071
       33
1005
127ED7
  0
LINE
  5
127ED8
  8
HIDDEN
 10
2538.0
 20
-111.9999999999991
 30
0.0
 11
2462.0
 21
-111.9999999999991
 31
0.0
1001
ACDBBLOCKREPETAG
1070
     1
1071
       34
1005
127ED8
  0
LINE
  5
127ED9
  8
OBJECT
 10
2549.5
 20
-115.49999999999901
 30
0.0
 11
2549.5
 21
-137.99999999999909
 31
0.0
1001
ACDBBLOCKREPETAG
1070
     1
1071
       35
1005
127ED9
  0
LINE
  5
127EDA
  8
OBJECT
 10
2450.5
 20
-115.5000000000009
 30
0.0
 11
2450.5
 21
-141.0190708787992
 31
0.0
1001
ACDBBLOCKREPETAG
1070
     1
1071
       36
1005
127EDA
  0
CIRCLE
  5
127EE2
  8
OBJECT
 10
2500.0
 20
-199.99999999999909
 30
0.0
 40
53.5
1001
ACDBBLOCKREPETAG
1070
     1
1071
      344
1005
127EE2
  0
POINT
  5
127EE3
  8
DOTS
 10
2500.0
 20
-199.99999999999909
 30
0.0
 50
270.0
1001
ACDBBLOCKREPETAG
1070
     1
1071
      362
1005
127EE3
  0
LINE
  5
127EE5
  8
CENTER
 10
2580.0
 20
-199.99999999999909
 30
0.0
 11
2405.0
 21
-199.99999999999909
 31
0.0
1001
ACDBBLOCKREPETAG
1070
     1
1071
       14
1005
127EE5
  0
LINE
  5
127EE6
  8
CENTER
 10
2500.0
 20
-294.99999999999892
 30
0.0
 11
2500.0
 21
-104.9999999999991
 31
0.0
1001
ACDBBLOCKREPETAG
1070
     1
1071
       15
1005
127EE6
  0
CIRCLE
  5
127EE7
  8
OBJECT
 10
2500.0
 20
-199.99999999999909
 30
0.0
 40
70.0
1001
ACDBBLOCKREPETAG
1070
     1
1071
       16
1005
127EE7
  0
CIRCLE
  5
127EE8
  8
OBJECT
 10
2500.0
 20
-199.99999999999909
 30
0.0
 40
77.0
1001
ACDBBLOCKREPETAG
1070
     1
1071
       17
1005
127EE8
  0
ARC
  5
127EE9
  8
OBJECT
 10
2500.0
 20
-199.99999999999909
 30
0.0
 40
80.0
 50
128.22491020155491
 51
309.19496742613791
1001
ACDBBLOCKREPETAG
1070
     1
1071
       18
1005
127EE9
  0
LINE
  5
127EEA
  8
OBJECT
 10
2545.6618002273249
 20
-137.99999999999909
 30
0.0
 11
2580.0
 21
-137.99999999999909
 31
0.0
1001
ACDBBLOCKREPETAG
1070
     1
1071
       19
1005
127EEA
  0
LINE
  5
127EEB
  8
OBJECT
 10
2545.6618002273249
 20
-261.99999999999909
 30
0.0
 11
2580.0
 21
-261.99999999999909
 31
0.0
1001
ACDBBLOCKREPETAG
1070
     1
1071
       20
1005
127EEB
  0
ARC
  5
127EEC
  8
OBJECT
 10
2500.0
 20
-199.99999999999909
 30
0.0
 40
80.0
 50
50.805032573862128
 51
51.775089798445073
1001
ACDBBLOCKREPETAG
1070
     1
1071
       18
1005
127EE9
  0
LINE
  5
127EFC
  8
CENTER
 10
4580.0
 20
-199.99999999999909
 30
0.0
 11
4400.0
 21
-199.99999999999909
 31
0.0
1001
ACDBBLOCKREPETAG
1070
     1
1071
       14
1005
0
  0
LINE
  5
127EFD
  8
CENTER
 10
4500.0
 20
-299.99999999999892
 30
0.0
 11
4500.0
 21
-99.999999999999091
 31
0.0
1001
ACDBBLOCKREPETAG
1070
     1
1071
       15
1005
0
  0
CIRCLE
  5
127EFE
  8
OBJECT
 10
4500.0
 20
-199.99999999999909
 30
0.0
 40
53.5
1001
ACDBBLOCKREPETAG
1070
     1
1071
      344
1005
0
  0
POINT
  5
127EFF
  8
DOTS
 10
4500.0
 20
-199.99999999999909
 30
0.0
 50
270.0
1001
ACDBBLOCKREPETAG
1070
     1
1071
      362
1005
0
  0
CIRCLE
  5
127F00
  8
OBJECT
 10
4500.0
 20
-199.99999999999909
 30
0.0
 40
70.0
1001
ACDBBLOCKREPETAG
1070
     1
1071
       16
1005
0
  0
CIRCLE
  5
127F01
  8
OBJECT
 10
4500.0
 20
-199.99999999999909
 30
0.0
 40
77.0
1001
ACDBBLOCKREPETAG
1070
     1
1071
       17
1005
0
  0
LINE
  5
127F02
  8
OBJECT
 10
4545.6618002273244
 20
-261.99999999999909
 30
0.0
 11
4580.0
 21
-261.99999999999909
 31
0.0
1001
ACDBBLOCKREPETAG
1070
     1
1071
       20
1005
0
  0
LINE
  5
127F03
  8
OBJECT
 10
4545.6618002273244
 20
-137.99999999999909
 30
0.0
 11
4580.0
 21
-137.99999999999909
 31
0.0
1001
ACDBBLOCKREPETAG
1070
     1
1071
       19
1005
0
  0
LINE
  5
127F04
  8
OBJECT
 10
4555.0
 20
-66.999999999999091
 30
0.0
 11
4555.0
 21
-59.999999999999091
 31
0.0
1001
ACDBBLOCKREPETAG
1070
     1
1071
       20
1005
0
  0
LINE
  5
127F05
  8
OBJECT
 10
4555.0
 20
-59.999999999999091
 30
0.0
 11
4445.0
 21
-59.999999999999091
 31
0.0
1001
ACDBBLOCKREPETAG
1070
     1
1071
       21
1005
0
  0
LINE
  5
127F06
  8
OBJECT
 10
4445.0
 20
-59.999999999999091
 30
0.0
 11
4445.0
 21
-66.999999999999091
 31
0.0
1001
ACDBBLOCKREPETAG
1070
     1
1071
       22
1005
0
  0
LINE
  5
127F07
  8
OBJECT
 10
4445.0
 20
-66.999999999999091
 30
0.0
 11
4555.0
 21
-66.999999999999091
 31
0.0
1001
ACDBBLOCKREPETAG
1070
     1
1071
       23
1005
0
  0
LINE
  5
127F08
  8
CENTER
 10
4500.0
 20
-44.999999999999091
 30
0.0
 11
4500.0
 21
-119.9999999999991
 31
0.0
1001
ACDBBLOCKREPETAG
1070
     1
1071
       24
1005
0
  0
LINE
  5
127F09
  8
OBJECT
 10
4552.0
 20
-66.999999999999091
 30
0.0
 11
4552.0
 21
-102.9999999999991
 31
0.0
1001
ACDBBLOCKREPETAG
1070
     1
1071
       25
1005
0
  0
LINE
  5
127F0A
  8
OBJECT
 10
4552.0
 20
-102.9999999999991
 30
0.0
 11
4448.0
 21
-102.9999999999991
 31
0.0
1001
ACDBBLOCKREPETAG
1070
     1
1071
       26
1005
0
  0
LINE
  5
127F0B
  8
OBJECT
 10
4448.0
 20
-102.9999999999991
 30
0.0
 11
4448.0
 21
-66.999999999999091
 31
0.0
1001
ACDBBLOCKREPETAG
1070
     1
1071
       27
1005
0
  0
LINE
  5
127F0C
  8
OBJECT
 10
4547.5
 20
-106.9999999999991
 30
0.0
 11
4547.5
 21
-115.4999999999991
 31
0.0
1001
ACDBBLOCKREPETAG
1070
     1
1071
       28
1005
0
  0
LINE
  5
127F0D
  8
OBJECT
 10
4452.4999999999991
 20
-115.4999999999991
 30
0.0
 11
4452.4999999999991
 21
-106.9999999999991
 31
0.0
1001
ACDBBLOCKREPETAG
1070
     1
1071
       29
1005
0
  0
LINE
  5
127F0E
  8
OBJECT
 10
4452.4999999999991
 20
-106.9999999999991
 30
0.0
 11
4547.5
 21
-106.9999999999991
 31
0.0
1001
ACDBBLOCKREPETAG
1070
     1
1071
       30
1005
0
  0
LINE
  5
127F0F
  8
OBJECT
 10
4552.0
 20
-102.9999999999991
 30
0.0
 11
4547.5
 21
-106.9999999999991
 31
0.0
1001
ACDBBLOCKREPETAG
1070
     1
1071
       31
1005
0
  0
LINE
  5
127F10
  8
OBJECT
 10
4448.0
 20
-102.9999999999991
 30
0.0
 11
4452.4999999999991
 21
-106.9999999999991
 31
0.0
1001
ACDBBLOCKREPETAG
1070
     1
1071
       32
1005
0
  0
LINE
  5
127F11
  8
OBJECT
 10
4450.5
 20
-115.5000000000009
 30
0.0
 11
4549.5
 21
-115.4999999999991
 31
0.0
1001
ACDBBLOCKREPETAG
1070
     1
1071
       33
1005
0
  0
LINE
  5
127F12
  8
HIDDEN
 10
4538.0
 20
-111.9999999999991
 30
0.0
 11
4462.0
 21
-111.9999999999991
 31
0.0
1001
ACDBBLOCKREPETAG
1070
     1
1071
       34
1005
0
  0
LINE
  5
127F13
  8
OBJECT
 10
4549.5
 20
-115.4999999999991
 30
0.0
 11
4549.5
 21
-137.99999999999909
 31
0.0
1001
ACDBBLOCKREPETAG
1070
     1
1071
       35
1005
0
  0
LINE
  5
127F14
  8
OBJECT
 10
4450.5
 20
-115.5000000000009
 30
0.0
 11
4450.5
 21
-141.0190708787992
 31
0.0
1001
ACDBBLOCKREPETAG
1070
     1
1071
       36
1005
0
  0
ARC
  5
127F15
  8
OBJECT
 10
4500.0
 20
-199.99999999999909
 30
0.0
 40
85.0
 50
125.61620672850199
 51
313.16289714030148
1001
ACDBBLOCKREPETAG
1070
     1
1071
       18
1005
0
  0
ARC
  5
127F16
  8
OBJECT
 10
4500.0
 20
-199.99999999999909
 30
0.0
 40
85.0
 50
46.837102859698469
 51
54.383793271498021
1001
ACDBBLOCKREPETAG
1070
     1
1071
       18
1005
0
  0
LINE
  5
128055
  8
OBJECT
 10
81.999999999999787
 20
-1522.0
 30
0.0
 11
74.999999999999787
 21
-1522.0
 31
0.0
1001
ACDBBLOCKREPETAG
1070
     1
1071
       34
1005
128055
  0
LINE
  5
128056
  8
OBJECT
 10
74.999999999999787
 20
-1522.0
 30
0.0
 11
74.999999999999787
 21
-1398.0
 31
0.0
1001
ACDBBLOCKREPETAG
1070
     1
1071
       35
1005
128056
  0
LINE
  5
128057
  8
OBJECT
 10
74.999999999999787
 20
-1398.0
 30
0.0
 11
81.999999999999787
 21
-1398.0
 31
0.0
1001
ACDBBLOCKREPETAG
1070
     1
1071
       36
1005
128057
  0
LINE
  5
128058
  8
OBJECT
 10
81.999999999999787
 20
-1398.0
 30
0.0
 11
81.999999999999787
 21
-1522.0
 31
0.0
1001
ACDBBLOCKREPETAG
1070
     1
1071
       37
1005
128058
  0
LINE
  5
128059
  8
OBJECT
 10
81.999999999999787
 20
-1519.0
 30
0.0
 11
117.9999999999997
 21
-1519.0
 31
0.0
1001
ACDBBLOCKREPETAG
1070
     1
1071
       38
1005
128059
  0
LINE
  5
12805A
  8
OBJECT
 10
117.9999999999997
 20
-1519.0
 30
0.0
 11
117.9999999999997
 21
-1401.0
 31
0.0
1001
ACDBBLOCKREPETAG
1070
     1
1071
       39
1005
12805A
  0
LINE
  5
12805B
  8
OBJECT
 10
117.9999999999997
 20
-1401.0
 30
0.0
 11
81.999999999999787
 21
-1401.0
 31
0.0
1001
ACDBBLOCKREPETAG
1070
     1
1071
       40
1005
12805B
  0
LINE
  5
12805C
  8
OBJECT
 10
121.9999999999997
 20
-1514.5
 30
0.0
 11
132.49999999999969
 21
-1514.5
 31
0.0
1001
ACDBBLOCKREPETAG
1070
     1
1071
       41
1005
12805C
  0
LINE
  5
12805D
  8
OBJECT
 10
132.49999999999969
 20
-1405.5
 30
0.0
 11
121.9999999999997
 21
-1405.5
 31
0.0
1001
ACDBBLOCKREPETAG
1070
     1
1071
       42
1005
12805D
  0
LINE
  5
12805E
  8
OBJECT
 10
121.9999999999997
 20
-1405.5
 30
0.0
 11
121.9999999999997
 21
-1514.5
 31
0.0
1001
ACDBBLOCKREPETAG
1070
     1
1071
       43
1005
12805E
  0
LINE
  5
12805F
  8
OBJECT
 10
117.9999999999997
 20
-1519.0
 30
0.0
 11
121.9999999999997
 21
-1514.5
 31
0.0
1001
ACDBBLOCKREPETAG
1070
     1
1071
       44
1005
12805F
  0
LINE
  5
128060
  8
OBJECT
 10
117.9999999999997
 20
-1401.0
 30
0.0
 11
121.9999999999997
 21
-1405.5
 31
0.0
1001
ACDBBLOCKREPETAG
1070
     1
1071
       45
1005
128060
  0
LINE
  5
128061
  8
OBJECT
 10
137.4999999999998
 20
-1509.5
 30
0.0
 11
158.65508008702159
 21
-1509.4999999999991
 31
0.0
1001
ACDBBLOCKREPETAG
1070
     1
1071
       46
1005
128061
  0
LINE
  5
128062
  8
OBJECT
 10
137.4999999999998
 20
-1410.5
 30
0.0
 11
158.6550800870225
 21
-1410.5
 31
0.0
1001
ACDBBLOCKREPETAG
1070
     1
1071
       47
1005
128062
  0
LINE
  5
128063
  8
OBJECT
 10
132.49999999999969
 20
-1514.5
 30
0.0
 11
132.49999999999969
 21
-1405.5
 31
0.0
1001
ACDBBLOCKREPETAG
1070
     1
1071
       48
1005
128063
  0
LINE
  5
128064
  8
OBJECT
 10
137.4999999999998
 20
-1509.5
 30
0.0
 11
137.4999999999998
 21
-1410.5
 31
0.0
1001
ACDBBLOCKREPETAG
1070
     1
1071
       49
1005
128064
  0
LINE
  5
128065
  8
OBJECT
 10
132.49999999999969
 20
-1514.5
 30
0.0
 11
137.4999999999998
 21
-1509.5
 31
0.0
1001
ACDBBLOCKREPETAG
1070
     1
1071
       50
1005
128065
  0
LINE
  5
128066
  8
OBJECT
 10
137.4999999999998
 20
-1410.5
 30
0.0
 11
132.49999999999969
 21
-1405.5000000000041
 31
0.0
1001
ACDBBLOCKREPETAG
1070
     1
1071
       51
1005
128066
  0
INSERT
  5
128067
  8
OBJECT
  2
*U3
 10
0.0
 20
0.0
 30
0.0
  0
LINE
  5
128068
  8
HIDDEN
 10
126.9999999999997
 20
-1504.5
 30
0.0
 11
126.9999999999998
 21
-1415.5
 31
0.0
1001
ACDBBLOCKREPETAG
1070
     1
1071
       65
1005
128068
  0
CIRCLE
  5
128069
  8
OBJECT
 10
214.9999999999998
 20
-1460.0
 30
0.0
 40
70.0
1001
ACDBBLOCKREPETAG
1070
     1
1071
       50
1005
128069
  0
CIRCLE
  5
12806A
  8
OBJECT
 10
214.9999999999998
 20
-1460.0
 30
0.0
 40
75.0
1001
ACDBBLOCKREPETAG
1070
     1
1071
       51
1005
12806A
  0
POINT
  5
12806B
  8
DOTS
 10
214.9999999999998
 20
-1460.0
 30
0.0
1001
ACDBBLOCKREPETAG
1070
     1
1071
       63
1005
12806B
  0
CIRCLE
  5
12806C
  8
OBJECT
 10
214.9999999999998
 20
-1460.0
 30
0.0
 40
62.5
1001
ACDBBLOCKREPETAG
1070
     1
1071
       50
1005
12806C
  0
LINE
  5
12806D
  8
OBJECT
 10
441.99999999999977
 20
-1051.0
 30
0.0
 11
434.9999999999996
 21
-1051.0
 31
0.0
1001
ACDBBLOCKREPETAG
1070
     1
1071
       18
1005
12806D
  0
LINE
  5
12806E
  8
OBJECT
 10
434.9999999999996
 20
-1051.0
 30
0.0
 11
434.9999999999996
 21
-941.0
 31
0.0
1001
ACDBBLOCKREPETAG
1070
     1
1071
       19
1005
12806E
  0
LINE
  5
12806F
  8
OBJECT
 10
434.9999999999996
 20
-941.0
 30
0.0
 11
441.99999999999977
 21
-941.0
 31
0.0
1001
ACDBBLOCKREPETAG
1070
     1
1071
       20
1005
12806F
  0
LINE
  5
128070
  8
OBJECT
 10
441.99999999999977
 20
-941.0
 30
0.0
 11
441.99999999999977
 21
-1051.0
 31
0.0
1001
ACDBBLOCKREPETAG
1070
     1
1071
       21
1005
128070
  0
LINE
  5
128071
  8
OBJECT
 10
441.99999999999977
 20
-1048.0
 30
0.0
 11
477.99999999999972
 21
-1048.0
 31
0.0
1001
ACDBBLOCKREPETAG
1070
     1
1071
       22
1005
128071
  0
LINE
  5
128072
  8
OBJECT
 10
477.99999999999972
 20
-1048.0
 30
0.0
 11
477.99999999999972
 21
-944.0
 31
0.0
1001
ACDBBLOCKREPETAG
1070
     1
1071
       23
1005
128072
  0
LINE
  5
128073
  8
OBJECT
 10
477.99999999999972
 20
-944.0
 30
0.0
 11
441.99999999999977
 21
-944.0
 31
0.0
1001
ACDBBLOCKREPETAG
1070
     1
1071
       24
1005
128073
  0
LINE
  5
128074
  8
OBJECT
 10
481.99999999999972
 20
-1043.5
 30
0.0
 11
490.49999999999972
 21
-1043.5
 31
0.0
1001
ACDBBLOCKREPETAG
1070
     1
1071
       25
1005
128074
  0
LINE
  5
128075
  8
OBJECT
 10
490.49999999999972
 20
-948.49999999999989
 30
0.0
 11
481.99999999999972
 21
-948.49999999999989
 31
0.0
1001
ACDBBLOCKREPETAG
1070
     1
1071
       26
1005
128075
  0
LINE
  5
128076
  8
OBJECT
 10
481.99999999999972
 20
-948.49999999999989
 30
0.0
 11
481.99999999999972
 21
-1043.5
 31
0.0
1001
ACDBBLOCKREPETAG
1070
     1
1071
       27
1005
128076
  0
LINE
  5
128077
  8
OBJECT
 10
477.99999999999972
 20
-1048.0
 30
0.0
 11
481.99999999999972
 21
-1043.5
 31
0.0
1001
ACDBBLOCKREPETAG
1070
     1
1071
       28
1005
128077
  0
LINE
  5
128078
  8
OBJECT
 10
477.99999999999972
 20
-944.0
 30
0.0
 11
481.99999999999972
 21
-948.49999999999989
 31
0.0
1001
ACDBBLOCKREPETAG
1070
     1
1071
       29
1005
128078
  0
LINE
  5
128079
  8
OBJECT
 10
490.50000000000159
 20
-946.49999999999989
 30
0.0
 11
490.49999999999972
 21
-1045.5
 31
0.0
1001
ACDBBLOCKREPETAG
1070
     1
1071
       30
1005
128079
  0
LINE
  5
12807A
  8
OBJECT
 10
490.49999999999972
 20
-1045.5
 30
0.0
 11
518.65508008702068
 21
-1045.4999999999991
 31
0.0
1001
ACDBBLOCKREPETAG
1070
     1
1071
       31
1005
12807A
  0
LINE
  5
12807B
  8
OBJECT
 10
490.50000000000159
 20
-946.49999999999989
 30
0.0
 11
518.65508008702147
 21
-946.49999999999875
 31
0.0
1001
ACDBBLOCKREPETAG
1070
     1
1071
       32
1005
12807B
  0
INSERT
  5
12807C
  8
OBJECT
  2
*U4
 10
0.0
 20
0.0
 30
0.0
  0
LINE
  5
12807D
  8
HIDDEN
 10
486.99999999999972
 20
-1034.0
 30
0.0
 11
486.99999999999972
 21
-958.0
 31
0.0
1001
ACDBBLOCKREPETAG
1070
     1
1071
       57
1005
12807D
  0
CIRCLE
  5
12807E
  8
OBJECT
 10
574.99999999999977
 20
-996.0
 30
0.0
 40
70.0
1001
ACDBBLOCKREPETAG
1070
     1
1071
       50
1005
12807E
  0
CIRCLE
  5
12807F
  8
OBJECT
 10
574.99999999999977
 20
-996.0
 30
0.0
 40
75.0
1001
ACDBBLOCKREPETAG
1070
     1
1071
       51
1005
12807F
  0
POINT
  5
128080
  8
DOTS
 10
574.99999999999977
 20
-996.0
 30
0.0
1001
ACDBBLOCKREPETAG
1070
     1
1071
       63
1005
128080
  0
CIRCLE
  5
128081
  8
OBJECT
 10
574.99999999999977
 20
-996.0
 30
0.0
 40
62.5
1001
ACDBBLOCKREPETAG
1070
     1
1071
       50
1005
128081
  0
LINE
  5
128082
  8
OBJECT
 10
81.999999999999787
 20
-1043.0
 30
0.0
 11
74.999999999999787
 21
-1043.0
 31
0.0
1001
ACDBBLOCKREPETAG
1070
     1
1071
        0
1005
128082
  0
LINE
  5
128083
  8
OBJECT
 10
74.999999999999787
 20
-1043.0
 30
0.0
 11
74.999999999999787
 21
-949.0
 31
0.0
1001
ACDBBLOCKREPETAG
1070
     1
1071
        1
1005
128083
  0
LINE
  5
128084
  8
OBJECT
 10
74.999999999999787
 20
-949.0
 30
0.0
 11
81.999999999999787
 21
-949.0
 31
0.0
1001
ACDBBLOCKREPETAG
1070
     1
1071
        2
1005
128084
  0
LINE
  5
128085
  8
OBJECT
 10
81.999999999999787
 20
-949.0
 30
0.0
 11
81.999999999999787
 21
-1043.0
 31
0.0
1001
ACDBBLOCKREPETAG
1070
     1
1071
        3
1005
128085
  0
LINE
  5
128086
  8
OBJECT
 10
81.999999999999787
 20
-1040.0
 30
0.0
 11
117.9999999999997
 21
-1040.0
 31
0.0
1001
ACDBBLOCKREPETAG
1070
     1
1071
        4
1005
128086
  0
LINE
  5
128087
  8
OBJECT
 10
117.9999999999997
 20
-1040.0
 30
0.0
 11
117.9999999999997
 21
-952.0
 31
0.0
1001
ACDBBLOCKREPETAG
1070
     1
1071
        5
1005
128087
  0
LINE
  5
128088
  8
OBJECT
 10
117.9999999999997
 20
-952.0
 30
0.0
 11
81.999999999999787
 21
-952.0
 31
0.0
1001
ACDBBLOCKREPETAG
1070
     1
1071
        6
1005
128088
  0
LINE
  5
128089
  8
OBJECT
 10
121.9999999999997
 20
-1035.5
 30
0.0
 11
130.49999999999881
 21
-1035.5
 31
0.0
1001
ACDBBLOCKREPETAG
1070
     1
1071
        7
1005
128089
  0
LINE
  5
12808A
  8
OBJECT
 10
130.49999999999969
 20
-956.49999999999989
 30
0.0
 11
121.9999999999997
 21
-956.49999999999989
 31
0.0
1001
ACDBBLOCKREPETAG
1070
     1
1071
        8
1005
12808A
  0
LINE
  5
12808B
  8
OBJECT
 10
121.9999999999997
 20
-956.49999999999989
 30
0.0
 11
121.9999999999997
 21
-1035.5
 31
0.0
1001
ACDBBLOCKREPETAG
1070
     1
1071
        9
1005
12808B
  0
LINE
  5
12808C
  8
OBJECT
 10
117.9999999999997
 20
-1040.0
 30
0.0
 11
121.9999999999997
 21
-1035.5
 31
0.0
1001
ACDBBLOCKREPETAG
1070
     1
1071
       10
1005
12808C
  0
LINE
  5
12808D
  8
OBJECT
 10
117.9999999999997
 20
-952.0
 30
0.0
 11
121.9999999999997
 21
-956.49999999999989
 31
0.0
1001
ACDBBLOCKREPETAG
1070
     1
1071
       11
1005
12808D
  0
LINE
  5
12808E
  8
OBJECT
 10
130.50000000000071
 20
-949.5
 30
0.0
 11
130.49999999999881
 21
-1042.5
 31
0.0
1001
ACDBBLOCKREPETAG
1070
     1
1071
       12
1005
12808E
  0
ARC
  5
12808F
  8
OBJECT
 10
133.49999999999881
 20
-1042.5
 30
0.0
 40
3.0
 50
180.0
 51
270.0
1001
ACDBBLOCKREPETAG
1070
     1
1071
       13
1005
12808F
  0
LINE
  5
128090
  8
OBJECT
 10
133.49999999999881
 20
-1045.5
 30
0.0
 11
158.65508008702159
 21
-1045.5
 31
0.0
1001
ACDBBLOCKREPETAG
1070
     1
1071
       15
1005
128090
  0
LINE
  5
128091
  8
OBJECT
 10
133.50000000000071
 20
-946.49999999999989
 30
0.0
 11
158.65508008702059
 21
-946.5000000000008
 31
0.0
1001
ACDBBLOCKREPETAG
1070
     1
1071
       16
1005
128091
  0
ARC
  5
128092
  8
OBJECT
 10
133.50000000000071
 20
-949.5
 30
0.0
 40
3.0
 50
90.0
 51
180.0
1001
ACDBBLOCKREPETAG
1070
     1
1071
       17
1005
128092
  0
INSERT
  5
128093
  8
OBJECT
  2
*U5
 10
0.0
 20
0.0
 30
0.0
  0
LINE
  5
128094
  8
HIDDEN
 10
126.9999999999998
 20
-1026.0
 30
0.0
 11
126.9999999999998
 21
-966.0
 31
0.0
1001
ACDBBLOCKREPETAG
1070
     1
1071
       56
1005
128094
  0
CIRCLE
  5
128095
  8
OBJECT
 10
214.9999999999998
 20
-996.0
 30
0.0
 40
70.0
1001
ACDBBLOCKREPETAG
1070
     1
1071
       50
1005
128095
  0
CIRCLE
  5
128096
  8
OBJECT
 10
214.9999999999998
 20
-996.0
 30
0.0
 40
75.0
1001
ACDBBLOCKREPETAG
1070
     1
1071
       51
1005
128096
  0
POINT
  5
128097
  8
DOTS
 10
214.9999999999998
 20
-996.0
 30
0.0
1001
ACDBBLOCKREPETAG
1070
     1
1071
       63
1005
128097
  0
CIRCLE
  5
128098
  8
OBJECT
 10
214.9999999999998
 20
-996.0
 30
0.0
 40
62.5
1001
ACDBBLOCKREPETAG
1070
     1
1071
       50
1005
128098
  0
TEXT
  5
128099
  8
SLIM
 10
97.714285714224999
 20
-1707.9999999996919
 30
0.0
 40
48.0
  1
A0003
 41
0.75
1001
ACDBBLOCKREPETAG
1070
     1
1071
      119
1005
0
  0
TEXT
  5
12809A
  8
SLIM
 10
457.71428571410308
 20
-1243.9999999998499
 30
0.0
 40
48.0
  1
A0002
 41
0.75
1001
ACDBBLOCKREPETAG
1070
     1
1071
      119
1005
0
  0
TEXT
  5
12809B
  8
SLIM
 10
105.42857142851059
 20
-1243.9999999998499
 30
0.0
 40
48.0
  1
A0001
 41
0.75
1001
ACDBBLOCKREPETAG
1070
     1
1071
      119
1005
0
  0
LINE
  5
12809C
  8
OBJECT
 10
4633.0
 20
-137.99999999999909
 30
0.0
 11
4640.0
 21
-137.99999999999909
 31
0.0
1001
ACDBBLOCKREPETAG
1070
     1
1071
       47
1005
12809C
  0
LINE
  5
12809D
  8
OBJECT
 10
4640.0
 20
-137.99999999999909
 30
0.0
 11
4640.0
 21
-261.99999999999909
 31
0.0
1001
ACDBBLOCKREPETAG
1070
     1
1071
       48
1005
12809D
  0
LINE
  5
12809E
  8
OBJECT
 10
4640.0
 20
-261.99999999999909
 30
0.0
 11
4633.0
 21
-261.99999999999909
 31
0.0
1001
ACDBBLOCKREPETAG
1070
     1
1071
       49
1005
12809E
  0
LINE
  5
12809F
  8
OBJECT
 10
4633.0
 20
-261.99999999999909
 30
0.0
 11
4633.0
 21
-137.99999999999909
 31
0.0
1001
ACDBBLOCKREPETAG
1070
     1
1071
       50
1005
12809F
  0
LINE
  5
1280A0
  8
CENTER
 10
4655.0
 20
-199.99999999999909
 30
0.0
 11
4580.0
 21
-199.99999999999909
 31
0.0
1001
ACDBBLOCKREPETAG
1070
     1
1071
       51
1005
1280A0
  0
LINE
  5
1280A1
  8
OBJECT
 10
4633.0
 20
-140.99999999999909
 30
0.0
 11
4597.0
 21
-140.99999999999909
 31
0.0
1001
ACDBBLOCKREPETAG
1070
     1
1071
       52
1005
1280A1
  0
LINE
  5
1280A2
  8
OBJECT
 10
4597.0
 20
-140.99999999999909
 30
0.0
 11
4597.0
 21
-258.99999999999909
 31
0.0
1001
ACDBBLOCKREPETAG
1070
     1
1071
       53
1005
1280A2
  0
LINE
  5
1280A3
  8
OBJECT
 10
4597.0
 20
-258.99999999999909
 30
0.0
 11
4633.0
 21
-258.99999999999909
 31
0.0
1001
ACDBBLOCKREPETAG
1070
     1
1071
       54
1005
1280A3
  0
LINE
  5
1280A4
  8
OBJECT
 10
4593.0
 20
-145.49999999999909
 30
0.0
 11
4586.0
 21
-145.49999999999909
 31
0.0
1001
ACDBBLOCKREPETAG
1070
     1
1071
       55
1005
1280A4
  0
LINE
  5
1280A5
  8
OBJECT
 10
4586.0
 20
-254.49999999999909
 30
0.0
 11
4593.0
 21
-254.49999999999909
 31
0.0
1001
ACDBBLOCKREPETAG
1070
     1
1071
       56
1005
1280A5
  0
LINE
  5
1280A6
  8
OBJECT
 10
4593.0
 20
-254.49999999999909
 30
0.0
 11
4593.0
 21
-145.49999999999909
 31
0.0
1001
ACDBBLOCKREPETAG
1070
     1
1071
       57
1005
1280A6
  0
LINE
  5
1280A7
  8
OBJECT
 10
4597.0
 20
-140.99999999999909
 30
0.0
 11
4593.0
 21
-145.49999999999909
 31
0.0
1001
ACDBBLOCKREPETAG
1070
     1
1071
       58
1005
1280A7
  0
LINE
  5
1280A8
  8
OBJECT
 10
4597.0
 20
-258.99999999999909
 30
0.0
 11
4593.0
 21
-254.49999999999909
 31
0.0
1001
ACDBBLOCKREPETAG
1070
     1
1071
       59
1005
1280A8
  0
LINE
  5
1280A9
  8
OBJECT
 10
4583.0
 20
-137.99999999999909
 30
0.0
 11
4580.0
 21
-137.99999999999909
 31
0.0
1001
ACDBBLOCKREPETAG
1070
     1
1071
       60
1005
1280A9
  0
ARC
  5
1280AA
  8
OBJECT
 10
4583.0
 20
-140.99999999999909
 30
0.0
 40
3.0
 50
0.0
 51
90.0
1001
ACDBBLOCKREPETAG
1070
     1
1071
       61
1005
1280AA
  0
LINE
  5
1280AB
  8
OBJECT
 10
4580.0
 20
-261.99999999999909
 30
0.0
 11
4583.0
 21
-261.99999999999909
 31
0.0
1001
ACDBBLOCKREPETAG
1070
     1
1071
       62
1005
1280AB
  0
ARC
  5
1280AC
  8
OBJECT
 10
4583.0
 20
-258.99999999999909
 30
0.0
 40
3.0
 50
270.0
 51
0.0
1001
ACDBBLOCKREPETAG
1070
     1
1071
       63
1005
1280AC
  0
LINE
  5
1280AD
  8
OBJECT
 10
4586.0
 20
-258.99999999999909
 30
0.0
 11
4586.0
 21
-140.99999999999909
 31
0.0
1001
ACDBBLOCKREPETAG
1070
     1
1071
       64
1005
1280AD
  0
LINE
  5
1280AE
  8
HIDDEN
 10
4588.0
 20
-155.49999999999909
 30
0.0
 11
4588.0
 21
-244.49999999999909
 31
0.0
1001
ACDBBLOCKREPETAG
1070
     1
1071
       65
1005
1280AE
  0
LINE
  5
1280AF
  8
OBJECT
 10
2633.0
 20
-137.99999999999909
 30
0.0
 11
2640.0
 21
-137.99999999999909
 31
0.0
1001
ACDBBLOCKREPETAG
1070
     1
1071
       47
1005
1280AF
  0
LINE
  5
1280B0
  8
OBJECT
 10
2640.0
 20
-137.99999999999909
 30
0.0
 11
2640.0
 21
-261.99999999999909
 31
0.0
1001
ACDBBLOCKREPETAG
1070
     1
1071
       48
1005
1280B0
  0
LINE
  5
1280B1
  8
OBJECT
 10
2640.0
 20
-261.99999999999909
 30
0.0
 11
2633.0
 21
-261.99999999999909
 31
0.0
1001
ACDBBLOCKREPETAG
1070
     1
1071
       49
1005
1280B1
  0
LINE
  5
1280B2
  8
OBJECT
 10
2633.0
 20
-261.99999999999909
 30
0.0
 11
2633.0
 21
-137.99999999999909
 31
0.0
1001
ACDBBLOCKREPETAG
1070
     1
1071
       50
1005
1280B2
  0
LINE
  5
1280B3
  8
CENTER
 10
2655.0
 20
-199.99999999999909
 30
0.0
 11
2580.0
 21
-199.99999999999909
 31
0.0
1001
ACDBBLOCKREPETAG
1070
     1
1071
       51
1005
1280B3
  0
LINE
  5
1280B4
  8
OBJECT
 10
2633.0
 20
-140.99999999999909
 30
0.0
 11
2597.0
 21
-140.99999999999909
 31
0.0
1001
ACDBBLOCKREPETAG
1070
     1
1071
       52
1005
1280B4
  0
LINE
  5
1280B5
  8
OBJECT
 10
2597.0
 20
-140.99999999999909
 30
0.0
 11
2597.0
 21
-258.99999999999909
 31
0.0
1001
ACDBBLOCKREPETAG
1070
     1
1071
       53
1005
1280B5
  0
LINE
  5
1280B6
  8
OBJECT
 10
2597.0
 20
-258.99999999999909
 30
0.0
 11
2633.0
 21
-258.99999999999909
 31
0.0
1001
ACDBBLOCKREPETAG
1070
     1
1071
       54
1005
1280B6
  0
LINE
  5
1280B7
  8
OBJECT
 10
2593.0
 20
-145.49999999999909
 30
0.0
 11
2586.0
 21
-145.49999999999909
 31
0.0
1001
ACDBBLOCKREPETAG
1070
     1
1071
       55
1005
1280B7
  0
LINE
  5
1280B8
  8
OBJECT
 10
2586.0
 20
-254.49999999999909
 30
0.0
 11
2593.0
 21
-254.49999999999909
 31
0.0
1001
ACDBBLOCKREPETAG
1070
     1
1071
       56
1005
1280B8
  0
LINE
  5
1280B9
  8
OBJECT
 10
2593.0
 20
-254.49999999999909
 30
0.0
 11
2593.0
 21
-145.49999999999909
 31
0.0
1001
ACDBBLOCKREPETAG
1070
     1
1071
       57
1005
1280B9
  0
LINE
  5
1280BA
  8
OBJECT
 10
2597.0
 20
-140.99999999999909
 30
0.0
 11
2593.0
 21
-145.49999999999909
 31
0.0
1001
ACDBBLOCKREPETAG
1070
     1
1071
       58
1005
1280BA
  0
LINE
  5
1280BB
  8
OBJECT
 10
2597.0
 20
-258.99999999999909
 30
0.0
 11
2593.0
 21
-254.49999999999909
 31
0.0
1001
ACDBBLOCKREPETAG
1070
     1
1071
       59
1005
1280BB
  0
LINE
  5
1280BC
  8
OBJECT
 10
2583.0
 20
-137.99999999999909
 30
0.0
 11
2580.0
 21
-137.99999999999909
 31
0.0
1001
ACDBBLOCKREPETAG
1070
     1
1071
       60
1005
1280BC
  0
ARC
  5
1280BD
  8
OBJECT
 10
2583.0
 20
-140.99999999999909
 30
0.0
 40
3.0
 50
0.0
 51
90.0
1001
ACDBBLOCKREPETAG
1070
     1
1071
       61
1005
1280BD
  0
LINE
  5
1280BE
  8
OBJECT
 10
2580.0
 20
-261.99999999999909
 30
0.0
 11
2583.0
 21
-261.99999999999909
 31
0.0
1001
ACDBBLOCKREPETAG
1070
     1
1071
       62
1005
1280BE
  0
ARC
  5
1280BF
  8
OBJECT
 10
2583.0
 20
-258.99999999999909
 30
0.0
 40
3.0
 50
270.0
 51
0.0
1001
ACDBBLOCKREPETAG
1070
     1
1071
       63
1005
1280BF
  0
LINE
  5
1280C0
  8
OBJECT
 10
2586.0
 20
-258.99999999999909
 30
0.0
 11
2586.0
 21
-140.99999999999909
 31
0.0
1001
ACDBBLOCKREPETAG
1070
     1
1071
       64
1005
1280C0
  0
LINE
  5
1280C1
  8
HIDDEN
 10
2588.0
 20
-155.49999999999909
 30
0.0
 11
2588.0
 21
-244.49999999999909
 31
0.0
1001
ACDBBLOCKREPETAG
1070
     1
1071
       65
1005
1280C1
  0
LINE
  5
1280C2
  8
SLIM
 10
4424.8586105144159
 20
-160.26624122769411
 30
0.0
 11
4450.4999999999991
 21
-134.62485174211079
 31
0.0
1001
GRADIENTCOLOR1ACI
1070
     5
1001
GRADIENTCOLOR2ACI
1070
     2
1001
ACAD
1010
0.0
1020
0.0
1030
0.0
  0
LINE
  5
1280C3
  8
SLIM
 10
4418.6084340676744
 20
-175.4966737955055
 30
0.0
 11
4434.3612988780978
 21
-159.74380898508301
 31
0.0
1001
GRADIENTCOLOR1ACI
1070
     5
1001
GRADIENTCOLOR2ACI
1070
     2
1001
ACAD
1010
0.0
1020
0.0
1030
0.0
  0
LINE
  5
1280C4
  8
SLIM
 10
4415.9844434040897
 20
-187.1009205801592
 30
0.0
 11
4426.7155127720207
 21
-176.36985121222639
 31
0.0
1001
GRADIENTCOLOR1ACI
1070
     5
1001
GRADIENTCOLOR2ACI
1070
     2
1001
ACAD
1010
0.0
1020
0.0
1030
0.0
  0
LINE
  5
1280C5
  8
SLIM
 10
4415.0524951669167
 20
-197.0131249384003
 30
0.0
 11
4416.0656201053189
 21
-196.0
 31
0.0
1001
GRADIENTCOLOR1ACI
1070
     5
1001
GRADIENTCOLOR2ACI
1070
     2
1001
ACAD
1010
0.0
1020
0.0
1030
0.0
  0
LINE
  5
1280C6
  8
SLIM
 10
4416.0656201053189
 20
-196.0
 30
0.0
 11
4423.9176079182453
 21
-188.14801218707541
 31
0.0
1001
GRADIENTCOLOR1ACI
1070
     5
1001
GRADIENTCOLOR2ACI
1070
     2
1001
ACAD
1010
0.0
1020
0.0
1030
0.0
  0
LINE
  5
1280C7
  8
SLIM
 10
4415.2011819161371
 20
-205.844694310249
 30
0.0
 11
4421.0458762263879
 21
-200.0
 31
0.0
1001
GRADIENTCOLOR1ACI
1070
     5
1001
GRADIENTCOLOR2ACI
1070
     2
1001
ACAD
1010
0.0
1020
0.0
1030
0.0
  0
LINE
  5
1280C8
  8
SLIM
 10
4421.0458762263879
 20
-200.0
 30
0.0
 11
4423.0254504002114
 21
-198.02042582617551
 31
0.0
1001
GRADIENTCOLOR1ACI
1070
     5
1001
GRADIENTCOLOR2ACI
1070
     2
1001
ACAD
1010
0.0
1020
0.0
1030
0.0
  0
LINE
  5
1280C9
  8
SLIM
 10
4416.141658771895
 20
-213.88447357556291
 30
0.0
 11
4423.2947912640902
 21
-206.73134108336581
 31
0.0
1001
GRADIENTCOLOR1ACI
1070
     5
1001
GRADIENTCOLOR2ACI
1070
     2
1001
ACAD
1010
0.0
1020
0.0
1030
0.0
  0
LINE
  5
1280CA
  8
SLIM
 10
4417.710870111021
 20
-221.29551835750499
 30
0.0
 11
4419.006388468526
 21
-220.0
 31
0.0
1001
GRADIENTCOLOR1ACI
1070
     5
1001
GRADIENTCOLOR2ACI
1070
     2
1001
ACAD
1010
0.0
1020
0.0
1030
0.0
  0
LINE
  5
1280CB
  8
SLIM
 10
4419.006388468526
 20
-220.0
 30
0.0
 11
4424.3983736705259
 21
-214.60801479800011
 31
0.0
1001
GRADIENTCOLOR1ACI
1070
     5
1001
GRADIENTCOLOR2ACI
1070
     2
1001
ACAD
1010
0.0
1020
0.0
1030
0.0
  0
LINE
  5
1280CC
  8
SLIM
 10
4419.8070443755887
 20
-228.17960021400589
 30
0.0
 11
4426.1586830180358
 21
-221.8279615715565
 31
0.0
1001
GRADIENTCOLOR1ACI
1070
     5
1001
GRADIENTCOLOR2ACI
1070
     2
1001
ACAD
1010
0.0
1020
0.0
1030
0.0
  0
LINE
  5
1280CD
  8
SLIM
 10
4422.3627047135597
 20
-234.604195997104
 30
0.0
 11
4424.9669007106631
 21
-232.00000000000091
 31
0.0
1001
GRADIENTCOLOR1ACI
1070
     5
1001
GRADIENTCOLOR2ACI
1070
     2
1001
ACAD
1010
0.0
1020
0.0
1030
0.0
  0
LINE
  5
1280CE
  8
SLIM
 10
4424.9669007106631
 20
-232.00000000000091
 30
0.0
 11
4428.4680718064419
 21
-228.4988289042185
 31
0.0
1001
GRADIENTCOLOR1ACI
1070
     5
1001
GRADIENTCOLOR2ACI
1070
     2
1001
ACAD
1010
0.0
1020
0.0
1030
0.0
  0
LINE
  5
1280CF
  8
SLIM
 10
4425.3315714414448
 20
-240.61558539028829
 30
0.0
 11
4431.257033983361
 21
-234.69012284837211
 31
0.0
1001
GRADIENTCOLOR1ACI
1070
     5
1001
GRADIENTCOLOR2ACI
1070
     2
1001
ACAD
1010
0.0
1020
0.0
1030
0.0
  0
LINE
  5
1280D0
  8
SLIM
 10
4428.6815548937129
 20
-246.2458580590887
 30
0.0
 11
4434.4793564785941
 21
-240.44805647420799
 31
0.0
1001
GRADIENTCOLOR1ACI
1070
     5
1001
GRADIENTCOLOR2ACI
1070
     2
1001
ACAD
1010
0.0
1020
0.0
1030
0.0
  0
LINE
  5
1280D1
  8
SLIM
 10
4432.3907652629223
 20
-251.51690381094889
 30
0.0
 11
4438.1044220857211
 21
-245.80324698814999
 31
0.0
1001
GRADIENTCOLOR1ACI
1070
     5
1001
GRADIENTCOLOR2ACI
1070
     2
1001
ACAD
1010
0.0
1020
0.0
1030
0.0
  0
LINE
  5
1280D2
  8
SLIM
 10
4549.4999999999991
 20
-134.407669073872
 30
0.0
 11
4551.5169038109489
 21
-132.39076526292041
 31
0.0
1001
GRADIENTCOLOR1ACI
1070
     5
1001
GRADIENTCOLOR2ACI
1070
     2
1001
ACAD
1010
0.0
1020
0.0
1030
0.0
  0
LINE
  5
1280D3
  8
SLIM
 10
4436.4451742931069
 20
-256.44275090183282
 30
0.0
 11
4442.1129898655927
 21
-250.7749353293452
 31
0.0
1001
GRADIENTCOLOR1ACI
1070
     5
1001
GRADIENTCOLOR2ACI
1070
     2
1001
ACAD
1010
0.0
1020
0.0
1030
0.0
  0
LINE
  5
1280D4
  8
SLIM
 10
4554.8879251949411
 20
-137.99999999999909
 30
0.0
 11
4556.4427509018342
 21
-136.44517429310599
 31
0.0
1001
GRADIENTCOLOR1ACI
1070
     5
1001
GRADIENTCOLOR2ACI
1070
     2
1001
ACAD
1010
0.0
1020
0.0
1030
0.0
  0
LINE
  5
1280D5
  8
SLIM
 10
4440.8372731495638
 20
-261.03090816644323
 30
0.0
 11
4446.4948816754841
 21
-255.3732996405256
 31
0.0
1001
GRADIENTCOLOR1ACI
1070
     5
1001
GRADIENTCOLOR2ACI
1070
     2
1001
ACAD
1010
0.0
1020
0.0
1030
0.0
  0
LINE
  5
1280D6
  8
SLIM
 10
4445.5654027321416
 20
-265.2830347049362
 30
0.0
 11
4451.247859932686
 21
-259.60057750439142
 31
0.0
1001
GRADIENTCOLOR1ACI
1070
     5
1001
GRADIENTCOLOR2ACI
1070
     2
1001
ACAD
1010
0.0
1020
0.0
1030
0.0
  0
LINE
  5
1280D7
  8
SLIM
 10
4450.6336102119212
 20
-269.19508334622702
 30
0.0
 11
4456.3773901234681
 21
-263.45130343467918
 31
0.0
1001
GRADIENTCOLOR1ACI
1070
     5
1001
GRADIENTCOLOR2ACI
1070
     2
1001
ACAD
1010
0.0
1020
0.0
1030
0.0
  0
LINE
  5
1280D8
  8
SLIM
 10
4456.0520018449279
 20
-272.7569478342902
 30
0.0
 11
4461.8972267247527
 21
-266.91172295446449
 31
0.0
1001
GRADIENTCOLOR1ACI
1070
     5
1001
GRADIENTCOLOR2ACI
1070
     2
1001
ACAD
1010
0.0
1020
0.0
1030
0.0
  0
LINE
  5
1280D9
  8
SLIM
 10
4461.8376665887199
 20
-275.9515392115668
 30
0.0
 11
4467.8309761072287
 21
-269.95822969305573
 31
0.0
1001
GRADIENTCOLOR1ACI
1070
     5
1001
GRADIENTCOLOR2ACI
1070
     2
1001
ACAD
1010
0.0
1020
0.0
1030
0.0
  0
LINE
  5
1280DA
  8
SLIM
 10
4468.0163793697502
 20
-278.75308255160598
 30
0.0
 11
4474.2150822137446
 21
-272.55437970761068
 31
0.0
1001
GRADIENTCOLOR1ACI
1070
     5
1001
GRADIENTCOLOR2ACI
1070
     2
1001
ACAD
1010
0.0
1020
0.0
1030
0.0
  0
LINE
  5
1280DB
  8
SLIM
 10
4474.6255187948072
 20
-281.12419924761713
 30
0.0
 11
4481.104224702789
 21
-274.6454933396335
 31
0.0
1001
GRADIENTCOLOR1ACI
1070
     5
1001
GRADIENTCOLOR2ACI
1070
     2
1001
ACAD
1010
0.0
1020
0.0
1030
0.0
  0
LINE
  5
1280DC
  8
SLIM
 10
4481.7190828919893
 20
-283.0108912715059
 30
0.0
 11
4488.5813416053988
 21
-276.14863255809269
 31
0.0
1001
GRADIENTCOLOR1ACI
1070
     5
1001
GRADIENTCOLOR2ACI
1070
     2
1001
ACAD
1010
0.0
1020
0.0
1030
0.0
  0
LINE
  5
1280DD
  8
SLIM
 10
4489.3766938558792
 20
-284.333536428684
 30
0.0
 11
4496.7776839889611
 21
-276.93254629560221
 31
0.0
1001
GRADIENTCOLOR1ACI
1070
     5
1001
GRADIENTCOLOR2ACI
1070
     2
1001
ACAD
1010
0.0
1020
0.0
1030
0.0
  0
LINE
  5
1280DE
  8
SLIM
 10
4497.7210427574209
 20
-284.96944364821047
 30
0.0
 11
4499.9999999999991
 21
-282.69048640563329
 31
0.0
1001
GRADIENTCOLOR1ACI
1070
     5
1001
GRADIENTCOLOR2ACI
1070
     2
1001
ACAD
1010
0.0
1020
0.0
1030
0.0
  0
LINE
  5
1280DF
  8
SLIM
 10
4499.9999999999991
 20
-282.69048640563329
 30
0.0
 11
4505.9182638720868
 21
-276.77222253354472
 31
0.0
1001
GRADIENTCOLOR1ACI
1070
     5
1001
GRADIENTCOLOR2ACI
1070
     2
1001
ACAD
1010
0.0
1020
0.0
1030
0.0
  0
LINE
  5
1280E0
  8
SLIM
 10
4506.9558298417924
 20
-284.7149126849099
 30
0.0
 11
4516.4479804102857
 21
-275.22276211641378
 31
0.0
1001
GRADIENTCOLOR1ACI
1070
     5
1001
GRADIENTCOLOR2ACI
1070
     2
1001
ACAD
1010
0.0
1020
0.0
1030
0.0
  0
LINE
  5
1280E1
  8
SLIM
 10
4517.4645176312806
 20
-283.18648101648802
 30
0.0
 11
4529.5446399142847
 21
-271.1063587334848
 31
0.0
1001
GRADIENTCOLOR1ACI
1070
     5
1001
GRADIENTCOLOR2ACI
1070
     2
1001
ACAD
1010
0.0
1020
0.0
1030
0.0
  0
LINE
  5
1280E2
  8
SLIM
 10
4530.1631022713109
 20
-279.46815249752763
 30
0.0
 11
4547.6312547688394
 21
-262.0
 31
0.0
1001
GRADIENTCOLOR1ACI
1070
     5
1001
GRADIENTCOLOR2ACI
1070
     2
1001
ACAD
1010
0.0
1020
0.0
1030
0.0
  0
LINE
  5
1280E3
  8
SLIM
 10
4549.542181759909
 20
-269.0693291299977
 30
0.0
 11
4556.6115108899112
 21
-261.99999999999909
 31
0.0
1001
GRADIENTCOLOR1ACI
1070
     5
1001
GRADIENTCOLOR2ACI
1070
     2
1001
ACAD
1010
0.0
1020
0.0
1030
0.0
  0
LINE
  5
1280E4
  8
SLIM
 10
4914.9999999999918
 20
-849.27641430503331
 30
0.0
 11
4918.2764143050317
 21
-845.99999999999443
 31
0.0
1001
ACDBBLOCKREPETAG
1070
     1
1071
        0
1005
0
1001
ACAD
1010
0.0
1020
0.0
1030
0.0
  0
LINE
  5
1280E5
  8
SLIM
 10
4914.9999999999927
 20
-867.23692654717058
 30
0.0
 11
4936.2369265471698
 21
-845.99999999999443
 31
0.0
1001
ACDBBLOCKREPETAG
1070
     1
1071
        0
1005
0
1001
ACAD
1010
0.0
1020
0.0
1030
0.0
  0
LINE
  5
1280E6
  8
SLIM
 10
4914.9999999999955
 20
-885.19743878930808
 30
0.0
 11
4954.1974387893088
 21
-845.99999999999443
 31
0.0
1001
ACDBBLOCKREPETAG
1070
     1
1071
        0
1005
0
1001
ACAD
1010
0.0
1020
0.0
1030
0.0
  0
LINE
  5
1280E7
  8
SLIM
 10
4914.9999999999955
 20
-903.1579510314458
 30
0.0
 11
4972.1579510314468
 21
-845.99999999999443
 31
0.0
1001
ACDBBLOCKREPETAG
1070
     1
1071
        0
1005
0
1001
ACAD
1010
0.0
1020
0.0
1030
0.0
  0
LINE
  5
1280E8
  8
SLIM
 10
4915.1454972543161
 20
-920.97296601926325
 30
0.0
 11
4990.1184632735849
 21
-845.99999999999443
 31
0.0
1001
ACDBBLOCKREPETAG
1070
     1
1071
        0
1005
0
1001
ACAD
1010
0.0
1020
0.0
1030
0.0
  0
LINE
  5
1280E9
  8
SLIM
 10
4917.104627495245
 20
-936.97434802047394
 30
0.0
 11
5008.078975515723
 21
-845.99999999999443
 31
0.0
1001
ACDBBLOCKREPETAG
1070
     1
1071
        0
1005
0
1001
ACAD
1010
0.0
1020
0.0
1030
0.0
  0
LINE
  5
1280EA
  8
SLIM
 10
4919.0637577361713
 20
-952.97573002168394
 30
0.0
 11
5026.0394877578619
 21
-845.99999999999443
 31
0.0
1001
ACDBBLOCKREPETAG
1070
     1
1071
        0
1005
0
1001
ACAD
1010
0.0
1020
0.0
1030
0.0
  0
LINE
  5
1280EB
  8
SLIM
 10
4920.0
 20
-969.99999999999443
 30
0.0
 11
5044.0
 21
-845.99999999999443
 31
0.0
1001
ACDBBLOCKREPETAG
1070
     1
1071
        0
1005
0
1001
ACAD
1010
0.0
1020
0.0
1030
0.0
  0
LINE
  5
1280EC
  8
SLIM
 10
4920.0
 20
-987.96051224213261
 30
0.0
 11
5061.9605122421381
 21
-845.99999999999443
 31
0.0
1001
ACDBBLOCKREPETAG
1070
     1
1071
        0
1005
0
1001
ACAD
1010
0.0
1020
0.0
1030
0.0
  0
LINE
  5
1280ED
  8
SLIM
 10
4920.0
 20
-1005.921024484271
 30
0.0
 11
5079.9210244842761
 21
-845.99999999999443
 31
0.0
1001
ACDBBLOCKREPETAG
1070
     1
1071
        0
1005
0
1001
ACAD
1010
0.0
1020
0.0
1030
0.0
  0
LINE
  5
1280EE
  8
SLIM
 10
4920.0
 20
-1023.881536726409
 30
0.0
 11
5085.0000000000073
 21
-858.88153672640249
 31
0.0
1001
ACDBBLOCKREPETAG
1070
     1
1071
        0
1005
0
1001
ACAD
1010
0.0
1020
0.0
1030
0.0
  0
LINE
  5
1280EF
  8
SLIM
 10
4920.0
 20
-1041.842048968547
 30
0.0
 11
5085.0000000000073
 21
-876.84204896854158
 31
0.0
1001
ACDBBLOCKREPETAG
1070
     1
1071
        0
1005
0
1001
ACAD
1010
0.0
1020
0.0
1030
0.0
  0
LINE
  5
1280F0
  8
SLIM
 10
4920.0
 20
-1059.802561210686
 30
0.0
 11
5085.0000000000036
 21
-894.80256121068101
 31
0.0
1001
ACDBBLOCKREPETAG
1070
     1
1071
        0
1005
0
1001
ACAD
1010
0.0
1020
0.0
1030
0.0
  0
LINE
  5
1280F1
  8
SLIM
 10
4920.0
 20
-1077.7630734528241
 30
0.0
 11
5085.0000000000036
 21
-912.76307345282009
 31
0.0
1001
ACDBBLOCKREPETAG
1070
     1
1071
        0
1005
0
1001
ACAD
1010
0.0
1020
0.0
1030
0.0
  0
LINE
  5
1280F2
  8
SLIM
 10
4929.7235856949692
 20
-1085.9999999999941
 30
0.0
 11
5083.4738280308084
 21
-932.249757664154
 31
0.0
1001
ACDBBLOCKREPETAG
1070
     1
1071
        0
1005
0
1001
ACAD
1010
0.0
1020
0.0
1030
0.0
  0
LINE
  5
1280F3
  8
SLIM
 10
4930.0
 20
-1103.6840979371
 30
0.0
 11
4947.6840979371063
 21
-1085.9999999999941
 31
0.0
1001
ACDBBLOCKREPETAG
1070
     1
1071
        0
1005
0
1001
ACAD
1010
0.0
1020
0.0
1030
0.0
  0
LINE
  5
1280F4
  8
SLIM
 10
4947.6840979371063
 20
-1085.9999999999941
 30
0.0
 11
5080.9680345671377
 21
-952.71606336996354
 31
0.0
1001
ACDBBLOCKREPETAG
1070
     1
1071
        0
1005
0
1001
ACAD
1010
0.0
1020
0.0
1030
0.0
  0
LINE
  5
1280F5
  8
SLIM
 10
4946.6446101792453
 20
-1104.9999999999941
 30
0.0
 11
4965.6446101792453
 21
-1085.9999999999941
 31
0.0
1001
ACDBBLOCKREPETAG
1070
     1
1071
        0
1005
0
1001
ACAD
1010
0.0
1020
0.0
1030
0.0
  0
LINE
  5
1280F6
  8
SLIM
 10
4965.6446101792453
 20
-1085.9999999999941
 30
0.0
 11
5080.0
 21
-971.64461017923918
 31
0.0
1001
ACDBBLOCKREPETAG
1070
     1
1071
        0
1005
0
1001
ACAD
1010
0.0
1020
0.0
1030
0.0
  0
LINE
  5
1280F7
  8
SLIM
 10
4964.6051224213843
 20
-1104.9999999999941
 30
0.0
 11
4983.6051224213843
 21
-1085.9999999999941
 31
0.0
1001
ACDBBLOCKREPETAG
1070
     1
1071
        0
1005
0
1001
ACAD
1010
0.0
1020
0.0
1030
0.0
  0
LINE
  5
1280F8
  8
SLIM
 10
4983.6051224213843
 20
-1085.9999999999941
 30
0.0
 11
5080.0
 21
-989.60512242137759
 31
0.0
1001
ACDBBLOCKREPETAG
1070
     1
1071
        0
1005
0
1001
ACAD
1010
0.0
1020
0.0
1030
0.0
  0
LINE
  5
1280F9
  8
SLIM
 10
4982.5656346635215
 20
-1104.9999999999941
 30
0.0
 11
5001.5656346635215
 21
-1085.9999999999941
 31
0.0
1001
ACDBBLOCKREPETAG
1070
     1
1071
        0
1005
0
1001
ACAD
1010
0.0
1020
0.0
1030
0.0
  0
LINE
  5
1280FA
  8
SLIM
 10
5001.5656346635215
 20
-1085.9999999999941
 30
0.0
 11
5079.9999999999991
 21
-1007.565634663516
 31
0.0
1001
ACDBBLOCKREPETAG
1070
     1
1071
        0
1005
0
1001
ACAD
1010
0.0
1020
0.0
1030
0.0
  0
LINE
  5
1280FB
  8
SLIM
 10
5000.5261469056577
 20
-1104.9999999999941
 30
0.0
 11
5019.5261469056613
 21
-1085.9999999999941
 31
0.0
1001
ACDBBLOCKREPETAG
1070
     1
1071
        0
1005
0
1001
ACAD
1010
0.0
1020
0.0
1030
0.0
  0
LINE
  5
1280FC
  8
SLIM
 10
5019.5261469056613
 20
-1085.9999999999941
 30
0.0
 11
5079.9999999999991
 21
-1025.526146905655
 31
0.0
1001
ACDBBLOCKREPETAG
1070
     1
1071
        0
1005
0
1001
ACAD
1010
0.0
1020
0.0
1030
0.0
  0
LINE
  5
1280FD
  8
SLIM
 10
5018.4866591477967
 20
-1104.9999999999941
 30
0.0
 11
5037.4866591477976
 21
-1085.9999999999941
 31
0.0
1001
ACDBBLOCKREPETAG
1070
     1
1071
        0
1005
0
1001
ACAD
1010
0.0
1020
0.0
1030
0.0
  0
LINE
  5
1280FE
  8
SLIM
 10
5037.4866591477976
 20
-1085.9999999999941
 30
0.0
 11
5079.9999999999991
 21
-1043.486659147793
 31
0.0
1001
ACDBBLOCKREPETAG
1070
     1
1071
        0
1005
0
1001
ACAD
1010
0.0
1020
0.0
1030
0.0
  0
LINE
  5
1280FF
  8
SLIM
 10
5036.4471713899366
 20
-1104.9999999999941
 30
0.0
 11
5055.4471713899356
 21
-1085.9999999999941
 31
0.0
1001
ACDBBLOCKREPETAG
1070
     1
1071
        0
1005
0
1001
ACAD
1010
0.0
1020
0.0
1030
0.0
  0
LINE
  5
128100
  8
SLIM
 10
5055.4471713899356
 20
-1085.9999999999941
 30
0.0
 11
5079.9999999999982
 21
-1061.447171389932
 31
0.0
1001
ACDBBLOCKREPETAG
1070
     1
1071
        0
1005
0
1001
ACAD
1010
0.0
1020
0.0
1030
0.0
  0
LINE
  5
128101
  8
SLIM
 10
5054.4076836320737
 20
-1104.9999999999941
 30
0.0
 11
5070.0
 21
-1089.407683632068
 31
0.0
1001
ACDBBLOCKREPETAG
1070
     1
1071
        0
1005
0
1001
ACAD
1010
0.0
1020
0.0
1030
0.0
  0
LINE
  5
128102
  8
SLIM
 10
5073.4076836320737
 20
-1085.9999999999941
 30
0.0
 11
5079.9999999999982
 21
-1079.4076836320701
 31
0.0
1001
ACDBBLOCKREPETAG
1070
     1
1071
        0
1005
0
1001
ACAD
1010
0.0
1020
0.0
1030
0.0
  0
LINE
  5
128103
  8
OBJECT
 10
4914.9999999999918
 20
-845.99999999999443
 30
0.0
 11
4914.9999999999991
 21
-919.78460339902881
 31
0.0
1001
ACDBBLOCKREPETAG
1070
     1
1071
        1
1005
128103
  0
LINE
  5
128104
  8
OBJECT
 10
5085.0000000000073
 20
-845.99999999999443
 30
0.0
 11
5085.0000000000036
 21
-919.7846033990362
 31
0.0
1001
ACDBBLOCKREPETAG
1070
     1
1071
        2
1005
128104
  0
LINE
  5
128105
  8
OBJECT
 10
5085.0000000000073
 20
-845.99999999999443
 30
0.0
 11
4914.9999999999918
 21
-845.99999999999443
 31
0.0
1001
ACDBBLOCKREPETAG
1070
     1
1071
        3
1005
128105
  0
LINE
  5
128106
  8
OBJECT
 10
5079.9999999999982
 20
-1085.9999999999941
 30
0.0
 11
4920.0
 21
-1085.9999999999941
 31
0.0
1001
ACDBBLOCKREPETAG
1070
     1
1071
        4
1005
128106
  0
LINE
  5
128107
  8
OBJECT
 10
4914.9999999999991
 20
-919.78460339902961
 30
0.0
 11
4920.0
 21
-960.62257748298111
 31
0.0
1001
ACDBBLOCKREPETAG
1070
     1
1071
        6
1005
128107
  0
LINE
  5
128108
  8
OBJECT
 10
4920.0
 20
-960.62257748298111
 30
0.0
 11
4920.0
 21
-1085.9999999999941
 31
0.0
1001
ACDBBLOCKREPETAG
1070
     1
1071
        7
1005
128108
  0
LINE
  5
128109
  8
OBJECT
 10
5085.0000000000036
 20
-919.7846033990362
 30
0.0
 11
5080.0
 21
-960.62257748298111
 31
0.0
1001
ACDBBLOCKREPETAG
1070
     1
1071
        8
1005
128109
  0
LINE
  5
12810A
  8
OBJECT
 10
5080.0
 20
-960.62257748298111
 30
0.0
 11
5079.9999999999982
 21
-1085.9999999999941
 31
0.0
1001
ACDBBLOCKREPETAG
1070
     1
1071
        9
1005
12810A
  0
LINE
  5
12810B
  8
OBJECT
 10
4930.0
 20
-1085.9999999999941
 30
0.0
 11
4930.0
 21
-1104.9999999999941
 31
0.0
1001
ACDBBLOCKREPETAG
1070
     1
1071
       10
1005
12810B
  0
LINE
  5
12810C
  8
OBJECT
 10
4930.0
 20
-1104.9999999999941
 30
0.0
 11
5070.0
 21
-1104.9999999999941
 31
0.0
1001
ACDBBLOCKREPETAG
1070
     1
1071
       11
1005
12810C
  0
LINE
  5
12810D
  8
OBJECT
 10
5070.0
 20
-1104.9999999999941
 30
0.0
 11
5070.0
 21
-1085.9999999999941
 31
0.0
1001
ACDBBLOCKREPETAG
1070
     1
1071
       12
1005
12810D
  0
LINE
  5
12810E
  8
SLIM
 10
4414.9999999999918
 20
-849.27641430503331
 30
0.0
 11
4418.2764143050317
 21
-845.99999999999443
 31
0.0
1001
ACDBBLOCKREPETAG
1070
     1
1071
        0
1005
0
1001
ACAD
1010
0.0
1020
0.0
1030
0.0
  0
LINE
  5
12810F
  8
SLIM
 10
4414.9999999999927
 20
-867.23692654717058
 30
0.0
 11
4436.2369265471689
 21
-845.99999999999443
 31
0.0
1001
ACDBBLOCKREPETAG
1070
     1
1071
        0
1005
0
1001
ACAD
1010
0.0
1020
0.0
1030
0.0
  0
LINE
  5
128110
  8
SLIM
 10
4414.9999999999927
 20
-885.19743878930808
 30
0.0
 11
4454.1974387893088
 21
-845.99999999999443
 31
0.0
1001
ACDBBLOCKREPETAG
1070
     1
1071
        0
1005
0
1001
ACAD
1010
0.0
1020
0.0
1030
0.0
  0
LINE
  5
128111
  8
SLIM
 10
4414.9999999999955
 20
-903.1579510314458
 30
0.0
 11
4472.1579510314468
 21
-845.99999999999443
 31
0.0
1001
ACDBBLOCKREPETAG
1070
     1
1071
        0
1005
0
1001
ACAD
1010
0.0
1020
0.0
1030
0.0
  0
LINE
  5
128112
  8
SLIM
 10
4415.1454972543161
 20
-920.97296601926325
 30
0.0
 11
4490.118463273584
 21
-845.99999999999443
 31
0.0
1001
ACDBBLOCKREPETAG
1070
     1
1071
        0
1005
0
1001
ACAD
1010
0.0
1020
0.0
1030
0.0
  0
LINE
  5
128113
  8
SLIM
 10
4417.1046274952441
 20
-936.97434802047394
 30
0.0
 11
4508.078975515723
 21
-845.99999999999443
 31
0.0
1001
ACDBBLOCKREPETAG
1070
     1
1071
        0
1005
0
1001
ACAD
1010
0.0
1020
0.0
1030
0.0
  0
LINE
  5
128114
  8
SLIM
 10
4419.0637577361713
 20
-952.97573002168394
 30
0.0
 11
4526.0394877578619
 21
-845.99999999999443
 31
0.0
1001
ACDBBLOCKREPETAG
1070
     1
1071
        0
1005
0
1001
ACAD
1010
0.0
1020
0.0
1030
0.0
  0
LINE
  5
128115
  8
SLIM
 10
4420.0
 20
-969.99999999999443
 30
0.0
 11
4544.0
 21
-845.99999999999443
 31
0.0
1001
ACDBBLOCKREPETAG
1070
     1
1071
        0
1005
0
1001
ACAD
1010
0.0
1020
0.0
1030
0.0
  0
LINE
  5
128116
  8
SLIM
 10
4420.0
 20
-987.96051224213261
 30
0.0
 11
4561.9605122421381
 21
-845.99999999999443
 31
0.0
1001
ACDBBLOCKREPETAG
1070
     1
1071
        0
1005
0
1001
ACAD
1010
0.0
1020
0.0
1030
0.0
  0
LINE
  5
128117
  8
SLIM
 10
4420.0
 20
-1005.921024484271
 30
0.0
 11
4579.9210244842761
 21
-845.99999999999443
 31
0.0
1001
ACDBBLOCKREPETAG
1070
     1
1071
        0
1005
0
1001
ACAD
1010
0.0
1020
0.0
1030
0.0
  0
LINE
  5
128118
  8
SLIM
 10
4420.0
 20
-1023.881536726409
 30
0.0
 11
4585.0000000000073
 21
-858.88153672640249
 31
0.0
1001
ACDBBLOCKREPETAG
1070
     1
1071
        0
1005
0
1001
ACAD
1010
0.0
1020
0.0
1030
0.0
  0
LINE
  5
128119
  8
SLIM
 10
4420.0
 20
-1041.842048968547
 30
0.0
 11
4585.0000000000073
 21
-876.84204896854158
 31
0.0
1001
ACDBBLOCKREPETAG
1070
     1
1071
        0
1005
0
1001
ACAD
1010
0.0
1020
0.0
1030
0.0
  0
LINE
  5
12811A
  8
SLIM
 10
4420.0
 20
-1059.802561210686
 30
0.0
 11
4585.0000000000036
 21
-894.80256121068101
 31
0.0
1001
ACDBBLOCKREPETAG
1070
     1
1071
        0
1005
0
1001
ACAD
1010
0.0
1020
0.0
1030
0.0
  0
LINE
  5
12811B
  8
SLIM
 10
4420.0
 20
-1077.7630734528241
 30
0.0
 11
4585.0
 21
-912.76307345282009
 31
0.0
1001
ACDBBLOCKREPETAG
1070
     1
1071
        0
1005
0
1001
ACAD
1010
0.0
1020
0.0
1030
0.0
  0
LINE
  5
12811C
  8
SLIM
 10
4429.7235856949683
 20
-1085.9999999999941
 30
0.0
 11
4583.4738280308084
 21
-932.249757664154
 31
0.0
1001
ACDBBLOCKREPETAG
1070
     1
1071
        0
1005
0
1001
ACAD
1010
0.0
1020
0.0
1030
0.0
  0
LINE
  5
12811D
  8
SLIM
 10
4430.0
 20
-1103.6840979371
 30
0.0
 11
4447.6840979371054
 21
-1085.9999999999941
 31
0.0
1001
ACDBBLOCKREPETAG
1070
     1
1071
        0
1005
0
1001
ACAD
1010
0.0
1020
0.0
1030
0.0
  0
LINE
  5
12811E
  8
SLIM
 10
4447.6840979371054
 20
-1085.9999999999941
 30
0.0
 11
4580.9680345671368
 21
-952.71606336996354
 31
0.0
1001
ACDBBLOCKREPETAG
1070
     1
1071
        0
1005
0
1001
ACAD
1010
0.0
1020
0.0
1030
0.0
  0
LINE
  5
12811F
  8
SLIM
 10
4446.6446101792453
 20
-1104.9999999999941
 30
0.0
 11
4465.6446101792453
 21
-1085.9999999999941
 31
0.0
1001
ACDBBLOCKREPETAG
1070
     1
1071
        0
1005
0
1001
ACAD
1010
0.0
1020
0.0
1030
0.0
  0
LINE
  5
128120
  8
SLIM
 10
4465.6446101792453
 20
-1085.9999999999941
 30
0.0
 11
4580.0
 21
-971.64461017923918
 31
0.0
1001
ACDBBLOCKREPETAG
1070
     1
1071
        0
1005
0
1001
ACAD
1010
0.0
1020
0.0
1030
0.0
  0
LINE
  5
128121
  8
SLIM
 10
4464.6051224213843
 20
-1104.9999999999941
 30
0.0
 11
4483.6051224213843
 21
-1085.9999999999941
 31
0.0
1001
ACDBBLOCKREPETAG
1070
     1
1071
        0
1005
0
1001
ACAD
1010
0.0
1020
0.0
1030
0.0
  0
LINE
  5
128122
  8
SLIM
 10
4483.6051224213843
 20
-1085.9999999999941
 30
0.0
 11
4580.0
 21
-989.60512242137759
 31
0.0
1001
ACDBBLOCKREPETAG
1070
     1
1071
        0
1005
0
1001
ACAD
1010
0.0
1020
0.0
1030
0.0
  0
LINE
  5
128123
  8
SLIM
 10
4482.5656346635215
 20
-1104.9999999999941
 30
0.0
 11
4501.5656346635215
 21
-1085.9999999999941
 31
0.0
1001
ACDBBLOCKREPETAG
1070
     1
1071
        0
1005
0
1001
ACAD
1010
0.0
1020
0.0
1030
0.0
  0
LINE
  5
128124
  8
SLIM
 10
4501.5656346635215
 20
-1085.9999999999941
 30
0.0
 11
4579.9999999999991
 21
-1007.565634663516
 31
0.0
1001
ACDBBLOCKREPETAG
1070
     1
1071
        0
1005
0
1001
ACAD
1010
0.0
1020
0.0
1030
0.0
  0
LINE
  5
128125
  8
SLIM
 10
4500.5261469056577
 20
-1104.9999999999941
 30
0.0
 11
4519.5261469056604
 21
-1085.9999999999941
 31
0.0
1001
ACDBBLOCKREPETAG
1070
     1
1071
        0
1005
0
1001
ACAD
1010
0.0
1020
0.0
1030
0.0
  0
LINE
  5
128126
  8
SLIM
 10
4519.5261469056604
 20
-1085.9999999999941
 30
0.0
 11
4579.9999999999991
 21
-1025.526146905655
 31
0.0
1001
ACDBBLOCKREPETAG
1070
     1
1071
        0
1005
0
1001
ACAD
1010
0.0
1020
0.0
1030
0.0
  0
LINE
  5
128127
  8
SLIM
 10
4518.4866591477967
 20
-1104.9999999999941
 30
0.0
 11
4537.4866591477976
 21
-1085.9999999999941
 31
0.0
1001
ACDBBLOCKREPETAG
1070
     1
1071
        0
1005
0
1001
ACAD
1010
0.0
1020
0.0
1030
0.0
  0
LINE
  5
128128
  8
SLIM
 10
4537.4866591477976
 20
-1085.9999999999941
 30
0.0
 11
4579.9999999999991
 21
-1043.486659147793
 31
0.0
1001
ACDBBLOCKREPETAG
1070
     1
1071
        0
1005
0
1001
ACAD
1010
0.0
1020
0.0
1030
0.0
  0
LINE
  5
128129
  8
SLIM
 10
4536.4471713899347
 20
-1104.9999999999941
 30
0.0
 11
4555.4471713899356
 21
-1085.9999999999941
 31
0.0
1001
ACDBBLOCKREPETAG
1070
     1
1071
        0
1005
0
1001
ACAD
1010
0.0
1020
0.0
1030
0.0
  0
LINE
  5
12812A
  8
SLIM
 10
4555.4471713899356
 20
-1085.9999999999941
 30
0.0
 11
4579.9999999999982
 21
-1061.447171389932
 31
0.0
1001
ACDBBLOCKREPETAG
1070
     1
1071
        0
1005
0
1001
ACAD
1010
0.0
1020
0.0
1030
0.0
  0
LINE
  5
12812B
  8
SLIM
 10
4554.4076836320728
 20
-1104.9999999999941
 30
0.0
 11
4570.0
 21
-1089.407683632068
 31
0.0
1001
ACDBBLOCKREPETAG
1070
     1
1071
        0
1005
0
1001
ACAD
1010
0.0
1020
0.0
1030
0.0
  0
LINE
  5
12812C
  8
SLIM
 10
4573.4076836320737
 20
-1085.9999999999941
 30
0.0
 11
4579.9999999999982
 21
-1079.4076836320701
 31
0.0
1001
ACDBBLOCKREPETAG
1070
     1
1071
        0
1005
0
1001
ACAD
1010
0.0
1020
0.0
1030
0.0
  0
LINE
  5
12812D
  8
OBJECT
 10
4414.9999999999918
 20
-845.99999999999443
 30
0.0
 11
4414.9999999999973
 21
-919.78460339902881
 31
0.0
1001
ACDBBLOCKREPETAG
1070
     1
1071
        1
1005
12812D
  0
LINE
  5
12812E
  8
OBJECT
 10
4585.0000000000073
 20
-845.99999999999443
 30
0.0
 11
4585.0
 21
-919.7846033990362
 31
0.0
1001
ACDBBLOCKREPETAG
1070
     1
1071
        2
1005
12812E
  0
LINE
  5
12812F
  8
OBJECT
 10
4585.0000000000073
 20
-845.99999999999443
 30
0.0
 11
4414.9999999999918
 21
-845.99999999999443
 31
0.0
1001
ACDBBLOCKREPETAG
1070
     1
1071
        3
1005
12812F
  0
LINE
  5
128130
  8
OBJECT
 10
4579.9999999999982
 20
-1085.9999999999941
 30
0.0
 11
4420.0
 21
-1085.9999999999941
 31
0.0
1001
ACDBBLOCKREPETAG
1070
     1
1071
        4
1005
128130
  0
LINE
  5
128131
  8
OBJECT
 10
4414.9999999999973
 20
-919.78460339902961
 30
0.0
 11
4420.0
 21
-960.62257748298111
 31
0.0
1001
ACDBBLOCKREPETAG
1070
     1
1071
        6
1005
128131
  0
LINE
  5
128132
  8
OBJECT
 10
4420.0
 20
-960.62257748298111
 30
0.0
 11
4420.0
 21
-1085.9999999999941
 31
0.0
1001
ACDBBLOCKREPETAG
1070
     1
1071
        7
1005
128132
  0
LINE
  5
128133
  8
OBJECT
 10
4585.0
 20
-919.7846033990362
 30
0.0
 11
4580.0
 21
-960.62257748298111
 31
0.0
1001
ACDBBLOCKREPETAG
1070
     1
1071
        8
1005
128133
  0
LINE
  5
128134
  8
OBJECT
 10
4580.0
 20
-960.62257748298111
 30
0.0
 11
4579.9999999999982
 21
-1085.9999999999941
 31
0.0
1001
ACDBBLOCKREPETAG
1070
     1
1071
        9
1005
128134
  0
LINE
  5
128135
  8
OBJECT
 10
4430.0
 20
-1085.9999999999941
 30
0.0
 11
4430.0
 21
-1104.9999999999941
 31
0.0
1001
ACDBBLOCKREPETAG
1070
     1
1071
       10
1005
128135
  0
LINE
  5
128136
  8
OBJECT
 10
4430.0
 20
-1104.9999999999941
 30
0.0
 11
4570.0
 21
-1104.9999999999941
 31
0.0
1001
ACDBBLOCKREPETAG
1070
     1
1071
       11
1005
128136
  0
LINE
  5
128137
  8
OBJECT
 10
4570.0
 20
-1104.9999999999941
 30
0.0
 11
4570.0
 21
-1085.9999999999941
 31
0.0
1001
ACDBBLOCKREPETAG
1070
     1
1071
       12
1005
128137
  0
LINE
  5
128138
  8
OBJECT
 10
4930.0
 20
-1199.999999999992
 30
0.0
 11
5070.0
 21
-1199.999999999992
 31
0.0
1001
ACDBBLOCKREPETAG
1070
     1
1071
        0
1005
128138
  0
LINE
  5
128139
  8
OBJECT
 10
4930.0
 20
-1199.999999999992
 30
0.0
 11
4930.0
 21
-959.99999999999261
 31
0.0
1001
ACDBBLOCKREPETAG
1070
     1
1071
        1
1005
128139
  0
LINE
  5
12813A
  8
OBJECT
 10
5070.0
 20
-1199.999999999992
 30
0.0
 11
5070.0
 21
-959.99999999999261
 31
0.0
1001
ACDBBLOCKREPETAG
1070
     1
1071
        2
1005
12813A
  0
LINE
  5
12813B
  8
OBJECT
 10
4930.0
 20
-959.99999999999261
 30
0.0
 11
5070.0
 21
-959.99999999999261
 31
0.0
1001
ACDBBLOCKREPETAG
1070
     1
1071
        3
1005
12813B
  0
LINE
  5
12813C
  8
HIDDEN
 10
4937.5
 20
-959.99999999999261
 30
0.0
 11
4937.5
 21
-1199.999999999992
 31
0.0
1001
ACDBBLOCKREPETAG
1070
     1
1071
        4
1005
12813C
  0
LINE
  5
12813D
  8
HIDDEN
 10
5062.5
 20
-959.99999999999261
 30
0.0
 11
5062.5
 21
-1199.999999999992
 31
0.0
1001
ACDBBLOCKREPETAG
1070
     1
1071
        5
1005
12813D
  0
LINE
  5
12813E
  8
CENTER
 10
5000.0
 20
-889.99999999999409
 30
0.0
 11
5000.0
 21
-1214.999999999992
 31
0.0
1001
ACDBBLOCKREPETAG
1070
     1
1071
        6
1005
12813E
  0
LINE
  5
12813F
  8
OBJECT
 10
4925.0
 20
-889.99999999999409
 30
0.0
 11
4925.0
 21
-919.99999999999238
 31
0.0
1001
ACDBBLOCKREPETAG
1070
     1
1071
        7
1005
12813F
  0
LINE
  5
128140
  8
OBJECT
 10
5075.0000000000018
 20
-889.99999999999409
 30
0.0
 11
5075.0
 21
-919.99999999999238
 31
0.0
1001
ACDBBLOCKREPETAG
1070
     1
1071
        8
1005
128140
  0
LINE
  5
128141
  8
OBJECT
 10
4925.0
 20
-919.99999999999238
 30
0.0
 11
5075.0
 21
-919.99999999999238
 31
0.0
1001
ACDBBLOCKREPETAG
1070
     1
1071
        9
1005
128141
  0
LINE
  5
128142
  8
OBJECT
 10
4925.0
 20
-919.99999999999238
 30
0.0
 11
4930.0
 21
-959.99999999999261
 31
0.0
1001
ACDBBLOCKREPETAG
1070
     1
1071
       10
1005
128142
  0
LINE
  5
128143
  8
OBJECT
 10
5070.0
 20
-959.99999999999261
 30
0.0
 11
5075.0
 21
-919.99999999999238
 31
0.0
1001
ACDBBLOCKREPETAG
1070
     1
1071
       11
1005
128143
  0
LINE
  5
128144
  8
OBJECT
 10
4430.0
 20
-1199.999999999992
 30
0.0
 11
4570.0
 21
-1199.999999999992
 31
0.0
1001
ACDBBLOCKREPETAG
1070
     1
1071
        0
1005
128144
  0
LINE
  5
128145
  8
OBJECT
 10
4430.0
 20
-1199.999999999992
 30
0.0
 11
4430.0
 21
-959.99999999999261
 31
0.0
1001
ACDBBLOCKREPETAG
1070
     1
1071
        1
1005
128145
  0
LINE
  5
128146
  8
OBJECT
 10
4570.0
 20
-1199.999999999992
 30
0.0
 11
4570.0
 21
-959.99999999999261
 31
0.0
1001
ACDBBLOCKREPETAG
1070
     1
1071
        2
1005
128146
  0
LINE
  5
128147
  8
OBJECT
 10
4430.0
 20
-959.99999999999261
 30
0.0
 11
4570.0
 21
-959.99999999999261
 31
0.0
1001
ACDBBLOCKREPETAG
1070
     1
1071
        3
1005
128147
  0
LINE
  5
128148
  8
HIDDEN
 10
4437.5
 20
-959.99999999999261
 30
0.0
 11
4437.5
 21
-1199.999999999992
 31
0.0
1001
ACDBBLOCKREPETAG
1070
     1
1071
        4
1005
128148
  0
LINE
  5
128149
  8
HIDDEN
 10
4562.5
 20
-959.99999999999261
 30
0.0
 11
4562.5
 21
-1199.999999999992
 31
0.0
1001
ACDBBLOCKREPETAG
1070
     1
1071
        5
1005
128149
  0
LINE
  5
12814A
  8
CENTER
 10
4500.0
 20
-889.99999999999409
 30
0.0
 11
4500.0
 21
-1214.999999999992
 31
0.0
1001
ACDBBLOCKREPETAG
1070
     1
1071
        6
1005
12814A
  0
LINE
  5
12814B
  8
OBJECT
 10
4425.0
 20
-889.99999999999409
 30
0.0
 11
4425.0
 21
-919.99999999999238
 31
0.0
1001
ACDBBLOCKREPETAG
1070
     1
1071
        7
1005
12814B
  0
LINE
  5
12814C
  8
OBJECT
 10
4575.0000000000009
 20
-889.99999999999409
 30
0.0
 11
4575.0
 21
-919.99999999999238
 31
0.0
1001
ACDBBLOCKREPETAG
1070
     1
1071
        8
1005
12814C
  0
LINE
  5
12814D
  8
OBJECT
 10
4425.0
 20
-919.99999999999238
 30
0.0
 11
4575.0
 21
-919.99999999999238
 31
0.0
1001
ACDBBLOCKREPETAG
1070
     1
1071
        9
1005
12814D
  0
LINE
  5
12814E
  8
OBJECT
 10
4425.0
 20
-919.99999999999238
 30
0.0
 11
4430.0
 21
-959.99999999999261
 31
0.0
1001
ACDBBLOCKREPETAG
1070
     1
1071
       10
1005
12814E
  0
LINE
  5
12814F
  8
OBJECT
 10
4570.0
 20
-959.99999999999261
 30
0.0
 11
4575.0
 21
-919.99999999999238
 31
0.0
1001
ACDBBLOCKREPETAG
1070
     1
1071
       11
1005
12814F
  0
LINE
  5
128150
  8
OBJECT
 10
2930.0
 20
-1199.999999999992
 30
0.0
 11
3070.0
 21
-1199.999999999992
 31
0.0
1001
ACDBBLOCKREPETAG
1070
     1
1071
        0
1005
128150
  0
LINE
  5
128151
  8
OBJECT
 10
2930.0
 20
-1199.999999999992
 30
0.0
 11
2930.0
 21
-959.99999999999261
 31
0.0
1001
ACDBBLOCKREPETAG
1070
     1
1071
        1
1005
128151
  0
LINE
  5
128152
  8
OBJECT
 10
3070.0
 20
-1199.999999999992
 30
0.0
 11
3070.0
 21
-959.99999999999261
 31
0.0
1001
ACDBBLOCKREPETAG
1070
     1
1071
        2
1005
128152
  0
LINE
  5
128153
  8
OBJECT
 10
2930.0
 20
-959.99999999999261
 30
0.0
 11
3070.0
 21
-959.99999999999261
 31
0.0
1001
ACDBBLOCKREPETAG
1070
     1
1071
        3
1005
128153
  0
LINE
  5
128154
  8
HIDDEN
 10
2937.5
 20
-959.99999999999261
 30
0.0
 11
2937.5
 21
-1199.999999999992
 31
0.0
1001
ACDBBLOCKREPETAG
1070
     1
1071
        4
1005
128154
  0
LINE
  5
128155
  8
HIDDEN
 10
3062.5
 20
-959.99999999999261
 30
0.0
 11
3062.5
 21
-1199.999999999992
 31
0.0
1001
ACDBBLOCKREPETAG
1070
     1
1071
        5
1005
128155
  0
LINE
  5
128156
  8
CENTER
 10
3000.0
 20
-889.99999999999409
 30
0.0
 11
3000.0
 21
-1214.999999999992
 31
0.0
1001
ACDBBLOCKREPETAG
1070
     1
1071
        6
1005
128156
  0
LINE
  5
128157
  8
OBJECT
 10
2925.0
 20
-889.99999999999409
 30
0.0
 11
2925.0
 21
-919.99999999999238
 31
0.0
1001
ACDBBLOCKREPETAG
1070
     1
1071
        7
1005
128157
  0
LINE
  5
128158
  8
OBJECT
 10
3075.000000000005
 20
-889.99999999999409
 30
0.0
 11
3075.0
 21
-919.99999999999238
 31
0.0
1001
ACDBBLOCKREPETAG
1070
     1
1071
        8
1005
128158
  0
LINE
  5
128159
  8
OBJECT
 10
2925.0
 20
-919.99999999999238
 30
0.0
 11
3075.0
 21
-919.99999999999238
 31
0.0
1001
ACDBBLOCKREPETAG
1070
     1
1071
        9
1005
128159
  0
LINE
  5
12815A
  8
OBJECT
 10
2925.0
 20
-919.99999999999238
 30
0.0
 11
2930.0
 21
-959.99999999999261
 31
0.0
1001
ACDBBLOCKREPETAG
1070
     1
1071
       10
1005
12815A
  0
LINE
  5
12815B
  8
OBJECT
 10
3070.0
 20
-959.99999999999261
 30
0.0
 11
3075.0
 21
-919.99999999999238
 31
0.0
1001
ACDBBLOCKREPETAG
1070
     1
1071
       11
1005
12815B
  0
LINE
  5
12815C
  8
OBJECT
 10
2430.0
 20
-1199.999999999992
 30
0.0
 11
2570.0
 21
-1199.999999999992
 31
0.0
1001
ACDBBLOCKREPETAG
1070
     1
1071
        0
1005
12815C
  0
LINE
  5
12815D
  8
OBJECT
 10
2430.0
 20
-1199.999999999992
 30
0.0
 11
2430.0
 21
-959.99999999999261
 31
0.0
1001
ACDBBLOCKREPETAG
1070
     1
1071
        1
1005
12815D
  0
LINE
  5
12815E
  8
OBJECT
 10
2570.0
 20
-1199.999999999992
 30
0.0
 11
2570.0
 21
-959.99999999999261
 31
0.0
1001
ACDBBLOCKREPETAG
1070
     1
1071
        2
1005
12815E
  0
LINE
  5
12815F
  8
OBJECT
 10
2430.0
 20
-959.99999999999261
 30
0.0
 11
2570.0
 21
-959.99999999999261
 31
0.0
1001
ACDBBLOCKREPETAG
1070
     1
1071
        3
1005
12815F
  0
LINE
  5
128160
  8
HIDDEN
 10
2437.5
 20
-959.99999999999261
 30
0.0
 11
2437.5
 21
-1199.999999999992
 31
0.0
1001
ACDBBLOCKREPETAG
1070
     1
1071
        4
1005
128160
  0
LINE
  5
128161
  8
HIDDEN
 10
2562.5
 20
-959.99999999999261
 30
0.0
 11
2562.5
 21
-1199.999999999992
 31
0.0
1001
ACDBBLOCKREPETAG
1070
     1
1071
        5
1005
128161
  0
LINE
  5
128162
  8
CENTER
 10
2500.0
 20
-889.99999999999409
 30
0.0
 11
2500.0
 21
-1214.999999999992
 31
0.0
1001
ACDBBLOCKREPETAG
1070
     1
1071
        6
1005
128162
  0
LINE
  5
128163
  8
OBJECT
 10
2425.0
 20
-889.99999999999409
 30
0.0
 11
2425.0
 21
-919.99999999999238
 31
0.0
1001
ACDBBLOCKREPETAG
1070
     1
1071
        7
1005
128163
  0
LINE
  5
128164
  8
OBJECT
 10
2575.000000000005
 20
-889.99999999999409
 30
0.0
 11
2575.0
 21
-919.99999999999238
 31
0.0
1001
ACDBBLOCKREPETAG
1070
     1
1071
        8
1005
128164
  0
LINE
  5
128165
  8
OBJECT
 10
2425.0
 20
-919.99999999999238
 30
0.0
 11
2575.0
 21
-919.99999999999238
 31
0.0
1001
ACDBBLOCKREPETAG
1070
     1
1071
        9
1005
128165
  0
LINE
  5
128166
  8
OBJECT
 10
2425.0
 20
-919.99999999999238
 30
0.0
 11
2430.0
 21
-959.99999999999261
 31
0.0
1001
ACDBBLOCKREPETAG
1070
     1
1071
       10
1005
128166
  0
LINE
  5
128167
  8
OBJECT
 10
2570.0
 20
-959.99999999999261
 30
0.0
 11
2575.0
 21
-919.99999999999238
 31
0.0
1001
ACDBBLOCKREPETAG
1070
     1
1071
       11
1005
128167
  0
TEXT
  5
128168
  8
SLIM
 10
4243.7000000000025
 20
-1531.333359999998
 30
0.0
 40
28.0
  1
※ 対応P寸法　　90～150（10mm単位）
 41
0.75
  0
TEXT
  5
128169
  8
SLIM
 10
4243.2998000000034
 20
-1578.000026666665
 30
0.0
 40
28.0
  1
※ 対応スラブ厚　180～（380-P）
 41
0.75
  0
TEXT
  5
12816A
  8
SLIM
 10
4111.5000000000027
 20
-1649.999973333332
 30
0.0
 40
28.0
  1
国土交通大臣認定・（財）日本消防設備安全センター性能評定取得品
 41
0.75
  0
TEXT
  5
12816B
  8
SLIM
 10
4131.1000000000013
 20
-1696.666639999999
 30
0.0
 40
28.0
  1
注）ご採用にあたり、認定書及び評定書の内容をご確認ください。
 41
0.75
  0
TEXT
  5
12816C
  8
SLIM
 10
2256.3000000000002
 20
-1543.999999999998
 30
0.0
 40
28.0
  1
※ 対応P寸法　90～180（10mm単位）
 41
0.75
  0
LINE
  5
12816D
  8
DIM
 10
4404.9999999999936
 20
-845.9999999999942
 30
0.0
 11
4333.1164560757752
 21
-845.99999999999363
 31
0.0
  0
LINE
  5
12816E
  8
DIM
 10
4410.0
 20
-1085.9999999999941
 30
0.0
 11
4333.1164560757752
 21
-1085.9999999999941
 31
0.0
  0
LINE
  5
12816F
  8
DIM
 10
4343.1164560757752
 20
-865.99999999999409
 30
0.0
 11
4343.1164560757752
 21
-1065.9999999999941
 31
0.0
  0
INSERT
  5
128170
  8
DIM
  2
_OPEN30
 10
4343.1164560757752
 20
-845.99999999999363
 30
0.0
 41
20.0
 42
20.0
 43
20.0
 50
90.0
  0
INSERT
  5
128171
  8
DIM
  2
_OPEN30
 10
4343.1164560757752
 20
-1085.9999999999941
 30
0.0
 41
20.0
 42
20.0
 43
20.0
 50
270.0
  0
INSERT
  5
128172
  8
OBJECT
  2
*U6
 10
0.0
 20
0.0
 30
0.0
  0
LINE
  5
128173
  8
DIM
 10
4665.0
 20
-696.0
 30
0.0
 11
4719.4245816727544
 21
-696.0
 31
0.0
  0
LINE
  5
128174
  8
DIM
 10
4527.9164728671331
 20
-846.00000000000659
 30
0.0
 11
4719.4245816727544
 21
-846.00000000000659
 31
0.0
  0
LINE
  5
128175
  8
DIM
 10
4709.4245816727544
 20
-716.0
 30
0.0
 11
4709.4245816727544
 21
-826.00000000000614
 31
0.0
  0
INSERT
  5
128176
  8
DIM
  2
_OPEN30
 10
4709.4245816727544
 20
-696.0
 30
0.0
 41
20.0
 42
20.0
 43
20.0
 50
90.0
  0
INSERT
  5
128177
  8
DIM
  2
_OPEN30
 10
4709.4245816727544
 20
-846.00000000000659
 30
0.0
 41
20.0
 42
20.0
 43
20.0
 50
270.0
  0
INSERT
  5
128178
  8
OBJECT
  2
*U7
 10
0.0
 20
0.0
 30
0.0
  0
LINE
  5
128179
  8
DIM
 10
2665.0
 20
-696.0
 30
0.0
 11
2719.4245816727562
 21
-696.0
 31
0.0
  0
LINE
  5
12817A
  8
DIM
 10
2527.916472867169
 20
-845.99999999999443
 30
0.0
 11
2719.4245816727562
 21
-845.99999999999443
 31
0.0
  0
LINE
  5
12817B
  8
DIM
 10
2709.4245816727562
 20
-716.0
 30
0.0
 11
2709.4245816727562
 21
-825.9999999999942
 31
0.0
  0
INSERT
  5
12817C
  8
DIM
  2
_OPEN30
 10
2709.4245816727562
 20
-696.0
 30
0.0
 41
20.0
 42
20.0
 43
20.0
 50
90.0
  0
INSERT
  5
12817D
  8
DIM
  2
_OPEN30
 10
2709.4245816727562
 20
-845.99999999999443
 30
0.0
 41
20.0
 42
20.0
 43
20.0
 50
270.0
  0
INSERT
  5
12817E
  8
OBJECT
  2
*U8
 10
0.0
 20
0.0
 30
0.0
  0
LINE
  5
12817F
  8
CENTER
 10
4977.0000000000009
 20
-3640.9999999999959
 30
0.0
 11
4823.0000000000009
 21
-3640.9999999999959
 31
0.0
1001
ACDBBLOCKREPETAG
1070
     1
1071
       17
1005
12817F
  0
CIRCLE
  5
128180
  8
OBJECT
 10
4900.0000000000009
 20
-3640.9999999999959
 30
0.0
 40
41.5
1001
ACDBBLOCKREPETAG
1070
     1
1071
       18
1005
128180
  0
CIRCLE
  5
128181
  8
OBJECT
 10
4900.0000000000009
 20
-3640.9999999999959
 30
0.0
 40
54.0
1001
ACDBBLOCKREPETAG
1070
     1
1071
       19
1005
128181
  0
ARC
  5
128182
  8
OBJECT
 10
4900.0000000000009
 20
-3640.9999999999959
 30
0.0
 40
62.0
 50
287.89655112921122
 51
252.1034488707887
1001
ACDBBLOCKREPETAG
1070
     1
1071
       20
1005
128182
  0
LINE
  5
128183
  8
OBJECT
 10
4880.9474411167439
 20
-3699.9999999999968
 30
0.0
 11
4919.0525588832579
 21
-3699.9999999999968
 31
0.0
1001
ACDBBLOCKREPETAG
1070
     1
1071
       21
1005
128183
  0
POINT
  5
128184
  8
DOTS
 10
4900.0000000000009
 20
-3699.9999999999968
 30
0.0
1001
ACDBBLOCKREPETAG
1070
     1
1071
       24
1005
128184
  0
LINE
  5
128185
  8
OBJECT
 10
4633.0000000000009
 20
-3578.9999999999968
 30
0.0
 11
4640.0000000000009
 21
-3578.9999999999968
 31
0.0
1001
ACDBBLOCKREPETAG
1070
     1
1071
       46
1005
128185
  0
LINE
  5
128186
  8
OBJECT
 10
4640.0000000000009
 20
-3578.9999999999968
 30
0.0
 11
4640.0000000000009
 21
-3699.9999999999968
 31
0.0
1001
ACDBBLOCKREPETAG
1070
     1
1071
       47
1005
128186
  0
LINE
  5
128187
  8
OBJECT
 10
4633.0000000000009
 20
-3699.9999999999968
 30
0.0
 11
4633.0000000000009
 21
-3578.9999999999968
 31
0.0
1001
ACDBBLOCKREPETAG
1070
     1
1071
       48
1005
128187
  0
LINE
  5
128188
  8
CENTER
 10
4655.0000000000009
 20
-3640.9999999999959
 30
0.0
 11
4541.3449199130037
 21
-3641.0000000000618
 31
0.0
1001
ACDBBLOCKREPETAG
1070
     1
1071
       49
1005
128188
  0
LINE
  5
128189
  8
OBJECT
 10
4633.0000000000009
 20
-3581.9999999999968
 30
0.0
 11
4597.0000000000009
 21
-3581.9999999999968
 31
0.0
1001
ACDBBLOCKREPETAG
1070
     1
1071
       50
1005
128189
  0
LINE
  5
12818A
  8
OBJECT
 10
4597.0000000000009
 20
-3581.9999999999968
 30
0.0
 11
4597.0000000000009
 21
-3699.9999999999968
 31
0.0
1001
ACDBBLOCKREPETAG
1070
     1
1071
       51
1005
12818A
  0
LINE
  5
12818B
  8
OBJECT
 10
4597.0000000000009
 20
-3699.9999999999968
 30
0.0
 11
4640.0000000000009
 21
-3699.9999999999968
 31
0.0
1001
ACDBBLOCKREPETAG
1070
     1
1071
       52
1005
12818B
  0
LINE
  5
12818C
  8
OBJECT
 10
4593.0
 20
-3586.4999999999968
 30
0.0
 11
4582.5000000000009
 21
-3586.4999999999968
 31
0.0
1001
ACDBBLOCKREPETAG
1070
     1
1071
       53
1005
12818C
  0
LINE
  5
12818D
  8
OBJECT
 10
4582.5000000000009
 20
-3695.4999999999959
 30
0.0
 11
4593.0
 21
-3695.4999999999959
 31
0.0
1001
ACDBBLOCKREPETAG
1070
     1
1071
       54
1005
12818D
  0
LINE
  5
12818E
  8
OBJECT
 10
4593.0
 20
-3695.4999999999959
 30
0.0
 11
4593.0
 21
-3586.4999999999968
 31
0.0
1001
ACDBBLOCKREPETAG
1070
     1
1071
       55
1005
12818E
  0
LINE
  5
12818F
  8
OBJECT
 10
4597.0000000000009
 20
-3581.9999999999968
 30
0.0
 11
4593.0
 21
-3586.4999999999968
 31
0.0
1001
ACDBBLOCKREPETAG
1070
     1
1071
       56
1005
12818F
  0
LINE
  5
128190
  8
OBJECT
 10
4597.0000000000009
 20
-3699.9999999999968
 30
0.0
 11
4593.0
 21
-3695.4999999999959
 31
0.0
1001
ACDBBLOCKREPETAG
1070
     1
1071
       57
1005
128190
  0
LINE
  5
128191
  8
HIDDEN
 10
4588.0
 20
-3596.4999999999968
 30
0.0
 11
4588.0
 21
-3685.4999999999959
 31
0.0
1001
ACDBBLOCKREPETAG
1070
     1
1071
       58
1005
128191
  0
ARC
  5
128192
  8
OBJECT
 10
4664.8782728787719
 20
-3656.4095072612249
 30
0.0
 40
110.86635228309
 50
144.16342741928889
 51
163.04035380433939
1001
ACDBBLOCKREPETAG
1070
     1
1071
       59
1005
128192
  0
ARC
  5
128193
  8
OBJECT
 10
4617.1359887769049
 20
-3641.2877497184459
 30
0.0
 40
60.791749880358971
 50
163.54720465221931
 51
179.72879698282651
1001
ACDBBLOCKREPETAG
1070
     1
1071
       60
1005
128193
  0
ARC
  5
128194
  8
OBJECT
 10
4617.1359956562492
 20
-3647.712249759898
 30
0.0
 40
60.79175676209487
 50
180.2712034781452
 51
196.4527794605265
1001
ACDBBLOCKREPETAG
1070
     1
1071
       61
1005
128194
  0
ARC
  5
128195
  8
OBJECT
 10
4664.8782728787719
 20
-3632.5904927388328
 30
0.0
 40
110.8663522830916
 50
196.9596461956605
 51
215.83657258071111
1001
ACDBBLOCKREPETAG
1070
     1
1071
       62
1005
128195
  0
LINE
  5
128196
  8
OBJECT
 10
4556.3449199130037
 20
-3641.0000000000332
 30
0.0
 11
4556.3449199130037
 21
-3648.00000000003
 31
0.0
1001
ACDBBLOCKREPETAG
1070
     1
1071
       63
1005
128196
  0
LINE
  5
128197
  8
OBJECT
 10
4574.9999999998372
 20
-3591.500000000291
 30
0.0
 11
4577.4999999998372
 21
-3591.500000000291
 31
0.0
1001
ACDBBLOCKREPETAG
1070
     1
1071
       65
1005
128197
  0
LINE
  5
128198
  8
OBJECT
 10
4574.9999999998336
 20
-3697.4999999997672
 30
0.0
 11
4579.4999999998336
 21
-3697.4999999997672
 31
0.0
1001
ACDBBLOCKREPETAG
1070
     1
1071
       66
1005
128198
  0
LINE
  5
128199
  8
OBJECT
 10
4579.4999999998336
 20
-3697.4999999997672
 30
0.0
 11
4577.4999999998372
 21
-3591.500000000291
 31
0.0
1001
ACDBBLOCKREPETAG
1070
     1
1071
       67
1005
128199
  0
LINE
  5
12819A
  8
OBJECT
 10
4579.4999999998336
 20
-3697.4999999997672
 30
0.0
 11
4582.5000000000009
 21
-3695.4999999999959
 31
0.0
1001
ACDBBLOCKREPETAG
1070
     1
1071
       68
1005
12819A
  0
LINE
  5
12819B
  8
OBJECT
 10
4582.5000000000009
 20
-3695.4999999999959
 30
0.0
 11
4582.5000000000009
 21
-3586.4999999999968
 31
0.0
1001
ACDBBLOCKREPETAG
1070
     1
1071
       69
1005
12819B
  0
LINE
  5
12819C
  8
OBJECT
 10
4582.5000000000009
 20
-3586.4999999999968
 30
0.0
 11
4577.4999999998372
 21
-3591.500000000291
 31
0.0
1001
ACDBBLOCKREPETAG
1070
     1
1071
       70
1005
12819C
  0
LINE
  5
12819D
  8
OBJECT
 10
4633.0000000000009
 20
-3232.9999999999959
 30
0.0
 11
4640.0000000000018
 21
-3232.9999999999959
 31
0.0
1001
ACDBBLOCKREPETAG
1070
     1
1071
       38
1005
12819D
  0
LINE
  5
12819E
  8
OBJECT
 10
4640.0000000000018
 20
-3232.9999999999959
 30
0.0
 11
4640.0000000000009
 21
-3356.9999999999968
 31
0.0
1001
ACDBBLOCKREPETAG
1070
     1
1071
       39
1005
12819E
  0
LINE
  5
12819F
  8
OBJECT
 10
4640.0000000000009
 20
-3356.9999999999968
 30
0.0
 11
4633.0000000000009
 21
-3356.9999999999968
 31
0.0
1001
ACDBBLOCKREPETAG
1070
     1
1071
       40
1005
12819F
  0
LINE
  5
1281A0
  8
OBJECT
 10
4633.0000000000009
 20
-3356.9999999999968
 30
0.0
 11
4633.0000000000009
 21
-3232.9999999999959
 31
0.0
1001
ACDBBLOCKREPETAG
1070
     1
1071
       41
1005
1281A0
  0
LINE
  5
1281A1
  8
CENTER
 10
4655.0000000000009
 20
-3294.9999999999968
 30
0.0
 11
4580.0
 21
-3294.9999999999968
 31
0.0
1001
ACDBBLOCKREPETAG
1070
     1
1071
       42
1005
1281A1
  0
LINE
  5
1281A2
  8
OBJECT
 10
4633.0000000000009
 20
-3235.9999999999968
 30
0.0
 11
4597.0000000000018
 21
-3235.9999999999968
 31
0.0
1001
ACDBBLOCKREPETAG
1070
     1
1071
       43
1005
1281A2
  0
LINE
  5
1281A3
  8
OBJECT
 10
4597.0000000000018
 20
-3235.9999999999968
 30
0.0
 11
4597.0000000000009
 21
-3353.9999999999959
 31
0.0
1001
ACDBBLOCKREPETAG
1070
     1
1071
       44
1005
1281A3
  0
LINE
  5
1281A4
  8
OBJECT
 10
4597.0000000000009
 20
-3353.9999999999959
 30
0.0
 11
4633.0000000000009
 21
-3353.9999999999959
 31
0.0
1001
ACDBBLOCKREPETAG
1070
     1
1071
       45
1005
1281A4
  0
LINE
  5
1281A5
  8
OBJECT
 10
4593.0000000000018
 20
-3240.4999999999968
 30
0.0
 11
4582.5000000000018
 21
-3240.4999999999968
 31
0.0
1001
ACDBBLOCKREPETAG
1070
     1
1071
       46
1005
1281A5
  0
LINE
  5
1281A6
  8
OBJECT
 10
4582.5000000000009
 20
-3349.4999999999959
 30
0.0
 11
4593.0
 21
-3349.4999999999959
 31
0.0
1001
ACDBBLOCKREPETAG
1070
     1
1071
       47
1005
1281A6
  0
LINE
  5
1281A7
  8
OBJECT
 10
4593.0
 20
-3349.4999999999959
 30
0.0
 11
4593.0000000000018
 21
-3240.4999999999968
 31
0.0
1001
ACDBBLOCKREPETAG
1070
     1
1071
       48
1005
1281A7
  0
LINE
  5
1281A8
  8
OBJECT
 10
4597.0000000000018
 20
-3235.9999999999968
 30
0.0
 11
4593.0000000000018
 21
-3240.4999999999968
 31
0.0
1001
ACDBBLOCKREPETAG
1070
     1
1071
       49
1005
1281A8
  0
LINE
  5
1281A9
  8
OBJECT
 10
4597.0000000000009
 20
-3353.9999999999959
 30
0.0
 11
4593.0
 21
-3349.4999999999959
 31
0.0
1001
ACDBBLOCKREPETAG
1070
     1
1071
       50
1005
1281A9
  0
LINE
  5
1281AA
  8
HIDDEN
 10
4588.0
 20
-3250.4999999999968
 30
0.0
 11
4588.0
 21
-3339.4999999999968
 31
0.0
1001
ACDBBLOCKREPETAG
1070
     1
1071
       51
1005
1281AA
  0
LINE
  5
1281AB
  8
OBJECT
 10
4577.5000000000018
 20
-3245.4999999999959
 30
0.0
 11
4556.3449199129791
 21
-3245.4999999999959
 31
0.0
1001
ACDBBLOCKREPETAG
1070
     1
1071
       52
1005
1281AB
  0
LINE
  5
1281AC
  8
OBJECT
 10
4577.5000000000009
 20
-3344.4999999999959
 30
0.0
 11
4556.3449199129791
 21
-3344.4999999999959
 31
0.0
1001
ACDBBLOCKREPETAG
1070
     1
1071
       53
1005
1281AC
  0
LINE
  5
1281AD
  8
OBJECT
 10
4582.5000000000018
 20
-3240.4999999999968
 30
0.0
 11
4582.5000000000009
 21
-3349.4999999999959
 31
0.0
1001
ACDBBLOCKREPETAG
1070
     1
1071
       54
1005
1281AD
  0
LINE
  5
1281AE
  8
OBJECT
 10
4577.5000000000018
 20
-3245.4999999999959
 30
0.0
 11
4577.5000000000009
 21
-3344.4999999999959
 31
0.0
1001
ACDBBLOCKREPETAG
1070
     1
1071
       55
1005
1281AE
  0
LINE
  5
1281AF
  8
OBJECT
 10
4582.5000000000018
 20
-3240.4999999999968
 30
0.0
 11
4577.5000000000018
 21
-3245.4999999999959
 31
0.0
1001
ACDBBLOCKREPETAG
1070
     1
1071
       56
1005
1281AF
  0
LINE
  5
1281B0
  8
OBJECT
 10
4577.5000000000009
 20
-3344.4999999999959
 30
0.0
 11
4582.5000000000009
 21
-3349.4999999999941
 31
0.0
1001
ACDBBLOCKREPETAG
1070
     1
1071
       57
1005
1281B0
  0
CIRCLE
  5
1281B1
  8
OBJECT
 10
3900.0000000000018
 20
-3647.9999999999959
 30
0.0
 40
35.5
1001
ACDBBLOCKREPETAG
1070
     1
1071
       11
1005
1281B1
  0
LINE
  5
1281B2
  8
CENTER
 10
3830.0
 20
-3647.9999999999959
 30
0.0
 11
3970.0
 21
-3647.9999999999959
 31
0.0
1001
ACDBBLOCKREPETAG
1070
     1
1071
       12
1005
1281B2
  0
CIRCLE
  5
1281B3
  8
OBJECT
 10
3900.0000000000018
 20
-3647.9999999999959
 30
0.0
 40
47.0
1001
ACDBBLOCKREPETAG
1070
     1
1071
       14
1005
1281B3
  0
ARC
  5
1281B4
  8
OBJECT
 10
3900.0000000000018
 20
-3647.9999999999959
 30
0.0
 40
55.0
 50
289.01126526008892
 51
250.98873473991111
1001
ACDBBLOCKREPETAG
1070
     1
1071
       15
1005
1281B4
  0
LINE
  5
1281B5
  8
OBJECT
 10
3882.0835271328328
 20
-3699.9999999999968
 30
0.0
 11
3917.9164728671681
 21
-3699.9999999999968
 31
0.0
1001
ACDBBLOCKREPETAG
1070
     1
1071
       16
1005
1281B5
  0
POINT
  5
1281B6
  8
DOTS
 10
3900.0000000000018
 20
-3699.9999999999968
 30
0.0
1001
ACDBBLOCKREPETAG
1070
     1
1071
       23
1005
1281B6
  0
LINE
  5
1281B7
  8
OBJECT
 10
3633.0000000000009
 20
-3592.9999999999959
 30
0.0
 11
3640.0000000000009
 21
-3592.9999999999959
 31
0.0
1001
ACDBBLOCKREPETAG
1070
     1
1071
       23
1005
1281B7
  0
LINE
  5
1281B8
  8
OBJECT
 10
3640.0000000000009
 20
-3592.9999999999959
 30
0.0
 11
3640.0000000000009
 21
-3699.9999999999968
 31
0.0
1001
ACDBBLOCKREPETAG
1070
     1
1071
       24
1005
1281B8
  0
LINE
  5
1281B9
  8
OBJECT
 10
3584.5000000000018
 20
-3594.5000000000618
 30
0.0
 11
3584.5000000000018
 21
-3697.4999999999968
 31
0.0
1001
ACDBBLOCKREPETAG
1070
     1
1071
       25
1005
1281B9
  0
ARC
  5
1281BA
  8
OBJECT
 10
3581.5000000000009
 20
-3594.5000000000618
 30
0.0
 40
3.0
 50
0.0
 51
90.0
1001
ACDBBLOCKREPETAG
1070
     1
1071
       26
1005
1281BA
  0
LINE
  5
1281BB
  8
OBJECT
 10
3633.0000000000009
 20
-3699.9999999999968
 30
0.0
 11
3633.0000000000009
 21
-3592.9999999999959
 31
0.0
1001
ACDBBLOCKREPETAG
1070
     1
1071
       27
1005
1281BB
  0
LINE
  5
1281BC
  8
CENTER
 10
3655.0000000000009
 20
-3647.9999999999959
 30
0.0
 11
3541.344919913005
 21
-3648.0000000000618
 31
0.0
1001
ACDBBLOCKREPETAG
1070
     1
1071
       28
1005
1281BC
  0
LINE
  5
1281BD
  8
OBJECT
 10
3633.0000000000009
 20
-3595.9999999999959
 30
0.0
 11
3597.0000000000009
 21
-3595.9999999999959
 31
0.0
1001
ACDBBLOCKREPETAG
1070
     1
1071
       29
1005
1281BD
  0
LINE
  5
1281BE
  8
OBJECT
 10
3597.0000000000009
 20
-3595.9999999999959
 30
0.0
 11
3597.0000000000009
 21
-3699.9999999999968
 31
0.0
1001
ACDBBLOCKREPETAG
1070
     1
1071
       30
1005
1281BE
  0
LINE
  5
1281BF
  8
OBJECT
 10
3597.0000000000009
 20
-3699.9999999999968
 30
0.0
 11
3640.0000000000009
 21
-3699.9999999999968
 31
0.0
1001
ACDBBLOCKREPETAG
1070
     1
1071
       31
1005
1281BF
  0
LINE
  5
1281C0
  8
OBJECT
 10
3593.0000000000018
 20
-3600.4999999999968
 30
0.0
 11
3584.5000000000018
 21
-3600.4999999999968
 31
0.0
1001
ACDBBLOCKREPETAG
1070
     1
1071
       32
1005
1281C0
  0
LINE
  5
1281C1
  8
OBJECT
 10
3584.5000000000018
 20
-3695.4999999999959
 30
0.0
 11
3593.0000000000018
 21
-3695.4999999999959
 31
0.0
1001
ACDBBLOCKREPETAG
1070
     1
1071
       33
1005
1281C1
  0
LINE
  5
1281C2
  8
OBJECT
 10
3593.0000000000018
 20
-3695.4999999999959
 30
0.0
 11
3593.0000000000018
 21
-3600.4999999999968
 31
0.0
1001
ACDBBLOCKREPETAG
1070
     1
1071
       34
1005
1281C2
  0
LINE
  5
1281C3
  8
OBJECT
 10
3597.0000000000009
 20
-3595.9999999999959
 30
0.0
 11
3593.0000000000018
 21
-3600.4999999999968
 31
0.0
1001
ACDBBLOCKREPETAG
1070
     1
1071
       35
1005
1281C3
  0
LINE
  5
1281C4
  8
OBJECT
 10
3597.0000000000009
 20
-3699.9999999999968
 30
0.0
 11
3593.0000000000018
 21
-3695.4999999999959
 31
0.0
1001
ACDBBLOCKREPETAG
1070
     1
1071
       36
1005
1281C4
  0
LINE
  5
1281C5
  8
HIDDEN
 10
3588.0
 20
-3609.9999999999968
 30
0.0
 11
3588.0
 21
-3685.9999999999959
 31
0.0
1001
ACDBBLOCKREPETAG
1070
     1
1071
       37
1005
1281C5
  0
ARC
  5
1281C6
  8
OBJECT
 10
3664.8782728787742
 20
-3656.4095072612249
 30
0.0
 40
110.86635228309
 50
144.16342741928889
 51
163.04035380433169
1001
ACDBBLOCKREPETAG
1070
     1
1071
       38
1005
1281C6
  0
ARC
  5
1281C7
  8
OBJECT
 10
3617.1359887769072
 20
-3641.2877497184459
 30
0.0
 40
60.791749880358971
 50
163.5472046522267
 51
179.72879698282679
1001
ACDBBLOCKREPETAG
1070
     1
1071
       39
1005
1281C7
  0
ARC
  5
1281C8
  8
OBJECT
 10
3617.1359956562492
 20
-3647.712249759898
 30
0.0
 40
60.79175676209487
 50
180.2712034781452
 51
196.4527794605338
1001
ACDBBLOCKREPETAG
1070
     1
1071
       40
1005
1281C8
  0
ARC
  5
1281C9
  8
OBJECT
 10
3664.8782728787742
 20
-3632.5904927388328
 30
0.0
 40
110.8663522830916
 50
196.95964619566811
 51
215.83657258071111
1001
ACDBBLOCKREPETAG
1070
     1
1071
       41
1005
1281C9
  0
LINE
  5
1281CA
  8
OBJECT
 10
3556.344919913005
 20
-3641.0000000000332
 30
0.0
 11
3556.344919913005
 21
-3648.00000000003
 31
0.0
1001
ACDBBLOCKREPETAG
1070
     1
1071
       42
1005
1281CA
  0
LINE
  5
1281CB
  8
OBJECT
 10
3575.0000000000009
 20
-3591.5000000000618
 30
0.0
 11
3581.5000000000009
 21
-3591.5000000000618
 31
0.0
1001
ACDBBLOCKREPETAG
1070
     1
1071
       43
1005
1281CB
  0
LINE
  5
1281CC
  8
OBJECT
 10
3575.0000000000009
 20
-3697.4999999999968
 30
0.0
 11
3584.5000000000018
 21
-3697.4999999999968
 31
0.0
1001
ACDBBLOCKREPETAG
1070
     1
1071
       44
1005
1281CC
  0
LINE
  5
1281CD
  8
OBJECT
 10
3633.0000000000009
 20
-3239.9999999999968
 30
0.0
 11
3640.0000000000009
 21
-3239.9999999999968
 31
0.0
1001
ACDBBLOCKREPETAG
1070
     1
1071
       20
1005
1281CD
  0
LINE
  5
1281CE
  8
OBJECT
 10
3640.0000000000009
 20
-3239.9999999999968
 30
0.0
 11
3640.0000000000009
 21
-3349.9999999999959
 31
0.0
1001
ACDBBLOCKREPETAG
1070
     1
1071
       21
1005
1281CE
  0
LINE
  5
1281CF
  8
OBJECT
 10
3640.0000000000009
 20
-3349.9999999999959
 30
0.0
 11
3633.0000000000009
 21
-3349.9999999999959
 31
0.0
1001
ACDBBLOCKREPETAG
1070
     1
1071
       22
1005
1281CF
  0
LINE
  5
1281D0
  8
OBJECT
 10
3633.0000000000009
 20
-3349.9999999999959
 30
0.0
 11
3633.0000000000009
 21
-3239.9999999999968
 31
0.0
1001
ACDBBLOCKREPETAG
1070
     1
1071
       23
1005
1281D0
  0
LINE
  5
1281D1
  8
CENTER
 10
3655.0000000000009
 20
-3294.9999999999968
 30
0.0
 11
3580.0
 21
-3294.9999999999968
 31
0.0
1001
ACDBBLOCKREPETAG
1070
     1
1071
       24
1005
1281D1
  0
LINE
  5
1281D2
  8
OBJECT
 10
3633.0000000000009
 20
-3242.9999999999968
 30
0.0
 11
3597.0000000000009
 21
-3242.9999999999968
 31
0.0
1001
ACDBBLOCKREPETAG
1070
     1
1071
       25
1005
1281D2
  0
LINE
  5
1281D3
  8
OBJECT
 10
3597.0000000000009
 20
-3242.9999999999968
 30
0.0
 11
3597.0000000000009
 21
-3346.9999999999959
 31
0.0
1001
ACDBBLOCKREPETAG
1070
     1
1071
       26
1005
1281D3
  0
LINE
  5
1281D4
  8
OBJECT
 10
3597.0000000000009
 20
-3346.9999999999959
 30
0.0
 11
3633.0000000000009
 21
-3346.9999999999959
 31
0.0
1001
ACDBBLOCKREPETAG
1070
     1
1071
       27
1005
1281D4
  0
LINE
  5
1281D5
  8
OBJECT
 10
3593.0000000000018
 20
-3247.4999999999968
 30
0.0
 11
3584.5000000000018
 21
-3247.4999999999968
 31
0.0
1001
ACDBBLOCKREPETAG
1070
     1
1071
       28
1005
1281D5
  0
LINE
  5
1281D6
  8
OBJECT
 10
3584.5000000000018
 20
-3342.4999999999959
 30
0.0
 11
3593.0000000000018
 21
-3342.4999999999959
 31
0.0
1001
ACDBBLOCKREPETAG
1070
     1
1071
       29
1005
1281D6
  0
LINE
  5
1281D7
  8
OBJECT
 10
3593.0000000000018
 20
-3342.4999999999959
 30
0.0
 11
3593.0000000000018
 21
-3247.4999999999968
 31
0.0
1001
ACDBBLOCKREPETAG
1070
     1
1071
       30
1005
1281D7
  0
LINE
  5
1281D8
  8
OBJECT
 10
3597.0000000000009
 20
-3242.9999999999968
 30
0.0
 11
3593.0000000000018
 21
-3247.4999999999968
 31
0.0
1001
ACDBBLOCKREPETAG
1070
     1
1071
       31
1005
1281D8
  0
LINE
  5
1281D9
  8
OBJECT
 10
3597.0000000000009
 20
-3346.9999999999959
 30
0.0
 11
3593.0000000000018
 21
-3342.4999999999959
 31
0.0
1001
ACDBBLOCKREPETAG
1070
     1
1071
       32
1005
1281D9
  0
LINE
  5
1281DA
  8
OBJECT
 10
3584.4999999999982
 20
-3344.4999999999959
 30
0.0
 11
3584.5000000000018
 21
-3245.4999999999959
 31
0.0
1001
ACDBBLOCKREPETAG
1070
     1
1071
       33
1005
1281DA
  0
LINE
  5
1281DB
  8
HIDDEN
 10
3588.0
 20
-3256.9999999999968
 30
0.0
 11
3588.0
 21
-3332.9999999999968
 31
0.0
1001
ACDBBLOCKREPETAG
1070
     1
1071
       34
1005
1281DB
  0
LINE
  5
1281DC
  8
OBJECT
 10
3584.5000000000018
 20
-3245.4999999999959
 30
0.0
 11
3556.34491991298
 21
-3245.4999999999959
 31
0.0
1001
ACDBBLOCKREPETAG
1070
     1
1071
       35
1005
1281DC
  0
LINE
  5
1281DD
  8
OBJECT
 10
3584.4999999999982
 20
-3344.4999999999959
 30
0.0
 11
3556.34491991298
 21
-3344.4999999999959
 31
0.0
1001
ACDBBLOCKREPETAG
1070
     1
1071
       36
1005
1281DD
  0
LINE
  5
1281DE
  8
CENTER
 10
2838.0000000000009
 20
-3655.9999999999968
 30
0.0
 11
2962.0000000000009
 21
-3655.9999999999968
 31
0.0
1001
ACDBBLOCKREPETAG
1070
     1
1071
        0
1005
1281DE
  0
CIRCLE
  5
1281DF
  8
OBJECT
 10
2900.0
 20
-3655.9999999999968
 30
0.0
 40
28.0
1001
ACDBBLOCKREPETAG
1070
     1
1071
        2
1005
1281DF
  0
CIRCLE
  5
1281E0
  8
OBJECT
 10
2900.0
 20
-3655.9999999999968
 30
0.0
 40
39.0
1001
ACDBBLOCKREPETAG
1070
     1
1071
        3
1005
1281E0
  0
ARC
  5
1281E1
  8
OBJECT
 10
2900.0
 20
-3655.9999999999968
 30
0.0
 40
47.0
 50
290.58196921144412
 51
249.41803078855591
1001
ACDBBLOCKREPETAG
1070
     1
1071
        4
1005
1281E1
  0
LINE
  5
1281E2
  8
OBJECT
 10
2883.4772883581441
 20
-3699.9999999999968
 30
0.0
 11
2916.5227116418591
 21
-3699.9999999999968
 31
0.0
1001
ACDBBLOCKREPETAG
1070
     1
1071
        5
1005
1281E2
  0
ARC
  5
1281E3
  8
OBJECT
 10
2900.0
 20
-3640.9999999999932
 30
0.0
 40
49.5
 50
0.0
 51
180.0
1001
ACDBBLOCKREPETAG
1070
     1
1071
        6
1005
1281E3
  0
LINE
  5
1281E4
  8
OBJECT
 10
2850.5000000000041
 20
-3640.9999999999932
 30
0.0
 11
2850.5000000000041
 21
-3647.9999999999959
 31
0.0
1001
ACDBBLOCKREPETAG
1070
     1
1071
        7
1005
1281E4
  0
LINE
  5
1281E5
  8
OBJECT
 10
2949.5000000000082
 20
-3640.9999999999932
 30
0.0
 11
2949.5000000000082
 21
-3647.9999999999959
 31
0.0
1001
ACDBBLOCKREPETAG
1070
     1
1071
        8
1005
1281E5
  0
ARC
  5
1281E6
  8
OBJECT
 10
2900.0
 20
-3647.9999999999959
 30
0.0
 40
49.5
 50
180.0
 51
202.66956385104879
1001
ACDBBLOCKREPETAG
1070
     1
1071
        9
1005
1281E6
  0
ARC
  5
1281E7
  8
OBJECT
 10
2900.0
 20
-3647.9999999999959
 30
0.0
 40
49.5
 50
337.33043614895121
 51
0.0
1001
ACDBBLOCKREPETAG
1070
     1
1071
       10
1005
1281E7
  0
POINT
  5
1281E8
  8
DOTS
 10
2900.0
 20
-3699.9999999999968
 30
0.0
1001
ACDBBLOCKREPETAG
1070
     1
1071
       25
1005
1281E8
  0
LINE
  5
1281E9
  8
OBJECT
 10
2633.0000000000009
 20
-3608.9999999999968
 30
0.0
 11
2640.0000000000009
 21
-3608.9999999999968
 31
0.0
1001
ACDBBLOCKREPETAG
1070
     1
1071
        0
1005
1281E9
  0
LINE
  5
1281EA
  8
OBJECT
 10
2640.0000000000009
 20
-3608.9999999999968
 30
0.0
 11
2640.0000000000009
 21
-3699.9999999999968
 31
0.0
1001
ACDBBLOCKREPETAG
1070
     1
1071
        1
1005
1281EA
  0
LINE
  5
1281EB
  8
OBJECT
 10
2584.5000000000009
 20
-3594.5000000000618
 30
0.0
 11
2584.5000000000009
 21
-3697.4999999999968
 31
0.0
1001
ACDBBLOCKREPETAG
1070
     1
1071
        2
1005
1281EB
  0
ARC
  5
1281EC
  8
OBJECT
 10
2581.5000000000009
 20
-3594.5000000000618
 30
0.0
 40
3.0
 50
0.0
 51
90.0
1001
ACDBBLOCKREPETAG
1070
     1
1071
        3
1005
1281EC
  0
LINE
  5
1281ED
  8
OBJECT
 10
2633.0000000000009
 20
-3699.9999999999968
 30
0.0
 11
2633.0000000000009
 21
-3608.9999999999968
 31
0.0
1001
ACDBBLOCKREPETAG
1070
     1
1071
        4
1005
1281ED
  0
LINE
  5
1281EE
  8
CENTER
 10
2655.0000000000009
 20
-3655.9999999999968
 30
0.0
 11
2541.9118237135849
 21
-3655.9999999999968
 31
0.0
1001
ACDBBLOCKREPETAG
1070
     1
1071
        5
1005
1281EE
  0
LINE
  5
1281EF
  8
OBJECT
 10
2633.0000000000009
 20
-3611.9999999999959
 30
0.0
 11
2597.0000000000009
 21
-3611.9999999999959
 31
0.0
1001
ACDBBLOCKREPETAG
1070
     1
1071
        6
1005
1281EF
  0
LINE
  5
1281F0
  8
OBJECT
 10
2597.0000000000009
 20
-3611.9999999999959
 30
0.0
 11
2597.0000000000009
 21
-3699.9999999999968
 31
0.0
1001
ACDBBLOCKREPETAG
1070
     1
1071
        7
1005
1281F0
  0
LINE
  5
1281F1
  8
OBJECT
 10
2597.0000000000009
 20
-3699.9999999999968
 30
0.0
 11
2640.0000000000009
 21
-3699.9999999999968
 31
0.0
1001
ACDBBLOCKREPETAG
1070
     1
1071
        8
1005
1281F1
  0
LINE
  5
1281F2
  8
OBJECT
 10
2593.0000000000009
 20
-3616.4999999999968
 30
0.0
 11
2584.5000000000009
 21
-3616.4999999999968
 31
0.0
1001
ACDBBLOCKREPETAG
1070
     1
1071
        9
1005
1281F2
  0
LINE
  5
1281F3
  8
OBJECT
 10
2584.5000000000009
 20
-3695.4999999999959
 30
0.0
 11
2593.0000000000009
 21
-3695.4999999999959
 31
0.0
1001
ACDBBLOCKREPETAG
1070
     1
1071
       10
1005
1281F3
  0
LINE
  5
1281F4
  8
OBJECT
 10
2593.0000000000009
 20
-3695.4999999999959
 30
0.0
 11
2593.0000000000009
 21
-3616.4999999999968
 31
0.0
1001
ACDBBLOCKREPETAG
1070
     1
1071
       11
1005
1281F4
  0
LINE
  5
1281F5
  8
OBJECT
 10
2597.0000000000009
 20
-3611.9999999999959
 30
0.0
 11
2593.0000000000009
 21
-3616.4999999999968
 31
0.0
1001
ACDBBLOCKREPETAG
1070
     1
1071
       12
1005
1281F5
  0
LINE
  5
1281F6
  8
OBJECT
 10
2597.0000000000009
 20
-3699.9999999999968
 30
0.0
 11
2593.0000000000009
 21
-3695.4999999999959
 31
0.0
1001
ACDBBLOCKREPETAG
1070
     1
1071
       13
1005
1281F6
  0
LINE
  5
1281F7
  8
HIDDEN
 10
2588.0000000000009
 20
-3625.9999999999959
 30
0.0
 11
2588.0000000000009
 21
-3685.9999999999959
 31
0.0
1001
ACDBBLOCKREPETAG
1070
     1
1071
       14
1005
1281F7
  0
ARC
  5
1281F8
  8
OBJECT
 10
2664.8782728787751
 20
-3656.4095072612249
 30
0.0
 40
110.86635228309
 50
144.1634274191434
 51
163.04035380433169
1001
ACDBBLOCKREPETAG
1070
     1
1071
       15
1005
1281F8
  0
ARC
  5
1281F9
  8
OBJECT
 10
2617.1359887769072
 20
-3641.2877497184459
 30
0.0
 40
60.791749880358971
 50
163.5472046522267
 51
179.72879698282679
1001
ACDBBLOCKREPETAG
1070
     1
1071
       16
1005
1281F9
  0
ARC
  5
1281FA
  8
OBJECT
 10
2617.1359956562501
 20
-3647.712249759898
 30
0.0
 40
60.79175676209487
 50
180.2712034781452
 51
196.4527794605338
1001
ACDBBLOCKREPETAG
1070
     1
1071
       17
1005
1281FA
  0
ARC
  5
1281FB
  8
OBJECT
 10
2664.8782728787751
 20
-3632.5904927388328
 30
0.0
 40
110.8663522830916
 50
196.95964619566811
 51
215.8365725808566
1001
ACDBBLOCKREPETAG
1070
     1
1071
       18
1005
1281FB
  0
LINE
  5
1281FC
  8
OBJECT
 10
2556.344919913005
 20
-3641.0000000000332
 30
0.0
 11
2556.344919913005
 21
-3648.00000000003
 31
0.0
1001
ACDBBLOCKREPETAG
1070
     1
1071
       19
1005
1281FC
  0
LINE
  5
1281FD
  8
OBJECT
 10
2575.0000000000009
 20
-3591.5000000000618
 30
0.0
 11
2581.5000000000009
 21
-3591.5000000000618
 31
0.0
1001
ACDBBLOCKREPETAG
1070
     1
1071
       20
1005
1281FD
  0
LINE
  5
1281FE
  8
OBJECT
 10
2575.0000000000009
 20
-3697.4999999999968
 30
0.0
 11
2584.5000000000009
 21
-3697.4999999999968
 31
0.0
1001
ACDBBLOCKREPETAG
1070
     1
1071
       21
1005
1281FE
  0
LINE
  5
1281FF
  8
OBJECT
 10
2633.0000000000009
 20
-3247.9999999999959
 30
0.0
 11
2640.0000000000009
 21
-3247.9999999999959
 31
0.0
1001
ACDBBLOCKREPETAG
1070
     1
1071
        0
1005
1281FF
  0
LINE
  5
128200
  8
OBJECT
 10
2640.0000000000009
 20
-3247.9999999999959
 30
0.0
 11
2640.0000000000009
 21
-3341.9999999999968
 31
0.0
1001
ACDBBLOCKREPETAG
1070
     1
1071
        1
1005
128200
  0
LINE
  5
128201
  8
OBJECT
 10
2640.0000000000009
 20
-3341.9999999999968
 30
0.0
 11
2633.0000000000009
 21
-3341.9999999999968
 31
0.0
1001
ACDBBLOCKREPETAG
1070
     1
1071
        2
1005
128201
  0
LINE
  5
128202
  8
OBJECT
 10
2633.0000000000009
 20
-3341.9999999999968
 30
0.0
 11
2633.0000000000009
 21
-3247.9999999999959
 31
0.0
1001
ACDBBLOCKREPETAG
1070
     1
1071
        3
1005
128202
  0
LINE
  5
128203
  8
CENTER
 10
2655.0000000000009
 20
-3294.9999999999968
 30
0.0
 11
2580.0
 21
-3294.9999999999968
 31
0.0
1001
ACDBBLOCKREPETAG
1070
     1
1071
        4
1005
128203
  0
LINE
  5
128204
  8
OBJECT
 10
2633.0000000000009
 20
-3250.9999999999959
 30
0.0
 11
2597.0000000000009
 21
-3250.9999999999959
 31
0.0
1001
ACDBBLOCKREPETAG
1070
     1
1071
        5
1005
128204
  0
LINE
  5
128205
  8
OBJECT
 10
2597.0000000000009
 20
-3250.9999999999959
 30
0.0
 11
2597.0000000000009
 21
-3338.9999999999968
 31
0.0
1001
ACDBBLOCKREPETAG
1070
     1
1071
        6
1005
128205
  0
LINE
  5
128206
  8
OBJECT
 10
2597.0000000000009
 20
-3338.9999999999968
 30
0.0
 11
2633.0000000000009
 21
-3338.9999999999968
 31
0.0
1001
ACDBBLOCKREPETAG
1070
     1
1071
        7
1005
128206
  0
LINE
  5
128207
  8
OBJECT
 10
2593.0000000000009
 20
-3255.4999999999959
 30
0.0
 11
2584.5000000000009
 21
-3255.4999999999959
 31
0.0
1001
ACDBBLOCKREPETAG
1070
     1
1071
        8
1005
128207
  0
LINE
  5
128208
  8
OBJECT
 10
2584.5000000000009
 20
-3334.4999999999968
 30
0.0
 11
2593.0000000000009
 21
-3334.4999999999968
 31
0.0
1001
ACDBBLOCKREPETAG
1070
     1
1071
        9
1005
128208
  0
LINE
  5
128209
  8
OBJECT
 10
2593.0000000000009
 20
-3334.4999999999968
 30
0.0
 11
2593.0000000000009
 21
-3255.4999999999959
 31
0.0
1001
ACDBBLOCKREPETAG
1070
     1
1071
       10
1005
128209
  0
LINE
  5
12820A
  8
OBJECT
 10
2597.0000000000009
 20
-3250.9999999999959
 30
0.0
 11
2593.0000000000009
 21
-3255.4999999999959
 31
0.0
1001
ACDBBLOCKREPETAG
1070
     1
1071
       11
1005
12820A
  0
LINE
  5
12820B
  8
OBJECT
 10
2597.0000000000009
 20
-3338.9999999999968
 30
0.0
 11
2593.0000000000009
 21
-3334.4999999999968
 31
0.0
1001
ACDBBLOCKREPETAG
1070
     1
1071
       12
1005
12820B
  0
LINE
  5
12820C
  8
OBJECT
 10
2584.4999999999991
 20
-3341.4999999999959
 30
0.0
 11
2584.5000000000009
 21
-3248.4999999999959
 31
0.0
1001
ACDBBLOCKREPETAG
1070
     1
1071
       13
1005
12820C
  0
ARC
  5
12820D
  8
OBJECT
 10
2581.5000000000009
 20
-3248.4999999999959
 30
0.0
 40
3.0
 50
0.0
 51
90.0
1001
ACDBBLOCKREPETAG
1070
     1
1071
       14
1005
12820D
  0
LINE
  5
12820E
  8
HIDDEN
 10
2588.0000000000009
 20
-3264.9999999999968
 30
0.0
 11
2588.0000000000009
 21
-3324.9999999999968
 31
0.0
1001
ACDBBLOCKREPETAG
1070
     1
1071
       15
1005
12820E
  0
LINE
  5
12820F
  8
OBJECT
 10
2581.5000000000009
 20
-3245.4999999999959
 30
0.0
 11
2556.34491991298
 21
-3245.4999999999959
 31
0.0
1001
ACDBBLOCKREPETAG
1070
     1
1071
       17
1005
12820F
  0
LINE
  5
128210
  8
OBJECT
 10
2581.4999999999991
 20
-3344.4999999999959
 30
0.0
 11
2556.34491991298
 21
-3344.4999999999959
 31
0.0
1001
ACDBBLOCKREPETAG
1070
     1
1071
       18
1005
128210
  0
ARC
  5
128211
  8
OBJECT
 10
2581.4999999999991
 20
-3341.4999999999959
 30
0.0
 40
3.0
 50
270.0
 51
0.0
1001
ACDBBLOCKREPETAG
1070
     1
1071
       19
1005
128211
  0
LINE
  5
128212
  8
DIM
 10
2650.0
 20
-3341.9999999999968
 30
0.0
 11
2728.479620594459
 21
-3341.9999999999968
 31
0.0
  0
LINE
  5
128213
  8
DIM
 10
2650.0
 20
-3247.9999999999959
 30
0.0
 11
2728.479620594459
 21
-3247.9999999999959
 31
0.0
  0
LINE
  5
128214
  8
DIM
 10
2718.4796205944608
 20
-3321.9999999999959
 30
0.0
 11
2718.4796205944608
 21
-3267.9999999999968
 31
0.0
  0
INSERT
  5
128215
  8
DIM
  2
_OPEN30
 10
2718.4796205944608
 20
-3341.9999999999968
 30
0.0
 41
20.0
 42
20.0
 43
20.0
 50
270.0
  0
INSERT
  5
128216
  8
DIM
  2
_OPEN30
 10
2718.4796205944608
 20
-3247.9999999999959
 30
0.0
 41
20.0
 42
20.0
 43
20.0
 50
90.0
  0
INSERT
  5
128217
  8
OBJECT
  2
*U9
 10
0.0
 20
0.0
 30
0.0
  0
LINE
  5
128218
  8
DIM
 10
2650.0
 20
-3699.9999999999968
 30
0.0
 11
2726.8409284037339
 21
-3699.9999999999968
 31
0.0
  0
LINE
  5
128219
  8
DIM
 10
2665.0000000000009
 20
-3655.9999999999968
 30
0.0
 11
2726.8409284037339
 21
-3655.9999999999968
 31
0.0
  0
LINE
  5
12821A
  8
DIM
 10
2716.8409284037361
 20
-3719.9999999999968
 30
0.0
 11
2716.8409284037361
 21
-3739.9999999999968
 31
0.0
  0
LINE
  5
12821B
  8
DIM
 10
2716.8409284037361
 20
-3635.9999999999968
 30
0.0
 11
2716.8409284037361
 21
-3615.9999999999991
 31
0.0
  0
LINE
  5
12821C
  8
DIM
 10
2716.8409284037361
 20
-3699.9999999999968
 30
0.0
 11
2716.8409284037361
 21
-3655.9999999999968
 31
0.0
  0
INSERT
  5
12821D
  8
DIM
  2
_OPEN30
 10
2716.8409284037361
 20
-3699.9999999999968
 30
0.0
 41
20.0
 42
20.0
 43
20.0
 50
90.0
  0
INSERT
  5
12821E
  8
DIM
  2
_OPEN30
 10
2716.8409284037361
 20
-3655.9999999999968
 30
0.0
 41
20.0
 42
20.0
 43
20.0
 50
270.0
  0
INSERT
  5
12821F
  8
OBJECT
  2
*U10
 10
0.0
 20
0.0
 30
0.0
  0
LINE
  5
128220
  8
DIM
 10
2500.0
 20
-3194.9999999999968
 30
0.0
 11
2500.0
 21
-3157.2081219844449
 31
0.0
  0
LINE
  5
128221
  8
DIM
 10
2640.0000000000009
 20
-3237.9999999999968
 30
0.0
 11
2640.0000000000009
 21
-3157.2081219844449
 31
0.0
  0
LINE
  5
128222
  8
DIM
 10
2520.0
 20
-3167.208121984444
 30
0.0
 11
2620.0000000000009
 21
-3167.208121984444
 31
0.0
  0
INSERT
  5
128223
  8
DIM
  2
_OPEN30
 10
2500.0
 20
-3167.208121984444
 30
0.0
 41
20.0
 42
20.0
 43
20.0
 50
180.0
  0
INSERT
  5
128224
  8
DIM
  2
_OPEN30
 10
2640.0000000000009
 20
-3167.208121984444
 30
0.0
 41
20.0
 42
20.0
 43
20.0
  0
INSERT
  5
128225
  8
OBJECT
  2
*U11
 10
0.0
 20
0.0
 30
0.0
  0
TEXT
  5
128226
  8
SLIM
 10
3271.0000000000018
 20
-3072.5000160472709
 30
0.0
 40
40.0
  1
C寸法
 41
0.75
  0
TEXT
  5
128227
  8
SLIM
 10
3271.0000000000018
 20
-3002.5000160472709
 30
0.0
 40
40.0
  1
B寸法
 41
0.75
  0
TEXT
  5
128228
  8
SLIM
 10
3270.2857142857151
 20
-2932.5000160472709
 30
0.0
 40
40.0
  1
A寸法
 41
0.75
  0
TEXT
  5
128229
  8
SLIM
 10
3669.2857142857151
 20
-3072.5000160472709
 30
0.0
 40
40.0
  1
140
 41
0.75
  0
TEXT
  5
12822A
  8
SLIM
 10
3409.2857142857151
 20
-3072.5000160472709
 30
0.0
 40
40.0
  1
140
 41
0.75
  0
TEXT
  5
12822B
  8
SLIM
 10
3539.2857142857151
 20
-3072.5000160472709
 30
0.0
 40
40.0
  1
140
 41
0.75
  0
TEXT
  5
12822C
  8
SLIM
 10
3681.428571428572
 20
-3002.5000160472709
 30
0.0
 40
40.0
  1
59
 41
0.75
  0
TEXT
  5
12822D
  8
SLIM
 10
3420.0
 20
-3002.5000160472709
 30
0.0
 40
40.0
  1
44
 41
0.75
  0
TEXT
  5
12822E
  8
SLIM
 10
3550.7142857142849
 20
-3002.5000160472709
 30
0.0
 40
40.0
  1
52
 41
0.75
  0
TEXT
  5
12822F
  8
SLIM
 10
3471.0000000000018
 20
-2807.5000160472709
 30
0.0
 40
40.0
  1
横枝管サイズ
 41
0.75
  0
TEXT
  5
128230
  8
SLIM
 10
3654.8571428571449
 20
-2862.5000160472709
 30
0.0
 40
30.0
  1
75（3）
 41
0.75
  0
TEXT
  5
128231
  8
SLIM
 10
3524.8571428571431
 20
-2862.5000160472709
 30
0.0
 40
30.0
  1
65（2）
 41
0.75
  0
TEXT
  5
128232
  8
SLIM
 10
3397.0000000000018
 20
-2862.5000160472709
 30
0.0
 40
30.0
  1
50（1）
 41
0.75
  0
TEXT
  5
128233
  8
SLIM
 10
3668.5714285714289
 20
-2932.5000160472709
 30
0.0
 40
40.0
  1
124
 41
0.75
  0
TEXT
  5
128234
  8
SLIM
 10
3420.0
 20
-2932.5000160472709
 30
0.0
 40
40.0
  1
94
 41
0.75
  0
TEXT
  5
128235
  8
SLIM
 10
3542.1428571428569
 20
-2932.5000160472709
 30
0.0
 40
40.0
  1
110
 41
0.75
  0
TEXT
  5
128236
  8
SLIM
 10
2350.0
 20
-2832.5000000000009
 30
0.0
 40
75.0
  1
下部枝管サイズ毎の形状
 41
0.75
  0
TEXT
  5
128237
  8
SLIM
 10
4394.2500000000009
 20
-3817.4999999999959
 30
0.0
 40
35.0
  1
通常枝75（3）
 41
0.75
  0
TEXT
  5
128238
  8
SLIM
 10
3394.25
 20
-3817.4999999999959
 30
0.0
 40
35.0
  1
通常枝65（2）
 41
0.75
  0
TEXT
  5
128239
  8
SLIM
 10
2396.75
 20
-3817.4999999999959
 30
0.0
 40
35.0
  1
通常枝50（1）
 41
0.75
  0
POLYLINE
  5
12823A
  8
HIDDEN
 66
     1
 10
0.0
 20
0.0
 30
0.0
 70
     1
1001
ACDBBLOCKREPETAG
1070
     1
1071
      105
1005
0
  0
VERTEX
  5
1286A8
  8
HIDDEN
 10
359.99999999987779
 20
-799.99999999999818
 30
0.0
  0
VERTEX
  5
1286A9
  8
HIDDEN
 10
719.99999999975603
 20
-799.99999999999818
 30
0.0
  0
VERTEX
  5
1286AA
  8
HIDDEN
 10
719.99999999975603
 20
-1263.9999999998399
 30
0.0
  0
VERTEX
  5
1286AB
  8
HIDDEN
 10
359.99999999987779
 20
-1263.9999999998399
 30
0.0
  0
SEQEND
  5
1286AC
  8
HIDDEN
  0
POLYLINE
  5
12823B
  8
HIDDEN
 66
     1
 10
0.0
 20
0.0
 30
0.0
 70
     1
1001
ACDBBLOCKREPETAG
1070
     1
1071
      110
1005
0
  0
VERTEX
  5
1286AD
  8
HIDDEN
 10
-0.0000000000002274
 20
-799.99999999999818
 30
0.0
  0
VERTEX
  5
1286AE
  8
HIDDEN
 10
359.99999999987779
 20
-799.99999999999818
 30
0.0
  0
VERTEX
  5
1286AF
  8
HIDDEN
 10
359.99999999987779
 20
-1263.9999999998399
 30
0.0
  0
VERTEX
  5
1286B0
  8
HIDDEN
 10
-0.0000000000002274
 20
-1263.9999999998399
 30
0.0
  0
SEQEND
  5
1286B1
  8
HIDDEN
  0
POLYLINE
  5
12823C
  8
HIDDEN
 66
     1
 10
0.0
 20
0.0
 30
0.0
 70
     1
1001
ACDBBLOCKREPETAG
1070
     1
1071
      125
1005
0
  0
VERTEX
  5
1286B2
  8
HIDDEN
 10
-0.0000000000002274
 20
-1263.9999999998399
 30
0.0
  0
VERTEX
  5
1286B3
  8
HIDDEN
 10
359.99999999987779
 20
-1263.9999999998399
 30
0.0
  0
VERTEX
  5
1286B4
  8
HIDDEN
 10
359.99999999987779
 20
-1727.999999999681
 30
0.0
  0
VERTEX
  5
1286B5
  8
HIDDEN
 10
-0.0000000000002274
 20
-1727.999999999681
 30
0.0
  0
SEQEND
  5
1286B6
  8
HIDDEN
  0
POLYLINE
  5
12823D
  8
HIDDEN
 66
     1
 10
0.0
 20
0.0
 30
0.0
 70
     1
1001
ACDBBLOCKREPETAG
1070
     1
1071
      110
1005
0
  0
VERTEX
  5
1286B7
  8
HIDDEN
 10
-0.0000000000002274
 20
0.0000000000009095
 30
0.0
  0
VERTEX
  5
1286B8
  8
HIDDEN
 10
359.99999999987779
 20
0.0000000000009095
 30
0.0
  0
VERTEX
  5
1286B9
  8
HIDDEN
 10
359.99999999987779
 20
-463.99999999984078
 30
0.0
  0
VERTEX
  5
1286BA
  8
HIDDEN
 10
-0.0000000000002274
 20
-463.99999999984078
 30
0.0
  0
SEQEND
  5
1286BB
  8
HIDDEN
  0
INSERT
  5
12823E
  8
OBJECT
  2
*U12
 10
0.0
 20
0.0
 30
0.0
  0
LINE
  5
12823F
  8
OBJECT
 10
118.00000000004179
 20
-99.000000000171866
 30
0.0
 11
118.00000000004179
 21
-92.000000000171852
 31
0.0
1001
ACDBBLOCKREPETAG
1070
     1
1071
       39
1005
12823F
  0
LINE
  5
128240
  8
OBJECT
 10
118.00000000004179
 20
-92.000000000171852
 30
0.0
 11
242.00000000004181
 21
-92.000000000171852
 31
0.0
1001
ACDBBLOCKREPETAG
1070
     1
1071
       40
1005
128240
  0
LINE
  5
128241
  8
OBJECT
 10
242.00000000004181
 20
-92.000000000171852
 30
0.0
 11
242.00000000004181
 21
-99.000000000171866
 31
0.0
1001
ACDBBLOCKREPETAG
1070
     1
1071
       41
1005
128241
  0
LINE
  5
128242
  8
OBJECT
 10
242.00000000004181
 20
-99.000000000171866
 30
0.0
 11
118.00000000004179
 21
-99.000000000171866
 31
0.0
1001
ACDBBLOCKREPETAG
1070
     1
1071
       42
1005
128242
  0
LINE
  5
128243
  8
OBJECT
 10
121.00000000004179
 20
-99.000000000171866
 30
0.0
 11
121.00000000004179
 21
-135.00000000017181
 31
0.0
1001
ACDBBLOCKREPETAG
1070
     1
1071
       43
1005
128243
  0
LINE
  5
128244
  8
OBJECT
 10
121.00000000004179
 20
-135.00000000017181
 30
0.0
 11
239.00000000004181
 21
-135.00000000017181
 31
0.0
1001
ACDBBLOCKREPETAG
1070
     1
1071
       44
1005
128244
  0
LINE
  5
128245
  8
OBJECT
 10
239.00000000004181
 20
-135.00000000017181
 30
0.0
 11
239.00000000004181
 21
-99.000000000171866
 31
0.0
1001
ACDBBLOCKREPETAG
1070
     1
1071
       45
1005
128245
  0
LINE
  5
128246
  8
OBJECT
 10
125.50000000004179
 20
-139.00000000017181
 30
0.0
 11
125.50000000004179
 21
-146.00000000017181
 31
0.0
1001
ACDBBLOCKREPETAG
1070
     1
1071
       46
1005
128246
  0
LINE
  5
128247
  8
OBJECT
 10
234.50000000004181
 20
-146.00000000017181
 30
0.0
 11
234.50000000004181
 21
-139.00000000017181
 31
0.0
1001
ACDBBLOCKREPETAG
1070
     1
1071
       47
1005
128247
  0
LINE
  5
128248
  8
OBJECT
 10
234.50000000004181
 20
-139.00000000017181
 30
0.0
 11
125.50000000004179
 21
-139.00000000017181
 31
0.0
1001
ACDBBLOCKREPETAG
1070
     1
1071
       48
1005
128248
  0
LINE
  5
128249
  8
OBJECT
 10
121.00000000004179
 20
-135.00000000017181
 30
0.0
 11
125.50000000004179
 21
-139.00000000017181
 31
0.0
1001
ACDBBLOCKREPETAG
1070
     1
1071
       49
1005
128249
  0
LINE
  5
12824A
  8
OBJECT
 10
239.00000000004181
 20
-135.00000000017181
 30
0.0
 11
234.50000000004181
 21
-139.00000000017181
 31
0.0
1001
ACDBBLOCKREPETAG
1070
     1
1071
       50
1005
12824A
  0
LINE
  5
12824B
  8
OBJECT
 10
118.00000000004179
 20
-149.00000000017101
 30
0.0
 11
118.00000000004179
 21
-152.00000000017181
 31
0.0
1001
ACDBBLOCKREPETAG
1070
     1
1071
       51
1005
12824B
  0
ARC
  5
12824C
  8
OBJECT
 10
121.00000000004179
 20
-149.00000000017101
 30
0.0
 40
3.0
 50
90.0
 51
180.0
1001
ACDBBLOCKREPETAG
1070
     1
1071
       52
1005
12824C
  0
LINE
  5
12824D
  8
OBJECT
 10
242.00000000004181
 20
-152.00000000017181
 30
0.0
 11
242.00000000004181
 21
-149.0000000001728
 31
0.0
1001
ACDBBLOCKREPETAG
1070
     1
1071
       53
1005
12824D
  0
ARC
  5
12824E
  8
OBJECT
 10
239.00000000004181
 20
-149.0000000001728
 30
0.0
 40
3.0
 50
0.0
 51
90.0
1001
ACDBBLOCKREPETAG
1070
     1
1071
       54
1005
12824E
  0
LINE
  5
12824F
  8
OBJECT
 10
239.00000000004181
 20
-146.0000000001728
 30
0.0
 11
121.00000000004179
 21
-146.00000000017101
 31
0.0
1001
ACDBBLOCKREPETAG
1070
     1
1071
       55
1005
12824F
  0
LINE
  5
128250
  8
HIDDEN
 10
135.50000000004181
 20
-144.00000000017189
 30
0.0
 11
224.50000000004181
 21
-144.00000000017189
 31
0.0
1001
ACDBBLOCKREPETAG
1070
     1
1071
      426
1005
128250
  0
CIRCLE
  5
128251
  8
OBJECT
 10
180.00000000004181
 20
-232.00000000017189
 30
0.0
 40
70.0
1001
ACDBBLOCKREPETAG
1070
     1
1071
       50
1005
128251
  0
CIRCLE
  5
128252
  8
OBJECT
 10
180.00000000004181
 20
-232.00000000017189
 30
0.0
 40
77.0
1001
ACDBBLOCKREPETAG
1070
     1
1071
       51
1005
128252
  0
ARC
  5
128253
  8
OBJECT
 10
180.00000000004181
 20
-232.00000000017189
 30
0.0
 40
80.0
 50
140.80503257377961
 51
39.194967426220252
1001
ACDBBLOCKREPETAG
1070
     1
1071
       52
1005
128253
  0
LINE
  5
128254
  8
OBJECT
 10
118.00000000004179
 20
-186.3381997728473
 30
0.0
 11
118.00000000004179
 21
-152.00000000017181
 31
0.0
1001
ACDBBLOCKREPETAG
1070
     1
1071
       53
1005
128254
  0
LINE
  5
128255
  8
OBJECT
 10
242.00000000004181
 20
-186.3381997728473
 30
0.0
 11
242.00000000004181
 21
-152.00000000017181
 31
0.0
1001
ACDBBLOCKREPETAG
1070
     1
1071
       54
1005
128255
  0
CIRCLE
  5
128256
  8
OBJECT
 10
180.00000000004181
 20
-232.00000000017189
 30
0.0
 40
53.5
1001
ACDBBLOCKREPETAG
1070
     1
1071
      157
1005
128256
  0
POINT
  5
128257
  8
DOTS
 10
180.00000000004181
 20
-232.00000000017189
 30
0.0
1001
ACDBBLOCKREPETAG
1070
     1
1071
      162
1005
128257
  0
TEXT
  5
128258
  8
SLIM
 10
0.000003566523219
 20
-775.9999954146823
 30
0.0
 40
79.999999999972701
  1
下部枝管バリエーション
 41
0.75
1001
ACDBBLOCKREPETAG
1070
     1
1071
      119
1005
124B78
  0
TEXT
  5
128259
  8
SLIM
 10
149.1428571427966
 20
-443.99999999984971
 30
0.0
 40
48.0
  1
A3
 41
0.75
1001
ACDBBLOCKREPETAG
1070
     1
1071
      119
1005
0
  0
TEXT
  5
12825A
  8
SLIM
 10
0.0000035665234464
 20
24.000004585317608
 30
0.0
 40
79.999999999972701
  1
上部枝管
 41
0.75
1001
ACDBBLOCKREPETAG
1070
     1
1071
      119
1005
124B78
  0
LINE
  5
12825B
  8
OBJECT
 10
4923.0
 20
-570.99999999999432
 30
0.0
 11
4923.0
 21
-549.99999999999432
 31
0.0
1001
ACDBBLOCKREPETAG
1070
     1
1071
       22
1005
12825B
  0
LINE
  5
12825C
  8
OBJECT
 10
4923.0
 20
-549.99999999999432
 30
0.0
 11
5077.0
 21
-549.99999999999432
 31
0.0
1001
ACDBBLOCKREPETAG
1070
     1
1071
       23
1005
12825C
  0
LINE
  5
12825D
  8
HIDDEN
 10
4943.0
 20
-619.99999999999432
 30
0.0
 11
5057.0
 21
-619.99999999999432
 31
0.0
1001
ACDBBLOCKREPETAG
1070
     1
1071
       24
1005
12825D
  0
LINE
  5
12825E
  8
OBJECT
 10
5077.0
 20
-549.99999999999432
 30
0.0
 11
5077.0
 21
-570.99999999999432
 31
0.0
1001
ACDBBLOCKREPETAG
1070
     1
1071
       25
1005
12825E
  0
LINE
  5
12825F
  8
OBJECT
 10
5077.0
 20
-570.99999999999432
 30
0.0
 11
4923.0
 21
-570.99999999999432
 31
0.0
1001
ACDBBLOCKREPETAG
1070
     1
1071
       26
1005
12825F
  0
LINE
  5
128260
  8
CENTER
 10
5000.0
 20
-534.99999999999432
 30
0.0
 11
5000.0
 21
-889.99999999999409
 31
0.0
1001
ACDBBLOCKREPETAG
1070
     1
1071
       27
1005
128260
  0
LINE
  5
128261
  8
OBJECT
 10
5075.0
 20
-633.99999999999432
 30
0.0
 11
5075.0
 21
-737.50000000005946
 31
0.0
1001
ACDBBLOCKREPETAG
1070
     1
1071
       28
1005
128261
  0
LINE
  5
128262
  8
OBJECT
 10
5075.0
 20
-843.49999999999409
 30
0.0
 11
5075.0
 21
-877.9999999999942
 31
0.0
1001
ACDBBLOCKREPETAG
1070
     1
1071
      218
1005
128262
  0
LINE
  5
128263
  8
OBJECT
 10
4928.0
 20
-570.99999999999432
 30
0.0
 11
4928.0
 21
-633.99999999999432
 31
0.0
1001
ACDBBLOCKREPETAG
1070
     1
1071
       29
1005
128263
  0
LINE
  5
128264
  8
OBJECT
 10
5072.0
 20
-633.99999999999432
 30
0.0
 11
5072.0
 21
-570.99999999999432
 31
0.0
1001
ACDBBLOCKREPETAG
1070
     1
1071
       30
1005
128264
  0
LINE
  5
128265
  8
OBJECT
 10
4920.0
 20
-877.9999999999942
 30
0.0
 11
5080.0
 21
-877.9999999999942
 31
0.0
1001
ACDBBLOCKREPETAG
1070
     1
1071
       31
1005
128265
  0
LINE
  5
128266
  8
OBJECT
 10
5074.9999999997199
 20
-633.99999999999432
 30
0.0
 11
4925.0
 21
-633.99999999999432
 31
0.0
1001
ACDBBLOCKREPETAG
1070
     1
1071
       32
1005
128266
  0
LINE
  5
128267
  8
OBJECT
 10
4920.0
 20
-877.9999999999942
 30
0.0
 11
4920.0
 21
-889.99999999999409
 31
0.0
1001
ACDBBLOCKREPETAG
1070
     1
1071
       33
1005
128267
  0
LINE
  5
128268
  8
OBJECT
 10
4920.0
 20
-889.99999999999409
 30
0.0
 11
5080.0
 21
-889.99999999999409
 31
0.0
1001
ACDBBLOCKREPETAG
1070
     1
1071
       34
1005
128268
  0
LINE
  5
128269
  8
OBJECT
 10
5080.0
 20
-889.99999999999409
 30
0.0
 11
5080.0
 21
-877.9999999999942
 31
0.0
1001
ACDBBLOCKREPETAG
1070
     1
1071
       35
1005
128269
  0
LINE
  5
12826A
  8
OBJECT
 10
4925.0000000002801
 20
-633.99999999999432
 30
0.0
 11
4925.0
 21
-877.9999999999942
 31
0.0
1001
ACDBBLOCKREPETAG
1070
     1
1071
       37
1005
12826A
  0
LINE
  5
12826B
  8
OBJECT
 10
5133.0
 20
-738.99999999999409
 30
0.0
 11
5140.0
 21
-738.99999999999409
 31
0.0
1001
ACDBBLOCKREPETAG
1070
     1
1071
      197
1005
12826B
  0
LINE
  5
12826C
  8
OBJECT
 10
5140.0
 20
-738.99999999999409
 30
0.0
 11
5140.0
 21
-845.99999999999443
 31
0.0
1001
ACDBBLOCKREPETAG
1070
     1
1071
      198
1005
12826C
  0
LINE
  5
12826D
  8
OBJECT
 10
5084.5
 20
-740.50000000005969
 30
0.0
 11
5084.5
 21
-843.49999999999409
 31
0.0
1001
ACDBBLOCKREPETAG
1070
     1
1071
      199
1005
12826D
  0
ARC
  5
12826E
  8
OBJECT
 10
5081.5
 20
-740.50000000005969
 30
0.0
 40
3.0
 50
0.0
 51
90.0
1001
ACDBBLOCKREPETAG
1070
     1
1071
      200
1005
12826E
  0
LINE
  5
12826F
  8
OBJECT
 10
5133.0
 20
-845.99999999999443
 30
0.0
 11
5133.0
 21
-738.99999999999409
 31
0.0
1001
ACDBBLOCKREPETAG
1070
     1
1071
      201
1005
12826F
  0
LINE
  5
128270
  8
CENTER
 10
5155.0
 20
-793.99999999999409
 30
0.0
 11
5041.3449199130037
 21
-794.0000000000598
 31
0.0
1001
ACDBBLOCKREPETAG
1070
     1
1071
      202
1005
128270
  0
LINE
  5
128271
  8
OBJECT
 10
5133.0
 20
-741.9999999999942
 30
0.0
 11
5097.0
 21
-741.9999999999942
 31
0.0
1001
ACDBBLOCKREPETAG
1070
     1
1071
      203
1005
128271
  0
LINE
  5
128272
  8
OBJECT
 10
5097.0
 20
-741.9999999999942
 30
0.0
 11
5097.0
 21
-845.99999999999443
 31
0.0
1001
ACDBBLOCKREPETAG
1070
     1
1071
      204
1005
128272
  0
LINE
  5
128273
  8
OBJECT
 10
5097.0
 20
-845.99999999999443
 30
0.0
 11
5140.0
 21
-845.99999999999443
 31
0.0
1001
ACDBBLOCKREPETAG
1070
     1
1071
      205
1005
128273
  0
LINE
  5
128274
  8
OBJECT
 10
5093.0
 20
-746.4999999999942
 30
0.0
 11
5084.5
 21
-746.4999999999942
 31
0.0
1001
ACDBBLOCKREPETAG
1070
     1
1071
      206
1005
128274
  0
LINE
  5
128275
  8
OBJECT
 10
5084.5
 20
-841.49999999999443
 30
0.0
 11
5093.0
 21
-841.49999999999443
 31
0.0
1001
ACDBBLOCKREPETAG
1070
     1
1071
      207
1005
128275
  0
LINE
  5
128276
  8
OBJECT
 10
5093.0
 20
-841.49999999999443
 30
0.0
 11
5093.0
 21
-746.4999999999942
 31
0.0
1001
ACDBBLOCKREPETAG
1070
     1
1071
      208
1005
128276
  0
LINE
  5
128277
  8
OBJECT
 10
5097.0
 20
-741.9999999999942
 30
0.0
 11
5093.0
 21
-746.4999999999942
 31
0.0
1001
ACDBBLOCKREPETAG
1070
     1
1071
      209
1005
128277
  0
LINE
  5
128278
  8
OBJECT
 10
5097.0
 20
-845.99999999999443
 30
0.0
 11
5093.0
 21
-841.49999999999443
 31
0.0
1001
ACDBBLOCKREPETAG
1070
     1
1071
       36
1005
128278
  0
LINE
  5
128279
  8
HIDDEN
 10
5088.0
 20
-755.99999999999397
 30
0.0
 11
5088.0
 21
-831.99999999999454
 31
0.0
1001
ACDBBLOCKREPETAG
1070
     1
1071
      210
1005
128279
  0
ARC
  5
12827A
  8
OBJECT
 10
5164.8782728787728
 20
-802.40950726122355
 30
0.0
 40
110.86635228309
 50
144.1634274193047
 51
163.04035380434561
1001
ACDBBLOCKREPETAG
1070
     1
1071
      211
1005
12827A
  0
ARC
  5
12827B
  8
OBJECT
 10
5117.1359887769049
 20
-787.28774971844337
 30
0.0
 40
60.791749880358971
 50
163.54720465221311
 51
179.72879698282651
1001
ACDBBLOCKREPETAG
1070
     1
1071
      212
1005
12827B
  0
ARC
  5
12827C
  8
OBJECT
 10
5117.1359956562483
 20
-793.7122497598956
 30
0.0
 40
60.79175676209487
 50
180.2712034781452
 51
196.45277946052011
1001
ACDBBLOCKREPETAG
1070
     1
1071
      213
1005
12827C
  0
ARC
  5
12827D
  8
OBJECT
 10
5164.8782728787728
 20
-778.5904927388309
 30
0.0
 40
110.8663522830916
 50
196.95964619565439
 51
215.8365725806953
1001
ACDBBLOCKREPETAG
1070
     1
1071
      214
1005
12827D
  0
LINE
  5
12827E
  8
OBJECT
 10
5056.3449199130046
 20
-787.00000000003081
 30
0.0
 11
5056.3449199130046
 21
-794.00000000002683
 31
0.0
1001
ACDBBLOCKREPETAG
1070
     1
1071
      215
1005
12827E
  0
LINE
  5
12827F
  8
OBJECT
 10
5075.0
 20
-737.50000000005946
 30
0.0
 11
5081.5
 21
-737.50000000005946
 31
0.0
1001
ACDBBLOCKREPETAG
1070
     1
1071
      216
1005
12827F
  0
LINE
  5
128280
  8
OBJECT
 10
5075.0
 20
-843.49999999999409
 30
0.0
 11
5084.5
 21
-843.49999999999409
 31
0.0
1001
ACDBBLOCKREPETAG
1070
     1
1071
      217
1005
128280
  0
POINT
  5
128281
  8
DOTS
 10
5000.0
 20
-845.99999999999443
 30
0.0
1001
ACDBBLOCKREPETAG
1070
     1
1071
      219
1005
128281
  0
LINE
  5
128282
  8
OBJECT
 10
4423.0
 20
-570.99999999999432
 30
0.0
 11
4423.0
 21
-549.99999999999432
 31
0.0
1001
ACDBBLOCKREPETAG
1070
     1
1071
        0
1005
128282
  0
LINE
  5
128283
  8
OBJECT
 10
4423.0
 20
-549.99999999999432
 30
0.0
 11
4577.0
 21
-549.99999999999432
 31
0.0
1001
ACDBBLOCKREPETAG
1070
     1
1071
        1
1005
128283
  0
LINE
  5
128284
  8
HIDDEN
 10
4443.0
 20
-619.99999999999432
 30
0.0
 11
4557.0
 21
-619.99999999999432
 31
0.0
1001
ACDBBLOCKREPETAG
1070
     1
1071
        2
1005
128284
  0
LINE
  5
128285
  8
OBJECT
 10
4577.0
 20
-549.99999999999432
 30
0.0
 11
4577.0
 21
-570.99999999999432
 31
0.0
1001
ACDBBLOCKREPETAG
1070
     1
1071
        3
1005
128285
  0
LINE
  5
128286
  8
OBJECT
 10
4577.0
 20
-570.99999999999432
 30
0.0
 11
4423.0
 21
-570.99999999999432
 31
0.0
1001
ACDBBLOCKREPETAG
1070
     1
1071
        4
1005
128286
  0
LINE
  5
128287
  8
CENTER
 10
4500.0
 20
-534.99999999999432
 30
0.0
 11
4500.0
 21
-889.99999999999409
 31
0.0
1001
ACDBBLOCKREPETAG
1070
     1
1071
        5
1005
128287
  0
LINE
  5
128288
  8
OBJECT
 10
4425.0
 20
-633.99999999999432
 30
0.0
 11
4425.0
 21
-877.9999999999942
 31
0.0
1001
ACDBBLOCKREPETAG
1070
     1
1071
        6
1005
128288
  0
LINE
  5
128289
  8
OBJECT
 10
4428.0
 20
-570.99999999999432
 30
0.0
 11
4428.0
 21
-633.99999999999432
 31
0.0
1001
ACDBBLOCKREPETAG
1070
     1
1071
        7
1005
128289
  0
LINE
  5
12828A
  8
OBJECT
 10
4572.0
 20
-633.99999999999432
 30
0.0
 11
4572.0
 21
-570.99999999999432
 31
0.0
1001
ACDBBLOCKREPETAG
1070
     1
1071
        8
1005
12828A
  0
LINE
  5
12828B
  8
OBJECT
 10
4420.0
 20
-877.9999999999942
 30
0.0
 11
4580.0
 21
-877.9999999999942
 31
0.0
1001
ACDBBLOCKREPETAG
1070
     1
1071
        9
1005
12828B
  0
LINE
  5
12828C
  8
OBJECT
 10
4580.0
 20
-633.99999999999432
 30
0.0
 11
4425.0
 21
-633.99999999999432
 31
0.0
1001
ACDBBLOCKREPETAG
1070
     1
1071
       10
1005
12828C
  0
LINE
  5
12828D
  8
OBJECT
 10
4420.0
 20
-877.9999999999942
 30
0.0
 11
4420.0
 21
-889.99999999999409
 31
0.0
1001
ACDBBLOCKREPETAG
1070
     1
1071
       11
1005
12828D
  0
LINE
  5
12828E
  8
OBJECT
 10
4420.0
 20
-889.99999999999409
 30
0.0
 11
4580.0
 21
-889.99999999999409
 31
0.0
1001
ACDBBLOCKREPETAG
1070
     1
1071
       12
1005
12828E
  0
LINE
  5
12828F
  8
OBJECT
 10
4580.0
 20
-889.99999999999409
 30
0.0
 11
4580.0
 21
-877.9999999999942
 31
0.0
1001
ACDBBLOCKREPETAG
1070
     1
1071
       13
1005
12828F
  0
LINE
  5
128290
  8
OBJECT
 10
4574.9999999998618
 20
-757.99999999984493
 30
0.0
 11
4575.0
 21
-877.9999999999942
 31
0.0
1001
ACDBBLOCKREPETAG
1070
     1
1071
       15
1005
128290
  0
LINE
  5
128291
  8
OBJECT
 10
4574.9999908029849
 20
-757.99998602701612
 30
0.0
 11
4580.0
 21
-757.99998602701612
 31
0.0
1001
ACDBBLOCKREPETAG
1070
     1
1071
       16
1005
128291
  0
ARC
  5
128292
  8
OBJECT
 10
4700.6872746716726
 20
-749.40809941010195
 30
0.0
 40
170.6350503965856
 50
137.44134459184301
 51
149.91949581337221
1001
ACDBBLOCKREPETAG
1070
     1
1071
       17
1005
128292
  0
ARC
  5
128293
  8
OBJECT
 10
4618.8455987040506
 20
-705.88272669535922
 30
0.0
 40
78.072222021763665
 50
147.4551531038623
 51
164.66365997718671
1001
ACDBBLOCKREPETAG
1070
     1
1071
       18
1005
128293
  0
ARC
  5
128294
  8
OBJECT
 10
4585.7554349608718
 20
-695.99999999999432
 30
0.0
 40
43.55353926885617
 50
165.688452300753
 51
194.3115476992468
1001
ACDBBLOCKREPETAG
1070
     1
1071
       19
1005
128294
  0
ARC
  5
128295
  8
OBJECT
 10
4700.6872746716726
 20
-642.59190058988645
 30
0.0
 40
170.6350503965856
 50
210.08050418662771
 51
222.55865540815699
1001
ACDBBLOCKREPETAG
1070
     1
1071
       20
1005
128295
  0
ARC
  5
128296
  8
OBJECT
 10
4618.8455987040506
 20
-686.11727330462952
 30
0.0
 40
78.072222021763665
 50
195.33634002281309
 51
212.5448468961377
1001
ACDBBLOCKREPETAG
1070
     1
1071
       21
1005
128296
  0
CIRCLE
  5
128297
  8
HIDDEN
 10
4500.0
 20
-793.99999999999397
 30
0.0
 40
35.5
1001
ACDBBLOCKREPETAG
1070
     1
1071
      192
1005
128297
  0
LINE
  5
128298
  8
CENTER
 10
4430.0
 20
-793.99999999999397
 30
0.0
 11
4570.0
 21
-793.99999999999397
 31
0.0
1001
ACDBBLOCKREPETAG
1070
     1
1071
      193
1005
128298
  0
CIRCLE
  5
128299
  8
HIDDEN
 10
4500.0
 20
-793.99999999999397
 30
0.0
 40
47.0
1001
ACDBBLOCKREPETAG
1070
     1
1071
       14
1005
128299
  0
ARC
  5
12829A
  8
HIDDEN
 10
4500.0
 20
-793.99999999999397
 30
0.0
 40
55.0
 50
289.01126526010933
 51
250.9887347398907
1001
ACDBBLOCKREPETAG
1070
     1
1071
      194
1005
12829A
  0
LINE
  5
12829B
  8
HIDDEN
 10
4482.0835271328324
 20
-845.99999999999443
 30
0.0
 11
4517.9164728671676
 21
-845.99999999999443
 31
0.0
1001
ACDBBLOCKREPETAG
1070
     1
1071
      195
1005
12829B
  0
POINT
  5
12829C
  8
DOTS
 10
4500.0
 20
-845.99999999999443
 30
0.0
1001
ACDBBLOCKREPETAG
1070
     1
1071
      196
1005
12829C
  0
LINE
  5
12829D
  8
CENTER
 10
5077.0
 20
-695.99999999999432
 30
0.0
 11
4923.0
 21
-695.99999999999432
 31
0.0
1001
ACDBBLOCKREPETAG
1070
     1
1071
       17
1005
12829D
  0
CIRCLE
  5
12829E
  8
OBJECT
 10
5000.0
 20
-695.99999999999432
 30
0.0
 40
41.5
1001
ACDBBLOCKREPETAG
1070
     1
1071
       19
1005
12829E
  0
CIRCLE
  5
12829F
  8
OBJECT
 10
5000.0
 20
-695.99999999999432
 30
0.0
 40
54.0
1001
ACDBBLOCKREPETAG
1070
     1
1071
       20
1005
12829F
  0
ARC
  5
1282A0
  8
OBJECT
 10
5000.0
 20
-695.99999999999432
 30
0.0
 40
62.0
 50
287.89655112920718
 51
252.10344887079279
1001
ACDBBLOCKREPETAG
1070
     1
1071
       21
1005
1282A0
  0
LINE
  5
1282A1
  8
OBJECT
 10
4980.947441116743
 20
-754.9999999999942
 30
0.0
 11
5019.052558883257
 21
-754.9999999999942
 31
0.0
1001
ACDBBLOCKREPETAG
1070
     1
1071
       22
1005
1282A1
  0
LINE
  5
1282A2
  8
OBJECT
 10
4633.0
 20
-634.0
 30
0.0
 11
4640.0
 21
-634.0
 31
0.0
1001
ACDBBLOCKREPETAG
1070
     1
1071
       45
1005
1282A2
  0
LINE
  5
1282A3
  8
OBJECT
 10
4640.0
 20
-634.0
 30
0.0
 11
4640.0
 21
-755.0
 31
0.0
1001
ACDBBLOCKREPETAG
1070
     1
1071
       46
1005
1282A3
  0
LINE
  5
1282A4
  8
OBJECT
 10
4633.0
 20
-755.0
 30
0.0
 11
4633.0
 21
-634.0
 31
0.0
1001
ACDBBLOCKREPETAG
1070
     1
1071
       47
1005
1282A4
  0
LINE
  5
1282A5
  8
CENTER
 10
4655.0
 20
-696.0
 30
0.0
 11
4571.0
 21
-696.0
 31
0.0
1001
ACDBBLOCKREPETAG
1070
     1
1071
       48
1005
1282A5
  0
LINE
  5
1282A6
  8
OBJECT
 10
4633.0
 20
-637.0
 30
0.0
 11
4597.0
 21
-637.0
 31
0.0
1001
ACDBBLOCKREPETAG
1070
     1
1071
       49
1005
1282A6
  0
LINE
  5
1282A7
  8
OBJECT
 10
4597.0
 20
-637.0
 30
0.0
 11
4597.0
 21
-755.0
 31
0.0
1001
ACDBBLOCKREPETAG
1070
     1
1071
       50
1005
1282A7
  0
LINE
  5
1282A8
  8
OBJECT
 10
4597.0
 20
-755.0
 30
0.0
 11
4640.0
 21
-755.0
 31
0.0
1001
ACDBBLOCKREPETAG
1070
     1
1071
       51
1005
1282A8
  0
LINE
  5
1282A9
  8
OBJECT
 10
4593.0
 20
-641.5
 30
0.0
 11
4586.0
 21
-641.5
 31
0.0
1001
ACDBBLOCKREPETAG
1070
     1
1071
       52
1005
1282A9
  0
LINE
  5
1282AA
  8
OBJECT
 10
4586.0
 20
-750.49999999999989
 30
0.0
 11
4593.0
 21
-750.49999999999989
 31
0.0
1001
ACDBBLOCKREPETAG
1070
     1
1071
       53
1005
1282AA
  0
LINE
  5
1282AB
  8
OBJECT
 10
4593.0
 20
-750.49999999999989
 30
0.0
 11
4593.0
 21
-641.5
 31
0.0
1001
ACDBBLOCKREPETAG
1070
     1
1071
       54
1005
1282AB
  0
LINE
  5
1282AC
  8
OBJECT
 10
4597.0
 20
-637.0
 30
0.0
 11
4593.0
 21
-641.5
 31
0.0
1001
ACDBBLOCKREPETAG
1070
     1
1071
       55
1005
1282AC
  0
LINE
  5
1282AD
  8
OBJECT
 10
4597.0
 20
-755.0
 30
0.0
 11
4593.0
 21
-750.49999999999989
 31
0.0
1001
ACDBBLOCKREPETAG
1070
     1
1071
       56
1005
1282AD
  0
LINE
  5
1282AE
  8
OBJECT
 10
4583.0
 20
-634.0
 30
0.0
 11
4580.0
 21
-634.0
 31
0.0
1001
ACDBBLOCKREPETAG
1070
     1
1071
       57
1005
1282AE
  0
ARC
  5
1282AF
  8
OBJECT
 10
4583.0
 20
-637.0
 30
0.0
 40
3.0
 50
0.0
 51
90.0
1001
ACDBBLOCKREPETAG
1070
     1
1071
       58
1005
1282AF
  0
LINE
  5
1282B0
  8
OBJECT
 10
4580.0
 20
-758.0
 30
0.0
 11
4583.0
 21
-758.0
 31
0.0
1001
ACDBBLOCKREPETAG
1070
     1
1071
       59
1005
1282B0
  0
ARC
  5
1282B1
  8
OBJECT
 10
4583.0
 20
-755.0
 30
0.0
 40
3.0
 50
270.0
 51
0.0
1001
ACDBBLOCKREPETAG
1070
     1
1071
       60
1005
1282B1
  0
LINE
  5
1282B2
  8
OBJECT
 10
4586.0
 20
-755.0
 30
0.0
 11
4586.0
 21
-637.0
 31
0.0
1001
ACDBBLOCKREPETAG
1070
     1
1071
       61
1005
1282B2
  0
LINE
  5
1282B3
  8
HIDDEN
 10
4588.0
 20
-651.5
 30
0.0
 11
4588.0
 21
-740.5
 31
0.0
1001
ACDBBLOCKREPETAG
1070
     1
1071
       63
1005
1282B3
  0
LINE
  5
1282B4
  8
OBJECT
 10
2923.0
 20
-570.99999999999432
 30
0.0
 11
2923.0
 21
-549.99999999999432
 31
0.0
1001
ACDBBLOCKREPETAG
1070
     1
1071
       22
1005
1282B4
  0
LINE
  5
1282B5
  8
OBJECT
 10
2923.0
 20
-549.99999999999432
 30
0.0
 11
3077.0
 21
-549.99999999999432
 31
0.0
1001
ACDBBLOCKREPETAG
1070
     1
1071
       23
1005
1282B5
  0
LINE
  5
1282B6
  8
HIDDEN
 10
2943.0
 20
-619.99999999999432
 30
0.0
 11
3057.0
 21
-619.99999999999432
 31
0.0
1001
ACDBBLOCKREPETAG
1070
     1
1071
       24
1005
1282B6
  0
LINE
  5
1282B7
  8
OBJECT
 10
3077.0
 20
-549.99999999999432
 30
0.0
 11
3077.0
 21
-570.99999999999432
 31
0.0
1001
ACDBBLOCKREPETAG
1070
     1
1071
       25
1005
1282B7
  0
LINE
  5
1282B8
  8
OBJECT
 10
3077.0
 20
-570.99999999999432
 30
0.0
 11
2923.0
 21
-570.99999999999432
 31
0.0
1001
ACDBBLOCKREPETAG
1070
     1
1071
       26
1005
1282B8
  0
LINE
  5
1282B9
  8
CENTER
 10
3000.0
 20
-534.99999999999432
 30
0.0
 11
3000.0
 21
-889.99999999999409
 31
0.0
1001
ACDBBLOCKREPETAG
1070
     1
1071
       27
1005
1282B9
  0
LINE
  5
1282BA
  8
OBJECT
 10
3075.0
 20
-633.99999999999432
 30
0.0
 11
3075.0
 21
-737.50000000005946
 31
0.0
1001
ACDBBLOCKREPETAG
1070
     1
1071
       28
1005
1282BA
  0
LINE
  5
1282BB
  8
OBJECT
 10
3075.0
 20
-843.49999999999409
 30
0.0
 11
3075.0
 21
-877.9999999999942
 31
0.0
1001
ACDBBLOCKREPETAG
1070
     1
1071
      218
1005
1282BB
  0
LINE
  5
1282BC
  8
OBJECT
 10
2928.0
 20
-570.99999999999432
 30
0.0
 11
2928.0
 21
-633.99999999999432
 31
0.0
1001
ACDBBLOCKREPETAG
1070
     1
1071
       29
1005
1282BC
  0
LINE
  5
1282BD
  8
OBJECT
 10
3072.0
 20
-633.99999999999432
 30
0.0
 11
3072.0
 21
-570.99999999999432
 31
0.0
1001
ACDBBLOCKREPETAG
1070
     1
1071
       30
1005
1282BD
  0
LINE
  5
1282BE
  8
OBJECT
 10
2920.0
 20
-877.9999999999942
 30
0.0
 11
3080.0
 21
-877.9999999999942
 31
0.0
1001
ACDBBLOCKREPETAG
1070
     1
1071
       31
1005
1282BE
  0
LINE
  5
1282BF
  8
OBJECT
 10
3074.9999999997199
 20
-633.99999999999432
 30
0.0
 11
2925.0
 21
-633.99999999999432
 31
0.0
1001
ACDBBLOCKREPETAG
1070
     1
1071
       32
1005
1282BF
  0
LINE
  5
1282C0
  8
OBJECT
 10
2920.0
 20
-877.9999999999942
 30
0.0
 11
2920.0
 21
-889.99999999999409
 31
0.0
1001
ACDBBLOCKREPETAG
1070
     1
1071
       33
1005
1282C0
  0
LINE
  5
1282C1
  8
OBJECT
 10
2920.0
 20
-889.99999999999409
 30
0.0
 11
3080.0
 21
-889.99999999999409
 31
0.0
1001
ACDBBLOCKREPETAG
1070
     1
1071
       34
1005
1282C1
  0
LINE
  5
1282C2
  8
OBJECT
 10
3080.0
 20
-889.99999999999409
 30
0.0
 11
3080.0
 21
-877.9999999999942
 31
0.0
1001
ACDBBLOCKREPETAG
1070
     1
1071
       35
1005
1282C2
  0
LINE
  5
1282C3
  8
OBJECT
 10
2925.000000000281
 20
-633.99999999999432
 30
0.0
 11
2925.0
 21
-877.9999999999942
 31
0.0
1001
ACDBBLOCKREPETAG
1070
     1
1071
       37
1005
1282C3
  0
LINE
  5
1282C4
  8
OBJECT
 10
3133.0
 20
-738.99999999999409
 30
0.0
 11
3140.0
 21
-738.99999999999409
 31
0.0
1001
ACDBBLOCKREPETAG
1070
     1
1071
      197
1005
1282C4
  0
LINE
  5
1282C5
  8
OBJECT
 10
3140.0
 20
-738.99999999999409
 30
0.0
 11
3140.0
 21
-845.99999999999443
 31
0.0
1001
ACDBBLOCKREPETAG
1070
     1
1071
      198
1005
1282C5
  0
LINE
  5
1282C6
  8
OBJECT
 10
3084.5
 20
-740.50000000005969
 30
0.0
 11
3084.5
 21
-843.49999999999409
 31
0.0
1001
ACDBBLOCKREPETAG
1070
     1
1071
      199
1005
1282C6
  0
ARC
  5
1282C7
  8
OBJECT
 10
3081.5
 20
-740.50000000005969
 30
0.0
 40
3.0
 50
0.0
 51
90.0
1001
ACDBBLOCKREPETAG
1070
     1
1071
      200
1005
1282C7
  0
LINE
  5
1282C8
  8
OBJECT
 10
3133.0
 20
-845.99999999999443
 30
0.0
 11
3133.0
 21
-738.99999999999409
 31
0.0
1001
ACDBBLOCKREPETAG
1070
     1
1071
      201
1005
1282C8
  0
LINE
  5
1282C9
  8
CENTER
 10
3155.0
 20
-793.99999999999409
 30
0.0
 11
3041.344919913005
 21
-794.0000000000598
 31
0.0
1001
ACDBBLOCKREPETAG
1070
     1
1071
      202
1005
1282C9
  0
LINE
  5
1282CA
  8
OBJECT
 10
3133.0
 20
-741.9999999999942
 30
0.0
 11
3097.0
 21
-741.9999999999942
 31
0.0
1001
ACDBBLOCKREPETAG
1070
     1
1071
      203
1005
1282CA
  0
LINE
  5
1282CB
  8
OBJECT
 10
3097.0
 20
-741.9999999999942
 30
0.0
 11
3097.0
 21
-845.99999999999443
 31
0.0
1001
ACDBBLOCKREPETAG
1070
     1
1071
      204
1005
1282CB
  0
LINE
  5
1282CC
  8
OBJECT
 10
3097.0
 20
-845.99999999999443
 30
0.0
 11
3140.0
 21
-845.99999999999443
 31
0.0
1001
ACDBBLOCKREPETAG
1070
     1
1071
      205
1005
1282CC
  0
LINE
  5
1282CD
  8
OBJECT
 10
3093.0
 20
-746.4999999999942
 30
0.0
 11
3084.5
 21
-746.4999999999942
 31
0.0
1001
ACDBBLOCKREPETAG
1070
     1
1071
      206
1005
1282CD
  0
LINE
  5
1282CE
  8
OBJECT
 10
3084.5
 20
-841.49999999999443
 30
0.0
 11
3093.0
 21
-841.49999999999443
 31
0.0
1001
ACDBBLOCKREPETAG
1070
     1
1071
      207
1005
1282CE
  0
LINE
  5
1282CF
  8
OBJECT
 10
3093.0
 20
-841.49999999999443
 30
0.0
 11
3093.0
 21
-746.4999999999942
 31
0.0
1001
ACDBBLOCKREPETAG
1070
     1
1071
      208
1005
1282CF
  0
LINE
  5
1282D0
  8
OBJECT
 10
3097.0
 20
-741.9999999999942
 30
0.0
 11
3093.0
 21
-746.4999999999942
 31
0.0
1001
ACDBBLOCKREPETAG
1070
     1
1071
      209
1005
1282D0
  0
LINE
  5
1282D1
  8
OBJECT
 10
3097.0
 20
-845.99999999999443
 30
0.0
 11
3093.0
 21
-841.49999999999443
 31
0.0
1001
ACDBBLOCKREPETAG
1070
     1
1071
       36
1005
1282D1
  0
LINE
  5
1282D2
  8
HIDDEN
 10
3088.0
 20
-755.99999999999397
 30
0.0
 11
3088.0
 21
-831.99999999999454
 31
0.0
1001
ACDBBLOCKREPETAG
1070
     1
1071
      210
1005
1282D2
  0
ARC
  5
1282D3
  8
OBJECT
 10
3164.8782728787751
 20
-802.40950726122355
 30
0.0
 40
110.86635228309
 50
144.1634274193047
 51
163.040353804338
1001
ACDBBLOCKREPETAG
1070
     1
1071
      211
1005
1282D3
  0
ARC
  5
1282D4
  8
OBJECT
 10
3117.1359887769072
 20
-787.28774971844337
 30
0.0
 40
60.791749880358971
 50
163.5472046522205
 51
179.72879698282679
1001
ACDBBLOCKREPETAG
1070
     1
1071
      212
1005
1282D4
  0
ARC
  5
1282D5
  8
OBJECT
 10
3117.1359956562478
 20
-793.7122497598956
 30
0.0
 40
60.79175676209487
 50
180.2712034781452
 51
196.45277946052761
1001
ACDBBLOCKREPETAG
1070
     1
1071
      213
1005
1282D5
  0
ARC
  5
1282D6
  8
OBJECT
 10
3164.8782728787751
 20
-778.5904927388309
 30
0.0
 40
110.8663522830916
 50
196.95964619566189
 51
215.8365725806953
1001
ACDBBLOCKREPETAG
1070
     1
1071
      214
1005
1282D6
  0
LINE
  5
1282D7
  8
OBJECT
 10
3056.344919913005
 20
-787.00000000003081
 30
0.0
 11
3056.344919913005
 21
-794.00000000002683
 31
0.0
1001
ACDBBLOCKREPETAG
1070
     1
1071
      215
1005
1282D7
  0
LINE
  5
1282D8
  8
OBJECT
 10
3075.0
 20
-737.50000000005946
 30
0.0
 11
3081.5
 21
-737.50000000005946
 31
0.0
1001
ACDBBLOCKREPETAG
1070
     1
1071
      216
1005
1282D8
  0
LINE
  5
1282D9
  8
OBJECT
 10
3075.0
 20
-843.49999999999409
 30
0.0
 11
3084.5
 21
-843.49999999999409
 31
0.0
1001
ACDBBLOCKREPETAG
1070
     1
1071
      217
1005
1282D9
  0
POINT
  5
1282DA
  8
DOTS
 10
3000.0
 20
-845.99999999999443
 30
0.0
1001
ACDBBLOCKREPETAG
1070
     1
1071
      219
1005
1282DA
  0
LINE
  5
1282DB
  8
OBJECT
 10
2423.0
 20
-570.99999999999432
 30
0.0
 11
2423.0
 21
-549.99999999999432
 31
0.0
1001
ACDBBLOCKREPETAG
1070
     1
1071
        0
1005
1282DB
  0
LINE
  5
1282DC
  8
OBJECT
 10
2423.0
 20
-549.99999999999432
 30
0.0
 11
2577.0
 21
-549.99999999999432
 31
0.0
1001
ACDBBLOCKREPETAG
1070
     1
1071
        1
1005
1282DC
  0
LINE
  5
1282DD
  8
HIDDEN
 10
2443.0
 20
-619.99999999999432
 30
0.0
 11
2557.0
 21
-619.99999999999432
 31
0.0
1001
ACDBBLOCKREPETAG
1070
     1
1071
        2
1005
1282DD
  0
LINE
  5
1282DE
  8
OBJECT
 10
2577.0
 20
-549.99999999999432
 30
0.0
 11
2577.0
 21
-570.99999999999432
 31
0.0
1001
ACDBBLOCKREPETAG
1070
     1
1071
        3
1005
1282DE
  0
LINE
  5
1282DF
  8
OBJECT
 10
2577.0
 20
-570.99999999999432
 30
0.0
 11
2423.0
 21
-570.99999999999432
 31
0.0
1001
ACDBBLOCKREPETAG
1070
     1
1071
        4
1005
1282DF
  0
LINE
  5
1282E0
  8
CENTER
 10
2500.0
 20
-534.99999999999432
 30
0.0
 11
2500.0
 21
-889.99999999999409
 31
0.0
1001
ACDBBLOCKREPETAG
1070
     1
1071
        5
1005
1282E0
  0
LINE
  5
1282E1
  8
OBJECT
 10
2425.0
 20
-633.99999999999432
 30
0.0
 11
2425.0
 21
-877.9999999999942
 31
0.0
1001
ACDBBLOCKREPETAG
1070
     1
1071
        6
1005
1282E1
  0
LINE
  5
1282E2
  8
OBJECT
 10
2428.0
 20
-570.99999999999432
 30
0.0
 11
2428.0
 21
-633.99999999999432
 31
0.0
1001
ACDBBLOCKREPETAG
1070
     1
1071
        7
1005
1282E2
  0
LINE
  5
1282E3
  8
OBJECT
 10
2572.0
 20
-633.99999999999432
 30
0.0
 11
2572.0
 21
-570.99999999999432
 31
0.0
1001
ACDBBLOCKREPETAG
1070
     1
1071
        8
1005
1282E3
  0
LINE
  5
1282E4
  8
OBJECT
 10
2420.0
 20
-877.9999999999942
 30
0.0
 11
2580.0
 21
-877.9999999999942
 31
0.0
1001
ACDBBLOCKREPETAG
1070
     1
1071
        9
1005
1282E4
  0
LINE
  5
1282E5
  8
OBJECT
 10
2580.0
 20
-633.99999999999432
 30
0.0
 11
2425.0
 21
-633.99999999999432
 31
0.0
1001
ACDBBLOCKREPETAG
1070
     1
1071
       10
1005
1282E5
  0
LINE
  5
1282E6
  8
OBJECT
 10
2420.0
 20
-877.9999999999942
 30
0.0
 11
2420.0
 21
-889.99999999999409
 31
0.0
1001
ACDBBLOCKREPETAG
1070
     1
1071
       11
1005
1282E6
  0
LINE
  5
1282E7
  8
OBJECT
 10
2420.0
 20
-889.99999999999409
 30
0.0
 11
2580.0
 21
-889.99999999999409
 31
0.0
1001
ACDBBLOCKREPETAG
1070
     1
1071
       12
1005
1282E7
  0
LINE
  5
1282E8
  8
OBJECT
 10
2580.0
 20
-889.99999999999409
 30
0.0
 11
2580.0
 21
-877.9999999999942
 31
0.0
1001
ACDBBLOCKREPETAG
1070
     1
1071
       13
1005
1282E8
  0
LINE
  5
1282E9
  8
OBJECT
 10
2574.9999999998622
 20
-757.99999999984493
 30
0.0
 11
2575.0
 21
-877.9999999999942
 31
0.0
1001
ACDBBLOCKREPETAG
1070
     1
1071
       15
1005
1282E9
  0
LINE
  5
1282EA
  8
OBJECT
 10
2574.9999908029849
 20
-757.99998602701612
 30
0.0
 11
2580.0
 21
-757.99998602701612
 31
0.0
1001
ACDBBLOCKREPETAG
1070
     1
1071
       16
1005
1282EA
  0
ARC
  5
1282EB
  8
OBJECT
 10
2700.6872746716731
 20
-749.40809941010195
 30
0.0
 40
170.6350503965856
 50
137.44134459184301
 51
149.91949581337221
1001
ACDBBLOCKREPETAG
1070
     1
1071
       17
1005
1282EB
  0
ARC
  5
1282EC
  8
OBJECT
 10
2618.8455987040511
 20
-705.88272669535922
 30
0.0
 40
78.072222021763665
 50
147.4551531038623
 51
164.6636599771798
1001
ACDBBLOCKREPETAG
1070
     1
1071
       18
1005
1282EC
  0
ARC
  5
1282ED
  8
OBJECT
 10
2585.7554349608731
 20
-695.99999999999432
 30
0.0
 40
43.55353926885617
 50
165.6884523007466
 51
194.3115476992534
1001
ACDBBLOCKREPETAG
1070
     1
1071
       19
1005
1282ED
  0
ARC
  5
1282EE
  8
OBJECT
 10
2700.6872746716731
 20
-642.59190058988645
 30
0.0
 40
170.6350503965856
 50
210.08050418662771
 51
222.55865540815699
1001
ACDBBLOCKREPETAG
1070
     1
1071
       20
1005
1282EE
  0
ARC
  5
1282EF
  8
OBJECT
 10
2618.8455987040511
 20
-686.11727330462952
 30
0.0
 40
78.072222021763665
 50
195.3363400228202
 51
212.5448468961377
1001
ACDBBLOCKREPETAG
1070
     1
1071
       21
1005
1282EF
  0
CIRCLE
  5
1282F0
  8
HIDDEN
 10
2500.0
 20
-793.99999999999397
 30
0.0
 40
35.5
1001
ACDBBLOCKREPETAG
1070
     1
1071
      192
1005
1282F0
  0
LINE
  5
1282F1
  8
CENTER
 10
2430.0
 20
-793.99999999999397
 30
0.0
 11
2570.0
 21
-793.99999999999397
 31
0.0
1001
ACDBBLOCKREPETAG
1070
     1
1071
      193
1005
1282F1
  0
CIRCLE
  5
1282F2
  8
HIDDEN
 10
2500.0
 20
-793.99999999999397
 30
0.0
 40
47.0
1001
ACDBBLOCKREPETAG
1070
     1
1071
       14
1005
1282F2
  0
ARC
  5
1282F3
  8
HIDDEN
 10
2500.0
 20
-793.99999999999397
 30
0.0
 40
55.0
 50
289.0112652600846
 51
250.98873473991529
1001
ACDBBLOCKREPETAG
1070
     1
1071
      194
1005
1282F3
  0
LINE
  5
1282F4
  8
HIDDEN
 10
2482.0835271328328
 20
-845.99999999999443
 30
0.0
 11
2517.9164728671681
 21
-845.99999999999443
 31
0.0
1001
ACDBBLOCKREPETAG
1070
     1
1071
      195
1005
1282F4
  0
POINT
  5
1282F5
  8
DOTS
 10
2500.0
 20
-845.99999999999443
 30
0.0
1001
ACDBBLOCKREPETAG
1070
     1
1071
      196
1005
1282F5
  0
LINE
  5
1282F6
  8
CENTER
 10
3077.0
 20
-695.99999999999432
 30
0.0
 11
2923.0
 21
-695.99999999999432
 31
0.0
1001
ACDBBLOCKREPETAG
1070
     1
1071
       17
1005
1282F6
  0
CIRCLE
  5
1282F7
  8
OBJECT
 10
3000.0
 20
-695.99999999999432
 30
0.0
 40
41.5
1001
ACDBBLOCKREPETAG
1070
     1
1071
       19
1005
1282F7
  0
CIRCLE
  5
1282F8
  8
OBJECT
 10
3000.0
 20
-695.99999999999432
 30
0.0
 40
54.0
1001
ACDBBLOCKREPETAG
1070
     1
1071
       20
1005
1282F8
  0
ARC
  5
1282F9
  8
OBJECT
 10
3000.0
 20
-695.99999999999432
 30
0.0
 40
62.0
 50
287.89655112920718
 51
252.10344887079279
1001
ACDBBLOCKREPETAG
1070
     1
1071
       21
1005
1282F9
  0
LINE
  5
1282FA
  8
OBJECT
 10
2980.947441116743
 20
-754.9999999999942
 30
0.0
 11
3019.052558883257
 21
-754.9999999999942
 31
0.0
1001
ACDBBLOCKREPETAG
1070
     1
1071
       22
1005
1282FA
  0
LINE
  5
1282FB
  8
OBJECT
 10
2633.0
 20
-634.0
 30
0.0
 11
2640.0
 21
-634.0
 31
0.0
1001
ACDBBLOCKREPETAG
1070
     1
1071
       45
1005
1282FB
  0
LINE
  5
1282FC
  8
OBJECT
 10
2640.0
 20
-634.0
 30
0.0
 11
2640.0
 21
-755.0
 31
0.0
1001
ACDBBLOCKREPETAG
1070
     1
1071
       46
1005
1282FC
  0
LINE
  5
1282FD
  8
OBJECT
 10
2633.0
 20
-755.0
 30
0.0
 11
2633.0
 21
-634.0
 31
0.0
1001
ACDBBLOCKREPETAG
1070
     1
1071
       47
1005
1282FD
  0
LINE
  5
1282FE
  8
CENTER
 10
2655.0
 20
-696.0
 30
0.0
 11
2571.0
 21
-696.0
 31
0.0
1001
ACDBBLOCKREPETAG
1070
     1
1071
       48
1005
1282FE
  0
LINE
  5
1282FF
  8
OBJECT
 10
2633.0
 20
-637.0
 30
0.0
 11
2597.0
 21
-637.0
 31
0.0
1001
ACDBBLOCKREPETAG
1070
     1
1071
       49
1005
1282FF
  0
LINE
  5
128300
  8
OBJECT
 10
2597.0
 20
-637.0
 30
0.0
 11
2597.0
 21
-755.0
 31
0.0
1001
ACDBBLOCKREPETAG
1070
     1
1071
       50
1005
128300
  0
LINE
  5
128301
  8
OBJECT
 10
2597.0
 20
-755.0
 30
0.0
 11
2640.0
 21
-755.0
 31
0.0
1001
ACDBBLOCKREPETAG
1070
     1
1071
       51
1005
128301
  0
LINE
  5
128302
  8
OBJECT
 10
2593.0
 20
-641.5
 30
0.0
 11
2586.0
 21
-641.5
 31
0.0
1001
ACDBBLOCKREPETAG
1070
     1
1071
       52
1005
128302
  0
LINE
  5
128303
  8
OBJECT
 10
2586.0
 20
-750.49999999999989
 30
0.0
 11
2593.0
 21
-750.49999999999989
 31
0.0
1001
ACDBBLOCKREPETAG
1070
     1
1071
       53
1005
128303
  0
LINE
  5
128304
  8
OBJECT
 10
2593.0
 20
-750.49999999999989
 30
0.0
 11
2593.0
 21
-641.5
 31
0.0
1001
ACDBBLOCKREPETAG
1070
     1
1071
       54
1005
128304
  0
LINE
  5
128305
  8
OBJECT
 10
2597.0
 20
-637.0
 30
0.0
 11
2593.0
 21
-641.5
 31
0.0
1001
ACDBBLOCKREPETAG
1070
     1
1071
       55
1005
128305
  0
LINE
  5
128306
  8
OBJECT
 10
2597.0
 20
-755.0
 30
0.0
 11
2593.0
 21
-750.49999999999989
 31
0.0
1001
ACDBBLOCKREPETAG
1070
     1
1071
       56
1005
128306
  0
LINE
  5
128307
  8
OBJECT
 10
2583.0
 20
-634.0
 30
0.0
 11
2580.0
 21
-634.0
 31
0.0
1001
ACDBBLOCKREPETAG
1070
     1
1071
       57
1005
128307
  0
ARC
  5
128308
  8
OBJECT
 10
2583.0
 20
-637.0
 30
0.0
 40
3.0
 50
0.0
 51
90.0
1001
ACDBBLOCKREPETAG
1070
     1
1071
       58
1005
128308
  0
LINE
  5
128309
  8
OBJECT
 10
2580.0
 20
-758.0
 30
0.0
 11
2583.0
 21
-758.0
 31
0.0
1001
ACDBBLOCKREPETAG
1070
     1
1071
       59
1005
128309
  0
ARC
  5
12830A
  8
OBJECT
 10
2583.0
 20
-755.0
 30
0.0
 40
3.0
 50
270.0
 51
0.0
1001
ACDBBLOCKREPETAG
1070
     1
1071
       60
1005
12830A
  0
LINE
  5
12830B
  8
OBJECT
 10
2586.0
 20
-755.0
 30
0.0
 11
2586.0
 21
-637.0
 31
0.0
1001
ACDBBLOCKREPETAG
1070
     1
1071
       61
1005
12830B
  0
LINE
  5
12830C
  8
HIDDEN
 10
2588.0
 20
-651.5
 30
0.0
 11
2588.0
 21
-740.5
 31
0.0
1001
ACDBBLOCKREPETAG
1070
     1
1071
       63
1005
12830C
  0
TEXT
  5
12830D
  8
SLIM
 10
2337.75
 20
282.50000000000011
 30
0.0
 40
35.0
  1
（枝管サイズ毎に寸法が異なります。管底の位置は全サイズで同じです）
 41
0.75
  0
TEXT
  5
12830E
  8
SLIM
 10
2350.0
 20
532.5
 30
0.0
 40
75.0
  1
側面図の代表機種
 41
0.75
  0
TEXT
  5
12830F
  8
SLIM
 10
2350.0
 20
369.99999999999989
 30
0.0
 40
100.0
  1
4SRTG-A3-A0002-P150
 41
0.75
  0
TEXT
  5
128310
  8
SLIM
 10
0.0
 20
369.99999999999989
 30
0.0
 40
100.0
  1
4SRTG-A3-A000X-PXXX-S
 41
0.75
  0
TEXT
  5
128312
  8
SLIM
 10
4241.6249999999991
 20
-1467.499999999998
 30
0.0
 40
35.0
  1
片受けスタイル（S）＋シンドカット
 41
0.75
  0
TEXT
  5
128313
  8
SLIM
 10
2356.25
 20
-1467.499999999998
 30
0.0
 40
35.0
  1
片受けスタイル（S）
 41
0.75
  0
VIEWPORT
  5
F6BA7
 67
     1
  8
0
 10
145.33033752441401
 20
101.8328354358673
 30
0.0
 40
334.0025019414623
 41
222.19657968139651
 68
     1
 69
     1
1001
ACAD
1000
MVIEW
1002
{
1070
    16
1010
0.0
1020
0.0
1030
0.0
1010
0.0
1020
0.0
1030
1.0
1040
0.0
1040
222.19657968139651
1040
145.33033752441401
1040
101.8328354358673
1040
50.0
1040
0.0
1040
0.0
1070
     0
1070
     0
1070
     1
1070
     1
1070
     0
1070
     0
1070
     0
1070
     0
1040
0.0
1040
0.0
1040
0.0
1040
10.0
1040
10.0
1040
10.0
1040
10.0
1070
     0
1002
{
1002
}
1002
}
  0
VIEWPORT
  5
F6BA9
 67
     1
  8
OBJECT
 10
145.3303314447403
 20
101.8328338861465
 30
0.0
 40
232.5285303115844
 41
162.93253421783439
 68
     2
 69
     2
1001
ACAD
1000
MVIEW
1002
{
1070
    16
1010
0.0
1020
0.0
1030
0.0
1010
0.0
1020
0.0
1030
1.0
1040
0.0
1040
25942.55904403147
1040
2377.604457077377
1040
-7591.5176687056619
1040
50.0
1040
0.0
1040
0.0
1070
     0
1070
   600
1070
     1
1070
     1
1070
     0
1070
     0
1070
     0
1070
     0
1040
0.0
1040
0.0
1040
0.0
1040
1.0
1040
1.0
1040
0.0
1040
0.0
1070
     0
1002
{
1002
}
1002
}
  0
ENDSEC
  0
EOF
