  0
SECTION
  2
HEADER
  9
$ACADVER
  1
AC1009
  9
$INSBASE
 10
0.0
 20
0.0
 30
0.0
  9
$EXTMIN
 10
0.0
 20
-3587.4999999999968
 30
0.0
  9
$EXTMAX
 10
5575.0
 20
607.5
 30
0.0
  9
$LIMMIN
 10
0.0
 20
0.0
  9
$LIMMAX
 10
210.0
 20
297.0
  9
$ORTHOMODE
 70
     0
  9
$REGENMODE
 70
     1
  9
$FILLMODE
 70
     1
  9
$QTEXTMODE
 70
     0
  9
$MIRRTEXT
 70
     0
  9
$DRAGMODE
 70
     2
  9
$LTSCALE
 40
1.0
  9
$OSMODE
 70
  2557
  9
$ATTMODE
 70
     1
  9
$TEXTSIZE
 40
4.0
  9
$TRACEWID
 40
0.05
  9
$TEXTSTYLE
  7
STANDARD
  9
$CLAYER
  8
OBJECT
  9
$CELTYPE
  6
BYLAYER
  9
$CECOLOR
 62
   256
  9
$DIMSCALE
 40
10.0
  9
$DIMASZ
 40
2.0
  9
$DIMEXO
 40
1.0
  9
$DIMDLI
 40
10.0
  9
$DIMRND
 40
0.0
  9
$DIMDLE
 40
0.0
  9
$DIMEXE
 40
1.0
  9
$DIMTP
 40
0.0
  9
$DIMTM
 40
0.0
  9
$DIMTXT
 40
3.2000000000000002
  9
$DIMCEN
 40
0.0
  9
$DIMTSZ
 40
0.0
  9
$DIMTOL
 70
     0
  9
$DIMLIM
 70
     0
  9
$DIMTIH
 70
     0
  9
$DIMTOH
 70
     0
  9
$DIMSE1
 70
     0
  9
$DIMSE2
 70
     0
  9
$DIMTAD
 70
     1
  9
$DIMZIN
 70
     8
  9
$DIMBLK
  1
OPEN30
  9
$DIMASO
 70
     1
  9
$DIMSHO
 70
     1
  9
$DIMPOST
  1

  9
$DIMAPOST
  1

  9
$DIMALT
 70
     0
  9
$DIMALTD
 70
     2
  9
$DIMALTF
 40
25.399999999999999
  9
$DIMLFAC
 40
1.0
  9
$DIMTOFL
 70
     1
  9
$DIMTVP
 40
0.0
  9
$DIMTIX
 70
     0
  9
$DIMSOXD
 70
     0
  9
$DIMSAH
 70
     0
  9
$DIMBLK1
  1

  9
$DIMBLK2
  1

  9
$DIMSTYLE
  2
S10
  9
$DIMCLRD
 70
   256
  9
$DIMCLRE
 70
   256
  9
$DIMCLRT
 70
   256
  9
$DIMTFAC
 40
1.0
  9
$DIMGAP
 40
0.9
  9
$LUNITS
 70
     2
  9
$LUPREC
 70
     2
  9
$SKETCHINC
 40
0.1
  9
$FILLETRAD
 40
0.0
  9
$AUNITS
 70
     0
  9
$AUPREC
 70
     2
  9
$MENU
  1
ACAD
  9
$ELEVATION
 40
0.0
  9
$PELEVATION
 40
0.0
  9
$THICKNESS
 40
0.0
  9
$LIMCHECK
 70
     0
  9
$BLIPMODE
 70
     0
  9
$CHAMFERA
 40
2.0
  9
$CHAMFERB
 40
2.0
  9
$SKPOLY
 70
     0
  9
$TDCREATE
 40
2453095.4929404748
  9
$TDUPDATE
 40
2456576.4170596302
  9
$TDINDWG
 40
19.123038645800001
  9
$TDUSRTIMER
 40
19.1230379167
  9
$USRTIMER
 70
     1
  9
$ANGBASE
 50
0.0
  9
$ANGDIR
 70
     0
  9
$PDMODE
 70
    35
  9
$PDSIZE
 40
2.0
  9
$PLINEWID
 40
0.0
  9
$COORDS
 70
     1
  9
$SPLFRAME
 70
     0
  9
$SPLINETYPE
 70
     6
  9
$SPLINESEGS
 70
     8
  9
$ATTDIA
 70
     1
  9
$ATTREQ
 70
     1
  9
$HANDLING
 70
     1
  9
$HANDSEED
  5
122B2F
  9
$SURFTAB1
 70
     6
  9
$SURFTAB2
 70
     6
  9
$SURFTYPE
 70
     6
  9
$SURFU
 70
     6
  9
$SURFV
 70
     6
  9
$UCSNAME
  2

  9
$UCSORG
 10
0.0
 20
0.0
 30
0.0
  9
$UCSXDIR
 10
1.0
 20
0.0
 30
0.0
  9
$UCSYDIR
 10
0.0
 20
1.0
 30
0.0
  9
$PUCSNAME
  2

  9
$PUCSORG
 10
0.0
 20
0.0
 30
0.0
  9
$PUCSXDIR
 10
1.0
 20
0.0
 30
0.0
  9
$PUCSYDIR
 10
0.0
 20
1.0
 30
0.0
  9
$USERI1
 70
     0
  9
$USERI2
 70
     0
  9
$USERI3
 70
     0
  9
$USERI4
 70
     0
  9
$USERI5
 70
     0
  9
$USERR1
 40
0.0
  9
$USERR2
 40
0.0
  9
$USERR3
 40
0.0
  9
$USERR4
 40
0.0
  9
$USERR5
 40
0.0
  9
$WORLDVIEW
 70
     1
  9
$SHADEDGE
 70
     3
  9
$SHADEDIF
 70
    70
  9
$TILEMODE
 70
     1
  9
$MAXACTVP
 70
    64
  9
$PLIMCHECK
 70
     0
  9
$PEXTMIN
 10
29.066066288948051
 20
20.366566777229309
 30
0.0
  9
$PEXTMAX
 10
261.5945966005325
 20
183.29910099506381
 30
0.0
  9
$PLIMMIN
 10
-3.17498779296875
 20
-3.1749999523162842
  9
$PLIMMAX
 10
293.83566284179687
 20
206.8406708240509
  9
$UNITMODE
 70
     0
  9
$VISRETAIN
 70
     1
  9
$PLINEGEN
 70
     0
  9
$PSLTSCALE
 70
     1
  0
ENDSEC
  0
SECTION
  2
TABLES
  0
TABLE
  2
VPORT
 70
     1
  0
VPORT
  2
*ACTIVE
 70
     0
 10
0.0
 20
0.0
 11
1.0
 21
1.0
 12
8532.1056531988415
 22
-3286.9217274607981
 13
0.0
 23
0.0
 14
1.0
 24
1.0
 15
0.0
 25
0.0
 16
0.0
 26
0.0
 36
1.0
 17
0.0
 27
0.0
 37
0.0
 40
13739.05475505377
 41
1.958525345622119
 42
50.0
 43
0.0
 44
0.0
 50
0.0
 51
0.0
 71
     0
 72
   600
 73
     1
 74
     1
 75
     0
 76
     0
 77
     0
 78
     0
  0
ENDTAB
  0
TABLE
  2
LTYPE
 70
     3
  0
LTYPE
  2
CONTINUOUS
 70
     0
  3
Solid line
 72
    65
 73
     0
 40
0.0
  0
LTYPE
  2
ACAD_ISO08W100
 70
     0
  3
ISO long-dash short-dash ____ __ ____ __ ____ _
 72
    65
 73
     4
 40
36.0
 49
24.0
 49
-3.0
 49
6.0
 49
-3.0
  0
LTYPE
  2
ACAD_ISO02W100
 70
     0
  3
ISO dash __ __ __ __ __ __ __ __ __ __ __ __ __
 72
    65
 73
     2
 40
15.0
 49
12.0
 49
-3.0
  0
ENDTAB
  0
TABLE
  2
LAYER
 70
     8
  0
LAYER
  2
0
 70
     0
 62
     7
  6
CONTINUOUS
  0
LAYER
  2
OBJECT
 70
     0
 62
     4
  6
CONTINUOUS
  0
LAYER
  2
DEFPOINTS
 70
     0
 62
     7
  6
CONTINUOUS
  0
LAYER
  2
DIM
 70
     0
 62
     7
  6
CONTINUOUS
  0
LAYER
  2
HIDDEN
 70
     0
 62
     2
  6
ACAD_ISO02W100
  0
LAYER
  2
CENTER
 70
     0
 62
     2
  6
ACAD_ISO08W100
  0
LAYER
  2
DOTS
 70
     0
 62
     1
  6
CONTINUOUS
  0
LAYER
  2
SLIM
 70
     0
 62
     2
  6
CONTINUOUS
  0
ENDTAB
  0
TABLE
  2
STYLE
 70
     2
  0
STYLE
  2
STANDARD
 70
     0
 40
0.0
 41
0.75
 50
0.0
 71
     0
 42
4.0
  3
simplex.shx
  4
bigfont.shx
  0
ENDTAB
  0
TABLE
  2
VIEW
 70
     0
  0
ENDTAB
  0
TABLE
  2
UCS
 70
     0
  0
ENDTAB
  0
TABLE
  2
APPID
 70
    18
  0
APPID
  2
ACAD
 70
     0
  0
APPID
  2
ACADANNOTATIVE
 70
     0
  0
APPID
  2
ACAD_PSEXT
 70
     0
  0
APPID
  2
ACAD_EXEMPT_FROM_CAD_STANDARDS
 70
     0
  0
APPID
  2
ACAECLAYERSTANDARD
 70
     0
  0
APPID
  2
ACAUTHENVIRON
 70
     0
  0
APPID
  2
ACDBDYNAMICBLOCKTRUENAME
 70
     0
  0
APPID
  2
ACDBDYNAMICBLOCKGUID
 70
     0
  0
APPID
  2
ACDBBLOCKREPETAG
 70
     0
  0
APPID
  2
ACDBBLOCKREPBTAG
 70
     0
  0
APPID
  2
ACAD_NAV_VCDISPLAY
 70
     0
  0
APPID
  2
ACAD_DSTYLE_DIMRADIAL_EXTENSION
 70
     0
  0
APPID
  2
ACAD_DSTYLE_DIMJAG
 70
     0
  0
APPID
  2
ACAD_DSTYLE_DIMTALN
 70
     0
  0
APPID
  2
ACADANNOPO
 70
     0
  0
APPID
  2
GRADIENTCOLOR1ACI
 70
     0
  0
APPID
  2
GRADIENTCOLOR2ACI
 70
     0
  0
APPID
  2
ACAD_MLEADERVER
 70
     0
  0
ENDTAB
  0
TABLE
  2
DIMSTYLE
 70
     3
  0
DIMSTYLE
  2
STANDARD
 70
     0
  3

  4

  5

  6

  7

 40
1.0
 41
0.18
 42
0.0625
 43
0.38
 44
0.18
 45
0.0
 46
0.0
 47
0.0
 48
0.0
140
0.18
141
0.09
142
0.0
143
25.399999999999999
144
1.0
145
0.0
146
1.0
147
0.09
 71
     0
 72
     0
 73
     1
 74
     1
 75
     0
 76
     0
 77
     0
 78
     0
170
     0
171
     2
172
     0
173
     0
174
     0
175
     0
176
     0
177
     0
178
     0
  0
DIMSTYLE
  2
S10
 70
     0
  3

  4

  5

  6

  7

 40
10.0
 41
2.0
 42
1.0
 43
10.0
 44
1.0
 45
0.0
 46
0.0
 47
0.0
 48
0.0
140
3.2000000000000002
141
0.0
142
0.0
143
25.399999999999999
144
1.0
145
0.0
146
1.0
147
0.9
 71
     0
 72
     0
 73
     0
 74
     0
 75
     0
 76
     0
 77
     1
 78
     8
170
     0
171
     2
172
     1
173
     0
174
     0
175
     0
176
   256
177
   256
178
   256
  0
ENDTAB
  0
ENDSEC
  0
SECTION
  2
BLOCKS
  0
BLOCK
  8
0
  2
$MODEL_SPACE
 70
     0
 10
0.0
 20
0.0
 30
0.0
  3
$MODEL_SPACE
  1

  0
ENDBLK
  5
122A63
  8
0
  0
BLOCK
 67
     1
  8
0
  2
$PAPER_SPACE
 70
     0
 10
0.0
 20
0.0
 30
0.0
  3
$PAPER_SPACE
  1

  0
ENDBLK
  5
122A5F
 67
     1
  8
0
  0
BLOCK
  8
0
  2
_OPEN30
 70
     0
 10
0.0
 20
0.0
 30
0.0
  3
_OPEN30
  1

  0
LINE
  5
202
  8
0
  6
BYBLOCK
 62
     0
 10
-1.0
 20
0.26794919
 30
0.0
 11
0.0
 21
0.0
 31
0.0
  0
LINE
  5
203
  8
0
  6
BYBLOCK
 62
     0
 10
0.0
 20
0.0
 30
0.0
 11
-1.0
 21
-0.26794919
 31
0.0
  0
LINE
  5
204
  8
0
  6
BYBLOCK
 62
     0
 10
0.0
 20
0.0
 30
0.0
 11
-1.0
 21
0.0
 31
0.0
  0
ENDBLK
  5
206
  8
0
  0
BLOCK
  8
0
  2
*X18
 70
     1
 10
0.0
 20
0.0
 30
0.0
  3
*X18
  1

  0
LINE
  5
122834
  8
0
 62
     0
 10
4044.9012806053461
 20
-129.28048304657929
 30
0.0
 11
4041.364797757567
 21
-125.74400019880041
 31
0.0
  0
LINE
  5
122835
  8
0
 62
     0
 10
4053.6207975587658
 20
-137.99999999999881
 30
0.0
 11
4049.3914086658801
 21
-133.77061110711381
 31
0.0
  0
LINE
  5
122836
  8
0
 62
     0
 10
4026.9407683632062
 20
-120.3002269255103
 30
0.0
 11
4025.5813318337941
 21
-118.9407903960974
 31
0.0
  0
LINE
  5
122837
  8
0
 62
     0
 10
4035.9210244842761
 20
-129.28048304657941
 30
0.0
 11
4031.4308964237398
 21
-124.7903549860448
 31
0.0
  0
LINE
  5
122838
  8
0
 62
     0
 10
4044.6405414376959
 20
-137.99999999999881
 30
0.0
 11
4040.4111525448111
 21
-133.77061110711401
 31
0.0
  0
LINE
  5
122839
  8
0
 62
     0
 10
4017.9605122421381
 20
-120.3002269255104
 30
0.0
 11
4013.785639980023
 21
-116.1253546633947
 31
0.0
  0
LINE
  5
12283A
  8
0
 62
     0
 10
4026.9407683632062
 20
-129.28048304657941
 30
0.0
 11
4022.450640302673
 21
-124.790354986045
 31
0.0
  0
LINE
  5
12283B
  8
0
 62
     0
 10
4008.980256121069
 20
-120.3002269255104
 30
0.0
 11
4004.490128060535
 21
-115.8100988649758
 31
0.0
  0
LINE
  5
12283C
  8
0
 62
     0
 10
4015.2459755954542
 20
-126.56594639989611
 30
0.0
 11
4013.470384181604
 21
-124.790354986045
 31
0.0
  0
LINE
  5
12283D
  8
0
 62
     0
 10
4000.0
 20
-120.3002269255102
 30
0.0
 11
3995.5098719394659
 21
-115.8100988649757
 31
0.0
  0
LINE
  5
12283E
  8
0
 62
     0
 10
4004.857222406476
 20
-125.1574493319865
 30
0.0
 11
4004.4901280605341
 21
-124.7903549860449
 31
0.0
  0
LINE
  5
12283F
  8
0
 62
     0
 10
3991.0197438789319
 20
-120.3002269255101
 30
0.0
 11
3986.7574181990171
 21
-116.03790124559499
 31
0.0
  0
LINE
  5
122840
  8
0
 62
     0
 10
3995.8352410164198
 20
-125.1157240629995
 30
0.0
 11
3995.5098719394659
 21
-124.7903549860446
 31
0.0
  0
LINE
  5
122841
  8
0
 62
     0
 10
3982.039487757861
 20
-120.3002269255105
 30
0.0
 11
3979.2986509997559
 21
-117.5593901674046
 31
0.0
  0
LINE
  5
122842
  8
0
 62
     0
 10
3987.7469459221788
 20
-126.0076850898276
 30
0.0
 11
3986.5296158183978
 21
-124.7903549860451
 31
0.0
  0
LINE
  5
122843
  8
0
 62
     0
 10
3973.059231636792
 20
-120.3002269255101
 30
0.0
 11
3972.3737447415801
 21
-119.6147400302971
 31
0.0
  0
LINE
  5
122844
  8
0
 62
     0
 10
3980.3727435536048
 20
-127.61373884232211
 30
0.0
 11
3977.5493596973279
 21
-124.7903549860447
 31
0.0
  0
LINE
  5
122845
  8
0
 62
     0
 10
3973.0592316367929
 20
-129.28048304657941
 30
0.0
 11
3968.5691035762588
 21
-124.7903549860449
 31
0.0
  0
LINE
  5
122846
  8
0
 62
     0
 10
3964.0789755157239
 20
-129.28048304657949
 30
0.0
 11
3959.8686784425822
 21
-125.0701859734376
 31
0.0
  0
LINE
  5
122847
  8
0
 62
     0
 10
3955.098719394653
 20
-129.28048304657929
 30
0.0
 11
3954.207715567552
 21
-128.38947921947619
 31
0.0
  0
LINE
  5
122848
  8
0
 62
     0
 10
3961.4712462510188
 20
-135.65300990294469
 30
0.0
 11
3959.5888474551889
 21
-133.77061110711381
 31
0.0
  0
LINE
  5
122849
  8
0
 62
     0
 10
3955.098719394653
 20
-138.2607391676483
 30
0.0
 11
3950.6085913341199
 21
-133.77061110711369
 31
0.0
  0
LINE
  5
12284A
  8
0
 62
     0
 10
3946.1184632735858
 20
-138.26073916764861
 30
0.0
 11
3943.953333351933
 21
-136.09560924599609
 31
0.0
  0
LINE
  5
12284B
  8
0
 62
     0
 10
3951.0415852941028
 20
-143.18386118816659
 30
0.0
 11
3950.6085913341199
 21
-142.7508672281831
 31
0.0
  0
LINE
  5
12284C
  8
0
 62
     0
 10
3946.1184632735858
 20
-147.2409952887179
 30
0.0
 11
3941.6283352130508
 21
-142.7508672281833
 31
0.0
  0
LINE
  5
12284D
  8
0
 62
     0
 10
3937.1382071525159
 20
-147.24099528871739
 30
0.0
 11
3935.0571756770728
 21
-145.15996381327381
 31
0.0
  0
LINE
  5
12284E
  8
0
 62
     0
 10
3942.156718127344
 20
-152.25950626354521
 30
0.0
 11
3941.6283352130508
 21
-151.7311233492519
 31
0.0
  0
LINE
  5
12284F
  8
0
 62
     0
 10
4053.8815367264142
 20
-263.9843248626164
 30
0.0
 11
4051.8972118637971
 21
-261.99999999999892
 31
0.0
  0
LINE
  5
122850
  8
0
 62
     0
 10
3937.1382071525159
 20
-156.22125140978679
 30
0.0
 11
3932.6480790919818
 21
-151.73112334925219
 31
0.0
  0
LINE
  5
122851
  8
0
 62
     0
 10
4044.9012806053461
 20
-263.98432486261618
 30
0.0
 11
4042.9169557427281
 21
-261.99999999999881
 31
0.0
  0
LINE
  5
122852
  8
0
 62
     0
 10
4049.800363209366
 20
-268.88340746663852
 30
0.0
 11
4049.3914086658801
 21
-268.47445292315081
 31
0.0
  0
LINE
  5
122853
  8
0
 62
     0
 10
3928.1579510314468
 20
-156.22125140978699
 30
0.0
 11
3927.5251056078532
 21
-155.58840598619329
 31
0.0
  0
LINE
  5
122854
  8
0
 62
     0
 10
3934.825287788999
 20
-162.88858816733961
 30
0.0
 11
3932.6480790919818
 21
-160.71137947032159
 31
0.0
  0
LINE
  5
122855
  8
0
 62
     0
 10
4044.4115940138049
 20
-272.4748943921461
 30
0.0
 11
4040.4111525448111
 21
-268.4744529231512
 31
0.0
  0
LINE
  5
122856
  8
0
 62
     0
 10
3928.1579510314468
 20
-165.20150753085591
 30
0.0
 11
3924.2991719989341
 21
-161.3427284983421
 31
0.0
  0
LINE
  5
122857
  8
0
 62
     0
 10
4035.9210244842761
 20
-272.96458098368601
 30
0.0
 11
4031.4308964237398
 21
-268.47445292315138
 31
0.0
  0
LINE
  5
122858
  8
0
 62
     0
 10
3928.1579510314468
 20
-174.181763651925
 30
0.0
 11
3923.6678229709119
 21
-169.69163559139051
 31
0.0
  0
LINE
  5
122859
  8
0
 62
     0
 10
4026.9407683632062
 20
-272.96458098368612
 30
0.0
 11
4024.768342412101
 21
-270.79215503257979
 31
0.0
  0
LINE
  5
12285A
  8
0
 62
     0
 10
4032.5124322087249
 20
-278.53624482920497
 30
0.0
 11
4031.4308964237398
 21
-277.45470904422058
 31
0.0
  0
LINE
  5
12285B
  8
0
 62
     0
 10
3919.1776949103769
 20
-174.18176365192531
 30
0.0
 11
3919.0551166644791
 21
-174.05918540602639
 31
0.0
  0
LINE
  5
12285C
  8
0
 62
     0
 10
3927.1533065670092
 20
-182.1573753085558
 30
0.0
 11
3923.6678229709119
 21
-178.67189171245991
 31
0.0
  0
LINE
  5
12285D
  8
0
 62
     0
 10
4017.9605122421381
 20
-272.96458098368629
 30
0.0
 11
4017.8426246914419
 21
-272.84669343299117
 31
0.0
  0
LINE
  5
12285E
  8
0
 62
     0
 10
4025.9408145939719
 20
-280.94488333552027
 30
0.0
 11
4022.450640302673
 21
-277.45470904422081
 31
0.0
  0
LINE
  5
12285F
  8
0
 62
     0
 10
3919.1776949103769
 20
-183.1620197729942
 30
0.0
 11
3917.1256054736991
 21
-181.10993033631479
 31
0.0
  0
LINE
  5
122860
  8
0
 62
     0
 10
3925.711247363703
 20
-189.6955722263192
 30
0.0
 11
3923.6678229709119
 21
-187.6521478335288
 31
0.0
  0
LINE
  5
122861
  8
0
 62
     0
 10
4017.9605122421381
 20
-281.94483710475532
 30
0.0
 11
4013.470384181604
 21
-277.45470904422069
 31
0.0
  0
LINE
  5
122862
  8
0
 62
     0
 10
3919.1776949103769
 20
-192.1422758940634
 30
0.0
 11
3915.7522148444491
 21
-188.71679582813411
 31
0.0
  0
LINE
  5
122863
  8
0
 62
     0
 10
3925.0268991702492
 20
-197.99148015393521
 30
0.0
 11
3923.6678229709119
 21
-196.63240395459809
 31
0.0
  0
LINE
  5
122864
  8
0
 62
     0
 10
4008.980256121069
 20
-281.94483710475549
 30
0.0
 11
4004.490128060535
 21
-277.45470904422081
 31
0.0
  0
LINE
  5
122865
  8
0
 62
     0
 10
3919.1776949103769
 20
-201.12253201513241
 30
0.0
 11
3918.0551628952448
 21
-199.99999999999881
 31
0.0
  0
LINE
  5
122866
  8
0
 62
     0
 10
3925.3562150071471
 20
-207.30105211190201
 30
0.0
 11
3923.6678229709119
 21
-205.61266007566701
 31
0.0
  0
LINE
  5
122867
  8
0
 62
     0
 10
4000.0
 20
-281.94483710475492
 30
0.0
 11
3995.5098719394659
 21
-277.45470904422041
 31
0.0
  0
LINE
  5
122868
  8
0
 62
     0
 10
3918.0551628952448
 20
-199.99999999999881
 30
0.0
 11
3915.0530329227231
 21
-196.99787002747709
 31
0.0
  0
LINE
  5
122869
  8
0
 62
     0
 10
3919.1776949103769
 20
-210.1027881362015
 30
0.0
 11
3915.2226107005299
 21
-206.14770392635421
 31
0.0
  0
LINE
  5
12286A
  8
0
 62
     0
 10
3927.230735249077
 20
-218.1558284749012
 30
0.0
 11
3923.6678229709119
 21
-214.5929161967361
 31
0.0
  0
LINE
  5
12286B
  8
0
 62
     0
 10
3982.039487757861
 20
-272.96458098368578
 30
0.0
 11
3981.8441715250988
 21
-272.76926475092228
 31
0.0
  0
LINE
  5
12286C
  8
0
 62
     0
 10
3991.0197438789319
 20
-281.94483710475492
 30
0.0
 11
3986.5296158183978
 21
-277.45470904422041
 31
0.0
  0
LINE
  5
12286D
  8
0
 62
     0
 10
3919.1776949103769
 20
-219.0830442572709
 30
0.0
 11
3916.6223302933631
 21
-216.52767964025639
 31
0.0
  0
LINE
  5
12286E
  8
0
 62
     0
 10
3928.1579510314468
 20
-228.0633003783401
 30
0.0
 11
3923.6678229709119
 21
-223.5731723178055
 31
0.0
  0
LINE
  5
12286F
  8
0
 62
     0
 10
3973.059231636792
 20
-272.96458098368589
 30
0.0
 11
3968.569103576257
 21
-268.47445292315132
 31
0.0
  0
LINE
  5
122870
  8
0
 62
     0
 10
3982.039487757861
 20
-281.94483710475492
 30
0.0
 11
3977.5493596973279
 21
-277.45470904422041
 31
0.0
  0
LINE
  5
122871
  8
0
 62
     0
 10
3928.1579510314468
 20
-237.04355649940939
 30
0.0
 11
3923.6678229709141
 21
-232.55342843887479
 31
0.0
  0
LINE
  5
122872
  8
0
 62
     0
 10
3937.1382071525159
 20
-246.02381262047851
 30
0.0
 11
3932.6480790919818
 21
-241.53368455994391
 31
0.0
  0
LINE
  5
122873
  8
0
 62
     0
 10
3946.1184632735858
 20
-255.00406874154771
 30
0.0
 11
3941.6283352130508
 21
-250.51394068101311
 31
0.0
  0
LINE
  5
122874
  8
0
 62
     0
 10
3955.0987193946548
 20
-263.9843248626168
 30
0.0
 11
3950.6085913341199
 21
-259.49419680208212
 31
0.0
  0
LINE
  5
122875
  8
0
 62
     0
 10
3964.0789755157239
 20
-272.96458098368589
 30
0.0
 11
3959.5888474551889
 21
-268.47445292315138
 31
0.0
  0
LINE
  5
122876
  8
0
 62
     0
 10
3971.0224918935851
 20
-279.90809736154699
 30
0.0
 11
3968.569103576257
 21
-277.45470904422041
 31
0.0
  0
LINE
  5
122877
  8
0
 62
     0
 10
3937.1382071525159
 20
-255.00406874154751
 30
0.0
 11
3932.6480790919818
 21
-250.51394068101291
 31
0.0
  0
LINE
  5
122878
  8
0
 62
     0
 10
3946.1184632735858
 20
-263.98432486261657
 30
0.0
 11
3941.6283352130508
 21
-259.49419680208212
 31
0.0
  0
LINE
  5
122879
  8
0
 62
     0
 10
3952.8742563374281
 20
-270.74011792645962
 30
0.0
 11
3950.6085913341199
 21
-268.4744529231512
 31
0.0
  0
LINE
  5
12287A
  8
0
 62
     0
 10
4043.217482582646
 20
-130.9642810692803
 30
0.0
 11
4038.727354522111
 21
-126.4741530087457
 31
0.0
  0
LINE
  5
12287B
  8
0
 62
     0
 10
4050.2532015133638
 20
-137.99999999999901
 30
0.0
 11
4047.70761064318
 21
-135.45440912981479
 31
0.0
  0
LINE
  5
12287C
  8
0
 62
     0
 10
4025.256970340507
 20
-121.9840249482111
 30
0.0
 11
4020.8765200385119
 21
-117.60357464621541
 31
0.0
  0
LINE
  5
12287D
  8
0
 62
     0
 10
4034.237226461576
 20
-130.9642810692803
 30
0.0
 11
4029.747098401042
 21
-126.4741530087457
 31
0.0
  0
LINE
  5
12287E
  8
0
 62
     0
 10
4039.546200263319
 20
-136.2732548710234
 30
0.0
 11
4038.727354522111
 21
-135.45440912981479
 31
0.0
  0
LINE
  5
12287F
  8
0
 62
     0
 10
4016.276714219438
 20
-121.9840249482111
 30
0.0
 11
4011.7865861589039
 21
-117.4938968876765
 31
0.0
  0
LINE
  5
122880
  8
0
 62
     0
 10
4022.8621483857878
 20
-128.56945911456131
 30
0.0
 11
4020.766842279972
 21
-126.4741530087457
 31
0.0
  0
LINE
  5
122881
  8
0
 62
     0
 10
4007.2964580983689
 20
-121.9840249482111
 30
0.0
 11
4002.806330037834
 21
-117.4938968876766
 31
0.0
  0
LINE
  5
122882
  8
0
 62
     0
 10
3998.3162019772999
 20
-121.9840249482109
 30
0.0
 11
3993.8260739167658
 21
-117.4938968876763
 31
0.0
  0
LINE
  5
122883
  8
0
 62
     0
 10
3989.3359458562309
 20
-121.9840249482111
 30
0.0
 11
3984.8458177956959
 21
-117.4938968876765
 31
0.0
  0
LINE
  5
122884
  8
0
 62
     0
 10
3980.3556897351609
 20
-121.9840249482111
 30
0.0
 11
3976.643590459008
 21
-118.2719256720581
 31
0.0
  0
LINE
  5
122885
  8
0
 62
     0
 10
3984.9061848395481
 20
-126.5345200525973
 30
0.0
 11
3984.8458177956959
 21
-126.4741530087457
 31
0.0
  0
LINE
  5
122886
  8
0
 62
     0
 10
3971.3754336140919
 20
-121.9840249482108
 30
0.0
 11
3969.899516623394
 21
-120.5081079575113
 31
0.0
  0
LINE
  5
122887
  8
0
 62
     0
 10
3977.763602446279
 20
-128.3721937803972
 30
0.0
 11
3975.8655616746269
 21
-126.4741530087454
 31
0.0
  0
LINE
  5
122888
  8
0
 62
     0
 10
3971.1725803665872
 20
-130.76142782177519
 30
0.0
 11
3966.8853055535569
 21
-126.4741530087454
 31
0.0
  0
LINE
  5
122889
  8
0
 62
     0
 10
3962.3951774930229
 20
-130.96428106928039
 30
0.0
 11
3957.9050494324879
 21
-126.4741530087458
 31
0.0
  0
LINE
  5
12288A
  8
0
 62
     0
 10
3953.4149213719538
 20
-130.9642810692801
 30
0.0
 11
3952.1787945338201
 21
-129.72815423114619
 31
0.0
  0
LINE
  5
12288B
  8
0
 62
     0
 10
3959.393937886342
 20
-136.943297583668
 30
0.0
 11
3957.9050494324879
 21
-135.45440912981471
 31
0.0
  0
LINE
  5
12288C
  8
0
 62
     0
 10
3953.4149213719538
 20
-139.94453719034911
 30
0.0
 11
3948.9247933114189
 21
-135.45440912981459
 31
0.0
  0
LINE
  5
12288D
  8
0
 62
     0
 10
3944.4346652508839
 20
-139.94453719034911
 30
0.0
 11
3942.1829321375349
 21
-137.69280407699949
 31
0.0
  0
LINE
  5
12288E
  8
0
 62
     0
 10
3949.2595972728632
 20
-144.76946921232741
 30
0.0
 11
3948.9247933114189
 21
-144.4346652508836
 31
0.0
  0
LINE
  5
12288F
  8
0
 62
     0
 10
3944.4346652508839
 20
-148.92479331141831
 30
0.0
 11
3939.9445371903498
 21
-144.43466525088371
 31
0.0
  0
LINE
  5
122890
  8
0
 62
     0
 10
4057.8170678624638
 20
-262.30719592299897
 30
0.0
 11
4057.509871939465
 21
-261.99999999999909
 31
0.0
  0
LINE
  5
122891
  8
0
 62
     0
 10
3935.4544091298148
 20
-148.9247933114182
 30
0.0
 11
3933.5392925284159
 21
-147.00967671001919
 31
0.0
  0
LINE
  5
122892
  8
0
 62
     0
 10
3940.6612225988802
 20
-154.13160678048209
 30
0.0
 11
3939.9445371903498
 21
-153.4149213719528
 31
0.0
  0
LINE
  5
122893
  8
0
 62
     0
 10
4052.1977387037132
 20
-265.6681228853173
 30
0.0
 11
4048.529615818396
 21
-261.99999999999909
 31
0.0
  0
LINE
  5
122894
  8
0
 62
     0
 10
3935.4544091298171
 20
-157.9050494324874
 30
0.0
 11
3930.9642810692808
 21
-153.414921371953
 31
0.0
  0
LINE
  5
122895
  8
0
 62
     0
 10
4043.217482582646
 20
-265.66812288531719
 30
0.0
 11
4040.606062113658
 21
-263.05670241633021
 31
0.0
  0
LINE
  5
122896
  8
0
 62
     0
 10
4047.8212054661799
 20
-270.27184576885168
 30
0.0
 11
4047.70761064318
 21
-270.15825094585188
 31
0.0
  0
LINE
  5
122897
  8
0
 62
     0
 10
3926.4741530087458
 20
-157.9050494324876
 30
0.0
 11
3926.271409419352
 21
-157.70230584309289
 31
0.0
  0
LINE
  5
122898
  8
0
 62
     0
 10
3933.6335430370682
 20
-165.06443946080969
 30
0.0
 11
3930.9642810692808
 21
-162.3951774930222
 31
0.0
  0
LINE
  5
122899
  8
0
 62
     0
 10
4042.297694156905
 20
-273.72859058064722
 30
0.0
 11
4038.727354522111
 21
-270.15825094585227
 31
0.0
  0
LINE
  5
12289A
  8
0
 62
     0
 10
3926.4741530087458
 20
-166.88530555355689
 30
0.0
 11
3923.1884639044451
 21
-163.59961644925551
 31
0.0
  0
LINE
  5
12289B
  8
0
 62
     0
 10
4034.237226461576
 20
-274.64837900638662
 30
0.0
 11
4029.7470984010411
 21
-270.15825094585199
 31
0.0
  0
LINE
  5
12289C
  8
0
 62
     0
 10
3926.4741530087458
 20
-175.86556167462581
 30
0.0
 11
3921.9840249482122
 21
-171.37543361409129
 31
0.0
  0
LINE
  5
12289D
  8
0
 62
     0
 10
4025.256970340507
 20
-274.64837900638662
 30
0.0
 11
4022.2363975537201
 21
-271.6278062196011
 31
0.0
  0
LINE
  5
12289E
  8
0
 62
     0
 10
4030.1004833766069
 20
-279.49189204248711
 30
0.0
 11
4029.7470984010411
 21
-279.13850706692119
 31
0.0
  0
LINE
  5
12289F
  8
0
 62
     0
 10
3926.4741530087458
 20
-184.84581779569501
 30
0.0
 11
3921.9840249482122
 21
-180.3556897351605
 31
0.0
  0
LINE
  5
1228A0
  8
0
 62
     0
 10
4016.276714219438
 20
-274.64837900638662
 30
0.0
 11
4015.0938151604519
 21
-273.46547994740098
 31
0.0
  0
LINE
  5
1228A1
  8
0
 62
     0
 10
4023.3564095409911
 20
-281.72807432794031
 30
0.0
 11
4020.766842279972
 21
-279.13850706692108
 31
0.0
  0
LINE
  5
1228A2
  8
0
 62
     0
 10
3917.4938968876768
 20
-184.8458177956949
 30
0.0
 11
3916.540209967503
 21
-183.89213087551991
 31
0.0
  0
LINE
  5
1228A3
  8
0
 62
     0
 10
3925.3553968115771
 20
-192.7073177195951
 30
0.0
 11
3921.9840249482122
 21
-189.3359458562295
 31
0.0
  0
LINE
  5
1228A4
  8
0
 62
     0
 10
4007.2964580983689
 20
-274.64837900638651
 30
0.0
 11
4007.2926822804038
 21
-274.6446031884218
 31
0.0
  0
LINE
  5
1228A5
  8
0
 62
     0
 10
4016.1078691244779
 20
-283.45979003249721
 30
0.0
 11
4011.7865861589039
 21
-279.13850706692108
 31
0.0
  0
LINE
  5
1228A6
  8
0
 62
     0
 10
3925.012047226568
 20
-201.34422425565469
 30
0.0
 11
3923.6678229709119
 21
-199.9999999999992
 31
0.0
  0
LINE
  5
1228A7
  8
0
 62
     0
 10
3917.4938968876768
 20
-193.82607391676399
 30
0.0
 11
3915.4027830531209
 21
-191.73496008220761
 31
0.0
  0
LINE
  5
1228A8
  8
0
 62
     0
 10
3923.6678229709119
 20
-199.99999999999901
 30
0.0
 11
3921.9840249482108
 21
-198.3162019772985
 31
0.0
  0
LINE
  5
1228A9
  8
0
 62
     0
 10
4007.2964580983689
 20
-283.6286351274556
 30
0.0
 11
4002.806330037834
 21
-279.13850706692108
 31
0.0
  0
LINE
  5
1228AA
  8
0
 62
     0
 10
3917.4938968876768
 20
-202.80633003783291
 30
0.0
 11
3915.0005763250811
 21
-200.31300947523701
 31
0.0
  0
LINE
  5
1228AB
  8
0
 62
     0
 10
3925.8327188999019
 20
-211.14515205005731
 30
0.0
 11
3921.9840249482122
 21
-207.29645809836751
 31
0.0
  0
LINE
  5
1228AC
  8
0
 62
     0
 10
3989.33594585623
 20
-274.64837900638599
 30
0.0
 11
3988.8548479499409
 21
-274.16728110009763
 31
0.0
  0
LINE
  5
1228AD
  8
0
 62
     0
 10
3998.316201977299
 20
-283.62863512745508
 30
0.0
 11
3993.826073916764
 21
-279.13850706692062
 31
0.0
  0
LINE
  5
1228AE
  8
0
 62
     0
 10
3917.4938968876768
 20
-211.7865861589022
 30
0.0
 11
3915.5746775417588
 21
-209.8673668129841
 31
0.0
  0
LINE
  5
1228AF
  8
0
 62
     0
 10
3926.4741530087458
 20
-220.7668422799714
 30
0.0
 11
3921.9840249482122
 21
-216.2767142194368
 31
0.0
  0
LINE
  5
1228B0
  8
0
 62
     0
 10
3980.3556897351609
 20
-274.64837900638628
 30
0.0
 11
3977.1378516142122
 21
-271.43054088543681
 31
0.0
  0
LINE
  5
1228B1
  8
0
 62
     0
 10
3989.3359458562309
 20
-283.62863512745542
 30
0.0
 11
3984.8458177956959
 21
-279.13850706692091
 31
0.0
  0
LINE
  5
1228B2
  8
0
 62
     0
 10
3926.4741530087458
 20
-229.7470984010408
 30
0.0
 11
3921.9840249482122
 21
-225.2569703405062
 31
0.0
  0
LINE
  5
1228B3
  8
0
 62
     0
 10
3935.4544091298148
 20
-238.72735452210981
 30
0.0
 11
3930.9642810692808
 21
-234.2372264615754
 31
0.0
  0
LINE
  5
1228B4
  8
0
 62
     0
 10
3962.3951774930242
 20
-265.66812288531742
 30
0.0
 11
3960.453799736681
 21
-263.72674512897458
 31
0.0
  0
LINE
  5
1228B5
  8
0
 62
     0
 10
3971.3754336140919
 20
-274.64837900638662
 30
0.0
 11
3966.8853055535578
 21
-270.15825094585199
 31
0.0
  0
LINE
  5
1228B6
  8
0
 62
     0
 10
3979.1234799614899
 20
-282.39642535378249
 30
0.0
 11
3975.8655616746269
 21
-279.13850706692108
 31
0.0
  0
LINE
  5
1228B7
  8
0
 62
     0
 10
3926.4741530087472
 20
-238.72735452211001
 30
0.0
 11
3922.3721274786062
 21
-234.6253289919695
 31
0.0
  0
LINE
  5
1228B8
  8
0
 62
     0
 10
3935.4544091298171
 20
-247.70761064317909
 30
0.0
 11
3930.9642810692808
 21
-243.21748258264461
 31
0.0
  0
LINE
  5
1228B9
  8
0
 62
     0
 10
3944.4346652508848
 20
-256.68786676424838
 30
0.0
 11
3939.9445371903512
 21
-252.1977387037137
 31
0.0
  0
LINE
  5
1228BA
  8
0
 62
     0
 10
3953.4149213719538
 20
-265.66812288531742
 30
0.0
 11
3948.9247933114189
 21
-261.17799482478279
 31
0.0
  0
LINE
  5
1228BB
  8
0
 62
     0
 10
3962.3951774930229
 20
-274.64837900638662
 30
0.0
 11
3957.9050494324879
 21
-270.15825094585199
 31
0.0
  0
LINE
  5
1228BC
  8
0
 62
     0
 10
4050.5139406810131
 20
-132.64807909198001
 30
0.0
 11
4047.1257436625701
 21
-129.25988207353819
 31
0.0
  0
LINE
  5
1228BD
  8
0
 62
     0
 10
4055.8658615890322
 20
-137.9999999999992
 30
0.0
 11
4055.0040687415481
 21
-137.1382071525147
 31
0.0
  0
LINE
  5
1228BE
  8
0
 62
     0
 10
4032.5534284388759
 20
-123.6678229709118
 30
0.0
 11
4028.977508106414
 21
-120.0919026384511
 31
0.0
  0
LINE
  5
1228BF
  8
0
 62
     0
 10
4041.533684559944
 20
-132.64807909198089
 30
0.0
 11
4037.04355649941
 21
-128.1579510314464
 31
0.0
  0
LINE
  5
1228C0
  8
0
 62
     0
 10
4046.8856054679632
 20
-137.99999999999901
 30
0.0
 11
4046.0238126204799
 21
-137.13820715251549
 31
0.0
  0
LINE
  5
1228C1
  8
0
 62
     0
 10
4023.573172317806
 20
-123.6678229709115
 30
0.0
 11
4019.0830442572701
 21
-119.1776949103769
 31
0.0
  0
LINE
  5
1228C2
  8
0
 62
     0
 10
4032.1417147619541
 20
-132.2363654150605
 30
0.0
 11
4028.063300378341
 21
-128.15795103144609
 31
0.0
  0
LINE
  5
1228C3
  8
0
 62
     0
 10
4014.592916196737
 20
-123.6678229709114
 30
0.0
 11
4010.102788136202
 21
-119.1776949103769
 31
0.0
  0
LINE
  5
1228C4
  8
0
 62
     0
 10
4005.6126600756679
 20
-123.6678229709113
 30
0.0
 11
4001.1225320151329
 21
-119.1776949103767
 31
0.0
  0
LINE
  5
1228C5
  8
0
 62
     0
 10
3996.6324039545989
 20
-123.6678229709114
 30
0.0
 11
3992.1422758940639
 21
-119.1776949103769
 31
0.0
  0
LINE
  5
1228C6
  8
0
 62
     0
 10
3987.6521478335299
 20
-123.6678229709111
 30
0.0
 11
3983.1620197729958
 21
-119.1776949103765
 31
0.0
  0
LINE
  5
1228C7
  8
0
 62
     0
 10
3978.6718917124608
 20
-123.6678229709112
 30
0.0
 11
3974.1817636519272
 21
-119.1776949103766
 31
0.0
  0
LINE
  5
1228C8
  8
0
 62
     0
 10
3969.6916355913918
 20
-123.6678229709111
 30
0.0
 11
3967.4875677912742
 21
-121.4637551707935
 31
0.0
  0
LINE
  5
1228C9
  8
0
 62
     0
 10
3975.2316575878999
 20
-129.20784496741859
 30
0.0
 11
3974.1817636519258
 21
-128.15795103144569
 31
0.0
  0
LINE
  5
1228CA
  8
0
 62
     0
 10
3968.8282803805801
 20
-131.78472388116879
 30
0.0
 11
3965.2015075308559
 21
-128.15795103144521
 31
0.0
  0
LINE
  5
1228CB
  8
0
 62
     0
 10
3960.7113794703232
 20
-132.64807909198041
 30
0.0
 11
3956.2212514097891
 21
-128.1579510314458
 31
0.0
  0
LINE
  5
1228CC
  8
0
 62
     0
 10
3951.7311233492551
 20
-132.64807909198069
 30
0.0
 11
3950.1996367906331
 21
-131.11659253336001
 31
0.0
  0
LINE
  5
1228CD
  8
0
 62
     0
 10
3957.3739138312571
 20
-138.29086957398431
 30
0.0
 11
3956.2212514097891
 21
-137.13820715251521
 31
0.0
  0
LINE
  5
1228CE
  8
0
 62
     0
 10
3951.7311233492551
 20
-141.62833521305001
 30
0.0
 11
3947.2409952887192
 21
-137.13820715251541
 31
0.0
  0
LINE
  5
1228CF
  8
0
 62
     0
 10
3942.7508672281838
 20
-141.62833521304941
 30
0.0
 11
3940.4598102808641
 21
-139.33727826572991
 31
0.0
  0
LINE
  5
1228D0
  8
0
 62
     0
 10
3947.5312275343699
 20
-146.40869551923541
 30
0.0
 11
3947.2409952887178
 21
-146.1184632735839
 31
0.0
  0
LINE
  5
1228D1
  8
0
 62
     0
 10
3942.7508672281838
 20
-150.6085913341189
 30
0.0
 11
3938.2607391676502
 21
-146.1184632735843
 31
0.0
  0
LINE
  5
1228D2
  8
0
 62
     0
 10
4056.046666648067
 20
-263.90439075400258
 30
0.0
 11
4055.0040687415481
 21
-262.86179284748329
 31
0.0
  0
LINE
  5
1228D3
  8
0
 62
     0
 10
3933.7706111071152
 20
-150.6085913341187
 30
0.0
 11
3932.069493308034
 21
-148.9074735350377
 31
0.0
  0
LINE
  5
1228D4
  8
0
 62
     0
 10
3939.220522823553
 20
-156.05850305055731
 30
0.0
 11
3938.2607391676488
 21
-155.09871939465319
 31
0.0
  0
LINE
  5
1228D5
  8
0
 62
     0
 10
4050.5139406810131
 20
-267.35192090801792
 30
0.0
 11
4046.023812620479
 21
-262.86179284748329
 31
0.0
  0
LINE
  5
1228D6
  8
0
 62
     0
 10
3933.7706111071138
 20
-159.5888474551875
 30
0.0
 11
3929.2804830465811
 21
-155.0987193946529
 31
0.0
  0
LINE
  5
1228D7
  8
0
 62
     0
 10
4041.533684559944
 20
-267.35192090801752
 30
0.0
 11
4038.5287537489799
 21
-264.34699009705378
 31
0.0
  0
LINE
  5
1228D8
  8
0
 62
     0
 10
3932.5031866541531
 20
-167.3016791232952
 30
0.0
 11
3929.2804830465811
 21
-164.0789755157231
 31
0.0
  0
LINE
  5
1228D9
  8
0
 62
     0
 10
4040.1313215574169
 20
-274.92981402656062
 30
0.0
 11
4037.04355649941
 21
-271.84204896855249
 31
0.0
  0
LINE
  5
1228DA
  8
0
 62
     0
 10
3924.7903549860471
 20
-168.56910357625699
 30
0.0
 11
3922.1342441411598
 21
-165.9129927313713
 31
0.0
  0
LINE
  5
1228DB
  8
0
 62
     0
 10
3929.8058092476431
 20
-173.58455783785379
 30
0.0
 11
3929.2804830465811
 21
-173.05923163679159
 31
0.0
  0
LINE
  5
1228DC
  8
0
 62
     0
 10
4032.5534284388759
 20
-276.33217702908701
 30
0.0
 11
4028.063300378341
 21
-271.84204896855238
 31
0.0
  0
LINE
  5
1228DD
  8
0
 62
     0
 10
3924.7903549860471
 20
-177.54935969732591
 30
0.0
 11
3920.3002269255112
 21
-173.05923163679131
 31
0.0
  0
LINE
  5
1228DE
  8
0
 62
     0
 10
4023.573172317806
 20
-276.33217702908678
 30
0.0
 11
4019.6272564463952
 21
-272.38626115767607
 31
0.0
  0
LINE
  5
1228DF
  8
0
 62
     0
 10
3924.7903549860471
 20
-186.52961581839551
 30
0.0
 11
3920.3002269255121
 21
-182.039487757861
 31
0.0
  0
LINE
  5
1228E0
  8
0
 62
     0
 10
4014.592916196737
 20
-276.33217702908712
 30
0.0
 11
4012.2530540778212
 21
-273.99231491017071
 31
0.0
  0
LINE
  5
1228E1
  8
0
 62
     0
 10
4020.7013490002441
 20
-282.44060983259368
 30
0.0
 11
4019.0830442572701
 21
-280.82230508962169
 31
0.0
  0
LINE
  5
1228E2
  8
0
 62
     0
 10
3924.7903549860471
 20
-195.5098719394644
 30
0.0
 11
3920.3002269255121
 21
-191.0197438789298
 31
0.0
  0
LINE
  5
1228E3
  8
0
 62
     0
 10
4005.6126600756679
 20
-276.33217702908678
 30
0.0
 11
4004.1647589835802
 21
-274.88427593699879
 31
0.0
  0
LINE
  5
1228E4
  8
0
 62
     0
 10
4013.2425818009829
 20
-283.96209875440292
 30
0.0
 11
4010.102788136202
 21
-280.82230508962141
 31
0.0
  0
LINE
  5
1228E5
  8
0
 62
     0
 10
3924.7903549860471
 20
-204.49012806053369
 30
0.0
 11
3920.3002269255121
 21
-199.99999999999909
 31
0.0
  0
LINE
  5
1228E6
  8
0
 62
     0
 10
3996.6324039545989
 20
-276.33217702908689
 30
0.0
 11
3995.1427775935249
 21
-274.84255066801131
 31
0.0
  0
LINE
  5
1228E7
  8
0
 62
     0
 10
3915.8100988649771
 20
-195.5098719394644
 30
0.0
 11
3915.15581890257
 21
-194.8555919770578
 31
0.0
  0
LINE
  5
1228E8
  8
0
 62
     0
 10
4005.1444080229421
 20
-284.8441810974291
 30
0.0
 11
4001.1225320151329
 21
-280.82230508962158
 31
0.0
  0
LINE
  5
1228E9
  8
0
 62
     0
 10
3915.8100988649771
 20
-204.49012806053361
 30
0.0
 11
3915.0833528969388
 21
-203.7633820924957
 31
0.0
  0
LINE
  5
1228EA
  8
0
 62
     0
 10
3924.7903549860471
 20
-213.4703841816027
 30
0.0
 11
3920.3002269255121
 21
-208.98025612106821
 31
0.0
  0
LINE
  5
1228EB
  8
0
 62
     0
 10
3987.6521478335299
 20
-276.33217702908712
 30
0.0
 11
3984.7540244045458
 21
-273.4340536001024
 31
0.0
  0
LINE
  5
1228EC
  8
0
 62
     0
 10
3996.2366179075038
 20
-284.91664710306048
 30
0.0
 11
3992.1422758940639
 21
-280.82230508962158
 31
0.0
  0
LINE
  5
1228ED
  8
0
 62
     0
 10
3924.7903549860471
 20
-222.4506403026717
 30
0.0
 11
3920.3002269255121
 21
-217.96051224213721
 31
0.0
  0
LINE
  5
1228EE
  8
0
 62
     0
 10
3930.4788649061188
 20
-228.13915022274449
 30
0.0
 11
3929.2804830465811
 21
-226.94076836320639
 31
0.0
  0
LINE
  5
1228EF
  8
0
 62
     0
 10
3978.6718917124599
 20
-276.33217702908661
 30
0.0
 11
3974.1817636519258
 21
-271.84204896855198
 31
0.0
  0
LINE
  5
1228F0
  8
0
 62
     0
 10
3986.214360019977
 20
-283.87464533660358
 30
0.0
 11
3983.1620197729949
 21
-280.82230508962118
 31
0.0
  0
LINE
  5
1228F1
  8
0
 62
     0
 10
3924.7903549860471
 20
-231.4308964237413
 30
0.0
 11
3920.3002269255121
 21
-226.9407683632067
 31
0.0
  0
LINE
  5
1228F2
  8
0
 62
     0
 10
3933.7706111071161
 20
-240.41115254481039
 30
0.0
 11
3929.2804830465811
 21
-235.9210244842757
 31
0.0
  0
LINE
  5
1228F3
  8
0
 62
     0
 10
3942.7508672281838
 20
-249.3914086658796
 30
0.0
 11
3938.2607391676502
 21
-244.90128060534491
 31
0.0
  0
LINE
  5
1228F4
  8
0
 62
     0
 10
3951.7311233492551
 20
-258.37166478694871
 30
0.0
 11
3947.2409952887192
 21
-253.88153672641411
 31
0.0
  0
LINE
  5
1228F5
  8
0
 62
     0
 10
3960.7113794703232
 20
-267.35192090801792
 30
0.0
 11
3956.2212514097891
 21
-262.86179284748329
 31
0.0
  0
LINE
  5
1228F6
  8
0
 62
     0
 10
3969.6916355913918
 20
-276.33217702908701
 30
0.0
 11
3965.2015075308582
 21
-271.84204896855238
 31
0.0
  0
LINE
  5
1228F7
  8
0
 62
     0
 10
3974.4186681662059
 20
-281.05920960390091
 30
0.0
 11
3974.1817636519272
 21
-280.82230508962158
 31
0.0
  0
LINE
  5
1228F8
  8
0
 62
     0
 10
3933.7706111071152
 20
-249.3914086658794
 30
0.0
 11
3929.2804830465811
 21
-244.90128060534479
 31
0.0
  0
LINE
  5
1228F9
  8
0
 62
     0
 10
3942.7508672281838
 20
-258.37166478694849
 30
0.0
 11
3938.2607391676488
 21
-253.88153672641391
 31
0.0
  0
LINE
  5
1228FA
  8
0
 62
     0
 10
3951.7311233492528
 20
-267.35192090801758
 30
0.0
 11
3947.2409952887178
 21
-262.86179284748312
 31
0.0
  0
LINE
  5
1228FB
  8
0
 62
     0
 10
3958.635202242433
 20
-274.25599980119728
 30
0.0
 11
3956.221251409786
 21
-271.84204896855209
 31
0.0
  0
LINE
  5
1228FC
  8
0
 62
     0
 10
4050.9536729964252
 20
-268.03472060773998
 30
0.0
 11
4055.0040687415481
 21
-263.98432486261697
 31
0.0
  0
LINE
  5
1228FD
  8
0
 62
     0
 10
4041.533684559944
 20
-268.4744529231512
 30
0.0
 11
4046.023812620479
 21
-263.98432486261657
 31
0.0
  0
LINE
  5
1228FE
  8
0
 62
     0
 10
4032.5534284388759
 20
-277.45470904422041
 30
0.0
 11
4037.04355649941
 21
-272.96458098368578
 31
0.0
  0
LINE
  5
1228FF
  8
0
 62
     0
 10
4032.5534284388759
 20
-268.4744529231512
 30
0.0
 11
4034.3633432655911
 21
-266.66453809643377
 31
0.0
  0
LINE
  5
122900
  8
0
 62
     0
 10
4023.573172317806
 20
-277.45470904422029
 30
0.0
 11
4028.063300378341
 21
-272.96458098368572
 31
0.0
  0
LINE
  5
122901
  8
0
 62
     0
 10
4017.943374261697
 20
-283.08450710032798
 30
0.0
 11
4019.0830442572701
 21
-281.94483710475492
 31
0.0
  0
LINE
  5
122902
  8
0
 62
     0
 10
4014.592916196737
 20
-277.45470904422001
 30
0.0
 11
4019.0830442572701
 21
-272.96458098368549
 31
0.0
  0
LINE
  5
122903
  8
0
 62
     0
 10
4007.36752371589
 20
-284.68010152506679
 30
0.0
 11
4010.102788136202
 21
-281.94483710475458
 31
0.0
  0
LINE
  5
122904
  8
0
 62
     0
 10
4005.6126600756679
 20
-277.45470904422041
 30
0.0
 11
4008.5571315733901
 21
-274.51023754649788
 31
0.0
  0
LINE
  5
122905
  8
0
 62
     0
 10
4000.0
 20
-283.0673691198885
 30
0.0
 11
4001.1225320151329
 21
-281.94483710475492
 31
0.0
  0
LINE
  5
122906
  8
0
 62
     0
 10
3998.0888569405961
 20
-284.97851217929349
 30
0.0
 11
4000.0
 21
-283.06736911988838
 31
0.0
  0
LINE
  5
122907
  8
0
 62
     0
 10
3996.6324039545989
 20
-277.45470904422058
 30
0.0
 11
3999.0926023365032
 21
-274.99451066231558
 31
0.0
  0
LINE
  5
122908
  8
0
 62
     0
 10
3989.7120139313201
 20
-284.37509906750012
 30
0.0
 11
3992.1422758940639
 21
-281.94483710475521
 31
0.0
  0
LINE
  5
122909
  8
0
 62
     0
 10
3987.6521478335299
 20
-277.45470904422001
 30
0.0
 11
3990.687281053727
 21
-274.41957582402341
 31
0.0
  0
LINE
  5
12290A
  8
0
 62
     0
 10
3982.0284415821229
 20
-283.07841529562711
 30
0.0
 11
3983.1620197729958
 21
-281.94483710475458
 31
0.0
  0
LINE
  5
12290B
  8
0
 62
     0
 10
3978.6718917124608
 20
-277.45470904422029
 30
0.0
 11
3983.0638429163332
 21
-273.0627578403475
 31
0.0
  0
LINE
  5
12290C
  8
0
 62
     0
 10
3969.6916355913918
 20
-277.45470904422041
 30
0.0
 11
3974.1817636519258
 21
-272.96458098368589
 31
0.0
  0
LINE
  5
12290D
  8
0
 62
     0
 10
3962.0888566424378
 20
-276.07723187210598
 30
0.0
 11
3965.2015075308568
 21
-272.96458098368589
 31
0.0
  0
LINE
  5
12290E
  8
0
 62
     0
 10
3960.7113794703232
 20
-268.47445292315132
 30
0.0
 11
3963.60716527675
 21
-265.57866711672352
 31
0.0
  0
LINE
  5
12290F
  8
0
 62
     0
 10
3951.7311233492551
 20
-268.47445292315092
 30
0.0
 11
3956.2212514097891
 21
-263.9843248626164
 31
0.0
  0
LINE
  5
122910
  8
0
 62
     0
 10
3951.7311233492551
 20
-259.49419680208177
 30
0.0
 11
3952.8774911001642
 21
-258.34782905117117
 31
0.0
  0
LINE
  5
122911
  8
0
 62
     0
 10
3945.7712191933251
 20
-265.4541009580106
 30
0.0
 11
3947.2409952887192
 21
-263.9843248626164
 31
0.0
  0
LINE
  5
122912
  8
0
 62
     0
 10
3942.7508672281838
 20
-259.49419680208212
 30
0.0
 11
3947.2409952887178
 21
-255.00406874154771
 31
0.0
  0
LINE
  5
122913
  8
0
 62
     0
 10
3942.7508672281838
 20
-250.51394068101291
 30
0.0
 11
3943.7064245411289
 21
-249.55838336806741
 31
0.0
  0
LINE
  5
122914
  8
0
 62
     0
 10
3936.622743924941
 20
-256.64206398425489
 30
0.0
 11
3938.2607391676488
 21
-255.00406874154751
 31
0.0
  0
LINE
  5
122915
  8
0
 62
     0
 10
4050.5139406810131
 20
-133.77061110711421
 30
0.0
 11
4051.7304976486612
 21
-132.5540541394667
 31
0.0
  0
LINE
  5
122916
  8
0
 62
     0
 10
3933.7706111071152
 20
-250.51394068101291
 30
0.0
 11
3938.2607391676488
 21
-246.02381262047831
 31
0.0
  0
LINE
  5
122917
  8
0
 62
     0
 10
4041.533684559944
 20
-133.77061110711401
 30
0.0
 11
4046.023812620479
 21
-129.28048304657941
 31
0.0
  0
LINE
  5
122918
  8
0
 62
     0
 10
3933.7706111071152
 20
-241.53368455994359
 30
0.0
 11
3936.0766638622199
 21
-239.22763180484009
 31
0.0
  0
LINE
  5
122919
  8
0
 62
     0
 10
3928.8301234984651
 20
-246.47417216859409
 30
0.0
 11
3929.2804830465811
 21
-246.0238126204782
 31
0.0
  0
LINE
  5
12291A
  8
0
 62
     0
 10
4033.4510088449092
 20
-132.87303070108121
 30
0.0
 11
4037.04355649941
 21
-129.28048304657929
 31
0.0
  0
LINE
  5
12291B
  8
0
 62
     0
 10
3925.4646851562661
 20
-240.85935438972501
 30
0.0
 11
3929.2804830465811
 21
-237.04355649940939
 31
0.0
  0
LINE
  5
12291C
  8
0
 62
     0
 10
4032.5534284388759
 20
-124.7903549860448
 30
0.0
 11
4034.8645228741611
 21
-122.4792605507588
 31
0.0
  0
LINE
  5
12291D
  8
0
 62
     0
 10
4027.2271365051188
 20
-130.11664691980121
 30
0.0
 11
4028.063300378341
 21
-129.28048304657941
 31
0.0
  0
LINE
  5
12291E
  8
0
 62
     0
 10
3924.7903549860471
 20
-232.5534284388745
 30
0.0
 11
3929.2804830465811
 21
-228.0633003783399
 31
0.0
  0
LINE
  5
12291F
  8
0
 62
     0
 10
4023.573172317806
 20
-124.7903549860448
 30
0.0
 11
4028.063300378341
 21
-120.3002269255102
 31
0.0
  0
LINE
  5
122920
  8
0
 62
     0
 10
3924.7903549860471
 20
-223.57317231780559
 30
0.0
 11
3927.8577021733058
 21
-220.50582513054559
 31
0.0
  0
LINE
  5
122921
  8
0
 62
     0
 10
3919.905445870826
 20
-228.45808143302551
 30
0.0
 11
3920.3002269255112
 21
-228.0633003783401
 31
0.0
  0
LINE
  5
122922
  8
0
 62
     0
 10
4014.592916196737
 20
-124.7903549860449
 30
0.0
 11
4019.0830442572701
 21
-120.3002269255104
 31
0.0
  0
LINE
  5
122923
  8
0
 62
     0
 10
3924.7903549860471
 20
-214.59291619673641
 30
0.0
 11
3926.172639200448
 21
-213.21063198233429
 31
0.0
  0
LINE
  5
122924
  8
0
 62
     0
 10
3917.788812480554
 20
-221.59445870222919
 30
0.0
 11
3920.3002269255112
 21
-219.08304425727101
 31
0.0
  0
LINE
  5
122925
  8
0
 62
     0
 10
4005.6126600756679
 20
-124.7903549860446
 30
0.0
 11
4010.102788136202
 21
-120.3002269255101
 31
0.0
  0
LINE
  5
122926
  8
0
 62
     0
 10
3924.7903549860471
 20
-205.61266007566701
 30
0.0
 11
3925.181950788246
 21
-205.2210642734662
 31
0.0
  0
LINE
  5
122927
  8
0
 62
     0
 10
3916.1957433609659
 20
-214.20727170074721
 30
0.0
 11
3920.3002269255121
 21
-210.10278813620161
 31
0.0
  0
LINE
  5
122928
  8
0
 62
     0
 10
3996.6324039545989
 20
-124.7903549860448
 30
0.0
 11
4000.0
 21
-121.422758940644
 31
0.0
  0
LINE
  5
122929
  8
0
 62
     0
 10
3924.7903549860471
 20
-196.63240395459809
 30
0.0
 11
3925.0896965107122
 21
-196.33306242993169
 31
0.0
  0
LINE
  5
12292A
  8
0
 62
     0
 10
4005.6126600756679
 20
-115.8100988649755
 30
0.0
 11
4006.1965891199989
 21
-115.2261698206452
 31
0.0
  0
LINE
  5
12292B
  8
0
 62
     0
 10
4000.0
 20
-121.4227589406439
 30
0.0
 11
4001.1225320151329
 21
-120.3002269255101
 31
0.0
  0
LINE
  5
12292C
  8
0
 62
     0
 10
3915.8100988649771
 20
-205.61266007566701
 30
0.0
 11
3920.3002269255121
 21
-201.12253201513249
 31
0.0
  0
LINE
  5
12292D
  8
0
 62
     0
 10
3996.6324039545989
 20
-115.8100988649758
 30
0.0
 11
3997.402814904573
 21
-115.0396879150022
 31
0.0
  0
LINE
  5
12292E
  8
0
 62
     0
 10
3987.6521478335299
 20
-124.790354986045
 30
0.0
 11
3992.1422758940639
 21
-120.3002269255104
 31
0.0
  0
LINE
  5
12292F
  8
0
 62
     0
 10
3924.7903549860471
 20
-187.65214783352911
 30
0.0
 11
3926.2893090759699
 21
-186.1531937436045
 31
0.0
  0
LINE
  5
122930
  8
0
 62
     0
 10
3915.8100988649771
 20
-196.6324039545982
 30
0.0
 11
3920.3002269255112
 21
-192.14227589406369
 31
0.0
  0
LINE
  5
122931
  8
0
 62
     0
 10
3978.6718917124599
 20
-124.7903549860448
 30
0.0
 11
3983.1620197729949
 21
-120.3002269255103
 31
0.0
  0
LINE
  5
122932
  8
0
 62
     0
 10
3973.6996359724371
 20
-129.7626107260684
 30
0.0
 11
3974.1817636519258
 21
-129.28048304657941
 31
0.0
  0
LINE
  5
122933
  8
0
 62
     0
 10
3924.7903549860471
 20
-178.67189171246
 30
0.0
 11
3929.2804830465811
 21
-174.18176365192551
 31
0.0
  0
LINE
  5
122934
  8
0
 62
     0
 10
3915.9175009846422
 20
-187.5447457138637
 30
0.0
 11
3920.3002269255121
 21
-183.1620197729946
 31
0.0
  0
LINE
  5
122935
  8
0
 62
     0
 10
3969.6916355913918
 20
-124.790354986045
 30
0.0
 11
3974.1817636519258
 21
-120.3002269255104
 31
0.0
  0
LINE
  5
122936
  8
0
 62
     0
 10
3960.7113794703232
 20
-133.77061110711409
 30
0.0
 11
3965.2015075308568
 21
-129.28048304657941
 31
0.0
  0
LINE
  5
122937
  8
0
 62
     0
 10
3952.6249921196049
 20
-141.85699845783171
 30
0.0
 11
3956.2212514097891
 21
-138.26073916764869
 31
0.0
  0
LINE
  5
122938
  8
0
 62
     0
 10
3933.7706111071152
 20
-160.7113794703217
 30
0.0
 11
3938.2607391676488
 21
-156.2212514097871
 31
0.0
  0
LINE
  5
122939
  8
0
 62
     0
 10
3924.7903549860471
 20
-169.69163559139079
 30
0.0
 11
3929.2804830465811
 21
-165.20150753085619
 31
0.0
  0
LINE
  5
12293A
  8
0
 62
     0
 10
3918.448853619941
 20
-176.0331369574958
 30
0.0
 11
3920.3002269255121
 21
-174.18176365192539
 31
0.0
  0
LINE
  5
12293B
  8
0
 62
     0
 10
3960.7113794703218
 20
-124.7903549860447
 30
0.0
 11
3961.0548776323271
 21
-124.4468568240398
 31
0.0
  0
LINE
  5
12293C
  8
0
 62
     0
 10
3951.7311233492528
 20
-133.77061110711381
 30
0.0
 11
3956.221251409786
 21
-129.28048304657929
 31
0.0
  0
LINE
  5
12293D
  8
0
 62
     0
 10
3942.7508672281838
 20
-142.75086722818301
 30
0.0
 11
3947.2409952887178
 21
-138.26073916764841
 31
0.0
  0
LINE
  5
12293E
  8
0
 62
     0
 10
3933.7706111071152
 20
-151.7311233492521
 30
0.0
 11
3938.2607391676488
 21
-147.24099528871761
 31
0.0
  0
LINE
  5
12293F
  8
0
 62
     0
 10
3924.7903549860471
 20
-160.7113794703213
 30
0.0
 11
3929.2804830465811
 21
-156.2212514097867
 31
0.0
  0
LINE
  5
122940
  8
0
 62
     0
 10
4043.2174825826451
 20
-270.15825094585188
 30
0.0
 11
4047.7076106431782
 21
-265.6681228853173
 31
0.0
  0
LINE
  5
122941
  8
0
 62
     0
 10
4036.7132388148038
 20
-276.66249471369321
 30
0.0
 11
4038.7273545221101
 21
-274.64837900638639
 31
0.0
  0
LINE
  5
122942
  8
0
 62
     0
 10
4034.2372264615742
 20
-270.1582509458521
 30
0.0
 11
4038.7273545221101
 21
-265.66812288531747
 31
0.0
  0
LINE
  5
122943
  8
0
 62
     0
 10
4025.2569703405052
 20
-279.13850706692131
 30
0.0
 11
4029.7470984010411
 21
-274.64837900638668
 31
0.0
  0
LINE
  5
122944
  8
0
 62
     0
 10
4016.2767142194361
 20
-279.13850706692102
 30
0.0
 11
4020.766842279972
 21
-274.64837900638651
 31
0.0
  0
LINE
  5
122945
  8
0
 62
     0
 10
4011.1496582016271
 20
-284.26556308473062
 30
0.0
 11
4011.786586158903
 21
-283.6286351274556
 31
0.0
  0
LINE
  5
122946
  8
0
 62
     0
 10
4007.2964580983689
 20
-279.13850706692102
 30
0.0
 11
4011.786586158903
 21
-274.64837900638639
 31
0.0
  0
LINE
  5
122947
  8
0
 62
     0
 10
4001.447287476341
 20
-284.98767768894908
 30
0.0
 11
4002.806330037834
 21
-283.62863512745548
 31
0.0
  0
LINE
  5
122948
  8
0
 62
     0
 10
4000.0
 20
-277.45470904422041
 30
0.0
 11
4002.4962627400669
 21
-274.95844630415212
 31
0.0
  0
LINE
  5
122949
  8
0
 62
     0
 10
3998.3162019772999
 20
-279.13850706692102
 30
0.0
 11
4000.0
 21
-277.45470904422029
 31
0.0
  0
LINE
  5
12294A
  8
0
 62
     0
 10
3992.7633249803198
 20
-284.69138406390198
 30
0.0
 11
3993.8260739167658
 21
-283.6286351274556
 31
0.0
  0
LINE
  5
12294B
  8
0
 62
     0
 10
3989.33594585623
 20
-279.13850706692131
 30
0.0
 11
3993.7364570340851
 21
-274.73799588906581
 31
0.0
  0
LINE
  5
12294C
  8
0
 62
     0
 10
3984.8377090123272
 20
-283.6367439108252
 30
0.0
 11
3984.8458177956959
 21
-283.62863512745582
 31
0.0
  0
LINE
  5
12294D
  8
0
 62
     0
 10
3980.3556897351609
 20
-279.13850706692108
 30
0.0
 11
3984.8458177956959
 21
-274.64837900638651
 31
0.0
  0
LINE
  5
12294E
  8
0
 62
     0
 10
3971.3754336140919
 20
-279.13850706692131
 30
0.0
 11
3975.8655616746269
 21
-274.64837900638668
 31
0.0
  0
LINE
  5
12294F
  8
0
 62
     0
 10
3971.3754336140919
 20
-270.15825094585222
 30
0.0
 11
3971.9689093143361
 21
-269.56477524560819
 31
0.0
  0
LINE
  5
122950
  8
0
 62
     0
 10
3964.3643754747118
 20
-277.16930908523398
 30
0.0
 11
3966.8853055535569
 21
-274.64837900638668
 31
0.0
  0
LINE
  5
122951
  8
0
 62
     0
 10
3962.3951774930229
 20
-270.15825094585188
 30
0.0
 11
3965.803269971806
 21
-266.75015846706839
 31
0.0
  0
LINE
  5
122952
  8
0
 62
     0
 10
3953.4149213719538
 20
-270.15825094585188
 30
0.0
 11
3957.9050494324879
 21
-265.66812288531742
 31
0.0
  0
LINE
  5
122953
  8
0
 62
     0
 10
3953.4149213719538
 20
-261.17799482478279
 30
0.0
 11
3954.767783079682
 21
-259.82513311705378
 31
0.0
  0
LINE
  5
122954
  8
0
 62
     0
 10
3947.636909833077
 20
-266.95600636366009
 30
0.0
 11
3948.9247933114189
 21
-265.66812288531742
 31
0.0
  0
LINE
  5
122955
  8
0
 62
     0
 10
3944.4346652508839
 20
-261.17799482478318
 30
0.0
 11
3948.9247933114189
 21
-256.6878667642485
 31
0.0
  0
LINE
  5
122956
  8
0
 62
     0
 10
3944.4346652508839
 20
-252.1977387037137
 30
0.0
 11
3945.3099304217681
 21
-251.32247353283
 31
0.0
  0
LINE
  5
122957
  8
0
 62
     0
 10
3938.2357157590709
 20
-258.39668819552708
 30
0.0
 11
3939.9445371903498
 21
-256.68786676424838
 31
0.0
  0
LINE
  5
122958
  8
0
 62
     0
 10
4052.1977387037132
 20
-135.45440912981459
 30
0.0
 11
4053.612214758256
 21
-134.0399330752719
 31
0.0
  0
LINE
  5
122959
  8
0
 62
     0
 10
3935.4544091298148
 20
-252.19773870371341
 30
0.0
 11
3939.9445371903498
 21
-247.70761064317881
 31
0.0
  0
LINE
  5
12295A
  8
0
 62
     0
 10
4043.2174825826451
 20
-135.45440912981471
 30
0.0
 11
4047.7076106431782
 21
-130.9642810692801
 31
0.0
  0
LINE
  5
12295B
  8
0
 62
     0
 10
3935.4544091298148
 20
-243.21748258264469
 30
0.0
 11
3937.3861821491769
 21
-241.28570956328349
 31
0.0
  0
LINE
  5
12295C
  8
0
 62
     0
 10
3930.1854771411081
 20
-248.48641457135241
 30
0.0
 11
3930.9642810692808
 21
-247.70761064317929
 31
0.0
  0
LINE
  5
12295D
  8
0
 62
     0
 10
4035.6675726032449
 20
-134.02406298814469
 30
0.0
 11
4038.7273545221101
 21
-130.96428106928059
 31
0.0
  0
LINE
  5
12295E
  8
0
 62
     0
 10
3926.683538252003
 20
-243.00809733938831
 30
0.0
 11
3930.9642810692808
 21
-238.7273545221102
 31
0.0
  0
LINE
  5
12295F
  8
0
 62
     0
 10
4034.2372264615742
 20
-126.4741530087455
 30
0.0
 11
4037.158868116469
 21
-123.5525113538519
 31
0.0
  0
LINE
  5
122960
  8
0
 62
     0
 10
4029.6162325074311
 20
-131.0951469628892
 30
0.0
 11
4029.7470984010411
 21
-130.9642810692801
 31
0.0
  0
LINE
  5
122961
  8
0
 62
     0
 10
3926.4741530087458
 20
-234.23722646157529
 30
0.0
 11
3930.9642810692808
 21
-229.7470984010408
 31
0.0
  0
LINE
  5
122962
  8
0
 62
     0
 10
4025.256970340507
 20
-126.4741530087452
 30
0.0
 11
4029.7470984010411
 21
-121.9840249482106
 31
0.0
  0
LINE
  5
122963
  8
0
 62
     0
 10
3926.4741530087458
 20
-225.256970340506
 30
0.0
 11
3928.6423800080051
 21
-223.08874334124749
 31
0.0
  0
LINE
  5
122964
  8
0
 62
     0
 10
3920.8198635073882
 20
-230.91125984186439
 30
0.0
 11
3921.9840249482108
 21
-229.7470984010406
 31
0.0
  0
LINE
  5
122965
  8
0
 62
     0
 10
4016.2767142194361
 20
-126.4741530087455
 30
0.0
 11
4020.766842279972
 21
-121.9840249482109
 31
0.0
  0
LINE
  5
122966
  8
0
 62
     0
 10
3926.4741530087458
 20
-216.276714219437
 30
0.0
 11
3926.7309020428152
 21
-216.01996518536791
 31
0.0
  0
LINE
  5
122967
  8
0
 62
     0
 10
3918.5253229309651
 20
-224.22554429721771
 30
0.0
 11
3921.9840249482108
 21
-220.7668422799716
 31
0.0
  0
LINE
  5
122968
  8
0
 62
     0
 10
4016.2767142194361
 20
-117.4938968876765
 30
0.0
 11
4017.0442231228062
 21
-116.72638798430749
 31
0.0
  0
LINE
  5
122969
  8
0
 62
     0
 10
4008.3089342178669
 20
-125.4616768892453
 30
0.0
 11
4011.786586158903
 21
-121.984024948211
 31
0.0
  0
LINE
  5
12296A
  8
0
 62
     0
 10
3917.4938968876768
 20
-216.27671421943711
 30
0.0
 11
3921.9840249482108
 21
-211.78658615890251
 31
0.0
  0
LINE
  5
12296B
  8
0
 62
     0
 10
3999.7900611566838
 20
-125.0002938293609
 30
0.0
 11
4000.0
 21
-124.7903549860448
 31
0.0
  0
LINE
  5
12296C
  8
0
 62
     0
 10
4007.2964580983689
 20
-117.4938968876765
 30
0.0
 11
4009.2820341185061
 21
-115.50832086753741
 31
0.0
  0
LINE
  5
12296D
  8
0
 62
     0
 10
4000.0
 20
-124.7903549860449
 30
0.0
 11
4002.806330037834
 21
-121.9840249482111
 31
0.0
  0
LINE
  5
12296E
  8
0
 62
     0
 10
3917.4938968876768
 20
-207.29645809836811
 30
0.0
 11
3921.9840249482108
 21
-202.8063300378335
 31
0.0
  0
LINE
  5
12296F
  8
0
 62
     0
 10
3998.316201977299
 20
-117.4938968876764
 30
0.0
 11
4000.0
 21
-115.8100988649757
 31
0.0
  0
LINE
  5
122970
  8
0
 62
     0
 10
3990.1620662926812
 20
-125.6480325722948
 30
0.0
 11
3993.826073916764
 21
-121.984024948211
 31
0.0
  0
LINE
  5
122971
  8
0
 62
     0
 10
3917.4938968876768
 20
-198.3162019772989
 30
0.0
 11
3921.9840249482108
 21
-193.82607391676439
 31
0.0
  0
LINE
  5
122972
  8
0
 62
     0
 10
4000.0
 20
-115.8100988649756
 30
0.0
 11
4000.8062747846711
 21
-115.0038240803046
 31
0.0
  0
LINE
  5
122973
  8
0
 62
     0
 10
3989.3359458562309
 20
-117.493896887676
 30
0.0
 11
3991.3929472450659
 21
-115.4368954988411
 31
0.0
  0
LINE
  5
122974
  8
0
 62
     0
 10
3980.3556897351609
 20
-126.4741530087452
 30
0.0
 11
3984.8458177956959
 21
-121.9840249482106
 31
0.0
  0
LINE
  5
122975
  8
0
 62
     0
 10
3926.4741530087458
 20
-180.3556897351605
 30
0.0
 11
3928.0706823970172
 21
-178.75916034689041
 31
0.0
  0
LINE
  5
122976
  8
0
 62
     0
 10
3917.4938968876768
 20
-189.33594585622961
 30
0.0
 11
3921.9840249482122
 21
-184.84581779569501
 31
0.0
  0
LINE
  5
122977
  8
0
 62
     0
 10
3980.3556897351609
 20
-117.4938968876763
 30
0.0
 11
3980.6079633188342
 21
-117.2416233040032
 31
0.0
  0
LINE
  5
122978
  8
0
 62
     0
 10
3971.3754336140919
 20
-126.4741530087454
 30
0.0
 11
3975.8655616746269
 21
-121.9840249482109
 31
0.0
  0
LINE
  5
122979
  8
0
 62
     0
 10
3963.201461750476
 20
-134.6481248723619
 30
0.0
 11
3966.8853055535569
 21
-130.96428106927999
 31
0.0
  0
LINE
  5
12297A
  8
0
 62
     0
 10
3926.4741530087458
 20
-171.37543361409121
 30
0.0
 11
3930.9642810692808
 21
-166.88530555355661
 31
0.0
  0
LINE
  5
12297B
  8
0
 62
     0
 10
3917.4938968876768
 20
-180.35568973516041
 30
0.0
 11
3921.9840249482122
 21
-175.86556167462581
 31
0.0
  0
LINE
  5
12297C
  8
0
 62
     0
 10
3962.395177493021
 20
-126.4741530087453
 30
0.0
 11
3966.8853055535569
 21
-121.9840249482107
 31
0.0
  0
LINE
  5
12297D
  8
0
 62
     0
 10
3953.4149213719529
 20
-135.45440912981451
 30
0.0
 11
3957.9050494324879
 21
-130.96428106927991
 31
0.0
  0
LINE
  5
12297E
  8
0
 62
     0
 10
3944.4346652508839
 20
-144.4346652508836
 30
0.0
 11
3948.9247933114189
 21
-139.944537190349
 31
0.0
  0
LINE
  5
12297F
  8
0
 62
     0
 10
3935.4544091298148
 20
-153.4149213719528
 30
0.0
 11
3939.9445371903498
 21
-148.9247933114182
 31
0.0
  0
LINE
  5
122980
  8
0
 62
     0
 10
3926.4741530087458
 20
-162.39517749302181
 30
0.0
 11
3930.9642810692808
 21
-157.90504943248729
 31
0.0
  0
LINE
  5
122981
  8
0
 62
     0
 10
3921.5219269985778
 20
-167.34740350319089
 30
0.0
 11
3921.9840249482108
 21
-166.88530555355641
 31
0.0
  0
LINE
  5
122982
  8
0
 62
     0
 10
3937.527641098512
 20
-142.3614332821879
 30
0.0
 11
3939.9445371903498
 21
-139.94453719034919
 31
0.0
  0
LINE
  5
122983
  8
0
 62
     0
 10
4053.8815367264142
 20
-262.8617928474834
 30
0.0
 11
4054.7433295738979
 21
-261.99999999999932
 31
0.0
  0
LINE
  5
122984
  8
0
 62
     0
 10
4044.9012806053461
 20
-271.84204896855249
 30
0.0
 11
4049.3914086658801
 21
-267.35192090801797
 31
0.0
  0
LINE
  5
122985
  8
0
 62
     0
 10
4044.9012806053461
 20
-262.861792847483
 30
0.0
 11
4045.7630734528302
 21
-261.99999999999898
 31
0.0
  0
LINE
  5
122986
  8
0
 62
     0
 10
4035.9210244842761
 20
-271.84204896855209
 30
0.0
 11
4040.411152544812
 21
-267.35192090801758
 31
0.0
  0
LINE
  5
122987
  8
0
 62
     0
 10
4027.2492255236671
 20
-280.51384792916173
 30
0.0
 11
4031.4308964237421
 21
-276.33217702908672
 31
0.0
  0
LINE
  5
122988
  8
0
 62
     0
 10
4026.9407683632062
 20
-271.84204896855238
 30
0.0
 11
4030.0784920037072
 21
-268.70432532805171
 31
0.0
  0
LINE
  5
122989
  8
0
 62
     0
 10
4017.9605122421381
 20
-280.82230508962152
 30
0.0
 11
4022.450640302673
 21
-276.33217702908701
 31
0.0
  0
LINE
  5
12298A
  8
0
 62
     0
 10
4008.980256121069
 20
-280.8223050896213
 30
0.0
 11
4013.4703841816022
 21
-276.33217702908678
 31
0.0
  0
LINE
  5
12298B
  8
0
 62
     0
 10
4000.0
 20
-280.8223050896213
 30
0.0
 11
4004.4901280605341
 21
-276.33217702908678
 31
0.0
  0
LINE
  5
12298C
  8
0
 62
     0
 10
3991.0197438789319
 20
-280.82230508962141
 30
0.0
 11
3995.5098719394659
 21
-276.33217702908678
 31
0.0
  0
LINE
  5
12298D
  8
0
 62
     0
 10
3982.039487757861
 20
-280.82230508962152
 30
0.0
 11
3986.529615818396
 21
-276.33217702908689
 31
0.0
  0
LINE
  5
12298E
  8
0
 62
     0
 10
3973.212796132721
 20
-280.66874059369371
 30
0.0
 11
3977.5493596973279
 21
-276.33217702908701
 31
0.0
  0
LINE
  5
12298F
  8
0
 62
     0
 10
3973.059231636792
 20
-271.84204896855238
 30
0.0
 11
3974.4041133730389
 21
-270.4971672323058
 31
0.0
  0
LINE
  5
122990
  8
0
 62
     0
 10
3966.6969969239681
 20
-278.20428368137863
 30
0.0
 11
3968.569103576257
 21
-276.33217702908701
 31
0.0
  0
LINE
  5
122991
  8
0
 62
     0
 10
3964.0789755157239
 20
-271.84204896855277
 30
0.0
 11
3968.0614140538951
 21
-267.85961043038139
 31
0.0
  0
LINE
  5
122992
  8
0
 62
     0
 10
3955.098719394653
 20
-271.84204896855238
 30
0.0
 11
3959.5888474551889
 21
-267.3519209080178
 31
0.0
  0
LINE
  5
122993
  8
0
 62
     0
 10
3955.098719394653
 20
-262.861792847483
 30
0.0
 11
3956.7131058256882
 21
-261.24740641644962
 31
0.0
  0
LINE
  5
122994
  8
0
 62
     0
 10
3949.550844210803
 20
-268.40966803133369
 30
0.0
 11
3950.6085913341199
 21
-267.35192090801752
 31
0.0
  0
LINE
  5
122995
  8
0
 62
     0
 10
3946.1184632735858
 20
-262.86179284748312
 30
0.0
 11
3950.6085913341199
 21
-258.37166478694849
 31
0.0
  0
LINE
  5
122996
  8
0
 62
     0
 10
3946.1184632735858
 20
-253.881536726414
 30
0.0
 11
3946.9669914110091
 21
-253.0330085889901
 31
0.0
  0
LINE
  5
122997
  8
0
 62
     0
 10
3939.8959235991442
 20
-260.1040764008556
 30
0.0
 11
3941.6283352130508
 21
-258.37166478694849
 31
0.0
  0
LINE
  5
122998
  8
0
 62
     0
 10
4053.8815367264142
 20
-137.13820715251521
 30
0.0
 11
4055.4459941864038
 21
-135.57374969252569
 31
0.0
  0
LINE
  5
122999
  8
0
 62
     0
 10
3937.1382071525159
 20
-253.881536726414
 30
0.0
 11
3941.6283352130508
 21
-249.3914086658794
 31
0.0
  0
LINE
  5
12299A
  8
0
 62
     0
 10
4044.9012806053461
 20
-137.13820715251561
 30
0.0
 11
4049.3914086658801
 21
-132.648079091981
 31
0.0
  0
LINE
  5
12299B
  8
0
 62
     0
 10
3937.1382071525159
 20
-244.90128060534491
 30
0.0
 11
3938.7525935835511
 21
-243.2868941743113
 31
0.0
  0
LINE
  5
12299C
  8
0
 62
     0
 10
3931.5903319686659
 20
-250.4491557891954
 30
0.0
 11
3932.6480790919818
 21
-249.39140866587951
 31
0.0
  0
LINE
  5
12299D
  8
0
 62
     0
 10
4044.9012806053461
 20
-128.15795103144609
 30
0.0
 11
4045.1047705343681
 21
-127.95446110242381
 31
0.0
  0
LINE
  5
12299E
  8
0
 62
     0
 10
4037.8233654376231
 20
-135.2358661991679
 30
0.0
 11
4040.4111525448111
 21
-132.64807909198069
 31
0.0
  0
LINE
  5
12299F
  8
0
 62
     0
 10
3928.1579510314468
 20
-244.90128060534491
 30
0.0
 11
3932.6480790919818
 21
-240.41115254481039
 31
0.0
  0
LINE
  5
1229A0
  8
0
 62
     0
 10
4035.9210244842761
 20
-128.15795103144561
 30
0.0
 11
4039.3973119843781
 21
-124.6816635313438
 31
0.0
  0
LINE
  5
1229A1
  8
0
 62
     0
 10
3928.1579510314468
 20
-235.9210244842757
 30
0.0
 11
3932.140389569618
 21
-231.93858594610509
 31
0.0
  0
LINE
  5
1229A2
  8
0
 62
     0
 10
4026.9407683632062
 20
-128.157951031446
 30
0.0
 11
4031.4308964237398
 21
-123.6678229709114
 31
0.0
  0
LINE
  5
1229A3
  8
0
 62
     0
 10
3928.1579510314468
 20
-226.94076836320639
 30
0.0
 11
3929.5028327676951
 21
-225.59588662695961
 31
0.0
  0
LINE
  5
1229A4
  8
0
 62
     0
 10
3921.795716318622
 20
-233.30300307603281
 30
0.0
 11
3923.6678229709119
 21
-231.4308964237409
 31
0.0
  0
LINE
  5
1229A5
  8
0
 62
     0
 10
4018.7395884655198
 20
-127.3788748080627
 30
0.0
 11
4022.450640302673
 21
-123.6678229709112
 31
0.0
  0
LINE
  5
1229A6
  8
0
 62
     0
 10
3919.331259406305
 20
-226.78720386727881
 30
0.0
 11
3923.6678229709119
 21
-222.4506403026721
 31
0.0
  0
LINE
  5
1229A7
  8
0
 62
     0
 10
4017.9605122421381
 20
-119.1776949103768
 30
0.0
 11
4019.799941457361
 21
-117.3382656951527
 31
0.0
  0
LINE
  5
1229A8
  8
0
 62
     0
 10
4011.284425768652
 20
-125.85378138386331
 30
0.0
 11
4013.4703841816022
 21
-123.6678229709113
 31
0.0
  0
LINE
  5
1229A9
  8
0
 62
     0
 10
3919.1776949103769
 20
-217.9605122421377
 30
0.0
 11
3923.6678229709119
 21
-213.47038418160309
 31
0.0
  0
LINE
  5
1229AA
  8
0
 62
     0
 10
4008.980256121069
 20
-119.1776949103765
 30
0.0
 11
4012.2679784105749
 21
-115.88997262087111
 31
0.0
  0
LINE
  5
1229AB
  8
0
 62
     0
 10
4003.0941007878541
 20
-125.0638502435924
 30
0.0
 11
4004.490128060535
 21
-123.6678229709111
 31
0.0
  0
LINE
  5
1229AC
  8
0
 62
     0
 10
3919.1776949103769
 20
-208.98025612106821
 30
0.0
 11
3923.6678229709119
 21
-204.49012806053369
 31
0.0
  0
LINE
  5
1229AD
  8
0
 62
     0
 10
3993.9318052486001
 20
-125.245889661777
 30
0.0
 11
3995.5098719394659
 21
-123.6678229709112
 31
0.0
  0
LINE
  5
1229AE
  8
0
 62
     0
 10
3919.1776949103769
 20
-199.99999999999909
 30
0.0
 11
3923.6678229709119
 21
-195.5098719394644
 31
0.0
  0
LINE
  5
1229AF
  8
0
 62
     0
 10
4000.0
 20
-119.1776949103767
 30
0.0
 11
4004.0797313529042
 21
-115.0979635574724
 31
0.0
  0
LINE
  5
1229B0
  8
0
 62
     0
 10
3991.0197438789319
 20
-119.1776949103768
 30
0.0
 11
3995.0533812002559
 21
-115.1440575890517
 31
0.0
  0
LINE
  5
1229B1
  8
0
 62
     0
 10
3983.3188363327549
 20
-126.87860245655401
 30
0.0
 11
3986.529615818396
 21
-123.6678229709114
 31
0.0
  0
LINE
  5
1229B2
  8
0
 62
     0
 10
3919.1776949103769
 20
-191.0197438789302
 30
0.0
 11
3923.6678229709119
 21
-186.52961581839551
 31
0.0
  0
LINE
  5
1229B3
  8
0
 62
     0
 10
3982.039487757861
 20
-119.1776949103769
 30
0.0
 11
3984.8575146748631
 21
-116.359667993377
 31
0.0
  0
LINE
  5
1229B4
  8
0
 62
     0
 10
3973.059231636792
 20
-128.15795103144609
 30
0.0
 11
3977.5493596973279
 21
-123.6678229709115
 31
0.0
  0
LINE
  5
1229B5
  8
0
 62
     0
 10
3928.1579510314468
 20
-173.05923163679179
 30
0.0
 11
3931.2956746719469
 21
-169.92150799629059
 31
0.0
  0
LINE
  5
1229B6
  8
0
 62
     0
 10
3919.1776949103769
 20
-182.03948775786091
 30
0.0
 11
3923.6678229709119
 21
-177.54935969732631
 31
0.0
  0
LINE
  5
1229B7
  8
0
 62
     0
 10
3964.0789755157239
 20
-128.1579510314458
 30
0.0
 11
3968.569103576257
 21
-123.6678229709113
 31
0.0
  0
LINE
  5
1229B8
  8
0
 62
     0
 10
3955.098719394653
 20
-137.13820715251509
 30
0.0
 11
3959.588847455188
 21
-132.64807909198041
 31
0.0
  0
LINE
  5
1229B9
  8
0
 62
     0
 10
3946.1184632735858
 20
-146.1184632735841
 30
0.0
 11
3950.6085913341199
 21
-141.62833521304961
 31
0.0
  0
LINE
  5
1229BA
  8
0
 62
     0
 10
3937.1382071525159
 20
-155.09871939465339
 30
0.0
 11
3941.6283352130499
 21
-150.60859133411881
 31
0.0
  0
LINE
  5
1229BB
  8
0
 62
     0
 10
3928.1579510314468
 20
-164.0789755157225
 30
0.0
 11
3932.6480790919818
 21
-159.5888474551879
 31
0.0
  0
LINE
  5
1229BC
  8
0
 62
     0
 10
3919.4861520708369
 20
-172.7507744763318
 30
0.0
 11
3923.6678229709119
 21
-168.56910357625711
 31
0.0
  0
LINE
  5
1229BD
  8
0
 62
     0
 10
3955.098719394653
 20
-128.15795103144549
 30
0.0
 11
3955.9548403695771
 21
-127.30183005652231
 31
0.0
  0
LINE
  5
1229BE
  8
0
 62
     0
 10
3946.1184632735858
 20
-137.1382071525147
 30
0.0
 11
3950.6085913341199
 21
-132.64807909198001
 31
0.0
  0
LINE
  5
1229BF
  8
0
 62
     0
 10
3937.1382071525159
 20
-146.11846327358381
 30
0.0
 11
3941.6283352130508
 21
-141.62833521304921
 31
0.0
  0
LINE
  5
1229C0
  8
0
 62
     0
 10
3928.1579510314468
 20
-155.09871939465299
 30
0.0
 11
3932.6480790919818
 21
-150.60859133411839
 31
0.0
  0
ENDBLK
  5
1229C2
  8
0
  0
BLOCK
  8
0
  2
*U19
 70
     1
 10
0.0
 20
0.0
 30
0.0
  3
*U19
  1

  0
TEXT
  5
1229C4
  8
DIM
 10
2209.479620594459
 20
-3074.1428571428528
 30
0.0
 40
32.0
  1
A
 50
90.0
 41
0.75
  0
ENDBLK
  5
1229C6
  8
0
  0
BLOCK
  8
0
  2
*U20
 70
     1
 10
0.0
 20
0.0
 30
0.0
  3
*U20
  1

  0
TEXT
  5
1229C8
  8
DIM
 10
2207.8409284037348
 20
-3455.9999999999968
 30
0.0
 40
32.0
  1
B
 50
90.0
 41
0.75
  0
ENDBLK
  5
1229CA
  8
0
  0
BLOCK
  8
0
  2
*U21
 70
     1
 10
0.0
 20
0.0
 30
0.0
  3
*U21
  1

  0
TEXT
  5
1229CC
  8
DIM
 10
2061.428571428572
 20
-2928.2081219844431
 30
0.0
 40
32.0
  1
C
 41
0.75
  0
ENDBLK
  5
1229CE
  8
0
  0
BLOCK
  8
0
  2
*U22
 70
     1
 10
0.0
 20
0.0
 30
0.0
  3
*U22
  1

  0
TEXT
  5
1229D0
  8
SLIM
 10
509.0476190477408
 20
-586.75000000000955
 30
0.0
 40
26.0
  1
100
  0
ENDBLK
  5
1229D2
  8
0
  0
BLOCK
  8
0
  2
*U23
 70
     1
 10
0.0
 20
0.0
 30
0.0
  3
*U23
  1

  0
TEXT
  5
1229D4
  8
SLIM
 10
158.9523809524228
 20
-594.00000000000955
 30
0.0
 40
26.0
  1
75
  0
ENDBLK
  5
1229D6
  8
0
  0
BLOCK
  8
0
  2
*U24
 70
     1
 10
0.0
 20
0.0
 30
0.0
  3
*U24
  1

  0
TEXT
  5
1229D8
  8
SLIM
 10
518.95238095250295
 20
-130.00000000000321
 30
0.0
 40
26.0
  1
65
  0
ENDBLK
  5
1229DA
  8
0
  0
BLOCK
  8
0
  2
*U25
 70
     1
 10
0.0
 20
0.0
 30
0.0
  3
*U25
  1

  0
TEXT
  5
1229DC
  8
SLIM
 10
158.9523809524228
 20
-130.00000000000321
 30
0.0
 40
26.0
  1
50
  0
ENDBLK
  5
1229DE
  8
0
  0
ENDSEC
  0
SECTION
  2
ENTITIES
  0
LINE
  5
11E11D
  8
OBJECT
 10
1825.0
 20
-3469.9999999999959
 30
0.0
 11
5575.0
 21
-3469.9999999999959
 31
0.0
  0
LINE
  5
11E11F
  8
SLIM
 10
2616.0
 20
-2527.50001604727
 30
0.0
 11
2616.0
 21
-2857.50001604727
 31
0.0
  0
LINE
  5
11E120
  8
SLIM
 10
2740.0
 20
-2527.50001604727
 30
0.0
 11
2740.0
 21
-2857.50001604727
 31
0.0
  0
LINE
  5
11E121
  8
SLIM
 10
2870.0
 20
-2587.50001604727
 30
0.0
 11
2870.0
 21
-2857.50001604727
 31
0.0
  0
LINE
  5
11E122
  8
SLIM
 10
3000.0
 20
-2587.50001604727
 30
0.0
 11
3000.0
 21
-2857.50001604727
 31
0.0
  0
LINE
  5
11E123
  8
SLIM
 10
3130.0
 20
-2857.50001604727
 30
0.0
 11
3130.0
 21
-2587.50001604727
 31
0.0
  0
LINE
  5
11E124
  8
SLIM
 10
3260.0
 20
-2857.50001604727
 30
0.0
 11
3260.0
 21
-2527.50001604727
 31
0.0
  0
LINE
  5
11E125
  8
SLIM
 10
3260.0
 20
-2527.50001604727
 30
0.0
 11
2616.0
 21
-2527.50001604727
 31
0.0
  0
LINE
  5
11E126
  8
SLIM
 10
3260.0
 20
-2587.50001604727
 30
0.0
 11
2740.0
 21
-2587.50001604727
 31
0.0
  0
LINE
  5
11E127
  8
SLIM
 10
3260.0
 20
-2647.50001604727
 30
0.0
 11
2616.0
 21
-2647.50001604727
 31
0.0
  0
LINE
  5
11E128
  8
SLIM
 10
3260.0
 20
-2717.50001604727
 30
0.0
 11
2616.0
 21
-2717.50001604727
 31
0.0
  0
LINE
  5
11E129
  8
SLIM
 10
3260.0
 20
-2787.50001604727
 30
0.0
 11
2616.0
 21
-2787.50001604727
 31
0.0
  0
LINE
  5
11E12A
  8
SLIM
 10
3260.0
 20
-2857.50001604727
 30
0.0
 11
2616.0
 21
-2857.50001604727
 31
0.0
  0
LINE
  5
11E13F
  8
SLIM
 10
2740.0
 20
-2647.50001604727
 30
0.0
 11
2615.9999722746579
 21
-2527.5
 31
0.0
  0
LINE
  5
11F2E7
  8
OBJECT
 10
5325.0
 20
-3348.9999999999968
 30
0.0
 11
5325.0
 21
-3472.9999999999968
 31
0.0
1001
ACDBBLOCKREPETAG
1070
     1
1071
       26
1005
11F2E7
  0
LINE
  5
11F2EA
  8
OBJECT
 10
5475.0
 20
-3348.9999999999968
 30
0.0
 11
5456.7802782663139
 21
-3348.9999999999968
 31
0.0
1001
ACDBBLOCKREPETAG
1070
     1
1071
       30
1005
11F2EA
  0
LINE
  5
11F2EB
  8
OBJECT
 10
5475.0
 20
-3348.9999999999968
 30
0.0
 11
5475.0
 21
-3472.9999999999968
 31
0.0
1001
ACDBBLOCKREPETAG
1070
     1
1071
       34
1005
11F2EB
  0
POINT
  5
11F2EC
  8
DOTS
 10
5400.0
 20
-3469.9999999999968
 30
0.0
1001
ACDBBLOCKREPETAG
1070
     1
1071
      187
1005
11F2EC
  0
LINE
  5
11F2ED
  8
CENTER
 10
5310.0
 20
-3397.9999999999968
 30
0.0
 11
5490.0
 21
-3397.9999999999968
 31
0.0
1001
ACDBBLOCKREPETAG
1070
     1
1071
       23
1005
11F2ED
  0
CIRCLE
  5
11F2EE
  8
OBJECT
 10
5400.0
 20
-3397.9999999999968
 30
0.0
 40
53.5
1001
ACDBBLOCKREPETAG
1070
     1
1071
       24
1005
11F2EE
  0
CIRCLE
  5
11F2EF
  8
OBJECT
 10
5400.0
 20
-3397.9999999999968
 30
0.0
 40
67.0
1001
ACDBBLOCKREPETAG
1070
     1
1071
       25
1005
11F2EF
  0
ARC
  5
11F2F0
  8
OBJECT
 10
5400.0
 20
-3397.9999999999968
 30
0.0
 40
75.0
 50
286.26020470824
 51
253.73979529175989
1001
ACDBBLOCKREPETAG
1070
     1
1071
       27
1005
11F2F0
  0
LINE
  5
11F2F1
  8
OBJECT
 10
5379.0
 20
-3469.9999999999968
 30
0.0
 11
5421.0
 21
-3469.9999999999968
 31
0.0
1001
ACDBBLOCKREPETAG
1070
     1
1071
       28
1005
11F2F1
  0
LINE
  5
11F2F2
  8
OBJECT
 10
5343.2197217336861
 20
-3348.9999999999968
 30
0.0
 11
5325.0
 21
-3348.9999999999968
 31
0.0
1001
ACDBBLOCKREPETAG
1070
     1
1071
       30
1005
11F2EA
  0
TEXT
  5
11F3FE
  8
SLIM
 10
-0.0000000000000011
 20
282.5
 30
0.0
 40
35.0
  1
※ 100枝（4）がある場合、品名の最後に【管底】が付きます。
 41
0.9
 11
0.0
 21
300.0
 31
0.0
 73
     2
  0
LINE
  5
1217B8
  8
OBJECT
 10
5460.0
 20
-3342.9999999999968
 30
0.0
 11
5450.9901951359279
 21
-3342.9999999999968
 31
0.0
1001
ACDBBLOCKREPETAG
1070
     1
1071
      215
1005
1217B8
  0
ARC
  5
1217B9
  8
OBJECT
 10
5340.0
 20
-3345.9999999999959
 30
0.0
 40
3.0
 50
90.0
 51
180.0
1001
ACDBBLOCKREPETAG
1070
     1
1071
      216
1005
1217B9
  0
LINE
  5
1217BA
  8
OBJECT
 10
5337.0
 20
-3345.9999999999959
 30
0.0
 11
5337.0
 21
-3348.9999999999968
 31
0.0
1001
ACDBBLOCKREPETAG
1070
     1
1071
      217
1005
1217BA
  0
LINE
  5
1217BB
  8
OBJECT
 10
5463.0
 20
-3345.9999999999959
 30
0.0
 11
5463.0
 21
-3348.9999999999968
 31
0.0
1001
ACDBBLOCKREPETAG
1070
     1
1071
      218
1005
1217BB
  0
ARC
  5
1217BC
  8
OBJECT
 10
5460.0
 20
-3345.9999999999959
 30
0.0
 40
3.0
 50
0.0
 51
90.0
1001
ACDBBLOCKREPETAG
1070
     1
1071
      219
1005
1217BC
  0
LINE
  5
1217BD
  8
OBJECT
 10
5343.0
 20
-3274.9999999999968
 30
0.0
 11
5343.0
 21
-3342.9999999999968
 31
0.0
1001
ACDBBLOCKREPETAG
1070
     1
1071
      220
1005
1217BD
  0
LINE
  5
1217BE
  8
OBJECT
 10
5457.0
 20
-3274.9999999999968
 30
0.0
 11
5343.0
 21
-3274.9999999999968
 31
0.0
1001
ACDBBLOCKREPETAG
1070
     1
1071
      221
1005
1217BE
  0
LINE
  5
1217BF
  8
OBJECT
 10
5457.0
 20
-3274.9999999999968
 30
0.0
 11
5457.0
 21
-3342.9999999999968
 31
0.0
1001
ACDBBLOCKREPETAG
1070
     1
1071
      222
1005
1217BF
  0
LINE
  5
1217C0
  8
CENTER
 10
5400.0
 20
-3259.9999999999968
 30
0.0
 11
5400.0
 21
-3484.9999999999968
 31
0.0
1001
ACDBBLOCKREPETAG
1070
     1
1071
      223
1005
1217C0
  0
LINE
  5
1217C1
  8
HIDDEN
 10
5452.5
 20
-3274.9999999999968
 30
0.0
 11
5452.5
 21
-3348.9999999999968
 31
0.0
1001
ACDBBLOCKREPETAG
1070
     1
1071
      224
1005
1217C1
  0
LINE
  5
1217C2
  8
HIDDEN
 10
5347.5
 20
-3274.9999999999968
 30
0.0
 11
5347.5
 21
-3348.9999999999968
 31
0.0
1001
ACDBBLOCKREPETAG
1070
     1
1071
      225
1005
1217C2
  0
LINE
  5
1217C3
  8
OBJECT
 10
5349.0098048640721
 20
-3342.9999999999968
 30
0.0
 11
5340.0
 21
-3342.9999999999968
 31
0.0
1001
ACDBBLOCKREPETAG
1070
     1
1071
      215
1005
1217B8
  0
CIRCLE
  5
121986
  8
OBJECT
 10
5000.0
 20
-3064.9999999999959
 30
0.0
 40
75.0
1001
ACDBBLOCKREPETAG
1070
     1
1071
      363
1005
121986
  0
CIRCLE
  5
121987
  8
OBJECT
 10
5000.0
 20
-3064.9999999999959
 30
0.0
 40
52.5
1001
ACDBBLOCKREPETAG
1070
     1
1071
      364
1005
121987
  0
CIRCLE
  5
121988
  8
OBJECT
 10
5000.0
 20
-3064.9999999999959
 30
0.0
 40
57.0
1001
ACDBBLOCKREPETAG
1070
     1
1071
      365
1005
121988
  0
LINE
  5
121989
  8
OBJECT
 10
4969.8635289348576
 20
-3107.9888719523969
 30
0.0
 11
4979.8564918232369
 21
-3087.4868825335652
 31
0.0
1001
ACDBBLOCKREPETAG
1070
     1
1071
      381
1005
121989
  0
LINE
  5
12198A
  8
OBJECT
 10
4965.7499660391568
 20
-3104.7892595266708
 30
0.0
 11
4973.9071022665084
 21
-3088.0537300443038
 31
0.0
1001
ACDBBLOCKREPETAG
1070
     1
1071
      382
1005
12198A
  0
LINE
  5
12198B
  8
OBJECT
 10
5024.1029330933034
 20
-3108.8069471237141
 30
0.0
 11
5020.6596569999947
 21
-3097.554621999996
 31
0.0
1001
ACDBBLOCKREPETAG
1070
     1
1071
      383
1005
12198B
  0
ARC
  5
12198C
  8
OBJECT
 10
4976.5796953073141
 20
-3072.128936982841
 30
0.0
 40
60.031113246032611
 50
316.4174422677624
 51
322.33936106089038
1001
ACDBBLOCKREPETAG
1070
     1
1071
      384
1005
12198C
  0
LINE
  5
12198D
  8
OBJECT
 10
4986.7927499013749
 20
-3083.225533742077
 30
0.0
 11
5020.6596569999947
 21
-3097.5546219999951
 31
0.0
1001
ACDBBLOCKREPETAG
1070
     1
1071
      385
1005
12198D
  0
ARC
  5
12198E
  8
OBJECT
 10
4982.8961697619006
 20
-3092.435129999054
 30
0.0
 40
10.0
 50
67.06677829291263
 51
154.01473437029199
1001
ACDBBLOCKREPETAG
1070
     1
1071
      386
1005
12198E
  0
ARC
  5
12198F
  8
OBJECT
 10
4986.1488390381273
 20
-3090.5538625672889
 30
0.0
 40
7.0
 50
67.06677829291263
 51
154.01473377497379
1001
ACDBBLOCKREPETAG
1070
     1
1071
      387
1005
12198F
  0
ARC
  5
121990
  8
OBJECT
 10
5000.0
 20
-3064.9999999999959
 30
0.0
 40
50.0
 50
298.81994299999963
 51
228.52376955965599
1001
ACDBBLOCKREPETAG
1070
     1
1071
        7
1005
121990
  0
LINE
  5
121991
  8
CENTER
 10
5080.0
 20
-3064.9999999999959
 30
0.0
 11
4905.0
 21
-3064.9999999999959
 31
0.0
1001
ACDBBLOCKREPETAG
1070
     1
1071
       14
1005
121991
  0
LINE
  5
121992
  8
CENTER
 10
5000.0
 20
-3159.9999999999959
 30
0.0
 11
5000.0
 21
-2969.9999999999959
 31
0.0
1001
ACDBBLOCKREPETAG
1070
     1
1071
       15
1005
121992
  0
ARC
  5
121993
  8
OBJECT
 10
5000.0
 20
-3064.9999999999959
 30
0.0
 40
80.0
 50
50.805032573882329
 51
309.19496742611773
1001
ACDBBLOCKREPETAG
1070
     1
1071
       18
1005
121993
  0
LINE
  5
121994
  8
OBJECT
 10
5042.2018956920174
 20
-3002.9999999999959
 30
0.0
 11
5080.0
 21
-3002.9999999999959
 31
0.0
1001
ACDBBLOCKREPETAG
1070
     1
1071
       19
1005
121994
  0
LINE
  5
121995
  8
OBJECT
 10
5042.2018956920174
 20
-3126.9999999999959
 30
0.0
 11
5080.0
 21
-3126.9999999999959
 31
0.0
1001
ACDBBLOCKREPETAG
1070
     1
1071
       20
1005
121995
  0
POINT
  5
121996
  8
DOTS
 10
5000.0
 20
-3064.9999999999959
 30
0.0
1001
ACDBBLOCKREPETAG
1070
     1
1071
      417
1005
121996
  0
CIRCLE
  5
121997
  8
OBJECT
 10
4000.0
 20
-3064.9999999999959
 30
0.0
 40
75.0
1001
ACDBBLOCKREPETAG
1070
     1
1071
      363
1005
121997
  0
CIRCLE
  5
121998
  8
OBJECT
 10
4000.0
 20
-3064.9999999999959
 30
0.0
 40
52.5
1001
ACDBBLOCKREPETAG
1070
     1
1071
      364
1005
121998
  0
CIRCLE
  5
121999
  8
OBJECT
 10
4000.0
 20
-3064.9999999999959
 30
0.0
 40
57.0
1001
ACDBBLOCKREPETAG
1070
     1
1071
      365
1005
121999
  0
LINE
  5
12199A
  8
OBJECT
 10
3969.8635289348599
 20
-3107.9888719523969
 30
0.0
 11
3979.8564918232369
 21
-3087.4868825335652
 31
0.0
1001
ACDBBLOCKREPETAG
1070
     1
1071
      381
1005
12199A
  0
LINE
  5
12199B
  8
OBJECT
 10
3965.7499660391568
 20
-3104.7892595266708
 30
0.0
 11
3973.9071022665089
 21
-3088.0537300443038
 31
0.0
1001
ACDBBLOCKREPETAG
1070
     1
1071
      382
1005
12199B
  0
LINE
  5
12199C
  8
OBJECT
 10
4024.102933093302
 20
-3108.8069471237141
 30
0.0
 11
4020.6596569999951
 21
-3097.554621999996
 31
0.0
1001
ACDBBLOCKREPETAG
1070
     1
1071
      383
1005
12199C
  0
ARC
  5
12199D
  8
OBJECT
 10
3976.579695307315
 20
-3072.128936982841
 30
0.0
 40
60.031113246032611
 50
316.41744226774438
 51
322.3393610609063
1001
ACDBBLOCKREPETAG
1070
     1
1071
      384
1005
12199D
  0
LINE
  5
12199E
  8
OBJECT
 10
3986.7927499013749
 20
-3083.225533742077
 30
0.0
 11
4020.6596569999951
 21
-3097.5546219999951
 31
0.0
1001
ACDBBLOCKREPETAG
1070
     1
1071
      385
1005
12199E
  0
ARC
  5
12199F
  8
OBJECT
 10
3982.896169761902
 20
-3092.435129999054
 30
0.0
 40
10.0
 50
67.06677829291263
 51
154.01473437029199
1001
ACDBBLOCKREPETAG
1070
     1
1071
      386
1005
12199F
  0
ARC
  5
1219A0
  8
OBJECT
 10
3986.1488390381278
 20
-3090.5538625672889
 30
0.0
 40
7.0
 50
67.06677829291263
 51
154.01473377496239
1001
ACDBBLOCKREPETAG
1070
     1
1071
      387
1005
1219A0
  0
ARC
  5
1219A1
  8
OBJECT
 10
4000.0
 20
-3064.9999999999959
 30
0.0
 40
50.0
 50
298.81994299999963
 51
228.52376955967549
1001
ACDBBLOCKREPETAG
1070
     1
1071
        7
1005
1219A1
  0
LINE
  5
1219A2
  8
CENTER
 10
4080.0
 20
-3064.9999999999959
 30
0.0
 11
3905.0
 21
-3064.9999999999959
 31
0.0
1001
ACDBBLOCKREPETAG
1070
     1
1071
       14
1005
1219A2
  0
LINE
  5
1219A3
  8
CENTER
 10
4000.0
 20
-3159.9999999999959
 30
0.0
 11
4000.0
 21
-2969.9999999999959
 31
0.0
1001
ACDBBLOCKREPETAG
1070
     1
1071
       15
1005
1219A3
  0
ARC
  5
1219A4
  8
OBJECT
 10
4000.0
 20
-3064.9999999999959
 30
0.0
 40
80.0
 50
50.805032573862128
 51
309.19496742613791
1001
ACDBBLOCKREPETAG
1070
     1
1071
       18
1005
1219A4
  0
LINE
  5
1219A5
  8
OBJECT
 10
4042.2018956920169
 20
-3002.9999999999959
 30
0.0
 11
4080.0
 21
-3002.9999999999959
 31
0.0
1001
ACDBBLOCKREPETAG
1070
     1
1071
       19
1005
1219A5
  0
LINE
  5
1219A6
  8
OBJECT
 10
4042.2018956920169
 20
-3126.9999999999959
 30
0.0
 11
4080.0
 21
-3126.9999999999959
 31
0.0
1001
ACDBBLOCKREPETAG
1070
     1
1071
       20
1005
1219A6
  0
POINT
  5
1219A7
  8
DOTS
 10
4000.0
 20
-3064.9999999999959
 30
0.0
1001
ACDBBLOCKREPETAG
1070
     1
1071
      417
1005
1219A7
  0
CIRCLE
  5
1219A8
  8
OBJECT
 10
3000.0
 20
-3064.9999999999959
 30
0.0
 40
75.0
1001
ACDBBLOCKREPETAG
1070
     1
1071
      363
1005
1219A8
  0
CIRCLE
  5
1219A9
  8
OBJECT
 10
3000.0
 20
-3064.9999999999959
 30
0.0
 40
52.5
1001
ACDBBLOCKREPETAG
1070
     1
1071
      364
1005
1219A9
  0
CIRCLE
  5
1219AA
  8
OBJECT
 10
3000.0
 20
-3064.9999999999959
 30
0.0
 40
57.0
1001
ACDBBLOCKREPETAG
1070
     1
1071
      365
1005
1219AA
  0
LINE
  5
1219AB
  8
OBJECT
 10
2969.863528934859
 20
-3107.9888719523969
 30
0.0
 11
2979.8564918232369
 21
-3087.4868825335652
 31
0.0
1001
ACDBBLOCKREPETAG
1070
     1
1071
      381
1005
1219AB
  0
LINE
  5
1219AC
  8
OBJECT
 10
2965.7499660391568
 20
-3104.7892595266708
 30
0.0
 11
2973.9071022665089
 21
-3088.0537300443038
 31
0.0
1001
ACDBBLOCKREPETAG
1070
     1
1071
      382
1005
1219AC
  0
LINE
  5
1219AD
  8
OBJECT
 10
3024.102933093302
 20
-3108.8069471237141
 30
0.0
 11
3020.659656999997
 21
-3097.554621999996
 31
0.0
1001
ACDBBLOCKREPETAG
1070
     1
1071
      383
1005
1219AD
  0
ARC
  5
1219AE
  8
OBJECT
 10
2976.579695307315
 20
-3072.128936982841
 30
0.0
 40
60.031113246032611
 50
316.41744226774438
 51
322.3393610609063
1001
ACDBBLOCKREPETAG
1070
     1
1071
      384
1005
1219AE
  0
LINE
  5
1219AF
  8
OBJECT
 10
2986.7927499013749
 20
-3083.225533742077
 30
0.0
 11
3020.659656999997
 21
-3097.5546219999951
 31
0.0
1001
ACDBBLOCKREPETAG
1070
     1
1071
      385
1005
1219AF
  0
ARC
  5
1219B0
  8
OBJECT
 10
2982.896169761902
 20
-3092.435129999054
 30
0.0
 40
10.0
 50
67.06677829291263
 51
154.01473437029199
1001
ACDBBLOCKREPETAG
1070
     1
1071
      386
1005
1219B0
  0
ARC
  5
1219B1
  8
OBJECT
 10
2986.1488390381278
 20
-3090.5538625672889
 30
0.0
 40
7.0
 50
67.06677829291263
 51
154.01473377496239
1001
ACDBBLOCKREPETAG
1070
     1
1071
      387
1005
1219B1
  0
ARC
  5
1219B2
  8
OBJECT
 10
3000.0
 20
-3064.9999999999959
 30
0.0
 40
50.0
 50
298.81994299999963
 51
228.52376955967549
1001
ACDBBLOCKREPETAG
1070
     1
1071
        7
1005
1219B2
  0
LINE
  5
1219B3
  8
CENTER
 10
3080.0
 20
-3064.9999999999959
 30
0.0
 11
2905.0
 21
-3064.9999999999959
 31
0.0
1001
ACDBBLOCKREPETAG
1070
     1
1071
       14
1005
1219B3
  0
LINE
  5
1219B4
  8
CENTER
 10
3000.0
 20
-3159.9999999999959
 30
0.0
 11
3000.0
 21
-2969.9999999999959
 31
0.0
1001
ACDBBLOCKREPETAG
1070
     1
1071
       15
1005
1219B4
  0
ARC
  5
1219B5
  8
OBJECT
 10
3000.0
 20
-3064.9999999999959
 30
0.0
 40
80.0
 50
50.805032573862128
 51
309.19496742613791
1001
ACDBBLOCKREPETAG
1070
     1
1071
       18
1005
1219B5
  0
LINE
  5
1219B6
  8
OBJECT
 10
3042.2018956920201
 20
-3002.9999999999959
 30
0.0
 11
3080.0
 21
-3002.9999999999959
 31
0.0
1001
ACDBBLOCKREPETAG
1070
     1
1071
       19
1005
1219B6
  0
LINE
  5
1219B7
  8
OBJECT
 10
3042.2018956920201
 20
-3126.9999999999959
 30
0.0
 11
3080.0
 21
-3126.9999999999959
 31
0.0
1001
ACDBBLOCKREPETAG
1070
     1
1071
       20
1005
1219B7
  0
POINT
  5
1219B8
  8
DOTS
 10
3000.0
 20
-3064.9999999999959
 30
0.0
1001
ACDBBLOCKREPETAG
1070
     1
1071
      417
1005
1219B8
  0
CIRCLE
  5
1219B9
  8
OBJECT
 10
2000.0
 20
-3064.9999999999959
 30
0.0
 40
75.0
1001
ACDBBLOCKREPETAG
1070
     1
1071
      363
1005
1219B9
  0
CIRCLE
  5
1219BA
  8
OBJECT
 10
2000.0
 20
-3064.9999999999959
 30
0.0
 40
52.5
1001
ACDBBLOCKREPETAG
1070
     1
1071
      364
1005
1219BA
  0
CIRCLE
  5
1219BB
  8
OBJECT
 10
2000.0
 20
-3064.9999999999959
 30
0.0
 40
57.0
1001
ACDBBLOCKREPETAG
1070
     1
1071
      365
1005
1219BB
  0
LINE
  5
1219BC
  8
OBJECT
 10
1969.8635289348581
 20
-3107.9888719523969
 30
0.0
 11
1979.856491823236
 21
-3087.4868825335652
 31
0.0
1001
ACDBBLOCKREPETAG
1070
     1
1071
      381
1005
1219BC
  0
LINE
  5
1219BD
  8
OBJECT
 10
1965.749966039157
 20
-3104.7892595266708
 30
0.0
 11
1973.907102266508
 21
-3088.0537300443038
 31
0.0
1001
ACDBBLOCKREPETAG
1070
     1
1071
      382
1005
1219BD
  0
LINE
  5
1219BE
  8
OBJECT
 10
2024.1029330933011
 20
-3108.8069471237141
 30
0.0
 11
2020.6596569999961
 21
-3097.554621999996
 31
0.0
1001
ACDBBLOCKREPETAG
1070
     1
1071
      383
1005
1219BE
  0
ARC
  5
1219BF
  8
OBJECT
 10
1976.579695307315
 20
-3072.128936982841
 30
0.0
 40
60.031113246032611
 50
316.4174422677533
 51
322.3393610609063
1001
ACDBBLOCKREPETAG
1070
     1
1071
      384
1005
1219BF
  0
LINE
  5
1219C0
  8
OBJECT
 10
1986.792749901374
 20
-3083.225533742077
 30
0.0
 11
2020.6596569999961
 21
-3097.5546219999951
 31
0.0
1001
ACDBBLOCKREPETAG
1070
     1
1071
      385
1005
1219C0
  0
ARC
  5
1219C1
  8
OBJECT
 10
1982.8961697619
 20
-3092.435129999054
 30
0.0
 40
10.0
 50
67.066778292924639
 51
154.01473437029199
1001
ACDBBLOCKREPETAG
1070
     1
1071
      386
1005
1219C1
  0
ARC
  5
1219C2
  8
OBJECT
 10
1986.1488390381271
 20
-3090.5538625672889
 30
0.0
 40
7.0
 50
67.066778292924639
 51
154.01473377496239
1001
ACDBBLOCKREPETAG
1070
     1
1071
      387
1005
1219C2
  0
ARC
  5
1219C3
  8
OBJECT
 10
2000.0
 20
-3064.9999999999959
 30
0.0
 40
50.0
 50
298.81994299999963
 51
228.52376955967549
1001
ACDBBLOCKREPETAG
1070
     1
1071
        7
1005
1219C3
  0
LINE
  5
1219C4
  8
CENTER
 10
2080.0
 20
-3064.9999999999959
 30
0.0
 11
1905.0
 21
-3064.9999999999959
 31
0.0
1001
ACDBBLOCKREPETAG
1070
     1
1071
       14
1005
1219C4
  0
LINE
  5
1219C5
  8
CENTER
 10
2000.0
 20
-3159.9999999999959
 30
0.0
 11
2000.0
 21
-2969.9999999999959
 31
0.0
1001
ACDBBLOCKREPETAG
1070
     1
1071
       15
1005
1219C5
  0
ARC
  5
1219C6
  8
OBJECT
 10
2000.0
 20
-3064.9999999999959
 30
0.0
 40
80.0
 50
50.805032573862128
 51
309.19496742613791
1001
ACDBBLOCKREPETAG
1070
     1
1071
       18
1005
1219C6
  0
LINE
  5
1219C7
  8
OBJECT
 10
2042.2018956920181
 20
-3002.9999999999959
 30
0.0
 11
2080.0
 21
-3002.9999999999959
 31
0.0
1001
ACDBBLOCKREPETAG
1070
     1
1071
       19
1005
1219C7
  0
LINE
  5
1219C8
  8
OBJECT
 10
2042.2018956920181
 20
-3126.9999999999959
 30
0.0
 11
2080.0
 21
-3126.9999999999959
 31
0.0
1001
ACDBBLOCKREPETAG
1070
     1
1071
       20
1005
1219C8
  0
POINT
  5
1219C9
  8
DOTS
 10
2000.0
 20
-3064.9999999999959
 30
0.0
1001
ACDBBLOCKREPETAG
1070
     1
1071
      417
1005
1219C9
  0
LINE
  5
1219CA
  8
OBJECT
 10
4560.0
 20
-517.99999999999966
 30
0.0
 11
4440.0
 21
-517.99999999999966
 31
0.0
1001
ACDBBLOCKREPETAG
1070
     1
1071
      144
1005
1219CA
  0
ARC
  5
1219CB
  8
OBJECT
 10
4440.0
 20
-520.99999999999955
 30
0.0
 40
3.0
 50
90.0
 51
180.0
1001
ACDBBLOCKREPETAG
1070
     1
1071
      145
1005
1219CB
  0
LINE
  5
1219CC
  8
OBJECT
 10
4437.0
 20
-520.99999999999955
 30
0.0
 11
4437.0
 21
-523.99999999999955
 31
0.0
1001
ACDBBLOCKREPETAG
1070
     1
1071
      146
1005
1219CC
  0
LINE
  5
1219CD
  8
OBJECT
 10
4563.0
 20
-520.99999999999955
 30
0.0
 11
4563.0
 21
-523.99999999999955
 31
0.0
1001
ACDBBLOCKREPETAG
1070
     1
1071
      147
1005
1219CD
  0
ARC
  5
1219CE
  8
OBJECT
 10
4560.0
 20
-520.99999999999955
 30
0.0
 40
3.0
 50
0.0
 51
90.0
1001
ACDBBLOCKREPETAG
1070
     1
1071
      148
1005
1219CE
  0
LINE
  5
1219CF
  8
OBJECT
 10
4443.0
 20
-449.9999999999996
 30
0.0
 11
4443.0
 21
-517.99999999999966
 31
0.0
1001
ACDBBLOCKREPETAG
1070
     1
1071
      149
1005
1219CF
  0
LINE
  5
1219D0
  8
OBJECT
 10
4557.0
 20
-449.9999999999996
 30
0.0
 11
4443.0
 21
-449.9999999999996
 31
0.0
1001
ACDBBLOCKREPETAG
1070
     1
1071
      150
1005
1219D0
  0
LINE
  5
1219D1
  8
OBJECT
 10
4557.0
 20
-449.9999999999996
 30
0.0
 11
4557.0
 21
-517.99999999999966
 31
0.0
1001
ACDBBLOCKREPETAG
1070
     1
1071
      151
1005
1219D1
  0
LINE
  5
1219D2
  8
CENTER
 10
4500.0
 20
-434.9999999999996
 30
0.0
 11
4500.0
 21
-659.99999999999955
 31
0.0
1001
ACDBBLOCKREPETAG
1070
     1
1071
       20
1005
1219D2
  0
LINE
  5
1219D3
  8
OBJECT
 10
4425.0
 20
-523.99999999999955
 30
0.0
 11
4425.0
 21
-647.99999999999955
 31
0.0
1001
ACDBBLOCKREPETAG
1070
     1
1071
       21
1005
1219D3
  0
LINE
  5
1219D4
  8
OBJECT
 10
4420.0
 20
-647.99999999999955
 30
0.0
 11
4580.0
 21
-647.99999999999955
 31
0.0
1001
ACDBBLOCKREPETAG
1070
     1
1071
       22
1005
1219D4
  0
LINE
  5
1219D5
  8
OBJECT
 10
4574.9999999997144
 20
-523.99999999999955
 30
0.0
 11
4425.0
 21
-523.99999999999955
 31
0.0
1001
ACDBBLOCKREPETAG
1070
     1
1071
       23
1005
1219D5
  0
LINE
  5
1219D6
  8
OBJECT
 10
4420.0
 20
-647.99999999999955
 30
0.0
 11
4420.0
 21
-659.99999999999955
 31
0.0
1001
ACDBBLOCKREPETAG
1070
     1
1071
       24
1005
1219D6
  0
LINE
  5
1219D7
  8
OBJECT
 10
4420.0
 20
-659.99999999999955
 30
0.0
 11
4580.0
 21
-659.99999999999955
 31
0.0
1001
ACDBBLOCKREPETAG
1070
     1
1071
       25
1005
1219D7
  0
LINE
  5
1219D8
  8
OBJECT
 10
4580.0
 20
-659.99999999999955
 30
0.0
 11
4580.0
 21
-647.99999999999955
 31
0.0
1001
ACDBBLOCKREPETAG
1070
     1
1071
       26
1005
1219D8
  0
LINE
  5
1219D9
  8
OBJECT
 10
4574.9999999997144
 20
-523.99999999999955
 30
0.0
 11
4575.0
 21
-647.99999999999955
 31
0.0
1001
ACDBBLOCKREPETAG
1070
     1
1071
       28
1005
1219D9
  0
LINE
  5
1219DA
  8
HIDDEN
 10
4552.5
 20
-449.9999999999996
 30
0.0
 11
4552.5
 21
-523.99999999999955
 31
0.0
1001
ACDBBLOCKREPETAG
1070
     1
1071
      182
1005
1219DA
  0
LINE
  5
1219DB
  8
HIDDEN
 10
4447.5
 20
-449.9999999999996
 30
0.0
 11
4447.5
 21
-523.99999999999955
 31
0.0
1001
ACDBBLOCKREPETAG
1070
     1
1071
      183
1005
1219DB
  0
POINT
  5
1219DC
  8
DOTS
 10
4500.0
 20
-644.99999999999955
 30
0.0
1001
ACDBBLOCKREPETAG
1070
     1
1071
      190
1005
1219DC
  0
LINE
  5
1219DD
  8
OBJECT
 10
4060.0
 20
-517.99999999999966
 30
0.0
 11
3940.0
 21
-517.99999999999966
 31
0.0
1001
ACDBBLOCKREPETAG
1070
     1
1071
      136
1005
1219DD
  0
ARC
  5
1219DE
  8
OBJECT
 10
3940.0
 20
-520.99999999999955
 30
0.0
 40
3.0
 50
90.0
 51
180.0
1001
ACDBBLOCKREPETAG
1070
     1
1071
      137
1005
1219DE
  0
LINE
  5
1219DF
  8
OBJECT
 10
3937.0
 20
-520.99999999999955
 30
0.0
 11
3937.0
 21
-523.99999999999955
 31
0.0
1001
ACDBBLOCKREPETAG
1070
     1
1071
      138
1005
1219DF
  0
LINE
  5
1219E0
  8
OBJECT
 10
4063.0
 20
-520.99999999999955
 30
0.0
 11
4063.0
 21
-523.99999999999955
 31
0.0
1001
ACDBBLOCKREPETAG
1070
     1
1071
      139
1005
1219E0
  0
ARC
  5
1219E1
  8
OBJECT
 10
4060.0
 20
-520.99999999999955
 30
0.0
 40
3.0
 50
0.0
 51
90.0
1001
ACDBBLOCKREPETAG
1070
     1
1071
      140
1005
1219E1
  0
LINE
  5
1219E2
  8
OBJECT
 10
3943.0
 20
-449.99999999999937
 30
0.0
 11
3943.0
 21
-517.99999999999966
 31
0.0
1001
ACDBBLOCKREPETAG
1070
     1
1071
      141
1005
1219E2
  0
LINE
  5
1219E3
  8
OBJECT
 10
4057.0
 20
-449.99999999999937
 30
0.0
 11
3943.0
 21
-449.99999999999937
 31
0.0
1001
ACDBBLOCKREPETAG
1070
     1
1071
      142
1005
1219E3
  0
LINE
  5
1219E4
  8
OBJECT
 10
4057.0
 20
-449.99999999999937
 30
0.0
 11
4057.0
 21
-517.99999999999966
 31
0.0
1001
ACDBBLOCKREPETAG
1070
     1
1071
      143
1005
1219E4
  0
LINE
  5
1219E5
  8
CENTER
 10
4000.0
 20
-434.99999999999949
 30
0.0
 11
4000.0
 21
-659.99999999999955
 31
0.0
1001
ACDBBLOCKREPETAG
1070
     1
1071
        0
1005
1219E5
  0
LINE
  5
1219E6
  8
OBJECT
 10
3925.0
 20
-523.99999999999955
 30
0.0
 11
3925.0
 21
-647.99999999999955
 31
0.0
1001
ACDBBLOCKREPETAG
1070
     1
1071
        1
1005
1219E6
  0
LINE
  5
1219E7
  8
OBJECT
 10
3920.0
 20
-647.99999999999955
 30
0.0
 11
4080.0
 21
-647.99999999999955
 31
0.0
1001
ACDBBLOCKREPETAG
1070
     1
1071
        2
1005
1219E7
  0
LINE
  5
1219E8
  8
OBJECT
 10
4080.0
 20
-523.99999999999955
 30
0.0
 11
3925.0
 21
-523.99999999999955
 31
0.0
1001
ACDBBLOCKREPETAG
1070
     1
1071
        3
1005
1219E8
  0
LINE
  5
1219E9
  8
OBJECT
 10
3920.0
 20
-647.99999999999955
 30
0.0
 11
3920.0
 21
-659.99999999999955
 31
0.0
1001
ACDBBLOCKREPETAG
1070
     1
1071
        4
1005
1219E9
  0
LINE
  5
1219EA
  8
OBJECT
 10
3920.0
 20
-659.99999999999955
 30
0.0
 11
4080.0
 21
-659.99999999999955
 31
0.0
1001
ACDBBLOCKREPETAG
1070
     1
1071
        5
1005
1219EA
  0
LINE
  5
1219EB
  8
OBJECT
 10
4080.0
 20
-659.99999999999955
 30
0.0
 11
4080.0
 21
-647.99999999999955
 31
0.0
1001
ACDBBLOCKREPETAG
1070
     1
1071
        6
1005
1219EB
  0
ARC
  5
1219EC
  8
OBJECT
 10
4200.6872746716726
 20
-639.4080994101073
 30
0.0
 40
170.6350503965856
 50
137.44134459184301
 51
149.91949581337221
1001
ACDBBLOCKREPETAG
1070
     1
1071
       15
1005
1219EC
  0
ARC
  5
1219ED
  8
OBJECT
 10
4118.8455987040506
 20
-595.88272669536457
 30
0.0
 40
78.072222021763665
 50
147.4551531038623
 51
164.66365997719231
1001
ACDBBLOCKREPETAG
1070
     1
1071
       16
1005
1219ED
  0
ARC
  5
1219EE
  8
OBJECT
 10
4085.7554349608722
 20
-585.99999999999955
 30
0.0
 40
43.55353926885617
 50
165.68845230068339
 51
194.31154769931649
1001
ACDBBLOCKREPETAG
1070
     1
1071
       17
1005
1219EE
  0
ARC
  5
1219EF
  8
OBJECT
 10
4200.6872746716726
 20
-532.59190058989157
 30
0.0
 40
170.6350503965856
 50
210.08050418662771
 51
222.55865540815699
1001
ACDBBLOCKREPETAG
1070
     1
1071
       18
1005
1219EF
  0
ARC
  5
1219F0
  8
OBJECT
 10
4118.8455987040506
 20
-576.11727330463452
 30
0.0
 40
78.072222021763665
 50
195.33634002280749
 51
212.5448468961377
1001
ACDBBLOCKREPETAG
1070
     1
1071
       19
1005
1219F0
  0
LINE
  5
1219F1
  8
HIDDEN
 10
4052.5
 20
-449.99999999999937
 30
0.0
 11
4052.5
 21
-523.99999999999955
 31
0.0
1001
ACDBBLOCKREPETAG
1070
     1
1071
      180
1005
1219F1
  0
LINE
  5
1219F2
  8
HIDDEN
 10
3947.5
 20
-449.99999999999937
 30
0.0
 11
3947.5
 21
-523.99999999999955
 31
0.0
1001
ACDBBLOCKREPETAG
1070
     1
1071
      181
1005
1219F2
  0
POINT
  5
1219F3
  8
DOTS
 10
4000.0
 20
-644.99999999999955
 30
0.0
1001
ACDBBLOCKREPETAG
1070
     1
1071
      191
1005
1219F3
  0
ARC
  5
1219F4
  8
OBJECT
 10
4000.0
 20
-199.99999999999909
 30
0.0
 40
50.0
 50
298.81994300000417
 51
228.52376955964741
1001
ACDBBLOCKREPETAG
1070
     1
1071
      185
1005
1219F4
  0
INSERT
  5
1219F5
  8
SLIM
  6
CONTINUOUS
  2
*X18
 10
0.0
 20
0.0
 30
0.0
1001
GRADIENTCOLOR1ACI
1070
     5
1001
GRADIENTCOLOR2ACI
1070
     2
1001
ACDBBLOCKREPETAG
1070
     1
1071
      410
1005
1219F5
1001
ACAD
1000
HATCH
1002
{
1070
    19
1000
EARTH
1040
1.0
1040
0.7853981633974483
1000
R14_HATCH_DATA
1000
1219F5
1011
1.0
1021
0.0
1031
0.0
1021
0.0
1031
0.0
1011
0.0
1021
0.0
1031
0.0
1021
1.0
1031
0.0
1011
0.0
1021
0.0
1031
0.0
1021
0.0
1031
1.0
1040
0.0
1010
0.0
1020
0.0
1030
1.0
1000
EARTH
1070
     0
1070
     0
1071
        4
1071
        7
1070
     1
1070
     1
1071
        4
1040
4000.0
1040
-124.9999999999991
1040
0.0
1040
4000.0
1040
-114.9999999999991
1040
0.4142135623730951
1040
3915.0
1040
-199.99999999999909
1040
0.0
1040
3925.0
1040
-199.99999999999909
1040
-0.4142135623730951
1071
        0
1071
        7
1070
     1
1070
     1
1071
        4
1040
4000.0
1040
-114.9999999999991
1040
0.0
1040
4000.0
1040
-124.9999999999991
1040
-0.1505314338169883
1040
4042.2018956920169
1040
-137.99999999999909
1040
0.0
1040
4058.1463670404269
1040
-137.99999999999909
1040
0.1905924244794523
1071
        0
1071
        7
1070
     1
1070
     1
1071
        4
1040
3925.0
1040
-199.99999999999909
1040
0.0
1040
3915.0
1040
-199.99999999999909
1040
0.4142135623730951
1040
4000.0
1040
-284.99999999999898
1040
0.0
1040
4000.0
1040
-274.99999999999909
1040
-0.4142135623730951
1071
        0
1071
        7
1070
     1
1070
     1
1071
        4
1040
4058.1463670404269
1040
-261.99999999999909
1040
0.0
1040
4042.2018956920169
1040
-261.99999999999909
1040
-0.1505314338169883
1040
4000.0
1040
-274.99999999999909
1040
0.0
1040
4000.0
1040
-284.99999999999898
1040
0.1905924244794523
1071
        0
1070
     0
1070
     1
1040
0.7853981633974483
1040
1.0
1070
     0
1070
     6
1040
0.7853981633974483
1040
4000.0
1040
-199.99999999999909
1040
0.0000000000000009
1040
8.9802561210691536
1070
     2
1040
6.3499999999999979
1040
-6.3499999999999979
1040
0.7853981633974483
1040
3998.3162019772999
1040
-198.3162019772985
1040
0.0000000000000009
1040
8.9802561210691536
1070
     2
1040
6.3499999999999979
1040
-6.3499999999999979
1040
0.7853981633974483
1040
3996.6324039545989
1040
-196.63240395459809
1040
0.0000000000000009
1040
8.9802561210691536
1070
     2
1040
6.3499999999999979
1040
-6.3499999999999979
1040
2.3561944901923431
1040
3996.6324039545989
1040
-195.5098719394644
1040
-8.9802561210691536
1040
0.0000000000000009
1070
     2
1040
6.3499999999999979
1040
-6.3499999999999979
1040
2.3561944901923431
1040
3998.3162019772999
1040
-193.82607391676399
1040
-8.9802561210691536
1040
0.0000000000000009
1070
     2
1040
6.3499999999999979
1040
-6.3499999999999979
1040
2.3561944901923431
1040
4000.0
1040
-192.1422758940636
1040
-8.9802561210691536
1040
0.0000000000000009
1070
     2
1040
6.3499999999999979
1040
-6.3499999999999979
1040
0.3053229869521416
1071
        4
1040
3959.5892010489192
1040
-130.8712738544678
1040
0.0
1040
4014.281180558874
1040
-123.8488453063099
1040
0.0
1040
3923.229726966516
1040
-221.5522009330717
1040
0.0
1040
4010.920221300692
1040
-281.0901840473847
1040
0.0
1002
}
  0
LINE
  5
1219F6
  8
CENTER
 10
4080.0
 20
-199.99999999999909
 30
0.0
 11
3900.0
 21
-199.99999999999909
 31
0.0
1001
ACDBBLOCKREPETAG
1070
     1
1071
      187
1005
1219F6
  0
LINE
  5
1219F7
  8
CENTER
 10
4000.0
 20
-299.99999999999898
 30
0.0
 11
4000.0
 21
-99.999999999999091
 31
0.0
1001
ACDBBLOCKREPETAG
1070
     1
1071
      188
1005
1219F7
  0
LINE
  5
1219F8
  8
OBJECT
 10
4042.2018956920169
 20
-137.99999999999909
 30
0.0
 11
4080.0
 21
-137.99999999999909
 31
0.0
1001
ACDBBLOCKREPETAG
1070
     1
1071
      192
1005
1219F8
  0
LINE
  5
1219F9
  8
OBJECT
 10
4042.2018956920169
 20
-261.99999999999909
 30
0.0
 11
4080.0
 21
-261.99999999999909
 31
0.0
1001
ACDBBLOCKREPETAG
1070
     1
1071
      193
1005
1219F9
  0
ARC
  5
1219FA
  8
OBJECT
 10
4000.0
 20
-199.99999999999909
 30
0.0
 40
85.0
 50
46.837102859834147
 51
313.16289714016602
1001
ACDBBLOCKREPETAG
1070
     1
1071
      202
1005
1219FA
  0
CIRCLE
  5
1219FB
  8
OBJECT
 10
4000.0
 20
-199.99999999999909
 30
0.0
 40
75.0
1001
ACDBBLOCKREPETAG
1070
     1
1071
      372
1005
1219FB
  0
CIRCLE
  5
1219FC
  8
OBJECT
 10
4000.0
 20
-199.99999999999909
 30
0.0
 40
52.5
1001
ACDBBLOCKREPETAG
1070
     1
1071
      373
1005
1219FC
  0
CIRCLE
  5
1219FD
  8
OBJECT
 10
4000.0
 20
-199.99999999999909
 30
0.0
 40
57.0
1001
ACDBBLOCKREPETAG
1070
     1
1071
      374
1005
1219FD
  0
LINE
  5
1219FE
  8
OBJECT
 10
3969.8635289348599
 20
-242.98887195239979
 30
0.0
 11
3979.8564918232369
 21
-222.48688253356801
 31
0.0
1001
ACDBBLOCKREPETAG
1070
     1
1071
      402
1005
1219FE
  0
LINE
  5
1219FF
  8
OBJECT
 10
3965.7499660391568
 20
-239.7892595266741
 30
0.0
 11
3973.9071022665089
 21
-223.05373004430751
 31
0.0
1001
ACDBBLOCKREPETAG
1070
     1
1071
      403
1005
1219FF
  0
LINE
  5
121A00
  8
OBJECT
 10
4024.102933093302
 20
-243.80694712371681
 30
0.0
 11
4020.6596569999951
 21
-232.55462199999889
 31
0.0
1001
ACDBBLOCKREPETAG
1070
     1
1071
      404
1005
121A00
  0
ARC
  5
121A01
  8
OBJECT
 10
3976.579695307315
 20
-207.1289369828437
 30
0.0
 40
60.031113246032611
 50
316.41744226774563
 51
322.33936106091278
1001
ACDBBLOCKREPETAG
1070
     1
1071
      405
1005
121A01
  0
LINE
  5
121A02
  8
OBJECT
 10
3986.7927499013749
 20
-218.22553374208019
 30
0.0
 11
4020.6596569999951
 21
-232.5546219999969
 31
0.0
1001
ACDBBLOCKREPETAG
1070
     1
1071
      406
1005
121A02
  0
ARC
  5
121A03
  8
OBJECT
 10
3982.896169761902
 20
-227.4351299990567
 30
0.0
 40
10.0
 50
67.066778292911366
 51
154.0147343702935
1001
ACDBBLOCKREPETAG
1070
     1
1071
      407
1005
121A03
  0
ARC
  5
121A04
  8
OBJECT
 10
3986.1488390381278
 20
-225.55386256729159
 30
0.0
 40
7.0
 50
67.066778292911366
 51
154.01473377497121
1001
ACDBBLOCKREPETAG
1070
     1
1071
      408
1005
121A04
  0
POINT
  5
121A05
  8
DOTS
 10
4000.0
 20
-199.99999999999909
 30
0.0
1001
ACDBBLOCKREPETAG
1070
     1
1071
      413
1005
121A05
  0
LINE
  5
121A06
  8
CENTER
 10
4577.0
 20
-586.0
 30
0.0
 11
4423.0
 21
-586.0
 31
0.0
1001
ACDBBLOCKREPETAG
1070
     1
1071
       17
1005
121A06
  0
CIRCLE
  5
121A07
  8
OBJECT
 10
4500.0
 20
-586.0
 30
0.0
 40
41.5
1001
ACDBBLOCKREPETAG
1070
     1
1071
       19
1005
121A07
  0
CIRCLE
  5
121A08
  8
OBJECT
 10
4500.0
 20
-586.0
 30
0.0
 40
54.0
1001
ACDBBLOCKREPETAG
1070
     1
1071
       20
1005
121A08
  0
ARC
  5
121A09
  8
OBJECT
 10
4500.0
 20
-586.0
 30
0.0
 40
62.0
 50
287.89655112920718
 51
252.10344887079279
1001
ACDBBLOCKREPETAG
1070
     1
1071
       21
1005
121A09
  0
LINE
  5
121A0A
  8
OBJECT
 10
4480.9474411167421
 20
-645.0
 30
0.0
 11
4519.052558883257
 21
-645.0
 31
0.0
1001
ACDBBLOCKREPETAG
1070
     1
1071
       22
1005
121A0A
  0
LINE
  5
121A0B
  8
OBJECT
 10
4133.0
 20
-524.0
 30
0.0
 11
4140.0
 21
-524.0
 31
0.0
1001
ACDBBLOCKREPETAG
1070
     1
1071
       45
1005
121A0B
  0
LINE
  5
121A0C
  8
OBJECT
 10
4140.0
 20
-524.0
 30
0.0
 11
4140.0
 21
-645.0
 31
0.0
1001
ACDBBLOCKREPETAG
1070
     1
1071
       46
1005
121A0C
  0
LINE
  5
121A0D
  8
OBJECT
 10
4133.0
 20
-645.0
 30
0.0
 11
4133.0
 21
-524.0
 31
0.0
1001
ACDBBLOCKREPETAG
1070
     1
1071
       47
1005
121A0D
  0
LINE
  5
121A0E
  8
CENTER
 10
4155.0
 20
-586.0
 30
0.0
 11
4071.0
 21
-586.0
 31
0.0
1001
ACDBBLOCKREPETAG
1070
     1
1071
       48
1005
121A0E
  0
LINE
  5
121A0F
  8
OBJECT
 10
4133.0
 20
-527.0
 30
0.0
 11
4097.0
 21
-527.0
 31
0.0
1001
ACDBBLOCKREPETAG
1070
     1
1071
       49
1005
121A0F
  0
LINE
  5
121A10
  8
OBJECT
 10
4097.0
 20
-527.0
 30
0.0
 11
4097.0
 21
-645.0
 31
0.0
1001
ACDBBLOCKREPETAG
1070
     1
1071
       50
1005
121A10
  0
LINE
  5
121A11
  8
OBJECT
 10
4097.0
 20
-645.0
 30
0.0
 11
4140.0
 21
-645.0
 31
0.0
1001
ACDBBLOCKREPETAG
1070
     1
1071
       51
1005
121A11
  0
LINE
  5
121A12
  8
OBJECT
 10
4093.0
 20
-531.5
 30
0.0
 11
4086.0
 21
-531.5
 31
0.0
1001
ACDBBLOCKREPETAG
1070
     1
1071
       52
1005
121A12
  0
LINE
  5
121A13
  8
OBJECT
 10
4086.0
 20
-640.5
 30
0.0
 11
4093.0
 21
-640.5
 31
0.0
1001
ACDBBLOCKREPETAG
1070
     1
1071
       53
1005
121A13
  0
LINE
  5
121A14
  8
OBJECT
 10
4093.0
 20
-640.5
 30
0.0
 11
4093.0
 21
-531.5
 31
0.0
1001
ACDBBLOCKREPETAG
1070
     1
1071
       54
1005
121A14
  0
LINE
  5
121A15
  8
OBJECT
 10
4097.0
 20
-527.0
 30
0.0
 11
4093.0
 21
-531.5
 31
0.0
1001
ACDBBLOCKREPETAG
1070
     1
1071
       55
1005
121A15
  0
LINE
  5
121A16
  8
OBJECT
 10
4097.0
 20
-645.0
 30
0.0
 11
4093.0
 21
-640.5
 31
0.0
1001
ACDBBLOCKREPETAG
1070
     1
1071
       56
1005
121A16
  0
LINE
  5
121A17
  8
OBJECT
 10
4083.0
 20
-524.0
 30
0.0
 11
4080.0
 21
-524.0
 31
0.0
1001
ACDBBLOCKREPETAG
1070
     1
1071
       57
1005
121A17
  0
ARC
  5
121A18
  8
OBJECT
 10
4083.0
 20
-527.0
 30
0.0
 40
3.0
 50
0.0
 51
90.0
1001
ACDBBLOCKREPETAG
1070
     1
1071
       58
1005
121A18
  0
LINE
  5
121A19
  8
OBJECT
 10
4080.0
 20
-648.0
 30
0.0
 11
4083.0
 21
-648.0
 31
0.0
1001
ACDBBLOCKREPETAG
1070
     1
1071
       59
1005
121A19
  0
ARC
  5
121A1A
  8
OBJECT
 10
4083.0
 20
-645.0
 30
0.0
 40
3.0
 50
270.0
 51
0.0
1001
ACDBBLOCKREPETAG
1070
     1
1071
       60
1005
121A1A
  0
LINE
  5
121A1B
  8
OBJECT
 10
4086.0
 20
-645.0
 30
0.0
 11
4086.0
 21
-527.0
 31
0.0
1001
ACDBBLOCKREPETAG
1070
     1
1071
       61
1005
121A1B
  0
LINE
  5
121A1C
  8
HIDDEN
 10
4088.0
 20
-541.5
 30
0.0
 11
4088.0
 21
-630.49999999999977
 31
0.0
1001
ACDBBLOCKREPETAG
1070
     1
1071
       63
1005
121A1C
  0
LINE
  5
121A1D
  8
OBJECT
 10
4133.0
 20
-137.99999999999909
 30
0.0
 11
4140.0
 21
-137.99999999999909
 31
0.0
1001
ACDBBLOCKREPETAG
1070
     1
1071
       47
1005
121A1D
  0
LINE
  5
121A1E
  8
OBJECT
 10
4140.0
 20
-137.99999999999909
 30
0.0
 11
4140.0
 21
-261.99999999999909
 31
0.0
1001
ACDBBLOCKREPETAG
1070
     1
1071
       48
1005
121A1E
  0
LINE
  5
121A1F
  8
OBJECT
 10
4140.0
 20
-261.99999999999909
 30
0.0
 11
4133.0
 21
-261.99999999999909
 31
0.0
1001
ACDBBLOCKREPETAG
1070
     1
1071
       49
1005
121A1F
  0
LINE
  5
121A20
  8
OBJECT
 10
4133.0
 20
-261.99999999999909
 30
0.0
 11
4133.0
 21
-137.99999999999909
 31
0.0
1001
ACDBBLOCKREPETAG
1070
     1
1071
       50
1005
121A20
  0
LINE
  5
121A21
  8
CENTER
 10
4155.0
 20
-199.99999999999909
 30
0.0
 11
4080.0
 21
-199.99999999999909
 31
0.0
1001
ACDBBLOCKREPETAG
1070
     1
1071
       51
1005
121A21
  0
LINE
  5
121A22
  8
OBJECT
 10
4133.0
 20
-140.99999999999909
 30
0.0
 11
4097.0
 21
-140.99999999999909
 31
0.0
1001
ACDBBLOCKREPETAG
1070
     1
1071
       52
1005
121A22
  0
LINE
  5
121A23
  8
OBJECT
 10
4097.0
 20
-140.99999999999909
 30
0.0
 11
4097.0
 21
-258.99999999999909
 31
0.0
1001
ACDBBLOCKREPETAG
1070
     1
1071
       53
1005
121A23
  0
LINE
  5
121A24
  8
OBJECT
 10
4097.0
 20
-258.99999999999909
 30
0.0
 11
4133.0
 21
-258.99999999999909
 31
0.0
1001
ACDBBLOCKREPETAG
1070
     1
1071
       54
1005
121A24
  0
LINE
  5
121A25
  8
OBJECT
 10
4093.0
 20
-145.49999999999909
 30
0.0
 11
4086.0
 21
-145.49999999999909
 31
0.0
1001
ACDBBLOCKREPETAG
1070
     1
1071
       55
1005
121A25
  0
LINE
  5
121A26
  8
OBJECT
 10
4086.0
 20
-254.49999999999909
 30
0.0
 11
4093.0
 21
-254.49999999999909
 31
0.0
1001
ACDBBLOCKREPETAG
1070
     1
1071
       56
1005
121A26
  0
LINE
  5
121A27
  8
OBJECT
 10
4093.0
 20
-254.49999999999909
 30
0.0
 11
4093.0
 21
-145.49999999999909
 31
0.0
1001
ACDBBLOCKREPETAG
1070
     1
1071
       57
1005
121A27
  0
LINE
  5
121A28
  8
OBJECT
 10
4097.0
 20
-140.99999999999909
 30
0.0
 11
4093.0
 21
-145.49999999999909
 31
0.0
1001
ACDBBLOCKREPETAG
1070
     1
1071
       58
1005
121A28
  0
LINE
  5
121A29
  8
OBJECT
 10
4097.0
 20
-258.99999999999909
 30
0.0
 11
4093.0
 21
-254.49999999999909
 31
0.0
1001
ACDBBLOCKREPETAG
1070
     1
1071
       59
1005
121A29
  0
LINE
  5
121A2A
  8
OBJECT
 10
4083.0
 20
-137.99999999999909
 30
0.0
 11
4080.0
 21
-137.99999999999909
 31
0.0
1001
ACDBBLOCKREPETAG
1070
     1
1071
       60
1005
121A2A
  0
ARC
  5
121A2B
  8
OBJECT
 10
4083.0
 20
-140.99999999999909
 30
0.0
 40
3.0
 50
0.0
 51
90.0
1001
ACDBBLOCKREPETAG
1070
     1
1071
       61
1005
121A2B
  0
LINE
  5
121A2C
  8
OBJECT
 10
4080.0
 20
-261.99999999999909
 30
0.0
 11
4083.0
 21
-261.99999999999909
 31
0.0
1001
ACDBBLOCKREPETAG
1070
     1
1071
       62
1005
121A2C
  0
ARC
  5
121A2D
  8
OBJECT
 10
4083.0
 20
-258.99999999999909
 30
0.0
 40
3.0
 50
270.0
 51
0.0
1001
ACDBBLOCKREPETAG
1070
     1
1071
       63
1005
121A2D
  0
LINE
  5
121A2E
  8
OBJECT
 10
4086.0
 20
-258.99999999999909
 30
0.0
 11
4086.0
 21
-140.99999999999909
 31
0.0
1001
ACDBBLOCKREPETAG
1070
     1
1071
       64
1005
121A2E
  0
LINE
  5
121A2F
  8
HIDDEN
 10
4088.0
 20
-155.49999999999909
 30
0.0
 11
4088.0
 21
-244.49999999999909
 31
0.0
1001
ACDBBLOCKREPETAG
1070
     1
1071
       65
1005
121A2F
  0
LINE
  5
121A30
  8
OBJECT
 10
2560.0
 20
-517.99999999999966
 30
0.0
 11
2440.0
 21
-517.99999999999966
 31
0.0
1001
ACDBBLOCKREPETAG
1070
     1
1071
      144
1005
121A30
  0
ARC
  5
121A31
  8
OBJECT
 10
2440.0
 20
-520.99999999999955
 30
0.0
 40
3.0
 50
90.0
 51
180.0
1001
ACDBBLOCKREPETAG
1070
     1
1071
      145
1005
121A31
  0
LINE
  5
121A32
  8
OBJECT
 10
2437.0
 20
-520.99999999999955
 30
0.0
 11
2437.0
 21
-523.99999999999955
 31
0.0
1001
ACDBBLOCKREPETAG
1070
     1
1071
      146
1005
121A32
  0
LINE
  5
121A33
  8
OBJECT
 10
2563.0
 20
-520.99999999999955
 30
0.0
 11
2563.0
 21
-523.99999999999955
 31
0.0
1001
ACDBBLOCKREPETAG
1070
     1
1071
      147
1005
121A33
  0
ARC
  5
121A34
  8
OBJECT
 10
2560.0
 20
-520.99999999999955
 30
0.0
 40
3.0
 50
0.0
 51
90.0
1001
ACDBBLOCKREPETAG
1070
     1
1071
      148
1005
121A34
  0
LINE
  5
121A35
  8
OBJECT
 10
2443.0
 20
-449.9999999999996
 30
0.0
 11
2443.0
 21
-517.99999999999966
 31
0.0
1001
ACDBBLOCKREPETAG
1070
     1
1071
      149
1005
121A35
  0
LINE
  5
121A36
  8
OBJECT
 10
2557.0
 20
-449.9999999999996
 30
0.0
 11
2443.0
 21
-449.9999999999996
 31
0.0
1001
ACDBBLOCKREPETAG
1070
     1
1071
      150
1005
121A36
  0
LINE
  5
121A37
  8
OBJECT
 10
2557.0
 20
-449.9999999999996
 30
0.0
 11
2557.0
 21
-517.99999999999966
 31
0.0
1001
ACDBBLOCKREPETAG
1070
     1
1071
      151
1005
121A37
  0
LINE
  5
121A38
  8
CENTER
 10
2500.0
 20
-434.9999999999996
 30
0.0
 11
2500.0
 21
-659.99999999999955
 31
0.0
1001
ACDBBLOCKREPETAG
1070
     1
1071
       20
1005
121A38
  0
LINE
  5
121A39
  8
OBJECT
 10
2425.0
 20
-523.99999999999955
 30
0.0
 11
2425.0
 21
-647.99999999999955
 31
0.0
1001
ACDBBLOCKREPETAG
1070
     1
1071
       21
1005
121A39
  0
LINE
  5
121A3A
  8
OBJECT
 10
2420.0
 20
-647.99999999999955
 30
0.0
 11
2580.0
 21
-647.99999999999955
 31
0.0
1001
ACDBBLOCKREPETAG
1070
     1
1071
       22
1005
121A3A
  0
LINE
  5
121A3B
  8
OBJECT
 10
2574.9999999997131
 20
-523.99999999999955
 30
0.0
 11
2425.0
 21
-523.99999999999955
 31
0.0
1001
ACDBBLOCKREPETAG
1070
     1
1071
       23
1005
121A3B
  0
LINE
  5
121A3C
  8
OBJECT
 10
2420.0
 20
-647.99999999999955
 30
0.0
 11
2420.0
 21
-659.99999999999955
 31
0.0
1001
ACDBBLOCKREPETAG
1070
     1
1071
       24
1005
121A3C
  0
LINE
  5
121A3D
  8
OBJECT
 10
2420.0
 20
-659.99999999999955
 30
0.0
 11
2580.0
 21
-659.99999999999955
 31
0.0
1001
ACDBBLOCKREPETAG
1070
     1
1071
       25
1005
121A3D
  0
LINE
  5
121A3E
  8
OBJECT
 10
2580.0
 20
-659.99999999999955
 30
0.0
 11
2580.0
 21
-647.99999999999955
 31
0.0
1001
ACDBBLOCKREPETAG
1070
     1
1071
       26
1005
121A3E
  0
LINE
  5
121A3F
  8
OBJECT
 10
2574.9999999997131
 20
-523.99999999999955
 30
0.0
 11
2575.0
 21
-647.99999999999955
 31
0.0
1001
ACDBBLOCKREPETAG
1070
     1
1071
       28
1005
121A3F
  0
LINE
  5
121A40
  8
HIDDEN
 10
2552.5
 20
-449.9999999999996
 30
0.0
 11
2552.5
 21
-523.99999999999955
 31
0.0
1001
ACDBBLOCKREPETAG
1070
     1
1071
      182
1005
121A40
  0
LINE
  5
121A41
  8
HIDDEN
 10
2447.5
 20
-449.9999999999996
 30
0.0
 11
2447.5
 21
-523.99999999999955
 31
0.0
1001
ACDBBLOCKREPETAG
1070
     1
1071
      183
1005
121A41
  0
POINT
  5
121A42
  8
DOTS
 10
2500.0
 20
-644.99999999999955
 30
0.0
1001
ACDBBLOCKREPETAG
1070
     1
1071
      190
1005
121A42
  0
LINE
  5
121A43
  8
OBJECT
 10
2060.0
 20
-517.99999999999966
 30
0.0
 11
1940.0
 21
-517.99999999999966
 31
0.0
1001
ACDBBLOCKREPETAG
1070
     1
1071
      136
1005
121A43
  0
ARC
  5
121A44
  8
OBJECT
 10
1940.0
 20
-520.99999999999955
 30
0.0
 40
3.0
 50
90.0
 51
180.0
1001
ACDBBLOCKREPETAG
1070
     1
1071
      137
1005
121A44
  0
LINE
  5
121A45
  8
OBJECT
 10
1937.0
 20
-520.99999999999955
 30
0.0
 11
1937.0
 21
-523.99999999999955
 31
0.0
1001
ACDBBLOCKREPETAG
1070
     1
1071
      138
1005
121A45
  0
LINE
  5
121A46
  8
OBJECT
 10
2063.0
 20
-520.99999999999955
 30
0.0
 11
2063.0
 21
-523.99999999999955
 31
0.0
1001
ACDBBLOCKREPETAG
1070
     1
1071
      139
1005
121A46
  0
ARC
  5
121A47
  8
OBJECT
 10
2060.0
 20
-520.99999999999955
 30
0.0
 40
3.0
 50
0.0
 51
90.0
1001
ACDBBLOCKREPETAG
1070
     1
1071
      140
1005
121A47
  0
LINE
  5
121A48
  8
OBJECT
 10
1943.0
 20
-449.99999999999937
 30
0.0
 11
1943.0
 21
-517.99999999999966
 31
0.0
1001
ACDBBLOCKREPETAG
1070
     1
1071
      141
1005
121A48
  0
LINE
  5
121A49
  8
OBJECT
 10
2057.0
 20
-449.99999999999937
 30
0.0
 11
1943.0
 21
-449.99999999999937
 31
0.0
1001
ACDBBLOCKREPETAG
1070
     1
1071
      142
1005
121A49
  0
LINE
  5
121A4A
  8
OBJECT
 10
2057.0
 20
-449.99999999999937
 30
0.0
 11
2057.0
 21
-517.99999999999966
 31
0.0
1001
ACDBBLOCKREPETAG
1070
     1
1071
      143
1005
121A4A
  0
LINE
  5
121A4B
  8
CENTER
 10
2000.0
 20
-434.99999999999949
 30
0.0
 11
2000.0
 21
-659.99999999999955
 31
0.0
1001
ACDBBLOCKREPETAG
1070
     1
1071
        0
1005
121A4B
  0
LINE
  5
121A4C
  8
OBJECT
 10
1925.0
 20
-523.99999999999955
 30
0.0
 11
1925.0
 21
-647.99999999999955
 31
0.0
1001
ACDBBLOCKREPETAG
1070
     1
1071
        1
1005
121A4C
  0
LINE
  5
121A4D
  8
OBJECT
 10
1920.0
 20
-647.99999999999955
 30
0.0
 11
2080.0
 21
-647.99999999999955
 31
0.0
1001
ACDBBLOCKREPETAG
1070
     1
1071
        2
1005
121A4D
  0
LINE
  5
121A4E
  8
OBJECT
 10
2080.0
 20
-523.99999999999955
 30
0.0
 11
1925.0
 21
-523.99999999999955
 31
0.0
1001
ACDBBLOCKREPETAG
1070
     1
1071
        3
1005
121A4E
  0
LINE
  5
121A4F
  8
OBJECT
 10
1920.0
 20
-647.99999999999955
 30
0.0
 11
1920.0
 21
-659.99999999999955
 31
0.0
1001
ACDBBLOCKREPETAG
1070
     1
1071
        4
1005
121A4F
  0
LINE
  5
121A50
  8
OBJECT
 10
1920.0
 20
-659.99999999999955
 30
0.0
 11
2080.0
 21
-659.99999999999955
 31
0.0
1001
ACDBBLOCKREPETAG
1070
     1
1071
        5
1005
121A50
  0
LINE
  5
121A51
  8
OBJECT
 10
2080.0
 20
-659.99999999999955
 30
0.0
 11
2080.0
 21
-647.99999999999955
 31
0.0
1001
ACDBBLOCKREPETAG
1070
     1
1071
        6
1005
121A51
  0
ARC
  5
121A52
  8
OBJECT
 10
2200.6872746716731
 20
-639.4080994101073
 30
0.0
 40
170.6350503965856
 50
137.44134459184301
 51
149.91949581336559
1001
ACDBBLOCKREPETAG
1070
     1
1071
       15
1005
121A52
  0
ARC
  5
121A53
  8
OBJECT
 10
2118.8455987040511
 20
-595.88272669536457
 30
0.0
 40
78.072222021763665
 50
147.4551531038623
 51
164.66365997719581
1001
ACDBBLOCKREPETAG
1070
     1
1071
       16
1005
121A53
  0
ARC
  5
121A54
  8
OBJECT
 10
2085.7554349608731
 20
-585.99999999999955
 30
0.0
 40
43.55353926885617
 50
165.6884523006803
 51
194.3115476993197
1001
ACDBBLOCKREPETAG
1070
     1
1071
       17
1005
121A54
  0
ARC
  5
121A55
  8
OBJECT
 10
2200.6872746716731
 20
-532.59190058989157
 30
0.0
 40
170.6350503965856
 50
210.0805041866343
 51
222.55865540815699
1001
ACDBBLOCKREPETAG
1070
     1
1071
       18
1005
121A55
  0
ARC
  5
121A56
  8
OBJECT
 10
2118.8455987040511
 20
-576.11727330463452
 30
0.0
 40
78.072222021763665
 50
195.33634002280411
 51
212.5448468961377
1001
ACDBBLOCKREPETAG
1070
     1
1071
       19
1005
121A56
  0
LINE
  5
121A57
  8
HIDDEN
 10
2052.5
 20
-449.99999999999937
 30
0.0
 11
2052.5
 21
-523.99999999999955
 31
0.0
1001
ACDBBLOCKREPETAG
1070
     1
1071
      180
1005
121A57
  0
LINE
  5
121A58
  8
HIDDEN
 10
1947.5
 20
-449.99999999999937
 30
0.0
 11
1947.5
 21
-523.99999999999955
 31
0.0
1001
ACDBBLOCKREPETAG
1070
     1
1071
      181
1005
121A58
  0
POINT
  5
121A59
  8
DOTS
 10
2000.0
 20
-644.99999999999955
 30
0.0
1001
ACDBBLOCKREPETAG
1070
     1
1071
      191
1005
121A59
  0
CIRCLE
  5
121A5A
  8
OBJECT
 10
2000.0
 20
-199.99999999999909
 30
0.0
 40
75.0
1001
ACDBBLOCKREPETAG
1070
     1
1071
      363
1005
121A5A
  0
CIRCLE
  5
121A5B
  8
OBJECT
 10
2000.0
 20
-199.99999999999909
 30
0.0
 40
52.5
1001
ACDBBLOCKREPETAG
1070
     1
1071
      364
1005
121A5B
  0
CIRCLE
  5
121A5C
  8
OBJECT
 10
2000.0
 20
-199.99999999999909
 30
0.0
 40
57.0
1001
ACDBBLOCKREPETAG
1070
     1
1071
      365
1005
121A5C
  0
LINE
  5
121A5D
  8
OBJECT
 10
1969.8635289348581
 20
-242.98887195239979
 30
0.0
 11
1979.856491823236
 21
-222.48688253356801
 31
0.0
1001
ACDBBLOCKREPETAG
1070
     1
1071
      381
1005
121A5D
  0
LINE
  5
121A5E
  8
OBJECT
 10
1965.749966039157
 20
-239.7892595266741
 30
0.0
 11
1973.907102266508
 21
-223.05373004430751
 31
0.0
1001
ACDBBLOCKREPETAG
1070
     1
1071
      382
1005
121A5E
  0
LINE
  5
121A5F
  8
OBJECT
 10
2024.102933093302
 20
-243.80694712371681
 30
0.0
 11
2020.659656999997
 21
-232.55462199999889
 31
0.0
1001
ACDBBLOCKREPETAG
1070
     1
1071
      383
1005
121A5F
  0
ARC
  5
121A60
  8
OBJECT
 10
1976.579695307315
 20
-207.1289369828437
 30
0.0
 40
60.031113246032611
 50
316.4174422677545
 51
322.33936106091278
1001
ACDBBLOCKREPETAG
1070
     1
1071
      384
1005
121A60
  0
LINE
  5
121A61
  8
OBJECT
 10
1986.7927499013749
 20
-218.22553374208019
 30
0.0
 11
2020.659656999997
 21
-232.5546219999969
 31
0.0
1001
ACDBBLOCKREPETAG
1070
     1
1071
      385
1005
121A61
  0
ARC
  5
121A62
  8
OBJECT
 10
1982.8961697619
 20
-227.4351299990567
 30
0.0
 40
10.0
 50
67.066778292923374
 51
154.0147343702935
1001
ACDBBLOCKREPETAG
1070
     1
1071
      386
1005
121A62
  0
ARC
  5
121A63
  8
OBJECT
 10
1986.1488390381271
 20
-225.55386256729159
 30
0.0
 40
7.0
 50
67.066778292923374
 51
154.01473377497121
1001
ACDBBLOCKREPETAG
1070
     1
1071
      387
1005
121A63
  0
ARC
  5
121A64
  8
OBJECT
 10
2000.0
 20
-199.99999999999909
 30
0.0
 40
50.0
 50
298.81994300000417
 51
228.52376955967449
1001
ACDBBLOCKREPETAG
1070
     1
1071
        7
1005
121A64
  0
LINE
  5
121A65
  8
CENTER
 10
2080.0
 20
-199.99999999999909
 30
0.0
 11
1905.0
 21
-199.99999999999909
 31
0.0
1001
ACDBBLOCKREPETAG
1070
     1
1071
       14
1005
121A65
  0
LINE
  5
121A66
  8
CENTER
 10
2000.0
 20
-294.99999999999898
 30
0.0
 11
2000.0
 21
-104.9999999999991
 31
0.0
1001
ACDBBLOCKREPETAG
1070
     1
1071
       15
1005
121A66
  0
ARC
  5
121A67
  8
OBJECT
 10
2000.0
 20
-199.99999999999909
 30
0.0
 40
80.0
 50
50.805032573864182
 51
309.1949674261358
1001
ACDBBLOCKREPETAG
1070
     1
1071
       18
1005
121A67
  0
LINE
  5
121A68
  8
OBJECT
 10
2042.2018956920181
 20
-137.99999999999909
 30
0.0
 11
2080.0
 21
-137.99999999999909
 31
0.0
1001
ACDBBLOCKREPETAG
1070
     1
1071
       19
1005
121A68
  0
LINE
  5
121A69
  8
OBJECT
 10
2042.2018956920181
 20
-261.99999999999909
 30
0.0
 11
2080.0
 21
-261.99999999999909
 31
0.0
1001
ACDBBLOCKREPETAG
1070
     1
1071
       20
1005
121A69
  0
POINT
  5
121A6A
  8
DOTS
 10
2000.0
 20
-199.99999999999909
 30
0.0
1001
ACDBBLOCKREPETAG
1070
     1
1071
      417
1005
121A6A
  0
ARC
  5
121A6B
  8
OBJECT
 10
539.99999999987813
 20
-695.99999999984175
 30
0.0
 40
50.0
 50
28.81994300000018
 51
318.52376955967549
1001
ACDBBLOCKREPETAG
1070
     1
1071
        7
1005
121A6B
  0
ARC
  5
121A6C
  8
OBJECT
 10
539.99999999987813
 20
-695.99999999984175
 30
0.0
 40
80.0
 50
140.80503257386621
 51
39.194967426133744
1001
ACDBBLOCKREPETAG
1070
     1
1071
       18
1005
121A6C
  0
LINE
  5
121A6D
  8
OBJECT
 10
477.99999999987801
 20
-653.79810430782345
 30
0.0
 11
477.99999999987801
 21
-615.99999999984175
 31
0.0
1001
ACDBBLOCKREPETAG
1070
     1
1071
       19
1005
121A6D
  0
LINE
  5
121A6E
  8
OBJECT
 10
601.99999999987801
 20
-653.79810430782345
 30
0.0
 11
601.99999999987801
 21
-615.99999999984175
 31
0.0
1001
ACDBBLOCKREPETAG
1070
     1
1071
       20
1005
121A6E
  0
CIRCLE
  5
121A6F
  8
OBJECT
 10
539.99999999987813
 20
-695.99999999984175
 30
0.0
 40
75.0
1001
ACDBBLOCKREPETAG
1070
     1
1071
      363
1005
121A6F
  0
CIRCLE
  5
121A70
  8
OBJECT
 10
539.99999999987813
 20
-695.99999999984175
 30
0.0
 40
52.5
1001
ACDBBLOCKREPETAG
1070
     1
1071
      364
1005
121A70
  0
CIRCLE
  5
121A71
  8
OBJECT
 10
539.99999999987813
 20
-695.99999999984175
 30
0.0
 40
57.0
1001
ACDBBLOCKREPETAG
1070
     1
1071
      365
1005
121A71
  0
LINE
  5
121A72
  8
OBJECT
 10
582.98887195227871
 20
-726.13647106498286
 30
0.0
 11
562.48688253344699
 21
-716.14350817660488
 31
0.0
1001
ACDBBLOCKREPETAG
1070
     1
1071
      381
1005
121A72
  0
LINE
  5
121A73
  8
OBJECT
 10
579.78925952655322
 20
-730.2500339606845
 30
0.0
 11
563.05373004418652
 21
-722.0928977333333
 31
0.0
1001
ACDBBLOCKREPETAG
1070
     1
1071
      382
1005
121A73
  0
LINE
  5
121A74
  8
OBJECT
 10
583.80694712359593
 20
-671.89706690653998
 30
0.0
 11
572.55462199987755
 21
-675.34034299984523
 31
0.0
1001
ACDBBLOCKREPETAG
1070
     1
1071
      383
1005
121A74
  0
ARC
  5
121A75
  8
OBJECT
 10
547.12893698272273
 20
-719.42030469252666
 30
0.0
 40
60.031113246032611
 50
46.417442267748868
 51
52.339361060911429
1001
ACDBBLOCKREPETAG
1070
     1
1071
      384
1005
121A75
  0
LINE
  5
121A76
  8
OBJECT
 10
558.225533741959
 20
-709.20725009846683
 30
0.0
 11
572.55462199987608
 21
-675.34034299984523
 31
0.0
1001
ACDBBLOCKREPETAG
1070
     1
1071
      385
1005
121A76
  0
ARC
  5
121A77
  8
OBJECT
 10
567.43512999893562
 20
-713.10383023793997
 30
0.0
 40
10.0
 50
157.06677829292209
 51
244.01473437029199
1001
ACDBBLOCKREPETAG
1070
     1
1071
      386
1005
121A77
  0
ARC
  5
121A78
  8
OBJECT
 10
565.55386256717065
 20
-709.85116096171419
 30
0.0
 40
7.0
 50
157.06677829292209
 51
244.01473377497109
1001
ACDBBLOCKREPETAG
1070
     1
1071
      387
1005
121A78
  0
POINT
  5
121A79
  8
DOTS
 10
539.99999999987813
 20
-695.99999999984175
 30
0.0
1001
ACDBBLOCKREPETAG
1070
     1
1071
      410
1005
121A79
  0
ARC
  5
121A7A
  8
OBJECT
 10
179.99999999999989
 20
-695.99999999984175
 30
0.0
 40
50.0
 50
28.81994299999862
 51
318.52376955967441
1001
ACDBBLOCKREPETAG
1070
     1
1071
        7
1005
121A7A
  0
ARC
  5
121A7B
  8
OBJECT
 10
179.99999999999989
 20
-695.99999999984175
 30
0.0
 40
80.0
 50
140.8050325738642
 51
39.194967426135797
1001
ACDBBLOCKREPETAG
1070
     1
1071
       18
1005
121A7B
  0
LINE
  5
121A7C
  8
OBJECT
 10
117.9999999999999
 20
-653.79810430782345
 30
0.0
 11
117.9999999999999
 21
-615.99999999984175
 31
0.0
1001
ACDBBLOCKREPETAG
1070
     1
1071
       19
1005
121A7C
  0
LINE
  5
121A7D
  8
OBJECT
 10
241.99999999999989
 20
-653.79810430782345
 30
0.0
 11
241.99999999999989
 21
-615.99999999984175
 31
0.0
1001
ACDBBLOCKREPETAG
1070
     1
1071
       20
1005
121A7D
  0
CIRCLE
  5
121A7E
  8
OBJECT
 10
179.99999999999989
 20
-695.99999999984175
 30
0.0
 40
75.0
1001
ACDBBLOCKREPETAG
1070
     1
1071
      363
1005
121A7E
  0
CIRCLE
  5
121A7F
  8
OBJECT
 10
179.99999999999989
 20
-695.99999999984175
 30
0.0
 40
52.5
1001
ACDBBLOCKREPETAG
1070
     1
1071
      364
1005
121A7F
  0
CIRCLE
  5
121A80
  8
OBJECT
 10
179.99999999999989
 20
-695.99999999984175
 30
0.0
 40
57.0
1001
ACDBBLOCKREPETAG
1070
     1
1071
      365
1005
121A80
  0
LINE
  5
121A81
  8
OBJECT
 10
222.98887195240059
 20
-726.13647106498286
 30
0.0
 11
202.4868825335688
 21
-716.14350817660488
 31
0.0
1001
ACDBBLOCKREPETAG
1070
     1
1071
      381
1005
121A81
  0
LINE
  5
121A82
  8
OBJECT
 10
219.78925952667501
 20
-730.2500339606845
 30
0.0
 11
203.0537300443084
 21
-722.0928977333333
 31
0.0
1001
ACDBBLOCKREPETAG
1070
     1
1071
      382
1005
121A82
  0
LINE
  5
121A83
  8
OBJECT
 10
223.80694712371761
 20
-671.89706690653998
 30
0.0
 11
212.5546219999996
 21
-675.34034299984523
 31
0.0
1001
ACDBBLOCKREPETAG
1070
     1
1071
      383
1005
121A83
  0
ARC
  5
121A84
  8
OBJECT
 10
187.12893698284449
 20
-719.42030469252666
 30
0.0
 40
60.031113246032611
 50
46.41744226775004
 51
52.339361060912744
1001
ACDBBLOCKREPETAG
1070
     1
1071
      384
1005
121A84
  0
LINE
  5
121A85
  8
OBJECT
 10
198.22553374208101
 20
-709.20725009846683
 30
0.0
 11
212.55462199999781
 21
-675.34034299984523
 31
0.0
1001
ACDBBLOCKREPETAG
1070
     1
1071
      385
1005
121A85
  0
ARC
  5
121A86
  8
OBJECT
 10
207.43512999905749
 20
-713.10383023793997
 30
0.0
 40
10.0
 50
157.0667782929232
 51
244.0147343702935
1001
ACDBBLOCKREPETAG
1070
     1
1071
      386
1005
121A86
  0
ARC
  5
121A87
  8
OBJECT
 10
205.5538625672925
 20
-709.85116096171419
 30
0.0
 40
7.0
 50
157.0667782929232
 51
244.0147337749741
1001
ACDBBLOCKREPETAG
1070
     1
1071
      387
1005
121A87
  0
POINT
  5
121A88
  8
DOTS
 10
179.99999999999989
 20
-695.99999999984175
 30
0.0
1001
ACDBBLOCKREPETAG
1070
     1
1071
      410
1005
121A88
  0
ARC
  5
121A89
  8
OBJECT
 10
539.99999999987813
 20
-232.0
 30
0.0
 40
50.0
 50
28.81994300000018
 51
318.52376955967418
1001
ACDBBLOCKREPETAG
1070
     1
1071
        7
1005
121A89
  0
ARC
  5
121A8A
  8
OBJECT
 10
539.99999999987813
 20
-232.0
 30
0.0
 40
80.0
 50
140.80503257386741
 51
39.1949674261325
1001
ACDBBLOCKREPETAG
1070
     1
1071
       18
1005
121A8A
  0
LINE
  5
121A8B
  8
OBJECT
 10
477.99999999987801
 20
-189.79810430798159
 30
0.0
 11
477.99999999987801
 21
-152.0
 31
0.0
1001
ACDBBLOCKREPETAG
1070
     1
1071
       19
1005
121A8B
  0
LINE
  5
121A8C
  8
OBJECT
 10
601.99999999987801
 20
-189.79810430798159
 30
0.0
 11
601.99999999987801
 21
-152.0
 31
0.0
1001
ACDBBLOCKREPETAG
1070
     1
1071
       20
1005
121A8C
  0
CIRCLE
  5
121A8D
  8
OBJECT
 10
539.99999999987813
 20
-232.0
 30
0.0
 40
75.0
1001
ACDBBLOCKREPETAG
1070
     1
1071
      363
1005
121A8D
  0
CIRCLE
  5
121A8E
  8
OBJECT
 10
539.99999999987813
 20
-232.0
 30
0.0
 40
52.5
1001
ACDBBLOCKREPETAG
1070
     1
1071
      364
1005
121A8E
  0
CIRCLE
  5
121A8F
  8
OBJECT
 10
539.99999999987813
 20
-232.0
 30
0.0
 40
57.0
1001
ACDBBLOCKREPETAG
1070
     1
1071
      365
1005
121A8F
  0
LINE
  5
121A90
  8
OBJECT
 10
582.98887195227871
 20
-262.13647106514128
 30
0.0
 11
562.48688253344699
 21
-252.14350817676311
 31
0.0
1001
ACDBBLOCKREPETAG
1070
     1
1071
      381
1005
121A90
  0
LINE
  5
121A91
  8
OBJECT
 10
579.78925952655322
 20
-266.25003396084298
 30
0.0
 11
563.05373004418652
 21
-258.09289773349161
 31
0.0
1001
ACDBBLOCKREPETAG
1070
     1
1071
      382
1005
121A91
  0
LINE
  5
121A92
  8
OBJECT
 10
583.80694712359593
 20
-207.8970669066984
 30
0.0
 11
572.55462199987755
 21
-211.34034300000349
 31
0.0
1001
ACDBBLOCKREPETAG
1070
     1
1071
      383
1005
121A92
  0
ARC
  5
121A93
  8
OBJECT
 10
547.12893698272273
 20
-255.42030469268499
 30
0.0
 40
60.031113246032611
 50
46.417442267748868
 51
52.339361060911429
1001
ACDBBLOCKREPETAG
1070
     1
1071
      384
1005
121A93
  0
LINE
  5
121A94
  8
OBJECT
 10
558.225533741959
 20
-245.20725009862511
 30
0.0
 11
572.55462199987608
 21
-211.34034300000349
 31
0.0
1001
ACDBBLOCKREPETAG
1070
     1
1071
      385
1005
121A94
  0
ARC
  5
121A95
  8
OBJECT
 10
567.43512999893562
 20
-249.10383023809851
 30
0.0
 40
10.0
 50
157.06677829292209
 51
244.01473437029199
1001
ACDBBLOCKREPETAG
1070
     1
1071
      386
1005
121A95
  0
ARC
  5
121A96
  8
OBJECT
 10
565.55386256717065
 20
-245.85116096187269
 30
0.0
 40
7.0
 50
157.06677829292209
 51
244.0147337749697
1001
ACDBBLOCKREPETAG
1070
     1
1071
      387
1005
121A96
  0
POINT
  5
121A97
  8
DOTS
 10
539.99999999987813
 20
-232.0
 30
0.0
1001
ACDBBLOCKREPETAG
1070
     1
1071
      410
1005
121A97
  0
ARC
  5
121A98
  8
OBJECT
 10
180.0
 20
-232.0
 30
0.0
 40
50.0
 50
28.81994299999862
 51
318.52376955967321
1001
ACDBBLOCKREPETAG
1070
     1
1071
        7
1005
121A98
  0
ARC
  5
121A99
  8
OBJECT
 10
180.0
 20
-232.0
 30
0.0
 40
80.0
 50
140.80503257386539
 51
39.194967426134532
1001
ACDBBLOCKREPETAG
1070
     1
1071
       18
1005
121A99
  0
LINE
  5
121A9A
  8
OBJECT
 10
118.0
 20
-189.79810430798159
 30
0.0
 11
118.0
 21
-152.0
 31
0.0
1001
ACDBBLOCKREPETAG
1070
     1
1071
       19
1005
121A9A
  0
LINE
  5
121A9B
  8
OBJECT
 10
242.0
 20
-189.79810430798159
 30
0.0
 11
242.0
 21
-152.0
 31
0.0
1001
ACDBBLOCKREPETAG
1070
     1
1071
       20
1005
121A9B
  0
CIRCLE
  5
121A9C
  8
OBJECT
 10
180.0
 20
-232.0
 30
0.0
 40
75.0
1001
ACDBBLOCKREPETAG
1070
     1
1071
      363
1005
121A9C
  0
CIRCLE
  5
121A9D
  8
OBJECT
 10
180.0
 20
-232.0
 30
0.0
 40
52.5
1001
ACDBBLOCKREPETAG
1070
     1
1071
      364
1005
121A9D
  0
CIRCLE
  5
121A9E
  8
OBJECT
 10
180.0
 20
-232.0
 30
0.0
 40
57.0
1001
ACDBBLOCKREPETAG
1070
     1
1071
      365
1005
121A9E
  0
LINE
  5
121A9F
  8
OBJECT
 10
222.9888719524007
 20
-262.13647106514128
 30
0.0
 11
202.48688253356889
 21
-252.14350817676311
 31
0.0
1001
ACDBBLOCKREPETAG
1070
     1
1071
      381
1005
121A9F
  0
LINE
  5
121AA0
  8
OBJECT
 10
219.78925952667501
 20
-266.25003396084298
 30
0.0
 11
203.0537300443084
 21
-258.09289773349161
 31
0.0
1001
ACDBBLOCKREPETAG
1070
     1
1071
      382
1005
121AA0
  0
LINE
  5
121AA1
  8
OBJECT
 10
223.80694712371769
 20
-207.8970669066984
 30
0.0
 11
212.5546219999996
 21
-211.34034300000349
 31
0.0
1001
ACDBBLOCKREPETAG
1070
     1
1071
      383
1005
121AA1
  0
ARC
  5
121AA2
  8
OBJECT
 10
187.12893698284461
 20
-255.42030469268499
 30
0.0
 40
60.031113246032611
 50
46.41744226775004
 51
52.339361060912744
1001
ACDBBLOCKREPETAG
1070
     1
1071
      384
1005
121AA2
  0
LINE
  5
121AA3
  8
OBJECT
 10
198.2255337420811
 20
-245.20725009862511
 30
0.0
 11
212.55462199999781
 21
-211.34034300000349
 31
0.0
1001
ACDBBLOCKREPETAG
1070
     1
1071
      385
1005
121AA3
  0
ARC
  5
121AA4
  8
OBJECT
 10
207.43512999905761
 20
-249.10383023809851
 30
0.0
 40
10.0
 50
157.0667782929232
 51
244.0147343702935
1001
ACDBBLOCKREPETAG
1070
     1
1071
      386
1005
121AA4
  0
ARC
  5
121AA5
  8
OBJECT
 10
205.5538625672925
 20
-245.85116096187269
 30
0.0
 40
7.0
 50
157.0667782929232
 51
244.01473377497271
1001
ACDBBLOCKREPETAG
1070
     1
1071
      387
1005
121AA5
  0
POINT
  5
121AA6
  8
DOTS
 10
180.0
 20
-232.0
 30
0.0
1001
ACDBBLOCKREPETAG
1070
     1
1071
      410
1005
121AA6
  0
LINE
  5
121AA7
  8
OBJECT
 10
4925.0
 20
-3348.9999999999968
 30
0.0
 11
4925.0
 21
-3472.9999999999968
 31
0.0
1001
ACDBBLOCKREPETAG
1070
     1
1071
        6
1005
121AA7
  0
LINE
  5
121AA8
  8
OBJECT
 10
5074.9999999997999
 20
-3472.9999999997772
 30
0.0
 11
5080.0
 21
-3472.9999999999968
 31
0.0
1001
ACDBBLOCKREPETAG
1070
     1
1071
        9
1005
121AA8
  0
LINE
  5
121AA9
  8
OBJECT
 10
5080.0
 20
-3348.9999999999968
 30
0.0
 11
4925.0
 21
-3348.9999999999968
 31
0.0
1001
ACDBBLOCKREPETAG
1070
     1
1071
       10
1005
121AA9
  0
ARC
  5
121AAA
  8
OBJECT
 10
5200.6872746716726
 20
-3464.4080994101059
 30
0.0
 40
170.6350503965856
 50
137.44134459184301
 51
149.9194958133665
1001
ACDBBLOCKREPETAG
1070
     1
1071
       15
1005
121AAA
  0
ARC
  5
121AAB
  8
OBJECT
 10
5118.8455987040506
 20
-3420.8827266953631
 30
0.0
 40
78.072222021763665
 50
147.4551531037684
 51
164.66365997719291
1001
ACDBBLOCKREPETAG
1070
     1
1071
       16
1005
121AAB
  0
ARC
  5
121AAC
  8
OBJECT
 10
5085.7554349608727
 20
-3410.9999999999968
 30
0.0
 40
43.55353926885617
 50
165.6884523008477
 51
194.3115476991523
1001
ACDBBLOCKREPETAG
1070
     1
1071
       17
1005
121AAC
  0
ARC
  5
121AAD
  8
OBJECT
 10
5200.6872746716726
 20
-3357.5919005898891
 30
0.0
 40
170.6350503965856
 50
210.0805041866335
 51
222.55865540815699
1001
ACDBBLOCKREPETAG
1070
     1
1071
       18
1005
121AAD
  0
ARC
  5
121AAE
  8
OBJECT
 10
5118.8455987040506
 20
-3401.1172733046319
 30
0.0
 40
78.072222021763665
 50
195.33634002280701
 51
212.5448468962316
1001
ACDBBLOCKREPETAG
1070
     1
1071
       19
1005
121AAE
  0
POINT
  5
121AAF
  8
DOTS
 10
5000.0
 20
-3469.9999999999968
 30
0.0
1001
ACDBBLOCKREPETAG
1070
     1
1071
      186
1005
121AAF
  0
LINE
  5
121AB0
  8
OBJECT
 10
5060.0
 20
-3342.9999999999968
 30
0.0
 11
4940.0
 21
-3342.9999999999968
 31
0.0
1001
ACDBBLOCKREPETAG
1070
     1
1071
      215
1005
121AB0
  0
ARC
  5
121AB1
  8
OBJECT
 10
4940.0
 20
-3345.9999999999959
 30
0.0
 40
3.0
 50
90.0
 51
180.0
1001
ACDBBLOCKREPETAG
1070
     1
1071
      216
1005
121AB1
  0
LINE
  5
121AB2
  8
OBJECT
 10
4937.0
 20
-3345.9999999999959
 30
0.0
 11
4937.0
 21
-3348.9999999999968
 31
0.0
1001
ACDBBLOCKREPETAG
1070
     1
1071
      217
1005
121AB2
  0
LINE
  5
121AB3
  8
OBJECT
 10
5063.0
 20
-3345.9999999999959
 30
0.0
 11
5063.0
 21
-3348.9999999999968
 31
0.0
1001
ACDBBLOCKREPETAG
1070
     1
1071
      218
1005
121AB3
  0
ARC
  5
121AB4
  8
OBJECT
 10
5060.0
 20
-3345.9999999999959
 30
0.0
 40
3.0
 50
0.0
 51
90.0
1001
ACDBBLOCKREPETAG
1070
     1
1071
      219
1005
121AB4
  0
LINE
  5
121AB5
  8
OBJECT
 10
4943.0
 20
-3274.9999999999968
 30
0.0
 11
4943.0
 21
-3342.9999999999968
 31
0.0
1001
ACDBBLOCKREPETAG
1070
     1
1071
      220
1005
121AB5
  0
LINE
  5
121AB6
  8
OBJECT
 10
5057.0
 20
-3274.9999999999968
 30
0.0
 11
4943.0
 21
-3274.9999999999968
 31
0.0
1001
ACDBBLOCKREPETAG
1070
     1
1071
      221
1005
121AB6
  0
LINE
  5
121AB7
  8
OBJECT
 10
5057.0
 20
-3274.9999999999968
 30
0.0
 11
5057.0
 21
-3342.9999999999968
 31
0.0
1001
ACDBBLOCKREPETAG
1070
     1
1071
      222
1005
121AB7
  0
LINE
  5
121AB8
  8
CENTER
 10
5000.0
 20
-3259.9999999999968
 30
0.0
 11
5000.0
 21
-3484.9999999999968
 31
0.0
1001
ACDBBLOCKREPETAG
1070
     1
1071
      223
1005
121AB8
  0
LINE
  5
121AB9
  8
HIDDEN
 10
5052.5
 20
-3274.9999999999968
 30
0.0
 11
5052.5
 21
-3348.9999999999968
 31
0.0
1001
ACDBBLOCKREPETAG
1070
     1
1071
      224
1005
121AB9
  0
LINE
  5
121ABA
  8
HIDDEN
 10
4947.5
 20
-3274.9999999999968
 30
0.0
 11
4947.5
 21
-3348.9999999999968
 31
0.0
1001
ACDBBLOCKREPETAG
1070
     1
1071
      225
1005
121ABA
  0
LINE
  5
121ABB
  8
OBJECT
 10
4325.0
 20
-3348.9999999999968
 30
0.0
 11
4325.0
 21
-3472.9999999999968
 31
0.0
1001
ACDBBLOCKREPETAG
1070
     1
1071
       26
1005
121ABB
  0
LINE
  5
121ABC
  8
OBJECT
 10
4475.0
 20
-3348.9999999999968
 30
0.0
 11
4325.0
 21
-3348.9999999999968
 31
0.0
1001
ACDBBLOCKREPETAG
1070
     1
1071
       30
1005
121ABC
  0
LINE
  5
121ABD
  8
OBJECT
 10
4475.0
 20
-3348.9999999999968
 30
0.0
 11
4475.0
 21
-3472.9999999999968
 31
0.0
1001
ACDBBLOCKREPETAG
1070
     1
1071
       34
1005
121ABD
  0
POINT
  5
121ABE
  8
DOTS
 10
4400.0
 20
-3469.9999999999968
 30
0.0
1001
ACDBBLOCKREPETAG
1070
     1
1071
      187
1005
121ABE
  0
LINE
  5
121ABF
  8
OBJECT
 10
4460.0
 20
-3342.9999999999968
 30
0.0
 11
4340.0
 21
-3342.9999999999968
 31
0.0
1001
ACDBBLOCKREPETAG
1070
     1
1071
      226
1005
121ABF
  0
ARC
  5
121AC0
  8
OBJECT
 10
4340.0
 20
-3345.9999999999959
 30
0.0
 40
3.0
 50
90.0
 51
180.0
1001
ACDBBLOCKREPETAG
1070
     1
1071
      227
1005
121AC0
  0
LINE
  5
121AC1
  8
OBJECT
 10
4337.0
 20
-3345.9999999999959
 30
0.0
 11
4337.0
 21
-3348.9999999999968
 31
0.0
1001
ACDBBLOCKREPETAG
1070
     1
1071
      228
1005
121AC1
  0
LINE
  5
121AC2
  8
OBJECT
 10
4463.0
 20
-3345.9999999999959
 30
0.0
 11
4463.0
 21
-3348.9999999999968
 31
0.0
1001
ACDBBLOCKREPETAG
1070
     1
1071
      229
1005
121AC2
  0
ARC
  5
121AC3
  8
OBJECT
 10
4460.0
 20
-3345.9999999999959
 30
0.0
 40
3.0
 50
0.0
 51
90.0
1001
ACDBBLOCKREPETAG
1070
     1
1071
      230
1005
121AC3
  0
LINE
  5
121AC4
  8
OBJECT
 10
4343.0
 20
-3274.9999999999968
 30
0.0
 11
4343.0
 21
-3342.9999999999968
 31
0.0
1001
ACDBBLOCKREPETAG
1070
     1
1071
      231
1005
121AC4
  0
LINE
  5
121AC5
  8
OBJECT
 10
4457.0
 20
-3274.9999999999968
 30
0.0
 11
4343.0
 21
-3274.9999999999968
 31
0.0
1001
ACDBBLOCKREPETAG
1070
     1
1071
      232
1005
121AC5
  0
LINE
  5
121AC6
  8
OBJECT
 10
4457.0
 20
-3274.9999999999968
 30
0.0
 11
4457.0
 21
-3342.9999999999968
 31
0.0
1001
ACDBBLOCKREPETAG
1070
     1
1071
      233
1005
121AC6
  0
LINE
  5
121AC7
  8
CENTER
 10
4400.0
 20
-3259.9999999999968
 30
0.0
 11
4400.0
 21
-3484.9999999999968
 31
0.0
1001
ACDBBLOCKREPETAG
1070
     1
1071
      234
1005
121AC7
  0
LINE
  5
121AC8
  8
HIDDEN
 10
4452.4999999999991
 20
-3274.9999999999968
 30
0.0
 11
4452.4999999999991
 21
-3348.9999999999968
 31
0.0
1001
ACDBBLOCKREPETAG
1070
     1
1071
      235
1005
121AC8
  0
LINE
  5
121AC9
  8
HIDDEN
 10
4347.5
 20
-3274.9999999999968
 30
0.0
 11
4347.5
 21
-3348.9999999999968
 31
0.0
1001
ACDBBLOCKREPETAG
1070
     1
1071
      236
1005
121AC9
  0
LINE
  5
121ACA
  8
OBJECT
 10
3925.0
 20
-3348.9999999999968
 30
0.0
 11
3925.0
 21
-3472.9999999999968
 31
0.0
1001
ACDBBLOCKREPETAG
1070
     1
1071
        6
1005
121ACA
  0
LINE
  5
121ACB
  8
OBJECT
 10
4074.999999999799
 20
-3472.9999999997772
 30
0.0
 11
4080.0
 21
-3472.9999999999968
 31
0.0
1001
ACDBBLOCKREPETAG
1070
     1
1071
        9
1005
121ACB
  0
LINE
  5
121ACC
  8
OBJECT
 10
4080.0
 20
-3348.9999999999968
 30
0.0
 11
3925.0
 21
-3348.9999999999968
 31
0.0
1001
ACDBBLOCKREPETAG
1070
     1
1071
       10
1005
121ACC
  0
ARC
  5
121ACD
  8
OBJECT
 10
4200.6872746716726
 20
-3464.4080994101059
 30
0.0
 40
170.6350503965856
 50
137.44134459184301
 51
149.9194958133665
1001
ACDBBLOCKREPETAG
1070
     1
1071
       15
1005
121ACD
  0
ARC
  5
121ACE
  8
OBJECT
 10
4118.8455987040506
 20
-3420.8827266953631
 30
0.0
 40
78.072222021763665
 50
147.4551531037684
 51
164.663659977186
1001
ACDBBLOCKREPETAG
1070
     1
1071
       16
1005
121ACE
  0
ARC
  5
121ACF
  8
OBJECT
 10
4085.7554349608722
 20
-3410.9999999999968
 30
0.0
 40
43.55353926885617
 50
165.6884523008477
 51
194.3115476991523
1001
ACDBBLOCKREPETAG
1070
     1
1071
       17
1005
121ACF
  0
ARC
  5
121AD0
  8
OBJECT
 10
4200.6872746716726
 20
-3357.5919005898891
 30
0.0
 40
170.6350503965856
 50
210.0805041866335
 51
222.55865540815699
1001
ACDBBLOCKREPETAG
1070
     1
1071
       18
1005
121AD0
  0
ARC
  5
121AD1
  8
OBJECT
 10
4118.8455987040506
 20
-3401.1172733046319
 30
0.0
 40
78.072222021763665
 50
195.33634002281391
 51
212.5448468962316
1001
ACDBBLOCKREPETAG
1070
     1
1071
       19
1005
121AD1
  0
POINT
  5
121AD2
  8
DOTS
 10
4000.0
 20
-3469.9999999999968
 30
0.0
1001
ACDBBLOCKREPETAG
1070
     1
1071
      186
1005
121AD2
  0
LINE
  5
121AD3
  8
OBJECT
 10
4060.0
 20
-3342.9999999999968
 30
0.0
 11
3940.0
 21
-3342.9999999999968
 31
0.0
1001
ACDBBLOCKREPETAG
1070
     1
1071
      215
1005
121AD3
  0
ARC
  5
121AD4
  8
OBJECT
 10
3940.0
 20
-3345.9999999999959
 30
0.0
 40
3.0
 50
90.0
 51
180.0
1001
ACDBBLOCKREPETAG
1070
     1
1071
      216
1005
121AD4
  0
LINE
  5
121AD5
  8
OBJECT
 10
3937.0
 20
-3345.9999999999959
 30
0.0
 11
3937.0
 21
-3348.9999999999968
 31
0.0
1001
ACDBBLOCKREPETAG
1070
     1
1071
      217
1005
121AD5
  0
LINE
  5
121AD6
  8
OBJECT
 10
4063.0
 20
-3345.9999999999959
 30
0.0
 11
4063.0
 21
-3348.9999999999968
 31
0.0
1001
ACDBBLOCKREPETAG
1070
     1
1071
      218
1005
121AD6
  0
ARC
  5
121AD7
  8
OBJECT
 10
4060.0
 20
-3345.9999999999959
 30
0.0
 40
3.0
 50
0.0
 51
90.0
1001
ACDBBLOCKREPETAG
1070
     1
1071
      219
1005
121AD7
  0
LINE
  5
121AD8
  8
OBJECT
 10
3943.0
 20
-3274.9999999999968
 30
0.0
 11
3943.0
 21
-3342.9999999999968
 31
0.0
1001
ACDBBLOCKREPETAG
1070
     1
1071
      220
1005
121AD8
  0
LINE
  5
121AD9
  8
OBJECT
 10
4057.0
 20
-3274.9999999999968
 30
0.0
 11
3943.0
 21
-3274.9999999999968
 31
0.0
1001
ACDBBLOCKREPETAG
1070
     1
1071
      221
1005
121AD9
  0
LINE
  5
121ADA
  8
OBJECT
 10
4057.0
 20
-3274.9999999999968
 30
0.0
 11
4057.0
 21
-3342.9999999999968
 31
0.0
1001
ACDBBLOCKREPETAG
1070
     1
1071
      222
1005
121ADA
  0
LINE
  5
121ADB
  8
CENTER
 10
4000.0
 20
-3259.9999999999968
 30
0.0
 11
4000.0
 21
-3484.9999999999968
 31
0.0
1001
ACDBBLOCKREPETAG
1070
     1
1071
      223
1005
121ADB
  0
LINE
  5
121ADC
  8
HIDDEN
 10
4052.5
 20
-3274.9999999999968
 30
0.0
 11
4052.5
 21
-3348.9999999999968
 31
0.0
1001
ACDBBLOCKREPETAG
1070
     1
1071
      224
1005
121ADC
  0
LINE
  5
121ADD
  8
HIDDEN
 10
3947.5
 20
-3274.9999999999968
 30
0.0
 11
3947.5
 21
-3348.9999999999968
 31
0.0
1001
ACDBBLOCKREPETAG
1070
     1
1071
      225
1005
121ADD
  0
LINE
  5
121ADE
  8
OBJECT
 10
3325.0
 20
-3348.9999999999968
 30
0.0
 11
3325.0
 21
-3472.9999999999968
 31
0.0
1001
ACDBBLOCKREPETAG
1070
     1
1071
       26
1005
121ADE
  0
LINE
  5
121ADF
  8
OBJECT
 10
3475.0
 20
-3348.9999999999968
 30
0.0
 11
3325.0
 21
-3348.9999999999968
 31
0.0
1001
ACDBBLOCKREPETAG
1070
     1
1071
       30
1005
121ADF
  0
LINE
  5
121AE0
  8
OBJECT
 10
3475.0
 20
-3348.9999999999968
 30
0.0
 11
3475.0
 21
-3472.9999999999968
 31
0.0
1001
ACDBBLOCKREPETAG
1070
     1
1071
       34
1005
121AE0
  0
POINT
  5
121AE1
  8
DOTS
 10
3400.0
 20
-3469.9999999999968
 30
0.0
1001
ACDBBLOCKREPETAG
1070
     1
1071
      187
1005
121AE1
  0
LINE
  5
121AE2
  8
OBJECT
 10
3460.0
 20
-3342.9999999999968
 30
0.0
 11
3340.0
 21
-3342.9999999999968
 31
0.0
1001
ACDBBLOCKREPETAG
1070
     1
1071
      226
1005
121AE2
  0
ARC
  5
121AE3
  8
OBJECT
 10
3340.0
 20
-3345.9999999999959
 30
0.0
 40
3.0
 50
90.0
 51
180.0
1001
ACDBBLOCKREPETAG
1070
     1
1071
      227
1005
121AE3
  0
LINE
  5
121AE4
  8
OBJECT
 10
3337.0
 20
-3345.9999999999959
 30
0.0
 11
3337.0
 21
-3348.9999999999968
 31
0.0
1001
ACDBBLOCKREPETAG
1070
     1
1071
      228
1005
121AE4
  0
LINE
  5
121AE5
  8
OBJECT
 10
3463.0
 20
-3345.9999999999959
 30
0.0
 11
3463.0
 21
-3348.9999999999968
 31
0.0
1001
ACDBBLOCKREPETAG
1070
     1
1071
      229
1005
121AE5
  0
ARC
  5
121AE6
  8
OBJECT
 10
3460.0
 20
-3345.9999999999959
 30
0.0
 40
3.0
 50
0.0
 51
90.0
1001
ACDBBLOCKREPETAG
1070
     1
1071
      230
1005
121AE6
  0
LINE
  5
121AE7
  8
OBJECT
 10
3343.0
 20
-3274.9999999999968
 30
0.0
 11
3343.0
 21
-3342.9999999999968
 31
0.0
1001
ACDBBLOCKREPETAG
1070
     1
1071
      231
1005
121AE7
  0
LINE
  5
121AE8
  8
OBJECT
 10
3457.0
 20
-3274.9999999999968
 30
0.0
 11
3343.0
 21
-3274.9999999999968
 31
0.0
1001
ACDBBLOCKREPETAG
1070
     1
1071
      232
1005
121AE8
  0
LINE
  5
121AE9
  8
OBJECT
 10
3457.0
 20
-3274.9999999999968
 30
0.0
 11
3457.0
 21
-3342.9999999999968
 31
0.0
1001
ACDBBLOCKREPETAG
1070
     1
1071
      233
1005
121AE9
  0
LINE
  5
121AEA
  8
CENTER
 10
3400.0
 20
-3259.9999999999968
 30
0.0
 11
3400.0
 21
-3484.9999999999968
 31
0.0
1001
ACDBBLOCKREPETAG
1070
     1
1071
      234
1005
121AEA
  0
LINE
  5
121AEB
  8
HIDDEN
 10
3452.5
 20
-3274.9999999999968
 30
0.0
 11
3452.5
 21
-3348.9999999999968
 31
0.0
1001
ACDBBLOCKREPETAG
1070
     1
1071
      235
1005
121AEB
  0
LINE
  5
121AEC
  8
HIDDEN
 10
3347.5
 20
-3274.9999999999968
 30
0.0
 11
3347.5
 21
-3348.9999999999968
 31
0.0
1001
ACDBBLOCKREPETAG
1070
     1
1071
      236
1005
121AEC
  0
LINE
  5
121AED
  8
OBJECT
 10
2925.0
 20
-3348.9999999999968
 30
0.0
 11
2925.0
 21
-3472.9999999999968
 31
0.0
1001
ACDBBLOCKREPETAG
1070
     1
1071
        6
1005
121AED
  0
LINE
  5
121AEE
  8
OBJECT
 10
3074.9999999997999
 20
-3472.9999999997772
 30
0.0
 11
3080.0
 21
-3472.9999999999968
 31
0.0
1001
ACDBBLOCKREPETAG
1070
     1
1071
        9
1005
121AEE
  0
LINE
  5
121AEF
  8
OBJECT
 10
3080.0
 20
-3348.9999999999968
 30
0.0
 11
2925.0
 21
-3348.9999999999968
 31
0.0
1001
ACDBBLOCKREPETAG
1070
     1
1071
       10
1005
121AEF
  0
ARC
  5
121AF0
  8
OBJECT
 10
3200.6872746716722
 20
-3464.4080994101059
 30
0.0
 40
170.6350503965856
 50
137.44134459184301
 51
149.9194958133665
1001
ACDBBLOCKREPETAG
1070
     1
1071
       15
1005
121AF0
  0
ARC
  5
121AF1
  8
OBJECT
 10
3118.8455987040511
 20
-3420.8827266953631
 30
0.0
 40
78.072222021763665
 50
147.4551531037684
 51
164.663659977186
1001
ACDBBLOCKREPETAG
1070
     1
1071
       16
1005
121AF1
  0
ARC
  5
121AF2
  8
OBJECT
 10
3085.7554349608731
 20
-3410.9999999999968
 30
0.0
 40
43.55353926885617
 50
165.6884523008477
 51
194.3115476991523
1001
ACDBBLOCKREPETAG
1070
     1
1071
       17
1005
121AF2
  0
ARC
  5
121AF3
  8
OBJECT
 10
3200.6872746716722
 20
-3357.5919005898891
 30
0.0
 40
170.6350503965856
 50
210.0805041866335
 51
222.55865540815699
1001
ACDBBLOCKREPETAG
1070
     1
1071
       18
1005
121AF3
  0
ARC
  5
121AF4
  8
OBJECT
 10
3118.8455987040511
 20
-3401.1172733046319
 30
0.0
 40
78.072222021763665
 50
195.33634002281391
 51
212.5448468962316
1001
ACDBBLOCKREPETAG
1070
     1
1071
       19
1005
121AF4
  0
POINT
  5
121AF5
  8
DOTS
 10
3000.0
 20
-3469.9999999999968
 30
0.0
1001
ACDBBLOCKREPETAG
1070
     1
1071
      186
1005
121AF5
  0
LINE
  5
121AF6
  8
OBJECT
 10
3060.0
 20
-3342.9999999999968
 30
0.0
 11
2940.0
 21
-3342.9999999999968
 31
0.0
1001
ACDBBLOCKREPETAG
1070
     1
1071
      215
1005
121AF6
  0
ARC
  5
121AF7
  8
OBJECT
 10
2940.0
 20
-3345.9999999999959
 30
0.0
 40
3.0
 50
90.0
 51
180.0
1001
ACDBBLOCKREPETAG
1070
     1
1071
      216
1005
121AF7
  0
LINE
  5
121AF8
  8
OBJECT
 10
2937.0
 20
-3345.9999999999959
 30
0.0
 11
2937.0
 21
-3348.9999999999968
 31
0.0
1001
ACDBBLOCKREPETAG
1070
     1
1071
      217
1005
121AF8
  0
LINE
  5
121AF9
  8
OBJECT
 10
3063.0
 20
-3345.9999999999959
 30
0.0
 11
3063.0
 21
-3348.9999999999968
 31
0.0
1001
ACDBBLOCKREPETAG
1070
     1
1071
      218
1005
121AF9
  0
ARC
  5
121AFA
  8
OBJECT
 10
3060.0
 20
-3345.9999999999959
 30
0.0
 40
3.0
 50
0.0
 51
90.0
1001
ACDBBLOCKREPETAG
1070
     1
1071
      219
1005
121AFA
  0
LINE
  5
121AFB
  8
OBJECT
 10
2943.0
 20
-3274.9999999999968
 30
0.0
 11
2943.0
 21
-3342.9999999999968
 31
0.0
1001
ACDBBLOCKREPETAG
1070
     1
1071
      220
1005
121AFB
  0
LINE
  5
121AFC
  8
OBJECT
 10
3057.0
 20
-3274.9999999999968
 30
0.0
 11
2943.0
 21
-3274.9999999999968
 31
0.0
1001
ACDBBLOCKREPETAG
1070
     1
1071
      221
1005
121AFC
  0
LINE
  5
121AFD
  8
OBJECT
 10
3057.0
 20
-3274.9999999999968
 30
0.0
 11
3057.0
 21
-3342.9999999999968
 31
0.0
1001
ACDBBLOCKREPETAG
1070
     1
1071
      222
1005
121AFD
  0
LINE
  5
121AFE
  8
CENTER
 10
3000.0
 20
-3259.9999999999968
 30
0.0
 11
3000.0
 21
-3484.9999999999968
 31
0.0
1001
ACDBBLOCKREPETAG
1070
     1
1071
      223
1005
121AFE
  0
LINE
  5
121AFF
  8
HIDDEN
 10
3052.5
 20
-3274.9999999999968
 30
0.0
 11
3052.5
 21
-3348.9999999999968
 31
0.0
1001
ACDBBLOCKREPETAG
1070
     1
1071
      224
1005
121AFF
  0
LINE
  5
121B00
  8
HIDDEN
 10
2947.5
 20
-3274.9999999999968
 30
0.0
 11
2947.5
 21
-3348.9999999999968
 31
0.0
1001
ACDBBLOCKREPETAG
1070
     1
1071
      225
1005
121B00
  0
LINE
  5
121B01
  8
OBJECT
 10
2325.0
 20
-3348.9999999999968
 30
0.0
 11
2325.0
 21
-3472.9999999999968
 31
0.0
1001
ACDBBLOCKREPETAG
1070
     1
1071
       26
1005
121B01
  0
LINE
  5
121B02
  8
OBJECT
 10
2475.0
 20
-3348.9999999999968
 30
0.0
 11
2325.0
 21
-3348.9999999999968
 31
0.0
1001
ACDBBLOCKREPETAG
1070
     1
1071
       30
1005
121B02
  0
LINE
  5
121B03
  8
OBJECT
 10
2475.0
 20
-3348.9999999999968
 30
0.0
 11
2475.0
 21
-3472.9999999999968
 31
0.0
1001
ACDBBLOCKREPETAG
1070
     1
1071
       34
1005
121B03
  0
POINT
  5
121B04
  8
DOTS
 10
2400.0
 20
-3469.9999999999968
 30
0.0
1001
ACDBBLOCKREPETAG
1070
     1
1071
      187
1005
121B04
  0
LINE
  5
121B05
  8
OBJECT
 10
2460.0
 20
-3342.9999999999968
 30
0.0
 11
2340.0
 21
-3342.9999999999968
 31
0.0
1001
ACDBBLOCKREPETAG
1070
     1
1071
      226
1005
121B05
  0
ARC
  5
121B06
  8
OBJECT
 10
2340.0
 20
-3345.9999999999959
 30
0.0
 40
3.0
 50
90.0
 51
180.0
1001
ACDBBLOCKREPETAG
1070
     1
1071
      227
1005
121B06
  0
LINE
  5
121B07
  8
OBJECT
 10
2337.0
 20
-3345.9999999999959
 30
0.0
 11
2337.0
 21
-3348.9999999999968
 31
0.0
1001
ACDBBLOCKREPETAG
1070
     1
1071
      228
1005
121B07
  0
LINE
  5
121B08
  8
OBJECT
 10
2463.0
 20
-3345.9999999999959
 30
0.0
 11
2463.0
 21
-3348.9999999999968
 31
0.0
1001
ACDBBLOCKREPETAG
1070
     1
1071
      229
1005
121B08
  0
ARC
  5
121B09
  8
OBJECT
 10
2460.0
 20
-3345.9999999999959
 30
0.0
 40
3.0
 50
0.0
 51
90.0
1001
ACDBBLOCKREPETAG
1070
     1
1071
      230
1005
121B09
  0
LINE
  5
121B0A
  8
OBJECT
 10
2343.0
 20
-3274.9999999999968
 30
0.0
 11
2343.0
 21
-3342.9999999999968
 31
0.0
1001
ACDBBLOCKREPETAG
1070
     1
1071
      231
1005
121B0A
  0
LINE
  5
121B0B
  8
OBJECT
 10
2457.0
 20
-3274.9999999999968
 30
0.0
 11
2343.0
 21
-3274.9999999999968
 31
0.0
1001
ACDBBLOCKREPETAG
1070
     1
1071
      232
1005
121B0B
  0
LINE
  5
121B0C
  8
OBJECT
 10
2457.0
 20
-3274.9999999999968
 30
0.0
 11
2457.0
 21
-3342.9999999999968
 31
0.0
1001
ACDBBLOCKREPETAG
1070
     1
1071
      233
1005
121B0C
  0
LINE
  5
121B0D
  8
CENTER
 10
2400.0
 20
-3259.9999999999968
 30
0.0
 11
2400.0
 21
-3484.9999999999968
 31
0.0
1001
ACDBBLOCKREPETAG
1070
     1
1071
      234
1005
121B0D
  0
LINE
  5
121B0E
  8
HIDDEN
 10
2452.5000000000009
 20
-3274.9999999999968
 30
0.0
 11
2452.5000000000009
 21
-3348.9999999999968
 31
0.0
1001
ACDBBLOCKREPETAG
1070
     1
1071
      235
1005
121B0E
  0
LINE
  5
121B0F
  8
HIDDEN
 10
2347.5
 20
-3274.9999999999968
 30
0.0
 11
2347.5
 21
-3348.9999999999968
 31
0.0
1001
ACDBBLOCKREPETAG
1070
     1
1071
      236
1005
121B0F
  0
LINE
  5
121B10
  8
OBJECT
 10
1925.0
 20
-3348.9999999999968
 30
0.0
 11
1925.0
 21
-3472.9999999999968
 31
0.0
1001
ACDBBLOCKREPETAG
1070
     1
1071
        6
1005
121B10
  0
LINE
  5
121B11
  8
OBJECT
 10
2074.999999999799
 20
-3472.9999999997772
 30
0.0
 11
2080.0
 21
-3472.9999999999968
 31
0.0
1001
ACDBBLOCKREPETAG
1070
     1
1071
        9
1005
121B11
  0
LINE
  5
121B12
  8
OBJECT
 10
2080.0
 20
-3348.9999999999968
 30
0.0
 11
1925.0
 21
-3348.9999999999968
 31
0.0
1001
ACDBBLOCKREPETAG
1070
     1
1071
       10
1005
121B12
  0
ARC
  5
121B13
  8
OBJECT
 10
2200.6872746716731
 20
-3464.4080994101059
 30
0.0
 40
170.6350503965856
 50
137.44134459184301
 51
149.91949581335999
1001
ACDBBLOCKREPETAG
1070
     1
1071
       15
1005
121B13
  0
ARC
  5
121B14
  8
OBJECT
 10
2118.8455987040511
 20
-3420.8827266953631
 30
0.0
 40
78.072222021763665
 50
147.45515310377539
 51
164.663659977186
1001
ACDBBLOCKREPETAG
1070
     1
1071
       16
1005
121B14
  0
ARC
  5
121B15
  8
OBJECT
 10
2085.7554349608731
 20
-3410.9999999999968
 30
0.0
 40
43.55353926885617
 50
165.6884523008477
 51
194.3115476991523
1001
ACDBBLOCKREPETAG
1070
     1
1071
       17
1005
121B15
  0
ARC
  5
121B16
  8
OBJECT
 10
2200.6872746716731
 20
-3357.5919005898891
 30
0.0
 40
170.6350503965856
 50
210.08050418664001
 51
222.55865540815699
1001
ACDBBLOCKREPETAG
1070
     1
1071
       18
1005
121B16
  0
ARC
  5
121B17
  8
OBJECT
 10
2118.8455987040511
 20
-3401.1172733046319
 30
0.0
 40
78.072222021763665
 50
195.33634002281391
 51
212.54484689622461
1001
ACDBBLOCKREPETAG
1070
     1
1071
       19
1005
121B17
  0
POINT
  5
121B18
  8
DOTS
 10
2000.0
 20
-3469.9999999999968
 30
0.0
1001
ACDBBLOCKREPETAG
1070
     1
1071
      186
1005
121B18
  0
LINE
  5
121B19
  8
OBJECT
 10
2060.0
 20
-3342.9999999999968
 30
0.0
 11
1940.0
 21
-3342.9999999999968
 31
0.0
1001
ACDBBLOCKREPETAG
1070
     1
1071
      215
1005
121B19
  0
ARC
  5
121B1A
  8
OBJECT
 10
1940.0
 20
-3345.9999999999959
 30
0.0
 40
3.0
 50
90.0
 51
180.0
1001
ACDBBLOCKREPETAG
1070
     1
1071
      216
1005
121B1A
  0
LINE
  5
121B1B
  8
OBJECT
 10
1937.0
 20
-3345.9999999999959
 30
0.0
 11
1937.0
 21
-3348.9999999999968
 31
0.0
1001
ACDBBLOCKREPETAG
1070
     1
1071
      217
1005
121B1B
  0
LINE
  5
121B1C
  8
OBJECT
 10
2063.0
 20
-3345.9999999999959
 30
0.0
 11
2063.0
 21
-3348.9999999999968
 31
0.0
1001
ACDBBLOCKREPETAG
1070
     1
1071
      218
1005
121B1C
  0
ARC
  5
121B1D
  8
OBJECT
 10
2060.0
 20
-3345.9999999999959
 30
0.0
 40
3.0
 50
0.0
 51
90.0
1001
ACDBBLOCKREPETAG
1070
     1
1071
      219
1005
121B1D
  0
LINE
  5
121B1E
  8
OBJECT
 10
1943.0
 20
-3274.9999999999968
 30
0.0
 11
1943.0
 21
-3342.9999999999968
 31
0.0
1001
ACDBBLOCKREPETAG
1070
     1
1071
      220
1005
121B1E
  0
LINE
  5
121B1F
  8
OBJECT
 10
2057.0
 20
-3274.9999999999968
 30
0.0
 11
1943.0
 21
-3274.9999999999968
 31
0.0
1001
ACDBBLOCKREPETAG
1070
     1
1071
      221
1005
121B1F
  0
LINE
  5
121B20
  8
OBJECT
 10
2057.0
 20
-3274.9999999999968
 30
0.0
 11
2057.0
 21
-3342.9999999999968
 31
0.0
1001
ACDBBLOCKREPETAG
1070
     1
1071
      222
1005
121B20
  0
LINE
  5
121B21
  8
CENTER
 10
2000.0
 20
-3259.9999999999968
 30
0.0
 11
2000.0
 21
-3484.9999999999968
 31
0.0
1001
ACDBBLOCKREPETAG
1070
     1
1071
      223
1005
121B21
  0
LINE
  5
121B22
  8
HIDDEN
 10
2052.5
 20
-3274.9999999999968
 30
0.0
 11
2052.5
 21
-3348.9999999999968
 31
0.0
1001
ACDBBLOCKREPETAG
1070
     1
1071
      224
1005
121B22
  0
LINE
  5
121B23
  8
HIDDEN
 10
1947.4999999999991
 20
-3274.9999999999968
 30
0.0
 11
1947.4999999999991
 21
-3348.9999999999968
 31
0.0
1001
ACDBBLOCKREPETAG
1070
     1
1071
      225
1005
121B23
  0
LINE
  5
121B24
  8
DIM
 10
2150.0
 20
-3111.9999999999959
 30
0.0
 11
2228.4796205944581
 21
-3111.9999999999959
 31
0.0
  0
LINE
  5
121B25
  8
DIM
 10
2150.0
 20
-3017.9999999999959
 30
0.0
 11
2228.479620594459
 21
-3017.9999999999959
 31
0.0
  0
LINE
  5
121B26
  8
DIM
 10
2218.4796205944581
 20
-3091.9999999999959
 30
0.0
 11
2218.479620594459
 21
-3037.9999999999959
 31
0.0
  0
INSERT
  5
121B27
  8
DIM
  2
_OPEN30
 10
2218.4796205944581
 20
-3111.9999999999959
 30
0.0
 41
20.0
 42
20.0
 43
20.0
 50
270.0
  0
INSERT
  5
121B28
  8
DIM
  2
_OPEN30
 10
2218.479620594459
 20
-3017.9999999999959
 30
0.0
 41
20.0
 42
20.0
 43
20.0
 50
90.0
  0
INSERT
  5
121B29
  8
OBJECT
  2
*U19
 10
0.0
 20
0.0
 30
0.0
  0
LINE
  5
121B2A
  8
DIM
 10
2150.0
 20
-3469.9999999999968
 30
0.0
 11
2226.8409284037339
 21
-3469.9999999999968
 31
0.0
  0
LINE
  5
121B2B
  8
DIM
 10
2165.0
 20
-3425.9999999999968
 30
0.0
 11
2226.8409284037339
 21
-3425.9999999999968
 31
0.0
  0
LINE
  5
121B2C
  8
DIM
 10
2216.840928403733
 20
-3489.9999999999968
 30
0.0
 11
2216.840928403733
 21
-3509.9999999999968
 31
0.0
  0
LINE
  5
121B2D
  8
DIM
 10
2216.840928403733
 20
-3405.9999999999968
 30
0.0
 11
2216.840928403733
 21
-3385.9999999999968
 31
0.0
  0
LINE
  5
121B2E
  8
DIM
 10
2216.840928403733
 20
-3469.9999999999968
 30
0.0
 11
2216.840928403733
 21
-3425.9999999999968
 31
0.0
  0
INSERT
  5
121B2F
  8
DIM
  2
_OPEN30
 10
2216.840928403733
 20
-3469.9999999999968
 30
0.0
 41
20.0
 42
20.0
 43
20.0
 50
90.0
  0
INSERT
  5
121B30
  8
DIM
  2
_OPEN30
 10
2216.840928403733
 20
-3425.9999999999968
 30
0.0
 41
20.0
 42
20.0
 43
20.0
 50
270.0
  0
INSERT
  5
121B31
  8
OBJECT
  2
*U20
 10
0.0
 20
0.0
 30
0.0
  0
LINE
  5
121B32
  8
DIM
 10
2000.0
 20
-2959.9999999999959
 30
0.0
 11
2000.0
 21
-2927.208121984444
 31
0.0
  0
LINE
  5
121B33
  8
DIM
 10
2140.0
 20
-3007.9999999999959
 30
0.0
 11
2140.0
 21
-2927.208121984444
 31
0.0
  0
LINE
  5
121B34
  8
DIM
 10
2020.0
 20
-2937.208121984444
 30
0.0
 11
2120.0
 21
-2937.208121984444
 31
0.0
  0
INSERT
  5
121B35
  8
DIM
  2
_OPEN30
 10
2000.0
 20
-2937.208121984444
 30
0.0
 41
20.0
 42
20.0
 43
20.0
 50
180.0
  0
INSERT
  5
121B36
  8
DIM
  2
_OPEN30
 10
2140.0
 20
-2937.208121984444
 30
0.0
 41
20.0
 42
20.0
 43
20.0
  0
INSERT
  5
121B37
  8
OBJECT
  2
*U21
 10
0.0
 20
0.0
 30
0.0
  0
TEXT
  5
121B38
  8
SLIM
 10
2631.0
 20
-2842.50001604727
 30
0.0
 40
40.0
  1
C寸法
 41
0.75
  0
TEXT
  5
121B39
  8
SLIM
 10
2631.0
 20
-2772.50001604727
 30
0.0
 40
40.0
  1
B寸法
 41
0.75
  0
TEXT
  5
121B3A
  8
SLIM
 10
2630.2857142857142
 20
-2702.50001604727
 30
0.0
 40
40.0
  1
A寸法
 41
0.75
  0
TEXT
  5
121B3B
  8
SLIM
 10
3159.2857142857151
 20
-2842.50001604727
 30
0.0
 40
40.0
  1
150
 41
0.75
  0
TEXT
  5
121B3C
  8
SLIM
 10
3029.2857142857151
 20
-2842.50001604727
 30
0.0
 40
40.0
  1
140
 41
0.75
  0
TEXT
  5
121B3D
  8
SLIM
 10
2769.2857142857151
 20
-2842.50001604727
 30
0.0
 40
40.0
  1
140
 41
0.75
  0
TEXT
  5
121B3E
  8
SLIM
 10
2899.2857142857151
 20
-2842.50001604727
 30
0.0
 40
40.0
  1
140
 41
0.75
  0
TEXT
  5
121B3F
  8
SLIM
 10
3170.7142857142858
 20
-2772.50001604727
 30
0.0
 40
40.0
  1
72
 41
0.75
  0
TEXT
  5
121B40
  8
SLIM
 10
3041.4285714285711
 20
-2772.50001604727
 30
0.0
 40
40.0
  1
59
 41
0.75
  0
TEXT
  5
121B41
  8
SLIM
 10
2780.0
 20
-2772.50001604727
 30
0.0
 40
40.0
  1
44
 41
0.75
  0
TEXT
  5
121B42
  8
SLIM
 10
2910.7142857142858
 20
-2772.50001604727
 30
0.0
 40
40.0
  1
52
 41
0.75
  0
TEXT
  5
121B43
  8
SLIM
 10
2891.0
 20
-2577.50001604727
 30
0.0
 40
40.0
  1
横枝管サイズ
 41
0.75
  0
TEXT
  5
121B44
  8
SLIM
 10
3136.2857142857151
 20
-2632.50001604727
 30
0.0
 40
30.0
  1
100（4）
 41
0.75
  0
TEXT
  5
121B45
  8
SLIM
 10
3014.857142857144
 20
-2632.50001604727
 30
0.0
 40
30.0
  1
75（3）
 41
0.75
  0
TEXT
  5
121B46
  8
SLIM
 10
2884.8571428571431
 20
-2632.50001604727
 30
0.0
 40
30.0
  1
65（2）
 41
0.75
  0
TEXT
  5
121B47
  8
SLIM
 10
2757.0
 20
-2632.50001604727
 30
0.0
 40
30.0
  1
50（1）
 41
0.75
  0
TEXT
  5
121B48
  8
SLIM
 10
3159.2857142857151
 20
-2702.50001604727
 30
0.0
 40
40.0
  1
150
 41
0.75
  0
TEXT
  5
121B49
  8
SLIM
 10
3028.571428571428
 20
-2702.50001604727
 30
0.0
 40
40.0
  1
124
 41
0.75
  0
TEXT
  5
121B4A
  8
SLIM
 10
2780.0
 20
-2702.50001604727
 30
0.0
 40
40.0
  1
94
 41
0.75
  0
TEXT
  5
121B4B
  8
SLIM
 10
2902.1428571428569
 20
-2702.50001604727
 30
0.0
 40
40.0
  1
110
 41
0.75
  0
TEXT
  5
121B4C
  8
SLIM
 10
1849.9999999999991
 20
-2602.5
 30
0.0
 40
75.0
  1
枝管サイズ毎の形状
 41
0.75
  0
LINE
  5
121B4D
  8
OBJECT
 10
5150.0
 20
-3322.9999999999968
 30
0.0
 11
5143.0
 21
-3322.9999999999968
 31
0.0
1001
ACDBBLOCKREPETAG
1070
     1
1071
       64
1005
121B4D
  0
LINE
  5
121B4E
  8
OBJECT
 10
5143.0
 20
-3322.9999999999968
 30
0.0
 11
5143.0
 21
-3469.9999999999968
 31
0.0
1001
ACDBBLOCKREPETAG
1070
     1
1071
       65
1005
121B4E
  0
LINE
  5
121B4F
  8
OBJECT
 10
5101.5
 20
-3325.9999999999968
 30
0.0
 11
5101.5
 21
-3469.9999999999968
 31
0.0
1001
ACDBBLOCKREPETAG
1070
     1
1071
       66
1005
121B4F
  0
LINE
  5
121B50
  8
OBJECT
 10
5090.0
 20
-3332.4999999999968
 30
0.0
 11
5090.0
 21
-3463.4999999999968
 31
0.0
1001
ACDBBLOCKREPETAG
1070
     1
1071
       67
1005
121B50
  0
LINE
  5
121B51
  8
OBJECT
 10
5086.0
 20
-3404.5000000000041
 30
0.0
 11
5086.0
 21
-3469.9999999999968
 31
0.0
1001
ACDBBLOCKREPETAG
1070
     1
1071
       68
1005
121B51
  0
LINE
  5
121B52
  8
OBJECT
 10
5150.0
 20
-3469.9999999999968
 30
0.0
 11
5150.0
 21
-3322.9999999999968
 31
0.0
1001
ACDBBLOCKREPETAG
1070
     1
1071
       69
1005
121B52
  0
LINE
  5
121B53
  8
CENTER
 10
5165.0
 20
-3397.9999999999968
 30
0.0
 11
5070.4144144144157
 21
-3397.9999999999968
 31
0.0
1001
ACDBBLOCKREPETAG
1070
     1
1071
       70
1005
121B53
  0
LINE
  5
121B54
  8
OBJECT
 10
5083.0000000000045
 20
-3472.9999999999968
 30
0.0
 11
5080.0
 21
-3472.9999999999968
 31
0.0
1001
ACDBBLOCKREPETAG
1070
     1
1071
       71
1005
121B54
  0
ARC
  5
121B55
  8
OBJECT
 10
5091.8815171830656
 20
-3471.4555591801418
 30
0.0
 40
6.0
 50
60.52411099686767
 51
170.6927439126847
1001
ACDBBLOCKREPETAG
1070
     1
1071
       72
1005
121B55
  0
ARC
  5
121B56
  8
OBJECT
 10
5083.0
 20
-3469.9999999999968
 30
0.0
 40
3.0
 50
270.0
 51
350.69274391268482
1001
ACDBBLOCKREPETAG
1070
     1
1071
       73
1005
121B56
  0
LINE
  5
121B57
  8
OBJECT
 10
5081.0
 20
-3348.9999999999968
 30
0.0
 11
5080.0
 21
-3348.9999999999968
 31
0.0
1001
ACDBBLOCKREPETAG
1070
     1
1071
       74
1005
121B57
  0
LINE
  5
121B58
  8
OBJECT
 10
5150.0
 20
-3469.9999999999968
 30
0.0
 11
5101.5
 21
-3469.9999999999968
 31
0.0
1001
ACDBBLOCKREPETAG
1070
     1
1071
       75
1005
121B58
  0
LINE
  5
121B59
  8
OBJECT
 10
5101.5
 20
-3325.9999999999968
 30
0.0
 11
5090.0
 21
-3332.4999999999968
 31
0.0
1001
ACDBBLOCKREPETAG
1070
     1
1071
       76
1005
121B59
  0
LINE
  5
121B5A
  8
OBJECT
 10
5143.0
 20
-3325.9999999999968
 30
0.0
 11
5101.5
 21
-3325.9999999999968
 31
0.0
1001
ACDBBLOCKREPETAG
1070
     1
1071
       77
1005
121B5A
  0
LINE
  5
121B5B
  8
OBJECT
 10
5086.0
 20
-3404.5000000000041
 30
0.0
 11
5081.0
 21
-3348.9999999999968
 31
0.0
1001
ACDBBLOCKREPETAG
1070
     1
1071
       78
1005
121B5B
  0
LINE
  5
121B5C
  8
OBJECT
 10
5090.0
 20
-3332.4999999999968
 30
0.0
 11
5081.0
 21
-3348.9999999999968
 31
0.0
1001
ACDBBLOCKREPETAG
1070
     1
1071
       79
1005
121B5C
  0
LINE
  5
121B5D
  8
OBJECT
 10
5101.5
 20
-3469.9999999999968
 30
0.0
 11
5094.8338607230708
 21
-3466.2321821478199
 31
0.0
1001
ACDBBLOCKREPETAG
1070
     1
1071
       80
1005
121B5D
  0
LINE
  5
121B5E
  8
HIDDEN
 10
5098.0
 20
-3454.9999999999968
 30
0.0
 11
5098.0
 21
-3340.9999999999968
 31
0.0
1001
ACDBBLOCKREPETAG
1070
     1
1071
       81
1005
121B5E
  0
LINE
  5
121B5F
  8
OBJECT
 10
5150.0
 20
-2989.9999999999959
 30
0.0
 11
5143.0
 21
-2989.9999999999959
 31
0.0
1001
ACDBBLOCKREPETAG
1070
     1
1071
       67
1005
121B5F
  0
LINE
  5
121B60
  8
OBJECT
 10
5143.0
 20
-2989.9999999999959
 30
0.0
 11
5143.0
 21
-3139.9999999999959
 31
0.0
1001
ACDBBLOCKREPETAG
1070
     1
1071
       68
1005
121B60
  0
LINE
  5
121B61
  8
OBJECT
 10
5101.5
 20
-2992.9999999999959
 30
0.0
 11
5101.5
 21
-3136.9999999999959
 31
0.0
1001
ACDBBLOCKREPETAG
1070
     1
1071
       69
1005
121B61
  0
LINE
  5
121B62
  8
OBJECT
 10
5090.0
 20
-2999.4999999999959
 30
0.0
 11
5090.0
 21
-3130.4999999999959
 31
0.0
1001
ACDBBLOCKREPETAG
1070
     1
1071
       70
1005
121B62
  0
LINE
  5
121B63
  8
OBJECT
 10
5143.0
 20
-3139.9999999999959
 30
0.0
 11
5150.0
 21
-3139.9999999999959
 31
0.0
1001
ACDBBLOCKREPETAG
1070
     1
1071
       71
1005
121B63
  0
LINE
  5
121B64
  8
OBJECT
 10
5150.0
 20
-3139.9999999999959
 30
0.0
 11
5150.0
 21
-2989.9999999999959
 31
0.0
1001
ACDBBLOCKREPETAG
1070
     1
1071
       72
1005
121B64
  0
LINE
  5
121B65
  8
HIDDEN
 10
5098.0
 20
-3121.9999999999959
 30
0.0
 11
5098.0
 21
-3007.9999999999959
 31
0.0
1001
ACDBBLOCKREPETAG
1070
     1
1071
       73
1005
121B65
  0
LINE
  5
121B66
  8
CENTER
 10
5165.0
 20
-3064.9999999999959
 30
0.0
 11
5080.0
 21
-3064.9999999999959
 31
0.0
1001
ACDBBLOCKREPETAG
1070
     1
1071
       74
1005
121B66
  0
LINE
  5
121B67
  8
OBJECT
 10
5086.0
 20
-3126.9999999999959
 30
0.0
 11
5080.0
 21
-3126.9999999999959
 31
0.0
1001
ACDBBLOCKREPETAG
1070
     1
1071
       75
1005
121B67
  0
LINE
  5
121B68
  8
OBJECT
 10
5143.0
 20
-3136.9999999999959
 30
0.0
 11
5101.5
 21
-3136.9999999999959
 31
0.0
1001
ACDBBLOCKREPETAG
1070
     1
1071
       76
1005
121B68
  0
LINE
  5
121B69
  8
OBJECT
 10
5101.5
 20
-3136.9999999999959
 30
0.0
 11
5090.0
 21
-3130.4999999999959
 31
0.0
1001
ACDBBLOCKREPETAG
1070
     1
1071
       77
1005
121B69
  0
LINE
  5
121B6A
  8
OBJECT
 10
5090.0
 20
-3130.4999999999959
 30
0.0
 11
5086.0
 21
-3126.9999999999959
 31
0.0
1001
ACDBBLOCKREPETAG
1070
     1
1071
       78
1005
121B6A
  0
LINE
  5
121B6B
  8
OBJECT
 10
5101.5
 20
-2992.9999999999959
 30
0.0
 11
5090.0
 21
-2999.4999999999959
 31
0.0
1001
ACDBBLOCKREPETAG
1070
     1
1071
       79
1005
121B6B
  0
LINE
  5
121B6C
  8
OBJECT
 10
5090.0
 20
-2999.4999999999959
 30
0.0
 11
5086.0
 21
-3002.9999999999959
 31
0.0
1001
ACDBBLOCKREPETAG
1070
     1
1071
       80
1005
121B6C
  0
ARC
  5
121B6D
  8
OBJECT
 10
5467.9000000000005
 20
-3064.9999999999959
 30
0.0
 40
386.89999999999998
 50
170.77870136260421
 51
189.22129863739571
1001
ACDBBLOCKREPETAG
1070
     1
1071
       81
1005
121B6D
  0
LINE
  5
121B6E
  8
OBJECT
 10
5086.0
 20
-3002.9999999999959
 30
0.0
 11
5080.0
 21
-3002.9999999999959
 31
0.0
1001
ACDBBLOCKREPETAG
1070
     1
1071
       82
1005
121B6E
  0
LINE
  5
121B6F
  8
OBJECT
 10
5143.0
 20
-2992.9999999999959
 30
0.0
 11
5101.5
 21
-2992.9999999999959
 31
0.0
1001
ACDBBLOCKREPETAG
1070
     1
1071
       83
1005
121B6F
  0
TEXT
  5
121B70
  8
SLIM
 10
4884.25
 20
-3587.4999999999959
 30
0.0
 40
35.0
  1
通常枝100（4）
 41
0.75
  0
LINE
  5
121B71
  8
CENTER
 10
4477.0
 20
-3410.9999999999968
 30
0.0
 11
4323.0
 21
-3410.9999999999968
 31
0.0
1001
ACDBBLOCKREPETAG
1070
     1
1071
       17
1005
121B71
  0
CIRCLE
  5
121B72
  8
OBJECT
 10
4400.0
 20
-3410.9999999999968
 30
0.0
 40
41.5
1001
ACDBBLOCKREPETAG
1070
     1
1071
       19
1005
121B72
  0
CIRCLE
  5
121B73
  8
OBJECT
 10
4400.0
 20
-3410.9999999999968
 30
0.0
 40
54.0
1001
ACDBBLOCKREPETAG
1070
     1
1071
       20
1005
121B73
  0
ARC
  5
121B74
  8
OBJECT
 10
4400.0
 20
-3410.9999999999968
 30
0.0
 40
62.0
 50
287.89655112921122
 51
252.1034488707887
1001
ACDBBLOCKREPETAG
1070
     1
1071
       21
1005
121B74
  0
LINE
  5
121B75
  8
OBJECT
 10
4380.947441116743
 20
-3469.9999999999968
 30
0.0
 11
4419.052558883257
 21
-3469.9999999999968
 31
0.0
1001
ACDBBLOCKREPETAG
1070
     1
1071
       22
1005
121B75
  0
LINE
  5
121B76
  8
OBJECT
 10
4133.0
 20
-3348.9999999999968
 30
0.0
 11
4140.0
 21
-3348.9999999999968
 31
0.0
1001
ACDBBLOCKREPETAG
1070
     1
1071
       45
1005
121B76
  0
LINE
  5
121B77
  8
OBJECT
 10
4140.0
 20
-3348.9999999999968
 30
0.0
 11
4140.0
 21
-3469.9999999999968
 31
0.0
1001
ACDBBLOCKREPETAG
1070
     1
1071
       46
1005
121B77
  0
LINE
  5
121B78
  8
OBJECT
 10
4133.0
 20
-3469.9999999999968
 30
0.0
 11
4133.0
 21
-3348.9999999999968
 31
0.0
1001
ACDBBLOCKREPETAG
1070
     1
1071
       47
1005
121B78
  0
LINE
  5
121B79
  8
CENTER
 10
4155.0
 20
-3410.9999999999968
 30
0.0
 11
4071.0
 21
-3410.9999999999968
 31
0.0
1001
ACDBBLOCKREPETAG
1070
     1
1071
       48
1005
121B79
  0
LINE
  5
121B7A
  8
OBJECT
 10
4133.0
 20
-3351.9999999999968
 30
0.0
 11
4097.0
 21
-3351.9999999999968
 31
0.0
1001
ACDBBLOCKREPETAG
1070
     1
1071
       49
1005
121B7A
  0
LINE
  5
121B7B
  8
OBJECT
 10
4097.0
 20
-3351.9999999999968
 30
0.0
 11
4097.0
 21
-3469.9999999999968
 31
0.0
1001
ACDBBLOCKREPETAG
1070
     1
1071
       50
1005
121B7B
  0
LINE
  5
121B7C
  8
OBJECT
 10
4097.0
 20
-3469.9999999999968
 30
0.0
 11
4140.0
 21
-3469.9999999999968
 31
0.0
1001
ACDBBLOCKREPETAG
1070
     1
1071
       51
1005
121B7C
  0
LINE
  5
121B7D
  8
OBJECT
 10
4093.0
 20
-3356.4999999999968
 30
0.0
 11
4086.0
 21
-3356.4999999999968
 31
0.0
1001
ACDBBLOCKREPETAG
1070
     1
1071
       52
1005
121B7D
  0
LINE
  5
121B7E
  8
OBJECT
 10
4086.0
 20
-3465.4999999999968
 30
0.0
 11
4093.0
 21
-3465.4999999999968
 31
0.0
1001
ACDBBLOCKREPETAG
1070
     1
1071
       53
1005
121B7E
  0
LINE
  5
121B7F
  8
OBJECT
 10
4093.0
 20
-3465.4999999999968
 30
0.0
 11
4093.0
 21
-3356.4999999999968
 31
0.0
1001
ACDBBLOCKREPETAG
1070
     1
1071
       54
1005
121B7F
  0
LINE
  5
121B80
  8
OBJECT
 10
4097.0
 20
-3351.9999999999968
 30
0.0
 11
4093.0
 21
-3356.4999999999968
 31
0.0
1001
ACDBBLOCKREPETAG
1070
     1
1071
       55
1005
121B80
  0
LINE
  5
121B81
  8
OBJECT
 10
4097.0
 20
-3469.9999999999968
 30
0.0
 11
4093.0
 21
-3465.4999999999968
 31
0.0
1001
ACDBBLOCKREPETAG
1070
     1
1071
       56
1005
121B81
  0
LINE
  5
121B82
  8
OBJECT
 10
4083.0
 20
-3348.9999999999968
 30
0.0
 11
4080.0
 21
-3348.9999999999968
 31
0.0
1001
ACDBBLOCKREPETAG
1070
     1
1071
       57
1005
121B82
  0
ARC
  5
121B83
  8
OBJECT
 10
4083.0
 20
-3351.9999999999968
 30
0.0
 40
3.0
 50
0.0
 51
90.0
1001
ACDBBLOCKREPETAG
1070
     1
1071
       58
1005
121B83
  0
LINE
  5
121B84
  8
OBJECT
 10
4080.0
 20
-3472.9999999999968
 30
0.0
 11
4083.0
 21
-3472.9999999999968
 31
0.0
1001
ACDBBLOCKREPETAG
1070
     1
1071
       59
1005
121B84
  0
ARC
  5
121B85
  8
OBJECT
 10
4083.0
 20
-3469.9999999999968
 30
0.0
 40
3.0
 50
270.0
 51
0.0
1001
ACDBBLOCKREPETAG
1070
     1
1071
       60
1005
121B85
  0
LINE
  5
121B86
  8
OBJECT
 10
4086.0
 20
-3469.9999999999968
 30
0.0
 11
4086.0
 21
-3351.9999999999968
 31
0.0
1001
ACDBBLOCKREPETAG
1070
     1
1071
       61
1005
121B86
  0
LINE
  5
121B87
  8
HIDDEN
 10
4088.0
 20
-3366.4999999999968
 30
0.0
 11
4088.0
 21
-3455.4999999999968
 31
0.0
1001
ACDBBLOCKREPETAG
1070
     1
1071
       63
1005
121B87
  0
LINE
  5
121B88
  8
OBJECT
 10
4133.0
 20
-3002.9999999999959
 30
0.0
 11
4140.0
 21
-3002.9999999999959
 31
0.0
1001
ACDBBLOCKREPETAG
1070
     1
1071
       47
1005
121B88
  0
LINE
  5
121B89
  8
OBJECT
 10
4140.0
 20
-3002.9999999999959
 30
0.0
 11
4140.0
 21
-3126.9999999999959
 31
0.0
1001
ACDBBLOCKREPETAG
1070
     1
1071
       48
1005
121B89
  0
LINE
  5
121B8A
  8
OBJECT
 10
4140.0
 20
-3126.9999999999959
 30
0.0
 11
4133.0
 21
-3126.9999999999959
 31
0.0
1001
ACDBBLOCKREPETAG
1070
     1
1071
       49
1005
121B8A
  0
LINE
  5
121B8B
  8
OBJECT
 10
4133.0
 20
-3126.9999999999959
 30
0.0
 11
4133.0
 21
-3002.9999999999959
 31
0.0
1001
ACDBBLOCKREPETAG
1070
     1
1071
       50
1005
121B8B
  0
LINE
  5
121B8C
  8
CENTER
 10
4155.0
 20
-3064.9999999999959
 30
0.0
 11
4080.0
 21
-3064.9999999999959
 31
0.0
1001
ACDBBLOCKREPETAG
1070
     1
1071
       51
1005
121B8C
  0
LINE
  5
121B8D
  8
OBJECT
 10
4133.0
 20
-3005.9999999999959
 30
0.0
 11
4097.0
 21
-3005.9999999999959
 31
0.0
1001
ACDBBLOCKREPETAG
1070
     1
1071
       52
1005
121B8D
  0
LINE
  5
121B8E
  8
OBJECT
 10
4097.0
 20
-3005.9999999999959
 30
0.0
 11
4097.0
 21
-3123.9999999999959
 31
0.0
1001
ACDBBLOCKREPETAG
1070
     1
1071
       53
1005
121B8E
  0
LINE
  5
121B8F
  8
OBJECT
 10
4097.0
 20
-3123.9999999999959
 30
0.0
 11
4133.0
 21
-3123.9999999999959
 31
0.0
1001
ACDBBLOCKREPETAG
1070
     1
1071
       54
1005
121B8F
  0
LINE
  5
121B90
  8
OBJECT
 10
4093.0
 20
-3010.4999999999959
 30
0.0
 11
4086.0
 21
-3010.4999999999959
 31
0.0
1001
ACDBBLOCKREPETAG
1070
     1
1071
       55
1005
121B90
  0
LINE
  5
121B91
  8
OBJECT
 10
4086.0
 20
-3119.4999999999959
 30
0.0
 11
4093.0
 21
-3119.4999999999959
 31
0.0
1001
ACDBBLOCKREPETAG
1070
     1
1071
       56
1005
121B91
  0
LINE
  5
121B92
  8
OBJECT
 10
4093.0
 20
-3119.4999999999959
 30
0.0
 11
4093.0
 21
-3010.4999999999959
 31
0.0
1001
ACDBBLOCKREPETAG
1070
     1
1071
       57
1005
121B92
  0
LINE
  5
121B93
  8
OBJECT
 10
4097.0
 20
-3005.9999999999959
 30
0.0
 11
4093.0
 21
-3010.4999999999959
 31
0.0
1001
ACDBBLOCKREPETAG
1070
     1
1071
       58
1005
121B93
  0
LINE
  5
121B94
  8
OBJECT
 10
4097.0
 20
-3123.9999999999959
 30
0.0
 11
4093.0
 21
-3119.4999999999959
 31
0.0
1001
ACDBBLOCKREPETAG
1070
     1
1071
       59
1005
121B94
  0
LINE
  5
121B95
  8
OBJECT
 10
4083.0
 20
-3002.9999999999959
 30
0.0
 11
4080.0
 21
-3002.9999999999959
 31
0.0
1001
ACDBBLOCKREPETAG
1070
     1
1071
       60
1005
121B95
  0
ARC
  5
121B96
  8
OBJECT
 10
4083.0
 20
-3005.9999999999959
 30
0.0
 40
3.0
 50
0.0
 51
90.0
1001
ACDBBLOCKREPETAG
1070
     1
1071
       61
1005
121B96
  0
LINE
  5
121B97
  8
OBJECT
 10
4080.0
 20
-3126.9999999999959
 30
0.0
 11
4083.0
 21
-3126.9999999999959
 31
0.0
1001
ACDBBLOCKREPETAG
1070
     1
1071
       62
1005
121B97
  0
ARC
  5
121B98
  8
OBJECT
 10
4083.0
 20
-3123.9999999999959
 30
0.0
 40
3.0
 50
270.0
 51
0.0
1001
ACDBBLOCKREPETAG
1070
     1
1071
       63
1005
121B98
  0
LINE
  5
121B99
  8
OBJECT
 10
4086.0
 20
-3123.9999999999959
 30
0.0
 11
4086.0
 21
-3005.9999999999959
 31
0.0
1001
ACDBBLOCKREPETAG
1070
     1
1071
       64
1005
121B99
  0
LINE
  5
121B9A
  8
HIDDEN
 10
4088.0
 20
-3020.4999999999959
 30
0.0
 11
4088.0
 21
-3109.4999999999959
 31
0.0
1001
ACDBBLOCKREPETAG
1070
     1
1071
       65
1005
121B9A
  0
TEXT
  5
121B9B
  8
SLIM
 10
3894.25
 20
-3587.4999999999959
 30
0.0
 40
35.0
  1
通常枝75（3）
 41
0.75
  0
CIRCLE
  5
121B9C
  8
OBJECT
 10
3400.0
 20
-3417.9999999999968
 30
0.0
 40
35.5
1001
ACDBBLOCKREPETAG
1070
     1
1071
       10
1005
121B9C
  0
CIRCLE
  5
121B9D
  8
OBJECT
 10
3400.0
 20
-3410.9999999999968
 30
0.0
 40
62.0
1001
ACDBBLOCKREPETAG
1070
     1
1071
       11
1005
121B9D
  0
LINE
  5
121B9E
  8
CENTER
 10
3330.0
 20
-3417.9999999999968
 30
0.0
 11
3470.0
 21
-3417.9999999999968
 31
0.0
1001
ACDBBLOCKREPETAG
1070
     1
1071
       12
1005
121B9E
  0
CIRCLE
  5
121B9F
  8
OBJECT
 10
3400.0
 20
-3417.9999999999968
 30
0.0
 40
47.0
1001
ACDBBLOCKREPETAG
1070
     1
1071
       14
1005
121B9F
  0
ARC
  5
121BA0
  8
OBJECT
 10
3400.0
 20
-3417.9999999999968
 30
0.0
 40
55.0
 50
289.01126526011359
 51
250.98873473988641
1001
ACDBBLOCKREPETAG
1070
     1
1071
       15
1005
121BA0
  0
LINE
  5
121BA1
  8
OBJECT
 10
3382.0835271328328
 20
-3469.9999999999968
 30
0.0
 11
3417.9164728671681
 21
-3469.9999999999968
 31
0.0
1001
ACDBBLOCKREPETAG
1070
     1
1071
       16
1005
121BA1
  0
LINE
  5
121BA2
  8
OBJECT
 10
3133.0
 20
-3362.9999999999968
 30
0.0
 11
3140.0
 21
-3362.9999999999968
 31
0.0
1001
ACDBBLOCKREPETAG
1070
     1
1071
       26
1005
121BA2
  0
LINE
  5
121BA3
  8
OBJECT
 10
3140.0
 20
-3362.9999999999968
 30
0.0
 11
3140.0
 21
-3469.9999999999968
 31
0.0
1001
ACDBBLOCKREPETAG
1070
     1
1071
       27
1005
121BA3
  0
LINE
  5
121BA4
  8
OBJECT
 10
3133.0
 20
-3469.9999999999968
 30
0.0
 11
3133.0
 21
-3362.9999999999968
 31
0.0
1001
ACDBBLOCKREPETAG
1070
     1
1071
       28
1005
121BA4
  0
LINE
  5
121BA5
  8
CENTER
 10
3155.0
 20
-3417.9999999999968
 30
0.0
 11
3071.0
 21
-3417.9999999999968
 31
0.0
1001
ACDBBLOCKREPETAG
1070
     1
1071
       29
1005
121BA5
  0
LINE
  5
121BA6
  8
OBJECT
 10
3133.0
 20
-3365.9999999999968
 30
0.0
 11
3097.0
 21
-3365.9999999999968
 31
0.0
1001
ACDBBLOCKREPETAG
1070
     1
1071
       30
1005
121BA6
  0
LINE
  5
121BA7
  8
OBJECT
 10
3097.0
 20
-3365.9999999999968
 30
0.0
 11
3097.0
 21
-3469.9999999999968
 31
0.0
1001
ACDBBLOCKREPETAG
1070
     1
1071
       31
1005
121BA7
  0
LINE
  5
121BA8
  8
OBJECT
 10
3097.0
 20
-3469.9999999999968
 30
0.0
 11
3140.0
 21
-3469.9999999999968
 31
0.0
1001
ACDBBLOCKREPETAG
1070
     1
1071
       32
1005
121BA8
  0
LINE
  5
121BA9
  8
OBJECT
 10
3093.0
 20
-3370.4999999999968
 30
0.0
 11
3086.0
 21
-3370.4999999999968
 31
0.0
1001
ACDBBLOCKREPETAG
1070
     1
1071
       33
1005
121BA9
  0
LINE
  5
121BAA
  8
OBJECT
 10
3086.0
 20
-3465.4999999999968
 30
0.0
 11
3093.0
 21
-3465.4999999999968
 31
0.0
1001
ACDBBLOCKREPETAG
1070
     1
1071
       34
1005
121BAA
  0
LINE
  5
121BAB
  8
OBJECT
 10
3093.0
 20
-3465.4999999999968
 30
0.0
 11
3093.0
 21
-3370.4999999999968
 31
0.0
1001
ACDBBLOCKREPETAG
1070
     1
1071
       35
1005
121BAB
  0
LINE
  5
121BAC
  8
OBJECT
 10
3097.0
 20
-3365.9999999999968
 30
0.0
 11
3093.0
 21
-3370.4999999999968
 31
0.0
1001
ACDBBLOCKREPETAG
1070
     1
1071
       36
1005
121BAC
  0
LINE
  5
121BAD
  8
OBJECT
 10
3097.0
 20
-3469.9999999999968
 30
0.0
 11
3093.0
 21
-3465.4999999999968
 31
0.0
1001
ACDBBLOCKREPETAG
1070
     1
1071
       37
1005
121BAD
  0
LINE
  5
121BAE
  8
OBJECT
 10
3083.0
 20
-3348.9999999999968
 30
0.0
 11
3080.0
 21
-3348.9999999999968
 31
0.0
1001
ACDBBLOCKREPETAG
1070
     1
1071
       38
1005
121BAE
  0
ARC
  5
121BAF
  8
OBJECT
 10
3083.0
 20
-3351.9999999999968
 30
0.0
 40
3.0
 50
0.0
 51
90.0
1001
ACDBBLOCKREPETAG
1070
     1
1071
       39
1005
121BAF
  0
LINE
  5
121BB0
  8
OBJECT
 10
3080.0
 20
-3472.9999999999968
 30
0.0
 11
3083.0
 21
-3472.9999999999968
 31
0.0
1001
ACDBBLOCKREPETAG
1070
     1
1071
       40
1005
121BB0
  0
ARC
  5
121BB1
  8
OBJECT
 10
3083.0
 20
-3469.9999999999968
 30
0.0
 40
3.0
 50
270.0
 51
0.0
1001
ACDBBLOCKREPETAG
1070
     1
1071
       41
1005
121BB1
  0
LINE
  5
121BB2
  8
OBJECT
 10
3086.0
 20
-3469.9999999999968
 30
0.0
 11
3086.0
 21
-3351.9999999999968
 31
0.0
1001
ACDBBLOCKREPETAG
1070
     1
1071
       42
1005
121BB2
  0
LINE
  5
121BB3
  8
HIDDEN
 10
3088.0
 20
-3379.9999999999968
 30
0.0
 11
3088.0
 21
-3455.9999999999968
 31
0.0
1001
ACDBBLOCKREPETAG
1070
     1
1071
       43
1005
121BB3
  0
LINE
  5
121BB4
  8
OBJECT
 10
3133.0
 20
-3009.9999999999959
 30
0.0
 11
3140.0
 21
-3009.9999999999959
 31
0.0
1001
ACDBBLOCKREPETAG
1070
     1
1071
       27
1005
121BB4
  0
LINE
  5
121BB5
  8
OBJECT
 10
3140.0
 20
-3009.9999999999959
 30
0.0
 11
3140.0
 21
-3119.9999999999959
 31
0.0
1001
ACDBBLOCKREPETAG
1070
     1
1071
       28
1005
121BB5
  0
LINE
  5
121BB6
  8
OBJECT
 10
3140.0
 20
-3119.9999999999959
 30
0.0
 11
3133.0
 21
-3119.9999999999959
 31
0.0
1001
ACDBBLOCKREPETAG
1070
     1
1071
       29
1005
121BB6
  0
LINE
  5
121BB7
  8
OBJECT
 10
3133.0
 20
-3119.9999999999959
 30
0.0
 11
3133.0
 21
-3009.9999999999959
 31
0.0
1001
ACDBBLOCKREPETAG
1070
     1
1071
       30
1005
121BB7
  0
LINE
  5
121BB8
  8
CENTER
 10
3155.0
 20
-3064.9999999999959
 30
0.0
 11
3080.0
 21
-3064.9999999999959
 31
0.0
1001
ACDBBLOCKREPETAG
1070
     1
1071
       31
1005
121BB8
  0
LINE
  5
121BB9
  8
OBJECT
 10
3133.0
 20
-3012.9999999999959
 30
0.0
 11
3097.0
 21
-3012.9999999999959
 31
0.0
1001
ACDBBLOCKREPETAG
1070
     1
1071
       32
1005
121BB9
  0
LINE
  5
121BBA
  8
OBJECT
 10
3097.0
 20
-3012.9999999999959
 30
0.0
 11
3097.0
 21
-3116.9999999999959
 31
0.0
1001
ACDBBLOCKREPETAG
1070
     1
1071
       33
1005
121BBA
  0
LINE
  5
121BBB
  8
OBJECT
 10
3097.0
 20
-3116.9999999999959
 30
0.0
 11
3133.0
 21
-3116.9999999999959
 31
0.0
1001
ACDBBLOCKREPETAG
1070
     1
1071
       34
1005
121BBB
  0
LINE
  5
121BBC
  8
OBJECT
 10
3093.0
 20
-3017.4999999999959
 30
0.0
 11
3086.0
 21
-3017.4999999999959
 31
0.0
1001
ACDBBLOCKREPETAG
1070
     1
1071
       35
1005
121BBC
  0
LINE
  5
121BBD
  8
OBJECT
 10
3086.0
 20
-3112.4999999999959
 30
0.0
 11
3093.0
 21
-3112.4999999999959
 31
0.0
1001
ACDBBLOCKREPETAG
1070
     1
1071
       36
1005
121BBD
  0
LINE
  5
121BBE
  8
OBJECT
 10
3093.0
 20
-3112.4999999999959
 30
0.0
 11
3093.0
 21
-3017.4999999999959
 31
0.0
1001
ACDBBLOCKREPETAG
1070
     1
1071
       37
1005
121BBE
  0
LINE
  5
121BBF
  8
OBJECT
 10
3097.0
 20
-3012.9999999999959
 30
0.0
 11
3093.0
 21
-3017.4999999999959
 31
0.0
1001
ACDBBLOCKREPETAG
1070
     1
1071
       38
1005
121BBF
  0
LINE
  5
121BC0
  8
OBJECT
 10
3097.0
 20
-3116.9999999999959
 30
0.0
 11
3093.0
 21
-3112.4999999999959
 31
0.0
1001
ACDBBLOCKREPETAG
1070
     1
1071
       39
1005
121BC0
  0
LINE
  5
121BC1
  8
OBJECT
 10
3083.0
 20
-3002.9999999999959
 30
0.0
 11
3080.0
 21
-3002.9999999999959
 31
0.0
1001
ACDBBLOCKREPETAG
1070
     1
1071
       40
1005
121BC1
  0
ARC
  5
121BC2
  8
OBJECT
 10
3083.0
 20
-3005.9999999999959
 30
0.0
 40
3.0
 50
0.0
 51
90.0
1001
ACDBBLOCKREPETAG
1070
     1
1071
       41
1005
121BC2
  0
LINE
  5
121BC3
  8
OBJECT
 10
3080.0
 20
-3126.9999999999959
 30
0.0
 11
3083.0
 21
-3126.9999999999959
 31
0.0
1001
ACDBBLOCKREPETAG
1070
     1
1071
       42
1005
121BC3
  0
ARC
  5
121BC4
  8
OBJECT
 10
3083.0
 20
-3123.9999999999959
 30
0.0
 40
3.0
 50
270.0
 51
0.0
1001
ACDBBLOCKREPETAG
1070
     1
1071
       43
1005
121BC4
  0
LINE
  5
121BC5
  8
OBJECT
 10
3086.0
 20
-3123.9999999999959
 30
0.0
 11
3086.0
 21
-3005.9999999999959
 31
0.0
1001
ACDBBLOCKREPETAG
1070
     1
1071
       44
1005
121BC5
  0
LINE
  5
121BC6
  8
HIDDEN
 10
3088.0
 20
-3026.9999999999959
 30
0.0
 11
3088.0
 21
-3102.9999999999959
 31
0.0
1001
ACDBBLOCKREPETAG
1070
     1
1071
       45
1005
121BC6
  0
TEXT
  5
121BC7
  8
SLIM
 10
2894.25
 20
-3587.4999999999959
 30
0.0
 40
35.0
  1
通常枝65（2）
 41
0.75
  0
CIRCLE
  5
121BC8
  8
OBJECT
 10
2400.0
 20
-3410.9999999999968
 30
0.0
 40
62.0
1001
ACDBBLOCKREPETAG
1070
     1
1071
        3
1005
121BC8
  0
LINE
  5
121BC9
  8
CENTER
 10
2338.0
 20
-3425.9999999999968
 30
0.0
 11
2462.0
 21
-3425.9999999999968
 31
0.0
1001
ACDBBLOCKREPETAG
1070
     1
1071
        4
1005
121BC9
  0
CIRCLE
  5
121BCA
  8
OBJECT
 10
2400.0
 20
-3425.9999999999968
 30
0.0
 40
28.0
1001
ACDBBLOCKREPETAG
1070
     1
1071
        6
1005
121BCA
  0
CIRCLE
  5
121BCB
  8
OBJECT
 10
2400.0
 20
-3425.9999999999968
 30
0.0
 40
39.0
1001
ACDBBLOCKREPETAG
1070
     1
1071
        7
1005
121BCB
  0
ARC
  5
121BCC
  8
OBJECT
 10
2400.0
 20
-3425.9999999999968
 30
0.0
 40
47.0
 50
290.58196921144412
 51
249.41803078855591
1001
ACDBBLOCKREPETAG
1070
     1
1071
        8
1005
121BCC
  0
LINE
  5
121BCD
  8
OBJECT
 10
2383.4772883581431
 20
-3469.9999999999968
 30
0.0
 11
2416.5227116418569
 21
-3469.9999999999968
 31
0.0
1001
ACDBBLOCKREPETAG
1070
     1
1071
        9
1005
121BCD
  0
LINE
  5
121BCE
  8
OBJECT
 10
2133.0
 20
-3378.9999999999968
 30
0.0
 11
2140.0
 21
-3378.9999999999968
 31
0.0
1001
ACDBBLOCKREPETAG
1070
     1
1071
        7
1005
121BCE
  0
LINE
  5
121BCF
  8
OBJECT
 10
2140.0
 20
-3378.9999999999968
 30
0.0
 11
2140.0
 21
-3469.9999999999968
 31
0.0
1001
ACDBBLOCKREPETAG
1070
     1
1071
        8
1005
121BCF
  0
LINE
  5
121BD0
  8
OBJECT
 10
2133.0
 20
-3469.9999999999968
 30
0.0
 11
2133.0
 21
-3378.9999999999968
 31
0.0
1001
ACDBBLOCKREPETAG
1070
     1
1071
        9
1005
121BD0
  0
LINE
  5
121BD1
  8
CENTER
 10
2155.0
 20
-3425.9999999999968
 30
0.0
 11
2071.0
 21
-3425.9999999999968
 31
0.0
1001
ACDBBLOCKREPETAG
1070
     1
1071
       10
1005
121BD1
  0
LINE
  5
121BD2
  8
OBJECT
 10
2133.0
 20
-3381.9999999999968
 30
0.0
 11
2097.0
 21
-3381.9999999999968
 31
0.0
1001
ACDBBLOCKREPETAG
1070
     1
1071
       11
1005
121BD2
  0
LINE
  5
121BD3
  8
OBJECT
 10
2097.0
 20
-3381.9999999999968
 30
0.0
 11
2097.0
 21
-3469.9999999999968
 31
0.0
1001
ACDBBLOCKREPETAG
1070
     1
1071
       12
1005
121BD3
  0
LINE
  5
121BD4
  8
OBJECT
 10
2097.0
 20
-3469.9999999999968
 30
0.0
 11
2140.0
 21
-3469.9999999999968
 31
0.0
1001
ACDBBLOCKREPETAG
1070
     1
1071
       13
1005
121BD4
  0
LINE
  5
121BD5
  8
OBJECT
 10
2093.0
 20
-3386.4999999999968
 30
0.0
 11
2086.0
 21
-3386.4999999999968
 31
0.0
1001
ACDBBLOCKREPETAG
1070
     1
1071
       14
1005
121BD5
  0
LINE
  5
121BD6
  8
OBJECT
 10
2086.0
 20
-3465.4999999999968
 30
0.0
 11
2093.0
 21
-3465.4999999999968
 31
0.0
1001
ACDBBLOCKREPETAG
1070
     1
1071
       15
1005
121BD6
  0
LINE
  5
121BD7
  8
OBJECT
 10
2093.0
 20
-3465.4999999999968
 30
0.0
 11
2093.0
 21
-3386.4999999999968
 31
0.0
1001
ACDBBLOCKREPETAG
1070
     1
1071
       16
1005
121BD7
  0
LINE
  5
121BD8
  8
OBJECT
 10
2097.0
 20
-3381.9999999999968
 30
0.0
 11
2093.0
 21
-3386.4999999999968
 31
0.0
1001
ACDBBLOCKREPETAG
1070
     1
1071
       17
1005
121BD8
  0
LINE
  5
121BD9
  8
OBJECT
 10
2097.0
 20
-3469.9999999999968
 30
0.0
 11
2093.0
 21
-3465.4999999999968
 31
0.0
1001
ACDBBLOCKREPETAG
1070
     1
1071
       18
1005
121BD9
  0
LINE
  5
121BDA
  8
OBJECT
 10
2083.0
 20
-3348.9999999999968
 30
0.0
 11
2080.0
 21
-3348.9999999999968
 31
0.0
1001
ACDBBLOCKREPETAG
1070
     1
1071
       19
1005
121BDA
  0
ARC
  5
121BDB
  8
OBJECT
 10
2083.0
 20
-3351.9999999999968
 30
0.0
 40
3.0
 50
0.0
 51
90.0
1001
ACDBBLOCKREPETAG
1070
     1
1071
       20
1005
121BDB
  0
LINE
  5
121BDC
  8
OBJECT
 10
2080.0
 20
-3472.9999999999968
 30
0.0
 11
2083.0
 21
-3472.9999999999968
 31
0.0
1001
ACDBBLOCKREPETAG
1070
     1
1071
       21
1005
121BDC
  0
ARC
  5
121BDD
  8
OBJECT
 10
2083.0
 20
-3469.9999999999968
 30
0.0
 40
3.0
 50
270.0
 51
0.0
1001
ACDBBLOCKREPETAG
1070
     1
1071
       22
1005
121BDD
  0
LINE
  5
121BDE
  8
OBJECT
 10
2086.0
 20
-3469.9999999999968
 30
0.0
 11
2086.0
 21
-3351.9999999999968
 31
0.0
1001
ACDBBLOCKREPETAG
1070
     1
1071
       23
1005
121BDE
  0
LINE
  5
121BDF
  8
HIDDEN
 10
2088.0
 20
-3395.9999999999968
 30
0.0
 11
2088.0
 21
-3455.9999999999968
 31
0.0
1001
ACDBBLOCKREPETAG
1070
     1
1071
       24
1005
121BDF
  0
LINE
  5
121BE0
  8
OBJECT
 10
2133.0
 20
-3017.9999999999959
 30
0.0
 11
2140.0
 21
-3017.9999999999959
 31
0.0
1001
ACDBBLOCKREPETAG
1070
     1
1071
        7
1005
121BE0
  0
LINE
  5
121BE1
  8
OBJECT
 10
2140.0
 20
-3017.9999999999959
 30
0.0
 11
2140.0
 21
-3111.9999999999959
 31
0.0
1001
ACDBBLOCKREPETAG
1070
     1
1071
        8
1005
121BE1
  0
LINE
  5
121BE2
  8
OBJECT
 10
2140.0
 20
-3111.9999999999959
 30
0.0
 11
2133.0
 21
-3111.9999999999959
 31
0.0
1001
ACDBBLOCKREPETAG
1070
     1
1071
        9
1005
121BE2
  0
LINE
  5
121BE3
  8
OBJECT
 10
2133.0
 20
-3111.9999999999959
 30
0.0
 11
2133.0
 21
-3017.9999999999959
 31
0.0
1001
ACDBBLOCKREPETAG
1070
     1
1071
       10
1005
121BE3
  0
LINE
  5
121BE4
  8
CENTER
 10
2155.0
 20
-3064.9999999999959
 30
0.0
 11
2080.0
 21
-3064.9999999999959
 31
0.0
1001
ACDBBLOCKREPETAG
1070
     1
1071
       11
1005
121BE4
  0
LINE
  5
121BE5
  8
OBJECT
 10
2133.0
 20
-3020.9999999999959
 30
0.0
 11
2097.0
 21
-3020.9999999999959
 31
0.0
1001
ACDBBLOCKREPETAG
1070
     1
1071
       12
1005
121BE5
  0
LINE
  5
121BE6
  8
OBJECT
 10
2097.0
 20
-3020.9999999999959
 30
0.0
 11
2097.0
 21
-3108.9999999999959
 31
0.0
1001
ACDBBLOCKREPETAG
1070
     1
1071
       13
1005
121BE6
  0
LINE
  5
121BE7
  8
OBJECT
 10
2097.0
 20
-3108.9999999999959
 30
0.0
 11
2133.0
 21
-3108.9999999999959
 31
0.0
1001
ACDBBLOCKREPETAG
1070
     1
1071
       14
1005
121BE7
  0
LINE
  5
121BE8
  8
OBJECT
 10
2093.0
 20
-3025.4999999999959
 30
0.0
 11
2086.0
 21
-3025.4999999999959
 31
0.0
1001
ACDBBLOCKREPETAG
1070
     1
1071
       15
1005
121BE8
  0
LINE
  5
121BE9
  8
OBJECT
 10
2086.0
 20
-3104.4999999999959
 30
0.0
 11
2093.0
 21
-3104.4999999999959
 31
0.0
1001
ACDBBLOCKREPETAG
1070
     1
1071
       16
1005
121BE9
  0
LINE
  5
121BEA
  8
OBJECT
 10
2093.0
 20
-3104.4999999999959
 30
0.0
 11
2093.0
 21
-3025.4999999999959
 31
0.0
1001
ACDBBLOCKREPETAG
1070
     1
1071
       17
1005
121BEA
  0
LINE
  5
121BEB
  8
OBJECT
 10
2097.0
 20
-3020.9999999999959
 30
0.0
 11
2093.0
 21
-3025.4999999999959
 31
0.0
1001
ACDBBLOCKREPETAG
1070
     1
1071
       18
1005
121BEB
  0
LINE
  5
121BEC
  8
OBJECT
 10
2097.0
 20
-3108.9999999999959
 30
0.0
 11
2093.0
 21
-3104.4999999999959
 31
0.0
1001
ACDBBLOCKREPETAG
1070
     1
1071
       19
1005
121BEC
  0
LINE
  5
121BED
  8
OBJECT
 10
2083.0
 20
-3002.9999999999959
 30
0.0
 11
2080.0
 21
-3002.9999999999959
 31
0.0
1001
ACDBBLOCKREPETAG
1070
     1
1071
       20
1005
121BED
  0
ARC
  5
121BEE
  8
OBJECT
 10
2083.0
 20
-3005.9999999999959
 30
0.0
 40
3.0
 50
0.0
 51
90.0
1001
ACDBBLOCKREPETAG
1070
     1
1071
       21
1005
121BEE
  0
LINE
  5
121BEF
  8
OBJECT
 10
2080.0
 20
-3126.9999999999959
 30
0.0
 11
2083.0
 21
-3126.9999999999959
 31
0.0
1001
ACDBBLOCKREPETAG
1070
     1
1071
       22
1005
121BEF
  0
ARC
  5
121BF0
  8
OBJECT
 10
2083.0
 20
-3123.9999999999959
 30
0.0
 40
3.0
 50
270.0
 51
0.0
1001
ACDBBLOCKREPETAG
1070
     1
1071
       23
1005
121BF0
  0
LINE
  5
121BF1
  8
OBJECT
 10
2086.0
 20
-3123.9999999999959
 30
0.0
 11
2086.0
 21
-3005.9999999999959
 31
0.0
1001
ACDBBLOCKREPETAG
1070
     1
1071
       24
1005
121BF1
  0
LINE
  5
121BF2
  8
HIDDEN
 10
2088.0
 20
-3034.9999999999959
 30
0.0
 11
2088.0
 21
-3094.9999999999959
 31
0.0
1001
ACDBBLOCKREPETAG
1070
     1
1071
       25
1005
121BF2
  0
TEXT
  5
121BF3
  8
SLIM
 10
1896.75
 20
-3587.4999999999959
 30
0.0
 40
35.0
  1
通常枝50（1）
 41
0.75
  0
TEXT
  5
121BF4
  8
SLIM
 10
1837.75
 20
282.50000000000011
 30
0.0
 40
35.0
  1
（枝管サイズ毎に寸法が異なります。管底の位置は全サイズで同じです）
 41
0.75
  0
TEXT
  5
121BF5
  8
SLIM
 10
1850.0
 20
532.5
 30
0.0
 40
75.0
  1
側面図の代表機種
 41
0.75
  0
TEXT
  5
121BF6
  8
SLIM
 10
1850.0
 20
369.99999999999989
 30
0.0
 40
100.0
  1
4SSL-A3
 41
0.75
  0
LINE
  5
121BF7
  8
SLIM
 10
4414.9999999999927
 20
-655.19743878931445
 30
0.0
 11
4425.1974387893069
 21
-644.99999999999955
 31
0.0
1001
ACAD
1010
0.0
1020
0.0
1030
0.0
1001
ACDBBLOCKREPETAG
1070
     1
1071
       12
1005
121BF7
  0
LINE
  5
121BF8
  8
SLIM
 10
4414.9999999999927
 20
-673.15795103145149
 30
0.0
 11
4443.1579510314468
 21
-644.99999999999955
 31
0.0
1001
ACAD
1010
0.0
1020
0.0
1030
0.0
1001
ACDBBLOCKREPETAG
1070
     1
1071
       13
1005
121BF8
  0
LINE
  5
121BF9
  8
SLIM
 10
4414.9999999999973
 20
-691.11846327358842
 30
0.0
 11
4461.118463273584
 21
-644.99999999999955
 31
0.0
1001
ACAD
1010
0.0
1020
0.0
1030
0.0
1001
ACDBBLOCKREPETAG
1070
     1
1071
       14
1005
121BF9
  0
LINE
  5
121BFA
  8
SLIM
 10
4414.9999999999973
 20
-709.07897551572535
 30
0.0
 11
4479.0789755157211
 21
-644.99999999999955
 31
0.0
1001
ACAD
1010
0.0
1020
0.0
1030
0.0
1001
ACDBBLOCKREPETAG
1070
     1
1071
       15
1005
121BFA
  0
LINE
  5
121BFB
  8
SLIM
 10
4414.9999999999991
 20
-727.03948775786239
 30
0.0
 11
4497.039487757861
 21
-644.99999999999955
 31
0.0
1001
ACAD
1010
0.0
1020
0.0
1030
0.0
1001
ACDBBLOCKREPETAG
1070
     1
1071
       16
1005
121BFB
  0
LINE
  5
121BFC
  8
SLIM
 10
4415.283600749558
 20
-744.71639925044144
 30
0.0
 11
4515.0
 21
-644.99999999999955
 31
0.0
1001
ACAD
1010
0.0
1020
0.0
1030
0.0
1001
ACDBBLOCKREPETAG
1070
     1
1071
       17
1005
121BFC
  0
LINE
  5
121BFD
  8
SLIM
 10
4417.4979104780414
 20
-760.46260176409703
 30
0.0
 11
4532.9605122421381
 21
-644.99999999999955
 31
0.0
1001
ACAD
1010
0.0
1020
0.0
1030
0.0
1001
ACDBBLOCKREPETAG
1070
     1
1071
       18
1005
121BFD
  0
LINE
  5
121BFE
  8
SLIM
 10
4419.712220206522
 20
-776.20880427775205
 30
0.0
 11
4550.921024484277
 21
-644.99999999999955
 31
0.0
1001
ACAD
1010
0.0
1020
0.0
1030
0.0
1001
ACDBBLOCKREPETAG
1070
     1
1071
       19
1005
121BFE
  0
LINE
  5
121BFF
  8
SLIM
 10
4421.9265299350063
 20
-791.9550067914073
 30
0.0
 11
4568.8815367264151
 21
-644.99999999999955
 31
0.0
1001
ACAD
1010
0.0
1020
0.0
1030
0.0
1001
ACDBBLOCKREPETAG
1070
     1
1071
       20
1005
121BFF
  0
LINE
  5
121C00
  8
SLIM
 10
4424.1408396634888
 20
-807.70120930506243
 30
0.0
 11
4585.0000000000073
 21
-646.84204896854555
 31
0.0
1001
ACAD
1010
0.0
1020
0.0
1030
0.0
1001
ACDBBLOCKREPETAG
1070
     1
1071
       21
1005
121C00
  0
LINE
  5
121C01
  8
SLIM
 10
4426.3551493919731
 20
-823.44741181871768
 30
0.0
 11
4585.0000000000073
 21
-664.80256121068533
 31
0.0
1001
ACAD
1010
0.0
1020
0.0
1030
0.0
1001
ACDBBLOCKREPETAG
1070
     1
1071
       22
1005
121C01
  0
LINE
  5
121C02
  8
SLIM
 10
4428.5694591204547
 20
-839.19361433237304
 30
0.0
 11
4585.0000000000036
 21
-682.76307345282476
 31
0.0
1001
ACAD
1010
0.0
1020
0.0
1030
0.0
1001
ACDBBLOCKREPETAG
1070
     1
1071
       23
1005
121C02
  0
LINE
  5
121C03
  8
SLIM
 10
4430.783768848939
 20
-854.93981684602829
 30
0.0
 11
4585.0000000000009
 21
-700.72358569496441
 31
0.0
1001
ACAD
1010
0.0
1020
0.0
1030
0.0
1001
ACDBBLOCKREPETAG
1070
     1
1071
       24
1005
121C03
  0
LINE
  5
121C04
  8
SLIM
 10
4432.9980785774223
 20
-870.68601935968354
 30
0.0
 11
4585.0
 21
-718.68409793710418
 31
0.0
1001
ACAD
1010
0.0
1020
0.0
1030
0.0
1001
ACDBBLOCKREPETAG
1070
     1
1071
       25
1005
121C04
  0
LINE
  5
121C05
  8
SLIM
 10
4443.0
 20
-878.64461017924395
 30
0.0
 11
4446.6446101792462
 21
-874.99999999999761
 31
0.0
1001
ACAD
1010
0.0
1020
0.0
1030
0.0
1001
ACDBBLOCKREPETAG
1070
     1
1071
       26
1005
121C05
  0
LINE
  5
121C06
  8
SLIM
 10
4446.6446101792462
 20
-874.99999999999761
 30
0.0
 11
4585.0
 21
-736.64461017924395
 31
0.0
1001
ACAD
1010
0.0
1020
0.0
1030
0.0
1001
ACDBBLOCKREPETAG
1070
     1
1071
       27
1005
121C06
  0
LINE
  5
121C07
  8
SLIM
 10
4444.6051224213852
 20
-894.99999999999773
 30
0.0
 11
4464.6051224213852
 21
-874.99999999999761
 31
0.0
1001
ACAD
1010
0.0
1020
0.0
1030
0.0
1001
ACDBBLOCKREPETAG
1070
     1
1071
       28
1005
121C07
  0
LINE
  5
121C08
  8
SLIM
 10
4464.6051224213852
 20
-874.99999999999761
 30
0.0
 11
4583.0518371543658
 21
-756.55328526701703
 31
0.0
1001
ACAD
1010
0.0
1020
0.0
1030
0.0
1001
ACDBBLOCKREPETAG
1070
     1
1071
       29
1005
121C08
  0
LINE
  5
121C09
  8
SLIM
 10
4462.5656346635233
 20
-894.99999999999773
 30
0.0
 11
4482.5656346635233
 21
-874.99999999999761
 31
0.0
1001
ACAD
1010
0.0
1020
0.0
1030
0.0
1001
ACDBBLOCKREPETAG
1070
     1
1071
       30
1005
121C09
  0
LINE
  5
121C0A
  8
SLIM
 10
4482.5656346635233
 20
-874.99999999999761
 30
0.0
 11
4580.1128442420149
 21
-777.45279042150503
 31
0.0
1001
ACAD
1010
0.0
1020
0.0
1030
0.0
1001
ACDBBLOCKREPETAG
1070
     1
1071
       31
1005
121C0A
  0
LINE
  5
121C0B
  8
SLIM
 10
4480.5261469056622
 20
-894.99999999999773
 30
0.0
 11
4500.5261469056613
 21
-874.99999999999761
 31
0.0
1001
ACAD
1010
0.0
1020
0.0
1030
0.0
1001
ACDBBLOCKREPETAG
1070
     1
1071
       32
1005
121C0B
  0
LINE
  5
121C0C
  8
SLIM
 10
4500.5261469056613
 20
-874.99999999999761
 30
0.0
 11
4577.1738513296659
 21
-798.35229557599314
 31
0.0
1001
ACAD
1010
0.0
1020
0.0
1030
0.0
1001
ACDBBLOCKREPETAG
1070
     1
1071
       33
1005
121C0C
  0
LINE
  5
121C0D
  8
SLIM
 10
4498.4866591478003
 20
-894.99999999999773
 30
0.0
 11
4518.4866591478003
 21
-874.99999999999761
 31
0.0
1001
ACAD
1010
0.0
1020
0.0
1030
0.0
1001
ACDBBLOCKREPETAG
1070
     1
1071
       34
1005
121C0D
  0
LINE
  5
121C0E
  8
SLIM
 10
4518.4866591478003
 20
-874.99999999999761
 30
0.0
 11
4574.2348584173151
 21
-819.2518007304808
 31
0.0
1001
ACAD
1010
0.0
1020
0.0
1030
0.0
1001
ACDBBLOCKREPETAG
1070
     1
1071
       35
1005
121C0E
  0
LINE
  5
121C0F
  8
SLIM
 10
4516.4471713899366
 20
-894.99999999999773
 30
0.0
 11
4536.4471713899366
 21
-874.99999999999761
 31
0.0
1001
ACAD
1010
0.0
1020
0.0
1030
0.0
1001
ACDBBLOCKREPETAG
1070
     1
1071
       36
1005
121C0F
  0
LINE
  5
121C10
  8
SLIM
 10
4536.4471713899366
 20
-874.99999999999761
 30
0.0
 11
4571.295865504967
 21
-840.15130588496902
 31
0.0
1001
ACAD
1010
0.0
1020
0.0
1030
0.0
1001
ACDBBLOCKREPETAG
1070
     1
1071
       37
1005
121C10
  0
LINE
  5
121C11
  8
SLIM
 10
4534.4076836320774
 20
-894.99999999999773
 30
0.0
 11
4554.4076836320774
 21
-874.99999999999761
 31
0.0
1001
ACAD
1010
0.0
1020
0.0
1030
0.0
1001
ACDBBLOCKREPETAG
1070
     1
1071
       38
1005
121C11
  0
LINE
  5
121C12
  8
SLIM
 10
4554.4076836320774
 20
-874.99999999999761
 30
0.0
 11
4568.356872592617
 21
-861.05081103945724
 31
0.0
1001
ACAD
1010
0.0
1020
0.0
1030
0.0
1001
ACDBBLOCKREPETAG
1070
     1
1071
       39
1005
121C12
  0
LINE
  5
121C13
  8
SLIM
 10
4552.3681958742154
 20
-894.99999999999773
 30
0.0
 11
4557.0
 21
-890.36819587421235
 31
0.0
1001
ACAD
1010
0.0
1020
0.0
1030
0.0
1001
ACDBBLOCKREPETAG
1070
     1
1071
       40
1005
121C13
  0
LINE
  5
121C14
  8
OBJECT
 10
4443.0
 20
-894.99999999999773
 30
0.0
 11
4557.0
 21
-894.99999999999773
 31
0.0
1001
ACDBBLOCKREPETAG
1070
     1
1071
        1
1005
121C14
  0
LINE
  5
121C15
  8
OBJECT
 10
4433.6047321049664
 20
-874.99999999999761
 30
0.0
 11
4566.3952678950409
 21
-874.99999999999761
 31
0.0
1001
ACDBBLOCKREPETAG
1070
     1
1071
        2
1005
121C15
  0
LINE
  5
121C16
  8
OBJECT
 10
4443.0
 20
-894.99999999999773
 30
0.0
 11
4443.0
 21
-874.99999999999761
 31
0.0
1001
ACDBBLOCKREPETAG
1070
     1
1071
        3
1005
121C16
  0
LINE
  5
121C17
  8
OBJECT
 10
4557.0
 20
-894.99999999999773
 30
0.0
 11
4557.0
 21
-874.99999999999761
 31
0.0
1001
ACDBBLOCKREPETAG
1070
     1
1071
        4
1005
121C17
  0
LINE
  5
121C18
  8
OBJECT
 10
4414.9999999999918
 20
-644.99999999999955
 30
0.0
 11
4415.0
 21
-742.69968280914077
 31
0.0
1001
ACDBBLOCKREPETAG
1070
     1
1071
        5
1005
121C18
  0
LINE
  5
121C19
  8
OBJECT
 10
4585.0000000000073
 20
-644.99999999999955
 30
0.0
 11
4585.0
 21
-742.69968280917192
 31
0.0
1001
ACDBBLOCKREPETAG
1070
     1
1071
        6
1005
121C19
  0
LINE
  5
121C1A
  8
OBJECT
 10
4415.0
 20
-742.69968280914077
 30
0.0
 11
4433.6047321049664
 21
-874.99999999999761
 31
0.0
1001
ACDBBLOCKREPETAG
1070
     1
1071
        7
1005
121C1A
  0
LINE
  5
121C1B
  8
OBJECT
 10
4566.3952678950409
 20
-874.99999999999761
 30
0.0
 11
4585.0
 21
-742.69968280917192
 31
0.0
1001
ACDBBLOCKREPETAG
1070
     1
1071
        8
1005
121C1B
  0
LINE
  5
121C1C
  8
OBJECT
 10
4585.0000000000073
 20
-644.99999999999955
 30
0.0
 11
4414.9999999999918
 21
-644.99999999999955
 31
0.0
1001
ACDBBLOCKREPETAG
1070
     1
1071
        9
1005
121C1C
  0
LINE
  5
121C1D
  8
OBJECT
 10
4443.0
 20
-969.99999999999545
 30
0.0
 11
4557.0
 21
-969.99999999999545
 31
0.0
1001
ACDBBLOCKREPETAG
1070
     1
1071
        0
1005
121C1D
  0
LINE
  5
121C1E
  8
OBJECT
 10
4443.0
 20
-969.99999999999545
 30
0.0
 11
4443.0
 21
-869.99999999999545
 31
0.0
1001
ACDBBLOCKREPETAG
1070
     1
1071
        1
1005
121C1E
  0
LINE
  5
121C1F
  8
OBJECT
 10
4557.0
 20
-969.99999999999545
 30
0.0
 11
4557.0
 21
-869.99999999999545
 31
0.0
1001
ACDBBLOCKREPETAG
1070
     1
1071
        2
1005
121C1F
  0
LINE
  5
121C20
  8
OBJECT
 10
4443.0
 20
-869.99999999999545
 30
0.0
 11
4557.0
 21
-869.99999999999545
 31
0.0
1001
ACDBBLOCKREPETAG
1070
     1
1071
        3
1005
121C20
  0
LINE
  5
121C21
  8
HIDDEN
 10
4450.0
 20
-869.99999999999545
 30
0.0
 11
4450.0
 21
-969.99999999999545
 31
0.0
1001
ACDBBLOCKREPETAG
1070
     1
1071
        4
1005
121C21
  0
LINE
  5
121C22
  8
HIDDEN
 10
4550.0
 20
-869.99999999999545
 30
0.0
 11
4550.0
 21
-969.99999999999545
 31
0.0
1001
ACDBBLOCKREPETAG
1070
     1
1071
        5
1005
121C22
  0
LINE
  5
121C23
  8
CENTER
 10
4500.0
 20
-659.99999999999886
 30
0.0
 11
4500.0
 21
-984.99999999999545
 31
0.0
1001
ACDBBLOCKREPETAG
1070
     1
1071
        6
1005
121C23
  0
LINE
  5
121C24
  8
OBJECT
 10
4425.0
 20
-659.99999999999886
 30
0.0
 11
4425.0
 21
-741.99999999999545
 31
0.0
1001
ACDBBLOCKREPETAG
1070
     1
1071
        7
1005
121C24
  0
LINE
  5
121C25
  8
OBJECT
 10
4575.0
 20
-659.99999999999886
 30
0.0
 11
4575.0
 21
-741.99999999999545
 31
0.0
1001
ACDBBLOCKREPETAG
1070
     1
1071
        8
1005
121C25
  0
LINE
  5
121C26
  8
OBJECT
 10
4425.0
 20
-741.99999999999545
 30
0.0
 11
4575.0
 21
-741.99999999999545
 31
0.0
1001
ACDBBLOCKREPETAG
1070
     1
1071
        9
1005
121C26
  0
LINE
  5
121C27
  8
OBJECT
 10
4425.0
 20
-741.99999999999545
 30
0.0
 11
4443.0
 21
-869.99999999999545
 31
0.0
1001
ACDBBLOCKREPETAG
1070
     1
1071
       10
1005
121C27
  0
LINE
  5
121C28
  8
OBJECT
 10
4557.0
 20
-869.99999999999545
 30
0.0
 11
4575.0
 21
-741.99999999999545
 31
0.0
1001
ACDBBLOCKREPETAG
1070
     1
1071
       11
1005
121C28
  0
LINE
  5
121C29
  8
SLIM
 10
3914.9999999999941
 20
-655.19743878931445
 30
0.0
 11
3925.1974387893092
 21
-644.99999999999955
 31
0.0
1001
ACAD
1010
0.0
1020
0.0
1030
0.0
1001
ACDBBLOCKREPETAG
1070
     1
1071
       12
1005
121C29
  0
LINE
  5
121C2A
  8
SLIM
 10
3914.999999999995
 20
-673.15795103145149
 30
0.0
 11
3943.1579510314468
 21
-644.99999999999955
 31
0.0
1001
ACAD
1010
0.0
1020
0.0
1030
0.0
1001
ACDBBLOCKREPETAG
1070
     1
1071
       13
1005
121C2A
  0
LINE
  5
121C2B
  8
SLIM
 10
3914.9999999999968
 20
-691.11846327358842
 30
0.0
 11
3961.1184632735849
 21
-644.99999999999955
 31
0.0
1001
ACAD
1010
0.0
1020
0.0
1030
0.0
1001
ACDBBLOCKREPETAG
1070
     1
1071
       14
1005
121C2B
  0
LINE
  5
121C2C
  8
SLIM
 10
3914.9999999999968
 20
-709.07897551572535
 30
0.0
 11
3979.0789755157239
 21
-644.99999999999955
 31
0.0
1001
ACAD
1010
0.0
1020
0.0
1030
0.0
1001
ACDBBLOCKREPETAG
1070
     1
1071
       15
1005
121C2C
  0
LINE
  5
121C2D
  8
SLIM
 10
3914.9999999999991
 20
-727.03948775786239
 30
0.0
 11
3997.0394877578619
 21
-644.99999999999955
 31
0.0
1001
ACAD
1010
0.0
1020
0.0
1030
0.0
1001
ACDBBLOCKREPETAG
1070
     1
1071
       16
1005
121C2D
  0
LINE
  5
121C2E
  8
SLIM
 10
3915.283600749558
 20
-744.71639925044144
 30
0.0
 11
4015.0
 21
-644.99999999999955
 31
0.0
1001
ACAD
1010
0.0
1020
0.0
1030
0.0
1001
ACDBBLOCKREPETAG
1070
     1
1071
       17
1005
121C2E
  0
LINE
  5
121C2F
  8
SLIM
 10
3917.4979104780409
 20
-760.46260176409703
 30
0.0
 11
4032.9605122421372
 21
-644.99999999999955
 31
0.0
1001
ACAD
1010
0.0
1020
0.0
1030
0.0
1001
ACDBBLOCKREPETAG
1070
     1
1071
       18
1005
121C2F
  0
LINE
  5
121C30
  8
SLIM
 10
3919.7122202065239
 20
-776.20880427775205
 30
0.0
 11
4050.921024484277
 21
-644.99999999999955
 31
0.0
1001
ACAD
1010
0.0
1020
0.0
1030
0.0
1001
ACDBBLOCKREPETAG
1070
     1
1071
       19
1005
121C30
  0
LINE
  5
121C31
  8
SLIM
 10
3921.9265299350068
 20
-791.9550067914073
 30
0.0
 11
4068.8815367264142
 21
-644.99999999999955
 31
0.0
1001
ACAD
1010
0.0
1020
0.0
1030
0.0
1001
ACDBBLOCKREPETAG
1070
     1
1071
       20
1005
121C31
  0
LINE
  5
121C32
  8
SLIM
 10
3924.1408396634902
 20
-807.70120930506243
 30
0.0
 11
4085.0000000000068
 21
-646.84204896854555
 31
0.0
1001
ACAD
1010
0.0
1020
0.0
1030
0.0
1001
ACDBBLOCKREPETAG
1070
     1
1071
       21
1005
121C32
  0
LINE
  5
121C33
  8
SLIM
 10
3926.3551493919731
 20
-823.44741181871768
 30
0.0
 11
4085.0000000000059
 21
-664.80256121068533
 31
0.0
1001
ACAD
1010
0.0
1020
0.0
1030
0.0
1001
ACDBBLOCKREPETAG
1070
     1
1071
       22
1005
121C33
  0
LINE
  5
121C34
  8
SLIM
 10
3928.569459120456
 20
-839.19361433237304
 30
0.0
 11
4085.0000000000041
 21
-682.76307345282476
 31
0.0
1001
ACAD
1010
0.0
1020
0.0
1030
0.0
1001
ACDBBLOCKREPETAG
1070
     1
1071
       23
1005
121C34
  0
LINE
  5
121C35
  8
SLIM
 10
3930.783768848939
 20
-854.93981684602829
 30
0.0
 11
4085.0000000000032
 21
-700.72358569496441
 31
0.0
1001
ACAD
1010
0.0
1020
0.0
1030
0.0
1001
ACDBBLOCKREPETAG
1070
     1
1071
       24
1005
121C35
  0
LINE
  5
121C36
  8
SLIM
 10
3932.9980785774228
 20
-870.68601935968354
 30
0.0
 11
4085.0000000000009
 21
-718.68409793710418
 31
0.0
1001
ACAD
1010
0.0
1020
0.0
1030
0.0
1001
ACDBBLOCKREPETAG
1070
     1
1071
       25
1005
121C36
  0
LINE
  5
121C37
  8
SLIM
 10
3943.0
 20
-878.64461017924395
 30
0.0
 11
3946.6446101792471
 21
-874.99999999999761
 31
0.0
1001
ACAD
1010
0.0
1020
0.0
1030
0.0
1001
ACDBBLOCKREPETAG
1070
     1
1071
       26
1005
121C37
  0
LINE
  5
121C38
  8
SLIM
 10
3946.6446101792471
 20
-874.99999999999761
 30
0.0
 11
4085.0
 21
-736.64461017924395
 31
0.0
1001
ACAD
1010
0.0
1020
0.0
1030
0.0
1001
ACDBBLOCKREPETAG
1070
     1
1071
       27
1005
121C38
  0
LINE
  5
121C39
  8
SLIM
 10
3944.6051224213852
 20
-894.99999999999773
 30
0.0
 11
3964.6051224213852
 21
-874.99999999999761
 31
0.0
1001
ACAD
1010
0.0
1020
0.0
1030
0.0
1001
ACDBBLOCKREPETAG
1070
     1
1071
       28
1005
121C39
  0
LINE
  5
121C3A
  8
SLIM
 10
3964.6051224213852
 20
-874.99999999999761
 30
0.0
 11
4083.0518371543649
 21
-756.55328526701703
 31
0.0
1001
ACAD
1010
0.0
1020
0.0
1030
0.0
1001
ACDBBLOCKREPETAG
1070
     1
1071
       29
1005
121C3A
  0
LINE
  5
121C3B
  8
SLIM
 10
3962.5656346635228
 20
-894.99999999999773
 30
0.0
 11
3982.5656346635242
 21
-874.99999999999761
 31
0.0
1001
ACAD
1010
0.0
1020
0.0
1030
0.0
1001
ACDBBLOCKREPETAG
1070
     1
1071
       30
1005
121C3B
  0
LINE
  5
121C3C
  8
SLIM
 10
3982.5656346635242
 20
-874.99999999999761
 30
0.0
 11
4080.1128442420149
 21
-777.45279042150503
 31
0.0
1001
ACAD
1010
0.0
1020
0.0
1030
0.0
1001
ACDBBLOCKREPETAG
1070
     1
1071
       31
1005
121C3C
  0
LINE
  5
121C3D
  8
SLIM
 10
3980.5261469056618
 20
-894.99999999999773
 30
0.0
 11
4000.5261469056609
 21
-874.99999999999761
 31
0.0
1001
ACAD
1010
0.0
1020
0.0
1030
0.0
1001
ACDBBLOCKREPETAG
1070
     1
1071
       32
1005
121C3D
  0
LINE
  5
121C3E
  8
SLIM
 10
4000.5261469056609
 20
-874.99999999999761
 30
0.0
 11
4077.173851329665
 21
-798.35229557599314
 31
0.0
1001
ACAD
1010
0.0
1020
0.0
1030
0.0
1001
ACDBBLOCKREPETAG
1070
     1
1071
       33
1005
121C3E
  0
LINE
  5
121C3F
  8
SLIM
 10
3998.4866591477999
 20
-894.99999999999773
 30
0.0
 11
4018.4866591477989
 21
-874.99999999999761
 31
0.0
1001
ACAD
1010
0.0
1020
0.0
1030
0.0
1001
ACDBBLOCKREPETAG
1070
     1
1071
       34
1005
121C3F
  0
LINE
  5
121C40
  8
SLIM
 10
4018.4866591477989
 20
-874.99999999999761
 30
0.0
 11
4074.234858417316
 21
-819.2518007304808
 31
0.0
1001
ACAD
1010
0.0
1020
0.0
1030
0.0
1001
ACDBBLOCKREPETAG
1070
     1
1071
       35
1005
121C40
  0
LINE
  5
121C41
  8
SLIM
 10
4016.4471713899379
 20
-894.99999999999773
 30
0.0
 11
4036.4471713899361
 21
-874.99999999999761
 31
0.0
1001
ACAD
1010
0.0
1020
0.0
1030
0.0
1001
ACDBBLOCKREPETAG
1070
     1
1071
       36
1005
121C41
  0
LINE
  5
121C42
  8
SLIM
 10
4036.4471713899361
 20
-874.99999999999761
 30
0.0
 11
4071.295865504967
 21
-840.15130588496902
 31
0.0
1001
ACAD
1010
0.0
1020
0.0
1030
0.0
1001
ACDBBLOCKREPETAG
1070
     1
1071
       37
1005
121C42
  0
LINE
  5
121C43
  8
SLIM
 10
4034.4076836320769
 20
-894.99999999999773
 30
0.0
 11
4054.407683632076
 21
-874.99999999999761
 31
0.0
1001
ACAD
1010
0.0
1020
0.0
1030
0.0
1001
ACDBBLOCKREPETAG
1070
     1
1071
       38
1005
121C43
  0
LINE
  5
121C44
  8
SLIM
 10
4054.407683632076
 20
-874.99999999999761
 30
0.0
 11
4068.3568725926161
 21
-861.05081103945724
 31
0.0
1001
ACAD
1010
0.0
1020
0.0
1030
0.0
1001
ACDBBLOCKREPETAG
1070
     1
1071
       39
1005
121C44
  0
LINE
  5
121C45
  8
SLIM
 10
4052.368195874215
 20
-894.99999999999773
 30
0.0
 11
4057.0
 21
-890.36819587421235
 31
0.0
1001
ACAD
1010
0.0
1020
0.0
1030
0.0
1001
ACDBBLOCKREPETAG
1070
     1
1071
       40
1005
121C45
  0
LINE
  5
121C46
  8
OBJECT
 10
3943.0
 20
-894.99999999999773
 30
0.0
 11
4057.0
 21
-894.99999999999773
 31
0.0
1001
ACDBBLOCKREPETAG
1070
     1
1071
        1
1005
121C46
  0
LINE
  5
121C47
  8
OBJECT
 10
3933.604732104965
 20
-874.99999999999761
 30
0.0
 11
4066.3952678950409
 21
-874.99999999999761
 31
0.0
1001
ACDBBLOCKREPETAG
1070
     1
1071
        2
1005
121C47
  0
LINE
  5
121C48
  8
OBJECT
 10
3943.0
 20
-894.99999999999773
 30
0.0
 11
3943.0
 21
-874.99999999999761
 31
0.0
1001
ACDBBLOCKREPETAG
1070
     1
1071
        3
1005
121C48
  0
LINE
  5
121C49
  8
OBJECT
 10
4057.0
 20
-894.99999999999773
 30
0.0
 11
4057.0
 21
-874.99999999999761
 31
0.0
1001
ACDBBLOCKREPETAG
1070
     1
1071
        4
1005
121C49
  0
LINE
  5
121C4A
  8
OBJECT
 10
3914.9999999999941
 20
-644.99999999999955
 30
0.0
 11
3915.0
 21
-742.69968280914077
 31
0.0
1001
ACDBBLOCKREPETAG
1070
     1
1071
        5
1005
121C4A
  0
LINE
  5
121C4B
  8
OBJECT
 10
4085.0000000000068
 20
-644.99999999999955
 30
0.0
 11
4085.0
 21
-742.69968280917192
 31
0.0
1001
ACDBBLOCKREPETAG
1070
     1
1071
        6
1005
121C4B
  0
LINE
  5
121C4C
  8
OBJECT
 10
3915.0
 20
-742.69968280914077
 30
0.0
 11
3933.604732104965
 21
-874.99999999999761
 31
0.0
1001
ACDBBLOCKREPETAG
1070
     1
1071
        7
1005
121C4C
  0
LINE
  5
121C4D
  8
OBJECT
 10
4066.3952678950409
 20
-874.99999999999761
 30
0.0
 11
4085.0
 21
-742.69968280917192
 31
0.0
1001
ACDBBLOCKREPETAG
1070
     1
1071
        8
1005
121C4D
  0
LINE
  5
121C4E
  8
OBJECT
 10
4085.0000000000068
 20
-644.99999999999955
 30
0.0
 11
3914.9999999999941
 21
-644.99999999999955
 31
0.0
1001
ACDBBLOCKREPETAG
1070
     1
1071
        9
1005
121C4E
  0
LINE
  5
121C4F
  8
OBJECT
 10
3943.0
 20
-969.99999999999545
 30
0.0
 11
4057.0
 21
-969.99999999999545
 31
0.0
1001
ACDBBLOCKREPETAG
1070
     1
1071
        0
1005
121C4F
  0
LINE
  5
121C50
  8
OBJECT
 10
3943.0
 20
-969.99999999999545
 30
0.0
 11
3943.0
 21
-869.99999999999545
 31
0.0
1001
ACDBBLOCKREPETAG
1070
     1
1071
        1
1005
121C50
  0
LINE
  5
121C51
  8
OBJECT
 10
4057.0
 20
-969.99999999999545
 30
0.0
 11
4057.0
 21
-869.99999999999545
 31
0.0
1001
ACDBBLOCKREPETAG
1070
     1
1071
        2
1005
121C51
  0
LINE
  5
121C52
  8
OBJECT
 10
3943.0
 20
-869.99999999999545
 30
0.0
 11
4057.0
 21
-869.99999999999545
 31
0.0
1001
ACDBBLOCKREPETAG
1070
     1
1071
        3
1005
121C52
  0
LINE
  5
121C53
  8
HIDDEN
 10
3950.0
 20
-869.99999999999545
 30
0.0
 11
3950.0
 21
-969.99999999999545
 31
0.0
1001
ACDBBLOCKREPETAG
1070
     1
1071
        4
1005
121C53
  0
LINE
  5
121C54
  8
HIDDEN
 10
4050.0
 20
-869.99999999999545
 30
0.0
 11
4050.0
 21
-969.99999999999545
 31
0.0
1001
ACDBBLOCKREPETAG
1070
     1
1071
        5
1005
121C54
  0
LINE
  5
121C55
  8
CENTER
 10
4000.0
 20
-659.99999999999886
 30
0.0
 11
4000.0
 21
-984.99999999999545
 31
0.0
1001
ACDBBLOCKREPETAG
1070
     1
1071
        6
1005
121C55
  0
LINE
  5
121C56
  8
OBJECT
 10
3925.0
 20
-659.99999999999886
 30
0.0
 11
3925.0
 21
-741.99999999999545
 31
0.0
1001
ACDBBLOCKREPETAG
1070
     1
1071
        7
1005
121C56
  0
LINE
  5
121C57
  8
OBJECT
 10
4075.0
 20
-659.99999999999886
 30
0.0
 11
4075.0
 21
-741.99999999999545
 31
0.0
1001
ACDBBLOCKREPETAG
1070
     1
1071
        8
1005
121C57
  0
LINE
  5
121C58
  8
OBJECT
 10
3925.0
 20
-741.99999999999545
 30
0.0
 11
4075.0
 21
-741.99999999999545
 31
0.0
1001
ACDBBLOCKREPETAG
1070
     1
1071
        9
1005
121C58
  0
LINE
  5
121C59
  8
OBJECT
 10
3925.0
 20
-741.99999999999545
 30
0.0
 11
3943.0
 21
-869.99999999999545
 31
0.0
1001
ACDBBLOCKREPETAG
1070
     1
1071
       10
1005
121C59
  0
LINE
  5
121C5A
  8
OBJECT
 10
4057.0
 20
-869.99999999999545
 30
0.0
 11
4075.0
 21
-741.99999999999545
 31
0.0
1001
ACDBBLOCKREPETAG
1070
     1
1071
       11
1005
121C5A
  0
LINE
  5
121C5B
  8
OBJECT
 10
2443.0
 20
-969.99999999999602
 30
0.0
 11
2557.0
 21
-969.99999999999602
 31
0.0
1001
ACDBBLOCKREPETAG
1070
     1
1071
        0
1005
121C5B
  0
LINE
  5
121C5C
  8
OBJECT
 10
2443.0
 20
-969.99999999999602
 30
0.0
 11
2443.0
 21
-869.99999999999602
 31
0.0
1001
ACDBBLOCKREPETAG
1070
     1
1071
        1
1005
121C5C
  0
LINE
  5
121C5D
  8
OBJECT
 10
2557.0
 20
-969.99999999999602
 30
0.0
 11
2557.0
 21
-869.99999999999602
 31
0.0
1001
ACDBBLOCKREPETAG
1070
     1
1071
        2
1005
121C5D
  0
LINE
  5
121C5E
  8
OBJECT
 10
2443.0
 20
-869.99999999999602
 30
0.0
 11
2557.0
 21
-869.99999999999602
 31
0.0
1001
ACDBBLOCKREPETAG
1070
     1
1071
        3
1005
121C5E
  0
LINE
  5
121C5F
  8
HIDDEN
 10
2450.0
 20
-869.99999999999602
 30
0.0
 11
2450.0
 21
-969.99999999999602
 31
0.0
1001
ACDBBLOCKREPETAG
1070
     1
1071
        4
1005
121C5F
  0
LINE
  5
121C60
  8
HIDDEN
 10
2550.0
 20
-869.99999999999602
 30
0.0
 11
2550.0
 21
-969.99999999999602
 31
0.0
1001
ACDBBLOCKREPETAG
1070
     1
1071
        5
1005
121C60
  0
LINE
  5
121C61
  8
CENTER
 10
2500.0
 20
-659.99999999999955
 30
0.0
 11
2500.0
 21
-984.99999999999602
 31
0.0
1001
ACDBBLOCKREPETAG
1070
     1
1071
        6
1005
121C61
  0
LINE
  5
121C62
  8
OBJECT
 10
2425.0
 20
-659.99999999999955
 30
0.0
 11
2425.0
 21
-741.99999999999591
 31
0.0
1001
ACDBBLOCKREPETAG
1070
     1
1071
        7
1005
121C62
  0
LINE
  5
121C63
  8
OBJECT
 10
2575.0
 20
-659.99999999999955
 30
0.0
 11
2575.0
 21
-741.99999999999591
 31
0.0
1001
ACDBBLOCKREPETAG
1070
     1
1071
        8
1005
121C63
  0
LINE
  5
121C64
  8
OBJECT
 10
2425.0
 20
-741.99999999999591
 30
0.0
 11
2575.0
 21
-741.99999999999591
 31
0.0
1001
ACDBBLOCKREPETAG
1070
     1
1071
        9
1005
121C64
  0
LINE
  5
121C65
  8
OBJECT
 10
2425.0
 20
-741.99999999999591
 30
0.0
 11
2443.0
 21
-869.99999999999602
 31
0.0
1001
ACDBBLOCKREPETAG
1070
     1
1071
       10
1005
121C65
  0
LINE
  5
121C66
  8
OBJECT
 10
2557.0
 20
-869.99999999999602
 30
0.0
 11
2575.0
 21
-741.99999999999591
 31
0.0
1001
ACDBBLOCKREPETAG
1070
     1
1071
       11
1005
121C66
  0
LINE
  5
121C67
  8
OBJECT
 10
1943.0
 20
-969.99999999999557
 30
0.0
 11
2057.0
 21
-969.99999999999557
 31
0.0
1001
ACDBBLOCKREPETAG
1070
     1
1071
        0
1005
121C67
  0
LINE
  5
121C68
  8
OBJECT
 10
1943.0
 20
-969.99999999999557
 30
0.0
 11
1943.0
 21
-869.99999999999579
 31
0.0
1001
ACDBBLOCKREPETAG
1070
     1
1071
        1
1005
121C68
  0
LINE
  5
121C69
  8
OBJECT
 10
2057.0
 20
-969.99999999999557
 30
0.0
 11
2057.0
 21
-869.99999999999579
 31
0.0
1001
ACDBBLOCKREPETAG
1070
     1
1071
        2
1005
121C69
  0
LINE
  5
121C6A
  8
OBJECT
 10
1943.0
 20
-869.99999999999579
 30
0.0
 11
2057.0
 21
-869.99999999999579
 31
0.0
1001
ACDBBLOCKREPETAG
1070
     1
1071
        3
1005
121C6A
  0
LINE
  5
121C6B
  8
HIDDEN
 10
1950.0
 20
-869.99999999999579
 30
0.0
 11
1950.0
 21
-969.99999999999557
 31
0.0
1001
ACDBBLOCKREPETAG
1070
     1
1071
        4
1005
121C6B
  0
LINE
  5
121C6C
  8
HIDDEN
 10
2050.0
 20
-869.99999999999579
 30
0.0
 11
2050.0
 21
-969.99999999999557
 31
0.0
1001
ACDBBLOCKREPETAG
1070
     1
1071
        5
1005
121C6C
  0
LINE
  5
121C6D
  8
CENTER
 10
2000.0
 20
-659.99999999999955
 30
0.0
 11
2000.0
 21
-984.99999999999545
 31
0.0
1001
ACDBBLOCKREPETAG
1070
     1
1071
        6
1005
121C6D
  0
LINE
  5
121C6E
  8
OBJECT
 10
1925.0
 20
-659.99999999999955
 30
0.0
 11
1925.0
 21
-741.99999999999591
 31
0.0
1001
ACDBBLOCKREPETAG
1070
     1
1071
        7
1005
121C6E
  0
LINE
  5
121C6F
  8
OBJECT
 10
2075.0
 20
-659.99999999999955
 30
0.0
 11
2075.0
 21
-741.99999999999591
 31
0.0
1001
ACDBBLOCKREPETAG
1070
     1
1071
        8
1005
121C6F
  0
LINE
  5
121C70
  8
OBJECT
 10
1925.0
 20
-741.99999999999591
 30
0.0
 11
2075.0
 21
-741.99999999999591
 31
0.0
1001
ACDBBLOCKREPETAG
1070
     1
1071
        9
1005
121C70
  0
LINE
  5
121C71
  8
OBJECT
 10
1925.0
 20
-741.99999999999591
 30
0.0
 11
1943.0
 21
-869.99999999999579
 31
0.0
1001
ACDBBLOCKREPETAG
1070
     1
1071
       10
1005
121C71
  0
LINE
  5
121C72
  8
OBJECT
 10
2057.0
 20
-869.99999999999579
 30
0.0
 11
2075.0
 21
-741.99999999999591
 31
0.0
1001
ACDBBLOCKREPETAG
1070
     1
1071
       11
1005
121C72
  0
LINE
  5
121C73
  8
CENTER
 10
2577.0
 20
-586.0
 30
0.0
 11
2423.0
 21
-586.0
 31
0.0
1001
ACDBBLOCKREPETAG
1070
     1
1071
       17
1005
121C73
  0
CIRCLE
  5
121C74
  8
OBJECT
 10
2500.0
 20
-586.0
 30
0.0
 40
41.5
1001
ACDBBLOCKREPETAG
1070
     1
1071
       19
1005
121C74
  0
CIRCLE
  5
121C75
  8
OBJECT
 10
2500.0
 20
-586.0
 30
0.0
 40
54.0
1001
ACDBBLOCKREPETAG
1070
     1
1071
       20
1005
121C75
  0
ARC
  5
121C76
  8
OBJECT
 10
2500.0
 20
-586.0
 30
0.0
 40
62.0
 50
287.89655112920718
 51
252.10344887079279
1001
ACDBBLOCKREPETAG
1070
     1
1071
       21
1005
121C76
  0
LINE
  5
121C77
  8
OBJECT
 10
2480.947441116743
 20
-645.0
 30
0.0
 11
2519.052558883257
 21
-645.0
 31
0.0
1001
ACDBBLOCKREPETAG
1070
     1
1071
       22
1005
121C77
  0
LINE
  5
121C78
  8
OBJECT
 10
2133.0
 20
-524.0
 30
0.0
 11
2140.0
 21
-524.0
 31
0.0
1001
ACDBBLOCKREPETAG
1070
     1
1071
       45
1005
121C78
  0
LINE
  5
121C79
  8
OBJECT
 10
2140.0
 20
-524.0
 30
0.0
 11
2140.0
 21
-645.0
 31
0.0
1001
ACDBBLOCKREPETAG
1070
     1
1071
       46
1005
121C79
  0
LINE
  5
121C7A
  8
OBJECT
 10
2133.0
 20
-645.0
 30
0.0
 11
2133.0
 21
-524.0
 31
0.0
1001
ACDBBLOCKREPETAG
1070
     1
1071
       47
1005
121C7A
  0
LINE
  5
121C7B
  8
CENTER
 10
2155.0
 20
-586.0
 30
0.0
 11
2071.0
 21
-586.0
 31
0.0
1001
ACDBBLOCKREPETAG
1070
     1
1071
       48
1005
121C7B
  0
LINE
  5
121C7C
  8
OBJECT
 10
2133.0
 20
-527.0
 30
0.0
 11
2097.0
 21
-527.0
 31
0.0
1001
ACDBBLOCKREPETAG
1070
     1
1071
       49
1005
121C7C
  0
LINE
  5
121C7D
  8
OBJECT
 10
2097.0
 20
-527.0
 30
0.0
 11
2097.0
 21
-645.0
 31
0.0
1001
ACDBBLOCKREPETAG
1070
     1
1071
       50
1005
121C7D
  0
LINE
  5
121C7E
  8
OBJECT
 10
2097.0
 20
-645.0
 30
0.0
 11
2140.0
 21
-645.0
 31
0.0
1001
ACDBBLOCKREPETAG
1070
     1
1071
       51
1005
121C7E
  0
LINE
  5
121C7F
  8
OBJECT
 10
2093.0
 20
-531.5
 30
0.0
 11
2086.0
 21
-531.5
 31
0.0
1001
ACDBBLOCKREPETAG
1070
     1
1071
       52
1005
121C7F
  0
LINE
  5
121C80
  8
OBJECT
 10
2086.0
 20
-640.5
 30
0.0
 11
2093.0
 21
-640.5
 31
0.0
1001
ACDBBLOCKREPETAG
1070
     1
1071
       53
1005
121C80
  0
LINE
  5
121C81
  8
OBJECT
 10
2093.0
 20
-640.5
 30
0.0
 11
2093.0
 21
-531.5
 31
0.0
1001
ACDBBLOCKREPETAG
1070
     1
1071
       54
1005
121C81
  0
LINE
  5
121C82
  8
OBJECT
 10
2097.0
 20
-527.0
 30
0.0
 11
2093.0
 21
-531.5
 31
0.0
1001
ACDBBLOCKREPETAG
1070
     1
1071
       55
1005
121C82
  0
LINE
  5
121C83
  8
OBJECT
 10
2097.0
 20
-645.0
 30
0.0
 11
2093.0
 21
-640.5
 31
0.0
1001
ACDBBLOCKREPETAG
1070
     1
1071
       56
1005
121C83
  0
LINE
  5
121C84
  8
OBJECT
 10
2083.0
 20
-524.0
 30
0.0
 11
2080.0
 21
-524.0
 31
0.0
1001
ACDBBLOCKREPETAG
1070
     1
1071
       57
1005
121C84
  0
ARC
  5
121C85
  8
OBJECT
 10
2083.0
 20
-527.0
 30
0.0
 40
3.0
 50
0.0
 51
90.0
1001
ACDBBLOCKREPETAG
1070
     1
1071
       58
1005
121C85
  0
LINE
  5
121C86
  8
OBJECT
 10
2080.0
 20
-648.0
 30
0.0
 11
2083.0
 21
-648.0
 31
0.0
1001
ACDBBLOCKREPETAG
1070
     1
1071
       59
1005
121C86
  0
ARC
  5
121C87
  8
OBJECT
 10
2083.0
 20
-645.0
 30
0.0
 40
3.0
 50
270.0
 51
0.0
1001
ACDBBLOCKREPETAG
1070
     1
1071
       60
1005
121C87
  0
LINE
  5
121C88
  8
OBJECT
 10
2086.0
 20
-645.0
 30
0.0
 11
2086.0
 21
-527.0
 31
0.0
1001
ACDBBLOCKREPETAG
1070
     1
1071
       61
1005
121C88
  0
LINE
  5
121C89
  8
HIDDEN
 10
2088.0
 20
-541.5
 30
0.0
 11
2088.0
 21
-630.49999999999977
 31
0.0
1001
ACDBBLOCKREPETAG
1070
     1
1071
       63
1005
121C89
  0
LINE
  5
121C8A
  8
OBJECT
 10
2133.0
 20
-137.99999999999909
 30
0.0
 11
2140.0
 21
-137.99999999999909
 31
0.0
1001
ACDBBLOCKREPETAG
1070
     1
1071
       47
1005
121C8A
  0
LINE
  5
121C8B
  8
OBJECT
 10
2140.0
 20
-137.99999999999909
 30
0.0
 11
2140.0
 21
-261.99999999999909
 31
0.0
1001
ACDBBLOCKREPETAG
1070
     1
1071
       48
1005
121C8B
  0
LINE
  5
121C8C
  8
OBJECT
 10
2140.0
 20
-261.99999999999909
 30
0.0
 11
2133.0
 21
-261.99999999999909
 31
0.0
1001
ACDBBLOCKREPETAG
1070
     1
1071
       49
1005
121C8C
  0
LINE
  5
121C8D
  8
OBJECT
 10
2133.0
 20
-261.99999999999909
 30
0.0
 11
2133.0
 21
-137.99999999999909
 31
0.0
1001
ACDBBLOCKREPETAG
1070
     1
1071
       50
1005
121C8D
  0
LINE
  5
121C8E
  8
CENTER
 10
2155.0
 20
-199.99999999999909
 30
0.0
 11
2080.0
 21
-199.99999999999909
 31
0.0
1001
ACDBBLOCKREPETAG
1070
     1
1071
       51
1005
121C8E
  0
LINE
  5
121C8F
  8
OBJECT
 10
2133.0
 20
-140.99999999999909
 30
0.0
 11
2097.0
 21
-140.99999999999909
 31
0.0
1001
ACDBBLOCKREPETAG
1070
     1
1071
       52
1005
121C8F
  0
LINE
  5
121C90
  8
OBJECT
 10
2097.0
 20
-140.99999999999909
 30
0.0
 11
2097.0
 21
-258.99999999999909
 31
0.0
1001
ACDBBLOCKREPETAG
1070
     1
1071
       53
1005
121C90
  0
LINE
  5
121C91
  8
OBJECT
 10
2097.0
 20
-258.99999999999909
 30
0.0
 11
2133.0
 21
-258.99999999999909
 31
0.0
1001
ACDBBLOCKREPETAG
1070
     1
1071
       54
1005
121C91
  0
LINE
  5
121C92
  8
OBJECT
 10
2093.0
 20
-145.49999999999909
 30
0.0
 11
2086.0
 21
-145.49999999999909
 31
0.0
1001
ACDBBLOCKREPETAG
1070
     1
1071
       55
1005
121C92
  0
LINE
  5
121C93
  8
OBJECT
 10
2086.0
 20
-254.49999999999909
 30
0.0
 11
2093.0
 21
-254.49999999999909
 31
0.0
1001
ACDBBLOCKREPETAG
1070
     1
1071
       56
1005
121C93
  0
LINE
  5
121C94
  8
OBJECT
 10
2093.0
 20
-254.49999999999909
 30
0.0
 11
2093.0
 21
-145.49999999999909
 31
0.0
1001
ACDBBLOCKREPETAG
1070
     1
1071
       57
1005
121C94
  0
LINE
  5
121C95
  8
OBJECT
 10
2097.0
 20
-140.99999999999909
 30
0.0
 11
2093.0
 21
-145.49999999999909
 31
0.0
1001
ACDBBLOCKREPETAG
1070
     1
1071
       58
1005
121C95
  0
LINE
  5
121C96
  8
OBJECT
 10
2097.0
 20
-258.99999999999909
 30
0.0
 11
2093.0
 21
-254.49999999999909
 31
0.0
1001
ACDBBLOCKREPETAG
1070
     1
1071
       59
1005
121C96
  0
LINE
  5
121C97
  8
OBJECT
 10
2083.0
 20
-137.99999999999909
 30
0.0
 11
2080.0
 21
-137.99999999999909
 31
0.0
1001
ACDBBLOCKREPETAG
1070
     1
1071
       60
1005
121C97
  0
ARC
  5
121C98
  8
OBJECT
 10
2083.0
 20
-140.99999999999909
 30
0.0
 40
3.0
 50
0.0
 51
90.0
1001
ACDBBLOCKREPETAG
1070
     1
1071
       61
1005
121C98
  0
LINE
  5
121C99
  8
OBJECT
 10
2080.0
 20
-261.99999999999909
 30
0.0
 11
2083.0
 21
-261.99999999999909
 31
0.0
1001
ACDBBLOCKREPETAG
1070
     1
1071
       62
1005
121C99
  0
ARC
  5
121C9A
  8
OBJECT
 10
2083.0
 20
-258.99999999999909
 30
0.0
 40
3.0
 50
270.0
 51
0.0
1001
ACDBBLOCKREPETAG
1070
     1
1071
       63
1005
121C9A
  0
LINE
  5
121C9B
  8
OBJECT
 10
2086.0
 20
-258.99999999999909
 30
0.0
 11
2086.0
 21
-140.99999999999909
 31
0.0
1001
ACDBBLOCKREPETAG
1070
     1
1071
       64
1005
121C9B
  0
LINE
  5
121C9C
  8
HIDDEN
 10
2088.0
 20
-155.49999999999909
 30
0.0
 11
2088.0
 21
-244.49999999999909
 31
0.0
1001
ACDBBLOCKREPETAG
1070
     1
1071
       65
1005
121C9C
  0
LINE
  5
121C9D
  8
OBJECT
 10
465.00000000012182
 20
-546.00000000000955
 30
0.0
 11
465.00000000012182
 21
-553.00000000000966
 31
0.0
1001
ACDBBLOCKREPETAG
1070
     1
1071
       57
1005
121C9D
  0
LINE
  5
121C9E
  8
OBJECT
 10
465.00000000012182
 20
-553.00000000000966
 30
0.0
 11
615.00000000012176
 21
-553.00000000000966
 31
0.0
1001
ACDBBLOCKREPETAG
1070
     1
1071
       58
1005
121C9E
  0
LINE
  5
121C9F
  8
OBJECT
 10
468.00000000012182
 20
-594.50000000000966
 30
0.0
 11
612.00000000012164
 21
-594.50000000000966
 31
0.0
1001
ACDBBLOCKREPETAG
1070
     1
1071
       59
1005
121C9F
  0
LINE
  5
121CA0
  8
OBJECT
 10
474.5000000001217
 20
-606.00000000000955
 30
0.0
 11
605.50000000012187
 21
-606.00000000000955
 31
0.0
1001
ACDBBLOCKREPETAG
1070
     1
1071
       60
1005
121CA0
  0
LINE
  5
121CA1
  8
OBJECT
 10
615.00000000012176
 20
-553.00000000000966
 30
0.0
 11
615.00000000012176
 21
-546.00000000000955
 31
0.0
1001
ACDBBLOCKREPETAG
1070
     1
1071
       61
1005
121CA1
  0
LINE
  5
121CA2
  8
OBJECT
 10
615.00000000012176
 20
-546.00000000000955
 30
0.0
 11
465.00000000012182
 21
-546.00000000000955
 31
0.0
1001
ACDBBLOCKREPETAG
1070
     1
1071
       62
1005
121CA2
  0
LINE
  5
121CA3
  8
OBJECT
 10
602.00000000012187
 20
-610.00000000000955
 30
0.0
 11
602.00000000012187
 21
-616.00000000000955
 31
0.0
1001
ACDBBLOCKREPETAG
1070
     1
1071
       63
1005
121CA3
  0
LINE
  5
121CA4
  8
OBJECT
 10
612.00000000012164
 20
-553.00000000000966
 30
0.0
 11
612.00000000012164
 21
-594.50000000000966
 31
0.0
1001
ACDBBLOCKREPETAG
1070
     1
1071
       64
1005
121CA4
  0
LINE
  5
121CA5
  8
OBJECT
 10
612.00000000012164
 20
-594.50000000000966
 30
0.0
 11
605.50000000012187
 21
-606.00000000000955
 31
0.0
1001
ACDBBLOCKREPETAG
1070
     1
1071
       65
1005
121CA5
  0
LINE
  5
121CA6
  8
OBJECT
 10
605.50000000012187
 20
-606.00000000000955
 30
0.0
 11
602.00000000012187
 21
-610.00000000000955
 31
0.0
1001
ACDBBLOCKREPETAG
1070
     1
1071
       66
1005
121CA6
  0
LINE
  5
121CA7
  8
OBJECT
 10
468.00000000012182
 20
-594.50000000000966
 30
0.0
 11
474.5000000001217
 21
-606.00000000000955
 31
0.0
1001
ACDBBLOCKREPETAG
1070
     1
1071
       67
1005
121CA7
  0
LINE
  5
121CA8
  8
OBJECT
 10
474.5000000001217
 20
-606.00000000000955
 30
0.0
 11
478.0000000001217
 21
-610.00000000000955
 31
0.0
1001
ACDBBLOCKREPETAG
1070
     1
1071
       68
1005
121CA8
  0
ARC
  5
121CA9
  8
OBJECT
 10
540.00000000012176
 20
-228.10000000000809
 30
0.0
 40
386.89999999999998
 50
260.77870136257951
 51
279.22129863742049
1001
ACDBBLOCKREPETAG
1070
     1
1071
       69
1005
121CA9
  0
LINE
  5
121CAA
  8
OBJECT
 10
478.0000000001217
 20
-610.00000000000955
 30
0.0
 11
478.0000000001217
 21
-616.00000000000955
 31
0.0
1001
ACDBBLOCKREPETAG
1070
     1
1071
       70
1005
121CAA
  0
LINE
  5
121CAB
  8
OBJECT
 10
468.00000000012182
 20
-553.00000000000966
 30
0.0
 11
468.00000000012182
 21
-594.50000000000966
 31
0.0
1001
ACDBBLOCKREPETAG
1070
     1
1071
       71
1005
121CAB
  0
INSERT
  5
121CAC
  8
OBJECT
  2
*U22
 10
0.0
 20
0.0
 30
0.0
  0
LINE
  5
121CAD
  8
HIDDEN
 10
597.00000000012187
 20
-598.00000000000955
 30
0.0
 11
483.0000000001217
 21
-598.00000000000955
 31
0.0
1001
ACDBBLOCKREPETAG
1070
     1
1071
      431
1005
121CAD
  0
INSERT
  5
121CAE
  8
OBJECT
  2
*U23
 10
0.0
 20
0.0
 30
0.0
  0
LINE
  5
121CAF
  8
OBJECT
 10
118.00000000004179
 20
-563.00000000000955
 30
0.0
 11
118.00000000004179
 21
-556.00000000000955
 31
0.0
1001
ACDBBLOCKREPETAG
1070
     1
1071
       39
1005
121CAF
  0
LINE
  5
121CB0
  8
OBJECT
 10
118.00000000004179
 20
-556.00000000000955
 30
0.0
 11
242.00000000004181
 21
-556.00000000000955
 31
0.0
1001
ACDBBLOCKREPETAG
1070
     1
1071
       40
1005
121CB0
  0
LINE
  5
121CB1
  8
OBJECT
 10
242.00000000004181
 20
-556.00000000000955
 30
0.0
 11
242.00000000004181
 21
-563.00000000000955
 31
0.0
1001
ACDBBLOCKREPETAG
1070
     1
1071
       41
1005
121CB1
  0
LINE
  5
121CB2
  8
OBJECT
 10
242.00000000004181
 20
-563.00000000000955
 30
0.0
 11
118.00000000004179
 21
-563.00000000000955
 31
0.0
1001
ACDBBLOCKREPETAG
1070
     1
1071
       42
1005
121CB2
  0
LINE
  5
121CB3
  8
OBJECT
 10
121.00000000004179
 20
-563.00000000000955
 30
0.0
 11
121.00000000004179
 21
-599.00000000000966
 31
0.0
1001
ACDBBLOCKREPETAG
1070
     1
1071
       43
1005
121CB3
  0
LINE
  5
121CB4
  8
OBJECT
 10
121.00000000004179
 20
-599.00000000000966
 30
0.0
 11
239.00000000004181
 21
-599.00000000000966
 31
0.0
1001
ACDBBLOCKREPETAG
1070
     1
1071
       44
1005
121CB4
  0
LINE
  5
121CB5
  8
OBJECT
 10
239.00000000004181
 20
-599.00000000000966
 30
0.0
 11
239.00000000004181
 21
-563.00000000000955
 31
0.0
1001
ACDBBLOCKREPETAG
1070
     1
1071
       45
1005
121CB5
  0
LINE
  5
121CB6
  8
OBJECT
 10
125.50000000004179
 20
-603.00000000000966
 30
0.0
 11
125.50000000004179
 21
-610.00000000000955
 31
0.0
1001
ACDBBLOCKREPETAG
1070
     1
1071
       46
1005
121CB6
  0
LINE
  5
121CB7
  8
OBJECT
 10
234.50000000004181
 20
-610.00000000000955
 30
0.0
 11
234.50000000004181
 21
-603.00000000000966
 31
0.0
1001
ACDBBLOCKREPETAG
1070
     1
1071
       47
1005
121CB7
  0
LINE
  5
121CB8
  8
OBJECT
 10
234.50000000004181
 20
-603.00000000000966
 30
0.0
 11
125.50000000004179
 21
-603.00000000000966
 31
0.0
1001
ACDBBLOCKREPETAG
1070
     1
1071
       48
1005
121CB8
  0
LINE
  5
121CB9
  8
OBJECT
 10
121.00000000004179
 20
-599.00000000000966
 30
0.0
 11
125.50000000004179
 21
-603.00000000000966
 31
0.0
1001
ACDBBLOCKREPETAG
1070
     1
1071
       49
1005
121CB9
  0
LINE
  5
121CBA
  8
OBJECT
 10
239.00000000004181
 20
-599.00000000000966
 30
0.0
 11
234.50000000004181
 21
-603.00000000000966
 31
0.0
1001
ACDBBLOCKREPETAG
1070
     1
1071
       50
1005
121CBA
  0
LINE
  5
121CBB
  8
OBJECT
 10
118.00000000004179
 20
-613.00000000000864
 30
0.0
 11
118.00000000004179
 21
-616.00000000000955
 31
0.0
1001
ACDBBLOCKREPETAG
1070
     1
1071
       51
1005
121CBB
  0
ARC
  5
121CBC
  8
OBJECT
 10
121.00000000004179
 20
-613.00000000000864
 30
0.0
 40
3.0
 50
90.0
 51
180.0
1001
ACDBBLOCKREPETAG
1070
     1
1071
       52
1005
121CBC
  0
LINE
  5
121CBD
  8
OBJECT
 10
242.00000000004181
 20
-616.00000000000955
 30
0.0
 11
242.00000000004181
 21
-613.00000000001035
 31
0.0
1001
ACDBBLOCKREPETAG
1070
     1
1071
       53
1005
121CBD
  0
ARC
  5
121CBE
  8
OBJECT
 10
239.00000000004181
 20
-613.00000000001035
 30
0.0
 40
3.0
 50
0.0
 51
90.0
1001
ACDBBLOCKREPETAG
1070
     1
1071
       54
1005
121CBE
  0
LINE
  5
121CBF
  8
OBJECT
 10
239.00000000004181
 20
-610.00000000001035
 30
0.0
 11
121.00000000004179
 21
-610.00000000000864
 31
0.0
1001
ACDBBLOCKREPETAG
1070
     1
1071
       55
1005
121CBF
  0
LINE
  5
121CC0
  8
HIDDEN
 10
135.50000000004181
 20
-608.00000000000955
 30
0.0
 11
224.50000000004181
 21
-608.00000000000955
 31
0.0
1001
ACDBBLOCKREPETAG
1070
     1
1071
      426
1005
121CC0
  0
INSERT
  5
121CC1
  8
OBJECT
  2
*U24
 10
0.0
 20
0.0
 30
0.0
  0
LINE
  5
121CC2
  8
OBJECT
 10
485.00000000012182
 20
-99.000000000003183
 30
0.0
 11
485.00000000012182
 21
-92.000000000003183
 31
0.0
1001
ACDBBLOCKREPETAG
1070
     1
1071
       20
1005
121CC2
  0
LINE
  5
121CC3
  8
OBJECT
 10
485.00000000012182
 20
-92.000000000003183
 30
0.0
 11
595.00000000012164
 21
-92.000000000003183
 31
0.0
1001
ACDBBLOCKREPETAG
1070
     1
1071
       21
1005
121CC3
  0
LINE
  5
121CC4
  8
OBJECT
 10
595.00000000012164
 20
-92.000000000003183
 30
0.0
 11
595.00000000012164
 21
-99.000000000003183
 31
0.0
1001
ACDBBLOCKREPETAG
1070
     1
1071
       22
1005
121CC4
  0
LINE
  5
121CC5
  8
OBJECT
 10
595.00000000012164
 20
-99.000000000003183
 30
0.0
 11
485.00000000012182
 21
-99.000000000003183
 31
0.0
1001
ACDBBLOCKREPETAG
1070
     1
1071
       23
1005
121CC5
  0
LINE
  5
121CC6
  8
OBJECT
 10
488.0000000001217
 20
-99.000000000003183
 30
0.0
 11
488.0000000001217
 21
-135.00000000000321
 31
0.0
1001
ACDBBLOCKREPETAG
1070
     1
1071
       24
1005
121CC6
  0
LINE
  5
121CC7
  8
OBJECT
 10
488.0000000001217
 20
-135.00000000000321
 30
0.0
 11
592.00000000012164
 21
-135.00000000000321
 31
0.0
1001
ACDBBLOCKREPETAG
1070
     1
1071
       25
1005
121CC7
  0
LINE
  5
121CC8
  8
OBJECT
 10
592.00000000012164
 20
-135.00000000000321
 30
0.0
 11
592.00000000012164
 21
-99.000000000003183
 31
0.0
1001
ACDBBLOCKREPETAG
1070
     1
1071
       26
1005
121CC8
  0
LINE
  5
121CC9
  8
OBJECT
 10
492.5000000001217
 20
-139.00000000000321
 30
0.0
 11
492.5000000001217
 21
-146.00000000000321
 31
0.0
1001
ACDBBLOCKREPETAG
1070
     1
1071
       27
1005
121CC9
  0
LINE
  5
121CCA
  8
OBJECT
 10
587.50000000012164
 20
-146.00000000000321
 30
0.0
 11
587.50000000012164
 21
-139.00000000000321
 31
0.0
1001
ACDBBLOCKREPETAG
1070
     1
1071
       28
1005
121CCA
  0
LINE
  5
121CCB
  8
OBJECT
 10
587.50000000012164
 20
-139.00000000000321
 30
0.0
 11
492.5000000001217
 21
-139.00000000000321
 31
0.0
1001
ACDBBLOCKREPETAG
1070
     1
1071
       29
1005
121CCB
  0
LINE
  5
121CCC
  8
OBJECT
 10
488.0000000001217
 20
-135.00000000000321
 30
0.0
 11
492.5000000001217
 21
-139.00000000000321
 31
0.0
1001
ACDBBLOCKREPETAG
1070
     1
1071
       30
1005
121CCC
  0
LINE
  5
121CCD
  8
OBJECT
 10
592.00000000012164
 20
-135.00000000000321
 30
0.0
 11
587.50000000012164
 21
-139.00000000000321
 31
0.0
1001
ACDBBLOCKREPETAG
1070
     1
1071
       31
1005
121CCD
  0
LINE
  5
121CCE
  8
OBJECT
 10
478.0000000001217
 20
-149.0000000000023
 30
0.0
 11
478.0000000001217
 21
-152.0000000000031
 31
0.0
1001
ACDBBLOCKREPETAG
1070
     1
1071
       32
1005
121CCE
  0
ARC
  5
121CCF
  8
OBJECT
 10
481.00000000012182
 20
-149.0000000000023
 30
0.0
 40
3.0
 50
90.0
 51
180.0
1001
ACDBBLOCKREPETAG
1070
     1
1071
       33
1005
121CCF
  0
LINE
  5
121CD0
  8
OBJECT
 10
602.00000000012187
 20
-152.0000000000031
 30
0.0
 11
602.00000000012187
 21
-149.00000000000409
 31
0.0
1001
ACDBBLOCKREPETAG
1070
     1
1071
       34
1005
121CD0
  0
ARC
  5
121CD1
  8
OBJECT
 10
599.00000000012164
 20
-149.00000000000409
 30
0.0
 40
3.0
 50
0.0
 51
90.0
1001
ACDBBLOCKREPETAG
1070
     1
1071
       35
1005
121CD1
  0
LINE
  5
121CD2
  8
OBJECT
 10
599.00000000012164
 20
-146.00000000000409
 30
0.0
 11
481.00000000012182
 21
-146.0000000000023
 31
0.0
1001
ACDBBLOCKREPETAG
1070
     1
1071
       36
1005
121CD2
  0
LINE
  5
121CD3
  8
HIDDEN
 10
502.00000000012182
 20
-144.00000000000321
 30
0.0
 11
578.00000000012164
 21
-144.00000000000321
 31
0.0
1001
ACDBBLOCKREPETAG
1070
     1
1071
      423
1005
121CD3
  0
INSERT
  5
121CD4
  8
OBJECT
  2
*U25
 10
0.0
 20
0.0
 30
0.0
  0
LINE
  5
121CD5
  8
OBJECT
 10
133.00000000004169
 20
-99.000000000003183
 30
0.0
 11
133.00000000004169
 21
-92.000000000003183
 31
0.0
1001
ACDBBLOCKREPETAG
1070
     1
1071
        1
1005
121CD5
  0
LINE
  5
121CD6
  8
OBJECT
 10
133.00000000004169
 20
-92.000000000003183
 30
0.0
 11
227.00000000004181
 21
-92.000000000003183
 31
0.0
1001
ACDBBLOCKREPETAG
1070
     1
1071
        2
1005
121CD6
  0
LINE
  5
121CD7
  8
OBJECT
 10
227.00000000004181
 20
-92.000000000003183
 30
0.0
 11
227.00000000004181
 21
-99.000000000003183
 31
0.0
1001
ACDBBLOCKREPETAG
1070
     1
1071
        3
1005
121CD7
  0
LINE
  5
121CD8
  8
OBJECT
 10
227.00000000004181
 20
-99.000000000003183
 30
0.0
 11
133.00000000004169
 21
-99.000000000003183
 31
0.0
1001
ACDBBLOCKREPETAG
1070
     1
1071
        4
1005
121CD8
  0
LINE
  5
121CD9
  8
OBJECT
 10
136.00000000004169
 20
-99.000000000003183
 30
0.0
 11
136.00000000004169
 21
-135.00000000000321
 31
0.0
1001
ACDBBLOCKREPETAG
1070
     1
1071
        5
1005
121CD9
  0
LINE
  5
121CDA
  8
OBJECT
 10
136.00000000004169
 20
-135.00000000000321
 30
0.0
 11
224.00000000004181
 21
-135.00000000000321
 31
0.0
1001
ACDBBLOCKREPETAG
1070
     1
1071
        6
1005
121CDA
  0
LINE
  5
121CDB
  8
OBJECT
 10
224.00000000004181
 20
-135.00000000000321
 30
0.0
 11
224.00000000004181
 21
-99.000000000003183
 31
0.0
1001
ACDBBLOCKREPETAG
1070
     1
1071
        7
1005
121CDB
  0
LINE
  5
121CDC
  8
OBJECT
 10
140.50000000004181
 20
-139.00000000000321
 30
0.0
 11
140.50000000004181
 21
-146.00000000000321
 31
0.0
1001
ACDBBLOCKREPETAG
1070
     1
1071
        8
1005
121CDC
  0
LINE
  5
121CDD
  8
OBJECT
 10
219.50000000004189
 20
-146.00000000000321
 30
0.0
 11
219.50000000004189
 21
-139.00000000000321
 31
0.0
1001
ACDBBLOCKREPETAG
1070
     1
1071
        9
1005
121CDD
  0
LINE
  5
121CDE
  8
OBJECT
 10
219.50000000004189
 20
-139.00000000000321
 30
0.0
 11
140.50000000004181
 21
-139.00000000000321
 31
0.0
1001
ACDBBLOCKREPETAG
1070
     1
1071
       10
1005
121CDE
  0
LINE
  5
121CDF
  8
OBJECT
 10
136.00000000004169
 20
-135.00000000000321
 30
0.0
 11
140.50000000004181
 21
-139.00000000000321
 31
0.0
1001
ACDBBLOCKREPETAG
1070
     1
1071
       11
1005
121CDF
  0
LINE
  5
121CE0
  8
OBJECT
 10
224.00000000004181
 20
-135.00000000000321
 30
0.0
 11
219.50000000004189
 21
-139.00000000000321
 31
0.0
1001
ACDBBLOCKREPETAG
1070
     1
1071
       12
1005
121CE0
  0
LINE
  5
121CE1
  8
OBJECT
 10
118.00000000004179
 20
-149.0000000000023
 30
0.0
 11
118.00000000004179
 21
-152.0000000000031
 31
0.0
1001
ACDBBLOCKREPETAG
1070
     1
1071
       13
1005
121CE1
  0
ARC
  5
121CE2
  8
OBJECT
 10
121.00000000004179
 20
-149.0000000000023
 30
0.0
 40
3.0
 50
90.0
 51
180.0
1001
ACDBBLOCKREPETAG
1070
     1
1071
       14
1005
121CE2
  0
LINE
  5
121CE3
  8
OBJECT
 10
242.00000000004181
 20
-152.0000000000031
 30
0.0
 11
242.00000000004181
 21
-149.00000000000409
 31
0.0
1001
ACDBBLOCKREPETAG
1070
     1
1071
       15
1005
121CE3
  0
ARC
  5
121CE4
  8
OBJECT
 10
239.00000000004181
 20
-149.00000000000409
 30
0.0
 40
3.0
 50
0.0
 51
90.0
1001
ACDBBLOCKREPETAG
1070
     1
1071
       16
1005
121CE4
  0
LINE
  5
121CE5
  8
OBJECT
 10
239.00000000004181
 20
-146.00000000000409
 30
0.0
 11
121.00000000004179
 21
-146.0000000000023
 31
0.0
1001
ACDBBLOCKREPETAG
1070
     1
1071
       17
1005
121CE5
  0
LINE
  5
121CE6
  8
HIDDEN
 10
150.00000000004181
 20
-144.00000000000321
 30
0.0
 11
210.00000000004181
 21
-144.00000000000321
 31
0.0
1001
ACDBBLOCKREPETAG
1070
     1
1071
      420
1005
121CE6
  0
POLYLINE
  5
121CE7
  8
HIDDEN
 66
     1
 10
0.0
 20
0.0
 30
0.0
 70
     1
1001
ACDBBLOCKREPETAG
1070
     1
1071
      105
1005
0
  0
VERTEX
  5
122ADB
  8
HIDDEN
 10
359.99999999987818
 20
0.0
 30
0.0
  0
VERTEX
  5
122ADC
  8
HIDDEN
 10
719.99999999975626
 20
0.0
 30
0.0
  0
VERTEX
  5
122ADD
  8
HIDDEN
 10
719.99999999975626
 20
-463.99999999984158
 30
0.0
  0
VERTEX
  5
122ADE
  8
HIDDEN
 10
359.99999999987818
 20
-463.99999999984158
 30
0.0
  0
SEQEND
  5
122ADF
  8
HIDDEN
  0
POLYLINE
  5
121CE8
  8
HIDDEN
 66
     1
 10
0.0
 20
0.0
 30
0.0
 70
     1
1001
ACDBBLOCKREPETAG
1070
     1
1071
      110
1005
0
  0
VERTEX
  5
122AE0
  8
HIDDEN
 10
0.0
 20
0.0
 30
0.0
  0
VERTEX
  5
122AE1
  8
HIDDEN
 10
359.99999999987818
 20
0.0
 30
0.0
  0
VERTEX
  5
122AE2
  8
HIDDEN
 10
359.99999999987818
 20
-463.99999999984158
 30
0.0
  0
VERTEX
  5
122AE3
  8
HIDDEN
 10
0.0
 20
-463.99999999984158
 30
0.0
  0
SEQEND
  5
122AE4
  8
HIDDEN
  0
POLYLINE
  5
121CE9
  8
HIDDEN
 66
     1
 10
0.0
 20
0.0
 30
0.0
 70
     1
1001
ACDBBLOCKREPETAG
1070
     1
1071
      120
1005
0
  0
VERTEX
  5
122AE5
  8
HIDDEN
 10
359.99999999987818
 20
-463.99999999984158
 30
0.0
  0
VERTEX
  5
122AE6
  8
HIDDEN
 10
719.99999999975626
 20
-463.99999999984158
 30
0.0
  0
VERTEX
  5
122AE7
  8
HIDDEN
 10
719.99999999975626
 20
-927.99999999968372
 30
0.0
  0
VERTEX
  5
122AE8
  8
HIDDEN
 10
359.99999999987818
 20
-927.99999999968372
 30
0.0
  0
SEQEND
  5
122AE9
  8
HIDDEN
  0
POLYLINE
  5
121CEA
  8
HIDDEN
 66
     1
 10
0.0
 20
0.0
 30
0.0
 70
     1
1001
ACDBBLOCKREPETAG
1070
     1
1071
      125
1005
0
  0
VERTEX
  5
122AEA
  8
HIDDEN
 10
0.0
 20
-463.99999999984158
 30
0.0
  0
VERTEX
  5
122AEB
  8
HIDDEN
 10
359.99999999987818
 20
-463.99999999984158
 30
0.0
  0
VERTEX
  5
122AEC
  8
HIDDEN
 10
359.99999999987818
 20
-927.99999999968372
 30
0.0
  0
VERTEX
  5
122AED
  8
HIDDEN
 10
0.0
 20
-927.99999999968372
 30
0.0
  0
SEQEND
  5
122AEE
  8
HIDDEN
  0
TEXT
  5
121CEB
  8
SLIM
 10
508.28571428553232
 20
-907.999999999691
 30
0.0
 40
48.0
  1
A4
 41
0.75
1001
ACDBBLOCKREPETAG
1070
     1
1071
      119
1005
F4955
  0
TEXT
  5
121CEC
  8
SLIM
 10
149.14285714279711
 20
-907.999999999691
 30
0.0
 40
48.0
  1
A3
 41
0.75
1001
ACDBBLOCKREPETAG
1070
     1
1071
      119
1005
F4955
  0
TEXT
  5
121CED
  8
SLIM
 10
509.1428571426751
 20
-443.99999999984919
 30
0.0
 40
48.0
  1
A2
 41
0.75
1001
ACDBBLOCKREPETAG
1070
     1
1071
      119
1005
F4955
  0
TEXT
  5
121CEE
  8
SLIM
 10
156.85714285708281
 20
-443.99999999984919
 30
0.0
 40
48.0
  1
A1
 41
0.75
1001
ACDBBLOCKREPETAG
1070
     1
1071
      119
1005
F4955
  0
TEXT
  5
121CEF
  8
SLIM
 10
0.0000035665234464
 20
24.000004585317601
 30
0.0
 40
79.999999999972701
  1
枝管バリエーション
 41
0.75
1001
ACDBBLOCKREPETAG
1070
     1
1071
      119
1005
F48AB
  0
TEXT
  5
121CF0
  8
SLIM
 10
3771.4000000000001
 20
-1300.666666666664
 30
0.0
 40
28.0
  1
※ 対応スラブ厚　180｛150｝～220
 41
0.75
  0
TEXT
  5
121CF1
  8
SLIM
 10
3733.3000000000011
 20
-1347.333333333331
 30
0.0
 40
28.0
  1
｛｝内はカンペイ立て管との組み合わせの場合
 41
0.75
  0
TEXT
  5
121CF2
  8
SLIM
 10
3611.4999999999991
 20
-1440.666666666664
 30
0.0
 40
28.0
  1
国土交通大臣認定・（財）日本消防設備安全センター性能評定取得品
 41
0.75
  0
TEXT
  5
121CF3
  8
SLIM
 10
3631.1000000000022
 20
-1487.333333333331
 30
0.0
 40
28.0
  1
注）ご採用にあたり、認定書及び評定書の内容をご確認ください。
 41
0.75
  0
TEXT
  5
121CF4
  8
SLIM
 10
3741.625
 20
-1237.499999999997
 30
0.0
 40
35.0
  1
片受けスタイル（S）＋シンドカット
 41
0.75
  0
TEXT
  5
121CF5
  8
SLIM
 10
1856.25
 20
-1237.499999999998
 30
0.0
 40
35.0
  1
片受けスタイル（S）
 41
0.75
  0
TEXT
  5
121CF6
  8
SLIM
 10
0.0
 20
370.0
 30
0.0
 40
100.0
  1
4SSL-AX-S
 41
0.75
  0
VIEWPORT
  5
F6BA7
 67
     1
  8
0
 10
195.9179030619629
 20
101.8328354358673
 30
0.0
 40
435.30034845564728
 41
222.25923674088349
 68
     1
 69
     1
1001
ACAD
1000
MVIEW
1002
{
1070
    16
1010
0.0
1020
0.0
1030
0.0
1010
0.0
1020
0.0
1030
1.0
1040
0.0
1040
222.25923674088349
1040
195.9179030619629
1040
101.8328354358673
1040
50.0
1040
0.0
1040
0.0
1070
     0
1070
     0
1070
     1
1070
     1
1070
     0
1070
     0
1070
     0
1070
     0
1040
0.0
1040
0.0
1040
0.0
1040
10.0
1040
10.0
1040
10.0
1040
10.0
1070
     0
1002
{
1002
}
1002
}
  0
VIEWPORT
  5
F6BA9
 67
     1
  8
OBJECT
 10
145.3303314447403
 20
101.8328338861465
 30
0.0
 40
232.5285303115844
 41
162.93253421783439
 68
     2
 69
     2
1001
ACAD
1000
MVIEW
1002
{
1070
    16
1010
0.0
1020
0.0
1030
0.0
1010
0.0
1020
0.0
1030
1.0
1040
0.0
1040
25942.55904403147
1040
2377.604457077377
1040
-7591.5176687056619
1040
50.0
1040
0.0
1040
0.0
1070
     0
1070
   600
1070
     1
1070
     1
1070
     0
1070
     0
1070
     0
1070
     0
1040
0.0
1040
0.0
1040
0.0
1040
1.0
1040
1.0
1040
0.0
1040
0.0
1070
     0
1002
{
1002
}
1002
}
  0
ENDSEC
  0
EOF
