  0
SECTION
  2
HEADER
  9
$ACADVER
  1
AC1009
  9
$INSBASE
 10
0.0
 20
0.0
 30
0.0
  9
$EXTMIN
 10
0.0
 20
-3717.4999999999959
 30
0.0
  9
$EXTMAX
 10
5575.0
 20
607.5
 30
0.0
  9
$LIMMIN
 10
0.0
 20
0.0
  9
$LIMMAX
 10
210.0
 20
297.0
  9
$ORTHOMODE
 70
     0
  9
$REGENMODE
 70
     1
  9
$FILLMODE
 70
     1
  9
$QTEXTMODE
 70
     0
  9
$MIRRTEXT
 70
     0
  9
$DRAGMODE
 70
     2
  9
$LTSCALE
 40
1.0
  9
$OSMODE
 70
   125
  9
$ATTMODE
 70
     1
  9
$TEXTSIZE
 40
4.0
  9
$TRACEWID
 40
0.05
  9
$TEXTSTYLE
  7
STANDARD
  9
$CLAYER
  8
OBJECT
  9
$CELTYPE
  6
BYLAYER
  9
$CECOLOR
 62
   256
  9
$DIMSCALE
 40
10.0
  9
$DIMASZ
 40
2.0
  9
$DIMEXO
 40
1.0
  9
$DIMDLI
 40
10.0
  9
$DIMRND
 40
0.0
  9
$DIMDLE
 40
0.0
  9
$DIMEXE
 40
1.0
  9
$DIMTP
 40
0.0
  9
$DIMTM
 40
0.0
  9
$DIMTXT
 40
3.2000000000000002
  9
$DIMCEN
 40
0.0
  9
$DIMTSZ
 40
0.0
  9
$DIMTOL
 70
     0
  9
$DIMLIM
 70
     0
  9
$DIMTIH
 70
     0
  9
$DIMTOH
 70
     0
  9
$DIMSE1
 70
     0
  9
$DIMSE2
 70
     0
  9
$DIMTAD
 70
     1
  9
$DIMZIN
 70
     8
  9
$DIMBLK
  1
OPEN30
  9
$DIMASO
 70
     1
  9
$DIMSHO
 70
     1
  9
$DIMPOST
  1

  9
$DIMAPOST
  1

  9
$DIMALT
 70
     0
  9
$DIMALTD
 70
     2
  9
$DIMALTF
 40
25.399999999999999
  9
$DIMLFAC
 40
1.0
  9
$DIMTOFL
 70
     1
  9
$DIMTVP
 40
0.0
  9
$DIMTIX
 70
     0
  9
$DIMSOXD
 70
     0
  9
$DIMSAH
 70
     0
  9
$DIMBLK1
  1

  9
$DIMBLK2
  1

  9
$DIMSTYLE
  2
S10
  9
$DIMCLRD
 70
   256
  9
$DIMCLRE
 70
   256
  9
$DIMCLRT
 70
   256
  9
$DIMTFAC
 40
1.0
  9
$DIMGAP
 40
0.9
  9
$LUNITS
 70
     2
  9
$LUPREC
 70
     2
  9
$SKETCHINC
 40
0.1
  9
$FILLETRAD
 40
0.0
  9
$AUNITS
 70
     0
  9
$AUPREC
 70
     2
  9
$MENU
  1
ACAD
  9
$ELEVATION
 40
0.0
  9
$PELEVATION
 40
0.0
  9
$THICKNESS
 40
0.0
  9
$LIMCHECK
 70
     0
  9
$BLIPMODE
 70
     0
  9
$CHAMFERA
 40
2.0
  9
$CHAMFERB
 40
2.0
  9
$SKPOLY
 70
     0
  9
$TDCREATE
 40
2453095.4929404748
  9
$TDUPDATE
 40
2456832.726914491
  9
$TDINDWG
 40
18.3625410185
  9
$TDUSRTIMER
 40
18.362540381900001
  9
$USRTIMER
 70
     1
  9
$ANGBASE
 50
0.0
  9
$ANGDIR
 70
     0
  9
$PDMODE
 70
    35
  9
$PDSIZE
 40
2.0
  9
$PLINEWID
 40
0.0
  9
$COORDS
 70
     1
  9
$SPLFRAME
 70
     0
  9
$SPLINETYPE
 70
     6
  9
$SPLINESEGS
 70
     8
  9
$ATTDIA
 70
     1
  9
$ATTREQ
 70
     1
  9
$HANDLING
 70
     1
  9
$HANDSEED
  5
129D5A
  9
$SURFTAB1
 70
     6
  9
$SURFTAB2
 70
     6
  9
$SURFTYPE
 70
     6
  9
$SURFU
 70
     6
  9
$SURFV
 70
     6
  9
$UCSNAME
  2

  9
$UCSORG
 10
0.0
 20
0.0
 30
0.0
  9
$UCSXDIR
 10
1.0
 20
0.0
 30
0.0
  9
$UCSYDIR
 10
0.0
 20
1.0
 30
0.0
  9
$PUCSNAME
  2

  9
$PUCSORG
 10
0.0
 20
0.0
 30
0.0
  9
$PUCSXDIR
 10
1.0
 20
0.0
 30
0.0
  9
$PUCSYDIR
 10
0.0
 20
1.0
 30
0.0
  9
$USERI1
 70
     0
  9
$USERI2
 70
     0
  9
$USERI3
 70
     0
  9
$USERI4
 70
     0
  9
$USERI5
 70
     0
  9
$USERR1
 40
0.0
  9
$USERR2
 40
0.0
  9
$USERR3
 40
0.0
  9
$USERR4
 40
0.0
  9
$USERR5
 40
0.0
  9
$WORLDVIEW
 70
     1
  9
$SHADEDGE
 70
     3
  9
$SHADEDIF
 70
    70
  9
$TILEMODE
 70
     1
  9
$MAXACTVP
 70
    64
  9
$PLIMCHECK
 70
     0
  9
$PEXTMIN
 10
29.066066288948051
 20
20.366566777229309
 30
0.0
  9
$PEXTMAX
 10
261.5945966005325
 20
183.29910099506381
 30
0.0
  9
$PLIMMIN
 10
-3.17498779296875
 20
-3.1749999523162842
  9
$PLIMMAX
 10
293.83566284179687
 20
206.8406708240509
  9
$UNITMODE
 70
     0
  9
$VISRETAIN
 70
     1
  9
$PLINEGEN
 70
     0
  9
$PSLTSCALE
 70
     1
  0
ENDSEC
  0
SECTION
  2
TABLES
  0
TABLE
  2
VPORT
 70
     1
  0
VPORT
  2
*ACTIVE
 70
     0
 10
0.0
 20
0.0
 11
1.0
 21
1.0
 12
5946.5189151491722
 22
-1461.9970796997609
 13
0.0
 23
0.0
 14
1.0
 24
1.0
 15
0.0
 25
0.0
 16
0.0
 26
0.0
 36
1.0
 17
0.0
 27
0.0
 37
0.0
 40
14635.547749260521
 41
1.8343023255813951
 42
50.0
 43
0.0
 44
0.0
 50
0.0
 51
0.0
 71
     0
 72
   600
 73
     1
 74
     1
 75
     0
 76
     0
 77
     0
 78
     0
  0
ENDTAB
  0
TABLE
  2
LTYPE
 70
     3
  0
LTYPE
  2
CONTINUOUS
 70
     0
  3
Solid line
 72
    65
 73
     0
 40
0.0
  0
LTYPE
  2
ACAD_ISO08W100
 70
     0
  3
ISO long-dash short-dash ____ __ ____ __ ____ _
 72
    65
 73
     4
 40
36.0
 49
24.0
 49
-3.0
 49
6.0
 49
-3.0
  0
LTYPE
  2
ACAD_ISO02W100
 70
     0
  3
ISO dash __ __ __ __ __ __ __ __ __ __ __ __ __
 72
    65
 73
     2
 40
15.0
 49
12.0
 49
-3.0
  0
ENDTAB
  0
TABLE
  2
LAYER
 70
     8
  0
LAYER
  2
0
 70
     0
 62
     7
  6
CONTINUOUS
  0
LAYER
  2
OBJECT
 70
     0
 62
     4
  6
CONTINUOUS
  0
LAYER
  2
DEFPOINTS
 70
     0
 62
     7
  6
CONTINUOUS
  0
LAYER
  2
DIM
 70
     0
 62
     7
  6
CONTINUOUS
  0
LAYER
  2
HIDDEN
 70
     0
 62
     2
  6
ACAD_ISO02W100
  0
LAYER
  2
CENTER
 70
     0
 62
     2
  6
ACAD_ISO08W100
  0
LAYER
  2
DOTS
 70
     0
 62
     1
  6
CONTINUOUS
  0
LAYER
  2
SLIM
 70
     0
 62
     2
  6
CONTINUOUS
  0
ENDTAB
  0
TABLE
  2
STYLE
 70
     2
  0
STYLE
  2
STANDARD
 70
     0
 40
0.0
 41
0.75
 50
0.0
 71
     0
 42
4.0
  3
simplex.shx
  4
bigfont.shx
  0
ENDTAB
  0
TABLE
  2
VIEW
 70
     0
  0
ENDTAB
  0
TABLE
  2
UCS
 70
     0
  0
ENDTAB
  0
TABLE
  2
APPID
 70
    18
  0
APPID
  2
ACAD
 70
     0
  0
APPID
  2
ACADANNOTATIVE
 70
     0
  0
APPID
  2
ACAD_PSEXT
 70
     0
  0
APPID
  2
ACAD_EXEMPT_FROM_CAD_STANDARDS
 70
     0
  0
APPID
  2
ACAECLAYERSTANDARD
 70
     0
  0
APPID
  2
ACAUTHENVIRON
 70
     0
  0
APPID
  2
ACDBDYNAMICBLOCKTRUENAME
 70
     0
  0
APPID
  2
ACDBDYNAMICBLOCKGUID
 70
     0
  0
APPID
  2
ACDBBLOCKREPETAG
 70
     0
  0
APPID
  2
ACDBBLOCKREPBTAG
 70
     0
  0
APPID
  2
ACAD_NAV_VCDISPLAY
 70
     0
  0
APPID
  2
ACAD_DSTYLE_DIMRADIAL_EXTENSION
 70
     0
  0
APPID
  2
ACAD_DSTYLE_DIMJAG
 70
     0
  0
APPID
  2
ACAD_DSTYLE_DIMTALN
 70
     0
  0
APPID
  2
ACADANNOPO
 70
     0
  0
APPID
  2
GRADIENTCOLOR1ACI
 70
     0
  0
APPID
  2
GRADIENTCOLOR2ACI
 70
     0
  0
APPID
  2
ACAD_MLEADERVER
 70
     0
  0
ENDTAB
  0
TABLE
  2
DIMSTYLE
 70
     3
  0
DIMSTYLE
  2
STANDARD
 70
     0
  3

  4

  5

  6

  7

 40
1.0
 41
0.18
 42
0.0625
 43
0.38
 44
0.18
 45
0.0
 46
0.0
 47
0.0
 48
0.0
140
0.18
141
0.09
142
0.0
143
25.399999999999999
144
1.0
145
0.0
146
1.0
147
0.09
 71
     0
 72
     0
 73
     1
 74
     1
 75
     0
 76
     0
 77
     0
 78
     0
170
     0
171
     2
172
     0
173
     0
174
     0
175
     0
176
     0
177
     0
178
     0
  0
DIMSTYLE
  2
S10
 70
     0
  3

  4

  5

  6

  7

 40
10.0
 41
2.0
 42
1.0
 43
10.0
 44
1.0
 45
0.0
 46
0.0
 47
0.0
 48
0.0
140
3.2000000000000002
141
0.0
142
0.0
143
25.399999999999999
144
1.0
145
0.0
146
1.0
147
0.9
 71
     0
 72
     0
 73
     0
 74
     0
 75
     0
 76
     0
 77
     1
 78
     8
170
     0
171
     2
172
     1
173
     0
174
     0
175
     0
176
   256
177
   256
178
   256
  0
ENDTAB
  0
ENDSEC
  0
SECTION
  2
BLOCKS
  0
BLOCK
  8
0
  2
$MODEL_SPACE
 70
     0
 10
0.0
 20
0.0
 30
0.0
  3
$MODEL_SPACE
  1

  0
ENDBLK
  5
129C9A
  8
0
  0
BLOCK
 67
     1
  8
0
  2
$PAPER_SPACE
 70
     0
 10
0.0
 20
0.0
 30
0.0
  3
$PAPER_SPACE
  1

  0
ENDBLK
  5
129C96
 67
     1
  8
0
  0
BLOCK
  8
0
  2
_OPEN30
 70
     0
 10
0.0
 20
0.0
 30
0.0
  3
_OPEN30
  1

  0
LINE
  5
202
  8
0
  6
BYBLOCK
 62
     0
 10
-1.0
 20
0.26794919
 30
0.0
 11
0.0
 21
0.0
 31
0.0
  0
LINE
  5
203
  8
0
  6
BYBLOCK
 62
     0
 10
0.0
 20
0.0
 30
0.0
 11
-1.0
 21
-0.26794919
 31
0.0
  0
LINE
  5
204
  8
0
  6
BYBLOCK
 62
     0
 10
0.0
 20
0.0
 30
0.0
 11
-1.0
 21
0.0
 31
0.0
  0
ENDBLK
  5
206
  8
0
  0
BLOCK
  8
0
  2
*U12
 70
     1
 10
0.0
 20
0.0
 30
0.0
  3
*U12
  1

  0
TEXT
  5
129A67
  8
DIM
 10
2209.479620594459
 20
-3204.1428571428528
 30
0.0
 40
32.0
  1
A
 50
90.0
 41
0.75
  0
ENDBLK
  5
129A69
  8
0
  0
BLOCK
  8
0
  2
*U13
 70
     1
 10
0.0
 20
0.0
 30
0.0
  3
*U13
  1

  0
TEXT
  5
129A6B
  8
DIM
 10
2207.8409284037348
 20
-3585.9999999999968
 30
0.0
 40
32.0
  1
B
 50
90.0
 41
0.75
  0
ENDBLK
  5
129A6D
  8
0
  0
BLOCK
  8
0
  2
*U14
 70
     1
 10
0.0
 20
0.0
 30
0.0
  3
*U14
  1

  0
TEXT
  5
129A6F
  8
DIM
 10
2061.428571428572
 20
-3058.208121984444
 30
0.0
 40
32.0
  1
C
 41
0.75
  0
ENDBLK
  5
129A71
  8
0
  0
BLOCK
  8
0
  2
*X15
 70
     1
 10
0.0
 20
0.0
 30
0.0
  3
*X15
  1

  0
LINE
  5
129A73
  8
0
 62
     0
 10
4044.9012806053461
 20
-129.28048304657889
 30
0.0
 11
4041.3647977575679
 21
-125.74400019880019
 31
0.0
  0
LINE
  5
129A74
  8
0
 62
     0
 10
4053.6207975587658
 20
-137.99999999999841
 30
0.0
 11
4049.3914086658801
 21
-133.7706111071135
 31
0.0
  0
LINE
  5
129A75
  8
0
 62
     0
 10
4026.9407683632062
 20
-120.3002269255098
 30
0.0
 11
4025.5813318337941
 21
-118.9407903960969
 31
0.0
  0
LINE
  5
129A76
  8
0
 62
     0
 10
4035.9210244842761
 20
-129.28048304657889
 30
0.0
 11
4031.4308964237398
 21
-124.79035498604441
 31
0.0
  0
LINE
  5
129A77
  8
0
 62
     0
 10
4044.6405414376959
 20
-137.99999999999841
 30
0.0
 11
4040.4111525448111
 21
-133.7706111071135
 31
0.0
  0
LINE
  5
129A78
  8
0
 62
     0
 10
4017.9605122421381
 20
-120.3002269255102
 30
0.0
 11
4013.785639980023
 21
-116.12535466339421
 31
0.0
  0
LINE
  5
129A79
  8
0
 62
     0
 10
4026.9407683632062
 20
-129.28048304657941
 30
0.0
 11
4022.450640302673
 21
-124.7903549860448
 31
0.0
  0
LINE
  5
129A7A
  8
0
 62
     0
 10
4008.980256121069
 20
-120.30022692550961
 30
0.0
 11
4004.4901280605341
 21
-115.810098864975
 31
0.0
  0
LINE
  5
129A7B
  8
0
 62
     0
 10
4015.2459755954542
 20
-126.56594639989569
 30
0.0
 11
4013.4703841816022
 21
-124.79035498604421
 31
0.0
  0
LINE
  5
129A7C
  8
0
 62
     0
 10
4000.0
 20
-120.3002269255097
 30
0.0
 11
3995.5098719394659
 21
-115.8100988649753
 31
0.0
  0
LINE
  5
129A7D
  8
0
 62
     0
 10
4000.0
 20
-120.3002269255102
 30
0.0
 11
4000.0
 21
-120.3002269255099
 31
0.0
  0
LINE
  5
129A7E
  8
0
 62
     0
 10
4004.857222406476
 20
-125.157449331986
 30
0.0
 11
4004.4901280605341
 21
-124.7903549860448
 31
0.0
  0
LINE
  5
129A7F
  8
0
 62
     0
 10
3991.0197438789319
 20
-120.30022692550961
 30
0.0
 11
3986.7574181990171
 21
-116.0379012455946
 31
0.0
  0
LINE
  5
129A80
  8
0
 62
     0
 10
3995.8352410164198
 20
-125.11572406299901
 30
0.0
 11
3995.5098719394659
 21
-124.79035498604421
 31
0.0
  0
LINE
  5
129A81
  8
0
 62
     0
 10
3982.039487757861
 20
-120.3002269255103
 30
0.0
 11
3979.2986509997559
 21
-117.5593901674041
 31
0.0
  0
LINE
  5
129A82
  8
0
 62
     0
 10
3987.7469459221788
 20
-126.00768508982701
 30
0.0
 11
3986.5296158183978
 21
-124.7903549860449
 31
0.0
  0
LINE
  5
129A83
  8
0
 62
     0
 10
3973.0592316367929
 20
-120.30022692551
 30
0.0
 11
3972.3737447415801
 21
-119.6147400302966
 31
0.0
  0
LINE
  5
129A84
  8
0
 62
     0
 10
3980.3727435536048
 20
-127.6137388423216
 30
0.0
 11
3977.5493596973279
 21
-124.79035498604451
 31
0.0
  0
LINE
  5
129A85
  8
0
 62
     0
 10
3973.0592316367929
 20
-129.28048304657901
 30
0.0
 11
3968.5691035762588
 21
-124.79035498604441
 31
0.0
  0
LINE
  5
129A86
  8
0
 62
     0
 10
3964.0789755157239
 20
-129.28048304657941
 30
0.0
 11
3959.8686784425822
 21
-125.07018597343711
 31
0.0
  0
LINE
  5
129A87
  8
0
 62
     0
 10
3955.098719394653
 20
-129.28048304657889
 30
0.0
 11
3954.207715567552
 21
-128.3894792194757
 31
0.0
  0
LINE
  5
129A88
  8
0
 62
     0
 10
3961.4712462510188
 20
-135.65300990294421
 30
0.0
 11
3959.5888474551889
 21
-133.7706111071135
 31
0.0
  0
LINE
  5
129A89
  8
0
 62
     0
 10
3955.098719394653
 20
-138.26073916764781
 30
0.0
 11
3950.6085913341199
 21
-133.77061110711321
 31
0.0
  0
LINE
  5
129A8A
  8
0
 62
     0
 10
3946.1184632735858
 20
-138.26073916764841
 30
0.0
 11
3943.953333351933
 21
-136.0956092459956
 31
0.0
  0
LINE
  5
129A8B
  8
0
 62
     0
 10
3951.0415852941028
 20
-143.18386118816611
 30
0.0
 11
3950.6085913341199
 21
-142.75086722818301
 31
0.0
  0
LINE
  5
129A8C
  8
0
 62
     0
 10
3946.1184632735858
 20
-147.24099528871739
 30
0.0
 11
3941.6283352130508
 21
-142.75086722818281
 31
0.0
  0
LINE
  5
129A8D
  8
0
 62
     0
 10
3937.1382071525159
 20
-147.2409952887169
 30
0.0
 11
3935.0571756770728
 21
-145.15996381327341
 31
0.0
  0
LINE
  5
129A8E
  8
0
 62
     0
 10
3942.156718127344
 20
-152.25950626354469
 30
0.0
 11
3941.6283352130508
 21
-151.73112334925139
 31
0.0
  0
LINE
  5
129A8F
  8
0
 62
     0
 10
4053.8815367264142
 20
-263.98432486261589
 30
0.0
 11
4051.8972118637971
 21
-261.99999999999852
 31
0.0
  0
LINE
  5
129A90
  8
0
 62
     0
 10
3937.1382071525159
 20
-156.22125140978659
 30
0.0
 11
3932.6480790919818
 21
-151.73112334925199
 31
0.0
  0
LINE
  5
129A91
  8
0
 62
     0
 10
4044.9012806053461
 20
-263.98432486261601
 30
0.0
 11
4042.9169557427281
 21
-261.99999999999841
 31
0.0
  0
LINE
  5
129A92
  8
0
 62
     0
 10
4049.800363209366
 20
-268.88340746663812
 30
0.0
 11
4049.3914086658801
 21
-268.47445292315069
 31
0.0
  0
LINE
  5
129A93
  8
0
 62
     0
 10
3928.1579510314468
 20
-156.2212514097865
 30
0.0
 11
3927.5251056078532
 21
-155.58840598619281
 31
0.0
  0
LINE
  5
129A94
  8
0
 62
     0
 10
3934.825287788999
 20
-162.88858816733909
 30
0.0
 11
3932.6480790919818
 21
-160.71137947032111
 31
0.0
  0
LINE
  5
129A95
  8
0
 62
     0
 10
4044.4115940138049
 20
-272.4748943921457
 30
0.0
 11
4040.4111525448111
 21
-268.47445292315081
 31
0.0
  0
LINE
  5
129A96
  8
0
 62
     0
 10
3928.1579510314468
 20
-165.20150753085579
 30
0.0
 11
3924.2991719989341
 21
-161.34272849834159
 31
0.0
  0
LINE
  5
129A97
  8
0
 62
     0
 10
4035.9210244842761
 20
-272.96458098368549
 30
0.0
 11
4031.4308964237398
 21
-268.47445292315098
 31
0.0
  0
LINE
  5
129A98
  8
0
 62
     0
 10
3928.1579510314468
 20
-174.1817636519246
 30
0.0
 11
3923.6678229709119
 21
-169.69163559139
 31
0.0
  0
LINE
  5
129A99
  8
0
 62
     0
 10
4026.9407683632062
 20
-272.96458098368532
 30
0.0
 11
4024.768342412101
 21
-270.79215503257899
 31
0.0
  0
LINE
  5
129A9A
  8
0
 62
     0
 10
4032.5124322087249
 20
-278.53624482920441
 30
0.0
 11
4031.4308964237398
 21
-277.45470904421973
 31
0.0
  0
LINE
  5
129A9B
  8
0
 62
     0
 10
3919.1776949103769
 20
-174.1817636519248
 30
0.0
 11
3919.0551166644791
 21
-174.0591854060259
 31
0.0
  0
LINE
  5
129A9C
  8
0
 62
     0
 10
3927.1533065670092
 20
-182.15737530855529
 30
0.0
 11
3923.6678229709119
 21
-178.6718917124594
 31
0.0
  0
LINE
  5
129A9D
  8
0
 62
     0
 10
4017.9605122421381
 20
-272.96458098368589
 30
0.0
 11
4017.8426246914419
 21
-272.84669343299072
 31
0.0
  0
LINE
  5
129A9E
  8
0
 62
     0
 10
4025.9408145939719
 20
-280.94488333551982
 30
0.0
 11
4022.450640302673
 21
-277.45470904422041
 31
0.0
  0
LINE
  5
129A9F
  8
0
 62
     0
 10
3919.1776949103769
 20
-183.1620197729938
 30
0.0
 11
3917.1256054736991
 21
-181.10993033631431
 31
0.0
  0
LINE
  5
129AA0
  8
0
 62
     0
 10
3925.711247363703
 20
-189.69557222631869
 30
0.0
 11
3923.6678229709119
 21
-187.6521478335282
 31
0.0
  0
LINE
  5
129AA1
  8
0
 62
     0
 10
4017.9605122421381
 20
-281.94483710475481
 30
0.0
 11
4013.470384181604
 21
-277.45470904422018
 31
0.0
  0
LINE
  5
129AA2
  8
0
 62
     0
 10
3919.1776949103769
 20
-192.1422758940634
 30
0.0
 11
3915.7522148444491
 21
-188.71679582813351
 31
0.0
  0
LINE
  5
129AA3
  8
0
 62
     0
 10
3925.0268991702492
 20
-197.9914801539347
 30
0.0
 11
3923.6678229709119
 21
-196.63240395459789
 31
0.0
  0
LINE
  5
129AA4
  8
0
 62
     0
 10
4008.980256121069
 20
-281.94483710475458
 30
0.0
 11
4004.490128060535
 21
-277.45470904422012
 31
0.0
  0
LINE
  5
129AA5
  8
0
 62
     0
 10
3919.1776949103769
 20
-201.12253201513221
 30
0.0
 11
3918.0551628952448
 21
-199.99999999999841
 31
0.0
  0
LINE
  5
129AA6
  8
0
 62
     0
 10
3925.3562150071471
 20
-207.3010521119015
 30
0.0
 11
3923.6678229709119
 21
-205.61266007566681
 31
0.0
  0
LINE
  5
129AA7
  8
0
 62
     0
 10
4000.0
 20
-281.94483710475453
 30
0.0
 11
3995.5098719394659
 21
-277.45470904422029
 31
0.0
  0
LINE
  5
129AA8
  8
0
 62
     0
 10
3918.0551628952448
 20
-199.99999999999829
 30
0.0
 11
3915.0530329227231
 21
-196.99787002747681
 31
0.0
  0
LINE
  5
129AA9
  8
0
 62
     0
 10
4000.0
 20
-281.94483710475441
 30
0.0
 11
4000.0
 21
-281.94483710475407
 31
0.0
  0
LINE
  5
129AAA
  8
0
 62
     0
 10
3919.1776949103769
 20
-210.10278813620101
 30
0.0
 11
3915.2226107005308
 21
-206.14770392635401
 31
0.0
  0
LINE
  5
129AAB
  8
0
 62
     0
 10
3927.230735249077
 20
-218.15582847490069
 30
0.0
 11
3923.6678229709119
 21
-214.59291619673559
 31
0.0
  0
LINE
  5
129AAC
  8
0
 62
     0
 10
3982.039487757861
 20
-272.96458098368532
 30
0.0
 11
3981.8441715250988
 21
-272.76926475092188
 31
0.0
  0
LINE
  5
129AAD
  8
0
 62
     0
 10
3991.0197438789319
 20
-281.94483710475453
 30
0.0
 11
3986.5296158183978
 21
-277.4547090442199
 31
0.0
  0
LINE
  5
129AAE
  8
0
 62
     0
 10
3919.1776949103769
 20
-219.0830442572707
 30
0.0
 11
3916.6223302933631
 21
-216.52767964025591
 31
0.0
  0
LINE
  5
129AAF
  8
0
 62
     0
 10
3928.1579510314468
 20
-228.0633003783399
 30
0.0
 11
3923.6678229709119
 21
-223.5731723178053
 31
0.0
  0
LINE
  5
129AB0
  8
0
 62
     0
 10
3973.0592316367929
 20
-272.96458098368572
 30
0.0
 11
3968.5691035762588
 21
-268.4744529231512
 31
0.0
  0
LINE
  5
129AB1
  8
0
 62
     0
 10
3982.039487757861
 20
-281.94483710475492
 30
0.0
 11
3977.5493596973279
 21
-277.45470904422029
 31
0.0
  0
LINE
  5
129AB2
  8
0
 62
     0
 10
3928.1579510314468
 20
-237.04355649940891
 30
0.0
 11
3923.6678229709141
 21
-232.55342843887431
 31
0.0
  0
LINE
  5
129AB3
  8
0
 62
     0
 10
3937.1382071525159
 20
-246.02381262047811
 30
0.0
 11
3932.6480790919818
 21
-241.53368455994351
 31
0.0
  0
LINE
  5
129AB4
  8
0
 62
     0
 10
3946.1184632735858
 20
-255.0040687415472
 30
0.0
 11
3941.6283352130508
 21
-250.5139406810126
 31
0.0
  0
LINE
  5
129AB5
  8
0
 62
     0
 10
3955.0987193946548
 20
-263.9843248626164
 30
0.0
 11
3950.6085913341199
 21
-259.49419680208177
 31
0.0
  0
LINE
  5
129AB6
  8
0
 62
     0
 10
3964.0789755157239
 20
-272.96458098368549
 30
0.0
 11
3959.5888474551889
 21
-268.47445292315092
 31
0.0
  0
LINE
  5
129AB7
  8
0
 62
     0
 10
3971.0224918935851
 20
-279.90809736154648
 30
0.0
 11
3968.569103576257
 21
-277.45470904422012
 31
0.0
  0
LINE
  5
129AB8
  8
0
 62
     0
 10
3937.1382071525159
 20
-255.00406874154709
 30
0.0
 11
3932.6480790919818
 21
-250.5139406810124
 31
0.0
  0
LINE
  5
129AB9
  8
0
 62
     0
 10
3946.1184632735858
 20
-263.98432486261618
 30
0.0
 11
3941.6283352130508
 21
-259.49419680208172
 31
0.0
  0
LINE
  5
129ABA
  8
0
 62
     0
 10
3952.8742563374281
 20
-270.74011792645922
 30
0.0
 11
3950.6085913341199
 21
-268.47445292315081
 31
0.0
  0
LINE
  5
129ABB
  8
0
 62
     0
 10
4043.2174825826451
 20
-130.96428106927939
 30
0.0
 11
4038.7273545221101
 21
-126.47415300874481
 31
0.0
  0
LINE
  5
129ABC
  8
0
 62
     0
 10
4050.2532015133638
 20
-137.99999999999861
 30
0.0
 11
4047.7076106431782
 21
-135.454409129814
 31
0.0
  0
LINE
  5
129ABD
  8
0
 62
     0
 10
4025.256970340507
 20
-121.9840249482106
 30
0.0
 11
4020.8765200385119
 21
-117.60357464621499
 31
0.0
  0
LINE
  5
129ABE
  8
0
 62
     0
 10
4034.237226461576
 20
-130.96428106927979
 30
0.0
 11
4029.747098401042
 21
-126.4741530087452
 31
0.0
  0
LINE
  5
129ABF
  8
0
 62
     0
 10
4039.546200263319
 20
-136.27325487102291
 30
0.0
 11
4038.727354522111
 21
-135.45440912981431
 31
0.0
  0
LINE
  5
129AC0
  8
0
 62
     0
 10
4016.276714219438
 20
-121.9840249482103
 30
0.0
 11
4011.7865861589039
 21
-117.4938968876757
 31
0.0
  0
LINE
  5
129AC1
  8
0
 62
     0
 10
4022.8621483857878
 20
-128.5694591145608
 30
0.0
 11
4020.766842279972
 21
-126.47415300874491
 31
0.0
  0
LINE
  5
129AC2
  8
0
 62
     0
 10
4007.2964580983689
 20
-121.9840249482103
 30
0.0
 11
4002.806330037834
 21
-117.4938968876758
 31
0.0
  0
LINE
  5
129AC3
  8
0
 62
     0
 10
3998.316201977299
 20
-121.98402494821021
 30
0.0
 11
3993.826073916764
 21
-117.4938968876756
 31
0.0
  0
LINE
  5
129AC4
  8
0
 62
     0
 10
3989.33594585623
 20
-121.9840249482103
 30
0.0
 11
3984.8458177956959
 21
-117.4938968876757
 31
0.0
  0
LINE
  5
129AC5
  8
0
 62
     0
 10
3980.3556897351609
 20
-121.9840249482103
 30
0.0
 11
3976.643590459008
 21
-118.27192567205729
 31
0.0
  0
LINE
  5
129AC6
  8
0
 62
     0
 10
3984.9061848395481
 20
-126.5345200525968
 30
0.0
 11
3984.8458177956959
 21
-126.47415300874491
 31
0.0
  0
LINE
  5
129AC7
  8
0
 62
     0
 10
3971.3754336140919
 20
-121.98402494821001
 30
0.0
 11
3969.8995166233922
 21
-120.5081079575105
 31
0.0
  0
LINE
  5
129AC8
  8
0
 62
     0
 10
3977.763602446279
 20
-128.37219378039671
 30
0.0
 11
3975.8655616746269
 21
-126.47415300874459
 31
0.0
  0
LINE
  5
129AC9
  8
0
 62
     0
 10
3971.1725803665872
 20
-130.7614278217747
 30
0.0
 11
3966.8853055535569
 21
-126.47415300874459
 31
0.0
  0
LINE
  5
129ACA
  8
0
 62
     0
 10
3962.3951774930229
 20
-130.96428106927959
 30
0.0
 11
3957.9050494324879
 21
-126.47415300874501
 31
0.0
  0
LINE
  5
129ACB
  8
0
 62
     0
 10
3953.4149213719538
 20
-130.96428106927959
 30
0.0
 11
3952.1787945338201
 21
-129.72815423114599
 31
0.0
  0
LINE
  5
129ACC
  8
0
 62
     0
 10
3959.393937886342
 20
-136.94329758366749
 30
0.0
 11
3957.9050494324879
 21
-135.4544091298142
 31
0.0
  0
LINE
  5
129ACD
  8
0
 62
     0
 10
3953.4149213719538
 20
-139.9445371903484
 30
0.0
 11
3948.9247933114189
 21
-135.4544091298138
 31
0.0
  0
LINE
  5
129ACE
  8
0
 62
     0
 10
3944.4346652508839
 20
-139.9445371903482
 30
0.0
 11
3942.1829321375349
 21
-137.6928040769987
 31
0.0
  0
LINE
  5
129ACF
  8
0
 62
     0
 10
3949.2595972728632
 20
-144.76946921232701
 30
0.0
 11
3948.9247933114189
 21
-144.4346652508828
 31
0.0
  0
LINE
  5
129AD0
  8
0
 62
     0
 10
3944.4346652508839
 20
-148.9247933114178
 30
0.0
 11
3939.9445371903498
 21
-144.4346652508832
 31
0.0
  0
LINE
  5
129AD1
  8
0
 62
     0
 10
4057.8170678624638
 20
-262.30719592299852
 30
0.0
 11
4057.509871939465
 21
-261.99999999999829
 31
0.0
  0
LINE
  5
129AD2
  8
0
 62
     0
 10
3935.4544091298148
 20
-148.9247933114176
 30
0.0
 11
3933.5392925284159
 21
-147.00967671001879
 31
0.0
  0
LINE
  5
129AD3
  8
0
 62
     0
 10
3940.6612225988802
 20
-154.1316067804816
 30
0.0
 11
3939.9445371903498
 21
-153.41492137195229
 31
0.0
  0
LINE
  5
129AD4
  8
0
 62
     0
 10
4052.1977387037118
 20
-265.66812288531651
 30
0.0
 11
4048.529615818396
 21
-261.99999999999841
 31
0.0
  0
LINE
  5
129AD5
  8
0
 62
     0
 10
3935.4544091298171
 20
-157.90504943248709
 30
0.0
 11
3930.9642810692808
 21
-153.41492137195249
 31
0.0
  0
LINE
  5
129AD6
  8
0
 62
     0
 10
4043.217482582646
 20
-265.66812288531668
 30
0.0
 11
4040.606062113658
 21
-263.05670241632981
 31
0.0
  0
LINE
  5
129AD7
  8
0
 62
     0
 10
4047.8212054661799
 20
-270.27184576885128
 30
0.0
 11
4047.70761064318
 21
-270.15825094585131
 31
0.0
  0
LINE
  5
129AD8
  8
0
 62
     0
 10
3926.4741530087458
 20
-157.9050494324872
 30
0.0
 11
3926.271409419352
 21
-157.7023058430924
 31
0.0
  0
LINE
  5
129AD9
  8
0
 62
     0
 10
3933.6335430370682
 20
-165.0644394608091
 30
0.0
 11
3930.9642810692808
 21
-162.39517749302169
 31
0.0
  0
LINE
  5
129ADA
  8
0
 62
     0
 10
4042.297694156905
 20
-273.72859058064682
 30
0.0
 11
4038.7273545221101
 21
-270.15825094585148
 31
0.0
  0
LINE
  5
129ADB
  8
0
 62
     0
 10
3926.4741530087458
 20
-166.88530555355641
 30
0.0
 11
3923.1884639044451
 21
-163.599616449255
 31
0.0
  0
LINE
  5
129ADC
  8
0
 62
     0
 10
4034.237226461576
 20
-274.64837900638611
 30
0.0
 11
4029.7470984010411
 21
-270.15825094585148
 31
0.0
  0
LINE
  5
129ADD
  8
0
 62
     0
 10
3926.4741530087458
 20
-175.8655616746253
 30
0.0
 11
3921.9840249482122
 21
-171.3754336140907
 31
0.0
  0
LINE
  5
129ADE
  8
0
 62
     0
 10
4025.256970340507
 20
-274.64837900638611
 30
0.0
 11
4022.2363975537201
 21
-271.6278062196007
 31
0.0
  0
LINE
  5
129ADF
  8
0
 62
     0
 10
4030.1004833766069
 20
-279.4918920424866
 30
0.0
 11
4029.7470984010411
 21
-279.13850706692068
 31
0.0
  0
LINE
  5
129AE0
  8
0
 62
     0
 10
3926.4741530087458
 20
-184.8458177956943
 30
0.0
 11
3921.9840249482108
 21
-180.35568973515959
 31
0.0
  0
LINE
  5
129AE1
  8
0
 62
     0
 10
4016.276714219438
 20
-274.64837900638611
 30
0.0
 11
4015.0938151604519
 21
-273.46547994740052
 31
0.0
  0
LINE
  5
129AE2
  8
0
 62
     0
 10
4023.3564095409911
 20
-281.72807432793968
 30
0.0
 11
4020.766842279972
 21
-279.13850706692068
 31
0.0
  0
LINE
  5
129AE3
  8
0
 62
     0
 10
3917.4938968876768
 20
-184.84581779569399
 30
0.0
 11
3916.540209967503
 21
-183.892130875519
 31
0.0
  0
LINE
  5
129AE4
  8
0
 62
     0
 10
3925.3553968115771
 20
-192.70731771959461
 30
0.0
 11
3921.9840249482122
 21
-189.3359458562287
 31
0.0
  0
LINE
  5
129AE5
  8
0
 62
     0
 10
4007.2964580983689
 20
-274.64837900638571
 30
0.0
 11
4007.2926822804038
 21
-274.644603188421
 31
0.0
  0
LINE
  5
129AE6
  8
0
 62
     0
 10
4016.1078691244779
 20
-283.45979003249658
 30
0.0
 11
4011.786586158903
 21
-279.13850706692023
 31
0.0
  0
LINE
  5
129AE7
  8
0
 62
     0
 10
3925.012047226568
 20
-201.34422425565421
 30
0.0
 11
3923.6678229709119
 21
-199.99999999999869
 31
0.0
  0
LINE
  5
129AE8
  8
0
 62
     0
 10
3917.4938968876768
 20
-193.82607391676351
 30
0.0
 11
3915.4027830531209
 21
-191.73496008220741
 31
0.0
  0
LINE
  5
129AE9
  8
0
 62
     0
 10
3923.6678229709119
 20
-199.99999999999841
 30
0.0
 11
3921.9840249482108
 21
-198.31620197729811
 31
0.0
  0
LINE
  5
129AEA
  8
0
 62
     0
 10
4007.2964580983689
 20
-283.6286351274552
 30
0.0
 11
4002.806330037834
 21
-279.13850706692068
 31
0.0
  0
LINE
  5
129AEB
  8
0
 62
     0
 10
3917.4938968876768
 20
-202.8063300378324
 30
0.0
 11
3915.0005763250811
 21
-200.3130094752365
 31
0.0
  0
LINE
  5
129AEC
  8
0
 62
     0
 10
3925.8327188999019
 20
-211.14515205005679
 30
0.0
 11
3921.9840249482122
 21
-207.296458098367
 31
0.0
  0
LINE
  5
129AED
  8
0
 62
     0
 10
3989.33594585623
 20
-274.64837900638548
 30
0.0
 11
3988.8548479499409
 21
-274.16728110009723
 31
0.0
  0
LINE
  5
129AEE
  8
0
 62
     0
 10
3998.316201977299
 20
-283.62863512745469
 30
0.0
 11
3993.826073916764
 21
-279.13850706692011
 31
0.0
  0
LINE
  5
129AEF
  8
0
 62
     0
 10
3917.4938968876768
 20
-211.7865861589018
 30
0.0
 11
3915.5746775417588
 21
-209.8673668129837
 31
0.0
  0
LINE
  5
129AF0
  8
0
 62
     0
 10
3926.4741530087458
 20
-220.76684227997089
 30
0.0
 11
3921.9840249482122
 21
-216.27671421943629
 31
0.0
  0
LINE
  5
129AF1
  8
0
 62
     0
 10
3980.3556897351609
 20
-274.64837900638582
 30
0.0
 11
3977.1378516142122
 21
-271.43054088543641
 31
0.0
  0
LINE
  5
129AF2
  8
0
 62
     0
 10
3989.3359458562309
 20
-283.62863512745508
 30
0.0
 11
3984.8458177956959
 21
-279.1385070669204
 31
0.0
  0
LINE
  5
129AF3
  8
0
 62
     0
 10
3926.4741530087458
 20
-229.74709840104029
 30
0.0
 11
3921.9840249482122
 21
-225.25697034050569
 31
0.0
  0
LINE
  5
129AF4
  8
0
 62
     0
 10
3935.4544091298148
 20
-238.72735452210941
 30
0.0
 11
3930.9642810692808
 21
-234.23722646157481
 31
0.0
  0
LINE
  5
129AF5
  8
0
 62
     0
 10
3962.3951774930242
 20
-265.66812288531702
 30
0.0
 11
3960.453799736681
 21
-263.72674512897407
 31
0.0
  0
LINE
  5
129AF6
  8
0
 62
     0
 10
3971.3754336140919
 20
-274.64837900638611
 30
0.0
 11
3966.8853055535578
 21
-270.15825094585148
 31
0.0
  0
LINE
  5
129AF7
  8
0
 62
     0
 10
3979.1234799614899
 20
-282.39642535378198
 30
0.0
 11
3975.8655616746269
 21
-279.13850706692068
 31
0.0
  0
LINE
  5
129AF8
  8
0
 62
     0
 10
3926.4741530087472
 20
-238.72735452210949
 30
0.0
 11
3922.3721274786062
 21
-234.62532899196901
 31
0.0
  0
LINE
  5
129AF9
  8
0
 62
     0
 10
3935.4544091298171
 20
-247.7076106431787
 30
0.0
 11
3930.9642810692808
 21
-243.2174825826441
 31
0.0
  0
LINE
  5
129AFA
  8
0
 62
     0
 10
3944.4346652508848
 20
-256.68786676424781
 30
0.0
 11
3939.9445371903512
 21
-252.19773870371321
 31
0.0
  0
LINE
  5
129AFB
  8
0
 62
     0
 10
3953.4149213719538
 20
-265.66812288531702
 30
0.0
 11
3948.9247933114189
 21
-261.17799482478239
 31
0.0
  0
LINE
  5
129AFC
  8
0
 62
     0
 10
3962.3951774930229
 20
-274.64837900638611
 30
0.0
 11
3957.9050494324879
 21
-270.15825094585148
 31
0.0
  0
LINE
  5
129AFD
  8
0
 62
     0
 10
4050.5139406810131
 20
-132.64807909198001
 30
0.0
 11
4047.1257436625701
 21
-129.25988207353771
 31
0.0
  0
LINE
  5
129AFE
  8
0
 62
     0
 10
4055.8658615890322
 20
-137.99999999999869
 30
0.0
 11
4055.0040687415481
 21
-137.13820715251461
 31
0.0
  0
LINE
  5
129AFF
  8
0
 62
     0
 10
4032.5534284388759
 20
-123.667822970911
 30
0.0
 11
4028.9775081064149
 21
-120.0919026384507
 31
0.0
  0
LINE
  5
129B00
  8
0
 62
     0
 10
4041.533684559944
 20
-132.64807909198001
 30
0.0
 11
4037.04355649941
 21
-128.15795103144561
 31
0.0
  0
LINE
  5
129B01
  8
0
 62
     0
 10
4046.8856054679632
 20
-137.99999999999849
 30
0.0
 11
4046.0238126204799
 21
-137.1382071525147
 31
0.0
  0
LINE
  5
129B02
  8
0
 62
     0
 10
4023.573172317806
 20
-123.667822970911
 30
0.0
 11
4019.0830442572701
 21
-119.1776949103764
 31
0.0
  0
LINE
  5
129B03
  8
0
 62
     0
 10
4032.1417147619541
 20
-132.23636541505999
 30
0.0
 11
4028.063300378341
 21
-128.15795103144561
 31
0.0
  0
LINE
  5
129B04
  8
0
 62
     0
 10
4014.592916196737
 20
-123.6678229709113
 30
0.0
 11
4010.102788136202
 21
-119.1776949103767
 31
0.0
  0
LINE
  5
129B05
  8
0
 62
     0
 10
4005.6126600756679
 20
-123.66782297091081
 30
0.0
 11
4001.1225320151329
 21
-119.1776949103762
 31
0.0
  0
LINE
  5
129B06
  8
0
 62
     0
 10
3996.6324039545989
 20
-123.6678229709109
 30
0.0
 11
3992.1422758940639
 21
-119.1776949103764
 31
0.0
  0
LINE
  5
129B07
  8
0
 62
     0
 10
3987.6521478335299
 20
-123.66782297091061
 30
0.0
 11
3983.1620197729958
 21
-119.1776949103761
 31
0.0
  0
LINE
  5
129B08
  8
0
 62
     0
 10
3978.6718917124608
 20
-123.66782297091071
 30
0.0
 11
3974.1817636519272
 21
-119.1776949103761
 31
0.0
  0
LINE
  5
129B09
  8
0
 62
     0
 10
3969.6916355913918
 20
-123.66782297091061
 30
0.0
 11
3967.4875677912742
 21
-121.46375517079299
 31
0.0
  0
LINE
  5
129B0A
  8
0
 62
     0
 10
3975.2316575878999
 20
-129.20784496741811
 30
0.0
 11
3974.1817636519258
 21
-128.15795103144521
 31
0.0
  0
LINE
  5
129B0B
  8
0
 62
     0
 10
3968.8282803805801
 20
-131.7847238811683
 30
0.0
 11
3965.2015075308568
 21
-128.15795103144509
 31
0.0
  0
LINE
  5
129B0C
  8
0
 62
     0
 10
3960.7113794703232
 20
-132.64807909198001
 30
0.0
 11
3956.2212514097891
 21
-128.15795103144541
 31
0.0
  0
LINE
  5
129B0D
  8
0
 62
     0
 10
3951.7311233492551
 20
-132.64807909198021
 30
0.0
 11
3950.1996367906331
 21
-131.11659253335949
 31
0.0
  0
LINE
  5
129B0E
  8
0
 62
     0
 10
3957.3739138312571
 20
-138.29086957398391
 30
0.0
 11
3956.2212514097891
 21
-137.13820715251481
 31
0.0
  0
LINE
  5
129B0F
  8
0
 62
     0
 10
3951.7311233492551
 20
-141.6283352130495
 30
0.0
 11
3947.2409952887192
 21
-137.13820715251489
 31
0.0
  0
LINE
  5
129B10
  8
0
 62
     0
 10
3942.7508672281838
 20
-141.62833521304921
 30
0.0
 11
3940.459810280865
 21
-139.3372782657294
 31
0.0
  0
LINE
  5
129B11
  8
0
 62
     0
 10
3947.5312275343699
 20
-146.4086955192349
 30
0.0
 11
3947.2409952887192
 21
-146.11846327358381
 31
0.0
  0
LINE
  5
129B12
  8
0
 62
     0
 10
3942.7508672281838
 20
-150.60859133411839
 30
0.0
 11
3938.2607391676502
 21
-146.11846327358381
 31
0.0
  0
LINE
  5
129B13
  8
0
 62
     0
 10
4056.046666648067
 20
-263.90439075400201
 30
0.0
 11
4055.0040687415481
 21
-262.86179284748277
 31
0.0
  0
LINE
  5
129B14
  8
0
 62
     0
 10
3933.7706111071152
 20
-150.60859133411819
 30
0.0
 11
3932.069493308034
 21
-148.90747353503721
 31
0.0
  0
LINE
  5
129B15
  8
0
 62
     0
 10
3939.220522823553
 20
-156.05850305055679
 30
0.0
 11
3938.2607391676488
 21
-155.0987193946527
 31
0.0
  0
LINE
  5
129B16
  8
0
 62
     0
 10
4050.5139406810131
 20
-267.35192090801741
 30
0.0
 11
4046.023812620479
 21
-262.86179284748277
 31
0.0
  0
LINE
  5
129B17
  8
0
 62
     0
 10
3933.7706111071152
 20
-159.58884745518739
 30
0.0
 11
3929.2804830465811
 21
-155.09871939465279
 31
0.0
  0
LINE
  5
129B18
  8
0
 62
     0
 10
4041.533684559944
 20
-267.35192090801729
 30
0.0
 11
4038.5287537489799
 21
-264.34699009705332
 31
0.0
  0
LINE
  5
129B19
  8
0
 62
     0
 10
3932.5031866541531
 20
-167.30167912329469
 30
0.0
 11
3929.2804830465811
 21
-164.07897551572231
 31
0.0
  0
LINE
  5
129B1A
  8
0
 62
     0
 10
4040.1313215574169
 20
-274.92981402656011
 30
0.0
 11
4037.04355649941
 21
-271.84204896855169
 31
0.0
  0
LINE
  5
129B1B
  8
0
 62
     0
 10
3924.7903549860471
 20
-168.56910357625691
 30
0.0
 11
3922.1342441411598
 21
-165.91299273137079
 31
0.0
  0
LINE
  5
129B1C
  8
0
 62
     0
 10
3929.8058092476431
 20
-173.58455783785331
 30
0.0
 11
3929.2804830465811
 21
-173.05923163679151
 31
0.0
  0
LINE
  5
129B1D
  8
0
 62
     0
 10
4032.5534284388759
 20
-276.33217702908689
 30
0.0
 11
4028.063300378341
 21
-271.84204896855232
 31
0.0
  0
LINE
  5
129B1E
  8
0
 62
     0
 10
3924.7903549860471
 20
-177.54935969732571
 30
0.0
 11
3920.3002269255121
 21
-173.05923163679111
 31
0.0
  0
LINE
  5
129B1F
  8
0
 62
     0
 10
4023.573172317806
 20
-276.33217702908632
 30
0.0
 11
4019.6272564463952
 21
-272.38626115767568
 31
0.0
  0
LINE
  5
129B20
  8
0
 62
     0
 10
3924.7903549860471
 20
-186.52961581839469
 30
0.0
 11
3920.3002269255121
 21
-182.0394877578602
 31
0.0
  0
LINE
  5
129B21
  8
0
 62
     0
 10
4014.592916196737
 20
-276.33217702908632
 30
0.0
 11
4012.2530540778212
 21
-273.99231491016991
 31
0.0
  0
LINE
  5
129B22
  8
0
 62
     0
 10
4020.7013490002441
 20
-282.44060983259322
 30
0.0
 11
4019.0830442572701
 21
-280.8223050896209
 31
0.0
  0
LINE
  5
129B23
  8
0
 62
     0
 10
3924.7903549860471
 20
-195.50987193946389
 30
0.0
 11
3920.3002269255121
 21
-191.01974387892929
 31
0.0
  0
LINE
  5
129B24
  8
0
 62
     0
 10
4005.6126600756679
 20
-276.33217702908638
 30
0.0
 11
4004.1647589835802
 21
-274.88427593699828
 31
0.0
  0
LINE
  5
129B25
  8
0
 62
     0
 10
4013.2425818009829
 20
-283.9620987544024
 30
0.0
 11
4010.102788136202
 21
-280.8223050896209
 31
0.0
  0
LINE
  5
129B26
  8
0
 62
     0
 10
3924.7903549860471
 20
-204.49012806053321
 30
0.0
 11
3920.3002269255121
 21
-199.99999999999849
 31
0.0
  0
LINE
  5
129B27
  8
0
 62
     0
 10
3996.6324039545989
 20
-276.33217702908638
 30
0.0
 11
3995.1427775935249
 21
-274.84255066801109
 31
0.0
  0
LINE
  5
129B28
  8
0
 62
     0
 10
3915.8100988649771
 20
-195.50987193946389
 30
0.0
 11
3915.15581890257
 21
-194.8555919770572
 31
0.0
  0
LINE
  5
129B29
  8
0
 62
     0
 10
4005.1444080229421
 20
-284.8441810974287
 30
0.0
 11
4001.1225320151329
 21
-280.82230508962078
 31
0.0
  0
LINE
  5
129B2A
  8
0
 62
     0
 10
3915.8100988649771
 20
-204.4901280605331
 30
0.0
 11
3915.0833528969388
 21
-203.76338209249491
 31
0.0
  0
LINE
  5
129B2B
  8
0
 62
     0
 10
3924.7903549860471
 20
-213.47038418160221
 30
0.0
 11
3920.3002269255121
 21
-208.98025612106761
 31
0.0
  0
LINE
  5
129B2C
  8
0
 62
     0
 10
3987.6521478335299
 20
-276.33217702908661
 30
0.0
 11
3984.7540244045458
 21
-273.43405360010161
 31
0.0
  0
LINE
  5
129B2D
  8
0
 62
     0
 10
3996.2366179075038
 20
-284.91664710306009
 30
0.0
 11
3992.1422758940639
 21
-280.82230508962118
 31
0.0
  0
LINE
  5
129B2E
  8
0
 62
     0
 10
3924.7903549860471
 20
-222.4506403026715
 30
0.0
 11
3920.3002269255121
 21
-217.9605122421369
 31
0.0
  0
LINE
  5
129B2F
  8
0
 62
     0
 10
3930.4788649061188
 20
-228.13915022274401
 30
0.0
 11
3929.2804830465811
 21
-226.9407683632061
 31
0.0
  0
LINE
  5
129B30
  8
0
 62
     0
 10
3978.6718917124608
 20
-276.33217702908638
 30
0.0
 11
3974.1817636519272
 21
-271.84204896855192
 31
0.0
  0
LINE
  5
129B31
  8
0
 62
     0
 10
3986.214360019977
 20
-283.87464533660318
 30
0.0
 11
3983.1620197729958
 21
-280.82230508962101
 31
0.0
  0
LINE
  5
129B32
  8
0
 62
     0
 10
3924.7903549860471
 20
-231.43089642374079
 30
0.0
 11
3920.3002269255121
 21
-226.94076836320639
 31
0.0
  0
LINE
  5
129B33
  8
0
 62
     0
 10
3933.7706111071161
 20
-240.41115254480999
 30
0.0
 11
3929.2804830465811
 21
-235.92102448427539
 31
0.0
  0
LINE
  5
129B34
  8
0
 62
     0
 10
3942.7508672281838
 20
-249.39140866587911
 30
0.0
 11
3938.2607391676502
 21
-244.90128060534451
 31
0.0
  0
LINE
  5
129B35
  8
0
 62
     0
 10
3951.7311233492551
 20
-258.37166478694832
 30
0.0
 11
3947.2409952887192
 21
-253.88153672641371
 31
0.0
  0
LINE
  5
129B36
  8
0
 62
     0
 10
3960.7113794703232
 20
-267.35192090801741
 30
0.0
 11
3956.2212514097891
 21
-262.86179284748277
 31
0.0
  0
LINE
  5
129B37
  8
0
 62
     0
 10
3969.6916355913918
 20
-276.33217702908661
 30
0.0
 11
3965.2015075308582
 21
-271.84204896855198
 31
0.0
  0
LINE
  5
129B38
  8
0
 62
     0
 10
3974.4186681662059
 20
-281.0592096039004
 30
0.0
 11
3974.1817636519272
 21
-280.82230508962112
 31
0.0
  0
LINE
  5
129B39
  8
0
 62
     0
 10
3933.7706111071152
 20
-249.3914086658792
 30
0.0
 11
3929.2804830465811
 21
-244.9012806053446
 31
0.0
  0
LINE
  5
129B3A
  8
0
 62
     0
 10
3942.7508672281838
 20
-258.37166478694837
 30
0.0
 11
3938.2607391676502
 21
-253.8815367264138
 31
0.0
  0
LINE
  5
129B3B
  8
0
 62
     0
 10
3951.7311233492551
 20
-267.35192090801752
 30
0.0
 11
3947.2409952887192
 21
-262.861792847483
 31
0.0
  0
LINE
  5
129B3C
  8
0
 62
     0
 10
3958.635202242433
 20
-274.25599980119688
 30
0.0
 11
3956.2212514097891
 21
-271.84204896855209
 31
0.0
  0
LINE
  5
129B3D
  8
0
 62
     0
 10
4050.9536729964252
 20
-268.0347206077397
 30
0.0
 11
4055.0040687415481
 21
-263.98432486261629
 31
0.0
  0
LINE
  5
129B3E
  8
0
 62
     0
 10
4041.533684559944
 20
-268.47445292315098
 30
0.0
 11
4046.023812620479
 21
-263.9843248626164
 31
0.0
  0
LINE
  5
129B3F
  8
0
 62
     0
 10
4032.5534284388759
 20
-277.45470904422018
 30
0.0
 11
4037.04355649941
 21
-272.96458098368561
 31
0.0
  0
LINE
  5
129B40
  8
0
 62
     0
 10
4032.5534284388759
 20
-268.47445292315069
 30
0.0
 11
4034.3633432655911
 21
-266.6645380964336
 31
0.0
  0
LINE
  5
129B41
  8
0
 62
     0
 10
4023.573172317806
 20
-277.45470904421973
 30
0.0
 11
4028.063300378341
 21
-272.96458098368532
 31
0.0
  0
LINE
  5
129B42
  8
0
 62
     0
 10
4017.943374261697
 20
-283.08450710032758
 30
0.0
 11
4019.0830442572701
 21
-281.94483710475441
 31
0.0
  0
LINE
  5
129B43
  8
0
 62
     0
 10
4014.592916196737
 20
-277.4547090442195
 30
0.0
 11
4019.0830442572701
 21
-272.96458098368493
 31
0.0
  0
LINE
  5
129B44
  8
0
 62
     0
 10
4007.36752371589
 20
-284.68010152506639
 30
0.0
 11
4010.102788136202
 21
-281.94483710475407
 31
0.0
  0
LINE
  5
129B45
  8
0
 62
     0
 10
4005.6126600756679
 20
-277.45470904422001
 30
0.0
 11
4008.5571315733901
 21
-274.51023754649748
 31
0.0
  0
LINE
  5
129B46
  8
0
 62
     0
 10
4000.0
 20
-283.06736911988799
 30
0.0
 11
4001.1225320151329
 21
-281.94483710475458
 31
0.0
  0
LINE
  5
129B47
  8
0
 62
     0
 10
3998.0888569405961
 20
-284.97851217929292
 30
0.0
 11
4000.0
 21
-283.06736911988781
 31
0.0
  0
LINE
  5
129B48
  8
0
 62
     0
 10
3996.6324039545989
 20
-277.45470904422012
 30
0.0
 11
3999.0926023365032
 21
-274.99451066231512
 31
0.0
  0
LINE
  5
129B49
  8
0
 62
     0
 10
3989.7120139313201
 20
-284.37509906749972
 30
0.0
 11
3992.1422758940639
 21
-281.9448371047547
 31
0.0
  0
LINE
  5
129B4A
  8
0
 62
     0
 10
3987.6521478335299
 20
-277.4547090442199
 30
0.0
 11
3990.687281053727
 21
-274.41957582402301
 31
0.0
  0
LINE
  5
129B4B
  8
0
 62
     0
 10
3982.0284415821229
 20
-283.07841529562671
 30
0.0
 11
3983.1620197729958
 21
-281.94483710475453
 31
0.0
  0
LINE
  5
129B4C
  8
0
 62
     0
 10
3978.6718917124608
 20
-277.45470904421973
 30
0.0
 11
3983.0638429163332
 21
-273.0627578403471
 31
0.0
  0
LINE
  5
129B4D
  8
0
 62
     0
 10
3969.6916355913918
 20
-277.45470904421973
 30
0.0
 11
3974.1817636519272
 21
-272.9645809836851
 31
0.0
  0
LINE
  5
129B4E
  8
0
 62
     0
 10
3962.0888566424378
 20
-276.07723187210541
 30
0.0
 11
3965.2015075308568
 21
-272.96458098368538
 31
0.0
  0
LINE
  5
129B4F
  8
0
 62
     0
 10
3960.7113794703232
 20
-268.47445292315092
 30
0.0
 11
3963.60716527675
 21
-265.57866711672301
 31
0.0
  0
LINE
  5
129B50
  8
0
 62
     0
 10
3951.7311233492551
 20
-268.47445292315052
 30
0.0
 11
3956.2212514097891
 21
-263.98432486261589
 31
0.0
  0
LINE
  5
129B51
  8
0
 62
     0
 10
3951.7311233492551
 20
-259.4941968020816
 30
0.0
 11
3952.8774911001642
 21
-258.34782905117072
 31
0.0
  0
LINE
  5
129B52
  8
0
 62
     0
 10
3945.7712191933251
 20
-265.4541009580102
 30
0.0
 11
3947.2409952887192
 21
-263.98432486261618
 31
0.0
  0
LINE
  5
129B53
  8
0
 62
     0
 10
3942.7508672281838
 20
-259.49419680208177
 30
0.0
 11
3947.2409952887178
 21
-255.0040687415472
 31
0.0
  0
LINE
  5
129B54
  8
0
 62
     0
 10
3942.7508672281838
 20
-250.5139406810124
 30
0.0
 11
3943.7064245411289
 21
-249.55838336806721
 31
0.0
  0
LINE
  5
129B55
  8
0
 62
     0
 10
3936.622743924941
 20
-256.64206398425438
 30
0.0
 11
3938.2607391676488
 21
-255.004068741547
 31
0.0
  0
LINE
  5
129B56
  8
0
 62
     0
 10
4050.5139406810131
 20
-133.77061110711341
 30
0.0
 11
4051.7304976486612
 21
-132.55405413946619
 31
0.0
  0
LINE
  5
129B57
  8
0
 62
     0
 10
3933.7706111071152
 20
-250.5139406810124
 30
0.0
 11
3938.2607391676488
 21
-246.0238126204778
 31
0.0
  0
LINE
  5
129B58
  8
0
 62
     0
 10
4041.533684559944
 20
-133.7706111071135
 30
0.0
 11
4046.023812620479
 21
-129.28048304657889
 31
0.0
  0
LINE
  5
129B59
  8
0
 62
     0
 10
3933.7706111071152
 20
-241.5336845599434
 30
0.0
 11
3936.0766638622199
 21
-239.2276318048396
 31
0.0
  0
LINE
  5
129B5A
  8
0
 62
     0
 10
3928.8301234984651
 20
-246.47417216859361
 30
0.0
 11
3929.2804830465811
 21
-246.023812620478
 31
0.0
  0
LINE
  5
129B5B
  8
0
 62
     0
 10
4033.4510088449092
 20
-132.87303070108069
 30
0.0
 11
4037.04355649941
 21
-129.28048304657889
 31
0.0
  0
LINE
  5
129B5C
  8
0
 62
     0
 10
3925.4646851562661
 20
-240.85935438972459
 30
0.0
 11
3929.2804830465811
 21
-237.04355649940891
 31
0.0
  0
LINE
  5
129B5D
  8
0
 62
     0
 10
4032.5534284388759
 20
-124.79035498604399
 30
0.0
 11
4034.864522874162
 21
-122.479260550758
 31
0.0
  0
LINE
  5
129B5E
  8
0
 62
     0
 10
4027.2271365051188
 20
-130.1166469198007
 30
0.0
 11
4028.063300378341
 21
-129.2804830465785
 31
0.0
  0
LINE
  5
129B5F
  8
0
 62
     0
 10
3924.7903549860471
 20
-232.55342843887399
 30
0.0
 11
3929.2804830465811
 21
-228.06330037833939
 31
0.0
  0
LINE
  5
129B60
  8
0
 62
     0
 10
4023.573172317806
 20
-124.79035498604431
 30
0.0
 11
4028.063300378341
 21
-120.3002269255097
 31
0.0
  0
LINE
  5
129B61
  8
0
 62
     0
 10
3924.7903549860471
 20
-223.57317231780519
 30
0.0
 11
3927.8577021733058
 21
-220.50582513054511
 31
0.0
  0
LINE
  5
129B62
  8
0
 62
     0
 10
3919.905445870826
 20
-228.45808143302509
 30
0.0
 11
3920.3002269255112
 21
-228.0633003783397
 31
0.0
  0
LINE
  5
129B63
  8
0
 62
     0
 10
4014.592916196737
 20
-124.79035498604441
 30
0.0
 11
4019.0830442572701
 21
-120.3002269255099
 31
0.0
  0
LINE
  5
129B64
  8
0
 62
     0
 10
3924.7903549860471
 20
-214.5929161967359
 30
0.0
 11
3926.1726392004471
 21
-213.21063198233409
 31
0.0
  0
LINE
  5
129B65
  8
0
 62
     0
 10
3917.788812480554
 20
-221.59445870222879
 30
0.0
 11
3920.3002269255112
 21
-219.0830442572705
 31
0.0
  0
LINE
  5
129B66
  8
0
 62
     0
 10
4005.6126600756679
 20
-124.79035498604451
 30
0.0
 11
4010.102788136202
 21
-120.3002269255099
 31
0.0
  0
LINE
  5
129B67
  8
0
 62
     0
 10
3924.7903549860471
 20
-205.6126600756665
 30
0.0
 11
3925.1819507882478
 21
-205.2210642734654
 31
0.0
  0
LINE
  5
129B68
  8
0
 62
     0
 10
3916.1957433609659
 20
-214.2072717007467
 30
0.0
 11
3920.3002269255121
 21
-210.1027881362011
 31
0.0
  0
LINE
  5
129B69
  8
0
 62
     0
 10
3996.6324039545989
 20
-124.7903549860446
 30
0.0
 11
4000.0
 21
-121.4227589406435
 31
0.0
  0
LINE
  5
129B6A
  8
0
 62
     0
 10
3924.7903549860471
 20
-196.63240395459789
 30
0.0
 11
3925.0896965107122
 21
-196.33306242993109
 31
0.0
  0
LINE
  5
129B6B
  8
0
 62
     0
 10
4005.6126600756679
 20
-115.8100988649752
 30
0.0
 11
4006.196589119998
 21
-115.2261698206446
 31
0.0
  0
LINE
  5
129B6C
  8
0
 62
     0
 10
4000.0
 20
-121.42275894064321
 30
0.0
 11
4001.1225320151329
 21
-120.3002269255098
 31
0.0
  0
LINE
  5
129B6D
  8
0
 62
     0
 10
3915.8100988649771
 20
-205.61266007566689
 30
0.0
 11
3920.3002269255112
 21
-201.12253201513229
 31
0.0
  0
LINE
  5
129B6E
  8
0
 62
     0
 10
3996.6324039545989
 20
-115.8100988649754
 30
0.0
 11
3997.4028149045721
 21
-115.03968791500211
 31
0.0
  0
LINE
  5
129B6F
  8
0
 62
     0
 10
3987.6521478335299
 20
-124.79035498604451
 30
0.0
 11
3992.1422758940639
 21
-120.3002269255099
 31
0.0
  0
LINE
  5
129B70
  8
0
 62
     0
 10
3924.7903549860471
 20
-187.6521478335286
 30
0.0
 11
3926.2893090759699
 21
-186.15319374360431
 31
0.0
  0
LINE
  5
129B71
  8
0
 62
     0
 10
3915.8100988649771
 20
-196.63240395459769
 30
0.0
 11
3920.3002269255112
 21
-192.1422758940632
 31
0.0
  0
LINE
  5
129B72
  8
0
 62
     0
 10
3978.6718917124599
 20
-124.79035498604441
 30
0.0
 11
3983.1620197729949
 21
-120.3002269255098
 31
0.0
  0
LINE
  5
129B73
  8
0
 62
     0
 10
3973.6996359724371
 20
-129.76261072606781
 30
0.0
 11
3974.1817636519258
 21
-129.28048304657889
 31
0.0
  0
LINE
  5
129B74
  8
0
 62
     0
 10
3924.7903549860471
 20
-178.67189171245951
 30
0.0
 11
3929.2804830465811
 21
-174.18176365192491
 31
0.0
  0
LINE
  5
129B75
  8
0
 62
     0
 10
3915.9175009846422
 20
-187.54474571386311
 30
0.0
 11
3920.3002269255121
 21
-183.16201977299411
 31
0.0
  0
LINE
  5
129B76
  8
0
 62
     0
 10
3969.6916355913918
 20
-124.79035498604451
 30
0.0
 11
3974.1817636519258
 21
-120.3002269255099
 31
0.0
  0
LINE
  5
129B77
  8
0
 62
     0
 10
3960.7113794703232
 20
-133.77061110711369
 30
0.0
 11
3965.2015075308568
 21
-129.28048304657901
 31
0.0
  0
LINE
  5
129B78
  8
0
 62
     0
 10
3952.6249921196049
 20
-141.85699845783131
 30
0.0
 11
3956.2212514097891
 21
-138.26073916764821
 31
0.0
  0
LINE
  5
129B79
  8
0
 62
     0
 10
3933.7706111071152
 20
-160.71137947032119
 30
0.0
 11
3938.2607391676488
 21
-156.22125140978659
 31
0.0
  0
LINE
  5
129B7A
  8
0
 62
     0
 10
3924.7903549860471
 20
-169.69163559139031
 30
0.0
 11
3929.2804830465811
 21
-165.20150753085571
 31
0.0
  0
LINE
  5
129B7B
  8
0
 62
     0
 10
3918.448853619941
 20
-176.0331369574954
 30
0.0
 11
3920.3002269255121
 21
-174.18176365192491
 31
0.0
  0
LINE
  5
129B7C
  8
0
 62
     0
 10
3960.7113794703218
 20
-124.79035498604451
 30
0.0
 11
3961.0548776323271
 21
-124.4468568240393
 31
0.0
  0
LINE
  5
129B7D
  8
0
 62
     0
 10
3951.7311233492528
 20
-133.77061110711369
 30
0.0
 11
3956.221251409786
 21
-129.28048304657901
 31
0.0
  0
LINE
  5
129B7E
  8
0
 62
     0
 10
3942.7508672281829
 20
-142.75086722818281
 30
0.0
 11
3947.2409952887178
 21
-138.26073916764821
 31
0.0
  0
LINE
  5
129B7F
  8
0
 62
     0
 10
3933.7706111071138
 20
-151.73112334925199
 30
0.0
 11
3938.2607391676488
 21
-147.24099528871739
 31
0.0
  0
LINE
  5
129B80
  8
0
 62
     0
 10
3924.7903549860471
 20
-160.71137947032111
 30
0.0
 11
3929.2804830465811
 21
-156.2212514097865
 31
0.0
  0
LINE
  5
129B81
  8
0
 62
     0
 10
4043.2174825826451
 20
-270.15825094585142
 30
0.0
 11
4047.7076106431782
 21
-265.6681228853169
 31
0.0
  0
LINE
  5
129B82
  8
0
 62
     0
 10
4036.7132388148038
 20
-276.66249471369281
 30
0.0
 11
4038.7273545221101
 21
-274.64837900638599
 31
0.0
  0
LINE
  5
129B83
  8
0
 62
     0
 10
4034.2372264615742
 20
-270.15825094585159
 30
0.0
 11
4038.7273545221101
 21
-265.66812288531708
 31
0.0
  0
LINE
  5
129B84
  8
0
 62
     0
 10
4025.2569703405052
 20
-279.13850706692091
 30
0.0
 11
4029.7470984010411
 21
-274.64837900638628
 31
0.0
  0
LINE
  5
129B85
  8
0
 62
     0
 10
4016.2767142194361
 20
-279.13850706692062
 30
0.0
 11
4020.766842279972
 21
-274.64837900638599
 31
0.0
  0
LINE
  5
129B86
  8
0
 62
     0
 10
4011.1496582016271
 20
-284.26556308473027
 30
0.0
 11
4011.786586158903
 21
-283.62863512745508
 31
0.0
  0
LINE
  5
129B87
  8
0
 62
     0
 10
4007.296458098368
 20
-279.13850706692079
 30
0.0
 11
4011.7865861589021
 21
-274.64837900638628
 31
0.0
  0
LINE
  5
129B88
  8
0
 62
     0
 10
4001.447287476341
 20
-284.98767768894851
 30
0.0
 11
4002.806330037834
 21
-283.62863512745542
 31
0.0
  0
LINE
  5
129B89
  8
0
 62
     0
 10
4000.0
 20
-277.45470904422001
 30
0.0
 11
4002.4962627400691
 21
-274.95844630415132
 31
0.0
  0
LINE
  5
129B8A
  8
0
 62
     0
 10
3998.3162019772999
 20
-279.13850706692028
 30
0.0
 11
4000.0
 21
-277.4547090442199
 31
0.0
  0
LINE
  5
129B8B
  8
0
 62
     0
 10
3992.7633249803198
 20
-284.69138406390158
 30
0.0
 11
3993.8260739167658
 21
-283.6286351274548
 31
0.0
  0
LINE
  5
129B8C
  8
0
 62
     0
 10
3989.3359458562309
 20
-279.13850706692051
 30
0.0
 11
3993.7364570340851
 21
-274.7379958890653
 31
0.0
  0
LINE
  5
129B8D
  8
0
 62
     0
 10
3984.8377090123272
 20
-283.63674391082469
 30
0.0
 11
3984.8458177956959
 21
-283.62863512745508
 31
0.0
  0
LINE
  5
129B8E
  8
0
 62
     0
 10
3980.3556897351609
 20
-279.13850706692062
 30
0.0
 11
3984.8458177956959
 21
-274.64837900638611
 31
0.0
  0
LINE
  5
129B8F
  8
0
 62
     0
 10
3971.3754336140919
 20
-279.13850706692079
 30
0.0
 11
3975.8655616746269
 21
-274.64837900638628
 31
0.0
  0
LINE
  5
129B90
  8
0
 62
     0
 10
3971.3754336140919
 20
-270.15825094585159
 30
0.0
 11
3971.9689093143361
 21
-269.56477524560739
 31
0.0
  0
LINE
  5
129B91
  8
0
 62
     0
 10
3964.3643754747118
 20
-277.16930908523358
 30
0.0
 11
3966.8853055535569
 21
-274.64837900638628
 31
0.0
  0
LINE
  5
129B92
  8
0
 62
     0
 10
3962.3951774930229
 20
-270.15825094585142
 30
0.0
 11
3965.803269971806
 21
-266.75015846706788
 31
0.0
  0
LINE
  5
129B93
  8
0
 62
     0
 10
3953.4149213719538
 20
-270.15825094585148
 30
0.0
 11
3957.9050494324879
 21
-265.6681228853169
 31
0.0
  0
LINE
  5
129B94
  8
0
 62
     0
 10
3953.4149213719538
 20
-261.17799482478239
 30
0.0
 11
3954.767783079682
 21
-259.82513311705372
 31
0.0
  0
LINE
  5
129B95
  8
0
 62
     0
 10
3947.636909833077
 20
-266.9560063636597
 30
0.0
 11
3948.9247933114189
 21
-265.66812288531702
 31
0.0
  0
LINE
  5
129B96
  8
0
 62
     0
 10
3944.4346652508839
 20
-261.17799482478227
 30
0.0
 11
3948.9247933114189
 21
-256.68786676424781
 31
0.0
  0
LINE
  5
129B97
  8
0
 62
     0
 10
3944.4346652508839
 20
-252.19773870371361
 30
0.0
 11
3945.3099304217681
 21
-251.3224735328296
 31
0.0
  0
LINE
  5
129B98
  8
0
 62
     0
 10
3938.2357157590709
 20
-258.39668819552662
 30
0.0
 11
3939.9445371903498
 21
-256.68786676424821
 31
0.0
  0
LINE
  5
129B99
  8
0
 62
     0
 10
4052.1977387037132
 20
-135.4544091298138
 30
0.0
 11
4053.612214758256
 21
-134.03993307527111
 31
0.0
  0
LINE
  5
129B9A
  8
0
 62
     0
 10
3935.4544091298148
 20
-252.1977387037129
 30
0.0
 11
3939.9445371903498
 21
-247.70761064317841
 31
0.0
  0
LINE
  5
129B9B
  8
0
 62
     0
 10
4043.217482582646
 20
-135.45440912981391
 30
0.0
 11
4047.70761064318
 21
-130.96428106927931
 31
0.0
  0
LINE
  5
129B9C
  8
0
 62
     0
 10
3935.4544091298148
 20
-243.2174825826439
 30
0.0
 11
3937.3861821491769
 21
-241.28570956328269
 31
0.0
  0
LINE
  5
129B9D
  8
0
 62
     0
 10
3930.1854771411072
 20
-248.48641457135199
 30
0.0
 11
3930.9642810692808
 21
-247.70761064317841
 31
0.0
  0
LINE
  5
129B9E
  8
0
 62
     0
 10
4035.6675726032449
 20
-134.02406298814421
 30
0.0
 11
4038.7273545221101
 21
-130.96428106927979
 31
0.0
  0
LINE
  5
129B9F
  8
0
 62
     0
 10
3926.683538252003
 20
-243.00809733938789
 30
0.0
 11
3930.9642810692808
 21
-238.72735452210969
 31
0.0
  0
LINE
  5
129BA0
  8
0
 62
     0
 10
4034.2372264615742
 20
-126.47415300874501
 30
0.0
 11
4037.158868116469
 21
-123.5525113538515
 31
0.0
  0
LINE
  5
129BA1
  8
0
 62
     0
 10
4029.6162325074311
 20
-131.09514696288869
 30
0.0
 11
4029.7470984010411
 21
-130.96428106927959
 31
0.0
  0
LINE
  5
129BA2
  8
0
 62
     0
 10
3926.4741530087458
 20
-234.23722646157461
 30
0.0
 11
3930.9642810692808
 21
-229.74709840104001
 31
0.0
  0
LINE
  5
129BA3
  8
0
 62
     0
 10
4025.2569703405052
 20
-126.47415300874501
 30
0.0
 11
4029.7470984010411
 21
-121.9840249482105
 31
0.0
  0
LINE
  5
129BA4
  8
0
 62
     0
 10
3926.4741530087458
 20
-225.2569703405058
 30
0.0
 11
3928.6423800080051
 21
-223.08874334124701
 31
0.0
  0
LINE
  5
129BA5
  8
0
 62
     0
 10
3920.8198635073882
 20
-230.91125984186391
 30
0.0
 11
3921.9840249482108
 21
-229.74709840104049
 31
0.0
  0
LINE
  5
129BA6
  8
0
 62
     0
 10
4016.276714219438
 20
-126.47415300874459
 30
0.0
 11
4020.766842279972
 21
-121.98402494821011
 31
0.0
  0
LINE
  5
129BA7
  8
0
 62
     0
 10
3926.4741530087458
 20
-216.27671421943651
 30
0.0
 11
3926.7309020428152
 21
-216.01996518536751
 31
0.0
  0
LINE
  5
129BA8
  8
0
 62
     0
 10
3918.5253229309651
 20
-224.2255442972174
 30
0.0
 11
3921.9840249482108
 21
-220.76684227997109
 31
0.0
  0
LINE
  5
129BA9
  8
0
 62
     0
 10
4016.276714219438
 20
-117.4938968876757
 30
0.0
 11
4017.0442231228071
 21
-116.7263879843066
 31
0.0
  0
LINE
  5
129BAA
  8
0
 62
     0
 10
4008.3089342178669
 20
-125.4616768892448
 30
0.0
 11
4011.7865861589039
 21
-121.98402494821021
 31
0.0
  0
LINE
  5
129BAB
  8
0
 62
     0
 10
3917.4938968876768
 20
-216.2767142194366
 30
0.0
 11
3921.9840249482108
 21
-211.786586158902
 31
0.0
  0
LINE
  5
129BAC
  8
0
 62
     0
 10
3999.7900611566838
 20
-125.0002938293604
 30
0.0
 11
4000.0
 21
-124.79035498604431
 31
0.0
  0
LINE
  5
129BAD
  8
0
 62
     0
 10
4007.2964580983689
 20
-117.4938968876757
 30
0.0
 11
4009.2820341185061
 21
-115.5083208675366
 31
0.0
  0
LINE
  5
129BAE
  8
0
 62
     0
 10
4000.0
 20
-124.79035498604421
 30
0.0
 11
4002.806330037834
 21
-121.9840249482103
 31
0.0
  0
LINE
  5
129BAF
  8
0
 62
     0
 10
3917.4938968876768
 20
-207.29645809836731
 30
0.0
 11
3921.9840249482108
 21
-202.80633003783271
 31
0.0
  0
LINE
  5
129BB0
  8
0
 62
     0
 10
3998.316201977299
 20
-117.493896887676
 30
0.0
 11
4000.0
 21
-115.8100988649752
 31
0.0
  0
LINE
  5
129BB1
  8
0
 62
     0
 10
3990.1620662926812
 20
-125.6480325722943
 30
0.0
 11
3993.826073916764
 21
-121.9840249482105
 31
0.0
  0
LINE
  5
129BB2
  8
0
 62
     0
 10
3917.4938968876768
 20
-198.31620197729831
 30
0.0
 11
3921.9840249482122
 21
-193.82607391676359
 31
0.0
  0
LINE
  5
129BB3
  8
0
 62
     0
 10
4000.0
 20
-115.8100988649751
 30
0.0
 11
4000.8062747846711
 21
-115.0038240803044
 31
0.0
  0
LINE
  5
129BB4
  8
0
 62
     0
 10
3989.33594585623
 20
-117.4938968876759
 30
0.0
 11
3991.3929472450659
 21
-115.4368954988406
 31
0.0
  0
LINE
  5
129BB5
  8
0
 62
     0
 10
3980.3556897351609
 20
-126.47415300874501
 30
0.0
 11
3984.8458177956959
 21
-121.9840249482104
 31
0.0
  0
LINE
  5
129BB6
  8
0
 62
     0
 10
3926.4741530087458
 20
-180.3556897351603
 30
0.0
 11
3928.0706823970172
 21
-178.7591603468899
 31
0.0
  0
LINE
  5
129BB7
  8
0
 62
     0
 10
3917.4938968876768
 20
-189.3359458562293
 30
0.0
 11
3921.9840249482108
 21
-184.84581779569481
 31
0.0
  0
LINE
  5
129BB8
  8
0
 62
     0
 10
3980.3556897351609
 20
-117.4938968876758
 30
0.0
 11
3980.6079633188342
 21
-117.2416233040027
 31
0.0
  0
LINE
  5
129BB9
  8
0
 62
     0
 10
3971.3754336140919
 20
-126.47415300874491
 30
0.0
 11
3975.8655616746269
 21
-121.9840249482103
 31
0.0
  0
LINE
  5
129BBA
  8
0
 62
     0
 10
3963.201461750476
 20
-134.64812487236139
 30
0.0
 11
3966.8853055535569
 21
-130.96428106927951
 31
0.0
  0
LINE
  5
129BBB
  8
0
 62
     0
 10
3926.4741530087458
 20
-171.3754336140907
 30
0.0
 11
3930.9642810692808
 21
-166.88530555355609
 31
0.0
  0
LINE
  5
129BBC
  8
0
 62
     0
 10
3917.4938968876768
 20
-180.35568973515981
 30
0.0
 11
3921.9840249482122
 21
-175.8655616746253
 31
0.0
  0
LINE
  5
129BBD
  8
0
 62
     0
 10
3962.395177493021
 20
-126.47415300874511
 30
0.0
 11
3966.8853055535569
 21
-121.9840249482105
 31
0.0
  0
LINE
  5
129BBE
  8
0
 62
     0
 10
3953.4149213719529
 20
-135.45440912981431
 30
0.0
 11
3957.9050494324879
 21
-130.96428106927971
 31
0.0
  0
LINE
  5
129BBF
  8
0
 62
     0
 10
3944.4346652508839
 20
-144.4346652508834
 30
0.0
 11
3948.9247933114189
 21
-139.9445371903488
 31
0.0
  0
LINE
  5
129BC0
  8
0
 62
     0
 10
3935.4544091298148
 20
-153.4149213719526
 30
0.0
 11
3939.9445371903498
 21
-148.924793311418
 31
0.0
  0
LINE
  5
129BC1
  8
0
 62
     0
 10
3926.4741530087458
 20
-162.39517749302169
 30
0.0
 11
3930.9642810692808
 21
-157.90504943248709
 31
0.0
  0
LINE
  5
129BC2
  8
0
 62
     0
 10
3921.5219269985778
 20
-167.34740350319041
 30
0.0
 11
3921.9840249482108
 21
-166.88530555355629
 31
0.0
  0
LINE
  5
129BC3
  8
0
 62
     0
 10
3937.527641098512
 20
-142.36143328218731
 30
0.0
 11
3939.9445371903498
 21
-139.9445371903486
 31
0.0
  0
LINE
  5
129BC4
  8
0
 62
     0
 10
4053.8815367264142
 20
-262.8617928474826
 30
0.0
 11
4054.7433295738979
 21
-261.99999999999852
 31
0.0
  0
LINE
  5
129BC5
  8
0
 62
     0
 10
4044.9012806053461
 20
-271.84204896855169
 30
0.0
 11
4049.3914086658801
 21
-267.35192090801718
 31
0.0
  0
LINE
  5
129BC6
  8
0
 62
     0
 10
4044.9012806053461
 20
-262.86179284748277
 30
0.0
 11
4045.7630734528302
 21
-261.99999999999852
 31
0.0
  0
LINE
  5
129BC7
  8
0
 62
     0
 10
4035.9210244842761
 20
-271.84204896855198
 30
0.0
 11
4040.4111525448111
 21
-267.35192090801741
 31
0.0
  0
LINE
  5
129BC8
  8
0
 62
     0
 10
4027.2492255236671
 20
-280.51384792916122
 30
0.0
 11
4031.4308964237398
 21
-276.33217702908661
 31
0.0
  0
LINE
  5
129BC9
  8
0
 62
     0
 10
4026.9407683632062
 20
-271.84204896855158
 30
0.0
 11
4030.0784920037072
 21
-268.70432532805091
 31
0.0
  0
LINE
  5
129BCA
  8
0
 62
     0
 10
4017.9605122421381
 20
-280.82230508962073
 30
0.0
 11
4022.450640302673
 21
-276.33217702908621
 31
0.0
  0
LINE
  5
129BCB
  8
0
 62
     0
 10
4008.980256121069
 20
-280.8223050896209
 30
0.0
 11
4013.4703841816022
 21
-276.33217702908632
 31
0.0
  0
LINE
  5
129BCC
  8
0
 62
     0
 10
4000.0
 20
-280.8223050896209
 30
0.0
 11
4004.4901280605341
 21
-276.33217702908632
 31
0.0
  0
LINE
  5
129BCD
  8
0
 62
     0
 10
3991.0197438789319
 20
-280.8223050896209
 30
0.0
 11
3995.5098719394659
 21
-276.33217702908638
 31
0.0
  0
LINE
  5
129BCE
  8
0
 62
     0
 10
3982.039487757861
 20
-280.82230508962101
 30
0.0
 11
3986.529615818396
 21
-276.33217702908638
 31
0.0
  0
LINE
  5
129BCF
  8
0
 62
     0
 10
3973.212796132721
 20
-280.6687405936932
 30
0.0
 11
3977.5493596973279
 21
-276.33217702908638
 31
0.0
  0
LINE
  5
129BD0
  8
0
 62
     0
 10
3973.059231636792
 20
-271.84204896855198
 30
0.0
 11
3974.4041133730389
 21
-270.49716723230529
 31
0.0
  0
LINE
  5
129BD1
  8
0
 62
     0
 10
3966.6969969239681
 20
-278.20428368137817
 30
0.0
 11
3968.569103576257
 21
-276.33217702908661
 31
0.0
  0
LINE
  5
129BD2
  8
0
 62
     0
 10
3964.0789755157239
 20
-271.84204896855232
 30
0.0
 11
3968.0614140538951
 21
-267.85961043038128
 31
0.0
  0
LINE
  5
129BD3
  8
0
 62
     0
 10
3955.098719394653
 20
-271.84204896855192
 30
0.0
 11
3959.5888474551889
 21
-267.35192090801729
 31
0.0
  0
LINE
  5
129BD4
  8
0
 62
     0
 10
3955.098719394653
 20
-262.86179284748277
 30
0.0
 11
3956.7131058256882
 21
-261.24740641644928
 31
0.0
  0
LINE
  5
129BD5
  8
0
 62
     0
 10
3949.550844210803
 20
-268.40966803133318
 30
0.0
 11
3950.6085913341199
 21
-267.35192090801741
 31
0.0
  0
LINE
  5
129BD6
  8
0
 62
     0
 10
3946.1184632735858
 20
-262.8617928474826
 30
0.0
 11
3950.6085913341199
 21
-258.37166478694797
 31
0.0
  0
LINE
  5
129BD7
  8
0
 62
     0
 10
3946.1184632735858
 20
-253.88153672641349
 30
0.0
 11
3946.9669914110091
 21
-253.0330085889897
 31
0.0
  0
LINE
  5
129BD8
  8
0
 62
     0
 10
3939.8959235991442
 20
-260.10407640085509
 30
0.0
 11
3941.6283352130508
 21
-258.37166478694809
 31
0.0
  0
LINE
  5
129BD9
  8
0
 62
     0
 10
4053.8815367264142
 20
-137.1382071525147
 30
0.0
 11
4055.4459941864038
 21
-135.57374969252521
 31
0.0
  0
LINE
  5
129BDA
  8
0
 62
     0
 10
3937.1382071525159
 20
-253.8815367264136
 30
0.0
 11
3941.6283352130508
 21
-249.391408665879
 31
0.0
  0
LINE
  5
129BDB
  8
0
 62
     0
 10
4044.9012806053461
 20
-137.1382071525147
 30
0.0
 11
4049.3914086658801
 21
-132.64807909198001
 31
0.0
  0
LINE
  5
129BDC
  8
0
 62
     0
 10
3937.1382071525159
 20
-244.9012806053442
 30
0.0
 11
3938.7525935835511
 21
-243.2868941743105
 31
0.0
  0
LINE
  5
129BDD
  8
0
 62
     0
 10
3931.5903319686659
 20
-250.44915578919489
 30
0.0
 11
3932.6480790919818
 21
-249.39140866587871
 31
0.0
  0
LINE
  5
129BDE
  8
0
 62
     0
 10
4044.9012806053461
 20
-128.15795103144561
 30
0.0
 11
4045.1047705343681
 21
-127.95446110242339
 31
0.0
  0
LINE
  5
129BDF
  8
0
 62
     0
 10
4037.8233654376231
 20
-135.23586619916739
 30
0.0
 11
4040.4111525448111
 21
-132.64807909198021
 31
0.0
  0
LINE
  5
129BE0
  8
0
 62
     0
 10
3928.1579510314468
 20
-244.90128060534491
 30
0.0
 11
3932.6480790919818
 21
-240.41115254481031
 31
0.0
  0
LINE
  5
129BE1
  8
0
 62
     0
 10
4035.9210244842761
 20
-128.15795103144501
 30
0.0
 11
4039.3973119843781
 21
-124.6816635313433
 31
0.0
  0
LINE
  5
129BE2
  8
0
 62
     0
 10
3928.1579510314468
 20
-235.92102448427519
 30
0.0
 11
3932.140389569618
 21
-231.93858594610461
 31
0.0
  0
LINE
  5
129BE3
  8
0
 62
     0
 10
4026.9407683632062
 20
-128.15795103144521
 30
0.0
 11
4031.4308964237398
 21
-123.66782297091061
 31
0.0
  0
LINE
  5
129BE4
  8
0
 62
     0
 10
3928.1579510314468
 20
-226.94076836320579
 30
0.0
 11
3929.5028327676951
 21
-225.5958866269591
 31
0.0
  0
LINE
  5
129BE5
  8
0
 62
     0
 10
3921.795716318622
 20
-233.30300307603241
 30
0.0
 11
3923.6678229709119
 21
-231.43089642374039
 31
0.0
  0
LINE
  5
129BE6
  8
0
 62
     0
 10
4018.7395884655198
 20
-127.37887480806221
 30
0.0
 11
4022.450640302673
 21
-123.66782297091071
 31
0.0
  0
LINE
  5
129BE7
  8
0
 62
     0
 10
3919.331259406305
 20
-226.78720386727829
 30
0.0
 11
3923.6678229709119
 21
-222.45064030267159
 31
0.0
  0
LINE
  5
129BE8
  8
0
 62
     0
 10
4017.9605122421381
 20
-119.1776949103763
 30
0.0
 11
4019.799941457361
 21
-117.3382656951523
 31
0.0
  0
LINE
  5
129BE9
  8
0
 62
     0
 10
4011.284425768652
 20
-125.8537813838628
 30
0.0
 11
4013.4703841816022
 21
-123.6678229709109
 31
0.0
  0
LINE
  5
129BEA
  8
0
 62
     0
 10
3919.1776949103769
 20
-217.96051224213721
 30
0.0
 11
3923.6678229709119
 21
-213.47038418160261
 31
0.0
  0
LINE
  5
129BEB
  8
0
 62
     0
 10
4008.980256121069
 20
-119.1776949103763
 30
0.0
 11
4012.2679784105749
 21
-115.88997262087059
 31
0.0
  0
LINE
  5
129BEC
  8
0
 62
     0
 10
4003.0941007878541
 20
-125.0638502435919
 30
0.0
 11
4004.4901280605341
 21
-123.6678229709109
 31
0.0
  0
LINE
  5
129BED
  8
0
 62
     0
 10
3919.1776949103769
 20
-208.98025612106809
 30
0.0
 11
3923.6678229709119
 21
-204.49012806053349
 31
0.0
  0
LINE
  5
129BEE
  8
0
 62
     0
 10
4000.0
 20
-119.1776949103764
 30
0.0
 11
4000.0
 21
-119.17769491037581
 31
0.0
  0
LINE
  5
129BEF
  8
0
 62
     0
 10
3993.9318052486001
 20
-125.2458896617765
 30
0.0
 11
3995.509871939465
 21
-123.667822970911
 31
0.0
  0
LINE
  5
129BF0
  8
0
 62
     0
 10
3919.1776949103769
 20
-199.99999999999869
 30
0.0
 11
3923.6678229709119
 21
-195.5098719394644
 31
0.0
  0
LINE
  5
129BF1
  8
0
 62
     0
 10
4000.0
 20
-119.1776949103761
 30
0.0
 11
4004.0797313529042
 21
-115.0979635574722
 31
0.0
  0
LINE
  5
129BF2
  8
0
 62
     0
 10
3919.1776949103769
 20
-199.99999999999889
 30
0.0
 11
3919.1776949103769
 21
-199.99999999999869
 31
0.0
  0
LINE
  5
129BF3
  8
0
 62
     0
 10
3991.0197438789319
 20
-119.177694910376
 30
0.0
 11
3995.0533812002559
 21
-115.1440575890509
 31
0.0
  0
LINE
  5
129BF4
  8
0
 62
     0
 10
3983.3188363327549
 20
-126.87860245655349
 30
0.0
 11
3986.5296158183978
 21
-123.66782297091061
 31
0.0
  0
LINE
  5
129BF5
  8
0
 62
     0
 10
3919.1776949103769
 20
-191.0197438789296
 30
0.0
 11
3923.6678229709119
 21
-186.52961581839509
 31
0.0
  0
LINE
  5
129BF6
  8
0
 62
     0
 10
3982.039487757861
 20
-119.1776949103762
 30
0.0
 11
3984.8575146748631
 21
-116.35966799337621
 31
0.0
  0
LINE
  5
129BF7
  8
0
 62
     0
 10
3973.0592316367929
 20
-128.15795103144521
 30
0.0
 11
3977.5493596973279
 21
-123.66782297091081
 31
0.0
  0
LINE
  5
129BF8
  8
0
 62
     0
 10
3928.1579510314468
 20
-173.05923163679131
 30
0.0
 11
3931.2956746719469
 21
-169.92150799629019
 31
0.0
  0
LINE
  5
129BF9
  8
0
 62
     0
 10
3919.1776949103769
 20
-182.0394877578604
 30
0.0
 11
3923.6678229709119
 21
-177.54935969732591
 31
0.0
  0
LINE
  5
129BFA
  8
0
 62
     0
 10
3964.0789755157239
 20
-128.15795103144541
 30
0.0
 11
3968.569103576257
 21
-123.6678229709109
 31
0.0
  0
LINE
  5
129BFB
  8
0
 62
     0
 10
3955.098719394653
 20
-137.13820715251461
 30
0.0
 11
3959.588847455188
 21
-132.64807909198001
 31
0.0
  0
LINE
  5
129BFC
  8
0
 62
     0
 10
3946.1184632735858
 20
-146.11846327358359
 30
0.0
 11
3950.6085913341199
 21
-141.62833521304921
 31
0.0
  0
LINE
  5
129BFD
  8
0
 62
     0
 10
3937.1382071525159
 20
-155.0987193946529
 30
0.0
 11
3941.6283352130499
 21
-150.6085913341183
 31
0.0
  0
LINE
  5
129BFE
  8
0
 62
     0
 10
3928.1579510314468
 20
-164.07897551572199
 30
0.0
 11
3932.6480790919818
 21
-159.5888474551875
 31
0.0
  0
LINE
  5
129BFF
  8
0
 62
     0
 10
3919.4861520708369
 20
-172.7507744763314
 30
0.0
 11
3923.6678229709119
 21
-168.56910357625659
 31
0.0
  0
LINE
  5
129C00
  8
0
 62
     0
 10
3955.098719394653
 20
-128.15795103144541
 30
0.0
 11
3955.9548403695781
 21
-127.30183005652179
 31
0.0
  0
LINE
  5
129C01
  8
0
 62
     0
 10
3946.1184632735858
 20
-137.1382071525145
 30
0.0
 11
3950.6085913341199
 21
-132.64807909197981
 31
0.0
  0
LINE
  5
129C02
  8
0
 62
     0
 10
3937.1382071525159
 20
-146.11846327358359
 30
0.0
 11
3941.6283352130508
 21
-141.6283352130491
 31
0.0
  0
LINE
  5
129C03
  8
0
 62
     0
 10
3928.1579510314468
 20
-155.09871939465279
 30
0.0
 11
3932.6480790919818
 21
-150.60859133411819
 31
0.0
  0
ENDBLK
  5
129C05
  8
0
  0
BLOCK
  8
0
  2
*U16
 70
     1
 10
0.0
 20
0.0
 30
0.0
  3
*U16
  1

  0
TEXT
  5
129C07
  8
SLIM
 10
509.0476190477408
 20
-586.75000000000955
 30
0.0
 40
26.0
  1
100
  0
ENDBLK
  5
129C09
  8
0
  0
BLOCK
  8
0
  2
*U17
 70
     1
 10
0.0
 20
0.0
 30
0.0
  3
*U17
  1

  0
TEXT
  5
129C0B
  8
SLIM
 10
158.9523809524228
 20
-594.00000000000955
 30
0.0
 40
26.0
  1
75
  0
ENDBLK
  5
129C0D
  8
0
  0
BLOCK
  8
0
  2
*U18
 70
     1
 10
0.0
 20
0.0
 30
0.0
  3
*U18
  1

  0
TEXT
  5
129C0F
  8
SLIM
 10
518.95238095250295
 20
-130.00000000000321
 30
0.0
 40
26.0
  1
65
  0
ENDBLK
  5
129C11
  8
0
  0
BLOCK
  8
0
  2
*U19
 70
     1
 10
0.0
 20
0.0
 30
0.0
  3
*U19
  1

  0
TEXT
  5
129C13
  8
SLIM
 10
158.9523809524228
 20
-130.00000000000321
 30
0.0
 40
26.0
  1
50
  0
ENDBLK
  5
129C15
  8
0
  0
ENDSEC
  0
SECTION
  2
ENTITIES
  0
TEXT
  5
12579F
  8
SLIM
 10
-0.0000000000000011
 20
282.5
 30
0.0
 40
35.0
  1
※ 100枝（4）がある場合、品名の最後に【管底】が付きます。
 41
0.9
 11
0.0
 21
300.0
 31
0.0
 73
     2
  0
LINE
  5
1288AD
  8
OBJECT
 10
1825.0
 20
-3599.9999999999959
 30
0.0
 11
5575.0
 21
-3599.9999999999959
 31
0.0
  0
LINE
  5
1288AF
  8
SLIM
 10
2616.0
 20
-2657.50001604727
 30
0.0
 11
2616.0
 21
-2987.50001604727
 31
0.0
  0
LINE
  5
1288B0
  8
SLIM
 10
2740.0
 20
-2657.50001604727
 30
0.0
 11
2740.0
 21
-2987.50001604727
 31
0.0
  0
LINE
  5
1288B1
  8
SLIM
 10
2870.0
 20
-2717.50001604727
 30
0.0
 11
2870.0
 21
-2987.50001604727
 31
0.0
  0
LINE
  5
1288B2
  8
SLIM
 10
3000.0
 20
-2717.50001604727
 30
0.0
 11
3000.0
 21
-2987.50001604727
 31
0.0
  0
LINE
  5
1288B3
  8
SLIM
 10
3130.0
 20
-2987.50001604727
 30
0.0
 11
3130.0
 21
-2717.50001604727
 31
0.0
  0
LINE
  5
1288B4
  8
SLIM
 10
3260.0
 20
-2987.50001604727
 30
0.0
 11
3260.0
 21
-2657.50001604727
 31
0.0
  0
LINE
  5
1288B5
  8
SLIM
 10
3260.0
 20
-2657.50001604727
 30
0.0
 11
2616.0
 21
-2657.50001604727
 31
0.0
  0
LINE
  5
1288B6
  8
SLIM
 10
3260.0
 20
-2717.50001604727
 30
0.0
 11
2740.0
 21
-2717.50001604727
 31
0.0
  0
LINE
  5
1288B7
  8
SLIM
 10
3260.0
 20
-2777.50001604727
 30
0.0
 11
2616.0
 21
-2777.50001604727
 31
0.0
  0
LINE
  5
1288B8
  8
SLIM
 10
3260.0
 20
-2847.50001604727
 30
0.0
 11
2616.0
 21
-2847.50001604727
 31
0.0
  0
LINE
  5
1288B9
  8
SLIM
 10
3260.0
 20
-2917.50001604727
 30
0.0
 11
2616.0
 21
-2917.50001604727
 31
0.0
  0
LINE
  5
1288BA
  8
SLIM
 10
3260.0
 20
-2987.50001604727
 30
0.0
 11
2616.0
 21
-2987.50001604727
 31
0.0
  0
LINE
  5
1288CF
  8
SLIM
 10
2740.0
 20
-2777.50001604727
 30
0.0
 11
2615.9999722746579
 21
-2657.5
 31
0.0
  0
LINE
  5
128904
  8
OBJECT
 10
5325.0
 20
-3478.9999999999968
 30
0.0
 11
5325.0
 21
-3602.9999999999968
 31
0.0
1001
ACDBBLOCKREPETAG
1070
     1
1071
       26
1005
128904
  0
LINE
  5
128905
  8
OBJECT
 10
5475.0
 20
-3478.9999999999968
 30
0.0
 11
5456.7802782663139
 21
-3478.9999999999968
 31
0.0
1001
ACDBBLOCKREPETAG
1070
     1
1071
       30
1005
128905
  0
LINE
  5
128906
  8
OBJECT
 10
5475.0
 20
-3478.9999999999968
 30
0.0
 11
5475.0
 21
-3602.9999999999968
 31
0.0
1001
ACDBBLOCKREPETAG
1070
     1
1071
       34
1005
128906
  0
POINT
  5
128907
  8
DOTS
 10
5400.0
 20
-3599.9999999999968
 30
0.0
1001
ACDBBLOCKREPETAG
1070
     1
1071
      187
1005
128907
  0
LINE
  5
128908
  8
CENTER
 10
5310.0
 20
-3527.9999999999968
 30
0.0
 11
5490.0
 21
-3527.9999999999968
 31
0.0
1001
ACDBBLOCKREPETAG
1070
     1
1071
       23
1005
128908
  0
CIRCLE
  5
128909
  8
OBJECT
 10
5400.0
 20
-3527.9999999999968
 30
0.0
 40
53.5
1001
ACDBBLOCKREPETAG
1070
     1
1071
       24
1005
128909
  0
CIRCLE
  5
12890A
  8
OBJECT
 10
5400.0
 20
-3527.9999999999968
 30
0.0
 40
67.0
1001
ACDBBLOCKREPETAG
1070
     1
1071
       25
1005
12890A
  0
ARC
  5
12890B
  8
OBJECT
 10
5400.0
 20
-3527.9999999999968
 30
0.0
 40
75.0
 50
286.26020470824369
 51
253.73979529175631
1001
ACDBBLOCKREPETAG
1070
     1
1071
       27
1005
12890B
  0
LINE
  5
12890C
  8
OBJECT
 10
5379.0
 20
-3599.9999999999968
 30
0.0
 11
5421.0
 21
-3599.9999999999968
 31
0.0
1001
ACDBBLOCKREPETAG
1070
     1
1071
       28
1005
12890C
  0
LINE
  5
12890D
  8
OBJECT
 10
5343.2197217336861
 20
-3478.9999999999968
 30
0.0
 11
5325.0
 21
-3478.9999999999968
 31
0.0
1001
ACDBBLOCKREPETAG
1070
     1
1071
       30
1005
128905
  0
LINE
  5
12892A
  8
OBJECT
 10
5460.0
 20
-3472.9999999999968
 30
0.0
 11
5450.9901951359279
 21
-3472.9999999999968
 31
0.0
1001
ACDBBLOCKREPETAG
1070
     1
1071
      215
1005
12892A
  0
LINE
  5
12892B
  8
OBJECT
 10
5349.0098048640721
 20
-3472.9999999999968
 30
0.0
 11
5340.0
 21
-3472.9999999999968
 31
0.0
1001
ACDBBLOCKREPETAG
1070
     1
1071
      215
1005
12892A
  0
ARC
  5
12892C
  8
OBJECT
 10
5340.0
 20
-3475.9999999999968
 30
0.0
 40
3.0
 50
90.0
 51
180.0
1001
ACDBBLOCKREPETAG
1070
     1
1071
      216
1005
12892C
  0
LINE
  5
12892D
  8
OBJECT
 10
5337.0
 20
-3475.9999999999968
 30
0.0
 11
5337.0
 21
-3478.9999999999968
 31
0.0
1001
ACDBBLOCKREPETAG
1070
     1
1071
      217
1005
12892D
  0
LINE
  5
12892E
  8
OBJECT
 10
5463.0
 20
-3475.9999999999968
 30
0.0
 11
5463.0
 21
-3478.9999999999968
 31
0.0
1001
ACDBBLOCKREPETAG
1070
     1
1071
      218
1005
12892E
  0
ARC
  5
12892F
  8
OBJECT
 10
5460.0
 20
-3475.9999999999968
 30
0.0
 40
3.0
 50
0.0
 51
90.0
1001
ACDBBLOCKREPETAG
1070
     1
1071
      219
1005
12892F
  0
LINE
  5
128930
  8
OBJECT
 10
5343.0
 20
-3404.9999999999968
 30
0.0
 11
5343.0
 21
-3472.9999999999968
 31
0.0
1001
ACDBBLOCKREPETAG
1070
     1
1071
      220
1005
128930
  0
LINE
  5
128931
  8
OBJECT
 10
5457.0
 20
-3404.9999999999968
 30
0.0
 11
5343.0
 21
-3404.9999999999968
 31
0.0
1001
ACDBBLOCKREPETAG
1070
     1
1071
      221
1005
128931
  0
LINE
  5
128932
  8
OBJECT
 10
5457.0
 20
-3404.9999999999968
 30
0.0
 11
5457.0
 21
-3472.9999999999968
 31
0.0
1001
ACDBBLOCKREPETAG
1070
     1
1071
      222
1005
128932
  0
LINE
  5
128933
  8
CENTER
 10
5400.0
 20
-3389.9999999999968
 30
0.0
 11
5400.0
 21
-3614.9999999999968
 31
0.0
1001
ACDBBLOCKREPETAG
1070
     1
1071
      223
1005
128933
  0
LINE
  5
128934
  8
HIDDEN
 10
5452.5
 20
-3404.9999999999968
 30
0.0
 11
5452.5
 21
-3478.9999999999968
 31
0.0
1001
ACDBBLOCKREPETAG
1070
     1
1071
      224
1005
128934
  0
LINE
  5
128935
  8
HIDDEN
 10
5347.5
 20
-3404.9999999999968
 30
0.0
 11
5347.5
 21
-3478.9999999999968
 31
0.0
1001
ACDBBLOCKREPETAG
1070
     1
1071
      225
1005
128935
  0
CIRCLE
  5
1292F0
  8
OBJECT
 10
5000.0
 20
-3194.9999999999959
 30
0.0
 40
75.0
1001
ACDBBLOCKREPETAG
1070
     1
1071
      363
1005
1292F0
  0
CIRCLE
  5
1292F1
  8
OBJECT
 10
5000.0
 20
-3194.9999999999959
 30
0.0
 40
52.5
1001
ACDBBLOCKREPETAG
1070
     1
1071
      364
1005
1292F1
  0
CIRCLE
  5
1292F2
  8
OBJECT
 10
5000.0
 20
-3194.9999999999959
 30
0.0
 40
57.0
1001
ACDBBLOCKREPETAG
1070
     1
1071
      365
1005
1292F2
  0
LINE
  5
1292F3
  8
OBJECT
 10
4969.8635289348576
 20
-3237.9888719523969
 30
0.0
 11
4979.8564918232369
 21
-3217.4868825335652
 31
0.0
1001
ACDBBLOCKREPETAG
1070
     1
1071
      381
1005
1292F3
  0
LINE
  5
1292F4
  8
OBJECT
 10
4965.7499660391568
 20
-3234.7892595266708
 30
0.0
 11
4973.9071022665084
 21
-3218.0537300443038
 31
0.0
1001
ACDBBLOCKREPETAG
1070
     1
1071
      382
1005
1292F4
  0
LINE
  5
1292F5
  8
OBJECT
 10
5024.1029330933034
 20
-3238.8069471237141
 30
0.0
 11
5020.6596569999947
 21
-3227.5546219999951
 31
0.0
1001
ACDBBLOCKREPETAG
1070
     1
1071
      383
1005
1292F5
  0
ARC
  5
1292F6
  8
OBJECT
 10
4976.5796953073141
 20
-3202.128936982841
 30
0.0
 40
60.031113246032611
 50
316.4174422677624
 51
322.33936106089038
1001
ACDBBLOCKREPETAG
1070
     1
1071
      384
1005
1292F6
  0
LINE
  5
1292F7
  8
OBJECT
 10
4986.7927499013749
 20
-3213.2255337420779
 30
0.0
 11
5020.6596569999947
 21
-3227.5546219999951
 31
0.0
1001
ACDBBLOCKREPETAG
1070
     1
1071
      385
1005
1292F7
  0
ARC
  5
1292F8
  8
OBJECT
 10
4982.8961697619006
 20
-3222.435129999054
 30
0.0
 40
10.0
 50
67.06677829291263
 51
154.01473437029199
1001
ACDBBLOCKREPETAG
1070
     1
1071
      386
1005
1292F8
  0
ARC
  5
1292F9
  8
OBJECT
 10
4986.1488390381273
 20
-3220.5538625672889
 30
0.0
 40
7.0
 50
67.06677829291263
 51
154.01473377497379
1001
ACDBBLOCKREPETAG
1070
     1
1071
      387
1005
1292F9
  0
ARC
  5
1292FA
  8
OBJECT
 10
5000.0
 20
-3194.9999999999959
 30
0.0
 40
50.0
 50
298.81994299999963
 51
228.52376955965599
1001
ACDBBLOCKREPETAG
1070
     1
1071
        7
1005
1292FA
  0
LINE
  5
1292FB
  8
CENTER
 10
5080.0
 20
-3194.9999999999959
 30
0.0
 11
4905.0
 21
-3194.9999999999959
 31
0.0
1001
ACDBBLOCKREPETAG
1070
     1
1071
       14
1005
1292FB
  0
LINE
  5
1292FC
  8
CENTER
 10
5000.0
 20
-3289.9999999999959
 30
0.0
 11
5000.0
 21
-3099.9999999999959
 31
0.0
1001
ACDBBLOCKREPETAG
1070
     1
1071
       15
1005
1292FC
  0
ARC
  5
1292FD
  8
OBJECT
 10
5000.0
 20
-3194.9999999999959
 30
0.0
 40
80.0
 50
50.805032573882329
 51
309.19496742611773
1001
ACDBBLOCKREPETAG
1070
     1
1071
       18
1005
1292FD
  0
LINE
  5
1292FE
  8
OBJECT
 10
5042.2018956920174
 20
-3132.9999999999959
 30
0.0
 11
5080.0
 21
-3132.9999999999959
 31
0.0
1001
ACDBBLOCKREPETAG
1070
     1
1071
       19
1005
1292FE
  0
LINE
  5
1292FF
  8
OBJECT
 10
5042.2018956920174
 20
-3256.9999999999959
 30
0.0
 11
5080.0
 21
-3256.9999999999959
 31
0.0
1001
ACDBBLOCKREPETAG
1070
     1
1071
       20
1005
1292FF
  0
POINT
  5
129300
  8
DOTS
 10
5000.0
 20
-3194.9999999999959
 30
0.0
1001
ACDBBLOCKREPETAG
1070
     1
1071
      417
1005
129300
  0
CIRCLE
  5
129301
  8
OBJECT
 10
4000.0
 20
-3194.9999999999959
 30
0.0
 40
75.0
1001
ACDBBLOCKREPETAG
1070
     1
1071
      363
1005
129301
  0
CIRCLE
  5
129302
  8
OBJECT
 10
4000.0
 20
-3194.9999999999959
 30
0.0
 40
52.5
1001
ACDBBLOCKREPETAG
1070
     1
1071
      364
1005
129302
  0
CIRCLE
  5
129303
  8
OBJECT
 10
4000.0
 20
-3194.9999999999959
 30
0.0
 40
57.0
1001
ACDBBLOCKREPETAG
1070
     1
1071
      365
1005
129303
  0
LINE
  5
129304
  8
OBJECT
 10
3969.8635289348599
 20
-3237.9888719523969
 30
0.0
 11
3979.8564918232369
 21
-3217.4868825335652
 31
0.0
1001
ACDBBLOCKREPETAG
1070
     1
1071
      381
1005
129304
  0
LINE
  5
129305
  8
OBJECT
 10
3965.7499660391568
 20
-3234.7892595266708
 30
0.0
 11
3973.9071022665089
 21
-3218.0537300443038
 31
0.0
1001
ACDBBLOCKREPETAG
1070
     1
1071
      382
1005
129305
  0
LINE
  5
129306
  8
OBJECT
 10
4024.102933093302
 20
-3238.8069471237141
 30
0.0
 11
4020.6596569999951
 21
-3227.5546219999951
 31
0.0
1001
ACDBBLOCKREPETAG
1070
     1
1071
      383
1005
129306
  0
ARC
  5
129307
  8
OBJECT
 10
3976.579695307315
 20
-3202.128936982841
 30
0.0
 40
60.031113246032611
 50
316.41744226774438
 51
322.3393610609063
1001
ACDBBLOCKREPETAG
1070
     1
1071
      384
1005
129307
  0
LINE
  5
129308
  8
OBJECT
 10
3986.7927499013749
 20
-3213.2255337420779
 30
0.0
 11
4020.6596569999951
 21
-3227.5546219999951
 31
0.0
1001
ACDBBLOCKREPETAG
1070
     1
1071
      385
1005
129308
  0
ARC
  5
129309
  8
OBJECT
 10
3982.896169761902
 20
-3222.435129999054
 30
0.0
 40
10.0
 50
67.06677829291263
 51
154.01473437029199
1001
ACDBBLOCKREPETAG
1070
     1
1071
      386
1005
129309
  0
ARC
  5
12930A
  8
OBJECT
 10
3986.1488390381278
 20
-3220.5538625672889
 30
0.0
 40
7.0
 50
67.06677829291263
 51
154.01473377496239
1001
ACDBBLOCKREPETAG
1070
     1
1071
      387
1005
12930A
  0
ARC
  5
12930B
  8
OBJECT
 10
4000.0
 20
-3194.9999999999959
 30
0.0
 40
50.0
 50
298.81994299999963
 51
228.52376955967549
1001
ACDBBLOCKREPETAG
1070
     1
1071
        7
1005
12930B
  0
LINE
  5
12930C
  8
CENTER
 10
4080.0
 20
-3194.9999999999959
 30
0.0
 11
3905.0
 21
-3194.9999999999959
 31
0.0
1001
ACDBBLOCKREPETAG
1070
     1
1071
       14
1005
12930C
  0
LINE
  5
12930D
  8
CENTER
 10
4000.0
 20
-3289.9999999999959
 30
0.0
 11
4000.0
 21
-3099.9999999999959
 31
0.0
1001
ACDBBLOCKREPETAG
1070
     1
1071
       15
1005
12930D
  0
ARC
  5
12930E
  8
OBJECT
 10
4000.0
 20
-3194.9999999999959
 30
0.0
 40
80.0
 50
50.805032573862128
 51
309.19496742613791
1001
ACDBBLOCKREPETAG
1070
     1
1071
       18
1005
12930E
  0
LINE
  5
12930F
  8
OBJECT
 10
4042.2018956920169
 20
-3132.9999999999959
 30
0.0
 11
4080.0
 21
-3132.9999999999959
 31
0.0
1001
ACDBBLOCKREPETAG
1070
     1
1071
       19
1005
12930F
  0
LINE
  5
129310
  8
OBJECT
 10
4042.2018956920169
 20
-3256.9999999999959
 30
0.0
 11
4080.0
 21
-3256.9999999999959
 31
0.0
1001
ACDBBLOCKREPETAG
1070
     1
1071
       20
1005
129310
  0
POINT
  5
129311
  8
DOTS
 10
4000.0
 20
-3194.9999999999959
 30
0.0
1001
ACDBBLOCKREPETAG
1070
     1
1071
      417
1005
129311
  0
CIRCLE
  5
129312
  8
OBJECT
 10
3000.0
 20
-3194.9999999999959
 30
0.0
 40
75.0
1001
ACDBBLOCKREPETAG
1070
     1
1071
      363
1005
129312
  0
CIRCLE
  5
129313
  8
OBJECT
 10
3000.0
 20
-3194.9999999999959
 30
0.0
 40
52.5
1001
ACDBBLOCKREPETAG
1070
     1
1071
      364
1005
129313
  0
CIRCLE
  5
129314
  8
OBJECT
 10
3000.0
 20
-3194.9999999999959
 30
0.0
 40
57.0
1001
ACDBBLOCKREPETAG
1070
     1
1071
      365
1005
129314
  0
LINE
  5
129315
  8
OBJECT
 10
2969.863528934859
 20
-3237.9888719523969
 30
0.0
 11
2979.8564918232369
 21
-3217.4868825335652
 31
0.0
1001
ACDBBLOCKREPETAG
1070
     1
1071
      381
1005
129315
  0
LINE
  5
129316
  8
OBJECT
 10
2965.7499660391568
 20
-3234.7892595266708
 30
0.0
 11
2973.9071022665089
 21
-3218.0537300443038
 31
0.0
1001
ACDBBLOCKREPETAG
1070
     1
1071
      382
1005
129316
  0
LINE
  5
129317
  8
OBJECT
 10
3024.102933093302
 20
-3238.8069471237141
 30
0.0
 11
3020.659656999997
 21
-3227.5546219999951
 31
0.0
1001
ACDBBLOCKREPETAG
1070
     1
1071
      383
1005
129317
  0
ARC
  5
129318
  8
OBJECT
 10
2976.579695307315
 20
-3202.128936982841
 30
0.0
 40
60.031113246032611
 50
316.41744226774438
 51
322.3393610609063
1001
ACDBBLOCKREPETAG
1070
     1
1071
      384
1005
129318
  0
LINE
  5
129319
  8
OBJECT
 10
2986.7927499013749
 20
-3213.2255337420779
 30
0.0
 11
3020.659656999997
 21
-3227.5546219999951
 31
0.0
1001
ACDBBLOCKREPETAG
1070
     1
1071
      385
1005
129319
  0
ARC
  5
12931A
  8
OBJECT
 10
2982.896169761902
 20
-3222.435129999054
 30
0.0
 40
10.0
 50
67.06677829291263
 51
154.01473437029199
1001
ACDBBLOCKREPETAG
1070
     1
1071
      386
1005
12931A
  0
ARC
  5
12931B
  8
OBJECT
 10
2986.1488390381278
 20
-3220.5538625672889
 30
0.0
 40
7.0
 50
67.06677829291263
 51
154.01473377496239
1001
ACDBBLOCKREPETAG
1070
     1
1071
      387
1005
12931B
  0
ARC
  5
12931C
  8
OBJECT
 10
3000.0
 20
-3194.9999999999959
 30
0.0
 40
50.0
 50
298.81994299999963
 51
228.52376955967549
1001
ACDBBLOCKREPETAG
1070
     1
1071
        7
1005
12931C
  0
LINE
  5
12931D
  8
CENTER
 10
3080.0
 20
-3194.9999999999959
 30
0.0
 11
2905.0
 21
-3194.9999999999959
 31
0.0
1001
ACDBBLOCKREPETAG
1070
     1
1071
       14
1005
12931D
  0
LINE
  5
12931E
  8
CENTER
 10
3000.0
 20
-3289.9999999999959
 30
0.0
 11
3000.0
 21
-3099.9999999999959
 31
0.0
1001
ACDBBLOCKREPETAG
1070
     1
1071
       15
1005
12931E
  0
ARC
  5
12931F
  8
OBJECT
 10
3000.0
 20
-3194.9999999999959
 30
0.0
 40
80.0
 50
50.805032573862128
 51
309.19496742613791
1001
ACDBBLOCKREPETAG
1070
     1
1071
       18
1005
12931F
  0
LINE
  5
129320
  8
OBJECT
 10
3042.2018956920201
 20
-3132.9999999999959
 30
0.0
 11
3080.0
 21
-3132.9999999999959
 31
0.0
1001
ACDBBLOCKREPETAG
1070
     1
1071
       19
1005
129320
  0
LINE
  5
129321
  8
OBJECT
 10
3042.2018956920201
 20
-3256.9999999999959
 30
0.0
 11
3080.0
 21
-3256.9999999999959
 31
0.0
1001
ACDBBLOCKREPETAG
1070
     1
1071
       20
1005
129321
  0
POINT
  5
129322
  8
DOTS
 10
3000.0
 20
-3194.9999999999959
 30
0.0
1001
ACDBBLOCKREPETAG
1070
     1
1071
      417
1005
129322
  0
CIRCLE
  5
129323
  8
OBJECT
 10
2000.0
 20
-3194.9999999999959
 30
0.0
 40
75.0
1001
ACDBBLOCKREPETAG
1070
     1
1071
      363
1005
129323
  0
CIRCLE
  5
129324
  8
OBJECT
 10
2000.0
 20
-3194.9999999999959
 30
0.0
 40
52.5
1001
ACDBBLOCKREPETAG
1070
     1
1071
      364
1005
129324
  0
CIRCLE
  5
129325
  8
OBJECT
 10
2000.0
 20
-3194.9999999999959
 30
0.0
 40
57.0
1001
ACDBBLOCKREPETAG
1070
     1
1071
      365
1005
129325
  0
LINE
  5
129326
  8
OBJECT
 10
1969.8635289348581
 20
-3237.9888719523969
 30
0.0
 11
1979.856491823236
 21
-3217.4868825335652
 31
0.0
1001
ACDBBLOCKREPETAG
1070
     1
1071
      381
1005
129326
  0
LINE
  5
129327
  8
OBJECT
 10
1965.749966039157
 20
-3234.7892595266708
 30
0.0
 11
1973.907102266508
 21
-3218.0537300443038
 31
0.0
1001
ACDBBLOCKREPETAG
1070
     1
1071
      382
1005
129327
  0
LINE
  5
129328
  8
OBJECT
 10
2024.1029330933011
 20
-3238.8069471237141
 30
0.0
 11
2020.6596569999961
 21
-3227.5546219999951
 31
0.0
1001
ACDBBLOCKREPETAG
1070
     1
1071
      383
1005
129328
  0
ARC
  5
129329
  8
OBJECT
 10
1976.579695307315
 20
-3202.128936982841
 30
0.0
 40
60.031113246032611
 50
316.4174422677533
 51
322.3393610609063
1001
ACDBBLOCKREPETAG
1070
     1
1071
      384
1005
129329
  0
LINE
  5
12932A
  8
OBJECT
 10
1986.792749901374
 20
-3213.2255337420779
 30
0.0
 11
2020.6596569999961
 21
-3227.5546219999951
 31
0.0
1001
ACDBBLOCKREPETAG
1070
     1
1071
      385
1005
12932A
  0
ARC
  5
12932B
  8
OBJECT
 10
1982.8961697619
 20
-3222.435129999054
 30
0.0
 40
10.0
 50
67.066778292924639
 51
154.01473437029199
1001
ACDBBLOCKREPETAG
1070
     1
1071
      386
1005
12932B
  0
ARC
  5
12932C
  8
OBJECT
 10
1986.1488390381271
 20
-3220.5538625672889
 30
0.0
 40
7.0
 50
67.066778292924639
 51
154.01473377496239
1001
ACDBBLOCKREPETAG
1070
     1
1071
      387
1005
12932C
  0
ARC
  5
12932D
  8
OBJECT
 10
2000.0
 20
-3194.9999999999959
 30
0.0
 40
50.0
 50
298.81994299999963
 51
228.52376955967549
1001
ACDBBLOCKREPETAG
1070
     1
1071
        7
1005
12932D
  0
LINE
  5
12932E
  8
CENTER
 10
2080.0
 20
-3194.9999999999959
 30
0.0
 11
1905.0
 21
-3194.9999999999959
 31
0.0
1001
ACDBBLOCKREPETAG
1070
     1
1071
       14
1005
12932E
  0
LINE
  5
12932F
  8
CENTER
 10
2000.0
 20
-3289.9999999999959
 30
0.0
 11
2000.0
 21
-3099.9999999999959
 31
0.0
1001
ACDBBLOCKREPETAG
1070
     1
1071
       15
1005
12932F
  0
ARC
  5
129330
  8
OBJECT
 10
2000.0
 20
-3194.9999999999959
 30
0.0
 40
80.0
 50
50.805032573862128
 51
309.19496742613791
1001
ACDBBLOCKREPETAG
1070
     1
1071
       18
1005
129330
  0
LINE
  5
129331
  8
OBJECT
 10
2042.2018956920181
 20
-3132.9999999999959
 30
0.0
 11
2080.0
 21
-3132.9999999999959
 31
0.0
1001
ACDBBLOCKREPETAG
1070
     1
1071
       19
1005
129331
  0
LINE
  5
129332
  8
OBJECT
 10
2042.2018956920181
 20
-3256.9999999999959
 30
0.0
 11
2080.0
 21
-3256.9999999999959
 31
0.0
1001
ACDBBLOCKREPETAG
1070
     1
1071
       20
1005
129332
  0
POINT
  5
129333
  8
DOTS
 10
2000.0
 20
-3194.9999999999959
 30
0.0
1001
ACDBBLOCKREPETAG
1070
     1
1071
      417
1005
129333
  0
LINE
  5
129334
  8
OBJECT
 10
4925.0
 20
-3478.9999999999968
 30
0.0
 11
4925.0
 21
-3602.9999999999968
 31
0.0
1001
ACDBBLOCKREPETAG
1070
     1
1071
        6
1005
129334
  0
LINE
  5
129335
  8
OBJECT
 10
5074.9999999997999
 20
-3602.9999999997758
 30
0.0
 11
5080.0
 21
-3602.9999999999968
 31
0.0
1001
ACDBBLOCKREPETAG
1070
     1
1071
        9
1005
129335
  0
LINE
  5
129336
  8
OBJECT
 10
5080.0
 20
-3478.9999999999968
 30
0.0
 11
4925.0
 21
-3478.9999999999968
 31
0.0
1001
ACDBBLOCKREPETAG
1070
     1
1071
       10
1005
129336
  0
ARC
  5
129337
  8
OBJECT
 10
5200.6872746716726
 20
-3594.408099410105
 30
0.0
 40
170.6350503965856
 50
137.44134459184301
 51
149.9194958133665
1001
ACDBBLOCKREPETAG
1070
     1
1071
       15
1005
129337
  0
ARC
  5
129338
  8
OBJECT
 10
5118.8455987040506
 20
-3550.8827266953631
 30
0.0
 40
78.072222021763665
 50
147.4551531037684
 51
164.66365997719291
1001
ACDBBLOCKREPETAG
1070
     1
1071
       16
1005
129338
  0
ARC
  5
129339
  8
OBJECT
 10
5085.7554349608727
 20
-3540.9999999999968
 30
0.0
 40
43.55353926885617
 50
165.6884523008477
 51
194.3115476991523
1001
ACDBBLOCKREPETAG
1070
     1
1071
       17
1005
129339
  0
ARC
  5
12933A
  8
OBJECT
 10
5200.6872746716726
 20
-3487.5919005898891
 30
0.0
 40
170.6350503965856
 50
210.0805041866335
 51
222.55865540815699
1001
ACDBBLOCKREPETAG
1070
     1
1071
       18
1005
12933A
  0
ARC
  5
12933B
  8
OBJECT
 10
5118.8455987040506
 20
-3531.1172733046319
 30
0.0
 40
78.072222021763665
 50
195.33634002280701
 51
212.5448468962316
1001
ACDBBLOCKREPETAG
1070
     1
1071
       19
1005
12933B
  0
POINT
  5
12933C
  8
DOTS
 10
5000.0
 20
-3599.9999999999968
 30
0.0
1001
ACDBBLOCKREPETAG
1070
     1
1071
      186
1005
12933C
  0
LINE
  5
12933D
  8
OBJECT
 10
5060.0
 20
-3472.9999999999968
 30
0.0
 11
4940.0
 21
-3472.9999999999968
 31
0.0
1001
ACDBBLOCKREPETAG
1070
     1
1071
      215
1005
12933D
  0
ARC
  5
12933E
  8
OBJECT
 10
4940.0
 20
-3475.9999999999968
 30
0.0
 40
3.0
 50
90.0
 51
180.0
1001
ACDBBLOCKREPETAG
1070
     1
1071
      216
1005
12933E
  0
LINE
  5
12933F
  8
OBJECT
 10
4937.0
 20
-3475.9999999999968
 30
0.0
 11
4937.0
 21
-3478.9999999999968
 31
0.0
1001
ACDBBLOCKREPETAG
1070
     1
1071
      217
1005
12933F
  0
LINE
  5
129340
  8
OBJECT
 10
5063.0
 20
-3475.9999999999968
 30
0.0
 11
5063.0
 21
-3478.9999999999968
 31
0.0
1001
ACDBBLOCKREPETAG
1070
     1
1071
      218
1005
129340
  0
ARC
  5
129341
  8
OBJECT
 10
5060.0
 20
-3475.9999999999968
 30
0.0
 40
3.0
 50
0.0
 51
90.0
1001
ACDBBLOCKREPETAG
1070
     1
1071
      219
1005
129341
  0
LINE
  5
129342
  8
OBJECT
 10
4943.0
 20
-3404.9999999999968
 30
0.0
 11
4943.0
 21
-3472.9999999999968
 31
0.0
1001
ACDBBLOCKREPETAG
1070
     1
1071
      220
1005
129342
  0
LINE
  5
129343
  8
OBJECT
 10
5057.0
 20
-3404.9999999999968
 30
0.0
 11
4943.0
 21
-3404.9999999999968
 31
0.0
1001
ACDBBLOCKREPETAG
1070
     1
1071
      221
1005
129343
  0
LINE
  5
129344
  8
OBJECT
 10
5057.0
 20
-3404.9999999999968
 30
0.0
 11
5057.0
 21
-3472.9999999999968
 31
0.0
1001
ACDBBLOCKREPETAG
1070
     1
1071
      222
1005
129344
  0
LINE
  5
129345
  8
CENTER
 10
5000.0
 20
-3389.9999999999968
 30
0.0
 11
5000.0
 21
-3614.9999999999968
 31
0.0
1001
ACDBBLOCKREPETAG
1070
     1
1071
      223
1005
129345
  0
LINE
  5
129346
  8
HIDDEN
 10
5052.5
 20
-3404.9999999999968
 30
0.0
 11
5052.5
 21
-3478.9999999999968
 31
0.0
1001
ACDBBLOCKREPETAG
1070
     1
1071
      224
1005
129346
  0
LINE
  5
129347
  8
HIDDEN
 10
4947.5
 20
-3404.9999999999968
 30
0.0
 11
4947.5
 21
-3478.9999999999968
 31
0.0
1001
ACDBBLOCKREPETAG
1070
     1
1071
      225
1005
129347
  0
LINE
  5
129348
  8
OBJECT
 10
4325.0
 20
-3478.9999999999968
 30
0.0
 11
4325.0
 21
-3602.9999999999968
 31
0.0
1001
ACDBBLOCKREPETAG
1070
     1
1071
       26
1005
129348
  0
LINE
  5
129349
  8
OBJECT
 10
4475.0
 20
-3478.9999999999968
 30
0.0
 11
4325.0
 21
-3478.9999999999968
 31
0.0
1001
ACDBBLOCKREPETAG
1070
     1
1071
       30
1005
129349
  0
LINE
  5
12934A
  8
OBJECT
 10
4475.0
 20
-3478.9999999999968
 30
0.0
 11
4475.0
 21
-3602.9999999999968
 31
0.0
1001
ACDBBLOCKREPETAG
1070
     1
1071
       34
1005
12934A
  0
POINT
  5
12934B
  8
DOTS
 10
4400.0
 20
-3599.9999999999968
 30
0.0
1001
ACDBBLOCKREPETAG
1070
     1
1071
      187
1005
12934B
  0
LINE
  5
12934C
  8
OBJECT
 10
4460.0
 20
-3472.9999999999968
 30
0.0
 11
4340.0
 21
-3472.9999999999968
 31
0.0
1001
ACDBBLOCKREPETAG
1070
     1
1071
      226
1005
12934C
  0
ARC
  5
12934D
  8
OBJECT
 10
4340.0
 20
-3475.9999999999968
 30
0.0
 40
3.0
 50
90.0
 51
180.0
1001
ACDBBLOCKREPETAG
1070
     1
1071
      227
1005
12934D
  0
LINE
  5
12934E
  8
OBJECT
 10
4337.0
 20
-3475.9999999999968
 30
0.0
 11
4337.0
 21
-3478.9999999999968
 31
0.0
1001
ACDBBLOCKREPETAG
1070
     1
1071
      228
1005
12934E
  0
LINE
  5
12934F
  8
OBJECT
 10
4463.0
 20
-3475.9999999999968
 30
0.0
 11
4463.0
 21
-3478.9999999999968
 31
0.0
1001
ACDBBLOCKREPETAG
1070
     1
1071
      229
1005
12934F
  0
ARC
  5
129350
  8
OBJECT
 10
4460.0
 20
-3475.9999999999968
 30
0.0
 40
3.0
 50
0.0
 51
90.0
1001
ACDBBLOCKREPETAG
1070
     1
1071
      230
1005
129350
  0
LINE
  5
129351
  8
OBJECT
 10
4343.0
 20
-3404.9999999999968
 30
0.0
 11
4343.0
 21
-3472.9999999999968
 31
0.0
1001
ACDBBLOCKREPETAG
1070
     1
1071
      231
1005
129351
  0
LINE
  5
129352
  8
OBJECT
 10
4457.0
 20
-3404.9999999999968
 30
0.0
 11
4343.0
 21
-3404.9999999999968
 31
0.0
1001
ACDBBLOCKREPETAG
1070
     1
1071
      232
1005
129352
  0
LINE
  5
129353
  8
OBJECT
 10
4457.0
 20
-3404.9999999999968
 30
0.0
 11
4457.0
 21
-3472.9999999999968
 31
0.0
1001
ACDBBLOCKREPETAG
1070
     1
1071
      233
1005
129353
  0
LINE
  5
129354
  8
CENTER
 10
4400.0
 20
-3389.9999999999968
 30
0.0
 11
4400.0
 21
-3614.9999999999968
 31
0.0
1001
ACDBBLOCKREPETAG
1070
     1
1071
      234
1005
129354
  0
LINE
  5
129355
  8
HIDDEN
 10
4452.4999999999991
 20
-3404.9999999999968
 30
0.0
 11
4452.4999999999991
 21
-3478.9999999999968
 31
0.0
1001
ACDBBLOCKREPETAG
1070
     1
1071
      235
1005
129355
  0
LINE
  5
129356
  8
HIDDEN
 10
4347.5
 20
-3404.9999999999968
 30
0.0
 11
4347.5
 21
-3478.9999999999968
 31
0.0
1001
ACDBBLOCKREPETAG
1070
     1
1071
      236
1005
129356
  0
LINE
  5
129357
  8
OBJECT
 10
3925.0
 20
-3478.9999999999968
 30
0.0
 11
3925.0
 21
-3602.9999999999968
 31
0.0
1001
ACDBBLOCKREPETAG
1070
     1
1071
        6
1005
129357
  0
LINE
  5
129358
  8
OBJECT
 10
4074.999999999799
 20
-3602.9999999997758
 30
0.0
 11
4080.0
 21
-3602.9999999999968
 31
0.0
1001
ACDBBLOCKREPETAG
1070
     1
1071
        9
1005
129358
  0
LINE
  5
129359
  8
OBJECT
 10
4080.0
 20
-3478.9999999999968
 30
0.0
 11
3925.0
 21
-3478.9999999999968
 31
0.0
1001
ACDBBLOCKREPETAG
1070
     1
1071
       10
1005
129359
  0
ARC
  5
12935A
  8
OBJECT
 10
4200.6872746716726
 20
-3594.408099410105
 30
0.0
 40
170.6350503965856
 50
137.44134459184301
 51
149.9194958133665
1001
ACDBBLOCKREPETAG
1070
     1
1071
       15
1005
12935A
  0
ARC
  5
12935B
  8
OBJECT
 10
4118.8455987040506
 20
-3550.8827266953631
 30
0.0
 40
78.072222021763665
 50
147.4551531037684
 51
164.663659977186
1001
ACDBBLOCKREPETAG
1070
     1
1071
       16
1005
12935B
  0
ARC
  5
12935C
  8
OBJECT
 10
4085.7554349608722
 20
-3540.9999999999968
 30
0.0
 40
43.55353926885617
 50
165.6884523008477
 51
194.3115476991523
1001
ACDBBLOCKREPETAG
1070
     1
1071
       17
1005
12935C
  0
ARC
  5
12935D
  8
OBJECT
 10
4200.6872746716726
 20
-3487.5919005898891
 30
0.0
 40
170.6350503965856
 50
210.0805041866335
 51
222.55865540815699
1001
ACDBBLOCKREPETAG
1070
     1
1071
       18
1005
12935D
  0
ARC
  5
12935E
  8
OBJECT
 10
4118.8455987040506
 20
-3531.1172733046319
 30
0.0
 40
78.072222021763665
 50
195.33634002281391
 51
212.5448468962316
1001
ACDBBLOCKREPETAG
1070
     1
1071
       19
1005
12935E
  0
POINT
  5
12935F
  8
DOTS
 10
4000.0
 20
-3599.9999999999968
 30
0.0
1001
ACDBBLOCKREPETAG
1070
     1
1071
      186
1005
12935F
  0
LINE
  5
129360
  8
OBJECT
 10
4060.0
 20
-3472.9999999999968
 30
0.0
 11
3940.0
 21
-3472.9999999999968
 31
0.0
1001
ACDBBLOCKREPETAG
1070
     1
1071
      215
1005
129360
  0
ARC
  5
129361
  8
OBJECT
 10
3940.0
 20
-3475.9999999999968
 30
0.0
 40
3.0
 50
90.0
 51
180.0
1001
ACDBBLOCKREPETAG
1070
     1
1071
      216
1005
129361
  0
LINE
  5
129362
  8
OBJECT
 10
3937.0
 20
-3475.9999999999968
 30
0.0
 11
3937.0
 21
-3478.9999999999968
 31
0.0
1001
ACDBBLOCKREPETAG
1070
     1
1071
      217
1005
129362
  0
LINE
  5
129363
  8
OBJECT
 10
4063.0
 20
-3475.9999999999968
 30
0.0
 11
4063.0
 21
-3478.9999999999968
 31
0.0
1001
ACDBBLOCKREPETAG
1070
     1
1071
      218
1005
129363
  0
ARC
  5
129364
  8
OBJECT
 10
4060.0
 20
-3475.9999999999968
 30
0.0
 40
3.0
 50
0.0
 51
90.0
1001
ACDBBLOCKREPETAG
1070
     1
1071
      219
1005
129364
  0
LINE
  5
129365
  8
OBJECT
 10
3943.0
 20
-3404.9999999999968
 30
0.0
 11
3943.0
 21
-3472.9999999999968
 31
0.0
1001
ACDBBLOCKREPETAG
1070
     1
1071
      220
1005
129365
  0
LINE
  5
129366
  8
OBJECT
 10
4057.0
 20
-3404.9999999999968
 30
0.0
 11
3943.0
 21
-3404.9999999999968
 31
0.0
1001
ACDBBLOCKREPETAG
1070
     1
1071
      221
1005
129366
  0
LINE
  5
129367
  8
OBJECT
 10
4057.0
 20
-3404.9999999999968
 30
0.0
 11
4057.0
 21
-3472.9999999999968
 31
0.0
1001
ACDBBLOCKREPETAG
1070
     1
1071
      222
1005
129367
  0
LINE
  5
129368
  8
CENTER
 10
4000.0
 20
-3389.9999999999968
 30
0.0
 11
4000.0
 21
-3614.9999999999968
 31
0.0
1001
ACDBBLOCKREPETAG
1070
     1
1071
      223
1005
129368
  0
LINE
  5
129369
  8
HIDDEN
 10
4052.5
 20
-3404.9999999999968
 30
0.0
 11
4052.5
 21
-3478.9999999999968
 31
0.0
1001
ACDBBLOCKREPETAG
1070
     1
1071
      224
1005
129369
  0
LINE
  5
12936A
  8
HIDDEN
 10
3947.5
 20
-3404.9999999999968
 30
0.0
 11
3947.5
 21
-3478.9999999999968
 31
0.0
1001
ACDBBLOCKREPETAG
1070
     1
1071
      225
1005
12936A
  0
LINE
  5
12936B
  8
OBJECT
 10
3325.0
 20
-3478.9999999999968
 30
0.0
 11
3325.0
 21
-3602.9999999999968
 31
0.0
1001
ACDBBLOCKREPETAG
1070
     1
1071
       26
1005
12936B
  0
LINE
  5
12936C
  8
OBJECT
 10
3475.0
 20
-3478.9999999999968
 30
0.0
 11
3325.0
 21
-3478.9999999999968
 31
0.0
1001
ACDBBLOCKREPETAG
1070
     1
1071
       30
1005
12936C
  0
LINE
  5
12936D
  8
OBJECT
 10
3475.0
 20
-3478.9999999999968
 30
0.0
 11
3475.0
 21
-3602.9999999999968
 31
0.0
1001
ACDBBLOCKREPETAG
1070
     1
1071
       34
1005
12936D
  0
POINT
  5
12936E
  8
DOTS
 10
3400.0
 20
-3599.9999999999968
 30
0.0
1001
ACDBBLOCKREPETAG
1070
     1
1071
      187
1005
12936E
  0
LINE
  5
12936F
  8
OBJECT
 10
3460.0
 20
-3472.9999999999968
 30
0.0
 11
3340.0
 21
-3472.9999999999968
 31
0.0
1001
ACDBBLOCKREPETAG
1070
     1
1071
      226
1005
12936F
  0
ARC
  5
129370
  8
OBJECT
 10
3340.0
 20
-3475.9999999999968
 30
0.0
 40
3.0
 50
90.0
 51
180.0
1001
ACDBBLOCKREPETAG
1070
     1
1071
      227
1005
129370
  0
LINE
  5
129371
  8
OBJECT
 10
3337.0
 20
-3475.9999999999968
 30
0.0
 11
3337.0
 21
-3478.9999999999968
 31
0.0
1001
ACDBBLOCKREPETAG
1070
     1
1071
      228
1005
129371
  0
LINE
  5
129372
  8
OBJECT
 10
3463.0
 20
-3475.9999999999968
 30
0.0
 11
3463.0
 21
-3478.9999999999968
 31
0.0
1001
ACDBBLOCKREPETAG
1070
     1
1071
      229
1005
129372
  0
ARC
  5
129373
  8
OBJECT
 10
3460.0
 20
-3475.9999999999968
 30
0.0
 40
3.0
 50
0.0
 51
90.0
1001
ACDBBLOCKREPETAG
1070
     1
1071
      230
1005
129373
  0
LINE
  5
129374
  8
OBJECT
 10
3343.0
 20
-3404.9999999999968
 30
0.0
 11
3343.0
 21
-3472.9999999999968
 31
0.0
1001
ACDBBLOCKREPETAG
1070
     1
1071
      231
1005
129374
  0
LINE
  5
129375
  8
OBJECT
 10
3457.0
 20
-3404.9999999999968
 30
0.0
 11
3343.0
 21
-3404.9999999999968
 31
0.0
1001
ACDBBLOCKREPETAG
1070
     1
1071
      232
1005
129375
  0
LINE
  5
129376
  8
OBJECT
 10
3457.0
 20
-3404.9999999999968
 30
0.0
 11
3457.0
 21
-3472.9999999999968
 31
0.0
1001
ACDBBLOCKREPETAG
1070
     1
1071
      233
1005
129376
  0
LINE
  5
129377
  8
CENTER
 10
3400.0
 20
-3389.9999999999968
 30
0.0
 11
3400.0
 21
-3614.9999999999968
 31
0.0
1001
ACDBBLOCKREPETAG
1070
     1
1071
      234
1005
129377
  0
LINE
  5
129378
  8
HIDDEN
 10
3452.5
 20
-3404.9999999999968
 30
0.0
 11
3452.5
 21
-3478.9999999999968
 31
0.0
1001
ACDBBLOCKREPETAG
1070
     1
1071
      235
1005
129378
  0
LINE
  5
129379
  8
HIDDEN
 10
3347.5
 20
-3404.9999999999968
 30
0.0
 11
3347.5
 21
-3478.9999999999968
 31
0.0
1001
ACDBBLOCKREPETAG
1070
     1
1071
      236
1005
129379
  0
LINE
  5
12937A
  8
OBJECT
 10
2925.0
 20
-3478.9999999999968
 30
0.0
 11
2925.0
 21
-3602.9999999999968
 31
0.0
1001
ACDBBLOCKREPETAG
1070
     1
1071
        6
1005
12937A
  0
LINE
  5
12937B
  8
OBJECT
 10
3074.9999999997999
 20
-3602.9999999997758
 30
0.0
 11
3080.0
 21
-3602.9999999999968
 31
0.0
1001
ACDBBLOCKREPETAG
1070
     1
1071
        9
1005
12937B
  0
LINE
  5
12937C
  8
OBJECT
 10
3080.0
 20
-3478.9999999999968
 30
0.0
 11
2925.0
 21
-3478.9999999999968
 31
0.0
1001
ACDBBLOCKREPETAG
1070
     1
1071
       10
1005
12937C
  0
ARC
  5
12937D
  8
OBJECT
 10
3200.6872746716722
 20
-3594.408099410105
 30
0.0
 40
170.6350503965856
 50
137.44134459184301
 51
149.9194958133665
1001
ACDBBLOCKREPETAG
1070
     1
1071
       15
1005
12937D
  0
ARC
  5
12937E
  8
OBJECT
 10
3118.8455987040511
 20
-3550.8827266953631
 30
0.0
 40
78.072222021763665
 50
147.4551531037684
 51
164.663659977186
1001
ACDBBLOCKREPETAG
1070
     1
1071
       16
1005
12937E
  0
ARC
  5
12937F
  8
OBJECT
 10
3085.7554349608731
 20
-3540.9999999999968
 30
0.0
 40
43.55353926885617
 50
165.6884523008477
 51
194.3115476991523
1001
ACDBBLOCKREPETAG
1070
     1
1071
       17
1005
12937F
  0
ARC
  5
129380
  8
OBJECT
 10
3200.6872746716722
 20
-3487.5919005898891
 30
0.0
 40
170.6350503965856
 50
210.0805041866335
 51
222.55865540815699
1001
ACDBBLOCKREPETAG
1070
     1
1071
       18
1005
129380
  0
ARC
  5
129381
  8
OBJECT
 10
3118.8455987040511
 20
-3531.1172733046319
 30
0.0
 40
78.072222021763665
 50
195.33634002281391
 51
212.5448468962316
1001
ACDBBLOCKREPETAG
1070
     1
1071
       19
1005
129381
  0
POINT
  5
129382
  8
DOTS
 10
3000.0
 20
-3599.9999999999968
 30
0.0
1001
ACDBBLOCKREPETAG
1070
     1
1071
      186
1005
129382
  0
LINE
  5
129383
  8
OBJECT
 10
3060.0
 20
-3472.9999999999968
 30
0.0
 11
2940.0
 21
-3472.9999999999968
 31
0.0
1001
ACDBBLOCKREPETAG
1070
     1
1071
      215
1005
129383
  0
ARC
  5
129384
  8
OBJECT
 10
2940.0
 20
-3475.9999999999968
 30
0.0
 40
3.0
 50
90.0
 51
180.0
1001
ACDBBLOCKREPETAG
1070
     1
1071
      216
1005
129384
  0
LINE
  5
129385
  8
OBJECT
 10
2937.0
 20
-3475.9999999999968
 30
0.0
 11
2937.0
 21
-3478.9999999999968
 31
0.0
1001
ACDBBLOCKREPETAG
1070
     1
1071
      217
1005
129385
  0
LINE
  5
129386
  8
OBJECT
 10
3063.0
 20
-3475.9999999999968
 30
0.0
 11
3063.0
 21
-3478.9999999999968
 31
0.0
1001
ACDBBLOCKREPETAG
1070
     1
1071
      218
1005
129386
  0
ARC
  5
129387
  8
OBJECT
 10
3060.0
 20
-3475.9999999999968
 30
0.0
 40
3.0
 50
0.0
 51
90.0
1001
ACDBBLOCKREPETAG
1070
     1
1071
      219
1005
129387
  0
LINE
  5
129388
  8
OBJECT
 10
2943.0
 20
-3404.9999999999968
 30
0.0
 11
2943.0
 21
-3472.9999999999968
 31
0.0
1001
ACDBBLOCKREPETAG
1070
     1
1071
      220
1005
129388
  0
LINE
  5
129389
  8
OBJECT
 10
3057.0
 20
-3404.9999999999968
 30
0.0
 11
2943.0
 21
-3404.9999999999968
 31
0.0
1001
ACDBBLOCKREPETAG
1070
     1
1071
      221
1005
129389
  0
LINE
  5
12938A
  8
OBJECT
 10
3057.0
 20
-3404.9999999999968
 30
0.0
 11
3057.0
 21
-3472.9999999999968
 31
0.0
1001
ACDBBLOCKREPETAG
1070
     1
1071
      222
1005
12938A
  0
LINE
  5
12938B
  8
CENTER
 10
3000.0
 20
-3389.9999999999968
 30
0.0
 11
3000.0
 21
-3614.9999999999968
 31
0.0
1001
ACDBBLOCKREPETAG
1070
     1
1071
      223
1005
12938B
  0
LINE
  5
12938C
  8
HIDDEN
 10
3052.5
 20
-3404.9999999999968
 30
0.0
 11
3052.5
 21
-3478.9999999999968
 31
0.0
1001
ACDBBLOCKREPETAG
1070
     1
1071
      224
1005
12938C
  0
LINE
  5
12938D
  8
HIDDEN
 10
2947.5
 20
-3404.9999999999968
 30
0.0
 11
2947.5
 21
-3478.9999999999968
 31
0.0
1001
ACDBBLOCKREPETAG
1070
     1
1071
      225
1005
12938D
  0
LINE
  5
12938E
  8
OBJECT
 10
2325.0
 20
-3478.9999999999968
 30
0.0
 11
2325.0
 21
-3602.9999999999968
 31
0.0
1001
ACDBBLOCKREPETAG
1070
     1
1071
       26
1005
12938E
  0
LINE
  5
12938F
  8
OBJECT
 10
2475.0
 20
-3478.9999999999968
 30
0.0
 11
2325.0
 21
-3478.9999999999968
 31
0.0
1001
ACDBBLOCKREPETAG
1070
     1
1071
       30
1005
12938F
  0
LINE
  5
129390
  8
OBJECT
 10
2475.0
 20
-3478.9999999999968
 30
0.0
 11
2475.0
 21
-3602.9999999999968
 31
0.0
1001
ACDBBLOCKREPETAG
1070
     1
1071
       34
1005
129390
  0
POINT
  5
129391
  8
DOTS
 10
2400.0
 20
-3599.9999999999968
 30
0.0
1001
ACDBBLOCKREPETAG
1070
     1
1071
      187
1005
129391
  0
LINE
  5
129392
  8
OBJECT
 10
2460.0
 20
-3472.9999999999968
 30
0.0
 11
2340.0
 21
-3472.9999999999968
 31
0.0
1001
ACDBBLOCKREPETAG
1070
     1
1071
      226
1005
129392
  0
ARC
  5
129393
  8
OBJECT
 10
2340.0
 20
-3475.9999999999968
 30
0.0
 40
3.0
 50
90.0
 51
180.0
1001
ACDBBLOCKREPETAG
1070
     1
1071
      227
1005
129393
  0
LINE
  5
129394
  8
OBJECT
 10
2337.0
 20
-3475.9999999999968
 30
0.0
 11
2337.0
 21
-3478.9999999999968
 31
0.0
1001
ACDBBLOCKREPETAG
1070
     1
1071
      228
1005
129394
  0
LINE
  5
129395
  8
OBJECT
 10
2463.0
 20
-3475.9999999999968
 30
0.0
 11
2463.0
 21
-3478.9999999999968
 31
0.0
1001
ACDBBLOCKREPETAG
1070
     1
1071
      229
1005
129395
  0
ARC
  5
129396
  8
OBJECT
 10
2460.0
 20
-3475.9999999999968
 30
0.0
 40
3.0
 50
0.0
 51
90.0
1001
ACDBBLOCKREPETAG
1070
     1
1071
      230
1005
129396
  0
LINE
  5
129397
  8
OBJECT
 10
2343.0
 20
-3404.9999999999968
 30
0.0
 11
2343.0
 21
-3472.9999999999968
 31
0.0
1001
ACDBBLOCKREPETAG
1070
     1
1071
      231
1005
129397
  0
LINE
  5
129398
  8
OBJECT
 10
2457.0
 20
-3404.9999999999968
 30
0.0
 11
2343.0
 21
-3404.9999999999968
 31
0.0
1001
ACDBBLOCKREPETAG
1070
     1
1071
      232
1005
129398
  0
LINE
  5
129399
  8
OBJECT
 10
2457.0
 20
-3404.9999999999968
 30
0.0
 11
2457.0
 21
-3472.9999999999968
 31
0.0
1001
ACDBBLOCKREPETAG
1070
     1
1071
      233
1005
129399
  0
LINE
  5
12939A
  8
CENTER
 10
2400.0
 20
-3389.9999999999968
 30
0.0
 11
2400.0
 21
-3614.9999999999968
 31
0.0
1001
ACDBBLOCKREPETAG
1070
     1
1071
      234
1005
12939A
  0
LINE
  5
12939B
  8
HIDDEN
 10
2452.5000000000009
 20
-3404.9999999999968
 30
0.0
 11
2452.5000000000009
 21
-3478.9999999999968
 31
0.0
1001
ACDBBLOCKREPETAG
1070
     1
1071
      235
1005
12939B
  0
LINE
  5
12939C
  8
HIDDEN
 10
2347.5
 20
-3404.9999999999968
 30
0.0
 11
2347.5
 21
-3478.9999999999968
 31
0.0
1001
ACDBBLOCKREPETAG
1070
     1
1071
      236
1005
12939C
  0
LINE
  5
12939D
  8
OBJECT
 10
1925.0
 20
-3478.9999999999968
 30
0.0
 11
1925.0
 21
-3602.9999999999968
 31
0.0
1001
ACDBBLOCKREPETAG
1070
     1
1071
        6
1005
12939D
  0
LINE
  5
12939E
  8
OBJECT
 10
2074.999999999799
 20
-3602.9999999997758
 30
0.0
 11
2080.0
 21
-3602.9999999999968
 31
0.0
1001
ACDBBLOCKREPETAG
1070
     1
1071
        9
1005
12939E
  0
LINE
  5
12939F
  8
OBJECT
 10
2080.0
 20
-3478.9999999999968
 30
0.0
 11
1925.0
 21
-3478.9999999999968
 31
0.0
1001
ACDBBLOCKREPETAG
1070
     1
1071
       10
1005
12939F
  0
ARC
  5
1293A0
  8
OBJECT
 10
2200.6872746716731
 20
-3594.408099410105
 30
0.0
 40
170.6350503965856
 50
137.44134459184301
 51
149.91949581335999
1001
ACDBBLOCKREPETAG
1070
     1
1071
       15
1005
1293A0
  0
ARC
  5
1293A1
  8
OBJECT
 10
2118.8455987040511
 20
-3550.8827266953631
 30
0.0
 40
78.072222021763665
 50
147.45515310377539
 51
164.663659977186
1001
ACDBBLOCKREPETAG
1070
     1
1071
       16
1005
1293A1
  0
ARC
  5
1293A2
  8
OBJECT
 10
2085.7554349608731
 20
-3540.9999999999968
 30
0.0
 40
43.55353926885617
 50
165.6884523008477
 51
194.3115476991523
1001
ACDBBLOCKREPETAG
1070
     1
1071
       17
1005
1293A2
  0
ARC
  5
1293A3
  8
OBJECT
 10
2200.6872746716731
 20
-3487.5919005898891
 30
0.0
 40
170.6350503965856
 50
210.08050418664001
 51
222.55865540815699
1001
ACDBBLOCKREPETAG
1070
     1
1071
       18
1005
1293A3
  0
ARC
  5
1293A4
  8
OBJECT
 10
2118.8455987040511
 20
-3531.1172733046319
 30
0.0
 40
78.072222021763665
 50
195.33634002281391
 51
212.54484689622461
1001
ACDBBLOCKREPETAG
1070
     1
1071
       19
1005
1293A4
  0
POINT
  5
1293A5
  8
DOTS
 10
2000.0
 20
-3599.9999999999968
 30
0.0
1001
ACDBBLOCKREPETAG
1070
     1
1071
      186
1005
1293A5
  0
LINE
  5
1293A6
  8
OBJECT
 10
2060.0
 20
-3472.9999999999968
 30
0.0
 11
1940.0
 21
-3472.9999999999968
 31
0.0
1001
ACDBBLOCKREPETAG
1070
     1
1071
      215
1005
1293A6
  0
ARC
  5
1293A7
  8
OBJECT
 10
1940.0
 20
-3475.9999999999968
 30
0.0
 40
3.0
 50
90.0
 51
180.0
1001
ACDBBLOCKREPETAG
1070
     1
1071
      216
1005
1293A7
  0
LINE
  5
1293A8
  8
OBJECT
 10
1937.0
 20
-3475.9999999999968
 30
0.0
 11
1937.0
 21
-3478.9999999999968
 31
0.0
1001
ACDBBLOCKREPETAG
1070
     1
1071
      217
1005
1293A8
  0
LINE
  5
1293A9
  8
OBJECT
 10
2063.0
 20
-3475.9999999999968
 30
0.0
 11
2063.0
 21
-3478.9999999999968
 31
0.0
1001
ACDBBLOCKREPETAG
1070
     1
1071
      218
1005
1293A9
  0
ARC
  5
1293AA
  8
OBJECT
 10
2060.0
 20
-3475.9999999999968
 30
0.0
 40
3.0
 50
0.0
 51
90.0
1001
ACDBBLOCKREPETAG
1070
     1
1071
      219
1005
1293AA
  0
LINE
  5
1293AB
  8
OBJECT
 10
1943.0
 20
-3404.9999999999968
 30
0.0
 11
1943.0
 21
-3472.9999999999968
 31
0.0
1001
ACDBBLOCKREPETAG
1070
     1
1071
      220
1005
1293AB
  0
LINE
  5
1293AC
  8
OBJECT
 10
2057.0
 20
-3404.9999999999968
 30
0.0
 11
1943.0
 21
-3404.9999999999968
 31
0.0
1001
ACDBBLOCKREPETAG
1070
     1
1071
      221
1005
1293AC
  0
LINE
  5
1293AD
  8
OBJECT
 10
2057.0
 20
-3404.9999999999968
 30
0.0
 11
2057.0
 21
-3472.9999999999968
 31
0.0
1001
ACDBBLOCKREPETAG
1070
     1
1071
      222
1005
1293AD
  0
LINE
  5
1293AE
  8
CENTER
 10
2000.0
 20
-3389.9999999999968
 30
0.0
 11
2000.0
 21
-3614.9999999999968
 31
0.0
1001
ACDBBLOCKREPETAG
1070
     1
1071
      223
1005
1293AE
  0
LINE
  5
1293AF
  8
HIDDEN
 10
2052.5
 20
-3404.9999999999968
 30
0.0
 11
2052.5
 21
-3478.9999999999968
 31
0.0
1001
ACDBBLOCKREPETAG
1070
     1
1071
      224
1005
1293AF
  0
LINE
  5
1293B0
  8
HIDDEN
 10
1947.4999999999991
 20
-3404.9999999999968
 30
0.0
 11
1947.4999999999991
 21
-3478.9999999999968
 31
0.0
1001
ACDBBLOCKREPETAG
1070
     1
1071
      225
1005
1293B0
  0
LINE
  5
1293B1
  8
DIM
 10
2150.0
 20
-3241.9999999999959
 30
0.0
 11
2228.479620594459
 21
-3241.9999999999959
 31
0.0
  0
LINE
  5
1293B2
  8
DIM
 10
2150.0
 20
-3147.9999999999959
 30
0.0
 11
2228.479620594459
 21
-3147.9999999999959
 31
0.0
  0
LINE
  5
1293B3
  8
DIM
 10
2218.479620594459
 20
-3221.9999999999959
 30
0.0
 11
2218.479620594459
 21
-3167.9999999999959
 31
0.0
  0
INSERT
  5
1293B4
  8
DIM
  2
_OPEN30
 10
2218.479620594459
 20
-3241.9999999999959
 30
0.0
 41
20.0
 42
20.0
 43
20.0
 50
270.0
  0
INSERT
  5
1293B5
  8
DIM
  2
_OPEN30
 10
2218.479620594459
 20
-3147.9999999999959
 30
0.0
 41
20.0
 42
20.0
 43
20.0
 50
90.0
  0
INSERT
  5
1293B6
  8
OBJECT
  2
*U12
 10
0.0
 20
0.0
 30
0.0
  0
LINE
  5
1293B7
  8
DIM
 10
2150.0
 20
-3599.9999999999968
 30
0.0
 11
2226.8409284037339
 21
-3599.9999999999968
 31
0.0
  0
LINE
  5
1293B8
  8
DIM
 10
2165.0
 20
-3555.9999999999968
 30
0.0
 11
2226.8409284037339
 21
-3555.9999999999968
 31
0.0
  0
LINE
  5
1293B9
  8
DIM
 10
2216.840928403733
 20
-3619.9999999999968
 30
0.0
 11
2216.840928403733
 21
-3639.9999999999968
 31
0.0
  0
LINE
  5
1293BA
  8
DIM
 10
2216.840928403733
 20
-3535.9999999999968
 30
0.0
 11
2216.840928403733
 21
-3515.9999999999968
 31
0.0
  0
LINE
  5
1293BB
  8
DIM
 10
2216.840928403733
 20
-3599.9999999999968
 30
0.0
 11
2216.840928403733
 21
-3555.9999999999968
 31
0.0
  0
INSERT
  5
1293BC
  8
DIM
  2
_OPEN30
 10
2216.840928403733
 20
-3599.9999999999968
 30
0.0
 41
20.0
 42
20.0
 43
20.0
 50
90.0
  0
INSERT
  5
1293BD
  8
DIM
  2
_OPEN30
 10
2216.840928403733
 20
-3555.9999999999968
 30
0.0
 41
20.0
 42
20.0
 43
20.0
 50
270.0
  0
INSERT
  5
1293BE
  8
OBJECT
  2
*U13
 10
0.0
 20
0.0
 30
0.0
  0
LINE
  5
1293BF
  8
DIM
 10
2000.0
 20
-3089.9999999999959
 30
0.0
 11
2000.0
 21
-3057.208121984444
 31
0.0
  0
LINE
  5
1293C0
  8
DIM
 10
2140.0
 20
-3137.9999999999959
 30
0.0
 11
2140.0
 21
-3057.208121984444
 31
0.0
  0
LINE
  5
1293C1
  8
DIM
 10
2020.0
 20
-3067.208121984444
 30
0.0
 11
2120.0
 21
-3067.208121984444
 31
0.0
  0
INSERT
  5
1293C2
  8
DIM
  2
_OPEN30
 10
2000.0
 20
-3067.208121984444
 30
0.0
 41
20.0
 42
20.0
 43
20.0
 50
180.0
  0
INSERT
  5
1293C3
  8
DIM
  2
_OPEN30
 10
2140.0
 20
-3067.208121984444
 30
0.0
 41
20.0
 42
20.0
 43
20.0
  0
INSERT
  5
1293C4
  8
OBJECT
  2
*U14
 10
0.0
 20
0.0
 30
0.0
  0
TEXT
  5
1293C5
  8
SLIM
 10
2631.0
 20
-2972.50001604727
 30
0.0
 40
40.0
  1
C寸法
 41
0.75
  0
TEXT
  5
1293C6
  8
SLIM
 10
2631.0
 20
-2902.50001604727
 30
0.0
 40
40.0
  1
B寸法
 41
0.75
  0
TEXT
  5
1293C7
  8
SLIM
 10
2630.2857142857142
 20
-2832.50001604727
 30
0.0
 40
40.0
  1
A寸法
 41
0.75
  0
TEXT
  5
1293C8
  8
SLIM
 10
3159.2857142857151
 20
-2972.50001604727
 30
0.0
 40
40.0
  1
150
 41
0.75
  0
TEXT
  5
1293C9
  8
SLIM
 10
3029.2857142857151
 20
-2972.50001604727
 30
0.0
 40
40.0
  1
140
 41
0.75
  0
TEXT
  5
1293CA
  8
SLIM
 10
2769.2857142857151
 20
-2972.50001604727
 30
0.0
 40
40.0
  1
140
 41
0.75
  0
TEXT
  5
1293CB
  8
SLIM
 10
2899.2857142857151
 20
-2972.50001604727
 30
0.0
 40
40.0
  1
140
 41
0.75
  0
TEXT
  5
1293CC
  8
SLIM
 10
3170.7142857142858
 20
-2902.50001604727
 30
0.0
 40
40.0
  1
72
 41
0.75
  0
TEXT
  5
1293CD
  8
SLIM
 10
3041.4285714285711
 20
-2902.50001604727
 30
0.0
 40
40.0
  1
59
 41
0.75
  0
TEXT
  5
1293CE
  8
SLIM
 10
2780.0
 20
-2902.50001604727
 30
0.0
 40
40.0
  1
44
 41
0.75
  0
TEXT
  5
1293CF
  8
SLIM
 10
2910.7142857142858
 20
-2902.50001604727
 30
0.0
 40
40.0
  1
52
 41
0.75
  0
TEXT
  5
1293D0
  8
SLIM
 10
2891.0
 20
-2707.50001604727
 30
0.0
 40
40.0
  1
横枝管サイズ
 41
0.75
  0
TEXT
  5
1293D1
  8
SLIM
 10
3136.2857142857151
 20
-2762.50001604727
 30
0.0
 40
30.0
  1
100（4）
 41
0.75
  0
TEXT
  5
1293D2
  8
SLIM
 10
3014.857142857144
 20
-2762.50001604727
 30
0.0
 40
30.0
  1
75（3）
 41
0.75
  0
TEXT
  5
1293D3
  8
SLIM
 10
2884.8571428571431
 20
-2762.50001604727
 30
0.0
 40
30.0
  1
65（2）
 41
0.75
  0
TEXT
  5
1293D4
  8
SLIM
 10
2757.0
 20
-2762.50001604727
 30
0.0
 40
30.0
  1
50（1）
 41
0.75
  0
TEXT
  5
1293D5
  8
SLIM
 10
3159.2857142857151
 20
-2832.50001604727
 30
0.0
 40
40.0
  1
150
 41
0.75
  0
TEXT
  5
1293D6
  8
SLIM
 10
3028.571428571428
 20
-2832.50001604727
 30
0.0
 40
40.0
  1
124
 41
0.75
  0
TEXT
  5
1293D7
  8
SLIM
 10
2780.0
 20
-2832.50001604727
 30
0.0
 40
40.0
  1
94
 41
0.75
  0
TEXT
  5
1293D8
  8
SLIM
 10
2902.1428571428569
 20
-2832.50001604727
 30
0.0
 40
40.0
  1
110
 41
0.75
  0
TEXT
  5
1293D9
  8
SLIM
 10
1849.9999999999991
 20
-2732.5
 30
0.0
 40
75.0
  1
枝管サイズ毎の形状
 41
0.75
  0
LINE
  5
1293DA
  8
OBJECT
 10
5150.0
 20
-3452.9999999999968
 30
0.0
 11
5143.0
 21
-3452.9999999999968
 31
0.0
1001
ACDBBLOCKREPETAG
1070
     1
1071
       64
1005
1293DA
  0
LINE
  5
1293DB
  8
OBJECT
 10
5143.0
 20
-3452.9999999999968
 30
0.0
 11
5143.0
 21
-3599.9999999999968
 31
0.0
1001
ACDBBLOCKREPETAG
1070
     1
1071
       65
1005
1293DB
  0
LINE
  5
1293DC
  8
OBJECT
 10
5101.5
 20
-3455.9999999999968
 30
0.0
 11
5101.5
 21
-3599.9999999999968
 31
0.0
1001
ACDBBLOCKREPETAG
1070
     1
1071
       66
1005
1293DC
  0
LINE
  5
1293DD
  8
OBJECT
 10
5090.0
 20
-3462.4999999999968
 30
0.0
 11
5090.0
 21
-3593.4999999999968
 31
0.0
1001
ACDBBLOCKREPETAG
1070
     1
1071
       67
1005
1293DD
  0
LINE
  5
1293DE
  8
OBJECT
 10
5086.0
 20
-3534.5000000000041
 30
0.0
 11
5086.0
 21
-3599.9999999999968
 31
0.0
1001
ACDBBLOCKREPETAG
1070
     1
1071
       68
1005
1293DE
  0
LINE
  5
1293DF
  8
OBJECT
 10
5150.0
 20
-3599.9999999999968
 30
0.0
 11
5150.0
 21
-3452.9999999999968
 31
0.0
1001
ACDBBLOCKREPETAG
1070
     1
1071
       69
1005
1293DF
  0
LINE
  5
1293E0
  8
CENTER
 10
5165.0
 20
-3527.9999999999968
 30
0.0
 11
5070.4144144144157
 21
-3527.9999999999968
 31
0.0
1001
ACDBBLOCKREPETAG
1070
     1
1071
       70
1005
1293E0
  0
LINE
  5
1293E1
  8
OBJECT
 10
5083.0000000000045
 20
-3602.9999999999968
 30
0.0
 11
5080.0
 21
-3602.9999999999968
 31
0.0
1001
ACDBBLOCKREPETAG
1070
     1
1071
       71
1005
1293E1
  0
ARC
  5
1293E2
  8
OBJECT
 10
5091.8815171830656
 20
-3601.4555591801432
 30
0.0
 40
6.0
 50
60.52411099686767
 51
170.6927439126847
1001
ACDBBLOCKREPETAG
1070
     1
1071
       72
1005
1293E2
  0
ARC
  5
1293E3
  8
OBJECT
 10
5083.0
 20
-3599.9999999999968
 30
0.0
 40
3.0
 50
270.0
 51
350.69274391268482
1001
ACDBBLOCKREPETAG
1070
     1
1071
       73
1005
1293E3
  0
LINE
  5
1293E4
  8
OBJECT
 10
5081.0
 20
-3478.9999999999968
 30
0.0
 11
5080.0
 21
-3478.9999999999968
 31
0.0
1001
ACDBBLOCKREPETAG
1070
     1
1071
       74
1005
1293E4
  0
LINE
  5
1293E5
  8
OBJECT
 10
5150.0
 20
-3599.9999999999968
 30
0.0
 11
5101.5
 21
-3599.9999999999968
 31
0.0
1001
ACDBBLOCKREPETAG
1070
     1
1071
       75
1005
1293E5
  0
LINE
  5
1293E6
  8
OBJECT
 10
5101.5
 20
-3455.9999999999968
 30
0.0
 11
5090.0
 21
-3462.4999999999968
 31
0.0
1001
ACDBBLOCKREPETAG
1070
     1
1071
       76
1005
1293E6
  0
LINE
  5
1293E7
  8
OBJECT
 10
5143.0
 20
-3455.9999999999968
 30
0.0
 11
5101.5
 21
-3455.9999999999968
 31
0.0
1001
ACDBBLOCKREPETAG
1070
     1
1071
       77
1005
1293E7
  0
LINE
  5
1293E8
  8
OBJECT
 10
5086.0
 20
-3534.5000000000041
 30
0.0
 11
5081.0
 21
-3478.9999999999968
 31
0.0
1001
ACDBBLOCKREPETAG
1070
     1
1071
       78
1005
1293E8
  0
LINE
  5
1293E9
  8
OBJECT
 10
5090.0
 20
-3462.4999999999968
 30
0.0
 11
5081.0
 21
-3478.9999999999968
 31
0.0
1001
ACDBBLOCKREPETAG
1070
     1
1071
       79
1005
1293E9
  0
LINE
  5
1293EA
  8
OBJECT
 10
5101.5
 20
-3599.9999999999968
 30
0.0
 11
5094.8338607230708
 21
-3596.232182147819
 31
0.0
1001
ACDBBLOCKREPETAG
1070
     1
1071
       80
1005
1293EA
  0
LINE
  5
1293EB
  8
HIDDEN
 10
5098.0
 20
-3584.9999999999968
 30
0.0
 11
5098.0
 21
-3470.9999999999968
 31
0.0
1001
ACDBBLOCKREPETAG
1070
     1
1071
       81
1005
1293EB
  0
LINE
  5
1293EC
  8
OBJECT
 10
5150.0
 20
-3119.9999999999959
 30
0.0
 11
5143.0
 21
-3119.9999999999959
 31
0.0
1001
ACDBBLOCKREPETAG
1070
     1
1071
       67
1005
1293EC
  0
LINE
  5
1293ED
  8
OBJECT
 10
5143.0
 20
-3119.9999999999959
 30
0.0
 11
5143.0
 21
-3269.9999999999959
 31
0.0
1001
ACDBBLOCKREPETAG
1070
     1
1071
       68
1005
1293ED
  0
LINE
  5
1293EE
  8
OBJECT
 10
5101.5
 20
-3122.9999999999959
 30
0.0
 11
5101.5
 21
-3266.9999999999959
 31
0.0
1001
ACDBBLOCKREPETAG
1070
     1
1071
       69
1005
1293EE
  0
LINE
  5
1293EF
  8
OBJECT
 10
5090.0
 20
-3129.4999999999959
 30
0.0
 11
5090.0
 21
-3260.4999999999959
 31
0.0
1001
ACDBBLOCKREPETAG
1070
     1
1071
       70
1005
1293EF
  0
LINE
  5
1293F0
  8
OBJECT
 10
5143.0
 20
-3269.9999999999959
 30
0.0
 11
5150.0
 21
-3269.9999999999959
 31
0.0
1001
ACDBBLOCKREPETAG
1070
     1
1071
       71
1005
1293F0
  0
LINE
  5
1293F1
  8
OBJECT
 10
5150.0
 20
-3269.9999999999959
 30
0.0
 11
5150.0
 21
-3119.9999999999959
 31
0.0
1001
ACDBBLOCKREPETAG
1070
     1
1071
       72
1005
1293F1
  0
LINE
  5
1293F2
  8
HIDDEN
 10
5098.0
 20
-3251.9999999999959
 30
0.0
 11
5098.0
 21
-3137.9999999999959
 31
0.0
1001
ACDBBLOCKREPETAG
1070
     1
1071
       73
1005
1293F2
  0
LINE
  5
1293F3
  8
CENTER
 10
5165.0
 20
-3194.9999999999959
 30
0.0
 11
5080.0
 21
-3194.9999999999959
 31
0.0
1001
ACDBBLOCKREPETAG
1070
     1
1071
       74
1005
1293F3
  0
LINE
  5
1293F4
  8
OBJECT
 10
5086.0
 20
-3256.9999999999959
 30
0.0
 11
5080.0
 21
-3256.9999999999959
 31
0.0
1001
ACDBBLOCKREPETAG
1070
     1
1071
       75
1005
1293F4
  0
LINE
  5
1293F5
  8
OBJECT
 10
5143.0
 20
-3266.9999999999959
 30
0.0
 11
5101.5
 21
-3266.9999999999959
 31
0.0
1001
ACDBBLOCKREPETAG
1070
     1
1071
       76
1005
1293F5
  0
LINE
  5
1293F6
  8
OBJECT
 10
5101.5
 20
-3266.9999999999959
 30
0.0
 11
5090.0
 21
-3260.4999999999959
 31
0.0
1001
ACDBBLOCKREPETAG
1070
     1
1071
       77
1005
1293F6
  0
LINE
  5
1293F7
  8
OBJECT
 10
5090.0
 20
-3260.4999999999959
 30
0.0
 11
5086.0
 21
-3256.9999999999959
 31
0.0
1001
ACDBBLOCKREPETAG
1070
     1
1071
       78
1005
1293F7
  0
LINE
  5
1293F8
  8
OBJECT
 10
5101.5
 20
-3122.9999999999959
 30
0.0
 11
5090.0
 21
-3129.4999999999959
 31
0.0
1001
ACDBBLOCKREPETAG
1070
     1
1071
       79
1005
1293F8
  0
LINE
  5
1293F9
  8
OBJECT
 10
5090.0
 20
-3129.4999999999959
 30
0.0
 11
5086.0
 21
-3132.9999999999959
 31
0.0
1001
ACDBBLOCKREPETAG
1070
     1
1071
       80
1005
1293F9
  0
ARC
  5
1293FA
  8
OBJECT
 10
5467.9000000000005
 20
-3194.9999999999959
 30
0.0
 40
386.89999999999998
 50
170.77870136260421
 51
189.22129863739571
1001
ACDBBLOCKREPETAG
1070
     1
1071
       81
1005
1293FA
  0
LINE
  5
1293FB
  8
OBJECT
 10
5086.0
 20
-3132.9999999999959
 30
0.0
 11
5080.0
 21
-3132.9999999999959
 31
0.0
1001
ACDBBLOCKREPETAG
1070
     1
1071
       82
1005
1293FB
  0
LINE
  5
1293FC
  8
OBJECT
 10
5143.0
 20
-3122.9999999999959
 30
0.0
 11
5101.5
 21
-3122.9999999999959
 31
0.0
1001
ACDBBLOCKREPETAG
1070
     1
1071
       83
1005
1293FC
  0
TEXT
  5
1293FD
  8
SLIM
 10
4884.25
 20
-3717.4999999999959
 30
0.0
 40
35.0
  1
通常枝100（4）
 41
0.75
  0
LINE
  5
1293FE
  8
CENTER
 10
4477.0
 20
-3540.9999999999968
 30
0.0
 11
4323.0
 21
-3540.9999999999968
 31
0.0
1001
ACDBBLOCKREPETAG
1070
     1
1071
       17
1005
1293FE
  0
CIRCLE
  5
1293FF
  8
OBJECT
 10
4400.0
 20
-3540.9999999999968
 30
0.0
 40
41.5
1001
ACDBBLOCKREPETAG
1070
     1
1071
       19
1005
1293FF
  0
CIRCLE
  5
129400
  8
OBJECT
 10
4400.0
 20
-3540.9999999999968
 30
0.0
 40
54.0
1001
ACDBBLOCKREPETAG
1070
     1
1071
       20
1005
129400
  0
ARC
  5
129401
  8
OBJECT
 10
4400.0
 20
-3540.9999999999968
 30
0.0
 40
62.0
 50
287.89655112921122
 51
252.1034488707887
1001
ACDBBLOCKREPETAG
1070
     1
1071
       21
1005
129401
  0
LINE
  5
129402
  8
OBJECT
 10
4380.947441116743
 20
-3599.9999999999968
 30
0.0
 11
4419.052558883257
 21
-3599.9999999999968
 31
0.0
1001
ACDBBLOCKREPETAG
1070
     1
1071
       22
1005
129402
  0
LINE
  5
129403
  8
OBJECT
 10
4133.0
 20
-3478.9999999999968
 30
0.0
 11
4140.0
 21
-3478.9999999999968
 31
0.0
1001
ACDBBLOCKREPETAG
1070
     1
1071
       45
1005
129403
  0
LINE
  5
129404
  8
OBJECT
 10
4140.0
 20
-3478.9999999999968
 30
0.0
 11
4140.0
 21
-3599.9999999999968
 31
0.0
1001
ACDBBLOCKREPETAG
1070
     1
1071
       46
1005
129404
  0
LINE
  5
129405
  8
OBJECT
 10
4133.0
 20
-3599.9999999999968
 30
0.0
 11
4133.0
 21
-3478.9999999999968
 31
0.0
1001
ACDBBLOCKREPETAG
1070
     1
1071
       47
1005
129405
  0
LINE
  5
129406
  8
CENTER
 10
4155.0
 20
-3540.9999999999968
 30
0.0
 11
4071.0
 21
-3540.9999999999968
 31
0.0
1001
ACDBBLOCKREPETAG
1070
     1
1071
       48
1005
129406
  0
LINE
  5
129407
  8
OBJECT
 10
4133.0
 20
-3481.9999999999968
 30
0.0
 11
4097.0
 21
-3481.9999999999968
 31
0.0
1001
ACDBBLOCKREPETAG
1070
     1
1071
       49
1005
129407
  0
LINE
  5
129408
  8
OBJECT
 10
4097.0
 20
-3481.9999999999968
 30
0.0
 11
4097.0
 21
-3599.9999999999968
 31
0.0
1001
ACDBBLOCKREPETAG
1070
     1
1071
       50
1005
129408
  0
LINE
  5
129409
  8
OBJECT
 10
4097.0
 20
-3599.9999999999968
 30
0.0
 11
4140.0
 21
-3599.9999999999968
 31
0.0
1001
ACDBBLOCKREPETAG
1070
     1
1071
       51
1005
129409
  0
LINE
  5
12940A
  8
OBJECT
 10
4093.0
 20
-3486.4999999999968
 30
0.0
 11
4086.0
 21
-3486.4999999999968
 31
0.0
1001
ACDBBLOCKREPETAG
1070
     1
1071
       52
1005
12940A
  0
LINE
  5
12940B
  8
OBJECT
 10
4086.0
 20
-3595.4999999999968
 30
0.0
 11
4093.0
 21
-3595.4999999999968
 31
0.0
1001
ACDBBLOCKREPETAG
1070
     1
1071
       53
1005
12940B
  0
LINE
  5
12940C
  8
OBJECT
 10
4093.0
 20
-3595.4999999999968
 30
0.0
 11
4093.0
 21
-3486.4999999999968
 31
0.0
1001
ACDBBLOCKREPETAG
1070
     1
1071
       54
1005
12940C
  0
LINE
  5
12940D
  8
OBJECT
 10
4097.0
 20
-3481.9999999999968
 30
0.0
 11
4093.0
 21
-3486.4999999999968
 31
0.0
1001
ACDBBLOCKREPETAG
1070
     1
1071
       55
1005
12940D
  0
LINE
  5
12940E
  8
OBJECT
 10
4097.0
 20
-3599.9999999999968
 30
0.0
 11
4093.0
 21
-3595.4999999999968
 31
0.0
1001
ACDBBLOCKREPETAG
1070
     1
1071
       56
1005
12940E
  0
LINE
  5
12940F
  8
OBJECT
 10
4083.0
 20
-3478.9999999999968
 30
0.0
 11
4080.0
 21
-3478.9999999999968
 31
0.0
1001
ACDBBLOCKREPETAG
1070
     1
1071
       57
1005
12940F
  0
ARC
  5
129410
  8
OBJECT
 10
4083.0
 20
-3481.9999999999968
 30
0.0
 40
3.0
 50
0.0
 51
90.0
1001
ACDBBLOCKREPETAG
1070
     1
1071
       58
1005
129410
  0
LINE
  5
129411
  8
OBJECT
 10
4080.0
 20
-3602.9999999999968
 30
0.0
 11
4083.0
 21
-3602.9999999999968
 31
0.0
1001
ACDBBLOCKREPETAG
1070
     1
1071
       59
1005
129411
  0
ARC
  5
129412
  8
OBJECT
 10
4083.0
 20
-3599.9999999999968
 30
0.0
 40
3.0
 50
270.0
 51
0.0
1001
ACDBBLOCKREPETAG
1070
     1
1071
       60
1005
129412
  0
LINE
  5
129413
  8
OBJECT
 10
4086.0
 20
-3599.9999999999968
 30
0.0
 11
4086.0
 21
-3481.9999999999968
 31
0.0
1001
ACDBBLOCKREPETAG
1070
     1
1071
       61
1005
129413
  0
LINE
  5
129414
  8
HIDDEN
 10
4088.0
 20
-3496.4999999999968
 30
0.0
 11
4088.0
 21
-3585.4999999999968
 31
0.0
1001
ACDBBLOCKREPETAG
1070
     1
1071
       63
1005
129414
  0
LINE
  5
129415
  8
OBJECT
 10
4133.0
 20
-3132.9999999999959
 30
0.0
 11
4140.0
 21
-3132.9999999999959
 31
0.0
1001
ACDBBLOCKREPETAG
1070
     1
1071
       47
1005
129415
  0
LINE
  5
129416
  8
OBJECT
 10
4140.0
 20
-3132.9999999999959
 30
0.0
 11
4140.0
 21
-3256.9999999999959
 31
0.0
1001
ACDBBLOCKREPETAG
1070
     1
1071
       48
1005
129416
  0
LINE
  5
129417
  8
OBJECT
 10
4140.0
 20
-3256.9999999999959
 30
0.0
 11
4133.0
 21
-3256.9999999999959
 31
0.0
1001
ACDBBLOCKREPETAG
1070
     1
1071
       49
1005
129417
  0
LINE
  5
129418
  8
OBJECT
 10
4133.0
 20
-3256.9999999999959
 30
0.0
 11
4133.0
 21
-3132.9999999999959
 31
0.0
1001
ACDBBLOCKREPETAG
1070
     1
1071
       50
1005
129418
  0
LINE
  5
129419
  8
CENTER
 10
4155.0
 20
-3194.9999999999959
 30
0.0
 11
4080.0
 21
-3194.9999999999959
 31
0.0
1001
ACDBBLOCKREPETAG
1070
     1
1071
       51
1005
129419
  0
LINE
  5
12941A
  8
OBJECT
 10
4133.0
 20
-3135.9999999999959
 30
0.0
 11
4097.0
 21
-3135.9999999999959
 31
0.0
1001
ACDBBLOCKREPETAG
1070
     1
1071
       52
1005
12941A
  0
LINE
  5
12941B
  8
OBJECT
 10
4097.0
 20
-3135.9999999999959
 30
0.0
 11
4097.0
 21
-3253.9999999999959
 31
0.0
1001
ACDBBLOCKREPETAG
1070
     1
1071
       53
1005
12941B
  0
LINE
  5
12941C
  8
OBJECT
 10
4097.0
 20
-3253.9999999999959
 30
0.0
 11
4133.0
 21
-3253.9999999999959
 31
0.0
1001
ACDBBLOCKREPETAG
1070
     1
1071
       54
1005
12941C
  0
LINE
  5
12941D
  8
OBJECT
 10
4093.0
 20
-3140.4999999999959
 30
0.0
 11
4086.0
 21
-3140.4999999999959
 31
0.0
1001
ACDBBLOCKREPETAG
1070
     1
1071
       55
1005
12941D
  0
LINE
  5
12941E
  8
OBJECT
 10
4086.0
 20
-3249.4999999999959
 30
0.0
 11
4093.0
 21
-3249.4999999999959
 31
0.0
1001
ACDBBLOCKREPETAG
1070
     1
1071
       56
1005
12941E
  0
LINE
  5
12941F
  8
OBJECT
 10
4093.0
 20
-3249.4999999999959
 30
0.0
 11
4093.0
 21
-3140.4999999999959
 31
0.0
1001
ACDBBLOCKREPETAG
1070
     1
1071
       57
1005
12941F
  0
LINE
  5
129420
  8
OBJECT
 10
4097.0
 20
-3135.9999999999959
 30
0.0
 11
4093.0
 21
-3140.4999999999959
 31
0.0
1001
ACDBBLOCKREPETAG
1070
     1
1071
       58
1005
129420
  0
LINE
  5
129421
  8
OBJECT
 10
4097.0
 20
-3253.9999999999959
 30
0.0
 11
4093.0
 21
-3249.4999999999959
 31
0.0
1001
ACDBBLOCKREPETAG
1070
     1
1071
       59
1005
129421
  0
LINE
  5
129422
  8
OBJECT
 10
4083.0
 20
-3132.9999999999959
 30
0.0
 11
4080.0
 21
-3132.9999999999959
 31
0.0
1001
ACDBBLOCKREPETAG
1070
     1
1071
       60
1005
129422
  0
ARC
  5
129423
  8
OBJECT
 10
4083.0
 20
-3135.9999999999959
 30
0.0
 40
3.0
 50
0.0
 51
90.0
1001
ACDBBLOCKREPETAG
1070
     1
1071
       61
1005
129423
  0
LINE
  5
129424
  8
OBJECT
 10
4080.0
 20
-3256.9999999999959
 30
0.0
 11
4083.0
 21
-3256.9999999999959
 31
0.0
1001
ACDBBLOCKREPETAG
1070
     1
1071
       62
1005
129424
  0
ARC
  5
129425
  8
OBJECT
 10
4083.0
 20
-3253.9999999999959
 30
0.0
 40
3.0
 50
270.0
 51
0.0
1001
ACDBBLOCKREPETAG
1070
     1
1071
       63
1005
129425
  0
LINE
  5
129426
  8
OBJECT
 10
4086.0
 20
-3253.9999999999959
 30
0.0
 11
4086.0
 21
-3135.9999999999959
 31
0.0
1001
ACDBBLOCKREPETAG
1070
     1
1071
       64
1005
129426
  0
LINE
  5
129427
  8
HIDDEN
 10
4088.0
 20
-3150.4999999999959
 30
0.0
 11
4088.0
 21
-3239.4999999999959
 31
0.0
1001
ACDBBLOCKREPETAG
1070
     1
1071
       65
1005
129427
  0
TEXT
  5
129428
  8
SLIM
 10
3894.25
 20
-3717.4999999999959
 30
0.0
 40
35.0
  1
通常枝75（3）
 41
0.75
  0
CIRCLE
  5
129429
  8
OBJECT
 10
3400.0
 20
-3547.9999999999968
 30
0.0
 40
35.5
1001
ACDBBLOCKREPETAG
1070
     1
1071
       10
1005
129429
  0
CIRCLE
  5
12942A
  8
OBJECT
 10
3400.0
 20
-3540.9999999999968
 30
0.0
 40
62.0
1001
ACDBBLOCKREPETAG
1070
     1
1071
       11
1005
12942A
  0
LINE
  5
12942B
  8
CENTER
 10
3330.0
 20
-3547.9999999999968
 30
0.0
 11
3470.0
 21
-3547.9999999999968
 31
0.0
1001
ACDBBLOCKREPETAG
1070
     1
1071
       12
1005
12942B
  0
CIRCLE
  5
12942C
  8
OBJECT
 10
3400.0
 20
-3547.9999999999968
 30
0.0
 40
47.0
1001
ACDBBLOCKREPETAG
1070
     1
1071
       14
1005
12942C
  0
ARC
  5
12942D
  8
OBJECT
 10
3400.0
 20
-3547.9999999999968
 30
0.0
 40
55.0
 50
289.01126526011359
 51
250.98873473988641
1001
ACDBBLOCKREPETAG
1070
     1
1071
       15
1005
12942D
  0
LINE
  5
12942E
  8
OBJECT
 10
3382.0835271328328
 20
-3599.9999999999968
 30
0.0
 11
3417.9164728671681
 21
-3599.9999999999968
 31
0.0
1001
ACDBBLOCKREPETAG
1070
     1
1071
       16
1005
12942E
  0
LINE
  5
12942F
  8
OBJECT
 10
3133.0
 20
-3492.9999999999968
 30
0.0
 11
3140.0
 21
-3492.9999999999968
 31
0.0
1001
ACDBBLOCKREPETAG
1070
     1
1071
       26
1005
12942F
  0
LINE
  5
129430
  8
OBJECT
 10
3140.0
 20
-3492.9999999999968
 30
0.0
 11
3140.0
 21
-3599.9999999999968
 31
0.0
1001
ACDBBLOCKREPETAG
1070
     1
1071
       27
1005
129430
  0
LINE
  5
129431
  8
OBJECT
 10
3133.0
 20
-3599.9999999999968
 30
0.0
 11
3133.0
 21
-3492.9999999999968
 31
0.0
1001
ACDBBLOCKREPETAG
1070
     1
1071
       28
1005
129431
  0
LINE
  5
129432
  8
CENTER
 10
3155.0
 20
-3547.9999999999968
 30
0.0
 11
3071.0
 21
-3547.9999999999968
 31
0.0
1001
ACDBBLOCKREPETAG
1070
     1
1071
       29
1005
129432
  0
LINE
  5
129433
  8
OBJECT
 10
3133.0
 20
-3495.9999999999968
 30
0.0
 11
3097.0
 21
-3495.9999999999968
 31
0.0
1001
ACDBBLOCKREPETAG
1070
     1
1071
       30
1005
129433
  0
LINE
  5
129434
  8
OBJECT
 10
3097.0
 20
-3495.9999999999968
 30
0.0
 11
3097.0
 21
-3599.9999999999968
 31
0.0
1001
ACDBBLOCKREPETAG
1070
     1
1071
       31
1005
129434
  0
LINE
  5
129435
  8
OBJECT
 10
3097.0
 20
-3599.9999999999968
 30
0.0
 11
3140.0
 21
-3599.9999999999968
 31
0.0
1001
ACDBBLOCKREPETAG
1070
     1
1071
       32
1005
129435
  0
LINE
  5
129436
  8
OBJECT
 10
3093.0
 20
-3500.4999999999968
 30
0.0
 11
3086.0
 21
-3500.4999999999968
 31
0.0
1001
ACDBBLOCKREPETAG
1070
     1
1071
       33
1005
129436
  0
LINE
  5
129437
  8
OBJECT
 10
3086.0
 20
-3595.4999999999968
 30
0.0
 11
3093.0
 21
-3595.4999999999968
 31
0.0
1001
ACDBBLOCKREPETAG
1070
     1
1071
       34
1005
129437
  0
LINE
  5
129438
  8
OBJECT
 10
3093.0
 20
-3595.4999999999968
 30
0.0
 11
3093.0
 21
-3500.4999999999968
 31
0.0
1001
ACDBBLOCKREPETAG
1070
     1
1071
       35
1005
129438
  0
LINE
  5
129439
  8
OBJECT
 10
3097.0
 20
-3495.9999999999968
 30
0.0
 11
3093.0
 21
-3500.4999999999968
 31
0.0
1001
ACDBBLOCKREPETAG
1070
     1
1071
       36
1005
129439
  0
LINE
  5
12943A
  8
OBJECT
 10
3097.0
 20
-3599.9999999999968
 30
0.0
 11
3093.0
 21
-3595.4999999999968
 31
0.0
1001
ACDBBLOCKREPETAG
1070
     1
1071
       37
1005
12943A
  0
LINE
  5
12943B
  8
OBJECT
 10
3083.0
 20
-3478.9999999999968
 30
0.0
 11
3080.0
 21
-3478.9999999999968
 31
0.0
1001
ACDBBLOCKREPETAG
1070
     1
1071
       38
1005
12943B
  0
ARC
  5
12943C
  8
OBJECT
 10
3083.0
 20
-3481.9999999999968
 30
0.0
 40
3.0
 50
0.0
 51
90.0
1001
ACDBBLOCKREPETAG
1070
     1
1071
       39
1005
12943C
  0
LINE
  5
12943D
  8
OBJECT
 10
3080.0
 20
-3602.9999999999968
 30
0.0
 11
3083.0
 21
-3602.9999999999968
 31
0.0
1001
ACDBBLOCKREPETAG
1070
     1
1071
       40
1005
12943D
  0
ARC
  5
12943E
  8
OBJECT
 10
3083.0
 20
-3599.9999999999968
 30
0.0
 40
3.0
 50
270.0
 51
0.0
1001
ACDBBLOCKREPETAG
1070
     1
1071
       41
1005
12943E
  0
LINE
  5
12943F
  8
OBJECT
 10
3086.0
 20
-3599.9999999999968
 30
0.0
 11
3086.0
 21
-3481.9999999999968
 31
0.0
1001
ACDBBLOCKREPETAG
1070
     1
1071
       42
1005
12943F
  0
LINE
  5
129440
  8
HIDDEN
 10
3088.0
 20
-3509.9999999999968
 30
0.0
 11
3088.0
 21
-3585.9999999999968
 31
0.0
1001
ACDBBLOCKREPETAG
1070
     1
1071
       43
1005
129440
  0
LINE
  5
129441
  8
OBJECT
 10
3133.0
 20
-3139.9999999999959
 30
0.0
 11
3140.0
 21
-3139.9999999999959
 31
0.0
1001
ACDBBLOCKREPETAG
1070
     1
1071
       27
1005
129441
  0
LINE
  5
129442
  8
OBJECT
 10
3140.0
 20
-3139.9999999999959
 30
0.0
 11
3140.0
 21
-3249.9999999999959
 31
0.0
1001
ACDBBLOCKREPETAG
1070
     1
1071
       28
1005
129442
  0
LINE
  5
129443
  8
OBJECT
 10
3140.0
 20
-3249.9999999999959
 30
0.0
 11
3133.0
 21
-3249.9999999999959
 31
0.0
1001
ACDBBLOCKREPETAG
1070
     1
1071
       29
1005
129443
  0
LINE
  5
129444
  8
OBJECT
 10
3133.0
 20
-3249.9999999999959
 30
0.0
 11
3133.0
 21
-3139.9999999999959
 31
0.0
1001
ACDBBLOCKREPETAG
1070
     1
1071
       30
1005
129444
  0
LINE
  5
129445
  8
CENTER
 10
3155.0
 20
-3194.9999999999959
 30
0.0
 11
3080.0
 21
-3194.9999999999959
 31
0.0
1001
ACDBBLOCKREPETAG
1070
     1
1071
       31
1005
129445
  0
LINE
  5
129446
  8
OBJECT
 10
3133.0
 20
-3142.9999999999959
 30
0.0
 11
3097.0
 21
-3142.9999999999959
 31
0.0
1001
ACDBBLOCKREPETAG
1070
     1
1071
       32
1005
129446
  0
LINE
  5
129447
  8
OBJECT
 10
3097.0
 20
-3142.9999999999959
 30
0.0
 11
3097.0
 21
-3246.9999999999959
 31
0.0
1001
ACDBBLOCKREPETAG
1070
     1
1071
       33
1005
129447
  0
LINE
  5
129448
  8
OBJECT
 10
3097.0
 20
-3246.9999999999959
 30
0.0
 11
3133.0
 21
-3246.9999999999959
 31
0.0
1001
ACDBBLOCKREPETAG
1070
     1
1071
       34
1005
129448
  0
LINE
  5
129449
  8
OBJECT
 10
3093.0
 20
-3147.4999999999959
 30
0.0
 11
3086.0
 21
-3147.4999999999959
 31
0.0
1001
ACDBBLOCKREPETAG
1070
     1
1071
       35
1005
129449
  0
LINE
  5
12944A
  8
OBJECT
 10
3086.0
 20
-3242.4999999999959
 30
0.0
 11
3093.0
 21
-3242.4999999999959
 31
0.0
1001
ACDBBLOCKREPETAG
1070
     1
1071
       36
1005
12944A
  0
LINE
  5
12944B
  8
OBJECT
 10
3093.0
 20
-3242.4999999999959
 30
0.0
 11
3093.0
 21
-3147.4999999999959
 31
0.0
1001
ACDBBLOCKREPETAG
1070
     1
1071
       37
1005
12944B
  0
LINE
  5
12944C
  8
OBJECT
 10
3097.0
 20
-3142.9999999999959
 30
0.0
 11
3093.0
 21
-3147.4999999999959
 31
0.0
1001
ACDBBLOCKREPETAG
1070
     1
1071
       38
1005
12944C
  0
LINE
  5
12944D
  8
OBJECT
 10
3097.0
 20
-3246.9999999999959
 30
0.0
 11
3093.0
 21
-3242.4999999999959
 31
0.0
1001
ACDBBLOCKREPETAG
1070
     1
1071
       39
1005
12944D
  0
LINE
  5
12944E
  8
OBJECT
 10
3083.0
 20
-3132.9999999999959
 30
0.0
 11
3080.0
 21
-3132.9999999999959
 31
0.0
1001
ACDBBLOCKREPETAG
1070
     1
1071
       40
1005
12944E
  0
ARC
  5
12944F
  8
OBJECT
 10
3083.0
 20
-3135.9999999999959
 30
0.0
 40
3.0
 50
0.0
 51
90.0
1001
ACDBBLOCKREPETAG
1070
     1
1071
       41
1005
12944F
  0
LINE
  5
129450
  8
OBJECT
 10
3080.0
 20
-3256.9999999999959
 30
0.0
 11
3083.0
 21
-3256.9999999999959
 31
0.0
1001
ACDBBLOCKREPETAG
1070
     1
1071
       42
1005
129450
  0
ARC
  5
129451
  8
OBJECT
 10
3083.0
 20
-3253.9999999999959
 30
0.0
 40
3.0
 50
270.0
 51
0.0
1001
ACDBBLOCKREPETAG
1070
     1
1071
       43
1005
129451
  0
LINE
  5
129452
  8
OBJECT
 10
3086.0
 20
-3253.9999999999959
 30
0.0
 11
3086.0
 21
-3135.9999999999959
 31
0.0
1001
ACDBBLOCKREPETAG
1070
     1
1071
       44
1005
129452
  0
LINE
  5
129453
  8
HIDDEN
 10
3088.0
 20
-3156.9999999999959
 30
0.0
 11
3088.0
 21
-3232.9999999999959
 31
0.0
1001
ACDBBLOCKREPETAG
1070
     1
1071
       45
1005
129453
  0
TEXT
  5
129454
  8
SLIM
 10
2894.25
 20
-3717.4999999999959
 30
0.0
 40
35.0
  1
通常枝65（2）
 41
0.75
  0
CIRCLE
  5
129455
  8
OBJECT
 10
2400.0
 20
-3540.9999999999968
 30
0.0
 40
62.0
1001
ACDBBLOCKREPETAG
1070
     1
1071
        3
1005
129455
  0
LINE
  5
129456
  8
CENTER
 10
2338.0
 20
-3555.9999999999968
 30
0.0
 11
2462.0
 21
-3555.9999999999968
 31
0.0
1001
ACDBBLOCKREPETAG
1070
     1
1071
        4
1005
129456
  0
CIRCLE
  5
129457
  8
OBJECT
 10
2400.0
 20
-3555.9999999999968
 30
0.0
 40
28.0
1001
ACDBBLOCKREPETAG
1070
     1
1071
        6
1005
129457
  0
CIRCLE
  5
129458
  8
OBJECT
 10
2400.0
 20
-3555.9999999999968
 30
0.0
 40
39.0
1001
ACDBBLOCKREPETAG
1070
     1
1071
        7
1005
129458
  0
ARC
  5
129459
  8
OBJECT
 10
2400.0
 20
-3555.9999999999968
 30
0.0
 40
47.0
 50
290.58196921144412
 51
249.41803078855591
1001
ACDBBLOCKREPETAG
1070
     1
1071
        8
1005
129459
  0
LINE
  5
12945A
  8
OBJECT
 10
2383.4772883581431
 20
-3599.9999999999968
 30
0.0
 11
2416.5227116418569
 21
-3599.9999999999968
 31
0.0
1001
ACDBBLOCKREPETAG
1070
     1
1071
        9
1005
12945A
  0
LINE
  5
12945B
  8
OBJECT
 10
2133.0
 20
-3508.9999999999968
 30
0.0
 11
2140.0
 21
-3508.9999999999968
 31
0.0
1001
ACDBBLOCKREPETAG
1070
     1
1071
        7
1005
12945B
  0
LINE
  5
12945C
  8
OBJECT
 10
2140.0
 20
-3508.9999999999968
 30
0.0
 11
2140.0
 21
-3599.9999999999968
 31
0.0
1001
ACDBBLOCKREPETAG
1070
     1
1071
        8
1005
12945C
  0
LINE
  5
12945D
  8
OBJECT
 10
2133.0
 20
-3599.9999999999968
 30
0.0
 11
2133.0
 21
-3508.9999999999968
 31
0.0
1001
ACDBBLOCKREPETAG
1070
     1
1071
        9
1005
12945D
  0
LINE
  5
12945E
  8
CENTER
 10
2155.0
 20
-3555.9999999999968
 30
0.0
 11
2071.0
 21
-3555.9999999999968
 31
0.0
1001
ACDBBLOCKREPETAG
1070
     1
1071
       10
1005
12945E
  0
LINE
  5
12945F
  8
OBJECT
 10
2133.0
 20
-3511.9999999999968
 30
0.0
 11
2097.0
 21
-3511.9999999999968
 31
0.0
1001
ACDBBLOCKREPETAG
1070
     1
1071
       11
1005
12945F
  0
LINE
  5
129460
  8
OBJECT
 10
2097.0
 20
-3511.9999999999968
 30
0.0
 11
2097.0
 21
-3599.9999999999968
 31
0.0
1001
ACDBBLOCKREPETAG
1070
     1
1071
       12
1005
129460
  0
LINE
  5
129461
  8
OBJECT
 10
2097.0
 20
-3599.9999999999968
 30
0.0
 11
2140.0
 21
-3599.9999999999968
 31
0.0
1001
ACDBBLOCKREPETAG
1070
     1
1071
       13
1005
129461
  0
LINE
  5
129462
  8
OBJECT
 10
2093.0
 20
-3516.4999999999968
 30
0.0
 11
2086.0
 21
-3516.4999999999968
 31
0.0
1001
ACDBBLOCKREPETAG
1070
     1
1071
       14
1005
129462
  0
LINE
  5
129463
  8
OBJECT
 10
2086.0
 20
-3595.4999999999968
 30
0.0
 11
2093.0
 21
-3595.4999999999968
 31
0.0
1001
ACDBBLOCKREPETAG
1070
     1
1071
       15
1005
129463
  0
LINE
  5
129464
  8
OBJECT
 10
2093.0
 20
-3595.4999999999968
 30
0.0
 11
2093.0
 21
-3516.4999999999968
 31
0.0
1001
ACDBBLOCKREPETAG
1070
     1
1071
       16
1005
129464
  0
LINE
  5
129465
  8
OBJECT
 10
2097.0
 20
-3511.9999999999968
 30
0.0
 11
2093.0
 21
-3516.4999999999968
 31
0.0
1001
ACDBBLOCKREPETAG
1070
     1
1071
       17
1005
129465
  0
LINE
  5
129466
  8
OBJECT
 10
2097.0
 20
-3599.9999999999968
 30
0.0
 11
2093.0
 21
-3595.4999999999968
 31
0.0
1001
ACDBBLOCKREPETAG
1070
     1
1071
       18
1005
129466
  0
LINE
  5
129467
  8
OBJECT
 10
2083.0
 20
-3478.9999999999968
 30
0.0
 11
2080.0
 21
-3478.9999999999968
 31
0.0
1001
ACDBBLOCKREPETAG
1070
     1
1071
       19
1005
129467
  0
ARC
  5
129468
  8
OBJECT
 10
2083.0
 20
-3481.9999999999968
 30
0.0
 40
3.0
 50
0.0
 51
90.0
1001
ACDBBLOCKREPETAG
1070
     1
1071
       20
1005
129468
  0
LINE
  5
129469
  8
OBJECT
 10
2080.0
 20
-3602.9999999999968
 30
0.0
 11
2083.0
 21
-3602.9999999999968
 31
0.0
1001
ACDBBLOCKREPETAG
1070
     1
1071
       21
1005
129469
  0
ARC
  5
12946A
  8
OBJECT
 10
2083.0
 20
-3599.9999999999968
 30
0.0
 40
3.0
 50
270.0
 51
0.0
1001
ACDBBLOCKREPETAG
1070
     1
1071
       22
1005
12946A
  0
LINE
  5
12946B
  8
OBJECT
 10
2086.0
 20
-3599.9999999999968
 30
0.0
 11
2086.0
 21
-3481.9999999999968
 31
0.0
1001
ACDBBLOCKREPETAG
1070
     1
1071
       23
1005
12946B
  0
LINE
  5
12946C
  8
HIDDEN
 10
2088.0
 20
-3525.9999999999968
 30
0.0
 11
2088.0
 21
-3585.9999999999968
 31
0.0
1001
ACDBBLOCKREPETAG
1070
     1
1071
       24
1005
12946C
  0
LINE
  5
12946D
  8
OBJECT
 10
2133.0
 20
-3147.9999999999959
 30
0.0
 11
2140.0
 21
-3147.9999999999959
 31
0.0
1001
ACDBBLOCKREPETAG
1070
     1
1071
        7
1005
12946D
  0
LINE
  5
12946E
  8
OBJECT
 10
2140.0
 20
-3147.9999999999959
 30
0.0
 11
2140.0
 21
-3241.9999999999959
 31
0.0
1001
ACDBBLOCKREPETAG
1070
     1
1071
        8
1005
12946E
  0
LINE
  5
12946F
  8
OBJECT
 10
2140.0
 20
-3241.9999999999959
 30
0.0
 11
2133.0
 21
-3241.9999999999959
 31
0.0
1001
ACDBBLOCKREPETAG
1070
     1
1071
        9
1005
12946F
  0
LINE
  5
129470
  8
OBJECT
 10
2133.0
 20
-3241.9999999999959
 30
0.0
 11
2133.0
 21
-3147.9999999999959
 31
0.0
1001
ACDBBLOCKREPETAG
1070
     1
1071
       10
1005
129470
  0
LINE
  5
129471
  8
CENTER
 10
2155.0
 20
-3194.9999999999959
 30
0.0
 11
2080.0
 21
-3194.9999999999959
 31
0.0
1001
ACDBBLOCKREPETAG
1070
     1
1071
       11
1005
129471
  0
LINE
  5
129472
  8
OBJECT
 10
2133.0
 20
-3150.9999999999959
 30
0.0
 11
2097.0
 21
-3150.9999999999959
 31
0.0
1001
ACDBBLOCKREPETAG
1070
     1
1071
       12
1005
129472
  0
LINE
  5
129473
  8
OBJECT
 10
2097.0
 20
-3150.9999999999959
 30
0.0
 11
2097.0
 21
-3238.9999999999959
 31
0.0
1001
ACDBBLOCKREPETAG
1070
     1
1071
       13
1005
129473
  0
LINE
  5
129474
  8
OBJECT
 10
2097.0
 20
-3238.9999999999959
 30
0.0
 11
2133.0
 21
-3238.9999999999959
 31
0.0
1001
ACDBBLOCKREPETAG
1070
     1
1071
       14
1005
129474
  0
LINE
  5
129475
  8
OBJECT
 10
2093.0
 20
-3155.4999999999959
 30
0.0
 11
2086.0
 21
-3155.4999999999959
 31
0.0
1001
ACDBBLOCKREPETAG
1070
     1
1071
       15
1005
129475
  0
LINE
  5
129476
  8
OBJECT
 10
2086.0
 20
-3234.4999999999959
 30
0.0
 11
2093.0
 21
-3234.4999999999959
 31
0.0
1001
ACDBBLOCKREPETAG
1070
     1
1071
       16
1005
129476
  0
LINE
  5
129477
  8
OBJECT
 10
2093.0
 20
-3234.4999999999959
 30
0.0
 11
2093.0
 21
-3155.4999999999959
 31
0.0
1001
ACDBBLOCKREPETAG
1070
     1
1071
       17
1005
129477
  0
LINE
  5
129478
  8
OBJECT
 10
2097.0
 20
-3150.9999999999959
 30
0.0
 11
2093.0
 21
-3155.4999999999959
 31
0.0
1001
ACDBBLOCKREPETAG
1070
     1
1071
       18
1005
129478
  0
LINE
  5
129479
  8
OBJECT
 10
2097.0
 20
-3238.9999999999959
 30
0.0
 11
2093.0
 21
-3234.4999999999959
 31
0.0
1001
ACDBBLOCKREPETAG
1070
     1
1071
       19
1005
129479
  0
LINE
  5
12947A
  8
OBJECT
 10
2083.0
 20
-3132.9999999999959
 30
0.0
 11
2080.0
 21
-3132.9999999999959
 31
0.0
1001
ACDBBLOCKREPETAG
1070
     1
1071
       20
1005
12947A
  0
ARC
  5
12947B
  8
OBJECT
 10
2083.0
 20
-3135.9999999999959
 30
0.0
 40
3.0
 50
0.0
 51
90.0
1001
ACDBBLOCKREPETAG
1070
     1
1071
       21
1005
12947B
  0
LINE
  5
12947C
  8
OBJECT
 10
2080.0
 20
-3256.9999999999959
 30
0.0
 11
2083.0
 21
-3256.9999999999959
 31
0.0
1001
ACDBBLOCKREPETAG
1070
     1
1071
       22
1005
12947C
  0
ARC
  5
12947D
  8
OBJECT
 10
2083.0
 20
-3253.9999999999959
 30
0.0
 40
3.0
 50
270.0
 51
0.0
1001
ACDBBLOCKREPETAG
1070
     1
1071
       23
1005
12947D
  0
LINE
  5
12947E
  8
OBJECT
 10
2086.0
 20
-3253.9999999999959
 30
0.0
 11
2086.0
 21
-3135.9999999999959
 31
0.0
1001
ACDBBLOCKREPETAG
1070
     1
1071
       24
1005
12947E
  0
LINE
  5
12947F
  8
HIDDEN
 10
2088.0
 20
-3164.9999999999959
 30
0.0
 11
2088.0
 21
-3224.9999999999959
 31
0.0
1001
ACDBBLOCKREPETAG
1070
     1
1071
       25
1005
12947F
  0
TEXT
  5
129480
  8
SLIM
 10
1896.75
 20
-3717.4999999999959
 30
0.0
 40
35.0
  1
通常枝50（1）
 41
0.75
  0
TEXT
  5
129481
  8
SLIM
 10
1837.75
 20
282.50000000000011
 30
0.0
 40
35.0
  1
（枝管サイズ毎に寸法が異なります。管底の位置は全サイズで同じです）
 41
0.75
  0
TEXT
  5
129482
  8
SLIM
 10
1850.0
 20
532.5
 30
0.0
 40
75.0
  1
側面図の代表機種
 41
0.75
  0
TEXT
  5
129483
  8
SLIM
 10
1850.0
 20
369.99999999999989
 30
0.0
 40
100.0
  1
4SSLT-A3
 41
0.75
  0
LINE
  5
129484
  8
CENTER
 10
4577.0
 20
-595.99999999999955
 30
0.0
 11
4423.0
 21
-595.99999999999955
 31
0.0
1001
ACDBBLOCKREPETAG
1070
     1
1071
       17
1005
129484
  0
CIRCLE
  5
129485
  8
OBJECT
 10
4500.0
 20
-595.99999999999955
 30
0.0
 40
41.5
1001
ACDBBLOCKREPETAG
1070
     1
1071
       19
1005
129485
  0
CIRCLE
  5
129486
  8
OBJECT
 10
4500.0
 20
-595.99999999999955
 30
0.0
 40
54.0
1001
ACDBBLOCKREPETAG
1070
     1
1071
       20
1005
129486
  0
ARC
  5
129487
  8
OBJECT
 10
4500.0
 20
-595.99999999999955
 30
0.0
 40
62.0
 50
287.89655112920718
 51
252.10344887079279
1001
ACDBBLOCKREPETAG
1070
     1
1071
       21
1005
129487
  0
LINE
  5
129488
  8
OBJECT
 10
4480.9474411167421
 20
-654.99999999999966
 30
0.0
 11
4519.052558883257
 21
-654.99999999999966
 31
0.0
1001
ACDBBLOCKREPETAG
1070
     1
1071
       22
1005
129488
  0
ARC
  5
129489
  8
OBJECT
 10
4000.0
 20
-199.99999999999849
 30
0.0
 40
50.0
 50
298.81994300000417
 51
228.52376955964741
1001
ACDBBLOCKREPETAG
1070
     1
1071
      185
1005
129489
  0
INSERT
  5
12948A
  8
SLIM
  6
CONTINUOUS
  2
*X15
 10
0.0
 20
0.0
 30
0.0
1001
GRADIENTCOLOR1ACI
1070
     5
1001
GRADIENTCOLOR2ACI
1070
     2
1001
ACDBBLOCKREPETAG
1070
     1
1071
      410
1005
12948A
1001
ACAD
1000
HATCH
1002
{
1070
    19
1000
EARTH
1040
1.0
1040
0.7853981633974483
1000
R14_HATCH_DATA
1000
12948A
1011
1.0
1021
0.0
1031
-0.0
1021
0.0
1031
0.0
1011
0.0
1021
0.0
1031
-0.0
1021
1.0
1031
0.0
1011
0.0
1021
0.0
1031
-0.0
1021
0.0
1031
1.0
1040
0.0
1010
0.0
1020
0.0
1030
1.0
1000
EARTH
1070
     0
1070
     0
1071
        4
1071
        7
1070
     1
1070
     1
1071
        4
1040
4000.0
1040
-124.99999999999859
1040
0.0
1040
4000.0
1040
-114.99999999999859
1040
0.4142135623730951
1040
3915.0
1040
-199.99999999999849
1040
0.0
1040
3925.0
1040
-199.99999999999849
1040
-0.4142135623730951
1071
        0
1071
        7
1070
     1
1070
     1
1071
        4
1040
4000.0
1040
-114.99999999999859
1040
0.0
1040
4000.0
1040
-124.99999999999859
1040
-0.1505314338169883
1040
4042.2018956920169
1040
-137.99999999999861
1040
0.0
1040
4058.1463670404269
1040
-137.99999999999861
1040
0.1905924244794523
1071
        0
1071
        7
1070
     1
1070
     1
1071
        4
1040
3925.0
1040
-199.99999999999849
1040
0.0
1040
3915.0
1040
-199.99999999999849
1040
0.4142135623730951
1040
4000.0
1040
-284.99999999999852
1040
0.0
1040
4000.0
1040
-274.99999999999852
1040
-0.4142135623730951
1071
        0
1071
        7
1070
     1
1070
     1
1071
        4
1040
4058.1463670404269
1040
-261.99999999999852
1040
0.0
1040
4042.2018956920169
1040
-261.99999999999852
1040
-0.1505314338169883
1040
4000.0
1040
-274.99999999999852
1040
0.0
1040
4000.0
1040
-284.99999999999852
1040
0.1905924244794523
1071
        0
1070
     0
1070
     1
1040
0.7853981633974483
1040
1.0
1070
     0
1070
     6
1040
0.7853981633974483
1040
4000.0
1040
-199.99999999999849
1040
0.0000000000000009
1040
8.9802561210691536
1070
     2
1040
6.3499999999999979
1040
-6.3499999999999979
1040
0.7853981633974483
1040
3998.3162019772999
1040
-198.31620197729811
1040
0.0000000000000009
1040
8.9802561210691536
1070
     2
1040
6.3499999999999979
1040
-6.3499999999999979
1040
0.7853981633974483
1040
3996.6324039545989
1040
-196.63240395459749
1040
0.0000000000000009
1040
8.9802561210691536
1070
     2
1040
6.3499999999999979
1040
-6.3499999999999979
1040
2.3561944901923431
1040
3996.6324039545989
1040
-195.50987193946401
1040
-8.9802561210691536
1040
0.0000000000000009
1070
     2
1040
6.3499999999999979
1040
-6.3499999999999979
1040
2.3561944901923431
1040
3998.3162019772999
1040
-193.82607391676351
1040
-8.9802561210691536
1040
0.0000000000000009
1070
     2
1040
6.3499999999999979
1040
-6.3499999999999979
1040
2.3561944901923431
1040
4000.0
1040
-192.14227589406309
1040
-8.9802561210691536
1040
0.0000000000000009
1070
     2
1040
6.3499999999999979
1040
-6.3499999999999979
1040
0.3053229869521416
1071
        4
1040
3959.5892010489192
1040
-130.87127385446729
1040
0.0
1040
4014.281180558874
1040
-123.8488453063094
1040
0.0
1040
3923.229726966516
1040
-221.5522009330713
1040
0.0
1040
4010.920221300692
1040
-281.09018404738413
1040
0.0
1002
}
  0
LINE
  5
12948B
  8
CENTER
 10
4080.0
 20
-199.99999999999849
 30
0.0
 11
3900.0
 21
-199.99999999999849
 31
0.0
1001
ACDBBLOCKREPETAG
1070
     1
1071
      187
1005
12948B
  0
LINE
  5
12948C
  8
CENTER
 10
4000.0
 20
-299.99999999999852
 30
0.0
 11
4000.0
 21
-99.999999999998593
 31
0.0
1001
ACDBBLOCKREPETAG
1070
     1
1071
      188
1005
12948C
  0
LINE
  5
12948D
  8
OBJECT
 10
4042.2018956920169
 20
-137.99999999999861
 30
0.0
 11
4080.0
 21
-137.99999999999861
 31
0.0
1001
ACDBBLOCKREPETAG
1070
     1
1071
      192
1005
12948D
  0
LINE
  5
12948E
  8
OBJECT
 10
4042.2018956920169
 20
-261.99999999999852
 30
0.0
 11
4080.0
 21
-261.99999999999852
 31
0.0
1001
ACDBBLOCKREPETAG
1070
     1
1071
      193
1005
12948E
  0
ARC
  5
12948F
  8
OBJECT
 10
4000.0
 20
-199.99999999999849
 30
0.0
 40
85.0
 50
46.837102859834147
 51
313.16289714016602
1001
ACDBBLOCKREPETAG
1070
     1
1071
      202
1005
12948F
  0
CIRCLE
  5
129490
  8
OBJECT
 10
4000.0
 20
-199.99999999999849
 30
0.0
 40
75.0
1001
ACDBBLOCKREPETAG
1070
     1
1071
      372
1005
129490
  0
CIRCLE
  5
129491
  8
OBJECT
 10
4000.0
 20
-199.99999999999849
 30
0.0
 40
52.5
1001
ACDBBLOCKREPETAG
1070
     1
1071
      373
1005
129491
  0
CIRCLE
  5
129492
  8
OBJECT
 10
4000.0
 20
-199.99999999999849
 30
0.0
 40
57.0
1001
ACDBBLOCKREPETAG
1070
     1
1071
      374
1005
129492
  0
LINE
  5
129493
  8
OBJECT
 10
3969.8635289348599
 20
-242.98887195239931
 30
0.0
 11
3979.8564918232369
 21
-222.4868825335675
 31
0.0
1001
ACDBBLOCKREPETAG
1070
     1
1071
      402
1005
129493
  0
LINE
  5
129494
  8
OBJECT
 10
3965.7499660391568
 20
-239.7892595266737
 30
0.0
 11
3973.9071022665089
 21
-223.053730044307
 31
0.0
1001
ACDBBLOCKREPETAG
1070
     1
1071
      403
1005
129494
  0
LINE
  5
129495
  8
OBJECT
 10
4024.102933093302
 20
-243.8069471237163
 30
0.0
 11
4020.6596569999951
 21
-232.55462199999829
 31
0.0
1001
ACDBBLOCKREPETAG
1070
     1
1071
      404
1005
129495
  0
ARC
  5
129496
  8
OBJECT
 10
3976.579695307315
 20
-207.12893698284319
 30
0.0
 40
60.031113246032611
 50
316.41744226774563
 51
322.33936106091278
1001
ACDBBLOCKREPETAG
1070
     1
1071
      405
1005
129496
  0
LINE
  5
129497
  8
OBJECT
 10
3986.7927499013749
 20
-218.2255337420797
 30
0.0
 11
4020.6596569999951
 21
-232.5546219999965
 31
0.0
1001
ACDBBLOCKREPETAG
1070
     1
1071
      406
1005
129497
  0
ARC
  5
129498
  8
OBJECT
 10
3982.896169761902
 20
-227.4351299990561
 30
0.0
 40
10.0
 50
67.066778292911366
 51
154.0147343702935
1001
ACDBBLOCKREPETAG
1070
     1
1071
      407
1005
129498
  0
ARC
  5
129499
  8
OBJECT
 10
3986.1488390381278
 20
-225.55386256729111
 30
0.0
 40
7.0
 50
67.066778292911366
 51
154.01473377497121
1001
ACDBBLOCKREPETAG
1070
     1
1071
      408
1005
129499
  0
POINT
  5
12949A
  8
DOTS
 10
4000.0
 20
-199.99999999999849
 30
0.0
1001
ACDBBLOCKREPETAG
1070
     1
1071
      413
1005
12949A
  0
CIRCLE
  5
12949B
  8
OBJECT
 10
2000.0
 20
-199.99999999999909
 30
0.0
 40
75.0
1001
ACDBBLOCKREPETAG
1070
     1
1071
      363
1005
12949B
  0
CIRCLE
  5
12949C
  8
OBJECT
 10
2000.0
 20
-199.99999999999909
 30
0.0
 40
52.5
1001
ACDBBLOCKREPETAG
1070
     1
1071
      364
1005
12949C
  0
CIRCLE
  5
12949D
  8
OBJECT
 10
2000.0
 20
-199.99999999999909
 30
0.0
 40
57.0
1001
ACDBBLOCKREPETAG
1070
     1
1071
      365
1005
12949D
  0
LINE
  5
12949E
  8
OBJECT
 10
1969.8635289348581
 20
-242.98887195239979
 30
0.0
 11
1979.856491823236
 21
-222.48688253356801
 31
0.0
1001
ACDBBLOCKREPETAG
1070
     1
1071
      381
1005
12949E
  0
LINE
  5
12949F
  8
OBJECT
 10
1965.749966039157
 20
-239.7892595266741
 30
0.0
 11
1973.907102266508
 21
-223.05373004430751
 31
0.0
1001
ACDBBLOCKREPETAG
1070
     1
1071
      382
1005
12949F
  0
LINE
  5
1294A0
  8
OBJECT
 10
2024.102933093302
 20
-243.80694712371681
 30
0.0
 11
2020.659656999997
 21
-232.55462199999889
 31
0.0
1001
ACDBBLOCKREPETAG
1070
     1
1071
      383
1005
1294A0
  0
ARC
  5
1294A1
  8
OBJECT
 10
1976.579695307315
 20
-207.1289369828437
 30
0.0
 40
60.031113246032611
 50
316.4174422677545
 51
322.33936106091278
1001
ACDBBLOCKREPETAG
1070
     1
1071
      384
1005
1294A1
  0
LINE
  5
1294A2
  8
OBJECT
 10
1986.7927499013749
 20
-218.22553374208019
 30
0.0
 11
2020.659656999997
 21
-232.5546219999969
 31
0.0
1001
ACDBBLOCKREPETAG
1070
     1
1071
      385
1005
1294A2
  0
ARC
  5
1294A3
  8
OBJECT
 10
1982.8961697619
 20
-227.4351299990567
 30
0.0
 40
10.0
 50
67.066778292923374
 51
154.0147343702935
1001
ACDBBLOCKREPETAG
1070
     1
1071
      386
1005
1294A3
  0
ARC
  5
1294A4
  8
OBJECT
 10
1986.1488390381271
 20
-225.55386256729159
 30
0.0
 40
7.0
 50
67.066778292923374
 51
154.01473377497121
1001
ACDBBLOCKREPETAG
1070
     1
1071
      387
1005
1294A4
  0
ARC
  5
1294A5
  8
OBJECT
 10
2000.0
 20
-199.99999999999909
 30
0.0
 40
50.0
 50
298.81994300000417
 51
228.52376955967449
1001
ACDBBLOCKREPETAG
1070
     1
1071
        7
1005
1294A5
  0
LINE
  5
1294A6
  8
CENTER
 10
2080.0
 20
-199.99999999999909
 30
0.0
 11
1905.0
 21
-199.99999999999909
 31
0.0
1001
ACDBBLOCKREPETAG
1070
     1
1071
       14
1005
1294A6
  0
LINE
  5
1294A7
  8
CENTER
 10
2000.0
 20
-294.99999999999898
 30
0.0
 11
2000.0
 21
-104.9999999999991
 31
0.0
1001
ACDBBLOCKREPETAG
1070
     1
1071
       15
1005
1294A7
  0
ARC
  5
1294A8
  8
OBJECT
 10
2000.0
 20
-199.99999999999909
 30
0.0
 40
80.0
 50
50.805032573864182
 51
309.1949674261358
1001
ACDBBLOCKREPETAG
1070
     1
1071
       18
1005
1294A8
  0
LINE
  5
1294A9
  8
OBJECT
 10
2042.2018956920181
 20
-137.99999999999909
 30
0.0
 11
2080.0
 21
-137.99999999999909
 31
0.0
1001
ACDBBLOCKREPETAG
1070
     1
1071
       19
1005
1294A9
  0
LINE
  5
1294AA
  8
OBJECT
 10
2042.2018956920181
 20
-261.99999999999909
 30
0.0
 11
2080.0
 21
-261.99999999999909
 31
0.0
1001
ACDBBLOCKREPETAG
1070
     1
1071
       20
1005
1294AA
  0
POINT
  5
1294AB
  8
DOTS
 10
2000.0
 20
-199.99999999999909
 30
0.0
1001
ACDBBLOCKREPETAG
1070
     1
1071
      417
1005
1294AB
  0
LINE
  5
1294AC
  8
OBJECT
 10
4133.0
 20
-137.99999999999861
 30
0.0
 11
4140.0
 21
-137.99999999999861
 31
0.0
1001
ACDBBLOCKREPETAG
1070
     1
1071
       47
1005
1294AC
  0
LINE
  5
1294AD
  8
OBJECT
 10
4140.0
 20
-137.99999999999861
 30
0.0
 11
4140.0
 21
-261.99999999999852
 31
0.0
1001
ACDBBLOCKREPETAG
1070
     1
1071
       48
1005
1294AD
  0
LINE
  5
1294AE
  8
OBJECT
 10
4140.0
 20
-261.99999999999852
 30
0.0
 11
4133.0
 21
-261.99999999999852
 31
0.0
1001
ACDBBLOCKREPETAG
1070
     1
1071
       49
1005
1294AE
  0
LINE
  5
1294AF
  8
OBJECT
 10
4133.0
 20
-261.99999999999852
 30
0.0
 11
4133.0
 21
-137.99999999999861
 31
0.0
1001
ACDBBLOCKREPETAG
1070
     1
1071
       50
1005
1294AF
  0
LINE
  5
1294B0
  8
CENTER
 10
4155.0
 20
-199.99999999999849
 30
0.0
 11
4080.0
 21
-199.99999999999849
 31
0.0
1001
ACDBBLOCKREPETAG
1070
     1
1071
       51
1005
1294B0
  0
LINE
  5
1294B1
  8
OBJECT
 10
4133.0
 20
-140.99999999999849
 30
0.0
 11
4097.0
 21
-140.99999999999849
 31
0.0
1001
ACDBBLOCKREPETAG
1070
     1
1071
       52
1005
1294B1
  0
LINE
  5
1294B2
  8
OBJECT
 10
4097.0
 20
-140.99999999999849
 30
0.0
 11
4097.0
 21
-258.99999999999852
 31
0.0
1001
ACDBBLOCKREPETAG
1070
     1
1071
       53
1005
1294B2
  0
LINE
  5
1294B3
  8
OBJECT
 10
4097.0
 20
-258.99999999999852
 30
0.0
 11
4133.0
 21
-258.99999999999852
 31
0.0
1001
ACDBBLOCKREPETAG
1070
     1
1071
       54
1005
1294B3
  0
LINE
  5
1294B4
  8
OBJECT
 10
4093.0
 20
-145.49999999999861
 30
0.0
 11
4086.0
 21
-145.49999999999861
 31
0.0
1001
ACDBBLOCKREPETAG
1070
     1
1071
       55
1005
1294B4
  0
LINE
  5
1294B5
  8
OBJECT
 10
4086.0
 20
-254.49999999999861
 30
0.0
 11
4093.0
 21
-254.49999999999861
 31
0.0
1001
ACDBBLOCKREPETAG
1070
     1
1071
       56
1005
1294B5
  0
LINE
  5
1294B6
  8
OBJECT
 10
4093.0
 20
-254.49999999999861
 30
0.0
 11
4093.0
 21
-145.49999999999861
 31
0.0
1001
ACDBBLOCKREPETAG
1070
     1
1071
       57
1005
1294B6
  0
LINE
  5
1294B7
  8
OBJECT
 10
4097.0
 20
-140.99999999999849
 30
0.0
 11
4093.0
 21
-145.49999999999861
 31
0.0
1001
ACDBBLOCKREPETAG
1070
     1
1071
       58
1005
1294B7
  0
LINE
  5
1294B8
  8
OBJECT
 10
4097.0
 20
-258.99999999999852
 30
0.0
 11
4093.0
 21
-254.49999999999861
 31
0.0
1001
ACDBBLOCKREPETAG
1070
     1
1071
       59
1005
1294B8
  0
LINE
  5
1294B9
  8
OBJECT
 10
4083.0
 20
-137.99999999999861
 30
0.0
 11
4080.0
 21
-137.99999999999861
 31
0.0
1001
ACDBBLOCKREPETAG
1070
     1
1071
       60
1005
1294B9
  0
ARC
  5
1294BA
  8
OBJECT
 10
4083.0
 20
-140.99999999999849
 30
0.0
 40
3.0
 50
0.0
 51
90.0
1001
ACDBBLOCKREPETAG
1070
     1
1071
       61
1005
1294BA
  0
LINE
  5
1294BB
  8
OBJECT
 10
4080.0
 20
-261.99999999999852
 30
0.0
 11
4083.0
 21
-261.99999999999852
 31
0.0
1001
ACDBBLOCKREPETAG
1070
     1
1071
       62
1005
1294BB
  0
ARC
  5
1294BC
  8
OBJECT
 10
4083.0
 20
-258.99999999999852
 30
0.0
 40
3.0
 50
270.0
 51
0.0
1001
ACDBBLOCKREPETAG
1070
     1
1071
       63
1005
1294BC
  0
LINE
  5
1294BD
  8
OBJECT
 10
4086.0
 20
-258.99999999999852
 30
0.0
 11
4086.0
 21
-140.99999999999849
 31
0.0
1001
ACDBBLOCKREPETAG
1070
     1
1071
       64
1005
1294BD
  0
LINE
  5
1294BE
  8
HIDDEN
 10
4088.0
 20
-155.49999999999849
 30
0.0
 11
4088.0
 21
-244.49999999999861
 31
0.0
1001
ACDBBLOCKREPETAG
1070
     1
1071
       65
1005
1294BE
  0
LINE
  5
1294BF
  8
OBJECT
 10
4133.0
 20
-533.99999999999955
 30
0.0
 11
4140.0
 21
-533.99999999999955
 31
0.0
1001
ACDBBLOCKREPETAG
1070
     1
1071
       45
1005
1294BF
  0
LINE
  5
1294C0
  8
OBJECT
 10
4140.0
 20
-533.99999999999955
 30
0.0
 11
4140.0
 21
-654.99999999999966
 31
0.0
1001
ACDBBLOCKREPETAG
1070
     1
1071
       46
1005
1294C0
  0
LINE
  5
1294C1
  8
OBJECT
 10
4133.0
 20
-654.99999999999966
 30
0.0
 11
4133.0
 21
-533.99999999999955
 31
0.0
1001
ACDBBLOCKREPETAG
1070
     1
1071
       47
1005
1294C1
  0
LINE
  5
1294C2
  8
CENTER
 10
4155.0
 20
-595.99999999999955
 30
0.0
 11
4071.0
 21
-595.99999999999955
 31
0.0
1001
ACDBBLOCKREPETAG
1070
     1
1071
       48
1005
1294C2
  0
LINE
  5
1294C3
  8
OBJECT
 10
4133.0
 20
-536.99999999999955
 30
0.0
 11
4097.0
 21
-536.99999999999955
 31
0.0
1001
ACDBBLOCKREPETAG
1070
     1
1071
       49
1005
1294C3
  0
LINE
  5
1294C4
  8
OBJECT
 10
4097.0
 20
-536.99999999999955
 30
0.0
 11
4097.0
 21
-654.99999999999966
 31
0.0
1001
ACDBBLOCKREPETAG
1070
     1
1071
       50
1005
1294C4
  0
LINE
  5
1294C5
  8
OBJECT
 10
4097.0
 20
-654.99999999999966
 30
0.0
 11
4140.0
 21
-654.99999999999966
 31
0.0
1001
ACDBBLOCKREPETAG
1070
     1
1071
       51
1005
1294C5
  0
LINE
  5
1294C6
  8
OBJECT
 10
4093.0
 20
-541.49999999999955
 30
0.0
 11
4086.0
 21
-541.49999999999955
 31
0.0
1001
ACDBBLOCKREPETAG
1070
     1
1071
       52
1005
1294C6
  0
LINE
  5
1294C7
  8
OBJECT
 10
4086.0
 20
-650.49999999999955
 30
0.0
 11
4093.0
 21
-650.49999999999955
 31
0.0
1001
ACDBBLOCKREPETAG
1070
     1
1071
       53
1005
1294C7
  0
LINE
  5
1294C8
  8
OBJECT
 10
4093.0
 20
-650.49999999999955
 30
0.0
 11
4093.0
 21
-541.49999999999955
 31
0.0
1001
ACDBBLOCKREPETAG
1070
     1
1071
       54
1005
1294C8
  0
LINE
  5
1294C9
  8
OBJECT
 10
4097.0
 20
-536.99999999999955
 30
0.0
 11
4093.0
 21
-541.49999999999955
 31
0.0
1001
ACDBBLOCKREPETAG
1070
     1
1071
       55
1005
1294C9
  0
LINE
  5
1294CA
  8
OBJECT
 10
4097.0
 20
-654.99999999999966
 30
0.0
 11
4093.0
 21
-650.49999999999955
 31
0.0
1001
ACDBBLOCKREPETAG
1070
     1
1071
       56
1005
1294CA
  0
LINE
  5
1294CB
  8
OBJECT
 10
4083.0
 20
-533.99999999999955
 30
0.0
 11
4080.0
 21
-533.99999999999955
 31
0.0
1001
ACDBBLOCKREPETAG
1070
     1
1071
       57
1005
1294CB
  0
ARC
  5
1294CC
  8
OBJECT
 10
4083.0
 20
-536.99999999999955
 30
0.0
 40
3.0
 50
0.0
 51
90.0
1001
ACDBBLOCKREPETAG
1070
     1
1071
       58
1005
1294CC
  0
LINE
  5
1294CD
  8
OBJECT
 10
4080.0
 20
-657.99999999999955
 30
0.0
 11
4083.0
 21
-657.99999999999955
 31
0.0
1001
ACDBBLOCKREPETAG
1070
     1
1071
       59
1005
1294CD
  0
ARC
  5
1294CE
  8
OBJECT
 10
4083.0
 20
-654.99999999999966
 30
0.0
 40
3.0
 50
270.0
 51
0.0
1001
ACDBBLOCKREPETAG
1070
     1
1071
       60
1005
1294CE
  0
LINE
  5
1294CF
  8
OBJECT
 10
4086.0
 20
-654.99999999999966
 30
0.0
 11
4086.0
 21
-536.99999999999955
 31
0.0
1001
ACDBBLOCKREPETAG
1070
     1
1071
       61
1005
1294CF
  0
LINE
  5
1294D0
  8
HIDDEN
 10
4088.0
 20
-551.49999999999966
 30
0.0
 11
4088.0
 21
-640.49999999999955
 31
0.0
1001
ACDBBLOCKREPETAG
1070
     1
1071
       63
1005
1294D0
  0
LINE
  5
1294D1
  8
CENTER
 10
2577.0
 20
-596.0
 30
0.0
 11
2423.0
 21
-596.0
 31
0.0
1001
ACDBBLOCKREPETAG
1070
     1
1071
       17
1005
1294D1
  0
CIRCLE
  5
1294D2
  8
OBJECT
 10
2500.0
 20
-596.0
 30
0.0
 40
41.5
1001
ACDBBLOCKREPETAG
1070
     1
1071
       19
1005
1294D2
  0
CIRCLE
  5
1294D3
  8
OBJECT
 10
2500.0
 20
-596.0
 30
0.0
 40
54.0
1001
ACDBBLOCKREPETAG
1070
     1
1071
       20
1005
1294D3
  0
ARC
  5
1294D4
  8
OBJECT
 10
2500.0
 20
-596.0
 30
0.0
 40
62.0
 50
287.89655112920718
 51
252.10344887079279
1001
ACDBBLOCKREPETAG
1070
     1
1071
       21
1005
1294D4
  0
LINE
  5
1294D5
  8
OBJECT
 10
2480.947441116743
 20
-655.0
 30
0.0
 11
2519.052558883257
 21
-655.0
 31
0.0
1001
ACDBBLOCKREPETAG
1070
     1
1071
       22
1005
1294D5
  0
LINE
  5
1294D6
  8
OBJECT
 10
2133.0
 20
-534.0
 30
0.0
 11
2140.0
 21
-534.0
 31
0.0
1001
ACDBBLOCKREPETAG
1070
     1
1071
       45
1005
1294D6
  0
LINE
  5
1294D7
  8
OBJECT
 10
2140.0
 20
-534.0
 30
0.0
 11
2140.0
 21
-655.0
 31
0.0
1001
ACDBBLOCKREPETAG
1070
     1
1071
       46
1005
1294D7
  0
LINE
  5
1294D8
  8
OBJECT
 10
2133.0
 20
-655.0
 30
0.0
 11
2133.0
 21
-534.0
 31
0.0
1001
ACDBBLOCKREPETAG
1070
     1
1071
       47
1005
1294D8
  0
LINE
  5
1294D9
  8
CENTER
 10
2155.0
 20
-596.0
 30
0.0
 11
2071.0
 21
-596.0
 31
0.0
1001
ACDBBLOCKREPETAG
1070
     1
1071
       48
1005
1294D9
  0
LINE
  5
1294DA
  8
OBJECT
 10
2133.0
 20
-537.0
 30
0.0
 11
2097.0
 21
-537.0
 31
0.0
1001
ACDBBLOCKREPETAG
1070
     1
1071
       49
1005
1294DA
  0
LINE
  5
1294DB
  8
OBJECT
 10
2097.0
 20
-537.0
 30
0.0
 11
2097.0
 21
-655.0
 31
0.0
1001
ACDBBLOCKREPETAG
1070
     1
1071
       50
1005
1294DB
  0
LINE
  5
1294DC
  8
OBJECT
 10
2097.0
 20
-655.0
 30
0.0
 11
2140.0
 21
-655.0
 31
0.0
1001
ACDBBLOCKREPETAG
1070
     1
1071
       51
1005
1294DC
  0
LINE
  5
1294DD
  8
OBJECT
 10
2093.0
 20
-541.5
 30
0.0
 11
2086.0
 21
-541.5
 31
0.0
1001
ACDBBLOCKREPETAG
1070
     1
1071
       52
1005
1294DD
  0
LINE
  5
1294DE
  8
OBJECT
 10
2086.0
 20
-650.49999999999989
 30
0.0
 11
2093.0
 21
-650.49999999999989
 31
0.0
1001
ACDBBLOCKREPETAG
1070
     1
1071
       53
1005
1294DE
  0
LINE
  5
1294DF
  8
OBJECT
 10
2093.0
 20
-650.49999999999989
 30
0.0
 11
2093.0
 21
-541.5
 31
0.0
1001
ACDBBLOCKREPETAG
1070
     1
1071
       54
1005
1294DF
  0
LINE
  5
1294E0
  8
OBJECT
 10
2097.0
 20
-537.0
 30
0.0
 11
2093.0
 21
-541.5
 31
0.0
1001
ACDBBLOCKREPETAG
1070
     1
1071
       55
1005
1294E0
  0
LINE
  5
1294E1
  8
OBJECT
 10
2097.0
 20
-655.0
 30
0.0
 11
2093.0
 21
-650.49999999999989
 31
0.0
1001
ACDBBLOCKREPETAG
1070
     1
1071
       56
1005
1294E1
  0
LINE
  5
1294E2
  8
OBJECT
 10
2083.0
 20
-534.0
 30
0.0
 11
2080.0
 21
-534.0
 31
0.0
1001
ACDBBLOCKREPETAG
1070
     1
1071
       57
1005
1294E2
  0
ARC
  5
1294E3
  8
OBJECT
 10
2083.0
 20
-537.0
 30
0.0
 40
3.0
 50
0.0
 51
90.0
1001
ACDBBLOCKREPETAG
1070
     1
1071
       58
1005
1294E3
  0
LINE
  5
1294E4
  8
OBJECT
 10
2080.0
 20
-658.0
 30
0.0
 11
2083.0
 21
-658.0
 31
0.0
1001
ACDBBLOCKREPETAG
1070
     1
1071
       59
1005
1294E4
  0
ARC
  5
1294E5
  8
OBJECT
 10
2083.0
 20
-655.0
 30
0.0
 40
3.0
 50
270.0
 51
0.0
1001
ACDBBLOCKREPETAG
1070
     1
1071
       60
1005
1294E5
  0
LINE
  5
1294E6
  8
OBJECT
 10
2086.0
 20
-655.0
 30
0.0
 11
2086.0
 21
-537.0
 31
0.0
1001
ACDBBLOCKREPETAG
1070
     1
1071
       61
1005
1294E6
  0
LINE
  5
1294E7
  8
HIDDEN
 10
2088.0
 20
-551.49999999999977
 30
0.0
 11
2088.0
 21
-640.5
 31
0.0
1001
ACDBBLOCKREPETAG
1070
     1
1071
       63
1005
1294E7
  0
LINE
  5
1294E8
  8
OBJECT
 10
2133.0
 20
-137.99999999999909
 30
0.0
 11
2140.0
 21
-137.99999999999909
 31
0.0
1001
ACDBBLOCKREPETAG
1070
     1
1071
       47
1005
1294E8
  0
LINE
  5
1294E9
  8
OBJECT
 10
2140.0
 20
-137.99999999999909
 30
0.0
 11
2140.0
 21
-261.99999999999909
 31
0.0
1001
ACDBBLOCKREPETAG
1070
     1
1071
       48
1005
1294E9
  0
LINE
  5
1294EA
  8
OBJECT
 10
2140.0
 20
-261.99999999999909
 30
0.0
 11
2133.0
 21
-261.99999999999909
 31
0.0
1001
ACDBBLOCKREPETAG
1070
     1
1071
       49
1005
1294EA
  0
LINE
  5
1294EB
  8
OBJECT
 10
2133.0
 20
-261.99999999999909
 30
0.0
 11
2133.0
 21
-137.99999999999909
 31
0.0
1001
ACDBBLOCKREPETAG
1070
     1
1071
       50
1005
1294EB
  0
LINE
  5
1294EC
  8
CENTER
 10
2155.0
 20
-199.99999999999909
 30
0.0
 11
2080.0
 21
-199.99999999999909
 31
0.0
1001
ACDBBLOCKREPETAG
1070
     1
1071
       51
1005
1294EC
  0
LINE
  5
1294ED
  8
OBJECT
 10
2133.0
 20
-140.99999999999909
 30
0.0
 11
2097.0
 21
-140.99999999999909
 31
0.0
1001
ACDBBLOCKREPETAG
1070
     1
1071
       52
1005
1294ED
  0
LINE
  5
1294EE
  8
OBJECT
 10
2097.0
 20
-140.99999999999909
 30
0.0
 11
2097.0
 21
-258.99999999999909
 31
0.0
1001
ACDBBLOCKREPETAG
1070
     1
1071
       53
1005
1294EE
  0
LINE
  5
1294EF
  8
OBJECT
 10
2097.0
 20
-258.99999999999909
 30
0.0
 11
2133.0
 21
-258.99999999999909
 31
0.0
1001
ACDBBLOCKREPETAG
1070
     1
1071
       54
1005
1294EF
  0
LINE
  5
1294F0
  8
OBJECT
 10
2093.0
 20
-145.49999999999909
 30
0.0
 11
2086.0
 21
-145.49999999999909
 31
0.0
1001
ACDBBLOCKREPETAG
1070
     1
1071
       55
1005
1294F0
  0
LINE
  5
1294F1
  8
OBJECT
 10
2086.0
 20
-254.49999999999909
 30
0.0
 11
2093.0
 21
-254.49999999999909
 31
0.0
1001
ACDBBLOCKREPETAG
1070
     1
1071
       56
1005
1294F1
  0
LINE
  5
1294F2
  8
OBJECT
 10
2093.0
 20
-254.49999999999909
 30
0.0
 11
2093.0
 21
-145.49999999999909
 31
0.0
1001
ACDBBLOCKREPETAG
1070
     1
1071
       57
1005
1294F2
  0
LINE
  5
1294F3
  8
OBJECT
 10
2097.0
 20
-140.99999999999909
 30
0.0
 11
2093.0
 21
-145.49999999999909
 31
0.0
1001
ACDBBLOCKREPETAG
1070
     1
1071
       58
1005
1294F3
  0
LINE
  5
1294F4
  8
OBJECT
 10
2097.0
 20
-258.99999999999909
 30
0.0
 11
2093.0
 21
-254.49999999999909
 31
0.0
1001
ACDBBLOCKREPETAG
1070
     1
1071
       59
1005
1294F4
  0
LINE
  5
1294F5
  8
OBJECT
 10
2083.0
 20
-137.99999999999909
 30
0.0
 11
2080.0
 21
-137.99999999999909
 31
0.0
1001
ACDBBLOCKREPETAG
1070
     1
1071
       60
1005
1294F5
  0
ARC
  5
1294F6
  8
OBJECT
 10
2083.0
 20
-140.99999999999909
 30
0.0
 40
3.0
 50
0.0
 51
90.0
1001
ACDBBLOCKREPETAG
1070
     1
1071
       61
1005
1294F6
  0
LINE
  5
1294F7
  8
OBJECT
 10
2080.0
 20
-261.99999999999909
 30
0.0
 11
2083.0
 21
-261.99999999999909
 31
0.0
1001
ACDBBLOCKREPETAG
1070
     1
1071
       62
1005
1294F7
  0
ARC
  5
1294F8
  8
OBJECT
 10
2083.0
 20
-258.99999999999909
 30
0.0
 40
3.0
 50
270.0
 51
0.0
1001
ACDBBLOCKREPETAG
1070
     1
1071
       63
1005
1294F8
  0
LINE
  5
1294F9
  8
OBJECT
 10
2086.0
 20
-258.99999999999909
 30
0.0
 11
2086.0
 21
-140.99999999999909
 31
0.0
1001
ACDBBLOCKREPETAG
1070
     1
1071
       64
1005
1294F9
  0
LINE
  5
1294FA
  8
HIDDEN
 10
2088.0
 20
-155.49999999999909
 30
0.0
 11
2088.0
 21
-244.49999999999909
 31
0.0
1001
ACDBBLOCKREPETAG
1070
     1
1071
       65
1005
1294FA
  0
LINE
  5
1294FB
  8
OBJECT
 10
465.00000000012182
 20
-546.00000000000955
 30
0.0
 11
465.00000000012182
 21
-553.00000000000966
 31
0.0
1001
ACDBBLOCKREPETAG
1070
     1
1071
       57
1005
1294FB
  0
LINE
  5
1294FC
  8
OBJECT
 10
465.00000000012182
 20
-553.00000000000966
 30
0.0
 11
615.00000000012176
 21
-553.00000000000966
 31
0.0
1001
ACDBBLOCKREPETAG
1070
     1
1071
       58
1005
1294FC
  0
LINE
  5
1294FD
  8
OBJECT
 10
468.00000000012182
 20
-594.50000000000966
 30
0.0
 11
612.00000000012164
 21
-594.50000000000966
 31
0.0
1001
ACDBBLOCKREPETAG
1070
     1
1071
       59
1005
1294FD
  0
LINE
  5
1294FE
  8
OBJECT
 10
474.5000000001217
 20
-606.00000000000955
 30
0.0
 11
605.50000000012187
 21
-606.00000000000955
 31
0.0
1001
ACDBBLOCKREPETAG
1070
     1
1071
       60
1005
1294FE
  0
LINE
  5
1294FF
  8
OBJECT
 10
615.00000000012176
 20
-553.00000000000966
 30
0.0
 11
615.00000000012176
 21
-546.00000000000955
 31
0.0
1001
ACDBBLOCKREPETAG
1070
     1
1071
       61
1005
1294FF
  0
LINE
  5
129500
  8
OBJECT
 10
615.00000000012176
 20
-546.00000000000955
 30
0.0
 11
465.00000000012182
 21
-546.00000000000955
 31
0.0
1001
ACDBBLOCKREPETAG
1070
     1
1071
       62
1005
129500
  0
LINE
  5
129501
  8
OBJECT
 10
602.00000000012187
 20
-610.00000000000955
 30
0.0
 11
602.00000000012187
 21
-616.00000000000955
 31
0.0
1001
ACDBBLOCKREPETAG
1070
     1
1071
       63
1005
129501
  0
LINE
  5
129502
  8
OBJECT
 10
612.00000000012164
 20
-553.00000000000966
 30
0.0
 11
612.00000000012164
 21
-594.50000000000966
 31
0.0
1001
ACDBBLOCKREPETAG
1070
     1
1071
       64
1005
129502
  0
LINE
  5
129503
  8
OBJECT
 10
612.00000000012164
 20
-594.50000000000966
 30
0.0
 11
605.50000000012187
 21
-606.00000000000955
 31
0.0
1001
ACDBBLOCKREPETAG
1070
     1
1071
       65
1005
129503
  0
LINE
  5
129504
  8
OBJECT
 10
605.50000000012187
 20
-606.00000000000955
 30
0.0
 11
602.00000000012187
 21
-610.00000000000955
 31
0.0
1001
ACDBBLOCKREPETAG
1070
     1
1071
       66
1005
129504
  0
LINE
  5
129505
  8
OBJECT
 10
468.00000000012182
 20
-594.50000000000966
 30
0.0
 11
474.5000000001217
 21
-606.00000000000955
 31
0.0
1001
ACDBBLOCKREPETAG
1070
     1
1071
       67
1005
129505
  0
LINE
  5
129506
  8
OBJECT
 10
474.5000000001217
 20
-606.00000000000955
 30
0.0
 11
478.0000000001217
 21
-610.00000000000955
 31
0.0
1001
ACDBBLOCKREPETAG
1070
     1
1071
       68
1005
129506
  0
ARC
  5
129507
  8
OBJECT
 10
540.00000000012176
 20
-228.10000000000809
 30
0.0
 40
386.89999999999998
 50
260.77870136257951
 51
279.22129863742049
1001
ACDBBLOCKREPETAG
1070
     1
1071
       69
1005
129507
  0
LINE
  5
129508
  8
OBJECT
 10
478.0000000001217
 20
-610.00000000000955
 30
0.0
 11
478.0000000001217
 21
-616.00000000000955
 31
0.0
1001
ACDBBLOCKREPETAG
1070
     1
1071
       70
1005
129508
  0
LINE
  5
129509
  8
OBJECT
 10
468.00000000012182
 20
-553.00000000000966
 30
0.0
 11
468.00000000012182
 21
-594.50000000000966
 31
0.0
1001
ACDBBLOCKREPETAG
1070
     1
1071
       71
1005
129509
  0
INSERT
  5
12950A
  8
OBJECT
  2
*U16
 10
0.0
 20
0.0
 30
0.0
  0
LINE
  5
12950B
  8
HIDDEN
 10
597.00000000012187
 20
-598.00000000000955
 30
0.0
 11
483.0000000001217
 21
-598.00000000000955
 31
0.0
1001
ACDBBLOCKREPETAG
1070
     1
1071
      431
1005
12950B
  0
ARC
  5
12950C
  8
OBJECT
 10
540.00000000012176
 20
-696.00000000000955
 30
0.0
 40
50.0
 50
28.81994300000018
 51
318.52376955967549
1001
ACDBBLOCKREPETAG
1070
     1
1071
        7
1005
12950C
  0
ARC
  5
12950D
  8
OBJECT
 10
540.00000000012176
 20
-696.00000000000955
 30
0.0
 40
80.0
 50
140.80503257386621
 51
39.194967426133744
1001
ACDBBLOCKREPETAG
1070
     1
1071
       18
1005
12950D
  0
LINE
  5
12950E
  8
OBJECT
 10
478.0000000001217
 20
-653.79810430799125
 30
0.0
 11
478.0000000001217
 21
-616.00000000000955
 31
0.0
1001
ACDBBLOCKREPETAG
1070
     1
1071
       19
1005
12950E
  0
LINE
  5
12950F
  8
OBJECT
 10
602.00000000012187
 20
-653.79810430799125
 30
0.0
 11
602.00000000012187
 21
-616.00000000000955
 31
0.0
1001
ACDBBLOCKREPETAG
1070
     1
1071
       20
1005
12950F
  0
CIRCLE
  5
129510
  8
OBJECT
 10
540.00000000012176
 20
-696.00000000000955
 30
0.0
 40
75.0
1001
ACDBBLOCKREPETAG
1070
     1
1071
      363
1005
129510
  0
CIRCLE
  5
129511
  8
OBJECT
 10
540.00000000012176
 20
-696.00000000000955
 30
0.0
 40
52.5
1001
ACDBBLOCKREPETAG
1070
     1
1071
      364
1005
129511
  0
CIRCLE
  5
129512
  8
OBJECT
 10
540.00000000012176
 20
-696.00000000000955
 30
0.0
 40
57.0
1001
ACDBBLOCKREPETAG
1070
     1
1071
      365
1005
129512
  0
LINE
  5
129513
  8
OBJECT
 10
582.98887195252235
 20
-726.13647106515043
 30
0.0
 11
562.48688253369073
 21
-716.14350817677246
 31
0.0
1001
ACDBBLOCKREPETAG
1070
     1
1071
      381
1005
129513
  0
LINE
  5
129514
  8
OBJECT
 10
579.78925952679697
 20
-730.25003396085253
 30
0.0
 11
563.05373004443015
 21
-722.09289773350099
 31
0.0
1001
ACDBBLOCKREPETAG
1070
     1
1071
      382
1005
129514
  0
LINE
  5
129515
  8
OBJECT
 10
583.80694712383945
 20
-671.89706690670801
 30
0.0
 11
572.55462200012153
 21
-675.34034300001292
 31
0.0
1001
ACDBBLOCKREPETAG
1070
     1
1071
      383
1005
129515
  0
ARC
  5
129516
  8
OBJECT
 10
547.12893698296659
 20
-719.42030469269446
 30
0.0
 40
60.031113246032611
 50
46.417442267748868
 51
52.339361060911429
1001
ACDBBLOCKREPETAG
1070
     1
1071
      384
1005
129516
  0
LINE
  5
129517
  8
OBJECT
 10
558.22553374220286
 20
-709.20725009863452
 30
0.0
 11
572.55462200011959
 21
-675.34034300001292
 31
0.0
1001
ACDBBLOCKREPETAG
1070
     1
1071
      385
1005
129517
  0
ARC
  5
129518
  8
OBJECT
 10
567.43512999917925
 20
-713.10383023810812
 30
0.0
 40
10.0
 50
157.06677829292209
 51
244.01473437029199
1001
ACDBBLOCKREPETAG
1070
     1
1071
      386
1005
129518
  0
ARC
  5
129519
  8
OBJECT
 10
565.5538625674144
 20
-709.85116096188233
 30
0.0
 40
7.0
 50
157.06677829292209
 51
244.01473377497109
1001
ACDBBLOCKREPETAG
1070
     1
1071
      387
1005
129519
  0
POINT
  5
12951A
  8
DOTS
 10
540.00000000012176
 20
-696.00000000000955
 30
0.0
1001
ACDBBLOCKREPETAG
1070
     1
1071
      410
1005
12951A
  0
INSERT
  5
12951B
  8
OBJECT
  2
*U17
 10
0.0
 20
0.0
 30
0.0
  0
LINE
  5
12951C
  8
OBJECT
 10
118.00000000004179
 20
-563.00000000000955
 30
0.0
 11
118.00000000004179
 21
-556.00000000000955
 31
0.0
1001
ACDBBLOCKREPETAG
1070
     1
1071
       39
1005
12951C
  0
LINE
  5
12951D
  8
OBJECT
 10
118.00000000004179
 20
-556.00000000000955
 30
0.0
 11
242.00000000004181
 21
-556.00000000000955
 31
0.0
1001
ACDBBLOCKREPETAG
1070
     1
1071
       40
1005
12951D
  0
LINE
  5
12951E
  8
OBJECT
 10
242.00000000004181
 20
-556.00000000000955
 30
0.0
 11
242.00000000004181
 21
-563.00000000000955
 31
0.0
1001
ACDBBLOCKREPETAG
1070
     1
1071
       41
1005
12951E
  0
LINE
  5
12951F
  8
OBJECT
 10
242.00000000004181
 20
-563.00000000000955
 30
0.0
 11
118.00000000004179
 21
-563.00000000000955
 31
0.0
1001
ACDBBLOCKREPETAG
1070
     1
1071
       42
1005
12951F
  0
LINE
  5
129520
  8
OBJECT
 10
121.00000000004179
 20
-563.00000000000955
 30
0.0
 11
121.00000000004179
 21
-599.00000000000966
 31
0.0
1001
ACDBBLOCKREPETAG
1070
     1
1071
       43
1005
129520
  0
LINE
  5
129521
  8
OBJECT
 10
121.00000000004179
 20
-599.00000000000966
 30
0.0
 11
239.00000000004181
 21
-599.00000000000966
 31
0.0
1001
ACDBBLOCKREPETAG
1070
     1
1071
       44
1005
129521
  0
LINE
  5
129522
  8
OBJECT
 10
239.00000000004181
 20
-599.00000000000966
 30
0.0
 11
239.00000000004181
 21
-563.00000000000955
 31
0.0
1001
ACDBBLOCKREPETAG
1070
     1
1071
       45
1005
129522
  0
LINE
  5
129523
  8
OBJECT
 10
125.50000000004179
 20
-603.00000000000966
 30
0.0
 11
125.50000000004179
 21
-610.00000000000955
 31
0.0
1001
ACDBBLOCKREPETAG
1070
     1
1071
       46
1005
129523
  0
LINE
  5
129524
  8
OBJECT
 10
234.50000000004181
 20
-610.00000000000955
 30
0.0
 11
234.50000000004181
 21
-603.00000000000966
 31
0.0
1001
ACDBBLOCKREPETAG
1070
     1
1071
       47
1005
129524
  0
LINE
  5
129525
  8
OBJECT
 10
234.50000000004181
 20
-603.00000000000966
 30
0.0
 11
125.50000000004179
 21
-603.00000000000966
 31
0.0
1001
ACDBBLOCKREPETAG
1070
     1
1071
       48
1005
129525
  0
LINE
  5
129526
  8
OBJECT
 10
121.00000000004179
 20
-599.00000000000966
 30
0.0
 11
125.50000000004179
 21
-603.00000000000966
 31
0.0
1001
ACDBBLOCKREPETAG
1070
     1
1071
       49
1005
129526
  0
LINE
  5
129527
  8
OBJECT
 10
239.00000000004181
 20
-599.00000000000966
 30
0.0
 11
234.50000000004181
 21
-603.00000000000966
 31
0.0
1001
ACDBBLOCKREPETAG
1070
     1
1071
       50
1005
129527
  0
LINE
  5
129528
  8
OBJECT
 10
118.00000000004179
 20
-613.00000000000864
 30
0.0
 11
118.00000000004179
 21
-616.00000000000955
 31
0.0
1001
ACDBBLOCKREPETAG
1070
     1
1071
       51
1005
129528
  0
ARC
  5
129529
  8
OBJECT
 10
121.00000000004179
 20
-613.00000000000864
 30
0.0
 40
3.0
 50
90.0
 51
180.0
1001
ACDBBLOCKREPETAG
1070
     1
1071
       52
1005
129529
  0
LINE
  5
12952A
  8
OBJECT
 10
242.00000000004181
 20
-616.00000000000955
 30
0.0
 11
242.00000000004181
 21
-613.00000000001035
 31
0.0
1001
ACDBBLOCKREPETAG
1070
     1
1071
       53
1005
12952A
  0
ARC
  5
12952B
  8
OBJECT
 10
239.00000000004181
 20
-613.00000000001035
 30
0.0
 40
3.0
 50
0.0
 51
90.0
1001
ACDBBLOCKREPETAG
1070
     1
1071
       54
1005
12952B
  0
LINE
  5
12952C
  8
OBJECT
 10
239.00000000004181
 20
-610.00000000001035
 30
0.0
 11
121.00000000004179
 21
-610.00000000000864
 31
0.0
1001
ACDBBLOCKREPETAG
1070
     1
1071
       55
1005
12952C
  0
LINE
  5
12952D
  8
HIDDEN
 10
135.50000000004181
 20
-608.00000000000955
 30
0.0
 11
224.50000000004181
 21
-608.00000000000955
 31
0.0
1001
ACDBBLOCKREPETAG
1070
     1
1071
      426
1005
12952D
  0
ARC
  5
12952E
  8
OBJECT
 10
180.00000000004181
 20
-696.00000000000955
 30
0.0
 40
50.0
 50
28.81994299999862
 51
318.52376955967441
1001
ACDBBLOCKREPETAG
1070
     1
1071
        7
1005
12952E
  0
ARC
  5
12952F
  8
OBJECT
 10
180.00000000004181
 20
-696.00000000000955
 30
0.0
 40
80.0
 50
140.8050325738642
 51
39.194967426135797
1001
ACDBBLOCKREPETAG
1070
     1
1071
       18
1005
12952F
  0
LINE
  5
129530
  8
OBJECT
 10
118.00000000004179
 20
-653.79810430799125
 30
0.0
 11
118.00000000004179
 21
-616.00000000000955
 31
0.0
1001
ACDBBLOCKREPETAG
1070
     1
1071
       19
1005
129530
  0
LINE
  5
129531
  8
OBJECT
 10
242.00000000004181
 20
-653.79810430799125
 30
0.0
 11
242.00000000004181
 21
-616.00000000000955
 31
0.0
1001
ACDBBLOCKREPETAG
1070
     1
1071
       20
1005
129531
  0
CIRCLE
  5
129532
  8
OBJECT
 10
180.00000000004181
 20
-696.00000000000955
 30
0.0
 40
75.0
1001
ACDBBLOCKREPETAG
1070
     1
1071
      363
1005
129532
  0
CIRCLE
  5
129533
  8
OBJECT
 10
180.00000000004181
 20
-696.00000000000955
 30
0.0
 40
52.5
1001
ACDBBLOCKREPETAG
1070
     1
1071
      364
1005
129533
  0
CIRCLE
  5
129534
  8
OBJECT
 10
180.00000000004181
 20
-696.00000000000955
 30
0.0
 40
57.0
1001
ACDBBLOCKREPETAG
1070
     1
1071
      365
1005
129534
  0
LINE
  5
129535
  8
OBJECT
 10
222.98887195244251
 20
-726.13647106515043
 30
0.0
 11
202.4868825336107
 21
-716.14350817677246
 31
0.0
1001
ACDBBLOCKREPETAG
1070
     1
1071
      381
1005
129535
  0
LINE
  5
129536
  8
OBJECT
 10
219.7892595267169
 20
-730.25003396085253
 30
0.0
 11
203.0537300443502
 21
-722.09289773350099
 31
0.0
1001
ACDBBLOCKREPETAG
1070
     1
1071
      382
1005
129536
  0
LINE
  5
129537
  8
OBJECT
 10
223.8069471237595
 20
-671.89706690670801
 30
0.0
 11
212.55462200004149
 21
-675.34034300001292
 31
0.0
1001
ACDBBLOCKREPETAG
1070
     1
1071
      383
1005
129537
  0
ARC
  5
129538
  8
OBJECT
 10
187.12893698288639
 20
-719.42030469269446
 30
0.0
 40
60.031113246032611
 50
46.41744226775004
 51
52.339361060912744
1001
ACDBBLOCKREPETAG
1070
     1
1071
      384
1005
129538
  0
LINE
  5
129539
  8
OBJECT
 10
198.22553374212291
 20
-709.20725009863452
 30
0.0
 11
212.5546220000397
 21
-675.34034300001292
 31
0.0
1001
ACDBBLOCKREPETAG
1070
     1
1071
      385
1005
129539
  0
ARC
  5
12953A
  8
OBJECT
 10
207.43512999909939
 20
-713.10383023810812
 30
0.0
 40
10.0
 50
157.0667782929232
 51
244.0147343702935
1001
ACDBBLOCKREPETAG
1070
     1
1071
      386
1005
12953A
  0
ARC
  5
12953B
  8
OBJECT
 10
205.55386256733439
 20
-709.85116096188233
 30
0.0
 40
7.0
 50
157.0667782929232
 51
244.0147337749741
1001
ACDBBLOCKREPETAG
1070
     1
1071
      387
1005
12953B
  0
POINT
  5
12953C
  8
DOTS
 10
180.00000000004181
 20
-696.00000000000955
 30
0.0
1001
ACDBBLOCKREPETAG
1070
     1
1071
      410
1005
12953C
  0
INSERT
  5
12953D
  8
OBJECT
  2
*U18
 10
0.0
 20
0.0
 30
0.0
  0
LINE
  5
12953E
  8
OBJECT
 10
485.00000000012182
 20
-99.000000000003183
 30
0.0
 11
485.00000000012182
 21
-92.000000000003183
 31
0.0
1001
ACDBBLOCKREPETAG
1070
     1
1071
       20
1005
12953E
  0
LINE
  5
12953F
  8
OBJECT
 10
485.00000000012182
 20
-92.000000000003183
 30
0.0
 11
595.00000000012164
 21
-92.000000000003183
 31
0.0
1001
ACDBBLOCKREPETAG
1070
     1
1071
       21
1005
12953F
  0
LINE
  5
129540
  8
OBJECT
 10
595.00000000012164
 20
-92.000000000003183
 30
0.0
 11
595.00000000012164
 21
-99.000000000003183
 31
0.0
1001
ACDBBLOCKREPETAG
1070
     1
1071
       22
1005
129540
  0
LINE
  5
129541
  8
OBJECT
 10
595.00000000012164
 20
-99.000000000003183
 30
0.0
 11
485.00000000012182
 21
-99.000000000003183
 31
0.0
1001
ACDBBLOCKREPETAG
1070
     1
1071
       23
1005
129541
  0
LINE
  5
129542
  8
OBJECT
 10
488.0000000001217
 20
-99.000000000003183
 30
0.0
 11
488.0000000001217
 21
-135.00000000000321
 31
0.0
1001
ACDBBLOCKREPETAG
1070
     1
1071
       24
1005
129542
  0
LINE
  5
129543
  8
OBJECT
 10
488.0000000001217
 20
-135.00000000000321
 30
0.0
 11
592.00000000012164
 21
-135.00000000000321
 31
0.0
1001
ACDBBLOCKREPETAG
1070
     1
1071
       25
1005
129543
  0
LINE
  5
129544
  8
OBJECT
 10
592.00000000012164
 20
-135.00000000000321
 30
0.0
 11
592.00000000012164
 21
-99.000000000003183
 31
0.0
1001
ACDBBLOCKREPETAG
1070
     1
1071
       26
1005
129544
  0
LINE
  5
129545
  8
OBJECT
 10
492.5000000001217
 20
-139.00000000000321
 30
0.0
 11
492.5000000001217
 21
-146.00000000000321
 31
0.0
1001
ACDBBLOCKREPETAG
1070
     1
1071
       27
1005
129545
  0
LINE
  5
129546
  8
OBJECT
 10
587.50000000012164
 20
-146.00000000000321
 30
0.0
 11
587.50000000012164
 21
-139.00000000000321
 31
0.0
1001
ACDBBLOCKREPETAG
1070
     1
1071
       28
1005
129546
  0
LINE
  5
129547
  8
OBJECT
 10
587.50000000012164
 20
-139.00000000000321
 30
0.0
 11
492.5000000001217
 21
-139.00000000000321
 31
0.0
1001
ACDBBLOCKREPETAG
1070
     1
1071
       29
1005
129547
  0
LINE
  5
129548
  8
OBJECT
 10
488.0000000001217
 20
-135.00000000000321
 30
0.0
 11
492.5000000001217
 21
-139.00000000000321
 31
0.0
1001
ACDBBLOCKREPETAG
1070
     1
1071
       30
1005
129548
  0
LINE
  5
129549
  8
OBJECT
 10
592.00000000012164
 20
-135.00000000000321
 30
0.0
 11
587.50000000012164
 21
-139.00000000000321
 31
0.0
1001
ACDBBLOCKREPETAG
1070
     1
1071
       31
1005
129549
  0
LINE
  5
12954A
  8
OBJECT
 10
478.0000000001217
 20
-149.0000000000023
 30
0.0
 11
478.0000000001217
 21
-152.0000000000031
 31
0.0
1001
ACDBBLOCKREPETAG
1070
     1
1071
       32
1005
12954A
  0
ARC
  5
12954B
  8
OBJECT
 10
481.00000000012182
 20
-149.0000000000023
 30
0.0
 40
3.0
 50
90.0
 51
180.0
1001
ACDBBLOCKREPETAG
1070
     1
1071
       33
1005
12954B
  0
LINE
  5
12954C
  8
OBJECT
 10
602.00000000012187
 20
-152.0000000000031
 30
0.0
 11
602.00000000012187
 21
-149.00000000000409
 31
0.0
1001
ACDBBLOCKREPETAG
1070
     1
1071
       34
1005
12954C
  0
ARC
  5
12954D
  8
OBJECT
 10
599.00000000012164
 20
-149.00000000000409
 30
0.0
 40
3.0
 50
0.0
 51
90.0
1001
ACDBBLOCKREPETAG
1070
     1
1071
       35
1005
12954D
  0
LINE
  5
12954E
  8
OBJECT
 10
599.00000000012164
 20
-146.00000000000409
 30
0.0
 11
481.00000000012182
 21
-146.0000000000023
 31
0.0
1001
ACDBBLOCKREPETAG
1070
     1
1071
       36
1005
12954E
  0
LINE
  5
12954F
  8
HIDDEN
 10
502.00000000012182
 20
-144.00000000000321
 30
0.0
 11
578.00000000012164
 21
-144.00000000000321
 31
0.0
1001
ACDBBLOCKREPETAG
1070
     1
1071
      423
1005
12954F
  0
ARC
  5
129550
  8
OBJECT
 10
540.00000000012176
 20
-232.00000000000321
 30
0.0
 40
50.0
 50
28.81994300000018
 51
318.52376955967418
1001
ACDBBLOCKREPETAG
1070
     1
1071
        7
1005
129550
  0
ARC
  5
129551
  8
OBJECT
 10
540.00000000012176
 20
-232.00000000000321
 30
0.0
 40
80.0
 50
140.80503257386741
 51
39.1949674261325
1001
ACDBBLOCKREPETAG
1070
     1
1071
       18
1005
129551
  0
LINE
  5
129552
  8
OBJECT
 10
478.0000000001217
 20
-189.7981043079848
 30
0.0
 11
478.0000000001217
 21
-152.0000000000031
 31
0.0
1001
ACDBBLOCKREPETAG
1070
     1
1071
       19
1005
129552
  0
LINE
  5
129553
  8
OBJECT
 10
602.00000000012187
 20
-189.7981043079848
 30
0.0
 11
602.00000000012187
 21
-152.0000000000031
 31
0.0
1001
ACDBBLOCKREPETAG
1070
     1
1071
       20
1005
129553
  0
CIRCLE
  5
129554
  8
OBJECT
 10
540.00000000012176
 20
-232.00000000000321
 30
0.0
 40
75.0
1001
ACDBBLOCKREPETAG
1070
     1
1071
      363
1005
129554
  0
CIRCLE
  5
129555
  8
OBJECT
 10
540.00000000012176
 20
-232.00000000000321
 30
0.0
 40
52.5
1001
ACDBBLOCKREPETAG
1070
     1
1071
      364
1005
129555
  0
CIRCLE
  5
129556
  8
OBJECT
 10
540.00000000012176
 20
-232.00000000000321
 30
0.0
 40
57.0
1001
ACDBBLOCKREPETAG
1070
     1
1071
      365
1005
129556
  0
LINE
  5
129557
  8
OBJECT
 10
582.98887195252235
 20
-262.13647106514452
 30
0.0
 11
562.48688253369073
 21
-252.14350817676629
 31
0.0
1001
ACDBBLOCKREPETAG
1070
     1
1071
      381
1005
129557
  0
LINE
  5
129558
  8
OBJECT
 10
579.78925952679697
 20
-266.25003396084622
 30
0.0
 11
563.05373004443015
 21
-258.09289773349468
 31
0.0
1001
ACDBBLOCKREPETAG
1070
     1
1071
      382
1005
129558
  0
LINE
  5
129559
  8
OBJECT
 10
583.80694712383945
 20
-207.89706690670161
 30
0.0
 11
572.55462200012153
 21
-211.3403430000067
 31
0.0
1001
ACDBBLOCKREPETAG
1070
     1
1071
      383
1005
129559
  0
ARC
  5
12955A
  8
OBJECT
 10
547.12893698296659
 20
-255.42030469268821
 30
0.0
 40
60.031113246032611
 50
46.417442267748868
 51
52.339361060911429
1001
ACDBBLOCKREPETAG
1070
     1
1071
      384
1005
12955A
  0
LINE
  5
12955B
  8
OBJECT
 10
558.22553374220286
 20
-245.20725009862821
 30
0.0
 11
572.55462200011959
 21
-211.3403430000067
 31
0.0
1001
ACDBBLOCKREPETAG
1070
     1
1071
      385
1005
12955B
  0
ARC
  5
12955C
  8
OBJECT
 10
567.43512999917925
 20
-249.10383023810161
 30
0.0
 40
10.0
 50
157.06677829292209
 51
244.01473437029199
1001
ACDBBLOCKREPETAG
1070
     1
1071
      386
1005
12955C
  0
ARC
  5
12955D
  8
OBJECT
 10
565.5538625674144
 20
-245.85116096187591
 30
0.0
 40
7.0
 50
157.06677829292209
 51
244.0147337749697
1001
ACDBBLOCKREPETAG
1070
     1
1071
      387
1005
12955D
  0
POINT
  5
12955E
  8
DOTS
 10
540.00000000012176
 20
-232.00000000000321
 30
0.0
1001
ACDBBLOCKREPETAG
1070
     1
1071
      410
1005
12955E
  0
INSERT
  5
12955F
  8
OBJECT
  2
*U19
 10
0.0
 20
0.0
 30
0.0
  0
LINE
  5
129560
  8
OBJECT
 10
133.00000000004169
 20
-99.000000000003183
 30
0.0
 11
133.00000000004169
 21
-92.000000000003183
 31
0.0
1001
ACDBBLOCKREPETAG
1070
     1
1071
        1
1005
129560
  0
LINE
  5
129561
  8
OBJECT
 10
133.00000000004169
 20
-92.000000000003183
 30
0.0
 11
227.00000000004181
 21
-92.000000000003183
 31
0.0
1001
ACDBBLOCKREPETAG
1070
     1
1071
        2
1005
129561
  0
LINE
  5
129562
  8
OBJECT
 10
227.00000000004181
 20
-92.000000000003183
 30
0.0
 11
227.00000000004181
 21
-99.000000000003183
 31
0.0
1001
ACDBBLOCKREPETAG
1070
     1
1071
        3
1005
129562
  0
LINE
  5
129563
  8
OBJECT
 10
227.00000000004181
 20
-99.000000000003183
 30
0.0
 11
133.00000000004169
 21
-99.000000000003183
 31
0.0
1001
ACDBBLOCKREPETAG
1070
     1
1071
        4
1005
129563
  0
LINE
  5
129564
  8
OBJECT
 10
136.00000000004169
 20
-99.000000000003183
 30
0.0
 11
136.00000000004169
 21
-135.00000000000321
 31
0.0
1001
ACDBBLOCKREPETAG
1070
     1
1071
        5
1005
129564
  0
LINE
  5
129565
  8
OBJECT
 10
136.00000000004169
 20
-135.00000000000321
 30
0.0
 11
224.00000000004181
 21
-135.00000000000321
 31
0.0
1001
ACDBBLOCKREPETAG
1070
     1
1071
        6
1005
129565
  0
LINE
  5
129566
  8
OBJECT
 10
224.00000000004181
 20
-135.00000000000321
 30
0.0
 11
224.00000000004181
 21
-99.000000000003183
 31
0.0
1001
ACDBBLOCKREPETAG
1070
     1
1071
        7
1005
129566
  0
LINE
  5
129567
  8
OBJECT
 10
140.50000000004181
 20
-139.00000000000321
 30
0.0
 11
140.50000000004181
 21
-146.00000000000321
 31
0.0
1001
ACDBBLOCKREPETAG
1070
     1
1071
        8
1005
129567
  0
LINE
  5
129568
  8
OBJECT
 10
219.50000000004189
 20
-146.00000000000321
 30
0.0
 11
219.50000000004189
 21
-139.00000000000321
 31
0.0
1001
ACDBBLOCKREPETAG
1070
     1
1071
        9
1005
129568
  0
LINE
  5
129569
  8
OBJECT
 10
219.50000000004189
 20
-139.00000000000321
 30
0.0
 11
140.50000000004181
 21
-139.00000000000321
 31
0.0
1001
ACDBBLOCKREPETAG
1070
     1
1071
       10
1005
129569
  0
LINE
  5
12956A
  8
OBJECT
 10
136.00000000004169
 20
-135.00000000000321
 30
0.0
 11
140.50000000004181
 21
-139.00000000000321
 31
0.0
1001
ACDBBLOCKREPETAG
1070
     1
1071
       11
1005
12956A
  0
LINE
  5
12956B
  8
OBJECT
 10
224.00000000004181
 20
-135.00000000000321
 30
0.0
 11
219.50000000004189
 21
-139.00000000000321
 31
0.0
1001
ACDBBLOCKREPETAG
1070
     1
1071
       12
1005
12956B
  0
LINE
  5
12956C
  8
OBJECT
 10
118.00000000004179
 20
-149.0000000000023
 30
0.0
 11
118.00000000004179
 21
-152.0000000000031
 31
0.0
1001
ACDBBLOCKREPETAG
1070
     1
1071
       13
1005
12956C
  0
ARC
  5
12956D
  8
OBJECT
 10
121.00000000004179
 20
-149.0000000000023
 30
0.0
 40
3.0
 50
90.0
 51
180.0
1001
ACDBBLOCKREPETAG
1070
     1
1071
       14
1005
12956D
  0
LINE
  5
12956E
  8
OBJECT
 10
242.00000000004181
 20
-152.0000000000031
 30
0.0
 11
242.00000000004181
 21
-149.00000000000409
 31
0.0
1001
ACDBBLOCKREPETAG
1070
     1
1071
       15
1005
12956E
  0
ARC
  5
12956F
  8
OBJECT
 10
239.00000000004181
 20
-149.00000000000409
 30
0.0
 40
3.0
 50
0.0
 51
90.0
1001
ACDBBLOCKREPETAG
1070
     1
1071
       16
1005
12956F
  0
LINE
  5
129570
  8
OBJECT
 10
239.00000000004181
 20
-146.00000000000409
 30
0.0
 11
121.00000000004179
 21
-146.0000000000023
 31
0.0
1001
ACDBBLOCKREPETAG
1070
     1
1071
       17
1005
129570
  0
LINE
  5
129571
  8
HIDDEN
 10
150.00000000004181
 20
-144.00000000000321
 30
0.0
 11
210.00000000004181
 21
-144.00000000000321
 31
0.0
1001
ACDBBLOCKREPETAG
1070
     1
1071
      420
1005
129571
  0
ARC
  5
129572
  8
OBJECT
 10
180.00000000004181
 20
-232.00000000000321
 30
0.0
 40
50.0
 50
28.81994299999862
 51
318.52376955967321
1001
ACDBBLOCKREPETAG
1070
     1
1071
        7
1005
129572
  0
ARC
  5
129573
  8
OBJECT
 10
180.00000000004181
 20
-232.00000000000321
 30
0.0
 40
80.0
 50
140.80503257386539
 51
39.194967426134532
1001
ACDBBLOCKREPETAG
1070
     1
1071
       18
1005
129573
  0
LINE
  5
129574
  8
OBJECT
 10
118.00000000004179
 20
-189.7981043079848
 30
0.0
 11
118.00000000004179
 21
-152.0000000000031
 31
0.0
1001
ACDBBLOCKREPETAG
1070
     1
1071
       19
1005
129574
  0
LINE
  5
129575
  8
OBJECT
 10
242.00000000004181
 20
-189.7981043079848
 30
0.0
 11
242.00000000004181
 21
-152.0000000000031
 31
0.0
1001
ACDBBLOCKREPETAG
1070
     1
1071
       20
1005
129575
  0
CIRCLE
  5
129576
  8
OBJECT
 10
180.00000000004181
 20
-232.00000000000321
 30
0.0
 40
75.0
1001
ACDBBLOCKREPETAG
1070
     1
1071
      363
1005
129576
  0
CIRCLE
  5
129577
  8
OBJECT
 10
180.00000000004181
 20
-232.00000000000321
 30
0.0
 40
52.5
1001
ACDBBLOCKREPETAG
1070
     1
1071
      364
1005
129577
  0
CIRCLE
  5
129578
  8
OBJECT
 10
180.00000000004181
 20
-232.00000000000321
 30
0.0
 40
57.0
1001
ACDBBLOCKREPETAG
1070
     1
1071
      365
1005
129578
  0
LINE
  5
129579
  8
OBJECT
 10
222.98887195244251
 20
-262.13647106514452
 30
0.0
 11
202.4868825336107
 21
-252.14350817676629
 31
0.0
1001
ACDBBLOCKREPETAG
1070
     1
1071
      381
1005
129579
  0
LINE
  5
12957A
  8
OBJECT
 10
219.7892595267169
 20
-266.25003396084622
 30
0.0
 11
203.0537300443502
 21
-258.09289773349468
 31
0.0
1001
ACDBBLOCKREPETAG
1070
     1
1071
      382
1005
12957A
  0
LINE
  5
12957B
  8
OBJECT
 10
223.8069471237595
 20
-207.89706690670161
 30
0.0
 11
212.55462200004149
 21
-211.3403430000067
 31
0.0
1001
ACDBBLOCKREPETAG
1070
     1
1071
      383
1005
12957B
  0
ARC
  5
12957C
  8
OBJECT
 10
187.12893698288639
 20
-255.42030469268821
 30
0.0
 40
60.031113246032611
 50
46.41744226775004
 51
52.339361060912744
1001
ACDBBLOCKREPETAG
1070
     1
1071
      384
1005
12957C
  0
LINE
  5
12957D
  8
OBJECT
 10
198.22553374212291
 20
-245.20725009862821
 30
0.0
 11
212.5546220000397
 21
-211.3403430000067
 31
0.0
1001
ACDBBLOCKREPETAG
1070
     1
1071
      385
1005
12957D
  0
ARC
  5
12957E
  8
OBJECT
 10
207.43512999909939
 20
-249.10383023810161
 30
0.0
 40
10.0
 50
157.0667782929232
 51
244.0147343702935
1001
ACDBBLOCKREPETAG
1070
     1
1071
      386
1005
12957E
  0
ARC
  5
12957F
  8
OBJECT
 10
205.55386256733439
 20
-245.85116096187591
 30
0.0
 40
7.0
 50
157.0667782929232
 51
244.01473377497271
1001
ACDBBLOCKREPETAG
1070
     1
1071
      387
1005
12957F
  0
POINT
  5
129580
  8
DOTS
 10
180.00000000004181
 20
-232.00000000000321
 30
0.0
1001
ACDBBLOCKREPETAG
1070
     1
1071
      410
1005
129580
  0
POLYLINE
  5
129581
  8
HIDDEN
 66
     1
 10
0.0
 20
0.0
 30
0.0
 70
     1
1001
ACDBBLOCKREPETAG
1070
     1
1071
      105
1005
0
  0
VERTEX
  5
129D06
  8
HIDDEN
 10
359.99999999987818
 20
0.0
 30
0.0
  0
VERTEX
  5
129D07
  8
HIDDEN
 10
719.99999999975626
 20
0.0
 30
0.0
  0
VERTEX
  5
129D08
  8
HIDDEN
 10
719.99999999975626
 20
-463.99999999984158
 30
0.0
  0
VERTEX
  5
129D09
  8
HIDDEN
 10
359.99999999987818
 20
-463.99999999984158
 30
0.0
  0
SEQEND
  5
129D0A
  8
HIDDEN
  0
POLYLINE
  5
129582
  8
HIDDEN
 66
     1
 10
0.0
 20
0.0
 30
0.0
 70
     1
1001
ACDBBLOCKREPETAG
1070
     1
1071
      110
1005
0
  0
VERTEX
  5
129D0B
  8
HIDDEN
 10
0.0
 20
0.0
 30
0.0
  0
VERTEX
  5
129D0C
  8
HIDDEN
 10
359.99999999987818
 20
0.0
 30
0.0
  0
VERTEX
  5
129D0D
  8
HIDDEN
 10
359.99999999987818
 20
-463.99999999984158
 30
0.0
  0
VERTEX
  5
129D0E
  8
HIDDEN
 10
0.0
 20
-463.99999999984158
 30
0.0
  0
SEQEND
  5
129D0F
  8
HIDDEN
  0
POLYLINE
  5
129583
  8
HIDDEN
 66
     1
 10
0.0
 20
0.0
 30
0.0
 70
     1
1001
ACDBBLOCKREPETAG
1070
     1
1071
      120
1005
0
  0
VERTEX
  5
129D10
  8
HIDDEN
 10
359.99999999987818
 20
-463.99999999984158
 30
0.0
  0
VERTEX
  5
129D11
  8
HIDDEN
 10
719.99999999975626
 20
-463.99999999984158
 30
0.0
  0
VERTEX
  5
129D12
  8
HIDDEN
 10
719.99999999975626
 20
-927.99999999968372
 30
0.0
  0
VERTEX
  5
129D13
  8
HIDDEN
 10
359.99999999987818
 20
-927.99999999968372
 30
0.0
  0
SEQEND
  5
129D14
  8
HIDDEN
  0
POLYLINE
  5
129584
  8
HIDDEN
 66
     1
 10
0.0
 20
0.0
 30
0.0
 70
     1
1001
ACDBBLOCKREPETAG
1070
     1
1071
      125
1005
0
  0
VERTEX
  5
129D15
  8
HIDDEN
 10
0.0
 20
-463.99999999984158
 30
0.0
  0
VERTEX
  5
129D16
  8
HIDDEN
 10
359.99999999987818
 20
-463.99999999984158
 30
0.0
  0
VERTEX
  5
129D17
  8
HIDDEN
 10
359.99999999987818
 20
-927.99999999968372
 30
0.0
  0
VERTEX
  5
129D18
  8
HIDDEN
 10
0.0
 20
-927.99999999968372
 30
0.0
  0
SEQEND
  5
129D19
  8
HIDDEN
  0
TEXT
  5
129585
  8
SLIM
 10
508.28571428553232
 20
-907.999999999691
 30
0.0
 40
48.0
  1
A4
 41
0.75
1001
ACDBBLOCKREPETAG
1070
     1
1071
      119
1005
0
  0
TEXT
  5
129586
  8
SLIM
 10
149.14285714279711
 20
-907.999999999691
 30
0.0
 40
48.0
  1
A3
 41
0.75
1001
ACDBBLOCKREPETAG
1070
     1
1071
      119
1005
0
  0
TEXT
  5
129587
  8
SLIM
 10
509.1428571426751
 20
-443.99999999984919
 30
0.0
 40
48.0
  1
A2
 41
0.75
1001
ACDBBLOCKREPETAG
1070
     1
1071
      119
1005
0
  0
TEXT
  5
129588
  8
SLIM
 10
156.85714285708281
 20
-443.99999999984919
 30
0.0
 40
48.0
  1
A1
 41
0.75
1001
ACDBBLOCKREPETAG
1070
     1
1071
      119
1005
0
  0
TEXT
  5
129589
  8
SLIM
 10
0.0000035665234464
 20
24.000004585317601
 30
0.0
 40
79.999999999972701
  1
枝管バリエーション
 41
0.75
1001
ACDBBLOCKREPETAG
1070
     1
1071
      119
1005
1255E0
  0
LINE
  5
12958A
  8
SLIM
 10
4414.9999999999918
 20
-659.47385309434651
 30
0.0
 11
4419.4738530943396
 21
-654.99999999999898
 31
0.0
1001
ACAD
1010
0.0
1020
0.0
1030
0.0
1001
ACDBBLOCKREPETAG
1070
     1
1071
        0
1005
0
  0
LINE
  5
12958B
  8
SLIM
 10
4414.9999999999927
 20
-677.43436533648412
 30
0.0
 11
4437.4343653364776
 21
-654.99999999999898
 31
0.0
1001
ACAD
1010
0.0
1020
0.0
1030
0.0
1001
ACDBBLOCKREPETAG
1070
     1
1071
       11
1005
12958B
  0
LINE
  5
12958C
  8
SLIM
 10
4414.9999999999927
 20
-695.39487757862184
 30
0.0
 11
4455.3948775786157
 21
-654.99999999999898
 31
0.0
1001
ACAD
1010
0.0
1020
0.0
1030
0.0
1001
ACDBBLOCKREPETAG
1070
     1
1071
       12
1005
12958C
  0
LINE
  5
12958D
  8
SLIM
 10
4414.9999999999927
 20
-713.35538982075946
 30
0.0
 11
4473.3553898207538
 21
-654.99999999999898
 31
0.0
1001
ACAD
1010
0.0
1020
0.0
1030
0.0
1001
ACDBBLOCKREPETAG
1070
     1
1071
       13
1005
12958D
  0
LINE
  5
12958E
  8
SLIM
 10
4414.9999999999955
 20
-731.31590206289752
 30
0.0
 11
4491.3159020628918
 21
-654.99999999999898
 31
0.0
1001
ACAD
1010
0.0
1020
0.0
1030
0.0
1001
ACDBBLOCKREPETAG
1070
     1
1071
       14
1005
12958E
  0
LINE
  5
12958F
  8
SLIM
 10
4414.9999999999955
 20
-749.2764143050349
 30
0.0
 11
4509.2764143050308
 21
-654.99999999999898
 31
0.0
1001
ACAD
1010
0.0
1020
0.0
1030
0.0
1001
ACDBBLOCKREPETAG
1070
     1
1071
       15
1005
12958F
  0
LINE
  5
129590
  8
SLIM
 10
4414.9999999999973
 20
-767.23692654717274
 30
0.0
 11
4527.2369265471689
 21
-654.99999999999898
 31
0.0
1001
ACAD
1010
0.0
1020
0.0
1030
0.0
1001
ACDBBLOCKREPETAG
1070
     1
1071
       16
1005
129590
  0
LINE
  5
129591
  8
SLIM
 10
4414.9999999999973
 20
-785.19743878931035
 30
0.0
 11
4545.1974387893069
 21
-654.99999999999898
 31
0.0
1001
ACAD
1010
0.0
1020
0.0
1030
0.0
1001
ACDBBLOCKREPETAG
1070
     1
1071
       17
1005
129591
  0
LINE
  5
129592
  8
SLIM
 10
4414.9999999999973
 20
-803.15795103144842
 30
0.0
 11
4563.157951031445
 21
-654.99999999999898
 31
0.0
1001
ACAD
1010
0.0
1020
0.0
1030
0.0
1001
ACDBBLOCKREPETAG
1070
     1
1071
       18
1005
129592
  0
LINE
  5
129593
  8
SLIM
 10
4414.9999999999991
 20
-821.11846327358569
 30
0.0
 11
4581.1184632735849
 21
-654.99999999999898
 31
0.0
1001
ACAD
1010
0.0
1020
0.0
1030
0.0
1001
ACDBBLOCKREPETAG
1070
     1
1071
       19
1005
129593
  0
LINE
  5
129594
  8
SLIM
 10
4414.9999999999991
 20
-839.07897551572364
 30
0.0
 11
4585.0000000000073
 21
-669.07897551571557
 31
0.0
1001
ACAD
1010
0.0
1020
0.0
1030
0.0
1001
ACDBBLOCKREPETAG
1070
     1
1071
       20
1005
129594
  0
LINE
  5
129595
  8
SLIM
 10
4414.9999999999991
 20
-857.03948775786102
 30
0.0
 11
4585.0000000000073
 21
-687.03948775785454
 31
0.0
1001
ACAD
1010
0.0
1020
0.0
1030
0.0
1001
ACDBBLOCKREPETAG
1070
     1
1071
       21
1005
129595
  0
LINE
  5
129596
  8
SLIM
 10
4415.283600749558
 20
-874.7163992504411
 30
0.0
 11
4585.0000000000073
 21
-704.99999999999341
 31
0.0
1001
ACAD
1010
0.0
1020
0.0
1030
0.0
1001
ACDBBLOCKREPETAG
1070
     1
1071
       22
1005
129596
  0
LINE
  5
129597
  8
SLIM
 10
4417.4979104780414
 20
-890.46260176409623
 30
0.0
 11
4585.0000000000036
 21
-722.96051224213249
 31
0.0
1001
ACAD
1010
0.0
1020
0.0
1030
0.0
1001
ACDBBLOCKREPETAG
1070
     1
1071
       23
1005
129597
  0
LINE
  5
129598
  8
SLIM
 10
4419.712220206522
 20
-906.20880427775148
 30
0.0
 11
4585.0000000000036
 21
-740.92102448427136
 31
0.0
1001
ACAD
1010
0.0
1020
0.0
1030
0.0
1001
ACDBBLOCKREPETAG
1070
     1
1071
       24
1005
129598
  0
LINE
  5
129599
  8
SLIM
 10
4421.9265299350063
 20
-921.95500679140673
 30
0.0
 11
4585.0000000000009
 21
-758.88153672641022
 31
0.0
1001
ACAD
1010
0.0
1020
0.0
1030
0.0
1001
ACDBBLOCKREPETAG
1070
     1
1071
       25
1005
129599
  0
LINE
  5
12959A
  8
SLIM
 10
4424.1408396634888
 20
-937.70120930506232
 30
0.0
 11
4585.0000000000009
 21
-776.84204896854919
 31
0.0
1001
ACAD
1010
0.0
1020
0.0
1030
0.0
1001
ACDBBLOCKREPETAG
1070
     1
1071
       26
1005
12959A
  0
LINE
  5
12959B
  8
SLIM
 10
4426.3551493919731
 20
-953.44741181871746
 30
0.0
 11
4585.0000000000009
 21
-794.80256121068805
 31
0.0
1001
ACAD
1010
0.0
1020
0.0
1030
0.0
1001
ACDBBLOCKREPETAG
1070
     1
1071
       27
1005
12959B
  0
LINE
  5
12959C
  8
SLIM
 10
4428.5694591204547
 20
-969.19361433237282
 30
0.0
 11
4585.0
 21
-812.76307345282669
 31
0.0
1001
ACAD
1010
0.0
1020
0.0
1030
0.0
1001
ACDBBLOCKREPETAG
1070
     1
1071
       28
1005
12959C
  0
LINE
  5
12959D
  8
SLIM
 10
4430.783768848939
 20
-984.93981684602795
 30
0.0
 11
4585.0
 21
-830.72358569496578
 31
0.0
1001
ACAD
1010
0.0
1020
0.0
1030
0.0
1001
ACDBBLOCKREPETAG
1070
     1
1071
       29
1005
12959D
  0
LINE
  5
12959E
  8
SLIM
 10
4432.9980785774223
 20
-1000.686019359683
 30
0.0
 11
4585.0
 21
-848.68409793710475
 31
0.0
1001
ACAD
1010
0.0
1020
0.0
1030
0.0
1001
ACDBBLOCKREPETAG
1070
     1
1071
       30
1005
12959E
  0
LINE
  5
12959F
  8
SLIM
 10
4443.0
 20
-1008.644610179244
 30
0.0
 11
4446.6446101792462
 21
-1004.999999999997
 31
0.0
1001
ACAD
1010
0.0
1020
0.0
1030
0.0
1001
ACDBBLOCKREPETAG
1070
     1
1071
       31
1005
12959F
  0
LINE
  5
1295A0
  8
SLIM
 10
4446.6446101792462
 20
-1004.999999999997
 30
0.0
 11
4585.0
 21
-866.64461017924339
 31
0.0
1001
ACAD
1010
0.0
1020
0.0
1030
0.0
1001
ACDBBLOCKREPETAG
1070
     1
1071
       32
1005
1295A0
  0
LINE
  5
1295A1
  8
SLIM
 10
4444.6051224213852
 20
-1024.999999999997
 30
0.0
 11
4464.6051224213852
 21
-1004.999999999997
 31
0.0
1001
ACAD
1010
0.0
1020
0.0
1030
0.0
1001
ACDBBLOCKREPETAG
1070
     1
1071
       33
1005
1295A1
  0
LINE
  5
1295A2
  8
SLIM
 10
4464.6051224213852
 20
-1004.999999999997
 30
0.0
 11
4583.0518371543658
 21
-886.55328526701646
 31
0.0
1001
ACAD
1010
0.0
1020
0.0
1030
0.0
1001
ACDBBLOCKREPETAG
1070
     1
1071
       34
1005
1295A2
  0
LINE
  5
1295A3
  8
SLIM
 10
4462.5656346635233
 20
-1024.999999999997
 30
0.0
 11
4482.5656346635233
 21
-1004.999999999997
 31
0.0
1001
ACAD
1010
0.0
1020
0.0
1030
0.0
1001
ACDBBLOCKREPETAG
1070
     1
1071
       35
1005
1295A3
  0
LINE
  5
1295A4
  8
SLIM
 10
4482.5656346635233
 20
-1004.999999999997
 30
0.0
 11
4580.1128442420149
 21
-907.45279042150435
 31
0.0
1001
ACAD
1010
0.0
1020
0.0
1030
0.0
1001
ACDBBLOCKREPETAG
1070
     1
1071
       36
1005
1295A4
  0
LINE
  5
1295A5
  8
SLIM
 10
4480.5261469056622
 20
-1024.999999999997
 30
0.0
 11
4500.5261469056613
 21
-1004.999999999997
 31
0.0
1001
ACAD
1010
0.0
1020
0.0
1030
0.0
1001
ACDBBLOCKREPETAG
1070
     1
1071
       37
1005
1295A5
  0
LINE
  5
1295A6
  8
SLIM
 10
4500.5261469056613
 20
-1004.999999999997
 30
0.0
 11
4577.1738513296659
 21
-928.35229557599246
 31
0.0
1001
ACAD
1010
0.0
1020
0.0
1030
0.0
1001
ACDBBLOCKREPETAG
1070
     1
1071
       38
1005
1295A6
  0
LINE
  5
1295A7
  8
SLIM
 10
4498.4866591478003
 20
-1024.999999999997
 30
0.0
 11
4518.4866591478003
 21
-1004.999999999997
 31
0.0
1001
ACAD
1010
0.0
1020
0.0
1030
0.0
1001
ACDBBLOCKREPETAG
1070
     1
1071
       39
1005
1295A7
  0
LINE
  5
1295A8
  8
SLIM
 10
4518.4866591478003
 20
-1004.999999999997
 30
0.0
 11
4574.2348584173151
 21
-949.25180073048068
 31
0.0
1001
ACAD
1010
0.0
1020
0.0
1030
0.0
1001
ACDBBLOCKREPETAG
1070
     1
1071
       40
1005
1295A8
  0
LINE
  5
1295A9
  8
SLIM
 10
4516.4471713899366
 20
-1024.999999999997
 30
0.0
 11
4536.4471713899366
 21
-1004.999999999997
 31
0.0
1001
ACAD
1010
0.0
1020
0.0
1030
0.0
1001
ACDBBLOCKREPETAG
1070
     1
1071
       41
1005
1295A9
  0
LINE
  5
1295AA
  8
SLIM
 10
4536.4471713899366
 20
-1004.999999999997
 30
0.0
 11
4571.295865504967
 21
-970.15130588496891
 31
0.0
1001
ACAD
1010
0.0
1020
0.0
1030
0.0
1001
ACDBBLOCKREPETAG
1070
     1
1071
       42
1005
1295AA
  0
LINE
  5
1295AB
  8
SLIM
 10
4534.4076836320774
 20
-1024.999999999997
 30
0.0
 11
4554.4076836320774
 21
-1004.999999999997
 31
0.0
1001
ACAD
1010
0.0
1020
0.0
1030
0.0
1001
ACDBBLOCKREPETAG
1070
     1
1071
       43
1005
1295AB
  0
LINE
  5
1295AC
  8
SLIM
 10
4554.4076836320774
 20
-1004.999999999997
 30
0.0
 11
4568.356872592617
 21
-991.05081103945702
 31
0.0
1001
ACAD
1010
0.0
1020
0.0
1030
0.0
1001
ACDBBLOCKREPETAG
1070
     1
1071
       44
1005
1295AC
  0
LINE
  5
1295AD
  8
SLIM
 10
4552.3681958742154
 20
-1024.999999999997
 30
0.0
 11
4557.0
 21
-1020.368195874212
 31
0.0
1001
ACAD
1010
0.0
1020
0.0
1030
0.0
1001
ACDBBLOCKREPETAG
1070
     1
1071
       45
1005
1295AD
  0
LINE
  5
1295AE
  8
OBJECT
 10
4443.0
 20
-1024.999999999997
 30
0.0
 11
4557.0
 21
-1024.999999999997
 31
0.0
1001
ACDBBLOCKREPETAG
1070
     1
1071
        1
1005
1295AE
  0
LINE
  5
1295AF
  8
OBJECT
 10
4433.6047321049664
 20
-1004.999999999997
 30
0.0
 11
4566.3952678950409
 21
-1004.999999999997
 31
0.0
1001
ACDBBLOCKREPETAG
1070
     1
1071
        2
1005
1295AF
  0
LINE
  5
1295B0
  8
OBJECT
 10
4443.0
 20
-1024.999999999997
 30
0.0
 11
4443.0
 21
-1004.999999999997
 31
0.0
1001
ACDBBLOCKREPETAG
1070
     1
1071
        3
1005
1295B0
  0
LINE
  5
1295B1
  8
OBJECT
 10
4557.0
 20
-1024.999999999997
 30
0.0
 11
4557.0
 21
-1004.999999999997
 31
0.0
1001
ACDBBLOCKREPETAG
1070
     1
1071
        4
1005
1295B1
  0
LINE
  5
1295B2
  8
OBJECT
 10
4414.9999999999918
 20
-654.99999999999898
 30
0.0
 11
4415.0
 21
-872.69968280914043
 31
0.0
1001
ACDBBLOCKREPETAG
1070
     1
1071
        5
1005
1295B2
  0
LINE
  5
1295B3
  8
OBJECT
 10
4585.0000000000073
 20
-654.99999999999898
 30
0.0
 11
4585.0
 21
-872.69968280917135
 31
0.0
1001
ACDBBLOCKREPETAG
1070
     1
1071
        6
1005
1295B3
  0
LINE
  5
1295B4
  8
OBJECT
 10
4415.0
 20
-872.69968280914043
 30
0.0
 11
4433.6047321049664
 21
-1004.999999999997
 31
0.0
1001
ACDBBLOCKREPETAG
1070
     1
1071
        7
1005
1295B4
  0
LINE
  5
1295B5
  8
OBJECT
 10
4566.3952678950409
 20
-1004.999999999997
 30
0.0
 11
4585.0
 21
-872.69968280917135
 31
0.0
1001
ACDBBLOCKREPETAG
1070
     1
1071
        8
1005
1295B5
  0
LINE
  5
1295B6
  8
OBJECT
 10
4585.0000000000073
 20
-654.99999999999898
 30
0.0
 11
4414.9999999999918
 21
-654.99999999999898
 31
0.0
1001
ACDBBLOCKREPETAG
1070
     1
1071
        9
1005
1295B6
  0
LINE
  5
1295B7
  8
SLIM
 10
3914.9999999999941
 20
-659.47385309434651
 30
0.0
 11
3919.47385309434
 21
-654.99999999999898
 31
0.0
1001
ACAD
1010
0.0
1020
0.0
1030
0.0
1001
ACDBBLOCKREPETAG
1070
     1
1071
        0
1005
0
  0
LINE
  5
1295B8
  8
SLIM
 10
3914.9999999999941
 20
-677.43436533648412
 30
0.0
 11
3937.434365336479
 21
-654.99999999999898
 31
0.0
1001
ACAD
1010
0.0
1020
0.0
1030
0.0
1001
ACDBBLOCKREPETAG
1070
     1
1071
       11
1005
1295B8
  0
LINE
  5
1295B9
  8
SLIM
 10
3914.9999999999941
 20
-695.39487757862184
 30
0.0
 11
3955.394877578618
 21
-654.99999999999898
 31
0.0
1001
ACAD
1010
0.0
1020
0.0
1030
0.0
1001
ACDBBLOCKREPETAG
1070
     1
1071
       12
1005
1295B9
  0
LINE
  5
1295BA
  8
SLIM
 10
3914.999999999995
 20
-713.35538982075946
 30
0.0
 11
3973.3553898207551
 21
-654.99999999999898
 31
0.0
1001
ACAD
1010
0.0
1020
0.0
1030
0.0
1001
ACDBBLOCKREPETAG
1070
     1
1071
       13
1005
1295BA
  0
LINE
  5
1295BB
  8
SLIM
 10
3914.999999999995
 20
-731.31590206289752
 30
0.0
 11
3991.3159020628941
 21
-654.99999999999898
 31
0.0
1001
ACAD
1010
0.0
1020
0.0
1030
0.0
1001
ACDBBLOCKREPETAG
1070
     1
1071
       14
1005
1295BB
  0
LINE
  5
1295BC
  8
SLIM
 10
3914.9999999999968
 20
-749.2764143050349
 30
0.0
 11
4009.2764143050308
 21
-654.99999999999898
 31
0.0
1001
ACAD
1010
0.0
1020
0.0
1030
0.0
1001
ACDBBLOCKREPETAG
1070
     1
1071
       15
1005
1295BC
  0
LINE
  5
1295BD
  8
SLIM
 10
3914.9999999999968
 20
-767.23692654717274
 30
0.0
 11
4027.2369265471689
 21
-654.99999999999898
 31
0.0
1001
ACAD
1010
0.0
1020
0.0
1030
0.0
1001
ACDBBLOCKREPETAG
1070
     1
1071
       16
1005
1295BD
  0
LINE
  5
1295BE
  8
SLIM
 10
3914.9999999999968
 20
-785.19743878931035
 30
0.0
 11
4045.1974387893069
 21
-654.99999999999898
 31
0.0
1001
ACAD
1010
0.0
1020
0.0
1030
0.0
1001
ACDBBLOCKREPETAG
1070
     1
1071
       17
1005
1295BE
  0
LINE
  5
1295BF
  8
SLIM
 10
3914.9999999999991
 20
-803.15795103144842
 30
0.0
 11
4063.157951031445
 21
-654.99999999999898
 31
0.0
1001
ACAD
1010
0.0
1020
0.0
1030
0.0
1001
ACDBBLOCKREPETAG
1070
     1
1071
       18
1005
1295BF
  0
LINE
  5
1295C0
  8
SLIM
 10
3914.9999999999991
 20
-821.11846327358569
 30
0.0
 11
4081.1184632735849
 21
-654.99999999999898
 31
0.0
1001
ACAD
1010
0.0
1020
0.0
1030
0.0
1001
ACDBBLOCKREPETAG
1070
     1
1071
       19
1005
1295C0
  0
LINE
  5
1295C1
  8
SLIM
 10
3914.9999999999991
 20
-839.07897551572364
 30
0.0
 11
4085.0000000000068
 21
-669.07897551571557
 31
0.0
1001
ACAD
1010
0.0
1020
0.0
1030
0.0
1001
ACDBBLOCKREPETAG
1070
     1
1071
       20
1005
1295C1
  0
LINE
  5
1295C2
  8
SLIM
 10
3915.0
 20
-857.03948775786102
 30
0.0
 11
4085.0000000000068
 21
-687.03948775785454
 31
0.0
1001
ACAD
1010
0.0
1020
0.0
1030
0.0
1001
ACDBBLOCKREPETAG
1070
     1
1071
       21
1005
1295C2
  0
LINE
  5
1295C3
  8
SLIM
 10
3915.283600749558
 20
-874.7163992504411
 30
0.0
 11
4085.0000000000059
 21
-704.99999999999341
 31
0.0
1001
ACAD
1010
0.0
1020
0.0
1030
0.0
1001
ACDBBLOCKREPETAG
1070
     1
1071
       22
1005
1295C3
  0
LINE
  5
1295C4
  8
SLIM
 10
3917.4979104780409
 20
-890.46260176409623
 30
0.0
 11
4085.000000000005
 21
-722.96051224213249
 31
0.0
1001
ACAD
1010
0.0
1020
0.0
1030
0.0
1001
ACDBBLOCKREPETAG
1070
     1
1071
       23
1005
1295C4
  0
LINE
  5
1295C5
  8
SLIM
 10
3919.7122202065239
 20
-906.20880427775148
 30
0.0
 11
4085.0000000000041
 21
-740.92102448427136
 31
0.0
1001
ACAD
1010
0.0
1020
0.0
1030
0.0
1001
ACDBBLOCKREPETAG
1070
     1
1071
       24
1005
1295C5
  0
LINE
  5
1295C6
  8
SLIM
 10
3921.9265299350068
 20
-921.95500679140673
 30
0.0
 11
4085.0000000000032
 21
-758.88153672641022
 31
0.0
1001
ACAD
1010
0.0
1020
0.0
1030
0.0
1001
ACDBBLOCKREPETAG
1070
     1
1071
       25
1005
1295C6
  0
LINE
  5
1295C7
  8
SLIM
 10
3924.1408396634902
 20
-937.70120930506232
 30
0.0
 11
4085.0000000000032
 21
-776.84204896854919
 31
0.0
1001
ACAD
1010
0.0
1020
0.0
1030
0.0
1001
ACDBBLOCKREPETAG
1070
     1
1071
       26
1005
1295C7
  0
LINE
  5
1295C8
  8
SLIM
 10
3926.3551493919731
 20
-953.44741181871746
 30
0.0
 11
4085.0000000000032
 21
-794.80256121068805
 31
0.0
1001
ACAD
1010
0.0
1020
0.0
1030
0.0
1001
ACDBBLOCKREPETAG
1070
     1
1071
       27
1005
1295C8
  0
LINE
  5
1295C9
  8
SLIM
 10
3928.569459120456
 20
-969.19361433237282
 30
0.0
 11
4085.0000000000009
 21
-812.76307345282669
 31
0.0
1001
ACAD
1010
0.0
1020
0.0
1030
0.0
1001
ACDBBLOCKREPETAG
1070
     1
1071
       28
1005
1295C9
  0
LINE
  5
1295CA
  8
SLIM
 10
3930.783768848939
 20
-984.93981684602795
 30
0.0
 11
4085.0000000000009
 21
-830.72358569496578
 31
0.0
1001
ACAD
1010
0.0
1020
0.0
1030
0.0
1001
ACDBBLOCKREPETAG
1070
     1
1071
       29
1005
1295CA
  0
LINE
  5
1295CB
  8
SLIM
 10
3932.9980785774228
 20
-1000.686019359683
 30
0.0
 11
4085.0
 21
-848.68409793710475
 31
0.0
1001
ACAD
1010
0.0
1020
0.0
1030
0.0
1001
ACDBBLOCKREPETAG
1070
     1
1071
       30
1005
1295CB
  0
LINE
  5
1295CC
  8
SLIM
 10
3943.0
 20
-1008.644610179244
 30
0.0
 11
3946.6446101792471
 21
-1004.999999999997
 31
0.0
1001
ACAD
1010
0.0
1020
0.0
1030
0.0
1001
ACDBBLOCKREPETAG
1070
     1
1071
       31
1005
1295CC
  0
LINE
  5
1295CD
  8
SLIM
 10
3946.6446101792471
 20
-1004.999999999997
 30
0.0
 11
4085.0
 21
-866.64461017924339
 31
0.0
1001
ACAD
1010
0.0
1020
0.0
1030
0.0
1001
ACDBBLOCKREPETAG
1070
     1
1071
       32
1005
1295CD
  0
LINE
  5
1295CE
  8
SLIM
 10
3944.6051224213852
 20
-1024.999999999997
 30
0.0
 11
3964.6051224213852
 21
-1004.999999999997
 31
0.0
1001
ACAD
1010
0.0
1020
0.0
1030
0.0
1001
ACDBBLOCKREPETAG
1070
     1
1071
       33
1005
1295CE
  0
LINE
  5
1295CF
  8
SLIM
 10
3964.6051224213852
 20
-1004.999999999997
 30
0.0
 11
4083.0518371543649
 21
-886.55328526701646
 31
0.0
1001
ACAD
1010
0.0
1020
0.0
1030
0.0
1001
ACDBBLOCKREPETAG
1070
     1
1071
       34
1005
1295CF
  0
LINE
  5
1295D0
  8
SLIM
 10
3962.5656346635228
 20
-1024.999999999997
 30
0.0
 11
3982.5656346635242
 21
-1004.999999999997
 31
0.0
1001
ACAD
1010
0.0
1020
0.0
1030
0.0
1001
ACDBBLOCKREPETAG
1070
     1
1071
       35
1005
1295D0
  0
LINE
  5
1295D1
  8
SLIM
 10
3982.5656346635242
 20
-1004.999999999997
 30
0.0
 11
4080.1128442420149
 21
-907.45279042150435
 31
0.0
1001
ACAD
1010
0.0
1020
0.0
1030
0.0
1001
ACDBBLOCKREPETAG
1070
     1
1071
       36
1005
1295D1
  0
LINE
  5
1295D2
  8
SLIM
 10
3980.5261469056618
 20
-1024.999999999997
 30
0.0
 11
4000.5261469056609
 21
-1004.999999999997
 31
0.0
1001
ACAD
1010
0.0
1020
0.0
1030
0.0
1001
ACDBBLOCKREPETAG
1070
     1
1071
       37
1005
1295D2
  0
LINE
  5
1295D3
  8
SLIM
 10
4000.5261469056609
 20
-1004.999999999997
 30
0.0
 11
4077.173851329665
 21
-928.35229557599246
 31
0.0
1001
ACAD
1010
0.0
1020
0.0
1030
0.0
1001
ACDBBLOCKREPETAG
1070
     1
1071
       38
1005
1295D3
  0
LINE
  5
1295D4
  8
SLIM
 10
3998.4866591477999
 20
-1024.999999999997
 30
0.0
 11
4018.4866591477989
 21
-1004.999999999997
 31
0.0
1001
ACAD
1010
0.0
1020
0.0
1030
0.0
1001
ACDBBLOCKREPETAG
1070
     1
1071
       39
1005
1295D4
  0
LINE
  5
1295D5
  8
SLIM
 10
4018.4866591477989
 20
-1004.999999999997
 30
0.0
 11
4074.234858417316
 21
-949.25180073048068
 31
0.0
1001
ACAD
1010
0.0
1020
0.0
1030
0.0
1001
ACDBBLOCKREPETAG
1070
     1
1071
       40
1005
1295D5
  0
LINE
  5
1295D6
  8
SLIM
 10
4016.4471713899379
 20
-1024.999999999997
 30
0.0
 11
4036.4471713899361
 21
-1004.999999999997
 31
0.0
1001
ACAD
1010
0.0
1020
0.0
1030
0.0
1001
ACDBBLOCKREPETAG
1070
     1
1071
       41
1005
1295D6
  0
LINE
  5
1295D7
  8
SLIM
 10
4036.4471713899361
 20
-1004.999999999997
 30
0.0
 11
4071.295865504967
 21
-970.15130588496891
 31
0.0
1001
ACAD
1010
0.0
1020
0.0
1030
0.0
1001
ACDBBLOCKREPETAG
1070
     1
1071
       42
1005
1295D7
  0
LINE
  5
1295D8
  8
SLIM
 10
4034.4076836320769
 20
-1024.999999999997
 30
0.0
 11
4054.407683632076
 21
-1004.999999999997
 31
0.0
1001
ACAD
1010
0.0
1020
0.0
1030
0.0
1001
ACDBBLOCKREPETAG
1070
     1
1071
       43
1005
1295D8
  0
LINE
  5
1295D9
  8
SLIM
 10
4054.407683632076
 20
-1004.999999999997
 30
0.0
 11
4068.3568725926161
 21
-991.05081103945702
 31
0.0
1001
ACAD
1010
0.0
1020
0.0
1030
0.0
1001
ACDBBLOCKREPETAG
1070
     1
1071
       44
1005
1295D9
  0
LINE
  5
1295DA
  8
SLIM
 10
4052.368195874215
 20
-1024.999999999997
 30
0.0
 11
4057.0
 21
-1020.368195874212
 31
0.0
1001
ACAD
1010
0.0
1020
0.0
1030
0.0
1001
ACDBBLOCKREPETAG
1070
     1
1071
       45
1005
1295DA
  0
LINE
  5
1295DB
  8
OBJECT
 10
3943.0
 20
-1024.999999999997
 30
0.0
 11
4057.0
 21
-1024.999999999997
 31
0.0
1001
ACDBBLOCKREPETAG
1070
     1
1071
        1
1005
1295DB
  0
LINE
  5
1295DC
  8
OBJECT
 10
3933.604732104965
 20
-1004.999999999997
 30
0.0
 11
4066.3952678950409
 21
-1004.999999999997
 31
0.0
1001
ACDBBLOCKREPETAG
1070
     1
1071
        2
1005
1295DC
  0
LINE
  5
1295DD
  8
OBJECT
 10
3943.0
 20
-1024.999999999997
 30
0.0
 11
3943.0
 21
-1004.999999999997
 31
0.0
1001
ACDBBLOCKREPETAG
1070
     1
1071
        3
1005
1295DD
  0
LINE
  5
1295DE
  8
OBJECT
 10
4057.0
 20
-1024.999999999997
 30
0.0
 11
4057.0
 21
-1004.999999999997
 31
0.0
1001
ACDBBLOCKREPETAG
1070
     1
1071
        4
1005
1295DE
  0
LINE
  5
1295DF
  8
OBJECT
 10
3914.9999999999941
 20
-654.99999999999898
 30
0.0
 11
3915.0
 21
-872.69968280914043
 31
0.0
1001
ACDBBLOCKREPETAG
1070
     1
1071
        5
1005
1295DF
  0
LINE
  5
1295E0
  8
OBJECT
 10
4085.0000000000068
 20
-654.99999999999898
 30
0.0
 11
4085.0
 21
-872.69968280917135
 31
0.0
1001
ACDBBLOCKREPETAG
1070
     1
1071
        6
1005
1295E0
  0
LINE
  5
1295E1
  8
OBJECT
 10
3915.0
 20
-872.69968280914043
 30
0.0
 11
3933.604732104965
 21
-1004.999999999997
 31
0.0
1001
ACDBBLOCKREPETAG
1070
     1
1071
        7
1005
1295E1
  0
LINE
  5
1295E2
  8
OBJECT
 10
4066.3952678950409
 20
-1004.999999999997
 30
0.0
 11
4085.0
 21
-872.69968280917135
 31
0.0
1001
ACDBBLOCKREPETAG
1070
     1
1071
        8
1005
1295E2
  0
LINE
  5
1295E3
  8
OBJECT
 10
4085.0000000000068
 20
-654.99999999999898
 30
0.0
 11
3914.9999999999941
 21
-654.99999999999898
 31
0.0
1001
ACDBBLOCKREPETAG
1070
     1
1071
        9
1005
1295E3
  0
LINE
  5
1295E4
  8
OBJECT
 10
4560.0
 20
-527.9999999999992
 30
0.0
 11
4440.0
 21
-527.9999999999992
 31
0.0
1001
ACDBBLOCKREPETAG
1070
     1
1071
      144
1005
1295E4
  0
ARC
  5
1295E5
  8
OBJECT
 10
4440.0
 20
-530.99999999999886
 30
0.0
 40
3.0
 50
90.0
 51
180.0
1001
ACDBBLOCKREPETAG
1070
     1
1071
      145
1005
1295E5
  0
LINE
  5
1295E6
  8
OBJECT
 10
4437.0
 20
-530.99999999999886
 30
0.0
 11
4437.0
 21
-533.99999999999898
 31
0.0
1001
ACDBBLOCKREPETAG
1070
     1
1071
      146
1005
1295E6
  0
LINE
  5
1295E7
  8
OBJECT
 10
4563.0
 20
-530.99999999999886
 30
0.0
 11
4563.0
 21
-533.99999999999898
 31
0.0
1001
ACDBBLOCKREPETAG
1070
     1
1071
      147
1005
1295E7
  0
ARC
  5
1295E8
  8
OBJECT
 10
4560.0
 20
-530.99999999999886
 30
0.0
 40
3.0
 50
0.0
 51
90.0
1001
ACDBBLOCKREPETAG
1070
     1
1071
      148
1005
1295E8
  0
LINE
  5
1295E9
  8
OBJECT
 10
4443.0
 20
-459.99999999999881
 30
0.0
 11
4443.0
 21
-527.9999999999992
 31
0.0
1001
ACDBBLOCKREPETAG
1070
     1
1071
      149
1005
1295E9
  0
LINE
  5
1295EA
  8
OBJECT
 10
4557.0
 20
-459.99999999999881
 30
0.0
 11
4443.0
 21
-459.99999999999881
 31
0.0
1001
ACDBBLOCKREPETAG
1070
     1
1071
      150
1005
1295EA
  0
LINE
  5
1295EB
  8
OBJECT
 10
4557.0
 20
-459.99999999999881
 30
0.0
 11
4557.0
 21
-527.9999999999992
 31
0.0
1001
ACDBBLOCKREPETAG
1070
     1
1071
      151
1005
1295EB
  0
LINE
  5
1295EC
  8
CENTER
 10
4500.0
 20
-444.99999999999909
 30
0.0
 11
4500.0
 21
-789.9999999999992
 31
0.0
1001
ACDBBLOCKREPETAG
1070
     1
1071
       20
1005
1295EC
  0
LINE
  5
1295ED
  8
OBJECT
 10
4425.0
 20
-533.99999999999898
 30
0.0
 11
4425.0
 21
-777.9999999999992
 31
0.0
1001
ACDBBLOCKREPETAG
1070
     1
1071
       21
1005
1295ED
  0
LINE
  5
1295EE
  8
OBJECT
 10
4420.0
 20
-777.9999999999992
 30
0.0
 11
4580.0
 21
-777.9999999999992
 31
0.0
1001
ACDBBLOCKREPETAG
1070
     1
1071
       22
1005
1295EE
  0
LINE
  5
1295EF
  8
OBJECT
 10
4574.9999999997144
 20
-533.99999999999898
 30
0.0
 11
4425.0
 21
-533.99999999999898
 31
0.0
1001
ACDBBLOCKREPETAG
1070
     1
1071
       23
1005
1295EF
  0
LINE
  5
1295F0
  8
OBJECT
 10
4420.0
 20
-777.9999999999992
 30
0.0
 11
4420.0
 21
-789.9999999999992
 31
0.0
1001
ACDBBLOCKREPETAG
1070
     1
1071
       24
1005
1295F0
  0
LINE
  5
1295F1
  8
OBJECT
 10
4420.0
 20
-789.9999999999992
 30
0.0
 11
4580.0
 21
-789.9999999999992
 31
0.0
1001
ACDBBLOCKREPETAG
1070
     1
1071
       25
1005
1295F1
  0
LINE
  5
1295F2
  8
OBJECT
 10
4580.0
 20
-789.9999999999992
 30
0.0
 11
4580.0
 21
-777.9999999999992
 31
0.0
1001
ACDBBLOCKREPETAG
1070
     1
1071
       26
1005
1295F2
  0
LINE
  5
1295F3
  8
OBJECT
 10
4574.9999999997144
 20
-533.99999999999898
 30
0.0
 11
4575.0
 21
-777.9999999999992
 31
0.0
1001
ACDBBLOCKREPETAG
1070
     1
1071
       28
1005
1295F3
  0
LINE
  5
1295F4
  8
HIDDEN
 10
4552.5
 20
-459.99999999999881
 30
0.0
 11
4552.5
 21
-533.99999999999898
 31
0.0
1001
ACDBBLOCKREPETAG
1070
     1
1071
      182
1005
1295F4
  0
LINE
  5
1295F5
  8
HIDDEN
 10
4447.5
 20
-459.99999999999881
 30
0.0
 11
4447.5
 21
-533.99999999999898
 31
0.0
1001
ACDBBLOCKREPETAG
1070
     1
1071
      183
1005
1295F5
  0
POINT
  5
1295F6
  8
DOTS
 10
4500.0
 20
-654.99999999999898
 30
0.0
1001
ACDBBLOCKREPETAG
1070
     1
1071
      190
1005
1295F6
  0
LINE
  5
1295F7
  8
OBJECT
 10
4060.0
 20
-527.9999999999992
 30
0.0
 11
3940.0
 21
-527.9999999999992
 31
0.0
1001
ACDBBLOCKREPETAG
1070
     1
1071
      136
1005
1295F7
  0
ARC
  5
1295F8
  8
OBJECT
 10
3940.0
 20
-530.99999999999886
 30
0.0
 40
3.0
 50
90.0
 51
180.0
1001
ACDBBLOCKREPETAG
1070
     1
1071
      137
1005
1295F8
  0
LINE
  5
1295F9
  8
OBJECT
 10
3937.0
 20
-530.99999999999886
 30
0.0
 11
3937.0
 21
-533.99999999999898
 31
0.0
1001
ACDBBLOCKREPETAG
1070
     1
1071
      138
1005
1295F9
  0
LINE
  5
1295FA
  8
OBJECT
 10
4063.0
 20
-530.99999999999886
 30
0.0
 11
4063.0
 21
-533.99999999999898
 31
0.0
1001
ACDBBLOCKREPETAG
1070
     1
1071
      139
1005
1295FA
  0
ARC
  5
1295FB
  8
OBJECT
 10
4060.0
 20
-530.99999999999886
 30
0.0
 40
3.0
 50
0.0
 51
90.0
1001
ACDBBLOCKREPETAG
1070
     1
1071
      140
1005
1295FB
  0
LINE
  5
1295FC
  8
OBJECT
 10
3943.0
 20
-459.99999999999881
 30
0.0
 11
3943.0
 21
-527.9999999999992
 31
0.0
1001
ACDBBLOCKREPETAG
1070
     1
1071
      141
1005
1295FC
  0
LINE
  5
1295FD
  8
OBJECT
 10
4057.0
 20
-459.99999999999881
 30
0.0
 11
3943.0
 21
-459.99999999999881
 31
0.0
1001
ACDBBLOCKREPETAG
1070
     1
1071
      142
1005
1295FD
  0
LINE
  5
1295FE
  8
OBJECT
 10
4057.0
 20
-459.99999999999881
 30
0.0
 11
4057.0
 21
-527.9999999999992
 31
0.0
1001
ACDBBLOCKREPETAG
1070
     1
1071
      143
1005
1295FE
  0
LINE
  5
1295FF
  8
CENTER
 10
4000.0
 20
-444.99999999999909
 30
0.0
 11
4000.0
 21
-789.9999999999992
 31
0.0
1001
ACDBBLOCKREPETAG
1070
     1
1071
        0
1005
1295FF
  0
LINE
  5
129600
  8
OBJECT
 10
3925.0
 20
-533.99999999999898
 30
0.0
 11
3925.0
 21
-777.9999999999992
 31
0.0
1001
ACDBBLOCKREPETAG
1070
     1
1071
        1
1005
129600
  0
LINE
  5
129601
  8
OBJECT
 10
3920.0
 20
-777.9999999999992
 30
0.0
 11
4080.0
 21
-777.9999999999992
 31
0.0
1001
ACDBBLOCKREPETAG
1070
     1
1071
        2
1005
129601
  0
LINE
  5
129602
  8
OBJECT
 10
4080.0
 20
-533.99999999999898
 30
0.0
 11
3925.0
 21
-533.99999999999898
 31
0.0
1001
ACDBBLOCKREPETAG
1070
     1
1071
        3
1005
129602
  0
LINE
  5
129603
  8
OBJECT
 10
3920.0
 20
-777.9999999999992
 30
0.0
 11
3920.0
 21
-789.9999999999992
 31
0.0
1001
ACDBBLOCKREPETAG
1070
     1
1071
        4
1005
129603
  0
LINE
  5
129604
  8
OBJECT
 10
3920.0
 20
-789.9999999999992
 30
0.0
 11
4080.0
 21
-789.9999999999992
 31
0.0
1001
ACDBBLOCKREPETAG
1070
     1
1071
        5
1005
129604
  0
LINE
  5
129605
  8
OBJECT
 10
4080.0
 20
-789.9999999999992
 30
0.0
 11
4080.0
 21
-777.9999999999992
 31
0.0
1001
ACDBBLOCKREPETAG
1070
     1
1071
        6
1005
129605
  0
LINE
  5
129606
  8
OBJECT
 10
4074.9999999998631
 20
-657.99999999984982
 30
0.0
 11
4075.0
 21
-777.9999999999992
 31
0.0
1001
ACDBBLOCKREPETAG
1070
     1
1071
        8
1005
129606
  0
LINE
  5
129607
  8
OBJECT
 10
4074.9999908029849
 20
-657.99998602702067
 30
0.0
 11
4080.0
 21
-657.99998602702067
 31
0.0
1001
ACDBBLOCKREPETAG
1070
     1
1071
        9
1005
129607
  0
ARC
  5
129608
  8
OBJECT
 10
4200.6872746716726
 20
-649.40809941010684
 30
0.0
 40
170.6350503965856
 50
137.44134459184301
 51
149.91949581337221
1001
ACDBBLOCKREPETAG
1070
     1
1071
       15
1005
129608
  0
ARC
  5
129609
  8
OBJECT
 10
4118.8455987040506
 20
-605.882726695364
 30
0.0
 40
78.072222021763665
 50
147.4551531038623
 51
164.66365997719231
1001
ACDBBLOCKREPETAG
1070
     1
1071
       16
1005
129609
  0
ARC
  5
12960A
  8
OBJECT
 10
4085.7554349608722
 20
-595.99999999999909
 30
0.0
 40
43.55353926885617
 50
165.68845230068339
 51
194.31154769931649
1001
ACDBBLOCKREPETAG
1070
     1
1071
       17
1005
12960A
  0
ARC
  5
12960B
  8
OBJECT
 10
4200.6872746716726
 20
-542.59190058989134
 30
0.0
 40
170.6350503965856
 50
210.08050418662771
 51
222.55865540815699
1001
ACDBBLOCKREPETAG
1070
     1
1071
       18
1005
12960B
  0
ARC
  5
12960C
  8
OBJECT
 10
4118.8455987040506
 20
-586.11727330463395
 30
0.0
 40
78.072222021763665
 50
195.33634002280749
 51
212.5448468961377
1001
ACDBBLOCKREPETAG
1070
     1
1071
       19
1005
12960C
  0
LINE
  5
12960D
  8
HIDDEN
 10
4052.5
 20
-459.99999999999881
 30
0.0
 11
4052.5
 21
-533.99999999999898
 31
0.0
1001
ACDBBLOCKREPETAG
1070
     1
1071
      180
1005
12960D
  0
LINE
  5
12960E
  8
HIDDEN
 10
3947.5
 20
-459.99999999999881
 30
0.0
 11
3947.5
 21
-533.99999999999898
 31
0.0
1001
ACDBBLOCKREPETAG
1070
     1
1071
      181
1005
12960E
  0
POINT
  5
12960F
  8
DOTS
 10
4000.0
 20
-654.99999999999898
 30
0.0
1001
ACDBBLOCKREPETAG
1070
     1
1071
      189
1005
12960F
  0
LINE
  5
129610
  8
OBJECT
 10
2560.0
 20
-527.99999999999955
 30
0.0
 11
2440.0
 21
-527.99999999999955
 31
0.0
1001
ACDBBLOCKREPETAG
1070
     1
1071
      144
1005
129610
  0
ARC
  5
129611
  8
OBJECT
 10
2440.0
 20
-530.99999999999955
 30
0.0
 40
3.0
 50
90.0
 51
180.0
1001
ACDBBLOCKREPETAG
1070
     1
1071
      145
1005
129611
  0
LINE
  5
129612
  8
OBJECT
 10
2437.0
 20
-530.99999999999955
 30
0.0
 11
2437.0
 21
-533.99999999999955
 31
0.0
1001
ACDBBLOCKREPETAG
1070
     1
1071
      146
1005
129612
  0
LINE
  5
129613
  8
OBJECT
 10
2563.0
 20
-530.99999999999955
 30
0.0
 11
2563.0
 21
-533.99999999999955
 31
0.0
1001
ACDBBLOCKREPETAG
1070
     1
1071
      147
1005
129613
  0
ARC
  5
129614
  8
OBJECT
 10
2560.0
 20
-530.99999999999955
 30
0.0
 40
3.0
 50
0.0
 51
90.0
1001
ACDBBLOCKREPETAG
1070
     1
1071
      148
1005
129614
  0
LINE
  5
129615
  8
OBJECT
 10
2443.0
 20
-459.99999999999949
 30
0.0
 11
2443.0
 21
-527.99999999999955
 31
0.0
1001
ACDBBLOCKREPETAG
1070
     1
1071
      149
1005
129615
  0
LINE
  5
129616
  8
OBJECT
 10
2557.0
 20
-459.99999999999949
 30
0.0
 11
2443.0
 21
-459.99999999999949
 31
0.0
1001
ACDBBLOCKREPETAG
1070
     1
1071
      150
1005
129616
  0
LINE
  5
129617
  8
OBJECT
 10
2557.0
 20
-459.99999999999949
 30
0.0
 11
2557.0
 21
-527.99999999999955
 31
0.0
1001
ACDBBLOCKREPETAG
1070
     1
1071
      151
1005
129617
  0
LINE
  5
129618
  8
CENTER
 10
2500.0
 20
-444.99999999999937
 30
0.0
 11
2500.0
 21
-789.99999999999955
 31
0.0
1001
ACDBBLOCKREPETAG
1070
     1
1071
       20
1005
129618
  0
LINE
  5
129619
  8
OBJECT
 10
2425.0
 20
-533.99999999999955
 30
0.0
 11
2425.0
 21
-777.99999999999955
 31
0.0
1001
ACDBBLOCKREPETAG
1070
     1
1071
       21
1005
129619
  0
LINE
  5
12961A
  8
OBJECT
 10
2420.0
 20
-777.99999999999955
 30
0.0
 11
2580.0
 21
-777.99999999999955
 31
0.0
1001
ACDBBLOCKREPETAG
1070
     1
1071
       22
1005
12961A
  0
LINE
  5
12961B
  8
OBJECT
 10
2574.9999999997131
 20
-533.99999999999955
 30
0.0
 11
2425.0
 21
-533.99999999999955
 31
0.0
1001
ACDBBLOCKREPETAG
1070
     1
1071
       23
1005
12961B
  0
LINE
  5
12961C
  8
OBJECT
 10
2420.0
 20
-777.99999999999955
 30
0.0
 11
2420.0
 21
-789.99999999999955
 31
0.0
1001
ACDBBLOCKREPETAG
1070
     1
1071
       24
1005
12961C
  0
LINE
  5
12961D
  8
OBJECT
 10
2420.0
 20
-789.99999999999955
 30
0.0
 11
2580.0
 21
-789.99999999999955
 31
0.0
1001
ACDBBLOCKREPETAG
1070
     1
1071
       25
1005
12961D
  0
LINE
  5
12961E
  8
OBJECT
 10
2580.0
 20
-789.99999999999955
 30
0.0
 11
2580.0
 21
-777.99999999999955
 31
0.0
1001
ACDBBLOCKREPETAG
1070
     1
1071
       26
1005
12961E
  0
LINE
  5
12961F
  8
OBJECT
 10
2574.9999999997131
 20
-533.99999999999955
 30
0.0
 11
2575.0
 21
-777.99999999999955
 31
0.0
1001
ACDBBLOCKREPETAG
1070
     1
1071
       28
1005
12961F
  0
LINE
  5
129620
  8
HIDDEN
 10
2552.5
 20
-459.99999999999949
 30
0.0
 11
2552.5
 21
-533.99999999999955
 31
0.0
1001
ACDBBLOCKREPETAG
1070
     1
1071
      182
1005
129620
  0
LINE
  5
129621
  8
HIDDEN
 10
2447.5
 20
-459.99999999999949
 30
0.0
 11
2447.5
 21
-533.99999999999955
 31
0.0
1001
ACDBBLOCKREPETAG
1070
     1
1071
      183
1005
129621
  0
POINT
  5
129622
  8
DOTS
 10
2500.0
 20
-654.99999999999966
 30
0.0
1001
ACDBBLOCKREPETAG
1070
     1
1071
      190
1005
129622
  0
LINE
  5
129623
  8
OBJECT
 10
2060.0
 20
-527.99999999999955
 30
0.0
 11
1940.0
 21
-527.99999999999955
 31
0.0
1001
ACDBBLOCKREPETAG
1070
     1
1071
      136
1005
129623
  0
ARC
  5
129624
  8
OBJECT
 10
1940.0
 20
-530.99999999999955
 30
0.0
 40
3.0
 50
90.0
 51
180.0
1001
ACDBBLOCKREPETAG
1070
     1
1071
      137
1005
129624
  0
LINE
  5
129625
  8
OBJECT
 10
1937.0
 20
-530.99999999999955
 30
0.0
 11
1937.0
 21
-533.99999999999955
 31
0.0
1001
ACDBBLOCKREPETAG
1070
     1
1071
      138
1005
129625
  0
LINE
  5
129626
  8
OBJECT
 10
2063.0
 20
-530.99999999999955
 30
0.0
 11
2063.0
 21
-533.99999999999955
 31
0.0
1001
ACDBBLOCKREPETAG
1070
     1
1071
      139
1005
129626
  0
ARC
  5
129627
  8
OBJECT
 10
2060.0
 20
-530.99999999999955
 30
0.0
 40
3.0
 50
0.0
 51
90.0
1001
ACDBBLOCKREPETAG
1070
     1
1071
      140
1005
129627
  0
LINE
  5
129628
  8
OBJECT
 10
1943.0
 20
-459.99999999999949
 30
0.0
 11
1943.0
 21
-527.99999999999955
 31
0.0
1001
ACDBBLOCKREPETAG
1070
     1
1071
      141
1005
129628
  0
LINE
  5
129629
  8
OBJECT
 10
2057.0
 20
-459.99999999999949
 30
0.0
 11
1943.0
 21
-459.99999999999949
 31
0.0
1001
ACDBBLOCKREPETAG
1070
     1
1071
      142
1005
129629
  0
LINE
  5
12962A
  8
OBJECT
 10
2057.0
 20
-459.99999999999949
 30
0.0
 11
2057.0
 21
-527.99999999999955
 31
0.0
1001
ACDBBLOCKREPETAG
1070
     1
1071
      143
1005
12962A
  0
LINE
  5
12962B
  8
CENTER
 10
2000.0
 20
-444.99999999999937
 30
0.0
 11
2000.0
 21
-789.99999999999955
 31
0.0
1001
ACDBBLOCKREPETAG
1070
     1
1071
        0
1005
12962B
  0
LINE
  5
12962C
  8
OBJECT
 10
1925.0
 20
-533.99999999999955
 30
0.0
 11
1925.0
 21
-777.99999999999955
 31
0.0
1001
ACDBBLOCKREPETAG
1070
     1
1071
        1
1005
12962C
  0
LINE
  5
12962D
  8
OBJECT
 10
1920.0
 20
-777.99999999999955
 30
0.0
 11
2080.0
 21
-777.99999999999955
 31
0.0
1001
ACDBBLOCKREPETAG
1070
     1
1071
        2
1005
12962D
  0
LINE
  5
12962E
  8
OBJECT
 10
2080.0
 20
-533.99999999999955
 30
0.0
 11
1925.0
 21
-533.99999999999955
 31
0.0
1001
ACDBBLOCKREPETAG
1070
     1
1071
        3
1005
12962E
  0
LINE
  5
12962F
  8
OBJECT
 10
1920.0
 20
-777.99999999999955
 30
0.0
 11
1920.0
 21
-789.99999999999955
 31
0.0
1001
ACDBBLOCKREPETAG
1070
     1
1071
        4
1005
12962F
  0
LINE
  5
129630
  8
OBJECT
 10
1920.0
 20
-789.99999999999955
 30
0.0
 11
2080.0
 21
-789.99999999999955
 31
0.0
1001
ACDBBLOCKREPETAG
1070
     1
1071
        5
1005
129630
  0
LINE
  5
129631
  8
OBJECT
 10
2080.0
 20
-789.99999999999955
 30
0.0
 11
2080.0
 21
-777.99999999999955
 31
0.0
1001
ACDBBLOCKREPETAG
1070
     1
1071
        6
1005
129631
  0
LINE
  5
129632
  8
OBJECT
 10
2074.9999999998622
 20
-657.99999999985039
 30
0.0
 11
2075.0
 21
-777.99999999999955
 31
0.0
1001
ACDBBLOCKREPETAG
1070
     1
1071
        8
1005
129632
  0
LINE
  5
129633
  8
OBJECT
 10
2074.9999908029849
 20
-657.99998602702135
 30
0.0
 11
2080.0
 21
-657.99998602702135
 31
0.0
1001
ACDBBLOCKREPETAG
1070
     1
1071
        9
1005
129633
  0
ARC
  5
129634
  8
OBJECT
 10
2200.6872746716731
 20
-649.40809941010718
 30
0.0
 40
170.6350503965856
 50
137.44134459184301
 51
149.91949581336559
1001
ACDBBLOCKREPETAG
1070
     1
1071
       15
1005
129634
  0
ARC
  5
129635
  8
OBJECT
 10
2118.8455987040511
 20
-605.88272669536445
 30
0.0
 40
78.072222021763665
 50
147.4551531038623
 51
164.66365997719581
1001
ACDBBLOCKREPETAG
1070
     1
1071
       16
1005
129635
  0
ARC
  5
129636
  8
OBJECT
 10
2085.7554349608731
 20
-595.99999999999955
 30
0.0
 40
43.55353926885617
 50
165.6884523006803
 51
194.3115476993197
1001
ACDBBLOCKREPETAG
1070
     1
1071
       17
1005
129636
  0
ARC
  5
129637
  8
OBJECT
 10
2200.6872746716731
 20
-542.59190058989179
 30
0.0
 40
170.6350503965856
 50
210.0805041866343
 51
222.55865540815699
1001
ACDBBLOCKREPETAG
1070
     1
1071
       18
1005
129637
  0
ARC
  5
129638
  8
OBJECT
 10
2118.8455987040511
 20
-586.11727330463452
 30
0.0
 40
78.072222021763665
 50
195.33634002280411
 51
212.5448468961377
1001
ACDBBLOCKREPETAG
1070
     1
1071
       19
1005
129638
  0
LINE
  5
129639
  8
HIDDEN
 10
2052.5
 20
-459.99999999999949
 30
0.0
 11
2052.5
 21
-533.99999999999955
 31
0.0
1001
ACDBBLOCKREPETAG
1070
     1
1071
      180
1005
129639
  0
LINE
  5
12963A
  8
HIDDEN
 10
1947.5
 20
-459.99999999999949
 30
0.0
 11
1947.5
 21
-533.99999999999955
 31
0.0
1001
ACDBBLOCKREPETAG
1070
     1
1071
      181
1005
12963A
  0
POINT
  5
12963B
  8
DOTS
 10
2000.0
 20
-654.99999999999966
 30
0.0
1001
ACDBBLOCKREPETAG
1070
     1
1071
      189
1005
12963B
  0
LINE
  5
12963C
  8
OBJECT
 10
4443.0
 20
-1099.999999999995
 30
0.0
 11
4557.0
 21
-1099.999999999995
 31
0.0
1001
ACDBBLOCKREPETAG
1070
     1
1071
        0
1005
12963C
  0
LINE
  5
12963D
  8
OBJECT
 10
4443.0
 20
-1099.999999999995
 30
0.0
 11
4443.0
 21
-999.99999999999545
 31
0.0
1001
ACDBBLOCKREPETAG
1070
     1
1071
        1
1005
12963D
  0
LINE
  5
12963E
  8
OBJECT
 10
4557.0
 20
-1099.999999999995
 30
0.0
 11
4557.0
 21
-999.99999999999545
 31
0.0
1001
ACDBBLOCKREPETAG
1070
     1
1071
        2
1005
12963E
  0
LINE
  5
12963F
  8
OBJECT
 10
4443.0
 20
-999.99999999999545
 30
0.0
 11
4557.0
 21
-999.99999999999545
 31
0.0
1001
ACDBBLOCKREPETAG
1070
     1
1071
        3
1005
12963F
  0
LINE
  5
129640
  8
HIDDEN
 10
4450.0
 20
-999.99999999999545
 30
0.0
 11
4450.0
 21
-1099.999999999995
 31
0.0
1001
ACDBBLOCKREPETAG
1070
     1
1071
        4
1005
129640
  0
LINE
  5
129641
  8
HIDDEN
 10
4550.0
 20
-999.99999999999545
 30
0.0
 11
4550.0
 21
-1099.999999999995
 31
0.0
1001
ACDBBLOCKREPETAG
1070
     1
1071
        5
1005
129641
  0
LINE
  5
129642
  8
CENTER
 10
4500.0
 20
-789.9999999999992
 30
0.0
 11
4500.0
 21
-1114.999999999995
 31
0.0
1001
ACDBBLOCKREPETAG
1070
     1
1071
        6
1005
129642
  0
LINE
  5
129643
  8
OBJECT
 10
4425.0
 20
-789.9999999999992
 30
0.0
 11
4425.0
 21
-871.99999999999545
 31
0.0
1001
ACDBBLOCKREPETAG
1070
     1
1071
        7
1005
129643
  0
LINE
  5
129644
  8
OBJECT
 10
4575.0
 20
-789.9999999999992
 30
0.0
 11
4575.0
 21
-871.99999999999545
 31
0.0
1001
ACDBBLOCKREPETAG
1070
     1
1071
        8
1005
129644
  0
LINE
  5
129645
  8
OBJECT
 10
4425.0
 20
-871.99999999999545
 30
0.0
 11
4575.0
 21
-871.99999999999545
 31
0.0
1001
ACDBBLOCKREPETAG
1070
     1
1071
        9
1005
129645
  0
LINE
  5
129646
  8
OBJECT
 10
4425.0
 20
-871.99999999999545
 30
0.0
 11
4443.0
 21
-999.99999999999545
 31
0.0
1001
ACDBBLOCKREPETAG
1070
     1
1071
       10
1005
129646
  0
LINE
  5
129647
  8
OBJECT
 10
4557.0
 20
-999.99999999999545
 30
0.0
 11
4575.0
 21
-871.99999999999545
 31
0.0
1001
ACDBBLOCKREPETAG
1070
     1
1071
       11
1005
129647
  0
LINE
  5
129648
  8
OBJECT
 10
3943.0
 20
-1099.999999999995
 30
0.0
 11
4057.0
 21
-1099.999999999995
 31
0.0
1001
ACDBBLOCKREPETAG
1070
     1
1071
        0
1005
129648
  0
LINE
  5
129649
  8
OBJECT
 10
3943.0
 20
-1099.999999999995
 30
0.0
 11
3943.0
 21
-999.99999999999545
 31
0.0
1001
ACDBBLOCKREPETAG
1070
     1
1071
        1
1005
129649
  0
LINE
  5
12964A
  8
OBJECT
 10
4057.0
 20
-1099.999999999995
 30
0.0
 11
4057.0
 21
-999.99999999999545
 31
0.0
1001
ACDBBLOCKREPETAG
1070
     1
1071
        2
1005
12964A
  0
LINE
  5
12964B
  8
OBJECT
 10
3943.0
 20
-999.99999999999545
 30
0.0
 11
4057.0
 21
-999.99999999999545
 31
0.0
1001
ACDBBLOCKREPETAG
1070
     1
1071
        3
1005
12964B
  0
LINE
  5
12964C
  8
HIDDEN
 10
3950.0
 20
-999.99999999999545
 30
0.0
 11
3950.0
 21
-1099.999999999995
 31
0.0
1001
ACDBBLOCKREPETAG
1070
     1
1071
        4
1005
12964C
  0
LINE
  5
12964D
  8
HIDDEN
 10
4050.0
 20
-999.99999999999545
 30
0.0
 11
4050.0
 21
-1099.999999999995
 31
0.0
1001
ACDBBLOCKREPETAG
1070
     1
1071
        5
1005
12964D
  0
LINE
  5
12964E
  8
CENTER
 10
4000.0
 20
-789.9999999999992
 30
0.0
 11
4000.0
 21
-1114.999999999995
 31
0.0
1001
ACDBBLOCKREPETAG
1070
     1
1071
        6
1005
12964E
  0
LINE
  5
12964F
  8
OBJECT
 10
3925.0
 20
-789.9999999999992
 30
0.0
 11
3925.0
 21
-871.99999999999545
 31
0.0
1001
ACDBBLOCKREPETAG
1070
     1
1071
        7
1005
12964F
  0
LINE
  5
129650
  8
OBJECT
 10
4075.0
 20
-789.9999999999992
 30
0.0
 11
4075.0
 21
-871.99999999999545
 31
0.0
1001
ACDBBLOCKREPETAG
1070
     1
1071
        8
1005
129650
  0
LINE
  5
129651
  8
OBJECT
 10
3925.0
 20
-871.99999999999545
 30
0.0
 11
4075.0
 21
-871.99999999999545
 31
0.0
1001
ACDBBLOCKREPETAG
1070
     1
1071
        9
1005
129651
  0
LINE
  5
129652
  8
OBJECT
 10
3925.0
 20
-871.99999999999545
 30
0.0
 11
3943.0
 21
-999.99999999999545
 31
0.0
1001
ACDBBLOCKREPETAG
1070
     1
1071
       10
1005
129652
  0
LINE
  5
129653
  8
OBJECT
 10
4057.0
 20
-999.99999999999545
 30
0.0
 11
4075.0
 21
-871.99999999999545
 31
0.0
1001
ACDBBLOCKREPETAG
1070
     1
1071
       11
1005
129653
  0
LINE
  5
129654
  8
OBJECT
 10
2443.0
 20
-1099.9999999999959
 30
0.0
 11
2557.0
 21
-1099.9999999999959
 31
0.0
1001
ACDBBLOCKREPETAG
1070
     1
1071
        0
1005
129654
  0
LINE
  5
129655
  8
OBJECT
 10
2443.0
 20
-1099.9999999999959
 30
0.0
 11
2443.0
 21
-999.99999999999602
 31
0.0
1001
ACDBBLOCKREPETAG
1070
     1
1071
        1
1005
129655
  0
LINE
  5
129656
  8
OBJECT
 10
2557.0
 20
-1099.9999999999959
 30
0.0
 11
2557.0
 21
-999.99999999999602
 31
0.0
1001
ACDBBLOCKREPETAG
1070
     1
1071
        2
1005
129656
  0
LINE
  5
129657
  8
OBJECT
 10
2443.0
 20
-999.99999999999602
 30
0.0
 11
2557.0
 21
-999.99999999999602
 31
0.0
1001
ACDBBLOCKREPETAG
1070
     1
1071
        3
1005
129657
  0
LINE
  5
129658
  8
HIDDEN
 10
2450.0
 20
-999.99999999999602
 30
0.0
 11
2450.0
 21
-1099.9999999999959
 31
0.0
1001
ACDBBLOCKREPETAG
1070
     1
1071
        4
1005
129658
  0
LINE
  5
129659
  8
HIDDEN
 10
2550.0
 20
-999.99999999999602
 30
0.0
 11
2550.0
 21
-1099.9999999999959
 31
0.0
1001
ACDBBLOCKREPETAG
1070
     1
1071
        5
1005
129659
  0
LINE
  5
12965A
  8
CENTER
 10
2500.0
 20
-789.99999999999955
 30
0.0
 11
2500.0
 21
-1114.9999999999959
 31
0.0
1001
ACDBBLOCKREPETAG
1070
     1
1071
        6
1005
12965A
  0
LINE
  5
12965B
  8
OBJECT
 10
2425.0
 20
-789.99999999999955
 30
0.0
 11
2425.0
 21
-871.99999999999591
 31
0.0
1001
ACDBBLOCKREPETAG
1070
     1
1071
        7
1005
12965B
  0
LINE
  5
12965C
  8
OBJECT
 10
2575.0
 20
-789.99999999999955
 30
0.0
 11
2575.0
 21
-871.99999999999591
 31
0.0
1001
ACDBBLOCKREPETAG
1070
     1
1071
        8
1005
12965C
  0
LINE
  5
12965D
  8
OBJECT
 10
2425.0
 20
-871.99999999999591
 30
0.0
 11
2575.0
 21
-871.99999999999591
 31
0.0
1001
ACDBBLOCKREPETAG
1070
     1
1071
        9
1005
12965D
  0
LINE
  5
12965E
  8
OBJECT
 10
2425.0
 20
-871.99999999999591
 30
0.0
 11
2443.0
 21
-999.99999999999602
 31
0.0
1001
ACDBBLOCKREPETAG
1070
     1
1071
       10
1005
12965E
  0
LINE
  5
12965F
  8
OBJECT
 10
2557.0
 20
-999.99999999999602
 30
0.0
 11
2575.0
 21
-871.99999999999591
 31
0.0
1001
ACDBBLOCKREPETAG
1070
     1
1071
       11
1005
12965F
  0
LINE
  5
129660
  8
OBJECT
 10
1943.0
 20
-1099.9999999999959
 30
0.0
 11
2057.0
 21
-1099.9999999999959
 31
0.0
1001
ACDBBLOCKREPETAG
1070
     1
1071
        0
1005
129660
  0
LINE
  5
129661
  8
OBJECT
 10
1943.0
 20
-1099.9999999999959
 30
0.0
 11
1943.0
 21
-999.99999999999602
 31
0.0
1001
ACDBBLOCKREPETAG
1070
     1
1071
        1
1005
129661
  0
LINE
  5
129662
  8
OBJECT
 10
2057.0
 20
-1099.9999999999959
 30
0.0
 11
2057.0
 21
-999.99999999999602
 31
0.0
1001
ACDBBLOCKREPETAG
1070
     1
1071
        2
1005
129662
  0
LINE
  5
129663
  8
OBJECT
 10
1943.0
 20
-999.99999999999602
 30
0.0
 11
2057.0
 21
-999.99999999999602
 31
0.0
1001
ACDBBLOCKREPETAG
1070
     1
1071
        3
1005
129663
  0
LINE
  5
129664
  8
HIDDEN
 10
1950.0
 20
-999.99999999999602
 30
0.0
 11
1950.0
 21
-1099.9999999999959
 31
0.0
1001
ACDBBLOCKREPETAG
1070
     1
1071
        4
1005
129664
  0
LINE
  5
129665
  8
HIDDEN
 10
2050.0
 20
-999.99999999999602
 30
0.0
 11
2050.0
 21
-1099.9999999999959
 31
0.0
1001
ACDBBLOCKREPETAG
1070
     1
1071
        5
1005
129665
  0
LINE
  5
129666
  8
CENTER
 10
2000.0
 20
-789.99999999999955
 30
0.0
 11
2000.0
 21
-1114.9999999999959
 31
0.0
1001
ACDBBLOCKREPETAG
1070
     1
1071
        6
1005
129666
  0
LINE
  5
129667
  8
OBJECT
 10
1925.0
 20
-789.99999999999955
 30
0.0
 11
1925.0
 21
-871.99999999999591
 31
0.0
1001
ACDBBLOCKREPETAG
1070
     1
1071
        7
1005
129667
  0
LINE
  5
129668
  8
OBJECT
 10
2075.0
 20
-789.99999999999955
 30
0.0
 11
2075.0
 21
-871.99999999999591
 31
0.0
1001
ACDBBLOCKREPETAG
1070
     1
1071
        8
1005
129668
  0
LINE
  5
129669
  8
OBJECT
 10
1925.0
 20
-871.99999999999591
 30
0.0
 11
2075.0
 21
-871.99999999999591
 31
0.0
1001
ACDBBLOCKREPETAG
1070
     1
1071
        9
1005
129669
  0
LINE
  5
12966A
  8
OBJECT
 10
1925.0
 20
-871.99999999999591
 30
0.0
 11
1943.0
 21
-999.99999999999602
 31
0.0
1001
ACDBBLOCKREPETAG
1070
     1
1071
       10
1005
12966A
  0
LINE
  5
12966B
  8
OBJECT
 10
2057.0
 20
-999.99999999999602
 30
0.0
 11
2075.0
 21
-871.99999999999591
 31
0.0
1001
ACDBBLOCKREPETAG
1070
     1
1071
       11
1005
12966B
  0
TEXT
  5
12966C
  8
SLIM
 10
3771.4000000000001
 20
-1430.666666666664
 30
0.0
 40
28.0
  1
※ 対応スラブ厚　180｛150｝～340
 41
0.75
  0
TEXT
  5
12966D
  8
SLIM
 10
3733.3000000000011
 20
-1477.333333333331
 30
0.0
 40
28.0
  1
｛｝内はカンペイ立て管との組み合わせの場合
 41
0.75
  0
TEXT
  5
12966E
  8
SLIM
 10
3611.4999999999991
 20
-1570.666666666664
 30
0.0
 40
28.0
  1
国土交通大臣認定・（財）日本消防設備安全センター性能評定取得品
 41
0.75
  0
TEXT
  5
12966F
  8
SLIM
 10
3631.1000000000022
 20
-1617.333333333331
 30
0.0
 40
28.0
  1
注）ご採用にあたり、認定書及び評定書の内容をご確認ください。
 41
0.75
  0
TEXT
  5
129670
  8
SLIM
 10
3741.625
 20
-1367.499999999997
 30
0.0
 40
35.0
  1
片受けスタイル（S）＋シンドカット
 41
0.75
  0
TEXT
  5
129671
  8
SLIM
 10
1856.25
 20
-1367.499999999998
 30
0.0
 40
35.0
  1
片受けスタイル（S）
 41
0.75
  0
TEXT
  5
129672
  8
SLIM
 10
0.0
 20
370.0
 30
0.0
 40
100.0
  1
4SSLT-AX-S
 41
0.75
  0
VIEWPORT
  5
F6BA7
 67
     1
  8
0
 10
163.0024027789494
 20
101.8328354358673
 30
0.0
 40
369.34663245053321
 41
222.19657968139651
 68
     1
 69
     1
1001
ACAD
1000
MVIEW
1002
{
1070
    16
1010
0.0
1020
0.0
1030
0.0
1010
0.0
1020
0.0
1030
1.0
1040
0.0
1040
222.19657968139651
1040
163.0024027789494
1040
101.8328354358673
1040
50.0
1040
0.0
1040
0.0
1070
     0
1070
     0
1070
     1
1070
     1
1070
     0
1070
     0
1070
     0
1070
     0
1040
0.0
1040
0.0
1040
0.0
1040
10.0
1040
10.0
1040
10.0
1040
10.0
1070
     0
1002
{
1002
}
1002
}
  0
VIEWPORT
  5
F6BA9
 67
     1
  8
OBJECT
 10
145.3303314447403
 20
101.8328338861465
 30
0.0
 40
232.5285303115844
 41
162.93253421783439
 68
     2
 69
     2
1001
ACAD
1000
MVIEW
1002
{
1070
    16
1010
0.0
1020
0.0
1030
0.0
1010
0.0
1020
0.0
1030
1.0
1040
0.0
1040
25942.55904403147
1040
2377.604457077377
1040
-7591.5176687056619
1040
50.0
1040
0.0
1040
0.0
1070
     0
1070
   600
1070
     1
1070
     1
1070
     0
1070
     0
1070
     0
1070
     0
1040
0.0
1040
0.0
1040
0.0
1040
1.0
1040
1.0
1040
0.0
1040
0.0
1070
     0
1002
{
1002
}
1002
}
  0
ENDSEC
  0
EOF
