  0
SECTION
  2
HEADER
  9
$ACADVER
  1
AC1009
  9
$INSBASE
 10
0.0
 20
0.0
 30
0.0
  9
$EXTMIN
 10
-0.0000000000000089
 20
-1903.0
 30
0.0
  9
$EXTMAX
 10
8387.1000000000004
 20
620.0
 30
0.0
  9
$LIMMIN
 10
0.0
 20
0.0
  9
$LIMMAX
 10
210.0
 20
297.0
  9
$ORTHOMODE
 70
     0
  9
$REGENMODE
 70
     1
  9
$FILLMODE
 70
     1
  9
$QTEXTMODE
 70
     0
  9
$MIRRTEXT
 70
     0
  9
$DRAGMODE
 70
     2
  9
$LTSCALE
 40
1.0
  9
$OSMODE
 70
   125
  9
$ATTMODE
 70
     1
  9
$TEXTSIZE
 40
4.0
  9
$TRACEWID
 40
0.05
  9
$TEXTSTYLE
  7
STANDARD
  9
$CLAYER
  8
OBJECT
  9
$CELTYPE
  6
BYLAYER
  9
$CECOLOR
 62
   256
  9
$DIMSCALE
 40
10.0
  9
$DIMASZ
 40
2.0
  9
$DIMEXO
 40
1.0
  9
$DIMDLI
 40
10.0
  9
$DIMRND
 40
0.0
  9
$DIMDLE
 40
0.0
  9
$DIMEXE
 40
1.0
  9
$DIMTP
 40
0.0
  9
$DIMTM
 40
0.0
  9
$DIMTXT
 40
3.2000000000000002
  9
$DIMCEN
 40
0.0
  9
$DIMTSZ
 40
0.0
  9
$DIMTOL
 70
     0
  9
$DIMLIM
 70
     0
  9
$DIMTIH
 70
     0
  9
$DIMTOH
 70
     0
  9
$DIMSE1
 70
     0
  9
$DIMSE2
 70
     0
  9
$DIMTAD
 70
     1
  9
$DIMZIN
 70
     8
  9
$DIMBLK
  1
OPEN30
  9
$DIMASO
 70
     1
  9
$DIMSHO
 70
     1
  9
$DIMPOST
  1

  9
$DIMAPOST
  1

  9
$DIMALT
 70
     0
  9
$DIMALTD
 70
     2
  9
$DIMALTF
 40
25.399999999999999
  9
$DIMLFAC
 40
1.0
  9
$DIMTOFL
 70
     1
  9
$DIMTVP
 40
0.0
  9
$DIMTIX
 70
     0
  9
$DIMSOXD
 70
     0
  9
$DIMSAH
 70
     0
  9
$DIMBLK1
  1

  9
$DIMBLK2
  1

  9
$DIMSTYLE
  2
S10
  9
$DIMCLRD
 70
   256
  9
$DIMCLRE
 70
   256
  9
$DIMCLRT
 70
   256
  9
$DIMTFAC
 40
1.0
  9
$DIMGAP
 40
0.9
  9
$LUNITS
 70
     2
  9
$LUPREC
 70
     2
  9
$SKETCHINC
 40
0.1
  9
$FILLETRAD
 40
0.0
  9
$AUNITS
 70
     0
  9
$AUPREC
 70
     2
  9
$MENU
  1
ACAD
  9
$ELEVATION
 40
0.0
  9
$PELEVATION
 40
0.0
  9
$THICKNESS
 40
0.0
  9
$LIMCHECK
 70
     0
  9
$BLIPMODE
 70
     0
  9
$CHAMFERA
 40
2.0
  9
$CHAMFERB
 40
2.0
  9
$SKPOLY
 70
     0
  9
$TDCREATE
 40
2453095.4929404748
  9
$TDUPDATE
 40
2456678.7961110072
  9
$TDINDWG
 40
18.4883065856
  9
$TDUSRTIMER
 40
18.488305856499998
  9
$USRTIMER
 70
     1
  9
$ANGBASE
 50
0.0
  9
$ANGDIR
 70
     0
  9
$PDMODE
 70
    35
  9
$PDSIZE
 40
2.0
  9
$PLINEWID
 40
0.0
  9
$COORDS
 70
     1
  9
$SPLFRAME
 70
     0
  9
$SPLINETYPE
 70
     6
  9
$SPLINESEGS
 70
     8
  9
$ATTDIA
 70
     1
  9
$ATTREQ
 70
     1
  9
$HANDLING
 70
     1
  9
$HANDSEED
  5
1267DD
  9
$SURFTAB1
 70
     6
  9
$SURFTAB2
 70
     6
  9
$SURFTYPE
 70
     6
  9
$SURFU
 70
     6
  9
$SURFV
 70
     6
  9
$UCSNAME
  2

  9
$UCSORG
 10
0.0
 20
0.0
 30
0.0
  9
$UCSXDIR
 10
1.0
 20
0.0
 30
0.0
  9
$UCSYDIR
 10
0.0
 20
1.0
 30
0.0
  9
$PUCSNAME
  2

  9
$PUCSORG
 10
0.0
 20
0.0
 30
0.0
  9
$PUCSXDIR
 10
1.0
 20
0.0
 30
0.0
  9
$PUCSYDIR
 10
0.0
 20
1.0
 30
0.0
  9
$USERI1
 70
     0
  9
$USERI2
 70
     0
  9
$USERI3
 70
     0
  9
$USERI4
 70
     0
  9
$USERI5
 70
     0
  9
$USERR1
 40
0.0
  9
$USERR2
 40
0.0
  9
$USERR3
 40
0.0
  9
$USERR4
 40
0.0
  9
$USERR5
 40
0.0
  9
$WORLDVIEW
 70
     1
  9
$SHADEDGE
 70
     3
  9
$SHADEDIF
 70
    70
  9
$TILEMODE
 70
     1
  9
$MAXACTVP
 70
    64
  9
$PLIMCHECK
 70
     0
  9
$PEXTMIN
 10
29.066066288948051
 20
20.366566777229309
 30
0.0
  9
$PEXTMAX
 10
261.5945966005325
 20
183.29910099506381
 30
0.0
  9
$PLIMMIN
 10
-3.17498779296875
 20
-3.1749999523162842
  9
$PLIMMAX
 10
293.83566284179687
 20
206.8406708240509
  9
$UNITMODE
 70
     0
  9
$VISRETAIN
 70
     1
  9
$PLINEGEN
 70
     0
  9
$PSLTSCALE
 70
     1
  0
ENDSEC
  0
SECTION
  2
TABLES
  0
TABLE
  2
VPORT
 70
     1
  0
VPORT
  2
*ACTIVE
 70
     0
 10
0.0
 20
0.0
 11
1.0
 21
1.0
 12
5686.7104659670113
 22
-1552.568296757026
 13
0.0
 23
0.0
 14
1.0
 24
1.0
 15
0.0
 25
0.0
 16
0.0
 26
0.0
 36
1.0
 17
0.0
 27
0.0
 37
0.0
 40
10543.804563434251
 41
1.964560862865947
 42
50.0
 43
0.0
 44
0.0
 50
0.0
 51
0.0
 71
     0
 72
   600
 73
     1
 74
     1
 75
     0
 76
     0
 77
     0
 78
     0
  0
ENDTAB
  0
TABLE
  2
LTYPE
 70
     5
  0
LTYPE
  2
CONTINUOUS
 70
     0
  3
Solid line
 72
    65
 73
     0
 40
0.0
  0
LTYPE
  2
PHANTOM2
 70
     0
  3
___ _ _ ___ _ _ ___ _ _ ___ _ _
 72
    65
 73
     6
 40
1.25
 49
0.625
 49
-0.125
 49
0.125
 49
-0.125
 49
0.125
 49
-0.125
  0
LTYPE
  2
ACAD_ISO08W100
 70
     0
  3
ISO long-dash short-dash ____ __ ____ __ ____ _
 72
    65
 73
     4
 40
36.0
 49
24.0
 49
-3.0
 49
6.0
 49
-3.0
  0
LTYPE
  2
ACAD_ISO02W100
 70
     0
  3
ISO dash __ __ __ __ __ __ __ __ __ __ __ __ __
 72
    65
 73
     2
 40
15.0
 49
12.0
 49
-3.0
  0
ENDTAB
  0
TABLE
  2
LAYER
 70
     7
  0
LAYER
  2
0
 70
     0
 62
     7
  6
CONTINUOUS
  0
LAYER
  2
OBJECT
 70
     0
 62
     4
  6
CONTINUOUS
  0
LAYER
  2
DEFPOINTS
 70
     0
 62
     7
  6
CONTINUOUS
  0
LAYER
  2
HIDDEN
 70
     0
 62
     2
  6
ACAD_ISO02W100
  0
LAYER
  2
CENTER
 70
     0
 62
     2
  6
ACAD_ISO08W100
  0
LAYER
  2
DOTS
 70
     0
 62
     1
  6
CONTINUOUS
  0
LAYER
  2
SLIM
 70
     0
 62
     2
  6
CONTINUOUS
  0
ENDTAB
  0
TABLE
  2
STYLE
 70
     2
  0
STYLE
  2
STANDARD
 70
     0
 40
0.0
 41
0.75
 50
0.0
 71
     0
 42
4.0
  3
simplex.shx
  4
bigfont.shx
  0
STYLE
  2
ANNOTATIVE
 70
     0
 40
0.0
 41
1.0
 50
0.0
 71
     0
 42
0.2
  3
txt
  4

  0
ENDTAB
  0
TABLE
  2
VIEW
 70
     0
  0
ENDTAB
  0
TABLE
  2
UCS
 70
     0
  0
ENDTAB
  0
TABLE
  2
APPID
 70
    18
  0
APPID
  2
ACAD
 70
     0
  0
APPID
  2
ACADANNOTATIVE
 70
     0
  0
APPID
  2
ACAD_PSEXT
 70
     0
  0
APPID
  2
ACAD_EXEMPT_FROM_CAD_STANDARDS
 70
     0
  0
APPID
  2
ACAECLAYERSTANDARD
 70
     0
  0
APPID
  2
ACAUTHENVIRON
 70
     0
  0
APPID
  2
ACDBDYNAMICBLOCKTRUENAME
 70
     0
  0
APPID
  2
ACDBDYNAMICBLOCKGUID
 70
     0
  0
APPID
  2
ACDBBLOCKREPETAG
 70
     0
  0
APPID
  2
ACDBBLOCKREPBTAG
 70
     0
  0
APPID
  2
ACAD_NAV_VCDISPLAY
 70
     0
  0
APPID
  2
ACAD_DSTYLE_DIMRADIAL_EXTENSION
 70
     0
  0
APPID
  2
ACAD_DSTYLE_DIMJAG
 70
     0
  0
APPID
  2
ACAD_DSTYLE_DIMTALN
 70
     0
  0
APPID
  2
ACADANNOPO
 70
     0
  0
APPID
  2
GRADIENTCOLOR1ACI
 70
     0
  0
APPID
  2
GRADIENTCOLOR2ACI
 70
     0
  0
APPID
  2
ACAD_MLEADERVER
 70
     0
  0
ENDTAB
  0
TABLE
  2
DIMSTYLE
 70
     3
  0
DIMSTYLE
  2
STANDARD
 70
     0
  3

  4

  5

  6

  7

 40
1.0
 41
0.18
 42
0.0625
 43
0.38
 44
0.18
 45
0.0
 46
0.0
 47
0.0
 48
0.0
140
0.18
141
0.09
142
0.0
143
25.399999999999999
144
1.0
145
0.0
146
1.0
147
0.09
 71
     0
 72
     0
 73
     1
 74
     1
 75
     0
 76
     0
 77
     0
 78
     0
170
     0
171
     2
172
     0
173
     0
174
     0
175
     0
176
     0
177
     0
178
     0
  0
DIMSTYLE
  2
ANNOTATIVE
 70
     0
  3

  4

  5

  6

  7

 40
1.0
 41
0.18
 42
0.0625
 43
0.38
 44
0.18
 45
0.0
 46
0.0
 47
0.0
 48
0.0
140
0.18
141
0.09
142
0.0
143
25.399999999999999
144
1.0
145
0.0
146
1.0
147
0.09
 71
     0
 72
     0
 73
     1
 74
     1
 75
     0
 76
     0
 77
     0
 78
     0
170
     0
171
     2
172
     0
173
     0
174
     0
175
     0
176
     0
177
     0
178
     0
  0
DIMSTYLE
  2
S10
 70
     0
  3

  4

  5

  6

  7

 40
10.0
 41
2.0
 42
1.0
 43
10.0
 44
1.0
 45
0.0
 46
0.0
 47
0.0
 48
0.0
140
3.2000000000000002
141
0.0
142
0.0
143
25.399999999999999
144
1.0
145
0.0
146
1.0
147
0.9
 71
     0
 72
     0
 73
     0
 74
     0
 75
     0
 76
     0
 77
     1
 78
     8
170
     0
171
     2
172
     1
173
     0
174
     0
175
     0
176
   256
177
   256
178
   256
  0
ENDTAB
  0
ENDSEC
  0
SECTION
  2
BLOCKS
  0
BLOCK
  8
0
  2
$MODEL_SPACE
 70
     0
 10
0.0
 20
0.0
 30
0.0
  3
$MODEL_SPACE
  1

  0
ENDBLK
  5
1266D6
  8
0
  0
BLOCK
 67
     1
  8
0
  2
$PAPER_SPACE
 70
     0
 10
0.0
 20
0.0
 30
0.0
  3
$PAPER_SPACE
  1

  0
ENDBLK
  5
1266D2
 67
     1
  8
0
  0
BLOCK
  8
0
  2
_OPEN30
 70
     0
 10
0.0
 20
0.0
 30
0.0
  3
_OPEN30
  1

  0
LINE
  5
202
  8
0
  6
BYBLOCK
 62
     0
 10
-1.0
 20
0.26794919
 30
0.0
 11
0.0
 21
0.0
 31
0.0
  0
LINE
  5
203
  8
0
  6
BYBLOCK
 62
     0
 10
0.0
 20
0.0
 30
0.0
 11
-1.0
 21
-0.26794919
 31
0.0
  0
LINE
  5
204
  8
0
  6
BYBLOCK
 62
     0
 10
0.0
 20
0.0
 30
0.0
 11
-1.0
 21
0.0
 31
0.0
  0
ENDBLK
  5
206
  8
0
  0
ENDSEC
  0
SECTION
  2
ENTITIES
  0
LINE
  5
125D79
  8
OBJECT
 10
7897.0
 20
-528.99999999999761
 30
0.0
 11
7900.0
 21
-528.99999999999761
 31
0.0
1001
ACDBBLOCKREPETAG
1070
     1
1071
        1
1005
125D79
  0
ARC
  5
125D7A
  8
OBJECT
 10
7897.0
 20
-531.99999999999773
 30
0.0
 40
3.0
 50
90.0
 51
180.0
1001
ACDBBLOCKREPETAG
1070
     1
1071
        2
1005
125D7A
  0
LINE
  5
125D7B
  8
OBJECT
 10
7900.0
 20
-652.99999999999761
 30
0.0
 11
7897.0
 21
-652.99999999999761
 31
0.0
1001
ACDBBLOCKREPETAG
1070
     1
1071
        3
1005
125D7B
  0
ARC
  5
125D7C
  8
OBJECT
 10
7897.0
 20
-649.99999999999761
 30
0.0
 40
3.0
 50
180.0
 51
270.0
1001
ACDBBLOCKREPETAG
1070
     1
1071
        4
1005
125D7C
  0
LINE
  5
125D7D
  8
OBJECT
 10
7894.0
 20
-649.99999999999761
 30
0.0
 11
7894.0
 21
-531.99999999999773
 31
0.0
1001
ACDBBLOCKREPETAG
1070
     1
1071
        5
1005
125D7D
  0
CIRCLE
  5
125D7E
  8
OBJECT
 10
8000.0
 20
-590.99999999999761
 30
0.0
 40
62.0
1001
ACDBBLOCKREPETAG
1070
     1
1071
        0
1005
125D7E
  0
LINE
  5
125D7F
  8
OBJECT
 10
8095.0
 20
-469.99999999999932
 30
0.0
 11
7905.0
 21
-469.99999999999932
 31
0.0
1001
ACDBBLOCKREPETAG
1070
     1
1071
        0
1005
125D7F
  0
LINE
  5
125D80
  8
OBJECT
 10
8095.0
 20
-449.99999999999932
 30
0.0
 11
7905.0
 21
-449.99999999999932
 31
0.0
1001
ACDBBLOCKREPETAG
1070
     1
1071
        1
1005
125D80
  0
LINE
  5
125D81
  8
OBJECT
 10
7902.5
 20
-814.99999999999955
 30
0.0
 11
8097.5000000000009
 21
-814.99999999999955
 31
0.0
1001
ACDBBLOCKREPETAG
1070
     1
1071
        2
1005
125D81
  0
LINE
  5
125D82
  8
OBJECT
 10
7908.237046000002
 20
-449.99999999999932
 30
0.0
 11
7908.2370465822614
 21
-469.99999999999932
 31
0.0
1001
ACDBBLOCKREPETAG
1070
     1
1071
        3
1005
125D82
  0
LINE
  5
125D83
  8
OBJECT
 10
7905.0
 20
-449.99999999999932
 30
0.0
 11
7905.0
 21
-469.99999999999932
 31
0.0
1001
ACDBBLOCKREPETAG
1070
     1
1071
        4
1005
125D83
  0
LINE
  5
125D84
  8
OBJECT
 10
7916.0249089999988
 20
-449.99999999999932
 30
0.0
 11
7916.0249089999988
 21
-469.99999999999932
 31
0.0
1001
ACDBBLOCKREPETAG
1070
     1
1071
        5
1005
125D84
  0
LINE
  5
125D85
  8
OBJECT
 10
7967.6243270000023
 20
-449.99999999999932
 30
0.0
 11
7967.6243270000023
 21
-469.99999999999932
 31
0.0
1001
ACDBBLOCKREPETAG
1070
     1
1071
        6
1005
125D85
  0
LINE
  5
125D86
  8
OBJECT
 10
7975.4121899999973
 20
-449.99999999999932
 30
0.0
 11
7975.4121899999973
 21
-469.99999999999932
 31
0.0
1001
ACDBBLOCKREPETAG
1070
     1
1071
        7
1005
125D86
  0
LINE
  5
125D87
  8
OBJECT
 10
8024.5878090000006
 20
-449.99999999999932
 30
0.0
 11
8024.5878090000006
 21
-469.99999999999932
 31
0.0
1001
ACDBBLOCKREPETAG
1070
     1
1071
        8
1005
125D87
  0
LINE
  5
125D88
  8
OBJECT
 10
8032.3756720000038
 20
-449.99999999999932
 30
0.0
 11
8032.3756720000038
 21
-469.99999999999932
 31
0.0
1001
ACDBBLOCKREPETAG
1070
     1
1071
        9
1005
125D88
  0
LINE
  5
125D89
  8
OBJECT
 10
8083.9750910000021
 20
-449.99999999999932
 30
0.0
 11
8083.9750910000021
 21
-469.99999999999932
 31
0.0
1001
ACDBBLOCKREPETAG
1070
     1
1071
       10
1005
125D89
  0
LINE
  5
125D8A
  8
OBJECT
 10
8091.762953999998
 20
-449.99999999999932
 30
0.0
 11
8091.7629534177404
 21
-469.99999999999932
 31
0.0
1001
ACDBBLOCKREPETAG
1070
     1
1071
       11
1005
125D8A
  0
LINE
  5
125D8B
  8
OBJECT
 10
8095.0
 20
-449.99999999999932
 30
0.0
 11
8095.0
 21
-469.99999999999932
 31
0.0
1001
ACDBBLOCKREPETAG
1070
     1
1071
       12
1005
125D8B
  0
LINE
  5
125D8C
  8
OBJECT
 10
8100.0
 20
-528.99999999999955
 30
0.0
 11
7900.0
 21
-528.99999999999955
 31
0.0
1001
ACDBBLOCKREPETAG
1070
     1
1071
       13
1005
125D8C
  0
LINE
  5
125D8D
  8
OBJECT
 10
8100.0
 20
-652.99999999999761
 30
0.0
 11
8092.4999999999973
 21
-652.99999999999761
 31
0.0
1001
ACDBBLOCKREPETAG
1070
     1
1071
       14
1005
125D8D
  0
LINE
  5
125D8E
  8
OBJECT
 10
7902.5
 20
-814.99999999999955
 30
0.0
 11
7902.5
 21
-802.99999999999784
 31
0.0
1001
ACDBBLOCKREPETAG
1070
     1
1071
       15
1005
125D8E
  0
LINE
  5
125D8F
  8
OBJECT
 10
8097.5000000000009
 20
-814.99999999999955
 30
0.0
 11
8097.5000000000009
 21
-802.99999999999784
 31
0.0
1001
ACDBBLOCKREPETAG
1070
     1
1071
       16
1005
125D8F
  0
LINE
  5
125D90
  8
OBJECT
 10
7902.5
 20
-802.99999999999784
 30
0.0
 11
8097.5000000000009
 21
-802.99999999999784
 31
0.0
1001
ACDBBLOCKREPETAG
1070
     1
1071
       17
1005
125D90
  0
LINE
  5
125D91
  8
HIDDEN
 10
7930.0
 20
-524.99999999999955
 30
0.0
 11
8070.0
 21
-524.99999999999955
 31
0.0
1001
ACDBBLOCKREPETAG
1070
     1
1071
       18
1005
125D91
  0
LINE
  5
125D92
  8
CENTER
 10
8000.0
 20
-434.99999999999949
 30
0.0
 11
8000.0
 21
-814.99999999999955
 31
0.0
1001
ACDBBLOCKREPETAG
1070
     1
1071
       19
1005
125D92
  0
LINE
  5
125D93
  8
OBJECT
 10
8092.4999999999973
 20
-652.99999999999761
 30
0.0
 11
8092.4999999999973
 21
-802.99999999999784
 31
0.0
1001
ACDBBLOCKREPETAG
1070
     1
1071
       20
1005
125D93
  0
LINE
  5
125D94
  8
OBJECT
 10
7914.5
 20
-469.99999999999932
 30
0.0
 11
7914.5
 21
-528.99999999999955
 31
0.0
1001
ACDBBLOCKREPETAG
1070
     1
1071
       21
1005
125D94
  0
LINE
  5
125D95
  8
OBJECT
 10
8085.5000000000027
 20
-469.99999999999932
 30
0.0
 11
8085.5000000000027
 21
-528.99999999999955
 31
0.0
1001
ACDBBLOCKREPETAG
1070
     1
1071
       22
1005
125D95
  0
POINT
  5
125D96
  8
DOTS
 10
8000.0
 20
-649.99999999999955
 30
0.0
1001
ACDBBLOCKREPETAG
1070
     1
1071
       24
1005
125D96
  0
LINE
  5
125D97
  8
OBJECT
 10
7900.0
 20
-652.99999999999761
 30
0.0
 11
7907.5
 21
-652.99999999999761
 31
0.0
1001
ACDBBLOCKREPETAG
1070
     1
1071
       25
1005
125D97
  0
LINE
  5
125D98
  8
OBJECT
 10
7907.5
 20
-652.99999999999761
 30
0.0
 11
7907.5
 21
-802.99999999999784
 31
0.0
1001
ACDBBLOCKREPETAG
1070
     1
1071
       26
1005
125D98
  0
ARC
  5
125D99
  8
OBJECT
 10
8214.4155190291513
 20
-615.62073879202455
 30
0.0
 40
149.554492306393
 50
144.60628028468801
 51
164.2211863995189
1001
ACDBBLOCKREPETAG
1070
     1
1071
       28
1005
125D99
  0
ARC
  5
125D9A
  8
OBJECT
 10
8139.1422781245292
 20
-590.99999999999761
 30
0.0
 40
70.496447952551449
 50
166.8426918235858
 51
193.15730817641409
1001
ACDBBLOCKREPETAG
1070
     1
1071
       29
1005
125D9A
  0
ARC
  5
125D9B
  8
OBJECT
 10
8214.4155190291513
 20
-566.3792612079701
 30
0.0
 40
149.55449230639621
 50
195.7788136004809
 51
215.3937197153119
1001
ACDBBLOCKREPETAG
1070
     1
1071
       30
1005
125D9B
  0
ARC
  5
125D9C
  8
OBJECT
 10
7785.5844809708497
 20
-615.62073879202455
 30
0.0
 40
149.554492306393
 50
15.778813600524931
 51
35.393719715228642
1001
ACDBBLOCKREPETAG
1070
     1
1071
       31
1005
125D9C
  0
ARC
  5
125D9D
  8
OBJECT
 10
7860.8577218754726
 20
-590.99999999999761
 30
0.0
 40
70.496447952551449
 50
346.84269182358582
 51
13.15730817641421
1001
ACDBBLOCKREPETAG
1070
     1
1071
       32
1005
125D9D
  0
ARC
  5
125D9E
  8
OBJECT
 10
7785.5844809708497
 20
-566.3792612079701
 30
0.0
 40
149.55449230639621
 50
324.60628028477117
 51
344.22118639947507
1001
ACDBBLOCKREPETAG
1070
     1
1071
       33
1005
125D9E
  0
LINE
  5
125D9F
  8
CENTER
 10
7878.9999999999973
 20
-199.99999999999909
 30
0.0
 11
7899.9999999999973
 21
-199.99999999999909
 31
0.0
1001
ACDBBLOCKREPETAG
1070
     1
1071
        0
1005
125D9F
  0
LINE
  5
125DA0
  8
OBJECT
 10
7896.9999999999973
 20
-261.99999999999909
 30
0.0
 11
7899.9999999999973
 21
-261.99999999999909
 31
0.0
1001
ACDBBLOCKREPETAG
1070
     1
1071
        1
1005
125DA0
  0
ARC
  5
125DA1
  8
OBJECT
 10
7896.9999999999973
 20
-258.99999999999909
 30
0.0
 40
3.0
 50
180.0
 51
270.0
1001
ACDBBLOCKREPETAG
1070
     1
1071
        2
1005
125DA1
  0
LINE
  5
125DA2
  8
OBJECT
 10
7899.9999999999973
 20
-137.99999999999909
 30
0.0
 11
7896.9999999999973
 21
-137.99999999999909
 31
0.0
1001
ACDBBLOCKREPETAG
1070
     1
1071
        3
1005
125DA2
  0
ARC
  5
125DA3
  8
OBJECT
 10
7896.9999999999973
 20
-140.99999999999909
 30
0.0
 40
3.0
 50
90.0
 51
180.0
1001
ACDBBLOCKREPETAG
1070
     1
1071
        4
1005
125DA3
  0
LINE
  5
125DA4
  8
OBJECT
 10
7893.9999999999973
 20
-140.99999999999909
 30
0.0
 11
7893.9999999999973
 21
-258.99999999999909
 31
0.0
1001
ACDBBLOCKREPETAG
1070
     1
1071
        5
1005
125DA4
  0
LINE
  5
125DA5
  8
CENTER
 10
8000.0000000000027
 20
-320.99999999999892
 30
0.0
 11
8000.0000000000027
 21
-299.99999999999892
 31
0.0
1001
ACDBBLOCKREPETAG
1070
     1
1071
        0
1005
125DA5
  0
LINE
  5
125DA6
  8
OBJECT
 10
8062.0000000000018
 20
-303.0
 30
0.0
 11
8062.0000000000018
 21
-299.99999999999892
 31
0.0
1001
ACDBBLOCKREPETAG
1070
     1
1071
        1
1005
125DA6
  0
ARC
  5
125DA7
  8
OBJECT
 10
8059.0000000000018
 20
-303.0
 30
0.0
 40
3.0
 50
270.0
 51
0.0
1001
ACDBBLOCKREPETAG
1070
     1
1071
        2
1005
125DA7
  0
LINE
  5
125DA8
  8
OBJECT
 10
7938.0000000000018
 20
-299.99999999999892
 30
0.0
 11
7938.0000000000018
 21
-302.99999999999818
 31
0.0
1001
ACDBBLOCKREPETAG
1070
     1
1071
        3
1005
125DA8
  0
ARC
  5
125DA9
  8
OBJECT
 10
7941.0000000000018
 20
-302.99999999999818
 30
0.0
 40
3.0
 50
180.0
 51
270.0
1001
ACDBBLOCKREPETAG
1070
     1
1071
        4
1005
125DA9
  0
LINE
  5
125DAA
  8
OBJECT
 10
7941.0000000000018
 20
-305.99999999999818
 30
0.0
 11
8059.0000000000018
 21
-306.0
 31
0.0
1001
ACDBBLOCKREPETAG
1070
     1
1071
        5
1005
125DAA
  0
LINE
  5
125DAB
  8
SLIM
 10
7918.5743713244692
 20
-137.74153073842379
 30
0.0
 11
7937.7415307384244
 21
-118.5743713244679
 31
0.0
1001
GRADIENTCOLOR1ACI
1070
     5
1001
GRADIENTCOLOR2ACI
1070
     2
1001
ACAD
1010
0.0
1020
0.0
1030
0.0
1001
ACDBBLOCKREPETAG
1070
     1
1071
      301
1005
125DAB
  0
LINE
  5
125DAC
  8
SLIM
 10
7927.2961581839618
 20
-137.99999999999909
 30
0.0
 11
7959.4220169794107
 21
-105.8741412045496
 31
0.0
1001
GRADIENTCOLOR1ACI
1070
     5
1001
GRADIENTCOLOR2ACI
1070
     2
1001
ACAD
1010
0.0
1020
0.0
1030
0.0
1001
ACDBBLOCKREPETAG
1070
     1
1071
      302
1005
125DAC
  0
LINE
  5
125DAD
  8
SLIM
 10
7955.2080715681668
 20
-119.0683427368643
 30
0.0
 11
7973.2147923567691
 21
-101.06162194825821
 31
0.0
1001
GRADIENTCOLOR1ACI
1070
     5
1001
GRADIENTCOLOR2ACI
1070
     2
1001
ACAD
1010
0.0
1020
0.0
1030
0.0
1001
ACDBBLOCKREPETAG
1070
     1
1071
      303
1005
125DAD
  0
LINE
  5
125DAE
  8
SLIM
 10
7971.1389053532557
 20
-112.11776507284389
 30
0.0
 11
7984.5919680901698
 21
-98.664702335928993
 31
0.0
1001
GRADIENTCOLOR1ACI
1070
     5
1001
GRADIENTCOLOR2ACI
1070
     2
1001
ACAD
1010
0.0
1020
0.0
1030
0.0
1001
ACDBBLOCKREPETAG
1070
     1
1071
      304
1005
125DAE
  0
LINE
  5
125DAF
  8
SLIM
 10
7986.2342955596032
 20
-106.0026309875652
 30
0.0
 11
7994.59428198766
 21
-97.642644559507801
 31
0.0
1001
GRADIENTCOLOR1ACI
1070
     5
1001
GRADIENTCOLOR2ACI
1070
     2
1001
ACAD
1010
0.0
1020
0.0
1030
0.0
1001
ACDBBLOCKREPETAG
1070
     1
1071
      278
1005
125DAF
  0
LINE
  5
125DB0
  8
SLIM
 10
7996.138677540931
 20
-105.0785051273038
 30
0.0
 11
8000.0
 21
-101.21718266823839
 31
0.0
1001
GRADIENTCOLOR1ACI
1070
     5
1001
GRADIENTCOLOR2ACI
1070
     2
1001
ACAD
1010
0.0
1020
0.0
1030
0.0
1001
ACDBBLOCKREPETAG
1070
     1
1071
      305
1005
125DB0
  0
LINE
  5
125DB1
  8
SLIM
 10
8000.0
 20
-101.21718266823839
 30
0.0
 11
8003.652099419467
 21
-97.565083248774314
 31
0.0
1001
GRADIENTCOLOR1ACI
1070
     5
1001
GRADIENTCOLOR2ACI
1070
     2
1001
ACAD
1010
0.0
1020
0.0
1030
0.0
1001
ACDBBLOCKREPETAG
1070
     1
1071
      306
1005
125DB1
  0
LINE
  5
125DB2
  8
SLIM
 10
8005.0624562444928
 20
-105.13498254481389
 30
0.0
 11
8011.9933588609547
 21
-98.204079928355625
 31
0.0
1001
GRADIENTCOLOR1ACI
1070
     5
1001
GRADIENTCOLOR2ACI
1070
     2
1001
ACAD
1010
0.0
1020
0.0
1030
0.0
1001
ACDBBLOCKREPETAG
1070
     1
1071
      307
1005
125DB2
  0
LINE
  5
125DB3
  8
SLIM
 10
8013.2492495222623
 20
-105.9284453881143
 30
0.0
 11
8019.7558130592479
 21
-99.421881851129058
 31
0.0
1001
GRADIENTCOLOR1ACI
1070
     5
1001
GRADIENTCOLOR2ACI
1070
     2
1001
ACAD
1010
0.0
1020
0.0
1030
0.0
1001
ACDBBLOCKREPETAG
1070
     1
1071
      282
1005
125DB3
  0
LINE
  5
125DB4
  8
SLIM
 10
8020.8432248281179
 20
-107.31472620332499
 30
0.0
 11
8027.0297896486627
 21
-101.1281613827821
 31
0.0
1001
GRADIENTCOLOR1ACI
1070
     5
1001
GRADIENTCOLOR2ACI
1070
     2
1001
ACAD
1010
0.0
1020
0.0
1030
0.0
1001
ACDBBLOCKREPETAG
1070
     1
1071
      283
1005
125DB4
  0
LINE
  5
125DB5
  8
SLIM
 10
8026.7444850762586
 20
-110.3937220762563
 30
0.0
 11
8033.877784086586
 21
-103.2604230659298
 31
0.0
1001
GRADIENTCOLOR1ACI
1070
     5
1001
GRADIENTCOLOR2ACI
1070
     2
1001
ACAD
1010
0.0
1020
0.0
1030
0.0
1001
ACDBBLOCKREPETAG
1070
     1
1071
      284
1005
125DB5
  0
LINE
  5
125DB6
  8
SLIM
 10
8032.6605739035549
 20
-113.4578893700272
 30
0.0
 11
8040.3445940865868
 21
-105.7738691869987
 31
0.0
1001
GRADIENTCOLOR1ACI
1070
     5
1001
GRADIENTCOLOR2ACI
1070
     2
1001
ACAD
1010
0.0
1020
0.0
1030
0.0
1001
ACDBBLOCKREPETAG
1070
     1
1071
      285
1005
125DB6
  0
LINE
  5
125DB7
  8
SLIM
 10
8038.983012933968
 20
-116.115706460684
 30
0.0
 11
8046.4630285156381
 21
-108.63569087901411
 31
0.0
1001
GRADIENTCOLOR1ACI
1070
     5
1001
GRADIENTCOLOR2ACI
1070
     2
1001
ACAD
1010
0.0
1020
0.0
1030
0.0
1001
ACDBBLOCKREPETAG
1070
     1
1071
      286
1005
125DB7
  0
LINE
  5
125DB8
  8
SLIM
 10
8044.9326113883499
 20
-119.1463641273716
 30
0.0
 11
8052.2573273714534
 21
-111.8216481442697
 31
0.0
1001
GRADIENTCOLOR1ACI
1070
     5
1001
GRADIENTCOLOR2ACI
1070
     2
1001
ACAD
1010
0.0
1020
0.0
1030
0.0
1001
ACDBBLOCKREPETAG
1070
     1
1071
      287
1005
125DB8
  0
LINE
  5
125DB9
  8
SLIM
 10
8050.5348792738341
 20
-122.5243523629576
 30
0.0
 11
8057.7453005374227
 21
-115.3139310993673
 31
0.0
1001
GRADIENTCOLOR1ACI
1070
     5
1001
GRADIENTCOLOR2ACI
1070
     2
1001
ACAD
1010
0.0
1020
0.0
1030
0.0
1001
ACDBBLOCKREPETAG
1070
     1
1071
      288
1005
125DB9
  0
LINE
  5
125DBA
  8
SLIM
 10
7919.0997883728269
 20
-262.93969938503398
 30
0.0
 11
7920.039487757861
 21
-261.99999999999909
 31
0.0
1001
GRADIENTCOLOR1ACI
1070
     5
1001
GRADIENTCOLOR2ACI
1070
     2
1001
ACAD
1010
0.0
1020
0.0
1030
0.0
1001
ACDBBLOCKREPETAG
1070
     1
1071
      289
1005
125DBA
  0
LINE
  5
125DBB
  8
SLIM
 10
8055.807705723706
 20
-126.2317820341551
 30
0.0
 11
8062.9396993850351
 21
-119.0997883728258
 31
0.0
1001
GRADIENTCOLOR1ACI
1070
     5
1001
GRADIENTCOLOR2ACI
1070
     2
1001
ACAD
1010
0.0
1020
0.0
1030
0.0
1001
ACDBBLOCKREPETAG
1070
     1
1071
      290
1005
125DBB
  0
LINE
  5
125DBC
  8
SLIM
 10
7923.1706450290276
 20
-267.84909884990361
 30
0.0
 11
7929.019743878931
 21
-261.99999999999909
 31
0.0
1001
GRADIENTCOLOR1ACI
1070
     5
1001
GRADIENTCOLOR2ACI
1070
     2
1001
ACAD
1010
0.0
1020
0.0
1030
0.0
1001
ACDBBLOCKREPETAG
1070
     1
1071
      291
1005
125DBC
  0
LINE
  5
125DBD
  8
SLIM
 10
8060.7629465796699
 20
-130.25679729926071
 30
0.0
 11
8067.8490988499034
 21
-123.17064502902539
 31
0.0
1001
GRADIENTCOLOR1ACI
1070
     5
1001
GRADIENTCOLOR2ACI
1070
     2
1001
ACAD
1010
0.0
1020
0.0
1030
0.0
1001
ACDBBLOCKREPETAG
1070
     1
1071
      292
1005
125DBD
  0
LINE
  5
125DBE
  8
SLIM
 10
7927.5215549283794
 20
-272.47844507162011
 30
0.0
 11
7934.5926227402433
 21
-265.40737725975481
 31
0.0
1001
GRADIENTCOLOR1ACI
1070
     5
1001
GRADIENTCOLOR2ACI
1070
     2
1001
ACAD
1010
0.0
1020
0.0
1030
0.0
1001
ACDBBLOCKREPETAG
1070
     1
1071
      293
1005
125DBE
  0
LINE
  5
125DBF
  8
SLIM
 10
8065.4073772597576
 20
-134.5926227402434
 30
0.0
 11
8072.4784450716224
 21
-127.52155492837799
 31
0.0
1001
GRADIENTCOLOR1ACI
1070
     5
1001
GRADIENTCOLOR2ACI
1070
     2
1001
ACAD
1010
0.0
1020
0.0
1030
0.0
1001
ACDBBLOCKREPETAG
1070
     1
1071
      294
1005
125DBF
  0
LINE
  5
125DC0
  8
SLIM
 10
7932.1509011500939
 20
-276.82935497097282
 30
0.0
 11
7937.9999999999936
 21
-270.980256121075
 31
0.0
1001
GRADIENTCOLOR1ACI
1070
     5
1001
GRADIENTCOLOR2ACI
1070
     2
1001
ACAD
1010
0.0
1020
0.0
1030
0.0
1001
ACDBBLOCKREPETAG
1070
     1
1071
      295
1005
125DC0
  0
LINE
  5
125DC1
  8
SLIM
 10
8070.980256121069
 20
-137.99999999999901
 30
0.0
 11
8076.8293549709733
 21
-132.15090115009451
 31
0.0
1001
GRADIENTCOLOR1ACI
1070
     5
1001
GRADIENTCOLOR2ACI
1070
     2
1001
ACAD
1010
0.0
1020
0.0
1030
0.0
1001
ACDBBLOCKREPETAG
1070
     1
1071
      296
1005
125DC1
  0
LINE
  5
125DC2
  8
SLIM
 10
7937.0603006149649
 20
-280.90021162717238
 30
0.0
 11
7937.9999999999955
 21
-279.9605122421421
 31
0.0
1001
GRADIENTCOLOR1ACI
1070
     5
1001
GRADIENTCOLOR2ACI
1070
     2
1001
ACAD
1010
0.0
1020
0.0
1030
0.0
1001
ACDBBLOCKREPETAG
1070
     1
1071
      297
1005
125DC2
  0
LINE
  5
125DC3
  8
SLIM
 10
8079.9605122421362
 20
-137.99999999999901
 30
0.0
 11
8080.9002116271704
 21
-137.06030061496409
 31
0.0
1001
GRADIENTCOLOR1ACI
1070
     5
1001
GRADIENTCOLOR2ACI
1070
     2
1001
ACAD
1010
0.0
1020
0.0
1030
0.0
1001
ACDBBLOCKREPETAG
1070
     1
1071
      298
1005
125DC3
  0
LINE
  5
125DC4
  8
SLIM
 10
8062.0000000000018
 20
-272.70384181603538
 30
0.0
 11
8072.7038418160373
 21
-261.99999999999909
 31
0.0
1001
GRADIENTCOLOR1ACI
1070
     5
1001
GRADIENTCOLOR2ACI
1070
     2
1001
ACAD
1010
0.0
1020
0.0
1030
0.0
1001
ACDBBLOCKREPETAG
1070
     1
1071
      299
1005
125DC4
  0
LINE
  5
125DC5
  8
SLIM
 10
8062.2584692615746
 20
-281.4256286755305
 30
0.0
 11
8081.4256286755299
 21
-262.25846926157431
 31
0.0
1001
GRADIENTCOLOR1ACI
1070
     5
1001
GRADIENTCOLOR2ACI
1070
     2
1001
ACAD
1010
0.0
1020
0.0
1030
0.0
1001
ACDBBLOCKREPETAG
1070
     1
1071
      300
1005
125DC5
  0
LINE
  5
125DC6
  8
OBJECT
 10
8068.6458301719767
 20
-137.99999999999909
 30
0.0
 11
8100.0
 21
-137.99999999999909
 31
0.0
1001
ACDBBLOCKREPETAG
1070
     1
1071
      242
1005
125DC6
  0
LINE
  5
125DC7
  8
OBJECT
 10
8068.6458301719767
 20
-261.99999999999909
 30
0.0
 11
8100.0000000000064
 21
-261.99999999999909
 31
0.0
1001
ACDBBLOCKREPETAG
1070
     1
1071
      243
1005
125DC7
  0
LINE
  5
125DC8
  8
OBJECT
 10
8062.0
 20
-268.64583017197862
 30
0.0
 11
8062.00000000001
 21
-299.99999999999892
 31
0.0
1001
ACDBBLOCKREPETAG
1070
     1
1071
      244
1005
125DC8
  0
LINE
  5
125DC9
  8
OBJECT
 10
7937.9999999999891
 20
-268.64583017197492
 30
0.0
 11
7938.0
 21
-299.99999999999892
 31
0.0
1001
ACDBBLOCKREPETAG
1070
     1
1071
      245
1005
125DC9
  0
LINE
  5
125DCA
  8
OBJECT
 10
7931.354169828026
 20
-261.99999999999909
 30
0.0
 11
7899.9999999999909
 21
-261.99999999999909
 31
0.0
1001
ACDBBLOCKREPETAG
1070
     1
1071
      246
1005
125DCA
  0
LINE
  5
125DCB
  8
OBJECT
 10
7931.354169828026
 20
-137.99999999999909
 30
0.0
 11
7899.9999999999909
 21
-137.99999999999909
 31
0.0
1001
ACDBBLOCKREPETAG
1070
     1
1071
      247
1005
125DCB
  0
LINE
  5
125DCC
  8
CENTER
 10
7900.0
 20
-199.99999999999909
 30
0.0
 11
8100.0
 21
-199.99999999999909
 31
0.0
1001
ACDBBLOCKREPETAG
1070
     1
1071
      251
1005
125DCC
  0
LINE
  5
125DCD
  8
CENTER
 10
8000.0
 20
-82.499999999999091
 30
0.0
 11
8000.0
 21
-299.99999999999892
 31
0.0
1001
ACDBBLOCKREPETAG
1070
     1
1071
      252
1005
125DCD
  0
ARC
  5
125DCE
  8
OBJECT
 10
8000.0
 20
-199.99999999999909
 30
0.0
 40
102.5
 50
37.220066868561332
 51
142.77993313143861
1001
ACDBBLOCKREPETAG
1070
     1
1071
      256
1005
125DCE
  0
ARC
  5
125DCF
  8
OBJECT
 10
8000.0
 20
-199.99999999999909
 30
0.0
 40
102.5
 50
217.2200668685613
 51
232.7799331314061
1001
ACDBBLOCKREPETAG
1070
     1
1071
      257
1005
125DCF
  0
ARC
  5
125DD0
  8
OBJECT
 10
8000.0
 20
-199.99999999999909
 30
0.0
 40
102.5
 50
307.2200668685939
 51
322.77993313143872
1001
ACDBBLOCKREPETAG
1070
     1
1071
      258
1005
125DD0
  0
ARC
  5
125DD1
  8
OBJECT
 10
7973.8931207053256
 20
-173.82438331578209
 30
0.0
 40
90.0
 50
274.21795726566182
 51
281.60300086768922
1001
ACDBBLOCKREPETAG
1070
     1
1071
      261
1005
125DD1
  0
LINE
  5
125DD2
  8
OBJECT
 10
7991.994750999992
 20
-261.98520799999727
 30
0.0
 11
7996.6424319999942
 21
-248.3387539999994
 31
0.0
1001
ACDBBLOCKREPETAG
1070
     1
1071
      262
1005
125DD2
  0
LINE
  5
125DD3
  8
OBJECT
 10
7955.2887960976786
 20
-207.0733020425842
 30
0.0
 11
7935.6054186421097
 21
-216.60084009147889
 31
0.0
1001
ACDBBLOCKREPETAG
1070
     1
1071
      263
1005
125DD3
  0
LINE
  5
125DD4
  8
OBJECT
 10
7937.3350639238643
 20
-222.25658973369261
 30
0.0
 11
7961.7560738851162
 21
-210.43584915155679
 31
0.0
1001
ACDBBLOCKREPETAG
1070
     1
1071
      264
1005
125DD4
  0
LINE
  5
125DD5
  8
OBJECT
 10
7996.6424319999942
 20
-248.3387539999994
 30
0.0
 11
7970.3289245926408
 21
-210.9660806555467
 31
0.0
1001
ACDBBLOCKREPETAG
1070
     1
1071
      265
1005
125DD5
  0
ARC
  5
125DD6
  8
OBJECT
 10
7960.5170048000518
 20
-217.87449798398211
 30
0.0
 40
12.0
 50
35.148769561161963
 51
115.8288295732624
1001
ACDBBLOCKREPETAG
1070
     1
1071
      266
1005
125DD6
  0
ARC
  5
125DD7
  8
OBJECT
 10
7965.2415463179786
 20
-217.63664646295089
 30
0.0
 40
8.0
 50
35.148769561161963
 51
115.8288292916689
1001
ACDBBLOCKREPETAG
1070
     1
1071
      267
1005
125DD7
  0
ARC
  5
125DD8
  8
OBJECT
 10
8000.0
 20
-199.99999999999909
 30
0.0
 40
90.0
 50
201.08359599996521
 51
248.91640400002939
1001
ACDBBLOCKREPETAG
1070
     1
1071
      273
1005
125DD8
  0
ARC
  5
125DD9
  8
OBJECT
 10
8000.0
 20
-199.99999999999909
 30
0.0
 40
90.0
 50
111.0835959999705
 51
158.91640347115251
1001
ACDBBLOCKREPETAG
1070
     1
1071
      274
1005
125DD9
  0
LINE
  5
125DDA
  8
OBJECT
 10
7916.0249094448664
 20
-167.62432755513231
 30
0.0
 11
7908.2370465822614
 21
-175.41219041773809
 31
0.0
1001
ACDBBLOCKREPETAG
1070
     1
1071
      275
1005
125DDA
  0
LINE
  5
125DDB
  8
OBJECT
 10
7916.0249089999988
 20
-232.37567199999921
 30
0.0
 11
7908.2370469998141
 21
-224.58781114059909
 31
0.0
1001
ACDBBLOCKREPETAG
1070
     1
1071
      276
1005
125DDB
  0
ARC
  5
125DDC
  8
OBJECT
 10
8000.0
 20
-199.99999999999909
 30
0.0
 40
95.0
 50
164.99999981411651
 51
195.00000115873701
1001
ACDBBLOCKREPETAG
1070
     1
1071
      277
1005
125DDC
  0
ARC
  5
125DDD
  8
OBJECT
 10
8000.0
 20
-199.99999999999909
 30
0.0
 40
92.5
 50
287.80189678391901
 51
342.1981035993042
1001
ACDBBLOCKREPETAG
1070
     1
1071
      209
1005
125DDD
  0
ARC
  5
125DDE
  8
OBJECT
 10
8000.0
 20
-199.99999999999909
 30
0.0
 40
90.0
 50
291.08359599997061
 51
338.91640400003479
1001
ACDBBLOCKREPETAG
1070
     1
1071
      211
1005
125DDE
  0
CIRCLE
  5
125DDF
  8
OBJECT
 10
8000.0
 20
-199.99999999999909
 30
0.0
 40
80.0
1001
ACDBBLOCKREPETAG
1070
     1
1071
      212
1005
125DDF
  0
ARC
  5
125DE0
  8
OBJECT
 10
8000.0
 20
-199.99999999999909
 30
0.0
 40
90.0
 50
21.08359652884743
 51
68.916404000029431
1001
ACDBBLOCKREPETAG
1070
     1
1071
      213
1005
125DE0
  0
CIRCLE
  5
125DE1
  8
OBJECT
 10
8000.0
 20
-199.99999999999909
 30
0.0
 40
66.5
1001
ACDBBLOCKREPETAG
1070
     1
1071
      215
1005
125DE1
  0
LINE
  5
125DE2
  8
OBJECT
 10
8083.9750905551327
 20
-167.62432755513231
 30
0.0
 11
8091.7629534177404
 21
-175.4121904177382
 31
0.0
1001
ACDBBLOCKREPETAG
1070
     1
1071
      216
1005
125DE2
  0
LINE
  5
125DE3
  8
OBJECT
 10
8083.9750910000021
 20
-232.37567199999921
 30
0.0
 11
8091.7629530001877
 21
-224.58781114059909
 31
0.0
1001
ACDBBLOCKREPETAG
1070
     1
1071
      217
1005
125DE3
  0
ARC
  5
125DE4
  8
OBJECT
 10
8000.0
 20
-199.99999999999909
 30
0.0
 40
95.0
 50
344.99999884126299
 51
15.00000018588349
1001
ACDBBLOCKREPETAG
1070
     1
1071
      218
1005
125DE4
  0
LINE
  5
125DE5
  8
OBJECT
 10
8032.375672999995
 20
-283.9750909999994
 30
0.0
 11
8024.587810948281
 21
-291.76295305171419
 31
0.0
1001
ACDBBLOCKREPETAG
1070
     1
1071
      219
1005
125DE5
  0
LINE
  5
125DE6
  8
OBJECT
 10
7967.6243279999981
 20
-283.9750909999994
 30
0.0
 11
7975.4121904177382
 21
-291.76295341774039
 31
0.0
1001
ACDBBLOCKREPETAG
1070
     1
1071
      220
1005
125DE6
  0
ARC
  5
125DE7
  8
OBJECT
 10
8000.0
 20
-199.99999999999909
 30
0.0
 40
95.0
 50
254.99999981420709
 51
285.00000103861061
1001
ACDBBLOCKREPETAG
1070
     1
1071
      221
1005
125DE7
  0
LINE
  5
125DE8
  8
OBJECT
 10
8032.375672999995
 20
-116.0249099999992
 30
0.0
 11
8024.5878095822618
 21
-108.2370465822578
 31
0.0
1001
ACDBBLOCKREPETAG
1070
     1
1071
      222
1005
125DE8
  0
ARC
  5
125DE9
  8
OBJECT
 10
8000.0
 20
-199.99999999999909
 30
0.0
 40
95.0
 50
74.999999814207143
 51
104.99999933254421
1001
ACDBBLOCKREPETAG
1070
     1
1071
      223
1005
125DE9
  0
LINE
  5
125DEA
  8
OBJECT
 10
7967.6243279999981
 20
-116.0249099999992
 30
0.0
 11
7975.4121917837692
 21
-108.2370462162316
 31
0.0
1001
ACDBBLOCKREPETAG
1070
     1
1071
      224
1005
125DEA
  0
LINE
  5
125DEB
  8
OBJECT
 10
8055.1784370000023
 20
-162.884098999998
 30
0.0
 11
8032.5345701092747
 21
-178.11554723457169
 31
0.0
1001
ACDBBLOCKREPETAG
1070
     1
1071
      225
1005
125DEB
  0
LINE
  5
125DEC
  8
OBJECT
 10
7944.804121000001
 20
-162.88106899999821
 30
0.0
 11
8032.5345701092747
 21
-178.11554723457169
 31
0.0
1001
ACDBBLOCKREPETAG
1070
     1
1071
      226
1005
125DEC
  0
ARC
  5
125DED
  8
OBJECT
 10
8000.0
 20
-199.99999999999909
 30
0.0
 40
92.5
 50
197.8018954425261
 51
252.19810417408729
1001
ACDBBLOCKREPETAG
1070
     1
1071
      230
1005
125DED
  0
ARC
  5
125DEE
  8
OBJECT
 10
8000.0
 20
-199.99999999999909
 30
0.0
 40
92.5
 50
107.80189486746769
 51
162.19810513270031
1001
ACDBBLOCKREPETAG
1070
     1
1071
      231
1005
125DEE
  0
ARC
  5
125DEF
  8
OBJECT
 10
8000.0
 20
-199.99999999999909
 30
0.0
 40
92.5
 50
17.801895825711568
 51
72.19810417408732
1001
ACDBBLOCKREPETAG
1070
     1
1071
      232
1005
125DEF
  0
ARC
  5
125DF0
  8
OBJECT
 10
8000.0
 20
-199.99999999999909
 30
0.0
 40
62.5
 50
144.42390307805491
 51
193.7174643726803
1001
ACDBBLOCKREPETAG
1070
     1
1071
      234
1005
125DF0
  0
ARC
  5
125DF1
  8
OBJECT
 10
8000.0
 20
-199.99999999999909
 30
0.0
 40
62.5
 50
262.64111297834887
 51
33.92683896333525
1001
ACDBBLOCKREPETAG
1070
     1
1071
      235
1005
125DF1
  0
POINT
  5
125DF2
  8
DOTS
 10
8000.0
 20
-199.99999999999909
 30
0.0
1001
ACDBBLOCKREPETAG
1070
     1
1071
      280
1005
125DF2
  0
LINE
  5
125DF3
  8
OBJECT
 10
8134.0
 20
-482.99999999999761
 30
0.0
 11
8134.0
 21
-480.99999999999773
 31
0.0
1001
ACDBBLOCKREPETAG
1070
     1
1071
      157
1005
125DF3
  0
ARC
  5
125DF4
  8
OBJECT
 10
8175.1865574982548
 20
-500.99999999999773
 30
0.0
 40
59.0
 50
229.20276883323919
 51
270.0
1001
ACDBBLOCKREPETAG
1070
     1
1071
      158
1005
125DF4
  0
LINE
  5
125DF5
  8
OBJECT
 10
8244.0
 20
-489.49999999999773
 30
0.0
 11
8109.0
 21
-489.49999999999773
 31
0.0
1001
ACDBBLOCKREPETAG
1070
     1
1071
      159
1005
125DF5
  0
LINE
  5
125DF6
  8
OBJECT
 10
8109.0
 20
-502.49999999999773
 30
0.0
 11
8244.0
 21
-502.49999999999773
 31
0.0
1001
ACDBBLOCKREPETAG
1070
     1
1071
      160
1005
125DF6
  0
LINE
  5
125DF7
  8
OBJECT
 10
8109.0
 20
-489.49999999999773
 30
0.0
 11
8109.0
 21
-502.49999999999773
 31
0.0
1001
ACDBBLOCKREPETAG
1070
     1
1071
      161
1005
125DF7
  0
LINE
  5
125DF8
  8
OBJECT
 10
8116.0
 20
-511.49999999999773
 30
0.0
 11
8116.0
 21
-502.49999999999773
 31
0.0
1001
ACDBBLOCKREPETAG
1070
     1
1071
      162
1005
125DF8
  0
LINE
  5
125DF9
  8
OBJECT
 10
8134.0
 20
-514.99999999999773
 30
0.0
 11
8134.0
 21
-502.49999999999773
 31
0.0
1001
ACDBBLOCKREPETAG
1070
     1
1071
      163
1005
125DF9
  0
LINE
  5
125DFA
  8
OBJECT
 10
8224.0
 20
-511.49999999999773
 30
0.0
 11
8224.0
 21
-502.49999999999773
 31
0.0
1001
ACDBBLOCKREPETAG
1070
     1
1071
      164
1005
125DFA
  0
LINE
  5
125DFB
  8
OBJECT
 10
8244.0
 20
-489.49999999999773
 30
0.0
 11
8244.0
 21
-502.49999999999773
 31
0.0
1001
ACDBBLOCKREPETAG
1070
     1
1071
      165
1005
125DFB
  0
LINE
  5
125DFC
  8
OBJECT
 10
8142.0
 20
-514.99999999999773
 30
0.0
 11
8142.0
 21
-502.49999999999773
 31
0.0
1001
ACDBBLOCKREPETAG
1070
     1
1071
      166
1005
125DFC
  0
LINE
  5
125DFD
  8
OBJECT
 10
8134.0
 20
-511.49999999999773
 30
0.0
 11
8115.0
 21
-511.49999999999773
 31
0.0
1001
ACDBBLOCKREPETAG
1070
     1
1071
      167
1005
125DFD
  0
LINE
  5
125DFE
  8
OBJECT
 10
8115.0
 20
-514.99999999999773
 30
0.0
 11
8115.0
 21
-511.49999999999773
 31
0.0
1001
ACDBBLOCKREPETAG
1070
     1
1071
      168
1005
125DFE
  0
LINE
  5
125DFF
  8
OBJECT
 10
8142.0
 20
-511.49999999999773
 30
0.0
 11
8225.0
 21
-511.49999999999773
 31
0.0
1001
ACDBBLOCKREPETAG
1070
     1
1071
      169
1005
125DFF
  0
LINE
  5
125E00
  8
OBJECT
 10
8225.0
 20
-511.49999999999773
 30
0.0
 11
8225.0
 21
-514.99999999999773
 31
0.0
1001
ACDBBLOCKREPETAG
1070
     1
1071
      170
1005
125E00
  0
LINE
  5
125E01
  8
OBJECT
 10
8130.494446500531
 20
-489.49999999999773
 30
0.0
 11
8130.494446500531
 21
-482.99999999999761
 31
0.0
1001
ACDBBLOCKREPETAG
1070
     1
1071
      171
1005
125E01
  0
LINE
  5
125E02
  8
OBJECT
 10
8129.0
 20
-527.99999999999773
 30
0.0
 11
8129.0
 21
-532.99999999999761
 31
0.0
1001
ACDBBLOCKREPETAG
1070
     1
1071
      172
1005
125E02
  0
LINE
  5
125E03
  8
OBJECT
 10
8129.0
 20
-532.99999999999761
 30
0.0
 11
8147.0
 21
-532.99999999999761
 31
0.0
1001
ACDBBLOCKREPETAG
1070
     1
1071
      173
1005
125E03
  0
LINE
  5
125E04
  8
OBJECT
 10
8147.0
 20
-527.99999999999773
 30
0.0
 11
8147.0
 21
-532.99999999999761
 31
0.0
1001
ACDBBLOCKREPETAG
1070
     1
1071
      174
1005
125E04
  0
LINE
  5
125E05
  8
OBJECT
 10
8109.0000000000027
 20
-514.99999999999773
 30
0.0
 11
8244.0
 21
-514.99999999999773
 31
0.0
1001
ACDBBLOCKREPETAG
1070
     1
1071
      175
1005
125E05
  0
LINE
  5
125E06
  8
OBJECT
 10
8244.0
 20
-514.99999999999773
 30
0.0
 11
8244.0
 21
-527.99999999999773
 31
0.0
1001
ACDBBLOCKREPETAG
1070
     1
1071
      176
1005
125E06
  0
LINE
  5
125E07
  8
OBJECT
 10
8136.6369002447645
 20
-545.66457125774514
 30
0.0
 11
8116.1702980000027
 21
-527.99999999999773
 31
0.0
1001
ACDBBLOCKREPETAG
1070
     1
1071
      177
1005
125E07
  0
LINE
  5
125E08
  8
OBJECT
 10
8221.0000000000018
 20
-535.65708264965485
 30
0.0
 11
8221.0000000000018
 21
-559.99999999999773
 31
0.0
1001
ACDBBLOCKREPETAG
1070
     1
1071
      178
1005
125E08
  0
LINE
  5
125E09
  8
OBJECT
 10
8175.1865574982548
 20
-559.99999999999773
 30
0.0
 11
8221.0000000000018
 21
-559.99999999999773
 31
0.0
1001
ACDBBLOCKREPETAG
1070
     1
1071
      179
1005
125E09
  0
ARC
  5
125E0A
  8
OBJECT
 10
8130.5000000000027
 20
-561.49999999999773
 30
0.0
 40
84.0
 50
277.05348487097029
 51
1.023193303671255
1001
ACDBBLOCKREPETAG
1070
     1
1071
      180
1005
125E0A
  0
LINE
  5
125E0B
  8
OBJECT
 10
8106.0
 20
-649.17200317020831
 30
0.0
 11
8140.8148488128809
 21
-644.86428428270165
 31
0.0
1001
ACDBBLOCKREPETAG
1070
     1
1071
      181
1005
125E0B
  0
LINE
  5
125E0C
  8
OBJECT
 10
8106.0000000000027
 20
-649.99999999999852
 30
0.0
 11
8106.0000000000027
 21
-528.99999999999761
 31
0.0
1001
ACDBBLOCKREPETAG
1070
     1
1071
      182
1005
125E0C
  0
ARC
  5
125E0D
  8
OBJECT
 10
8103.0000000000027
 20
-649.99999999999852
 30
0.0
 40
3.0
 50
270.0
 51
0.0
1001
ACDBBLOCKREPETAG
1070
     1
1071
      183
1005
125E0D
  0
LINE
  5
125E0E
  8
OBJECT
 10
8116.1702980000027
 20
-527.99999999999773
 30
0.0
 11
8244.0
 21
-527.99999999999773
 31
0.0
1001
ACDBBLOCKREPETAG
1070
     1
1071
      184
1005
125E0E
  0
LINE
  5
125E0F
  8
OBJECT
 10
8125.053913851727
 20
-535.65708264965485
 30
0.0
 11
8221.0000000000018
 21
-535.65708264965485
 31
0.0
1001
ACDBBLOCKREPETAG
1070
     1
1071
      185
1005
125E0F
  0
LINE
  5
125E10
  8
OBJECT
 10
8225.0
 20
-530.89006764214673
 30
0.0
 11
8221.0000000000018
 21
-535.65708264965485
 31
0.0
1001
ACDBBLOCKREPETAG
1070
     1
1071
      186
1005
125E10
  0
LINE
  5
125E11
  8
OBJECT
 10
8109.0000000000027
 20
-514.99999999999773
 30
0.0
 11
8109.0000000000073
 21
-528.99999999999761
 31
0.0
1001
ACDBBLOCKREPETAG
1070
     1
1071
      187
1005
125E11
  0
LINE
  5
125E12
  8
HIDDEN
 10
8125.5
 20
-554.99999999999773
 30
0.0
 11
8214.4999999999982
 21
-554.99999999999773
 31
0.0
1001
ACDBBLOCKREPETAG
1070
     1
1071
      188
1005
125E12
  0
LINE
  5
125E13
  8
OBJECT
 10
8134.0
 20
-480.99999999999773
 30
0.0
 11
8142.0
 21
-480.99999999999773
 31
0.0
1001
ACDBBLOCKREPETAG
1070
     1
1071
      189
1005
125E13
  0
LINE
  5
125E14
  8
OBJECT
 10
8142.0
 20
-482.99999999999761
 30
0.0
 11
8142.0
 21
-480.99999999999773
 31
0.0
1001
ACDBBLOCKREPETAG
1070
     1
1071
      190
1005
125E14
  0
LINE
  5
125E15
  8
OBJECT
 10
8130.494446500531
 20
-482.99999999999761
 30
0.0
 11
8145.5055534994644
 21
-482.99999999999761
 31
0.0
1001
ACDBBLOCKREPETAG
1070
     1
1071
      191
1005
125E15
  0
LINE
  5
125E16
  8
CENTER
 10
8170.0
 20
-574.77158855533025
 30
0.0
 11
8170.0
 21
-474.49999999999773
 31
0.0
1001
ACDBBLOCKREPETAG
1070
     1
1071
      193
1005
125E16
  0
LINE
  5
125E17
  8
OBJECT
 10
8100.0
 20
-652.99999999999761
 30
0.0
 11
8103.0000000000027
 21
-652.99999999999852
 31
0.0
1001
ACDBBLOCKREPETAG
1070
     1
1071
      194
1005
125E17
  0
LINE
  5
125E18
  8
OBJECT
 10
8100.0
 20
-528.99999999999761
 30
0.0
 11
8109.0000000000073
 21
-528.99999999999761
 31
0.0
1001
ACDBBLOCKREPETAG
1070
     1
1071
      195
1005
125E18
  0
LINE
  5
125E19
  8
OBJECT
 10
8134.2471969783937
 20
-489.49998110540878
 30
0.0
 11
8134.2471969783937
 21
-482.99998110540878
 31
0.0
1001
ACDBBLOCKREPETAG
1070
     1
1071
      196
1005
125E19
  0
LINE
  5
125E1A
  8
OBJECT
 10
8145.5055534994644
 20
-489.49999999999773
 30
0.0
 11
8145.5055534994644
 21
-482.99999999999761
 31
0.0
1001
ACDBBLOCKREPETAG
1070
     1
1071
      197
1005
125E1A
  0
LINE
  5
125E1B
  8
OBJECT
 10
8141.7528030216063
 20
-489.49998110540878
 30
0.0
 11
8141.7528030216063
 21
-482.99998110540878
 31
0.0
1001
ACDBBLOCKREPETAG
1070
     1
1071
      198
1005
125E1B
  0
LINE
  5
125E1C
  8
OBJECT
 10
8230.0
 20
-482.99999999999761
 30
0.0
 11
8230.0
 21
-480.99999999999773
 31
0.0
1001
ACDBBLOCKREPETAG
1070
     1
1071
      199
1005
125E1C
  0
LINE
  5
125E1D
  8
OBJECT
 10
8230.0
 20
-514.99999999999773
 30
0.0
 11
8230.0
 21
-502.49999999999773
 31
0.0
1001
ACDBBLOCKREPETAG
1070
     1
1071
      200
1005
125E1D
  0
LINE
  5
125E1E
  8
OBJECT
 10
8238.0
 20
-514.99999999999773
 30
0.0
 11
8238.0
 21
-502.49999999999773
 31
0.0
1001
ACDBBLOCKREPETAG
1070
     1
1071
      201
1005
125E1E
  0
LINE
  5
125E1F
  8
OBJECT
 10
8226.4944465005337
 20
-489.49999999999773
 30
0.0
 11
8226.4944465005337
 21
-482.99999999999761
 31
0.0
1001
ACDBBLOCKREPETAG
1070
     1
1071
      202
1005
125E1F
  0
LINE
  5
125E20
  8
OBJECT
 10
8225.0
 20
-527.99999999999773
 30
0.0
 11
8225.0
 21
-532.99999999999761
 31
0.0
1001
ACDBBLOCKREPETAG
1070
     1
1071
      203
1005
125E20
  0
LINE
  5
125E21
  8
OBJECT
 10
8225.0
 20
-532.99999999999761
 30
0.0
 11
8243.0
 21
-532.99999999999761
 31
0.0
1001
ACDBBLOCKREPETAG
1070
     1
1071
      204
1005
125E21
  0
LINE
  5
125E22
  8
OBJECT
 10
8243.0
 20
-527.99999999999773
 30
0.0
 11
8243.0
 21
-532.99999999999761
 31
0.0
1001
ACDBBLOCKREPETAG
1070
     1
1071
      205
1005
125E22
  0
LINE
  5
125E23
  8
OBJECT
 10
8230.0
 20
-480.99999999999773
 30
0.0
 11
8238.0
 21
-480.99999999999773
 31
0.0
1001
ACDBBLOCKREPETAG
1070
     1
1071
      206
1005
125E23
  0
LINE
  5
125E24
  8
OBJECT
 10
8238.0
 20
-482.99999999999761
 30
0.0
 11
8238.0
 21
-480.99999999999773
 31
0.0
1001
ACDBBLOCKREPETAG
1070
     1
1071
      207
1005
125E24
  0
LINE
  5
125E25
  8
OBJECT
 10
8226.4944465005337
 20
-482.99999999999761
 30
0.0
 11
8241.5055534994644
 21
-482.99999999999761
 31
0.0
1001
ACDBBLOCKREPETAG
1070
     1
1071
      208
1005
125E25
  0
LINE
  5
125E26
  8
OBJECT
 10
8230.2471969783928
 20
-489.49998110540878
 30
0.0
 11
8230.2471969783928
 21
-482.99998110540878
 31
0.0
1001
ACDBBLOCKREPETAG
1070
     1
1071
      209
1005
125E26
  0
LINE
  5
125E27
  8
OBJECT
 10
8241.5055534994644
 20
-489.49999999999773
 30
0.0
 11
8241.5055534994644
 21
-482.99999999999761
 31
0.0
1001
ACDBBLOCKREPETAG
1070
     1
1071
      210
1005
125E27
  0
LINE
  5
125E28
  8
OBJECT
 10
8237.7528030216054
 20
-489.49998110540878
 30
0.0
 11
8237.7528030216054
 21
-482.99998110540878
 31
0.0
1001
ACDBBLOCKREPETAG
1070
     1
1071
      211
1005
125E28
  0
LINE
  5
125E29
  8
CENTER
 10
8100.0
 20
-199.99999999999909
 30
0.0
 11
8259.0
 21
-199.99999999999909
 31
0.0
1001
ACDBBLOCKREPETAG
1070
     1
1071
      155
1005
125E29
  0
LINE
  5
125E2A
  8
OBJECT
 10
8100.0
 20
-261.99999999999909
 30
0.0
 11
8103.0
 21
-261.99999999999909
 31
0.0
1001
ACDBBLOCKREPETAG
1070
     1
1071
      156
1005
125E2A
  0
ARC
  5
125E2B
  8
OBJECT
 10
8103.0
 20
-258.99999999999909
 30
0.0
 40
3.0
 50
270.0
 51
0.0
1001
ACDBBLOCKREPETAG
1070
     1
1071
      157
1005
125E2B
  0
LINE
  5
125E2C
  8
OBJECT
 10
8100.0
 20
-138.0000000000027
 30
0.0
 11
8103.0
 21
-138.0000000000027
 31
0.0
1001
ACDBBLOCKREPETAG
1070
     1
1071
      158
1005
125E2C
  0
LINE
  5
125E2D
  8
OBJECT
 10
8106.0
 20
-140.99999999999909
 30
0.0
 11
8128.6547275935327
 21
-140.9999999999954
 31
0.0
1001
ACDBBLOCKREPETAG
1070
     1
1071
      159
1005
125E2D
  0
LINE
  5
125E2E
  8
OBJECT
 10
8106.0
 20
-259.00000000000267
 30
0.0
 11
8128.6547275935327
 21
-258.99999999999909
 31
0.0
1001
ACDBBLOCKREPETAG
1070
     1
1071
      160
1005
125E2E
  0
LINE
  5
125E2F
  8
CENTER
 10
8170.0
 20
-123.5195984073716
 30
0.0
 11
8170.0
 21
-276.48040159262649
 31
0.0
1001
ACDBBLOCKREPETAG
1070
     1
1071
      161
1005
125E2F
  0
LINE
  5
125E30
  8
OBJECT
 10
8106.0
 20
-141.0000000000027
 30
0.0
 11
8106.0
 21
-258.99999999999909
 31
0.0
1001
ACDBBLOCKREPETAG
1070
     1
1071
      162
1005
125E30
  0
ARC
  5
125E31
  8
OBJECT
 10
8103.0
 20
-141.0000000000027
 30
0.0
 40
3.0
 50
0.0
 51
90.0
1001
ACDBBLOCKREPETAG
1070
     1
1071
      163
1005
125E31
  0
ARC
  5
125E32
  8
OBJECT
 10
8170.0
 20
-199.99999999999909
 30
0.0
 40
61.0
 50
37.167285461274467
 51
82.832714538705744
1001
ACDBBLOCKREPETAG
1070
     1
1071
      165
1005
125E32
  0
ARC
  5
125E33
  8
OBJECT
 10
8170.0
 20
-199.99999999999909
 30
0.0
 40
61.0
 50
157.16728546127851
 51
202.83271453872149
1001
ACDBBLOCKREPETAG
1070
     1
1071
      166
1005
125E33
  0
ARC
  5
125E34
  8
OBJECT
 10
8170.0
 20
-199.99999999999909
 30
0.0
 40
61.0
 50
277.16728546129423
 51
322.83271453872419
1001
ACDBBLOCKREPETAG
1070
     1
1071
      167
1005
125E34
  0
CIRCLE
  5
125E35
  8
SLIM
 10
8234.0
 20
-199.99999999999909
 30
0.0
 40
4.0
1001
ACDBBLOCKREPETAG
1070
     1
1071
      168
1005
125E35
  0
ARC
  5
125E36
  8
OBJECT
 10
8234.0
 20
-199.99999999999909
 30
0.0
 40
10.0
 50
322.83271453872419
 51
37.167285461274467
1001
ACDBBLOCKREPETAG
1070
     1
1071
      169
1005
125E36
  0
LINE
  5
125E37
  8
OBJECT
 10
8218.6093749999964
 20
-163.14720279124501
 30
0.0
 11
8241.9687499999982
 21
-193.9585578346296
 31
0.0
1001
ACDBBLOCKREPETAG
1070
     1
1071
      170
1005
125E37
  0
LINE
  5
125E38
  8
OBJECT
 10
8218.6093749999964
 20
-236.8527972087532
 30
0.0
 11
8241.9687499999982
 21
-206.04144216536861
 31
0.0
1001
ACDBBLOCKREPETAG
1070
     1
1071
      171
1005
125E38
  0
CIRCLE
  5
125E39
  8
SLIM
 10
8138.0
 20
-144.5743741577962
 30
0.0
 40
3.9999999999999991
1001
ACDBBLOCKREPETAG
1070
     1
1071
      172
1005
125E39
  0
ARC
  5
125E3A
  8
OBJECT
 10
8138.0
 20
-144.5743741577962
 30
0.0
 40
9.9999999999999982
 50
82.832714538705744
 51
157.16728546127851
1001
ACDBBLOCKREPETAG
1070
     1
1071
      173
1005
125E3A
  0
LINE
  5
125E3B
  8
OBJECT
 10
8113.779853916707
 20
-176.32944499229319
 30
0.0
 11
8128.783582609296
 21
-140.6939553040711
 31
0.0
1001
ACDBBLOCKREPETAG
1070
     1
1071
      174
1005
125E3B
  0
LINE
  5
125E3C
  8
OBJECT
 10
8177.6107710832994
 20
-139.47664778353919
 30
0.0
 11
8139.2476673907031
 21
-134.65251313870161
 31
0.0
1001
ACDBBLOCKREPETAG
1070
     1
1071
      175
1005
125E3C
  0
CIRCLE
  5
125E3D
  8
SLIM
 10
8138.0
 20
-255.4256258422019
 30
0.0
 40
4.0
1001
ACDBBLOCKREPETAG
1070
     1
1071
      176
1005
125E3D
  0
ARC
  5
125E3E
  8
OBJECT
 10
8138.0
 20
-255.4256258422019
 30
0.0
 40
10.0
 50
202.83271453872149
 51
277.16728546129423
1001
ACDBBLOCKREPETAG
1070
     1
1071
      177
1005
125E3E
  0
LINE
  5
125E3F
  8
OBJECT
 10
8177.6107710832994
 20
-260.52335221645899
 30
0.0
 11
8139.2476673907031
 21
-265.3474868612966
 31
0.0
1001
ACDBBLOCKREPETAG
1070
     1
1071
      178
1005
125E3F
  0
LINE
  5
125E40
  8
OBJECT
 10
8113.779853916707
 20
-223.67055500770491
 30
0.0
 11
8128.783582609296
 21
-259.30604469592708
 31
0.0
1001
ACDBBLOCKREPETAG
1070
     1
1071
      179
1005
125E40
  0
CIRCLE
  5
125E41
  8
OBJECT
 10
8170.0
 20
-199.99999999999909
 30
0.0
 40
46.0
1001
ACDBBLOCKREPETAG
1070
     1
1071
      180
1005
125E41
  0
POLYLINE
  5
125E42
  8
SLIM
 66
     1
 10
0.0
 20
0.0
 30
0.0
 70
     1
1001
ACDBBLOCKREPETAG
1070
     1
1071
      181
1005
125E42
  0
VERTEX
  5
12671F
  8
SLIM
 10
8230.247223250266
 20
-193.49999999999909
 30
0.0
  0
VERTEX
  5
126720
  8
SLIM
 10
8226.4944465005337
 20
-199.99999999999909
 30
0.0
  0
VERTEX
  5
126721
  8
SLIM
 10
8230.247223250266
 20
-206.49999999999909
 30
0.0
  0
VERTEX
  5
126722
  8
SLIM
 10
8237.7527767497359
 20
-206.49999999999909
 30
0.0
  0
VERTEX
  5
126723
  8
SLIM
 10
8241.5055534994644
 20
-199.99999999999909
 30
0.0
  0
VERTEX
  5
126724
  8
SLIM
 10
8237.7527767497359
 20
-193.49999999999909
 30
0.0
  0
SEQEND
  5
126725
  8
SLIM
  0
POLYLINE
  5
125E43
  8
SLIM
 66
     1
 10
0.0
 20
0.0
 30
0.0
 70
     1
1001
ACDBBLOCKREPETAG
1070
     1
1071
      182
1005
125E43
  0
VERTEX
  5
126726
  8
SLIM
 10
8134.2472232502678
 20
-151.0743741577962
 30
0.0
  0
VERTEX
  5
126727
  8
SLIM
 10
8141.7527767497377
 20
-151.0743741577962
 30
0.0
  0
VERTEX
  5
126728
  8
SLIM
 10
8145.5055534994644
 20
-144.5743741577962
 30
0.0
  0
VERTEX
  5
126729
  8
SLIM
 10
8141.7527767497313
 20
-138.07437415779259
 30
0.0
  0
VERTEX
  5
12672A
  8
SLIM
 10
8134.2472232502678
 20
-138.0743741577962
 30
0.0
  0
VERTEX
  5
12672B
  8
SLIM
 10
8130.494446500531
 20
-144.57437415779259
 30
0.0
  0
SEQEND
  5
12672C
  8
SLIM
  0
POLYLINE
  5
125E44
  8
SLIM
 66
     1
 10
0.0
 20
0.0
 30
0.0
 70
     1
1001
ACDBBLOCKREPETAG
1070
     1
1071
      183
1005
125E44
  0
VERTEX
  5
12672D
  8
SLIM
 10
8145.5055534994644
 20
-255.4256258422019
 30
0.0
  0
VERTEX
  5
12672E
  8
SLIM
 10
8141.7527767497313
 20
-248.9256258422019
 30
0.0
  0
VERTEX
  5
12672F
  8
SLIM
 10
8134.2472232502678
 20
-248.9256258422019
 30
0.0
  0
VERTEX
  5
126730
  8
SLIM
 10
8130.494446500531
 20
-255.42562584220559
 30
0.0
  0
VERTEX
  5
126731
  8
SLIM
 10
8134.247223250266
 20
-261.9256258422019
 30
0.0
  0
VERTEX
  5
126732
  8
SLIM
 10
8141.7527767497313
 20
-261.92562584220559
 30
0.0
  0
SEQEND
  5
126733
  8
SLIM
  0
LINE
  5
125E45
  8
OBJECT
 10
5897.0
 20
-528.99999999999761
 30
0.0
 11
5900.0
 21
-528.99999999999761
 31
0.0
1001
ACDBBLOCKREPETAG
1070
     1
1071
        1
1005
125E45
  0
ARC
  5
125E46
  8
OBJECT
 10
5897.0
 20
-531.99999999999773
 30
0.0
 40
3.0
 50
90.0
 51
180.0
1001
ACDBBLOCKREPETAG
1070
     1
1071
        2
1005
125E46
  0
LINE
  5
125E47
  8
OBJECT
 10
5900.0
 20
-652.99999999999761
 30
0.0
 11
5897.0
 21
-652.99999999999761
 31
0.0
1001
ACDBBLOCKREPETAG
1070
     1
1071
        3
1005
125E47
  0
ARC
  5
125E48
  8
OBJECT
 10
5897.0
 20
-649.99999999999761
 30
0.0
 40
3.0
 50
180.0
 51
270.0
1001
ACDBBLOCKREPETAG
1070
     1
1071
        4
1005
125E48
  0
LINE
  5
125E49
  8
OBJECT
 10
5894.0
 20
-649.99999999999761
 30
0.0
 11
5894.0
 21
-531.99999999999773
 31
0.0
1001
ACDBBLOCKREPETAG
1070
     1
1071
        5
1005
125E49
  0
CIRCLE
  5
125E4A
  8
OBJECT
 10
6000.0
 20
-590.99999999999761
 30
0.0
 40
62.0
1001
ACDBBLOCKREPETAG
1070
     1
1071
        0
1005
125E4A
  0
LINE
  5
125E4B
  8
OBJECT
 10
6095.0
 20
-469.99999999999932
 30
0.0
 11
5905.0
 21
-469.99999999999932
 31
0.0
1001
ACDBBLOCKREPETAG
1070
     1
1071
        0
1005
125E4B
  0
LINE
  5
125E4C
  8
OBJECT
 10
6095.0
 20
-449.99999999999932
 30
0.0
 11
5905.0
 21
-449.99999999999932
 31
0.0
1001
ACDBBLOCKREPETAG
1070
     1
1071
        1
1005
125E4C
  0
LINE
  5
125E4D
  8
OBJECT
 10
5902.4999999999991
 20
-814.99999999999955
 30
0.0
 11
6097.5
 21
-814.99999999999955
 31
0.0
1001
ACDBBLOCKREPETAG
1070
     1
1071
        2
1005
125E4D
  0
LINE
  5
125E4E
  8
OBJECT
 10
5908.237046000002
 20
-449.99999999999932
 30
0.0
 11
5908.2370465822614
 21
-469.99999999999932
 31
0.0
1001
ACDBBLOCKREPETAG
1070
     1
1071
        3
1005
125E4E
  0
LINE
  5
125E4F
  8
OBJECT
 10
5905.0
 20
-449.99999999999932
 30
0.0
 11
5905.0
 21
-469.99999999999932
 31
0.0
1001
ACDBBLOCKREPETAG
1070
     1
1071
        4
1005
125E4F
  0
LINE
  5
125E50
  8
OBJECT
 10
5916.0249089999998
 20
-449.99999999999932
 30
0.0
 11
5916.0249089999998
 21
-469.99999999999932
 31
0.0
1001
ACDBBLOCKREPETAG
1070
     1
1071
        5
1005
125E50
  0
LINE
  5
125E51
  8
OBJECT
 10
5967.6243270000023
 20
-449.99999999999932
 30
0.0
 11
5967.6243270000023
 21
-469.99999999999932
 31
0.0
1001
ACDBBLOCKREPETAG
1070
     1
1071
        6
1005
125E51
  0
LINE
  5
125E52
  8
OBJECT
 10
5975.41219
 20
-449.99999999999932
 30
0.0
 11
5975.41219
 21
-469.99999999999932
 31
0.0
1001
ACDBBLOCKREPETAG
1070
     1
1071
        7
1005
125E52
  0
LINE
  5
125E53
  8
OBJECT
 10
6024.5878089999987
 20
-449.99999999999932
 30
0.0
 11
6024.5878089999987
 21
-469.99999999999932
 31
0.0
1001
ACDBBLOCKREPETAG
1070
     1
1071
        8
1005
125E53
  0
LINE
  5
125E54
  8
OBJECT
 10
6032.3756720000029
 20
-449.99999999999932
 30
0.0
 11
6032.3756720000029
 21
-469.99999999999932
 31
0.0
1001
ACDBBLOCKREPETAG
1070
     1
1071
        9
1005
125E54
  0
LINE
  5
125E55
  8
OBJECT
 10
6083.9750910000012
 20
-449.99999999999932
 30
0.0
 11
6083.9750910000012
 21
-469.99999999999932
 31
0.0
1001
ACDBBLOCKREPETAG
1070
     1
1071
       10
1005
125E55
  0
LINE
  5
125E56
  8
OBJECT
 10
6091.762953999998
 20
-449.99999999999932
 30
0.0
 11
6091.7629534177431
 21
-469.99999999999932
 31
0.0
1001
ACDBBLOCKREPETAG
1070
     1
1071
       11
1005
125E56
  0
LINE
  5
125E57
  8
OBJECT
 10
6095.0
 20
-449.99999999999932
 30
0.0
 11
6095.0
 21
-469.99999999999932
 31
0.0
1001
ACDBBLOCKREPETAG
1070
     1
1071
       12
1005
125E57
  0
LINE
  5
125E58
  8
OBJECT
 10
6100.0
 20
-528.99999999999955
 30
0.0
 11
5900.0
 21
-528.99999999999955
 31
0.0
1001
ACDBBLOCKREPETAG
1070
     1
1071
       13
1005
125E58
  0
LINE
  5
125E59
  8
OBJECT
 10
6100.0
 20
-652.99999999999761
 30
0.0
 11
6092.5000000000009
 21
-652.99999999999761
 31
0.0
1001
ACDBBLOCKREPETAG
1070
     1
1071
       14
1005
125E59
  0
LINE
  5
125E5A
  8
OBJECT
 10
5902.4999999999991
 20
-814.99999999999955
 30
0.0
 11
5902.4999999999991
 21
-802.99999999999784
 31
0.0
1001
ACDBBLOCKREPETAG
1070
     1
1071
       15
1005
125E5A
  0
LINE
  5
125E5B
  8
OBJECT
 10
6097.5
 20
-814.99999999999955
 30
0.0
 11
6097.5
 21
-802.99999999999784
 31
0.0
1001
ACDBBLOCKREPETAG
1070
     1
1071
       16
1005
125E5B
  0
LINE
  5
125E5C
  8
OBJECT
 10
5902.4999999999991
 20
-802.99999999999784
 30
0.0
 11
6097.5
 21
-802.99999999999784
 31
0.0
1001
ACDBBLOCKREPETAG
1070
     1
1071
       17
1005
125E5C
  0
LINE
  5
125E5D
  8
HIDDEN
 10
5930.0
 20
-524.99999999999955
 30
0.0
 11
6070.0
 21
-524.99999999999955
 31
0.0
1001
ACDBBLOCKREPETAG
1070
     1
1071
       18
1005
125E5D
  0
LINE
  5
125E5E
  8
CENTER
 10
6000.0
 20
-434.99999999999949
 30
0.0
 11
6000.0
 21
-814.99999999999955
 31
0.0
1001
ACDBBLOCKREPETAG
1070
     1
1071
       19
1005
125E5E
  0
LINE
  5
125E5F
  8
OBJECT
 10
6092.5000000000009
 20
-652.99999999999761
 30
0.0
 11
6092.5000000000009
 21
-802.99999999999784
 31
0.0
1001
ACDBBLOCKREPETAG
1070
     1
1071
       20
1005
125E5F
  0
LINE
  5
125E60
  8
OBJECT
 10
5914.5
 20
-469.99999999999932
 30
0.0
 11
5914.5
 21
-528.99999999999955
 31
0.0
1001
ACDBBLOCKREPETAG
1070
     1
1071
       21
1005
125E60
  0
LINE
  5
125E61
  8
OBJECT
 10
6085.5
 20
-469.99999999999932
 30
0.0
 11
6085.5
 21
-528.99999999999955
 31
0.0
1001
ACDBBLOCKREPETAG
1070
     1
1071
       22
1005
125E61
  0
POINT
  5
125E62
  8
DOTS
 10
6000.0
 20
-649.99999999999955
 30
0.0
1001
ACDBBLOCKREPETAG
1070
     1
1071
       24
1005
125E62
  0
LINE
  5
125E63
  8
OBJECT
 10
5900.0
 20
-652.99999999999761
 30
0.0
 11
5907.5
 21
-652.99999999999761
 31
0.0
1001
ACDBBLOCKREPETAG
1070
     1
1071
       25
1005
125E63
  0
LINE
  5
125E64
  8
OBJECT
 10
5907.5
 20
-652.99999999999761
 30
0.0
 11
5907.5
 21
-802.99999999999784
 31
0.0
1001
ACDBBLOCKREPETAG
1070
     1
1071
       26
1005
125E64
  0
ARC
  5
125E65
  8
OBJECT
 10
6214.4155190291494
 20
-615.62073879202455
 30
0.0
 40
149.554492306393
 50
144.60628028468801
 51
164.2211863995189
1001
ACDBBLOCKREPETAG
1070
     1
1071
       28
1005
125E65
  0
ARC
  5
125E66
  8
OBJECT
 10
6139.1422781245274
 20
-590.99999999999761
 30
0.0
 40
70.496447952551449
 50
166.8426918235858
 51
193.15730817641409
1001
ACDBBLOCKREPETAG
1070
     1
1071
       29
1005
125E66
  0
ARC
  5
125E67
  8
OBJECT
 10
6214.4155190291494
 20
-566.3792612079701
 30
0.0
 40
149.55449230639621
 50
195.7788136004809
 51
215.3937197153119
1001
ACDBBLOCKREPETAG
1070
     1
1071
       30
1005
125E67
  0
ARC
  5
125E68
  8
OBJECT
 10
5785.5844809708497
 20
-615.62073879202455
 30
0.0
 40
149.554492306393
 50
15.778813600524931
 51
35.393719715228642
1001
ACDBBLOCKREPETAG
1070
     1
1071
       31
1005
125E68
  0
ARC
  5
125E69
  8
OBJECT
 10
5860.8577218754717
 20
-590.99999999999761
 30
0.0
 40
70.496447952551449
 50
346.84269182358582
 51
13.15730817641421
1001
ACDBBLOCKREPETAG
1070
     1
1071
       32
1005
125E69
  0
ARC
  5
125E6A
  8
OBJECT
 10
5785.5844809708497
 20
-566.3792612079701
 30
0.0
 40
149.55449230639621
 50
324.60628028477117
 51
344.22118639947507
1001
ACDBBLOCKREPETAG
1070
     1
1071
       33
1005
125E6A
  0
LINE
  5
125E6B
  8
CENTER
 10
5878.9999999999973
 20
-199.99999999999909
 30
0.0
 11
5899.9999999999973
 21
-199.99999999999909
 31
0.0
1001
ACDBBLOCKREPETAG
1070
     1
1071
        0
1005
125E6B
  0
LINE
  5
125E6C
  8
OBJECT
 10
5896.9999999999973
 20
-261.99999999999909
 30
0.0
 11
5899.9999999999973
 21
-261.99999999999909
 31
0.0
1001
ACDBBLOCKREPETAG
1070
     1
1071
        1
1005
125E6C
  0
ARC
  5
125E6D
  8
OBJECT
 10
5896.9999999999973
 20
-258.99999999999909
 30
0.0
 40
3.0
 50
180.0
 51
270.0
1001
ACDBBLOCKREPETAG
1070
     1
1071
        2
1005
125E6D
  0
LINE
  5
125E6E
  8
OBJECT
 10
5899.9999999999973
 20
-137.99999999999909
 30
0.0
 11
5896.9999999999973
 21
-137.99999999999909
 31
0.0
1001
ACDBBLOCKREPETAG
1070
     1
1071
        3
1005
125E6E
  0
ARC
  5
125E6F
  8
OBJECT
 10
5896.9999999999973
 20
-140.99999999999909
 30
0.0
 40
3.0
 50
90.0
 51
180.0
1001
ACDBBLOCKREPETAG
1070
     1
1071
        4
1005
125E6F
  0
LINE
  5
125E70
  8
OBJECT
 10
5893.9999999999982
 20
-140.99999999999909
 30
0.0
 11
5893.9999999999982
 21
-258.99999999999909
 31
0.0
1001
ACDBBLOCKREPETAG
1070
     1
1071
        5
1005
125E70
  0
LINE
  5
125E71
  8
CENTER
 10
6000.0000000000027
 20
-320.99999999999892
 30
0.0
 11
6000.0000000000027
 21
-299.99999999999892
 31
0.0
1001
ACDBBLOCKREPETAG
1070
     1
1071
        0
1005
125E71
  0
LINE
  5
125E72
  8
OBJECT
 10
6062.0000000000036
 20
-303.0
 30
0.0
 11
6062.0000000000036
 21
-299.99999999999892
 31
0.0
1001
ACDBBLOCKREPETAG
1070
     1
1071
        1
1005
125E72
  0
ARC
  5
125E73
  8
OBJECT
 10
6059.0000000000036
 20
-303.0
 30
0.0
 40
3.0
 50
270.0
 51
0.0
1001
ACDBBLOCKREPETAG
1070
     1
1071
        2
1005
125E73
  0
LINE
  5
125E74
  8
OBJECT
 10
5938.0000000000036
 20
-299.99999999999892
 30
0.0
 11
5938.0000000000036
 21
-302.99999999999818
 31
0.0
1001
ACDBBLOCKREPETAG
1070
     1
1071
        3
1005
125E74
  0
ARC
  5
125E75
  8
OBJECT
 10
5941.0000000000036
 20
-302.99999999999818
 30
0.0
 40
3.0
 50
180.0
 51
270.0
1001
ACDBBLOCKREPETAG
1070
     1
1071
        4
1005
125E75
  0
LINE
  5
125E76
  8
OBJECT
 10
5941.0000000000036
 20
-305.99999999999818
 30
0.0
 11
6059.0000000000036
 21
-306.0
 31
0.0
1001
ACDBBLOCKREPETAG
1070
     1
1071
        5
1005
125E76
  0
LINE
  5
125E77
  8
SLIM
 10
5918.5743713244692
 20
-137.74153073842379
 30
0.0
 11
5937.7415307384244
 21
-118.5743713244679
 31
0.0
1001
GRADIENTCOLOR1ACI
1070
     5
1001
GRADIENTCOLOR2ACI
1070
     2
1001
ACAD
1010
0.0
1020
0.0
1030
0.0
1001
ACDBBLOCKREPETAG
1070
     1
1071
      301
1005
125E77
  0
LINE
  5
125E78
  8
SLIM
 10
5927.2961581839627
 20
-137.99999999999909
 30
0.0
 11
5959.4220169794125
 21
-105.8741412045496
 31
0.0
1001
GRADIENTCOLOR1ACI
1070
     5
1001
GRADIENTCOLOR2ACI
1070
     2
1001
ACAD
1010
0.0
1020
0.0
1030
0.0
1001
ACDBBLOCKREPETAG
1070
     1
1071
      302
1005
125E78
  0
LINE
  5
125E79
  8
SLIM
 10
5955.2080715681668
 20
-119.0683427368643
 30
0.0
 11
5973.2147923567727
 21
-101.06162194825821
 31
0.0
1001
GRADIENTCOLOR1ACI
1070
     5
1001
GRADIENTCOLOR2ACI
1070
     2
1001
ACAD
1010
0.0
1020
0.0
1030
0.0
1001
ACDBBLOCKREPETAG
1070
     1
1071
      303
1005
125E79
  0
LINE
  5
125E7A
  8
SLIM
 10
5971.1389053532557
 20
-112.11776507284389
 30
0.0
 11
5984.5919680901698
 21
-98.664702335928993
 31
0.0
1001
GRADIENTCOLOR1ACI
1070
     5
1001
GRADIENTCOLOR2ACI
1070
     2
1001
ACAD
1010
0.0
1020
0.0
1030
0.0
1001
ACDBBLOCKREPETAG
1070
     1
1071
      304
1005
125E7A
  0
LINE
  5
125E7B
  8
SLIM
 10
5986.2342955596041
 20
-106.0026309875652
 30
0.0
 11
5994.5942819876618
 21
-97.642644559507801
 31
0.0
1001
GRADIENTCOLOR1ACI
1070
     5
1001
GRADIENTCOLOR2ACI
1070
     2
1001
ACAD
1010
0.0
1020
0.0
1030
0.0
1001
ACDBBLOCKREPETAG
1070
     1
1071
      278
1005
125E7B
  0
LINE
  5
125E7C
  8
SLIM
 10
5996.1386775409328
 20
-105.0785051273038
 30
0.0
 11
6000.0
 21
-101.21718266823839
 31
0.0
1001
GRADIENTCOLOR1ACI
1070
     5
1001
GRADIENTCOLOR2ACI
1070
     2
1001
ACAD
1010
0.0
1020
0.0
1030
0.0
1001
ACDBBLOCKREPETAG
1070
     1
1071
      305
1005
125E7C
  0
LINE
  5
125E7D
  8
SLIM
 10
6000.0
 20
-101.21718266823839
 30
0.0
 11
6003.6520994194652
 21
-97.565083248774314
 31
0.0
1001
GRADIENTCOLOR1ACI
1070
     5
1001
GRADIENTCOLOR2ACI
1070
     2
1001
ACAD
1010
0.0
1020
0.0
1030
0.0
1001
ACDBBLOCKREPETAG
1070
     1
1071
      306
1005
125E7D
  0
LINE
  5
125E7E
  8
SLIM
 10
6005.0624562444937
 20
-105.13498254481389
 30
0.0
 11
6011.993358860951
 21
-98.204079928355625
 31
0.0
1001
GRADIENTCOLOR1ACI
1070
     5
1001
GRADIENTCOLOR2ACI
1070
     2
1001
ACAD
1010
0.0
1020
0.0
1030
0.0
1001
ACDBBLOCKREPETAG
1070
     1
1071
      307
1005
125E7E
  0
LINE
  5
125E7F
  8
SLIM
 10
6013.2492495222623
 20
-105.9284453881143
 30
0.0
 11
6019.7558130592479
 21
-99.421881851129058
 31
0.0
1001
GRADIENTCOLOR1ACI
1070
     5
1001
GRADIENTCOLOR2ACI
1070
     2
1001
ACAD
1010
0.0
1020
0.0
1030
0.0
1001
ACDBBLOCKREPETAG
1070
     1
1071
      282
1005
125E7F
  0
LINE
  5
125E80
  8
SLIM
 10
6020.8432248281188
 20
-107.31472620332499
 30
0.0
 11
6027.0297896486654
 21
-101.1281613827821
 31
0.0
1001
GRADIENTCOLOR1ACI
1070
     5
1001
GRADIENTCOLOR2ACI
1070
     2
1001
ACAD
1010
0.0
1020
0.0
1030
0.0
1001
ACDBBLOCKREPETAG
1070
     1
1071
      283
1005
125E80
  0
LINE
  5
125E81
  8
SLIM
 10
6026.7444850762586
 20
-110.3937220762563
 30
0.0
 11
6033.8777840865841
 21
-103.2604230659298
 31
0.0
1001
GRADIENTCOLOR1ACI
1070
     5
1001
GRADIENTCOLOR2ACI
1070
     2
1001
ACAD
1010
0.0
1020
0.0
1030
0.0
1001
ACDBBLOCKREPETAG
1070
     1
1071
      284
1005
125E81
  0
LINE
  5
125E82
  8
SLIM
 10
6032.6605739035567
 20
-113.4578893700272
 30
0.0
 11
6040.3445940865859
 21
-105.7738691869987
 31
0.0
1001
GRADIENTCOLOR1ACI
1070
     5
1001
GRADIENTCOLOR2ACI
1070
     2
1001
ACAD
1010
0.0
1020
0.0
1030
0.0
1001
ACDBBLOCKREPETAG
1070
     1
1071
      285
1005
125E82
  0
LINE
  5
125E83
  8
SLIM
 10
6038.9830129339689
 20
-116.115706460684
 30
0.0
 11
6046.4630285156381
 21
-108.63569087901411
 31
0.0
1001
GRADIENTCOLOR1ACI
1070
     5
1001
GRADIENTCOLOR2ACI
1070
     2
1001
ACAD
1010
0.0
1020
0.0
1030
0.0
1001
ACDBBLOCKREPETAG
1070
     1
1071
      286
1005
125E83
  0
LINE
  5
125E84
  8
SLIM
 10
6044.9326113883499
 20
-119.1463641273716
 30
0.0
 11
6052.2573273714534
 21
-111.8216481442697
 31
0.0
1001
GRADIENTCOLOR1ACI
1070
     5
1001
GRADIENTCOLOR2ACI
1070
     2
1001
ACAD
1010
0.0
1020
0.0
1030
0.0
1001
ACDBBLOCKREPETAG
1070
     1
1071
      287
1005
125E84
  0
LINE
  5
125E85
  8
SLIM
 10
6050.5348792738341
 20
-122.5243523629576
 30
0.0
 11
6057.7453005374236
 21
-115.3139310993673
 31
0.0
1001
GRADIENTCOLOR1ACI
1070
     5
1001
GRADIENTCOLOR2ACI
1070
     2
1001
ACAD
1010
0.0
1020
0.0
1030
0.0
1001
ACDBBLOCKREPETAG
1070
     1
1071
      288
1005
125E85
  0
LINE
  5
125E86
  8
SLIM
 10
5919.0997883728251
 20
-262.93969938503398
 30
0.0
 11
5920.039487757861
 21
-261.99999999999909
 31
0.0
1001
GRADIENTCOLOR1ACI
1070
     5
1001
GRADIENTCOLOR2ACI
1070
     2
1001
ACAD
1010
0.0
1020
0.0
1030
0.0
1001
ACDBBLOCKREPETAG
1070
     1
1071
      289
1005
125E86
  0
LINE
  5
125E87
  8
SLIM
 10
6055.807705723706
 20
-126.2317820341551
 30
0.0
 11
6062.9396993850351
 21
-119.0997883728258
 31
0.0
1001
GRADIENTCOLOR1ACI
1070
     5
1001
GRADIENTCOLOR2ACI
1070
     2
1001
ACAD
1010
0.0
1020
0.0
1030
0.0
1001
ACDBBLOCKREPETAG
1070
     1
1071
      290
1005
125E87
  0
LINE
  5
125E88
  8
SLIM
 10
5923.1706450290258
 20
-267.84909884990361
 30
0.0
 11
5929.0197438789319
 21
-261.99999999999909
 31
0.0
1001
GRADIENTCOLOR1ACI
1070
     5
1001
GRADIENTCOLOR2ACI
1070
     2
1001
ACAD
1010
0.0
1020
0.0
1030
0.0
1001
ACDBBLOCKREPETAG
1070
     1
1071
      291
1005
125E88
  0
LINE
  5
125E89
  8
SLIM
 10
6060.762946579669
 20
-130.25679729926071
 30
0.0
 11
6067.8490988499043
 21
-123.17064502902539
 31
0.0
1001
GRADIENTCOLOR1ACI
1070
     5
1001
GRADIENTCOLOR2ACI
1070
     2
1001
ACAD
1010
0.0
1020
0.0
1030
0.0
1001
ACDBBLOCKREPETAG
1070
     1
1071
      292
1005
125E89
  0
LINE
  5
125E8A
  8
SLIM
 10
5927.5215549283794
 20
-272.47844507162011
 30
0.0
 11
5934.5926227402442
 21
-265.40737725975481
 31
0.0
1001
GRADIENTCOLOR1ACI
1070
     5
1001
GRADIENTCOLOR2ACI
1070
     2
1001
ACAD
1010
0.0
1020
0.0
1030
0.0
1001
ACDBBLOCKREPETAG
1070
     1
1071
      293
1005
125E8A
  0
LINE
  5
125E8B
  8
SLIM
 10
6065.4073772597558
 20
-134.5926227402434
 30
0.0
 11
6072.4784450716206
 21
-127.52155492837799
 31
0.0
1001
GRADIENTCOLOR1ACI
1070
     5
1001
GRADIENTCOLOR2ACI
1070
     2
1001
ACAD
1010
0.0
1020
0.0
1030
0.0
1001
ACDBBLOCKREPETAG
1070
     1
1071
      294
1005
125E8B
  0
LINE
  5
125E8C
  8
SLIM
 10
5932.1509011500948
 20
-276.82935497097282
 30
0.0
 11
5937.9999999999936
 21
-270.980256121075
 31
0.0
1001
GRADIENTCOLOR1ACI
1070
     5
1001
GRADIENTCOLOR2ACI
1070
     2
1001
ACAD
1010
0.0
1020
0.0
1030
0.0
1001
ACDBBLOCKREPETAG
1070
     1
1071
      295
1005
125E8C
  0
LINE
  5
125E8D
  8
SLIM
 10
6070.980256121069
 20
-137.99999999999901
 30
0.0
 11
6076.8293549709733
 21
-132.15090115009451
 31
0.0
1001
GRADIENTCOLOR1ACI
1070
     5
1001
GRADIENTCOLOR2ACI
1070
     2
1001
ACAD
1010
0.0
1020
0.0
1030
0.0
1001
ACDBBLOCKREPETAG
1070
     1
1071
      296
1005
125E8D
  0
LINE
  5
125E8E
  8
SLIM
 10
5937.0603006149649
 20
-280.90021162717238
 30
0.0
 11
5937.9999999999973
 21
-279.9605122421421
 31
0.0
1001
GRADIENTCOLOR1ACI
1070
     5
1001
GRADIENTCOLOR2ACI
1070
     2
1001
ACAD
1010
0.0
1020
0.0
1030
0.0
1001
ACDBBLOCKREPETAG
1070
     1
1071
      297
1005
125E8E
  0
LINE
  5
125E8F
  8
SLIM
 10
6079.9605122421381
 20
-137.99999999999901
 30
0.0
 11
6080.900211627174
 21
-137.06030061496409
 31
0.0
1001
GRADIENTCOLOR1ACI
1070
     5
1001
GRADIENTCOLOR2ACI
1070
     2
1001
ACAD
1010
0.0
1020
0.0
1030
0.0
1001
ACDBBLOCKREPETAG
1070
     1
1071
      298
1005
125E8F
  0
LINE
  5
125E90
  8
SLIM
 10
6062.0000000000009
 20
-272.70384181603538
 30
0.0
 11
6072.7038418160373
 21
-261.99999999999909
 31
0.0
1001
GRADIENTCOLOR1ACI
1070
     5
1001
GRADIENTCOLOR2ACI
1070
     2
1001
ACAD
1010
0.0
1020
0.0
1030
0.0
1001
ACDBBLOCKREPETAG
1070
     1
1071
      299
1005
125E90
  0
LINE
  5
125E91
  8
SLIM
 10
6062.2584692615746
 20
-281.4256286755305
 30
0.0
 11
6081.4256286755299
 21
-262.25846926157431
 31
0.0
1001
GRADIENTCOLOR1ACI
1070
     5
1001
GRADIENTCOLOR2ACI
1070
     2
1001
ACAD
1010
0.0
1020
0.0
1030
0.0
1001
ACDBBLOCKREPETAG
1070
     1
1071
      300
1005
125E91
  0
LINE
  5
125E92
  8
OBJECT
 10
6068.6458301719767
 20
-137.99999999999909
 30
0.0
 11
6100.0
 21
-137.99999999999909
 31
0.0
1001
ACDBBLOCKREPETAG
1070
     1
1071
      242
1005
125E92
  0
LINE
  5
125E93
  8
OBJECT
 10
6068.6458301719767
 20
-261.99999999999909
 30
0.0
 11
6100.0000000000073
 21
-261.99999999999909
 31
0.0
1001
ACDBBLOCKREPETAG
1070
     1
1071
      243
1005
125E93
  0
LINE
  5
125E94
  8
OBJECT
 10
6062.0
 20
-268.64583017197862
 30
0.0
 11
6062.0000000000082
 21
-299.99999999999892
 31
0.0
1001
ACDBBLOCKREPETAG
1070
     1
1071
      244
1005
125E94
  0
LINE
  5
125E95
  8
OBJECT
 10
5937.9999999999927
 20
-268.64583017197492
 30
0.0
 11
5938.0
 21
-299.99999999999892
 31
0.0
1001
ACDBBLOCKREPETAG
1070
     1
1071
      245
1005
125E95
  0
LINE
  5
125E96
  8
OBJECT
 10
5931.3541698280223
 20
-261.99999999999909
 30
0.0
 11
5899.9999999999927
 21
-261.99999999999909
 31
0.0
1001
ACDBBLOCKREPETAG
1070
     1
1071
      246
1005
125E96
  0
LINE
  5
125E97
  8
OBJECT
 10
5931.3541698280223
 20
-137.99999999999909
 30
0.0
 11
5899.9999999999927
 21
-137.99999999999909
 31
0.0
1001
ACDBBLOCKREPETAG
1070
     1
1071
      247
1005
125E97
  0
LINE
  5
125E98
  8
CENTER
 10
5900.0
 20
-199.99999999999909
 30
0.0
 11
6100.0
 21
-199.99999999999909
 31
0.0
1001
ACDBBLOCKREPETAG
1070
     1
1071
      251
1005
125E98
  0
LINE
  5
125E99
  8
CENTER
 10
6000.0
 20
-82.499999999999091
 30
0.0
 11
6000.0
 21
-299.99999999999892
 31
0.0
1001
ACDBBLOCKREPETAG
1070
     1
1071
      252
1005
125E99
  0
ARC
  5
125E9A
  8
OBJECT
 10
6000.0
 20
-199.99999999999909
 30
0.0
 40
102.5
 50
37.220066868561332
 51
142.77993313143861
1001
ACDBBLOCKREPETAG
1070
     1
1071
      256
1005
125E9A
  0
ARC
  5
125E9B
  8
OBJECT
 10
6000.0
 20
-199.99999999999909
 30
0.0
 40
102.5
 50
217.2200668685613
 51
232.7799331314061
1001
ACDBBLOCKREPETAG
1070
     1
1071
      257
1005
125E9B
  0
ARC
  5
125E9C
  8
OBJECT
 10
6000.0
 20
-199.99999999999909
 30
0.0
 40
102.5
 50
307.2200668685939
 51
322.77993313143872
1001
ACDBBLOCKREPETAG
1070
     1
1071
      258
1005
125E9C
  0
ARC
  5
125E9D
  8
OBJECT
 10
5973.8931207053247
 20
-173.82438331578209
 30
0.0
 40
90.0
 50
274.21795726566182
 51
281.60300086768922
1001
ACDBBLOCKREPETAG
1070
     1
1071
      261
1005
125E9D
  0
LINE
  5
125E9E
  8
OBJECT
 10
5991.994750999992
 20
-261.98520799999727
 30
0.0
 11
5996.6424319999905
 21
-248.3387539999994
 31
0.0
1001
ACDBBLOCKREPETAG
1070
     1
1071
      262
1005
125E9E
  0
LINE
  5
125E9F
  8
OBJECT
 10
5955.2887960976786
 20
-207.0733020425842
 30
0.0
 11
5935.6054186421097
 21
-216.60084009147889
 31
0.0
1001
ACDBBLOCKREPETAG
1070
     1
1071
      263
1005
125E9F
  0
LINE
  5
125EA0
  8
OBJECT
 10
5937.3350639238643
 20
-222.25658973369261
 30
0.0
 11
5961.7560738851171
 21
-210.43584915155679
 31
0.0
1001
ACDBBLOCKREPETAG
1070
     1
1071
      264
1005
125EA0
  0
LINE
  5
125EA1
  8
OBJECT
 10
5996.6424319999905
 20
-248.3387539999994
 30
0.0
 11
5970.3289245926417
 21
-210.9660806555467
 31
0.0
1001
ACDBBLOCKREPETAG
1070
     1
1071
      265
1005
125EA1
  0
ARC
  5
125EA2
  8
OBJECT
 10
5960.51700480005
 20
-217.87449798398211
 30
0.0
 40
12.0
 50
35.148769561161963
 51
115.8288295732624
1001
ACDBBLOCKREPETAG
1070
     1
1071
      266
1005
125EA2
  0
ARC
  5
125EA3
  8
OBJECT
 10
5965.2415463179786
 20
-217.63664646295089
 30
0.0
 40
8.0
 50
35.148769561161963
 51
115.8288292916689
1001
ACDBBLOCKREPETAG
1070
     1
1071
      267
1005
125EA3
  0
ARC
  5
125EA4
  8
OBJECT
 10
6000.0
 20
-199.99999999999909
 30
0.0
 40
90.0
 50
201.08359599996521
 51
248.91640400002939
1001
ACDBBLOCKREPETAG
1070
     1
1071
      273
1005
125EA4
  0
ARC
  5
125EA5
  8
OBJECT
 10
6000.0
 20
-199.99999999999909
 30
0.0
 40
90.0
 50
111.0835959999705
 51
158.91640347115251
1001
ACDBBLOCKREPETAG
1070
     1
1071
      274
1005
125EA5
  0
LINE
  5
125EA6
  8
OBJECT
 10
5916.0249094448682
 20
-167.62432755513231
 30
0.0
 11
5908.2370465822614
 21
-175.41219041773809
 31
0.0
1001
ACDBBLOCKREPETAG
1070
     1
1071
      275
1005
125EA6
  0
LINE
  5
125EA7
  8
OBJECT
 10
5916.0249089999998
 20
-232.37567199999921
 30
0.0
 11
5908.2370469998132
 21
-224.58781114059909
 31
0.0
1001
ACDBBLOCKREPETAG
1070
     1
1071
      276
1005
125EA7
  0
ARC
  5
125EA8
  8
OBJECT
 10
6000.0
 20
-199.99999999999909
 30
0.0
 40
95.0
 50
164.99999981411651
 51
195.00000115873701
1001
ACDBBLOCKREPETAG
1070
     1
1071
      277
1005
125EA8
  0
ARC
  5
125EA9
  8
OBJECT
 10
6000.0
 20
-199.99999999999909
 30
0.0
 40
92.5
 50
287.80189678391901
 51
342.1981035993042
1001
ACDBBLOCKREPETAG
1070
     1
1071
      209
1005
125EA9
  0
ARC
  5
125EAA
  8
OBJECT
 10
6000.0
 20
-199.99999999999909
 30
0.0
 40
90.0
 50
291.08359599997061
 51
338.91640400003479
1001
ACDBBLOCKREPETAG
1070
     1
1071
      211
1005
125EAA
  0
CIRCLE
  5
125EAB
  8
OBJECT
 10
6000.0
 20
-199.99999999999909
 30
0.0
 40
80.0
1001
ACDBBLOCKREPETAG
1070
     1
1071
      212
1005
125EAB
  0
ARC
  5
125EAC
  8
OBJECT
 10
6000.0
 20
-199.99999999999909
 30
0.0
 40
90.0
 50
21.08359652884743
 51
68.916404000029431
1001
ACDBBLOCKREPETAG
1070
     1
1071
      213
1005
125EAC
  0
CIRCLE
  5
125EAD
  8
OBJECT
 10
6000.0
 20
-199.99999999999909
 30
0.0
 40
66.5
1001
ACDBBLOCKREPETAG
1070
     1
1071
      215
1005
125EAD
  0
LINE
  5
125EAE
  8
OBJECT
 10
6083.9750905551346
 20
-167.62432755513231
 30
0.0
 11
6091.7629534177377
 21
-175.4121904177382
 31
0.0
1001
ACDBBLOCKREPETAG
1070
     1
1071
      216
1005
125EAE
  0
LINE
  5
125EAF
  8
OBJECT
 10
6083.9750910000012
 20
-232.37567199999921
 30
0.0
 11
6091.7629530001859
 21
-224.58781114059909
 31
0.0
1001
ACDBBLOCKREPETAG
1070
     1
1071
      217
1005
125EAF
  0
ARC
  5
125EB0
  8
OBJECT
 10
6000.0
 20
-199.99999999999909
 30
0.0
 40
95.0
 50
344.99999884126299
 51
15.00000018588349
1001
ACDBBLOCKREPETAG
1070
     1
1071
      218
1005
125EB0
  0
LINE
  5
125EB1
  8
OBJECT
 10
6032.375672999995
 20
-283.9750909999994
 30
0.0
 11
6024.5878109482801
 21
-291.76295305171419
 31
0.0
1001
ACDBBLOCKREPETAG
1070
     1
1071
      219
1005
125EB1
  0
LINE
  5
125EB2
  8
OBJECT
 10
5967.6243279999971
 20
-283.9750909999994
 30
0.0
 11
5975.4121904177373
 21
-291.76295341774039
 31
0.0
1001
ACDBBLOCKREPETAG
1070
     1
1071
      220
1005
125EB2
  0
ARC
  5
125EB3
  8
OBJECT
 10
6000.0
 20
-199.99999999999909
 30
0.0
 40
95.0
 50
254.99999981420709
 51
285.00000103861061
1001
ACDBBLOCKREPETAG
1070
     1
1071
      221
1005
125EB3
  0
LINE
  5
125EB4
  8
OBJECT
 10
6032.375672999995
 20
-116.0249099999992
 30
0.0
 11
6024.5878095822618
 21
-108.2370465822578
 31
0.0
1001
ACDBBLOCKREPETAG
1070
     1
1071
      222
1005
125EB4
  0
ARC
  5
125EB5
  8
OBJECT
 10
6000.0
 20
-199.99999999999909
 30
0.0
 40
95.0
 50
74.999999814207143
 51
104.99999933254421
1001
ACDBBLOCKREPETAG
1070
     1
1071
      223
1005
125EB5
  0
LINE
  5
125EB6
  8
OBJECT
 10
5967.6243279999971
 20
-116.0249099999992
 30
0.0
 11
5975.4121917837692
 21
-108.2370462162316
 31
0.0
1001
ACDBBLOCKREPETAG
1070
     1
1071
      224
1005
125EB6
  0
LINE
  5
125EB7
  8
OBJECT
 10
6055.1784370000023
 20
-162.884098999998
 30
0.0
 11
6032.5345701092729
 21
-178.11554723457169
 31
0.0
1001
ACDBBLOCKREPETAG
1070
     1
1071
      225
1005
125EB7
  0
LINE
  5
125EB8
  8
OBJECT
 10
5944.804121000001
 20
-162.88106899999821
 30
0.0
 11
6032.5345701092729
 21
-178.11554723457169
 31
0.0
1001
ACDBBLOCKREPETAG
1070
     1
1071
      226
1005
125EB8
  0
ARC
  5
125EB9
  8
OBJECT
 10
6000.0
 20
-199.99999999999909
 30
0.0
 40
92.5
 50
197.8018954425261
 51
252.19810417408729
1001
ACDBBLOCKREPETAG
1070
     1
1071
      230
1005
125EB9
  0
ARC
  5
125EBA
  8
OBJECT
 10
6000.0
 20
-199.99999999999909
 30
0.0
 40
92.5
 50
107.80189486746769
 51
162.19810513270031
1001
ACDBBLOCKREPETAG
1070
     1
1071
      231
1005
125EBA
  0
ARC
  5
125EBB
  8
OBJECT
 10
6000.0
 20
-199.99999999999909
 30
0.0
 40
92.5
 50
17.801895825711568
 51
72.19810417408732
1001
ACDBBLOCKREPETAG
1070
     1
1071
      232
1005
125EBB
  0
ARC
  5
125EBC
  8
OBJECT
 10
6000.0
 20
-199.99999999999909
 30
0.0
 40
62.5
 50
144.42390307805491
 51
193.7174643726803
1001
ACDBBLOCKREPETAG
1070
     1
1071
      234
1005
125EBC
  0
ARC
  5
125EBD
  8
OBJECT
 10
6000.0
 20
-199.99999999999909
 30
0.0
 40
62.5
 50
262.64111297834887
 51
33.92683896333525
1001
ACDBBLOCKREPETAG
1070
     1
1071
      235
1005
125EBD
  0
POINT
  5
125EBE
  8
DOTS
 10
6000.0
 20
-199.99999999999909
 30
0.0
1001
ACDBBLOCKREPETAG
1070
     1
1071
      280
1005
125EBE
  0
LINE
  5
125EBF
  8
OBJECT
 10
6134.0
 20
-482.99999999999761
 30
0.0
 11
6134.0
 21
-480.99999999999773
 31
0.0
1001
ACDBBLOCKREPETAG
1070
     1
1071
      157
1005
125EBF
  0
ARC
  5
125EC0
  8
OBJECT
 10
6175.1865574982548
 20
-500.99999999999773
 30
0.0
 40
59.0
 50
229.20276883323919
 51
270.0
1001
ACDBBLOCKREPETAG
1070
     1
1071
      158
1005
125EC0
  0
LINE
  5
125EC1
  8
OBJECT
 10
6244.0
 20
-489.49999999999773
 30
0.0
 11
6109.0
 21
-489.49999999999773
 31
0.0
1001
ACDBBLOCKREPETAG
1070
     1
1071
      159
1005
125EC1
  0
LINE
  5
125EC2
  8
OBJECT
 10
6109.0
 20
-502.49999999999773
 30
0.0
 11
6244.0
 21
-502.49999999999773
 31
0.0
1001
ACDBBLOCKREPETAG
1070
     1
1071
      160
1005
125EC2
  0
LINE
  5
125EC3
  8
OBJECT
 10
6109.0
 20
-489.49999999999773
 30
0.0
 11
6109.0
 21
-502.49999999999773
 31
0.0
1001
ACDBBLOCKREPETAG
1070
     1
1071
      161
1005
125EC3
  0
LINE
  5
125EC4
  8
OBJECT
 10
6116.0
 20
-511.49999999999773
 30
0.0
 11
6116.0
 21
-502.49999999999773
 31
0.0
1001
ACDBBLOCKREPETAG
1070
     1
1071
      162
1005
125EC4
  0
LINE
  5
125EC5
  8
OBJECT
 10
6134.0
 20
-514.99999999999773
 30
0.0
 11
6134.0
 21
-502.49999999999773
 31
0.0
1001
ACDBBLOCKREPETAG
1070
     1
1071
      163
1005
125EC5
  0
LINE
  5
125EC6
  8
OBJECT
 10
6224.0
 20
-511.49999999999773
 30
0.0
 11
6224.0
 21
-502.49999999999773
 31
0.0
1001
ACDBBLOCKREPETAG
1070
     1
1071
      164
1005
125EC6
  0
LINE
  5
125EC7
  8
OBJECT
 10
6244.0
 20
-489.49999999999773
 30
0.0
 11
6244.0
 21
-502.49999999999773
 31
0.0
1001
ACDBBLOCKREPETAG
1070
     1
1071
      165
1005
125EC7
  0
LINE
  5
125EC8
  8
OBJECT
 10
6142.0
 20
-514.99999999999773
 30
0.0
 11
6142.0
 21
-502.49999999999773
 31
0.0
1001
ACDBBLOCKREPETAG
1070
     1
1071
      166
1005
125EC8
  0
LINE
  5
125EC9
  8
OBJECT
 10
6134.0
 20
-511.49999999999773
 30
0.0
 11
6115.0
 21
-511.49999999999773
 31
0.0
1001
ACDBBLOCKREPETAG
1070
     1
1071
      167
1005
125EC9
  0
LINE
  5
125ECA
  8
OBJECT
 10
6115.0
 20
-514.99999999999773
 30
0.0
 11
6115.0
 21
-511.49999999999773
 31
0.0
1001
ACDBBLOCKREPETAG
1070
     1
1071
      168
1005
125ECA
  0
LINE
  5
125ECB
  8
OBJECT
 10
6142.0
 20
-511.49999999999773
 30
0.0
 11
6225.0
 21
-511.49999999999773
 31
0.0
1001
ACDBBLOCKREPETAG
1070
     1
1071
      169
1005
125ECB
  0
LINE
  5
125ECC
  8
OBJECT
 10
6225.0
 20
-511.49999999999773
 30
0.0
 11
6225.0
 21
-514.99999999999773
 31
0.0
1001
ACDBBLOCKREPETAG
1070
     1
1071
      170
1005
125ECC
  0
LINE
  5
125ECD
  8
OBJECT
 10
6130.4944465005337
 20
-489.49999999999773
 30
0.0
 11
6130.4944465005337
 21
-482.99999999999761
 31
0.0
1001
ACDBBLOCKREPETAG
1070
     1
1071
      171
1005
125ECD
  0
LINE
  5
125ECE
  8
OBJECT
 10
6129.0
 20
-527.99999999999773
 30
0.0
 11
6129.0
 21
-532.99999999999761
 31
0.0
1001
ACDBBLOCKREPETAG
1070
     1
1071
      172
1005
125ECE
  0
LINE
  5
125ECF
  8
OBJECT
 10
6129.0
 20
-532.99999999999761
 30
0.0
 11
6147.0
 21
-532.99999999999761
 31
0.0
1001
ACDBBLOCKREPETAG
1070
     1
1071
      173
1005
125ECF
  0
LINE
  5
125ED0
  8
OBJECT
 10
6147.0
 20
-527.99999999999773
 30
0.0
 11
6147.0
 21
-532.99999999999761
 31
0.0
1001
ACDBBLOCKREPETAG
1070
     1
1071
      174
1005
125ED0
  0
LINE
  5
125ED1
  8
OBJECT
 10
6109.0000000000036
 20
-514.99999999999773
 30
0.0
 11
6244.0
 21
-514.99999999999773
 31
0.0
1001
ACDBBLOCKREPETAG
1070
     1
1071
      175
1005
125ED1
  0
LINE
  5
125ED2
  8
OBJECT
 10
6244.0
 20
-514.99999999999773
 30
0.0
 11
6244.0
 21
-527.99999999999773
 31
0.0
1001
ACDBBLOCKREPETAG
1070
     1
1071
      176
1005
125ED2
  0
LINE
  5
125ED3
  8
OBJECT
 10
6136.6369002447645
 20
-545.66457125774514
 30
0.0
 11
6116.1702980000009
 21
-527.99999999999773
 31
0.0
1001
ACDBBLOCKREPETAG
1070
     1
1071
      177
1005
125ED3
  0
LINE
  5
125ED4
  8
OBJECT
 10
6221.0000000000027
 20
-535.65708264965485
 30
0.0
 11
6221.0000000000027
 21
-559.99999999999773
 31
0.0
1001
ACDBBLOCKREPETAG
1070
     1
1071
      178
1005
125ED4
  0
LINE
  5
125ED5
  8
OBJECT
 10
6175.1865574982548
 20
-559.99999999999773
 30
0.0
 11
6221.0000000000027
 21
-559.99999999999773
 31
0.0
1001
ACDBBLOCKREPETAG
1070
     1
1071
      179
1005
125ED5
  0
ARC
  5
125ED6
  8
OBJECT
 10
6130.5
 20
-561.49999999999773
 30
0.0
 40
84.0
 50
277.05348487097029
 51
1.023193303671255
1001
ACDBBLOCKREPETAG
1070
     1
1071
      180
1005
125ED6
  0
LINE
  5
125ED7
  8
OBJECT
 10
6106.0
 20
-649.17200317020831
 30
0.0
 11
6140.8148488128809
 21
-644.86428428270165
 31
0.0
1001
ACDBBLOCKREPETAG
1070
     1
1071
      181
1005
125ED7
  0
LINE
  5
125ED8
  8
OBJECT
 10
6106.0000000000036
 20
-649.99999999999852
 30
0.0
 11
6106.0000000000036
 21
-528.99999999999761
 31
0.0
1001
ACDBBLOCKREPETAG
1070
     1
1071
      182
1005
125ED8
  0
ARC
  5
125ED9
  8
OBJECT
 10
6103.0000000000036
 20
-649.99999999999852
 30
0.0
 40
3.0
 50
270.0
 51
0.0
1001
ACDBBLOCKREPETAG
1070
     1
1071
      183
1005
125ED9
  0
LINE
  5
125EDA
  8
OBJECT
 10
6116.1702980000009
 20
-527.99999999999773
 30
0.0
 11
6244.0
 21
-527.99999999999773
 31
0.0
1001
ACDBBLOCKREPETAG
1070
     1
1071
      184
1005
125EDA
  0
LINE
  5
125EDB
  8
OBJECT
 10
6125.0539138517224
 20
-535.65708264965485
 30
0.0
 11
6221.0000000000027
 21
-535.65708264965485
 31
0.0
1001
ACDBBLOCKREPETAG
1070
     1
1071
      185
1005
125EDB
  0
LINE
  5
125EDC
  8
OBJECT
 10
6225.0
 20
-530.89006764214673
 30
0.0
 11
6221.0000000000027
 21
-535.65708264965485
 31
0.0
1001
ACDBBLOCKREPETAG
1070
     1
1071
      186
1005
125EDC
  0
LINE
  5
125EDD
  8
OBJECT
 10
6109.0000000000036
 20
-514.99999999999773
 30
0.0
 11
6109.0000000000073
 21
-528.99999999999761
 31
0.0
1001
ACDBBLOCKREPETAG
1070
     1
1071
      187
1005
125EDD
  0
LINE
  5
125EDE
  8
HIDDEN
 10
6125.5
 20
-554.99999999999773
 30
0.0
 11
6214.5000000000009
 21
-554.99999999999773
 31
0.0
1001
ACDBBLOCKREPETAG
1070
     1
1071
      188
1005
125EDE
  0
LINE
  5
125EDF
  8
OBJECT
 10
6134.0
 20
-480.99999999999773
 30
0.0
 11
6142.0
 21
-480.99999999999773
 31
0.0
1001
ACDBBLOCKREPETAG
1070
     1
1071
      189
1005
125EDF
  0
LINE
  5
125EE0
  8
OBJECT
 10
6142.0
 20
-482.99999999999761
 30
0.0
 11
6142.0
 21
-480.99999999999773
 31
0.0
1001
ACDBBLOCKREPETAG
1070
     1
1071
      190
1005
125EE0
  0
LINE
  5
125EE1
  8
OBJECT
 10
6130.4944465005337
 20
-482.99999999999761
 30
0.0
 11
6145.5055534994644
 21
-482.99999999999761
 31
0.0
1001
ACDBBLOCKREPETAG
1070
     1
1071
      191
1005
125EE1
  0
LINE
  5
125EE2
  8
CENTER
 10
6170.0
 20
-574.77158855533025
 30
0.0
 11
6170.0
 21
-474.49999999999773
 31
0.0
1001
ACDBBLOCKREPETAG
1070
     1
1071
      193
1005
125EE2
  0
LINE
  5
125EE3
  8
OBJECT
 10
6100.0
 20
-652.99999999999761
 30
0.0
 11
6103.0000000000036
 21
-652.99999999999852
 31
0.0
1001
ACDBBLOCKREPETAG
1070
     1
1071
      194
1005
125EE3
  0
LINE
  5
125EE4
  8
OBJECT
 10
6100.0
 20
-528.99999999999761
 30
0.0
 11
6109.0000000000073
 21
-528.99999999999761
 31
0.0
1001
ACDBBLOCKREPETAG
1070
     1
1071
      195
1005
125EE4
  0
LINE
  5
125EE5
  8
OBJECT
 10
6134.2471969783928
 20
-489.49998110540878
 30
0.0
 11
6134.2471969783928
 21
-482.99998110540878
 31
0.0
1001
ACDBBLOCKREPETAG
1070
     1
1071
      196
1005
125EE5
  0
LINE
  5
125EE6
  8
OBJECT
 10
6145.5055534994644
 20
-489.49999999999773
 30
0.0
 11
6145.5055534994644
 21
-482.99999999999761
 31
0.0
1001
ACDBBLOCKREPETAG
1070
     1
1071
      197
1005
125EE6
  0
LINE
  5
125EE7
  8
OBJECT
 10
6141.7528030216054
 20
-489.49998110540878
 30
0.0
 11
6141.7528030216054
 21
-482.99998110540878
 31
0.0
1001
ACDBBLOCKREPETAG
1070
     1
1071
      198
1005
125EE7
  0
LINE
  5
125EE8
  8
OBJECT
 10
6230.0
 20
-482.99999999999761
 30
0.0
 11
6230.0
 21
-480.99999999999773
 31
0.0
1001
ACDBBLOCKREPETAG
1070
     1
1071
      199
1005
125EE8
  0
LINE
  5
125EE9
  8
OBJECT
 10
6230.0
 20
-514.99999999999773
 30
0.0
 11
6230.0
 21
-502.49999999999773
 31
0.0
1001
ACDBBLOCKREPETAG
1070
     1
1071
      200
1005
125EE9
  0
LINE
  5
125EEA
  8
OBJECT
 10
6238.0
 20
-514.99999999999773
 30
0.0
 11
6238.0
 21
-502.49999999999773
 31
0.0
1001
ACDBBLOCKREPETAG
1070
     1
1071
      201
1005
125EEA
  0
LINE
  5
125EEB
  8
OBJECT
 10
6226.4944465005337
 20
-489.49999999999773
 30
0.0
 11
6226.4944465005337
 21
-482.99999999999761
 31
0.0
1001
ACDBBLOCKREPETAG
1070
     1
1071
      202
1005
125EEB
  0
LINE
  5
125EEC
  8
OBJECT
 10
6225.0
 20
-527.99999999999773
 30
0.0
 11
6225.0
 21
-532.99999999999761
 31
0.0
1001
ACDBBLOCKREPETAG
1070
     1
1071
      203
1005
125EEC
  0
LINE
  5
125EED
  8
OBJECT
 10
6225.0
 20
-532.99999999999761
 30
0.0
 11
6243.0
 21
-532.99999999999761
 31
0.0
1001
ACDBBLOCKREPETAG
1070
     1
1071
      204
1005
125EED
  0
LINE
  5
125EEE
  8
OBJECT
 10
6243.0
 20
-527.99999999999773
 30
0.0
 11
6243.0
 21
-532.99999999999761
 31
0.0
1001
ACDBBLOCKREPETAG
1070
     1
1071
      205
1005
125EEE
  0
LINE
  5
125EEF
  8
OBJECT
 10
6230.0
 20
-480.99999999999773
 30
0.0
 11
6238.0
 21
-480.99999999999773
 31
0.0
1001
ACDBBLOCKREPETAG
1070
     1
1071
      206
1005
125EEF
  0
LINE
  5
125EF0
  8
OBJECT
 10
6238.0
 20
-482.99999999999761
 30
0.0
 11
6238.0
 21
-480.99999999999773
 31
0.0
1001
ACDBBLOCKREPETAG
1070
     1
1071
      207
1005
125EF0
  0
LINE
  5
125EF1
  8
OBJECT
 10
6226.4944465005337
 20
-482.99999999999761
 30
0.0
 11
6241.5055534994653
 21
-482.99999999999761
 31
0.0
1001
ACDBBLOCKREPETAG
1070
     1
1071
      208
1005
125EF1
  0
LINE
  5
125EF2
  8
OBJECT
 10
6230.2471969783928
 20
-489.49998110540878
 30
0.0
 11
6230.2471969783928
 21
-482.99998110540878
 31
0.0
1001
ACDBBLOCKREPETAG
1070
     1
1071
      209
1005
125EF2
  0
LINE
  5
125EF3
  8
OBJECT
 10
6241.5055534994653
 20
-489.49999999999773
 30
0.0
 11
6241.5055534994653
 21
-482.99999999999761
 31
0.0
1001
ACDBBLOCKREPETAG
1070
     1
1071
      210
1005
125EF3
  0
LINE
  5
125EF4
  8
OBJECT
 10
6237.7528030216063
 20
-489.49998110540878
 30
0.0
 11
6237.7528030216063
 21
-482.99998110540878
 31
0.0
1001
ACDBBLOCKREPETAG
1070
     1
1071
      211
1005
125EF4
  0
LINE
  5
125EF5
  8
CENTER
 10
6100.0
 20
-199.99999999999909
 30
0.0
 11
6259.0
 21
-199.99999999999909
 31
0.0
1001
ACDBBLOCKREPETAG
1070
     1
1071
      155
1005
125EF5
  0
LINE
  5
125EF6
  8
OBJECT
 10
6100.0
 20
-261.99999999999909
 30
0.0
 11
6103.0
 21
-261.99999999999909
 31
0.0
1001
ACDBBLOCKREPETAG
1070
     1
1071
      156
1005
125EF6
  0
ARC
  5
125EF7
  8
OBJECT
 10
6103.0
 20
-258.99999999999909
 30
0.0
 40
3.0
 50
270.0
 51
0.0
1001
ACDBBLOCKREPETAG
1070
     1
1071
      157
1005
125EF7
  0
LINE
  5
125EF8
  8
OBJECT
 10
6100.0
 20
-138.0000000000027
 30
0.0
 11
6103.0
 21
-138.0000000000027
 31
0.0
1001
ACDBBLOCKREPETAG
1070
     1
1071
      158
1005
125EF8
  0
LINE
  5
125EF9
  8
OBJECT
 10
6106.0
 20
-140.99999999999909
 30
0.0
 11
6128.6547275935327
 21
-140.9999999999954
 31
0.0
1001
ACDBBLOCKREPETAG
1070
     1
1071
      159
1005
125EF9
  0
LINE
  5
125EFA
  8
OBJECT
 10
6106.0
 20
-259.00000000000267
 30
0.0
 11
6128.6547275935327
 21
-258.99999999999909
 31
0.0
1001
ACDBBLOCKREPETAG
1070
     1
1071
      160
1005
125EFA
  0
LINE
  5
125EFB
  8
CENTER
 10
6170.0
 20
-123.5195984073716
 30
0.0
 11
6170.0
 21
-276.48040159262649
 31
0.0
1001
ACDBBLOCKREPETAG
1070
     1
1071
      161
1005
125EFB
  0
LINE
  5
125EFC
  8
OBJECT
 10
6106.0
 20
-141.0000000000027
 30
0.0
 11
6106.0
 21
-258.99999999999909
 31
0.0
1001
ACDBBLOCKREPETAG
1070
     1
1071
      162
1005
125EFC
  0
ARC
  5
125EFD
  8
OBJECT
 10
6103.0
 20
-141.0000000000027
 30
0.0
 40
3.0
 50
0.0
 51
90.0
1001
ACDBBLOCKREPETAG
1070
     1
1071
      163
1005
125EFD
  0
ARC
  5
125EFE
  8
OBJECT
 10
6170.0
 20
-199.99999999999909
 30
0.0
 40
61.0
 50
37.167285461274467
 51
82.832714538705744
1001
ACDBBLOCKREPETAG
1070
     1
1071
      165
1005
125EFE
  0
ARC
  5
125EFF
  8
OBJECT
 10
6170.0
 20
-199.99999999999909
 30
0.0
 40
61.0
 50
157.16728546127851
 51
202.83271453872149
1001
ACDBBLOCKREPETAG
1070
     1
1071
      166
1005
125EFF
  0
ARC
  5
125F00
  8
OBJECT
 10
6170.0
 20
-199.99999999999909
 30
0.0
 40
61.0
 50
277.16728546129423
 51
322.83271453872419
1001
ACDBBLOCKREPETAG
1070
     1
1071
      167
1005
125F00
  0
CIRCLE
  5
125F01
  8
SLIM
 10
6234.0
 20
-199.99999999999909
 30
0.0
 40
4.0
1001
ACDBBLOCKREPETAG
1070
     1
1071
      168
1005
125F01
  0
ARC
  5
125F02
  8
OBJECT
 10
6234.0
 20
-199.99999999999909
 30
0.0
 40
10.0
 50
322.83271453872419
 51
37.167285461274467
1001
ACDBBLOCKREPETAG
1070
     1
1071
      169
1005
125F02
  0
LINE
  5
125F03
  8
OBJECT
 10
6218.6093749999973
 20
-163.14720279124501
 30
0.0
 11
6241.96875
 21
-193.9585578346296
 31
0.0
1001
ACDBBLOCKREPETAG
1070
     1
1071
      170
1005
125F03
  0
LINE
  5
125F04
  8
OBJECT
 10
6218.6093749999973
 20
-236.8527972087532
 30
0.0
 11
6241.96875
 21
-206.04144216536861
 31
0.0
1001
ACDBBLOCKREPETAG
1070
     1
1071
      171
1005
125F04
  0
CIRCLE
  5
125F05
  8
SLIM
 10
6138.0
 20
-144.5743741577962
 30
0.0
 40
3.9999999999999991
1001
ACDBBLOCKREPETAG
1070
     1
1071
      172
1005
125F05
  0
ARC
  5
125F06
  8
OBJECT
 10
6138.0
 20
-144.5743741577962
 30
0.0
 40
9.9999999999999982
 50
82.832714538705744
 51
157.16728546127851
1001
ACDBBLOCKREPETAG
1070
     1
1071
      173
1005
125F06
  0
LINE
  5
125F07
  8
OBJECT
 10
6113.7798539167052
 20
-176.32944499229319
 30
0.0
 11
6128.783582609296
 21
-140.6939553040711
 31
0.0
1001
ACDBBLOCKREPETAG
1070
     1
1071
      174
1005
125F07
  0
LINE
  5
125F08
  8
OBJECT
 10
6177.6107710832994
 20
-139.47664778353919
 30
0.0
 11
6139.247667390704
 21
-134.65251313870161
 31
0.0
1001
ACDBBLOCKREPETAG
1070
     1
1071
      175
1005
125F08
  0
CIRCLE
  5
125F09
  8
SLIM
 10
6138.0
 20
-255.4256258422019
 30
0.0
 40
4.0
1001
ACDBBLOCKREPETAG
1070
     1
1071
      176
1005
125F09
  0
ARC
  5
125F0A
  8
OBJECT
 10
6138.0
 20
-255.4256258422019
 30
0.0
 40
10.0
 50
202.83271453872149
 51
277.16728546129423
1001
ACDBBLOCKREPETAG
1070
     1
1071
      177
1005
125F0A
  0
LINE
  5
125F0B
  8
OBJECT
 10
6177.6107710832994
 20
-260.52335221645899
 30
0.0
 11
6139.247667390704
 21
-265.3474868612966
 31
0.0
1001
ACDBBLOCKREPETAG
1070
     1
1071
      178
1005
125F0B
  0
LINE
  5
125F0C
  8
OBJECT
 10
6113.7798539167052
 20
-223.67055500770491
 30
0.0
 11
6128.783582609296
 21
-259.30604469592708
 31
0.0
1001
ACDBBLOCKREPETAG
1070
     1
1071
      179
1005
125F0C
  0
CIRCLE
  5
125F0D
  8
OBJECT
 10
6170.0
 20
-199.99999999999909
 30
0.0
 40
46.0
1001
ACDBBLOCKREPETAG
1070
     1
1071
      180
1005
125F0D
  0
POLYLINE
  5
125F0E
  8
SLIM
 66
     1
 10
0.0
 20
0.0
 30
0.0
 70
     1
1001
ACDBBLOCKREPETAG
1070
     1
1071
      181
1005
125F0E
  0
VERTEX
  5
126734
  8
SLIM
 10
6230.247223250266
 20
-193.49999999999909
 30
0.0
  0
VERTEX
  5
126735
  8
SLIM
 10
6226.4944465005337
 20
-199.99999999999909
 30
0.0
  0
VERTEX
  5
126736
  8
SLIM
 10
6230.247223250266
 20
-206.49999999999909
 30
0.0
  0
VERTEX
  5
126737
  8
SLIM
 10
6237.752776749734
 20
-206.49999999999909
 30
0.0
  0
VERTEX
  5
126738
  8
SLIM
 10
6241.5055534994653
 20
-199.99999999999909
 30
0.0
  0
VERTEX
  5
126739
  8
SLIM
 10
6237.752776749734
 20
-193.49999999999909
 30
0.0
  0
SEQEND
  5
12673A
  8
SLIM
  0
POLYLINE
  5
125F0F
  8
SLIM
 66
     1
 10
0.0
 20
0.0
 30
0.0
 70
     1
1001
ACDBBLOCKREPETAG
1070
     1
1071
      182
1005
125F0F
  0
VERTEX
  5
12673B
  8
SLIM
 10
6134.2472232502696
 20
-151.0743741577962
 30
0.0
  0
VERTEX
  5
12673C
  8
SLIM
 10
6141.752776749734
 20
-151.0743741577962
 30
0.0
  0
VERTEX
  5
12673D
  8
SLIM
 10
6145.5055534994644
 20
-144.5743741577962
 30
0.0
  0
VERTEX
  5
12673E
  8
SLIM
 10
6141.7527767497304
 20
-138.07437415779259
 30
0.0
  0
VERTEX
  5
12673F
  8
SLIM
 10
6134.2472232502696
 20
-138.0743741577962
 30
0.0
  0
VERTEX
  5
126740
  8
SLIM
 10
6130.4944465005337
 20
-144.57437415779259
 30
0.0
  0
SEQEND
  5
126741
  8
SLIM
  0
POLYLINE
  5
125F10
  8
SLIM
 66
     1
 10
0.0
 20
0.0
 30
0.0
 70
     1
1001
ACDBBLOCKREPETAG
1070
     1
1071
      183
1005
125F10
  0
VERTEX
  5
126742
  8
SLIM
 10
6145.5055534994644
 20
-255.4256258422019
 30
0.0
  0
VERTEX
  5
126743
  8
SLIM
 10
6141.7527767497304
 20
-248.9256258422019
 30
0.0
  0
VERTEX
  5
126744
  8
SLIM
 10
6134.2472232502696
 20
-248.9256258422019
 30
0.0
  0
VERTEX
  5
126745
  8
SLIM
 10
6130.4944465005337
 20
-255.42562584220559
 30
0.0
  0
VERTEX
  5
126746
  8
SLIM
 10
6134.247223250266
 20
-261.9256258422019
 30
0.0
  0
VERTEX
  5
126747
  8
SLIM
 10
6141.7527767497304
 20
-261.92562584220559
 30
0.0
  0
SEQEND
  5
126748
  8
SLIM
  0
LINE
  5
125F11
  8
OBJECT
 10
3897.0
 20
-528.99999999999761
 30
0.0
 11
3900.0
 21
-528.99999999999761
 31
0.0
1001
ACDBBLOCKREPETAG
1070
     1
1071
        1
1005
125F11
  0
ARC
  5
125F12
  8
OBJECT
 10
3897.0
 20
-531.99999999999773
 30
0.0
 40
3.0
 50
90.0
 51
180.0
1001
ACDBBLOCKREPETAG
1070
     1
1071
        2
1005
125F12
  0
LINE
  5
125F13
  8
OBJECT
 10
3900.0
 20
-652.99999999999761
 30
0.0
 11
3897.0
 21
-652.99999999999761
 31
0.0
1001
ACDBBLOCKREPETAG
1070
     1
1071
        3
1005
125F13
  0
ARC
  5
125F14
  8
OBJECT
 10
3897.0
 20
-649.99999999999761
 30
0.0
 40
3.0
 50
180.0
 51
270.0
1001
ACDBBLOCKREPETAG
1070
     1
1071
        4
1005
125F14
  0
LINE
  5
125F15
  8
OBJECT
 10
3894.0
 20
-649.99999999999761
 30
0.0
 11
3894.0
 21
-531.99999999999773
 31
0.0
1001
ACDBBLOCKREPETAG
1070
     1
1071
        5
1005
125F15
  0
CIRCLE
  5
125F16
  8
OBJECT
 10
4000.0
 20
-590.99999999999761
 30
0.0
 40
62.0
1001
ACDBBLOCKREPETAG
1070
     1
1071
        0
1005
125F16
  0
LINE
  5
125F17
  8
OBJECT
 10
4095.0
 20
-469.99999999999932
 30
0.0
 11
3905.0
 21
-469.99999999999932
 31
0.0
1001
ACDBBLOCKREPETAG
1070
     1
1071
        0
1005
125F17
  0
LINE
  5
125F18
  8
OBJECT
 10
4095.0
 20
-449.99999999999932
 30
0.0
 11
3905.0
 21
-449.99999999999932
 31
0.0
1001
ACDBBLOCKREPETAG
1070
     1
1071
        1
1005
125F18
  0
LINE
  5
125F19
  8
OBJECT
 10
3902.5
 20
-814.99999999999955
 30
0.0
 11
4097.5
 21
-814.99999999999955
 31
0.0
1001
ACDBBLOCKREPETAG
1070
     1
1071
        2
1005
125F19
  0
LINE
  5
125F1A
  8
OBJECT
 10
3908.237046000002
 20
-449.99999999999932
 30
0.0
 11
3908.237046582261
 21
-469.99999999999932
 31
0.0
1001
ACDBBLOCKREPETAG
1070
     1
1071
        3
1005
125F1A
  0
LINE
  5
125F1B
  8
OBJECT
 10
3905.0
 20
-449.99999999999932
 30
0.0
 11
3905.0
 21
-469.99999999999932
 31
0.0
1001
ACDBBLOCKREPETAG
1070
     1
1071
        4
1005
125F1B
  0
LINE
  5
125F1C
  8
OBJECT
 10
3916.0249090000002
 20
-449.99999999999932
 30
0.0
 11
3916.0249090000002
 21
-469.99999999999932
 31
0.0
1001
ACDBBLOCKREPETAG
1070
     1
1071
        5
1005
125F1C
  0
LINE
  5
125F1D
  8
OBJECT
 10
3967.6243270000018
 20
-449.99999999999932
 30
0.0
 11
3967.6243270000018
 21
-469.99999999999932
 31
0.0
1001
ACDBBLOCKREPETAG
1070
     1
1071
        6
1005
125F1D
  0
LINE
  5
125F1E
  8
OBJECT
 10
3975.41219
 20
-449.99999999999932
 30
0.0
 11
3975.41219
 21
-469.99999999999932
 31
0.0
1001
ACDBBLOCKREPETAG
1070
     1
1071
        7
1005
125F1E
  0
LINE
  5
125F1F
  8
OBJECT
 10
4024.5878090000001
 20
-449.99999999999932
 30
0.0
 11
4024.5878090000001
 21
-469.99999999999932
 31
0.0
1001
ACDBBLOCKREPETAG
1070
     1
1071
        8
1005
125F1F
  0
LINE
  5
125F20
  8
OBJECT
 10
4032.375672000001
 20
-449.99999999999932
 30
0.0
 11
4032.375672000001
 21
-469.99999999999932
 31
0.0
1001
ACDBBLOCKREPETAG
1070
     1
1071
        9
1005
125F20
  0
LINE
  5
125F21
  8
OBJECT
 10
4083.9750910000012
 20
-449.99999999999932
 30
0.0
 11
4083.9750910000012
 21
-469.99999999999932
 31
0.0
1001
ACDBBLOCKREPETAG
1070
     1
1071
       10
1005
125F21
  0
LINE
  5
125F22
  8
OBJECT
 10
4091.762953999998
 20
-449.99999999999932
 30
0.0
 11
4091.7629534177431
 21
-469.99999999999932
 31
0.0
1001
ACDBBLOCKREPETAG
1070
     1
1071
       11
1005
125F22
  0
LINE
  5
125F23
  8
OBJECT
 10
4095.0
 20
-449.99999999999932
 30
0.0
 11
4095.0
 21
-469.99999999999932
 31
0.0
1001
ACDBBLOCKREPETAG
1070
     1
1071
       12
1005
125F23
  0
LINE
  5
125F24
  8
OBJECT
 10
4100.0
 20
-528.99999999999955
 30
0.0
 11
3900.0
 21
-528.99999999999955
 31
0.0
1001
ACDBBLOCKREPETAG
1070
     1
1071
       13
1005
125F24
  0
LINE
  5
125F25
  8
OBJECT
 10
4100.0
 20
-652.99999999999761
 30
0.0
 11
4092.5
 21
-652.99999999999761
 31
0.0
1001
ACDBBLOCKREPETAG
1070
     1
1071
       14
1005
125F25
  0
LINE
  5
125F26
  8
OBJECT
 10
3902.5
 20
-814.99999999999955
 30
0.0
 11
3902.5
 21
-802.99999999999784
 31
0.0
1001
ACDBBLOCKREPETAG
1070
     1
1071
       15
1005
125F26
  0
LINE
  5
125F27
  8
OBJECT
 10
4097.5
 20
-814.99999999999955
 30
0.0
 11
4097.5
 21
-802.99999999999784
 31
0.0
1001
ACDBBLOCKREPETAG
1070
     1
1071
       16
1005
125F27
  0
LINE
  5
125F28
  8
OBJECT
 10
3902.5
 20
-802.99999999999784
 30
0.0
 11
4097.5
 21
-802.99999999999784
 31
0.0
1001
ACDBBLOCKREPETAG
1070
     1
1071
       17
1005
125F28
  0
LINE
  5
125F29
  8
HIDDEN
 10
3930.0
 20
-524.99999999999955
 30
0.0
 11
4070.0
 21
-524.99999999999955
 31
0.0
1001
ACDBBLOCKREPETAG
1070
     1
1071
       18
1005
125F29
  0
LINE
  5
125F2A
  8
CENTER
 10
4000.0
 20
-434.99999999999949
 30
0.0
 11
4000.0
 21
-814.99999999999955
 31
0.0
1001
ACDBBLOCKREPETAG
1070
     1
1071
       19
1005
125F2A
  0
LINE
  5
125F2B
  8
OBJECT
 10
4092.5
 20
-652.99999999999761
 30
0.0
 11
4092.5
 21
-802.99999999999784
 31
0.0
1001
ACDBBLOCKREPETAG
1070
     1
1071
       20
1005
125F2B
  0
LINE
  5
125F2C
  8
OBJECT
 10
3914.5
 20
-469.99999999999932
 30
0.0
 11
3914.5
 21
-528.99999999999955
 31
0.0
1001
ACDBBLOCKREPETAG
1070
     1
1071
       21
1005
125F2C
  0
LINE
  5
125F2D
  8
OBJECT
 10
4085.5
 20
-469.99999999999932
 30
0.0
 11
4085.5
 21
-528.99999999999955
 31
0.0
1001
ACDBBLOCKREPETAG
1070
     1
1071
       22
1005
125F2D
  0
POINT
  5
125F2E
  8
DOTS
 10
4000.0
 20
-649.99999999999955
 30
0.0
1001
ACDBBLOCKREPETAG
1070
     1
1071
       24
1005
125F2E
  0
LINE
  5
125F2F
  8
OBJECT
 10
3900.0
 20
-652.99999999999761
 30
0.0
 11
3907.5
 21
-652.99999999999761
 31
0.0
1001
ACDBBLOCKREPETAG
1070
     1
1071
       25
1005
125F2F
  0
LINE
  5
125F30
  8
OBJECT
 10
3907.5
 20
-652.99999999999761
 30
0.0
 11
3907.5
 21
-802.99999999999784
 31
0.0
1001
ACDBBLOCKREPETAG
1070
     1
1071
       26
1005
125F30
  0
ARC
  5
125F31
  8
OBJECT
 10
4214.4155190291494
 20
-615.62073879202455
 30
0.0
 40
149.554492306393
 50
144.60628028468801
 51
164.2211863995189
1001
ACDBBLOCKREPETAG
1070
     1
1071
       28
1005
125F31
  0
ARC
  5
125F32
  8
OBJECT
 10
4139.1422781245283
 20
-590.99999999999761
 30
0.0
 40
70.496447952551449
 50
166.8426918235858
 51
193.15730817641409
1001
ACDBBLOCKREPETAG
1070
     1
1071
       29
1005
125F32
  0
ARC
  5
125F33
  8
OBJECT
 10
4214.4155190291494
 20
-566.3792612079701
 30
0.0
 40
149.55449230639621
 50
195.7788136004809
 51
215.3937197153119
1001
ACDBBLOCKREPETAG
1070
     1
1071
       30
1005
125F33
  0
ARC
  5
125F34
  8
OBJECT
 10
3785.584480970851
 20
-615.62073879202455
 30
0.0
 40
149.554492306393
 50
15.778813600532009
 51
35.393719715228642
1001
ACDBBLOCKREPETAG
1070
     1
1071
       31
1005
125F34
  0
ARC
  5
125F35
  8
OBJECT
 10
3860.8577218754722
 20
-590.99999999999761
 30
0.0
 40
70.496447952551449
 50
346.84269182358582
 51
13.15730817641421
1001
ACDBBLOCKREPETAG
1070
     1
1071
       32
1005
125F35
  0
ARC
  5
125F36
  8
OBJECT
 10
3785.584480970851
 20
-566.3792612079701
 30
0.0
 40
149.55449230639621
 50
324.60628028477117
 51
344.22118639946802
1001
ACDBBLOCKREPETAG
1070
     1
1071
       33
1005
125F36
  0
LINE
  5
125F37
  8
CENTER
 10
3878.9999999999959
 20
-199.99999999999909
 30
0.0
 11
3899.9999999999968
 21
-199.99999999999909
 31
0.0
1001
ACDBBLOCKREPETAG
1070
     1
1071
        0
1005
125F37
  0
LINE
  5
125F38
  8
OBJECT
 10
3896.9999999999968
 20
-261.99999999999909
 30
0.0
 11
3899.9999999999968
 21
-261.99999999999909
 31
0.0
1001
ACDBBLOCKREPETAG
1070
     1
1071
        1
1005
125F38
  0
ARC
  5
125F39
  8
OBJECT
 10
3896.9999999999968
 20
-258.99999999999909
 30
0.0
 40
3.0
 50
180.0
 51
270.0
1001
ACDBBLOCKREPETAG
1070
     1
1071
        2
1005
125F39
  0
LINE
  5
125F3A
  8
OBJECT
 10
3899.9999999999968
 20
-137.99999999999909
 30
0.0
 11
3896.9999999999968
 21
-137.99999999999909
 31
0.0
1001
ACDBBLOCKREPETAG
1070
     1
1071
        3
1005
125F3A
  0
ARC
  5
125F3B
  8
OBJECT
 10
3896.9999999999968
 20
-140.99999999999909
 30
0.0
 40
3.0
 50
90.0
 51
180.0
1001
ACDBBLOCKREPETAG
1070
     1
1071
        4
1005
125F3B
  0
LINE
  5
125F3C
  8
OBJECT
 10
3893.9999999999959
 20
-140.99999999999909
 30
0.0
 11
3893.9999999999959
 21
-258.99999999999909
 31
0.0
1001
ACDBBLOCKREPETAG
1070
     1
1071
        5
1005
125F3C
  0
LINE
  5
125F3D
  8
CENTER
 10
4000.0000000000032
 20
-320.99999999999892
 30
0.0
 11
4000.0000000000032
 21
-299.99999999999892
 31
0.0
1001
ACDBBLOCKREPETAG
1070
     1
1071
        0
1005
125F3D
  0
LINE
  5
125F3E
  8
OBJECT
 10
4062.0000000000032
 20
-303.0
 30
0.0
 11
4062.0000000000032
 21
-299.99999999999892
 31
0.0
1001
ACDBBLOCKREPETAG
1070
     1
1071
        1
1005
125F3E
  0
ARC
  5
125F3F
  8
OBJECT
 10
4059.0000000000032
 20
-303.0
 30
0.0
 40
3.0
 50
270.0
 51
0.0
1001
ACDBBLOCKREPETAG
1070
     1
1071
        2
1005
125F3F
  0
LINE
  5
125F40
  8
OBJECT
 10
3938.000000000005
 20
-299.99999999999892
 30
0.0
 11
3938.000000000005
 21
-302.99999999999818
 31
0.0
1001
ACDBBLOCKREPETAG
1070
     1
1071
        3
1005
125F40
  0
ARC
  5
125F41
  8
OBJECT
 10
3941.0000000000041
 20
-302.99999999999818
 30
0.0
 40
3.0
 50
180.0
 51
270.0
1001
ACDBBLOCKREPETAG
1070
     1
1071
        4
1005
125F41
  0
LINE
  5
125F42
  8
OBJECT
 10
3941.0000000000041
 20
-305.99999999999818
 30
0.0
 11
4059.0000000000032
 21
-306.0
 31
0.0
1001
ACDBBLOCKREPETAG
1070
     1
1071
        5
1005
125F42
  0
ARC
  5
125F43
  8
OBJECT
 10
3973.8931207053251
 20
-173.82438331578209
 30
0.0
 40
90.0
 50
274.21795726566182
 51
281.60300086771468
1001
ACDBBLOCKREPETAG
1070
     1
1071
        0
1005
125F43
  0
LINE
  5
125F44
  8
OBJECT
 10
3991.994750999992
 20
-261.98520799999727
 30
0.0
 11
3996.6424319999928
 21
-248.3387539999994
 31
0.0
1001
ACDBBLOCKREPETAG
1070
     1
1071
       28
1005
125F44
  0
LINE
  5
125F45
  8
OBJECT
 10
3955.2887960976809
 20
-207.0733020425842
 30
0.0
 11
3935.6054186421102
 21
-216.60084009147889
 31
0.0
1001
ACDBBLOCKREPETAG
1070
     1
1071
       29
1005
125F45
  0
LINE
  5
125F46
  8
OBJECT
 10
3937.3350639238638
 20
-222.25658973369261
 30
0.0
 11
3961.756073885118
 21
-210.43584915155679
 31
0.0
1001
ACDBBLOCKREPETAG
1070
     1
1071
       30
1005
125F46
  0
LINE
  5
125F47
  8
OBJECT
 10
3996.6424319999928
 20
-248.3387539999994
 30
0.0
 11
3970.3289245926439
 21
-210.9660806555467
 31
0.0
1001
ACDBBLOCKREPETAG
1070
     1
1071
       31
1005
125F47
  0
ARC
  5
125F48
  8
OBJECT
 10
3960.51700480005
 20
-217.87449798398211
 30
0.0
 40
12.0
 50
35.148769561176962
 51
115.8288295732624
1001
ACDBBLOCKREPETAG
1070
     1
1071
      259
1005
125F48
  0
ARC
  5
125F49
  8
OBJECT
 10
3965.2415463179791
 20
-217.63664646295089
 30
0.0
 40
8.0
 50
35.148769561176962
 51
115.8288292916689
1001
ACDBBLOCKREPETAG
1070
     1
1071
      260
1005
125F49
  0
ARC
  5
125F4A
  8
OBJECT
 10
4000.0
 20
-199.99999999999909
 30
0.0
 40
90.0
 50
201.08359599996669
 51
248.9164040000301
1001
ACDBBLOCKREPETAG
1070
     1
1071
      268
1005
125F4A
  0
ARC
  5
125F4B
  8
OBJECT
 10
4000.0
 20
-199.99999999999909
 30
0.0
 40
90.0
 50
111.0835959999699
 51
158.9164034710258
1001
ACDBBLOCKREPETAG
1070
     1
1071
      269
1005
125F4B
  0
LINE
  5
125F4C
  8
OBJECT
 10
3916.0249094448668
 20
-167.62432755513231
 30
0.0
 11
3908.237046582261
 21
-175.4121904177382
 31
0.0
1001
ACDBBLOCKREPETAG
1070
     1
1071
      270
1005
125F4C
  0
LINE
  5
125F4D
  8
OBJECT
 10
3916.0249090000002
 20
-232.37567199999921
 30
0.0
 11
3908.2370469998132
 21
-224.58781114059909
 31
0.0
1001
ACDBBLOCKREPETAG
1070
     1
1071
      271
1005
125F4D
  0
ARC
  5
125F4E
  8
OBJECT
 10
4000.0
 20
-199.99999999999909
 30
0.0
 40
95.0
 50
164.99999981420299
 51
195.00000115869909
1001
ACDBBLOCKREPETAG
1070
     1
1071
      272
1005
125F4E
  0
ARC
  5
125F4F
  8
OBJECT
 10
4000.0
 20
-199.99999999999909
 30
0.0
 40
92.5
 50
287.80189678392043
 51
342.19810359941607
1001
ACDBBLOCKREPETAG
1070
     1
1071
        1
1005
125F4F
  0
ARC
  5
125F50
  8
OBJECT
 10
4000.0
 20
-199.99999999999909
 30
0.0
 40
90.0
 50
291.08359599996987
 51
338.9164040000332
1001
ACDBBLOCKREPETAG
1070
     1
1071
        3
1005
125F50
  0
CIRCLE
  5
125F51
  8
OBJECT
 10
4000.0
 20
-199.99999999999909
 30
0.0
 40
80.0
1001
ACDBBLOCKREPETAG
1070
     1
1071
        4
1005
125F51
  0
ARC
  5
125F52
  8
OBJECT
 10
4000.0
 20
-199.99999999999909
 30
0.0
 40
90.0
 50
21.083596528974049
 51
68.916404000030013
1001
ACDBBLOCKREPETAG
1070
     1
1071
        5
1005
125F52
  0
CIRCLE
  5
125F53
  8
OBJECT
 10
4000.0
 20
-199.99999999999909
 30
0.0
 40
66.5
1001
ACDBBLOCKREPETAG
1070
     1
1071
        7
1005
125F53
  0
LINE
  5
125F54
  8
OBJECT
 10
4083.9750905551332
 20
-167.62432755513231
 30
0.0
 11
4091.762953417739
 21
-175.4121904177382
 31
0.0
1001
ACDBBLOCKREPETAG
1070
     1
1071
        8
1005
125F54
  0
LINE
  5
125F55
  8
OBJECT
 10
4083.9750910000012
 20
-232.37567199999921
 30
0.0
 11
4091.7629530001868
 21
-224.58781114059909
 31
0.0
1001
ACDBBLOCKREPETAG
1070
     1
1071
        9
1005
125F55
  0
ARC
  5
125F56
  8
OBJECT
 10
4000.0
 20
-199.99999999999909
 30
0.0
 40
95.0
 50
344.99999884130068
 51
15.000000185796971
1001
ACDBBLOCKREPETAG
1070
     1
1071
       10
1005
125F56
  0
LINE
  5
125F57
  8
OBJECT
 10
4032.3756729999982
 20
-283.9750909999994
 30
0.0
 11
4024.5878109482819
 21
-291.76295305171419
 31
0.0
1001
ACDBBLOCKREPETAG
1070
     1
1071
       11
1005
125F57
  0
LINE
  5
125F58
  8
OBJECT
 10
3967.624327999999
 20
-283.9750909999994
 30
0.0
 11
3975.4121904177409
 21
-291.76295341774039
 31
0.0
1001
ACDBBLOCKREPETAG
1070
     1
1071
       12
1005
125F58
  0
ARC
  5
125F59
  8
OBJECT
 10
4000.0
 20
-199.99999999999909
 30
0.0
 40
95.0
 50
254.999999814208
 51
285.0000010386097
1001
ACDBBLOCKREPETAG
1070
     1
1071
       13
1005
125F59
  0
LINE
  5
125F5A
  8
OBJECT
 10
4032.3756729999982
 20
-116.0249099999992
 30
0.0
 11
4024.5878095822591
 21
-108.2370465822578
 31
0.0
1001
ACDBBLOCKREPETAG
1070
     1
1071
       14
1005
125F5A
  0
ARC
  5
125F5B
  8
OBJECT
 10
4000.0
 20
-199.99999999999909
 30
0.0
 40
95.0
 50
74.999999814207953
 51
104.9999993327599
1001
ACDBBLOCKREPETAG
1070
     1
1071
       15
1005
125F5B
  0
LINE
  5
125F5C
  8
OBJECT
 10
3967.624327999999
 20
-116.0249099999992
 30
0.0
 11
3975.412191783766
 21
-108.2370462162316
 31
0.0
1001
ACDBBLOCKREPETAG
1070
     1
1071
       16
1005
125F5C
  0
LINE
  5
125F5D
  8
OBJECT
 10
4055.1784370000009
 20
-162.884098999998
 30
0.0
 11
4032.534570109272
 21
-178.11554723457169
 31
0.0
1001
ACDBBLOCKREPETAG
1070
     1
1071
       17
1005
125F5D
  0
LINE
  5
125F5E
  8
OBJECT
 10
3944.8041210000019
 20
-162.88106899999821
 30
0.0
 11
4032.534570109272
 21
-178.11554723457169
 31
0.0
1001
ACDBBLOCKREPETAG
1070
     1
1071
       18
1005
125F5E
  0
ARC
  5
125F5F
  8
OBJECT
 10
4000.0
 20
-199.99999999999909
 30
0.0
 40
92.5
 50
197.80189544246551
 51
252.19810417430571
1001
ACDBBLOCKREPETAG
1070
     1
1071
       22
1005
125F5F
  0
ARC
  5
125F60
  8
OBJECT
 10
4000.0
 20
-199.99999999999909
 30
0.0
 40
92.5
 50
107.80189486746769
 51
162.1981051326415
1001
ACDBBLOCKREPETAG
1070
     1
1071
       23
1005
125F60
  0
ARC
  5
125F61
  8
OBJECT
 10
4000.0
 20
-199.99999999999909
 30
0.0
 40
92.5
 50
17.80189582568811
 51
72.198104174305684
1001
ACDBBLOCKREPETAG
1070
     1
1071
       24
1005
125F61
  0
ARC
  5
125F62
  8
OBJECT
 10
4000.0
 20
-199.99999999999909
 30
0.0
 40
62.5
 50
144.42390307809791
 51
193.7174643727642
1001
ACDBBLOCKREPETAG
1070
     1
1071
       26
1005
125F62
  0
ARC
  5
125F63
  8
OBJECT
 10
4000.0
 20
-199.99999999999909
 30
0.0
 40
62.5
 50
262.64111297834887
 51
33.92683896333525
1001
ACDBBLOCKREPETAG
1070
     1
1071
       27
1005
125F63
  0
LINE
  5
125F64
  8
OBJECT
 10
4068.6458301719758
 20
-137.99999999999909
 30
0.0
 11
4100.0
 21
-137.99999999999909
 31
0.0
1001
ACDBBLOCKREPETAG
1070
     1
1071
       33
1005
125F64
  0
LINE
  5
125F65
  8
OBJECT
 10
4068.6458301719758
 20
-261.99999999999909
 30
0.0
 11
4100.0000000000036
 21
-261.99999999999909
 31
0.0
1001
ACDBBLOCKREPETAG
1070
     1
1071
       34
1005
125F65
  0
LINE
  5
125F66
  8
OBJECT
 10
4062.0
 20
-268.64583017197862
 30
0.0
 11
4062.0000000000032
 21
-299.99999999999892
 31
0.0
1001
ACDBBLOCKREPETAG
1070
     1
1071
       35
1005
125F66
  0
LINE
  5
125F67
  8
OBJECT
 10
3937.9999999999968
 20
-268.64583017197492
 30
0.0
 11
3938.0
 21
-299.99999999999892
 31
0.0
1001
ACDBBLOCKREPETAG
1070
     1
1071
       36
1005
125F67
  0
LINE
  5
125F68
  8
OBJECT
 10
3931.3541698280242
 20
-261.99999999999909
 30
0.0
 11
3899.9999999999968
 21
-261.99999999999909
 31
0.0
1001
ACDBBLOCKREPETAG
1070
     1
1071
       37
1005
125F68
  0
LINE
  5
125F69
  8
OBJECT
 10
3931.3541698280219
 20
-137.99999999999909
 30
0.0
 11
3899.9999999999968
 21
-137.99999999999909
 31
0.0
1001
ACDBBLOCKREPETAG
1070
     1
1071
       38
1005
125F69
  0
ARC
  5
125F6A
  8
OBJECT
 10
4000.0
 20
-199.99999999999909
 30
0.0
 40
97.5
 50
39.48657743384517
 51
140.51342256615479
1001
ACDBBLOCKREPETAG
1070
     1
1071
       39
1005
125F6A
  0
ARC
  5
125F6B
  8
OBJECT
 10
4000.0
 20
-199.99999999999909
 30
0.0
 40
97.5
 50
219.48657743384521
 51
230.51342256616741
1001
ACDBBLOCKREPETAG
1070
     1
1071
       40
1005
125F6B
  0
ARC
  5
125F6C
  8
OBJECT
 10
4000.0
 20
-199.99999999999909
 30
0.0
 40
97.5
 50
309.48657743383143
 51
320.51342256615482
1001
ACDBBLOCKREPETAG
1070
     1
1071
       41
1005
125F6C
  0
LINE
  5
125F6D
  8
CENTER
 10
3900.0
 20
-199.99999999999909
 30
0.0
 11
4100.0
 21
-199.99999999999909
 31
0.0
1001
ACDBBLOCKREPETAG
1070
     1
1071
       42
1005
125F6D
  0
LINE
  5
125F6E
  8
CENTER
 10
4000.0
 20
-86.499999999999091
 30
0.0
 11
4000.0
 21
-299.99999999999892
 31
0.0
1001
ACDBBLOCKREPETAG
1070
     1
1071
       43
1005
125F6E
  0
POINT
  5
125F6F
  8
DOTS
 10
4000.0
 20
-199.99999999999909
 30
0.0
1001
ACDBBLOCKREPETAG
1070
     1
1071
      281
1005
125F6F
  0
LINE
  5
125F70
  8
OBJECT
 10
4134.0
 20
-482.99999999999761
 30
0.0
 11
4134.0
 21
-480.99999999999773
 31
0.0
1001
ACDBBLOCKREPETAG
1070
     1
1071
      157
1005
125F70
  0
ARC
  5
125F71
  8
OBJECT
 10
4175.1865574982548
 20
-500.99999999999773
 30
0.0
 40
59.0
 50
229.20276883323919
 51
270.0
1001
ACDBBLOCKREPETAG
1070
     1
1071
      158
1005
125F71
  0
LINE
  5
125F72
  8
OBJECT
 10
4244.0
 20
-489.49999999999773
 30
0.0
 11
4109.0
 21
-489.49999999999773
 31
0.0
1001
ACDBBLOCKREPETAG
1070
     1
1071
      159
1005
125F72
  0
LINE
  5
125F73
  8
OBJECT
 10
4109.0
 20
-502.49999999999773
 30
0.0
 11
4244.0
 21
-502.49999999999773
 31
0.0
1001
ACDBBLOCKREPETAG
1070
     1
1071
      160
1005
125F73
  0
LINE
  5
125F74
  8
OBJECT
 10
4109.0
 20
-489.49999999999773
 30
0.0
 11
4109.0
 21
-502.49999999999773
 31
0.0
1001
ACDBBLOCKREPETAG
1070
     1
1071
      161
1005
125F74
  0
LINE
  5
125F75
  8
OBJECT
 10
4116.0
 20
-511.49999999999773
 30
0.0
 11
4116.0
 21
-502.49999999999773
 31
0.0
1001
ACDBBLOCKREPETAG
1070
     1
1071
      162
1005
125F75
  0
LINE
  5
125F76
  8
OBJECT
 10
4134.0
 20
-514.99999999999773
 30
0.0
 11
4134.0
 21
-502.49999999999773
 31
0.0
1001
ACDBBLOCKREPETAG
1070
     1
1071
      163
1005
125F76
  0
LINE
  5
125F77
  8
OBJECT
 10
4224.0
 20
-511.49999999999773
 30
0.0
 11
4224.0
 21
-502.49999999999773
 31
0.0
1001
ACDBBLOCKREPETAG
1070
     1
1071
      164
1005
125F77
  0
LINE
  5
125F78
  8
OBJECT
 10
4244.0
 20
-489.49999999999773
 30
0.0
 11
4244.0
 21
-502.49999999999773
 31
0.0
1001
ACDBBLOCKREPETAG
1070
     1
1071
      165
1005
125F78
  0
LINE
  5
125F79
  8
OBJECT
 10
4142.0
 20
-514.99999999999773
 30
0.0
 11
4142.0
 21
-502.49999999999773
 31
0.0
1001
ACDBBLOCKREPETAG
1070
     1
1071
      166
1005
125F79
  0
LINE
  5
125F7A
  8
OBJECT
 10
4134.0
 20
-511.49999999999773
 30
0.0
 11
4115.0
 21
-511.49999999999773
 31
0.0
1001
ACDBBLOCKREPETAG
1070
     1
1071
      167
1005
125F7A
  0
LINE
  5
125F7B
  8
OBJECT
 10
4115.0
 20
-514.99999999999773
 30
0.0
 11
4115.0
 21
-511.49999999999773
 31
0.0
1001
ACDBBLOCKREPETAG
1070
     1
1071
      168
1005
125F7B
  0
LINE
  5
125F7C
  8
OBJECT
 10
4142.0
 20
-511.49999999999773
 30
0.0
 11
4225.0
 21
-511.49999999999773
 31
0.0
1001
ACDBBLOCKREPETAG
1070
     1
1071
      169
1005
125F7C
  0
LINE
  5
125F7D
  8
OBJECT
 10
4225.0
 20
-511.49999999999773
 30
0.0
 11
4225.0
 21
-514.99999999999773
 31
0.0
1001
ACDBBLOCKREPETAG
1070
     1
1071
      170
1005
125F7D
  0
LINE
  5
125F7E
  8
OBJECT
 10
4130.4944465005347
 20
-489.49999999999773
 30
0.0
 11
4130.4944465005347
 21
-482.99999999999761
 31
0.0
1001
ACDBBLOCKREPETAG
1070
     1
1071
      171
1005
125F7E
  0
LINE
  5
125F7F
  8
OBJECT
 10
4129.0
 20
-527.99999999999773
 30
0.0
 11
4129.0
 21
-532.99999999999761
 31
0.0
1001
ACDBBLOCKREPETAG
1070
     1
1071
      172
1005
125F7F
  0
LINE
  5
125F80
  8
OBJECT
 10
4129.0
 20
-532.99999999999761
 30
0.0
 11
4147.0
 21
-532.99999999999761
 31
0.0
1001
ACDBBLOCKREPETAG
1070
     1
1071
      173
1005
125F80
  0
LINE
  5
125F81
  8
OBJECT
 10
4147.0
 20
-527.99999999999773
 30
0.0
 11
4147.0
 21
-532.99999999999761
 31
0.0
1001
ACDBBLOCKREPETAG
1070
     1
1071
      174
1005
125F81
  0
LINE
  5
125F82
  8
OBJECT
 10
4109.0000000000036
 20
-514.99999999999773
 30
0.0
 11
4244.0
 21
-514.99999999999773
 31
0.0
1001
ACDBBLOCKREPETAG
1070
     1
1071
      175
1005
125F82
  0
LINE
  5
125F83
  8
OBJECT
 10
4244.0
 20
-514.99999999999773
 30
0.0
 11
4244.0
 21
-527.99999999999773
 31
0.0
1001
ACDBBLOCKREPETAG
1070
     1
1071
      176
1005
125F83
  0
LINE
  5
125F84
  8
OBJECT
 10
4136.6369002447664
 20
-545.66457125774514
 30
0.0
 11
4116.1702980000009
 21
-527.99999999999773
 31
0.0
1001
ACDBBLOCKREPETAG
1070
     1
1071
      177
1005
125F84
  0
LINE
  5
125F85
  8
OBJECT
 10
4221.0
 20
-535.65708264965485
 30
0.0
 11
4221.0
 21
-559.99999999999773
 31
0.0
1001
ACDBBLOCKREPETAG
1070
     1
1071
      178
1005
125F85
  0
LINE
  5
125F86
  8
OBJECT
 10
4175.1865574982548
 20
-559.99999999999773
 30
0.0
 11
4221.0
 21
-559.99999999999773
 31
0.0
1001
ACDBBLOCKREPETAG
1070
     1
1071
      179
1005
125F86
  0
ARC
  5
125F87
  8
OBJECT
 10
4130.5
 20
-561.49999999999773
 30
0.0
 40
84.0
 50
277.05348487097029
 51
1.023193303671255
1001
ACDBBLOCKREPETAG
1070
     1
1071
      180
1005
125F87
  0
LINE
  5
125F88
  8
OBJECT
 10
4106.0
 20
-649.17200317020831
 30
0.0
 11
4140.8148488128809
 21
-644.86428428270165
 31
0.0
1001
ACDBBLOCKREPETAG
1070
     1
1071
      181
1005
125F88
  0
LINE
  5
125F89
  8
OBJECT
 10
4106.0000000000036
 20
-649.99999999999852
 30
0.0
 11
4106.0000000000036
 21
-528.99999999999761
 31
0.0
1001
ACDBBLOCKREPETAG
1070
     1
1071
      182
1005
125F89
  0
ARC
  5
125F8A
  8
OBJECT
 10
4103.0000000000036
 20
-649.99999999999852
 30
0.0
 40
3.0
 50
270.0
 51
0.0
1001
ACDBBLOCKREPETAG
1070
     1
1071
      183
1005
125F8A
  0
LINE
  5
125F8B
  8
OBJECT
 10
4116.1702980000009
 20
-527.99999999999773
 30
0.0
 11
4244.0
 21
-527.99999999999773
 31
0.0
1001
ACDBBLOCKREPETAG
1070
     1
1071
      184
1005
125F8B
  0
LINE
  5
125F8C
  8
OBJECT
 10
4125.0539138517233
 20
-535.65708264965485
 30
0.0
 11
4221.0
 21
-535.65708264965485
 31
0.0
1001
ACDBBLOCKREPETAG
1070
     1
1071
      185
1005
125F8C
  0
LINE
  5
125F8D
  8
OBJECT
 10
4225.0
 20
-530.89006764214673
 30
0.0
 11
4221.0
 21
-535.65708264965485
 31
0.0
1001
ACDBBLOCKREPETAG
1070
     1
1071
      186
1005
125F8D
  0
LINE
  5
125F8E
  8
OBJECT
 10
4109.0000000000036
 20
-514.99999999999773
 30
0.0
 11
4109.0000000000073
 21
-528.99999999999761
 31
0.0
1001
ACDBBLOCKREPETAG
1070
     1
1071
      187
1005
125F8E
  0
LINE
  5
125F8F
  8
HIDDEN
 10
4125.5
 20
-554.99999999999773
 30
0.0
 11
4214.5
 21
-554.99999999999773
 31
0.0
1001
ACDBBLOCKREPETAG
1070
     1
1071
      188
1005
125F8F
  0
LINE
  5
125F90
  8
OBJECT
 10
4134.0
 20
-480.99999999999773
 30
0.0
 11
4142.0
 21
-480.99999999999773
 31
0.0
1001
ACDBBLOCKREPETAG
1070
     1
1071
      189
1005
125F90
  0
LINE
  5
125F91
  8
OBJECT
 10
4142.0
 20
-482.99999999999761
 30
0.0
 11
4142.0
 21
-480.99999999999773
 31
0.0
1001
ACDBBLOCKREPETAG
1070
     1
1071
      190
1005
125F91
  0
LINE
  5
125F92
  8
OBJECT
 10
4130.4944465005347
 20
-482.99999999999761
 30
0.0
 11
4145.5055534994644
 21
-482.99999999999761
 31
0.0
1001
ACDBBLOCKREPETAG
1070
     1
1071
      191
1005
125F92
  0
LINE
  5
125F93
  8
CENTER
 10
4170.0
 20
-574.77158855533025
 30
0.0
 11
4170.0
 21
-474.49999999999773
 31
0.0
1001
ACDBBLOCKREPETAG
1070
     1
1071
      193
1005
125F93
  0
LINE
  5
125F94
  8
OBJECT
 10
4100.0
 20
-652.99999999999761
 30
0.0
 11
4103.0000000000036
 21
-652.99999999999852
 31
0.0
1001
ACDBBLOCKREPETAG
1070
     1
1071
      194
1005
125F94
  0
LINE
  5
125F95
  8
OBJECT
 10
4100.0
 20
-528.99999999999761
 30
0.0
 11
4109.0000000000073
 21
-528.99999999999761
 31
0.0
1001
ACDBBLOCKREPETAG
1070
     1
1071
      195
1005
125F95
  0
LINE
  5
125F96
  8
OBJECT
 10
4134.2471969783946
 20
-489.49998110540878
 30
0.0
 11
4134.2471969783946
 21
-482.99998110540878
 31
0.0
1001
ACDBBLOCKREPETAG
1070
     1
1071
      196
1005
125F96
  0
LINE
  5
125F97
  8
OBJECT
 10
4145.5055534994644
 20
-489.49999999999773
 30
0.0
 11
4145.5055534994644
 21
-482.99999999999761
 31
0.0
1001
ACDBBLOCKREPETAG
1070
     1
1071
      197
1005
125F97
  0
LINE
  5
125F98
  8
OBJECT
 10
4141.7528030216054
 20
-489.49998110540878
 30
0.0
 11
4141.7528030216054
 21
-482.99998110540878
 31
0.0
1001
ACDBBLOCKREPETAG
1070
     1
1071
      198
1005
125F98
  0
LINE
  5
125F99
  8
OBJECT
 10
4230.0
 20
-482.99999999999761
 30
0.0
 11
4230.0
 21
-480.99999999999773
 31
0.0
1001
ACDBBLOCKREPETAG
1070
     1
1071
      199
1005
125F99
  0
LINE
  5
125F9A
  8
OBJECT
 10
4230.0
 20
-514.99999999999773
 30
0.0
 11
4230.0
 21
-502.49999999999773
 31
0.0
1001
ACDBBLOCKREPETAG
1070
     1
1071
      200
1005
125F9A
  0
LINE
  5
125F9B
  8
OBJECT
 10
4238.0
 20
-514.99999999999773
 30
0.0
 11
4238.0
 21
-502.49999999999773
 31
0.0
1001
ACDBBLOCKREPETAG
1070
     1
1071
      201
1005
125F9B
  0
LINE
  5
125F9C
  8
OBJECT
 10
4226.4944465005347
 20
-489.49999999999773
 30
0.0
 11
4226.4944465005347
 21
-482.99999999999761
 31
0.0
1001
ACDBBLOCKREPETAG
1070
     1
1071
      202
1005
125F9C
  0
LINE
  5
125F9D
  8
OBJECT
 10
4225.0
 20
-527.99999999999773
 30
0.0
 11
4225.0
 21
-532.99999999999761
 31
0.0
1001
ACDBBLOCKREPETAG
1070
     1
1071
      203
1005
125F9D
  0
LINE
  5
125F9E
  8
OBJECT
 10
4225.0
 20
-532.99999999999761
 30
0.0
 11
4243.0
 21
-532.99999999999761
 31
0.0
1001
ACDBBLOCKREPETAG
1070
     1
1071
      204
1005
125F9E
  0
LINE
  5
125F9F
  8
OBJECT
 10
4243.0
 20
-527.99999999999773
 30
0.0
 11
4243.0
 21
-532.99999999999761
 31
0.0
1001
ACDBBLOCKREPETAG
1070
     1
1071
      205
1005
125F9F
  0
LINE
  5
125FA0
  8
OBJECT
 10
4230.0
 20
-480.99999999999773
 30
0.0
 11
4238.0
 21
-480.99999999999773
 31
0.0
1001
ACDBBLOCKREPETAG
1070
     1
1071
      206
1005
125FA0
  0
LINE
  5
125FA1
  8
OBJECT
 10
4238.0
 20
-482.99999999999761
 30
0.0
 11
4238.0
 21
-480.99999999999773
 31
0.0
1001
ACDBBLOCKREPETAG
1070
     1
1071
      207
1005
125FA1
  0
LINE
  5
125FA2
  8
OBJECT
 10
4226.4944465005347
 20
-482.99999999999761
 30
0.0
 11
4241.5055534994644
 21
-482.99999999999761
 31
0.0
1001
ACDBBLOCKREPETAG
1070
     1
1071
      208
1005
125FA2
  0
LINE
  5
125FA3
  8
OBJECT
 10
4230.2471969783928
 20
-489.49998110540878
 30
0.0
 11
4230.2471969783928
 21
-482.99998110540878
 31
0.0
1001
ACDBBLOCKREPETAG
1070
     1
1071
      209
1005
125FA3
  0
LINE
  5
125FA4
  8
OBJECT
 10
4241.5055534994644
 20
-489.49999999999773
 30
0.0
 11
4241.5055534994644
 21
-482.99999999999761
 31
0.0
1001
ACDBBLOCKREPETAG
1070
     1
1071
      210
1005
125FA4
  0
LINE
  5
125FA5
  8
OBJECT
 10
4237.7528030216063
 20
-489.49998110540878
 30
0.0
 11
4237.7528030216063
 21
-482.99998110540878
 31
0.0
1001
ACDBBLOCKREPETAG
1070
     1
1071
      211
1005
125FA5
  0
LINE
  5
125FA6
  8
CENTER
 10
4100.0
 20
-199.99999999999909
 30
0.0
 11
4259.0
 21
-199.99999999999909
 31
0.0
1001
ACDBBLOCKREPETAG
1070
     1
1071
      155
1005
125FA6
  0
LINE
  5
125FA7
  8
OBJECT
 10
4100.0
 20
-261.99999999999909
 30
0.0
 11
4103.0
 21
-261.99999999999909
 31
0.0
1001
ACDBBLOCKREPETAG
1070
     1
1071
      156
1005
125FA7
  0
ARC
  5
125FA8
  8
OBJECT
 10
4103.0
 20
-258.99999999999909
 30
0.0
 40
3.0
 50
270.0
 51
0.0
1001
ACDBBLOCKREPETAG
1070
     1
1071
      157
1005
125FA8
  0
LINE
  5
125FA9
  8
OBJECT
 10
4100.0
 20
-138.0000000000027
 30
0.0
 11
4103.0
 21
-138.0000000000027
 31
0.0
1001
ACDBBLOCKREPETAG
1070
     1
1071
      158
1005
125FA9
  0
LINE
  5
125FAA
  8
OBJECT
 10
4106.0
 20
-140.99999999999909
 30
0.0
 11
4128.6547275935327
 21
-140.9999999999954
 31
0.0
1001
ACDBBLOCKREPETAG
1070
     1
1071
      159
1005
125FAA
  0
LINE
  5
125FAB
  8
OBJECT
 10
4106.0
 20
-259.00000000000267
 30
0.0
 11
4128.6547275935327
 21
-258.99999999999909
 31
0.0
1001
ACDBBLOCKREPETAG
1070
     1
1071
      160
1005
125FAB
  0
LINE
  5
125FAC
  8
CENTER
 10
4170.0
 20
-123.5195984073716
 30
0.0
 11
4170.0
 21
-276.48040159262649
 31
0.0
1001
ACDBBLOCKREPETAG
1070
     1
1071
      161
1005
125FAC
  0
LINE
  5
125FAD
  8
OBJECT
 10
4106.0
 20
-141.0000000000027
 30
0.0
 11
4106.0
 21
-258.99999999999909
 31
0.0
1001
ACDBBLOCKREPETAG
1070
     1
1071
      162
1005
125FAD
  0
ARC
  5
125FAE
  8
OBJECT
 10
4103.0
 20
-141.0000000000027
 30
0.0
 40
3.0
 50
0.0
 51
90.0
1001
ACDBBLOCKREPETAG
1070
     1
1071
      163
1005
125FAE
  0
ARC
  5
125FAF
  8
OBJECT
 10
4170.0
 20
-199.99999999999909
 30
0.0
 40
61.0
 50
37.167285461274467
 51
82.832714538705744
1001
ACDBBLOCKREPETAG
1070
     1
1071
      165
1005
125FAF
  0
ARC
  5
125FB0
  8
OBJECT
 10
4170.0
 20
-199.99999999999909
 30
0.0
 40
61.0
 50
157.16728546127851
 51
202.83271453872149
1001
ACDBBLOCKREPETAG
1070
     1
1071
      166
1005
125FB0
  0
ARC
  5
125FB1
  8
OBJECT
 10
4170.0
 20
-199.99999999999909
 30
0.0
 40
61.0
 50
277.16728546129423
 51
322.83271453872419
1001
ACDBBLOCKREPETAG
1070
     1
1071
      167
1005
125FB1
  0
CIRCLE
  5
125FB2
  8
SLIM
 10
4234.0
 20
-199.99999999999909
 30
0.0
 40
4.0
1001
ACDBBLOCKREPETAG
1070
     1
1071
      168
1005
125FB2
  0
ARC
  5
125FB3
  8
OBJECT
 10
4234.0
 20
-199.99999999999909
 30
0.0
 40
10.0
 50
322.83271453872419
 51
37.167285461274467
1001
ACDBBLOCKREPETAG
1070
     1
1071
      169
1005
125FB3
  0
LINE
  5
125FB4
  8
OBJECT
 10
4218.6093749999973
 20
-163.14720279124501
 30
0.0
 11
4241.96875
 21
-193.9585578346296
 31
0.0
1001
ACDBBLOCKREPETAG
1070
     1
1071
      170
1005
125FB4
  0
LINE
  5
125FB5
  8
OBJECT
 10
4218.6093749999973
 20
-236.8527972087532
 30
0.0
 11
4241.96875
 21
-206.04144216536861
 31
0.0
1001
ACDBBLOCKREPETAG
1070
     1
1071
      171
1005
125FB5
  0
CIRCLE
  5
125FB6
  8
SLIM
 10
4138.0
 20
-144.5743741577962
 30
0.0
 40
3.9999999999999991
1001
ACDBBLOCKREPETAG
1070
     1
1071
      172
1005
125FB6
  0
ARC
  5
125FB7
  8
OBJECT
 10
4138.0
 20
-144.5743741577962
 30
0.0
 40
9.9999999999999982
 50
82.832714538705744
 51
157.16728546127851
1001
ACDBBLOCKREPETAG
1070
     1
1071
      173
1005
125FB7
  0
LINE
  5
125FB8
  8
OBJECT
 10
4113.7798539167043
 20
-176.32944499229319
 30
0.0
 11
4128.783582609296
 21
-140.6939553040711
 31
0.0
1001
ACDBBLOCKREPETAG
1070
     1
1071
      174
1005
125FB8
  0
LINE
  5
125FB9
  8
OBJECT
 10
4177.6107710832994
 20
-139.47664778353919
 30
0.0
 11
4139.247667390704
 21
-134.65251313870161
 31
0.0
1001
ACDBBLOCKREPETAG
1070
     1
1071
      175
1005
125FB9
  0
CIRCLE
  5
125FBA
  8
SLIM
 10
4138.0
 20
-255.4256258422019
 30
0.0
 40
4.0
1001
ACDBBLOCKREPETAG
1070
     1
1071
      176
1005
125FBA
  0
ARC
  5
125FBB
  8
OBJECT
 10
4138.0
 20
-255.4256258422019
 30
0.0
 40
10.0
 50
202.83271453872149
 51
277.16728546129423
1001
ACDBBLOCKREPETAG
1070
     1
1071
      177
1005
125FBB
  0
LINE
  5
125FBC
  8
OBJECT
 10
4177.6107710832994
 20
-260.52335221645899
 30
0.0
 11
4139.247667390704
 21
-265.3474868612966
 31
0.0
1001
ACDBBLOCKREPETAG
1070
     1
1071
      178
1005
125FBC
  0
LINE
  5
125FBD
  8
OBJECT
 10
4113.7798539167043
 20
-223.67055500770491
 30
0.0
 11
4128.783582609296
 21
-259.30604469592708
 31
0.0
1001
ACDBBLOCKREPETAG
1070
     1
1071
      179
1005
125FBD
  0
CIRCLE
  5
125FBE
  8
OBJECT
 10
4170.0
 20
-199.99999999999909
 30
0.0
 40
46.0
1001
ACDBBLOCKREPETAG
1070
     1
1071
      180
1005
125FBE
  0
POLYLINE
  5
125FBF
  8
SLIM
 66
     1
 10
0.0
 20
0.0
 30
0.0
 70
     1
1001
ACDBBLOCKREPETAG
1070
     1
1071
      181
1005
125FBF
  0
VERTEX
  5
126749
  8
SLIM
 10
4230.2472232502651
 20
-193.49999999999909
 30
0.0
  0
VERTEX
  5
12674A
  8
SLIM
 10
4226.4944465005347
 20
-199.99999999999909
 30
0.0
  0
VERTEX
  5
12674B
  8
SLIM
 10
4230.2472232502651
 20
-206.49999999999909
 30
0.0
  0
VERTEX
  5
12674C
  8
SLIM
 10
4237.752776749734
 20
-206.49999999999909
 30
0.0
  0
VERTEX
  5
12674D
  8
SLIM
 10
4241.5055534994644
 20
-199.99999999999909
 30
0.0
  0
VERTEX
  5
12674E
  8
SLIM
 10
4237.752776749734
 20
-193.49999999999909
 30
0.0
  0
SEQEND
  5
12674F
  8
SLIM
  0
POLYLINE
  5
125FC0
  8
SLIM
 66
     1
 10
0.0
 20
0.0
 30
0.0
 70
     1
1001
ACDBBLOCKREPETAG
1070
     1
1071
      182
1005
125FC0
  0
VERTEX
  5
126750
  8
SLIM
 10
4134.2472232502687
 20
-151.0743741577962
 30
0.0
  0
VERTEX
  5
126751
  8
SLIM
 10
4141.752776749734
 20
-151.0743741577962
 30
0.0
  0
VERTEX
  5
126752
  8
SLIM
 10
4145.5055534994644
 20
-144.5743741577962
 30
0.0
  0
VERTEX
  5
126753
  8
SLIM
 10
4141.7527767497277
 20
-138.07437415779259
 30
0.0
  0
VERTEX
  5
126754
  8
SLIM
 10
4134.2472232502687
 20
-138.0743741577962
 30
0.0
  0
VERTEX
  5
126755
  8
SLIM
 10
4130.4944465005347
 20
-144.57437415779259
 30
0.0
  0
SEQEND
  5
126756
  8
SLIM
  0
POLYLINE
  5
125FC1
  8
SLIM
 66
     1
 10
0.0
 20
0.0
 30
0.0
 70
     1
1001
ACDBBLOCKREPETAG
1070
     1
1071
      183
1005
125FC1
  0
VERTEX
  5
126757
  8
SLIM
 10
4145.5055534994644
 20
-255.4256258422019
 30
0.0
  0
VERTEX
  5
126758
  8
SLIM
 10
4141.7527767497277
 20
-248.9256258422019
 30
0.0
  0
VERTEX
  5
126759
  8
SLIM
 10
4134.2472232502687
 20
-248.9256258422019
 30
0.0
  0
VERTEX
  5
12675A
  8
SLIM
 10
4130.4944465005347
 20
-255.42562584220559
 30
0.0
  0
VERTEX
  5
12675B
  8
SLIM
 10
4134.2472232502651
 20
-261.9256258422019
 30
0.0
  0
VERTEX
  5
12675C
  8
SLIM
 10
4141.7527767497277
 20
-261.92562584220559
 30
0.0
  0
SEQEND
  5
12675D
  8
SLIM
  0
TEXT
  5
125FC2
  8
SLIM
 10
5824.6000000000004
 20
-1489.0
 30
0.0
 40
28.0
  1
※ 対応スラブ厚　180～405
 41
0.75
  0
TEXT
  5
125FC3
  8
SLIM
 10
5611.5
 20
-1582.3333333333339
 30
0.0
 40
28.0
  1
国土交通大臣認定・（財）日本消防設備安全センター性能評定取得品
 41
0.75
  0
TEXT
  5
125FC4
  8
SLIM
 10
5631.1000000000004
 20
-1629.0
 30
0.0
 40
28.0
  1
注）ご採用にあたり、認定書及び評定書の内容をご確認ください。
 41
0.75
  0
LINE
  5
125FC5
  8
SLIM
 10
7897.5000000000928
 20
-666.05282860997045
 30
0.0
 11
7913.5528286100662
 21
-649.99999999999761
 31
0.0
1001
ACAD
1010
0.0
1020
0.0
1030
0.0
  0
LINE
  5
125FC6
  8
SLIM
 10
7897.5000000000928
 20
-684.01334085210885
 30
0.0
 11
7931.5133408522042
 21
-649.99999999999761
 31
0.0
1001
ACAD
1010
0.0
1020
0.0
1030
0.0
  0
LINE
  5
125FC7
  8
SLIM
 10
7897.5000000000928
 20
-701.97385309424715
 30
0.0
 11
7949.4738530943423
 21
-649.99999999999761
 31
0.0
1001
ACAD
1010
0.0
1020
0.0
1030
0.0
  0
LINE
  5
125FC8
  8
SLIM
 10
7897.5000000000928
 20
-719.93436533638567
 30
0.0
 11
7967.4343653364804
 21
-649.99999999999761
 31
0.0
1001
ACAD
1010
0.0
1020
0.0
1030
0.0
  0
LINE
  5
125FC9
  8
SLIM
 10
7897.5000000000928
 20
-737.89487757852351
 30
0.0
 11
7985.3948775786184
 21
-649.99999999999761
 31
0.0
1001
ACAD
1010
0.0
1020
0.0
1030
0.0
  0
LINE
  5
125FCA
  8
SLIM
 10
7897.5000000000928
 20
-755.85538982066203
 30
0.0
 11
8003.3553898207574
 21
-649.99999999999761
 31
0.0
1001
ACAD
1010
0.0
1020
0.0
1030
0.0
  0
LINE
  5
125FCB
  8
SLIM
 10
7897.5000000000928
 20
-773.81590206280043
 30
0.0
 11
8021.3159020628946
 21
-649.99999999999761
 31
0.0
1001
ACAD
1010
0.0
1020
0.0
1030
0.0
  0
LINE
  5
125FCC
  8
SLIM
 10
7897.5000000000928
 20
-791.77641430493816
 30
0.0
 11
8039.2764143050317
 21
-649.99999999999761
 31
0.0
1001
ACAD
1010
0.0
1020
0.0
1030
0.0
  0
LINE
  5
125FCD
  8
SLIM
 10
7897.5000000000928
 20
-809.73692654707713
 30
0.0
 11
8057.2369265471707
 21
-649.99999999999761
 31
0.0
1001
ACAD
1010
0.0
1020
0.0
1030
0.0
  0
LINE
  5
125FCE
  8
SLIM
 10
7897.5000000000928
 20
-827.69743878921543
 30
0.0
 11
8075.1974387893106
 21
-649.99999999999761
 31
0.0
1001
ACAD
1010
0.0
1020
0.0
1030
0.0
  0
LINE
  5
125FCF
  8
SLIM
 10
7897.5000000000928
 20
-845.6579510313536
 30
0.0
 11
8093.1579510314468
 21
-649.99999999999761
 31
0.0
1001
ACAD
1010
0.0
1020
0.0
1030
0.0
  0
LINE
  5
125FD0
  8
SLIM
 10
7897.5000000000928
 20
-863.61846327349178
 30
0.0
 11
8102.4999999999063
 21
-658.61846327367755
 31
0.0
1001
ACAD
1010
0.0
1020
0.0
1030
0.0
  0
LINE
  5
125FD1
  8
SLIM
 10
7897.5000000000928
 20
-881.57897551563019
 30
0.0
 11
8102.4999999999063
 21
-676.57897551581561
 31
0.0
1001
ACAD
1010
0.0
1020
0.0
1030
0.0
  0
LINE
  5
125FD2
  8
SLIM
 10
7898.589838966278
 20
-898.44964879158101
 30
0.0
 11
8102.4999999999063
 21
-694.53948775795391
 31
0.0
1001
ACAD
1010
0.0
1020
0.0
1030
0.0
  0
LINE
  5
125FD3
  8
SLIM
 10
7900.8041486947632
 20
-914.19585130523694
 30
0.0
 11
8102.4999999999063
 21
-712.50000000009231
 31
0.0
1001
ACAD
1010
0.0
1020
0.0
1030
0.0
  0
LINE
  5
125FD4
  8
SLIM
 10
7903.0184584232438
 20
-929.94205381889253
 30
0.0
 11
8102.4999999999063
 21
-730.46051224223027
 31
0.0
1001
ACAD
1010
0.0
1020
0.0
1030
0.0
  0
LINE
  5
125FD5
  8
SLIM
 10
7905.2327681517281
 20
-945.68825633254755
 30
0.0
 11
8102.4999999999063
 21
-748.4210244843689
 31
0.0
1001
ACAD
1010
0.0
1020
0.0
1030
0.0
  0
LINE
  5
125FD6
  8
SLIM
 10
7907.4470778802124
 20
-961.43445884620314
 30
0.0
 11
8102.4999999999063
 21
-766.38153672650731
 31
0.0
1001
ACAD
1010
0.0
1020
0.0
1030
0.0
  0
LINE
  5
125FD7
  8
SLIM
 10
7909.6613876086949
 20
-977.18066135985828
 30
0.0
 11
8102.4999999999063
 21
-784.34204896864549
 31
0.0
1001
ACAD
1010
0.0
1020
0.0
1030
0.0
  0
LINE
  5
125FD8
  8
SLIM
 10
7911.8756973371728
 20
-992.92686387351455
 30
0.0
 11
8102.4999999999063
 21
-802.30256121078355
 31
0.0
1001
ACAD
1010
0.0
1020
0.0
1030
0.0
  0
LINE
  5
125FD9
  8
SLIM
 10
7914.0900070656589
 20
-1008.67306638717
 30
0.0
 11
8102.4999999999063
 21
-820.26307345292219
 31
0.0
1001
ACAD
1010
0.0
1020
0.0
1030
0.0
  0
LINE
  5
125FDA
  8
SLIM
 10
7916.3043167941414
 20
-1024.419268900825
 30
0.0
 11
8102.4999999999063
 21
-838.22358569506036
 31
0.0
1001
ACAD
1010
0.0
1020
0.0
1030
0.0
  0
LINE
  5
125FDB
  8
SLIM
 10
7918.5186265226248
 20
-1040.1654714144811
 30
0.0
 11
8102.4999999999063
 21
-856.18409793719877
 31
0.0
1001
ACAD
1010
0.0
1020
0.0
1030
0.0
  0
LINE
  5
125FDC
  8
SLIM
 10
7920.0
 20
-1056.644610179244
 30
0.0
 11
8102.4999999999063
 21
-874.14461017933695
 31
0.0
1001
ACAD
1010
0.0
1020
0.0
1030
0.0
  0
LINE
  5
125FDD
  8
SLIM
 10
7929.6051224213852
 20
-1064.999999999997
 30
0.0
 11
8102.2700189725447
 21
-892.33510344883962
 31
0.0
1001
ACAD
1010
0.0
1020
0.0
1030
0.0
  0
LINE
  5
125FDE
  8
SLIM
 10
7930.0
 20
-1082.565634663521
 30
0.0
 11
7947.5656346635233
 21
-1064.999999999997
 31
0.0
1001
ACAD
1010
0.0
1020
0.0
1030
0.0
  0
LINE
  5
125FDF
  8
SLIM
 10
7947.5656346635233
 20
-1064.999999999997
 30
0.0
 11
8099.3310260601947
 21
-913.23460860332796
 31
0.0
1001
ACAD
1010
0.0
1020
0.0
1030
0.0
  0
LINE
  5
125FE0
  8
SLIM
 10
7940.5261469056613
 20
-1089.999999999998
 30
0.0
 11
7965.5261469056613
 21
-1064.999999999997
 31
0.0
1001
ACAD
1010
0.0
1020
0.0
1030
0.0
  0
LINE
  5
125FE1
  8
SLIM
 10
7965.5261469056613
 20
-1064.999999999997
 30
0.0
 11
8096.392033147843
 21
-934.13411375781595
 31
0.0
1001
ACAD
1010
0.0
1020
0.0
1030
0.0
  0
LINE
  5
125FE2
  8
SLIM
 10
7958.4866591477958
 20
-1089.999999999998
 30
0.0
 11
7983.4866591477958
 21
-1064.999999999997
 31
0.0
1001
ACAD
1010
0.0
1020
0.0
1030
0.0
  0
LINE
  5
125FE3
  8
SLIM
 10
7983.4866591477958
 20
-1064.999999999997
 30
0.0
 11
8093.4530402354931
 21
-955.03361891230395
 31
0.0
1001
ACAD
1010
0.0
1020
0.0
1030
0.0
  0
LINE
  5
125FE4
  8
SLIM
 10
7976.4471713899384
 20
-1089.999999999998
 30
0.0
 11
8001.4471713899393
 21
-1064.999999999997
 31
0.0
1001
ACAD
1010
0.0
1020
0.0
1030
0.0
  0
LINE
  5
125FE5
  8
SLIM
 10
8001.4471713899393
 20
-1064.999999999997
 30
0.0
 11
8090.5140473231431
 21
-975.93312406679183
 31
0.0
1001
ACAD
1010
0.0
1020
0.0
1030
0.0
  0
LINE
  5
125FE6
  8
SLIM
 10
7994.4076836320764
 20
-1089.999999999998
 30
0.0
 11
8019.4076836320764
 21
-1064.999999999997
 31
0.0
1001
ACAD
1010
0.0
1020
0.0
1030
0.0
  0
LINE
  5
125FE7
  8
SLIM
 10
8019.4076836320764
 20
-1064.999999999997
 30
0.0
 11
8087.5750544107932
 21
-996.83262922128063
 31
0.0
1001
ACAD
1010
0.0
1020
0.0
1030
0.0
  0
LINE
  5
125FE8
  8
SLIM
 10
8012.3681958742154
 20
-1089.999999999998
 30
0.0
 11
8037.3681958742127
 21
-1064.999999999997
 31
0.0
1001
ACAD
1010
0.0
1020
0.0
1030
0.0
  0
LINE
  5
125FE9
  8
SLIM
 10
8037.3681958742127
 20
-1064.999999999997
 30
0.0
 11
8084.6360614984433
 21
-1017.732134375769
 31
0.0
1001
ACAD
1010
0.0
1020
0.0
1030
0.0
  0
LINE
  5
125FEA
  8
SLIM
 10
8030.3287081163526
 20
-1089.999999999998
 30
0.0
 11
8055.3287081163544
 21
-1064.999999999997
 31
0.0
1001
ACAD
1010
0.0
1020
0.0
1030
0.0
  0
LINE
  5
125FEB
  8
SLIM
 10
8055.3287081163544
 20
-1064.999999999997
 30
0.0
 11
8081.6970685860933
 21
-1038.631639530257
 31
0.0
1001
ACAD
1010
0.0
1020
0.0
1030
0.0
  0
LINE
  5
125FEC
  8
SLIM
 10
8048.2892203584888
 20
-1089.999999999998
 30
0.0
 11
8070.0
 21
-1068.289220358489
 31
0.0
1001
ACAD
1010
0.0
1020
0.0
1030
0.0
  0
LINE
  5
125FED
  8
SLIM
 10
8073.2892203584888
 20
-1064.999999999997
 30
0.0
 11
8080.0
 21
-1058.289220358489
 31
0.0
1001
ACAD
1010
0.0
1020
0.0
1030
0.0
  0
LINE
  5
125FEE
  8
SLIM
 10
8066.2497326006278
 20
-1089.999999999998
 30
0.0
 11
8070.0
 21
-1086.2497326006271
 31
0.0
1001
ACAD
1010
0.0
1020
0.0
1030
0.0
  0
LINE
  5
125FEF
  8
OBJECT
 10
7897.5000000000928
 20
-649.99999999999761
 30
0.0
 11
8102.4999999999063
 21
-649.99999999999761
 31
0.0
  0
LINE
  5
125FF0
  8
OBJECT
 10
8102.4999999999063
 20
-649.99999999999761
 30
0.0
 11
8102.4999999999063
 21
-890.69968280980572
 31
0.0
  0
LINE
  5
125FF1
  8
OBJECT
 10
8102.4999999999063
 20
-890.69968280980572
 30
0.0
 11
8080.0
 21
-1050.699682809146
 31
0.0
  0
LINE
  5
125FF2
  8
OBJECT
 10
8080.0
 20
-1050.699682809146
 30
0.0
 11
8080.0
 21
-1064.999999999997
 31
0.0
  0
LINE
  5
125FF3
  8
OBJECT
 10
8080.0
 20
-1064.999999999997
 30
0.0
 11
7920.0
 21
-1064.999999999997
 31
0.0
  0
LINE
  5
125FF4
  8
OBJECT
 10
7920.0
 20
-1064.999999999997
 30
0.0
 11
7920.0
 21
-1050.699682809146
 31
0.0
  0
LINE
  5
125FF5
  8
OBJECT
 10
7920.0
 20
-1050.699682809146
 30
0.0
 11
7897.5000000000928
 21
-890.69968280980572
 31
0.0
  0
LINE
  5
125FF6
  8
OBJECT
 10
7897.5000000000928
 20
-890.69968280980572
 30
0.0
 11
7897.5000000000928
 21
-649.99999999999761
 31
0.0
  0
LINE
  5
125FF7
  8
OBJECT
 10
7930.0
 20
-1064.999999999997
 30
0.0
 11
7930.0
 21
-1089.999999999998
 31
0.0
  0
LINE
  5
125FF8
  8
OBJECT
 10
7930.0
 20
-1089.999999999998
 30
0.0
 11
8070.0
 21
-1089.999999999998
 31
0.0
  0
LINE
  5
125FF9
  8
OBJECT
 10
8070.0
 20
-1089.999999999998
 30
0.0
 11
8070.0
 21
-1064.999999999997
 31
0.0
  0
LINE
  5
125FFA
  8
SLIM
 10
5897.5000000000928
 20
-666.05282860997045
 30
0.0
 11
5913.5528286100653
 21
-649.99999999999761
 31
0.0
1001
ACAD
1010
0.0
1020
0.0
1030
0.0
  0
LINE
  5
125FFB
  8
SLIM
 10
5897.5000000000928
 20
-684.01334085210885
 30
0.0
 11
5931.5133408522042
 21
-649.99999999999761
 31
0.0
1001
ACAD
1010
0.0
1020
0.0
1030
0.0
  0
LINE
  5
125FFC
  8
SLIM
 10
5897.5000000000928
 20
-701.97385309424715
 30
0.0
 11
5949.4738530943423
 21
-649.99999999999761
 31
0.0
1001
ACAD
1010
0.0
1020
0.0
1030
0.0
  0
LINE
  5
125FFD
  8
SLIM
 10
5897.5000000000928
 20
-719.93436533638567
 30
0.0
 11
5967.4343653364804
 21
-649.99999999999761
 31
0.0
1001
ACAD
1010
0.0
1020
0.0
1030
0.0
  0
LINE
  5
125FFE
  8
SLIM
 10
5897.5000000000928
 20
-737.89487757852351
 30
0.0
 11
5985.3948775786184
 21
-649.99999999999761
 31
0.0
1001
ACAD
1010
0.0
1020
0.0
1030
0.0
  0
LINE
  5
125FFF
  8
SLIM
 10
5897.5000000000928
 20
-755.85538982066203
 30
0.0
 11
6003.3553898207574
 21
-649.99999999999761
 31
0.0
1001
ACAD
1010
0.0
1020
0.0
1030
0.0
  0
LINE
  5
126000
  8
SLIM
 10
5897.5000000000928
 20
-773.81590206280043
 30
0.0
 11
6021.3159020628946
 21
-649.99999999999761
 31
0.0
1001
ACAD
1010
0.0
1020
0.0
1030
0.0
  0
LINE
  5
126001
  8
SLIM
 10
5897.5000000000928
 20
-791.77641430493816
 30
0.0
 11
6039.2764143050326
 21
-649.99999999999761
 31
0.0
1001
ACAD
1010
0.0
1020
0.0
1030
0.0
  0
LINE
  5
126002
  8
SLIM
 10
5897.5000000000928
 20
-809.73692654707713
 30
0.0
 11
6057.2369265471707
 21
-649.99999999999761
 31
0.0
1001
ACAD
1010
0.0
1020
0.0
1030
0.0
  0
LINE
  5
126003
  8
SLIM
 10
5897.5000000000928
 20
-827.69743878921543
 30
0.0
 11
6075.1974387893097
 21
-649.99999999999761
 31
0.0
1001
ACAD
1010
0.0
1020
0.0
1030
0.0
  0
LINE
  5
126004
  8
SLIM
 10
5897.5000000000928
 20
-845.6579510313536
 30
0.0
 11
6093.1579510314468
 21
-649.99999999999761
 31
0.0
1001
ACAD
1010
0.0
1020
0.0
1030
0.0
  0
LINE
  5
126005
  8
SLIM
 10
5897.5000000000928
 20
-863.61846327349178
 30
0.0
 11
6102.4999999999072
 21
-658.61846327367755
 31
0.0
1001
ACAD
1010
0.0
1020
0.0
1030
0.0
  0
LINE
  5
126006
  8
SLIM
 10
5897.5000000000928
 20
-881.57897551563019
 30
0.0
 11
6102.4999999999072
 21
-676.57897551581561
 31
0.0
1001
ACAD
1010
0.0
1020
0.0
1030
0.0
  0
LINE
  5
126007
  8
SLIM
 10
5898.5898389662798
 20
-898.44964879158101
 30
0.0
 11
6102.4999999999072
 21
-694.53948775795391
 31
0.0
1001
ACAD
1010
0.0
1020
0.0
1030
0.0
  0
LINE
  5
126008
  8
SLIM
 10
5900.8041486947632
 20
-914.19585130523694
 30
0.0
 11
6102.4999999999072
 21
-712.50000000009231
 31
0.0
1001
ACAD
1010
0.0
1020
0.0
1030
0.0
  0
LINE
  5
126009
  8
SLIM
 10
5903.0184584232456
 20
-929.94205381889253
 30
0.0
 11
6102.4999999999072
 21
-730.46051224223027
 31
0.0
1001
ACAD
1010
0.0
1020
0.0
1030
0.0
  0
LINE
  5
12600A
  8
SLIM
 10
5905.2327681517281
 20
-945.68825633254755
 30
0.0
 11
6102.4999999999072
 21
-748.4210244843689
 31
0.0
1001
ACAD
1010
0.0
1020
0.0
1030
0.0
  0
LINE
  5
12600B
  8
SLIM
 10
5907.4470778802097
 20
-961.43445884620314
 30
0.0
 11
6102.4999999999072
 21
-766.38153672650731
 31
0.0
1001
ACAD
1010
0.0
1020
0.0
1030
0.0
  0
LINE
  5
12600C
  8
SLIM
 10
5909.661387608694
 20
-977.18066135985828
 30
0.0
 11
6102.4999999999072
 21
-784.34204896864549
 31
0.0
1001
ACAD
1010
0.0
1020
0.0
1030
0.0
  0
LINE
  5
12600D
  8
SLIM
 10
5911.8756973371756
 20
-992.92686387351455
 30
0.0
 11
6102.4999999999072
 21
-802.30256121078355
 31
0.0
1001
ACAD
1010
0.0
1020
0.0
1030
0.0
  0
LINE
  5
12600E
  8
SLIM
 10
5914.0900070656589
 20
-1008.67306638717
 30
0.0
 11
6102.4999999999072
 21
-820.26307345292219
 31
0.0
1001
ACAD
1010
0.0
1020
0.0
1030
0.0
  0
LINE
  5
12600F
  8
SLIM
 10
5916.3043167941432
 20
-1024.419268900825
 30
0.0
 11
6102.4999999999072
 21
-838.22358569506036
 31
0.0
1001
ACAD
1010
0.0
1020
0.0
1030
0.0
  0
LINE
  5
126010
  8
SLIM
 10
5918.5186265226248
 20
-1040.1654714144811
 30
0.0
 11
6102.4999999999072
 21
-856.18409793719877
 31
0.0
1001
ACAD
1010
0.0
1020
0.0
1030
0.0
  0
LINE
  5
126011
  8
SLIM
 10
5920.0
 20
-1056.644610179244
 30
0.0
 11
6102.4999999999072
 21
-874.14461017933695
 31
0.0
1001
ACAD
1010
0.0
1020
0.0
1030
0.0
  0
LINE
  5
126012
  8
SLIM
 10
5929.6051224213852
 20
-1064.999999999997
 30
0.0
 11
6102.2700189725429
 21
-892.33510344883962
 31
0.0
1001
ACAD
1010
0.0
1020
0.0
1030
0.0
  0
LINE
  5
126013
  8
SLIM
 10
5930.0
 20
-1082.565634663521
 30
0.0
 11
5947.5656346635233
 21
-1064.999999999997
 31
0.0
1001
ACAD
1010
0.0
1020
0.0
1030
0.0
  0
LINE
  5
126014
  8
SLIM
 10
5947.5656346635233
 20
-1064.999999999997
 30
0.0
 11
6099.3310260601929
 21
-913.23460860332796
 31
0.0
1001
ACAD
1010
0.0
1020
0.0
1030
0.0
  0
LINE
  5
126015
  8
SLIM
 10
5940.5261469056613
 20
-1089.999999999998
 30
0.0
 11
5965.5261469056604
 21
-1064.999999999997
 31
0.0
1001
ACAD
1010
0.0
1020
0.0
1030
0.0
  0
LINE
  5
126016
  8
SLIM
 10
5965.5261469056604
 20
-1064.999999999997
 30
0.0
 11
6096.392033147843
 21
-934.13411375781595
 31
0.0
1001
ACAD
1010
0.0
1020
0.0
1030
0.0
  0
LINE
  5
126017
  8
SLIM
 10
5958.4866591478003
 20
-1089.999999999998
 30
0.0
 11
5983.4866591478003
 21
-1064.999999999997
 31
0.0
1001
ACAD
1010
0.0
1020
0.0
1030
0.0
  0
LINE
  5
126018
  8
SLIM
 10
5983.4866591478003
 20
-1064.999999999997
 30
0.0
 11
6093.4530402354931
 21
-955.03361891230395
 31
0.0
1001
ACAD
1010
0.0
1020
0.0
1030
0.0
  0
LINE
  5
126019
  8
SLIM
 10
5976.4471713899384
 20
-1089.999999999998
 30
0.0
 11
6001.4471713899366
 21
-1064.999999999997
 31
0.0
1001
ACAD
1010
0.0
1020
0.0
1030
0.0
  0
LINE
  5
12601A
  8
SLIM
 10
6001.4471713899366
 20
-1064.999999999997
 30
0.0
 11
6090.5140473231431
 21
-975.93312406679183
 31
0.0
1001
ACAD
1010
0.0
1020
0.0
1030
0.0
  0
LINE
  5
12601B
  8
SLIM
 10
5994.4076836320764
 20
-1089.999999999998
 30
0.0
 11
6019.4076836320774
 21
-1064.999999999997
 31
0.0
1001
ACAD
1010
0.0
1020
0.0
1030
0.0
  0
LINE
  5
12601C
  8
SLIM
 10
6019.4076836320774
 20
-1064.999999999997
 30
0.0
 11
6087.5750544107932
 21
-996.83262922128063
 31
0.0
1001
ACAD
1010
0.0
1020
0.0
1030
0.0
  0
LINE
  5
12601D
  8
SLIM
 10
6012.3681958742163
 20
-1089.999999999998
 30
0.0
 11
6037.3681958742181
 21
-1064.999999999997
 31
0.0
1001
ACAD
1010
0.0
1020
0.0
1030
0.0
  0
LINE
  5
12601E
  8
SLIM
 10
6037.3681958742181
 20
-1064.999999999997
 30
0.0
 11
6084.6360614984433
 21
-1017.732134375769
 31
0.0
1001
ACAD
1010
0.0
1020
0.0
1030
0.0
  0
LINE
  5
12601F
  8
SLIM
 10
6030.3287081163526
 20
-1089.999999999998
 30
0.0
 11
6055.3287081163517
 21
-1064.999999999997
 31
0.0
1001
ACAD
1010
0.0
1020
0.0
1030
0.0
  0
LINE
  5
126020
  8
SLIM
 10
6055.3287081163517
 20
-1064.999999999997
 30
0.0
 11
6081.6970685860952
 21
-1038.631639530257
 31
0.0
1001
ACAD
1010
0.0
1020
0.0
1030
0.0
  0
LINE
  5
126021
  8
SLIM
 10
6048.2892203584897
 20
-1089.999999999998
 30
0.0
 11
6070.0
 21
-1068.289220358489
 31
0.0
1001
ACAD
1010
0.0
1020
0.0
1030
0.0
  0
LINE
  5
126022
  8
SLIM
 10
6073.2892203584934
 20
-1064.999999999997
 30
0.0
 11
6080.0
 21
-1058.289220358489
 31
0.0
1001
ACAD
1010
0.0
1020
0.0
1030
0.0
  0
LINE
  5
126023
  8
SLIM
 10
6066.2497326006287
 20
-1089.999999999998
 30
0.0
 11
6070.0
 21
-1086.2497326006271
 31
0.0
1001
ACAD
1010
0.0
1020
0.0
1030
0.0
  0
LINE
  5
126024
  8
OBJECT
 10
5897.5000000000928
 20
-649.99999999999761
 30
0.0
 11
6102.4999999999072
 21
-649.99999999999761
 31
0.0
  0
LINE
  5
126025
  8
OBJECT
 10
6102.4999999999072
 20
-649.99999999999761
 30
0.0
 11
6102.4999999999072
 21
-890.69968280980572
 31
0.0
  0
LINE
  5
126026
  8
OBJECT
 10
6102.4999999999072
 20
-890.69968280980572
 30
0.0
 11
6080.0
 21
-1050.699682809146
 31
0.0
  0
LINE
  5
126027
  8
OBJECT
 10
6080.0
 20
-1050.699682809146
 30
0.0
 11
6080.0
 21
-1064.999999999997
 31
0.0
  0
LINE
  5
126028
  8
OBJECT
 10
6080.0
 20
-1064.999999999997
 30
0.0
 11
5920.0
 21
-1064.999999999997
 31
0.0
  0
LINE
  5
126029
  8
OBJECT
 10
5920.0
 20
-1064.999999999997
 30
0.0
 11
5920.0
 21
-1050.699682809146
 31
0.0
  0
LINE
  5
12602A
  8
OBJECT
 10
5920.0
 20
-1050.699682809146
 30
0.0
 11
5897.5000000000928
 21
-890.69968280980572
 31
0.0
  0
LINE
  5
12602B
  8
OBJECT
 10
5897.5000000000928
 20
-890.69968280980572
 30
0.0
 11
5897.5000000000928
 21
-649.99999999999761
 31
0.0
  0
LINE
  5
12602C
  8
OBJECT
 10
5930.0
 20
-1064.999999999997
 30
0.0
 11
5930.0
 21
-1089.999999999998
 31
0.0
  0
LINE
  5
12602D
  8
OBJECT
 10
5930.0
 20
-1089.999999999998
 30
0.0
 11
6070.0
 21
-1089.999999999998
 31
0.0
  0
LINE
  5
12602E
  8
OBJECT
 10
6070.0
 20
-1089.999999999998
 30
0.0
 11
6070.0
 21
-1064.999999999997
 31
0.0
  0
LINE
  5
12602F
  8
CENTER
 10
8000.0
 20
-1543.9999999999991
 30
0.0
 11
8000.0
 21
-1317.9999999999991
 31
0.0
1001
ACDBBLOCKREPETAG
1070
     1
1071
        0
1005
12602F
  0
LINE
  5
126030
  8
CENTER
 10
7894.7678858541567
 20
-1438.9999999999991
 30
0.0
 11
8105.2321141458424
 21
-1438.9999999999991
 31
0.0
1001
ACDBBLOCKREPETAG
1070
     1
1071
        1
1005
126030
  0
CIRCLE
  5
126031
  8
OBJECT
 10
8000.0
 20
-1438.9999999999991
 30
0.0
 40
62.5
1001
ACDBBLOCKREPETAG
1070
     1
1071
        2
1005
126031
  0
CIRCLE
  5
126032
  8
OBJECT
 10
8000.0
 20
-1438.9999999999991
 30
0.0
 40
75.0
1001
ACDBBLOCKREPETAG
1070
     1
1071
        3
1005
126032
  0
ARC
  5
126033
  8
OBJECT
 10
8000.0
 20
-1438.9999999999991
 30
0.0
 40
90.0
 50
124.11056017877129
 51
175.8894398211431
1001
ACDBBLOCKREPETAG
1070
     1
1071
        4
1005
126033
  0
ARC
  5
126034
  8
OBJECT
 10
8000.0
 20
-1438.9999999999991
 30
0.0
 40
90.0
 50
244.1105601790079
 51
295.88943982099198
1001
ACDBBLOCKREPETAG
1070
     1
1071
        5
1005
126034
  0
ARC
  5
126035
  8
OBJECT
 10
8000.0
 20
-1438.9999999999991
 30
0.0
 40
90.0
 50
4.1105601788568462
 51
55.889439821228699
1001
ACDBBLOCKREPETAG
1070
     1
1071
        6
1005
126035
  0
CIRCLE
  5
126036
  8
SLIM
 10
8000.0
 20
-1345.9999999999991
 30
0.0
 40
6.0
1001
ACDBBLOCKREPETAG
1070
     1
1071
        7
1005
126036
  0
ARC
  5
126037
  8
OBJECT
 10
8000.0
 20
-1345.9999999999991
 30
0.0
 40
13.0
 50
55.889439821228699
 51
124.11056017877129
1001
ACDBBLOCKREPETAG
1070
     1
1071
        8
1005
126037
  0
LINE
  5
126038
  8
OBJECT
 10
7949.5287555726281
 20
-1364.483870967742
 30
0.0
 11
7992.7097091382657
 21
-1335.2365591397861
 31
0.0
1001
ACDBBLOCKREPETAG
1070
     1
1071
        9
1005
126038
  0
LINE
  5
126039
  8
OBJECT
 10
8050.4712444273764
 20
-1364.483870967742
 30
0.0
 11
8007.2902908617298
 21
-1335.2365591397861
 31
0.0
1001
ACDBBLOCKREPETAG
1070
     1
1071
       10
1005
126039
  0
POLYLINE
  5
12603A
  8
SLIM
 66
     1
 10
0.0
 20
0.0
 30
0.0
 70
     1
1001
ACDBBLOCKREPETAG
1070
     1
1071
       11
1005
12603A
  0
VERTEX
  5
12675E
  8
SLIM
 10
7990.5
 20
-1351.484827557302
 30
0.0
  0
VERTEX
  5
12675F
  8
SLIM
 10
8000.0
 20
-1356.9696551146039
 30
0.0
  0
VERTEX
  5
126760
  8
SLIM
 10
8009.5
 20
-1351.484827557302
 30
0.0
  0
VERTEX
  5
126761
  8
SLIM
 10
8009.5
 20
-1340.515172442696
 30
0.0
  0
VERTEX
  5
126762
  8
SLIM
 10
8000.0
 20
-1335.0303448853949
 30
0.0
  0
VERTEX
  5
126763
  8
SLIM
 10
7990.5
 20
-1340.515172442696
 30
0.0
  0
SEQEND
  5
126764
  8
SLIM
  0
CIRCLE
  5
12603B
  8
SLIM
 10
7919.4596374480507
 20
-1485.4999999999991
 30
0.0
 40
5.9999999999999991
1001
ACDBBLOCKREPETAG
1070
     1
1071
       12
1005
12603B
  0
ARC
  5
12603C
  8
OBJECT
 10
7919.4596374480507
 20
-1485.4999999999991
 30
0.0
 40
13.0
 50
175.8894398211431
 51
244.1105601790079
1001
ACDBBLOCKREPETAG
1070
     1
1071
       13
1005
12603C
  0
LINE
  5
12603D
  8
OBJECT
 10
7960.7027614800709
 20
-1519.9674443508479
 30
0.0
 11
7913.7833696618336
 21
-1497.195297517344
 31
0.0
1001
ACDBBLOCKREPETAG
1070
     1
1071
       14
1005
12603D
  0
LINE
  5
12603E
  8
OBJECT
 10
7910.2315170527017
 20
-1432.548684681409
 30
0.0
 11
7906.4930788001029
 21
-1484.5681433428681
 31
0.0
1001
ACDBBLOCKREPETAG
1070
     1
1071
       15
1005
12603E
  0
POLYLINE
  5
12603F
  8
SLIM
 66
     1
 10
0.0
 20
0.0
 30
0.0
 70
     1
1001
ACDBBLOCKREPETAG
1070
     1
1071
       16
1005
12603F
  0
VERTEX
  5
126765
  8
SLIM
 10
7928.9596374480507
 20
-1490.984827557302
 30
0.0
  0
VERTEX
  5
126766
  8
SLIM
 10
7928.9596374480507
 20
-1480.0151724426969
 30
0.0
  0
VERTEX
  5
126767
  8
SLIM
 10
7919.4596374480507
 20
-1474.5303448853949
 30
0.0
  0
VERTEX
  5
126768
  8
SLIM
 10
7909.9596374480461
 20
-1480.0151724426969
 30
0.0
  0
VERTEX
  5
126769
  8
SLIM
 10
7909.9596374480461
 20
-1490.984827557302
 30
0.0
  0
VERTEX
  5
12676A
  8
SLIM
 10
7919.459637448047
 20
-1496.4696551146039
 30
0.0
  0
SEQEND
  5
12676B
  8
SLIM
  0
CIRCLE
  5
126040
  8
SLIM
 10
8080.5403625519548
 20
-1485.4999999999991
 30
0.0
 40
6.0
1001
ACDBBLOCKREPETAG
1070
     1
1071
       17
1005
126040
  0
ARC
  5
126041
  8
OBJECT
 10
8080.5403625519548
 20
-1485.4999999999991
 30
0.0
 40
13.0
 50
295.88943982099198
 51
4.1105601788568462
1001
ACDBBLOCKREPETAG
1070
     1
1071
       18
1005
126041
  0
LINE
  5
126042
  8
OBJECT
 10
8089.7684829473019
 20
-1432.548684681409
 30
0.0
 11
8093.5069211998962
 21
-1484.5681433428681
 31
0.0
1001
ACDBBLOCKREPETAG
1070
     1
1071
       19
1005
126042
  0
LINE
  5
126043
  8
OBJECT
 10
8039.2972385199282
 20
-1519.9674443508479
 30
0.0
 11
8086.2166303381618
 21
-1497.195297517344
 31
0.0
1001
ACDBBLOCKREPETAG
1070
     1
1071
       20
1005
126043
  0
POLYLINE
  5
126044
  8
SLIM
 66
     1
 10
0.0
 20
0.0
 30
0.0
 70
     1
1001
ACDBBLOCKREPETAG
1070
     1
1071
       21
1005
126044
  0
VERTEX
  5
12676C
  8
SLIM
 10
8080.5403625519548
 20
-1474.5303448853949
 30
0.0
  0
VERTEX
  5
12676D
  8
SLIM
 10
8071.0403625519557
 20
-1480.0151724426969
 30
0.0
  0
VERTEX
  5
12676E
  8
SLIM
 10
8071.0403625519557
 20
-1490.984827557302
 30
0.0
  0
VERTEX
  5
12676F
  8
SLIM
 10
8080.5403625519548
 20
-1496.4696551146039
 30
0.0
  0
VERTEX
  5
126770
  8
SLIM
 10
8090.0403625519557
 20
-1490.984827557302
 30
0.0
  0
VERTEX
  5
126771
  8
SLIM
 10
8090.0403625519557
 20
-1480.0151724426969
 30
0.0
  0
SEQEND
  5
126772
  8
SLIM
  0
LINE
  5
126045
  8
CENTER
 10
4000.0
 20
-1543.9999999999991
 30
0.0
 11
4000.0
 21
-1317.9999999999991
 31
0.0
1001
ACDBBLOCKREPETAG
1070
     1
1071
        0
1005
126045
  0
LINE
  5
126046
  8
CENTER
 10
3894.7678858541608
 20
-1438.9999999999991
 30
0.0
 11
4105.2321141458406
 21
-1438.9999999999991
 31
0.0
1001
ACDBBLOCKREPETAG
1070
     1
1071
        1
1005
126046
  0
CIRCLE
  5
126047
  8
OBJECT
 10
4000.0
 20
-1438.9999999999991
 30
0.0
 40
62.5
1001
ACDBBLOCKREPETAG
1070
     1
1071
        2
1005
126047
  0
CIRCLE
  5
126048
  8
OBJECT
 10
4000.0
 20
-1438.9999999999991
 30
0.0
 40
75.0
1001
ACDBBLOCKREPETAG
1070
     1
1071
        3
1005
126048
  0
ARC
  5
126049
  8
OBJECT
 10
4000.0
 20
-1438.9999999999991
 30
0.0
 40
90.0
 50
124.11056017877129
 51
175.8894398211431
1001
ACDBBLOCKREPETAG
1070
     1
1071
        4
1005
126049
  0
ARC
  5
12604A
  8
OBJECT
 10
4000.0
 20
-1438.9999999999991
 30
0.0
 40
90.0
 50
244.11056017898451
 51
295.88943982101551
1001
ACDBBLOCKREPETAG
1070
     1
1071
        5
1005
12604A
  0
ARC
  5
12604B
  8
OBJECT
 10
4000.0
 20
-1438.9999999999991
 30
0.0
 40
90.0
 50
4.1105601788568462
 51
55.889439821228699
1001
ACDBBLOCKREPETAG
1070
     1
1071
        6
1005
12604B
  0
CIRCLE
  5
12604C
  8
SLIM
 10
4000.0
 20
-1345.9999999999991
 30
0.0
 40
6.0
1001
ACDBBLOCKREPETAG
1070
     1
1071
        7
1005
12604C
  0
ARC
  5
12604D
  8
OBJECT
 10
4000.0
 20
-1345.9999999999991
 30
0.0
 40
13.0
 50
55.889439821228699
 51
124.11056017877129
1001
ACDBBLOCKREPETAG
1070
     1
1071
        8
1005
12604D
  0
LINE
  5
12604E
  8
OBJECT
 10
3949.5287555726291
 20
-1364.483870967742
 30
0.0
 11
3992.709709138268
 21
-1335.2365591397861
 31
0.0
1001
ACDBBLOCKREPETAG
1070
     1
1071
        9
1005
12604E
  0
LINE
  5
12604F
  8
OBJECT
 10
4050.471244427376
 20
-1364.483870967742
 30
0.0
 11
4007.290290861732
 21
-1335.2365591397861
 31
0.0
1001
ACDBBLOCKREPETAG
1070
     1
1071
       10
1005
12604F
  0
POLYLINE
  5
126050
  8
SLIM
 66
     1
 10
0.0
 20
0.0
 30
0.0
 70
     1
1001
ACDBBLOCKREPETAG
1070
     1
1071
       11
1005
126050
  0
VERTEX
  5
126773
  8
SLIM
 10
3990.5
 20
-1351.484827557302
 30
0.0
  0
VERTEX
  5
126774
  8
SLIM
 10
4000.0
 20
-1356.9696551146039
 30
0.0
  0
VERTEX
  5
126775
  8
SLIM
 10
4009.5
 20
-1351.484827557302
 30
0.0
  0
VERTEX
  5
126776
  8
SLIM
 10
4009.5
 20
-1340.515172442696
 30
0.0
  0
VERTEX
  5
126777
  8
SLIM
 10
4000.0
 20
-1335.0303448853949
 30
0.0
  0
VERTEX
  5
126778
  8
SLIM
 10
3990.5
 20
-1340.515172442696
 30
0.0
  0
SEQEND
  5
126779
  8
SLIM
  0
CIRCLE
  5
126051
  8
SLIM
 10
3919.4596374480502
 20
-1485.4999999999991
 30
0.0
 40
5.9999999999999991
1001
ACDBBLOCKREPETAG
1070
     1
1071
       12
1005
126051
  0
ARC
  5
126052
  8
OBJECT
 10
3919.4596374480502
 20
-1485.4999999999991
 30
0.0
 40
13.0
 50
175.8894398211431
 51
244.11056017898451
1001
ACDBBLOCKREPETAG
1070
     1
1071
       13
1005
126052
  0
LINE
  5
126053
  8
OBJECT
 10
3960.7027614800718
 20
-1519.9674443508479
 30
0.0
 11
3913.7833696618368
 21
-1497.195297517344
 31
0.0
1001
ACDBBLOCKREPETAG
1070
     1
1071
       14
1005
126053
  0
LINE
  5
126054
  8
OBJECT
 10
3910.2315170527008
 20
-1432.548684681409
 30
0.0
 11
3906.4930788001038
 21
-1484.5681433428681
 31
0.0
1001
ACDBBLOCKREPETAG
1070
     1
1071
       15
1005
126054
  0
POLYLINE
  5
126055
  8
SLIM
 66
     1
 10
0.0
 20
0.0
 30
0.0
 70
     1
1001
ACDBBLOCKREPETAG
1070
     1
1071
       16
1005
126055
  0
VERTEX
  5
12677A
  8
SLIM
 10
3928.9596374480502
 20
-1490.984827557302
 30
0.0
  0
VERTEX
  5
12677B
  8
SLIM
 10
3928.9596374480502
 20
-1480.0151724426969
 30
0.0
  0
VERTEX
  5
12677C
  8
SLIM
 10
3919.4596374480502
 20
-1474.5303448853949
 30
0.0
  0
VERTEX
  5
12677D
  8
SLIM
 10
3909.9596374480461
 20
-1480.0151724426969
 30
0.0
  0
VERTEX
  5
12677E
  8
SLIM
 10
3909.9596374480461
 20
-1490.984827557302
 30
0.0
  0
VERTEX
  5
12677F
  8
SLIM
 10
3919.4596374480461
 20
-1496.4696551146039
 30
0.0
  0
SEQEND
  5
126780
  8
SLIM
  0
CIRCLE
  5
126056
  8
SLIM
 10
4080.5403625519521
 20
-1485.4999999999991
 30
0.0
 40
6.0
1001
ACDBBLOCKREPETAG
1070
     1
1071
       17
1005
126056
  0
ARC
  5
126057
  8
OBJECT
 10
4080.5403625519521
 20
-1485.4999999999991
 30
0.0
 40
13.0
 50
295.88943982101551
 51
4.1105601788568462
1001
ACDBBLOCKREPETAG
1070
     1
1071
       18
1005
126057
  0
LINE
  5
126058
  8
OBJECT
 10
4089.768482947301
 20
-1432.548684681409
 30
0.0
 11
4093.5069211998962
 21
-1484.5681433428681
 31
0.0
1001
ACDBBLOCKREPETAG
1070
     1
1071
       19
1005
126058
  0
LINE
  5
126059
  8
OBJECT
 10
4039.2972385199269
 20
-1519.9674443508479
 30
0.0
 11
4086.2166303381632
 21
-1497.195297517344
 31
0.0
1001
ACDBBLOCKREPETAG
1070
     1
1071
       20
1005
126059
  0
POLYLINE
  5
12605A
  8
SLIM
 66
     1
 10
0.0
 20
0.0
 30
0.0
 70
     1
1001
ACDBBLOCKREPETAG
1070
     1
1071
       21
1005
12605A
  0
VERTEX
  5
126781
  8
SLIM
 10
4080.5403625519521
 20
-1474.5303448853949
 30
0.0
  0
VERTEX
  5
126782
  8
SLIM
 10
4071.040362551953
 20
-1480.0151724426969
 30
0.0
  0
VERTEX
  5
126783
  8
SLIM
 10
4071.040362551953
 20
-1490.984827557302
 30
0.0
  0
VERTEX
  5
126784
  8
SLIM
 10
4080.5403625519521
 20
-1496.4696551146039
 30
0.0
  0
VERTEX
  5
126785
  8
SLIM
 10
4090.040362551953
 20
-1490.984827557302
 30
0.0
  0
VERTEX
  5
126786
  8
SLIM
 10
4090.040362551953
 20
-1480.0151724426969
 30
0.0
  0
SEQEND
  5
126787
  8
SLIM
  0
LINE
  5
12605B
  8
OBJECT
 10
8092.4999999999973
 20
-889.99999999999955
 30
0.0
 11
8092.4999999999973
 21
-814.99999999999955
 31
0.0
1001
ACDBBLOCKREPETAG
1070
     1
1071
       12
1005
12605B
  0
LINE
  5
12605C
  8
OBJECT
 10
8093.5403615519499
 20
-1164.9999999999991
 30
0.0
 11
7906.4596374480461
 21
-1164.9999999999991
 31
0.0
1001
ACDBBLOCKREPETAG
1070
     1
1071
       13
1005
12605C
  0
LINE
  5
12605D
  8
OBJECT
 10
7906.4596374480498
 20
-1191.5
 30
0.0
 11
8093.5403625519502
 21
-1191.5
 31
0.0
1001
ACDBBLOCKREPETAG
1070
     1
1071
       14
1005
12605D
  0
LINE
  5
12605E
  8
OBJECT
 10
8093.5403625519502
 20
-1175.5000000000009
 30
0.0
 11
7906.4596374480498
 21
-1175.5000000000009
 31
0.0
1001
ACDBBLOCKREPETAG
1070
     1
1071
       15
1005
12605E
  0
LINE
  5
12605F
  8
OBJECT
 10
8005.9999999999982
 20
-1206.999999999998
 30
0.0
 11
8005.9999999999982
 21
-1201.5000000000009
 31
0.0
1001
ACDBBLOCKREPETAG
1070
     1
1071
       16
1005
12605F
  0
LINE
  5
126060
  8
OBJECT
 10
7993.9999999999973
 20
-1206.999999999998
 30
0.0
 11
7993.9999999999973
 21
-1201.5000000000009
 31
0.0
1001
ACDBBLOCKREPETAG
1070
     1
1071
       17
1005
126060
  0
LINE
  5
126061
  8
OBJECT
 10
7993.9999999999973
 20
-1206.999999999998
 30
0.0
 11
8005.9999999999982
 21
-1206.999999999998
 31
0.0
1001
ACDBBLOCKREPETAG
1070
     1
1071
       18
1005
126061
  0
LINE
  5
126062
  8
OBJECT
 10
7993.9999999999973
 20
-1175.5000000000009
 30
0.0
 11
7993.9999999999973
 21
-1164.9999999999991
 31
0.0
1001
ACDBBLOCKREPETAG
1070
     1
1071
       19
1005
126062
  0
LINE
  5
126063
  8
OBJECT
 10
8005.9999999999982
 20
-1175.5000000000009
 30
0.0
 11
8005.9999999999982
 21
-1164.9999999999991
 31
0.0
1001
ACDBBLOCKREPETAG
1070
     1
1071
       20
1005
126063
  0
LINE
  5
126064
  8
OBJECT
 10
8016.4999999999982
 20
-1144.499999999998
 30
0.0
 11
8016.4999999999982
 21
-1146.999999999998
 31
0.0
1001
ACDBBLOCKREPETAG
1070
     1
1071
       21
1005
126064
  0
LINE
  5
126065
  8
OBJECT
 10
7989.9999999999982
 20
-1141.0
 30
0.0
 11
7989.9999999999982
 21
-1146.999999999998
 31
0.0
1001
ACDBBLOCKREPETAG
1070
     1
1071
       22
1005
126065
  0
LINE
  5
126066
  8
OBJECT
 10
8008.4999999999973
 20
-1141.0
 30
0.0
 11
7989.9999999999982
 21
-1141.0
 31
0.0
1001
ACDBBLOCKREPETAG
1070
     1
1071
       23
1005
126066
  0
LINE
  5
126067
  8
OBJECT
 10
8093.5403615519499
 20
-1146.999999999998
 30
0.0
 11
7906.4596374480461
 21
-1146.999999999998
 31
0.0
1001
ACDBBLOCKREPETAG
1070
     1
1071
       24
1005
126067
  0
LINE
  5
126068
  8
OBJECT
 10
8016.4999999999982
 20
-1144.499999999998
 30
0.0
 11
8008.4999999999973
 21
-1141.0
 31
0.0
1001
ACDBBLOCKREPETAG
1070
     1
1071
       25
1005
126068
  0
LINE
  5
126069
  8
HIDDEN
 10
7930.0
 20
-1125.0
 30
0.0
 11
8070.0
 21
-1125.0
 31
0.0
1001
ACDBBLOCKREPETAG
1070
     1
1071
       26
1005
126069
  0
LINE
  5
12606A
  8
CENTER
 10
8000.0
 20
-814.99999999999955
 30
0.0
 11
8000.0
 21
-1221.999999999997
 31
0.0
1001
ACDBBLOCKREPETAG
1070
     1
1071
       27
1005
12606A
  0
LINE
  5
12606B
  8
OBJECT
 10
7918.5
 20
-1164.9999999999991
 30
0.0
 11
7918.5
 21
-1175.5000000000009
 31
0.0
1001
ACDBBLOCKREPETAG
1070
     1
1071
       28
1005
12606B
  0
LINE
  5
12606C
  8
OBJECT
 10
8081.5
 20
-1164.9999999999991
 30
0.0
 11
8081.5
 21
-1175.5000000000009
 31
0.0
1001
ACDBBLOCKREPETAG
1070
     1
1071
       29
1005
12606C
  0
LINE
  5
12606D
  8
OBJECT
 10
7930.0
 20
-1049.9999999999991
 30
0.0
 11
7930.0
 21
-1113.9999999999991
 31
0.0
1001
ACDBBLOCKREPETAG
1070
     1
1071
       30
1005
12606D
  0
LINE
  5
12606E
  8
OBJECT
 10
8070.0
 20
-1049.9999999999991
 30
0.0
 11
8070.0
 21
-1113.9999999999991
 31
0.0
1001
ACDBBLOCKREPETAG
1070
     1
1071
       31
1005
12606E
  0
LINE
  5
12606F
  8
OBJECT
 10
7930.0
 20
-1049.9999999999991
 30
0.0
 11
8070.0
 21
-1049.9999999999991
 31
0.0
1001
ACDBBLOCKREPETAG
1070
     1
1071
       32
1005
12606F
  0
LINE
  5
126070
  8
OBJECT
 10
7919.4999999999982
 20
-1113.9999999999991
 30
0.0
 11
8080.5000000000036
 21
-1113.9999999999991
 31
0.0
1001
ACDBBLOCKREPETAG
1070
     1
1071
       33
1005
126070
  0
LINE
  5
126071
  8
OBJECT
 10
7907.5
 20
-889.99999999999955
 30
0.0
 11
7907.5
 21
-814.99999999999955
 31
0.0
1001
ACDBBLOCKREPETAG
1070
     1
1071
       34
1005
126071
  0
LINE
  5
126072
  8
OBJECT
 10
8092.4999999999973
 20
-889.99999999999955
 30
0.0
 11
7907.5
 21
-889.99999999999955
 31
0.0
1001
ACDBBLOCKREPETAG
1070
     1
1071
       35
1005
126072
  0
LINE
  5
126073
  8
OBJECT
 10
7907.5
 20
-889.99999999999955
 30
0.0
 11
7930.0
 21
-1049.9999999999991
 31
0.0
1001
ACDBBLOCKREPETAG
1070
     1
1071
       36
1005
126073
  0
LINE
  5
126074
  8
OBJECT
 10
8070.0
 20
-1049.9999999999991
 30
0.0
 11
8092.4999999999973
 21
-889.99999999999955
 31
0.0
1001
ACDBBLOCKREPETAG
1070
     1
1071
       37
1005
126074
  0
LINE
  5
126075
  8
OBJECT
 10
8080.5
 20
-1113.9999999999991
 30
0.0
 11
8080.5
 21
-1146.999999999998
 31
0.0
1001
ACDBBLOCKREPETAG
1070
     1
1071
       38
1005
126075
  0
LINE
  5
126076
  8
OBJECT
 10
7919.5000000000027
 20
-1113.9999999999991
 30
0.0
 11
7919.5000000000027
 21
-1146.999999999998
 31
0.0
1001
ACDBBLOCKREPETAG
1070
     1
1071
       39
1005
126076
  0
LINE
  5
126077
  8
OBJECT
 10
8010.9696549999944
 20
-1191.5
 30
0.0
 11
8010.9696549999944
 21
-1201.5000000000009
 31
0.0
1001
ACDBBLOCKREPETAG
1070
     1
1071
       40
1005
126077
  0
LINE
  5
126078
  8
OBJECT
 10
8005.4848269999939
 20
-1191.5
 30
0.0
 11
8005.4848269999939
 21
-1201.5000000000009
 31
0.0
1001
ACDBBLOCKREPETAG
1070
     1
1071
       41
1005
126078
  0
LINE
  5
126079
  8
OBJECT
 10
7994.5151719999976
 20
-1191.5
 30
0.0
 11
7994.5151719999976
 21
-1201.5000000000009
 31
0.0
1001
ACDBBLOCKREPETAG
1070
     1
1071
       42
1005
126079
  0
LINE
  5
12607A
  8
OBJECT
 10
7989.0303449999928
 20
-1191.5
 30
0.0
 11
7989.0303449999928
 21
-1201.5000000000009
 31
0.0
1001
ACDBBLOCKREPETAG
1070
     1
1071
       43
1005
12607A
  0
LINE
  5
12607B
  8
OBJECT
 10
7989.0303449999928
 20
-1201.5000000000009
 30
0.0
 11
8010.9696549999944
 21
-1201.5000000000009
 31
0.0
1001
ACDBBLOCKREPETAG
1070
     1
1071
       44
1005
12607B
  0
LINE
  5
12607C
  8
OBJECT
 10
7906.4596374480461
 20
-1146.999999999998
 30
0.0
 11
7906.4596374480461
 21
-1164.9999999999991
 31
0.0
1001
ACDBBLOCKREPETAG
1070
     1
1071
       45
1005
12607C
  0
LINE
  5
12607D
  8
OBJECT
 10
7906.4596374480498
 20
-1175.5000000000009
 30
0.0
 11
7906.4596374480498
 21
-1191.5
 31
0.0
1001
ACDBBLOCKREPETAG
1070
     1
1071
       46
1005
12607D
  0
LINE
  5
12607E
  8
OBJECT
 10
8093.540362551953
 20
-1146.999999999998
 30
0.0
 11
8093.540362551953
 21
-1164.9999999999991
 31
0.0
1001
ACDBBLOCKREPETAG
1070
     1
1071
       47
1005
12607E
  0
LINE
  5
12607F
  8
OBJECT
 10
8093.5403625519502
 20
-1175.5000000000009
 30
0.0
 11
8093.5403625519502
 21
-1191.5
 31
0.0
1001
ACDBBLOCKREPETAG
1070
     1
1071
       48
1005
12607F
  0
LINE
  5
126080
  8
OBJECT
 10
7925.4596374480398
 20
-1206.999999999998
 30
0.0
 11
7925.4596374480398
 21
-1201.5000000000009
 31
0.0
1001
ACDBBLOCKREPETAG
1070
     1
1071
       49
1005
126080
  0
LINE
  5
126081
  8
OBJECT
 10
7913.4596374480416
 20
-1206.999999999998
 30
0.0
 11
7913.4596374480416
 21
-1201.5000000000009
 31
0.0
1001
ACDBBLOCKREPETAG
1070
     1
1071
       50
1005
126081
  0
LINE
  5
126082
  8
OBJECT
 10
7913.4596374480416
 20
-1206.999999999998
 30
0.0
 11
7925.4596374480398
 21
-1206.999999999998
 31
0.0
1001
ACDBBLOCKREPETAG
1070
     1
1071
       51
1005
126082
  0
LINE
  5
126083
  8
OBJECT
 10
7913.4596374480416
 20
-1175.5000000000009
 30
0.0
 11
7913.4596374480416
 21
-1164.9999999999991
 31
0.0
1001
ACDBBLOCKREPETAG
1070
     1
1071
       52
1005
126083
  0
LINE
  5
126084
  8
OBJECT
 10
7930.4292924480387
 20
-1191.5
 30
0.0
 11
7930.4292924480387
 21
-1201.5000000000009
 31
0.0
1001
ACDBBLOCKREPETAG
1070
     1
1071
       53
1005
126084
  0
LINE
  5
126085
  8
OBJECT
 10
7924.9444644480382
 20
-1191.5
 30
0.0
 11
7924.9444644480382
 21
-1201.5000000000009
 31
0.0
1001
ACDBBLOCKREPETAG
1070
     1
1071
       54
1005
126085
  0
LINE
  5
126086
  8
OBJECT
 10
7913.9748094480419
 20
-1191.5
 30
0.0
 11
7913.9748094480419
 21
-1201.5000000000009
 31
0.0
1001
ACDBBLOCKREPETAG
1070
     1
1071
       55
1005
126086
  0
LINE
  5
126087
  8
OBJECT
 10
7908.4899824480417
 20
-1191.5
 30
0.0
 11
7908.4899824480417
 21
-1201.5000000000009
 31
0.0
1001
ACDBBLOCKREPETAG
1070
     1
1071
       56
1005
126087
  0
LINE
  5
126088
  8
OBJECT
 10
7908.4899824480417
 20
-1201.5000000000009
 30
0.0
 11
7930.4292924480387
 21
-1201.5000000000009
 31
0.0
1001
ACDBBLOCKREPETAG
1070
     1
1071
       57
1005
126088
  0
LINE
  5
126089
  8
OBJECT
 10
7911.4596374480443
 20
-1141.0
 30
0.0
 11
7911.4596374480443
 21
-1146.999999999998
 31
0.0
1001
ACDBBLOCKREPETAG
1070
     1
1071
       58
1005
126089
  0
LINE
  5
12608A
  8
OBJECT
 10
7919.5000000000027
 20
-1141.0
 30
0.0
 11
7911.4596374480443
 21
-1141.0
 31
0.0
1001
ACDBBLOCKREPETAG
1070
     1
1071
       59
1005
12608A
  0
LINE
  5
12608B
  8
OBJECT
 10
8074.5403625519548
 20
-1206.999999999998
 30
0.0
 11
8074.5403625519548
 21
-1201.5000000000009
 31
0.0
1001
ACDBBLOCKREPETAG
1070
     1
1071
       60
1005
12608B
  0
LINE
  5
12608C
  8
OBJECT
 10
8086.5403625519548
 20
-1206.999999999998
 30
0.0
 11
8086.5403625519548
 21
-1201.5000000000009
 31
0.0
1001
ACDBBLOCKREPETAG
1070
     1
1071
       61
1005
12608C
  0
LINE
  5
12608D
  8
OBJECT
 10
8086.5403625519548
 20
-1206.999999999998
 30
0.0
 11
8074.5403625519548
 21
-1206.999999999998
 31
0.0
1001
ACDBBLOCKREPETAG
1070
     1
1071
       62
1005
12608D
  0
LINE
  5
12608E
  8
OBJECT
 10
8086.5403625519548
 20
-1175.5000000000009
 30
0.0
 11
8086.5403625519548
 21
-1164.9999999999991
 31
0.0
1001
ACDBBLOCKREPETAG
1070
     1
1071
       63
1005
12608E
  0
LINE
  5
12608F
  8
OBJECT
 10
8069.5707075519604
 20
-1191.5
 30
0.0
 11
8069.5707075519604
 21
-1201.5000000000009
 31
0.0
1001
ACDBBLOCKREPETAG
1070
     1
1071
       64
1005
12608F
  0
LINE
  5
126090
  8
OBJECT
 10
8075.0555355519591
 20
-1191.5
 30
0.0
 11
8075.0555355519591
 21
-1201.5000000000009
 31
0.0
1001
ACDBBLOCKREPETAG
1070
     1
1071
       65
1005
126090
  0
LINE
  5
126091
  8
OBJECT
 10
8086.0251905519572
 20
-1191.5
 30
0.0
 11
8086.0251905519572
 21
-1201.5000000000009
 31
0.0
1001
ACDBBLOCKREPETAG
1070
     1
1071
       66
1005
126091
  0
LINE
  5
126092
  8
OBJECT
 10
8091.5100175519592
 20
-1191.5
 30
0.0
 11
8091.5100175519592
 21
-1201.5000000000009
 31
0.0
1001
ACDBBLOCKREPETAG
1070
     1
1071
       67
1005
126092
  0
LINE
  5
126093
  8
OBJECT
 10
8091.5100175519592
 20
-1201.5000000000009
 30
0.0
 11
8069.5707075519604
 21
-1201.5000000000009
 31
0.0
1001
ACDBBLOCKREPETAG
1070
     1
1071
       68
1005
126093
  0
LINE
  5
126094
  8
OBJECT
 10
8088.5403625519584
 20
-1141.0
 30
0.0
 11
8088.5403625519584
 21
-1146.999999999998
 31
0.0
1001
ACDBBLOCKREPETAG
1070
     1
1071
       69
1005
126094
  0
LINE
  5
126095
  8
OBJECT
 10
8080.5
 20
-1141.0
 30
0.0
 11
8088.5403625519584
 21
-1141.0
 31
0.0
1001
ACDBBLOCKREPETAG
1070
     1
1071
       70
1005
126095
  0
LINE
  5
126096
  8
OBJECT
 10
5930.0
 20
-1049.9999999999991
 30
0.0
 11
5930.0
 21
-1164.9999999999991
 31
0.0
1001
ACDBBLOCKREPETAG
1070
     1
1071
        0
1005
126096
  0
LINE
  5
126097
  8
OBJECT
 10
5930.0
 20
-1049.9999999999991
 30
0.0
 11
6070.0
 21
-1049.9999999999991
 31
0.0
1001
ACDBBLOCKREPETAG
1070
     1
1071
        1
1005
126097
  0
LINE
  5
126098
  8
OBJECT
 10
6092.5000000000009
 20
-889.99999999999955
 30
0.0
 11
5907.5
 21
-889.99999999999955
 31
0.0
1001
ACDBBLOCKREPETAG
1070
     1
1071
        2
1005
126098
  0
LINE
  5
126099
  8
OBJECT
 10
6092.5000000000009
 20
-889.99999999999955
 30
0.0
 11
6092.5000000000009
 21
-814.99999999999955
 31
0.0
1001
ACDBBLOCKREPETAG
1070
     1
1071
        3
1005
126099
  0
LINE
  5
12609A
  8
OBJECT
 10
5907.5
 20
-889.99999999999955
 30
0.0
 11
5907.5
 21
-814.99999999999955
 31
0.0
1001
ACDBBLOCKREPETAG
1070
     1
1071
        4
1005
12609A
  0
LINE
  5
12609B
  8
OBJECT
 10
5930.0
 20
-1164.9999999999991
 30
0.0
 11
6070.0
 21
-1164.9999999999991
 31
0.0
1001
ACDBBLOCKREPETAG
1070
     1
1071
        5
1005
12609B
  0
LINE
  5
12609C
  8
OBJECT
 10
6070.0
 20
-1049.9999999999991
 30
0.0
 11
6070.0
 21
-1164.9999999999991
 31
0.0
1001
ACDBBLOCKREPETAG
1070
     1
1071
        6
1005
12609C
  0
LINE
  5
12609D
  8
OBJECT
 10
5907.5
 20
-889.99999999999955
 30
0.0
 11
5930.0
 21
-1049.9999999999991
 31
0.0
1001
ACDBBLOCKREPETAG
1070
     1
1071
        7
1005
12609D
  0
LINE
  5
12609E
  8
OBJECT
 10
6070.0
 20
-1049.9999999999991
 30
0.0
 11
6092.5000000000009
 21
-889.99999999999955
 31
0.0
1001
ACDBBLOCKREPETAG
1070
     1
1071
        8
1005
12609E
  0
LINE
  5
12609F
  8
HIDDEN
 10
5937.5
 20
-1049.9999999999991
 30
0.0
 11
5937.5
 21
-1164.9999999999991
 31
0.0
1001
ACDBBLOCKREPETAG
1070
     1
1071
        9
1005
12609F
  0
LINE
  5
1260A0
  8
HIDDEN
 10
6062.5
 20
-1049.9999999999991
 30
0.0
 11
6062.5
 21
-1164.9999999999991
 31
0.0
1001
ACDBBLOCKREPETAG
1070
     1
1071
       10
1005
1260A0
  0
LINE
  5
1260A1
  8
CENTER
 10
6000.0
 20
-814.99999999999955
 30
0.0
 11
6000.0
 21
-1179.9999999999991
 31
0.0
1001
ACDBBLOCKREPETAG
1070
     1
1071
       11
1005
1260A1
  0
LINE
  5
1260A2
  8
OBJECT
 10
4092.5
 20
-889.99999999999955
 30
0.0
 11
4092.5
 21
-814.99999999999955
 31
0.0
1001
ACDBBLOCKREPETAG
1070
     1
1071
       12
1005
1260A2
  0
LINE
  5
1260A3
  8
OBJECT
 10
4093.5403615519499
 20
-1164.9999999999991
 30
0.0
 11
3906.4596374480461
 21
-1164.9999999999991
 31
0.0
1001
ACDBBLOCKREPETAG
1070
     1
1071
       13
1005
1260A3
  0
LINE
  5
1260A4
  8
OBJECT
 10
3906.4596374480502
 20
-1191.5
 30
0.0
 11
4093.5403625519511
 21
-1191.5
 31
0.0
1001
ACDBBLOCKREPETAG
1070
     1
1071
       14
1005
1260A4
  0
LINE
  5
1260A5
  8
OBJECT
 10
4093.5403625519511
 20
-1175.5000000000009
 30
0.0
 11
3906.4596374480502
 21
-1175.5000000000009
 31
0.0
1001
ACDBBLOCKREPETAG
1070
     1
1071
       15
1005
1260A5
  0
LINE
  5
1260A6
  8
OBJECT
 10
4005.999999999995
 20
-1206.999999999998
 30
0.0
 11
4005.999999999995
 21
-1201.5000000000009
 31
0.0
1001
ACDBBLOCKREPETAG
1070
     1
1071
       16
1005
1260A6
  0
LINE
  5
1260A7
  8
OBJECT
 10
3993.9999999999959
 20
-1206.999999999998
 30
0.0
 11
3993.9999999999959
 21
-1201.5000000000009
 31
0.0
1001
ACDBBLOCKREPETAG
1070
     1
1071
       17
1005
1260A7
  0
LINE
  5
1260A8
  8
OBJECT
 10
3993.9999999999959
 20
-1206.999999999998
 30
0.0
 11
4005.999999999995
 21
-1206.999999999998
 31
0.0
1001
ACDBBLOCKREPETAG
1070
     1
1071
       18
1005
1260A8
  0
LINE
  5
1260A9
  8
OBJECT
 10
3993.9999999999959
 20
-1175.5000000000009
 30
0.0
 11
3993.9999999999959
 21
-1164.9999999999991
 31
0.0
1001
ACDBBLOCKREPETAG
1070
     1
1071
       19
1005
1260A9
  0
LINE
  5
1260AA
  8
OBJECT
 10
4005.999999999995
 20
-1175.5000000000009
 30
0.0
 11
4005.999999999995
 21
-1164.9999999999991
 31
0.0
1001
ACDBBLOCKREPETAG
1070
     1
1071
       20
1005
1260AA
  0
LINE
  5
1260AB
  8
OBJECT
 10
4016.4999999999959
 20
-1144.499999999998
 30
0.0
 11
4016.4999999999959
 21
-1146.999999999998
 31
0.0
1001
ACDBBLOCKREPETAG
1070
     1
1071
       21
1005
1260AB
  0
LINE
  5
1260AC
  8
OBJECT
 10
3989.9999999999968
 20
-1141.0
 30
0.0
 11
3989.9999999999968
 21
-1146.999999999998
 31
0.0
1001
ACDBBLOCKREPETAG
1070
     1
1071
       22
1005
1260AC
  0
LINE
  5
1260AD
  8
OBJECT
 10
4008.4999999999968
 20
-1141.0
 30
0.0
 11
3989.9999999999968
 21
-1141.0
 31
0.0
1001
ACDBBLOCKREPETAG
1070
     1
1071
       23
1005
1260AD
  0
LINE
  5
1260AE
  8
OBJECT
 10
4093.5403615519499
 20
-1146.999999999998
 30
0.0
 11
3906.4596374480461
 21
-1146.999999999998
 31
0.0
1001
ACDBBLOCKREPETAG
1070
     1
1071
       24
1005
1260AE
  0
LINE
  5
1260AF
  8
OBJECT
 10
4016.4999999999959
 20
-1144.499999999998
 30
0.0
 11
4008.4999999999968
 21
-1141.0
 31
0.0
1001
ACDBBLOCKREPETAG
1070
     1
1071
       25
1005
1260AF
  0
LINE
  5
1260B0
  8
HIDDEN
 10
3930.0
 20
-1125.0
 30
0.0
 11
4070.0
 21
-1125.0
 31
0.0
1001
ACDBBLOCKREPETAG
1070
     1
1071
       26
1005
1260B0
  0
LINE
  5
1260B1
  8
CENTER
 10
4000.0
 20
-814.99999999999955
 30
0.0
 11
4000.0
 21
-1221.999999999997
 31
0.0
1001
ACDBBLOCKREPETAG
1070
     1
1071
       27
1005
1260B1
  0
LINE
  5
1260B2
  8
OBJECT
 10
3918.5
 20
-1164.9999999999991
 30
0.0
 11
3918.5
 21
-1175.5000000000009
 31
0.0
1001
ACDBBLOCKREPETAG
1070
     1
1071
       28
1005
1260B2
  0
LINE
  5
1260B3
  8
OBJECT
 10
4081.5
 20
-1164.9999999999991
 30
0.0
 11
4081.5
 21
-1175.5000000000009
 31
0.0
1001
ACDBBLOCKREPETAG
1070
     1
1071
       29
1005
1260B3
  0
LINE
  5
1260B4
  8
OBJECT
 10
3930.0
 20
-1049.9999999999991
 30
0.0
 11
3930.0
 21
-1113.9999999999991
 31
0.0
1001
ACDBBLOCKREPETAG
1070
     1
1071
       30
1005
1260B4
  0
LINE
  5
1260B5
  8
OBJECT
 10
4070.0
 20
-1049.9999999999991
 30
0.0
 11
4070.0
 21
-1113.9999999999991
 31
0.0
1001
ACDBBLOCKREPETAG
1070
     1
1071
       31
1005
1260B5
  0
LINE
  5
1260B6
  8
OBJECT
 10
3930.0
 20
-1049.9999999999991
 30
0.0
 11
4070.0
 21
-1049.9999999999991
 31
0.0
1001
ACDBBLOCKREPETAG
1070
     1
1071
       32
1005
1260B6
  0
LINE
  5
1260B7
  8
OBJECT
 10
3919.4999999999968
 20
-1113.9999999999991
 30
0.0
 11
4080.5000000000032
 21
-1113.9999999999991
 31
0.0
1001
ACDBBLOCKREPETAG
1070
     1
1071
       33
1005
1260B7
  0
LINE
  5
1260B8
  8
OBJECT
 10
3907.5
 20
-889.99999999999955
 30
0.0
 11
3907.5
 21
-814.99999999999955
 31
0.0
1001
ACDBBLOCKREPETAG
1070
     1
1071
       34
1005
1260B8
  0
LINE
  5
1260B9
  8
OBJECT
 10
4092.5
 20
-889.99999999999955
 30
0.0
 11
3907.5
 21
-889.99999999999955
 31
0.0
1001
ACDBBLOCKREPETAG
1070
     1
1071
       35
1005
1260B9
  0
LINE
  5
1260BA
  8
OBJECT
 10
3907.5
 20
-889.99999999999955
 30
0.0
 11
3930.0
 21
-1049.9999999999991
 31
0.0
1001
ACDBBLOCKREPETAG
1070
     1
1071
       36
1005
1260BA
  0
LINE
  5
1260BB
  8
OBJECT
 10
4070.0
 20
-1049.9999999999991
 30
0.0
 11
4092.5
 21
-889.99999999999955
 31
0.0
1001
ACDBBLOCKREPETAG
1070
     1
1071
       37
1005
1260BB
  0
LINE
  5
1260BC
  8
OBJECT
 10
4080.4999999999982
 20
-1113.9999999999991
 30
0.0
 11
4080.4999999999982
 21
-1146.999999999998
 31
0.0
1001
ACDBBLOCKREPETAG
1070
     1
1071
       38
1005
1260BC
  0
LINE
  5
1260BD
  8
OBJECT
 10
3919.5
 20
-1113.9999999999991
 30
0.0
 11
3919.5
 21
-1146.999999999998
 31
0.0
1001
ACDBBLOCKREPETAG
1070
     1
1071
       39
1005
1260BD
  0
LINE
  5
1260BE
  8
OBJECT
 10
4010.969654999994
 20
-1191.5
 30
0.0
 11
4010.969654999994
 21
-1201.5000000000009
 31
0.0
1001
ACDBBLOCKREPETAG
1070
     1
1071
       40
1005
1260BE
  0
LINE
  5
1260BF
  8
OBJECT
 10
4005.484826999992
 20
-1191.5
 30
0.0
 11
4005.484826999992
 21
-1201.5000000000009
 31
0.0
1001
ACDBBLOCKREPETAG
1070
     1
1071
       41
1005
1260BF
  0
LINE
  5
1260C0
  8
OBJECT
 10
3994.5151719999958
 20
-1191.5
 30
0.0
 11
3994.5151719999958
 21
-1201.5000000000009
 31
0.0
1001
ACDBBLOCKREPETAG
1070
     1
1071
       42
1005
1260C0
  0
LINE
  5
1260C1
  8
OBJECT
 10
3989.030344999996
 20
-1191.5
 30
0.0
 11
3989.030344999996
 21
-1201.5000000000009
 31
0.0
1001
ACDBBLOCKREPETAG
1070
     1
1071
       43
1005
1260C1
  0
LINE
  5
1260C2
  8
OBJECT
 10
3989.030344999996
 20
-1201.5000000000009
 30
0.0
 11
4010.969654999994
 21
-1201.5000000000009
 31
0.0
1001
ACDBBLOCKREPETAG
1070
     1
1071
       44
1005
1260C2
  0
LINE
  5
1260C3
  8
OBJECT
 10
3906.4596374480461
 20
-1146.999999999998
 30
0.0
 11
3906.4596374480461
 21
-1164.9999999999991
 31
0.0
1001
ACDBBLOCKREPETAG
1070
     1
1071
       45
1005
1260C3
  0
LINE
  5
1260C4
  8
OBJECT
 10
3906.4596374480502
 20
-1175.5000000000009
 30
0.0
 11
3906.4596374480502
 21
-1191.5
 31
0.0
1001
ACDBBLOCKREPETAG
1070
     1
1071
       46
1005
1260C4
  0
LINE
  5
1260C5
  8
OBJECT
 10
4093.5403625519539
 20
-1146.999999999998
 30
0.0
 11
4093.5403625519539
 21
-1164.9999999999991
 31
0.0
1001
ACDBBLOCKREPETAG
1070
     1
1071
       47
1005
1260C5
  0
LINE
  5
1260C6
  8
OBJECT
 10
4093.5403625519511
 20
-1175.5000000000009
 30
0.0
 11
4093.5403625519511
 21
-1191.5
 31
0.0
1001
ACDBBLOCKREPETAG
1070
     1
1071
       48
1005
1260C6
  0
LINE
  5
1260C7
  8
OBJECT
 10
3925.4596374480429
 20
-1206.999999999998
 30
0.0
 11
3925.4596374480429
 21
-1201.5000000000009
 31
0.0
1001
ACDBBLOCKREPETAG
1070
     1
1071
       49
1005
1260C7
  0
LINE
  5
1260C8
  8
OBJECT
 10
3913.459637448042
 20
-1206.999999999998
 30
0.0
 11
3913.459637448042
 21
-1201.5000000000009
 31
0.0
1001
ACDBBLOCKREPETAG
1070
     1
1071
       50
1005
1260C8
  0
LINE
  5
1260C9
  8
OBJECT
 10
3913.459637448042
 20
-1206.999999999998
 30
0.0
 11
3925.4596374480429
 21
-1206.999999999998
 31
0.0
1001
ACDBBLOCKREPETAG
1070
     1
1071
       51
1005
1260C9
  0
LINE
  5
1260CA
  8
OBJECT
 10
3913.459637448042
 20
-1175.5000000000009
 30
0.0
 11
3913.459637448042
 21
-1164.9999999999991
 31
0.0
1001
ACDBBLOCKREPETAG
1070
     1
1071
       52
1005
1260CA
  0
LINE
  5
1260CB
  8
OBJECT
 10
3930.4292924480401
 20
-1191.5
 30
0.0
 11
3930.4292924480401
 21
-1201.5000000000009
 31
0.0
1001
ACDBBLOCKREPETAG
1070
     1
1071
       53
1005
1260CB
  0
LINE
  5
1260CC
  8
OBJECT
 10
3924.9444644480391
 20
-1191.5
 30
0.0
 11
3924.9444644480391
 21
-1201.5000000000009
 31
0.0
1001
ACDBBLOCKREPETAG
1070
     1
1071
       54
1005
1260CC
  0
LINE
  5
1260CD
  8
OBJECT
 10
3913.9748094480419
 20
-1191.5
 30
0.0
 11
3913.9748094480419
 21
-1201.5000000000009
 31
0.0
1001
ACDBBLOCKREPETAG
1070
     1
1071
       55
1005
1260CD
  0
LINE
  5
1260CE
  8
OBJECT
 10
3908.4899824480422
 20
-1191.5
 30
0.0
 11
3908.4899824480422
 21
-1201.5000000000009
 31
0.0
1001
ACDBBLOCKREPETAG
1070
     1
1071
       56
1005
1260CE
  0
LINE
  5
1260CF
  8
OBJECT
 10
3908.4899824480422
 20
-1201.5000000000009
 30
0.0
 11
3930.4292924480401
 21
-1201.5000000000009
 31
0.0
1001
ACDBBLOCKREPETAG
1070
     1
1071
       57
1005
1260CF
  0
LINE
  5
1260D0
  8
OBJECT
 10
3911.4596374480429
 20
-1141.0
 30
0.0
 11
3911.4596374480429
 21
-1146.999999999998
 31
0.0
1001
ACDBBLOCKREPETAG
1070
     1
1071
       58
1005
1260D0
  0
LINE
  5
1260D1
  8
OBJECT
 10
3919.5
 20
-1141.0
 30
0.0
 11
3911.4596374480429
 21
-1141.0
 31
0.0
1001
ACDBBLOCKREPETAG
1070
     1
1071
       59
1005
1260D1
  0
LINE
  5
1260D2
  8
OBJECT
 10
4074.540362551958
 20
-1206.999999999998
 30
0.0
 11
4074.540362551958
 21
-1201.5000000000009
 31
0.0
1001
ACDBBLOCKREPETAG
1070
     1
1071
       60
1005
1260D2
  0
LINE
  5
1260D3
  8
OBJECT
 10
4086.5403625519562
 20
-1206.999999999998
 30
0.0
 11
4086.5403625519562
 21
-1201.5000000000009
 31
0.0
1001
ACDBBLOCKREPETAG
1070
     1
1071
       61
1005
1260D3
  0
LINE
  5
1260D4
  8
OBJECT
 10
4086.5403625519562
 20
-1206.999999999998
 30
0.0
 11
4074.540362551958
 21
-1206.999999999998
 31
0.0
1001
ACDBBLOCKREPETAG
1070
     1
1071
       62
1005
1260D4
  0
LINE
  5
1260D5
  8
OBJECT
 10
4086.5403625519562
 20
-1175.5000000000009
 30
0.0
 11
4086.5403625519562
 21
-1164.9999999999991
 31
0.0
1001
ACDBBLOCKREPETAG
1070
     1
1071
       63
1005
1260D5
  0
LINE
  5
1260D6
  8
OBJECT
 10
4069.570707551959
 20
-1191.5
 30
0.0
 11
4069.570707551959
 21
-1201.5000000000009
 31
0.0
1001
ACDBBLOCKREPETAG
1070
     1
1071
       64
1005
1260D6
  0
LINE
  5
1260D7
  8
OBJECT
 10
4075.05553555196
 20
-1191.5
 30
0.0
 11
4075.05553555196
 21
-1201.5000000000009
 31
0.0
1001
ACDBBLOCKREPETAG
1070
     1
1071
       65
1005
1260D7
  0
LINE
  5
1260D8
  8
OBJECT
 10
4086.0251905519581
 20
-1191.5
 30
0.0
 11
4086.0251905519581
 21
-1201.5000000000009
 31
0.0
1001
ACDBBLOCKREPETAG
1070
     1
1071
       66
1005
1260D8
  0
LINE
  5
1260D9
  8
OBJECT
 10
4091.510017551956
 20
-1191.5
 30
0.0
 11
4091.510017551956
 21
-1201.5000000000009
 31
0.0
1001
ACDBBLOCKREPETAG
1070
     1
1071
       67
1005
1260D9
  0
LINE
  5
1260DA
  8
OBJECT
 10
4091.510017551956
 20
-1201.5000000000009
 30
0.0
 11
4069.570707551959
 21
-1201.5000000000009
 31
0.0
1001
ACDBBLOCKREPETAG
1070
     1
1071
       68
1005
1260DA
  0
LINE
  5
1260DB
  8
OBJECT
 10
4088.540362551958
 20
-1141.0
 30
0.0
 11
4088.540362551958
 21
-1146.999999999998
 31
0.0
1001
ACDBBLOCKREPETAG
1070
     1
1071
       69
1005
1260DB
  0
LINE
  5
1260DC
  8
OBJECT
 10
4080.4999999999982
 20
-1141.0
 30
0.0
 11
4088.540362551958
 21
-1141.0
 31
0.0
1001
ACDBBLOCKREPETAG
1070
     1
1071
       70
1005
1260DC
  0
LINE
  5
1260DD
  8
OBJECT
 10
1930.0
 20
-1049.9999999999991
 30
0.0
 11
1930.0
 21
-1164.9999999999991
 31
0.0
1001
ACDBBLOCKREPETAG
1070
     1
1071
        0
1005
1260DD
  0
LINE
  5
1260DE
  8
OBJECT
 10
1930.0
 20
-1049.9999999999991
 30
0.0
 11
2070.0
 21
-1049.9999999999991
 31
0.0
1001
ACDBBLOCKREPETAG
1070
     1
1071
        1
1005
1260DE
  0
LINE
  5
1260DF
  8
OBJECT
 10
2092.5
 20
-889.99999999999955
 30
0.0
 11
1907.5
 21
-889.99999999999955
 31
0.0
1001
ACDBBLOCKREPETAG
1070
     1
1071
        2
1005
1260DF
  0
LINE
  5
1260E0
  8
OBJECT
 10
2092.5
 20
-889.99999999999955
 30
0.0
 11
2092.5
 21
-814.99999999999955
 31
0.0
1001
ACDBBLOCKREPETAG
1070
     1
1071
        3
1005
1260E0
  0
LINE
  5
1260E1
  8
OBJECT
 10
1907.5
 20
-889.99999999999955
 30
0.0
 11
1907.5
 21
-814.99999999999955
 31
0.0
1001
ACDBBLOCKREPETAG
1070
     1
1071
        4
1005
1260E1
  0
LINE
  5
1260E2
  8
OBJECT
 10
1930.0
 20
-1164.9999999999991
 30
0.0
 11
2070.0
 21
-1164.9999999999991
 31
0.0
1001
ACDBBLOCKREPETAG
1070
     1
1071
        5
1005
1260E2
  0
LINE
  5
1260E3
  8
OBJECT
 10
2070.0
 20
-1049.9999999999991
 30
0.0
 11
2070.0
 21
-1164.9999999999991
 31
0.0
1001
ACDBBLOCKREPETAG
1070
     1
1071
        6
1005
1260E3
  0
LINE
  5
1260E4
  8
OBJECT
 10
1907.5
 20
-889.99999999999955
 30
0.0
 11
1930.0
 21
-1049.9999999999991
 31
0.0
1001
ACDBBLOCKREPETAG
1070
     1
1071
        7
1005
1260E4
  0
LINE
  5
1260E5
  8
OBJECT
 10
2070.0
 20
-1049.9999999999991
 30
0.0
 11
2092.5
 21
-889.99999999999955
 31
0.0
1001
ACDBBLOCKREPETAG
1070
     1
1071
        8
1005
1260E5
  0
LINE
  5
1260E6
  8
HIDDEN
 10
1937.5
 20
-1049.9999999999991
 30
0.0
 11
1937.5
 21
-1164.9999999999991
 31
0.0
1001
ACDBBLOCKREPETAG
1070
     1
1071
        9
1005
1260E6
  0
LINE
  5
1260E7
  8
HIDDEN
 10
2062.5
 20
-1049.9999999999991
 30
0.0
 11
2062.5
 21
-1164.9999999999991
 31
0.0
1001
ACDBBLOCKREPETAG
1070
     1
1071
       10
1005
1260E7
  0
LINE
  5
1260E8
  8
CENTER
 10
2000.0
 20
-814.99999999999955
 30
0.0
 11
2000.0
 21
-1179.9999999999991
 31
0.0
1001
ACDBBLOCKREPETAG
1070
     1
1071
       11
1005
1260E8
  0
LINE
  5
1260E9
  8
OBJECT
 10
1897.0
 20
-528.99999999999761
 30
0.0
 11
1900.0
 21
-528.99999999999761
 31
0.0
1001
ACDBBLOCKREPETAG
1070
     1
1071
        1
1005
1260E9
  0
ARC
  5
1260EA
  8
OBJECT
 10
1897.0
 20
-531.99999999999773
 30
0.0
 40
3.0
 50
90.0
 51
180.0
1001
ACDBBLOCKREPETAG
1070
     1
1071
        2
1005
1260EA
  0
LINE
  5
1260EB
  8
OBJECT
 10
1900.0
 20
-652.99999999999761
 30
0.0
 11
1897.0
 21
-652.99999999999761
 31
0.0
1001
ACDBBLOCKREPETAG
1070
     1
1071
        3
1005
1260EB
  0
ARC
  5
1260EC
  8
OBJECT
 10
1897.0
 20
-649.99999999999761
 30
0.0
 40
3.0
 50
180.0
 51
270.0
1001
ACDBBLOCKREPETAG
1070
     1
1071
        4
1005
1260EC
  0
LINE
  5
1260ED
  8
OBJECT
 10
1894.0
 20
-649.99999999999761
 30
0.0
 11
1894.0
 21
-531.99999999999773
 31
0.0
1001
ACDBBLOCKREPETAG
1070
     1
1071
        5
1005
1260ED
  0
CIRCLE
  5
1260EE
  8
OBJECT
 10
2000.0
 20
-590.99999999999761
 30
0.0
 40
62.0
1001
ACDBBLOCKREPETAG
1070
     1
1071
        0
1005
1260EE
  0
LINE
  5
1260EF
  8
OBJECT
 10
2095.0
 20
-469.99999999999932
 30
0.0
 11
1905.0
 21
-469.99999999999932
 31
0.0
1001
ACDBBLOCKREPETAG
1070
     1
1071
        0
1005
1260EF
  0
LINE
  5
1260F0
  8
OBJECT
 10
2095.0
 20
-449.99999999999932
 30
0.0
 11
1905.0
 21
-449.99999999999932
 31
0.0
1001
ACDBBLOCKREPETAG
1070
     1
1071
        1
1005
1260F0
  0
LINE
  5
1260F1
  8
OBJECT
 10
1902.5
 20
-814.99999999999955
 30
0.0
 11
2097.5
 21
-814.99999999999955
 31
0.0
1001
ACDBBLOCKREPETAG
1070
     1
1071
        2
1005
1260F1
  0
LINE
  5
1260F2
  8
OBJECT
 10
1908.237046000002
 20
-449.99999999999932
 30
0.0
 11
1908.2370465822601
 21
-469.99999999999932
 31
0.0
1001
ACDBBLOCKREPETAG
1070
     1
1071
        3
1005
1260F2
  0
LINE
  5
1260F3
  8
OBJECT
 10
1905.0
 20
-449.99999999999932
 30
0.0
 11
1905.0
 21
-469.99999999999932
 31
0.0
1001
ACDBBLOCKREPETAG
1070
     1
1071
        4
1005
1260F3
  0
LINE
  5
1260F4
  8
OBJECT
 10
1916.024909
 20
-449.99999999999932
 30
0.0
 11
1916.024909
 21
-469.99999999999932
 31
0.0
1001
ACDBBLOCKREPETAG
1070
     1
1071
        5
1005
1260F4
  0
LINE
  5
1260F5
  8
OBJECT
 10
1967.6243270000009
 20
-449.99999999999932
 30
0.0
 11
1967.6243270000009
 21
-469.99999999999932
 31
0.0
1001
ACDBBLOCKREPETAG
1070
     1
1071
        6
1005
1260F5
  0
LINE
  5
1260F6
  8
OBJECT
 10
1975.4121899999991
 20
-449.99999999999932
 30
0.0
 11
1975.4121899999991
 21
-469.99999999999932
 31
0.0
1001
ACDBBLOCKREPETAG
1070
     1
1071
        7
1005
1260F6
  0
LINE
  5
1260F7
  8
OBJECT
 10
2024.587809000001
 20
-449.99999999999932
 30
0.0
 11
2024.587809000001
 21
-469.99999999999932
 31
0.0
1001
ACDBBLOCKREPETAG
1070
     1
1071
        8
1005
1260F7
  0
LINE
  5
1260F8
  8
OBJECT
 10
2032.3756720000019
 20
-449.99999999999932
 30
0.0
 11
2032.3756720000019
 21
-469.99999999999932
 31
0.0
1001
ACDBBLOCKREPETAG
1070
     1
1071
        9
1005
1260F8
  0
LINE
  5
1260F9
  8
OBJECT
 10
2083.9750910000012
 20
-449.99999999999932
 30
0.0
 11
2083.9750910000012
 21
-469.99999999999932
 31
0.0
1001
ACDBBLOCKREPETAG
1070
     1
1071
       10
1005
1260F9
  0
LINE
  5
1260FA
  8
OBJECT
 10
2091.762953999998
 20
-449.99999999999932
 30
0.0
 11
2091.7629534177431
 21
-469.99999999999932
 31
0.0
1001
ACDBBLOCKREPETAG
1070
     1
1071
       11
1005
1260FA
  0
LINE
  5
1260FB
  8
OBJECT
 10
2095.0
 20
-449.99999999999932
 30
0.0
 11
2095.0
 21
-469.99999999999932
 31
0.0
1001
ACDBBLOCKREPETAG
1070
     1
1071
       12
1005
1260FB
  0
LINE
  5
1260FC
  8
OBJECT
 10
2100.0
 20
-528.99999999999955
 30
0.0
 11
1900.0
 21
-528.99999999999955
 31
0.0
1001
ACDBBLOCKREPETAG
1070
     1
1071
       13
1005
1260FC
  0
LINE
  5
1260FD
  8
OBJECT
 10
2100.0
 20
-652.99999999999761
 30
0.0
 11
2092.5
 21
-652.99999999999761
 31
0.0
1001
ACDBBLOCKREPETAG
1070
     1
1071
       14
1005
1260FD
  0
LINE
  5
1260FE
  8
OBJECT
 10
1902.5
 20
-814.99999999999955
 30
0.0
 11
1902.5
 21
-802.99999999999784
 31
0.0
1001
ACDBBLOCKREPETAG
1070
     1
1071
       15
1005
1260FE
  0
LINE
  5
1260FF
  8
OBJECT
 10
2097.5
 20
-814.99999999999955
 30
0.0
 11
2097.5
 21
-802.99999999999784
 31
0.0
1001
ACDBBLOCKREPETAG
1070
     1
1071
       16
1005
1260FF
  0
LINE
  5
126100
  8
OBJECT
 10
1902.5
 20
-802.99999999999784
 30
0.0
 11
2097.5
 21
-802.99999999999784
 31
0.0
1001
ACDBBLOCKREPETAG
1070
     1
1071
       17
1005
126100
  0
LINE
  5
126101
  8
HIDDEN
 10
1930.0
 20
-524.99999999999955
 30
0.0
 11
2070.0
 21
-524.99999999999955
 31
0.0
1001
ACDBBLOCKREPETAG
1070
     1
1071
       18
1005
126101
  0
LINE
  5
126102
  8
CENTER
 10
2000.0
 20
-434.99999999999949
 30
0.0
 11
2000.0
 21
-814.99999999999955
 31
0.0
1001
ACDBBLOCKREPETAG
1070
     1
1071
       19
1005
126102
  0
LINE
  5
126103
  8
OBJECT
 10
2092.5
 20
-652.99999999999761
 30
0.0
 11
2092.5
 21
-802.99999999999784
 31
0.0
1001
ACDBBLOCKREPETAG
1070
     1
1071
       20
1005
126103
  0
LINE
  5
126104
  8
OBJECT
 10
1914.5
 20
-469.99999999999932
 30
0.0
 11
1914.5
 21
-528.99999999999955
 31
0.0
1001
ACDBBLOCKREPETAG
1070
     1
1071
       21
1005
126104
  0
LINE
  5
126105
  8
OBJECT
 10
2085.5
 20
-469.99999999999932
 30
0.0
 11
2085.5
 21
-528.99999999999955
 31
0.0
1001
ACDBBLOCKREPETAG
1070
     1
1071
       22
1005
126105
  0
POINT
  5
126106
  8
DOTS
 10
2000.0
 20
-649.99999999999955
 30
0.0
1001
ACDBBLOCKREPETAG
1070
     1
1071
       24
1005
126106
  0
LINE
  5
126107
  8
OBJECT
 10
1900.0
 20
-652.99999999999761
 30
0.0
 11
1907.5
 21
-652.99999999999761
 31
0.0
1001
ACDBBLOCKREPETAG
1070
     1
1071
       25
1005
126107
  0
LINE
  5
126108
  8
OBJECT
 10
1907.5
 20
-652.99999999999761
 30
0.0
 11
1907.5
 21
-802.99999999999784
 31
0.0
1001
ACDBBLOCKREPETAG
1070
     1
1071
       26
1005
126108
  0
ARC
  5
126109
  8
OBJECT
 10
2214.4155190291499
 20
-615.62073879202455
 30
0.0
 40
149.554492306393
 50
144.60628028468801
 51
164.2211863995189
1001
ACDBBLOCKREPETAG
1070
     1
1071
       28
1005
126109
  0
ARC
  5
12610A
  8
OBJECT
 10
2139.1422781245269
 20
-590.99999999999761
 30
0.0
 40
70.496447952551449
 50
166.84269182358281
 51
193.15730817641699
1001
ACDBBLOCKREPETAG
1070
     1
1071
       29
1005
12610A
  0
ARC
  5
12610B
  8
OBJECT
 10
2214.4155190291499
 20
-566.3792612079701
 30
0.0
 40
149.55449230639621
 50
195.7788136004809
 51
215.3937197153119
1001
ACDBBLOCKREPETAG
1070
     1
1071
       30
1005
12610B
  0
ARC
  5
12610C
  8
OBJECT
 10
1785.5844809708501
 20
-615.62073879202455
 30
0.0
 40
149.554492306393
 50
15.77881360052846
 51
35.393719715228642
1001
ACDBBLOCKREPETAG
1070
     1
1071
       31
1005
12610C
  0
ARC
  5
12610D
  8
OBJECT
 10
1860.8577218754731
 20
-590.99999999999761
 30
0.0
 40
70.496447952551449
 50
346.84269182358292
 51
13.15730817641716
1001
ACDBBLOCKREPETAG
1070
     1
1071
       32
1005
12610D
  0
ARC
  5
12610E
  8
OBJECT
 10
1785.5844809708501
 20
-566.3792612079701
 30
0.0
 40
149.55449230639621
 50
324.60628028477117
 51
344.22118639947161
1001
ACDBBLOCKREPETAG
1070
     1
1071
       33
1005
12610E
  0
LINE
  5
12610F
  8
CENTER
 10
1878.9999999999959
 20
-199.99999999999909
 30
0.0
 11
1899.9999999999959
 21
-199.99999999999909
 31
0.0
1001
ACDBBLOCKREPETAG
1070
     1
1071
        0
1005
12610F
  0
LINE
  5
126110
  8
OBJECT
 10
1896.9999999999959
 20
-261.99999999999909
 30
0.0
 11
1899.9999999999959
 21
-261.99999999999909
 31
0.0
1001
ACDBBLOCKREPETAG
1070
     1
1071
        1
1005
126110
  0
ARC
  5
126111
  8
OBJECT
 10
1896.9999999999959
 20
-258.99999999999909
 30
0.0
 40
3.0
 50
180.0
 51
270.0
1001
ACDBBLOCKREPETAG
1070
     1
1071
        2
1005
126111
  0
LINE
  5
126112
  8
OBJECT
 10
1899.9999999999959
 20
-137.99999999999909
 30
0.0
 11
1896.9999999999959
 21
-137.99999999999909
 31
0.0
1001
ACDBBLOCKREPETAG
1070
     1
1071
        3
1005
126112
  0
ARC
  5
126113
  8
OBJECT
 10
1896.9999999999959
 20
-140.99999999999909
 30
0.0
 40
3.0
 50
90.0
 51
180.0
1001
ACDBBLOCKREPETAG
1070
     1
1071
        4
1005
126113
  0
LINE
  5
126114
  8
OBJECT
 10
1893.9999999999959
 20
-140.99999999999909
 30
0.0
 11
1893.9999999999959
 21
-258.99999999999909
 31
0.0
1001
ACDBBLOCKREPETAG
1070
     1
1071
        5
1005
126114
  0
LINE
  5
126115
  8
CENTER
 10
2000.000000000003
 20
-320.99999999999892
 30
0.0
 11
2000.000000000003
 21
-299.99999999999892
 31
0.0
1001
ACDBBLOCKREPETAG
1070
     1
1071
        0
1005
126115
  0
LINE
  5
126116
  8
OBJECT
 10
2062.0000000000041
 20
-303.0
 30
0.0
 11
2062.0000000000041
 21
-299.99999999999892
 31
0.0
1001
ACDBBLOCKREPETAG
1070
     1
1071
        1
1005
126116
  0
ARC
  5
126117
  8
OBJECT
 10
2059.0000000000041
 20
-303.0
 30
0.0
 40
3.0
 50
270.0
 51
0.0
1001
ACDBBLOCKREPETAG
1070
     1
1071
        2
1005
126117
  0
LINE
  5
126118
  8
OBJECT
 10
1938.0000000000041
 20
-299.99999999999892
 30
0.0
 11
1938.0000000000041
 21
-302.99999999999818
 31
0.0
1001
ACDBBLOCKREPETAG
1070
     1
1071
        3
1005
126118
  0
ARC
  5
126119
  8
OBJECT
 10
1941.000000000003
 20
-302.99999999999818
 30
0.0
 40
3.0
 50
180.0
 51
270.0
1001
ACDBBLOCKREPETAG
1070
     1
1071
        4
1005
126119
  0
LINE
  5
12611A
  8
OBJECT
 10
1941.000000000003
 20
-305.99999999999818
 30
0.0
 11
2059.0000000000041
 21
-306.0
 31
0.0
1001
ACDBBLOCKREPETAG
1070
     1
1071
        5
1005
12611A
  0
ARC
  5
12611B
  8
OBJECT
 10
1973.8931207053249
 20
-173.82438331578209
 30
0.0
 40
90.0
 50
274.21795726566182
 51
281.60300086770189
1001
ACDBBLOCKREPETAG
1070
     1
1071
        0
1005
12611B
  0
LINE
  5
12611C
  8
OBJECT
 10
1991.9947509999911
 20
-261.98520799999727
 30
0.0
 11
1996.6424319999919
 21
-248.3387539999994
 31
0.0
1001
ACDBBLOCKREPETAG
1070
     1
1071
       28
1005
12611C
  0
LINE
  5
12611D
  8
OBJECT
 10
1955.28879609768
 20
-207.0733020425842
 30
0.0
 11
1935.60541864211
 21
-216.60084009147889
 31
0.0
1001
ACDBBLOCKREPETAG
1070
     1
1071
       29
1005
12611D
  0
LINE
  5
12611E
  8
OBJECT
 10
1937.335063923862
 20
-222.25658973369261
 30
0.0
 11
1961.7560738851171
 21
-210.43584915155679
 31
0.0
1001
ACDBBLOCKREPETAG
1070
     1
1071
       30
1005
12611E
  0
LINE
  5
12611F
  8
OBJECT
 10
1996.6424319999919
 20
-248.3387539999994
 30
0.0
 11
1970.3289245926419
 21
-210.9660806555467
 31
0.0
1001
ACDBBLOCKREPETAG
1070
     1
1071
       31
1005
12611F
  0
ARC
  5
126120
  8
OBJECT
 10
1960.51700480005
 20
-217.87449798398211
 30
0.0
 40
12.0
 50
35.148769561169452
 51
115.8288295732507
1001
ACDBBLOCKREPETAG
1070
     1
1071
      259
1005
126120
  0
ARC
  5
126121
  8
OBJECT
 10
1965.241546317978
 20
-217.63664646295089
 30
0.0
 40
8.0
 50
35.148769561169452
 51
115.8288292916689
1001
ACDBBLOCKREPETAG
1070
     1
1071
      260
1005
126121
  0
ARC
  5
126122
  8
OBJECT
 10
2000.0
 20
-199.99999999999909
 30
0.0
 40
90.0
 50
201.08359599996669
 51
248.9164040000301
1001
ACDBBLOCKREPETAG
1070
     1
1071
      268
1005
126122
  0
ARC
  5
126123
  8
OBJECT
 10
2000.0
 20
-199.99999999999909
 30
0.0
 40
90.0
 50
111.0835959999699
 51
158.9164034710258
1001
ACDBBLOCKREPETAG
1070
     1
1071
      269
1005
126123
  0
LINE
  5
126124
  8
OBJECT
 10
1916.024909444865
 20
-167.62432755513231
 30
0.0
 11
1908.2370465822601
 21
-175.4121904177382
 31
0.0
1001
ACDBBLOCKREPETAG
1070
     1
1071
      270
1005
126124
  0
LINE
  5
126125
  8
OBJECT
 10
1916.024909
 20
-232.37567199999921
 30
0.0
 11
1908.2370469998129
 21
-224.58781114059909
 31
0.0
1001
ACDBBLOCKREPETAG
1070
     1
1071
      271
1005
126125
  0
ARC
  5
126126
  8
OBJECT
 10
2000.0
 20
-199.99999999999909
 30
0.0
 40
95.0
 50
164.9999998142064
 51
195.00000115869909
1001
ACDBBLOCKREPETAG
1070
     1
1071
      272
1005
126126
  0
ARC
  5
126127
  8
OBJECT
 10
2000.0
 20
-199.99999999999909
 30
0.0
 40
92.5
 50
287.80189678393282
 51
342.19810359942011
1001
ACDBBLOCKREPETAG
1070
     1
1071
        1
1005
126127
  0
ARC
  5
126128
  8
OBJECT
 10
2000.0
 20
-199.99999999999909
 30
0.0
 40
90.0
 50
291.08359599996987
 51
338.9164040000332
1001
ACDBBLOCKREPETAG
1070
     1
1071
        3
1005
126128
  0
CIRCLE
  5
126129
  8
OBJECT
 10
2000.0
 20
-199.99999999999909
 30
0.0
 40
80.0
1001
ACDBBLOCKREPETAG
1070
     1
1071
        4
1005
126129
  0
ARC
  5
12612A
  8
OBJECT
 10
2000.0
 20
-199.99999999999909
 30
0.0
 40
90.0
 50
21.083596528974049
 51
68.916404000030013
1001
ACDBBLOCKREPETAG
1070
     1
1071
        5
1005
12612A
  0
CIRCLE
  5
12612B
  8
OBJECT
 10
2000.0
 20
-199.99999999999909
 30
0.0
 40
66.5
1001
ACDBBLOCKREPETAG
1070
     1
1071
        7
1005
12612B
  0
LINE
  5
12612C
  8
OBJECT
 10
2083.9750905551341
 20
-167.62432755513231
 30
0.0
 11
2091.762953417739
 21
-175.4121904177382
 31
0.0
1001
ACDBBLOCKREPETAG
1070
     1
1071
        8
1005
12612C
  0
LINE
  5
12612D
  8
OBJECT
 10
2083.9750910000012
 20
-232.37567199999921
 30
0.0
 11
2091.7629530001868
 21
-224.58781114059909
 31
0.0
1001
ACDBBLOCKREPETAG
1070
     1
1071
        9
1005
12612D
  0
ARC
  5
12612E
  8
OBJECT
 10
2000.0
 20
-199.99999999999909
 30
0.0
 40
95.0
 50
344.99999884130068
 51
15.000000185793599
1001
ACDBBLOCKREPETAG
1070
     1
1071
       10
1005
12612E
  0
LINE
  5
12612F
  8
OBJECT
 10
2032.375672999998
 20
-283.9750909999994
 30
0.0
 11
2024.587810948284
 21
-291.76295305171419
 31
0.0
1001
ACDBBLOCKREPETAG
1070
     1
1071
       11
1005
12612F
  0
LINE
  5
126130
  8
OBJECT
 10
1967.6243279999981
 20
-283.9750909999994
 30
0.0
 11
1975.41219041774
 21
-291.76295341774039
 31
0.0
1001
ACDBBLOCKREPETAG
1070
     1
1071
       12
1005
126130
  0
ARC
  5
126131
  8
OBJECT
 10
2000.0
 20
-199.99999999999909
 30
0.0
 40
95.0
 50
254.9999998142205
 51
285.00000103859719
1001
ACDBBLOCKREPETAG
1070
     1
1071
       13
1005
126131
  0
LINE
  5
126132
  8
OBJECT
 10
2032.375672999998
 20
-116.0249099999992
 30
0.0
 11
2024.5878095822591
 21
-108.2370465822578
 31
0.0
1001
ACDBBLOCKREPETAG
1070
     1
1071
       14
1005
126132
  0
ARC
  5
126133
  8
OBJECT
 10
2000.0
 20
-199.99999999999909
 30
0.0
 40
95.0
 50
74.999999814220544
 51
104.9999993327599
1001
ACDBBLOCKREPETAG
1070
     1
1071
       15
1005
126133
  0
LINE
  5
126134
  8
OBJECT
 10
1967.6243279999981
 20
-116.0249099999992
 30
0.0
 11
1975.412191783766
 21
-108.2370462162316
 31
0.0
1001
ACDBBLOCKREPETAG
1070
     1
1071
       16
1005
126134
  0
LINE
  5
126135
  8
OBJECT
 10
2055.1784370000032
 20
-162.884098999998
 30
0.0
 11
2032.534570109274
 21
-178.11554723457169
 31
0.0
1001
ACDBBLOCKREPETAG
1070
     1
1071
       17
1005
126135
  0
LINE
  5
126136
  8
OBJECT
 10
1944.804121000001
 20
-162.88106899999821
 30
0.0
 11
2032.534570109274
 21
-178.11554723457169
 31
0.0
1001
ACDBBLOCKREPETAG
1070
     1
1071
       18
1005
126136
  0
ARC
  5
126137
  8
OBJECT
 10
2000.0
 20
-199.99999999999909
 30
0.0
 40
92.5
 50
197.80189544246551
 51
252.19810417429329
1001
ACDBBLOCKREPETAG
1070
     1
1071
       22
1005
126137
  0
ARC
  5
126138
  8
OBJECT
 10
2000.0
 20
-199.99999999999909
 30
0.0
 40
92.5
 50
107.80189486746769
 51
162.1981051326415
1001
ACDBBLOCKREPETAG
1070
     1
1071
       23
1005
126138
  0
ARC
  5
126139
  8
OBJECT
 10
2000.0
 20
-199.99999999999909
 30
0.0
 40
92.5
 50
17.80189582568811
 51
72.198104174293292
1001
ACDBBLOCKREPETAG
1070
     1
1071
       24
1005
126139
  0
ARC
  5
12613A
  8
OBJECT
 10
2000.0
 20
-199.99999999999909
 30
0.0
 40
62.5
 50
144.42390307809791
 51
193.7174643727671
1001
ACDBBLOCKREPETAG
1070
     1
1071
       26
1005
12613A
  0
ARC
  5
12613B
  8
OBJECT
 10
2000.0
 20
-199.99999999999909
 30
0.0
 40
62.5
 50
262.64111297834887
 51
33.92683896333525
1001
ACDBBLOCKREPETAG
1070
     1
1071
       27
1005
12613B
  0
LINE
  5
12613C
  8
OBJECT
 10
2068.6458301719758
 20
-137.99999999999909
 30
0.0
 11
2100.0
 21
-137.99999999999909
 31
0.0
1001
ACDBBLOCKREPETAG
1070
     1
1071
       33
1005
12613C
  0
LINE
  5
12613D
  8
OBJECT
 10
2068.6458301719758
 20
-261.99999999999909
 30
0.0
 11
2100.0000000000041
 21
-261.99999999999909
 31
0.0
1001
ACDBBLOCKREPETAG
1070
     1
1071
       34
1005
12613D
  0
LINE
  5
12613E
  8
OBJECT
 10
2062.0
 20
-268.64583017197862
 30
0.0
 11
2062.0000000000041
 21
-299.99999999999892
 31
0.0
1001
ACDBBLOCKREPETAG
1070
     1
1071
       35
1005
12613E
  0
LINE
  5
12613F
  8
OBJECT
 10
1937.9999999999959
 20
-268.64583017197492
 30
0.0
 11
1938.0
 21
-299.99999999999892
 31
0.0
1001
ACDBBLOCKREPETAG
1070
     1
1071
       36
1005
12613F
  0
LINE
  5
126140
  8
OBJECT
 10
1931.3541698280239
 20
-261.99999999999909
 30
0.0
 11
1899.9999999999959
 21
-261.99999999999909
 31
0.0
1001
ACDBBLOCKREPETAG
1070
     1
1071
       37
1005
126140
  0
LINE
  5
126141
  8
OBJECT
 10
1931.3541698280201
 20
-137.99999999999909
 30
0.0
 11
1899.9999999999959
 21
-137.99999999999909
 31
0.0
1001
ACDBBLOCKREPETAG
1070
     1
1071
       38
1005
126141
  0
ARC
  5
126142
  8
OBJECT
 10
2000.0
 20
-199.99999999999909
 30
0.0
 40
97.5
 50
39.486577433836892
 51
140.51342256616309
1001
ACDBBLOCKREPETAG
1070
     1
1071
       39
1005
126142
  0
ARC
  5
126143
  8
OBJECT
 10
2000.0
 20
-199.99999999999909
 30
0.0
 40
97.5
 50
219.48657743383691
 51
230.5134225661574
1001
ACDBBLOCKREPETAG
1070
     1
1071
       40
1005
126143
  0
ARC
  5
126144
  8
OBJECT
 10
2000.0
 20
-199.99999999999909
 30
0.0
 40
97.5
 50
309.48657743384149
 51
320.51342256616311
1001
ACDBBLOCKREPETAG
1070
     1
1071
       41
1005
126144
  0
LINE
  5
126145
  8
CENTER
 10
1900.0
 20
-199.99999999999909
 30
0.0
 11
2100.0
 21
-199.99999999999909
 31
0.0
1001
ACDBBLOCKREPETAG
1070
     1
1071
       42
1005
126145
  0
LINE
  5
126146
  8
CENTER
 10
2000.0
 20
-86.499999999999091
 30
0.0
 11
2000.0
 21
-299.99999999999892
 31
0.0
1001
ACDBBLOCKREPETAG
1070
     1
1071
       43
1005
126146
  0
POINT
  5
126147
  8
DOTS
 10
2000.0
 20
-199.99999999999909
 30
0.0
1001
ACDBBLOCKREPETAG
1070
     1
1071
      281
1005
126147
  0
LINE
  5
126148
  8
OBJECT
 10
2134.0
 20
-482.99999999999761
 30
0.0
 11
2134.0
 21
-480.99999999999773
 31
0.0
1001
ACDBBLOCKREPETAG
1070
     1
1071
      157
1005
126148
  0
ARC
  5
126149
  8
OBJECT
 10
2175.1865574982548
 20
-500.99999999999773
 30
0.0
 40
59.0
 50
229.20276883323919
 51
270.0
1001
ACDBBLOCKREPETAG
1070
     1
1071
      158
1005
126149
  0
LINE
  5
12614A
  8
OBJECT
 10
2244.0
 20
-489.49999999999773
 30
0.0
 11
2109.0
 21
-489.49999999999773
 31
0.0
1001
ACDBBLOCKREPETAG
1070
     1
1071
      159
1005
12614A
  0
LINE
  5
12614B
  8
OBJECT
 10
2109.0
 20
-502.49999999999773
 30
0.0
 11
2244.0
 21
-502.49999999999773
 31
0.0
1001
ACDBBLOCKREPETAG
1070
     1
1071
      160
1005
12614B
  0
LINE
  5
12614C
  8
OBJECT
 10
2109.0
 20
-489.49999999999773
 30
0.0
 11
2109.0
 21
-502.49999999999773
 31
0.0
1001
ACDBBLOCKREPETAG
1070
     1
1071
      161
1005
12614C
  0
LINE
  5
12614D
  8
OBJECT
 10
2116.0
 20
-511.49999999999773
 30
0.0
 11
2116.0
 21
-502.49999999999773
 31
0.0
1001
ACDBBLOCKREPETAG
1070
     1
1071
      162
1005
12614D
  0
LINE
  5
12614E
  8
OBJECT
 10
2134.0
 20
-514.99999999999773
 30
0.0
 11
2134.0
 21
-502.49999999999773
 31
0.0
1001
ACDBBLOCKREPETAG
1070
     1
1071
      163
1005
12614E
  0
LINE
  5
12614F
  8
OBJECT
 10
2224.0
 20
-511.49999999999773
 30
0.0
 11
2224.0
 21
-502.49999999999773
 31
0.0
1001
ACDBBLOCKREPETAG
1070
     1
1071
      164
1005
12614F
  0
LINE
  5
126150
  8
OBJECT
 10
2244.0
 20
-489.49999999999773
 30
0.0
 11
2244.0
 21
-502.49999999999773
 31
0.0
1001
ACDBBLOCKREPETAG
1070
     1
1071
      165
1005
126150
  0
LINE
  5
126151
  8
OBJECT
 10
2142.0
 20
-514.99999999999773
 30
0.0
 11
2142.0
 21
-502.49999999999773
 31
0.0
1001
ACDBBLOCKREPETAG
1070
     1
1071
      166
1005
126151
  0
LINE
  5
126152
  8
OBJECT
 10
2134.0
 20
-511.49999999999773
 30
0.0
 11
2115.0
 21
-511.49999999999773
 31
0.0
1001
ACDBBLOCKREPETAG
1070
     1
1071
      167
1005
126152
  0
LINE
  5
126153
  8
OBJECT
 10
2115.0
 20
-514.99999999999773
 30
0.0
 11
2115.0
 21
-511.49999999999773
 31
0.0
1001
ACDBBLOCKREPETAG
1070
     1
1071
      168
1005
126153
  0
LINE
  5
126154
  8
OBJECT
 10
2142.0
 20
-511.49999999999773
 30
0.0
 11
2225.0
 21
-511.49999999999773
 31
0.0
1001
ACDBBLOCKREPETAG
1070
     1
1071
      169
1005
126154
  0
LINE
  5
126155
  8
OBJECT
 10
2225.0
 20
-511.49999999999773
 30
0.0
 11
2225.0
 21
-514.99999999999773
 31
0.0
1001
ACDBBLOCKREPETAG
1070
     1
1071
      170
1005
126155
  0
LINE
  5
126156
  8
OBJECT
 10
2130.494446500536
 20
-489.49999999999773
 30
0.0
 11
2130.494446500536
 21
-482.99999999999761
 31
0.0
1001
ACDBBLOCKREPETAG
1070
     1
1071
      171
1005
126156
  0
LINE
  5
126157
  8
OBJECT
 10
2129.0
 20
-527.99999999999773
 30
0.0
 11
2129.0
 21
-532.99999999999761
 31
0.0
1001
ACDBBLOCKREPETAG
1070
     1
1071
      172
1005
126157
  0
LINE
  5
126158
  8
OBJECT
 10
2129.0
 20
-532.99999999999761
 30
0.0
 11
2147.0
 21
-532.99999999999761
 31
0.0
1001
ACDBBLOCKREPETAG
1070
     1
1071
      173
1005
126158
  0
LINE
  5
126159
  8
OBJECT
 10
2147.0
 20
-527.99999999999773
 30
0.0
 11
2147.0
 21
-532.99999999999761
 31
0.0
1001
ACDBBLOCKREPETAG
1070
     1
1071
      174
1005
126159
  0
LINE
  5
12615A
  8
OBJECT
 10
2109.0000000000032
 20
-514.99999999999773
 30
0.0
 11
2244.0
 21
-514.99999999999773
 31
0.0
1001
ACDBBLOCKREPETAG
1070
     1
1071
      175
1005
12615A
  0
LINE
  5
12615B
  8
OBJECT
 10
2244.0
 20
-514.99999999999773
 30
0.0
 11
2244.0
 21
-527.99999999999773
 31
0.0
1001
ACDBBLOCKREPETAG
1070
     1
1071
      176
1005
12615B
  0
LINE
  5
12615C
  8
OBJECT
 10
2136.636900244765
 20
-545.66457125774514
 30
0.0
 11
2116.1702980000009
 21
-527.99999999999773
 31
0.0
1001
ACDBBLOCKREPETAG
1070
     1
1071
      177
1005
12615C
  0
LINE
  5
12615D
  8
OBJECT
 10
2221.0000000000041
 20
-535.65708264965485
 30
0.0
 11
2221.0000000000041
 21
-559.99999999999773
 31
0.0
1001
ACDBBLOCKREPETAG
1070
     1
1071
      178
1005
12615D
  0
LINE
  5
12615E
  8
OBJECT
 10
2175.1865574982548
 20
-559.99999999999773
 30
0.0
 11
2221.0000000000041
 21
-559.99999999999773
 31
0.0
1001
ACDBBLOCKREPETAG
1070
     1
1071
      179
1005
12615E
  0
ARC
  5
12615F
  8
OBJECT
 10
2130.5
 20
-561.49999999999773
 30
0.0
 40
84.0
 50
277.05348487097029
 51
1.023193303671255
1001
ACDBBLOCKREPETAG
1070
     1
1071
      180
1005
12615F
  0
LINE
  5
126160
  8
OBJECT
 10
2106.0
 20
-649.17200317020831
 30
0.0
 11
2140.8148488128832
 21
-644.86428428270165
 31
0.0
1001
ACDBBLOCKREPETAG
1070
     1
1071
      181
1005
126160
  0
LINE
  5
126161
  8
OBJECT
 10
2106.0000000000041
 20
-649.99999999999852
 30
0.0
 11
2106.0000000000041
 21
-528.99999999999761
 31
0.0
1001
ACDBBLOCKREPETAG
1070
     1
1071
      182
1005
126161
  0
ARC
  5
126162
  8
OBJECT
 10
2103.0000000000041
 20
-649.99999999999852
 30
0.0
 40
3.0
 50
270.0
 51
0.0
1001
ACDBBLOCKREPETAG
1070
     1
1071
      183
1005
126162
  0
LINE
  5
126163
  8
OBJECT
 10
2116.1702980000009
 20
-527.99999999999773
 30
0.0
 11
2244.0
 21
-527.99999999999773
 31
0.0
1001
ACDBBLOCKREPETAG
1070
     1
1071
      184
1005
126163
  0
LINE
  5
126164
  8
OBJECT
 10
2125.0539138517229
 20
-535.65708264965485
 30
0.0
 11
2221.0000000000041
 21
-535.65708264965485
 31
0.0
1001
ACDBBLOCKREPETAG
1070
     1
1071
      185
1005
126164
  0
LINE
  5
126165
  8
OBJECT
 10
2225.0
 20
-530.89006764214673
 30
0.0
 11
2221.0000000000041
 21
-535.65708264965485
 31
0.0
1001
ACDBBLOCKREPETAG
1070
     1
1071
      186
1005
126165
  0
LINE
  5
126166
  8
OBJECT
 10
2109.0000000000032
 20
-514.99999999999773
 30
0.0
 11
2109.0000000000068
 21
-528.99999999999761
 31
0.0
1001
ACDBBLOCKREPETAG
1070
     1
1071
      187
1005
126166
  0
LINE
  5
126167
  8
HIDDEN
 10
2125.5
 20
-554.99999999999773
 30
0.0
 11
2214.5
 21
-554.99999999999773
 31
0.0
1001
ACDBBLOCKREPETAG
1070
     1
1071
      188
1005
126167
  0
LINE
  5
126168
  8
OBJECT
 10
2134.0
 20
-480.99999999999773
 30
0.0
 11
2142.0
 21
-480.99999999999773
 31
0.0
1001
ACDBBLOCKREPETAG
1070
     1
1071
      189
1005
126168
  0
LINE
  5
126169
  8
OBJECT
 10
2142.0
 20
-482.99999999999761
 30
0.0
 11
2142.0
 21
-480.99999999999773
 31
0.0
1001
ACDBBLOCKREPETAG
1070
     1
1071
      190
1005
126169
  0
LINE
  5
12616A
  8
OBJECT
 10
2130.494446500536
 20
-482.99999999999761
 30
0.0
 11
2145.505553499464
 21
-482.99999999999761
 31
0.0
1001
ACDBBLOCKREPETAG
1070
     1
1071
      191
1005
12616A
  0
LINE
  5
12616B
  8
CENTER
 10
2170.0
 20
-574.77158855533025
 30
0.0
 11
2170.0
 21
-474.49999999999773
 31
0.0
1001
ACDBBLOCKREPETAG
1070
     1
1071
      193
1005
12616B
  0
LINE
  5
12616C
  8
OBJECT
 10
2100.0
 20
-652.99999999999761
 30
0.0
 11
2103.0000000000041
 21
-652.99999999999852
 31
0.0
1001
ACDBBLOCKREPETAG
1070
     1
1071
      194
1005
12616C
  0
LINE
  5
12616D
  8
OBJECT
 10
2100.0
 20
-528.99999999999761
 30
0.0
 11
2109.0000000000068
 21
-528.99999999999761
 31
0.0
1001
ACDBBLOCKREPETAG
1070
     1
1071
      195
1005
12616D
  0
LINE
  5
12616E
  8
OBJECT
 10
2134.247196978396
 20
-489.49998110540878
 30
0.0
 11
2134.247196978396
 21
-482.99998110540878
 31
0.0
1001
ACDBBLOCKREPETAG
1070
     1
1071
      196
1005
12616E
  0
LINE
  5
12616F
  8
OBJECT
 10
2145.505553499464
 20
-489.49999999999773
 30
0.0
 11
2145.505553499464
 21
-482.99999999999761
 31
0.0
1001
ACDBBLOCKREPETAG
1070
     1
1071
      197
1005
12616F
  0
LINE
  5
126170
  8
OBJECT
 10
2141.7528030216049
 20
-489.49998110540878
 30
0.0
 11
2141.7528030216049
 21
-482.99998110540878
 31
0.0
1001
ACDBBLOCKREPETAG
1070
     1
1071
      198
1005
126170
  0
LINE
  5
126171
  8
OBJECT
 10
2230.0
 20
-482.99999999999761
 30
0.0
 11
2230.0
 21
-480.99999999999773
 31
0.0
1001
ACDBBLOCKREPETAG
1070
     1
1071
      199
1005
126171
  0
LINE
  5
126172
  8
OBJECT
 10
2230.0
 20
-514.99999999999773
 30
0.0
 11
2230.0
 21
-502.49999999999773
 31
0.0
1001
ACDBBLOCKREPETAG
1070
     1
1071
      200
1005
126172
  0
LINE
  5
126173
  8
OBJECT
 10
2238.0
 20
-514.99999999999773
 30
0.0
 11
2238.0
 21
-502.49999999999773
 31
0.0
1001
ACDBBLOCKREPETAG
1070
     1
1071
      201
1005
126173
  0
LINE
  5
126174
  8
OBJECT
 10
2226.494446500536
 20
-489.49999999999773
 30
0.0
 11
2226.494446500536
 21
-482.99999999999761
 31
0.0
1001
ACDBBLOCKREPETAG
1070
     1
1071
      202
1005
126174
  0
LINE
  5
126175
  8
OBJECT
 10
2225.0
 20
-527.99999999999773
 30
0.0
 11
2225.0
 21
-532.99999999999761
 31
0.0
1001
ACDBBLOCKREPETAG
1070
     1
1071
      203
1005
126175
  0
LINE
  5
126176
  8
OBJECT
 10
2225.0
 20
-532.99999999999761
 30
0.0
 11
2243.0
 21
-532.99999999999761
 31
0.0
1001
ACDBBLOCKREPETAG
1070
     1
1071
      204
1005
126176
  0
LINE
  5
126177
  8
OBJECT
 10
2243.0
 20
-527.99999999999773
 30
0.0
 11
2243.0
 21
-532.99999999999761
 31
0.0
1001
ACDBBLOCKREPETAG
1070
     1
1071
      205
1005
126177
  0
LINE
  5
126178
  8
OBJECT
 10
2230.0
 20
-480.99999999999773
 30
0.0
 11
2238.0
 21
-480.99999999999773
 31
0.0
1001
ACDBBLOCKREPETAG
1070
     1
1071
      206
1005
126178
  0
LINE
  5
126179
  8
OBJECT
 10
2238.0
 20
-482.99999999999761
 30
0.0
 11
2238.0
 21
-480.99999999999773
 31
0.0
1001
ACDBBLOCKREPETAG
1070
     1
1071
      207
1005
126179
  0
LINE
  5
12617A
  8
OBJECT
 10
2226.494446500536
 20
-482.99999999999761
 30
0.0
 11
2241.5055534994649
 21
-482.99999999999761
 31
0.0
1001
ACDBBLOCKREPETAG
1070
     1
1071
      208
1005
12617A
  0
LINE
  5
12617B
  8
OBJECT
 10
2230.247196978396
 20
-489.49998110540878
 30
0.0
 11
2230.247196978396
 21
-482.99998110540878
 31
0.0
1001
ACDBBLOCKREPETAG
1070
     1
1071
      209
1005
12617B
  0
LINE
  5
12617C
  8
OBJECT
 10
2241.5055534994649
 20
-489.49999999999773
 30
0.0
 11
2241.5055534994649
 21
-482.99999999999761
 31
0.0
1001
ACDBBLOCKREPETAG
1070
     1
1071
      210
1005
12617C
  0
LINE
  5
12617D
  8
OBJECT
 10
2237.7528030216058
 20
-489.49998110540878
 30
0.0
 11
2237.7528030216058
 21
-482.99998110540878
 31
0.0
1001
ACDBBLOCKREPETAG
1070
     1
1071
      211
1005
12617D
  0
LINE
  5
12617E
  8
CENTER
 10
2100.0
 20
-199.99999999999909
 30
0.0
 11
2259.0
 21
-199.99999999999909
 31
0.0
1001
ACDBBLOCKREPETAG
1070
     1
1071
      155
1005
12617E
  0
LINE
  5
12617F
  8
OBJECT
 10
2100.0
 20
-261.99999999999909
 30
0.0
 11
2103.0
 21
-261.99999999999909
 31
0.0
1001
ACDBBLOCKREPETAG
1070
     1
1071
      156
1005
12617F
  0
ARC
  5
126180
  8
OBJECT
 10
2103.0
 20
-258.99999999999909
 30
0.0
 40
3.0
 50
270.0
 51
0.0
1001
ACDBBLOCKREPETAG
1070
     1
1071
      157
1005
126180
  0
LINE
  5
126181
  8
OBJECT
 10
2100.0
 20
-138.0000000000027
 30
0.0
 11
2103.0
 21
-138.0000000000027
 31
0.0
1001
ACDBBLOCKREPETAG
1070
     1
1071
      158
1005
126181
  0
LINE
  5
126182
  8
OBJECT
 10
2106.0
 20
-140.99999999999909
 30
0.0
 11
2128.6547275935341
 21
-140.9999999999954
 31
0.0
1001
ACDBBLOCKREPETAG
1070
     1
1071
      159
1005
126182
  0
LINE
  5
126183
  8
OBJECT
 10
2106.0
 20
-259.00000000000267
 30
0.0
 11
2128.6547275935341
 21
-258.99999999999909
 31
0.0
1001
ACDBBLOCKREPETAG
1070
     1
1071
      160
1005
126183
  0
LINE
  5
126184
  8
CENTER
 10
2170.0
 20
-123.5195984073716
 30
0.0
 11
2170.0
 21
-276.48040159262649
 31
0.0
1001
ACDBBLOCKREPETAG
1070
     1
1071
      161
1005
126184
  0
LINE
  5
126185
  8
OBJECT
 10
2106.0
 20
-141.0000000000027
 30
0.0
 11
2106.0
 21
-258.99999999999909
 31
0.0
1001
ACDBBLOCKREPETAG
1070
     1
1071
      162
1005
126185
  0
ARC
  5
126186
  8
OBJECT
 10
2103.0
 20
-141.0000000000027
 30
0.0
 40
3.0
 50
0.0
 51
90.0
1001
ACDBBLOCKREPETAG
1070
     1
1071
      163
1005
126186
  0
ARC
  5
126187
  8
OBJECT
 10
2170.0
 20
-199.99999999999909
 30
0.0
 40
61.0
 50
37.167285461274467
 51
82.832714538705744
1001
ACDBBLOCKREPETAG
1070
     1
1071
      165
1005
126187
  0
ARC
  5
126188
  8
OBJECT
 10
2170.0
 20
-199.99999999999909
 30
0.0
 40
61.0
 50
157.16728546126831
 51
202.83271453873161
1001
ACDBBLOCKREPETAG
1070
     1
1071
      166
1005
126188
  0
ARC
  5
126189
  8
OBJECT
 10
2170.0
 20
-199.99999999999909
 30
0.0
 40
61.0
 50
277.16728546129423
 51
322.83271453872419
1001
ACDBBLOCKREPETAG
1070
     1
1071
      167
1005
126189
  0
CIRCLE
  5
12618A
  8
SLIM
 10
2234.0
 20
-199.99999999999909
 30
0.0
 40
4.0
1001
ACDBBLOCKREPETAG
1070
     1
1071
      168
1005
12618A
  0
ARC
  5
12618B
  8
OBJECT
 10
2234.0
 20
-199.99999999999909
 30
0.0
 40
10.0
 50
322.83271453872419
 51
37.167285461274467
1001
ACDBBLOCKREPETAG
1070
     1
1071
      169
1005
12618B
  0
LINE
  5
12618C
  8
OBJECT
 10
2218.6093749999968
 20
-163.14720279124501
 30
0.0
 11
2241.96875
 21
-193.9585578346296
 31
0.0
1001
ACDBBLOCKREPETAG
1070
     1
1071
      170
1005
12618C
  0
LINE
  5
12618D
  8
OBJECT
 10
2218.6093749999968
 20
-236.8527972087532
 30
0.0
 11
2241.96875
 21
-206.04144216536861
 31
0.0
1001
ACDBBLOCKREPETAG
1070
     1
1071
      171
1005
12618D
  0
CIRCLE
  5
12618E
  8
SLIM
 10
2138.0
 20
-144.5743741577962
 30
0.0
 40
3.9999999999999991
1001
ACDBBLOCKREPETAG
1070
     1
1071
      172
1005
12618E
  0
ARC
  5
12618F
  8
OBJECT
 10
2138.0
 20
-144.5743741577962
 30
0.0
 40
9.9999999999999982
 50
82.832714538705744
 51
157.16728546126831
1001
ACDBBLOCKREPETAG
1070
     1
1071
      173
1005
12618F
  0
LINE
  5
126190
  8
OBJECT
 10
2113.7798539167052
 20
-176.32944499229319
 30
0.0
 11
2128.783582609296
 21
-140.6939553040711
 31
0.0
1001
ACDBBLOCKREPETAG
1070
     1
1071
      174
1005
126190
  0
LINE
  5
126191
  8
OBJECT
 10
2177.6107710832989
 20
-139.47664778353919
 30
0.0
 11
2139.247667390704
 21
-134.65251313870161
 31
0.0
1001
ACDBBLOCKREPETAG
1070
     1
1071
      175
1005
126191
  0
CIRCLE
  5
126192
  8
SLIM
 10
2138.0
 20
-255.4256258422019
 30
0.0
 40
4.0
1001
ACDBBLOCKREPETAG
1070
     1
1071
      176
1005
126192
  0
ARC
  5
126193
  8
OBJECT
 10
2138.0
 20
-255.4256258422019
 30
0.0
 40
10.0
 50
202.83271453873161
 51
277.16728546129423
1001
ACDBBLOCKREPETAG
1070
     1
1071
      177
1005
126193
  0
LINE
  5
126194
  8
OBJECT
 10
2177.6107710832989
 20
-260.52335221645899
 30
0.0
 11
2139.247667390704
 21
-265.3474868612966
 31
0.0
1001
ACDBBLOCKREPETAG
1070
     1
1071
      178
1005
126194
  0
LINE
  5
126195
  8
OBJECT
 10
2113.7798539167052
 20
-223.67055500770491
 30
0.0
 11
2128.783582609296
 21
-259.30604469592708
 31
0.0
1001
ACDBBLOCKREPETAG
1070
     1
1071
      179
1005
126195
  0
CIRCLE
  5
126196
  8
OBJECT
 10
2170.0
 20
-199.99999999999909
 30
0.0
 40
46.0
1001
ACDBBLOCKREPETAG
1070
     1
1071
      180
1005
126196
  0
POLYLINE
  5
126197
  8
SLIM
 66
     1
 10
0.0
 20
0.0
 30
0.0
 70
     1
1001
ACDBBLOCKREPETAG
1070
     1
1071
      181
1005
126197
  0
VERTEX
  5
126788
  8
SLIM
 10
2230.247223250266
 20
-193.49999999999909
 30
0.0
  0
VERTEX
  5
126789
  8
SLIM
 10
2226.494446500536
 20
-199.99999999999909
 30
0.0
  0
VERTEX
  5
12678A
  8
SLIM
 10
2230.247223250266
 20
-206.49999999999909
 30
0.0
  0
VERTEX
  5
12678B
  8
SLIM
 10
2237.752776749734
 20
-206.49999999999909
 30
0.0
  0
VERTEX
  5
12678C
  8
SLIM
 10
2241.5055534994649
 20
-199.99999999999909
 30
0.0
  0
VERTEX
  5
12678D
  8
SLIM
 10
2237.752776749734
 20
-193.49999999999909
 30
0.0
  0
SEQEND
  5
12678E
  8
SLIM
  0
POLYLINE
  5
126198
  8
SLIM
 66
     1
 10
0.0
 20
0.0
 30
0.0
 70
     1
1001
ACDBBLOCKREPETAG
1070
     1
1071
      182
1005
126198
  0
VERTEX
  5
12678F
  8
SLIM
 10
2134.2472232502701
 20
-151.0743741577962
 30
0.0
  0
VERTEX
  5
126790
  8
SLIM
 10
2141.752776749734
 20
-151.0743741577962
 30
0.0
  0
VERTEX
  5
126791
  8
SLIM
 10
2145.505553499464
 20
-144.5743741577962
 30
0.0
  0
VERTEX
  5
126792
  8
SLIM
 10
2141.7527767497309
 20
-138.07437415779259
 30
0.0
  0
VERTEX
  5
126793
  8
SLIM
 10
2134.2472232502701
 20
-138.0743741577962
 30
0.0
  0
VERTEX
  5
126794
  8
SLIM
 10
2130.494446500536
 20
-144.57437415779259
 30
0.0
  0
SEQEND
  5
126795
  8
SLIM
  0
POLYLINE
  5
126199
  8
SLIM
 66
     1
 10
0.0
 20
0.0
 30
0.0
 70
     1
1001
ACDBBLOCKREPETAG
1070
     1
1071
      183
1005
126199
  0
VERTEX
  5
126796
  8
SLIM
 10
2145.505553499464
 20
-255.4256258422019
 30
0.0
  0
VERTEX
  5
126797
  8
SLIM
 10
2141.7527767497309
 20
-248.9256258422019
 30
0.0
  0
VERTEX
  5
126798
  8
SLIM
 10
2134.2472232502701
 20
-248.9256258422019
 30
0.0
  0
VERTEX
  5
126799
  8
SLIM
 10
2130.494446500536
 20
-255.42562584220559
 30
0.0
  0
VERTEX
  5
12679A
  8
SLIM
 10
2134.247223250266
 20
-261.9256258422019
 30
0.0
  0
VERTEX
  5
12679B
  8
SLIM
 10
2141.7527767497309
 20
-261.92562584220559
 30
0.0
  0
SEQEND
  5
12679C
  8
SLIM
  0
TEXT
  5
12619A
  8
SLIM
 10
-0.0000000000000053
 20
520.0
 30
0.0
 40
100.0
  1
5HF-U7-S
 41
0.75
  0
TEXT
  5
12619B
  8
SLIM
 10
-0.0000000000000053
 20
370.0
 30
0.0
 40
100.0
  1
5HF-U7-W
 41
0.75
  0
TEXT
  5
12619C
  8
SLIM
 10
3853.75
 20
-1706.4999999999991
 30
0.0
 40
35.0
  1
両受けスタイル（W）
 41
0.75
  0
TEXT
  5
12619D
  8
SLIM
 10
7824.6000000000022
 20
-1762.9999999999991
 30
0.0
 40
28.0
  1
※ 対応スラブ厚　180～405
 41
0.75
  0
TEXT
  5
12619E
  8
SLIM
 10
7611.4999999999982
 20
-1856.333333333333
 30
0.0
 40
28.0
  1
国土交通大臣認定・（財）日本消防設備安全センター性能評定取得品
 41
0.75
  0
TEXT
  5
12619F
  8
SLIM
 10
7631.1000000000004
 20
-1903.0
 30
0.0
 40
28.0
  1
注）ご採用にあたり、認定書及び評定書の内容をご確認ください。
 41
0.75
  0
TEXT
  5
1261A0
  8
SLIM
 10
7739.125
 20
-1706.4999999999991
 30
0.0
 40
35.0
  1
両受けスタイル（W）＋シンドカット
 41
0.75
  0
TEXT
  5
1261A1
  8
SLIM
 10
5741.6249999999991
 20
-1432.5
 30
0.0
 40
35.0
  1
片受けスタイル（S）＋シンドカット
 41
0.75
  0
TEXT
  5
1261A2
  8
SLIM
 10
1856.25
 20
-1432.5
 30
0.0
 40
35.0
  1
片受けスタイル（S）
 41
0.75
  0
VIEWPORT
  5
F6BA7
 67
     1
  8
0
 10
145.33033752441401
 20
101.8328354358673
 30
0.0
 40
334.0025019414623
 41
222.19657968139651
 68
     1
 69
     1
1001
ACAD
1000
MVIEW
1002
{
1070
    16
1010
0.0
1020
0.0
1030
0.0
1010
0.0
1020
0.0
1030
1.0
1040
0.0
1040
222.19657968139651
1040
145.33033752441401
1040
101.8328354358673
1040
50.0
1040
0.0
1040
0.0
1070
     0
1070
     0
1070
     1
1070
     1
1070
     0
1070
     0
1070
     0
1070
     0
1040
0.0
1040
0.0
1040
0.0
1040
10.0
1040
10.0
1040
10.0
1040
10.0
1070
     0
1002
{
1002
}
1002
}
  0
VIEWPORT
  5
F6BA9
 67
     1
  8
OBJECT
 10
145.3303314447403
 20
101.8328338861465
 30
0.0
 40
232.5285303115844
 41
162.93253421783439
 68
     2
 69
     2
1001
ACAD
1000
MVIEW
1002
{
1070
    16
1010
0.0
1020
0.0
1030
0.0
1010
0.0
1020
0.0
1030
1.0
1040
0.0
1040
25942.55904403147
1040
2377.604457077377
1040
-7591.5176687056619
1040
50.0
1040
0.0
1040
0.0
1070
     0
1070
   600
1070
     1
1070
     1
1070
     0
1070
     0
1070
     0
1070
     0
1040
0.0
1040
0.0
1040
0.0
1040
1.0
1040
1.0
1040
0.0
1040
0.0
1070
     0
1002
{
1002
}
1002
}
  0
ENDSEC
  0
EOF
