  0
SECTION
  2
HEADER
  9
$ACADVER
  1
AC1009
  9
$INSBASE
 10
0.0
 20
0.0
 30
0.0
  9
$EXTMIN
 10
-193.0
 20
-457.7000000000001
 30
0.0
  9
$EXTMAX
 10
1192.5
 20
110.0
 30
0.0
  9
$LIMMIN
 10
0.0
 20
0.0
  9
$LIMMAX
 10
210.0
 20
297.0
  9
$ORTHOMODE
 70
     0
  9
$REGENMODE
 70
     1
  9
$FILLMODE
 70
     1
  9
$QTEXTMODE
 70
     0
  9
$MIRRTEXT
 70
     0
  9
$DRAGMODE
 70
     2
  9
$LTSCALE
 40
1.0
  9
$OSMODE
 70
   125
  9
$ATTMODE
 70
     1
  9
$TEXTSIZE
 40
39.008254181735531
  9
$TRACEWID
 40
0.05
  9
$TEXTSTYLE
  7
STANDARD
  9
$CLAYER
  8
OBJECT
  9
$CELTYPE
  6
BYLAYER
  9
$CECOLOR
 62
   256
  9
$DIMSCALE
 40
10.0
  9
$DIMASZ
 40
1.0
  9
$DIMEXO
 40
0.5
  9
$DIMDLI
 40
5.0
  9
$DIMRND
 40
0.0
  9
$DIMDLE
 40
0.0
  9
$DIMEXE
 40
0.5
  9
$DIMTP
 40
0.0
  9
$DIMTM
 40
0.0
  9
$DIMTXT
 40
1.6000000000000001
  9
$DIMCEN
 40
0.0
  9
$DIMTSZ
 40
0.0
  9
$DIMTOL
 70
     0
  9
$DIMLIM
 70
     0
  9
$DIMTIH
 70
     0
  9
$DIMTOH
 70
     0
  9
$DIMSE1
 70
     0
  9
$DIMSE2
 70
     0
  9
$DIMTAD
 70
     1
  9
$DIMZIN
 70
     8
  9
$DIMBLK
  1
OPEN30
  9
$DIMASO
 70
     1
  9
$DIMSHO
 70
     1
  9
$DIMPOST
  1

  9
$DIMAPOST
  1

  9
$DIMALT
 70
     0
  9
$DIMALTD
 70
     2
  9
$DIMALTF
 40
25.399999999999999
  9
$DIMLFAC
 40
1.0
  9
$DIMTOFL
 70
     1
  9
$DIMTVP
 40
0.0
  9
$DIMTIX
 70
     0
  9
$DIMSOXD
 70
     0
  9
$DIMSAH
 70
     0
  9
$DIMBLK1
  1

  9
$DIMBLK2
  1

  9
$DIMSTYLE
  2
S10
  9
$DIMCLRD
 70
   256
  9
$DIMCLRE
 70
   256
  9
$DIMCLRT
 70
   256
  9
$DIMTFAC
 40
1.0
  9
$DIMGAP
 40
0.45
  9
$LUNITS
 70
     2
  9
$LUPREC
 70
     2
  9
$SKETCHINC
 40
0.1
  9
$FILLETRAD
 40
0.0
  9
$AUNITS
 70
     0
  9
$AUPREC
 70
     2
  9
$MENU
  1
ACAD
  9
$ELEVATION
 40
0.0
  9
$PELEVATION
 40
0.0
  9
$THICKNESS
 40
0.0
  9
$LIMCHECK
 70
     0
  9
$BLIPMODE
 70
     0
  9
$CHAMFERA
 40
2.0
  9
$CHAMFERB
 40
2.0
  9
$SKPOLY
 70
     0
  9
$TDCREATE
 40
2453095.4929404748
  9
$TDUPDATE
 40
2456757.6407915512
  9
$TDINDWG
 40
27.168870625
  9
$TDUSRTIMER
 40
27.168869999999998
  9
$USRTIMER
 70
     1
  9
$ANGBASE
 50
0.0
  9
$ANGDIR
 70
     0
  9
$PDMODE
 70
    35
  9
$PDSIZE
 40
2.0
  9
$PLINEWID
 40
0.0
  9
$COORDS
 70
     1
  9
$SPLFRAME
 70
     0
  9
$SPLINETYPE
 70
     6
  9
$SPLINESEGS
 70
     8
  9
$ATTDIA
 70
     1
  9
$ATTREQ
 70
     1
  9
$HANDLING
 70
     1
  9
$HANDSEED
  5
100095
  9
$SURFTAB1
 70
     6
  9
$SURFTAB2
 70
     6
  9
$SURFTYPE
 70
     6
  9
$SURFU
 70
     6
  9
$SURFV
 70
     6
  9
$UCSNAME
  2

  9
$UCSORG
 10
0.0
 20
0.0
 30
0.0
  9
$UCSXDIR
 10
1.0
 20
0.0
 30
0.0
  9
$UCSYDIR
 10
0.0
 20
1.0
 30
0.0
  9
$PUCSNAME
  2

  9
$PUCSORG
 10
0.0
 20
0.0
 30
0.0
  9
$PUCSXDIR
 10
1.0
 20
0.0
 30
0.0
  9
$PUCSYDIR
 10
0.0
 20
1.0
 30
0.0
  9
$USERI1
 70
     0
  9
$USERI2
 70
     0
  9
$USERI3
 70
     0
  9
$USERI4
 70
     0
  9
$USERI5
 70
     0
  9
$USERR1
 40
0.0
  9
$USERR2
 40
0.0
  9
$USERR3
 40
0.0
  9
$USERR4
 40
0.0
  9
$USERR5
 40
0.0
  9
$WORLDVIEW
 70
     1
  9
$SHADEDGE
 70
     3
  9
$SHADEDIF
 70
    70
  9
$TILEMODE
 70
     1
  9
$MAXACTVP
 70
    64
  9
$PLIMCHECK
 70
     0
  9
$PEXTMIN
 10
28.721050786972061
 20
20.021550226211559
 30
0.0
  9
$PEXTMAX
 10
258.4894570827484
 20
180.19395203590389
 30
0.0
  9
$PLIMMIN
 10
-4.90008544921875
 20
-4.9000830650329581
  9
$PLIMMAX
 10
292.11056518554688
 20
205.1155877113342
  9
$UNITMODE
 70
     0
  9
$VISRETAIN
 70
     1
  9
$PLINEGEN
 70
     0
  9
$PSLTSCALE
 70
     1
  0
ENDSEC
  0
SECTION
  2
TABLES
  0
TABLE
  2
VPORT
 70
     1
  0
VPORT
  2
*ACTIVE
 70
     0
 10
0.0
 20
0.0
 11
1.0
 21
1.0
 12
782.97753372397517
 22
-12.28541500139386
 13
0.0
 23
0.0
 14
1.0
 24
1.0
 15
0.0
 25
0.0
 16
0.0
 26
0.0
 36
1.0
 17
0.0
 27
0.0
 37
0.0
 40
1729.8783192240551
 41
1.8330914368650211
 42
50.0
 43
0.0
 44
0.0
 50
0.0
 51
0.0
 71
     0
 72
   600
 73
     1
 74
     1
 75
     0
 76
     0
 77
     0
 78
     1
  0
ENDTAB
  0
TABLE
  2
LTYPE
 70
     3
  0
LTYPE
  2
CONTINUOUS
 70
     0
  3
Solid line
 72
    65
 73
     0
 40
0.0
  0
LTYPE
  2
ACAD_ISO08W100
 70
     0
  3
ISO long-dash short-dash ____ __ ____ __ ____ _
 72
    65
 73
     4
 40
36.0
 49
24.0
 49
-3.0
 49
6.0
 49
-3.0
  0
LTYPE
  2
ACAD_ISO02W100
 70
     0
  3
ISO dash __ __ __ __ __ __ __ __ __ __ __ __ __
 72
    65
 73
     2
 40
15.0
 49
12.0
 49
-3.0
  0
ENDTAB
  0
TABLE
  2
LAYER
 70
     6
  0
LAYER
  2
0
 70
     0
 62
     7
  6
CONTINUOUS
  0
LAYER
  2
OBJECT
 70
     0
 62
     4
  6
CONTINUOUS
  0
LAYER
  2
DEFPOINTS
 70
     0
 62
     7
  6
CONTINUOUS
  0
LAYER
  2
HIDDEN
 70
     0
 62
     2
  6
ACAD_ISO02W100
  0
LAYER
  2
CENTER
 70
     0
 62
     2
  6
ACAD_ISO08W100
  0
LAYER
  2
SLIM
 70
     0
 62
     2
  6
CONTINUOUS
  0
ENDTAB
  0
TABLE
  2
STYLE
 70
     2
  0
STYLE
  2
STANDARD
 70
     0
 40
0.0
 41
0.75
 50
0.0
 71
     0
 42
39.008254181735531
  3
simplex.shx
  4
bigfont.shx
  0
ENDTAB
  0
TABLE
  2
VIEW
 70
     0
  0
ENDTAB
  0
TABLE
  2
UCS
 70
     0
  0
ENDTAB
  0
TABLE
  2
APPID
 70
    21
  0
APPID
  2
ACAD
 70
     0
  0
APPID
  2
ACADANNOTATIVE
 70
     0
  0
APPID
  2
ACAD_PSEXT
 70
     0
  0
APPID
  2
ACAD_EXEMPT_FROM_CAD_STANDARDS
 70
     0
  0
APPID
  2
ACAECLAYERSTANDARD
 70
     0
  0
APPID
  2
ACAUTHENVIRON
 70
     0
  0
APPID
  2
ACDBDYNAMICBLOCKTRUENAME
 70
     0
  0
APPID
  2
ACDBDYNAMICBLOCKGUID
 70
     0
  0
APPID
  2
ACDBBLOCKREPETAG
 70
     0
  0
APPID
  2
ACDBBLOCKREPBTAG
 70
     0
  0
APPID
  2
ACAD_NAV_VCDISPLAY
 70
     0
  0
APPID
  2
ACAD_DSTYLE_DIMRADIAL_EXTENSION
 70
     0
  0
APPID
  2
ACAD_DSTYLE_DIMJAG
 70
     0
  0
APPID
  2
ACAD_DSTYLE_DIMTALN
 70
     0
  0
APPID
  2
GRADIENTCOLOR1ACI
 70
     0
  0
APPID
  2
GRADIENTCOLOR2ACI
 70
     0
  0
APPID
  2
ACADANNOAV
 70
     0
  0
APPID
  2
SIGMA
 70
     0
  0
APPID
  2
ACAD_DSTYLE_DIMJOGGED_JOGA
 70
     0
  0
APPID
  2
ACAD_DSTYLE_DIMBREAK
 70
     0
  0
APPID
  2
ACAD_MLEADERVER
 70
     0
  0
ENDTAB
  0
TABLE
  2
DIMSTYLE
 70
     3
  0
DIMSTYLE
  2
STANDARD
 70
     0
  3

  4

  5

  6

  7

 40
1.0
 41
0.18
 42
0.0625
 43
0.38
 44
0.18
 45
0.0
 46
0.0
 47
0.0
 48
0.0
140
0.18
141
0.09
142
0.0
143
25.399999999999999
144
1.0
145
0.0
146
1.0
147
0.09
 71
     0
 72
     0
 73
     1
 74
     1
 75
     0
 76
     0
 77
     0
 78
     0
170
     0
171
     2
172
     0
173
     0
174
     0
175
     0
176
     0
177
     0
178
     0
  0
DIMSTYLE
  2
S10
 70
     0
  3

  4

  5

  6

  7

 40
10.0
 41
1.0
 42
0.5
 43
5.0
 44
0.5
 45
0.0
 46
0.0
 47
0.0
 48
0.0
140
1.6000000000000001
141
0.0
142
0.0
143
25.399999999999999
144
1.0
145
0.0
146
1.0
147
0.45
 71
     0
 72
     0
 73
     0
 74
     0
 75
     0
 76
     0
 77
     1
 78
     8
170
     0
171
     2
172
     1
173
     0
174
     0
175
     0
176
   256
177
   256
178
   256
  0
ENDTAB
  0
ENDSEC
  0
SECTION
  2
BLOCKS
  0
BLOCK
  8
0
  2
$MODEL_SPACE
 70
     0
 10
0.0
 20
0.0
 30
0.0
  3
$MODEL_SPACE
  1

  0
ENDBLK
  5
FFFF2
  8
0
  0
BLOCK
 67
     1
  8
0
  2
$PAPER_SPACE
 70
     0
 10
0.0
 20
0.0
 30
0.0
  3
$PAPER_SPACE
  1

  0
ENDBLK
  5
FFFEE
 67
     1
  8
0
  0
BLOCK
  8
0
  2
_OPEN30
 70
     0
 10
0.0
 20
0.0
 30
0.0
  3
_OPEN30
  1

  0
LINE
  5
202
  8
0
  6
BYBLOCK
 62
     0
 10
-1.0
 20
0.26794919
 30
0.0
 11
0.0
 21
0.0
 31
0.0
  0
LINE
  5
203
  8
0
  6
BYBLOCK
 62
     0
 10
0.0
 20
0.0
 30
0.0
 11
-1.0
 21
-0.26794919
 31
0.0
  0
LINE
  5
204
  8
0
  6
BYBLOCK
 62
     0
 10
0.0
 20
0.0
 30
0.0
 11
-1.0
 21
0.0
 31
0.0
  0
ENDBLK
  5
206
  8
0
  0
ENDSEC
  0
SECTION
  2
ENTITIES
  0
LINE
  5
F7378
  8
CENTER
 10
-193.0
 20
0.0
 30
0.0
 11
193.0
 21
0.0
 31
0.0
  0
LINE
  5
F7379
  8
OBJECT
 10
88.487287222515548
 20
-1.5000000000009091
 30
0.0
 11
135.0
 21
-1.5000000000009091
 31
0.0
  0
LINE
  5
F737B
  8
OBJECT
 10
88.487287222515548
 20
1.5
 30
0.0
 11
156.63339973465909
 21
1.4999999999995439
 31
0.0
  0
LINE
  5
F737D
  8
CENTER
 10
0.0
 20
110.0
 30
0.0
 11
0.0
 21
-110.0
 31
0.0
  0
ARC
  5
F7380
  8
OBJECT
 10
0.0
 20
0.0
 30
0.0
 40
85.5
 50
6.0000000000095373
 51
173.99999999999039
  0
ARC
  5
F7383
  8
OBJECT
 10
0.0
 20
0.0
 30
0.0
 40
88.499999999999986
 50
0.9711614089976572
 51
6.0000000000095373
  0
ARC
  5
F738A
  8
OBJECT
 10
165.0
 20
0.0
 30
0.0
 40
8.5
 50
180.0
 51
169.835751378287
  0
LINE
  5
F738C
  8
OBJECT
 10
-88.48728722251596
 20
1.500000000001364
 30
0.0
 11
-135.0
 21
1.5000000000009091
 31
0.0
  0
LINE
  5
F738E
  8
OBJECT
 10
-88.48728722251596
 20
-1.4999999999990901
 30
0.0
 11
-156.63339973465909
 21
-1.4999999999995439
 31
0.0
  0
ARC
  5
F7390
  8
OBJECT
 10
-165.0
 20
0.0
 30
0.0
 40
8.5
 50
0.0
 51
349.835751378287
  0
LINE
  5
F7397
  8
OBJECT
 10
-178.0
 20
-269.0
 30
0.0
 11
-178.0
 21
-231.0
 31
0.0
  0
LINE
  5
F7398
  8
OBJECT
 10
-178.0
 20
-231.0
 30
0.0
 11
-94.479580059979995
 21
-231.0
 31
0.0
  0
LINE
  5
F7399
  8
OBJECT
 10
94.479580060006796
 20
-231.0
 30
0.0
 11
178.0
 21
-231.0
 31
0.0
  0
LINE
  5
F739A
  8
OBJECT
 10
178.0
 20
-231.0
 30
0.0
 11
178.0
 21
-269.0
 31
0.0
  0
LINE
  5
F739B
  8
OBJECT
 10
178.0
 20
-269.0
 30
0.0
 11
94.479580060006796
 21
-269.0
 31
0.0
  0
LINE
  5
F739C
  8
OBJECT
 10
-94.479580059979995
 20
-269.0
 30
0.0
 11
-178.0
 21
-269.0
 31
0.0
  0
LINE
  5
F739D
  8
CENTER
 10
-193.0
 20
-250.0
 30
0.0
 11
193.0
 21
-250.0
 31
0.0
  0
LINE
  5
F739E
  8
OBJECT
 10
-153.46743740532929
 20
-231.0
 30
0.0
 11
-153.46743740532929
 21
-269.0
 31
0.0
  0
LINE
  5
F739F
  8
OBJECT
 10
152.0
 20
-231.0
 30
0.0
 11
152.0
 21
-269.0
 31
0.0
  0
LINE
  5
F73A6
  8
CENTER
 10
0.0
 20
-213.0
 30
0.0
 11
0.0
 21
-287.0
 31
0.0
  0
LINE
  5
F73A7
  8
OBJECT
 10
-92.806249789548488
 20
-234.0
 30
0.0
 11
-92.806249789550279
 21
-266.00000000000051
 31
0.0
  0
LINE
  5
F73A8
  8
OBJECT
 10
92.806249789548019
 20
-234.0
 30
0.0
 11
92.806249789548019
 21
-266.00000000000051
 31
0.0
  0
LINE
  5
F73A9
  8
OBJECT
 10
-94.479580059979995
 20
-266.0
 30
0.0
 11
-94.479580059979995
 21
-272.0
 31
0.0
  0
LINE
  5
F73AA
  8
OBJECT
 10
-94.479580059979995
 20
-272.0
 30
0.0
 11
94.479580060006796
 21
-272.0
 31
0.0
  0
LINE
  5
F73AB
  8
OBJECT
 10
94.479580060006796
 20
-272.0
 30
0.0
 11
94.479580060006796
 21
-266.0
 31
0.0
  0
LINE
  5
F73AC
  8
OBJECT
 10
94.479580060006796
 20
-266.0
 30
0.0
 11
-94.479580059979995
 21
-266.0
 31
0.0
  0
LINE
  5
F73AD
  8
OBJECT
 10
-94.479580059979995
 20
-234.0
 30
0.0
 11
-94.479580059979995
 21
-228.0
 31
0.0
  0
LINE
  5
F73AE
  8
OBJECT
 10
-94.479580059979995
 20
-228.0
 30
0.0
 11
94.479580060006796
 21
-228.0
 31
0.0
  0
LINE
  5
F73AF
  8
OBJECT
 10
94.479580060006796
 20
-228.0
 30
0.0
 11
94.479580060006796
 21
-234.0
 31
0.0
  0
LINE
  5
F73B0
  8
OBJECT
 10
94.479580060006796
 20
-234.0
 30
0.0
 11
-94.479580059979995
 21
-234.0
 31
0.0
  0
LINE
  5
F7432
  8
CENTER
 10
807.49999999999989
 20
0.0
 30
0.0
 11
1192.5
 21
0.0
 31
0.0
  0
LINE
  5
F7433
  8
OBJECT
 10
1088.4872872225151
 20
-1.5000000000009091
 30
0.0
 11
1135.0
 21
-1.5000000000009091
 31
0.0
  0
LINE
  5
F7434
  8
OBJECT
 10
1088.4872872225151
 20
1.5
 30
0.0
 11
1156.633399734659
 21
1.4999999999995439
 31
0.0
  0
LINE
  5
F7435
  8
CENTER
 10
1000.0
 20
109.5
 30
0.0
 11
1000.0
 21
-109.5
 31
0.0
  0
ARC
  5
F7436
  8
OBJECT
 10
1000.0
 20
0.0
 30
0.0
 40
85.5
 50
6.0000000000095373
 51
173.99999999999039
  0
ARC
  5
F7437
  8
OBJECT
 10
1000.0
 20
0.0
 30
0.0
 40
88.499999999999986
 50
0.9711614089976572
 51
6.0000000000095373
  0
ARC
  5
F743A
  8
OBJECT
 10
1165.0
 20
0.0
 30
0.0
 40
8.5
 50
180.0
 51
169.835751378287
  0
LINE
  5
F743B
  8
OBJECT
 10
911.51271277748401
 20
1.500000000001364
 30
0.0
 11
865.0
 21
1.5000000000009091
 31
0.0
  0
LINE
  5
F743C
  8
OBJECT
 10
911.51271277748401
 20
-1.4999999999990901
 30
0.0
 11
843.36660026534059
 21
-1.4999999999995439
 31
0.0
  0
ARC
  5
F743D
  8
OBJECT
 10
835.0
 20
0.0
 30
0.0
 40
8.5
 50
0.0
 51
349.835751378287
  0
LINE
  5
F7443
  8
OBJECT
 10
822.49999999999989
 20
-269.0
 30
0.0
 11
822.49999999999989
 21
-231.0
 31
0.0
  0
LINE
  5
F7444
  8
OBJECT
 10
822.49999999999989
 20
-231.0
 30
0.0
 11
906.0176808876995
 21
-231.0
 31
0.0
  0
LINE
  5
F7445
  8
OBJECT
 10
1093.982319112296
 20
-231.0
 30
0.0
 11
1177.5
 21
-231.0
 31
0.0
  0
LINE
  5
F7446
  8
OBJECT
 10
1177.5
 20
-231.0
 30
0.0
 11
1177.5
 21
-269.0
 31
0.0
  0
LINE
  5
F7447
  8
OBJECT
 10
1177.5
 20
-269.0
 30
0.0
 11
1093.982319112296
 21
-269.0
 31
0.0
  0
LINE
  5
F7448
  8
OBJECT
 10
906.0176808876995
 20
-269.0
 30
0.0
 11
822.49999999999989
 21
-269.0
 31
0.0
  0
LINE
  5
F7449
  8
CENTER
 10
807.49999999999989
 20
-250.0
 30
0.0
 11
1192.5
 21
-250.0
 31
0.0
  0
LINE
  5
F744A
  8
OBJECT
 10
846.22497216032173
 20
-231.0
 30
0.0
 11
846.22497216032173
 21
-269.0
 31
0.0
  0
LINE
  5
F744B
  8
OBJECT
 10
1152.5
 20
-231.0
 30
0.0
 11
1152.5
 21
-269.0
 31
0.0
  0
LINE
  5
F744E
  8
CENTER
 10
1000.0
 20
-213.0
 30
0.0
 11
1000.0
 21
-287.0
 31
0.0
  0
LINE
  5
F744F
  8
OBJECT
 10
907.66365829208917
 20
-234.0
 30
0.0
 11
907.66365829208735
 21
-266.00000000000051
 31
0.0
  0
LINE
  5
F7450
  8
OBJECT
 10
1092.3363417079111
 20
-233.9999999999994
 30
0.0
 11
1092.3363417079111
 21
-266.0
 31
0.0
  0
LINE
  5
F7451
  8
OBJECT
 10
906.0176808876995
 20
-266.0
 30
0.0
 11
906.0176808876995
 21
-272.0
 31
0.0
  0
LINE
  5
F7452
  8
OBJECT
 10
906.0176808876995
 20
-272.0
 30
0.0
 11
1093.982319112296
 21
-272.0
 31
0.0
  0
LINE
  5
F7453
  8
OBJECT
 10
1093.982319112296
 20
-272.0
 30
0.0
 11
1093.982319112296
 21
-266.0
 31
0.0
  0
LINE
  5
F7454
  8
OBJECT
 10
1093.982319112296
 20
-266.0
 30
0.0
 11
906.0176808876995
 21
-266.0
 31
0.0
  0
LINE
  5
F7455
  8
OBJECT
 10
906.0176808876995
 20
-234.0
 30
0.0
 11
906.0176808876995
 21
-228.0
 31
0.0
  0
LINE
  5
F7456
  8
OBJECT
 10
906.0176808876995
 20
-228.0
 30
0.0
 11
1093.982319112296
 21
-228.0
 31
0.0
  0
LINE
  5
F7457
  8
OBJECT
 10
1093.982319112296
 20
-228.0
 30
0.0
 11
1093.982319112296
 21
-234.0
 31
0.0
  0
LINE
  5
F7458
  8
OBJECT
 10
1093.982319112296
 20
-234.0
 30
0.0
 11
906.0176808876995
 21
-234.0
 31
0.0
  0
ARC
  5
F748C
  8
OBJECT
 10
-165.0
 20
0.0
 30
0.0
 40
13.0
 50
0.0
 51
332.5135737496197
  0
LINE
  5
F748D
  8
OBJECT
 10
-92.806249789548488
 20
-5.9999999999990887
 30
0.0
 11
-153.46743740532929
 21
-5.9999999999995444
 31
0.0
  0
LINE
  5
F748F
  8
OBJECT
 10
-92.806249789548019
 20
6.0000000000013642
 30
0.0
 11
-135.0
 21
6.0000000000009077
 31
0.0
  0
ARC
  5
F7490
  8
OBJECT
 10
0.0
 20
0.0
 30
0.0
 40
93.0
 50
3.6990710631611958
 51
6.0000000000095373
  0
LINE
  5
F7491
  8
OBJECT
 10
92.806249789548019
 20
-6.0000000000009077
 30
0.0
 11
135.0
 21
-6.0000000000009077
 31
0.0
  0
ARC
  5
F7492
  8
OBJECT
 10
165.0
 20
0.0
 30
0.0
 40
13.0
 50
180.0
 51
152.51357374961961
  0
LINE
  5
F7493
  8
OBJECT
 10
92.806249789548019
 20
6.0
 30
0.0
 11
153.46743740532841
 21
5.9999999999995444
 31
0.0
  0
ARC
  5
F7494
  8
OBJECT
 10
0.0
 20
0.0
 30
0.0
 40
95.0
 50
6.0000000000095373
 51
173.99999999999039
  0
LINE
  5
F7496
  8
OBJECT
 10
135.0
 20
-1.5000000000009091
 30
0.0
 11
135.0
 21
-6.0000000000009077
 31
0.0
  0
LINE
  5
F7497
  8
OBJECT
 10
152.0
 20
0.0
 30
0.0
 11
156.5
 21
0.0
 31
0.0
  0
LINE
  5
F7498
  8
OBJECT
 10
-135.0
 20
6.0000000000009077
 30
0.0
 11
-135.0
 21
1.5000000000009091
 31
0.0
  0
LINE
  5
F7499
  8
OBJECT
 10
-156.5
 20
0.0
 30
0.0
 11
-152.0
 21
0.0
 31
0.0
  0
ARC
  5
F749A
  8
OBJECT
 10
0.0
 20
0.0
 30
0.0
 40
93.0
 50
173.99999999999039
 51
176.3009289368388
  0
ARC
  5
F749B
  8
OBJECT
 10
0.0
 20
0.0
 30
0.0
 40
88.499999999999986
 50
173.99999999999039
 51
179.02883859100231
  0
LINE
  5
F74A8
  8
OBJECT
 10
135.0
 20
-231.0
 30
0.0
 11
135.0
 21
-269.0
 31
0.0
  0
ARC
  5
F74AE
  8
OBJECT
 10
835.0
 20
0.0
 30
0.0
 40
12.5
 50
0.0
 51
333.89611886266061
  0
LINE
  5
F74AF
  8
OBJECT
 10
907.66365829208917
 20
-5.4999999999990887
 30
0.0
 11
846.22497216032173
 21
-5.4999999999995444
 31
0.0
  0
LINE
  5
F74B0
  8
OBJECT
 10
907.66365829208917
 20
5.5000000000013642
 30
0.0
 11
865.0
 21
5.5000000000009077
 31
0.0
  0
ARC
  5
F74B2
  8
OBJECT
 10
1000.0
 20
0.0
 30
0.0
 40
92.5
 50
3.4087866810922631
 51
6.0000000000095373
  0
LINE
  5
F74B3
  8
OBJECT
 10
1092.3363417079111
 20
-5.5000000000009077
 30
0.0
 11
1135.0
 21
-5.5000000000009077
 31
0.0
  0
LINE
  5
F74B4
  8
OBJECT
 10
1092.3363417079111
 20
5.5
 30
0.0
 11
1153.7750278396779
 21
5.4999999999995444
 31
0.0
  0
ARC
  5
F74B5
  8
OBJECT
 10
1165.0
 20
0.0
 30
0.0
 40
12.5
 50
180.0
 51
153.8961188626605
  0
ARC
  5
F74B6
  8
OBJECT
 10
1000.0
 20
0.0
 30
0.0
 40
94.500000000000014
 50
6.0000000000095373
 51
173.99999999999039
  0
LINE
  5
F74B8
  8
OBJECT
 10
865.0
 20
5.5000000000009077
 30
0.0
 11
865.0
 21
1.5000000000009091
 31
0.0
  0
LINE
  5
F74B9
  8
OBJECT
 10
843.5
 20
0.0
 30
0.0
 11
847.49999999999989
 21
0.0
 31
0.0
  0
LINE
  5
F74BA
  8
OBJECT
 10
1135.0
 20
-1.5000000000009091
 30
0.0
 11
1135.0
 21
-5.5000000000009077
 31
0.0
  0
LINE
  5
F74BB
  8
OBJECT
 10
1152.5
 20
0.0
 30
0.0
 11
1156.5
 21
0.0
 31
0.0
  0
ARC
  5
F74BE
  8
OBJECT
 10
1000.0
 20
0.0
 30
0.0
 40
88.499999999999986
 50
173.99999999999039
 51
179.02883859100231
  0
ARC
  5
F74BF
  8
OBJECT
 10
1000.0
 20
0.0
 30
0.0
 40
92.5
 50
173.99999999999039
 51
176.59121331890771
  0
LINE
  5
F74D2
  8
OBJECT
 10
1135.0
 20
-231.0
 30
0.0
 11
1135.0
 21
-269.0
 31
0.0
  0
POLYLINE
  5
F752B
  8
SLIM
 66
     1
 10
0.0
 20
0.0
 30
0.0
 70
     1
  0
VERTEX
  5
100035
  8
SLIM
 10
-120.4848275573017
 20
-240.5
 30
0.0
  0
VERTEX
  5
100036
  8
SLIM
 10
-125.969655114603
 20
-250.0
 30
0.0
  0
VERTEX
  5
100037
  8
SLIM
 10
-120.4848275573017
 20
-259.5
 30
0.0
  0
VERTEX
  5
100038
  8
SLIM
 10
-109.5151724426987
 20
-259.5
 30
0.0
  0
VERTEX
  5
100039
  8
SLIM
 10
-104.0303448853974
 20
-250.0
 30
0.0
  0
VERTEX
  5
10003A
  8
SLIM
 10
-109.5151724426987
 20
-240.5
 30
0.0
  0
SEQEND
  5
10003B
  8
SLIM
  0
POLYLINE
  5
F752D
  8
SLIM
 66
     1
 10
0.0
 20
0.0
 30
0.0
 70
     1
  0
VERTEX
  5
10003C
  8
SLIM
 10
109.5151724426987
 20
-240.5
 30
0.0
  0
VERTEX
  5
10003D
  8
SLIM
 10
104.0303448853974
 20
-250.0
 30
0.0
  0
VERTEX
  5
10003E
  8
SLIM
 10
109.5151724426987
 20
-259.5
 30
0.0
  0
VERTEX
  5
10003F
  8
SLIM
 10
120.4848275573013
 20
-259.5
 30
0.0
  0
VERTEX
  5
100040
  8
SLIM
 10
125.9696551146026
 20
-250.0
 30
0.0
  0
VERTEX
  5
100041
  8
SLIM
 10
120.4848275573013
 20
-240.5
 30
0.0
  0
SEQEND
  5
100042
  8
SLIM
  0
POLYLINE
  5
F752F
  8
SLIM
 66
     1
 10
0.0
 20
0.0
 30
0.0
 70
     1
  0
VERTEX
  5
100043
  8
SLIM
 10
879.5151724426986
 20
-240.5
 30
0.0
  0
VERTEX
  5
100044
  8
SLIM
 10
874.03034488539754
 20
-250.0
 30
0.0
  0
VERTEX
  5
100045
  8
SLIM
 10
879.5151724426986
 20
-259.5
 30
0.0
  0
VERTEX
  5
100046
  8
SLIM
 10
890.48482755730117
 20
-259.5
 30
0.0
  0
VERTEX
  5
100047
  8
SLIM
 10
895.96965511460235
 20
-250.0
 30
0.0
  0
VERTEX
  5
100048
  8
SLIM
 10
890.48482755730117
 20
-240.5
 30
0.0
  0
SEQEND
  5
100049
  8
SLIM
  0
POLYLINE
  5
F7531
  8
SLIM
 66
     1
 10
0.0
 20
0.0
 30
0.0
 70
     1
  0
VERTEX
  5
10004A
  8
SLIM
 10
1109.5151724426989
 20
-240.5
 30
0.0
  0
VERTEX
  5
10004B
  8
SLIM
 10
1104.030344885397
 20
-250.0
 30
0.0
  0
VERTEX
  5
10004C
  8
SLIM
 10
1109.5151724426989
 20
-259.5
 30
0.0
  0
VERTEX
  5
10004D
  8
SLIM
 10
1120.4848275573011
 20
-259.5
 30
0.0
  0
VERTEX
  5
10004E
  8
SLIM
 10
1125.969655114603
 20
-250.0
 30
0.0
  0
VERTEX
  5
10004F
  8
SLIM
 10
1120.4848275573011
 20
-240.5
 30
0.0
  0
SEQEND
  5
100050
  8
SLIM
  0
LINE
  5
F753D
  8
OBJECT
 10
-125.969655114603
 20
-5.9999999999990887
 30
0.0
 11
-125.969655114603
 21
-13.999999999999091
 31
0.0
  0
LINE
  5
F753E
  8
OBJECT
 10
-125.969655114603
 20
-13.999999999999091
 30
0.0
 11
-104.0303448853974
 21
-13.999999999999091
 31
0.0
  0
LINE
  5
F753F
  8
OBJECT
 10
-104.0303448853974
 20
-13.999999999999091
 30
0.0
 11
-104.0303448853974
 21
-5.9999999999990887
 31
0.0
  0
LINE
  5
F7541
  8
OBJECT
 10
-120.4848275573017
 20
-5.9999999999990887
 30
0.0
 11
-120.4848275573017
 21
-13.999999999999091
 31
0.0
  0
LINE
  5
F7542
  8
OBJECT
 10
-109.5151724426987
 20
-5.9999999999990887
 30
0.0
 11
-109.5151724426987
 21
-13.999999999999091
 31
0.0
  0
LINE
  5
F7683
  8
OBJECT
 10
-109.0
 20
34.000000000000909
 30
0.0
 11
-109.0000000000004
 21
16.000000000000909
 31
0.0
  0
LINE
  5
F7684
  8
OBJECT
 10
-121.0
 20
34.000000000000909
 30
0.0
 11
-121.0000000000004
 21
16.000000000001361
 31
0.0
  0
LINE
  5
F7685
  8
OBJECT
 10
-109.0
 20
34.000000000000909
 30
0.0
 11
-121.0
 21
34.000000000000909
 31
0.0
  0
LINE
  5
F7686
  8
OBJECT
 10
-121.0000000000004
 20
1.5000000000009091
 30
0.0
 11
-121.0
 21
-1.4999999999995439
 31
0.0
  0
LINE
  5
F7687
  8
OBJECT
 10
-109.0000000000004
 20
1.500000000001364
 30
0.0
 11
-109.0
 21
-1.4999999999995439
 31
0.0
  0
LINE
  5
F768A
  8
OBJECT
 10
-125.969655114603
 20
16.000000000000909
 30
0.0
 11
-125.969655114603
 21
6.0000000000009077
 31
0.0
  0
LINE
  5
F768C
  8
OBJECT
 10
-104.0303448853974
 20
6.0000000000009077
 30
0.0
 11
-104.0303448853974
 21
16.000000000000909
 31
0.0
  0
LINE
  5
F768D
  8
OBJECT
 10
-104.0303448853974
 20
16.000000000000909
 30
0.0
 11
-125.969655114603
 21
16.000000000000909
 31
0.0
  0
LINE
  5
F768E
  8
OBJECT
 10
-120.4848275573017
 20
16.000000000000909
 30
0.0
 11
-120.4848275573017
 21
6.0000000000009077
 31
0.0
  0
LINE
  5
F768F
  8
OBJECT
 10
-109.5151724426987
 20
16.000000000000909
 30
0.0
 11
-109.5151724426987
 21
6.0000000000009077
 31
0.0
  0
LINE
  5
F7691
  8
OBJECT
 10
121.0
 20
34.000000000000909
 30
0.0
 11
121.0
 21
16.000000000001361
 31
0.0
  0
LINE
  5
F7692
  8
OBJECT
 10
121.0
 20
1.5000000000009091
 30
0.0
 11
121.0
 21
-1.4999999999995439
 31
0.0
  0
LINE
  5
F7693
  8
OBJECT
 10
109.0
 20
34.000000000000909
 30
0.0
 11
109.0
 21
16.000000000000909
 31
0.0
  0
LINE
  5
F7694
  8
OBJECT
 10
109.0
 20
1.500000000001364
 30
0.0
 11
109.0
 21
-1.4999999999995439
 31
0.0
  0
LINE
  5
F7695
  8
OBJECT
 10
125.9696551146026
 20
-5.9999999999990887
 30
0.0
 11
125.9696551146026
 21
-13.999999999999091
 31
0.0
  0
LINE
  5
F7696
  8
OBJECT
 10
125.9696551146026
 20
-13.999999999999091
 30
0.0
 11
104.0303448853974
 21
-13.999999999999091
 31
0.0
  0
LINE
  5
F7697
  8
OBJECT
 10
104.0303448853974
 20
-13.999999999999091
 30
0.0
 11
104.0303448853974
 21
-5.9999999999990887
 31
0.0
  0
LINE
  5
F7699
  8
OBJECT
 10
109.0
 20
34.000000000000909
 30
0.0
 11
121.0
 21
34.000000000000909
 31
0.0
  0
LINE
  5
F769A
  8
OBJECT
 10
120.4848275573013
 20
-5.9999999999990887
 30
0.0
 11
120.4848275573013
 21
-13.999999999999091
 31
0.0
  0
LINE
  5
F769B
  8
OBJECT
 10
109.5151724426978
 20
-5.9999999999990887
 30
0.0
 11
109.5151724426978
 21
-13.999999999999091
 31
0.0
  0
LINE
  5
F769E
  8
OBJECT
 10
125.9696551146026
 20
16.000000000000909
 30
0.0
 11
125.9696551146026
 21
6.0000000000009077
 31
0.0
  0
LINE
  5
F76A0
  8
OBJECT
 10
104.0303448853974
 20
6.0000000000009077
 30
0.0
 11
104.0303448853974
 21
16.000000000000909
 31
0.0
  0
LINE
  5
F76A1
  8
OBJECT
 10
104.0303448853974
 20
16.000000000000909
 30
0.0
 11
125.9696551146026
 21
16.000000000000909
 31
0.0
  0
LINE
  5
F76A2
  8
OBJECT
 10
120.4848275573013
 20
16.000000000000909
 30
0.0
 11
120.4848275573013
 21
6.0000000000009077
 31
0.0
  0
LINE
  5
F76A3
  8
OBJECT
 10
109.5151724426978
 20
16.000000000000909
 30
0.0
 11
109.5151724426978
 21
6.0000000000009077
 31
0.0
  0
LINE
  5
F76A8
  8
OBJECT
 10
879.0
 20
34.500000000000909
 30
0.0
 11
879.0
 21
15.500000000001821
 31
0.0
  0
LINE
  5
F76A9
  8
OBJECT
 10
879.0
 20
1.500000000001364
 30
0.0
 11
879.0
 21
-1.4999999999990901
 31
0.0
  0
LINE
  5
F76AA
  8
OBJECT
 10
891.0
 20
34.500000000000909
 30
0.0
 11
891.0
 21
15.500000000001361
 31
0.0
  0
LINE
  5
F76AB
  8
OBJECT
 10
891.0
 20
1.5000000000018181
 30
0.0
 11
891.0
 21
-1.4999999999990901
 31
0.0
  0
LINE
  5
F76AC
  8
OBJECT
 10
874.03034488539754
 20
-5.4999999999990887
 30
0.0
 11
874.03034488539754
 21
-13.499999999999091
 31
0.0
  0
LINE
  5
F76AD
  8
OBJECT
 10
874.03034488539754
 20
-13.499999999999091
 30
0.0
 11
895.96965511460235
 21
-13.499999999999091
 31
0.0
  0
LINE
  5
F76AE
  8
OBJECT
 10
895.96965511460235
 20
-13.499999999999091
 30
0.0
 11
895.96965511460235
 21
-5.4999999999990887
 31
0.0
  0
LINE
  5
F76B0
  8
OBJECT
 10
891.0
 20
34.500000000000909
 30
0.0
 11
879.0
 21
34.500000000000909
 31
0.0
  0
LINE
  5
F76B1
  8
OBJECT
 10
879.5151724426986
 20
-5.4999999999990887
 30
0.0
 11
879.5151724426986
 21
-13.499999999999091
 31
0.0
  0
LINE
  5
F76B2
  8
OBJECT
 10
890.48482755730117
 20
-5.4999999999990887
 30
0.0
 11
890.48482755730117
 21
-13.499999999999091
 31
0.0
  0
LINE
  5
F76B5
  8
OBJECT
 10
874.03034488539754
 20
15.500000000001361
 30
0.0
 11
874.03034488539754
 21
5.5000000000013642
 31
0.0
  0
LINE
  5
F76B7
  8
OBJECT
 10
895.96965511460235
 20
5.5000000000013642
 30
0.0
 11
895.96965511460235
 21
15.500000000001361
 31
0.0
  0
LINE
  5
F76B8
  8
OBJECT
 10
895.96965511460235
 20
15.500000000001361
 30
0.0
 11
874.03034488539754
 21
15.500000000001361
 31
0.0
  0
LINE
  5
F76B9
  8
OBJECT
 10
879.5151724426986
 20
15.500000000001361
 30
0.0
 11
879.5151724426986
 21
5.5000000000013642
 31
0.0
  0
LINE
  5
F76BA
  8
OBJECT
 10
890.48482755730117
 20
15.500000000001361
 30
0.0
 11
890.48482755730117
 21
5.5000000000013642
 31
0.0
  0
LINE
  5
F76C5
  8
OBJECT
 10
1121.0
 20
34.500000000000909
 30
0.0
 11
1121.0
 21
15.500000000001821
 31
0.0
  0
LINE
  5
F76C6
  8
OBJECT
 10
1121.0
 20
1.500000000001364
 30
0.0
 11
1121.0
 21
-1.4999999999990901
 31
0.0
  0
LINE
  5
F76C7
  8
OBJECT
 10
1109.0
 20
34.500000000000909
 30
0.0
 11
1109.0
 21
15.500000000001361
 31
0.0
  0
LINE
  5
F76C8
  8
OBJECT
 10
1109.0
 20
1.5000000000018181
 30
0.0
 11
1109.0
 21
-1.4999999999990901
 31
0.0
  0
LINE
  5
F76C9
  8
OBJECT
 10
1125.969655114603
 20
-5.4999999999990887
 30
0.0
 11
1125.969655114603
 21
-13.499999999999091
 31
0.0
  0
LINE
  5
F76CA
  8
OBJECT
 10
1125.969655114603
 20
-13.499999999999091
 30
0.0
 11
1104.030344885397
 21
-13.499999999999091
 31
0.0
  0
LINE
  5
F76CB
  8
OBJECT
 10
1104.030344885397
 20
-13.499999999999091
 30
0.0
 11
1104.030344885397
 21
-5.4999999999990887
 31
0.0
  0
LINE
  5
F76CD
  8
OBJECT
 10
1109.0
 20
34.500000000000909
 30
0.0
 11
1121.0
 21
34.500000000000909
 31
0.0
  0
LINE
  5
F76CE
  8
OBJECT
 10
1120.4848275573011
 20
-5.4999999999990887
 30
0.0
 11
1120.4848275573011
 21
-13.499999999999091
 31
0.0
  0
LINE
  5
F76CF
  8
OBJECT
 10
1109.5151724426989
 20
-5.4999999999990887
 30
0.0
 11
1109.5151724426989
 21
-13.499999999999091
 31
0.0
  0
LINE
  5
F76D2
  8
OBJECT
 10
1125.969655114603
 20
15.500000000001361
 30
0.0
 11
1125.969655114603
 21
5.5000000000013642
 31
0.0
  0
LINE
  5
F76D4
  8
OBJECT
 10
1104.030344885397
 20
5.5000000000013642
 30
0.0
 11
1104.030344885397
 21
15.500000000001361
 31
0.0
  0
LINE
  5
F76D5
  8
OBJECT
 10
1104.030344885397
 20
15.500000000001361
 30
0.0
 11
1125.969655114603
 21
15.500000000001361
 31
0.0
  0
LINE
  5
F76D6
  8
OBJECT
 10
1120.4848275573011
 20
15.500000000001361
 30
0.0
 11
1120.4848275573011
 21
5.5000000000013642
 31
0.0
  0
LINE
  5
F76D7
  8
OBJECT
 10
1109.5151724426989
 20
15.500000000001361
 30
0.0
 11
1109.5151724426989
 21
5.5000000000013642
 31
0.0
  0
ARC
  5
F87F9
  8
HIDDEN
 10
0.0
 20
0.0
 30
0.0
 40
88.499999999999901
 50
6.0000000000095373
 51
173.99999999999039
  0
ARC
  5
F87FA
  8
HIDDEN
 10
0.0
 20
0.0
 30
0.0
 40
92.999999999999901
 50
6.0000000000095373
 51
173.99999999999039
  0
ARC
  5
F8807
  8
HIDDEN
 10
1000.0
 20
0.0
 30
0.0
 40
92.499999999999872
 50
6.0000000000095373
 51
173.99999999999039
  0
ARC
  5
F8808
  8
HIDDEN
 10
1000.0
 20
0.0
 30
0.0
 40
88.500000000000128
 50
6.0000000000095373
 51
173.99999999999039
  0
LINE
  5
FC11A
  8
OBJECT
 10
-94.479580059984059
 20
9.9302040104430471
 30
0.0
 11
-85.031622053985743
 21
8.9371836093982893
 31
0.0
  0
LINE
  5
FC11B
  8
OBJECT
 10
85.031622053985743
 20
8.9371836093982893
 30
0.0
 11
94.479580059984059
 21
9.9302040104430471
 31
0.0
  0
ARC
  5
FC11C
  8
OBJECT
 10
0.0
 20
0.0
 30
0.0
 40
85.5
 50
186.00000000003541
 51
353.99999999996447
  0
ARC
  5
FC11D
  8
OBJECT
 10
0.0
 20
0.0
 30
0.0
 40
88.499999999999986
 50
353.99999999996447
 51
359.02883859102838
  0
ARC
  5
FC11E
  8
OBJECT
 10
0.0
 20
0.0
 30
0.0
 40
88.499999999999986
 50
180.9711614089716
 51
186.00000000003541
  0
ARC
  5
FC11F
  8
OBJECT
 10
0.0
 20
0.0
 30
0.0
 40
93.0
 50
353.99999999996447
 51
356.30092893683877
  0
ARC
  5
FC120
  8
OBJECT
 10
0.0
 20
0.0
 30
0.0
 40
93.0
 50
183.6990710631612
 51
186.00000000003541
  0
ARC
  5
FC121
  8
OBJECT
 10
0.0
 20
0.0
 30
0.0
 40
95.0
 50
186.00000000003541
 51
353.99999999996447
  0
ARC
  5
FC122
  8
HIDDEN
 10
0.0
 20
0.0
 30
0.0
 40
88.499999999999901
 50
186.00000000003541
 51
353.99999999996447
  0
ARC
  5
FC123
  8
HIDDEN
 10
0.0
 20
0.0
 30
0.0
 40
92.999999999999901
 50
186.00000000003541
 51
353.99999999996447
  0
LINE
  5
FC124
  8
OBJECT
 10
-94.479580059984059
 20
-9.9302040104430471
 30
0.0
 11
-85.031622053985743
 21
-8.9371836093982893
 31
0.0
  0
LINE
  5
FC125
  8
OBJECT
 10
85.031622053985743
 20
-8.9371836093982893
 30
0.0
 11
94.479580059984059
 21
-9.9302040104430471
 31
0.0
  0
LINE
  5
FC131
  8
OBJECT
 10
906.0176808876995
 20
9.8779397788089192
 30
0.0
 11
914.96837794601379
 21
8.9371836093982893
 31
0.0
  0
LINE
  5
FC132
  8
OBJECT
 10
1085.031622053986
 20
8.9371836093982893
 30
0.0
 11
1093.9823191123
 21
9.8779397788089192
 31
0.0
  0
ARC
  5
FC133
  8
OBJECT
 10
1000.0
 20
0.0
 30
0.0
 40
85.5
 50
186.00000000003541
 51
353.99999999996447
  0
ARC
  5
FC134
  8
OBJECT
 10
1000.0
 20
0.0
 30
0.0
 40
88.499999999999986
 50
353.99999999996447
 51
359.02883859102838
  0
ARC
  5
FC135
  8
OBJECT
 10
1000.0
 20
0.0
 30
0.0
 40
88.499999999999986
 50
180.9711614089716
 51
186.00000000003541
  0
ARC
  5
FC136
  8
OBJECT
 10
1000.0
 20
0.0
 30
0.0
 40
92.5
 50
353.99999999996447
 51
356.59121331890771
  0
ARC
  5
FC137
  8
OBJECT
 10
1000.0
 20
0.0
 30
0.0
 40
92.5
 50
183.40878668109221
 51
186.00000000003541
  0
ARC
  5
FC138
  8
OBJECT
 10
1000.0
 20
0.0
 30
0.0
 40
94.500000000000014
 50
186.00000000003541
 51
353.99999999996447
  0
ARC
  5
FC139
  8
HIDDEN
 10
1000.0
 20
0.0
 30
0.0
 40
88.500000000000128
 50
186.00000000003541
 51
353.99999999996447
  0
ARC
  5
FC13A
  8
HIDDEN
 10
1000.0
 20
0.0
 30
0.0
 40
92.499999999999872
 50
186.00000000003541
 51
353.99999999996447
  0
LINE
  5
FC13B
  8
OBJECT
 10
906.0176808876995
 20
-9.8779397788089192
 30
0.0
 11
914.96837794601379
 21
-8.9371836093982893
 31
0.0
  0
LINE
  5
FC13C
  8
OBJECT
 10
1085.031622053986
 20
-8.9371836093982893
 30
0.0
 11
1093.9823191123
 21
-9.8779397788089192
 31
0.0
  0
LINE
  5
FC146
  8
HIDDEN
 10
-173.5
 20
-231.0
 30
0.0
 11
-173.5
 21
-269.0
 31
0.0
  0
LINE
  5
FC147
  8
HIDDEN
 10
-156.5
 20
-231.0
 30
0.0
 11
-156.5
 21
-269.0
 31
0.0
  0
LINE
  5
FC148
  8
HIDDEN
 10
-85.5
 20
-272.0
 30
0.0
 11
-85.5
 21
-228.0
 31
0.0
  0
LINE
  5
FC149
  8
HIDDEN
 10
85.5
 20
-272.0
 30
0.0
 11
85.5
 21
-228.0
 31
0.0
  0
LINE
  5
FC14A
  8
HIDDEN
 10
156.5
 20
-231.0
 30
0.0
 11
156.5
 21
-269.0
 31
0.0
  0
LINE
  5
FC14B
  8
HIDDEN
 10
173.5
 20
-231.0
 30
0.0
 11
173.5
 21
-269.0
 31
0.0
  0
LINE
  5
FC151
  8
HIDDEN
 10
826.5
 20
-231.0
 30
0.0
 11
826.5
 21
-269.0
 31
0.0
  0
LINE
  5
FC152
  8
HIDDEN
 10
843.5
 20
-231.0
 30
0.0
 11
843.5
 21
-269.0
 31
0.0
  0
LINE
  5
FC153
  8
HIDDEN
 10
914.49999999999989
 20
-272.0
 30
0.0
 11
914.49999999999989
 21
-228.0
 31
0.0
  0
LINE
  5
FC154
  8
HIDDEN
 10
1085.5
 20
-272.0
 30
0.0
 11
1085.5
 21
-228.0
 31
0.0
  0
LINE
  5
FC155
  8
HIDDEN
 10
1156.5
 20
-231.0
 30
0.0
 11
1156.5
 21
-269.0
 31
0.0
  0
LINE
  5
FC156
  8
HIDDEN
 10
1173.5
 20
-231.0
 30
0.0
 11
1173.5
 21
-269.0
 31
0.0
  0
LINE
  5
FC167
  8
CENTER
 10
-165.0
 20
-28.0
 30
0.0
 11
-165.0
 21
28.0
 31
0.0
  0
LINE
  5
FC168
  8
CENTER
 10
165.0
 20
-28.0
 30
0.0
 11
165.0
 21
28.0
 31
0.0
  0
LINE
  5
FC169
  8
CENTER
 10
835.0
 20
-27.5
 30
0.0
 11
835.0
 21
27.5
 31
0.0
  0
LINE
  5
FC16A
  8
CENTER
 10
1165.0
 20
-27.5
 30
0.0
 11
1165.0
 21
27.5
 31
0.0
  0
LINE
  5
FF5BC
  8
CENTER
 10
-165.0000000000004
 20
-216.0
 30
0.0
 11
-165.0000000000004
 21
-284.0
 31
0.0
  0
LINE
  5
FF5C4
  8
CENTER
 10
165.0
 20
-216.0
 30
0.0
 11
165.0
 21
-284.0
 31
0.0
  0
LINE
  5
FF5C5
  8
CENTER
 10
835.0
 20
-216.0
 30
0.0
 11
835.0
 21
-284.0
 31
0.0
  0
LINE
  5
FF5C6
  8
CENTER
 10
1165.0
 20
-216.0
 30
0.0
 11
1165.0
 21
-284.0
 31
0.0
  0
TEXT
  5
FF5D9
  8
SLIM
 10
-158.64285714285711
 20
-422.69999999999982
 30
0.0
 40
20.0
  1
5HF／コンパクト5Lベンド用、ゴム付
 41
0.75
 72
     4
 11
0.0
 21
-412.69999999999982
 31
0.0
  0
TEXT
  5
FF5DA
  8
SLIM
 10
-78.5
 20
-457.69999999999987
 30
0.0
 40
20.0
  1
（鋼、電気めっき）
 41
0.75
 72
     4
 11
0.0
 21
-447.69999999999982
 31
0.0
  0
TEXT
  5
FF5E2
  8
SLIM
 10
841.35714285714278
 20
-422.69999999999982
 30
0.0
 40
20.0
  1
5HF／コンパクト5Lベンド用、ゴム付
 41
0.75
 72
     4
 11
1000.0
 21
-412.69999999999982
 31
0.0
  0
TEXT
  5
FF5E3
  8
SLIM
 10
940.92857142857133
 20
-457.69999999999987
 30
0.0
 40
20.0
  1
（SUS304）
 41
0.75
 72
     4
 11
1000.0
 21
-447.69999999999982
 31
0.0
  0
VIEWPORT
  5
FFECF
 67
     1
  8
0
 10
143.60523986816401
 20
100.10775232315061
 30
0.0
 40
407.30664751466441
 41
222.19657968139651
 68
     1
 69
     1
1001
ACAD
1000
MVIEW
1002
{
1070
    16
1010
0.0
1020
0.0
1030
0.0
1010
0.0
1020
0.0
1030
1.0
1040
0.0
1040
222.19657968139651
1040
143.60523986816401
1040
100.10775232315061
1040
50.0
1040
0.0
1040
0.0
1070
     0
1070
     0
1070
     1
1070
     1
1070
     0
1070
     0
1070
     0
1070
     0
1040
0.0
1040
0.0
1040
0.0
1040
10.0
1040
10.0
1040
10.0
1040
10.0
1070
     0
1002
{
1002
}
1002
}
  0
VIEWPORT
  5
FFED3
 67
     1
  8
OBJECT
 10
143.6052539348602
 20
100.1077511310577
 30
0.0
 40
229.76840629577629
 41
160.1724018096923
 68
     2
 69
     2
1001
ACAD
1000
MVIEW
1002
{
1070
    16
1010
0.0
1020
0.0
1030
0.0
1010
0.0
1020
0.0
1030
1.0
1040
0.0
1040
4933.1359306726754
1040
2475.3377741515901
1040
-4820.6129266796397
1040
50.0
1040
0.0
1040
0.0
1070
     0
1070
   600
1070
     1
1070
     1
1070
     0
1070
     0
1070
     0
1070
     1
1040
0.0
1040
0.0
1040
0.0
1040
1.0
1040
1.0
1040
0.0
1040
0.0
1070
     0
1002
{
1002
}
1002
}
  0
ENDSEC
  0
EOF
