  0
SECTION
  2
HEADER
  9
$ACADVER
  1
AC1009
  9
$INSBASE
 10
0.0
 20
0.0
 30
0.0
  9
$EXTMIN
 10
-1049.5
 20
-1142.2419130000001
 30
0.0
  9
$EXTMAX
 10
2099.5
 20
1484.5
 30
0.0
  9
$LIMMIN
 10
0.0
 20
0.0
  9
$LIMMAX
 10
2100.0
 20
1485.0
  9
$ORTHOMODE
 70
     0
  9
$REGENMODE
 70
     1
  9
$FILLMODE
 70
     1
  9
$QTEXTMODE
 70
     0
  9
$MIRRTEXT
 70
     0
  9
$DRAGMODE
 70
     2
  9
$LTSCALE
 40
1.0
  9
$OSMODE
 70
   125
  9
$ATTMODE
 70
     1
  9
$TEXTSIZE
 40
0.2
  9
$TRACEWID
 40
0.05
  9
$TEXTSTYLE
  7
KANJI
  9
$CLAYER
  8
0
  9
$CELTYPE
  6
BYLAYER
  9
$CECOLOR
 62
   256
  9
$DIMSCALE
 40
1.0
  9
$DIMASZ
 40
22.5
  9
$DIMEXO
 40
5.0
  9
$DIMDLI
 40
40.0
  9
$DIMRND
 40
0.0
  9
$DIMDLE
 40
0.0
  9
$DIMEXE
 40
5.0
  9
$DIMTP
 40
0.0
  9
$DIMTM
 40
0.0
  9
$DIMTXT
 40
16.0
  9
$DIMCEN
 40
0.09
  9
$DIMTSZ
 40
0.0
  9
$DIMTOL
 70
     0
  9
$DIMLIM
 70
     0
  9
$DIMTIH
 70
     0
  9
$DIMTOH
 70
     0
  9
$DIMSE1
 70
     0
  9
$DIMSE2
 70
     0
  9
$DIMTAD
 70
     1
  9
$DIMZIN
 70
     0
  9
$DIMBLK
  1

  9
$DIMASO
 70
     1
  9
$DIMSHO
 70
     0
  9
$DIMPOST
  1

  9
$DIMAPOST
  1

  9
$DIMALT
 70
     0
  9
$DIMALTD
 70
     2
  9
$DIMALTF
 40
25.399999999999999
  9
$DIMLFAC
 40
1.0
  9
$DIMTOFL
 70
     0
  9
$DIMTVP
 40
0.0
  9
$DIMTIX
 70
     0
  9
$DIMSOXD
 70
     0
  9
$DIMSAH
 70
     0
  9
$DIMBLK1
  1

  9
$DIMBLK2
  1

  9
$DIMSTYLE
  2
STANDARD
  9
$DIMCLRD
 70
     0
  9
$DIMCLRE
 70
     0
  9
$DIMCLRT
 70
     0
  9
$DIMTFAC
 40
1.0
  9
$DIMGAP
 40
0.09
  9
$LUNITS
 70
     2
  9
$LUPREC
 70
     2
  9
$SKETCHINC
 40
0.1
  9
$FILLETRAD
 40
0.0
  9
$AUNITS
 70
     1
  9
$AUPREC
 70
     2
  9
$MENU
  1
ACAD
  9
$ELEVATION
 40
0.0
  9
$PELEVATION
 40
0.0
  9
$THICKNESS
 40
0.0
  9
$LIMCHECK
 70
     0
  9
$BLIPMODE
 70
     0
  9
$CHAMFERA
 40
0.0
  9
$CHAMFERB
 40
0.0
  9
$SKPOLY
 70
     0
  9
$TDCREATE
 40
2457134.7240705099
  9
$TDUPDATE
 40
2457134.741487639
  9
$TDINDWG
 40
0.0174192477
  9
$TDUSRTIMER
 40
0.0174192477
  9
$USRTIMER
 70
     1
  9
$ANGBASE
 50
0.0
  9
$ANGDIR
 70
     0
  9
$PDMODE
 70
     0
  9
$PDSIZE
 40
0.0
  9
$PLINEWID
 40
0.0
  9
$COORDS
 70
     1
  9
$SPLFRAME
 70
     0
  9
$SPLINETYPE
 70
     6
  9
$SPLINESEGS
 70
     8
  9
$ATTDIA
 70
     1
  9
$ATTREQ
 70
     1
  9
$HANDLING
 70
     1
  9
$HANDSEED
  5
32F
  9
$SURFTAB1
 70
     6
  9
$SURFTAB2
 70
     6
  9
$SURFTYPE
 70
     6
  9
$SURFU
 70
     6
  9
$SURFV
 70
     6
  9
$UCSNAME
  2

  9
$UCSORG
 10
0.0
 20
0.0
 30
0.0
  9
$UCSXDIR
 10
1.0
 20
0.0
 30
0.0
  9
$UCSYDIR
 10
0.0
 20
1.0
 30
0.0
  9
$PUCSNAME
  2

  9
$PUCSORG
 10
0.0
 20
0.0
 30
0.0
  9
$PUCSXDIR
 10
1.0
 20
0.0
 30
0.0
  9
$PUCSYDIR
 10
0.0
 20
1.0
 30
0.0
  9
$USERI1
 70
     0
  9
$USERI2
 70
     0
  9
$USERI3
 70
     0
  9
$USERI4
 70
     0
  9
$USERI5
 70
     0
  9
$USERR1
 40
0.0
  9
$USERR2
 40
0.0
  9
$USERR3
 40
0.0
  9
$USERR4
 40
0.0
  9
$USERR5
 40
0.0
  9
$WORLDVIEW
 70
     1
  9
$SHADEDGE
 70
     3
  9
$SHADEDIF
 70
    70
  9
$TILEMODE
 70
     1
  9
$MAXACTVP
 70
    64
  9
$PLIMCHECK
 70
     0
  9
$PEXTMIN
 10
1.0000000000000000E+020
 20
1.0000000000000000E+020
 30
1.0000000000000000E+020
  9
$PEXTMAX
 10
-1.0000000000000000E+020
 20
-1.0000000000000000E+020
 30
-1.0000000000000000E+020
  9
$PLIMMIN
 10
0.0
 20
0.0
  9
$PLIMMAX
 10
12.0
 20
9.0
  9
$UNITMODE
 70
     0
  9
$VISRETAIN
 70
     1
  9
$PLINEGEN
 70
     0
  9
$PSLTSCALE
 70
     1
  0
ENDSEC
  0
SECTION
  2
TABLES
  0
TABLE
  2
VPORT
 70
     1
  0
VPORT
  2
*ACTIVE
 70
     0
 10
0.0
 20
0.0
 11
1.0
 21
1.0
 12
177.27503098742221
 22
-256.16051745857641
 13
0.0
 23
0.0
 14
1.0
 24
1.0
 15
0.0
 25
0.0
 16
0.0
 26
0.0
 36
1.0
 17
0.0
 27
0.0
 37
0.0
 40
1917.5553243205561
 41
1.8188302425106979
 42
50.0
 43
0.0
 44
0.0
 50
0.0
 51
0.0
 71
     0
 72
   100
 73
     1
 74
     1
 75
     0
 76
     0
 77
     0
 78
     0
  0
ENDTAB
  0
TABLE
  2
LTYPE
 70
     9
  0
LTYPE
  2
CONTINUOUS
 70
     0
  3
Solid line
 72
    65
 73
     0
 40
0.0
  0
LTYPE
  2
DASHED
 70
     0
  3
__ __ __ __ __ __ __ __ __ __ __ __ __ __ __
 72
    65
 73
     2
 40
0.75
 49
0.5
 49
-0.25
  0
LTYPE
  2
HIDDEN
 70
     0
  3
_ _ _ _ _ _ _ _ _ _ _ _ _ _ _ _ _ _ _ _ _ _ _
 72
    65
 73
     2
 40
0.375
 49
0.25
 49
-0.125
  0
LTYPE
  2
CENTER
 70
     0
  3
____ _ ____ _ ____ _ ____ _ ____ _ ____ _ ____
 72
    65
 73
     4
 40
2.0
 49
1.25
 49
-0.25
 49
0.25
 49
-0.25
  0
LTYPE
  2
PHANTOM
 70
     0
  3
_____ _ _ _____ _ _ _____ _ _ _____ _ _ ____
 72
    65
 73
     6
 40
2.5
 49
1.25
 49
-0.25
 49
0.25
 49
-0.25
 49
0.25
 49
-0.25
  0
LTYPE
  2
DOT
 70
     0
  3
...............................................
 72
    65
 73
     2
 40
0.25
 49
0.0
 49
-0.25
  0
LTYPE
  2
DASHDOT
 70
     0
  3
__ . __ . __ . __ . __ . __ . __ . __ . __ . __
 72
    65
 73
     4
 40
1.0
 49
0.5
 49
-0.25
 49
0.0
 49
-0.25
  0
LTYPE
  2
BORDER
 70
     0
  3
__ __ . __ __ . __ __ . __ __ . __ __ . __ __
 72
    65
 73
     6
 40
1.75
 49
0.5
 49
-0.25
 49
0.5
 49
-0.25
 49
0.0
 49
-0.25
  0
LTYPE
  2
DIVIDE
 70
     0
  3
__ . . __ . . __ . . __ . . __ . . __ . . __
 72
    65
 73
     6
 40
1.25
 49
0.5
 49
-0.25
 49
0.0
 49
-0.25
 49
0.0
 49
-0.25
  0
ENDTAB
  0
TABLE
  2
LAYER
 70
   100
  0
LAYER
  2
0
 70
     0
 62
     3
  6
CONTINUOUS
  0
LAYER
  2
1
 70
     0
 62
     3
  6
CONTINUOUS
  0
LAYER
  2
2
 70
     0
 62
     3
  6
CONTINUOUS
  0
LAYER
  2
3
 70
     0
 62
     3
  6
CONTINUOUS
  0
LAYER
  2
4
 70
     0
 62
     3
  6
CONTINUOUS
  0
LAYER
  2
5
 70
     0
 62
     3
  6
CONTINUOUS
  0
LAYER
  2
6
 70
     0
 62
     3
  6
CONTINUOUS
  0
LAYER
  2
7
 70
     0
 62
     3
  6
CONTINUOUS
  0
LAYER
  2
8
 70
     0
 62
     3
  6
CONTINUOUS
  0
LAYER
  2
9
 70
     0
 62
     3
  6
CONTINUOUS
  0
LAYER
  2
10
 70
     0
 62
     3
  6
CONTINUOUS
  0
LAYER
  2
11
 70
     0
 62
     3
  6
CONTINUOUS
  0
LAYER
  2
12
 70
     0
 62
     3
  6
CONTINUOUS
  0
LAYER
  2
13
 70
     0
 62
     3
  6
CONTINUOUS
  0
LAYER
  2
14
 70
     0
 62
     3
  6
CONTINUOUS
  0
LAYER
  2
15
 70
     0
 62
     3
  6
CONTINUOUS
  0
LAYER
  2
16
 70
     0
 62
     3
  6
CONTINUOUS
  0
LAYER
  2
17
 70
     0
 62
     3
  6
CONTINUOUS
  0
LAYER
  2
18
 70
     0
 62
     3
  6
CONTINUOUS
  0
LAYER
  2
19
 70
     0
 62
     3
  6
CONTINUOUS
  0
LAYER
  2
20
 70
     0
 62
     3
  6
CONTINUOUS
  0
LAYER
  2
21
 70
     0
 62
     3
  6
CONTINUOUS
  0
LAYER
  2
22
 70
     0
 62
     3
  6
CONTINUOUS
  0
LAYER
  2
23
 70
     0
 62
     3
  6
CONTINUOUS
  0
LAYER
  2
24
 70
     0
 62
     3
  6
CONTINUOUS
  0
LAYER
  2
25
 70
     0
 62
     3
  6
CONTINUOUS
  0
LAYER
  2
26
 70
     0
 62
     3
  6
CONTINUOUS
  0
LAYER
  2
27
 70
     0
 62
     3
  6
CONTINUOUS
  0
LAYER
  2
28
 70
     0
 62
     3
  6
CONTINUOUS
  0
LAYER
  2
29
 70
     0
 62
     3
  6
CONTINUOUS
  0
LAYER
  2
30
 70
     0
 62
     3
  6
CONTINUOUS
  0
LAYER
  2
31
 70
     0
 62
     3
  6
CONTINUOUS
  0
LAYER
  2
32
 70
     0
 62
     3
  6
CONTINUOUS
  0
LAYER
  2
33
 70
     0
 62
     3
  6
CONTINUOUS
  0
LAYER
  2
34
 70
     0
 62
     3
  6
CONTINUOUS
  0
LAYER
  2
35
 70
     0
 62
     3
  6
CONTINUOUS
  0
LAYER
  2
36
 70
     0
 62
     3
  6
CONTINUOUS
  0
LAYER
  2
37
 70
     0
 62
     3
  6
CONTINUOUS
  0
LAYER
  2
38
 70
     0
 62
     3
  6
CONTINUOUS
  0
LAYER
  2
39
 70
     0
 62
     3
  6
CONTINUOUS
  0
LAYER
  2
40
 70
     0
 62
     3
  6
CONTINUOUS
  0
LAYER
  2
41
 70
     0
 62
     3
  6
CONTINUOUS
  0
LAYER
  2
42
 70
     0
 62
     3
  6
CONTINUOUS
  0
LAYER
  2
43
 70
     0
 62
     3
  6
CONTINUOUS
  0
LAYER
  2
44
 70
     0
 62
     3
  6
CONTINUOUS
  0
LAYER
  2
45
 70
     0
 62
     3
  6
CONTINUOUS
  0
LAYER
  2
46
 70
     0
 62
     3
  6
CONTINUOUS
  0
LAYER
  2
47
 70
     0
 62
     3
  6
CONTINUOUS
  0
LAYER
  2
48
 70
     0
 62
     3
  6
CONTINUOUS
  0
LAYER
  2
49
 70
     0
 62
     3
  6
CONTINUOUS
  0
LAYER
  2
50
 70
     0
 62
     3
  6
CONTINUOUS
  0
LAYER
  2
51
 70
     0
 62
     3
  6
CONTINUOUS
  0
LAYER
  2
52
 70
     0
 62
     3
  6
CONTINUOUS
  0
LAYER
  2
53
 70
     0
 62
     3
  6
CONTINUOUS
  0
LAYER
  2
54
 70
     0
 62
     3
  6
CONTINUOUS
  0
LAYER
  2
55
 70
     0
 62
     3
  6
CONTINUOUS
  0
LAYER
  2
56
 70
     0
 62
     3
  6
CONTINUOUS
  0
LAYER
  2
57
 70
     0
 62
     3
  6
CONTINUOUS
  0
LAYER
  2
58
 70
     0
 62
     3
  6
CONTINUOUS
  0
LAYER
  2
59
 70
     0
 62
     3
  6
CONTINUOUS
  0
LAYER
  2
60
 70
     0
 62
     3
  6
CONTINUOUS
  0
LAYER
  2
61
 70
     0
 62
     3
  6
CONTINUOUS
  0
LAYER
  2
62
 70
     0
 62
     3
  6
CONTINUOUS
  0
LAYER
  2
63
 70
     0
 62
     3
  6
CONTINUOUS
  0
LAYER
  2
64
 70
     0
 62
     3
  6
CONTINUOUS
  0
LAYER
  2
65
 70
     0
 62
     3
  6
CONTINUOUS
  0
LAYER
  2
66
 70
     0
 62
     3
  6
CONTINUOUS
  0
LAYER
  2
67
 70
     0
 62
     3
  6
CONTINUOUS
  0
LAYER
  2
68
 70
     0
 62
     3
  6
CONTINUOUS
  0
LAYER
  2
69
 70
     0
 62
     3
  6
CONTINUOUS
  0
LAYER
  2
70
 70
     0
 62
     3
  6
CONTINUOUS
  0
LAYER
  2
71
 70
     0
 62
     3
  6
CONTINUOUS
  0
LAYER
  2
72
 70
     0
 62
     3
  6
CONTINUOUS
  0
LAYER
  2
73
 70
     0
 62
     3
  6
CONTINUOUS
  0
LAYER
  2
74
 70
     0
 62
     3
  6
CONTINUOUS
  0
LAYER
  2
75
 70
     0
 62
     3
  6
CONTINUOUS
  0
LAYER
  2
76
 70
     0
 62
     3
  6
CONTINUOUS
  0
LAYER
  2
77
 70
     0
 62
     3
  6
CONTINUOUS
  0
LAYER
  2
78
 70
     0
 62
     3
  6
CONTINUOUS
  0
LAYER
  2
79
 70
     0
 62
     3
  6
CONTINUOUS
  0
LAYER
  2
80
 70
     0
 62
     3
  6
CONTINUOUS
  0
LAYER
  2
81
 70
     0
 62
     3
  6
CONTINUOUS
  0
LAYER
  2
82
 70
     0
 62
     3
  6
CONTINUOUS
  0
LAYER
  2
83
 70
     0
 62
     3
  6
CONTINUOUS
  0
LAYER
  2
84
 70
     0
 62
     3
  6
CONTINUOUS
  0
LAYER
  2
85
 70
     0
 62
     3
  6
CONTINUOUS
  0
LAYER
  2
86
 70
     0
 62
     3
  6
CONTINUOUS
  0
LAYER
  2
87
 70
     0
 62
     3
  6
CONTINUOUS
  0
LAYER
  2
88
 70
     0
 62
     3
  6
CONTINUOUS
  0
LAYER
  2
89
 70
     0
 62
     3
  6
CONTINUOUS
  0
LAYER
  2
90
 70
     0
 62
     3
  6
CONTINUOUS
  0
LAYER
  2
91
 70
     0
 62
     3
  6
CONTINUOUS
  0
LAYER
  2
92
 70
     0
 62
     3
  6
CONTINUOUS
  0
LAYER
  2
93
 70
     0
 62
     3
  6
CONTINUOUS
  0
LAYER
  2
94
 70
     0
 62
     3
  6
CONTINUOUS
  0
LAYER
  2
95
 70
     0
 62
     3
  6
CONTINUOUS
  0
LAYER
  2
96
 70
     0
 62
     3
  6
CONTINUOUS
  0
LAYER
  2
97
 70
     0
 62
     3
  6
CONTINUOUS
  0
LAYER
  2
98
 70
     0
 62
     3
  6
CONTINUOUS
  0
LAYER
  2
99
 70
     0
 62
     3
  6
CONTINUOUS
  0
ENDTAB
  0
TABLE
  2
STYLE
 70
     3
  0
STYLE
  2
STANDARD
 70
     0
 40
0.0
 41
1.0
 50
0.0
 71
     0
 42
0.2
  3
TXT
  4
BIGFONT
  0
STYLE
  2
ANNOTATIVE
 70
     0
 40
0.0
 41
1.0
 50
0.0
 71
     0
 42
0.2
  3
txt
  4

  0
STYLE
  2
KANJI
 70
     0
 40
4.5
 41
1.0
 50
0.0
 71
     0
 42
0.2
  3
TXT
  4
BIGFONT
  0
ENDTAB
  0
TABLE
  2
VIEW
 70
     0
  0
ENDTAB
  0
TABLE
  2
UCS
 70
     0
  0
ENDTAB
  0
TABLE
  2
APPID
 70
     4
  0
APPID
  2
ACAD
 70
     0
  0
APPID
  2
ACADANNOTATIVE
 70
     0
  0
APPID
  2
ACAD_NAV_VCDISPLAY
 70
     0
  0
APPID
  2
ACAD_MLEADERVER
 70
     0
  0
ENDTAB
  0
TABLE
  2
DIMSTYLE
 70
     2
  0
DIMSTYLE
  2
STANDARD
 70
     0
  3

  4

  5

  6

  7

 40
1.0
 41
0.18
 42
0.0625
 43
0.38
 44
0.18
 45
0.0
 46
0.0
 47
0.0
 48
0.0
140
0.18
141
0.09
142
0.0
143
25.399999999999999
144
1.0
145
0.0
146
1.0
147
0.09
 71
     0
 72
     0
 73
     1
 74
     1
 75
     0
 76
     0
 77
     0
 78
     0
170
     0
171
     2
172
     0
173
     0
174
     0
175
     0
176
     0
177
     0
178
     0
  0
DIMSTYLE
  2
ANNOTATIVE
 70
     0
  3

  4

  5

  6

  7

 40
1.0
 41
0.18
 42
0.0625
 43
0.38
 44
0.18
 45
0.0
 46
0.0
 47
0.0
 48
0.0
140
0.18
141
0.09
142
0.0
143
25.399999999999999
144
1.0
145
0.0
146
1.0
147
0.09
 71
     0
 72
     0
 73
     1
 74
     1
 75
     0
 76
     0
 77
     0
 78
     0
170
     0
171
     2
172
     0
173
     0
174
     0
175
     0
176
     0
177
     0
178
     0
  0
ENDTAB
  0
ENDSEC
  0
SECTION
  2
BLOCKS
  0
BLOCK
  8
0
  2
$MODEL_SPACE
 70
     0
 10
0.0
 20
0.0
 30
0.0
  3
$MODEL_SPACE
  1

  0
ENDBLK
  5
71
  8
0
  0
BLOCK
 67
     1
  8
0
  2
$PAPER_SPACE
 70
     0
 10
0.0
 20
0.0
 30
0.0
  3
$PAPER_SPACE
  1

  0
ENDBLK
  5
6D
 67
     1
  8
0
  0
BLOCK
  8
0
  2
D0
 70
     0
 10
0.0
 20
0.0
 30
0.0
  3
D0
  1

  0
TEXT
  5
E4
  8
0
 62
     7
 10
1290.6003619999999
 20
674.82651299999998
 30
0.0
 40
16.0
  1
150
 50
90.0
 41
0.8076923076923078
 72
     5
 11
1290.6003619999999
 21
702.82651299999998
 31
0.0
  0
LINE
  5
E5
  8
0
  6
CONTINUOUS
 62
     7
 10
1228.2251289999999
 20
613.82651299999986
 30
0.0
 11
1298.2670290000001
 21
613.82651299999986
 31
0.0
  0
LINE
  5
E6
  8
0
  6
CONTINUOUS
 62
     7
 10
1228.2251289999999
 20
763.82651299999986
 30
0.0
 11
1298.2670290000001
 21
763.82651299999986
 31
0.0
  0
LINE
  5
E7
  8
0
  6
CONTINUOUS
 62
     7
 10
1293.2670290000001
 20
763.82651299999986
 30
0.0
 11
1293.2670290000001
 21
613.82651299999986
 31
0.0
  0
LINE
  5
E8
  8
0
  6
CONTINUOUS
 62
     7
 10
1293.2670290000001
 20
763.82651299999986
 30
0.0
 11
1299.0904579999999
 21
742.09318199999996
 31
0.0
  0
LINE
  5
E9
  8
0
  6
CONTINUOUS
 62
     7
 10
1293.2670290000001
 20
763.82651299999986
 30
0.0
 11
1287.4436000000001
 21
742.09318199999996
 31
0.0
  0
LINE
  5
EA
  8
0
  6
CONTINUOUS
 62
     7
 10
1293.2670290000001
 20
613.82651299999986
 30
0.0
 11
1287.4436000000001
 21
635.559844
 31
0.0
  0
LINE
  5
EB
  8
0
  6
CONTINUOUS
 62
     7
 10
1293.2670290000001
 20
613.82651299999986
 30
0.0
 11
1299.0904579999999
 21
635.559844
 31
0.0
  0
ENDBLK
  5
EC
  8
0
  0
ENDSEC
  0
SECTION
  2
ENTITIES
  0
TEXT
  5
ED
  8
0
 62
     6
 10
375.55984699999999
 20
-764.53553799999997
 30
0.0
 40
22.5
  1
メカニカル形（Ｓ＝１／５）
 41
0.75
  7
KANJI
 72
     5
 11
625.30984699999999
 21
-764.53553799999997
 31
0.0
  0
TEXT
  5
EE
  8
0
 62
     6
 10
400.55984699999988
 20
-802.86887100000001
 30
0.0
 40
22.5
  1
\U+03C6２５０　Ｓ
 41
0.8398692810457517
  7
KANJI
 72
     5
 11
529.05984699999988
 21
-802.86887100000001
 31
0.0
  0
POINT
  5
EF
  8
0
 62
     1
 10
-1049.5
 20
-1142.2419130000001
 30
0.0
  0
LINE
  5
F0
  8
0
  6
CONTINUOUS
 62
     3
 10
-136.3101429999999
 20
-493.91540000000009
 30
0.0
 11
-167.666303
 21
-493.91540000000009
 31
0.0
  0
LINE
  5
F1
  8
0
  6
CONTINUOUS
 62
     2
 10
-8.0017300000001796
 20
-534.91540000000009
 30
0.0
 11
-143.98971399999999
 21
-534.91540000000009
 31
0.0
  0
LINE
  5
F2
  8
0
  6
CONTINUOUS
 62
     3
 10
136.3101429999999
 20
-493.91540000000009
 30
0.0
 11
167.666303
 21
-493.91540000000009
 31
0.0
  0
ARC
  5
F3
  8
0
  6
CONTINUOUS
 62
     3
 10
141.59899300000001
 20
-571.78466200000014
 30
0.0
 40
6.1334519999999992
 50
235.6305390000017
 51
304.36946099999818
  0
ARC
  5
F4
  8
0
  6
CONTINUOUS
 62
     3
 10
151.98649299999991
 20
-554.93227599999989
 30
0.0
 40
22.983124
 50
252.46381699999969
 51
287.53618399999709
  0
ARC
  5
F5
  8
0
  6
CONTINUOUS
 62
     3
 10
162.3739929999999
 20
-571.78466200000014
 30
0.0
 40
6.1334519999999992
 50
235.6305390000017
 51
304.36946099999818
  0
LINE
  5
F6
  8
0
  6
CONTINUOUS
 62
     3
 10
138.13649299999989
 20
-564.91540000000009
 30
0.0
 11
138.13649299999989
 21
-576.84730200000001
 31
0.0
  0
LINE
  5
F7
  8
0
  6
CONTINUOUS
 62
     3
 10
145.0614929999999
 20
-564.91540000000009
 30
0.0
 11
145.0614929999999
 21
-576.84730200000001
 31
0.0
  0
POINT
  5
F8
  8
0
 62
     3
 10
151.98649299999991
 20
-564.91540000000009
 30
0.0
  0
LINE
  5
F9
  8
0
  6
CONTINUOUS
 62
     3
 10
162.55642499999999
 20
-577.91540000000009
 30
0.0
 11
141.7814249999999
 21
-577.91540000000009
 31
0.0
  0
LINE
  5
FA
  8
0
  6
CONTINUOUS
 62
     3
 10
165.83649299999999
 20
-564.91540000000009
 30
0.0
 11
165.83649299999999
 21
-576.84730200000001
 31
0.0
  0
LINE
  5
FB
  8
0
  6
CONTINUOUS
 62
     3
 10
158.91149300000001
 20
-564.91540000000009
 30
0.0
 11
158.91149300000001
 21
-576.84730200000001
 31
0.0
  0
LINE
  5
FC
  8
0
  6
CONTINUOUS
 62
     3
 10
143.9864929999998
 20
-543.91540000000009
 30
0.0
 11
143.9864929999998
 21
-528.91539999999998
 31
0.0
  0
LINE
  5
FD
  8
0
  6
CONTINUOUS
 62
     3
 10
159.98649299999991
 20
-543.91540000000009
 30
0.0
 11
159.98649299999991
 21
-528.91539999999998
 31
0.0
  0
LINE
  5
FE
  8
0
  6
CONTINUOUS
 62
     3
 10
159.98649299999991
 20
-580.91540000000009
 30
0.0
 11
159.98649299999991
 21
-577.91540000000009
 31
0.0
  0
LINE
  5
FF
  8
0
  6
CONTINUOUS
 62
     3
 10
158.9039929999999
 20
-580.91540000000009
 30
0.0
 11
158.9039929999999
 21
-577.91540000000009
 31
0.0
  0
LINE
  5
100
  8
0
  6
CONTINUOUS
 62
     3
 10
145.06899299999981
 20
-580.91540000000009
 30
0.0
 11
145.06899299999981
 21
-577.91540000000009
 31
0.0
  0
LINE
  5
101
  8
0
  6
CONTINUOUS
 62
     3
 10
143.9864929999998
 20
-580.91540000000009
 30
0.0
 11
143.9864929999998
 21
-577.91540000000009
 31
0.0
  0
ARC
  5
102
  8
0
  6
CONTINUOUS
 62
     3
 10
151.98649299999991
 20
-565.91539999999998
 30
0.0
 40
17.0
 50
241.9275129999925
 51
298.07248700000753
  0
LINE
  5
103
  8
0
  6
CONTINUOUS
 62
     3
 10
159.98649299999991
 20
-580.91540000000009
 30
0.0
 11
143.9864929999998
 21
-580.91540000000009
 31
0.0
  0
LINE
  5
104
  8
0
  6
CONTINUOUS
 62
     3
 10
-136.3101429999999
 20
-507.91539999999998
 30
0.0
 11
-136.3101429999999
 21
-493.91540000000009
 31
0.0
  0
LINE
  5
105
  8
0
  6
CONTINUOUS
 62
     3
 10
-150.16663800000001
 20
-507.91539999999998
 30
0.0
 11
-150.16663800000001
 21
-493.91540000000009
 31
0.0
  0
LINE
  5
106
  8
0
  6
CONTINUOUS
 62
     3
 10
-167.666303
 20
-507.91539999999998
 30
0.0
 11
-167.666303
 21
-493.91540000000009
 31
0.0
  0
ARC
  5
107
  8
0
  6
CONTINUOUS
 62
     3
 10
-162.37721400000009
 20
-571.78466200000014
 30
0.0
 40
6.1334519999999992
 50
235.6305390000017
 51
304.36946099999818
  0
ARC
  5
108
  8
0
  6
CONTINUOUS
 62
     3
 10
-151.98971399999999
 20
-554.93227599999989
 30
0.0
 40
22.983124
 50
252.46381699999969
 51
287.53618399999709
  0
ARC
  5
109
  8
0
  6
CONTINUOUS
 62
     3
 10
-141.602214
 20
-571.78466200000014
 30
0.0
 40
6.1334519999999992
 50
235.6305390000017
 51
304.36946099999818
  0
LINE
  5
10A
  8
0
  6
CONTINUOUS
 62
     3
 10
-165.8397140000001
 20
-564.91540000000009
 30
0.0
 11
-165.8397140000001
 21
-576.84730200000001
 31
0.0
  0
LINE
  5
10B
  8
0
  6
CONTINUOUS
 62
     3
 10
-158.914714
 20
-564.91540000000009
 30
0.0
 11
-158.914714
 21
-576.84730200000001
 31
0.0
  0
POINT
  5
10C
  8
0
 62
     3
 10
-151.98971399999999
 20
-564.91540000000009
 30
0.0
  0
LINE
  5
10D
  8
0
  6
CONTINUOUS
 62
     3
 10
-141.419782
 20
-577.91540000000009
 30
0.0
 11
-162.194782
 21
-577.91540000000009
 31
0.0
  0
LINE
  5
10E
  8
0
  6
CONTINUOUS
 62
     3
 10
-138.139714
 20
-564.91540000000009
 30
0.0
 11
-138.139714
 21
-576.84730200000001
 31
0.0
  0
LINE
  5
10F
  8
0
  6
CONTINUOUS
 62
     3
 10
-145.06471400000009
 20
-564.91540000000009
 30
0.0
 11
-145.06471400000009
 21
-576.84730200000001
 31
0.0
  0
LINE
  5
110
  8
0
  6
CONTINUOUS
 62
     3
 10
-159.98971399999999
 20
-543.91540000000009
 30
0.0
 11
-159.98971399999999
 21
-528.91539999999998
 31
0.0
  0
LINE
  5
111
  8
0
  6
CONTINUOUS
 62
     3
 10
-143.98971399999999
 20
-543.91540000000009
 30
0.0
 11
-143.98971399999999
 21
-528.91539999999998
 31
0.0
  0
LINE
  5
112
  8
0
  6
CONTINUOUS
 62
     3
 10
-143.98971399999999
 20
-580.91540000000009
 30
0.0
 11
-143.98971399999999
 21
-577.91540000000009
 31
0.0
  0
LINE
  5
113
  8
0
  6
CONTINUOUS
 62
     3
 10
-145.072214
 20
-580.91540000000009
 30
0.0
 11
-145.072214
 21
-577.91540000000009
 31
0.0
  0
LINE
  5
114
  8
0
  6
CONTINUOUS
 62
     3
 10
-158.90721400000001
 20
-580.91540000000009
 30
0.0
 11
-158.90721400000001
 21
-577.91540000000009
 31
0.0
  0
LINE
  5
115
  8
0
  6
CONTINUOUS
 62
     3
 10
-159.98971399999999
 20
-580.91540000000009
 30
0.0
 11
-159.98971399999999
 21
-577.91540000000009
 31
0.0
  0
ARC
  5
116
  8
0
  6
CONTINUOUS
 62
     3
 10
-151.98971399999999
 20
-565.91539999999998
 30
0.0
 40
17.0
 50
241.9275129999925
 51
298.07248700000753
  0
LINE
  5
117
  8
0
  6
CONTINUOUS
 62
     3
 10
-143.98971399999999
 20
-580.91540000000009
 30
0.0
 11
-159.98971399999999
 21
-580.91540000000009
 31
0.0
  0
LINE
  5
118
  8
0
  6
CONTINUOUS
 62
     3
 10
17.49826999999982
 20
-507.91539999999998
 30
0.0
 11
17.49826999999982
 21
-493.91540000000009
 31
0.0
  0
LINE
  5
119
  8
0
  6
CONTINUOUS
 62
     3
 10
-17.50173000000018
 20
-507.91539999999998
 30
0.0
 11
-17.50173000000018
 21
-493.91540000000009
 31
0.0
  0
LINE
  5
11A
  8
0
  6
CONTINUOUS
 62
     3
 10
-17.50173000000018
 20
-493.91540000000009
 30
0.0
 11
17.49826999999982
 21
-493.91540000000009
 31
0.0
  0
ARC
  5
11B
  8
0
  6
CONTINUOUS
 62
     3
 10
-10.38923
 20
-571.78466200000014
 30
0.0
 40
6.1334519999999992
 50
235.6305390000017
 51
304.36946099999818
  0
ARC
  5
11C
  8
0
  6
CONTINUOUS
 62
     3
 10
-0.0017300000001796
 20
-554.93227599999989
 30
0.0
 40
22.983124
 50
252.46381699999969
 51
287.53618399999709
  0
ARC
  5
11D
  8
0
  6
CONTINUOUS
 62
     3
 10
10.385769999999861
 20
-571.78466200000014
 30
0.0
 40
6.1334519999999992
 50
235.6305390000017
 51
304.36946099999818
  0
LINE
  5
11E
  8
0
  6
CONTINUOUS
 62
     3
 10
-13.85173000000009
 20
-564.91540000000009
 30
0.0
 11
-13.85173000000009
 21
-576.84730200000001
 31
0.0
  0
ARC
  5
11F
  8
0
  6
CONTINUOUS
 62
     2
 10
-128.73818
 20
-564.91540000000009
 30
0.0
 40
13.0
 50
90.0
 51
180.0
  0
ARC
  5
120
  8
0
  6
CONTINUOUS
 62
     2
 10
128.73818
 20
-564.91540000000009
 30
0.0
 40
13.0
 50
0.0
 51
90.0
  0
ARC
  5
121
  8
0
  6
CONTINUOUS
 62
     2
 10
33.50060899999994
 20
-564.91540000000009
 30
0.0
 40
13.0
 50
90.0
 51
180.0
  0
ARC
  5
122
  8
0
  6
CONTINUOUS
 62
     2
 10
-35.757991000000061
 20
-564.91540000000009
 30
0.0
 40
13.0
 50
0.0
 51
90.0
  0
LINE
  5
123
  8
0
  6
CONTINUOUS
 62
     3
 10
7.9982699999998204
 20
-580.91540000000009
 30
0.0
 11
-8.0017300000001796
 21
-580.91540000000009
 31
0.0
  0
ARC
  5
124
  8
0
  6
CONTINUOUS
 62
     3
 10
-0.0017300000001796
 20
-565.91539999999998
 30
0.0
 40
17.0
 50
241.9275129999925
 51
298.07248700000753
  0
LINE
  5
125
  8
0
  6
CONTINUOUS
 62
     3
 10
-8.0017300000001796
 20
-580.91540000000009
 30
0.0
 11
-8.0017300000001796
 21
-577.91540000000009
 31
0.0
  0
LINE
  5
126
  8
0
  6
CONTINUOUS
 62
     2
 10
33.50060899999994
 20
-551.91540000000009
 30
0.0
 11
128.73818
 21
-551.91540000000009
 31
0.0
  0
LINE
  5
127
  8
0
  6
CONTINUOUS
 62
     3
 10
-6.9192299999999696
 20
-580.91540000000009
 30
0.0
 11
-6.9192299999999696
 21
-577.91540000000009
 31
0.0
  0
LINE
  5
128
  8
0
  6
CONTINUOUS
 62
     3
 10
6.9157699999998377
 20
-580.91540000000009
 30
0.0
 11
6.9157699999998377
 21
-577.91540000000009
 31
0.0
  0
LINE
  5
129
  8
0
  6
CONTINUOUS
 62
     3
 10
7.9982699999998204
 20
-580.91540000000009
 30
0.0
 11
7.9982699999998204
 21
-577.91540000000009
 31
0.0
  0
LINE
  5
12A
  8
0
  6
CONTINUOUS
 62
     3
 10
7.9982699999998204
 20
-543.91540000000009
 30
0.0
 11
7.9982699999998204
 21
-528.91539999999998
 31
0.0
  0
LINE
  5
12B
  8
0
  6
CONTINUOUS
 62
     3
 10
-8.0017300000001796
 20
-543.91540000000009
 30
0.0
 11
-8.0017300000001796
 21
-528.91539999999998
 31
0.0
  0
LINE
  5
12C
  8
0
  6
CONTINUOUS
 62
     3
 10
6.9232700000000023
 20
-564.91540000000009
 30
0.0
 11
6.9232700000000023
 21
-576.84730200000001
 31
0.0
  0
LINE
  5
12D
  8
0
  6
CONTINUOUS
 62
     3
 10
13.84826999999996
 20
-564.91540000000009
 30
0.0
 11
13.84826999999996
 21
-576.84730200000001
 31
0.0
  0
LINE
  5
12E
  8
0
  6
CONTINUOUS
 62
     3
 10
10.56820199999993
 20
-577.91540000000009
 30
0.0
 11
-10.20679799999993
 21
-577.91540000000009
 31
0.0
  0
LINE
  5
12F
  8
0
  6
CONTINUOUS
 62
     2
 10
7.9982699999998204
 20
-534.91540000000009
 30
0.0
 11
143.9864929999998
 21
-534.91540000000009
 31
0.0
  0
LINE
  5
130
  8
0
  6
CONTINUOUS
 62
     2
 10
-35.757991000000061
 20
-551.91540000000009
 30
0.0
 11
-128.73818
 21
-551.91540000000009
 31
0.0
  0
LINE
  5
131
  8
0
  6
CONTINUOUS
 62
     2
 10
-173.2251289999999
 20
-543.91540000000009
 30
0.0
 11
-173.2251289999999
 21
-564.91540000000009
 31
0.0
  0
LINE
  5
132
  8
0
  6
CONTINUOUS
 62
     2
 10
173.2251289999999
 20
-564.91540000000009
 30
0.0
 11
173.2251289999999
 21
-543.91540000000009
 31
0.0
  0
LINE
  5
133
  8
0
  6
CONTINUOUS
 62
     2
 10
-173.2251289999999
 20
-564.91540000000009
 30
0.0
 11
173.2251289999999
 21
-564.91540000000009
 31
0.0
  0
LINE
  5
134
  8
0
  6
CONTINUOUS
 62
     2
 10
-173.2251289999999
 20
-543.91540000000009
 30
0.0
 11
173.2251289999999
 21
-543.91540000000009
 31
0.0
  0
LINE
  5
135
  8
0
  6
CONTINUOUS
 62
     3
 10
167.666303
 20
-507.91539999999998
 30
0.0
 11
167.666303
 21
-493.91540000000009
 31
0.0
  0
LINE
  5
136
  8
0
  6
CONTINUOUS
 62
     3
 10
150.16663800000009
 20
-507.91539999999998
 30
0.0
 11
150.16663800000009
 21
-493.91540000000009
 31
0.0
  0
LINE
  5
137
  8
0
  6
CONTINUOUS
 62
     3
 10
136.3101429999999
 20
-507.91539999999998
 30
0.0
 11
136.3101429999999
 21
-493.91540000000009
 31
0.0
  0
LINE
  5
138
  8
0
  6
CENTER
 62
     2
 10
-151.9879839999999
 20
-488.77676000000002
 30
0.0
 11
-151.9879839999999
 21
-591.29749100000015
 31
0.0
  0
LINE
  5
139
  8
0
  6
CENTER
 62
     2
 10
151.988223
 20
-488.77676000000002
 30
0.0
 11
151.988223
 21
-591.29749100000015
 31
0.0
  0
POINT
  5
13A
  8
0
 62
     3
 10
-0.0017300000001796
 20
-564.91540000000009
 30
0.0
  0
LINE
  5
13B
  8
0
  6
CONTINUOUS
 62
     3
 10
-6.9267300000001342
 20
-564.91540000000009
 30
0.0
 11
-6.9267300000001342
 21
-576.84730200000001
 31
0.0
  0
LINE
  5
13C
  8
0
  6
CONTINUOUS
 62
     3
 10
-136.3101429999999
 20
-413.91540000000009
 30
0.0
 11
-167.666303
 21
-413.91540000000009
 31
0.0
  0
LINE
  5
13D
  8
0
  6
CONTINUOUS
 62
     2
 10
-8.0017300000001796
 20
-372.91540000000009
 30
0.0
 11
-143.98971399999999
 21
-372.91540000000009
 31
0.0
  0
LINE
  5
13E
  8
0
  6
CONTINUOUS
 62
     3
 10
136.3101429999999
 20
-413.91540000000009
 30
0.0
 11
167.666303
 21
-413.91540000000009
 31
0.0
  0
ARC
  5
13F
  8
0
  6
CONTINUOUS
 62
     3
 10
141.59899300000001
 20
-336.04613799999998
 30
0.0
 40
6.1334519999999992
 50
55.630539000001747
 51
124.3694609999982
  0
ARC
  5
140
  8
0
  6
CONTINUOUS
 62
     3
 10
151.98649299999991
 20
-352.89852400000012
 30
0.0
 40
22.983124
 50
72.463816000002879
 51
107.53618300000031
  0
ARC
  5
141
  8
0
  6
CONTINUOUS
 62
     3
 10
162.3739929999999
 20
-336.04613799999998
 30
0.0
 40
6.1334519999999992
 50
55.630539000001747
 51
124.3694609999982
  0
LINE
  5
142
  8
0
  6
CONTINUOUS
 62
     3
 10
138.13649299999989
 20
-342.91540000000009
 30
0.0
 11
138.13649299999989
 21
-330.98349800000011
 31
0.0
  0
LINE
  5
143
  8
0
  6
CONTINUOUS
 62
     3
 10
145.0614929999999
 20
-342.91540000000009
 30
0.0
 11
145.0614929999999
 21
-330.98349800000011
 31
0.0
  0
POINT
  5
144
  8
0
 62
     3
 10
151.98649299999991
 20
-342.91540000000009
 30
0.0
  0
LINE
  5
145
  8
0
  6
CONTINUOUS
 62
     3
 10
162.55642499999999
 20
-329.91540000000009
 30
0.0
 11
141.7814249999999
 21
-329.91540000000009
 31
0.0
  0
LINE
  5
146
  8
0
  6
CONTINUOUS
 62
     3
 10
165.83649299999999
 20
-342.91540000000009
 30
0.0
 11
165.83649299999999
 21
-330.98349800000011
 31
0.0
  0
LINE
  5
147
  8
0
  6
CONTINUOUS
 62
     3
 10
158.91149300000001
 20
-342.91540000000009
 30
0.0
 11
158.91149300000001
 21
-330.98349800000011
 31
0.0
  0
LINE
  5
148
  8
0
  6
CONTINUOUS
 62
     3
 10
143.9864929999998
 20
-363.91540000000009
 30
0.0
 11
143.9864929999998
 21
-378.91540000000009
 31
0.0
  0
LINE
  5
149
  8
0
  6
CONTINUOUS
 62
     3
 10
159.98649299999991
 20
-363.91540000000009
 30
0.0
 11
159.98649299999991
 21
-378.91540000000009
 31
0.0
  0
LINE
  5
14A
  8
0
  6
CONTINUOUS
 62
     3
 10
159.98649299999991
 20
-326.91540000000009
 30
0.0
 11
159.98649299999991
 21
-329.91540000000009
 31
0.0
  0
LINE
  5
14B
  8
0
  6
CONTINUOUS
 62
     3
 10
158.9039929999999
 20
-326.91540000000009
 30
0.0
 11
158.9039929999999
 21
-329.91540000000009
 31
0.0
  0
LINE
  5
14C
  8
0
  6
CONTINUOUS
 62
     3
 10
145.06899299999981
 20
-326.91540000000009
 30
0.0
 11
145.06899299999981
 21
-329.91540000000009
 31
0.0
  0
LINE
  5
14D
  8
0
  6
CONTINUOUS
 62
     3
 10
143.9864929999998
 20
-326.91540000000009
 30
0.0
 11
143.9864929999998
 21
-329.91540000000009
 31
0.0
  0
ARC
  5
14E
  8
0
  6
CONTINUOUS
 62
     3
 10
151.98649299999991
 20
-341.91540000000009
 30
0.0
 40
17.0
 50
61.92751299999248
 51
118.0724870000075
  0
LINE
  5
14F
  8
0
  6
CONTINUOUS
 62
     3
 10
159.98649299999991
 20
-326.91540000000009
 30
0.0
 11
143.9864929999998
 21
-326.91540000000009
 31
0.0
  0
LINE
  5
150
  8
0
  6
CONTINUOUS
 62
     3
 10
-136.3101429999999
 20
-399.91540000000009
 30
0.0
 11
-136.3101429999999
 21
-413.91540000000009
 31
0.0
  0
LINE
  5
151
  8
0
  6
CONTINUOUS
 62
     3
 10
-150.16663800000001
 20
-399.91540000000009
 30
0.0
 11
-150.16663800000001
 21
-413.91540000000009
 31
0.0
  0
LINE
  5
152
  8
0
  6
CONTINUOUS
 62
     3
 10
-167.666303
 20
-399.91540000000009
 30
0.0
 11
-167.666303
 21
-413.91540000000009
 31
0.0
  0
ARC
  5
153
  8
0
  6
CONTINUOUS
 62
     3
 10
-162.37721400000009
 20
-336.04613799999998
 30
0.0
 40
6.1334519999999992
 50
55.630539000001747
 51
124.3694609999982
  0
ARC
  5
154
  8
0
  6
CONTINUOUS
 62
     3
 10
-151.98971399999999
 20
-352.89852400000012
 30
0.0
 40
22.983124
 50
72.463816000002879
 51
107.53618300000031
  0
ARC
  5
155
  8
0
  6
CONTINUOUS
 62
     3
 10
-141.602214
 20
-336.04613799999998
 30
0.0
 40
6.1334519999999992
 50
55.630539000001747
 51
124.3694609999982
  0
LINE
  5
156
  8
0
  6
CONTINUOUS
 62
     3
 10
-165.8397140000001
 20
-342.91540000000009
 30
0.0
 11
-165.8397140000001
 21
-330.98349800000011
 31
0.0
  0
LINE
  5
157
  8
0
  6
CONTINUOUS
 62
     3
 10
-158.914714
 20
-342.91540000000009
 30
0.0
 11
-158.914714
 21
-330.98349800000011
 31
0.0
  0
POINT
  5
158
  8
0
 62
     3
 10
-151.98971399999999
 20
-342.91540000000009
 30
0.0
  0
LINE
  5
159
  8
0
  6
CONTINUOUS
 62
     3
 10
-141.419782
 20
-329.91540000000009
 30
0.0
 11
-162.194782
 21
-329.91540000000009
 31
0.0
  0
LINE
  5
15A
  8
0
  6
CONTINUOUS
 62
     3
 10
-138.139714
 20
-342.91540000000009
 30
0.0
 11
-138.139714
 21
-330.98349800000011
 31
0.0
  0
LINE
  5
15B
  8
0
  6
CONTINUOUS
 62
     3
 10
-145.06471400000009
 20
-342.91540000000009
 30
0.0
 11
-145.06471400000009
 21
-330.98349800000011
 31
0.0
  0
LINE
  5
15C
  8
0
  6
CONTINUOUS
 62
     3
 10
-159.98971399999999
 20
-363.91540000000009
 30
0.0
 11
-159.98971399999999
 21
-378.91540000000009
 31
0.0
  0
LINE
  5
15D
  8
0
  6
CONTINUOUS
 62
     3
 10
-143.98971399999999
 20
-363.91540000000009
 30
0.0
 11
-143.98971399999999
 21
-378.91540000000009
 31
0.0
  0
LINE
  5
15E
  8
0
  6
CONTINUOUS
 62
     3
 10
-143.98971399999999
 20
-326.91540000000009
 30
0.0
 11
-143.98971399999999
 21
-329.91540000000009
 31
0.0
  0
LINE
  5
15F
  8
0
  6
CONTINUOUS
 62
     3
 10
-145.072214
 20
-326.91540000000009
 30
0.0
 11
-145.072214
 21
-329.91540000000009
 31
0.0
  0
LINE
  5
160
  8
0
  6
CONTINUOUS
 62
     3
 10
-158.90721400000001
 20
-326.91540000000009
 30
0.0
 11
-158.90721400000001
 21
-329.91540000000009
 31
0.0
  0
LINE
  5
161
  8
0
  6
CONTINUOUS
 62
     3
 10
-159.98971399999999
 20
-326.91540000000009
 30
0.0
 11
-159.98971399999999
 21
-329.91540000000009
 31
0.0
  0
ARC
  5
162
  8
0
  6
CONTINUOUS
 62
     3
 10
-151.98971399999999
 20
-341.91540000000009
 30
0.0
 40
17.0
 50
61.92751299999248
 51
118.0724870000075
  0
LINE
  5
163
  8
0
  6
CONTINUOUS
 62
     3
 10
-143.98971399999999
 20
-326.91540000000009
 30
0.0
 11
-159.98971399999999
 21
-326.91540000000009
 31
0.0
  0
LINE
  5
164
  8
0
  6
CONTINUOUS
 62
     3
 10
17.49826999999982
 20
-399.91540000000009
 30
0.0
 11
17.49826999999982
 21
-413.91540000000009
 31
0.0
  0
LINE
  5
165
  8
0
  6
CONTINUOUS
 62
     3
 10
-17.50173000000018
 20
-399.91540000000009
 30
0.0
 11
-17.50173000000018
 21
-413.91540000000009
 31
0.0
  0
LINE
  5
166
  8
0
  6
CONTINUOUS
 62
     3
 10
-17.50173000000018
 20
-413.91540000000009
 30
0.0
 11
17.49826999999982
 21
-413.91540000000009
 31
0.0
  0
ARC
  5
167
  8
0
  6
CONTINUOUS
 62
     3
 10
-10.38923
 20
-336.04613799999998
 30
0.0
 40
6.1334519999999992
 50
55.630539000001747
 51
124.3694609999982
  0
ARC
  5
168
  8
0
  6
CONTINUOUS
 62
     3
 10
-0.0017300000001796
 20
-352.89852400000012
 30
0.0
 40
22.983124
 50
72.463816000002879
 51
107.53618300000031
  0
ARC
  5
169
  8
0
  6
CONTINUOUS
 62
     3
 10
10.385769999999861
 20
-336.04613799999998
 30
0.0
 40
6.1334519999999992
 50
55.630539000001747
 51
124.3694609999982
  0
LINE
  5
16A
  8
0
  6
CONTINUOUS
 62
     3
 10
-13.85173000000009
 20
-342.91540000000009
 30
0.0
 11
-13.85173000000009
 21
-330.98349800000011
 31
0.0
  0
ARC
  5
16B
  8
0
  6
CONTINUOUS
 62
     2
 10
-128.73818
 20
-342.91540000000009
 30
0.0
 40
13.0
 50
180.0
 51
270.0
  0
ARC
  5
16C
  8
0
  6
CONTINUOUS
 62
     2
 10
128.73818
 20
-342.91540000000009
 30
0.0
 40
13.0
 50
270.0
 51
0.0
  0
ARC
  5
16D
  8
0
  6
CONTINUOUS
 62
     2
 10
33.50060899999994
 20
-342.91540000000009
 30
0.0
 40
13.0
 50
180.0
 51
270.0
  0
ARC
  5
16E
  8
0
  6
CONTINUOUS
 62
     2
 10
-35.757991000000061
 20
-342.91540000000009
 30
0.0
 40
13.0
 50
270.0
 51
0.0
  0
LINE
  5
16F
  8
0
  6
CONTINUOUS
 62
     3
 10
7.9982699999998204
 20
-326.91540000000009
 30
0.0
 11
-8.0017300000001796
 21
-326.91540000000009
 31
0.0
  0
ARC
  5
170
  8
0
  6
CONTINUOUS
 62
     3
 10
-0.0017300000001796
 20
-341.91540000000009
 30
0.0
 40
17.0
 50
61.92751299999248
 51
118.0724870000075
  0
LINE
  5
171
  8
0
  6
CONTINUOUS
 62
     3
 10
-8.0017300000001796
 20
-326.91540000000009
 30
0.0
 11
-8.0017300000001796
 21
-329.91540000000009
 31
0.0
  0
LINE
  5
172
  8
0
  6
CONTINUOUS
 62
     2
 10
33.50060899999994
 20
-355.91540000000009
 30
0.0
 11
128.73818
 21
-355.91540000000009
 31
0.0
  0
LINE
  5
173
  8
0
  6
CONTINUOUS
 62
     3
 10
-6.9192299999999696
 20
-326.91540000000009
 30
0.0
 11
-6.9192299999999696
 21
-329.91540000000009
 31
0.0
  0
LINE
  5
174
  8
0
  6
CONTINUOUS
 62
     3
 10
6.9157699999998377
 20
-326.91540000000009
 30
0.0
 11
6.9157699999998377
 21
-329.91540000000009
 31
0.0
  0
LINE
  5
175
  8
0
  6
CONTINUOUS
 62
     3
 10
7.9982699999998204
 20
-326.91540000000009
 30
0.0
 11
7.9982699999998204
 21
-329.91540000000009
 31
0.0
  0
LINE
  5
176
  8
0
  6
CONTINUOUS
 62
     3
 10
7.9982699999998204
 20
-363.91540000000009
 30
0.0
 11
7.9982699999998204
 21
-378.91540000000009
 31
0.0
  0
LINE
  5
177
  8
0
  6
CONTINUOUS
 62
     3
 10
-8.0017300000001796
 20
-363.91540000000009
 30
0.0
 11
-8.0017300000001796
 21
-378.91540000000009
 31
0.0
  0
LINE
  5
178
  8
0
  6
CONTINUOUS
 62
     3
 10
6.9232700000000023
 20
-342.91540000000009
 30
0.0
 11
6.9232700000000023
 21
-330.98349800000011
 31
0.0
  0
LINE
  5
179
  8
0
  6
CONTINUOUS
 62
     3
 10
13.84826999999996
 20
-342.91540000000009
 30
0.0
 11
13.84826999999996
 21
-330.98349800000011
 31
0.0
  0
LINE
  5
17A
  8
0
  6
CONTINUOUS
 62
     3
 10
10.56820199999993
 20
-329.91540000000009
 30
0.0
 11
-10.20679799999993
 21
-329.91540000000009
 31
0.0
  0
LINE
  5
17B
  8
0
  6
CONTINUOUS
 62
     2
 10
7.9982699999998204
 20
-372.91540000000009
 30
0.0
 11
143.9864929999998
 21
-372.91540000000009
 31
0.0
  0
LINE
  5
17C
  8
0
  6
CONTINUOUS
 62
     2
 10
-35.757991000000061
 20
-355.91540000000009
 30
0.0
 11
-128.73818
 21
-355.91540000000009
 31
0.0
  0
LINE
  5
17D
  8
0
  6
CONTINUOUS
 62
     2
 10
-173.2251289999999
 20
-363.91540000000009
 30
0.0
 11
-173.2251289999999
 21
-342.91540000000009
 31
0.0
  0
LINE
  5
17E
  8
0
  6
CONTINUOUS
 62
     2
 10
173.2251289999999
 20
-342.91540000000009
 30
0.0
 11
173.2251289999999
 21
-363.91540000000009
 31
0.0
  0
LINE
  5
17F
  8
0
  6
CONTINUOUS
 62
     2
 10
-173.2251289999999
 20
-342.91540000000009
 30
0.0
 11
173.2251289999999
 21
-342.91540000000009
 31
0.0
  0
LINE
  5
180
  8
0
  6
CONTINUOUS
 62
     2
 10
-173.2251289999999
 20
-363.91540000000009
 30
0.0
 11
173.2251289999999
 21
-363.91540000000009
 31
0.0
  0
LINE
  5
181
  8
0
  6
CONTINUOUS
 62
     3
 10
167.666303
 20
-399.91540000000009
 30
0.0
 11
167.666303
 21
-413.91540000000009
 31
0.0
  0
LINE
  5
182
  8
0
  6
CONTINUOUS
 62
     3
 10
150.16663800000009
 20
-399.91540000000009
 30
0.0
 11
150.16663800000009
 21
-413.91540000000009
 31
0.0
  0
LINE
  5
183
  8
0
  6
CONTINUOUS
 62
     3
 10
136.3101429999999
 20
-399.91540000000009
 30
0.0
 11
136.3101429999999
 21
-413.91540000000009
 31
0.0
  0
LINE
  5
184
  8
0
  6
CENTER
 62
     2
 10
-151.9879839999999
 20
-419.05403999999987
 30
0.0
 11
-151.9879839999999
 21
-316.53330899999997
 31
0.0
  0
LINE
  5
185
  8
0
  6
CENTER
 62
     2
 10
151.988223
 20
-419.05403999999987
 30
0.0
 11
151.988223
 21
-316.53330899999997
 31
0.0
  0
POINT
  5
186
  8
0
 62
     3
 10
-0.0017300000001796
 20
-342.91540000000009
 30
0.0
  0
LINE
  5
187
  8
0
  6
CONTINUOUS
 62
     3
 10
-6.9267300000001342
 20
-342.91540000000009
 30
0.0
 11
-6.9267300000001342
 21
-330.98349800000011
 31
0.0
  0
ARC
  5
188
  8
0
  6
CONTINUOUS
 62
     2
 10
0.0004420000000209
 20
0.0028339999998934
 30
0.0
 40
150.5
 50
279.74878799999942
 51
320.2511629999928
  0
ARC
  5
189
  8
0
  6
CONTINUOUS
 62
     2
 10
0.0004420000000209
 20
0.0028339999998934
 30
0.0
 40
150.5
 50
39.748787999999259
 51
80.251163000002009
  0
ARC
  5
18A
  8
0
  6
CONTINUOUS
 62
     2
 10
26.500373999999969
 20
-154.23724999999999
 30
0.0
 40
6.0
 50
99.748786999998131
 51
180.00063400000391
  0
ARC
  5
18B
  8
0
  6
CONTINUOUS
 62
     2
 10
26.500509999999849
 20
154.24289499999981
 30
0.0
 40
6.0
 50
180.00063400000391
 51
260.25116300000201
  0
LINE
  5
18C
  8
0
  6
CONTINUOUS
 62
     2
 10
20.500275000000101
 20
175.50306099999989
 30
0.0
 11
20.500509999999849
 21
154.242829
 31
0.0
  0
LINE
  5
18D
  8
0
  6
CONTINUOUS
 62
     2
 10
20.50060899999994
 20
-175.496939
 30
0.0
 11
20.500373999999969
 21
-154.23731599999991
 31
0.0
  0
LINE
  5
18E
  8
0
  6
CONTINUOUS
 62
     2
 10
162.23778800000011
 20
-69.993386999999984
 30
0.0
 11
143.82629700000001
 21
-59.363779000000022
 31
0.0
  0
ARC
  5
18F
  8
0
  6
CONTINUOUS
 62
     2
 10
151.9879840000001
 20
-87.747021000000132
 30
0.0
 40
20.5
 50
240.00063400000451
 51
60.000634000004489
  0
CIRCLE
  5
190
  8
0
  6
CONTINUOUS
 62
     3
 10
151.9879840000001
 20
-87.747021000000132
 30
0.0
 40
12.0
  0
LINE
  5
191
  8
0
  6
CONTINUOUS
 62
     3
 10
139.9935319999999
 20
-94.672021000000086
 30
0.0
 11
151.9879840000001
 21
-101.597021
 31
0.0
  0
LINE
  5
192
  8
0
  6
CONTINUOUS
 62
     3
 10
151.9879840000001
 20
-101.597021
 30
0.0
 11
163.98243600000001
 21
-94.672021000000086
 31
0.0
  0
LINE
  5
193
  8
0
  6
CONTINUOUS
 62
     3
 10
163.98243600000001
 20
-94.672021000000086
 30
0.0
 11
163.98243600000001
 21
-80.822021000000177
 31
0.0
  0
POINT
  5
194
  8
0
 62
     3
 10
151.9879840000001
 20
-87.747021000000132
 30
0.0
  0
LINE
  5
195
  8
0
  6
CONTINUOUS
 62
     3
 10
163.98243600000001
 20
-80.822021000000177
 30
0.0
 11
151.9879840000001
 21
-73.897020999999995
 31
0.0
  0
LINE
  5
196
  8
0
  6
CONTINUOUS
 62
     3
 10
151.9879840000001
 20
-73.897020999999995
 30
0.0
 11
139.9935319999999
 21
-80.822021000000177
 31
0.0
  0
LINE
  5
197
  8
0
  6
CONTINUOUS
 62
     3
 10
139.9935319999999
 20
-80.822021000000177
 30
0.0
 11
139.9935319999999
 21
-94.672021000000086
 31
0.0
  0
CIRCLE
  5
198
  8
1
  6
CONTINUOUS
 62
     3
 10
151.9879840000001
 20
-87.747021000000132
 30
0.0
 40
6.9175000000000004
  0
CIRCLE
  5
199
  8
1
  6
CONTINUOUS
 62
     3
 10
151.9879840000001
 20
-87.747021000000132
 30
0.0
 40
8.0
  0
CIRCLE
  5
19A
  8
0
  6
CONTINUOUS
 62
     3
 10
151.986985
 20
87.754418999999885
 30
0.0
 40
12.0
  0
LINE
  5
19B
  8
0
  6
CONTINUOUS
 62
     3
 10
139.99253300000009
 20
80.829418999999916
 30
0.0
 11
151.986985
 21
73.904418999999962
 31
0.0
  0
LINE
  5
19C
  8
0
  6
CONTINUOUS
 62
     3
 10
151.986985
 20
73.904418999999962
 30
0.0
 11
163.98143699999989
 21
80.829418999999916
 31
0.0
  0
LINE
  5
19D
  8
0
  6
CONTINUOUS
 62
     3
 10
163.98143699999989
 20
80.829418999999916
 30
0.0
 11
163.98143699999989
 21
94.679419000000038
 31
0.0
  0
POINT
  5
19E
  8
0
 62
     3
 10
151.986985
 20
87.754418999999885
 30
0.0
  0
LINE
  5
19F
  8
0
  6
CONTINUOUS
 62
     3
 10
163.98143699999989
 20
94.679419000000038
 30
0.0
 11
151.986985
 21
101.60441899999999
 31
0.0
  0
LINE
  5
1A0
  8
0
  6
CONTINUOUS
 62
     3
 10
151.986985
 20
101.60441899999999
 30
0.0
 11
139.99253300000009
 21
94.679419000000038
 31
0.0
  0
LINE
  5
1A1
  8
0
  6
CONTINUOUS
 62
     3
 10
139.99253300000009
 20
94.679419000000038
 30
0.0
 11
139.99253300000009
 21
80.829418999999916
 31
0.0
  0
CIRCLE
  5
1A2
  8
1
  6
CONTINUOUS
 62
     3
 10
151.986985
 20
87.754418999999885
 30
0.0
 40
6.9175000000000004
  0
CIRCLE
  5
1A3
  8
1
  6
CONTINUOUS
 62
     3
 10
151.986985
 20
87.754418999999885
 30
0.0
 40
8.0
  0
LINE
  5
1A4
  8
0
  6
CONTINUOUS
 62
     2
 10
141.73818
 20
-105.50065499999999
 30
0.0
 11
123.3261619999998
 21
-94.870743000000175
 31
0.0
  0
ARC
  5
1A5
  8
0
  6
CONTINUOUS
 62
     2
 10
146.82623899999999
 20
-54.167593000000132
 30
0.0
 40
6.0
 50
159.74878700000349
 51
240.00063400000451
  0
ARC
  5
1A6
  8
0
  6
CONTINUOUS
 62
     2
 10
120.32621899999999
 20
-100.0669280000002
 30
0.0
 40
6.0
 50
60.000634000004489
 51
140.25116299999269
  0
ARC
  5
1A7
  8
0
  6
CONTINUOUS
 62
     2
 10
120.326307
 20
100.0724909999999
 30
0.0
 40
6.0
 50
219.74878700000019
 51
300.00063399999482
  0
LINE
  5
1A8
  8
0
  6
CONTINUOUS
 62
     2
 10
141.73761999999979
 20
105.5063869999999
 30
0.0
 11
123.3263650000001
 21
94.876371999999947
 31
0.0
  0
ARC
  5
1A9
  8
0
  6
CONTINUOUS
 62
     2
 10
151.98781699999989
 20
87.752978999999868
 30
0.0
 40
20.5
 50
300.00063399999482
 51
120.0006339999948
  0
LINE
  5
1AA
  8
0
  6
CONTINUOUS
 62
     2
 10
162.23801300000011
 20
69.999571999999944
 30
0.0
 11
143.82622900000001
 21
59.36925199999996
 31
0.0
  0
ARC
  5
1AB
  8
0
  6
CONTINUOUS
 62
     2
 10
146.82628699999981
 20
54.173133
 30
0.0
 40
6.0
 50
120.0006339999948
 51
200.25116299999769
  0
ARC
  5
1AC
  8
0
  6
CONTINUOUS
 62
     2
 10
0.0004420000000209
 20
0.0028339999998934
 30
0.0
 40
150.5
 50
339.7487879999963
 51
20.251162999997689
  0
LINE
  5
1AD
  8
0
  6
CONTINUOUS
 62
     2
 10
-162.23778800000011
 20
-69.993386999999984
 30
0.0
 11
-143.82629700000001
 21
-59.363779000000022
 31
0.0
  0
ARC
  5
1AE
  8
0
  6
CONTINUOUS
 62
     2
 10
-151.9879839999999
 20
-87.747021000000132
 30
0.0
 40
20.5
 50
119.9993659999955
 51
299.99936599999552
  0
LINE
  5
1AF
  8
0
  6
CONTINUOUS
 62
     3
 10
-11.994893999999929
 20
-182.42216599999989
 30
0.0
 11
-11.994893999999929
 21
-168.57216600000001
 31
0.0
  0
LINE
  5
1B0
  8
0
  6
CONTINUOUS
 62
     3
 10
-0.0004420000000209
 20
-189.34716599999999
 30
0.0
 11
-11.994893999999929
 21
-182.42216599999989
 31
0.0
  0
LINE
  5
1B1
  8
0
  6
CONTINUOUS
 62
     3
 10
11.994009999999889
 20
-182.42216599999989
 30
0.0
 11
-0.0004420000000209
 21
-189.34716599999999
 31
0.0
  0
CIRCLE
  5
1B2
  8
0
  6
CONTINUOUS
 62
     3
 10
-0.0004420000000209
 20
-175.49716599999999
 30
0.0
 40
12.0
  0
POINT
  5
1B3
  8
0
 62
     3
 10
-0.0004420000000209
 20
-175.49716599999999
 30
0.0
  0
LINE
  5
1B4
  8
0
  6
CONTINUOUS
 62
     3
 10
-11.994893999999929
 20
-168.57216600000001
 30
0.0
 11
-0.0004420000000209
 21
-161.647166
 31
0.0
  0
LINE
  5
1B5
  8
0
  6
CONTINUOUS
 62
     3
 10
-0.0004420000000209
 20
-161.647166
 30
0.0
 11
11.994009999999889
 21
-168.57216600000001
 31
0.0
  0
LINE
  5
1B6
  8
0
  6
CONTINUOUS
 62
     3
 10
11.994009999999889
 20
-168.57216600000001
 30
0.0
 11
11.994009999999889
 21
-182.42216599999989
 31
0.0
  0
CIRCLE
  5
1B7
  8
1
  6
CONTINUOUS
 62
     3
 10
-0.0004420000000209
 20
-175.49716599999999
 30
0.0
 40
6.9175000000000004
  0
CIRCLE
  5
1B8
  8
1
  6
CONTINUOUS
 62
     3
 10
-0.0004420000000209
 20
-175.49716599999999
 30
0.0
 40
8.0
  0
CIRCLE
  5
1B9
  8
0
  6
CONTINUOUS
 62
     3
 10
-151.9879839999999
 20
-87.747021000000132
 30
0.0
 40
12.0
  0
LINE
  5
1BA
  8
0
  6
CONTINUOUS
 62
     3
 10
-139.99353199999999
 20
-94.672021000000086
 30
0.0
 11
-151.9879839999999
 21
-101.597021
 31
0.0
  0
LINE
  5
1BB
  8
0
  6
CONTINUOUS
 62
     3
 10
-151.9879839999999
 20
-101.597021
 30
0.0
 11
-163.98243599999989
 21
-94.672021000000086
 31
0.0
  0
LINE
  5
1BC
  8
0
  6
CONTINUOUS
 62
     3
 10
-163.98243599999989
 20
-94.672021000000086
 30
0.0
 11
-163.98243599999989
 21
-80.822021000000177
 31
0.0
  0
POINT
  5
1BD
  8
0
 62
     3
 10
-151.9879839999999
 20
-87.747021000000132
 30
0.0
  0
LINE
  5
1BE
  8
0
  6
CONTINUOUS
 62
     3
 10
-163.98243599999989
 20
-80.822021000000177
 30
0.0
 11
-151.9879839999999
 21
-73.897020999999995
 31
0.0
  0
LINE
  5
1BF
  8
0
  6
CONTINUOUS
 62
     3
 10
-151.9879839999999
 20
-73.897020999999995
 30
0.0
 11
-139.99353199999999
 21
-80.822021000000177
 31
0.0
  0
LINE
  5
1C0
  8
0
  6
CONTINUOUS
 62
     3
 10
-139.99353199999999
 20
-80.822021000000177
 30
0.0
 11
-139.99353199999999
 21
-94.672021000000086
 31
0.0
  0
CIRCLE
  5
1C1
  8
1
  6
CONTINUOUS
 62
     3
 10
-151.9879839999999
 20
-87.747021000000132
 30
0.0
 40
6.9175000000000004
  0
CIRCLE
  5
1C2
  8
1
  6
CONTINUOUS
 62
     3
 10
-151.9879839999999
 20
-87.747021000000132
 30
0.0
 40
8.0
  0
CIRCLE
  5
1C3
  8
0
  6
CONTINUOUS
 62
     3
 10
-151.986985
 20
87.754418999999885
 30
0.0
 40
12.0
  0
LINE
  5
1C4
  8
0
  6
CONTINUOUS
 62
     3
 10
-139.99253300000001
 20
80.829418999999916
 30
0.0
 11
-151.986985
 21
73.904418999999962
 31
0.0
  0
LINE
  5
1C5
  8
0
  6
CONTINUOUS
 62
     3
 10
-151.986985
 20
73.904418999999962
 30
0.0
 11
-163.98143699999989
 21
80.829418999999916
 31
0.0
  0
LINE
  5
1C6
  8
0
  6
CONTINUOUS
 62
     3
 10
-163.98143699999989
 20
80.829418999999916
 30
0.0
 11
-163.98143699999989
 21
94.679419000000038
 31
0.0
  0
POINT
  5
1C7
  8
0
 62
     3
 10
-151.986985
 20
87.754418999999885
 30
0.0
  0
LINE
  5
1C8
  8
0
  6
CONTINUOUS
 62
     3
 10
-163.98143699999989
 20
94.679419000000038
 30
0.0
 11
-151.986985
 21
101.60441899999999
 31
0.0
  0
LINE
  5
1C9
  8
0
  6
CONTINUOUS
 62
     3
 10
-151.986985
 20
101.60441899999999
 30
0.0
 11
-139.99253300000001
 21
94.679419000000038
 31
0.0
  0
LINE
  5
1CA
  8
0
  6
CONTINUOUS
 62
     3
 10
-139.99253300000001
 20
94.679419000000038
 30
0.0
 11
-139.99253300000001
 21
80.829418999999916
 31
0.0
  0
CIRCLE
  5
1CB
  8
1
  6
CONTINUOUS
 62
     3
 10
-151.986985
 20
87.754418999999885
 30
0.0
 40
6.9175000000000004
  0
CIRCLE
  5
1CC
  8
1
  6
CONTINUOUS
 62
     3
 10
-151.986985
 20
87.754418999999885
 30
0.0
 40
8.0
  0
CIRCLE
  5
1CD
  8
0
  6
CONTINUOUS
 62
     3
 10
-0.0004420000000209
 20
175.50283399999989
 30
0.0
 40
12.0
  0
LINE
  5
1CE
  8
0
  6
CONTINUOUS
 62
     3
 10
11.994009999999889
 20
168.57783399999991
 30
0.0
 11
-0.0004420000000209
 21
161.65283400000001
 31
0.0
  0
LINE
  5
1CF
  8
0
  6
CONTINUOUS
 62
     3
 10
-0.0004420000000209
 20
161.65283400000001
 30
0.0
 11
-11.994893999999929
 21
168.57783399999991
 31
0.0
  0
LINE
  5
1D0
  8
0
  6
CONTINUOUS
 62
     3
 10
-11.994893999999929
 20
168.57783399999991
 30
0.0
 11
-11.994893999999929
 21
182.4278340000001
 31
0.0
  0
POINT
  5
1D1
  8
0
 62
     3
 10
-0.0004420000000209
 20
175.50283399999989
 30
0.0
  0
LINE
  5
1D2
  8
0
  6
CONTINUOUS
 62
     3
 10
-11.994893999999929
 20
182.4278340000001
 30
0.0
 11
-0.0004420000000209
 21
189.352834
 31
0.0
  0
LINE
  5
1D3
  8
0
  6
CONTINUOUS
 62
     3
 10
-0.0004420000000209
 20
189.352834
 30
0.0
 11
11.994009999999889
 21
182.4278340000001
 31
0.0
  0
LINE
  5
1D4
  8
0
  6
CONTINUOUS
 62
     3
 10
11.994009999999889
 20
182.4278340000001
 30
0.0
 11
11.994009999999889
 21
168.57783399999991
 31
0.0
  0
CIRCLE
  5
1D5
  8
1
  6
CONTINUOUS
 62
     3
 10
-0.0004420000000209
 20
175.50283399999989
 30
0.0
 40
6.9175000000000004
  0
CIRCLE
  5
1D6
  8
1
  6
CONTINUOUS
 62
     3
 10
-0.0004420000000209
 20
175.50283399999989
 30
0.0
 40
8.0
  0
LINE
  5
1D7
  8
0
  6
CONTINUOUS
 62
     2
 10
-141.73818
 20
-105.50065499999999
 30
0.0
 11
-123.3261619999999
 21
-94.870743000000175
 31
0.0
  0
ARC
  5
1D8
  8
0
  6
CONTINUOUS
 62
     2
 10
-146.8262390000001
 20
-54.167593000000132
 30
0.0
 40
6.0
 50
299.99936599999552
 51
20.25121299999649
  0
ARC
  5
1D9
  8
0
  6
CONTINUOUS
 62
     2
 10
-120.3262189999999
 20
-100.0669280000002
 30
0.0
 40
6.0
 50
39.748837000007263
 51
119.9993659999955
  0
ARC
  5
1DA
  8
0
  6
CONTINUOUS
 62
     2
 10
-120.326307
 20
100.0724909999999
 30
0.0
 40
6.0
 50
239.99936600000521
 51
320.25121299999978
  0
LINE
  5
1DB
  8
0
  6
CONTINUOUS
 62
     2
 10
-141.73761999999979
 20
105.5063869999999
 30
0.0
 11
-123.326365
 21
94.876371999999947
 31
0.0
  0
ARC
  5
1DC
  8
0
  6
CONTINUOUS
 62
     2
 10
-151.98781699999989
 20
87.752978999999868
 30
0.0
 40
20.5
 50
59.999366000005203
 51
239.99936600000521
  0
LINE
  5
1DD
  8
0
  6
CONTINUOUS
 62
     2
 10
-162.23801300000011
 20
69.999571999999944
 30
0.0
 11
-143.8262289999999
 21
59.36925199999996
 31
0.0
  0
ARC
  5
1DE
  8
0
  6
CONTINUOUS
 62
     2
 10
-146.82628699999981
 20
54.173133
 30
0.0
 40
6.0
 50
339.74883700000231
 51
59.999366000005203
  0
ARC
  5
1DF
  8
0
  6
CONTINUOUS
 62
     2
 10
-0.0004420000000209
 20
0.0028339999998934
 30
0.0
 40
150.5
 50
159.74883700000231
 51
200.25121200000379
  0
ARC
  5
1E0
  8
0
  6
CONTINUOUS
 62
     2
 10
-0.0002750000001015
 20
175.50283399999989
 30
0.0
 40
20.5
 50
0.0006329999959765
 51
179.99936599999609
  0
LINE
  5
1E1
  8
0
  6
CONTINUOUS
 62
     2
 10
-20.500275000000101
 20
175.50306099999989
 30
0.0
 11
-20.500509999999849
 21
154.242829
 31
0.0
  0
ARC
  5
1E2
  8
0
  6
CONTINUOUS
 62
     2
 10
-26.500509999999959
 20
154.24289499999981
 30
0.0
 40
6.0
 50
279.74883699999799
 51
359.99936599999609
  0
ARC
  5
1E3
  8
0
  6
CONTINUOUS
 62
     2
 10
-26.500374000000079
 20
-154.23724999999999
 30
0.0
 40
6.0
 50
359.99936599999609
 51
80.251213000001883
  0
LINE
  5
1E4
  8
0
  6
CONTINUOUS
 62
     2
 10
-20.50060899999994
 20
-175.496939
 30
0.0
 11
-20.500373999999969
 21
-154.23731599999991
 31
0.0
  0
ARC
  5
1E5
  8
0
  6
CONTINUOUS
 62
     2
 10
-0.0006089999999404
 20
-175.49716599999999
 30
0.0
 40
20.5
 50
179.99936599999609
 51
0.0006329999959765
  0
ARC
  5
1E6
  8
0
  6
CONTINUOUS
 62
     2
 10
-0.0004420000000209
 20
0.0028339999998934
 30
0.0
 40
150.5
 50
219.74883700000731
 51
260.25121200000058
  0
ARC
  5
1E7
  8
0
  6
CONTINUOUS
 62
     2
 10
-0.0004420000000209
 20
0.0028339999998934
 30
0.0
 40
150.5
 50
99.748836999998005
 51
140.25121200000069
  0
CIRCLE
  5
1E8
  8
0
  6
CONTINUOUS
 62
     2
 10
-0.0004420000000209
 20
0.0028339999998934
 30
0.0
 40
140.5
  0
CIRCLE
  5
1E9
  8
0
  6
CONTINUOUS
 62
     2
 10
-0.0004420000000209
 20
0.0028339999998934
 30
0.0
 40
143.07847599999999
  0
ARC
  5
1EA
  8
0
  6
CENTER
 62
     4
 10
-0.0006490000000667
 20
-0.0006490000000667
 30
0.0
 40
175.5
 50
202.5490999999993
 51
224.23761100000581
  0
ARC
  5
1EB
  8
0
  6
CENTER
 62
     4
 10
-0.0006490000000667
 20
-0.0006490000000667
 30
0.0
 40
175.5
 50
262.01650999999453
 51
277.48944000000461
  0
ARC
  5
1EC
  8
0
  6
CONTINUOUS
 62
     4
 10
-147.22530900000001
 20
-85.001238999999941
 30
0.0
 40
26.0
 50
180.0
 51
239.9999600000063
  0
LINE
  5
1ED
  8
0
  6
CONTINUOUS
 62
     4
 10
-160.22530900000001
 20
-107.5179
 30
0.0
 11
-13.00099
 21
-192.51789999999991
 31
0.0
  0
LINE
  5
1EE
  8
0
  6
CONTINUOUS
 62
     4
 10
12.998957999999901
 20
-192.5178700000001
 30
0.0
 11
160.223704
 21
-107.517329
 31
0.0
  0
ARC
  5
1EF
  8
0
  6
CONTINUOUS
 62
     4
 10
-0.0009900000000016
 20
-170.001239
 30
0.0
 40
26.0
 50
240.0000000000027
 51
299.99996999999729
  0
ARC
  5
1F0
  8
0
  6
CONTINUOUS
 62
     4
 10
147.2253089999999
 20
-85.001238999999941
 30
0.0
 40
26.0
 50
300.0000399999937
 51
0.0
  0
LINE
  5
1F1
  8
0
  6
CENTER
 62
     4
 10
-167.383285
 20
-96.639479000000165
 30
0.0
 11
-136.608858
 21
-78.871402000000217
 31
0.0
  0
LINE
  5
1F2
  8
0
  6
CENTER
 62
     4
 10
167.75574599999999
 20
-96.852750000000015
 30
0.0
 11
134.72629800000001
 21
-77.783159000000069
 31
0.0
  0
ARC
  5
1F3
  8
0
  6
CENTER
 62
     4
 10
-0.0006490000000667
 20
-0.0006490000000667
 30
0.0
 40
175.5
 50
324.3998050000024
 51
337.23075199999698
  0
LINE
  5
1F4
  8
0
  6
CONTINUOUS
 62
     4
 10
145.53216399999999
 20
-427.53339999999992
 30
0.0
 11
-146.284267
 21
-427.53339999999992
 31
0.0
  0
ARC
  5
1F5
  8
0
  6
CONTINUOUS
 62
     4
 10
187.5
 20
-480.29739999999998
 30
0.0
 40
35.0
 50
180.0
 51
202.89762200000041
  0
ARC
  5
1F6
  8
0
  6
CONTINUOUS
 62
     4
 10
-187.5
 20
-480.29739999999998
 30
0.0
 40
35.0
 50
337.10237799999948
 51
0.0
  0
LINE
  5
1F7
  8
0
  6
CONTINUOUS
 62
     4
 10
-173.2251289999999
 20
-507.91539999999998
 30
0.0
 11
173.2251289999999
 21
-507.91539999999998
 31
0.0
  0
LINE
  5
1F8
  8
0
  6
CONTINUOUS
 62
     4
 10
-173.2251289999999
 20
-528.91539999999998
 30
0.0
 11
173.2251289999999
 21
-528.91539999999998
 31
0.0
  0
LINE
  5
1F9
  8
0
  6
CONTINUOUS
 62
     4
 10
-173.2251289999999
 20
-528.91539999999998
 30
0.0
 11
-173.2251289999999
 21
-507.91539999999998
 31
0.0
  0
LINE
  5
1FA
  8
0
  6
CONTINUOUS
 62
     4
 10
173.2251289999999
 20
-528.91539999999998
 30
0.0
 11
173.2251289999999
 21
-507.91539999999998
 31
0.0
  0
LINE
  5
1FB
  8
0
  6
CONTINUOUS
 62
     4
 10
145.53216399999999
 20
-480.29739999999998
 30
0.0
 11
-146.284267
 21
-480.29739999999998
 31
0.0
  0
LINE
  5
1FD
  8
0
  6
CENTER
 62
     4
 10
0.0
 20
-314.019476
 30
0.0
 11
0.0
 21
-598.25407200000006
 31
0.0
  0
LINE
  5
1FE
  8
0
  6
CENTER
 62
     4
 10
189.67529600000009
 20
0.0
 30
0.0
 11
-193.46013400000001
 21
0.0
 31
0.0
  0
ARC
  5
1FF
  8
0
  6
CENTER
 62
     4
 10
-0.0006490000000667
 20
0.0006489999998394
 30
0.0
 40
175.5
 50
22.769248000003021
 51
45.065767999998947
  0
LINE
  5
200
  8
0
  6
CENTER
 62
     4
 10
167.75574599999999
 20
96.852750000000015
 30
0.0
 11
134.72629800000001
 21
77.783159000000069
 31
0.0
  0
LINE
  5
201
  8
0
  6
CENTER
 62
     4
 10
-167.383285
 20
96.639478999999938
 30
0.0
 11
-136.608858
 21
78.871401999999989
 31
0.0
  0
ARC
  5
202
  8
0
  6
CONTINUOUS
 62
     4
 10
147.2253089999999
 20
85.001238999999941
 30
0.0
 40
26.0
 50
0.0
 51
59.999960000006347
  0
LINE
  5
203
  8
0
  6
CONTINUOUS
 62
     4
 10
173.22534300000001
 20
85.001219999999876
 30
0.0
 11
173.22491500000001
 21
-85.001238999999941
 31
0.0
  0
ARC
  5
204
  8
0
  6
CONTINUOUS
 62
     4
 10
-0.0009900000000016
 20
170.00123899999991
 30
0.0
 40
26.0
 50
60.000030000002688
 51
119.9999999999972
  0
LINE
  5
205
  8
0
  6
CONTINUOUS
 62
     4
 10
12.998957999999901
 20
192.5178699999999
 30
0.0
 11
160.223704
 21
107.517329
 31
0.0
  0
LINE
  5
206
  8
0
  6
CONTINUOUS
 62
     4
 10
-160.22530900000001
 20
107.5179
 30
0.0
 11
-13.00099
 21
192.5179
 31
0.0
  0
LINE
  5
207
  8
0
  6
CONTINUOUS
 62
     4
 10
-173.2253429999999
 20
85.001219999999876
 30
0.0
 11
-173.22491500000001
 21
-85.001238999999941
 31
0.0
  0
ARC
  5
208
  8
0
  6
CONTINUOUS
 62
     4
 10
-147.22530900000001
 20
85.001238999999941
 30
0.0
 40
26.0
 50
120.0000399999936
 51
180.0
  0
LINE
  5
209
  8
0
  6
CONTINUOUS
 62
     4
 10
173.2251289999999
 20
-378.91540000000009
 30
0.0
 11
173.2251289999999
 21
-399.91540000000009
 31
0.0
  0
ARC
  5
20A
  8
0
  6
CENTER
 62
     4
 10
-0.0006490000000667
 20
0.0006489999998394
 30
0.0
 40
175.5
 50
82.510559999995465
 51
97.983490000005474
  0
ARC
  5
20B
  8
0
  6
CENTER
 62
     4
 10
-0.0006490000000667
 20
0.0006489999998394
 30
0.0
 40
175.5
 50
142.4062999999947
 51
157.4509000000007
  0
LINE
  5
20C
  8
0
  6
CONTINUOUS
 62
     4
 10
-173.2251289999999
 20
-378.91540000000009
 30
0.0
 11
-173.2251289999999
 21
-399.91540000000009
 31
0.0
  0
LINE
  5
20D
  8
0
  6
CONTINUOUS
 62
     4
 10
-173.2251289999999
 20
-378.91540000000009
 30
0.0
 11
173.2251289999999
 21
-378.91540000000009
 31
0.0
  0
LINE
  5
20E
  8
0
  6
CONTINUOUS
 62
     4
 10
-152.5
 20
-427.53339999999992
 30
0.0
 11
-152.5
 21
-480.29739999999998
 31
0.0
  0
LINE
  5
20F
  8
0
  6
CONTINUOUS
 62
     4
 10
-173.2251289999999
 20
-399.91540000000009
 30
0.0
 11
173.2251289999999
 21
-399.91540000000009
 31
0.0
  0
ARC
  5
210
  8
0
  6
CONTINUOUS
 62
     4
 10
-187.5
 20
-427.53339999999992
 30
0.0
 40
35.0
 50
0.0
 51
22.89762200000045
  0
LINE
  5
211
  8
0
  6
CONTINUOUS
 62
     4
 10
152.5
 20
-427.53339999999992
 30
0.0
 11
152.5
 21
-480.29739999999998
 31
0.0
  0
ARC
  5
212
  8
0
  6
CONTINUOUS
 62
     4
 10
187.5
 20
-427.53339999999992
 30
0.0
 40
35.0
 50
157.1023779999995
 51
180.0
  0
LINE
  5
213
  8
0
  6
CENTER
 62
     4
 10
0.0
 20
203.464
 30
0.0
 11
0.0
 21
-205.94777000000011
 31
0.0
  0
POINT
  5
214
  8
0
 62
     1
 10
1049.5
 20
341.75808699999988
 30
0.0
  0
ENDSEC
  0
EOF
