  0
SECTION
  2
HEADER
  9
$ACADVER
  1
AC1009
  9
$INSBASE
 10
0.0
 20
0.0
 30
0.0
  9
$EXTMIN
 10
-1049.5
 20
-971.34179099999994
 30
0.0
  9
$EXTMAX
 10
2099.5
 20
1484.5
 30
0.0
  9
$LIMMIN
 10
0.0
 20
0.0
  9
$LIMMAX
 10
2100.0
 20
1485.0
  9
$ORTHOMODE
 70
     0
  9
$REGENMODE
 70
     1
  9
$FILLMODE
 70
     1
  9
$QTEXTMODE
 70
     0
  9
$MIRRTEXT
 70
     0
  9
$DRAGMODE
 70
     2
  9
$LTSCALE
 40
1.0
  9
$OSMODE
 70
   125
  9
$ATTMODE
 70
     1
  9
$TEXTSIZE
 40
0.2
  9
$TRACEWID
 40
0.05
  9
$TEXTSTYLE
  7
KANJI
  9
$CLAYER
  8
0
  9
$CELTYPE
  6
BYLAYER
  9
$CECOLOR
 62
   256
  9
$DIMSCALE
 40
1.0
  9
$DIMASZ
 40
22.5
  9
$DIMEXO
 40
5.0
  9
$DIMDLI
 40
40.0
  9
$DIMRND
 40
0.0
  9
$DIMDLE
 40
0.0
  9
$DIMEXE
 40
5.0
  9
$DIMTP
 40
0.0
  9
$DIMTM
 40
0.0
  9
$DIMTXT
 40
16.0
  9
$DIMCEN
 40
0.09
  9
$DIMTSZ
 40
0.0
  9
$DIMTOL
 70
     0
  9
$DIMLIM
 70
     0
  9
$DIMTIH
 70
     0
  9
$DIMTOH
 70
     0
  9
$DIMSE1
 70
     0
  9
$DIMSE2
 70
     0
  9
$DIMTAD
 70
     1
  9
$DIMZIN
 70
     0
  9
$DIMBLK
  1

  9
$DIMASO
 70
     1
  9
$DIMSHO
 70
     0
  9
$DIMPOST
  1

  9
$DIMAPOST
  1

  9
$DIMALT
 70
     0
  9
$DIMALTD
 70
     2
  9
$DIMALTF
 40
25.399999999999999
  9
$DIMLFAC
 40
1.0
  9
$DIMTOFL
 70
     0
  9
$DIMTVP
 40
0.0
  9
$DIMTIX
 70
     0
  9
$DIMSOXD
 70
     0
  9
$DIMSAH
 70
     0
  9
$DIMBLK1
  1

  9
$DIMBLK2
  1

  9
$DIMSTYLE
  2
STANDARD
  9
$DIMCLRD
 70
     0
  9
$DIMCLRE
 70
     0
  9
$DIMCLRT
 70
     0
  9
$DIMTFAC
 40
1.0
  9
$DIMGAP
 40
0.09
  9
$LUNITS
 70
     2
  9
$LUPREC
 70
     2
  9
$SKETCHINC
 40
0.1
  9
$FILLETRAD
 40
0.0
  9
$AUNITS
 70
     1
  9
$AUPREC
 70
     2
  9
$MENU
  1
ACAD
  9
$ELEVATION
 40
0.0
  9
$PELEVATION
 40
0.0
  9
$THICKNESS
 40
0.0
  9
$LIMCHECK
 70
     0
  9
$BLIPMODE
 70
     0
  9
$CHAMFERA
 40
0.0
  9
$CHAMFERB
 40
0.0
  9
$SKPOLY
 70
     0
  9
$TDCREATE
 40
2457134.724040614
  9
$TDUPDATE
 40
2457134.7395504289
  9
$TDINDWG
 40
0.0155119097
  9
$TDUSRTIMER
 40
0.0155119097
  9
$USRTIMER
 70
     1
  9
$ANGBASE
 50
0.0
  9
$ANGDIR
 70
     0
  9
$PDMODE
 70
     0
  9
$PDSIZE
 40
0.0
  9
$PLINEWID
 40
0.0
  9
$COORDS
 70
     1
  9
$SPLFRAME
 70
     0
  9
$SPLINETYPE
 70
     6
  9
$SPLINESEGS
 70
     8
  9
$ATTDIA
 70
     1
  9
$ATTREQ
 70
     1
  9
$HANDLING
 70
     1
  9
$HANDSEED
  5
2C0
  9
$SURFTAB1
 70
     6
  9
$SURFTAB2
 70
     6
  9
$SURFTYPE
 70
     6
  9
$SURFU
 70
     6
  9
$SURFV
 70
     6
  9
$UCSNAME
  2

  9
$UCSORG
 10
0.0
 20
0.0
 30
0.0
  9
$UCSXDIR
 10
1.0
 20
0.0
 30
0.0
  9
$UCSYDIR
 10
0.0
 20
1.0
 30
0.0
  9
$PUCSNAME
  2

  9
$PUCSORG
 10
0.0
 20
0.0
 30
0.0
  9
$PUCSXDIR
 10
1.0
 20
0.0
 30
0.0
  9
$PUCSYDIR
 10
0.0
 20
1.0
 30
0.0
  9
$USERI1
 70
     0
  9
$USERI2
 70
     0
  9
$USERI3
 70
     0
  9
$USERI4
 70
     0
  9
$USERI5
 70
     0
  9
$USERR1
 40
0.0
  9
$USERR2
 40
0.0
  9
$USERR3
 40
0.0
  9
$USERR4
 40
0.0
  9
$USERR5
 40
0.0
  9
$WORLDVIEW
 70
     1
  9
$SHADEDGE
 70
     3
  9
$SHADEDIF
 70
    70
  9
$TILEMODE
 70
     1
  9
$MAXACTVP
 70
    64
  9
$PLIMCHECK
 70
     0
  9
$PEXTMIN
 10
1.0000000000000000E+020
 20
1.0000000000000000E+020
 30
1.0000000000000000E+020
  9
$PEXTMAX
 10
-1.0000000000000000E+020
 20
-1.0000000000000000E+020
 30
-1.0000000000000000E+020
  9
$PLIMMIN
 10
0.0
 20
0.0
  9
$PLIMMAX
 10
12.0
 20
9.0
  9
$UNITMODE
 70
     0
  9
$VISRETAIN
 70
     1
  9
$PLINEGEN
 70
     0
  9
$PSLTSCALE
 70
     1
  0
ENDSEC
  0
SECTION
  2
TABLES
  0
TABLE
  2
VPORT
 70
     1
  0
VPORT
  2
*ACTIVE
 70
     0
 10
0.0
 20
0.0
 11
1.0
 21
1.0
 12
6.4536049403239977
 22
-210.02849942425129
 13
0.0
 23
0.0
 14
1.0
 24
1.0
 15
0.0
 25
0.0
 16
0.0
 26
0.0
 36
1.0
 17
0.0
 27
0.0
 37
0.0
 40
931.27100510175433
 41
1.8188302425106979
 42
50.0
 43
0.0
 44
0.0
 50
0.0
 51
0.0
 71
     0
 72
   100
 73
     1
 74
     1
 75
     0
 76
     0
 77
     0
 78
     0
  0
ENDTAB
  0
TABLE
  2
LTYPE
 70
     9
  0
LTYPE
  2
CONTINUOUS
 70
     0
  3
Solid line
 72
    65
 73
     0
 40
0.0
  0
LTYPE
  2
DASHED
 70
     0
  3
__ __ __ __ __ __ __ __ __ __ __ __ __ __ __
 72
    65
 73
     2
 40
0.75
 49
0.5
 49
-0.25
  0
LTYPE
  2
HIDDEN
 70
     0
  3
_ _ _ _ _ _ _ _ _ _ _ _ _ _ _ _ _ _ _ _ _ _ _
 72
    65
 73
     2
 40
0.375
 49
0.25
 49
-0.125
  0
LTYPE
  2
CENTER
 70
     0
  3
____ _ ____ _ ____ _ ____ _ ____ _ ____ _ ____
 72
    65
 73
     4
 40
2.0
 49
1.25
 49
-0.25
 49
0.25
 49
-0.25
  0
LTYPE
  2
PHANTOM
 70
     0
  3
_____ _ _ _____ _ _ _____ _ _ _____ _ _ ____
 72
    65
 73
     6
 40
2.5
 49
1.25
 49
-0.25
 49
0.25
 49
-0.25
 49
0.25
 49
-0.25
  0
LTYPE
  2
DOT
 70
     0
  3
...............................................
 72
    65
 73
     2
 40
0.25
 49
0.0
 49
-0.25
  0
LTYPE
  2
DASHDOT
 70
     0
  3
__ . __ . __ . __ . __ . __ . __ . __ . __ . __
 72
    65
 73
     4
 40
1.0
 49
0.5
 49
-0.25
 49
0.0
 49
-0.25
  0
LTYPE
  2
BORDER
 70
     0
  3
__ __ . __ __ . __ __ . __ __ . __ __ . __ __
 72
    65
 73
     6
 40
1.75
 49
0.5
 49
-0.25
 49
0.5
 49
-0.25
 49
0.0
 49
-0.25
  0
LTYPE
  2
DIVIDE
 70
     0
  3
__ . . __ . . __ . . __ . . __ . . __ . . __
 72
    65
 73
     6
 40
1.25
 49
0.5
 49
-0.25
 49
0.0
 49
-0.25
 49
0.0
 49
-0.25
  0
ENDTAB
  0
TABLE
  2
LAYER
 70
   100
  0
LAYER
  2
0
 70
     0
 62
     3
  6
CONTINUOUS
  0
LAYER
  2
1
 70
     0
 62
     3
  6
CONTINUOUS
  0
LAYER
  2
2
 70
     0
 62
     3
  6
CONTINUOUS
  0
LAYER
  2
3
 70
     0
 62
     3
  6
CONTINUOUS
  0
LAYER
  2
4
 70
     0
 62
     3
  6
CONTINUOUS
  0
LAYER
  2
5
 70
     0
 62
     3
  6
CONTINUOUS
  0
LAYER
  2
6
 70
     0
 62
     3
  6
CONTINUOUS
  0
LAYER
  2
7
 70
     0
 62
     3
  6
CONTINUOUS
  0
LAYER
  2
8
 70
     0
 62
     3
  6
CONTINUOUS
  0
LAYER
  2
9
 70
     0
 62
     3
  6
CONTINUOUS
  0
LAYER
  2
10
 70
     0
 62
     3
  6
CONTINUOUS
  0
LAYER
  2
11
 70
     0
 62
     3
  6
CONTINUOUS
  0
LAYER
  2
12
 70
     0
 62
     3
  6
CONTINUOUS
  0
LAYER
  2
13
 70
     0
 62
     3
  6
CONTINUOUS
  0
LAYER
  2
14
 70
     0
 62
     3
  6
CONTINUOUS
  0
LAYER
  2
15
 70
     0
 62
     3
  6
CONTINUOUS
  0
LAYER
  2
16
 70
     0
 62
     3
  6
CONTINUOUS
  0
LAYER
  2
17
 70
     0
 62
     3
  6
CONTINUOUS
  0
LAYER
  2
18
 70
     0
 62
     3
  6
CONTINUOUS
  0
LAYER
  2
19
 70
     0
 62
     3
  6
CONTINUOUS
  0
LAYER
  2
20
 70
     0
 62
     3
  6
CONTINUOUS
  0
LAYER
  2
21
 70
     0
 62
     3
  6
CONTINUOUS
  0
LAYER
  2
22
 70
     0
 62
     3
  6
CONTINUOUS
  0
LAYER
  2
23
 70
     0
 62
     3
  6
CONTINUOUS
  0
LAYER
  2
24
 70
     0
 62
     3
  6
CONTINUOUS
  0
LAYER
  2
25
 70
     0
 62
     3
  6
CONTINUOUS
  0
LAYER
  2
26
 70
     0
 62
     3
  6
CONTINUOUS
  0
LAYER
  2
27
 70
     0
 62
     3
  6
CONTINUOUS
  0
LAYER
  2
28
 70
     0
 62
     3
  6
CONTINUOUS
  0
LAYER
  2
29
 70
     0
 62
     3
  6
CONTINUOUS
  0
LAYER
  2
30
 70
     0
 62
     3
  6
CONTINUOUS
  0
LAYER
  2
31
 70
     0
 62
     3
  6
CONTINUOUS
  0
LAYER
  2
32
 70
     0
 62
     3
  6
CONTINUOUS
  0
LAYER
  2
33
 70
     0
 62
     3
  6
CONTINUOUS
  0
LAYER
  2
34
 70
     0
 62
     3
  6
CONTINUOUS
  0
LAYER
  2
35
 70
     0
 62
     3
  6
CONTINUOUS
  0
LAYER
  2
36
 70
     0
 62
     3
  6
CONTINUOUS
  0
LAYER
  2
37
 70
     0
 62
     3
  6
CONTINUOUS
  0
LAYER
  2
38
 70
     0
 62
     3
  6
CONTINUOUS
  0
LAYER
  2
39
 70
     0
 62
     3
  6
CONTINUOUS
  0
LAYER
  2
40
 70
     0
 62
     3
  6
CONTINUOUS
  0
LAYER
  2
41
 70
     0
 62
     3
  6
CONTINUOUS
  0
LAYER
  2
42
 70
     0
 62
     3
  6
CONTINUOUS
  0
LAYER
  2
43
 70
     0
 62
     3
  6
CONTINUOUS
  0
LAYER
  2
44
 70
     0
 62
     3
  6
CONTINUOUS
  0
LAYER
  2
45
 70
     0
 62
     3
  6
CONTINUOUS
  0
LAYER
  2
46
 70
     0
 62
     3
  6
CONTINUOUS
  0
LAYER
  2
47
 70
     0
 62
     3
  6
CONTINUOUS
  0
LAYER
  2
48
 70
     0
 62
     3
  6
CONTINUOUS
  0
LAYER
  2
49
 70
     0
 62
     3
  6
CONTINUOUS
  0
LAYER
  2
50
 70
     0
 62
     3
  6
CONTINUOUS
  0
LAYER
  2
51
 70
     0
 62
     3
  6
CONTINUOUS
  0
LAYER
  2
52
 70
     0
 62
     3
  6
CONTINUOUS
  0
LAYER
  2
53
 70
     0
 62
     3
  6
CONTINUOUS
  0
LAYER
  2
54
 70
     0
 62
     3
  6
CONTINUOUS
  0
LAYER
  2
55
 70
     0
 62
     3
  6
CONTINUOUS
  0
LAYER
  2
56
 70
     0
 62
     3
  6
CONTINUOUS
  0
LAYER
  2
57
 70
     0
 62
     3
  6
CONTINUOUS
  0
LAYER
  2
58
 70
     0
 62
     3
  6
CONTINUOUS
  0
LAYER
  2
59
 70
     0
 62
     3
  6
CONTINUOUS
  0
LAYER
  2
60
 70
     0
 62
     3
  6
CONTINUOUS
  0
LAYER
  2
61
 70
     0
 62
     3
  6
CONTINUOUS
  0
LAYER
  2
62
 70
     0
 62
     3
  6
CONTINUOUS
  0
LAYER
  2
63
 70
     0
 62
     3
  6
CONTINUOUS
  0
LAYER
  2
64
 70
     0
 62
     3
  6
CONTINUOUS
  0
LAYER
  2
65
 70
     0
 62
     3
  6
CONTINUOUS
  0
LAYER
  2
66
 70
     0
 62
     3
  6
CONTINUOUS
  0
LAYER
  2
67
 70
     0
 62
     3
  6
CONTINUOUS
  0
LAYER
  2
68
 70
     0
 62
     3
  6
CONTINUOUS
  0
LAYER
  2
69
 70
     0
 62
     3
  6
CONTINUOUS
  0
LAYER
  2
70
 70
     0
 62
     3
  6
CONTINUOUS
  0
LAYER
  2
71
 70
     0
 62
     3
  6
CONTINUOUS
  0
LAYER
  2
72
 70
     0
 62
     3
  6
CONTINUOUS
  0
LAYER
  2
73
 70
     0
 62
     3
  6
CONTINUOUS
  0
LAYER
  2
74
 70
     0
 62
     3
  6
CONTINUOUS
  0
LAYER
  2
75
 70
     0
 62
     3
  6
CONTINUOUS
  0
LAYER
  2
76
 70
     0
 62
     3
  6
CONTINUOUS
  0
LAYER
  2
77
 70
     0
 62
     3
  6
CONTINUOUS
  0
LAYER
  2
78
 70
     0
 62
     3
  6
CONTINUOUS
  0
LAYER
  2
79
 70
     0
 62
     3
  6
CONTINUOUS
  0
LAYER
  2
80
 70
     0
 62
     3
  6
CONTINUOUS
  0
LAYER
  2
81
 70
     0
 62
     3
  6
CONTINUOUS
  0
LAYER
  2
82
 70
     0
 62
     3
  6
CONTINUOUS
  0
LAYER
  2
83
 70
     0
 62
     3
  6
CONTINUOUS
  0
LAYER
  2
84
 70
     0
 62
     3
  6
CONTINUOUS
  0
LAYER
  2
85
 70
     0
 62
     3
  6
CONTINUOUS
  0
LAYER
  2
86
 70
     0
 62
     3
  6
CONTINUOUS
  0
LAYER
  2
87
 70
     0
 62
     3
  6
CONTINUOUS
  0
LAYER
  2
88
 70
     0
 62
     3
  6
CONTINUOUS
  0
LAYER
  2
89
 70
     0
 62
     3
  6
CONTINUOUS
  0
LAYER
  2
90
 70
     0
 62
     3
  6
CONTINUOUS
  0
LAYER
  2
91
 70
     0
 62
     3
  6
CONTINUOUS
  0
LAYER
  2
92
 70
     0
 62
     3
  6
CONTINUOUS
  0
LAYER
  2
93
 70
     0
 62
     3
  6
CONTINUOUS
  0
LAYER
  2
94
 70
     0
 62
     3
  6
CONTINUOUS
  0
LAYER
  2
95
 70
     0
 62
     3
  6
CONTINUOUS
  0
LAYER
  2
96
 70
     0
 62
     3
  6
CONTINUOUS
  0
LAYER
  2
97
 70
     0
 62
     3
  6
CONTINUOUS
  0
LAYER
  2
98
 70
     0
 62
     3
  6
CONTINUOUS
  0
LAYER
  2
99
 70
     0
 62
     3
  6
CONTINUOUS
  0
ENDTAB
  0
TABLE
  2
STYLE
 70
     3
  0
STYLE
  2
STANDARD
 70
     0
 40
0.0
 41
1.0
 50
0.0
 71
     0
 42
0.2
  3
TXT
  4
BIGFONT
  0
STYLE
  2
ANNOTATIVE
 70
     0
 40
0.0
 41
1.0
 50
0.0
 71
     0
 42
0.2
  3
txt
  4

  0
STYLE
  2
KANJI
 70
     0
 40
4.5
 41
1.0
 50
0.0
 71
     0
 42
0.2
  3
TXT
  4
BIGFONT
  0
ENDTAB
  0
TABLE
  2
VIEW
 70
     0
  0
ENDTAB
  0
TABLE
  2
UCS
 70
     0
  0
ENDTAB
  0
TABLE
  2
APPID
 70
     4
  0
APPID
  2
ACAD
 70
     0
  0
APPID
  2
ACADANNOTATIVE
 70
     0
  0
APPID
  2
ACAD_NAV_VCDISPLAY
 70
     0
  0
APPID
  2
ACAD_MLEADERVER
 70
     0
  0
ENDTAB
  0
TABLE
  2
DIMSTYLE
 70
     2
  0
DIMSTYLE
  2
STANDARD
 70
     0
  3

  4

  5

  6

  7

 40
1.0
 41
0.18
 42
0.0625
 43
0.38
 44
0.18
 45
0.0
 46
0.0
 47
0.0
 48
0.0
140
0.18
141
0.09
142
0.0
143
25.399999999999999
144
1.0
145
0.0
146
1.0
147
0.09
 71
     0
 72
     0
 73
     1
 74
     1
 75
     0
 76
     0
 77
     0
 78
     0
170
     0
171
     2
172
     0
173
     0
174
     0
175
     0
176
     0
177
     0
178
     0
  0
DIMSTYLE
  2
ANNOTATIVE
 70
     0
  3

  4

  5

  6

  7

 40
1.0
 41
0.18
 42
0.0625
 43
0.38
 44
0.18
 45
0.0
 46
0.0
 47
0.0
 48
0.0
140
0.18
141
0.09
142
0.0
143
25.399999999999999
144
1.0
145
0.0
146
1.0
147
0.09
 71
     0
 72
     0
 73
     1
 74
     1
 75
     0
 76
     0
 77
     0
 78
     0
170
     0
171
     2
172
     0
173
     0
174
     0
175
     0
176
     0
177
     0
178
     0
  0
ENDTAB
  0
ENDSEC
  0
SECTION
  2
BLOCKS
  0
BLOCK
  8
0
  2
$MODEL_SPACE
 70
     0
 10
0.0
 20
0.0
 30
0.0
  3
$MODEL_SPACE
  1

  0
ENDBLK
  5
71
  8
0
  0
BLOCK
 67
     1
  8
0
  2
$PAPER_SPACE
 70
     0
 10
0.0
 20
0.0
 30
0.0
  3
$PAPER_SPACE
  1

  0
ENDBLK
  5
6D
 67
     1
  8
0
  0
BLOCK
  8
0
  2
D0
 70
     0
 10
0.0
 20
0.0
 30
0.0
  3
D0
  1

  0
TEXT
  5
E4
  8
0
 62
     7
 10
1166.428398
 20
728.50855799999999
 30
0.0
 40
16.0
  1
120
 50
90.0
 41
0.8076923076923078
 72
     5
 11
1166.428398
 21
756.50855799999988
 31
0.0
  0
LINE
  5
E5
  8
0
  6
CONTINUOUS
 62
     7
 10
1129.0
 20
682.50855799999988
 30
0.0
 11
1171.0283979999999
 21
682.50855799999988
 31
0.0
  0
LINE
  5
E6
  8
0
  6
CONTINUOUS
 62
     7
 10
1129.0
 20
802.50855799999999
 30
0.0
 11
1171.0283979999999
 21
802.50855799999999
 31
0.0
  0
LINE
  5
E7
  8
0
  6
CONTINUOUS
 62
     7
 10
1168.0283979999999
 20
802.50855799999999
 30
0.0
 11
1168.0283979999999
 21
682.50855799999988
 31
0.0
  0
LINE
  5
E8
  8
0
  6
CONTINUOUS
 62
     7
 10
1168.0283979999999
 20
802.50855799999999
 30
0.0
 11
1173.851827
 21
780.77522699999986
 31
0.0
  0
LINE
  5
E9
  8
0
  6
CONTINUOUS
 62
     7
 10
1168.0283979999999
 20
802.50855799999999
 30
0.0
 11
1162.2049689999999
 21
780.77522699999986
 31
0.0
  0
LINE
  5
EA
  8
0
  6
CONTINUOUS
 62
     7
 10
1168.0283979999999
 20
682.50855799999988
 30
0.0
 11
1162.2049689999999
 21
704.24188900000001
 31
0.0
  0
LINE
  5
EB
  8
0
  6
CONTINUOUS
 62
     7
 10
1168.0283979999999
 20
682.50855799999988
 30
0.0
 11
1173.851827
 21
704.24188900000001
 31
0.0
  0
ENDBLK
  5
EC
  8
0
  0
ENDSEC
  0
SECTION
  2
ENTITIES
  0
POINT
  5
ED
  8
0
 62
     1
 10
-1049.5
 20
-971.34179099999994
 30
0.0
  0
TEXT
  5
EE
  8
0
 62
     6
 10
236.96090799999999
 20
-475.41796599999998
 30
0.0
 40
22.5
  1
\U+03C6５０　Ｓ
 41
0.8095238095238094
  7
KANJI
 72
     5
 11
338.96090800000002
 21
-475.41796599999998
 31
0.0
  0
TEXT
  5
EF
  8
0
 62
     6
 10
221.96090799999999
 20
-437.59126500000008
 30
0.0
 40
22.5
  1
メカニカル形（Ｓ＝１／５）
 41
0.75
  7
KANJI
 72
     5
 11
471.71090800000002
 21
-437.59126500000008
 31
0.0
  0
LINE
  5
F0
  8
3
  6
CENTER
 62
     2
 10
-82.686502999999902
 20
0.0
 30
0.0
 11
86.33788699999991
 21
0.0
 31
0.0
  0
CIRCLE
  5
F1
  8
1
  6
CONTINUOUS
 62
     4
 10
0.0
 20
0.0
 30
0.0
 40
34.0
  0
ARC
  5
F2
  8
1
  6
CONTINUOUS
 62
     4
 10
0.0
 20
0.0
 30
0.0
 40
54.0
 50
232.6168019999991
 51
307.38319899999823
  0
LINE
  5
F3
  8
1
  6
CONTINUOUS
 62
     4
 10
-32.785714000000098
 20
-42.908005000000117
 30
0.0
 11
-68.142857000000049
 21
-15.891852999999969
 31
0.0
  0
LINE
  5
F4
  8
1
  6
CONTINUOUS
 62
     4
 10
-32.785714000000098
 20
42.908005999999993
 30
0.0
 11
-68.142857000000049
 21
15.891853999999849
 31
0.0
  0
ARC
  5
F5
  8
1
  6
CONTINUOUS
 62
     4
 10
-56.0
 20
0.0
 30
0.0
 40
20.0
 50
127.3831989999982
 51
232.6168019999991
  0
LINE
  5
F6
  8
1
  6
CONTINUOUS
 62
     4
 10
32.785714000000098
 20
-42.908005000000117
 30
0.0
 11
68.142857000000049
 21
-15.891852999999969
 31
0.0
  0
LINE
  5
F7
  8
1
  6
CONTINUOUS
 62
     4
 10
32.785714000000098
 20
42.908005999999993
 30
0.0
 11
68.142857000000049
 21
15.891853999999849
 31
0.0
  0
ARC
  5
F8
  8
1
  6
CONTINUOUS
 62
     4
 10
0.0
 20
0.0
 30
0.0
 40
54.0
 50
52.616801999999034
 51
127.3831989999982
  0
ARC
  5
F9
  8
1
  6
CONTINUOUS
 62
     4
 10
56.0
 20
0.0
 30
0.0
 40
20.0
 50
307.38319800000102
 51
52.616801000001772
  0
CIRCLE
  5
FA
  8
1
  6
CONTINUOUS
 62
     3
 10
-60.0
 20
0.0
 30
0.0
 40
6.0
  0
CIRCLE
  5
FB
  8
1
  6
CONTINUOUS
 62
     3
 10
-60.0
 20
0.0
 30
0.0
 40
5.052999999999999
  0
LINE
  5
FC
  8
0
  6
CONTINUOUS
 62
     3
 10
-69.482977999999889
 20
5.4749999999999091
 30
0.0
 11
-69.482977999999889
 21
-5.4750000000000218
 31
0.0
  0
LINE
  5
FD
  8
3
  6
CENTER
 62
     2
 10
0.0
 20
-128.612549
 30
0.0
 11
0.0
 21
-330.24493900000022
 31
0.0
  0
ARC
  5
FE
  8
1
  6
CONTINUOUS
 62
     4
 10
-77.241599999999949
 20
-208.57903300000009
 30
0.0
 40
35.0
 50
6.9675000000002276
 51
43.847200000002232
  0
ARC
  5
FF
  8
1
  6
CONTINUOUS
 62
     4
 10
77.241600000000062
 20
-208.57903300000009
 30
0.0
 40
35.0
 50
136.15279999999771
 51
173.03249999999969
  0
LINE
  5
100
  8
1
  6
CONTINUOUS
 62
     4
 10
-42.5
 20
-204.33333300000001
 30
0.0
 11
-42.5
 21
-254.33315400000001
 31
0.0
  0
LINE
  5
101
  8
1
  6
CONTINUOUS
 62
     4
 10
42.5
 20
-204.33333300000001
 30
0.0
 11
42.5
 21
-254.33315400000001
 31
0.0
  0
LINE
  5
102
  8
1
  6
CONTINUOUS
 62
     4
 10
76.0
 20
-169.33323300000001
 30
0.0
 11
-76.0
 21
-169.33323300000001
 31
0.0
  0
LINE
  5
103
  8
1
  6
CONTINUOUS
 62
     4
 10
-76.0
 20
-184.33323300000001
 30
0.0
 11
76.0
 21
-184.33323300000001
 31
0.0
  0
LINE
  5
104
  8
0
  6
CENTER
 62
     4
 10
0.0
 20
65.261248000000023
 30
0.0
 11
0.0
 21
-61.137740000000122
 31
0.0
  0
LINE
  5
105
  8
0
  6
CONTINUOUS
 62
     4
 10
37.764457
 20
-254.33315400000001
 30
0.0
 11
-36.63862400000005
 21
-254.33315400000001
 31
0.0
  0
LINE
  5
106
  8
0
  6
CONTINUOUS
 62
     4
 10
76.0
 20
-289.33323300000012
 30
0.0
 11
76.0
 21
-274.33323300000012
 31
0.0
  0
LINE
  5
107
  8
0
  6
CONTINUOUS
 62
     4
 10
-76.0
 20
-289.33323300000012
 30
0.0
 11
-76.0
 21
-274.33323300000012
 31
0.0
  0
LINE
  5
108
  8
1
  6
CONTINUOUS
 62
     4
 10
-76.0
 20
-274.33323300000012
 30
0.0
 11
76.0
 21
-274.33323300000012
 31
0.0
  0
LINE
  5
109
  8
1
  6
CONTINUOUS
 62
     4
 10
76.0
 20
-289.33323300000012
 30
0.0
 11
-76.0
 21
-289.33323300000012
 31
0.0
  0
ARC
  5
10A
  8
0
  6
CENTER
 62
     4
 10
0.0
 20
0.0
 30
0.0
 40
60.0
 50
162.3850679999974
 51
198.7334029999991
  0
ARC
  5
10B
  8
0
  6
CENTER
 62
     4
 10
0.0
 20
0.0
 30
0.0
 40
60.0
 50
342.58210400000331
 51
16.297351999999119
  0
ARC
  5
10D
  8
1
  6
CONTINUOUS
 62
     4
 10
77.241600000000062
 20
-250.087433
 30
0.0
 40
35.0
 50
186.9675000000002
 51
223.8472000000022
  0
ARC
  5
10E
  8
1
  6
CONTINUOUS
 62
     4
 10
-77.241599999999949
 20
-250.087433
 30
0.0
 40
35.0
 50
316.15279999999768
 51
353.0324999999998
  0
LINE
  5
10F
  8
0
  6
CONTINUOUS
 62
     4
 10
37.764457
 20
-204.33333300000001
 30
0.0
 11
-36.63862400000005
 21
-204.33333300000001
 31
0.0
  0
LINE
  5
110
  8
0
  6
CONTINUOUS
 62
     4
 10
-76.0
 20
-169.33323300000001
 30
0.0
 11
-76.0
 21
-184.33323300000001
 31
0.0
  0
LINE
  5
111
  8
0
  6
CONTINUOUS
 62
     4
 10
76.0
 20
-169.33323300000001
 30
0.0
 11
76.0
 21
-184.33323300000001
 31
0.0
  0
LINE
  5
112
  8
0
  6
CONTINUOUS
 62
     3
 10
-60.0
 20
10.94999999999993
 30
0.0
 11
-69.482977999999889
 21
5.4749999999999091
 31
0.0
  0
LINE
  5
113
  8
0
  6
CONTINUOUS
 62
     3
 10
-50.517022000000111
 20
5.4749999999999091
 30
0.0
 11
-60.0
 21
10.94999999999993
 31
0.0
  0
LINE
  5
114
  8
0
  6
CONTINUOUS
 62
     3
 10
-50.517022000000111
 20
-5.4750000000000218
 30
0.0
 11
-50.517022000000111
 21
5.4749999999999091
 31
0.0
  0
LINE
  5
115
  8
0
  6
CONTINUOUS
 62
     3
 10
-60.0
 20
-10.95000000000004
 30
0.0
 11
-50.517022000000111
 21
-5.4750000000000218
 31
0.0
  0
LINE
  5
116
  8
0
  6
CONTINUOUS
 62
     3
 10
-69.482977999999889
 20
-5.4750000000000218
 30
0.0
 11
-60.0
 21
-10.95000000000004
 31
0.0
  0
CIRCLE
  5
117
  8
0
  6
CONTINUOUS
 62
     3
 10
-60.0
 20
0.0
 30
0.0
 40
9.5
  0
CIRCLE
  5
118
  8
1
  6
CONTINUOUS
 62
     3
 10
60.0
 20
0.0
 30
0.0
 40
6.0
  0
CIRCLE
  5
119
  8
1
  6
CONTINUOUS
 62
     3
 10
60.0
 20
0.0
 30
0.0
 40
5.052999999999999
  0
LINE
  5
11A
  8
0
  6
CONTINUOUS
 62
     3
 10
50.517021999999997
 20
5.4749999999999091
 30
0.0
 11
50.517021999999997
 21
-5.4750000000000218
 31
0.0
  0
LINE
  5
11B
  8
0
  6
CONTINUOUS
 62
     3
 10
60.0
 20
10.94999999999993
 30
0.0
 11
50.517021999999997
 21
5.4749999999999091
 31
0.0
  0
LINE
  5
11C
  8
0
  6
CONTINUOUS
 62
     3
 10
69.482978000000003
 20
5.4749999999999091
 30
0.0
 11
60.0
 21
10.94999999999993
 31
0.0
  0
LINE
  5
11D
  8
0
  6
CONTINUOUS
 62
     3
 10
69.482978000000003
 20
-5.4750000000000218
 30
0.0
 11
69.482978000000003
 21
5.4749999999999091
 31
0.0
  0
LINE
  5
11E
  8
0
  6
CONTINUOUS
 62
     3
 10
60.0
 20
-10.95000000000004
 30
0.0
 11
69.482978000000003
 21
-5.4750000000000218
 31
0.0
  0
LINE
  5
11F
  8
0
  6
CONTINUOUS
 62
     3
 10
50.517021999999997
 20
-5.4750000000000218
 30
0.0
 11
60.0
 21
-10.95000000000004
 31
0.0
  0
CIRCLE
  5
120
  8
0
  6
CONTINUOUS
 62
     3
 10
60.0
 20
0.0
 30
0.0
 40
9.5
  0
CIRCLE
  5
121
  8
0
  6
CONTINUOUS
 62
     2
 10
0.0
 20
0.0
 30
0.0
 40
35.841768000000002
  0
ARC
  5
122
  8
0
  6
CONTINUOUS
 62
     2
 10
0.0
 20
0.0
 30
0.0
 40
41.5
 50
27.59106900000014
 51
152.4089309999998
  0
ARC
  5
123
  8
0
  6
CONTINUOUS
 62
     2
 10
42.098099999999917
 20
22.0
 30
0.0
 40
6.0
 50
207.59106900000009
 51
270.0
  0
LINE
  5
124
  8
0
  6
CONTINUOUS
 62
     2
 10
42.098099999999917
 20
16.0
 30
0.0
 11
60.0
 21
16.0
 31
0.0
  0
ARC
  5
125
  8
0
  6
CONTINUOUS
 62
     2
 10
60.0
 20
0.0
 30
0.0
 40
16.0
 50
270.0
 51
90.0
  0
LINE
  5
126
  8
0
  6
CONTINUOUS
 62
     2
 10
-42.098100000000038
 20
16.0
 30
0.0
 11
-60.0
 21
16.0
 31
0.0
  0
LINE
  5
127
  8
0
  6
CONTINUOUS
 62
     2
 10
-42.098100000000038
 20
-16.0
 30
0.0
 11
-60.0
 21
-16.0
 31
0.0
  0
ARC
  5
128
  8
0
  6
CONTINUOUS
 62
     2
 10
-60.0
 20
0.0
 30
0.0
 40
16.0
 50
90.0
 51
270.0
  0
CIRCLE
  5
129
  8
0
  6
CONTINUOUS
 62
     2
 10
0.0
 20
0.0
 30
0.0
 40
34.0
  0
ARC
  5
12A
  8
0
  6
CONTINUOUS
 62
     2
 10
0.0
 20
0.0
 30
0.0
 40
41.5
 50
207.59106900000009
 51
332.40893099999988
  0
ARC
  5
12B
  8
0
  6
CONTINUOUS
 62
     2
 10
-42.098100000000038
 20
-22.0
 30
0.0
 40
6.0
 50
27.59106900000014
 51
90.0
  0
ARC
  5
12C
  8
0
  6
CONTINUOUS
 62
     2
 10
-42.098100000000038
 20
22.0
 30
0.0
 40
6.0
 50
270.0
 51
332.40893099999988
  0
ARC
  5
12D
  8
0
  6
CONTINUOUS
 62
     2
 10
42.098099999999917
 20
-22.0
 30
0.0
 40
6.0
 50
90.0
 51
152.4089309999998
  0
LINE
  5
12E
  8
0
  6
CONTINUOUS
 62
     2
 10
42.098099999999917
 20
-16.0
 30
0.0
 11
60.0
 21
-16.0
 31
0.0
  0
LINE
  5
12F
  8
0
  6
CONTINUOUS
 62
     6
 10
45.0
 20
-168.33323300000001
 30
0.0
 11
45.0
 21
-169.33323300000001
 31
0.0
  0
LINE
  5
130
  8
0
  6
CONTINUOUS
 62
     3
 10
-51.802240999999981
 20
-134.13323299999999
 30
0.0
 11
-68.197759000000019
 21
-134.13323299999999
 31
0.0
  0
LINE
  5
131
  8
0
  6
CONTINUOUS
 62
     6
 10
-45.0
 20
-168.33323300000001
 30
0.0
 11
-45.0
 21
-169.33323300000001
 31
0.0
  0
LINE
  5
132
  8
0
  6
CONTINUOUS
 62
     6
 10
44.0
 20
-168.13323299999999
 30
0.0
 11
45.0
 21
-168.33323300000001
 31
0.0
  0
LINE
  5
133
  8
0
  6
CONTINUOUS
 62
     6
 10
-45.0
 20
-168.33323300000001
 30
0.0
 11
-44.0
 21
-168.13323299999999
 31
0.0
  0
LINE
  5
134
  8
0
  6
CONTINUOUS
 62
     2
 10
41.5
 20
-144.13323299999999
 30
0.0
 11
68.0899730000001
 21
-151.84047199999989
 31
0.0
  0
LINE
  5
135
  8
0
  6
CONTINUOUS
 62
     2
 10
-41.5
 20
-144.13323299999999
 30
0.0
 11
-66.100410000000011
 21
-151.26378700000009
 31
0.0
  0
LINE
  5
136
  8
0
  6
CONTINUOUS
 62
     2
 10
-73.415755000000104
 20
-154.13323299999999
 30
0.0
 11
71.335238000000118
 21
-154.13323299999999
 31
0.0
  0
ARC
  5
137
  8
0
  6
CONTINUOUS
 62
     2
 10
47.0
 20
-162.13323299999999
 30
0.0
 40
3.0
 50
90.0
 51
180.0
  0
ARC
  5
138
  8
0
  6
CONTINUOUS
 62
     2
 10
-47.0
 20
-162.13323299999999
 30
0.0
 40
3.0
 50
0.0
 51
90.0
  0
LINE
  5
139
  8
0
  6
HIDDEN
 62
     2
 10
-38.258489000000061
 20
-159.13323299999999
 30
0.0
 11
40.188236999999837
 21
-159.13323299999999
 31
0.0
  0
LINE
  5
13A
  8
0
  6
CONTINUOUS
 62
     2
 10
76.0
 20
-159.13323299999999
 30
0.0
 11
76.0
 21
-144.13323299999999
 31
0.0
  0
LINE
  5
13B
  8
0
  6
CONTINUOUS
 62
     2
 10
-76.0
 20
-159.13323299999999
 30
0.0
 11
-76.0
 21
-144.13323299999999
 31
0.0
  0
LINE
  5
13C
  8
0
  6
CONTINUOUS
 62
     2
 10
-76.0
 20
-144.13323299999999
 30
0.0
 11
76.0
 21
-144.13323299999999
 31
0.0
  0
LINE
  5
13D
  8
0
  6
CONTINUOUS
 62
     2
 10
-76.0
 20
-159.13323299999999
 30
0.0
 11
76.0
 21
-159.13323299999999
 31
0.0
  0
LINE
  5
13E
  8
0
  6
CONTINUOUS
 62
     2
 10
44.0
 20
-168.13323299999999
 30
0.0
 11
44.0
 21
-162.13323299999999
 31
0.0
  0
LINE
  5
13F
  8
0
  6
CONTINUOUS
 62
     2
 10
-44.0
 20
-168.13323299999999
 30
0.0
 11
-44.0
 21
-162.13323299999999
 31
0.0
  0
LINE
  5
140
  8
0
  6
CENTER
 62
     2
 10
-60.0
 20
-114.7623509999999
 30
0.0
 11
-60.0
 21
-203.66452700000011
 31
0.0
  0
LINE
  5
141
  8
0
  6
CENTER
 62
     2
 10
60.0
 20
-203.66452700000011
 30
0.0
 11
60.0
 21
-114.7623509999999
 31
0.0
  0
LINE
  5
142
  8
0
  6
CONTINUOUS
 62
     2
 10
44.0
 20
-168.13323299999999
 30
0.0
 11
-44.0
 21
-168.13323299999999
 31
0.0
  0
LINE
  5
143
  8
0
  6
CONTINUOUS
 62
     3
 10
-49.049999999999947
 20
-144.13323299999999
 30
0.0
 11
-49.049999999999947
 21
-134.97039100000001
 31
0.0
  0
LINE
  5
144
  8
0
  6
CONTINUOUS
 62
     3
 10
-54.52499999999997
 20
-144.13323299999999
 30
0.0
 11
-54.52499999999997
 21
-134.97039100000001
 31
0.0
  0
LINE
  5
145
  8
0
  6
CONTINUOUS
 62
     3
 10
-65.475000000000023
 20
-144.13323299999999
 30
0.0
 11
-65.475000000000023
 21
-134.97039100000001
 31
0.0
  0
LINE
  5
146
  8
0
  6
CONTINUOUS
 62
     3
 10
-70.950000000000045
 20
-144.13323299999999
 30
0.0
 11
-70.950000000000045
 21
-134.97039100000001
 31
0.0
  0
ARC
  5
147
  8
0
  6
CONTINUOUS
 62
     3
 10
-51.787500000000023
 20
-139.02748399999999
 30
0.0
 40
4.8942740000000002
 50
55.990723000002738
 51
124.0092779999964
  0
ARC
  5
148
  8
0
  6
CONTINUOUS
 62
     3
 10
-60.0
 20
-152.45502099999999
 30
0.0
 40
18.321788000000002
 50
72.612983000005002
 51
107.3870159999973
  0
ARC
  5
149
  8
0
  6
CONTINUOUS
 62
     3
 10
-68.212499999999977
 20
-139.02748399999999
 30
0.0
 40
4.8942740000000002
 50
55.990722000003551
 51
124.0092769999972
  0
LINE
  5
14A
  8
0
  6
CONTINUOUS
 62
     3
 10
-66.0
 20
-159.13323299999999
 30
0.0
 11
-66.0
 21
-169.33323300000001
 31
0.0
  0
LINE
  5
14B
  8
0
  6
CONTINUOUS
 62
     3
 10
-66.0
 20
-121.33323300000001
 30
0.0
 11
-66.0
 21
-134.13323299999999
 31
0.0
  0
LINE
  5
14C
  8
0
  6
CONTINUOUS
 62
     3
 10
-54.0
 20
-159.13323299999999
 30
0.0
 11
-54.0
 21
-169.33323300000001
 31
0.0
  0
LINE
  5
14D
  8
0
  6
CONTINUOUS
 62
     3
 10
-54.0
 20
-121.33323300000001
 30
0.0
 11
-54.0
 21
-134.13323299999999
 31
0.0
  0
LINE
  5
14E
  8
0
  6
CONTINUOUS
 62
     3
 10
-54.947000000000003
 20
-121.33323300000001
 30
0.0
 11
-54.947000000000003
 21
-134.13323299999999
 31
0.0
  0
LINE
  5
14F
  8
0
  6
CONTINUOUS
 62
     3
 10
-65.052999999999997
 20
-121.33323300000001
 30
0.0
 11
-65.052999999999997
 21
-134.13323299999999
 31
0.0
  0
LINE
  5
150
  8
0
  6
CONTINUOUS
 62
     3
 10
-54.0
 20
-121.33323300000001
 30
0.0
 11
-66.0
 21
-121.33323300000001
 31
0.0
  0
ARC
  5
151
  8
0
  6
CONTINUOUS
 62
     3
 10
-60.0
 20
-129.33323300000001
 30
0.0
 40
10.0
 50
53.13010300000338
 51
126.8698980000058
  0
POINT
  5
152
  8
0
 62
     3
 10
-60.0
 20
-144.13323299999999
 30
0.0
  0
LINE
  5
153
  8
0
  6
CONTINUOUS
 62
     3
 10
68.197758999999905
 20
-134.13323299999999
 30
0.0
 11
51.802241000000087
 21
-134.13323299999999
 31
0.0
  0
LINE
  5
154
  8
0
  6
CONTINUOUS
 62
     3
 10
70.950000000000045
 20
-144.13323299999999
 30
0.0
 11
70.950000000000045
 21
-134.97039100000001
 31
0.0
  0
LINE
  5
155
  8
0
  6
CONTINUOUS
 62
     3
 10
65.474999999999909
 20
-144.13323299999999
 30
0.0
 11
65.474999999999909
 21
-134.97039100000001
 31
0.0
  0
LINE
  5
156
  8
0
  6
CONTINUOUS
 62
     3
 10
54.525000000000091
 20
-144.13323299999999
 30
0.0
 11
54.525000000000091
 21
-134.97039100000001
 31
0.0
  0
LINE
  5
157
  8
0
  6
CONTINUOUS
 62
     3
 10
49.049999999999947
 20
-144.13323299999999
 30
0.0
 11
49.049999999999947
 21
-134.97039100000001
 31
0.0
  0
ARC
  5
158
  8
0
  6
CONTINUOUS
 62
     3
 10
68.212500000000091
 20
-139.02748399999999
 30
0.0
 40
4.8942740000000002
 50
55.990723000002738
 51
124.0092779999964
  0
ARC
  5
159
  8
0
  6
CONTINUOUS
 62
     3
 10
60.0
 20
-152.45502099999999
 30
0.0
 40
18.321788000000002
 50
72.612983000005002
 51
107.3870159999973
  0
ARC
  5
15A
  8
0
  6
CONTINUOUS
 62
     3
 10
51.787499999999909
 20
-139.02748399999999
 30
0.0
 40
4.8942740000000002
 50
55.990722000003551
 51
124.0092769999972
  0
LINE
  5
15B
  8
0
  6
CONTINUOUS
 62
     3
 10
54.0
 20
-159.13323299999999
 30
0.0
 11
54.0
 21
-169.33323300000001
 31
0.0
  0
LINE
  5
15C
  8
0
  6
CONTINUOUS
 62
     3
 10
54.0
 20
-121.33323300000001
 30
0.0
 11
54.0
 21
-134.13323299999999
 31
0.0
  0
LINE
  5
15D
  8
0
  6
CONTINUOUS
 62
     3
 10
66.0
 20
-159.13323299999999
 30
0.0
 11
66.0
 21
-169.33323300000001
 31
0.0
  0
LINE
  5
15E
  8
0
  6
CONTINUOUS
 62
     3
 10
66.0
 20
-121.33323300000001
 30
0.0
 11
66.0
 21
-134.13323299999999
 31
0.0
  0
LINE
  5
15F
  8
0
  6
CONTINUOUS
 62
     3
 10
65.053000000000111
 20
-121.33323300000001
 30
0.0
 11
65.053000000000111
 21
-134.13323299999999
 31
0.0
  0
LINE
  5
160
  8
0
  6
CONTINUOUS
 62
     3
 10
54.946999999999889
 20
-121.33323300000001
 30
0.0
 11
54.946999999999889
 21
-134.13323299999999
 31
0.0
  0
LINE
  5
161
  8
0
  6
CONTINUOUS
 62
     3
 10
66.0
 20
-121.33323300000001
 30
0.0
 11
54.0
 21
-121.33323300000001
 31
0.0
  0
ARC
  5
162
  8
0
  6
CONTINUOUS
 62
     3
 10
60.0
 20
-129.33323300000001
 30
0.0
 40
10.0
 50
53.13010300000338
 51
126.8698980000058
  0
POINT
  5
163
  8
0
 62
     3
 10
60.0
 20
-144.13323299999999
 30
0.0
  0
LINE
  5
164
  8
0
  6
CONTINUOUS
 62
     3
 10
-54.0
 20
-196.33323300000001
 30
0.0
 11
-66.0
 21
-196.33323300000001
 31
0.0
  0
LINE
  5
165
  8
0
  6
CONTINUOUS
 62
     3
 10
-66.0
 20
-196.33323300000001
 30
0.0
 11
-66.0
 21
-184.33323300000001
 31
0.0
  0
LINE
  5
166
  8
0
  6
CONTINUOUS
 62
     3
 10
-54.0
 20
-196.33323300000001
 30
0.0
 11
-54.0
 21
-184.33323300000001
 31
0.0
  0
LINE
  5
167
  8
0
  6
CONTINUOUS
 62
     3
 10
66.0
 20
-196.33323300000001
 30
0.0
 11
54.0
 21
-196.33323300000001
 31
0.0
  0
LINE
  5
168
  8
0
  6
CONTINUOUS
 62
     3
 10
54.0
 20
-196.33323300000001
 30
0.0
 11
54.0
 21
-184.33323300000001
 31
0.0
  0
LINE
  5
169
  8
0
  6
CONTINUOUS
 62
     3
 10
66.0
 20
-196.33323300000001
 30
0.0
 11
66.0
 21
-184.33323300000001
 31
0.0
  0
LINE
  5
16A
  8
0
  6
CONTINUOUS
 62
     6
 10
45.0
 20
-290.33323300000012
 30
0.0
 11
45.0
 21
-289.33323300000012
 31
0.0
  0
LINE
  5
16B
  8
0
  6
CONTINUOUS
 62
     3
 10
-51.802240999999981
 20
-324.533233
 30
0.0
 11
-68.197759000000019
 21
-324.533233
 31
0.0
  0
LINE
  5
16C
  8
0
  6
CONTINUOUS
 62
     6
 10
-45.0
 20
-290.33323300000012
 30
0.0
 11
-45.0
 21
-289.33323300000012
 31
0.0
  0
LINE
  5
16D
  8
0
  6
CONTINUOUS
 62
     6
 10
44.0
 20
-290.533233
 30
0.0
 11
45.0
 21
-290.33323300000012
 31
0.0
  0
LINE
  5
16E
  8
0
  6
CONTINUOUS
 62
     6
 10
-45.0
 20
-290.33323300000012
 30
0.0
 11
-44.0
 21
-290.533233
 31
0.0
  0
LINE
  5
16F
  8
0
  6
CONTINUOUS
 62
     2
 10
41.5
 20
-314.533233
 30
0.0
 11
68.0899730000001
 21
-306.82599399999998
 31
0.0
  0
LINE
  5
170
  8
0
  6
CONTINUOUS
 62
     2
 10
-41.5
 20
-314.533233
 30
0.0
 11
-66.100410000000011
 21
-307.40267899999998
 31
0.0
  0
LINE
  5
171
  8
0
  6
CONTINUOUS
 62
     2
 10
-73.415755000000104
 20
-304.533233
 30
0.0
 11
71.335238000000118
 21
-304.533233
 31
0.0
  0
ARC
  5
172
  8
0
  6
CONTINUOUS
 62
     2
 10
47.0
 20
-296.533233
 30
0.0
 40
3.0
 50
180.0
 51
270.0
  0
ARC
  5
173
  8
0
  6
CONTINUOUS
 62
     2
 10
-47.0
 20
-296.533233
 30
0.0
 40
3.0
 50
270.0
 51
0.0
  0
LINE
  5
174
  8
0
  6
HIDDEN
 62
     2
 10
-38.258489000000061
 20
-299.533233
 30
0.0
 11
40.188236999999837
 21
-299.533233
 31
0.0
  0
LINE
  5
175
  8
0
  6
CONTINUOUS
 62
     2
 10
76.0
 20
-299.533233
 30
0.0
 11
76.0
 21
-314.533233
 31
0.0
  0
LINE
  5
176
  8
0
  6
CONTINUOUS
 62
     2
 10
-76.0
 20
-299.533233
 30
0.0
 11
-76.0
 21
-314.533233
 31
0.0
  0
LINE
  5
177
  8
0
  6
CONTINUOUS
 62
     2
 10
-76.0
 20
-314.533233
 30
0.0
 11
76.0
 21
-314.533233
 31
0.0
  0
LINE
  5
178
  8
0
  6
CONTINUOUS
 62
     2
 10
-76.0
 20
-299.533233
 30
0.0
 11
76.0
 21
-299.533233
 31
0.0
  0
LINE
  5
179
  8
0
  6
CONTINUOUS
 62
     2
 10
44.0
 20
-290.533233
 30
0.0
 11
44.0
 21
-296.533233
 31
0.0
  0
LINE
  5
17A
  8
0
  6
CONTINUOUS
 62
     2
 10
-44.0
 20
-290.533233
 30
0.0
 11
-44.0
 21
-296.533233
 31
0.0
  0
LINE
  5
17B
  8
0
  6
CENTER
 62
     2
 10
-60.0
 20
-343.90411499999999
 30
0.0
 11
-60.0
 21
-255.00193900000011
 31
0.0
  0
LINE
  5
17C
  8
0
  6
CENTER
 62
     2
 10
60.0
 20
-255.00193900000011
 30
0.0
 11
60.0
 21
-343.90411499999999
 31
0.0
  0
LINE
  5
17D
  8
0
  6
CONTINUOUS
 62
     2
 10
44.0
 20
-290.533233
 30
0.0
 11
-44.0
 21
-290.533233
 31
0.0
  0
LINE
  5
17E
  8
0
  6
CONTINUOUS
 62
     3
 10
-49.049999999999947
 20
-314.533233
 30
0.0
 11
-49.049999999999947
 21
-323.69607500000012
 31
0.0
  0
LINE
  5
17F
  8
0
  6
CONTINUOUS
 62
     3
 10
-54.52499999999997
 20
-314.533233
 30
0.0
 11
-54.52499999999997
 21
-323.69607500000012
 31
0.0
  0
LINE
  5
180
  8
0
  6
CONTINUOUS
 62
     3
 10
-65.475000000000023
 20
-314.533233
 30
0.0
 11
-65.475000000000023
 21
-323.69607500000012
 31
0.0
  0
LINE
  5
181
  8
0
  6
CONTINUOUS
 62
     3
 10
-70.950000000000045
 20
-314.533233
 30
0.0
 11
-70.950000000000045
 21
-323.69607500000012
 31
0.0
  0
ARC
  5
182
  8
0
  6
CONTINUOUS
 62
     3
 10
-51.787500000000023
 20
-319.63898200000011
 30
0.0
 40
4.8942740000000002
 50
235.99072200000359
 51
304.00927699999733
  0
ARC
  5
183
  8
0
  6
CONTINUOUS
 62
     3
 10
-60.0
 20
-306.21144500000003
 30
0.0
 40
18.321788000000002
 50
252.61298400000271
 51
287.38701699999501
  0
ARC
  5
184
  8
0
  6
CONTINUOUS
 62
     3
 10
-68.212499999999977
 20
-319.63898200000011
 30
0.0
 40
4.8942740000000002
 50
235.9907230000027
 51
304.00927799999653
  0
LINE
  5
185
  8
0
  6
CONTINUOUS
 62
     3
 10
-66.0
 20
-299.533233
 30
0.0
 11
-66.0
 21
-289.33323300000012
 31
0.0
  0
LINE
  5
186
  8
0
  6
CONTINUOUS
 62
     3
 10
-66.0
 20
-337.33323300000012
 30
0.0
 11
-66.0
 21
-324.533233
 31
0.0
  0
LINE
  5
187
  8
0
  6
CONTINUOUS
 62
     3
 10
-54.0
 20
-299.533233
 30
0.0
 11
-54.0
 21
-289.33323300000012
 31
0.0
  0
LINE
  5
188
  8
0
  6
CONTINUOUS
 62
     3
 10
-54.0
 20
-337.33323300000012
 30
0.0
 11
-54.0
 21
-324.533233
 31
0.0
  0
LINE
  5
189
  8
0
  6
CONTINUOUS
 62
     3
 10
-54.947000000000003
 20
-337.33323300000012
 30
0.0
 11
-54.947000000000003
 21
-324.533233
 31
0.0
  0
LINE
  5
18A
  8
0
  6
CONTINUOUS
 62
     3
 10
-65.052999999999997
 20
-337.33323300000012
 30
0.0
 11
-65.052999999999997
 21
-324.533233
 31
0.0
  0
LINE
  5
18B
  8
0
  6
CONTINUOUS
 62
     3
 10
-54.0
 20
-337.33323300000012
 30
0.0
 11
-66.0
 21
-337.33323300000012
 31
0.0
  0
ARC
  5
18C
  8
0
  6
CONTINUOUS
 62
     3
 10
-60.0
 20
-329.33323300000012
 30
0.0
 40
10.0
 50
233.13010199999411
 51
306.86989699999663
  0
POINT
  5
18D
  8
0
 62
     3
 10
-60.0
 20
-314.533233
 30
0.0
  0
LINE
  5
18E
  8
0
  6
CONTINUOUS
 62
     3
 10
68.197758999999905
 20
-324.533233
 30
0.0
 11
51.802241000000087
 21
-324.533233
 31
0.0
  0
LINE
  5
18F
  8
0
  6
CONTINUOUS
 62
     3
 10
70.950000000000045
 20
-314.533233
 30
0.0
 11
70.950000000000045
 21
-323.69607500000012
 31
0.0
  0
LINE
  5
190
  8
0
  6
CONTINUOUS
 62
     3
 10
65.474999999999909
 20
-314.533233
 30
0.0
 11
65.474999999999909
 21
-323.69607500000012
 31
0.0
  0
LINE
  5
191
  8
0
  6
CONTINUOUS
 62
     3
 10
54.525000000000091
 20
-314.533233
 30
0.0
 11
54.525000000000091
 21
-323.69607500000012
 31
0.0
  0
LINE
  5
192
  8
0
  6
CONTINUOUS
 62
     3
 10
49.049999999999947
 20
-314.533233
 30
0.0
 11
49.049999999999947
 21
-323.69607500000012
 31
0.0
  0
ARC
  5
193
  8
0
  6
CONTINUOUS
 62
     3
 10
68.212500000000091
 20
-319.63898200000011
 30
0.0
 40
4.8942740000000002
 50
235.99072200000359
 51
304.00927699999733
  0
ARC
  5
194
  8
0
  6
CONTINUOUS
 62
     3
 10
60.0
 20
-306.21144500000003
 30
0.0
 40
18.321788000000002
 50
252.61298400000271
 51
287.38701699999501
  0
ARC
  5
195
  8
0
  6
CONTINUOUS
 62
     3
 10
51.787499999999909
 20
-319.63898200000011
 30
0.0
 40
4.8942740000000002
 50
235.9907230000027
 51
304.00927799999653
  0
LINE
  5
196
  8
0
  6
CONTINUOUS
 62
     3
 10
54.0
 20
-299.533233
 30
0.0
 11
54.0
 21
-289.33323300000012
 31
0.0
  0
LINE
  5
197
  8
0
  6
CONTINUOUS
 62
     3
 10
54.0
 20
-337.33323300000012
 30
0.0
 11
54.0
 21
-324.533233
 31
0.0
  0
LINE
  5
198
  8
0
  6
CONTINUOUS
 62
     3
 10
66.0
 20
-299.533233
 30
0.0
 11
66.0
 21
-289.33323300000012
 31
0.0
  0
LINE
  5
199
  8
0
  6
CONTINUOUS
 62
     3
 10
66.0
 20
-337.33323300000012
 30
0.0
 11
66.0
 21
-324.533233
 31
0.0
  0
LINE
  5
19A
  8
0
  6
CONTINUOUS
 62
     3
 10
65.053000000000111
 20
-337.33323300000012
 30
0.0
 11
65.053000000000111
 21
-324.533233
 31
0.0
  0
LINE
  5
19B
  8
0
  6
CONTINUOUS
 62
     3
 10
54.946999999999889
 20
-337.33323300000012
 30
0.0
 11
54.946999999999889
 21
-324.533233
 31
0.0
  0
LINE
  5
19C
  8
0
  6
CONTINUOUS
 62
     3
 10
66.0
 20
-337.33323300000012
 30
0.0
 11
54.0
 21
-337.33323300000012
 31
0.0
  0
ARC
  5
19D
  8
0
  6
CONTINUOUS
 62
     3
 10
60.0
 20
-329.33323300000012
 30
0.0
 40
10.0
 50
233.13010199999411
 51
306.86989699999663
  0
POINT
  5
19E
  8
0
 62
     3
 10
60.0
 20
-314.533233
 30
0.0
  0
LINE
  5
19F
  8
0
  6
CONTINUOUS
 62
     3
 10
-54.0
 20
-262.33323300000012
 30
0.0
 11
-66.0
 21
-262.33323300000012
 31
0.0
  0
LINE
  5
1A0
  8
0
  6
CONTINUOUS
 62
     3
 10
-66.0
 20
-262.33323300000012
 30
0.0
 11
-66.0
 21
-274.33323300000012
 31
0.0
  0
LINE
  5
1A1
  8
0
  6
CONTINUOUS
 62
     3
 10
-54.0
 20
-262.33323300000012
 30
0.0
 11
-54.0
 21
-274.33323300000012
 31
0.0
  0
LINE
  5
1A2
  8
0
  6
CONTINUOUS
 62
     3
 10
66.0
 20
-262.33323300000012
 30
0.0
 11
54.0
 21
-262.33323300000012
 31
0.0
  0
LINE
  5
1A3
  8
0
  6
CONTINUOUS
 62
     3
 10
54.0
 20
-262.33323300000012
 30
0.0
 11
54.0
 21
-274.33323300000012
 31
0.0
  0
LINE
  5
1A4
  8
0
  6
CONTINUOUS
 62
     3
 10
66.0
 20
-262.33323300000012
 30
0.0
 11
66.0
 21
-274.33323300000012
 31
0.0
  0
POINT
  5
1A5
  8
0
 62
     1
 10
1049.5
 20
512.65820899999994
 30
0.0
  0
ENDSEC
  0
EOF
