  0
SECTION
  2
HEADER
  9
$ACADVER
  1
AC1009
  9
$INSBASE
 10
0.0
 20
0.0
 30
0.0
  9
$EXTMIN
 10
-114.350369
 20
-534.041383
 30
0.0
  9
$EXTMAX
 10
2099.5
 20
1484.5
 30
0.0
  9
$LIMMIN
 10
0.0
 20
0.0
  9
$LIMMAX
 10
2100.0
 20
1485.0
  9
$ORTHOMODE
 70
     0
  9
$REGENMODE
 70
     1
  9
$FILLMODE
 70
     1
  9
$QTEXTMODE
 70
     0
  9
$MIRRTEXT
 70
     0
  9
$DRAGMODE
 70
     2
  9
$LTSCALE
 40
1.0
  9
$OSMODE
 70
   125
  9
$ATTMODE
 70
     1
  9
$TEXTSIZE
 40
0.2
  9
$TRACEWID
 40
0.05
  9
$TEXTSTYLE
  7
KANJI
  9
$CLAYER
  8
0
  9
$CELTYPE
  6
BYLAYER
  9
$CECOLOR
 62
   256
  9
$DIMSCALE
 40
1.0
  9
$DIMASZ
 40
22.5
  9
$DIMEXO
 40
5.0
  9
$DIMDLI
 40
40.0
  9
$DIMRND
 40
0.0
  9
$DIMDLE
 40
0.0
  9
$DIMEXE
 40
5.0
  9
$DIMTP
 40
0.0
  9
$DIMTM
 40
0.0
  9
$DIMTXT
 40
16.0
  9
$DIMCEN
 40
0.09
  9
$DIMTSZ
 40
0.0
  9
$DIMTOL
 70
     0
  9
$DIMLIM
 70
     0
  9
$DIMTIH
 70
     0
  9
$DIMTOH
 70
     0
  9
$DIMSE1
 70
     0
  9
$DIMSE2
 70
     0
  9
$DIMTAD
 70
     1
  9
$DIMZIN
 70
     0
  9
$DIMBLK
  1

  9
$DIMASO
 70
     1
  9
$DIMSHO
 70
     0
  9
$DIMPOST
  1

  9
$DIMAPOST
  1

  9
$DIMALT
 70
     0
  9
$DIMALTD
 70
     2
  9
$DIMALTF
 40
25.399999999999999
  9
$DIMLFAC
 40
1.0
  9
$DIMTOFL
 70
     0
  9
$DIMTVP
 40
0.0
  9
$DIMTIX
 70
     0
  9
$DIMSOXD
 70
     0
  9
$DIMSAH
 70
     0
  9
$DIMBLK1
  1

  9
$DIMBLK2
  1

  9
$DIMSTYLE
  2
STANDARD
  9
$DIMCLRD
 70
     0
  9
$DIMCLRE
 70
     0
  9
$DIMCLRT
 70
     0
  9
$DIMTFAC
 40
1.0
  9
$DIMGAP
 40
0.09
  9
$LUNITS
 70
     2
  9
$LUPREC
 70
     2
  9
$SKETCHINC
 40
0.1
  9
$FILLETRAD
 40
0.0
  9
$AUNITS
 70
     1
  9
$AUPREC
 70
     2
  9
$MENU
  1
ACAD
  9
$ELEVATION
 40
0.0
  9
$PELEVATION
 40
0.0
  9
$THICKNESS
 40
0.0
  9
$LIMCHECK
 70
     0
  9
$BLIPMODE
 70
     0
  9
$CHAMFERA
 40
0.0
  9
$CHAMFERB
 40
0.0
  9
$SKPOLY
 70
     0
  9
$TDCREATE
 40
2457134.7240498499
  9
$TDUPDATE
 40
2457134.740350463
  9
$TDINDWG
 40
0.0163025579
  9
$TDUSRTIMER
 40
0.0163025579
  9
$USRTIMER
 70
     1
  9
$ANGBASE
 50
0.0
  9
$ANGDIR
 70
     0
  9
$PDMODE
 70
     0
  9
$PDSIZE
 40
0.0
  9
$PLINEWID
 40
0.0
  9
$COORDS
 70
     1
  9
$SPLFRAME
 70
     0
  9
$SPLINETYPE
 70
     6
  9
$SPLINESEGS
 70
     8
  9
$ATTDIA
 70
     1
  9
$ATTREQ
 70
     1
  9
$HANDLING
 70
     1
  9
$HANDSEED
  5
2DB
  9
$SURFTAB1
 70
     6
  9
$SURFTAB2
 70
     6
  9
$SURFTYPE
 70
     6
  9
$SURFU
 70
     6
  9
$SURFV
 70
     6
  9
$UCSNAME
  2

  9
$UCSORG
 10
0.0
 20
0.0
 30
0.0
  9
$UCSXDIR
 10
1.0
 20
0.0
 30
0.0
  9
$UCSYDIR
 10
0.0
 20
1.0
 30
0.0
  9
$PUCSNAME
  2

  9
$PUCSORG
 10
0.0
 20
0.0
 30
0.0
  9
$PUCSXDIR
 10
1.0
 20
0.0
 30
0.0
  9
$PUCSYDIR
 10
0.0
 20
1.0
 30
0.0
  9
$USERI1
 70
     0
  9
$USERI2
 70
     0
  9
$USERI3
 70
     0
  9
$USERI4
 70
     0
  9
$USERI5
 70
     0
  9
$USERR1
 40
0.0
  9
$USERR2
 40
0.0
  9
$USERR3
 40
0.0
  9
$USERR4
 40
0.0
  9
$USERR5
 40
0.0
  9
$WORLDVIEW
 70
     1
  9
$SHADEDGE
 70
     3
  9
$SHADEDIF
 70
    70
  9
$TILEMODE
 70
     1
  9
$MAXACTVP
 70
    64
  9
$PLIMCHECK
 70
     0
  9
$PEXTMIN
 10
1.0000000000000000E+020
 20
1.0000000000000000E+020
 30
1.0000000000000000E+020
  9
$PEXTMAX
 10
-1.0000000000000000E+020
 20
-1.0000000000000000E+020
 30
-1.0000000000000000E+020
  9
$PLIMMIN
 10
0.0
 20
0.0
  9
$PLIMMAX
 10
12.0
 20
9.0
  9
$UNITMODE
 70
     0
  9
$VISRETAIN
 70
     1
  9
$PLINEGEN
 70
     0
  9
$PSLTSCALE
 70
     1
  0
ENDSEC
  0
SECTION
  2
TABLES
  0
TABLE
  2
VPORT
 70
     1
  0
VPORT
  2
*ACTIVE
 70
     0
 10
0.0
 20
0.0
 11
1.0
 21
1.0
 12
122.0469041384615
 22
-321.76287841914473
 13
0.0
 23
0.0
 14
1.0
 24
1.0
 15
0.0
 25
0.0
 16
0.0
 26
0.0
 36
1.0
 17
0.0
 27
0.0
 37
0.0
 40
1052.173852561669
 41
1.8188302425106979
 42
50.0
 43
0.0
 44
0.0
 50
0.0
 51
0.0
 71
     0
 72
   100
 73
     1
 74
     1
 75
     0
 76
     0
 77
     0
 78
     0
  0
ENDTAB
  0
TABLE
  2
LTYPE
 70
     9
  0
LTYPE
  2
CONTINUOUS
 70
     0
  3
Solid line
 72
    65
 73
     0
 40
0.0
  0
LTYPE
  2
DASHED
 70
     0
  3
__ __ __ __ __ __ __ __ __ __ __ __ __ __ __
 72
    65
 73
     2
 40
0.75
 49
0.5
 49
-0.25
  0
LTYPE
  2
HIDDEN
 70
     0
  3
_ _ _ _ _ _ _ _ _ _ _ _ _ _ _ _ _ _ _ _ _ _ _
 72
    65
 73
     2
 40
0.375
 49
0.25
 49
-0.125
  0
LTYPE
  2
CENTER
 70
     0
  3
____ _ ____ _ ____ _ ____ _ ____ _ ____ _ ____
 72
    65
 73
     4
 40
2.0
 49
1.25
 49
-0.25
 49
0.25
 49
-0.25
  0
LTYPE
  2
PHANTOM
 70
     0
  3
_____ _ _ _____ _ _ _____ _ _ _____ _ _ ____
 72
    65
 73
     6
 40
2.5
 49
1.25
 49
-0.25
 49
0.25
 49
-0.25
 49
0.25
 49
-0.25
  0
LTYPE
  2
DOT
 70
     0
  3
...............................................
 72
    65
 73
     2
 40
0.25
 49
0.0
 49
-0.25
  0
LTYPE
  2
DASHDOT
 70
     0
  3
__ . __ . __ . __ . __ . __ . __ . __ . __ . __
 72
    65
 73
     4
 40
1.0
 49
0.5
 49
-0.25
 49
0.0
 49
-0.25
  0
LTYPE
  2
BORDER
 70
     0
  3
__ __ . __ __ . __ __ . __ __ . __ __ . __ __
 72
    65
 73
     6
 40
1.75
 49
0.5
 49
-0.25
 49
0.5
 49
-0.25
 49
0.0
 49
-0.25
  0
LTYPE
  2
DIVIDE
 70
     0
  3
__ . . __ . . __ . . __ . . __ . . __ . . __
 72
    65
 73
     6
 40
1.25
 49
0.5
 49
-0.25
 49
0.0
 49
-0.25
 49
0.0
 49
-0.25
  0
ENDTAB
  0
TABLE
  2
LAYER
 70
   100
  0
LAYER
  2
0
 70
     0
 62
     3
  6
CONTINUOUS
  0
LAYER
  2
1
 70
     0
 62
     3
  6
CONTINUOUS
  0
LAYER
  2
2
 70
     0
 62
     3
  6
CONTINUOUS
  0
LAYER
  2
3
 70
     0
 62
     3
  6
CONTINUOUS
  0
LAYER
  2
4
 70
     0
 62
     3
  6
CONTINUOUS
  0
LAYER
  2
5
 70
     0
 62
     3
  6
CONTINUOUS
  0
LAYER
  2
6
 70
     0
 62
     3
  6
CONTINUOUS
  0
LAYER
  2
7
 70
     0
 62
     3
  6
CONTINUOUS
  0
LAYER
  2
8
 70
     0
 62
     3
  6
CONTINUOUS
  0
LAYER
  2
9
 70
     0
 62
     3
  6
CONTINUOUS
  0
LAYER
  2
10
 70
     0
 62
     3
  6
CONTINUOUS
  0
LAYER
  2
11
 70
     0
 62
     3
  6
CONTINUOUS
  0
LAYER
  2
12
 70
     0
 62
     3
  6
CONTINUOUS
  0
LAYER
  2
13
 70
     0
 62
     3
  6
CONTINUOUS
  0
LAYER
  2
14
 70
     0
 62
     3
  6
CONTINUOUS
  0
LAYER
  2
15
 70
     0
 62
     3
  6
CONTINUOUS
  0
LAYER
  2
16
 70
     0
 62
     3
  6
CONTINUOUS
  0
LAYER
  2
17
 70
     0
 62
     3
  6
CONTINUOUS
  0
LAYER
  2
18
 70
     0
 62
     3
  6
CONTINUOUS
  0
LAYER
  2
19
 70
     0
 62
     3
  6
CONTINUOUS
  0
LAYER
  2
20
 70
     0
 62
     3
  6
CONTINUOUS
  0
LAYER
  2
21
 70
     0
 62
     3
  6
CONTINUOUS
  0
LAYER
  2
22
 70
     0
 62
     3
  6
CONTINUOUS
  0
LAYER
  2
23
 70
     0
 62
     3
  6
CONTINUOUS
  0
LAYER
  2
24
 70
     0
 62
     3
  6
CONTINUOUS
  0
LAYER
  2
25
 70
     0
 62
     3
  6
CONTINUOUS
  0
LAYER
  2
26
 70
     0
 62
     3
  6
CONTINUOUS
  0
LAYER
  2
27
 70
     0
 62
     3
  6
CONTINUOUS
  0
LAYER
  2
28
 70
     0
 62
     3
  6
CONTINUOUS
  0
LAYER
  2
29
 70
     0
 62
     3
  6
CONTINUOUS
  0
LAYER
  2
30
 70
     0
 62
     3
  6
CONTINUOUS
  0
LAYER
  2
31
 70
     0
 62
     3
  6
CONTINUOUS
  0
LAYER
  2
32
 70
     0
 62
     3
  6
CONTINUOUS
  0
LAYER
  2
33
 70
     0
 62
     3
  6
CONTINUOUS
  0
LAYER
  2
34
 70
     0
 62
     3
  6
CONTINUOUS
  0
LAYER
  2
35
 70
     0
 62
     3
  6
CONTINUOUS
  0
LAYER
  2
36
 70
     0
 62
     3
  6
CONTINUOUS
  0
LAYER
  2
37
 70
     0
 62
     3
  6
CONTINUOUS
  0
LAYER
  2
38
 70
     0
 62
     3
  6
CONTINUOUS
  0
LAYER
  2
39
 70
     0
 62
     3
  6
CONTINUOUS
  0
LAYER
  2
40
 70
     0
 62
     3
  6
CONTINUOUS
  0
LAYER
  2
41
 70
     0
 62
     3
  6
CONTINUOUS
  0
LAYER
  2
42
 70
     0
 62
     3
  6
CONTINUOUS
  0
LAYER
  2
43
 70
     0
 62
     3
  6
CONTINUOUS
  0
LAYER
  2
44
 70
     0
 62
     3
  6
CONTINUOUS
  0
LAYER
  2
45
 70
     0
 62
     3
  6
CONTINUOUS
  0
LAYER
  2
46
 70
     0
 62
     3
  6
CONTINUOUS
  0
LAYER
  2
47
 70
     0
 62
     3
  6
CONTINUOUS
  0
LAYER
  2
48
 70
     0
 62
     3
  6
CONTINUOUS
  0
LAYER
  2
49
 70
     0
 62
     3
  6
CONTINUOUS
  0
LAYER
  2
50
 70
     0
 62
     3
  6
CONTINUOUS
  0
LAYER
  2
51
 70
     0
 62
     3
  6
CONTINUOUS
  0
LAYER
  2
52
 70
     0
 62
     3
  6
CONTINUOUS
  0
LAYER
  2
53
 70
     0
 62
     3
  6
CONTINUOUS
  0
LAYER
  2
54
 70
     0
 62
     3
  6
CONTINUOUS
  0
LAYER
  2
55
 70
     0
 62
     3
  6
CONTINUOUS
  0
LAYER
  2
56
 70
     0
 62
     3
  6
CONTINUOUS
  0
LAYER
  2
57
 70
     0
 62
     3
  6
CONTINUOUS
  0
LAYER
  2
58
 70
     0
 62
     3
  6
CONTINUOUS
  0
LAYER
  2
59
 70
     0
 62
     3
  6
CONTINUOUS
  0
LAYER
  2
60
 70
     0
 62
     3
  6
CONTINUOUS
  0
LAYER
  2
61
 70
     0
 62
     3
  6
CONTINUOUS
  0
LAYER
  2
62
 70
     0
 62
     3
  6
CONTINUOUS
  0
LAYER
  2
63
 70
     0
 62
     3
  6
CONTINUOUS
  0
LAYER
  2
64
 70
     0
 62
     3
  6
CONTINUOUS
  0
LAYER
  2
65
 70
     0
 62
     3
  6
CONTINUOUS
  0
LAYER
  2
66
 70
     0
 62
     3
  6
CONTINUOUS
  0
LAYER
  2
67
 70
     0
 62
     3
  6
CONTINUOUS
  0
LAYER
  2
68
 70
     0
 62
     3
  6
CONTINUOUS
  0
LAYER
  2
69
 70
     0
 62
     3
  6
CONTINUOUS
  0
LAYER
  2
70
 70
     0
 62
     3
  6
CONTINUOUS
  0
LAYER
  2
71
 70
     0
 62
     3
  6
CONTINUOUS
  0
LAYER
  2
72
 70
     0
 62
     3
  6
CONTINUOUS
  0
LAYER
  2
73
 70
     0
 62
     3
  6
CONTINUOUS
  0
LAYER
  2
74
 70
     0
 62
     3
  6
CONTINUOUS
  0
LAYER
  2
75
 70
     0
 62
     3
  6
CONTINUOUS
  0
LAYER
  2
76
 70
     0
 62
     3
  6
CONTINUOUS
  0
LAYER
  2
77
 70
     0
 62
     3
  6
CONTINUOUS
  0
LAYER
  2
78
 70
     0
 62
     3
  6
CONTINUOUS
  0
LAYER
  2
79
 70
     0
 62
     3
  6
CONTINUOUS
  0
LAYER
  2
80
 70
     0
 62
     3
  6
CONTINUOUS
  0
LAYER
  2
81
 70
     0
 62
     3
  6
CONTINUOUS
  0
LAYER
  2
82
 70
     0
 62
     3
  6
CONTINUOUS
  0
LAYER
  2
83
 70
     0
 62
     3
  6
CONTINUOUS
  0
LAYER
  2
84
 70
     0
 62
     3
  6
CONTINUOUS
  0
LAYER
  2
85
 70
     0
 62
     3
  6
CONTINUOUS
  0
LAYER
  2
86
 70
     0
 62
     3
  6
CONTINUOUS
  0
LAYER
  2
87
 70
     0
 62
     3
  6
CONTINUOUS
  0
LAYER
  2
88
 70
     0
 62
     3
  6
CONTINUOUS
  0
LAYER
  2
89
 70
     0
 62
     3
  6
CONTINUOUS
  0
LAYER
  2
90
 70
     0
 62
     3
  6
CONTINUOUS
  0
LAYER
  2
91
 70
     0
 62
     3
  6
CONTINUOUS
  0
LAYER
  2
92
 70
     0
 62
     3
  6
CONTINUOUS
  0
LAYER
  2
93
 70
     0
 62
     3
  6
CONTINUOUS
  0
LAYER
  2
94
 70
     0
 62
     3
  6
CONTINUOUS
  0
LAYER
  2
95
 70
     0
 62
     3
  6
CONTINUOUS
  0
LAYER
  2
96
 70
     0
 62
     3
  6
CONTINUOUS
  0
LAYER
  2
97
 70
     0
 62
     3
  6
CONTINUOUS
  0
LAYER
  2
98
 70
     0
 62
     3
  6
CONTINUOUS
  0
LAYER
  2
99
 70
     0
 62
     3
  6
CONTINUOUS
  0
ENDTAB
  0
TABLE
  2
STYLE
 70
     3
  0
STYLE
  2
STANDARD
 70
     0
 40
0.0
 41
1.0
 50
0.0
 71
     0
 42
0.2
  3
TXT
  4
BIGFONT
  0
STYLE
  2
ANNOTATIVE
 70
     0
 40
0.0
 41
1.0
 50
0.0
 71
     0
 42
0.2
  3
txt
  4

  0
STYLE
  2
KANJI
 70
     0
 40
4.5
 41
1.0
 50
0.0
 71
     0
 42
0.2
  3
TXT
  4
BIGFONT
  0
ENDTAB
  0
TABLE
  2
VIEW
 70
     0
  0
ENDTAB
  0
TABLE
  2
UCS
 70
     0
  0
ENDTAB
  0
TABLE
  2
APPID
 70
     4
  0
APPID
  2
ACAD
 70
     0
  0
APPID
  2
ACADANNOTATIVE
 70
     0
  0
APPID
  2
ACAD_NAV_VCDISPLAY
 70
     0
  0
APPID
  2
ACAD_MLEADERVER
 70
     0
  0
ENDTAB
  0
TABLE
  2
DIMSTYLE
 70
     2
  0
DIMSTYLE
  2
STANDARD
 70
     0
  3

  4

  5

  6

  7

 40
1.0
 41
0.18
 42
0.0625
 43
0.38
 44
0.18
 45
0.0
 46
0.0
 47
0.0
 48
0.0
140
0.18
141
0.09
142
0.0
143
25.399999999999999
144
1.0
145
0.0
146
1.0
147
0.09
 71
     0
 72
     0
 73
     1
 74
     1
 75
     0
 76
     0
 77
     0
 78
     0
170
     0
171
     2
172
     0
173
     0
174
     0
175
     0
176
     0
177
     0
178
     0
  0
DIMSTYLE
  2
ANNOTATIVE
 70
     0
  3

  4

  5

  6

  7

 40
1.0
 41
0.18
 42
0.0625
 43
0.38
 44
0.18
 45
0.0
 46
0.0
 47
0.0
 48
0.0
140
0.18
141
0.09
142
0.0
143
25.399999999999999
144
1.0
145
0.0
146
1.0
147
0.09
 71
     0
 72
     0
 73
     1
 74
     1
 75
     0
 76
     0
 77
     0
 78
     0
170
     0
171
     2
172
     0
173
     0
174
     0
175
     0
176
     0
177
     0
178
     0
  0
ENDTAB
  0
ENDSEC
  0
SECTION
  2
BLOCKS
  0
BLOCK
  8
0
  2
$MODEL_SPACE
 70
     0
 10
0.0
 20
0.0
 30
0.0
  3
$MODEL_SPACE
  1

  0
ENDBLK
  5
71
  8
0
  0
BLOCK
 67
     1
  8
0
  2
$PAPER_SPACE
 70
     0
 10
0.0
 20
0.0
 30
0.0
  3
$PAPER_SPACE
  1

  0
ENDBLK
  5
6D
 67
     1
  8
0
  0
BLOCK
  8
0
  2
D0
 70
     0
 10
0.0
 20
0.0
 30
0.0
  3
D0
  1

  0
TEXT
  5
E4
  8
0
 62
     7
 10
1166.154894
 20
708.96456599999999
 30
0.0
 40
16.0
  1
134
 50
90.0
 41
0.7500000000000001
 72
     5
 11
1166.154894
 21
736.96456599999988
 31
0.0
  0
LINE
  5
E5
  8
0
  6
CONTINUOUS
 62
     7
 10
1136.0
 20
655.96456599999999
 30
0.0
 11
1170.7548939999999
 21
655.96456599999999
 31
0.0
  0
LINE
  5
E6
  8
0
  6
CONTINUOUS
 62
     7
 10
1136.0
 20
789.96456599999999
 30
0.0
 11
1170.7548939999999
 21
789.96456599999999
 31
0.0
  0
LINE
  5
E7
  8
0
  6
CONTINUOUS
 62
     7
 10
1167.7548939999999
 20
789.96456599999999
 30
0.0
 11
1167.7548939999999
 21
655.96456599999999
 31
0.0
  0
LINE
  5
E8
  8
0
  6
CONTINUOUS
 62
     7
 10
1167.7548939999999
 20
789.96456599999999
 30
0.0
 11
1173.578323
 21
768.23123499999997
 31
0.0
  0
LINE
  5
E9
  8
0
  6
CONTINUOUS
 62
     7
 10
1167.7548939999999
 20
789.96456599999999
 30
0.0
 11
1161.9314649999999
 21
768.23123499999997
 31
0.0
  0
LINE
  5
EA
  8
0
  6
CONTINUOUS
 62
     7
 10
1167.7548939999999
 20
655.96456599999999
 30
0.0
 11
1161.9314649999999
 21
677.69789700000001
 31
0.0
  0
LINE
  5
EB
  8
0
  6
CONTINUOUS
 62
     7
 10
1167.7548939999999
 20
655.96456599999999
 30
0.0
 11
1173.578323
 21
677.69789700000001
 31
0.0
  0
ENDBLK
  5
EC
  8
0
  0
ENDSEC
  0
SECTION
  2
ENTITIES
  0
POINT
  5
ED
  8
0
 62
     1
 10
0.5
 20
0.5
 30
0.0
  0
TEXT
  5
EE
  8
0
 62
     6
 10
236.96090799999999
 20
-534.041383
 30
0.0
 40
22.5
  1
\U+03C6１００　Ｓ
 41
0.8398692810457514
  7
KANJI
 72
     5
 11
365.46090800000002
 21
-534.041383
 31
0.0
  0
TEXT
  5
EF
  8
0
 62
     6
 10
221.96090799999999
 20
-495.54074100000003
 30
0.0
 40
22.5
  1
メカニカル形（Ｓ＝１／５）
 41
0.75
  7
KANJI
 72
     5
 11
471.71090800000002
 21
-495.54074100000003
 31
0.0
  0
LINE
  5
F0
  8
0
  6
CONTINUOUS
 62
     2
 10
32.5
 20
-209.87878699999999
 30
0.0
 11
-87.31370800000002
 21
-209.87878699999999
 31
0.0
  0
ARC
  5
F1
  8
0
  6
CONTINUOUS
 62
     2
 10
32.5
 20
-198.87878699999999
 30
0.0
 40
11.0
 50
270.0
 51
0.0
  0
LINE
  5
F2
  8
0
  6
CONTINUOUS
 62
     2
 10
67.0
 20
-198.87878699999999
 30
0.0
 11
83.0
 21
-209.87878699999999
 31
0.0
  0
LINE
  5
F3
  8
0
  6
CONTINUOUS
 62
     2
 10
70.5
 20
-209.87878699999999
 30
0.0
 11
78.781851999999844
 21
-209.87878699999999
 31
0.0
  0
ARC
  5
F4
  8
0
  6
CONTINUOUS
 62
     2
 10
73.0
 20
-217.87878699999999
 30
0.0
 40
3.0
 50
90.0
 51
180.0
  0
LINE
  5
F5
  8
0
  6
CONTINUOUS
 62
     2
 10
-70.0
 20
-223.87878699999999
 30
0.0
 11
-70.0
 21
-217.87878699999999
 31
0.0
  0
LINE
  5
F6
  8
0
  6
CONTINUOUS
 62
     2
 10
70.0
 20
-223.87878699999999
 30
0.0
 11
70.0
 21
-217.87878699999999
 31
0.0
  0
LINE
  5
F7
  8
0
  6
CONTINUOUS
 62
     2
 10
-103.0
 20
-214.87878699999999
 30
0.0
 11
83.0
 21
-214.87878699999999
 31
0.0
  0
LINE
  5
F8
  8
0
  6
CONTINUOUS
 62
     2
 10
-103.0
 20
-198.87878699999999
 30
0.0
 11
67.0
 21
-198.87878699999999
 31
0.0
  0
LINE
  5
F9
  8
2
  6
CENTER
 62
     2
 10
-87.0
 20
-256.51390499999991
 30
0.0
 11
-87.0
 21
-168.942621
 31
0.0
  0
LINE
  5
FA
  8
2
  6
CENTER
 62
     2
 10
43.5
 20
-256.51390499999991
 30
0.0
 11
43.5
 21
-168.942621
 31
0.0
  0
LINE
  5
FB
  8
0
  6
CONTINUOUS
 62
     2
 10
-103.0
 20
-198.87878699999999
 30
0.0
 11
-103.0
 21
-214.87878699999999
 31
0.0
  0
LINE
  5
FC
  8
0
  6
CONTINUOUS
 62
     2
 10
83.0
 20
-214.87878699999999
 30
0.0
 11
83.0
 21
-209.87878699999999
 31
0.0
  0
ARC
  5
FD
  8
0
  6
CONTINUOUS
 62
     2
 10
-73.0
 20
-217.87878699999999
 30
0.0
 40
3.0
 50
0.0
 51
90.0
  0
LINE
  5
FE
  8
0
  6
CONTINUOUS
 62
     6
 10
70.5
 20
-224.0
 30
0.0
 11
70.5
 21
-225.0
 31
0.0
  0
LINE
  5
FF
  8
0
  6
CONTINUOUS
 62
     6
 10
-70.5
 20
-224.0
 30
0.0
 11
-70.0
 21
-223.87878699999999
 31
0.0
  0
LINE
  5
100
  8
0
  6
CONTINUOUS
 62
     6
 10
-70.5
 20
-224.0
 30
0.0
 11
-70.5
 21
-225.0
 31
0.0
  0
LINE
  5
101
  8
0
  6
CONTINUOUS
 62
     2
 10
70.0
 20
-223.87878699999999
 30
0.0
 11
49.5
 21
-223.87878699999999
 31
0.0
  0
LINE
  5
102
  8
0
  6
CONTINUOUS
 62
     6
 10
70.5
 20
-224.0
 30
0.0
 11
70.0
 21
-223.87878699999999
 31
0.0
  0
LINE
  5
103
  8
0
  6
CONTINUOUS
 62
     3
 10
-81.0
 20
-253.0
 30
0.0
 11
-93.0
 21
-253.0
 31
0.0
  0
LINE
  5
104
  8
0
  6
CONTINUOUS
 62
     3
 10
-81.0
 20
-178.0
 30
0.0
 11
-93.0
 21
-178.0
 31
0.0
  0
ARC
  5
105
  8
0
  6
CONTINUOUS
 62
     3
 10
-87.0
 20
-186.0
 30
0.0
 40
10.0
 50
53.13010300000338
 51
126.8698980000058
  0
LINE
  5
106
  8
0
  6
CONTINUOUS
 62
     3
 10
-93.0
 20
-241.0
 30
0.0
 11
-93.0
 21
-253.0
 31
0.0
  0
LINE
  5
107
  8
0
  6
CONTINUOUS
 62
     3
 10
-81.0
 20
-241.0
 30
0.0
 11
-81.0
 21
-253.0
 31
0.0
  0
LINE
  5
108
  8
0
  6
CONTINUOUS
 62
     3
 10
-93.0
 20
-178.0
 30
0.0
 11
-93.0
 21
-188.87096699999989
 31
0.0
  0
LINE
  5
109
  8
0
  6
CONTINUOUS
 62
     3
 10
-93.0
 20
-214.87096700000001
 30
0.0
 11
-93.0
 21
-225.0
 31
0.0
  0
LINE
  5
10A
  8
0
  6
CONTINUOUS
 62
     3
 10
-81.0
 20
-178.0
 30
0.0
 11
-81.0
 21
-188.87096699999989
 31
0.0
  0
LINE
  5
10B
  8
0
  6
CONTINUOUS
 62
     3
 10
-81.0
 20
-214.87096700000001
 30
0.0
 11
-81.0
 21
-225.0
 31
0.0
  0
LINE
  5
10C
  8
0
  6
CONTINUOUS
 62
     3
 10
-81.947000000000003
 20
-178.0
 30
0.0
 11
-81.947000000000003
 21
-188.87096699999989
 31
0.0
  0
LINE
  5
10D
  8
0
  6
CONTINUOUS
 62
     3
 10
-92.052999999999983
 20
-178.0
 30
0.0
 11
-92.052999999999983
 21
-188.87096699999989
 31
0.0
  0
LINE
  5
10E
  8
0
  6
CONTINUOUS
 62
     3
 10
-97.950000000000045
 20
-198.87096699999989
 30
0.0
 11
-97.950000000000045
 21
-189.708125
 31
0.0
  0
LINE
  5
10F
  8
0
  6
CONTINUOUS
 62
     3
 10
-92.475000000000023
 20
-198.87096699999989
 30
0.0
 11
-92.475000000000023
 21
-189.708125
 31
0.0
  0
LINE
  5
110
  8
0
  6
CONTINUOUS
 62
     3
 10
-81.524999999999977
 20
-198.87096699999989
 30
0.0
 11
-81.524999999999977
 21
-189.708125
 31
0.0
  0
LINE
  5
111
  8
0
  6
CONTINUOUS
 62
     3
 10
-76.049999999999955
 20
-198.87096699999989
 30
0.0
 11
-76.049999999999955
 21
-189.708125
 31
0.0
  0
LINE
  5
112
  8
0
  6
CONTINUOUS
 62
     3
 10
-78.802240999999981
 20
-188.87096699999989
 30
0.0
 11
-95.197759000000019
 21
-188.87096699999989
 31
0.0
  0
ARC
  5
113
  8
0
  6
CONTINUOUS
 62
     3
 10
-78.787500000000023
 20
-193.765219
 30
0.0
 40
4.8942740000000002
 50
55.990723000002738
 51
124.0092779999964
  0
ARC
  5
114
  8
0
  6
CONTINUOUS
 62
     3
 10
-87.0
 20
-207.19275499999989
 30
0.0
 40
18.321788000000002
 50
72.612983000005002
 51
107.3870159999973
  0
ARC
  5
115
  8
0
  6
CONTINUOUS
 62
     3
 10
-95.212499999999977
 20
-193.765219
 30
0.0
 40
4.8942740000000002
 50
55.990722000003551
 51
124.0092769999972
  0
LINE
  5
116
  8
0
  6
CONTINUOUS
 62
     3
 10
28.375606999999949
 20
-241.0
 30
0.0
 11
28.375606999999949
 21
-253.0
 31
0.0
  0
LINE
  5
117
  8
0
  6
CONTINUOUS
 62
     3
 10
34.375606999999953
 20
-241.0
 30
0.0
 11
34.375606999999953
 21
-253.0
 31
0.0
  0
LINE
  5
118
  8
0
  6
CONTINUOUS
 62
     3
 10
58.624317999999903
 20
-241.0
 30
0.0
 11
58.624317999999903
 21
-253.0
 31
0.0
  0
LINE
  5
119
  8
0
  6
CONTINUOUS
 62
     3
 10
28.375606999999949
 20
-253.0
 30
0.0
 11
58.624317999999903
 21
-253.0
 31
0.0
  0
LINE
  5
11A
  8
0
  6
CONTINUOUS
 62
     3
 10
49.5
 20
-178.0
 30
0.0
 11
37.5
 21
-178.0
 31
0.0
  0
ARC
  5
11B
  8
0
  6
CONTINUOUS
 62
     3
 10
43.5
 20
-186.0
 30
0.0
 40
10.0
 50
53.13010300000338
 51
126.8698980000058
  0
LINE
  5
11C
  8
0
  6
CONTINUOUS
 62
     3
 10
37.5
 20
-178.0
 30
0.0
 11
37.5
 21
-188.87096699999989
 31
0.0
  0
LINE
  5
11D
  8
0
  6
CONTINUOUS
 62
     3
 10
37.5
 20
-214.87096700000001
 30
0.0
 11
37.5
 21
-225.0
 31
0.0
  0
LINE
  5
11E
  8
0
  6
CONTINUOUS
 62
     3
 10
49.5
 20
-178.0
 30
0.0
 11
49.5
 21
-188.87096699999989
 31
0.0
  0
LINE
  5
11F
  8
0
  6
CONTINUOUS
 62
     3
 10
49.5
 20
-214.87096700000001
 30
0.0
 11
49.5
 21
-225.0
 31
0.0
  0
LINE
  5
120
  8
0
  6
CONTINUOUS
 62
     3
 10
48.553000000000111
 20
-178.0
 30
0.0
 11
48.553000000000111
 21
-188.87096699999989
 31
0.0
  0
LINE
  5
121
  8
0
  6
CONTINUOUS
 62
     3
 10
38.446999999999889
 20
-178.0
 30
0.0
 11
38.446999999999889
 21
-188.87096699999989
 31
0.0
  0
LINE
  5
122
  8
0
  6
CONTINUOUS
 62
     3
 10
32.549999999999947
 20
-198.87096699999989
 30
0.0
 11
32.549999999999947
 21
-189.708125
 31
0.0
  0
ARC
  5
123
  8
0
  6
CONTINUOUS
 62
     2
 10
70.5
 20
-198.87878699999999
 30
0.0
 40
11.0
 50
180.0
 51
270.0
  0
ARC
  5
124
  8
0
  6
CONTINUOUS
 62
     2
 10
-87.31370800000002
 20
-198.87878699999999
 30
0.0
 40
11.0
 50
180.0
 51
270.0
  0
LINE
  5
125
  8
0
  6
CONTINUOUS
 62
     2
 10
37.5
 20
-223.87878699999999
 30
0.0
 11
-70.0
 21
-223.87878699999999
 31
0.0
  0
ARC
  5
126
  8
0
  6
CONTINUOUS
 62
     3
 10
35.287499999999909
 20
-193.765219
 30
0.0
 40
4.8942740000000002
 50
55.990722000003551
 51
124.0092769999972
  0
ARC
  5
127
  8
0
  6
CONTINUOUS
 62
     3
 10
43.5
 20
-207.19275499999989
 30
0.0
 40
18.321788000000002
 50
72.612983000005002
 51
107.3870159999973
  0
ARC
  5
128
  8
0
  6
CONTINUOUS
 62
     3
 10
51.712500000000091
 20
-193.765219
 30
0.0
 40
4.8942740000000002
 50
55.990723000002738
 51
124.0092779999964
  0
LINE
  5
129
  8
0
  6
CONTINUOUS
 62
     3
 10
51.697758999999898
 20
-188.87096699999989
 30
0.0
 11
35.302241000000102
 21
-188.87096699999989
 31
0.0
  0
LINE
  5
12A
  8
0
  6
CONTINUOUS
 62
     3
 10
54.450000000000038
 20
-198.87096699999989
 30
0.0
 11
54.450000000000038
 21
-189.708125
 31
0.0
  0
LINE
  5
12B
  8
0
  6
CONTINUOUS
 62
     3
 10
48.974999999999909
 20
-198.87096699999989
 30
0.0
 11
48.974999999999909
 21
-189.708125
 31
0.0
  0
LINE
  5
12C
  8
0
  6
CONTINUOUS
 62
     3
 10
38.025000000000091
 20
-198.87096699999989
 30
0.0
 11
38.025000000000091
 21
-189.708125
 31
0.0
  0
LINE
  5
12D
  8
0
  6
CONTINUOUS
 62
     2
 10
32.5
 20
-374.12121200000001
 30
0.0
 11
-87.31370800000002
 21
-374.12121200000001
 31
0.0
  0
ARC
  5
12E
  8
0
  6
CONTINUOUS
 62
     2
 10
32.5
 20
-385.12121200000001
 30
0.0
 40
11.0
 50
0.0
 51
90.0
  0
LINE
  5
12F
  8
0
  6
CONTINUOUS
 62
     2
 10
67.0
 20
-385.12121200000001
 30
0.0
 11
83.0
 21
-374.12121200000001
 31
0.0
  0
LINE
  5
130
  8
0
  6
CONTINUOUS
 62
     2
 10
70.5
 20
-374.12121200000001
 30
0.0
 11
78.781851999999844
 21
-374.12121200000001
 31
0.0
  0
ARC
  5
131
  8
0
  6
CONTINUOUS
 62
     2
 10
73.0
 20
-366.12121200000001
 30
0.0
 40
3.0
 50
180.0
 51
270.0
  0
LINE
  5
132
  8
0
  6
CONTINUOUS
 62
     2
 10
-70.0
 20
-360.12121200000001
 30
0.0
 11
-70.0
 21
-366.12121200000001
 31
0.0
  0
LINE
  5
133
  8
0
  6
CONTINUOUS
 62
     2
 10
70.0
 20
-360.12121200000001
 30
0.0
 11
70.0
 21
-366.12121200000001
 31
0.0
  0
LINE
  5
134
  8
0
  6
CONTINUOUS
 62
     2
 10
-103.0
 20
-369.12121200000001
 30
0.0
 11
83.0
 21
-369.12121200000001
 31
0.0
  0
LINE
  5
135
  8
0
  6
CONTINUOUS
 62
     2
 10
-103.0
 20
-385.12121200000001
 30
0.0
 11
67.0
 21
-385.12121200000001
 31
0.0
  0
LINE
  5
136
  8
2
  6
CENTER
 62
     2
 10
-87.0
 20
-327.48609399999998
 30
0.0
 11
-87.0
 21
-415.05737800000003
 31
0.0
  0
LINE
  5
137
  8
2
  6
CENTER
 62
     2
 10
43.5
 20
-327.48609399999998
 30
0.0
 11
43.5
 21
-415.05737800000003
 31
0.0
  0
LINE
  5
138
  8
0
  6
CONTINUOUS
 62
     2
 10
-103.0
 20
-385.12121200000001
 30
0.0
 11
-103.0
 21
-369.12121200000001
 31
0.0
  0
LINE
  5
139
  8
0
  6
CONTINUOUS
 62
     2
 10
83.0
 20
-369.12121200000001
 30
0.0
 11
83.0
 21
-374.12121200000001
 31
0.0
  0
ARC
  5
13A
  8
0
  6
CONTINUOUS
 62
     2
 10
-73.0
 20
-366.12121200000001
 30
0.0
 40
3.0
 50
270.0
 51
0.0
  0
LINE
  5
13B
  8
0
  6
CONTINUOUS
 62
     6
 10
70.5
 20
-360.0
 30
0.0
 11
70.5
 21
-359.0
 31
0.0
  0
LINE
  5
13C
  8
0
  6
CONTINUOUS
 62
     6
 10
-70.5
 20
-360.0
 30
0.0
 11
-70.0
 21
-360.12121200000001
 31
0.0
  0
LINE
  5
13D
  8
0
  6
CONTINUOUS
 62
     6
 10
-70.5
 20
-360.0
 30
0.0
 11
-70.5
 21
-359.0
 31
0.0
  0
LINE
  5
13E
  8
0
  6
CONTINUOUS
 62
     2
 10
70.0
 20
-360.12121200000001
 30
0.0
 11
49.5
 21
-360.12121200000001
 31
0.0
  0
LINE
  5
13F
  8
0
  6
CONTINUOUS
 62
     6
 10
70.5
 20
-360.0
 30
0.0
 11
70.0
 21
-360.12121200000001
 31
0.0
  0
LINE
  5
140
  8
0
  6
CONTINUOUS
 62
     3
 10
-81.0
 20
-331.0
 30
0.0
 11
-93.0
 21
-331.0
 31
0.0
  0
LINE
  5
141
  8
0
  6
CONTINUOUS
 62
     3
 10
-81.0
 20
-406.0
 30
0.0
 11
-93.0
 21
-406.0
 31
0.0
  0
ARC
  5
142
  8
0
  6
CONTINUOUS
 62
     3
 10
-87.0
 20
-398.0
 30
0.0
 40
10.0
 50
233.13010199999411
 51
306.86989699999663
  0
LINE
  5
143
  8
0
  6
CONTINUOUS
 62
     3
 10
-93.0
 20
-343.0
 30
0.0
 11
-93.0
 21
-331.0
 31
0.0
  0
LINE
  5
144
  8
0
  6
CONTINUOUS
 62
     3
 10
-81.0
 20
-343.0
 30
0.0
 11
-81.0
 21
-331.0
 31
0.0
  0
LINE
  5
145
  8
0
  6
CONTINUOUS
 62
     3
 10
-93.0
 20
-406.0
 30
0.0
 11
-93.0
 21
-395.129032
 31
0.0
  0
LINE
  5
146
  8
0
  6
CONTINUOUS
 62
     3
 10
-93.0
 20
-369.12903200000011
 30
0.0
 11
-93.0
 21
-359.0
 31
0.0
  0
LINE
  5
147
  8
0
  6
CONTINUOUS
 62
     3
 10
-81.0
 20
-406.0
 30
0.0
 11
-81.0
 21
-395.129032
 31
0.0
  0
LINE
  5
148
  8
0
  6
CONTINUOUS
 62
     3
 10
-81.0
 20
-369.12903200000011
 30
0.0
 11
-81.0
 21
-359.0
 31
0.0
  0
LINE
  5
149
  8
0
  6
CONTINUOUS
 62
     3
 10
-81.947000000000003
 20
-406.0
 30
0.0
 11
-81.947000000000003
 21
-395.129032
 31
0.0
  0
LINE
  5
14A
  8
0
  6
CONTINUOUS
 62
     3
 10
-92.052999999999983
 20
-406.0
 30
0.0
 11
-92.052999999999983
 21
-395.129032
 31
0.0
  0
LINE
  5
14B
  8
0
  6
CONTINUOUS
 62
     3
 10
-97.950000000000045
 20
-385.12903200000011
 30
0.0
 11
-97.950000000000045
 21
-394.29187400000001
 31
0.0
  0
LINE
  5
14C
  8
0
  6
CONTINUOUS
 62
     3
 10
-92.475000000000023
 20
-385.12903200000011
 30
0.0
 11
-92.475000000000023
 21
-394.29187400000001
 31
0.0
  0
LINE
  5
14D
  8
0
  6
CONTINUOUS
 62
     3
 10
-81.524999999999977
 20
-385.12903200000011
 30
0.0
 11
-81.524999999999977
 21
-394.29187400000001
 31
0.0
  0
LINE
  5
14E
  8
0
  6
CONTINUOUS
 62
     3
 10
-76.049999999999955
 20
-385.12903200000011
 30
0.0
 11
-76.049999999999955
 21
-394.29187400000001
 31
0.0
  0
LINE
  5
14F
  8
0
  6
CONTINUOUS
 62
     3
 10
-78.802240999999981
 20
-395.129032
 30
0.0
 11
-95.197759000000019
 21
-395.129032
 31
0.0
  0
ARC
  5
150
  8
0
  6
CONTINUOUS
 62
     3
 10
-78.787500000000023
 20
-390.23478
 30
0.0
 40
4.8942740000000002
 50
235.99072200000359
 51
304.00927699999733
  0
ARC
  5
151
  8
0
  6
CONTINUOUS
 62
     3
 10
-87.0
 20
-376.80724400000003
 30
0.0
 40
18.321788000000002
 50
252.61298400000271
 51
287.38701699999501
  0
ARC
  5
152
  8
0
  6
CONTINUOUS
 62
     3
 10
-95.212499999999977
 20
-390.23478
 30
0.0
 40
4.8942740000000002
 50
235.9907230000027
 51
304.00927799999653
  0
LINE
  5
153
  8
0
  6
CONTINUOUS
 62
     3
 10
28.375606999999949
 20
-343.0
 30
0.0
 11
28.375606999999949
 21
-331.0
 31
0.0
  0
LINE
  5
154
  8
0
  6
CONTINUOUS
 62
     3
 10
34.375606999999953
 20
-343.0
 30
0.0
 11
34.375606999999953
 21
-331.0
 31
0.0
  0
LINE
  5
155
  8
0
  6
CONTINUOUS
 62
     3
 10
58.624317999999903
 20
-343.0
 30
0.0
 11
58.624317999999903
 21
-331.0
 31
0.0
  0
LINE
  5
156
  8
0
  6
CONTINUOUS
 62
     3
 10
28.375606999999949
 20
-331.0
 30
0.0
 11
58.624317999999903
 21
-331.0
 31
0.0
  0
LINE
  5
157
  8
0
  6
CONTINUOUS
 62
     3
 10
49.5
 20
-406.0
 30
0.0
 11
37.5
 21
-406.0
 31
0.0
  0
ARC
  5
158
  8
0
  6
CONTINUOUS
 62
     3
 10
43.5
 20
-398.0
 30
0.0
 40
10.0
 50
233.13010199999411
 51
306.86989699999663
  0
LINE
  5
159
  8
0
  6
CONTINUOUS
 62
     3
 10
37.5
 20
-406.0
 30
0.0
 11
37.5
 21
-395.129032
 31
0.0
  0
LINE
  5
15A
  8
0
  6
CONTINUOUS
 62
     3
 10
37.5
 20
-369.12903200000011
 30
0.0
 11
37.5
 21
-359.0
 31
0.0
  0
LINE
  5
15B
  8
0
  6
CONTINUOUS
 62
     3
 10
49.5
 20
-406.0
 30
0.0
 11
49.5
 21
-395.129032
 31
0.0
  0
LINE
  5
15C
  8
0
  6
CONTINUOUS
 62
     3
 10
49.5
 20
-369.12903200000011
 30
0.0
 11
49.5
 21
-359.0
 31
0.0
  0
LINE
  5
15D
  8
0
  6
CONTINUOUS
 62
     3
 10
48.553000000000111
 20
-406.0
 30
0.0
 11
48.553000000000111
 21
-395.129032
 31
0.0
  0
LINE
  5
15E
  8
0
  6
CONTINUOUS
 62
     3
 10
38.446999999999889
 20
-406.0
 30
0.0
 11
38.446999999999889
 21
-395.129032
 31
0.0
  0
LINE
  5
15F
  8
0
  6
CONTINUOUS
 62
     3
 10
32.549999999999947
 20
-385.12903200000011
 30
0.0
 11
32.549999999999947
 21
-394.29187400000001
 31
0.0
  0
ARC
  5
160
  8
0
  6
CONTINUOUS
 62
     2
 10
70.5
 20
-385.12121200000001
 30
0.0
 40
11.0
 50
90.0
 51
180.0
  0
ARC
  5
161
  8
0
  6
CONTINUOUS
 62
     2
 10
-87.31370800000002
 20
-385.12121200000001
 30
0.0
 40
11.0
 50
90.0
 51
180.0
  0
LINE
  5
162
  8
0
  6
CONTINUOUS
 62
     2
 10
37.5
 20
-360.12121200000001
 30
0.0
 11
-70.0
 21
-360.12121200000001
 31
0.0
  0
ARC
  5
163
  8
0
  6
CONTINUOUS
 62
     3
 10
35.287499999999909
 20
-390.23478
 30
0.0
 40
4.8942740000000002
 50
235.9907230000027
 51
304.00927799999653
  0
ARC
  5
164
  8
0
  6
CONTINUOUS
 62
     3
 10
43.5
 20
-376.80724400000003
 30
0.0
 40
18.321788000000002
 50
252.61298400000271
 51
287.38701699999501
  0
ARC
  5
165
  8
0
  6
CONTINUOUS
 62
     3
 10
51.712500000000091
 20
-390.23478
 30
0.0
 40
4.8942740000000002
 50
235.99072200000359
 51
304.00927699999733
  0
LINE
  5
166
  8
0
  6
CONTINUOUS
 62
     3
 10
51.697758999999898
 20
-395.129032
 30
0.0
 11
35.302241000000102
 21
-395.129032
 31
0.0
  0
LINE
  5
167
  8
0
  6
CONTINUOUS
 62
     3
 10
54.450000000000038
 20
-385.12903200000011
 30
0.0
 11
54.450000000000038
 21
-394.29187400000001
 31
0.0
  0
LINE
  5
168
  8
0
  6
CONTINUOUS
 62
     3
 10
48.974999999999909
 20
-385.12903200000011
 30
0.0
 11
48.974999999999909
 21
-394.29187400000001
 31
0.0
  0
LINE
  5
169
  8
0
  6
CONTINUOUS
 62
     3
 10
38.025000000000091
 20
-385.12903200000011
 30
0.0
 11
38.025000000000091
 21
-394.29187400000001
 31
0.0
  0
ARC
  5
16A
  8
0
  6
CONTINUOUS
 62
     2
 10
0.0
 20
0.0
 30
0.0
 40
67.0
 50
197.5398989999986
 51
282.46010100000279
  0
LINE
  5
16B
  8
0
  6
CONTINUOUS
 62
     2
 10
-69.606034000000022
 20
-16.0
 30
0.0
 11
-87.0
 21
-16.0
 31
0.0
  0
ARC
  5
16C
  8
0
  6
CONTINUOUS
 62
     2
 10
-69.606034000000022
 20
-22.0
 30
0.0
 40
6.0
 50
17.539898999998641
 51
90.0
  0
ARC
  5
16D
  8
0
  6
CONTINUOUS
 62
     2
 10
53.855575999999928
 20
-49.280592999999953
 30
0.0
 40
6.0
 50
137.5398990000013
 51
209.9999999999973
  0
ARC
  5
16E
  8
0
  6
CONTINUOUS
 62
     2
 10
15.750457999999981
 20
-71.280592999999953
 30
0.0
 40
6.0
 50
29.999999999997289
 51
102.46010100000279
  0
LINE
  5
16F
  8
0
  6
CONTINUOUS
 62
     2
 10
48.659423999999937
 20
-52.280592999999953
 30
0.0
 11
57.356406000000099
 21
-67.344209999999975
 31
0.0
  0
CIRCLE
  5
170
  8
1
  6
CONTINUOUS
 62
     3
 10
43.5
 20
-75.344209999999975
 30
0.0
 40
6.0
  0
CIRCLE
  5
171
  8
1
  6
CONTINUOUS
 62
     3
 10
43.5
 20
-75.344209999999975
 30
0.0
 40
5.052999999999999
  0
LINE
  5
172
  8
0
  6
CONTINUOUS
 62
     3
 10
48.974999999999909
 20
-84.827188000000092
 30
0.0
 11
38.025000000000091
 21
-84.827188000000092
 31
0.0
  0
LINE
  5
173
  8
0
  6
CONTINUOUS
 62
     3
 10
54.450000000000038
 20
-75.344209999999975
 30
0.0
 11
48.974999999999909
 21
-84.827188000000092
 31
0.0
  0
LINE
  5
174
  8
0
  6
CONTINUOUS
 62
     3
 10
48.974999999999909
 20
-65.861230999999975
 30
0.0
 11
54.450000000000038
 21
-75.344209999999975
 31
0.0
  0
CIRCLE
  5
175
  8
0
  6
CONTINUOUS
 62
     3
 10
43.5
 20
-75.344209999999975
 30
0.0
 40
9.5
  0
LINE
  5
176
  8
0
  6
CONTINUOUS
 62
     3
 10
38.025000000000091
 20
-84.827188000000092
 30
0.0
 11
32.549999999999947
 21
-75.344209999999975
 31
0.0
  0
LINE
  5
177
  8
0
  6
CONTINUOUS
 62
     3
 10
32.549999999999947
 20
-75.344209999999975
 30
0.0
 11
38.025000000000091
 21
-65.861230999999975
 31
0.0
  0
LINE
  5
178
  8
0
  6
CONTINUOUS
 62
     3
 10
38.025000000000091
 20
-65.861230999999975
 30
0.0
 11
48.974999999999909
 21
-65.861230999999975
 31
0.0
  0
LINE
  5
179
  8
0
  6
CONTINUOUS
 62
     2
 10
20.946610999999852
 20
-68.280592999999953
 30
0.0
 11
29.643593999999901
 21
-83.344209999999975
 31
0.0
  0
ARC
  5
17A
  8
0
  6
CONTINUOUS
 62
     2
 10
43.5
 20
-75.344209999999975
 30
0.0
 40
16.0
 50
209.9999999999973
 51
29.999999999997289
  0
CIRCLE
  5
17B
  8
0
  6
CONTINUOUS
 62
     2
 10
0.0
 20
0.0
 30
0.0
 40
60.0
  0
CIRCLE
  5
17C
  8
0
  6
CONTINUOUS
 62
     2
 10
0.0
 20
0.0
 30
0.0
 40
61.964553000000002
  0
ARC
  5
17D
  8
0
  6
CONTINUOUS
 62
     2
 10
0.0
 20
0.0
 30
0.0
 40
67.0
 50
77.539898999997192
 51
162.46010100000129
  0
ARC
  5
17E
  8
0
  6
CONTINUOUS
 62
     2
 10
-87.0
 20
0.0
 30
0.0
 40
16.0
 50
90.0
 51
270.0
  0
LINE
  5
17F
  8
0
  6
CONTINUOUS
 62
     2
 10
-69.606034000000022
 20
16.00000000000011
 30
0.0
 11
-87.0
 21
16.00000000000011
 31
0.0
  0
ARC
  5
180
  8
0
  6
CONTINUOUS
 62
     2
 10
-69.606034000000022
 20
22.00000000000011
 30
0.0
 40
6.0
 50
270.0
 51
342.46010100000137
  0
ARC
  5
181
  8
0
  6
CONTINUOUS
 62
     2
 10
53.855575999999928
 20
49.280593999999951
 30
0.0
 40
6.0
 50
150.0000000000027
 51
222.4601009999987
  0
ARC
  5
182
  8
0
  6
CONTINUOUS
 62
     2
 10
15.750457999999981
 20
71.280593999999951
 30
0.0
 40
6.0
 50
257.53989899999721
 51
330.00000000000267
  0
LINE
  5
183
  8
0
  6
CONTINUOUS
 62
     2
 10
48.659423999999937
 20
52.280593999999951
 30
0.0
 11
57.356406000000099
 21
67.344210999999973
 31
0.0
  0
CIRCLE
  5
184
  8
1
  6
CONTINUOUS
 62
     3
 10
43.5
 20
75.344210999999973
 30
0.0
 40
6.0
  0
CIRCLE
  5
185
  8
1
  6
CONTINUOUS
 62
     3
 10
43.5
 20
75.344210999999973
 30
0.0
 40
5.052999999999999
  0
LINE
  5
186
  8
0
  6
CONTINUOUS
 62
     3
 10
48.974999999999909
 20
84.827188999999976
 30
0.0
 11
38.025000000000091
 21
84.827188999999976
 31
0.0
  0
LINE
  5
187
  8
0
  6
CONTINUOUS
 62
     3
 10
54.450000000000038
 20
75.344210999999973
 30
0.0
 11
48.974999999999909
 21
84.827188999999976
 31
0.0
  0
LINE
  5
188
  8
0
  6
CONTINUOUS
 62
     3
 10
48.974999999999909
 20
65.861232000000086
 30
0.0
 11
54.450000000000038
 21
75.344210999999973
 31
0.0
  0
CIRCLE
  5
189
  8
0
  6
CONTINUOUS
 62
     3
 10
43.5
 20
75.344210999999973
 30
0.0
 40
9.5
  0
LINE
  5
18A
  8
0
  6
CONTINUOUS
 62
     3
 10
38.025000000000091
 20
84.827188999999976
 30
0.0
 11
32.549999999999947
 21
75.344210999999973
 31
0.0
  0
LINE
  5
18B
  8
0
  6
CENTER
 62
     2
 10
-114.350369
 20
0.0
 30
0.0
 11
92.279925999999932
 21
0.0
 31
0.0
  0
LINE
  5
18C
  8
0
  6
CONTINUOUS
 62
     3
 10
32.549999999999947
 20
75.344210999999973
 30
0.0
 11
38.025000000000091
 21
65.861232000000086
 31
0.0
  0
ARC
  5
18D
  8
1
  6
CONTINUOUS
 62
     4
 10
103.5
 20
-265.995
 30
0.0
 40
35.0
 50
134.42699999999971
 51
180.0
  0
ARC
  5
18E
  8
0
  6
CENTER
 62
     4
 10
0.0
 20
0.0
 30
0.0
 40
87.0
 50
28.59974000000469
 51
74.427525999996107
  0
LINE
  5
18F
  8
0
  6
CONTINUOUS
 62
     3
 10
38.025000000000091
 20
65.861232000000086
 30
0.0
 11
48.974999999999909
 21
65.861232000000086
 31
0.0
  0
CIRCLE
  5
190
  8
1
  6
CONTINUOUS
 62
     3
 10
-87.0
 20
0.0
 30
0.0
 40
6.0
  0
CIRCLE
  5
191
  8
1
  6
CONTINUOUS
 62
     3
 10
-87.0
 20
0.0
 30
0.0
 40
5.052999999999999
  0
LINE
  5
192
  8
0
  6
CONTINUOUS
 62
     3
 10
-81.524999999999977
 20
9.4829790000000003
 30
0.0
 11
-92.475000000000023
 21
9.4829790000000003
 31
0.0
  0
LINE
  5
193
  8
0
  6
CONTINUOUS
 62
     3
 10
-76.049999999999955
 20
0.0
 30
0.0
 11
-81.524999999999977
 21
9.4829790000000003
 31
0.0
  0
LINE
  5
194
  8
1
  6
CONTINUOUS
 62
     4
 10
-103.0
 20
-225.0
 30
0.0
 11
-103.0
 21
-241.0
 31
0.0
  0
LINE
  5
195
  8
1
  6
CONTINUOUS
 62
     4
 10
83.0
 20
-225.0
 30
0.0
 11
83.0
 21
-241.0
 31
0.0
  0
LINE
  5
196
  8
1
  6
CONTINUOUS
 62
     4
 10
68.5
 20
-265.995
 30
0.0
 11
68.5
 21
-318.005
 31
0.0
  0
LINE
  5
197
  8
0
  6
CONTINUOUS
 62
     3
 10
-81.524999999999977
 20
-9.4829779999998891
 30
0.0
 11
-76.049999999999955
 21
0.0
 31
0.0
  0
CIRCLE
  5
198
  8
0
  6
CONTINUOUS
 62
     3
 10
-87.0
 20
0.0
 30
0.0
 40
9.5
  0
LINE
  5
199
  8
1
  6
CONTINUOUS
 62
     4
 10
-103.0
 20
-225.0
 30
0.0
 11
83.0
 21
-225.0
 31
0.0
  0
LINE
  5
19A
  8
1
  6
CONTINUOUS
 62
     4
 10
-103.0
 20
-241.0
 30
0.0
 11
83.0
 21
-241.0
 31
0.0
  0
ARC
  5
19B
  8
1
  6
CONTINUOUS
 62
     4
 10
-103.5
 20
-265.995
 30
0.0
 40
35.0
 50
0.0
 51
45.573000000000206
  0
ARC
  5
19C
  8
1
  6
CONTINUOUS
 62
     4
 10
-103.5
 20
-318.005
 30
0.0
 40
35.0
 50
314.42699999999979
 51
0.0
  0
LINE
  5
19D
  8
1
  6
CONTINUOUS
 62
     4
 10
-103.0
 20
-343.0
 30
0.0
 11
83.0
 21
-343.0
 31
0.0
  0
LINE
  5
19E
  8
1
  6
CONTINUOUS
 62
     4
 10
-103.0
 20
-359.0
 30
0.0
 11
83.0
 21
-359.0
 31
0.0
  0
LINE
  5
19F
  8
1
  6
CONTINUOUS
 62
     4
 10
-68.5
 20
-265.995
 30
0.0
 11
-68.5
 21
-318.005
 31
0.0
  0
LINE
  5
1A0
  8
0
  6
CONTINUOUS
 62
     3
 10
-92.475000000000023
 20
9.4829790000000003
 30
0.0
 11
-97.950000000000045
 21
0.0
 31
0.0
  0
LINE
  5
1A1
  8
1
  6
CONTINUOUS
 62
     4
 10
83.0
 20
-359.0
 30
0.0
 11
83.0
 21
-343.0
 31
0.0
  0
ARC
  5
1A2
  8
0
  6
CENTER
 62
     4
 10
0.0
 20
0.0
 30
0.0
 40
87.0
 50
285.21035200000341
 51
315.63189900000441
  0
ARC
  5
1A3
  8
0
  6
CENTER
 62
     4
 10
0.0
 20
0.0
 30
0.0
 40
87.0
 50
163.7905070000017
 51
214.14073100000121
  0
LINE
  5
1A4
  8
1
  6
CONTINUOUS
 62
     4
 10
-103.0
 20
-359.0
 30
0.0
 11
-103.0
 21
-343.0
 31
0.0
  0
ARC
  5
1A5
  8
1
  6
CONTINUOUS
 62
     4
 10
103.5
 20
-318.005
 30
0.0
 40
35.0
 50
180.0
 51
225.57300000000021
  0
LINE
  5
1A6
  8
0
  6
CONTINUOUS
 62
     2
 10
20.946610999999852
 20
68.280593999999951
 30
0.0
 11
29.643593999999901
 21
83.344210999999973
 31
0.0
  0
LINE
  5
1A8
  8
3
  6
CENTER
 62
     2
 10
0.0
 20
-186.44421500000001
 30
0.0
 11
0.0
 21
-395.09633300000002
 31
0.0
  0
LINE
  5
1A9
  8
3
  6
CENTER
 62
     2
 10
0.0
 20
100.6883160000001
 30
0.0
 11
0.0
 21
-95.832864999999984
 31
0.0
  0
LINE
  5
1AA
  8
1
  6
CENTER
 62
     4
 10
54.395843999999897
 20
94.216365999999994
 30
0.0
 11
36.0
 21
62.353830000000123
 31
0.0
  0
ARC
  5
1AB
  8
1
  6
CONTINUOUS
 62
     4
 10
-83.0
 20
0.0
 30
0.0
 40
20.0
 50
139.3792999999975
 51
220.62070000000239
  0
LINE
  5
1AC
  8
1
  6
CENTER
 62
     4
 10
54.395843999999897
 20
-94.216364999999996
 30
0.0
 11
36.0
 21
-62.353829000000019
 31
0.0
  0
ARC
  5
1AD
  8
1
  6
CONTINUOUS
 62
     4
 10
41.5
 20
-71.88010799999995
 30
0.0
 40
20.0
 50
259.3792999999942
 51
340.62069999999892
  0
ARC
  5
1AE
  8
1
  6
CONTINUOUS
 62
     4
 10
41.5
 20
71.880109000000061
 30
0.0
 40
20.0
 50
19.379300000001091
 51
100.6207000000057
  0
ARC
  5
1AF
  8
1
  6
CONTINUOUS
 62
     4
 10
0.0
 20
0.0
 30
0.0
 40
83.0
 50
340.62069999999892
 51
19.379300000001091
  0
LINE
  5
1B0
  8
1
  6
CONTINUOUS
 62
     4
 10
37.813871000000063
 20
91.537486000000044
 30
0.0
 11
-15.297435999999831
 21
81.578112999999917
 31
0.0
  0
LINE
  5
1B1
  8
1
  6
CONTINUOUS
 62
     4
 10
-63.0
 20
54.037024999999971
 30
0.0
 11
-98.180723000000057
 21
13.02096999999992
 31
0.0
  0
LINE
  5
1B2
  8
1
  6
CONTINUOUS
 62
     4
 10
-98.180723000000057
 20
-13.020968999999919
 30
0.0
 11
-63.0
 21
-54.037023999999967
 31
0.0
  0
LINE
  5
1B3
  8
1
  6
CONTINUOUS
 62
     4
 10
37.813871000000063
 20
-91.537484999999947
 30
0.0
 11
-15.297435999999831
 21
-81.578112000000019
 31
0.0
  0
LINE
  5
1B4
  8
1
  6
CONTINUOUS
 62
     4
 10
60.366851999999881
 20
-78.516515000000027
 30
0.0
 11
78.297435999999834
 21
-27.541088000000059
 31
0.0
  0
LINE
  5
1B5
  8
1
  6
CONTINUOUS
 62
     4
 10
78.297435999999834
 20
27.54108900000017
 30
0.0
 11
60.366851999999881
 21
78.516516000000024
 31
0.0
  0
ARC
  5
1B6
  8
1
  6
CONTINUOUS
 62
     4
 10
0.0
 20
0.0
 30
0.0
 40
83.0
 50
220.62070000000239
 51
259.3792999999942
  0
ARC
  5
1B7
  8
1
  6
CONTINUOUS
 62
     4
 10
0.0
 20
0.0
 30
0.0
 40
83.0
 50
100.6207000000057
 51
139.3792999999975
  0
LINE
  5
1B8
  8
0
  6
CONTINUOUS
 62
     4
 10
62.85438100000011
 20
-265.995
 30
0.0
 11
-64.116093999999975
 21
-265.995
 31
0.0
  0
LINE
  5
1B9
  8
0
  6
CONTINUOUS
 62
     4
 10
62.85438100000011
 20
-318.005
 30
0.0
 11
-64.116093999999975
 21
-318.005
 31
0.0
  0
ARC
  5
1BA
  8
0
  6
CONTINUOUS
 62
     2
 10
43.5
 20
75.344210999999973
 30
0.0
 40
16.0
 50
330.00000000000267
 51
150.0000000000027
  0
ARC
  5
1BB
  8
0
  6
CONTINUOUS
 62
     2
 10
0.0
 20
0.0
 30
0.0
 40
67.0
 50
317.5398990000013
 51
42.460100999998701
  0
LINE
  5
1BC
  8
0
  6
CONTINUOUS
 62
     3
 10
-92.475000000000023
 20
-9.4829779999998891
 30
0.0
 11
-81.524999999999977
 21
-9.4829779999998891
 31
0.0
  0
LINE
  5
1BD
  8
0
  6
CONTINUOUS
 62
     3
 10
-97.950000000000045
 20
0.0
 30
0.0
 11
-92.475000000000023
 21
-9.4829779999998891
 31
0.0
  0
POINT
  5
1BE
  8
0
 62
     1
 10
2099.5
 20
1484.5
 30
0.0
  0
POINT
  5
1BF
  8
0
 62
     1
 10
0.5
 20
0.5
 30
0.0
  0
POINT
  5
1C0
  8
0
 62
     1
 10
2099.5
 20
1484.5
 30
0.0
  0
ENDSEC
  0
EOF
