  0
SECTION
  2
HEADER
  9
$ACADVER
  1
AC1009
  9
$INSBASE
 10
0.0
 20
0.0
 30
0.0
  9
$EXTMIN
 10
-119.8570439999999
 20
-510.03213699999992
 30
0.0
  9
$EXTMAX
 10
2099.5
 20
1484.5
 30
0.0
  9
$LIMMIN
 10
0.0
 20
0.0
  9
$LIMMAX
 10
2100.0
 20
1485.0
  9
$ORTHOMODE
 70
     0
  9
$REGENMODE
 70
     1
  9
$FILLMODE
 70
     1
  9
$QTEXTMODE
 70
     0
  9
$MIRRTEXT
 70
     0
  9
$DRAGMODE
 70
     2
  9
$LTSCALE
 40
1.0
  9
$OSMODE
 70
   125
  9
$ATTMODE
 70
     1
  9
$TEXTSIZE
 40
0.2
  9
$TRACEWID
 40
0.05
  9
$TEXTSTYLE
  7
KANJI
  9
$CLAYER
  8
0
  9
$CELTYPE
  6
BYLAYER
  9
$CECOLOR
 62
   256
  9
$DIMSCALE
 40
1.0
  9
$DIMASZ
 40
22.5
  9
$DIMEXO
 40
5.0
  9
$DIMDLI
 40
40.0
  9
$DIMRND
 40
0.0
  9
$DIMDLE
 40
0.0
  9
$DIMEXE
 40
5.0
  9
$DIMTP
 40
0.0
  9
$DIMTM
 40
0.0
  9
$DIMTXT
 40
16.0
  9
$DIMCEN
 40
0.09
  9
$DIMTSZ
 40
0.0
  9
$DIMTOL
 70
     0
  9
$DIMLIM
 70
     0
  9
$DIMTIH
 70
     0
  9
$DIMTOH
 70
     0
  9
$DIMSE1
 70
     0
  9
$DIMSE2
 70
     0
  9
$DIMTAD
 70
     1
  9
$DIMZIN
 70
     0
  9
$DIMBLK
  1

  9
$DIMASO
 70
     1
  9
$DIMSHO
 70
     0
  9
$DIMPOST
  1

  9
$DIMAPOST
  1

  9
$DIMALT
 70
     0
  9
$DIMALTD
 70
     2
  9
$DIMALTF
 40
25.399999999999999
  9
$DIMLFAC
 40
1.0
  9
$DIMTOFL
 70
     0
  9
$DIMTVP
 40
0.0
  9
$DIMTIX
 70
     0
  9
$DIMSOXD
 70
     0
  9
$DIMSAH
 70
     0
  9
$DIMBLK1
  1

  9
$DIMBLK2
  1

  9
$DIMSTYLE
  2
STANDARD
  9
$DIMCLRD
 70
     0
  9
$DIMCLRE
 70
     0
  9
$DIMCLRT
 70
     0
  9
$DIMTFAC
 40
1.0
  9
$DIMGAP
 40
0.09
  9
$LUNITS
 70
     2
  9
$LUPREC
 70
     2
  9
$SKETCHINC
 40
0.1
  9
$FILLETRAD
 40
0.0
  9
$AUNITS
 70
     1
  9
$AUPREC
 70
     2
  9
$MENU
  1
ACAD
  9
$ELEVATION
 40
0.0
  9
$PELEVATION
 40
0.0
  9
$THICKNESS
 40
0.0
  9
$LIMCHECK
 70
     0
  9
$BLIPMODE
 70
     0
  9
$CHAMFERA
 40
0.0
  9
$CHAMFERB
 40
0.0
  9
$SKPOLY
 70
     0
  9
$TDCREATE
 40
2457134.7240548842
  9
$TDUPDATE
 40
2457134.7406456252
  9
$TDINDWG
 40
0.0165927315
  9
$TDUSRTIMER
 40
0.0165927315
  9
$USRTIMER
 70
     1
  9
$ANGBASE
 50
0.0
  9
$ANGDIR
 70
     0
  9
$PDMODE
 70
     0
  9
$PDSIZE
 40
0.0
  9
$PLINEWID
 40
0.0
  9
$COORDS
 70
     1
  9
$SPLFRAME
 70
     0
  9
$SPLINETYPE
 70
     6
  9
$SPLINESEGS
 70
     8
  9
$ATTDIA
 70
     1
  9
$ATTREQ
 70
     1
  9
$HANDLING
 70
     1
  9
$HANDSEED
  5
2F7
  9
$SURFTAB1
 70
     6
  9
$SURFTAB2
 70
     6
  9
$SURFTYPE
 70
     6
  9
$SURFU
 70
     6
  9
$SURFV
 70
     6
  9
$UCSNAME
  2

  9
$UCSORG
 10
0.0
 20
0.0
 30
0.0
  9
$UCSXDIR
 10
1.0
 20
0.0
 30
0.0
  9
$UCSYDIR
 10
0.0
 20
1.0
 30
0.0
  9
$PUCSNAME
  2

  9
$PUCSORG
 10
0.0
 20
0.0
 30
0.0
  9
$PUCSXDIR
 10
1.0
 20
0.0
 30
0.0
  9
$PUCSYDIR
 10
0.0
 20
1.0
 30
0.0
  9
$USERI1
 70
     0
  9
$USERI2
 70
     0
  9
$USERI3
 70
     0
  9
$USERI4
 70
     0
  9
$USERI5
 70
     0
  9
$USERR1
 40
0.0
  9
$USERR2
 40
0.0
  9
$USERR3
 40
0.0
  9
$USERR4
 40
0.0
  9
$USERR5
 40
0.0
  9
$WORLDVIEW
 70
     1
  9
$SHADEDGE
 70
     3
  9
$SHADEDIF
 70
    70
  9
$TILEMODE
 70
     1
  9
$MAXACTVP
 70
    64
  9
$PLIMCHECK
 70
     0
  9
$PEXTMIN
 10
1.0000000000000000E+020
 20
1.0000000000000000E+020
 30
1.0000000000000000E+020
  9
$PEXTMAX
 10
-1.0000000000000000E+020
 20
-1.0000000000000000E+020
 30
-1.0000000000000000E+020
  9
$PLIMMIN
 10
0.0
 20
0.0
  9
$PLIMMAX
 10
12.0
 20
9.0
  9
$UNITMODE
 70
     0
  9
$VISRETAIN
 70
     1
  9
$PLINEGEN
 70
     0
  9
$PSLTSCALE
 70
     1
  0
ENDSEC
  0
SECTION
  2
TABLES
  0
TABLE
  2
VPORT
 70
     1
  0
VPORT
  2
*ACTIVE
 70
     0
 10
0.0
 20
0.0
 11
1.0
 21
1.0
 12
137.7668887270612
 22
-217.1555890547163
 13
0.0
 23
0.0
 14
1.0
 24
1.0
 15
0.0
 25
0.0
 16
0.0
 26
0.0
 36
1.0
 17
0.0
 27
0.0
 37
0.0
 40
1081.4757879883759
 41
1.8188302425106979
 42
50.0
 43
0.0
 44
0.0
 50
0.0
 51
0.0
 71
     0
 72
   100
 73
     1
 74
     1
 75
     0
 76
     0
 77
     0
 78
     0
  0
ENDTAB
  0
TABLE
  2
LTYPE
 70
     9
  0
LTYPE
  2
CONTINUOUS
 70
     0
  3
Solid line
 72
    65
 73
     0
 40
0.0
  0
LTYPE
  2
DASHED
 70
     0
  3
__ __ __ __ __ __ __ __ __ __ __ __ __ __ __
 72
    65
 73
     2
 40
0.75
 49
0.5
 49
-0.25
  0
LTYPE
  2
HIDDEN
 70
     0
  3
_ _ _ _ _ _ _ _ _ _ _ _ _ _ _ _ _ _ _ _ _ _ _
 72
    65
 73
     2
 40
0.375
 49
0.25
 49
-0.125
  0
LTYPE
  2
CENTER
 70
     0
  3
____ _ ____ _ ____ _ ____ _ ____ _ ____ _ ____
 72
    65
 73
     4
 40
2.0
 49
1.25
 49
-0.25
 49
0.25
 49
-0.25
  0
LTYPE
  2
PHANTOM
 70
     0
  3
_____ _ _ _____ _ _ _____ _ _ _____ _ _ ____
 72
    65
 73
     6
 40
2.5
 49
1.25
 49
-0.25
 49
0.25
 49
-0.25
 49
0.25
 49
-0.25
  0
LTYPE
  2
DOT
 70
     0
  3
...............................................
 72
    65
 73
     2
 40
0.25
 49
0.0
 49
-0.25
  0
LTYPE
  2
DASHDOT
 70
     0
  3
__ . __ . __ . __ . __ . __ . __ . __ . __ . __
 72
    65
 73
     4
 40
1.0
 49
0.5
 49
-0.25
 49
0.0
 49
-0.25
  0
LTYPE
  2
BORDER
 70
     0
  3
__ __ . __ __ . __ __ . __ __ . __ __ . __ __
 72
    65
 73
     6
 40
1.75
 49
0.5
 49
-0.25
 49
0.5
 49
-0.25
 49
0.0
 49
-0.25
  0
LTYPE
  2
DIVIDE
 70
     0
  3
__ . . __ . . __ . . __ . . __ . . __ . . __
 72
    65
 73
     6
 40
1.25
 49
0.5
 49
-0.25
 49
0.0
 49
-0.25
 49
0.0
 49
-0.25
  0
ENDTAB
  0
TABLE
  2
LAYER
 70
   100
  0
LAYER
  2
0
 70
     0
 62
     3
  6
CONTINUOUS
  0
LAYER
  2
1
 70
     0
 62
     3
  6
CONTINUOUS
  0
LAYER
  2
2
 70
     0
 62
     3
  6
CONTINUOUS
  0
LAYER
  2
3
 70
     0
 62
     3
  6
CONTINUOUS
  0
LAYER
  2
4
 70
     0
 62
     3
  6
CONTINUOUS
  0
LAYER
  2
5
 70
     0
 62
     3
  6
CONTINUOUS
  0
LAYER
  2
6
 70
     0
 62
     3
  6
CONTINUOUS
  0
LAYER
  2
7
 70
     0
 62
     3
  6
CONTINUOUS
  0
LAYER
  2
8
 70
     0
 62
     3
  6
CONTINUOUS
  0
LAYER
  2
9
 70
     0
 62
     3
  6
CONTINUOUS
  0
LAYER
  2
10
 70
     0
 62
     3
  6
CONTINUOUS
  0
LAYER
  2
11
 70
     0
 62
     3
  6
CONTINUOUS
  0
LAYER
  2
12
 70
     0
 62
     3
  6
CONTINUOUS
  0
LAYER
  2
13
 70
     0
 62
     3
  6
CONTINUOUS
  0
LAYER
  2
14
 70
     0
 62
     3
  6
CONTINUOUS
  0
LAYER
  2
15
 70
     0
 62
     3
  6
CONTINUOUS
  0
LAYER
  2
16
 70
     0
 62
     3
  6
CONTINUOUS
  0
LAYER
  2
17
 70
     0
 62
     3
  6
CONTINUOUS
  0
LAYER
  2
18
 70
     0
 62
     3
  6
CONTINUOUS
  0
LAYER
  2
19
 70
     0
 62
     3
  6
CONTINUOUS
  0
LAYER
  2
20
 70
     0
 62
     3
  6
CONTINUOUS
  0
LAYER
  2
21
 70
     0
 62
     3
  6
CONTINUOUS
  0
LAYER
  2
22
 70
     0
 62
     3
  6
CONTINUOUS
  0
LAYER
  2
23
 70
     0
 62
     3
  6
CONTINUOUS
  0
LAYER
  2
24
 70
     0
 62
     3
  6
CONTINUOUS
  0
LAYER
  2
25
 70
     0
 62
     3
  6
CONTINUOUS
  0
LAYER
  2
26
 70
     0
 62
     3
  6
CONTINUOUS
  0
LAYER
  2
27
 70
     0
 62
     3
  6
CONTINUOUS
  0
LAYER
  2
28
 70
     0
 62
     3
  6
CONTINUOUS
  0
LAYER
  2
29
 70
     0
 62
     3
  6
CONTINUOUS
  0
LAYER
  2
30
 70
     0
 62
     3
  6
CONTINUOUS
  0
LAYER
  2
31
 70
     0
 62
     3
  6
CONTINUOUS
  0
LAYER
  2
32
 70
     0
 62
     3
  6
CONTINUOUS
  0
LAYER
  2
33
 70
     0
 62
     3
  6
CONTINUOUS
  0
LAYER
  2
34
 70
     0
 62
     3
  6
CONTINUOUS
  0
LAYER
  2
35
 70
     0
 62
     3
  6
CONTINUOUS
  0
LAYER
  2
36
 70
     0
 62
     3
  6
CONTINUOUS
  0
LAYER
  2
37
 70
     0
 62
     3
  6
CONTINUOUS
  0
LAYER
  2
38
 70
     0
 62
     3
  6
CONTINUOUS
  0
LAYER
  2
39
 70
     0
 62
     3
  6
CONTINUOUS
  0
LAYER
  2
40
 70
     0
 62
     3
  6
CONTINUOUS
  0
LAYER
  2
41
 70
     0
 62
     3
  6
CONTINUOUS
  0
LAYER
  2
42
 70
     0
 62
     3
  6
CONTINUOUS
  0
LAYER
  2
43
 70
     0
 62
     3
  6
CONTINUOUS
  0
LAYER
  2
44
 70
     0
 62
     3
  6
CONTINUOUS
  0
LAYER
  2
45
 70
     0
 62
     3
  6
CONTINUOUS
  0
LAYER
  2
46
 70
     0
 62
     3
  6
CONTINUOUS
  0
LAYER
  2
47
 70
     0
 62
     3
  6
CONTINUOUS
  0
LAYER
  2
48
 70
     0
 62
     3
  6
CONTINUOUS
  0
LAYER
  2
49
 70
     0
 62
     3
  6
CONTINUOUS
  0
LAYER
  2
50
 70
     0
 62
     3
  6
CONTINUOUS
  0
LAYER
  2
51
 70
     0
 62
     3
  6
CONTINUOUS
  0
LAYER
  2
52
 70
     0
 62
     3
  6
CONTINUOUS
  0
LAYER
  2
53
 70
     0
 62
     3
  6
CONTINUOUS
  0
LAYER
  2
54
 70
     0
 62
     3
  6
CONTINUOUS
  0
LAYER
  2
55
 70
     0
 62
     3
  6
CONTINUOUS
  0
LAYER
  2
56
 70
     0
 62
     3
  6
CONTINUOUS
  0
LAYER
  2
57
 70
     0
 62
     3
  6
CONTINUOUS
  0
LAYER
  2
58
 70
     0
 62
     3
  6
CONTINUOUS
  0
LAYER
  2
59
 70
     0
 62
     3
  6
CONTINUOUS
  0
LAYER
  2
60
 70
     0
 62
     3
  6
CONTINUOUS
  0
LAYER
  2
61
 70
     0
 62
     3
  6
CONTINUOUS
  0
LAYER
  2
62
 70
     0
 62
     3
  6
CONTINUOUS
  0
LAYER
  2
63
 70
     0
 62
     3
  6
CONTINUOUS
  0
LAYER
  2
64
 70
     0
 62
     3
  6
CONTINUOUS
  0
LAYER
  2
65
 70
     0
 62
     3
  6
CONTINUOUS
  0
LAYER
  2
66
 70
     0
 62
     3
  6
CONTINUOUS
  0
LAYER
  2
67
 70
     0
 62
     3
  6
CONTINUOUS
  0
LAYER
  2
68
 70
     0
 62
     3
  6
CONTINUOUS
  0
LAYER
  2
69
 70
     0
 62
     3
  6
CONTINUOUS
  0
LAYER
  2
70
 70
     0
 62
     3
  6
CONTINUOUS
  0
LAYER
  2
71
 70
     0
 62
     3
  6
CONTINUOUS
  0
LAYER
  2
72
 70
     0
 62
     3
  6
CONTINUOUS
  0
LAYER
  2
73
 70
     0
 62
     3
  6
CONTINUOUS
  0
LAYER
  2
74
 70
     0
 62
     3
  6
CONTINUOUS
  0
LAYER
  2
75
 70
     0
 62
     3
  6
CONTINUOUS
  0
LAYER
  2
76
 70
     0
 62
     3
  6
CONTINUOUS
  0
LAYER
  2
77
 70
     0
 62
     3
  6
CONTINUOUS
  0
LAYER
  2
78
 70
     0
 62
     3
  6
CONTINUOUS
  0
LAYER
  2
79
 70
     0
 62
     3
  6
CONTINUOUS
  0
LAYER
  2
80
 70
     0
 62
     3
  6
CONTINUOUS
  0
LAYER
  2
81
 70
     0
 62
     3
  6
CONTINUOUS
  0
LAYER
  2
82
 70
     0
 62
     3
  6
CONTINUOUS
  0
LAYER
  2
83
 70
     0
 62
     3
  6
CONTINUOUS
  0
LAYER
  2
84
 70
     0
 62
     3
  6
CONTINUOUS
  0
LAYER
  2
85
 70
     0
 62
     3
  6
CONTINUOUS
  0
LAYER
  2
86
 70
     0
 62
     3
  6
CONTINUOUS
  0
LAYER
  2
87
 70
     0
 62
     3
  6
CONTINUOUS
  0
LAYER
  2
88
 70
     0
 62
     3
  6
CONTINUOUS
  0
LAYER
  2
89
 70
     0
 62
     3
  6
CONTINUOUS
  0
LAYER
  2
90
 70
     0
 62
     3
  6
CONTINUOUS
  0
LAYER
  2
91
 70
     0
 62
     3
  6
CONTINUOUS
  0
LAYER
  2
92
 70
     0
 62
     3
  6
CONTINUOUS
  0
LAYER
  2
93
 70
     0
 62
     3
  6
CONTINUOUS
  0
LAYER
  2
94
 70
     0
 62
     3
  6
CONTINUOUS
  0
LAYER
  2
95
 70
     0
 62
     3
  6
CONTINUOUS
  0
LAYER
  2
96
 70
     0
 62
     3
  6
CONTINUOUS
  0
LAYER
  2
97
 70
     0
 62
     3
  6
CONTINUOUS
  0
LAYER
  2
98
 70
     0
 62
     3
  6
CONTINUOUS
  0
LAYER
  2
99
 70
     0
 62
     3
  6
CONTINUOUS
  0
ENDTAB
  0
TABLE
  2
STYLE
 70
     3
  0
STYLE
  2
STANDARD
 70
     0
 40
0.0
 41
1.0
 50
0.0
 71
     0
 42
0.2
  3
TXT
  4
BIGFONT
  0
STYLE
  2
ANNOTATIVE
 70
     0
 40
0.0
 41
1.0
 50
0.0
 71
     0
 42
0.2
  3
txt
  4

  0
STYLE
  2
KANJI
 70
     0
 40
4.5
 41
1.0
 50
0.0
 71
     0
 42
0.2
  3
TXT
  4
BIGFONT
  0
ENDTAB
  0
TABLE
  2
VIEW
 70
     0
  0
ENDTAB
  0
TABLE
  2
UCS
 70
     0
  0
ENDTAB
  0
TABLE
  2
APPID
 70
     4
  0
APPID
  2
ACAD
 70
     0
  0
APPID
  2
ACADANNOTATIVE
 70
     0
  0
APPID
  2
ACAD_NAV_VCDISPLAY
 70
     0
  0
APPID
  2
ACAD_MLEADERVER
 70
     0
  0
ENDTAB
  0
TABLE
  2
DIMSTYLE
 70
     2
  0
DIMSTYLE
  2
STANDARD
 70
     0
  3

  4

  5

  6

  7

 40
1.0
 41
0.18
 42
0.0625
 43
0.38
 44
0.18
 45
0.0
 46
0.0
 47
0.0
 48
0.0
140
0.18
141
0.09
142
0.0
143
25.399999999999999
144
1.0
145
0.0
146
1.0
147
0.09
 71
     0
 72
     0
 73
     1
 74
     1
 75
     0
 76
     0
 77
     0
 78
     0
170
     0
171
     2
172
     0
173
     0
174
     0
175
     0
176
     0
177
     0
178
     0
  0
DIMSTYLE
  2
ANNOTATIVE
 70
     0
  3

  4

  5

  6

  7

 40
1.0
 41
0.18
 42
0.0625
 43
0.38
 44
0.18
 45
0.0
 46
0.0
 47
0.0
 48
0.0
140
0.18
141
0.09
142
0.0
143
25.399999999999999
144
1.0
145
0.0
146
1.0
147
0.09
 71
     0
 72
     0
 73
     1
 74
     1
 75
     0
 76
     0
 77
     0
 78
     0
170
     0
171
     2
172
     0
173
     0
174
     0
175
     0
176
     0
177
     0
178
     0
  0
ENDTAB
  0
ENDSEC
  0
SECTION
  2
BLOCKS
  0
BLOCK
  8
0
  2
$MODEL_SPACE
 70
     0
 10
0.0
 20
0.0
 30
0.0
  3
$MODEL_SPACE
  1

  0
ENDBLK
  5
71
  8
0
  0
BLOCK
 67
     1
  8
0
  2
$PAPER_SPACE
 70
     0
 10
0.0
 20
0.0
 30
0.0
  3
$PAPER_SPACE
  1

  0
ENDBLK
  5
6D
 67
     1
  8
0
  0
BLOCK
  8
0
  2
D0
 70
     0
 10
0.0
 20
0.0
 30
0.0
  3
D0
  1

  0
TEXT
  5
E4
  8
0
 62
     7
 10
1177.650762
 20
695.34684800000002
 30
0.0
 40
16.0
  1
140
 50
90.0
 41
0.8076923076923078
 72
     5
 11
1177.650762
 21
723.34684799999991
 31
0.0
  0
LINE
  5
E5
  8
0
  6
CONTINUOUS
 62
     7
 10
1151.0
 20
639.34684800000002
 30
0.0
 11
1182.2507619999999
 21
639.34684800000002
 31
0.0
  0
LINE
  5
E6
  8
0
  6
CONTINUOUS
 62
     7
 10
1151.0
 20
779.34684800000002
 30
0.0
 11
1182.2507619999999
 21
779.34684800000002
 31
0.0
  0
LINE
  5
E7
  8
0
  6
CONTINUOUS
 62
     7
 10
1179.2507619999999
 20
779.34684800000002
 30
0.0
 11
1179.2507619999999
 21
639.34684800000002
 31
0.0
  0
LINE
  5
E8
  8
0
  6
CONTINUOUS
 62
     7
 10
1179.2507619999999
 20
779.34684800000002
 30
0.0
 11
1185.0741909999999
 21
757.613517
 31
0.0
  0
LINE
  5
E9
  8
0
  6
CONTINUOUS
 62
     7
 10
1179.2507619999999
 20
779.34684800000002
 30
0.0
 11
1173.4273330000001
 21
757.613517
 31
0.0
  0
LINE
  5
EA
  8
0
  6
CONTINUOUS
 62
     7
 10
1179.2507619999999
 20
639.34684800000002
 30
0.0
 11
1173.4273330000001
 21
661.08017900000004
 31
0.0
  0
LINE
  5
EB
  8
0
  6
CONTINUOUS
 62
     7
 10
1179.2507619999999
 20
639.34684800000002
 30
0.0
 11
1185.0741909999999
 21
661.08017900000004
 31
0.0
  0
ENDBLK
  5
EC
  8
0
  0
ENDSEC
  0
SECTION
  2
ENTITIES
  0
POINT
  5
ED
  8
0
 62
     1
 10
0.5
 20
0.5
 30
0.0
  0
TEXT
  5
EE
  8
0
 62
     6
 10
236.96090799999999
 20
-510.03213699999992
 30
0.0
 40
22.5
  1
\U+03C6１２５　Ｓ
 41
0.8398692810457514
  7
KANJI
 72
     5
 11
365.46090800000002
 21
-510.03213699999992
 31
0.0
  0
TEXT
  5
EF
  8
0
 62
     6
 10
221.96090799999999
 20
-467.48784999999998
 30
0.0
 40
22.5
  1
メカニカル形（Ｓ＝１／５）
 41
0.75
  7
KANJI
 72
     5
 11
471.71090800000002
 21
-467.48784999999998
 31
0.0
  0
LINE
  5
F0
  8
0
  6
CONTINUOUS
 62
     3
 10
85.621338000000151
 20
-386.0
 30
0.0
 11
85.621338000000151
 21
-397.93190200000009
 31
0.0
  0
LINE
  5
F1
  8
0
  6
CONTINUOUS
 62
     3
 10
78.696337999999969
 20
-386.0
 30
0.0
 11
78.696337999999969
 21
-397.93190200000009
 31
0.0
  0
POINT
  5
F2
  8
0
 62
     3
 10
71.771338000000014
 20
-386.0
 30
0.0
  0
LINE
  5
F3
  8
0
  6
CONTINUOUS
 62
     3
 10
61.201407000000017
 20
-399.0
 30
0.0
 11
81.976407000000108
 21
-399.0
 31
0.0
  0
LINE
  5
F4
  8
0
  6
CONTINUOUS
 62
     3
 10
57.921338000000098
 20
-386.0
 30
0.0
 11
57.921338000000098
 21
-397.93190200000009
 31
0.0
  0
LINE
  5
F5
  8
0
  6
CONTINUOUS
 62
     3
 10
64.84633800000006
 20
-386.0
 30
0.0
 11
64.84633800000006
 21
-397.93190200000009
 31
0.0
  0
ARC
  5
F6
  8
0
  6
CONTINUOUS
 62
     3
 10
-61.383838000000083
 20
-392.86926099999999
 30
0.0
 40
6.1334519999999992
 50
235.63053899999809
 51
304.36946100000188
  0
ARC
  5
F7
  8
0
  6
CONTINUOUS
 62
     3
 10
-71.771338000000128
 20
-376.01687500000003
 30
0.0
 40
22.983124
 50
252.46381600000291
 51
287.5361829999984
  0
ARC
  5
F8
  8
0
  6
CONTINUOUS
 62
     3
 10
-82.158838000000046
 20
-392.86926099999999
 30
0.0
 40
6.1334519999999992
 50
235.63053899999809
 51
304.36946100000188
  0
LINE
  5
F9
  8
0
  6
CONTINUOUS
 62
     3
 10
-57.921338000000098
 20
-386.0
 30
0.0
 11
-57.921338000000098
 21
-397.93190200000009
 31
0.0
  0
LINE
  5
FA
  8
0
  6
CONTINUOUS
 62
     3
 10
-64.84633800000006
 20
-386.0
 30
0.0
 11
-64.84633800000006
 21
-397.93190200000009
 31
0.0
  0
POINT
  5
FB
  8
0
 62
     3
 10
-71.771338000000128
 20
-386.0
 30
0.0
  0
LINE
  5
FC
  8
0
  6
CONTINUOUS
 62
     3
 10
-82.341269999999895
 20
-399.0
 30
0.0
 11
-61.566269999999918
 21
-399.0
 31
0.0
  0
LINE
  5
FD
  8
0
  6
CONTINUOUS
 62
     3
 10
-85.621338000000037
 20
-386.0
 30
0.0
 11
-85.621338000000037
 21
-397.93190200000009
 31
0.0
  0
LINE
  5
FE
  8
0
  6
CONTINUOUS
 62
     3
 10
-78.696338000000083
 20
-386.0
 30
0.0
 11
-78.696338000000083
 21
-397.93190200000009
 31
0.0
  0
LINE
  5
FF
  8
0
  6
CONTINUOUS
 62
     2
 10
-79.771338000000128
 20
-358.0
 30
0.0
 11
-83.499999999999986
 21
-358.0
 31
0.0
  0
LINE
  5
100
  8
0
  6
CONTINUOUS
 62
     3
 10
-63.771338000000128
 20
-357.0
 30
0.0
 11
-63.771338000000128
 21
-367.0
 31
0.0
  0
LINE
  5
101
  8
0
  6
CONTINUOUS
 62
     3
 10
-79.771338000000128
 20
-357.0
 30
0.0
 11
-79.771338000000128
 21
-367.12505500000009
 31
0.0
  0
LINE
  5
102
  8
0
  6
CONTINUOUS
 62
     3
 10
-79.771338000000128
 20
-411.0
 30
0.0
 11
-79.771338000000128
 21
-399.0
 31
0.0
  0
LINE
  5
103
  8
0
  6
CONTINUOUS
 62
     3
 10
-78.688838000000032
 20
-411.0
 30
0.0
 11
-78.688838000000032
 21
-399.0
 31
0.0
  0
LINE
  5
104
  8
0
  6
CONTINUOUS
 62
     3
 10
-64.85383800000011
 20
-411.0
 30
0.0
 11
-64.85383800000011
 21
-399.0
 31
0.0
  0
LINE
  5
105
  8
0
  6
CONTINUOUS
 62
     3
 10
-63.771338000000128
 20
-411.0
 30
0.0
 11
-63.771338000000128
 21
-399.0
 31
0.0
  0
LINE
  5
106
  8
0
  6
CONTINUOUS
 62
     3
 10
64.853837999999996
 20
-411.0
 30
0.0
 11
64.853837999999996
 21
-399.0
 31
0.0
  0
LINE
  5
107
  8
0
  6
CONTINUOUS
 62
     3
 10
78.688838000000032
 20
-411.0
 30
0.0
 11
78.688838000000032
 21
-399.0
 31
0.0
  0
LINE
  5
108
  8
0
  6
CONTINUOUS
 62
     3
 10
79.771338000000014
 20
-411.0
 30
0.0
 11
79.771338000000014
 21
-399.0
 31
0.0
  0
LINE
  5
109
  8
0
  6
CONTINUOUS
 62
     3
 10
79.771338000000014
 20
-357.0
 30
0.0
 11
79.771338000000014
 21
-367.0
 31
0.0
  0
LINE
  5
10A
  8
0
  6
CONTINUOUS
 62
     3
 10
63.771338000000007
 20
-411.0
 30
0.0
 11
63.771338000000007
 21
-399.0
 31
0.0
  0
LINE
  5
10B
  8
0
  6
CONTINUOUS
 62
     3
 10
63.771338000000007
 20
-357.0
 30
0.0
 11
63.771338000000007
 21
-367.0
 31
0.0
  0
LINE
  5
10C
  8
0
  6
CONTINUOUS
 62
     2
 10
63.771338000000007
 20
-358.0
 30
0.0
 11
-63.771338000000128
 21
-358.0
 31
0.0
  0
LINE
  5
10D
  8
0
  6
CONTINUOUS
 62
     2
 10
-98.0
 20
-386.0
 30
0.0
 11
98.0
 21
-386.0
 31
0.0
  0
LINE
  5
10E
  8
0
  6
CONTINUOUS
 62
     2
 10
-98.0
 20
-367.0
 30
0.0
 11
98.0
 21
-367.0
 31
0.0
  0
LINE
  5
10F
  8
0
  6
CONTINUOUS
 62
     2
 10
83.499999999999986
 20
-364.0
 30
0.0
 11
83.499999999999986
 21
-358.0
 31
0.0
  0
LINE
  5
110
  8
2
  6
CENTER
 62
     2
 10
71.771338000000014
 20
-319.11735199999998
 30
0.0
 11
71.771338000000014
 21
-419.04901100000001
 31
0.0
  0
LINE
  5
111
  8
2
  6
CENTER
 62
     2
 10
-71.771338000000128
 20
-319.11735199999998
 30
0.0
 11
-71.771338000000128
 21
-419.04901100000001
 31
0.0
  0
LINE
  5
112
  8
0
  6
CONTINUOUS
 62
     3
 10
-65.053824000000077
 20
-338.0
 30
0.0
 11
-65.053824000000077
 21
-324.0
 31
0.0
  0
LINE
  5
113
  8
0
  6
CONTINUOUS
 62
     3
 10
-53.74011500000006
 20
-324.0
 30
0.0
 11
-89.802560999999955
 21
-324.0
 31
0.0
  0
LINE
  5
114
  8
0
  6
CONTINUOUS
 62
     2
 10
98.0
 20
-386.0
 30
0.0
 11
98.0
 21
-367.0
 31
0.0
  0
LINE
  5
115
  8
0
  6
CONTINUOUS
 62
     2
 10
-98.0
 20
-367.0
 30
0.0
 11
-98.0
 21
-386.0
 31
0.0
  0
LINE
  5
116
  8
0
  6
CONTINUOUS
 62
     3
 10
53.74011500000006
 20
-324.0
 30
0.0
 11
89.802560999999955
 21
-324.0
 31
0.0
  0
LINE
  5
117
  8
0
  6
CONTINUOUS
 62
     3
 10
65.053824000000077
 20
-338.0
 30
0.0
 11
65.053824000000077
 21
-324.0
 31
0.0
  0
ARC
  5
118
  8
0
  6
CONTINUOUS
 62
     2
 10
86.5
 20
-364.0
 30
0.0
 40
3.0
 50
180.0
 51
270.0
  0
LINE
  5
119
  8
0
  6
CONTINUOUS
 62
     6
 10
-83.499999999999986
 20
-358.0
 30
0.0
 11
-83.499999999999986
 21
-357.0
 31
0.0
  0
ARC
  5
11A
  8
0
  6
CONTINUOUS
 62
     2
 10
-86.5
 20
-364.0
 30
0.0
 40
3.0
 50
270.0
 51
0.0
  0
ARC
  5
11B
  8
0
  6
CONTINUOUS
 62
     2
 10
-59.771338000000128
 20
-386.0
 30
0.0
 40
12.0
 50
90.0
 51
180.0
  0
LINE
  5
11C
  8
0
  6
CONTINUOUS
 62
     2
 10
-59.771338000000128
 20
-374.0
 30
0.0
 11
59.771338000000007
 21
-374.0
 31
0.0
  0
ARC
  5
11D
  8
0
  6
CONTINUOUS
 62
     2
 10
59.771338000000007
 20
-386.0
 30
0.0
 40
12.0
 50
0.0
 51
90.0
  0
LINE
  5
11E
  8
0
  6
CONTINUOUS
 62
     3
 10
-53.74011500000006
 20
-338.0
 30
0.0
 11
-53.74011500000006
 21
-324.0
 31
0.0
  0
LINE
  5
11F
  8
0
  6
CONTINUOUS
 62
     3
 10
-89.802560999999955
 20
-338.0
 30
0.0
 11
-89.802560999999955
 21
-324.0
 31
0.0
  0
LINE
  5
120
  8
0
  6
CONTINUOUS
 62
     6
 10
83.499999999999986
 20
-358.0
 30
0.0
 11
83.499999999999986
 21
-357.0
 31
0.0
  0
LINE
  5
121
  8
0
  6
CONTINUOUS
 62
     2
 10
-83.499999999999986
 20
-364.0
 30
0.0
 11
-83.499999999999986
 21
-358.0
 31
0.0
  0
LINE
  5
122
  8
0
  6
CONTINUOUS
 62
     2
 10
83.499999999999986
 20
-358.0
 30
0.0
 11
79.771338000000014
 21
-358.0
 31
0.0
  0
LINE
  5
123
  8
0
  6
CONTINUOUS
 62
     3
 10
53.74011500000006
 20
-338.0
 30
0.0
 11
53.74011500000006
 21
-324.0
 31
0.0
  0
LINE
  5
124
  8
0
  6
CONTINUOUS
 62
     3
 10
89.802560999999955
 20
-338.0
 30
0.0
 11
89.802560999999955
 21
-324.0
 31
0.0
  0
LINE
  5
125
  8
0
  6
CONTINUOUS
 62
     3
 10
-79.771338000000128
 20
-411.0
 30
0.0
 11
-63.771338000000128
 21
-411.0
 31
0.0
  0
ARC
  5
126
  8
0
  6
CONTINUOUS
 62
     3
 10
-71.771338000000128
 20
-396.0
 30
0.0
 40
17.0
 50
241.92751299999551
 51
298.07248700000451
  0
LINE
  5
127
  8
0
  6
CONTINUOUS
 62
     3
 10
63.771338000000007
 20
-411.0
 30
0.0
 11
79.771338000000014
 21
-411.0
 31
0.0
  0
ARC
  5
128
  8
0
  6
CONTINUOUS
 62
     3
 10
71.771338000000014
 20
-396.0
 30
0.0
 40
17.0
 50
241.92751299999551
 51
298.07248700000451
  0
ARC
  5
129
  8
0
  6
CONTINUOUS
 62
     3
 10
82.158838000000046
 20
-181.13073800000001
 30
0.0
 40
6.1334519999999992
 50
55.63053899999808
 51
124.36946100000191
  0
ARC
  5
12A
  8
0
  6
CONTINUOUS
 62
     3
 10
71.771338000000014
 20
-197.983124
 30
0.0
 40
22.983124
 50
72.463817000001598
 51
107.53618399999711
  0
ARC
  5
12B
  8
0
  6
CONTINUOUS
 62
     3
 10
61.383837999999969
 20
-181.13073800000001
 30
0.0
 40
6.1334519999999992
 50
55.63053899999808
 51
124.36946100000191
  0
LINE
  5
12C
  8
0
  6
CONTINUOUS
 62
     3
 10
85.621338000000151
 20
-188.0
 30
0.0
 11
85.621338000000151
 21
-176.06809799999999
 31
0.0
  0
LINE
  5
12D
  8
0
  6
CONTINUOUS
 62
     3
 10
78.696337999999969
 20
-188.0
 30
0.0
 11
78.696337999999969
 21
-176.06809799999999
 31
0.0
  0
POINT
  5
12E
  8
0
 62
     3
 10
71.771338000000014
 20
-188.0
 30
0.0
  0
LINE
  5
12F
  8
0
  6
CONTINUOUS
 62
     3
 10
61.201407000000017
 20
-175.0
 30
0.0
 11
81.976407000000108
 21
-175.0
 31
0.0
  0
LINE
  5
130
  8
0
  6
CONTINUOUS
 62
     3
 10
57.921338000000098
 20
-188.0
 30
0.0
 11
57.921338000000098
 21
-176.06809799999999
 31
0.0
  0
LINE
  5
131
  8
0
  6
CONTINUOUS
 62
     3
 10
64.84633800000006
 20
-188.0
 30
0.0
 11
64.84633800000006
 21
-176.06809799999999
 31
0.0
  0
ARC
  5
132
  8
0
  6
CONTINUOUS
 62
     3
 10
-61.383838000000083
 20
-181.13073800000001
 30
0.0
 40
6.1334519999999992
 50
55.63053899999808
 51
124.36946100000191
  0
ARC
  5
133
  8
0
  6
CONTINUOUS
 62
     3
 10
-71.771338000000128
 20
-197.983124
 30
0.0
 40
22.983124
 50
72.463817000001598
 51
107.53618399999711
  0
ARC
  5
134
  8
0
  6
CONTINUOUS
 62
     3
 10
-82.158838000000046
 20
-181.13073800000001
 30
0.0
 40
6.1334519999999992
 50
55.63053899999808
 51
124.36946100000191
  0
LINE
  5
135
  8
0
  6
CONTINUOUS
 62
     3
 10
-57.921338000000098
 20
-188.0
 30
0.0
 11
-57.921338000000098
 21
-176.06809799999999
 31
0.0
  0
LINE
  5
136
  8
0
  6
CONTINUOUS
 62
     3
 10
-64.84633800000006
 20
-188.0
 30
0.0
 11
-64.84633800000006
 21
-176.06809799999999
 31
0.0
  0
POINT
  5
137
  8
0
 62
     3
 10
-71.771338000000128
 20
-188.0
 30
0.0
  0
LINE
  5
138
  8
0
  6
CONTINUOUS
 62
     3
 10
-82.341269999999895
 20
-175.0
 30
0.0
 11
-61.566269999999918
 21
-175.0
 31
0.0
  0
LINE
  5
139
  8
0
  6
CONTINUOUS
 62
     3
 10
-85.621338000000037
 20
-188.0
 30
0.0
 11
-85.621338000000037
 21
-176.06809799999999
 31
0.0
  0
LINE
  5
13A
  8
0
  6
CONTINUOUS
 62
     3
 10
-78.696338000000083
 20
-188.0
 30
0.0
 11
-78.696338000000083
 21
-176.06809799999999
 31
0.0
  0
LINE
  5
13B
  8
0
  6
CONTINUOUS
 62
     2
 10
-79.771338000000128
 20
-216.0
 30
0.0
 11
-83.499999999999986
 21
-216.0
 31
0.0
  0
LINE
  5
13C
  8
0
  6
CONTINUOUS
 62
     3
 10
-63.771338000000128
 20
-217.0
 30
0.0
 11
-63.771338000000128
 21
-207.0
 31
0.0
  0
LINE
  5
13D
  8
0
  6
CONTINUOUS
 62
     3
 10
-79.771338000000128
 20
-217.0
 30
0.0
 11
-79.771338000000128
 21
-206.874945
 31
0.0
  0
LINE
  5
13E
  8
0
  6
CONTINUOUS
 62
     3
 10
-79.771338000000128
 20
-163.0
 30
0.0
 11
-79.771338000000128
 21
-175.0
 31
0.0
  0
LINE
  5
13F
  8
0
  6
CONTINUOUS
 62
     3
 10
-78.688838000000032
 20
-163.0
 30
0.0
 11
-78.688838000000032
 21
-175.0
 31
0.0
  0
LINE
  5
140
  8
0
  6
CONTINUOUS
 62
     3
 10
-64.85383800000011
 20
-163.0
 30
0.0
 11
-64.85383800000011
 21
-175.0
 31
0.0
  0
LINE
  5
141
  8
0
  6
CONTINUOUS
 62
     3
 10
-63.771338000000128
 20
-163.0
 30
0.0
 11
-63.771338000000128
 21
-175.0
 31
0.0
  0
LINE
  5
142
  8
0
  6
CONTINUOUS
 62
     3
 10
64.853837999999996
 20
-163.0
 30
0.0
 11
64.853837999999996
 21
-175.0
 31
0.0
  0
LINE
  5
143
  8
0
  6
CONTINUOUS
 62
     3
 10
78.688838000000032
 20
-163.0
 30
0.0
 11
78.688838000000032
 21
-175.0
 31
0.0
  0
LINE
  5
144
  8
0
  6
CONTINUOUS
 62
     3
 10
79.771338000000014
 20
-163.0
 30
0.0
 11
79.771338000000014
 21
-175.0
 31
0.0
  0
LINE
  5
145
  8
0
  6
CONTINUOUS
 62
     3
 10
79.771338000000014
 20
-217.0
 30
0.0
 11
79.771338000000014
 21
-207.0
 31
0.0
  0
LINE
  5
146
  8
0
  6
CONTINUOUS
 62
     3
 10
63.771338000000007
 20
-163.0
 30
0.0
 11
63.771338000000007
 21
-175.0
 31
0.0
  0
LINE
  5
147
  8
0
  6
CONTINUOUS
 62
     3
 10
63.771338000000007
 20
-217.0
 30
0.0
 11
63.771338000000007
 21
-207.0
 31
0.0
  0
LINE
  5
148
  8
0
  6
CONTINUOUS
 62
     2
 10
63.771338000000007
 20
-216.0
 30
0.0
 11
-63.771338000000128
 21
-216.0
 31
0.0
  0
LINE
  5
149
  8
0
  6
CONTINUOUS
 62
     2
 10
-98.0
 20
-188.0
 30
0.0
 11
98.0
 21
-188.0
 31
0.0
  0
LINE
  5
14A
  8
0
  6
CONTINUOUS
 62
     2
 10
-98.0
 20
-207.0
 30
0.0
 11
98.0
 21
-207.0
 31
0.0
  0
LINE
  5
14B
  8
0
  6
CONTINUOUS
 62
     2
 10
83.499999999999986
 20
-210.0
 30
0.0
 11
83.499999999999986
 21
-216.0
 31
0.0
  0
LINE
  5
14C
  8
2
  6
CENTER
 62
     2
 10
71.771338000000014
 20
-254.88264699999999
 30
0.0
 11
71.771338000000014
 21
-154.950988
 31
0.0
  0
LINE
  5
14D
  8
2
  6
CENTER
 62
     2
 10
-71.771338000000128
 20
-254.88264699999999
 30
0.0
 11
-71.771338000000128
 21
-154.950988
 31
0.0
  0
LINE
  5
14E
  8
0
  6
CONTINUOUS
 62
     3
 10
-65.053824000000077
 20
-236.0
 30
0.0
 11
-65.053824000000077
 21
-250.0
 31
0.0
  0
LINE
  5
14F
  8
0
  6
CONTINUOUS
 62
     3
 10
-53.74011500000006
 20
-250.0
 30
0.0
 11
-89.802560999999955
 21
-250.0
 31
0.0
  0
LINE
  5
150
  8
0
  6
CONTINUOUS
 62
     2
 10
98.0
 20
-188.0
 30
0.0
 11
98.0
 21
-207.0
 31
0.0
  0
LINE
  5
151
  8
0
  6
CONTINUOUS
 62
     2
 10
-98.0
 20
-207.0
 30
0.0
 11
-98.0
 21
-188.0
 31
0.0
  0
LINE
  5
152
  8
0
  6
CONTINUOUS
 62
     3
 10
53.74011500000006
 20
-250.0
 30
0.0
 11
89.802560999999955
 21
-250.0
 31
0.0
  0
LINE
  5
153
  8
0
  6
CONTINUOUS
 62
     3
 10
65.053824000000077
 20
-236.0
 30
0.0
 11
65.053824000000077
 21
-250.0
 31
0.0
  0
ARC
  5
154
  8
0
  6
CONTINUOUS
 62
     2
 10
86.5
 20
-210.0
 30
0.0
 40
3.0
 50
90.0
 51
180.0
  0
LINE
  5
155
  8
0
  6
CONTINUOUS
 62
     6
 10
-83.499999999999986
 20
-216.0
 30
0.0
 11
-83.499999999999986
 21
-217.0
 31
0.0
  0
ARC
  5
156
  8
0
  6
CONTINUOUS
 62
     2
 10
-86.5
 20
-210.0
 30
0.0
 40
3.0
 50
0.0
 51
90.0
  0
ARC
  5
157
  8
0
  6
CONTINUOUS
 62
     2
 10
-59.771338000000128
 20
-188.0
 30
0.0
 40
12.0
 50
180.0
 51
270.0
  0
LINE
  5
158
  8
0
  6
CONTINUOUS
 62
     2
 10
-59.771338000000128
 20
-200.0
 30
0.0
 11
59.771338000000007
 21
-200.0
 31
0.0
  0
ARC
  5
159
  8
0
  6
CONTINUOUS
 62
     2
 10
59.771338000000007
 20
-188.0
 30
0.0
 40
12.0
 50
270.0
 51
0.0
  0
LINE
  5
15A
  8
0
  6
CONTINUOUS
 62
     3
 10
-53.74011500000006
 20
-236.0
 30
0.0
 11
-53.74011500000006
 21
-250.0
 31
0.0
  0
LINE
  5
15B
  8
0
  6
CONTINUOUS
 62
     3
 10
-89.802560999999955
 20
-236.0
 30
0.0
 11
-89.802560999999955
 21
-250.0
 31
0.0
  0
LINE
  5
15C
  8
0
  6
CONTINUOUS
 62
     6
 10
83.499999999999986
 20
-216.0
 30
0.0
 11
83.499999999999986
 21
-217.0
 31
0.0
  0
LINE
  5
15D
  8
0
  6
CONTINUOUS
 62
     2
 10
-83.499999999999986
 20
-210.0
 30
0.0
 11
-83.499999999999986
 21
-216.0
 31
0.0
  0
LINE
  5
15E
  8
0
  6
CONTINUOUS
 62
     2
 10
83.499999999999986
 20
-216.0
 30
0.0
 11
79.771338000000014
 21
-216.0
 31
0.0
  0
LINE
  5
15F
  8
0
  6
CONTINUOUS
 62
     3
 10
53.74011500000006
 20
-236.0
 30
0.0
 11
53.74011500000006
 21
-250.0
 31
0.0
  0
LINE
  5
160
  8
0
  6
CONTINUOUS
 62
     3
 10
89.802560999999955
 20
-236.0
 30
0.0
 11
89.802560999999955
 21
-250.0
 31
0.0
  0
LINE
  5
161
  8
0
  6
CONTINUOUS
 62
     3
 10
-79.771338000000128
 20
-163.0
 30
0.0
 11
-63.771338000000128
 21
-163.0
 31
0.0
  0
ARC
  5
162
  8
0
  6
CONTINUOUS
 62
     3
 10
-71.771338000000128
 20
-178.0
 30
0.0
 40
17.0
 50
61.92751299999555
 51
118.0724870000044
  0
LINE
  5
163
  8
0
  6
CONTINUOUS
 62
     3
 10
63.771338000000007
 20
-163.0
 30
0.0
 11
79.771338000000014
 21
-163.0
 31
0.0
  0
ARC
  5
164
  8
0
  6
CONTINUOUS
 62
     3
 10
71.771338000000014
 20
-178.0
 30
0.0
 40
17.0
 50
61.92751299999555
 51
118.0724870000044
  0
ARC
  5
165
  8
0
  6
CONTINUOUS
 62
     2
 10
0.0
 20
0.0
 30
0.0
 40
80.5
 50
62.145407000005171
 51
117.8545940000007
  0
ARC
  5
166
  8
0
  6
CONTINUOUS
 62
     2
 10
-76.477780000000052
 20
40.415333999999909
 30
0.0
 40
6.0
 50
332.1454059999993
 51
45.000000000004597
  0
LINE
  5
167
  8
0
  6
CONTINUOUS
 62
     2
 10
-72.235139000000004
 20
44.657974999999958
 30
0.0
 11
-85.559921000000145
 21
57.982757000000113
 31
0.0
  0
ARC
  5
168
  8
0
  6
CONTINUOUS
 62
     2
 10
-71.771338000000128
 20
71.771338999999784
 30
0.0
 40
19.5
 50
45.000000000004597
 51
225.0000000000046
  0
LINE
  5
169
  8
0
  6
CONTINUOUS
 62
     2
 10
-57.982756000000101
 20
85.559920999999918
 30
0.0
 11
-44.657974999999958
 21
72.235139000000004
 31
0.0
  0
ARC
  5
16A
  8
0
  6
CONTINUOUS
 62
     2
 10
-40.41533400000003
 20
76.477779999999825
 30
0.0
 40
6.0
 50
225.0000000000046
 51
297.85459400000082
  0
ARC
  5
16B
  8
0
  6
CONTINUOUS
 62
     2
 10
76.477780000000166
 20
40.415333999999909
 30
0.0
 40
6.0
 50
134.9999999999954
 51
207.85459400000079
  0
ARC
  5
16C
  8
0
  6
CONTINUOUS
 62
     2
 10
40.41533400000003
 20
76.477779999999825
 30
0.0
 40
6.0
 50
242.14540599999921
 51
314.9999999999954
  0
LINE
  5
16D
  8
0
  6
CONTINUOUS
 62
     2
 10
72.235139000000103
 20
44.657974999999958
 30
0.0
 11
85.559921000000017
 21
57.982757000000113
 31
0.0
  0
ARC
  5
16E
  8
0
  6
CONTINUOUS
 62
     2
 10
71.771338000000014
 20
71.771338999999784
 30
0.0
 40
19.5
 50
314.9999999999954
 51
134.9999999999954
  0
LINE
  5
16F
  8
0
  6
CONTINUOUS
 62
     2
 10
57.982756000000101
 20
85.559920999999918
 30
0.0
 11
44.657975000000071
 21
72.235139000000004
 31
0.0
  0
CIRCLE
  5
170
  8
1
  6
CONTINUOUS
 62
     3
 10
-71.771338000000128
 20
71.771338999999784
 30
0.0
 40
8.0
  0
CIRCLE
  5
171
  8
1
  6
CONTINUOUS
 62
     3
 10
-71.771338000000128
 20
71.771338999999784
 30
0.0
 40
6.9175000000000004
  0
LINE
  5
172
  8
0
  6
CONTINUOUS
 62
     3
 10
-78.696338000000083
 20
59.776886999999867
 30
0.0
 11
-64.84633800000006
 21
59.776886999999867
 31
0.0
  0
LINE
  5
173
  8
0
  6
CONTINUOUS
 62
     3
 10
-85.621338000000037
 20
71.771338999999784
 30
0.0
 11
-78.696338000000083
 21
59.776886999999867
 31
0.0
  0
LINE
  5
174
  8
0
  6
CONTINUOUS
 62
     3
 10
-78.696338000000083
 20
83.765791000000135
 30
0.0
 11
-85.621338000000037
 21
71.771338999999784
 31
0.0
  0
LINE
  5
175
  8
0
  6
CONTINUOUS
 62
     3
 10
-64.84633800000006
 20
83.765791000000135
 30
0.0
 11
-78.696338000000083
 21
83.765791000000135
 31
0.0
  0
LINE
  5
176
  8
0
  6
CONTINUOUS
 62
     3
 10
-57.921338000000098
 20
71.771338999999784
 30
0.0
 11
-64.84633800000006
 21
83.765791000000135
 31
0.0
  0
LINE
  5
177
  8
0
  6
CONTINUOUS
 62
     3
 10
-64.84633800000006
 20
59.776886999999867
 30
0.0
 11
-57.921338000000098
 21
71.771338999999784
 31
0.0
  0
CIRCLE
  5
178
  8
0
  6
CONTINUOUS
 62
     3
 10
-71.771338000000128
 20
71.771338999999784
 30
0.0
 40
12.0
  0
POINT
  5
179
  8
0
 62
     3
 10
-71.771338000000128
 20
71.771338999999784
 30
0.0
  0
CIRCLE
  5
17A
  8
1
  6
CONTINUOUS
 62
     3
 10
71.771338000000014
 20
71.771338999999784
 30
0.0
 40
8.0
  0
CIRCLE
  5
17B
  8
1
  6
CONTINUOUS
 62
     3
 10
71.771338000000014
 20
71.771338999999784
 30
0.0
 40
6.9175000000000004
  0
LINE
  5
17C
  8
0
  6
CONTINUOUS
 62
     3
 10
64.84633800000006
 20
59.776886999999867
 30
0.0
 11
78.696337999999969
 21
59.776886999999867
 31
0.0
  0
LINE
  5
17D
  8
0
  6
CONTINUOUS
 62
     3
 10
57.921338000000098
 20
71.771338999999784
 30
0.0
 11
64.84633800000006
 21
59.776886999999867
 31
0.0
  0
LINE
  5
17E
  8
0
  6
CONTINUOUS
 62
     3
 10
64.84633800000006
 20
83.765791000000135
 30
0.0
 11
57.921338000000098
 21
71.771338999999784
 31
0.0
  0
POINT
  5
17F
  8
0
 62
     3
 10
71.771338000000014
 20
71.771338999999784
 30
0.0
  0
CIRCLE
  5
180
  8
0
  6
CONTINUOUS
 62
     3
 10
71.771338000000014
 20
71.771338999999784
 30
0.0
 40
12.0
  0
LINE
  5
181
  8
0
  6
CONTINUOUS
 62
     3
 10
78.696337999999969
 20
59.776886999999867
 30
0.0
 11
85.621338000000151
 21
71.771338999999784
 31
0.0
  0
LINE
  5
182
  8
0
  6
CONTINUOUS
 62
     3
 10
85.621338000000151
 20
71.771338999999784
 30
0.0
 11
78.696337999999969
 21
83.765791000000135
 31
0.0
  0
LINE
  5
183
  8
0
  6
CONTINUOUS
 62
     3
 10
78.696337999999969
 20
83.765791000000135
 30
0.0
 11
64.84633800000006
 21
83.765791000000135
 31
0.0
  0
ARC
  5
184
  8
0
  6
CONTINUOUS
 62
     2
 10
0.0
 20
0.0
 30
0.0
 40
80.5
 50
242.14540599999921
 51
297.85459299999491
  0
ARC
  5
185
  8
0
  6
CONTINUOUS
 62
     2
 10
0.0
 20
0.0
 30
0.0
 40
80.5
 50
332.1454059999993
 51
27.854593000000591
  0
ARC
  5
186
  8
0
  6
CONTINUOUS
 62
     2
 10
-76.477780000000052
 20
-40.415333000000032
 30
0.0
 40
6.0
 50
314.9999999999954
 51
27.85459400000078
  0
LINE
  5
187
  8
0
  6
CONTINUOUS
 62
     2
 10
-72.235139000000004
 20
-44.65797399999996
 30
0.0
 11
-85.559921000000145
 21
-57.982756000000002
 31
0.0
  0
ARC
  5
188
  8
0
  6
CONTINUOUS
 62
     2
 10
-71.771338000000128
 20
-71.771338000000014
 30
0.0
 40
19.5
 50
134.9999999999954
 51
314.9999999999954
  0
LINE
  5
189
  8
0
  6
CONTINUOUS
 62
     2
 10
-57.982756000000101
 20
-85.559920000000034
 30
0.0
 11
-44.657974999999958
 21
-72.235139000000004
 31
0.0
  0
ARC
  5
18A
  8
0
  6
CONTINUOUS
 62
     2
 10
-40.41533400000003
 20
-76.477779000000055
 30
0.0
 40
6.0
 50
62.145405999999227
 51
134.9999999999954
  0
ARC
  5
18B
  8
0
  6
CONTINUOUS
 62
     2
 10
76.477780000000166
 20
-40.415333000000032
 30
0.0
 40
6.0
 50
152.14540599999921
 51
225.0000000000046
  0
ARC
  5
18C
  8
0
  6
CONTINUOUS
 62
     2
 10
40.41533400000003
 20
-76.477779000000055
 30
0.0
 40
6.0
 50
45.000000000004597
 51
117.8545940000007
  0
LINE
  5
18D
  8
0
  6
CONTINUOUS
 62
     2
 10
72.235139000000103
 20
-44.65797399999996
 30
0.0
 11
85.559921000000017
 21
-57.982756000000002
 31
0.0
  0
CIRCLE
  5
18E
  8
0
  6
CONTINUOUS
 62
     2
 10
0.0
 20
0.0
 30
0.0
 40
74.832906999999992
  0
CIRCLE
  5
18F
  8
0
  6
CONTINUOUS
 62
     2
 10
0.0
 20
0.0
 30
0.0
 40
72.5
  0
LINE
  5
190
  8
0
  6
CONTINUOUS
 62
     3
 10
-85.621338000000037
 20
-71.771338000000014
 30
0.0
 11
-78.696338000000083
 21
-59.776886000000111
 31
0.0
  0
LINE
  5
191
  8
0
  6
CONTINUOUS
 62
     3
 10
-78.696338000000083
 20
-83.765790000000038
 30
0.0
 11
-85.621338000000037
 21
-71.771338000000014
 31
0.0
  0
LINE
  5
192
  8
0
  6
CONTINUOUS
 62
     3
 10
-64.84633800000006
 20
-83.765790000000038
 30
0.0
 11
-78.696338000000083
 21
-83.765790000000038
 31
0.0
  0
LINE
  5
193
  8
1
  6
CONTINUOUS
 62
     4
 10
-71.27474600000005
 20
-92.211228000000119
 30
0.0
 11
-8.4291970000001584
 21
-97.636820000000057
 31
0.0
  0
LINE
  5
194
  8
1
  6
CONTINUOUS
 62
     4
 10
-97.636819999999943
 20
-8.4291970000000447
 30
0.0
 11
-92.211227999999892
 21
-71.274745000000053
 31
0.0
  0
LINE
  5
195
  8
1
  6
CONTINUOUS
 62
     4
 10
92.211227999999892
 20
-71.274745000000053
 30
0.0
 11
97.636819999999943
 21
-8.4291970000000447
 31
0.0
  0
LINE
  5
196
  8
1
  6
CONTINUOUS
 62
     4
 10
8.4291970000001584
 20
-97.636820000000057
 30
0.0
 11
71.27474600000005
 21
-92.211228000000119
 31
0.0
  0
ARC
  5
197
  8
1
  6
CONTINUOUS
 62
     4
 10
0.0
 20
0.0
 30
0.0
 40
98.0
 50
265.0657669999938
 51
274.93423399999392
  0
ARC
  5
198
  8
1
  6
CONTINUOUS
 62
     4
 10
69.296465000000126
 20
-69.296464000000014
 30
0.0
 40
23.0
 50
274.9342330000062
 51
355.0657659999992
  0
LINE
  5
199
  8
1
  6
CENTER
 62
     4
 10
-88.075091000000043
 20
-88.075090000000046
 30
0.0
 11
-56.568351000000007
 21
-56.568351000000007
 31
0.0
  0
LINE
  5
19A
  8
1
  6
CENTER
 62
     4
 10
87.677947000000131
 20
-87.677947000000003
 30
0.0
 11
56.171207999999979
 21
-56.171206999999981
 31
0.0
  0
ARC
  5
19B
  8
1
  6
CONTINUOUS
 62
     4
 10
-69.296465000000012
 20
-69.296464000000014
 30
0.0
 40
23.0
 50
184.9342329999991
 51
265.06576600000608
  0
ARC
  5
19C
  8
0
  6
CENTER
 62
     4
 10
0.0
 20
0.0
 30
0.0
 40
101.5
 50
299.07766199999702
 51
330.30114399999991
  0
LINE
  5
19D
  8
0
  6
CONTINUOUS
 62
     3
 10
-57.921338000000098
 20
-71.771338000000014
 30
0.0
 11
-64.84633800000006
 21
-83.765790000000038
 31
0.0
  0
LINE
  5
19E
  8
0
  6
CONTINUOUS
 62
     3
 10
-64.84633800000006
 20
-59.776886000000111
 30
0.0
 11
-57.921338000000098
 21
-71.771338000000014
 31
0.0
  0
ARC
  5
19F
  8
0
  6
CENTER
 62
     4
 10
0.0
 20
0.0
 30
0.0
 40
101.5
 50
201.5561819999995
 51
240.41104800000369
  0
ARC
  5
1A0
  8
1
  6
CONTINUOUS
 62
     4
 10
0.0
 20
0.0
 30
0.0
 40
98.0
 50
175.06576599999909
 51
184.9342329999991
  0
LINE
  5
1A1
  8
1
  6
CONTINUOUS
 62
     4
 10
98.0
 20
-357.0
 30
0.0
 11
98.0
 21
-338.0
 31
0.0
  0
CIRCLE
  5
1A2
  8
0
  6
CONTINUOUS
 62
     3
 10
-71.771338000000128
 20
-71.771338000000014
 30
0.0
 40
12.0
  0
LINE
  5
1A3
  8
1
  6
CONTINUOUS
 62
     4
 10
-98.0
 20
-338.0
 30
0.0
 11
98.0
 21
-338.0
 31
0.0
  0
LINE
  5
1A4
  8
1
  6
CONTINUOUS
 62
     4
 10
-98.0
 20
-357.0
 30
0.0
 11
-98.0
 21
-338.0
 31
0.0
  0
ARC
  5
1A5
  8
1
  6
CONTINUOUS
 62
     4
 10
-117.0
 20
-313.50510000000003
 30
0.0
 40
35.0
 50
342.55114900000001
 51
0.0
  0
POINT
  5
1A6
  8
0
 62
     3
 10
-71.771338000000128
 20
-71.771338000000014
 30
0.0
  0
CIRCLE
  5
1A7
  8
1
  6
CONTINUOUS
 62
     3
 10
71.771338000000014
 20
-71.771338000000014
 30
0.0
 40
8.0
  0
CIRCLE
  5
1A8
  8
1
  6
CONTINUOUS
 62
     3
 10
71.771338000000014
 20
-71.771338000000014
 30
0.0
 40
6.9175000000000004
  0
LINE
  5
1A9
  8
0
  6
CONTINUOUS
 62
     3
 10
64.84633800000006
 20
-59.776886000000111
 30
0.0
 11
78.696337999999969
 21
-59.776886000000111
 31
0.0
  0
LINE
  5
1AA
  8
0
  6
CONTINUOUS
 62
     3
 10
57.921338000000098
 20
-71.771338000000014
 30
0.0
 11
64.84633800000006
 21
-59.776886000000111
 31
0.0
  0
LINE
  5
1AB
  8
1
  6
CONTINUOUS
 62
     4
 10
-98.0
 20
-357.0
 30
0.0
 11
98.0
 21
-357.0
 31
0.0
  0
ARC
  5
1AC
  8
1
  6
CONTINUOUS
 62
     4
 10
117.0
 20
-313.50510000000003
 30
0.0
 40
35.0
 50
180.0
 51
197.44885099999999
  0
LINE
  5
1AD
  8
0
  6
CONTINUOUS
 62
     3
 10
64.84633800000006
 20
-83.765790000000038
 30
0.0
 11
57.921338000000098
 21
-71.771338000000014
 31
0.0
  0
POINT
  5
1AE
  8
0
 62
     3
 10
71.771338000000014
 20
-71.771338000000014
 30
0.0
  0
CIRCLE
  5
1AF
  8
0
  6
CONTINUOUS
 62
     3
 10
71.771338000000014
 20
-71.771338000000014
 30
0.0
 40
12.0
  0
LINE
  5
1B1
  8
0
  6
CONTINUOUS
 62
     4
 10
76.041543999999931
 20
-260.49489999999997
 30
0.0
 11
-75.999534000000025
 21
-260.49489999999997
 31
0.0
  0
LINE
  5
1B2
  8
0
  6
CONTINUOUS
 62
     4
 10
76.041543999999931
 20
-313.50510000000003
 30
0.0
 11
-75.999534000000025
 21
-313.50510000000003
 31
0.0
  0
ARC
  5
1B3
  8
1
  6
CONTINUOUS
 62
     4
 10
117.0
 20
-260.49489999999997
 30
0.0
 40
35.0
 50
162.55114900000001
 51
180.0
  0
LINE
  5
1B4
  8
3
  6
CENTER
 62
     2
 10
0.0
 20
-173.76954200000009
 30
0.0
 11
0.0
 21
-399.20278999999999
 31
0.0
  0
LINE
  5
1B5
  8
1
  6
CONTINUOUS
 62
     4
 10
-98.0
 20
-217.0
 30
0.0
 11
98.0
 21
-217.0
 31
0.0
  0
LINE
  5
1B6
  8
0
  6
CONTINUOUS
 62
     3
 10
78.696337999999969
 20
-59.776886000000111
 30
0.0
 11
85.621338000000151
 21
-71.771338000000014
 31
0.0
  0
ARC
  5
1B7
  8
0
  6
CENTER
 62
     4
 10
0.0
 20
0.0
 30
0.0
 40
101.5
 50
119.5889519999963
 51
150.43599300000139
  0
LINE
  5
1B8
  8
0
  6
CENTER
 62
     2
 10
118.997257
 20
0.0
 30
0.0
 11
-119.8570439999999
 21
0.0
 31
0.0
  0
LINE
  5
1B9
  8
0
  6
CONTINUOUS
 62
     3
 10
85.621338000000151
 20
-71.771338000000014
 30
0.0
 11
78.696337999999969
 21
-83.765790000000038
 31
0.0
  0
LINE
  5
1BA
  8
0
  6
CONTINUOUS
 62
     3
 10
78.696337999999969
 20
-83.765790000000038
 30
0.0
 11
64.84633800000006
 21
-83.765790000000038
 31
0.0
  0
CIRCLE
  5
1BB
  8
0
  6
CONTINUOUS
 62
     4
 10
0.0
 20
0.0
 30
0.0
 40
72.5
  0
POINT
  5
1BC
  8
0
 62
     3
 10
-86.0
 20
0.0
 30
0.0
  0
LINE
  5
1BD
  8
0
  6
CONTINUOUS
 62
     3
 10
-78.696338000000083
 20
-59.776886000000111
 30
0.0
 11
-64.84633800000006
 21
-59.776886000000111
 31
0.0
  0
CIRCLE
  5
1BE
  8
1
  6
CONTINUOUS
 62
     3
 10
-71.771338000000128
 20
-71.771338000000014
 30
0.0
 40
6.9175000000000004
  0
CIRCLE
  5
1BF
  8
1
  6
CONTINUOUS
 62
     3
 10
-71.771338000000128
 20
-71.771338000000014
 30
0.0
 40
8.0
  0
ARC
  5
1C0
  8
0
  6
CENTER
 62
     4
 10
0.0
 20
0.0
 30
0.0
 40
101.5
 50
21.79697799999602
 51
60.922338000002931
  0
ARC
  5
1C1
  8
0
  6
CONTINUOUS
 62
     2
 10
0.0
 20
0.0
 30
0.0
 40
80.5
 50
152.14540699999941
 51
207.85459400000079
  0
LINE
  5
1C2
  8
0
  6
CONTINUOUS
 62
     2
 10
57.982756000000101
 20
-85.559920000000034
 30
0.0
 11
44.657975000000071
 21
-72.235139000000004
 31
0.0
  0
LINE
  5
1C3
  8
1
  6
CONTINUOUS
 62
     4
 10
82.0
 20
-260.49489999999997
 30
0.0
 11
82.0
 21
-313.50510000000003
 31
0.0
  0
LINE
  5
1C4
  8
1
  6
CONTINUOUS
 62
     4
 10
-82.0
 20
-260.49489999999997
 30
0.0
 11
-82.0
 21
-313.50510000000003
 31
0.0
  0
ARC
  5
1C5
  8
1
  6
CONTINUOUS
 62
     4
 10
-117.0
 20
-260.49489999999997
 30
0.0
 40
35.0
 50
0.0
 51
17.448851000000001
  0
LINE
  5
1C6
  8
1
  6
CONTINUOUS
 62
     4
 10
-98.0
 20
-217.0
 30
0.0
 11
-98.0
 21
-236.0
 31
0.0
  0
LINE
  5
1C7
  8
1
  6
CONTINUOUS
 62
     4
 10
-98.0
 20
-236.0
 30
0.0
 11
98.0
 21
-236.0
 31
0.0
  0
ARC
  5
1C8
  8
0
  6
CONTINUOUS
 62
     2
 10
71.771338000000014
 20
-71.771338000000014
 30
0.0
 40
19.5
 50
225.0000000000046
 51
45.000000000004597
  0
LINE
  5
1C9
  8
1
  6
CONTINUOUS
 62
     4
 10
98.0
 20
-217.0
 30
0.0
 11
98.0
 21
-236.0
 31
0.0
  0
LINE
  5
1CA
  8
3
  6
CENTER
 62
     2
 10
0.0
 20
111.20877899999989
 30
0.0
 11
0.0
 21
-110.8118819999999
 31
0.0
  0
ARC
  5
1CB
  8
1
  6
CONTINUOUS
 62
     4
 10
-69.296465000000012
 20
69.296465000000012
 30
0.0
 40
23.0
 50
94.934233999993822
 51
175.06576700000079
  0
LINE
  5
1CC
  8
1
  6
CENTER
 62
     4
 10
87.677947000000131
 20
87.677946999999804
 30
0.0
 11
56.171207999999979
 21
56.171208000000092
 31
0.0
  0
LINE
  5
1CD
  8
1
  6
CENTER
 62
     4
 10
-88.075091000000043
 20
88.075091000000043
 30
0.0
 11
-56.568351000000007
 21
56.568351999999891
 31
0.0
  0
ARC
  5
1CE
  8
1
  6
CONTINUOUS
 62
     4
 10
69.296465000000126
 20
69.296465000000012
 30
0.0
 40
23.0
 50
4.9342340000008873
 51
85.065766999993798
  0
ARC
  5
1CF
  8
1
  6
CONTINUOUS
 62
     4
 10
0.0
 20
0.0
 30
0.0
 40
98.0
 50
85.065766000006164
 51
94.934233000006188
  0
LINE
  5
1D0
  8
1
  6
CONTINUOUS
 62
     4
 10
8.4291970000001584
 20
97.636820999999955
 30
0.0
 11
71.27474600000005
 21
92.211228999999875
 31
0.0
  0
LINE
  5
1D1
  8
1
  6
CONTINUOUS
 62
     4
 10
92.211227999999892
 20
71.274745999999936
 30
0.0
 11
97.636819999999943
 21
8.4291980000000422
 31
0.0
  0
LINE
  5
1D2
  8
1
  6
CONTINUOUS
 62
     4
 10
-97.636819999999943
 20
8.4291980000000422
 30
0.0
 11
-92.211227999999892
 21
71.274745999999936
 31
0.0
  0
LINE
  5
1D3
  8
1
  6
CONTINUOUS
 62
     4
 10
-71.27474600000005
 20
92.211228999999875
 30
0.0
 11
-8.4291970000001584
 21
97.636820999999955
 31
0.0
  0
ARC
  5
1D4
  8
1
  6
CONTINUOUS
 62
     4
 10
0.0
 20
0.0
 30
0.0
 40
98.0
 50
355.06576700000079
 51
4.9342340000008873
  0
ARC
  5
1D5
  8
0
  6
CONTINUOUS
 62
     3
 10
61.383837999999969
 20
-392.86926099999999
 30
0.0
 40
6.1334519999999992
 50
235.63053899999809
 51
304.36946100000188
  0
ARC
  5
1D6
  8
0
  6
CONTINUOUS
 62
     3
 10
71.771338000000014
 20
-376.01687500000003
 30
0.0
 40
22.983124
 50
252.46381600000291
 51
287.5361829999984
  0
ARC
  5
1D7
  8
0
  6
CONTINUOUS
 62
     3
 10
82.158838000000046
 20
-392.86926099999999
 30
0.0
 40
6.1334519999999992
 50
235.63053899999809
 51
304.36946100000188
  0
ARC
  5
1D8
  8
1
  6
CONTINUOUS
 62
     4
 10
-117.0
 20
-313.50510000000003
 30
0.0
 40
35.0
 50
315.58468599999821
 51
320.99305600000071
  0
ARC
  5
1D9
  8
1
  6
CONTINUOUS
 62
     4
 10
-117.0
 20
-260.49489999999997
 30
0.0
 40
35.0
 50
39.006943999999258
 51
44.415314000001771
  0
ARC
  5
1DA
  8
1
  6
CONTINUOUS
 62
     4
 10
117.0
 20
-260.49489999999997
 30
0.0
 40
35.0
 50
135.58468599999819
 51
140.99305600000071
  0
ARC
  5
1DB
  8
1
  6
CONTINUOUS
 62
     4
 10
117.0
 20
-313.50510000000003
 30
0.0
 40
35.0
 50
219.00694399999929
 51
224.41531400000181
  0
POINT
  5
1DC
  8
0
 62
     1
 10
2099.5
 20
1484.5
 30
0.0
  0
ENDSEC
  0
EOF
