  0
SECTION
  2
HEADER
  9
$ACADVER
  1
AC1009
  9
$INSBASE
 10
0.0
 20
0.0
 30
0.0
  9
$EXTMIN
 10
-1049.5
 20
-1008.846848
 30
0.0
  9
$EXTMAX
 10
2099.5
 20
1484.5
 30
0.0
  9
$LIMMIN
 10
0.0
 20
0.0
  9
$LIMMAX
 10
2100.0
 20
1485.0
  9
$ORTHOMODE
 70
     0
  9
$REGENMODE
 70
     1
  9
$FILLMODE
 70
     1
  9
$QTEXTMODE
 70
     0
  9
$MIRRTEXT
 70
     0
  9
$DRAGMODE
 70
     2
  9
$LTSCALE
 40
1.0
  9
$OSMODE
 70
   125
  9
$ATTMODE
 70
     1
  9
$TEXTSIZE
 40
0.2
  9
$TRACEWID
 40
0.05
  9
$TEXTSTYLE
  7
KANJI
  9
$CLAYER
  8
0
  9
$CELTYPE
  6
BYLAYER
  9
$CECOLOR
 62
   256
  9
$DIMSCALE
 40
1.0
  9
$DIMASZ
 40
22.5
  9
$DIMEXO
 40
5.0
  9
$DIMDLI
 40
40.0
  9
$DIMRND
 40
0.0
  9
$DIMDLE
 40
0.0
  9
$DIMEXE
 40
5.0
  9
$DIMTP
 40
0.0
  9
$DIMTM
 40
0.0
  9
$DIMTXT
 40
16.0
  9
$DIMCEN
 40
0.09
  9
$DIMTSZ
 40
0.0
  9
$DIMTOL
 70
     0
  9
$DIMLIM
 70
     0
  9
$DIMTIH
 70
     0
  9
$DIMTOH
 70
     0
  9
$DIMSE1
 70
     0
  9
$DIMSE2
 70
     0
  9
$DIMTAD
 70
     1
  9
$DIMZIN
 70
     0
  9
$DIMBLK
  1

  9
$DIMASO
 70
     1
  9
$DIMSHO
 70
     0
  9
$DIMPOST
  1

  9
$DIMAPOST
  1

  9
$DIMALT
 70
     0
  9
$DIMALTD
 70
     2
  9
$DIMALTF
 40
25.399999999999999
  9
$DIMLFAC
 40
1.0
  9
$DIMTOFL
 70
     0
  9
$DIMTVP
 40
0.0
  9
$DIMTIX
 70
     0
  9
$DIMSOXD
 70
     0
  9
$DIMSAH
 70
     0
  9
$DIMBLK1
  1

  9
$DIMBLK2
  1

  9
$DIMSTYLE
  2
STANDARD
  9
$DIMCLRD
 70
     0
  9
$DIMCLRE
 70
     0
  9
$DIMCLRT
 70
     0
  9
$DIMTFAC
 40
1.0
  9
$DIMGAP
 40
0.09
  9
$LUNITS
 70
     2
  9
$LUPREC
 70
     2
  9
$SKETCHINC
 40
0.1
  9
$FILLETRAD
 40
0.0
  9
$AUNITS
 70
     1
  9
$AUPREC
 70
     2
  9
$MENU
  1
ACAD
  9
$ELEVATION
 40
0.0
  9
$PELEVATION
 40
0.0
  9
$THICKNESS
 40
0.0
  9
$LIMCHECK
 70
     0
  9
$BLIPMODE
 70
     0
  9
$CHAMFERA
 40
0.0
  9
$CHAMFERB
 40
0.0
  9
$SKPOLY
 70
     0
  9
$TDCREATE
 40
2457134.7240598379
  9
$TDUPDATE
 40
2457134.7409140738
  9
$TDINDWG
 40
0.0168561343
  9
$TDUSRTIMER
 40
0.0168561343
  9
$USRTIMER
 70
     1
  9
$ANGBASE
 50
0.0
  9
$ANGDIR
 70
     0
  9
$PDMODE
 70
     0
  9
$PDSIZE
 40
0.0
  9
$PLINEWID
 40
0.0
  9
$COORDS
 70
     1
  9
$SPLFRAME
 70
     0
  9
$SPLINETYPE
 70
     6
  9
$SPLINESEGS
 70
     8
  9
$ATTDIA
 70
     1
  9
$ATTREQ
 70
     1
  9
$HANDLING
 70
     1
  9
$HANDSEED
  5
301
  9
$SURFTAB1
 70
     6
  9
$SURFTAB2
 70
     6
  9
$SURFTYPE
 70
     6
  9
$SURFU
 70
     6
  9
$SURFV
 70
     6
  9
$UCSNAME
  2

  9
$UCSORG
 10
0.0
 20
0.0
 30
0.0
  9
$UCSXDIR
 10
1.0
 20
0.0
 30
0.0
  9
$UCSYDIR
 10
0.0
 20
1.0
 30
0.0
  9
$PUCSNAME
  2

  9
$PUCSORG
 10
0.0
 20
0.0
 30
0.0
  9
$PUCSXDIR
 10
1.0
 20
0.0
 30
0.0
  9
$PUCSYDIR
 10
0.0
 20
1.0
 30
0.0
  9
$USERI1
 70
     0
  9
$USERI2
 70
     0
  9
$USERI3
 70
     0
  9
$USERI4
 70
     0
  9
$USERI5
 70
     0
  9
$USERR1
 40
0.0
  9
$USERR2
 40
0.0
  9
$USERR3
 40
0.0
  9
$USERR4
 40
0.0
  9
$USERR5
 40
0.0
  9
$WORLDVIEW
 70
     1
  9
$SHADEDGE
 70
     3
  9
$SHADEDIF
 70
    70
  9
$TILEMODE
 70
     1
  9
$MAXACTVP
 70
    64
  9
$PLIMCHECK
 70
     0
  9
$PEXTMIN
 10
1.0000000000000000E+020
 20
1.0000000000000000E+020
 30
1.0000000000000000E+020
  9
$PEXTMAX
 10
-1.0000000000000000E+020
 20
-1.0000000000000000E+020
 30
-1.0000000000000000E+020
  9
$PLIMMIN
 10
0.0
 20
0.0
  9
$PLIMMAX
 10
12.0
 20
9.0
  9
$UNITMODE
 70
     0
  9
$VISRETAIN
 70
     1
  9
$PLINEGEN
 70
     0
  9
$PSLTSCALE
 70
     1
  0
ENDSEC
  0
SECTION
  2
TABLES
  0
TABLE
  2
VPORT
 70
     1
  0
VPORT
  2
*ACTIVE
 70
     0
 10
0.0
 20
0.0
 11
1.0
 21
1.0
 12
-12.455814495754559
 22
-199.98173061523741
 13
0.0
 23
0.0
 14
1.0
 24
1.0
 15
0.0
 25
0.0
 16
0.0
 26
0.0
 36
1.0
 17
0.0
 27
0.0
 37
0.0
 40
1116.22373529591
 41
1.8188302425106979
 42
50.0
 43
0.0
 44
0.0
 50
0.0
 51
0.0
 71
     0
 72
   100
 73
     1
 74
     1
 75
     0
 76
     0
 77
     0
 78
     0
  0
ENDTAB
  0
TABLE
  2
LTYPE
 70
     9
  0
LTYPE
  2
CONTINUOUS
 70
     0
  3
Solid line
 72
    65
 73
     0
 40
0.0
  0
LTYPE
  2
DASHED
 70
     0
  3
__ __ __ __ __ __ __ __ __ __ __ __ __ __ __
 72
    65
 73
     2
 40
0.75
 49
0.5
 49
-0.25
  0
LTYPE
  2
HIDDEN
 70
     0
  3
_ _ _ _ _ _ _ _ _ _ _ _ _ _ _ _ _ _ _ _ _ _ _
 72
    65
 73
     2
 40
0.375
 49
0.25
 49
-0.125
  0
LTYPE
  2
CENTER
 70
     0
  3
____ _ ____ _ ____ _ ____ _ ____ _ ____ _ ____
 72
    65
 73
     4
 40
2.0
 49
1.25
 49
-0.25
 49
0.25
 49
-0.25
  0
LTYPE
  2
PHANTOM
 70
     0
  3
_____ _ _ _____ _ _ _____ _ _ _____ _ _ ____
 72
    65
 73
     6
 40
2.5
 49
1.25
 49
-0.25
 49
0.25
 49
-0.25
 49
0.25
 49
-0.25
  0
LTYPE
  2
DOT
 70
     0
  3
...............................................
 72
    65
 73
     2
 40
0.25
 49
0.0
 49
-0.25
  0
LTYPE
  2
DASHDOT
 70
     0
  3
__ . __ . __ . __ . __ . __ . __ . __ . __ . __
 72
    65
 73
     4
 40
1.0
 49
0.5
 49
-0.25
 49
0.0
 49
-0.25
  0
LTYPE
  2
BORDER
 70
     0
  3
__ __ . __ __ . __ __ . __ __ . __ __ . __ __
 72
    65
 73
     6
 40
1.75
 49
0.5
 49
-0.25
 49
0.5
 49
-0.25
 49
0.0
 49
-0.25
  0
LTYPE
  2
DIVIDE
 70
     0
  3
__ . . __ . . __ . . __ . . __ . . __ . . __
 72
    65
 73
     6
 40
1.25
 49
0.5
 49
-0.25
 49
0.0
 49
-0.25
 49
0.0
 49
-0.25
  0
ENDTAB
  0
TABLE
  2
LAYER
 70
   100
  0
LAYER
  2
0
 70
     0
 62
     3
  6
CONTINUOUS
  0
LAYER
  2
1
 70
     0
 62
     3
  6
CONTINUOUS
  0
LAYER
  2
2
 70
     0
 62
     3
  6
CONTINUOUS
  0
LAYER
  2
3
 70
     0
 62
     3
  6
CONTINUOUS
  0
LAYER
  2
4
 70
     0
 62
     3
  6
CONTINUOUS
  0
LAYER
  2
5
 70
     0
 62
     3
  6
CONTINUOUS
  0
LAYER
  2
6
 70
     0
 62
     3
  6
CONTINUOUS
  0
LAYER
  2
7
 70
     0
 62
     3
  6
CONTINUOUS
  0
LAYER
  2
8
 70
     0
 62
     3
  6
CONTINUOUS
  0
LAYER
  2
9
 70
     0
 62
     3
  6
CONTINUOUS
  0
LAYER
  2
10
 70
     0
 62
     3
  6
CONTINUOUS
  0
LAYER
  2
11
 70
     0
 62
     3
  6
CONTINUOUS
  0
LAYER
  2
12
 70
     0
 62
     3
  6
CONTINUOUS
  0
LAYER
  2
13
 70
     0
 62
     3
  6
CONTINUOUS
  0
LAYER
  2
14
 70
     0
 62
     3
  6
CONTINUOUS
  0
LAYER
  2
15
 70
     0
 62
     3
  6
CONTINUOUS
  0
LAYER
  2
16
 70
     0
 62
     3
  6
CONTINUOUS
  0
LAYER
  2
17
 70
     0
 62
     3
  6
CONTINUOUS
  0
LAYER
  2
18
 70
     0
 62
     3
  6
CONTINUOUS
  0
LAYER
  2
19
 70
     0
 62
     3
  6
CONTINUOUS
  0
LAYER
  2
20
 70
     0
 62
     3
  6
CONTINUOUS
  0
LAYER
  2
21
 70
     0
 62
     3
  6
CONTINUOUS
  0
LAYER
  2
22
 70
     0
 62
     3
  6
CONTINUOUS
  0
LAYER
  2
23
 70
     0
 62
     3
  6
CONTINUOUS
  0
LAYER
  2
24
 70
     0
 62
     3
  6
CONTINUOUS
  0
LAYER
  2
25
 70
     0
 62
     3
  6
CONTINUOUS
  0
LAYER
  2
26
 70
     0
 62
     3
  6
CONTINUOUS
  0
LAYER
  2
27
 70
     0
 62
     3
  6
CONTINUOUS
  0
LAYER
  2
28
 70
     0
 62
     3
  6
CONTINUOUS
  0
LAYER
  2
29
 70
     0
 62
     3
  6
CONTINUOUS
  0
LAYER
  2
30
 70
     0
 62
     3
  6
CONTINUOUS
  0
LAYER
  2
31
 70
     0
 62
     3
  6
CONTINUOUS
  0
LAYER
  2
32
 70
     0
 62
     3
  6
CONTINUOUS
  0
LAYER
  2
33
 70
     0
 62
     3
  6
CONTINUOUS
  0
LAYER
  2
34
 70
     0
 62
     3
  6
CONTINUOUS
  0
LAYER
  2
35
 70
     0
 62
     3
  6
CONTINUOUS
  0
LAYER
  2
36
 70
     0
 62
     3
  6
CONTINUOUS
  0
LAYER
  2
37
 70
     0
 62
     3
  6
CONTINUOUS
  0
LAYER
  2
38
 70
     0
 62
     3
  6
CONTINUOUS
  0
LAYER
  2
39
 70
     0
 62
     3
  6
CONTINUOUS
  0
LAYER
  2
40
 70
     0
 62
     3
  6
CONTINUOUS
  0
LAYER
  2
41
 70
     0
 62
     3
  6
CONTINUOUS
  0
LAYER
  2
42
 70
     0
 62
     3
  6
CONTINUOUS
  0
LAYER
  2
43
 70
     0
 62
     3
  6
CONTINUOUS
  0
LAYER
  2
44
 70
     0
 62
     3
  6
CONTINUOUS
  0
LAYER
  2
45
 70
     0
 62
     3
  6
CONTINUOUS
  0
LAYER
  2
46
 70
     0
 62
     3
  6
CONTINUOUS
  0
LAYER
  2
47
 70
     0
 62
     3
  6
CONTINUOUS
  0
LAYER
  2
48
 70
     0
 62
     3
  6
CONTINUOUS
  0
LAYER
  2
49
 70
     0
 62
     3
  6
CONTINUOUS
  0
LAYER
  2
50
 70
     0
 62
     3
  6
CONTINUOUS
  0
LAYER
  2
51
 70
     0
 62
     3
  6
CONTINUOUS
  0
LAYER
  2
52
 70
     0
 62
     3
  6
CONTINUOUS
  0
LAYER
  2
53
 70
     0
 62
     3
  6
CONTINUOUS
  0
LAYER
  2
54
 70
     0
 62
     3
  6
CONTINUOUS
  0
LAYER
  2
55
 70
     0
 62
     3
  6
CONTINUOUS
  0
LAYER
  2
56
 70
     0
 62
     3
  6
CONTINUOUS
  0
LAYER
  2
57
 70
     0
 62
     3
  6
CONTINUOUS
  0
LAYER
  2
58
 70
     0
 62
     3
  6
CONTINUOUS
  0
LAYER
  2
59
 70
     0
 62
     3
  6
CONTINUOUS
  0
LAYER
  2
60
 70
     0
 62
     3
  6
CONTINUOUS
  0
LAYER
  2
61
 70
     0
 62
     3
  6
CONTINUOUS
  0
LAYER
  2
62
 70
     0
 62
     3
  6
CONTINUOUS
  0
LAYER
  2
63
 70
     0
 62
     3
  6
CONTINUOUS
  0
LAYER
  2
64
 70
     0
 62
     3
  6
CONTINUOUS
  0
LAYER
  2
65
 70
     0
 62
     3
  6
CONTINUOUS
  0
LAYER
  2
66
 70
     0
 62
     3
  6
CONTINUOUS
  0
LAYER
  2
67
 70
     0
 62
     3
  6
CONTINUOUS
  0
LAYER
  2
68
 70
     0
 62
     3
  6
CONTINUOUS
  0
LAYER
  2
69
 70
     0
 62
     3
  6
CONTINUOUS
  0
LAYER
  2
70
 70
     0
 62
     3
  6
CONTINUOUS
  0
LAYER
  2
71
 70
     0
 62
     3
  6
CONTINUOUS
  0
LAYER
  2
72
 70
     0
 62
     3
  6
CONTINUOUS
  0
LAYER
  2
73
 70
     0
 62
     3
  6
CONTINUOUS
  0
LAYER
  2
74
 70
     0
 62
     3
  6
CONTINUOUS
  0
LAYER
  2
75
 70
     0
 62
     3
  6
CONTINUOUS
  0
LAYER
  2
76
 70
     0
 62
     3
  6
CONTINUOUS
  0
LAYER
  2
77
 70
     0
 62
     3
  6
CONTINUOUS
  0
LAYER
  2
78
 70
     0
 62
     3
  6
CONTINUOUS
  0
LAYER
  2
79
 70
     0
 62
     3
  6
CONTINUOUS
  0
LAYER
  2
80
 70
     0
 62
     3
  6
CONTINUOUS
  0
LAYER
  2
81
 70
     0
 62
     3
  6
CONTINUOUS
  0
LAYER
  2
82
 70
     0
 62
     3
  6
CONTINUOUS
  0
LAYER
  2
83
 70
     0
 62
     3
  6
CONTINUOUS
  0
LAYER
  2
84
 70
     0
 62
     3
  6
CONTINUOUS
  0
LAYER
  2
85
 70
     0
 62
     3
  6
CONTINUOUS
  0
LAYER
  2
86
 70
     0
 62
     3
  6
CONTINUOUS
  0
LAYER
  2
87
 70
     0
 62
     3
  6
CONTINUOUS
  0
LAYER
  2
88
 70
     0
 62
     3
  6
CONTINUOUS
  0
LAYER
  2
89
 70
     0
 62
     3
  6
CONTINUOUS
  0
LAYER
  2
90
 70
     0
 62
     3
  6
CONTINUOUS
  0
LAYER
  2
91
 70
     0
 62
     3
  6
CONTINUOUS
  0
LAYER
  2
92
 70
     0
 62
     3
  6
CONTINUOUS
  0
LAYER
  2
93
 70
     0
 62
     3
  6
CONTINUOUS
  0
LAYER
  2
94
 70
     0
 62
     3
  6
CONTINUOUS
  0
LAYER
  2
95
 70
     0
 62
     3
  6
CONTINUOUS
  0
LAYER
  2
96
 70
     0
 62
     3
  6
CONTINUOUS
  0
LAYER
  2
97
 70
     0
 62
     3
  6
CONTINUOUS
  0
LAYER
  2
98
 70
     0
 62
     3
  6
CONTINUOUS
  0
LAYER
  2
99
 70
     0
 62
     3
  6
CONTINUOUS
  0
ENDTAB
  0
TABLE
  2
STYLE
 70
     3
  0
STYLE
  2
STANDARD
 70
     0
 40
0.0
 41
1.0
 50
0.0
 71
     0
 42
0.2
  3
TXT
  4
BIGFONT
  0
STYLE
  2
ANNOTATIVE
 70
     0
 40
0.0
 41
1.0
 50
0.0
 71
     0
 42
0.2
  3
txt
  4

  0
STYLE
  2
KANJI
 70
     0
 40
4.5
 41
1.0
 50
0.0
 71
     0
 42
0.2
  3
TXT
  4
BIGFONT
  0
ENDTAB
  0
TABLE
  2
VIEW
 70
     0
  0
ENDTAB
  0
TABLE
  2
UCS
 70
     0
  0
ENDTAB
  0
TABLE
  2
APPID
 70
     4
  0
APPID
  2
ACAD
 70
     0
  0
APPID
  2
ACADANNOTATIVE
 70
     0
  0
APPID
  2
ACAD_NAV_VCDISPLAY
 70
     0
  0
APPID
  2
ACAD_MLEADERVER
 70
     0
  0
ENDTAB
  0
TABLE
  2
DIMSTYLE
 70
     2
  0
DIMSTYLE
  2
STANDARD
 70
     0
  3

  4

  5

  6

  7

 40
1.0
 41
0.18
 42
0.0625
 43
0.38
 44
0.18
 45
0.0
 46
0.0
 47
0.0
 48
0.0
140
0.18
141
0.09
142
0.0
143
25.399999999999999
144
1.0
145
0.0
146
1.0
147
0.09
 71
     0
 72
     0
 73
     1
 74
     1
 75
     0
 76
     0
 77
     0
 78
     0
170
     0
171
     2
172
     0
173
     0
174
     0
175
     0
176
     0
177
     0
178
     0
  0
DIMSTYLE
  2
ANNOTATIVE
 70
     0
  3

  4

  5

  6

  7

 40
1.0
 41
0.18
 42
0.0625
 43
0.38
 44
0.18
 45
0.0
 46
0.0
 47
0.0
 48
0.0
140
0.18
141
0.09
142
0.0
143
25.399999999999999
144
1.0
145
0.0
146
1.0
147
0.09
 71
     0
 72
     0
 73
     1
 74
     1
 75
     0
 76
     0
 77
     0
 78
     0
170
     0
171
     2
172
     0
173
     0
174
     0
175
     0
176
     0
177
     0
178
     0
  0
ENDTAB
  0
ENDSEC
  0
SECTION
  2
BLOCKS
  0
BLOCK
  8
0
  2
$MODEL_SPACE
 70
     0
 10
0.0
 20
0.0
 30
0.0
  3
$MODEL_SPACE
  1

  0
ENDBLK
  5
71
  8
0
  0
BLOCK
 67
     1
  8
0
  2
$PAPER_SPACE
 70
     0
 10
0.0
 20
0.0
 30
0.0
  3
$PAPER_SPACE
  1

  0
ENDBLK
  5
6D
 67
     1
  8
0
  0
BLOCK
  8
0
  2
D0
 70
     0
 10
0.0
 20
0.0
 30
0.0
  3
D0
  1

  0
TEXT
  5
E4
  8
0
 62
     7
 10
1189.4304999999999
 20
703.34684800000002
 30
0.0
 40
16.0
  1
140
 50
90.0
 41
0.8076923076923078
 72
     5
 11
1189.4304999999999
 21
731.34684800000002
 31
0.0
  0
LINE
  5
E5
  8
0
  6
CONTINUOUS
 62
     7
 10
1164.0
 20
647.34684800000002
 30
0.0
 11
1194.0305000000001
 21
647.34684800000002
 31
0.0
  0
LINE
  5
E6
  8
0
  6
CONTINUOUS
 62
     7
 10
1164.0
 20
787.34684800000002
 30
0.0
 11
1194.0305000000001
 21
787.34684800000002
 31
0.0
  0
LINE
  5
E7
  8
0
  6
CONTINUOUS
 62
     7
 10
1191.0305000000001
 20
787.34684800000002
 30
0.0
 11
1191.0305000000001
 21
647.34684800000002
 31
0.0
  0
LINE
  5
E8
  8
0
  6
CONTINUOUS
 62
     7
 10
1191.0305000000001
 20
787.34684800000002
 30
0.0
 11
1196.8539290000001
 21
765.61351699999989
 31
0.0
  0
LINE
  5
E9
  8
0
  6
CONTINUOUS
 62
     7
 10
1191.0305000000001
 20
787.34684800000002
 30
0.0
 11
1185.207071
 21
765.61351699999989
 31
0.0
  0
LINE
  5
EA
  8
0
  6
CONTINUOUS
 62
     7
 10
1191.0305000000001
 20
647.34684800000002
 30
0.0
 11
1185.207071
 21
669.08017900000004
 31
0.0
  0
LINE
  5
EB
  8
0
  6
CONTINUOUS
 62
     7
 10
1191.0305000000001
 20
647.34684800000002
 30
0.0
 11
1196.8539290000001
 21
669.08017900000004
 31
0.0
  0
ENDBLK
  5
EC
  8
0
  0
ENDSEC
  0
SECTION
  2
ENTITIES
  0
POINT
  5
ED
  8
0
 62
     1
 10
-1049.5
 20
-1008.846848
 30
0.0
  0
TEXT
  5
EE
  8
0
 62
     6
 10
236.96090799999999
 20
-529.77154700000006
 30
0.0
 40
22.5
  1
\U+03C6１５０　Ｓ
 41
0.8398692810457518
  7
KANJI
 72
     5
 11
365.46090800000002
 21
-529.77154700000006
 31
0.0
  0
TEXT
  5
EF
  8
0
 62
     6
 10
221.96090799999999
 20
-489.923023
 30
0.0
 40
22.5
  1
メカニカル形（Ｓ＝１／５）
 41
0.75
  7
KANJI
 72
     5
 11
471.71090800000002
 21
-489.923023
 31
0.0
  0
ARC
  5
F0
  8
1
  6
CONTINUOUS
 62
     4
 10
-129.62260000000001
 20
-318.12580000000003
 30
0.0
 40
35.0
 50
314.70880000000187
 51
331.05394000000462
  0
ARC
  5
F1
  8
1
  6
CONTINUOUS
 62
     4
 10
129.62259999999989
 20
-318.12580000000003
 30
0.0
 40
35.0
 50
208.9460599999955
 51
225.2911999999981
  0
ARC
  5
F2
  8
1
  6
CONTINUOUS
 62
     4
 10
129.62259999999989
 20
-265.87419999999997
 30
0.0
 40
35.0
 50
134.70880000000179
 51
151.0539400000045
  0
ARC
  5
F3
  8
0
  6
CONTINUOUS
 62
     2
 10
-68.963725999999951
 20
-391.0
 30
0.0
 40
12.0
 50
90.0
 51
180.0
  0
LINE
  5
F4
  8
0
  6
CONTINUOUS
 62
     2
 10
111.0
 20
-379.08960500000001
 30
0.0
 11
100.46372599999989
 21
-386.26052900000002
 31
0.0
  0
ARC
  5
F5
  8
0
  6
CONTINUOUS
 62
     2
 10
110.46372599999989
 20
-389.0
 30
0.0
 40
10.0
 50
90.0
 51
180.0
  0
LINE
  5
F6
  8
0
  6
CONTINUOUS
 62
     2
 10
-111.0
 20
-379.08960500000001
 30
0.0
 11
-100.46372599999989
 21
-386.26052900000002
 31
0.0
  0
ARC
  5
F7
  8
0
  6
CONTINUOUS
 62
     2
 10
68.963725999999951
 20
-391.0
 30
0.0
 40
12.0
 50
0.0
 51
90.0
  0
LINE
  5
F8
  8
0
  6
CONTINUOUS
 62
     2
 10
68.963725999999951
 20
-379.0
 30
0.0
 11
-68.963725999999951
 21
-379.0
 31
0.0
  0
ARC
  5
F9
  8
0
  6
CONTINUOUS
 62
     2
 10
-110.46372599999989
 20
-389.0
 30
0.0
 40
10.0
 50
0.0
 51
90.0
  0
LINE
  5
FA
  8
0
  6
CONTINUOUS
 62
     2
 10
-100.46372599999989
 20
-391.0
 30
0.0
 11
-100.46372599999989
 21
-389.0
 31
0.0
  0
LINE
  5
FB
  8
0
  6
CONTINUOUS
 62
     2
 10
100.46372599999989
 20
-391.0
 30
0.0
 11
100.46372599999989
 21
-389.0
 31
0.0
  0
LINE
  5
FC
  8
0
  6
CONTINUOUS
 62
     2
 10
72.963725999999951
 20
-363.0
 30
0.0
 11
-72.963725999999951
 21
-363.0
 31
0.0
  0
LINE
  5
FD
  8
0
  6
CONTINUOUS
 62
     2
 10
-88.963725999999951
 20
-363.0
 30
0.0
 11
-96.5
 21
-363.0
 31
0.0
  0
ARC
  5
FE
  8
0
  6
CONTINUOUS
 62
     3
 10
70.576225999999906
 20
-397.86926099999999
 30
0.0
 40
6.1334519999999992
 50
235.63053899999809
 51
304.36946100000188
  0
ARC
  5
FF
  8
0
  6
CONTINUOUS
 62
     3
 10
80.963725999999951
 20
-381.01687500000003
 30
0.0
 40
22.983124
 50
252.4638170000016
 51
287.53618399999709
  0
ARC
  5
100
  8
0
  6
CONTINUOUS
 62
     3
 10
91.351225999999997
 20
-397.86926099999999
 30
0.0
 40
6.1334519999999992
 50
235.63053899999809
 51
304.36946100000188
  0
LINE
  5
101
  8
0
  6
CONTINUOUS
 62
     3
 10
67.113726000000042
 20
-391.0
 30
0.0
 11
67.113726000000042
 21
-402.93190199999998
 31
0.0
  0
LINE
  5
102
  8
0
  6
CONTINUOUS
 62
     3
 10
74.038725999999997
 20
-391.0
 30
0.0
 11
74.038725999999997
 21
-402.93190199999998
 31
0.0
  0
POINT
  5
103
  8
0
 62
     3
 10
80.963725999999951
 20
-391.0
 30
0.0
  0
LINE
  5
104
  8
0
  6
CONTINUOUS
 62
     3
 10
91.533658000000059
 20
-404.0
 30
0.0
 11
70.758657999999969
 21
-404.0
 31
0.0
  0
LINE
  5
105
  8
0
  6
CONTINUOUS
 62
     3
 10
94.813726000000088
 20
-391.0
 30
0.0
 11
94.813726000000088
 21
-402.93190199999998
 31
0.0
  0
LINE
  5
106
  8
0
  6
CONTINUOUS
 62
     3
 10
87.888725999999906
 20
-391.0
 30
0.0
 11
87.888725999999906
 21
-402.93190199999998
 31
0.0
  0
LINE
  5
107
  8
0
  6
CONTINUOUS
 62
     3
 10
72.963725999999951
 20
-362.0
 30
0.0
 11
72.963725999999951
 21
-372.0
 31
0.0
  0
LINE
  5
108
  8
0
  6
CONTINUOUS
 62
     3
 10
88.963725999999951
 20
-362.0
 30
0.0
 11
88.963725999999951
 21
-372.12505500000009
 31
0.0
  0
LINE
  5
109
  8
2
  6
CENTER
 62
     2
 10
80.963725999999951
 20
-322.00653699999998
 30
0.0
 11
80.963725999999951
 21
-423.08199200000001
 31
0.0
  0
LINE
  5
10A
  8
2
  6
CENTER
 62
     2
 10
-80.963725999999951
 20
-322.00653699999998
 30
0.0
 11
-80.963725999999951
 21
-423.08199200000001
 31
0.0
  0
LINE
  5
10B
  8
0
  6
CONTINUOUS
 62
     2
 10
96.5
 20
-363.0
 30
0.0
 11
96.5
 21
-369.0
 31
0.0
  0
LINE
  5
10C
  8
0
  6
CONTINUOUS
 62
     2
 10
96.5
 20
-363.0
 30
0.0
 11
88.963725999999951
 21
-363.0
 31
0.0
  0
LINE
  5
10D
  8
0
  6
CONTINUOUS
 62
     2
 10
-111.0
 20
-372.0
 30
0.0
 11
111.0
 21
-372.0
 31
0.0
  0
LINE
  5
10E
  8
0
  6
CONTINUOUS
 62
     2
 10
100.46372599999989
 20
-391.0
 30
0.0
 11
-100.46372599999989
 21
-391.0
 31
0.0
  0
LINE
  5
10F
  8
0
  6
CONTINUOUS
 62
     2
 10
111.0
 20
-372.0
 30
0.0
 11
111.0
 21
-379.08960500000001
 31
0.0
  0
LINE
  5
110
  8
0
  6
CONTINUOUS
 62
     2
 10
-111.0
 20
-372.0
 30
0.0
 11
-111.0
 21
-379.08960500000001
 31
0.0
  0
ARC
  5
111
  8
0
  6
CONTINUOUS
 62
     2
 10
99.500000000000014
 20
-369.0
 30
0.0
 40
3.0
 50
180.0
 51
270.0
  0
ARC
  5
112
  8
0
  6
CONTINUOUS
 62
     2
 10
-99.500000000000014
 20
-369.0
 30
0.0
 40
3.0
 50
270.0
 51
0.0
  0
LINE
  5
113
  8
0
  6
CONTINUOUS
 62
     2
 10
-96.5
 20
-363.0
 30
0.0
 11
-96.5
 21
-369.0
 31
0.0
  0
LINE
  5
114
  8
0
  6
CONTINUOUS
 62
     6
 10
96.0
 20
-363.0
 30
0.0
 11
96.0
 21
-362.0
 31
0.0
  0
LINE
  5
115
  8
0
  6
CONTINUOUS
 62
     6
 10
-96.0
 20
-363.0
 30
0.0
 11
-96.0
 21
-362.0
 31
0.0
  0
LINE
  5
116
  8
0
  6
CONTINUOUS
 62
     3
 10
-74.2462119999999
 20
-343.0
 30
0.0
 11
-74.2462119999999
 21
-329.0
 31
0.0
  0
LINE
  5
117
  8
0
  6
CONTINUOUS
 62
     3
 10
-62.932503999999881
 20
-329.0
 30
0.0
 11
-98.99494900000002
 21
-329.0
 31
0.0
  0
LINE
  5
118
  8
0
  6
CONTINUOUS
 62
     3
 10
-62.932503999999881
 20
-343.0
 30
0.0
 11
-62.932503999999881
 21
-329.0
 31
0.0
  0
LINE
  5
119
  8
0
  6
CONTINUOUS
 62
     3
 10
-98.99494900000002
 20
-343.0
 30
0.0
 11
-98.99494900000002
 21
-329.0
 31
0.0
  0
LINE
  5
11A
  8
0
  6
CONTINUOUS
 62
     3
 10
-88.963725999999951
 20
-416.0
 30
0.0
 11
-72.963725999999951
 21
-416.0
 31
0.0
  0
ARC
  5
11B
  8
0
  6
CONTINUOUS
 62
     3
 10
-80.963725999999951
 20
-401.0
 30
0.0
 40
17.0
 50
241.92751299999551
 51
298.07248700000451
  0
LINE
  5
11C
  8
0
  6
CONTINUOUS
 62
     3
 10
-72.963725999999951
 20
-416.0
 30
0.0
 11
-72.963725999999951
 21
-404.0
 31
0.0
  0
LINE
  5
11D
  8
0
  6
CONTINUOUS
 62
     3
 10
-74.046225999999933
 20
-416.0
 30
0.0
 11
-74.046225999999933
 21
-404.0
 31
0.0
  0
LINE
  5
11E
  8
0
  6
CONTINUOUS
 62
     3
 10
-87.88122599999997
 20
-416.0
 30
0.0
 11
-87.88122599999997
 21
-404.0
 31
0.0
  0
LINE
  5
11F
  8
0
  6
CONTINUOUS
 62
     3
 10
-88.963725999999951
 20
-416.0
 30
0.0
 11
-88.963725999999951
 21
-404.0
 31
0.0
  0
LINE
  5
120
  8
0
  6
CONTINUOUS
 62
     3
 10
-88.963725999999951
 20
-362.0
 30
0.0
 11
-88.963725999999951
 21
-372.12505500000009
 31
0.0
  0
LINE
  5
121
  8
0
  6
CONTINUOUS
 62
     3
 10
-72.963725999999951
 20
-362.0
 30
0.0
 11
-72.963725999999951
 21
-372.0
 31
0.0
  0
LINE
  5
122
  8
0
  6
CONTINUOUS
 62
     3
 10
-87.888726000000034
 20
-391.0
 30
0.0
 11
-87.888726000000034
 21
-402.93190199999998
 31
0.0
  0
LINE
  5
123
  8
0
  6
CONTINUOUS
 62
     3
 10
-94.813725999999974
 20
-391.0
 30
0.0
 11
-94.813725999999974
 21
-402.93190199999998
 31
0.0
  0
LINE
  5
124
  8
0
  6
CONTINUOUS
 62
     3
 10
-91.533658000000059
 20
-404.0
 30
0.0
 11
-70.758657999999969
 21
-404.0
 31
0.0
  0
POINT
  5
125
  8
0
 62
     3
 10
-80.963725999999951
 20
-391.0
 30
0.0
  0
LINE
  5
126
  8
0
  6
CONTINUOUS
 62
     3
 10
-74.038725999999997
 20
-391.0
 30
0.0
 11
-74.038725999999997
 21
-402.93190199999998
 31
0.0
  0
LINE
  5
127
  8
0
  6
CONTINUOUS
 62
     3
 10
-67.113725999999929
 20
-391.0
 30
0.0
 11
-67.113725999999929
 21
-402.93190199999998
 31
0.0
  0
ARC
  5
128
  8
0
  6
CONTINUOUS
 62
     3
 10
-91.351225999999997
 20
-397.86926099999999
 30
0.0
 40
6.1334519999999992
 50
235.63053899999809
 51
304.36946100000188
  0
ARC
  5
129
  8
0
  6
CONTINUOUS
 62
     3
 10
-80.963725999999951
 20
-381.01687500000003
 30
0.0
 40
22.983124
 50
252.46381600000291
 51
287.5361829999984
  0
ARC
  5
12A
  8
0
  6
CONTINUOUS
 62
     3
 10
-70.576226000000005
 20
-397.86926099999999
 30
0.0
 40
6.1334519999999992
 50
235.63053899999809
 51
304.36946100000188
  0
LINE
  5
12B
  8
0
  6
CONTINUOUS
 62
     3
 10
74.246212000000014
 20
-343.0
 30
0.0
 11
74.246212000000014
 21
-329.0
 31
0.0
  0
LINE
  5
12C
  8
0
  6
CONTINUOUS
 62
     3
 10
62.932503999999881
 20
-329.0
 30
0.0
 11
98.994949000000133
 21
-329.0
 31
0.0
  0
LINE
  5
12D
  8
0
  6
CONTINUOUS
 62
     3
 10
62.932503999999881
 20
-343.0
 30
0.0
 11
62.932503999999881
 21
-329.0
 31
0.0
  0
LINE
  5
12E
  8
0
  6
CONTINUOUS
 62
     3
 10
98.994949000000133
 20
-343.0
 30
0.0
 11
98.994949000000133
 21
-329.0
 31
0.0
  0
LINE
  5
12F
  8
0
  6
CONTINUOUS
 62
     3
 10
88.963725999999951
 20
-416.0
 30
0.0
 11
72.963725999999951
 21
-416.0
 31
0.0
  0
ARC
  5
130
  8
0
  6
CONTINUOUS
 62
     3
 10
80.963725999999951
 20
-401.0
 30
0.0
 40
17.0
 50
241.92751299999551
 51
298.07248700000451
  0
LINE
  5
131
  8
0
  6
CONTINUOUS
 62
     3
 10
72.963725999999951
 20
-416.0
 30
0.0
 11
72.963725999999951
 21
-404.0
 31
0.0
  0
LINE
  5
132
  8
0
  6
CONTINUOUS
 62
     3
 10
74.046225999999933
 20
-416.0
 30
0.0
 11
74.046225999999933
 21
-404.0
 31
0.0
  0
LINE
  5
133
  8
0
  6
CONTINUOUS
 62
     3
 10
87.88122599999997
 20
-416.0
 30
0.0
 11
87.88122599999997
 21
-404.0
 31
0.0
  0
LINE
  5
134
  8
0
  6
CONTINUOUS
 62
     3
 10
88.963725999999951
 20
-416.0
 30
0.0
 11
88.963725999999951
 21
-404.0
 31
0.0
  0
ARC
  5
135
  8
0
  6
CONTINUOUS
 62
     2
 10
-68.963725999999951
 20
-193.0
 30
0.0
 40
12.0
 50
180.0
 51
270.0
  0
LINE
  5
136
  8
0
  6
CONTINUOUS
 62
     2
 10
111.0
 20
-204.910394
 30
0.0
 11
100.46372599999989
 21
-197.7394699999999
 31
0.0
  0
ARC
  5
137
  8
0
  6
CONTINUOUS
 62
     2
 10
110.46372599999989
 20
-195.0
 30
0.0
 40
10.0
 50
180.0
 51
270.0
  0
LINE
  5
138
  8
0
  6
CONTINUOUS
 62
     2
 10
-111.0
 20
-204.910394
 30
0.0
 11
-100.46372599999989
 21
-197.7394699999999
 31
0.0
  0
ARC
  5
139
  8
0
  6
CONTINUOUS
 62
     2
 10
68.963725999999951
 20
-193.0
 30
0.0
 40
12.0
 50
270.0
 51
0.0
  0
LINE
  5
13A
  8
0
  6
CONTINUOUS
 62
     2
 10
68.963725999999951
 20
-205.0
 30
0.0
 11
-68.963725999999951
 21
-205.0
 31
0.0
  0
ARC
  5
13B
  8
0
  6
CONTINUOUS
 62
     2
 10
-110.46372599999989
 20
-195.0
 30
0.0
 40
10.0
 50
270.0
 51
0.0
  0
LINE
  5
13C
  8
0
  6
CONTINUOUS
 62
     2
 10
-100.46372599999989
 20
-193.0
 30
0.0
 11
-100.46372599999989
 21
-195.0
 31
0.0
  0
LINE
  5
13D
  8
0
  6
CONTINUOUS
 62
     2
 10
100.46372599999989
 20
-193.0
 30
0.0
 11
100.46372599999989
 21
-195.0
 31
0.0
  0
LINE
  5
13E
  8
0
  6
CONTINUOUS
 62
     2
 10
72.963725999999951
 20
-221.0
 30
0.0
 11
-72.963725999999951
 21
-221.0
 31
0.0
  0
LINE
  5
13F
  8
0
  6
CONTINUOUS
 62
     2
 10
-88.963725999999951
 20
-221.0
 30
0.0
 11
-96.5
 21
-221.0
 31
0.0
  0
ARC
  5
140
  8
0
  6
CONTINUOUS
 62
     3
 10
70.576225999999906
 20
-186.13073800000001
 30
0.0
 40
6.1334519999999992
 50
55.63053899999808
 51
124.36946100000191
  0
ARC
  5
141
  8
0
  6
CONTINUOUS
 62
     3
 10
80.963725999999951
 20
-202.983124
 30
0.0
 40
22.983124
 50
72.463816000002879
 51
107.5361829999984
  0
ARC
  5
142
  8
0
  6
CONTINUOUS
 62
     3
 10
91.351225999999997
 20
-186.13073800000001
 30
0.0
 40
6.1334519999999992
 50
55.63053899999808
 51
124.36946100000191
  0
LINE
  5
143
  8
0
  6
CONTINUOUS
 62
     3
 10
67.113726000000042
 20
-193.0
 30
0.0
 11
67.113726000000042
 21
-181.06809799999999
 31
0.0
  0
LINE
  5
144
  8
0
  6
CONTINUOUS
 62
     3
 10
74.038725999999997
 20
-193.0
 30
0.0
 11
74.038725999999997
 21
-181.06809799999999
 31
0.0
  0
POINT
  5
145
  8
0
 62
     3
 10
80.963725999999951
 20
-193.0
 30
0.0
  0
LINE
  5
146
  8
0
  6
CONTINUOUS
 62
     3
 10
91.533658000000059
 20
-180.0
 30
0.0
 11
70.758657999999969
 21
-180.0
 31
0.0
  0
LINE
  5
147
  8
0
  6
CONTINUOUS
 62
     3
 10
94.813726000000088
 20
-193.0
 30
0.0
 11
94.813726000000088
 21
-181.06809799999999
 31
0.0
  0
LINE
  5
148
  8
0
  6
CONTINUOUS
 62
     3
 10
87.888725999999906
 20
-193.0
 30
0.0
 11
87.888725999999906
 21
-181.06809799999999
 31
0.0
  0
LINE
  5
149
  8
0
  6
CONTINUOUS
 62
     3
 10
72.963725999999951
 20
-222.0
 30
0.0
 11
72.963725999999951
 21
-212.0
 31
0.0
  0
LINE
  5
14A
  8
0
  6
CONTINUOUS
 62
     3
 10
88.963725999999951
 20
-222.0
 30
0.0
 11
88.963725999999951
 21
-211.874945
 31
0.0
  0
LINE
  5
14B
  8
2
  6
CENTER
 62
     2
 10
80.963725999999951
 20
-261.99346200000002
 30
0.0
 11
80.963725999999951
 21
-160.91800699999999
 31
0.0
  0
LINE
  5
14C
  8
2
  6
CENTER
 62
     2
 10
-80.963725999999951
 20
-261.99346200000002
 30
0.0
 11
-80.963725999999951
 21
-160.91800699999999
 31
0.0
  0
LINE
  5
14D
  8
0
  6
CONTINUOUS
 62
     2
 10
96.5
 20
-221.0
 30
0.0
 11
96.5
 21
-215.0
 31
0.0
  0
LINE
  5
14E
  8
0
  6
CONTINUOUS
 62
     2
 10
96.5
 20
-221.0
 30
0.0
 11
88.963725999999951
 21
-221.0
 31
0.0
  0
LINE
  5
14F
  8
0
  6
CONTINUOUS
 62
     2
 10
-111.0
 20
-212.0
 30
0.0
 11
111.0
 21
-212.0
 31
0.0
  0
LINE
  5
150
  8
0
  6
CONTINUOUS
 62
     2
 10
100.46372599999989
 20
-193.0
 30
0.0
 11
-100.46372599999989
 21
-193.0
 31
0.0
  0
LINE
  5
151
  8
0
  6
CONTINUOUS
 62
     2
 10
111.0
 20
-212.0
 30
0.0
 11
111.0
 21
-204.910394
 31
0.0
  0
LINE
  5
152
  8
0
  6
CONTINUOUS
 62
     2
 10
-111.0
 20
-212.0
 30
0.0
 11
-111.0
 21
-204.910394
 31
0.0
  0
ARC
  5
153
  8
0
  6
CONTINUOUS
 62
     2
 10
99.500000000000014
 20
-215.0
 30
0.0
 40
3.0
 50
90.0
 51
180.0
  0
ARC
  5
154
  8
0
  6
CONTINUOUS
 62
     2
 10
-99.500000000000014
 20
-215.0
 30
0.0
 40
3.0
 50
0.0
 51
90.0
  0
LINE
  5
155
  8
0
  6
CONTINUOUS
 62
     2
 10
-96.5
 20
-221.0
 30
0.0
 11
-96.5
 21
-215.0
 31
0.0
  0
LINE
  5
156
  8
0
  6
CONTINUOUS
 62
     6
 10
96.0
 20
-221.0
 30
0.0
 11
96.0
 21
-222.0
 31
0.0
  0
LINE
  5
157
  8
0
  6
CONTINUOUS
 62
     6
 10
-96.0
 20
-221.0
 30
0.0
 11
-96.0
 21
-222.0
 31
0.0
  0
LINE
  5
158
  8
0
  6
CONTINUOUS
 62
     3
 10
-74.2462119999999
 20
-241.0
 30
0.0
 11
-74.2462119999999
 21
-255.0
 31
0.0
  0
LINE
  5
159
  8
0
  6
CONTINUOUS
 62
     3
 10
-62.932503999999881
 20
-255.0
 30
0.0
 11
-98.99494900000002
 21
-255.0
 31
0.0
  0
LINE
  5
15A
  8
0
  6
CONTINUOUS
 62
     3
 10
-62.932503999999881
 20
-241.0
 30
0.0
 11
-62.932503999999881
 21
-255.0
 31
0.0
  0
LINE
  5
15B
  8
0
  6
CONTINUOUS
 62
     3
 10
-98.99494900000002
 20
-241.0
 30
0.0
 11
-98.99494900000002
 21
-255.0
 31
0.0
  0
LINE
  5
15C
  8
0
  6
CONTINUOUS
 62
     3
 10
-88.963725999999951
 20
-168.0
 30
0.0
 11
-72.963725999999951
 21
-168.0
 31
0.0
  0
ARC
  5
15D
  8
0
  6
CONTINUOUS
 62
     3
 10
-80.963725999999951
 20
-183.0
 30
0.0
 40
17.0
 50
61.92751299999555
 51
118.0724870000044
  0
LINE
  5
15E
  8
0
  6
CONTINUOUS
 62
     3
 10
-72.963725999999951
 20
-168.0
 30
0.0
 11
-72.963725999999951
 21
-180.0
 31
0.0
  0
LINE
  5
15F
  8
0
  6
CONTINUOUS
 62
     3
 10
-74.046225999999933
 20
-168.0
 30
0.0
 11
-74.046225999999933
 21
-180.0
 31
0.0
  0
LINE
  5
160
  8
0
  6
CONTINUOUS
 62
     3
 10
-87.88122599999997
 20
-168.0
 30
0.0
 11
-87.88122599999997
 21
-180.0
 31
0.0
  0
LINE
  5
161
  8
0
  6
CONTINUOUS
 62
     3
 10
-88.963725999999951
 20
-168.0
 30
0.0
 11
-88.963725999999951
 21
-180.0
 31
0.0
  0
LINE
  5
162
  8
0
  6
CONTINUOUS
 62
     3
 10
-88.963725999999951
 20
-222.0
 30
0.0
 11
-88.963725999999951
 21
-211.874945
 31
0.0
  0
LINE
  5
163
  8
0
  6
CONTINUOUS
 62
     3
 10
-72.963725999999951
 20
-222.0
 30
0.0
 11
-72.963725999999951
 21
-212.0
 31
0.0
  0
LINE
  5
164
  8
0
  6
CONTINUOUS
 62
     3
 10
-87.888726000000034
 20
-193.0
 30
0.0
 11
-87.888726000000034
 21
-181.06809799999999
 31
0.0
  0
LINE
  5
165
  8
0
  6
CONTINUOUS
 62
     3
 10
-94.813725999999974
 20
-193.0
 30
0.0
 11
-94.813725999999974
 21
-181.06809799999999
 31
0.0
  0
LINE
  5
166
  8
0
  6
CONTINUOUS
 62
     3
 10
-91.533658000000059
 20
-180.0
 30
0.0
 11
-70.758657999999969
 21
-180.0
 31
0.0
  0
POINT
  5
167
  8
0
 62
     3
 10
-80.963725999999951
 20
-193.0
 30
0.0
  0
LINE
  5
168
  8
0
  6
CONTINUOUS
 62
     3
 10
-74.038725999999997
 20
-193.0
 30
0.0
 11
-74.038725999999997
 21
-181.06809799999999
 31
0.0
  0
LINE
  5
169
  8
0
  6
CONTINUOUS
 62
     3
 10
-67.113725999999929
 20
-193.0
 30
0.0
 11
-67.113725999999929
 21
-181.06809799999999
 31
0.0
  0
ARC
  5
16A
  8
0
  6
CONTINUOUS
 62
     3
 10
-91.351225999999997
 20
-186.13073800000001
 30
0.0
 40
6.1334519999999992
 50
55.63053899999808
 51
124.36946100000191
  0
ARC
  5
16B
  8
0
  6
CONTINUOUS
 62
     3
 10
-80.963725999999951
 20
-202.983124
 30
0.0
 40
22.983124
 50
72.463817000001598
 51
107.53618399999711
  0
ARC
  5
16C
  8
0
  6
CONTINUOUS
 62
     3
 10
-70.576226000000005
 20
-186.13073800000001
 30
0.0
 40
6.1334519999999992
 50
55.63053899999808
 51
124.36946100000191
  0
LINE
  5
16D
  8
0
  6
CONTINUOUS
 62
     3
 10
74.246212000000014
 20
-241.0
 30
0.0
 11
74.246212000000014
 21
-255.0
 31
0.0
  0
LINE
  5
16E
  8
0
  6
CONTINUOUS
 62
     3
 10
62.932503999999881
 20
-255.0
 30
0.0
 11
98.994949000000133
 21
-255.0
 31
0.0
  0
LINE
  5
16F
  8
0
  6
CONTINUOUS
 62
     3
 10
62.932503999999881
 20
-241.0
 30
0.0
 11
62.932503999999881
 21
-255.0
 31
0.0
  0
LINE
  5
170
  8
0
  6
CONTINUOUS
 62
     3
 10
98.994949000000133
 20
-241.0
 30
0.0
 11
98.994949000000133
 21
-255.0
 31
0.0
  0
LINE
  5
171
  8
0
  6
CONTINUOUS
 62
     3
 10
88.963725999999951
 20
-168.0
 30
0.0
 11
72.963725999999951
 21
-168.0
 31
0.0
  0
ARC
  5
172
  8
0
  6
CONTINUOUS
 62
     3
 10
80.963725999999951
 20
-183.0
 30
0.0
 40
17.0
 50
61.92751299999555
 51
118.0724870000044
  0
LINE
  5
173
  8
0
  6
CONTINUOUS
 62
     3
 10
72.963725999999951
 20
-168.0
 30
0.0
 11
72.963725999999951
 21
-180.0
 31
0.0
  0
LINE
  5
174
  8
0
  6
CONTINUOUS
 62
     3
 10
74.046225999999933
 20
-168.0
 30
0.0
 11
74.046225999999933
 21
-180.0
 31
0.0
  0
LINE
  5
175
  8
0
  6
CONTINUOUS
 62
     3
 10
87.88122599999997
 20
-168.0
 30
0.0
 11
87.88122599999997
 21
-180.0
 31
0.0
  0
LINE
  5
176
  8
0
  6
CONTINUOUS
 62
     3
 10
88.963725999999951
 20
-168.0
 30
0.0
 11
88.963725999999951
 21
-180.0
 31
0.0
  0
ARC
  5
177
  8
0
  6
CONTINUOUS
 62
     2
 10
0.0
 20
0.0
 30
0.0
 40
93.499999999999986
 50
329.84952799999922
 51
30.150472000000882
  0
ARC
  5
178
  8
0
  6
CONTINUOUS
 62
     2
 10
49.976130000000012
 20
86.038576000000035
 30
0.0
 40
6.0
 50
239.84952799999681
 51
314.9999999999954
  0
LINE
  5
179
  8
0
  6
CONTINUOUS
 62
     2
 10
67.175144000000046
 20
94.752309000000082
 30
0.0
 11
54.218769999999942
 21
81.795934999999986
 31
0.0
  0
ARC
  5
17A
  8
0
  6
CONTINUOUS
 62
     2
 10
80.963725999999951
 20
80.963726999999935
 30
0.0
 40
19.5
 50
314.9999999999954
 51
134.9999999999954
  0
LINE
  5
17B
  8
0
  6
CONTINUOUS
 62
     2
 10
94.752308999999968
 20
67.175145000000043
 30
0.0
 11
81.795934999999858
 21
54.218770999999947
 31
0.0
  0
ARC
  5
17C
  8
0
  6
CONTINUOUS
 62
     2
 10
86.038575000000023
 20
49.976129999999898
 30
0.0
 40
6.0
 50
134.9999999999954
 51
210.15047200000089
  0
ARC
  5
17D
  8
0
  6
CONTINUOUS
 62
     2
 10
49.976130000000012
 20
-86.038574999999923
 30
0.0
 40
6.0
 50
45.000000000004597
 51
120.15047200000321
  0
CIRCLE
  5
17E
  8
1
  6
CONTINUOUS
 62
     3
 10
80.963725999999951
 20
80.963726999999935
 30
0.0
 40
8.0
  0
CIRCLE
  5
17F
  8
1
  6
CONTINUOUS
 62
     3
 10
80.963725999999951
 20
80.963726999999935
 30
0.0
 40
6.9175000000000004
  0
LINE
  5
180
  8
0
  6
CONTINUOUS
 62
     3
 10
68.969274999999925
 20
87.888726999999889
 30
0.0
 11
68.969274999999925
 21
74.038726999999994
 31
0.0
  0
LINE
  5
181
  8
0
  6
CONTINUOUS
 62
     3
 10
80.963725999999951
 20
94.813727000000085
 30
0.0
 11
68.969274999999925
 21
87.888726999999889
 31
0.0
  0
LINE
  5
182
  8
0
  6
CONTINUOUS
 62
     3
 10
92.958177999999847
 20
87.888726999999889
 30
0.0
 11
80.963725999999951
 21
94.813727000000085
 31
0.0
  0
POINT
  5
183
  8
0
 62
     3
 10
80.963725999999951
 20
80.963726999999935
 30
0.0
  0
CIRCLE
  5
184
  8
0
  6
CONTINUOUS
 62
     3
 10
80.963725999999951
 20
80.963726999999935
 30
0.0
 40
12.0
  0
LINE
  5
185
  8
0
  6
CONTINUOUS
 62
     3
 10
68.969274999999925
 20
74.038726999999994
 30
0.0
 11
80.963725999999951
 21
67.11372700000004
 31
0.0
  0
LINE
  5
186
  8
0
  6
CONTINUOUS
 62
     3
 10
80.963725999999951
 20
67.11372700000004
 30
0.0
 11
92.958177999999847
 21
74.038726999999994
 31
0.0
  0
LINE
  5
187
  8
0
  6
CONTINUOUS
 62
     3
 10
92.958177999999847
 20
74.038726999999994
 30
0.0
 11
92.958177999999847
 21
87.888726999999889
 31
0.0
  0
CIRCLE
  5
188
  8
1
  6
CONTINUOUS
 62
     3
 10
80.963725999999951
 20
-80.963725999999951
 30
0.0
 40
8.0
  0
CIRCLE
  5
189
  8
1
  6
CONTINUOUS
 62
     3
 10
80.963725999999951
 20
-80.963725999999951
 30
0.0
 40
6.9175000000000004
  0
LINE
  5
18A
  8
0
  6
CONTINUOUS
 62
     3
 10
68.969274999999925
 20
-74.038725999999997
 30
0.0
 11
68.969274999999925
 21
-87.888725999999906
 31
0.0
  0
LINE
  5
18B
  8
0
  6
CONTINUOUS
 62
     3
 10
80.963725999999951
 20
-67.113725999999929
 30
0.0
 11
68.969274999999925
 21
-74.038725999999997
 31
0.0
  0
LINE
  5
18C
  8
0
  6
CONTINUOUS
 62
     3
 10
92.958177999999847
 20
-74.038725999999997
 30
0.0
 11
80.963725999999951
 21
-67.113725999999929
 31
0.0
  0
ARC
  5
18D
  8
0
  6
CONTINUOUS
 62
     2
 10
80.963725999999951
 20
-80.963725999999951
 30
0.0
 40
19.5
 50
225.0000000000046
 51
45.000000000004597
  0
LINE
  5
18E
  8
0
  6
CONTINUOUS
 62
     2
 10
94.752308999999968
 20
-67.175144000000159
 30
0.0
 11
81.795934999999858
 21
-54.218770000000063
 31
0.0
  0
LINE
  5
18F
  8
0
  6
CONTINUOUS
 62
     2
 10
67.175144000000046
 20
-94.752307999999957
 30
0.0
 11
54.218769999999942
 21
-81.795933999999988
 31
0.0
  0
ARC
  5
190
  8
0
  6
CONTINUOUS
 62
     2
 10
86.038575000000023
 20
-49.976129000000128
 30
0.0
 40
6.0
 50
149.84952799999911
 51
225.0000000000046
  0
LINE
  5
191
  8
0
  6
CONTINUOUS
 62
     3
 10
92.958177999999847
 20
-87.888725999999906
 30
0.0
 11
92.958177999999847
 21
-74.038725999999997
 31
0.0
  0
LINE
  5
192
  8
0
  6
CONTINUOUS
 62
     3
 10
80.963725999999951
 20
-94.813725999999974
 30
0.0
 11
92.958177999999847
 21
-87.888725999999906
 31
0.0
  0
CIRCLE
  5
193
  8
0
  6
CONTINUOUS
 62
     2
 10
0.0
 20
0.0
 30
0.0
 40
87.832907000000006
  0
CIRCLE
  5
194
  8
0
  6
CONTINUOUS
 62
     2
 10
0.0
 20
0.0
 30
0.0
 40
85.5
  0
ARC
  5
195
  8
0
  6
CONTINUOUS
 62
     2
 10
0.0
 20
0.0
 30
0.0
 40
93.499999999999986
 50
149.84952799999911
 51
210.15047200000089
  0
ARC
  5
196
  8
0
  6
CONTINUOUS
 62
     2
 10
0.0
 20
0.0
 30
0.0
 40
93.499999999999986
 50
239.84952799999681
 51
300.15047200000322
  0
ARC
  5
197
  8
0
  6
CONTINUOUS
 62
     2
 10
-49.976130000000119
 20
86.038576000000035
 30
0.0
 40
6.0
 50
225.0000000000046
 51
300.15047200000322
  0
LINE
  5
198
  8
0
  6
CONTINUOUS
 62
     2
 10
-67.175143999999932
 20
94.752309000000082
 30
0.0
 11
-54.218769999999942
 21
81.795934999999986
 31
0.0
  0
ARC
  5
199
  8
0
  6
CONTINUOUS
 62
     2
 10
-80.963725999999951
 20
80.963726999999935
 30
0.0
 40
19.5
 50
45.000000000004597
 51
225.0000000000046
  0
LINE
  5
19A
  8
0
  6
CONTINUOUS
 62
     2
 10
-94.752308999999968
 20
67.175145000000043
 30
0.0
 11
-81.795934999999986
 21
54.218770999999947
 31
0.0
  0
ARC
  5
19B
  8
0
  6
CONTINUOUS
 62
     2
 10
-86.038575000000023
 20
49.976129999999898
 30
0.0
 40
6.0
 50
329.84952799999922
 51
45.000000000004597
  0
ARC
  5
19C
  8
0
  6
CONTINUOUS
 62
     2
 10
-49.976130000000119
 20
-86.038574999999923
 30
0.0
 40
6.0
 50
59.849527999996759
 51
134.9999999999954
  0
CIRCLE
  5
19D
  8
1
  6
CONTINUOUS
 62
     3
 10
-80.963725999999951
 20
80.963726999999935
 30
0.0
 40
8.0
  0
CIRCLE
  5
19E
  8
1
  6
CONTINUOUS
 62
     3
 10
-80.963725999999951
 20
80.963726999999935
 30
0.0
 40
6.9175000000000004
  0
LINE
  5
19F
  8
0
  6
CONTINUOUS
 62
     3
 10
-68.969275000000025
 20
87.888726999999889
 30
0.0
 11
-68.969275000000025
 21
74.038726999999994
 31
0.0
  0
LINE
  5
1A0
  8
0
  6
CONTINUOUS
 62
     3
 10
-80.963725999999951
 20
94.813727000000085
 30
0.0
 11
-68.969275000000025
 21
87.888726999999889
 31
0.0
  0
ARC
  5
1A1
  8
1
  6
CONTINUOUS
 62
     4
 10
-129.62260000000001
 20
-265.87419999999997
 30
0.0
 40
35.0
 50
8.4213600000032827
 51
18.100904000001961
  0
LINE
  5
1A2
  8
0
  6
CONTINUOUS
 62
     3
 10
68.969274999999925
 20
-87.888725999999906
 30
0.0
 11
80.963725999999951
 21
-94.813725999999974
 31
0.0
  0
ARC
  5
1A3
  8
0
  6
CENTER
 62
     4
 10
0.0
 20
0.0
 30
0.0
 40
114.5
 50
120.8843030000054
 51
149.54312599999761
  0
LINE
  5
1A4
  8
1
  6
CONTINUOUS
 62
     4
 10
-81.469968999999992
 20
-101.294837
 30
0.0
 11
-14.38712799999985
 21
-110.063665
 31
0.0
  0
LINE
  5
1A5
  8
1
  6
CONTINUOUS
 62
     4
 10
-101.294838
 20
-81.469969000000106
 30
0.0
 11
-110.063666
 21
-14.38712699999996
 31
0.0
  0
ARC
  5
1A6
  8
1
  6
CONTINUOUS
 62
     4
 10
-78.488852999999949
 20
-78.488851999999952
 30
0.0
 40
23.0
 50
187.44727300000341
 51
262.5527259999962
  0
ARC
  5
1A7
  8
0
  6
CENTER
 62
     4
 10
0.0
 20
0.0
 30
0.0
 40
114.5
 50
300.44377899999449
 51
330.05968799999829
  0
LINE
  5
1A8
  8
1
  6
CONTINUOUS
 62
     4
 10
101.294838
 20
-81.469969000000106
 30
0.0
 11
110.063666
 21
-14.38712699999996
 31
0.0
  0
LINE
  5
1A9
  8
0
  6
CENTER
 62
     2
 10
130.51702100000011
 20
0.0
 30
0.0
 11
-137.77887100000009
 21
0.0
 31
0.0
  0
LINE
  5
1AA
  8
3
  6
CENTER
 62
     2
 10
0.0
 20
-176.73798999999991
 30
0.0
 11
0.0
 21
-404.59742599999998
 31
0.0
  0
LINE
  5
1AB
  8
1
  6
CONTINUOUS
 62
     4
 10
-111.0
 20
-222.0
 30
0.0
 11
111.0
 21
-222.0
 31
0.0
  0
LINE
  5
1AC
  8
1
  6
CONTINUOUS
 62
     4
 10
-111.0
 20
-241.0
 30
0.0
 11
111.0
 21
-241.0
 31
0.0
  0
LINE
  5
1AD
  8
1
  6
CONTINUOUS
 62
     4
 10
95.0
 20
-260.74839999999989
 30
0.0
 11
94.999976999999944
 21
-323.25161300000002
 31
0.0
  0
LINE
  5
1AE
  8
1
  6
CONTINUOUS
 62
     4
 10
-95.0
 20
-260.74839999999989
 30
0.0
 11
-94.999976999999944
 21
-323.25161300000002
 31
0.0
  0
LINE
  5
1AF
  8
1
  6
CONTINUOUS
 62
     4
 10
-111.0
 20
-241.0
 30
0.0
 11
-111.0
 21
-222.0
 31
0.0
  0
LINE
  5
1B0
  8
1
  6
CONTINUOUS
 62
     4
 10
81.469968999999992
 20
-101.294837
 30
0.0
 11
14.38712799999985
 21
-110.063665
 31
0.0
  0
ARC
  5
1B1
  8
1
  6
CONTINUOUS
 62
     4
 10
0.0
 20
0.0
 30
0.0
 40
111.0
 50
262.55272699999739
 51
277.44727400000369
  0
ARC
  5
1B2
  8
1
  6
CONTINUOUS
 62
     4
 10
78.488852999999835
 20
-78.488851999999952
 30
0.0
 40
23.0
 50
277.44727300000261
 51
352.55272600000188
  0
ARC
  5
1B3
  8
0
  6
CENTER
 62
     4
 10
0.0
 20
0.0
 30
0.0
 40
114.5
 50
200.47364599999889
 51
239.9717930000007
  0
CIRCLE
  5
1B4
  8
0
  6
CONTINUOUS
 62
     3
 10
80.963725999999951
 20
-80.963725999999951
 30
0.0
 40
12.0
  0
LINE
  5
1B5
  8
1
  6
CENTER
 62
     4
 10
99.124914000000004
 20
-99.124914000000004
 30
0.0
 11
68.97143600000004
 21
-68.971436000000153
 31
0.0
  0
LINE
  5
1B6
  8
1
  6
CENTER
 62
     4
 10
-98.573325999999952
 20
-98.573324999999954
 30
0.0
 11
-68.647851999999943
 21
-68.647851999999943
 31
0.0
  0
POINT
  5
1B7
  8
0
 62
     3
 10
80.963725999999951
 20
-80.963725999999951
 30
0.0
  0
LINE
  5
1B8
  8
0
  6
CONTINUOUS
 62
     4
 10
89.069653000000017
 20
-260.7483840000001
 30
0.0
 11
-88.042026999999948
 21
-260.74831799999998
 31
0.0
  0
LINE
  5
1B9
  8
1
  6
CONTINUOUS
 62
     4
 10
111.0
 20
-343.0
 30
0.0
 11
111.0
 21
-362.0
 31
0.0
  0
POINT
  5
1BA
  8
0
 62
     3
 10
-80.963725999999951
 20
-80.963725999999951
 30
0.0
  0
CIRCLE
  5
1BB
  8
0
  6
CONTINUOUS
 62
     3
 10
-80.963725999999951
 20
-80.963725999999951
 30
0.0
 40
12.0
  0
ARC
  5
1BC
  8
1
  6
CONTINUOUS
 62
     4
 10
129.62259999999989
 20
-265.87419999999997
 30
0.0
 40
35.0
 50
161.899095999998
 51
171.57863999999671
  0
ARC
  5
1BD
  8
1
  6
CONTINUOUS
 62
     4
 10
-129.62260000000001
 20
-265.87419999999997
 30
0.0
 40
35.0
 50
28.946059999995459
 51
45.291199999998128
  0
LINE
  5
1BE
  8
0
  6
CONTINUOUS
 62
     3
 10
-68.969275000000025
 20
-87.888725999999906
 30
0.0
 11
-80.963725999999951
 21
-94.813725999999974
 31
0.0
  0
LINE
  5
1BF
  8
0
  6
CONTINUOUS
 62
     3
 10
-80.963725999999951
 20
-94.813725999999974
 30
0.0
 11
-92.958177999999975
 21
-87.888725999999906
 31
0.0
  0
LINE
  5
1C0
  8
0
  6
CONTINUOUS
 62
     3
 10
-92.958177999999975
 20
-87.888725999999906
 30
0.0
 11
-92.958177999999975
 21
-74.038725999999997
 31
0.0
  0
ARC
  5
1C1
  8
0
  6
CONTINUOUS
 62
     2
 10
-86.038575000000023
 20
-49.976129000000128
 30
0.0
 40
6.0
 50
314.9999999999954
 51
30.150472000000882
  0
LINE
  5
1C2
  8
0
  6
CONTINUOUS
 62
     2
 10
-67.175143999999932
 20
-94.752307999999957
 30
0.0
 11
-54.218769999999942
 21
-81.795933999999988
 31
0.0
  0
ARC
  5
1C3
  8
1
  6
CONTINUOUS
 62
     4
 10
-129.62260000000001
 20
-318.12580000000003
 30
0.0
 40
35.0
 50
341.89909599999811
 51
351.57863999999671
  0
ARC
  5
1C4
  8
1
  6
CONTINUOUS
 62
     4
 10
129.62259999999989
 20
-318.12580000000003
 30
0.0
 40
35.0
 50
188.4213600000032
 51
198.10090400000189
  0
LINE
  5
1C5
  8
1
  6
CONTINUOUS
 62
     4
 10
-111.0
 20
-343.0
 30
0.0
 11
-111.0
 21
-362.0
 31
0.0
  0
LINE
  5
1C6
  8
1
  6
CONTINUOUS
 62
     4
 10
-111.0
 20
-343.0
 30
0.0
 11
111.0
 21
-343.0
 31
0.0
  0
LINE
  5
1C7
  8
1
  6
CONTINUOUS
 62
     4
 10
-111.0
 20
-362.0
 30
0.0
 11
111.0
 21
-362.0
 31
0.0
  0
LINE
  5
1C8
  8
0
  6
CONTINUOUS
 62
     4
 10
89.069629999999947
 20
-323.25161100000003
 30
0.0
 11
-88.042051000000015
 21
-323.25154600000008
 31
0.0
  0
LINE
  5
1C9
  8
0
  6
CONTINUOUS
 62
     2
 10
-94.752308999999968
 20
-67.175144000000159
 30
0.0
 11
-81.795934999999986
 21
-54.218770000000063
 31
0.0
  0
ARC
  5
1CA
  8
0
  6
CONTINUOUS
 62
     2
 10
0.0
 20
0.0
 30
0.0
 40
93.499999999999986
 50
59.849527999996759
 51
120.15047200000321
  0
ARC
  5
1CB
  8
0
  6
CONTINUOUS
 62
     2
 10
-80.963725999999951
 20
-80.963725999999951
 30
0.0
 40
19.5
 50
134.9999999999954
 51
314.9999999999954
  0
LINE
  5
1CC
  8
0
  6
CONTINUOUS
 62
     3
 10
-92.958177999999975
 20
-74.038725999999997
 30
0.0
 11
-80.963725999999951
 21
-67.113725999999929
 31
0.0
  0
LINE
  5
1CD
  8
0
  6
CONTINUOUS
 62
     3
 10
-80.963725999999951
 20
-67.113725999999929
 30
0.0
 11
-68.969275000000025
 21
-74.038725999999997
 31
0.0
  0
LINE
  5
1CE
  8
0
  6
CONTINUOUS
 62
     3
 10
-68.969275000000025
 20
-74.038725999999997
 30
0.0
 11
-68.969275000000025
 21
-87.888725999999906
 31
0.0
  0
CIRCLE
  5
1CF
  8
1
  6
CONTINUOUS
 62
     3
 10
-80.963725999999951
 20
-80.963725999999951
 30
0.0
 40
6.9175000000000004
  0
CIRCLE
  5
1D0
  8
1
  6
CONTINUOUS
 62
     3
 10
-80.963725999999951
 20
-80.963725999999951
 30
0.0
 40
8.0
  0
LINE
  5
1D1
  8
0
  6
CONTINUOUS
 62
     3
 10
-92.958177999999975
 20
74.038726999999994
 30
0.0
 11
-92.958177999999975
 21
87.888726999999889
 31
0.0
  0
LINE
  5
1D2
  8
0
  6
CONTINUOUS
 62
     3
 10
-80.963725999999951
 20
67.11372700000004
 30
0.0
 11
-92.958177999999975
 21
74.038726999999994
 31
0.0
  0
LINE
  5
1D4
  8
0
  6
CONTINUOUS
 62
     3
 10
-68.969275000000025
 20
74.038726999999994
 30
0.0
 11
-80.963725999999951
 21
67.11372700000004
 31
0.0
  0
LINE
  5
1D5
  8
1
  6
CONTINUOUS
 62
     4
 10
111.0
 20
-241.0
 30
0.0
 11
111.0
 21
-222.0
 31
0.0
  0
CIRCLE
  5
1D6
  8
0
  6
CONTINUOUS
 62
     3
 10
-80.963725999999951
 20
80.963726999999935
 30
0.0
 40
12.0
  0
LINE
  5
1D7
  8
3
  6
CENTER
 62
     2
 10
0.0
 20
122.348308
 30
0.0
 11
0.0
 21
-126.144391
 31
0.0
  0
LINE
  5
1D8
  8
1
  6
CENTER
 62
     4
 10
-98.573325999999952
 20
98.573326000000066
 30
0.0
 11
-68.647851999999943
 21
68.647853000000055
 31
0.0
  0
LINE
  5
1D9
  8
1
  6
CENTER
 62
     4
 10
99.124914000000004
 20
99.124914999999987
 30
0.0
 11
68.97143600000004
 21
68.971437000000037
 31
0.0
  0
POINT
  5
1DA
  8
0
 62
     3
 10
-80.963725999999951
 20
80.963726999999935
 30
0.0
  0
ARC
  5
1DB
  8
0
  6
CENTER
 62
     4
 10
0.0
 20
0.0
 30
0.0
 40
114.5
 50
24.25834999999763
 51
59.789463999998652
  0
ARC
  5
1DC
  8
1
  6
CONTINUOUS
 62
     4
 10
78.488852999999835
 20
78.488852999999949
 30
0.0
 40
23.0
 50
7.4472739999981048
 51
82.552726999997432
  0
ARC
  5
1DD
  8
1
  6
CONTINUOUS
 62
     4
 10
0.0
 20
0.0
 30
0.0
 40
111.0
 50
82.552725999996284
 51
97.447273000002554
  0
LINE
  5
1DE
  8
1
  6
CONTINUOUS
 62
     4
 10
81.469968999999992
 20
101.2948379999999
 30
0.0
 11
14.38712799999985
 21
110.0636660000001
 31
0.0
  0
LINE
  5
1DF
  8
1
  6
CONTINUOUS
 62
     4
 10
101.294838
 20
81.469969999999975
 30
0.0
 11
110.063666
 21
14.38712799999996
 31
0.0
  0
LINE
  5
1E0
  8
0
  6
CONTINUOUS
 62
     3
 10
-92.958177999999975
 20
87.888726999999889
 30
0.0
 11
-80.963725999999951
 21
94.813727000000085
 31
0.0
  0
ARC
  5
1E1
  8
1
  6
CONTINUOUS
 62
     4
 10
-78.488852999999949
 20
78.488852999999949
 30
0.0
 40
23.0
 50
97.447274000003716
 51
172.55272699999659
  0
LINE
  5
1E2
  8
1
  6
CONTINUOUS
 62
     4
 10
-101.294838
 20
81.469969999999975
 30
0.0
 11
-110.063666
 21
14.38712799999996
 31
0.0
  0
LINE
  5
1E3
  8
1
  6
CONTINUOUS
 62
     4
 10
-81.469968999999992
 20
101.2948379999999
 30
0.0
 11
-14.38712799999985
 21
110.0636660000001
 31
0.0
  0
ARC
  5
1E4
  8
1
  6
CONTINUOUS
 62
     4
 10
0.0
 20
0.0
 30
0.0
 40
111.0
 50
172.55272600000191
 51
187.44727300000341
  0
ARC
  5
1E5
  8
1
  6
CONTINUOUS
 62
     4
 10
0.0
 20
0.0
 30
0.0
 40
111.0
 50
352.55272699999648
 51
7.4472739999981048
  0
POINT
  5
1E6
  8
0
 62
     1
 10
1049.5
 20
475.15315199999992
 30
0.0
  0
ENDSEC
  0
EOF
