  0
SECTION
  2
HEADER
  9
$ACADVER
  1
AC1009
  9
$INSBASE
 10
0.0
 20
0.0
 30
0.0
  9
$EXTMIN
 10
-1049.5
 20
-1166.244747
 30
0.0
  9
$EXTMAX
 10
2099.5
 20
1484.5
 30
0.0
  9
$LIMMIN
 10
0.0
 20
0.0
  9
$LIMMAX
 10
2100.0
 20
1485.0
  9
$ORTHOMODE
 70
     0
  9
$REGENMODE
 70
     1
  9
$FILLMODE
 70
     1
  9
$QTEXTMODE
 70
     0
  9
$MIRRTEXT
 70
     0
  9
$DRAGMODE
 70
     2
  9
$LTSCALE
 40
1.0
  9
$OSMODE
 70
   125
  9
$ATTMODE
 70
     1
  9
$TEXTSIZE
 40
0.2
  9
$TRACEWID
 40
0.05
  9
$TEXTSTYLE
  7
KANJI
  9
$CLAYER
  8
0
  9
$CELTYPE
  6
BYLAYER
  9
$CECOLOR
 62
   256
  9
$DIMSCALE
 40
1.0
  9
$DIMASZ
 40
22.5
  9
$DIMEXO
 40
5.0
  9
$DIMDLI
 40
40.0
  9
$DIMRND
 40
0.0
  9
$DIMDLE
 40
0.0
  9
$DIMEXE
 40
5.0
  9
$DIMTP
 40
0.0
  9
$DIMTM
 40
0.0
  9
$DIMTXT
 40
16.0
  9
$DIMCEN
 40
0.09
  9
$DIMTSZ
 40
0.0
  9
$DIMTOL
 70
     0
  9
$DIMLIM
 70
     0
  9
$DIMTIH
 70
     0
  9
$DIMTOH
 70
     0
  9
$DIMSE1
 70
     0
  9
$DIMSE2
 70
     0
  9
$DIMTAD
 70
     1
  9
$DIMZIN
 70
     0
  9
$DIMBLK
  1

  9
$DIMASO
 70
     1
  9
$DIMSHO
 70
     0
  9
$DIMPOST
  1

  9
$DIMAPOST
  1

  9
$DIMALT
 70
     0
  9
$DIMALTD
 70
     2
  9
$DIMALTF
 40
25.399999999999999
  9
$DIMLFAC
 40
1.0
  9
$DIMTOFL
 70
     0
  9
$DIMTVP
 40
0.0
  9
$DIMTIX
 70
     0
  9
$DIMSOXD
 70
     0
  9
$DIMSAH
 70
     0
  9
$DIMBLK1
  1

  9
$DIMBLK2
  1

  9
$DIMSTYLE
  2
STANDARD
  9
$DIMCLRD
 70
     0
  9
$DIMCLRE
 70
     0
  9
$DIMCLRT
 70
     0
  9
$DIMTFAC
 40
1.0
  9
$DIMGAP
 40
0.09
  9
$LUNITS
 70
     2
  9
$LUPREC
 70
     2
  9
$SKETCHINC
 40
0.1
  9
$FILLETRAD
 40
0.0
  9
$AUNITS
 70
     1
  9
$AUPREC
 70
     2
  9
$MENU
  1
ACAD
  9
$ELEVATION
 40
0.0
  9
$PELEVATION
 40
0.0
  9
$THICKNESS
 40
0.0
  9
$LIMCHECK
 70
     0
  9
$BLIPMODE
 70
     0
  9
$CHAMFERA
 40
0.0
  9
$CHAMFERB
 40
0.0
  9
$SKPOLY
 70
     0
  9
$TDCREATE
 40
2457134.7240649541
  9
$TDUPDATE
 40
2457134.7411987609
  9
$TDINDWG
 40
0.0171359606
  9
$TDUSRTIMER
 40
0.0171359606
  9
$USRTIMER
 70
     1
  9
$ANGBASE
 50
0.0
  9
$ANGDIR
 70
     0
  9
$PDMODE
 70
     0
  9
$PDSIZE
 40
0.0
  9
$PLINEWID
 40
0.0
  9
$COORDS
 70
     1
  9
$SPLFRAME
 70
     0
  9
$SPLINETYPE
 70
     6
  9
$SPLINESEGS
 70
     8
  9
$ATTDIA
 70
     1
  9
$ATTREQ
 70
     1
  9
$HANDLING
 70
     1
  9
$HANDSEED
  5
333
  9
$SURFTAB1
 70
     6
  9
$SURFTAB2
 70
     6
  9
$SURFTYPE
 70
     6
  9
$SURFU
 70
     6
  9
$SURFV
 70
     6
  9
$UCSNAME
  2

  9
$UCSORG
 10
0.0
 20
0.0
 30
0.0
  9
$UCSXDIR
 10
1.0
 20
0.0
 30
0.0
  9
$UCSYDIR
 10
0.0
 20
1.0
 30
0.0
  9
$PUCSNAME
  2

  9
$PUCSORG
 10
0.0
 20
0.0
 30
0.0
  9
$PUCSXDIR
 10
1.0
 20
0.0
 30
0.0
  9
$PUCSYDIR
 10
0.0
 20
1.0
 30
0.0
  9
$USERI1
 70
     0
  9
$USERI2
 70
     0
  9
$USERI3
 70
     0
  9
$USERI4
 70
     0
  9
$USERI5
 70
     0
  9
$USERR1
 40
0.0
  9
$USERR2
 40
0.0
  9
$USERR3
 40
0.0
  9
$USERR4
 40
0.0
  9
$USERR5
 40
0.0
  9
$WORLDVIEW
 70
     1
  9
$SHADEDGE
 70
     3
  9
$SHADEDIF
 70
    70
  9
$TILEMODE
 70
     1
  9
$MAXACTVP
 70
    64
  9
$PLIMCHECK
 70
     0
  9
$PEXTMIN
 10
1.0000000000000000E+020
 20
1.0000000000000000E+020
 30
1.0000000000000000E+020
  9
$PEXTMAX
 10
-1.0000000000000000E+020
 20
-1.0000000000000000E+020
 30
-1.0000000000000000E+020
  9
$PLIMMIN
 10
0.0
 20
0.0
  9
$PLIMMAX
 10
12.0
 20
9.0
  9
$UNITMODE
 70
     0
  9
$VISRETAIN
 70
     1
  9
$PLINEGEN
 70
     0
  9
$PSLTSCALE
 70
     1
  0
ENDSEC
  0
SECTION
  2
TABLES
  0
TABLE
  2
VPORT
 70
     1
  0
VPORT
  2
*ACTIVE
 70
     0
 10
0.0
 20
0.0
 11
1.0
 21
1.0
 12
122.7694225747511
 22
-218.13706397371101
 13
0.0
 23
0.0
 14
1.0
 24
1.0
 15
0.0
 25
0.0
 16
0.0
 26
0.0
 36
1.0
 17
0.0
 27
0.0
 37
0.0
 40
1853.076741742507
 41
1.8188302425106979
 42
50.0
 43
0.0
 44
0.0
 50
0.0
 51
0.0
 71
     0
 72
   100
 73
     1
 74
     1
 75
     0
 76
     0
 77
     0
 78
     0
  0
ENDTAB
  0
TABLE
  2
LTYPE
 70
     9
  0
LTYPE
  2
CONTINUOUS
 70
     0
  3
Solid line
 72
    65
 73
     0
 40
0.0
  0
LTYPE
  2
DASHED
 70
     0
  3
__ __ __ __ __ __ __ __ __ __ __ __ __ __ __
 72
    65
 73
     2
 40
0.75
 49
0.5
 49
-0.25
  0
LTYPE
  2
HIDDEN
 70
     0
  3
_ _ _ _ _ _ _ _ _ _ _ _ _ _ _ _ _ _ _ _ _ _ _
 72
    65
 73
     2
 40
0.375
 49
0.25
 49
-0.125
  0
LTYPE
  2
CENTER
 70
     0
  3
____ _ ____ _ ____ _ ____ _ ____ _ ____ _ ____
 72
    65
 73
     4
 40
2.0
 49
1.25
 49
-0.25
 49
0.25
 49
-0.25
  0
LTYPE
  2
PHANTOM
 70
     0
  3
_____ _ _ _____ _ _ _____ _ _ _____ _ _ ____
 72
    65
 73
     6
 40
2.5
 49
1.25
 49
-0.25
 49
0.25
 49
-0.25
 49
0.25
 49
-0.25
  0
LTYPE
  2
DOT
 70
     0
  3
...............................................
 72
    65
 73
     2
 40
0.25
 49
0.0
 49
-0.25
  0
LTYPE
  2
DASHDOT
 70
     0
  3
__ . __ . __ . __ . __ . __ . __ . __ . __ . __
 72
    65
 73
     4
 40
1.0
 49
0.5
 49
-0.25
 49
0.0
 49
-0.25
  0
LTYPE
  2
BORDER
 70
     0
  3
__ __ . __ __ . __ __ . __ __ . __ __ . __ __
 72
    65
 73
     6
 40
1.75
 49
0.5
 49
-0.25
 49
0.5
 49
-0.25
 49
0.0
 49
-0.25
  0
LTYPE
  2
DIVIDE
 70
     0
  3
__ . . __ . . __ . . __ . . __ . . __ . . __
 72
    65
 73
     6
 40
1.25
 49
0.5
 49
-0.25
 49
0.0
 49
-0.25
 49
0.0
 49
-0.25
  0
ENDTAB
  0
TABLE
  2
LAYER
 70
   100
  0
LAYER
  2
0
 70
     0
 62
     3
  6
CONTINUOUS
  0
LAYER
  2
1
 70
     0
 62
     3
  6
CONTINUOUS
  0
LAYER
  2
2
 70
     0
 62
     3
  6
CONTINUOUS
  0
LAYER
  2
3
 70
     0
 62
     3
  6
CONTINUOUS
  0
LAYER
  2
4
 70
     0
 62
     3
  6
CONTINUOUS
  0
LAYER
  2
5
 70
     0
 62
     3
  6
CONTINUOUS
  0
LAYER
  2
6
 70
     0
 62
     3
  6
CONTINUOUS
  0
LAYER
  2
7
 70
     0
 62
     3
  6
CONTINUOUS
  0
LAYER
  2
8
 70
     0
 62
     3
  6
CONTINUOUS
  0
LAYER
  2
9
 70
     0
 62
     3
  6
CONTINUOUS
  0
LAYER
  2
10
 70
     0
 62
     3
  6
CONTINUOUS
  0
LAYER
  2
11
 70
     0
 62
     3
  6
CONTINUOUS
  0
LAYER
  2
12
 70
     0
 62
     3
  6
CONTINUOUS
  0
LAYER
  2
13
 70
     0
 62
     3
  6
CONTINUOUS
  0
LAYER
  2
14
 70
     0
 62
     3
  6
CONTINUOUS
  0
LAYER
  2
15
 70
     0
 62
     3
  6
CONTINUOUS
  0
LAYER
  2
16
 70
     0
 62
     3
  6
CONTINUOUS
  0
LAYER
  2
17
 70
     0
 62
     3
  6
CONTINUOUS
  0
LAYER
  2
18
 70
     0
 62
     3
  6
CONTINUOUS
  0
LAYER
  2
19
 70
     0
 62
     3
  6
CONTINUOUS
  0
LAYER
  2
20
 70
     0
 62
     3
  6
CONTINUOUS
  0
LAYER
  2
21
 70
     0
 62
     3
  6
CONTINUOUS
  0
LAYER
  2
22
 70
     0
 62
     3
  6
CONTINUOUS
  0
LAYER
  2
23
 70
     0
 62
     3
  6
CONTINUOUS
  0
LAYER
  2
24
 70
     0
 62
     3
  6
CONTINUOUS
  0
LAYER
  2
25
 70
     0
 62
     3
  6
CONTINUOUS
  0
LAYER
  2
26
 70
     0
 62
     3
  6
CONTINUOUS
  0
LAYER
  2
27
 70
     0
 62
     3
  6
CONTINUOUS
  0
LAYER
  2
28
 70
     0
 62
     3
  6
CONTINUOUS
  0
LAYER
  2
29
 70
     0
 62
     3
  6
CONTINUOUS
  0
LAYER
  2
30
 70
     0
 62
     3
  6
CONTINUOUS
  0
LAYER
  2
31
 70
     0
 62
     3
  6
CONTINUOUS
  0
LAYER
  2
32
 70
     0
 62
     3
  6
CONTINUOUS
  0
LAYER
  2
33
 70
     0
 62
     3
  6
CONTINUOUS
  0
LAYER
  2
34
 70
     0
 62
     3
  6
CONTINUOUS
  0
LAYER
  2
35
 70
     0
 62
     3
  6
CONTINUOUS
  0
LAYER
  2
36
 70
     0
 62
     3
  6
CONTINUOUS
  0
LAYER
  2
37
 70
     0
 62
     3
  6
CONTINUOUS
  0
LAYER
  2
38
 70
     0
 62
     3
  6
CONTINUOUS
  0
LAYER
  2
39
 70
     0
 62
     3
  6
CONTINUOUS
  0
LAYER
  2
40
 70
     0
 62
     3
  6
CONTINUOUS
  0
LAYER
  2
41
 70
     0
 62
     3
  6
CONTINUOUS
  0
LAYER
  2
42
 70
     0
 62
     3
  6
CONTINUOUS
  0
LAYER
  2
43
 70
     0
 62
     3
  6
CONTINUOUS
  0
LAYER
  2
44
 70
     0
 62
     3
  6
CONTINUOUS
  0
LAYER
  2
45
 70
     0
 62
     3
  6
CONTINUOUS
  0
LAYER
  2
46
 70
     0
 62
     3
  6
CONTINUOUS
  0
LAYER
  2
47
 70
     0
 62
     3
  6
CONTINUOUS
  0
LAYER
  2
48
 70
     0
 62
     3
  6
CONTINUOUS
  0
LAYER
  2
49
 70
     0
 62
     3
  6
CONTINUOUS
  0
LAYER
  2
50
 70
     0
 62
     3
  6
CONTINUOUS
  0
LAYER
  2
51
 70
     0
 62
     3
  6
CONTINUOUS
  0
LAYER
  2
52
 70
     0
 62
     3
  6
CONTINUOUS
  0
LAYER
  2
53
 70
     0
 62
     3
  6
CONTINUOUS
  0
LAYER
  2
54
 70
     0
 62
     3
  6
CONTINUOUS
  0
LAYER
  2
55
 70
     0
 62
     3
  6
CONTINUOUS
  0
LAYER
  2
56
 70
     0
 62
     3
  6
CONTINUOUS
  0
LAYER
  2
57
 70
     0
 62
     3
  6
CONTINUOUS
  0
LAYER
  2
58
 70
     0
 62
     3
  6
CONTINUOUS
  0
LAYER
  2
59
 70
     0
 62
     3
  6
CONTINUOUS
  0
LAYER
  2
60
 70
     0
 62
     3
  6
CONTINUOUS
  0
LAYER
  2
61
 70
     0
 62
     3
  6
CONTINUOUS
  0
LAYER
  2
62
 70
     0
 62
     3
  6
CONTINUOUS
  0
LAYER
  2
63
 70
     0
 62
     3
  6
CONTINUOUS
  0
LAYER
  2
64
 70
     0
 62
     3
  6
CONTINUOUS
  0
LAYER
  2
65
 70
     0
 62
     3
  6
CONTINUOUS
  0
LAYER
  2
66
 70
     0
 62
     3
  6
CONTINUOUS
  0
LAYER
  2
67
 70
     0
 62
     3
  6
CONTINUOUS
  0
LAYER
  2
68
 70
     0
 62
     3
  6
CONTINUOUS
  0
LAYER
  2
69
 70
     0
 62
     3
  6
CONTINUOUS
  0
LAYER
  2
70
 70
     0
 62
     3
  6
CONTINUOUS
  0
LAYER
  2
71
 70
     0
 62
     3
  6
CONTINUOUS
  0
LAYER
  2
72
 70
     0
 62
     3
  6
CONTINUOUS
  0
LAYER
  2
73
 70
     0
 62
     3
  6
CONTINUOUS
  0
LAYER
  2
74
 70
     0
 62
     3
  6
CONTINUOUS
  0
LAYER
  2
75
 70
     0
 62
     3
  6
CONTINUOUS
  0
LAYER
  2
76
 70
     0
 62
     3
  6
CONTINUOUS
  0
LAYER
  2
77
 70
     0
 62
     3
  6
CONTINUOUS
  0
LAYER
  2
78
 70
     0
 62
     3
  6
CONTINUOUS
  0
LAYER
  2
79
 70
     0
 62
     3
  6
CONTINUOUS
  0
LAYER
  2
80
 70
     0
 62
     3
  6
CONTINUOUS
  0
LAYER
  2
81
 70
     0
 62
     3
  6
CONTINUOUS
  0
LAYER
  2
82
 70
     0
 62
     3
  6
CONTINUOUS
  0
LAYER
  2
83
 70
     0
 62
     3
  6
CONTINUOUS
  0
LAYER
  2
84
 70
     0
 62
     3
  6
CONTINUOUS
  0
LAYER
  2
85
 70
     0
 62
     3
  6
CONTINUOUS
  0
LAYER
  2
86
 70
     0
 62
     3
  6
CONTINUOUS
  0
LAYER
  2
87
 70
     0
 62
     3
  6
CONTINUOUS
  0
LAYER
  2
88
 70
     0
 62
     3
  6
CONTINUOUS
  0
LAYER
  2
89
 70
     0
 62
     3
  6
CONTINUOUS
  0
LAYER
  2
90
 70
     0
 62
     3
  6
CONTINUOUS
  0
LAYER
  2
91
 70
     0
 62
     3
  6
CONTINUOUS
  0
LAYER
  2
92
 70
     0
 62
     3
  6
CONTINUOUS
  0
LAYER
  2
93
 70
     0
 62
     3
  6
CONTINUOUS
  0
LAYER
  2
94
 70
     0
 62
     3
  6
CONTINUOUS
  0
LAYER
  2
95
 70
     0
 62
     3
  6
CONTINUOUS
  0
LAYER
  2
96
 70
     0
 62
     3
  6
CONTINUOUS
  0
LAYER
  2
97
 70
     0
 62
     3
  6
CONTINUOUS
  0
LAYER
  2
98
 70
     0
 62
     3
  6
CONTINUOUS
  0
LAYER
  2
99
 70
     0
 62
     3
  6
CONTINUOUS
  0
ENDTAB
  0
TABLE
  2
STYLE
 70
     3
  0
STYLE
  2
STANDARD
 70
     0
 40
0.0
 41
1.0
 50
0.0
 71
     0
 42
0.2
  3
TXT
  4
BIGFONT
  0
STYLE
  2
ANNOTATIVE
 70
     0
 40
0.0
 41
1.0
 50
0.0
 71
     0
 42
0.2
  3
txt
  4

  0
STYLE
  2
KANJI
 70
     0
 40
4.5
 41
1.0
 50
0.0
 71
     0
 42
0.2
  3
TXT
  4
BIGFONT
  0
ENDTAB
  0
TABLE
  2
VIEW
 70
     0
  0
ENDTAB
  0
TABLE
  2
UCS
 70
     0
  0
ENDTAB
  0
TABLE
  2
APPID
 70
     4
  0
APPID
  2
ACAD
 70
     0
  0
APPID
  2
ACADANNOTATIVE
 70
     0
  0
APPID
  2
ACAD_NAV_VCDISPLAY
 70
     0
  0
APPID
  2
ACAD_MLEADERVER
 70
     0
  0
ENDTAB
  0
TABLE
  2
DIMSTYLE
 70
     2
  0
DIMSTYLE
  2
STANDARD
 70
     0
  3

  4

  5

  6

  7

 40
1.0
 41
0.18
 42
0.0625
 43
0.38
 44
0.18
 45
0.0
 46
0.0
 47
0.0
 48
0.0
140
0.18
141
0.09
142
0.0
143
25.399999999999999
144
1.0
145
0.0
146
1.0
147
0.09
 71
     0
 72
     0
 73
     1
 74
     1
 75
     0
 76
     0
 77
     0
 78
     0
170
     0
171
     2
172
     0
173
     0
174
     0
175
     0
176
     0
177
     0
178
     0
  0
DIMSTYLE
  2
ANNOTATIVE
 70
     0
  3

  4

  5

  6

  7

 40
1.0
 41
0.18
 42
0.0625
 43
0.38
 44
0.18
 45
0.0
 46
0.0
 47
0.0
 48
0.0
140
0.18
141
0.09
142
0.0
143
25.399999999999999
144
1.0
145
0.0
146
1.0
147
0.09
 71
     0
 72
     0
 73
     1
 74
     1
 75
     0
 76
     0
 77
     0
 78
     0
170
     0
171
     2
172
     0
173
     0
174
     0
175
     0
176
     0
177
     0
178
     0
  0
ENDTAB
  0
ENDSEC
  0
SECTION
  2
BLOCKS
  0
BLOCK
  8
0
  2
$MODEL_SPACE
 70
     0
 10
0.0
 20
0.0
 30
0.0
  3
$MODEL_SPACE
  1

  0
ENDBLK
  5
71
  8
0
  0
BLOCK
 67
     1
  8
0
  2
$PAPER_SPACE
 70
     0
 10
0.0
 20
0.0
 30
0.0
  3
$PAPER_SPACE
  1

  0
ENDBLK
  5
6D
 67
     1
  8
0
  0
BLOCK
  8
0
  2
D0
 70
     0
 10
0.0
 20
0.0
 30
0.0
  3
D0
  1

  0
TEXT
  5
E4
  8
0
 62
     7
 10
1244.7415410000001
 20
739.07808099999988
 30
0.0
 40
16.0
  1
150
 50
90.0
 41
0.8076923076923078
 72
     5
 11
1244.7415410000001
 21
767.078081
 31
0.0
  0
LINE
  5
E5
  8
0
  6
CONTINUOUS
 62
     7
 10
1197.4611789999999
 20
678.078081
 30
0.0
 11
1252.4082069999999
 21
678.078081
 31
0.0
  0
LINE
  5
E6
  8
0
  6
CONTINUOUS
 62
     7
 10
1197.4611789999999
 20
828.07808099999988
 30
0.0
 11
1252.4082069999999
 21
828.07808099999988
 31
0.0
  0
LINE
  5
E7
  8
0
  6
CONTINUOUS
 62
     7
 10
1247.4082069999999
 20
828.07808099999988
 30
0.0
 11
1247.4082069999999
 21
678.078081
 31
0.0
  0
LINE
  5
E8
  8
0
  6
CONTINUOUS
 62
     7
 10
1247.4082069999999
 20
828.07808099999988
 30
0.0
 11
1253.231636
 21
806.34474999999998
 31
0.0
  0
LINE
  5
E9
  8
0
  6
CONTINUOUS
 62
     7
 10
1247.4082069999999
 20
828.07808099999988
 30
0.0
 11
1241.5847779999999
 21
806.34474999999998
 31
0.0
  0
LINE
  5
EA
  8
0
  6
CONTINUOUS
 62
     7
 10
1247.4082069999999
 20
678.078081
 30
0.0
 11
1241.5847779999999
 21
699.81141200000002
 31
0.0
  0
LINE
  5
EB
  8
0
  6
CONTINUOUS
 62
     7
 10
1247.4082069999999
 20
678.078081
 30
0.0
 11
1253.231636
 21
699.81141200000002
 31
0.0
  0
ENDBLK
  5
EC
  8
0
  0
ENDSEC
  0
SECTION
  2
ENTITIES
  0
TEXT
  5
ED
  8
0
 62
     6
 10
375.55984699999999
 20
-788.53837199999998
 30
0.0
 40
22.5
  1
メカニカル形（Ｓ＝１／５）
 41
0.75
  7
KANJI
 72
     5
 11
625.30984699999999
 21
-788.53837199999998
 31
0.0
  0
TEXT
  5
EE
  8
0
 62
     6
 10
400.55984699999988
 20
-826.87170500000013
 30
0.0
 40
22.5
  1
\U+03C6２００　Ｓ
 41
0.8398692810457514
  7
KANJI
 72
     5
 11
529.05984699999988
 21
-826.87170500000013
 31
0.0
  0
POINT
  5
EF
  8
0
 62
     1
 10
-1049.5
 20
-1166.244747
 30
0.0
  0
LINE
  5
F0
  8
0
  6
CENTER
 62
     2
 10
178.837649
 20
0.0
 30
0.0
 11
-169.88960999999989
 21
0.0
 31
0.0
  0
LINE
  5
F1
  8
3
  6
CENTER
 62
     2
 10
0.0
 20
-175.008093
 30
0.0
 11
0.0
 21
175.7781709999999
 31
0.0
  0
LINE
  5
F2
  8
3
  6
CENTER
 62
     2
 10
0.0
 20
-275.1504809999999
 30
0.0
 11
0.0
 21
-559.09242599999993
 31
0.0
  0
ARC
  5
F3
  8
1
  6
CONTINUOUS
 62
     4
 10
158.5
 20
-384.9042869999999
 30
0.0
 40
35.0
 50
161.27205899999299
 51
180.0
  0
LINE
  5
F4
  8
0
  6
CONTINUOUS
 62
     3
 10
-124.707658
 20
85.850000000000136
 30
0.0
 11
-112.713206
 21
78.925000000000182
 31
0.0
  0
LINE
  5
F5
  8
1
  6
CONTINUOUS
 62
     4
 10
123.5
 20
-384.9042869999999
 30
0.0
 11
123.5
 21
-442.42904599999991
 31
0.0
  0
ARC
  5
F6
  8
1
  6
CONTINUOUS
 62
     4
 10
-158.5
 20
-384.9042869999999
 30
0.0
 40
35.0
 50
0.0
 51
18.727941000006979
  0
LINE
  5
F7
  8
0
  6
CONTINUOUS
 62
     3
 10
-112.713206
 20
78.925000000000182
 30
0.0
 11
-112.713206
 21
65.075000000000045
 31
0.0
  0
LINE
  5
F8
  8
1
  6
CONTINUOUS
 62
     4
 10
-123.5
 20
-384.9042869999999
 30
0.0
 11
-123.5
 21
-442.42904599999991
 31
0.0
  0
ARC
  5
F9
  8
0
  6
CENTER
 62
     4
 10
0.0
 20
0.0
 30
0.0
 40
144.0
 50
140.0587159999935
 51
160.2709759999978
  0
LINE
  5
FA
  8
1
  6
CONTINUOUS
 62
     4
 10
-134.95765800000001
 20
89.753521000000092
 30
0.0
 11
-10.25
 21
161.75352100000009
 31
0.0
  0
LINE
  5
FB
  8
1
  6
CONTINUOUS
 62
     4
 10
10.25
 20
161.75352100000009
 30
0.0
 11
134.95765800000001
 21
89.753521000000092
 31
0.0
  0
LINE
  5
FC
  8
1
  6
CONTINUOUS
 62
     4
 10
-145.20765800000001
 20
72.0
 30
0.0
 11
-145.20765800000001
 21
-72.0
 31
0.0
  0
ARC
  5
FD
  8
0
  6
CENTER
 62
     4
 10
0.0
 20
0.0
 30
0.0
 40
144.0
 50
79.006346999994349
 51
101.7227379999953
  0
CIRCLE
  5
FE
  8
1
  6
CONTINUOUS
 62
     3
 10
-124.707658
 20
72.0
 30
0.0
 40
6.9175000000000004
  0
LINE
  5
FF
  8
1
  6
CENTER
 62
     4
 10
-147.7037369999999
 20
85.276792000000114
 30
0.0
 11
-104.8242179999999
 21
60.520291000000043
 31
0.0
  0
LINE
  5
100
  8
1
  6
CENTER
 62
     4
 10
147.70373699999979
 20
85.276792000000114
 30
0.0
 11
104.226124
 21
60.174980999999889
 31
0.0
  0
CIRCLE
  5
101
  8
1
  6
CONTINUOUS
 62
     3
 10
-124.707658
 20
72.0
 30
0.0
 40
8.0
  0
CIRCLE
  5
102
  8
0
  6
CONTINUOUS
 62
     3
 10
0.0
 20
144.0
 30
0.0
 40
12.0
  0
LINE
  5
103
  8
0
  6
CONTINUOUS
 62
     3
 10
11.99445199999991
 20
137.07499999999999
 30
0.0
 11
0.0
 21
130.15000000000009
 31
0.0
  0
LINE
  5
104
  8
0
  6
CONTINUOUS
 62
     3
 10
0.0
 20
130.15000000000009
 30
0.0
 11
-11.99445199999991
 21
137.07499999999999
 31
0.0
  0
ARC
  5
105
  8
1
  6
CONTINUOUS
 62
     4
 10
-124.707658
 20
72.0
 30
0.0
 40
20.5
 50
119.9999999999972
 51
180.0
  0
LINE
  5
106
  8
0
  6
CONTINUOUS
 62
     3
 10
-11.99445199999991
 20
137.07499999999999
 30
0.0
 11
-11.99445199999991
 21
150.9250000000001
 31
0.0
  0
LINE
  5
107
  8
0
  6
CONTINUOUS
 62
     6
 10
-123.5
 20
-332.66666600000002
 30
0.0
 11
-123.5
 21
-338.66666599999991
 31
0.0
  0
ARC
  5
108
  8
1
  6
CONTINUOUS
 62
     4
 10
0.0
 20
144.0
 30
0.0
 40
20.5
 50
60.000000000002721
 51
119.9999999999972
  0
POINT
  5
109
  8
0
 62
     3
 10
0.0
 20
144.0
 30
0.0
  0
LINE
  5
10A
  8
0
  6
CONTINUOUS
 62
     4
 10
-145.20765800000001
 20
-338.66666599999991
 30
0.0
 11
-145.20765800000001
 21
-359.66666600000002
 31
0.0
  0
LINE
  5
10B
  8
0
  6
CONTINUOUS
 62
     3
 10
-11.99445199999991
 20
150.9250000000001
 30
0.0
 11
0.0
 21
157.85000000000011
 31
0.0
  0
LINE
  5
10C
  8
0
  6
CONTINUOUS
 62
     3
 10
0.0
 20
157.85000000000011
 30
0.0
 11
11.99445199999991
 21
150.9250000000001
 31
0.0
  0
ARC
  5
10D
  8
0
  6
CENTER
 62
     4
 10
0.0
 20
0.0
 30
0.0
 40
144.0
 50
23.448653999994189
 51
46.019487000003451
  0
LINE
  5
10E
  8
0
  6
CONTINUOUS
 62
     4
 10
142.4611789999999
 20
-338.66666599999991
 30
0.0
 11
142.4611789999999
 21
-359.66666600000002
 31
0.0
  0
LINE
  5
10F
  8
1
  6
CONTINUOUS
 62
     4
 10
-145.20765800000001
 20
-359.66666600000002
 30
0.0
 11
142.4611789999999
 21
-359.66666600000002
 31
0.0
  0
LINE
  5
110
  8
1
  6
CONTINUOUS
 62
     4
 10
-145.20765800000001
 20
-338.66666599999991
 30
0.0
 11
142.4611789999999
 21
-338.66666599999991
 31
0.0
  0
LINE
  5
112
  8
0
  6
CONTINUOUS
 62
     3
 10
11.99445199999991
 20
150.9250000000001
 30
0.0
 11
11.99445199999991
 21
137.07499999999999
 31
0.0
  0
CIRCLE
  5
113
  8
1
  6
CONTINUOUS
 62
     3
 10
0.0
 20
144.0
 30
0.0
 40
6.9175000000000004
  0
CIRCLE
  5
114
  8
1
  6
CONTINUOUS
 62
     3
 10
0.0
 20
144.0
 30
0.0
 40
8.0
  0
LINE
  5
115
  8
0
  6
CONTINUOUS
 62
     7
 10
116.8722640000001
 20
-442.42904599999991
 30
0.0
 11
-116.9852460000001
 21
-442.42904599999991
 31
0.0
  0
LINE
  5
116
  8
1
  6
CONTINUOUS
 62
     4
 10
-145.20765800000001
 20
-488.66666599999991
 30
0.0
 11
142.4611789999999
 21
-488.66666599999991
 31
0.0
  0
LINE
  5
117
  8
1
  6
CONTINUOUS
 62
     4
 10
-145.20765800000001
 20
-467.66666599999991
 30
0.0
 11
142.4611789999999
 21
-467.66666599999991
 31
0.0
  0
LINE
  5
118
  8
0
  6
CONTINUOUS
 62
     4
 10
142.4611789999999
 20
-488.66666599999991
 30
0.0
 11
142.4611789999999
 21
-467.66666599999991
 31
0.0
  0
LINE
  5
119
  8
0
  6
CONTINUOUS
 62
     4
 10
-145.20765800000001
 20
-488.66666599999991
 30
0.0
 11
-145.20765800000001
 21
-467.66666599999991
 31
0.0
  0
LINE
  5
11A
  8
0
  6
CONTINUOUS
 62
     2
 10
-114.457658
 20
-89.753519999999995
 30
0.0
 11
-99.969383999999991
 21
-81.388711000000058
 31
0.0
  0
ARC
  5
11B
  8
0
  6
CONTINUOUS
 62
     2
 10
-123.46938400000001
 20
-40.685516999999876
 30
0.0
 40
6.0
 50
299.99999999999733
 51
18.238037999993558
  0
ARC
  5
11C
  8
0
  6
CONTINUOUS
 62
     2
 10
-96.969384000000005
 20
-86.584863999999925
 30
0.0
 40
6.0
 50
41.761961999999379
 51
119.9999999999972
  0
CIRCLE
  5
11D
  8
0
  6
CONTINUOUS
 62
     2
 10
0.0
 20
0.0
 30
0.0
 40
115.57847599999999
  0
ARC
  5
11E
  8
0
  6
CONTINUOUS
 62
     2
 10
-96.969384000000005
 20
86.584863999999925
 30
0.0
 40
6.0
 50
240.0000000000027
 51
318.23803800000059
  0
LINE
  5
11F
  8
0
  6
CONTINUOUS
 62
     2
 10
-114.457658
 20
89.753521000000092
 30
0.0
 11
-99.969383999999991
 21
81.388711999999956
 31
0.0
  0
ARC
  5
120
  8
0
  6
CONTINUOUS
 62
     2
 10
-124.707658
 20
72.0
 30
0.0
 40
20.5
 50
60.000000000002721
 51
240.0000000000027
  0
ARC
  5
121
  8
1
  6
CONTINUOUS
 62
     4
 10
-158.5
 20
-442.42904599999991
 30
0.0
 40
35.0
 50
341.27205899999302
 51
0.0
  0
LINE
  5
122
  8
0
  6
CONTINUOUS
 62
     2
 10
-134.95765800000001
 20
54.24648000000002
 30
0.0
 11
-120.46938400000001
 21
45.881669999999978
 31
0.0
  0
ARC
  5
123
  8
1
  6
CONTINUOUS
 62
     4
 10
158.5
 20
-442.42904599999991
 30
0.0
 40
35.0
 50
180.0
 51
198.72794100000701
  0
LINE
  5
124
  8
0
  6
CONTINUOUS
 62
     7
 10
116.8722640000001
 20
-384.9042869999999
 30
0.0
 11
-116.9852460000001
 21
-384.9042869999999
 31
0.0
  0
ARC
  5
125
  8
1
  6
CONTINUOUS
 62
     4
 10
124.707658
 20
72.0
 30
0.0
 40
20.5
 50
0.0
 51
60.000000000002721
  0
LINE
  5
126
  8
1
  6
CONTINUOUS
 62
     4
 10
145.20765800000001
 20
72.0
 30
0.0
 11
145.20765800000001
 21
-72.0
 31
0.0
  0
ARC
  5
127
  8
0
  6
CENTER
 62
     4
 10
0.0
 20
0.0
 30
0.0
 40
144.0
 50
318.8884769999994
 51
336.55134600000582
  0
ARC
  5
128
  8
0
  6
CONTINUOUS
 62
     2
 10
-123.46938400000001
 20
40.685518000000002
 30
0.0
 40
6.0
 50
341.76196200000652
 51
60.000000000002721
  0
CIRCLE
  5
129
  8
0
  6
CONTINUOUS
 62
     2
 10
0.0
 20
0.0
 30
0.0
 40
113.0
  0
ARC
  5
12A
  8
0
  6
CONTINUOUS
 62
     2
 10
0.0
 20
0.0
 30
0.0
 40
124.0
 50
161.76196200000641
 51
198.2380369999986
  0
ARC
  5
12B
  8
1
  6
CONTINUOUS
 62
     4
 10
0.0
 20
-143.99999999999989
 30
0.0
 40
20.5
 50
240.0000000000027
 51
299.99999999999733
  0
ARC
  5
12C
  8
1
  6
CONTINUOUS
 62
     4
 10
-124.707658
 20
-72.0
 30
0.0
 40
20.5
 50
180.0
 51
240.0000000000027
  0
LINE
  5
12D
  8
1
  6
CENTER
 62
     4
 10
147.70373699999979
 20
-85.276791999999887
 30
0.0
 11
104.226124
 21
-60.174979999999998
 31
0.0
  0
LINE
  5
12E
  8
1
  6
CENTER
 62
     4
 10
-147.7037369999999
 20
-85.276791999999887
 30
0.0
 11
-104.8242179999999
 21
-60.520289999999932
 31
0.0
  0
ARC
  5
12F
  8
0
  6
CENTER
 62
     4
 10
0.0
 20
0.0
 30
0.0
 40
144.0
 50
258.27726200000473
 51
280.99365300000562
  0
LINE
  5
130
  8
1
  6
CONTINUOUS
 62
     4
 10
10.25
 20
-161.75352000000001
 30
0.0
 11
134.95765800000001
 21
-89.753519999999995
 31
0.0
  0
LINE
  5
131
  8
1
  6
CONTINUOUS
 62
     4
 10
-134.95765800000001
 20
-89.753519999999995
 30
0.0
 11
-10.25
 21
-161.75352000000001
 31
0.0
  0
ARC
  5
132
  8
0
  6
CENTER
 62
     4
 10
0.0
 20
0.0
 30
0.0
 40
144.0
 50
195.35266899999669
 51
225.5911429999926
  0
ARC
  5
133
  8
1
  6
CONTINUOUS
 62
     4
 10
124.707658
 20
-72.0
 30
0.0
 40
20.5
 50
299.99999999999733
 51
0.0
  0
ARC
  5
134
  8
0
  6
CONTINUOUS
 62
     2
 10
0.0
 20
144.0
 30
0.0
 40
20.5
 50
0.0
 51
180.0
  0
LINE
  5
135
  8
0
  6
CONTINUOUS
 62
     2
 10
-20.5
 20
144.0
 30
0.0
 11
-20.5
 21
127.2703819999999
 31
0.0
  0
LINE
  5
136
  8
0
  6
CONTINUOUS
 62
     3
 10
-136.70210999999989
 20
78.925000000000182
 30
0.0
 11
-124.707658
 21
85.850000000000136
 31
0.0
  0
POINT
  5
137
  8
0
 62
     3
 10
-124.707658
 20
72.0
 30
0.0
  0
LINE
  5
138
  8
0
  6
CONTINUOUS
 62
     3
 10
-136.70210999999989
 20
65.075000000000045
 30
0.0
 11
-136.70210999999989
 21
78.925000000000182
 31
0.0
  0
LINE
  5
139
  8
0
  6
CONTINUOUS
 62
     3
 10
-124.707658
 20
58.150000000000091
 30
0.0
 11
-136.70210999999989
 21
65.075000000000045
 31
0.0
  0
LINE
  5
13A
  8
0
  6
CONTINUOUS
 62
     3
 10
-112.713206
 20
65.075000000000045
 30
0.0
 11
-124.707658
 21
58.150000000000091
 31
0.0
  0
CIRCLE
  5
13B
  8
0
  6
CONTINUOUS
 62
     3
 10
-124.707658
 20
72.0
 30
0.0
 40
12.0
  0
CIRCLE
  5
13C
  8
1
  6
CONTINUOUS
 62
     3
 10
-124.707658
 20
-72.0
 30
0.0
 40
8.0
  0
CIRCLE
  5
13D
  8
1
  6
CONTINUOUS
 62
     3
 10
-124.707658
 20
-72.0
 30
0.0
 40
6.9175000000000004
  0
LINE
  5
13E
  8
0
  6
CONTINUOUS
 62
     3
 10
-112.713206
 20
-65.074999999999818
 30
0.0
 11
-112.713206
 21
-78.924999999999955
 31
0.0
  0
LINE
  5
13F
  8
0
  6
CONTINUOUS
 62
     3
 10
-124.707658
 20
-58.149999999999871
 30
0.0
 11
-112.713206
 21
-65.074999999999818
 31
0.0
  0
LINE
  5
140
  8
0
  6
CONTINUOUS
 62
     3
 10
-136.70210999999989
 20
-65.074999999999818
 30
0.0
 11
-124.707658
 21
-58.149999999999871
 31
0.0
  0
POINT
  5
141
  8
0
 62
     3
 10
-124.707658
 20
-72.0
 30
0.0
  0
LINE
  5
142
  8
0
  6
CONTINUOUS
 62
     3
 10
-136.70210999999989
 20
-78.924999999999955
 30
0.0
 11
-136.70210999999989
 21
-65.074999999999818
 31
0.0
  0
LINE
  5
143
  8
0
  6
CONTINUOUS
 62
     3
 10
-124.707658
 20
-85.849999999999909
 30
0.0
 11
-136.70210999999989
 21
-78.924999999999955
 31
0.0
  0
LINE
  5
144
  8
0
  6
CONTINUOUS
 62
     3
 10
-112.713206
 20
-78.924999999999955
 30
0.0
 11
-124.707658
 21
-85.849999999999909
 31
0.0
  0
CIRCLE
  5
145
  8
0
  6
CONTINUOUS
 62
     3
 10
-124.707658
 20
-72.0
 30
0.0
 40
12.0
  0
CIRCLE
  5
146
  8
1
  6
CONTINUOUS
 62
     3
 10
0.0
 20
-143.99999999999989
 30
0.0
 40
8.0
  0
CIRCLE
  5
147
  8
1
  6
CONTINUOUS
 62
     3
 10
0.0
 20
-143.99999999999989
 30
0.0
 40
6.9175000000000004
  0
LINE
  5
148
  8
0
  6
CONTINUOUS
 62
     3
 10
11.99445199999991
 20
-137.07499999999979
 30
0.0
 11
11.99445199999991
 21
-150.92499999999981
 31
0.0
  0
LINE
  5
149
  8
0
  6
CONTINUOUS
 62
     3
 10
0.0
 20
-130.14999999999981
 30
0.0
 11
11.99445199999991
 21
-137.07499999999979
 31
0.0
  0
LINE
  5
14A
  8
0
  6
CONTINUOUS
 62
     3
 10
-11.99445199999991
 20
-137.07499999999979
 30
0.0
 11
0.0
 21
-130.14999999999981
 31
0.0
  0
POINT
  5
14B
  8
0
 62
     3
 10
0.0
 20
-143.99999999999989
 30
0.0
  0
LINE
  5
14C
  8
0
  6
CONTINUOUS
 62
     3
 10
-11.99445199999991
 20
-150.92499999999981
 30
0.0
 11
-11.99445199999991
 21
-137.07499999999979
 31
0.0
  0
LINE
  5
14D
  8
0
  6
CONTINUOUS
 62
     3
 10
0.0
 20
-157.84999999999991
 30
0.0
 11
-11.99445199999991
 21
-150.92499999999981
 31
0.0
  0
LINE
  5
14E
  8
0
  6
CONTINUOUS
 62
     3
 10
11.99445199999991
 20
-150.92499999999981
 30
0.0
 11
0.0
 21
-157.84999999999991
 31
0.0
  0
CIRCLE
  5
14F
  8
0
  6
CONTINUOUS
 62
     3
 10
0.0
 20
-143.99999999999989
 30
0.0
 40
12.0
  0
ARC
  5
150
  8
0
  6
CONTINUOUS
 62
     2
 10
-124.707658
 20
-72.0
 30
0.0
 40
20.5
 50
119.9999999999972
 51
299.99999999999733
  0
LINE
  5
151
  8
0
  6
CONTINUOUS
 62
     2
 10
-134.95765800000001
 20
-54.246478999999908
 30
0.0
 11
-120.46938400000001
 21
-45.881669999999978
 31
0.0
  0
ARC
  5
152
  8
0
  6
CONTINUOUS
 62
     2
 10
-26.5
 20
127.2703819999999
 30
0.0
 40
6.0
 50
281.76196199999879
 51
0.0
  0
ARC
  5
153
  8
0
  6
CONTINUOUS
 62
     2
 10
-26.5
 20
-127.270381
 30
0.0
 40
6.0
 50
0.0
 51
78.238038000001154
  0
LINE
  5
154
  8
0
  6
CONTINUOUS
 62
     2
 10
-20.5
 20
-143.99999999999989
 30
0.0
 11
-20.5
 21
-127.270381
 31
0.0
  0
ARC
  5
155
  8
0
  6
CONTINUOUS
 62
     2
 10
0.0
 20
-143.99999999999989
 30
0.0
 40
20.5
 50
180.0
 51
0.0
  0
ARC
  5
156
  8
0
  6
CONTINUOUS
 62
     2
 10
0.0
 20
0.0
 30
0.0
 40
124.0
 50
221.76196199999939
 51
258.23803699999752
  0
ARC
  5
157
  8
0
  6
CONTINUOUS
 62
     2
 10
0.0
 20
0.0
 30
0.0
 40
124.0
 50
101.7619619999988
 51
138.23803699999431
  0
LINE
  5
158
  8
0
  6
CONTINUOUS
 62
     6
 10
123.5
 20
-332.66666600000002
 30
0.0
 11
123.5
 21
-338.66666599999991
 31
0.0
  0
LINE
  5
159
  8
2
  6
CENTER
 62
     2
 10
124.707658
 20
-275.209677
 30
0.0
 11
124.707658
 21
-379.33355299999988
 31
0.0
  0
LINE
  5
15A
  8
0
  6
CONTINUOUS
 62
     2
 10
145.20765800000001
 20
-323.66666600000002
 30
0.0
 11
-145.20765800000001
 21
-323.66666600000002
 31
0.0
  0
LINE
  5
15B
  8
0
  6
CONTINUOUS
 62
     2
 10
145.20765800000001
 20
-302.66666600000002
 30
0.0
 11
-145.20765800000001
 21
-302.66666600000002
 31
0.0
  0
LINE
  5
15C
  8
0
  6
CONTINUOUS
 62
     2
 10
8.0
 20
-332.66666600000002
 30
0.0
 11
116.707658
 21
-332.66666600000002
 31
0.0
  0
LINE
  5
15D
  8
0
  6
CONTINUOUS
 62
     3
 10
132.70765800000001
 20
-286.66666599999991
 30
0.0
 11
116.707658
 21
-286.66666599999991
 31
0.0
  0
ARC
  5
15E
  8
0
  6
CONTINUOUS
 62
     3
 10
124.707658
 20
-301.66666600000002
 30
0.0
 40
17.0
 50
61.92751299999248
 51
118.0724870000075
  0
LINE
  5
15F
  8
0
  6
CONTINUOUS
 62
     3
 10
116.707658
 20
-286.66666599999991
 30
0.0
 11
116.707658
 21
-289.66666600000002
 31
0.0
  0
LINE
  5
160
  8
0
  6
CONTINUOUS
 62
     3
 10
117.79015800000001
 20
-286.66666599999991
 30
0.0
 11
117.79015800000001
 21
-289.66666600000002
 31
0.0
  0
LINE
  5
161
  8
0
  6
CONTINUOUS
 62
     3
 10
131.625158
 20
-286.66666599999991
 30
0.0
 11
131.625158
 21
-289.66666600000002
 31
0.0
  0
LINE
  5
162
  8
0
  6
CONTINUOUS
 62
     3
 10
132.70765800000001
 20
-286.66666599999991
 30
0.0
 11
132.70765800000001
 21
-289.66666600000002
 31
0.0
  0
LINE
  5
163
  8
0
  6
CONTINUOUS
 62
     3
 10
132.70765800000001
 20
-323.66666600000002
 30
0.0
 11
132.70765800000001
 21
-338.66666599999991
 31
0.0
  0
LINE
  5
164
  8
0
  6
CONTINUOUS
 62
     3
 10
116.707658
 20
-323.66666600000002
 30
0.0
 11
116.707658
 21
-338.66666599999991
 31
0.0
  0
LINE
  5
165
  8
0
  6
CONTINUOUS
 62
     3
 10
131.63265799999999
 20
-302.66666600000002
 30
0.0
 11
131.63265799999999
 21
-290.73476399999993
 31
0.0
  0
LINE
  5
166
  8
0
  6
CONTINUOUS
 62
     3
 10
138.55765799999989
 20
-302.66666600000002
 30
0.0
 11
138.55765799999989
 21
-290.73476399999993
 31
0.0
  0
LINE
  5
167
  8
0
  6
CONTINUOUS
 62
     3
 10
135.27759000000009
 20
-289.66666600000002
 30
0.0
 11
114.50259
 21
-289.66666600000002
 31
0.0
  0
POINT
  5
168
  8
0
 62
     3
 10
124.707658
 20
-302.66666600000002
 30
0.0
  0
LINE
  5
169
  8
0
  6
CONTINUOUS
 62
     3
 10
117.7826580000001
 20
-302.66666600000002
 30
0.0
 11
117.7826580000001
 21
-290.73476399999993
 31
0.0
  0
LINE
  5
16A
  8
0
  6
CONTINUOUS
 62
     3
 10
110.8576579999999
 20
-302.66666600000002
 30
0.0
 11
110.8576579999999
 21
-290.73476399999993
 31
0.0
  0
ARC
  5
16B
  8
0
  6
CONTINUOUS
 62
     3
 10
135.09515800000011
 20
-295.79740499999991
 30
0.0
 40
6.1334519999999992
 50
55.630539000001747
 51
124.3694609999982
  0
ARC
  5
16C
  8
0
  6
CONTINUOUS
 62
     3
 10
124.707658
 20
-312.64979099999988
 30
0.0
 40
22.983124
 50
72.463816000002879
 51
107.53618300000031
  0
ARC
  5
16D
  8
0
  6
CONTINUOUS
 62
     3
 10
114.32015800000001
 20
-295.79740499999991
 30
0.0
 40
6.1334519999999992
 50
55.630539000001747
 51
124.3694609999982
  0
LINE
  5
16E
  8
0
  6
CONTINUOUS
 62
     3
 10
109.0294550000001
 20
-373.66666600000002
 30
0.0
 11
140.38586100000001
 21
-373.66666600000002
 31
0.0
  0
LINE
  5
16F
  8
0
  6
CONTINUOUS
 62
     3
 10
8.0
 20
-286.66666599999991
 30
0.0
 11
-8.0
 21
-286.66666599999991
 31
0.0
  0
ARC
  5
170
  8
0
  6
CONTINUOUS
 62
     3
 10
0.0
 20
-301.66666600000002
 30
0.0
 40
17.0
 50
61.92751299999248
 51
118.0724870000075
  0
LINE
  5
171
  8
0
  6
CONTINUOUS
 62
     3
 10
-8.0
 20
-286.66666599999991
 30
0.0
 11
-8.0
 21
-289.66666600000002
 31
0.0
  0
LINE
  5
172
  8
0
  6
CONTINUOUS
 62
     3
 10
-6.9175000000000182
 20
-286.66666599999991
 30
0.0
 11
-6.9175000000000182
 21
-289.66666600000002
 31
0.0
  0
LINE
  5
173
  8
0
  6
CONTINUOUS
 62
     3
 10
6.9175000000000182
 20
-286.66666599999991
 30
0.0
 11
6.9175000000000182
 21
-289.66666600000002
 31
0.0
  0
LINE
  5
174
  8
0
  6
CONTINUOUS
 62
     3
 10
8.0
 20
-286.66666599999991
 30
0.0
 11
8.0
 21
-289.66666600000002
 31
0.0
  0
LINE
  5
175
  8
0
  6
CONTINUOUS
 62
     3
 10
8.0
 20
-323.66666600000002
 30
0.0
 11
8.0
 21
-338.66666599999991
 31
0.0
  0
LINE
  5
176
  8
0
  6
CONTINUOUS
 62
     3
 10
6.9249999999999536
 20
-302.66666600000002
 30
0.0
 11
6.9249999999999536
 21
-290.73476399999993
 31
0.0
  0
LINE
  5
177
  8
0
  6
CONTINUOUS
 62
     3
 10
13.849999999999911
 20
-302.66666600000002
 30
0.0
 11
13.849999999999911
 21
-290.73476399999993
 31
0.0
  0
LINE
  5
178
  8
0
  6
CONTINUOUS
 62
     3
 10
10.56993099999999
 20
-289.66666600000002
 30
0.0
 11
-10.20506899999986
 21
-289.66666600000002
 31
0.0
  0
POINT
  5
179
  8
0
 62
     3
 10
0.0
 20
-302.66666600000002
 30
0.0
  0
LINE
  5
17A
  8
0
  6
CONTINUOUS
 62
     3
 10
-6.9249999999999536
 20
-302.66666600000002
 30
0.0
 11
-6.9249999999999536
 21
-290.73476399999993
 31
0.0
  0
LINE
  5
17B
  8
0
  6
CONTINUOUS
 62
     3
 10
-13.849999999999911
 20
-302.66666600000002
 30
0.0
 11
-13.849999999999911
 21
-290.73476399999993
 31
0.0
  0
ARC
  5
17C
  8
0
  6
CONTINUOUS
 62
     3
 10
10.38750000000004
 20
-295.79740499999991
 30
0.0
 40
6.1334519999999992
 50
55.630539000001747
 51
124.3694609999982
  0
ARC
  5
17D
  8
0
  6
CONTINUOUS
 62
     3
 10
0.0
 20
-312.64979099999988
 30
0.0
 40
22.983124
 50
72.463816000002879
 51
107.53618300000031
  0
ARC
  5
17E
  8
0
  6
CONTINUOUS
 62
     3
 10
-10.38750000000004
 20
-295.79740499999991
 30
0.0
 40
6.1334519999999992
 50
55.630539000001747
 51
124.3694609999982
  0
LINE
  5
17F
  8
0
  6
CONTINUOUS
 62
     3
 10
17.5
 20
-373.66666600000002
 30
0.0
 11
-17.5
 21
-373.66666600000002
 31
0.0
  0
LINE
  5
180
  8
0
  6
CONTINUOUS
 62
     3
 10
17.5
 20
-359.66666600000002
 30
0.0
 11
17.5
 21
-373.66666600000002
 31
0.0
  0
ARC
  5
181
  8
0
  6
CONTINUOUS
 62
     2
 10
34.5
 20
-302.66666600000002
 30
0.0
 40
14.0
 50
180.0
 51
270.0
  0
LINE
  5
182
  8
0
  6
CONTINUOUS
 62
     2
 10
145.20765800000001
 20
-323.66666600000002
 30
0.0
 11
145.20765800000001
 21
-302.66666600000002
 31
0.0
  0
LINE
  5
183
  8
0
  6
CONTINUOUS
 62
     3
 10
109.0294550000001
 20
-359.66666600000002
 30
0.0
 11
109.0294550000001
 21
-373.66666600000002
 31
0.0
  0
LINE
  5
184
  8
0
  6
CONTINUOUS
 62
     3
 10
122.88586100000001
 20
-359.66666600000002
 30
0.0
 11
122.88586100000001
 21
-373.66666600000002
 31
0.0
  0
LINE
  5
185
  8
0
  6
CONTINUOUS
 62
     3
 10
140.38586100000001
 20
-359.66666600000002
 30
0.0
 11
140.38586100000001
 21
-373.66666600000002
 31
0.0
  0
LINE
  5
186
  8
0
  6
CONTINUOUS
 62
     2
 10
119.687484
 20
-316.66666600000002
 30
0.0
 11
34.5
 21
-316.66666600000002
 31
0.0
  0
ARC
  5
187
  8
0
  6
CONTINUOUS
 62
     2
 10
119.687484
 20
-302.66666600000002
 30
0.0
 40
14.0
 50
270.0
 51
0.0
  0
LINE
  5
188
  8
0
  6
CONTINUOUS
 62
     3
 10
124.707658
 20
85.850000000000136
 30
0.0
 11
112.7132060000001
 21
78.925000000000182
 31
0.0
  0
LINE
  5
189
  8
0
  6
CONTINUOUS
 62
     3
 10
112.7132060000001
 20
78.925000000000182
 30
0.0
 11
112.7132060000001
 21
65.075000000000045
 31
0.0
  0
CIRCLE
  5
18A
  8
1
  6
CONTINUOUS
 62
     3
 10
124.707658
 20
72.0
 30
0.0
 40
6.9175000000000004
  0
CIRCLE
  5
18B
  8
1
  6
CONTINUOUS
 62
     3
 10
124.707658
 20
72.0
 30
0.0
 40
8.0
  0
LINE
  5
18C
  8
0
  6
CONTINUOUS
 62
     2
 10
114.457658
 20
-89.753519999999995
 30
0.0
 11
99.969383999999991
 21
-81.388711000000058
 31
0.0
  0
ARC
  5
18D
  8
0
  6
CONTINUOUS
 62
     2
 10
123.46938400000001
 20
-40.685516999999876
 30
0.0
 40
6.0
 50
161.76196200000641
 51
240.0000000000027
  0
ARC
  5
18E
  8
0
  6
CONTINUOUS
 62
     2
 10
96.969384000000005
 20
-86.584863999999925
 30
0.0
 40
6.0
 50
60.000000000002721
 51
138.23803800000061
  0
ARC
  5
18F
  8
0
  6
CONTINUOUS
 62
     2
 10
96.969384000000005
 20
86.584863999999925
 30
0.0
 40
6.0
 50
221.76196199999939
 51
299.99999999999733
  0
LINE
  5
190
  8
0
  6
CONTINUOUS
 62
     2
 10
114.457658
 20
89.753521000000092
 30
0.0
 11
99.969383999999991
 21
81.388711999999956
 31
0.0
  0
ARC
  5
191
  8
0
  6
CONTINUOUS
 62
     2
 10
124.707658
 20
72.0
 30
0.0
 40
20.5
 50
299.99999999999733
 51
119.9999999999972
  0
LINE
  5
192
  8
0
  6
CONTINUOUS
 62
     2
 10
134.95765800000001
 20
54.24648000000002
 30
0.0
 11
120.46938400000001
 21
45.881669999999978
 31
0.0
  0
ARC
  5
193
  8
0
  6
CONTINUOUS
 62
     2
 10
123.46938400000001
 20
40.685518000000002
 30
0.0
 40
6.0
 50
119.9999999999972
 51
198.23803799999351
  0
ARC
  5
194
  8
0
  6
CONTINUOUS
 62
     2
 10
0.0
 20
0.0
 30
0.0
 40
124.0
 50
341.7619630000014
 51
18.238037999993558
  0
LINE
  5
195
  8
0
  6
CONTINUOUS
 62
     2
 10
20.5
 20
144.0
 30
0.0
 11
20.5
 21
127.2703819999999
 31
0.0
  0
LINE
  5
196
  8
0
  6
CONTINUOUS
 62
     3
 10
136.70210999999989
 20
78.925000000000182
 30
0.0
 11
124.707658
 21
85.850000000000136
 31
0.0
  0
POINT
  5
197
  8
0
 62
     3
 10
124.707658
 20
72.0
 30
0.0
  0
LINE
  5
198
  8
0
  6
CONTINUOUS
 62
     3
 10
136.70210999999989
 20
65.075000000000045
 30
0.0
 11
136.70210999999989
 21
78.925000000000182
 31
0.0
  0
LINE
  5
199
  8
0
  6
CONTINUOUS
 62
     3
 10
124.707658
 20
58.150000000000091
 30
0.0
 11
136.70210999999989
 21
65.075000000000045
 31
0.0
  0
LINE
  5
19A
  8
0
  6
CONTINUOUS
 62
     3
 10
112.7132060000001
 20
65.075000000000045
 30
0.0
 11
124.707658
 21
58.150000000000091
 31
0.0
  0
CIRCLE
  5
19B
  8
0
  6
CONTINUOUS
 62
     3
 10
124.707658
 20
72.0
 30
0.0
 40
12.0
  0
CIRCLE
  5
19C
  8
1
  6
CONTINUOUS
 62
     3
 10
124.707658
 20
-72.0
 30
0.0
 40
8.0
  0
CIRCLE
  5
19D
  8
1
  6
CONTINUOUS
 62
     3
 10
124.707658
 20
-72.0
 30
0.0
 40
6.9175000000000004
  0
LINE
  5
19E
  8
0
  6
CONTINUOUS
 62
     3
 10
112.7132060000001
 20
-65.074999999999818
 30
0.0
 11
112.7132060000001
 21
-78.924999999999955
 31
0.0
  0
LINE
  5
19F
  8
0
  6
CONTINUOUS
 62
     3
 10
124.707658
 20
-58.149999999999871
 30
0.0
 11
112.7132060000001
 21
-65.074999999999818
 31
0.0
  0
LINE
  5
1A0
  8
0
  6
CONTINUOUS
 62
     3
 10
136.70210999999989
 20
-65.074999999999818
 30
0.0
 11
124.707658
 21
-58.149999999999871
 31
0.0
  0
POINT
  5
1A1
  8
0
 62
     3
 10
124.707658
 20
-72.0
 30
0.0
  0
LINE
  5
1A2
  8
0
  6
CONTINUOUS
 62
     3
 10
136.70210999999989
 20
-78.924999999999955
 30
0.0
 11
136.70210999999989
 21
-65.074999999999818
 31
0.0
  0
LINE
  5
1A3
  8
0
  6
CONTINUOUS
 62
     3
 10
124.707658
 20
-85.849999999999909
 30
0.0
 11
136.70210999999989
 21
-78.924999999999955
 31
0.0
  0
LINE
  5
1A4
  8
0
  6
CONTINUOUS
 62
     3
 10
112.7132060000001
 20
-78.924999999999955
 30
0.0
 11
124.707658
 21
-85.849999999999909
 31
0.0
  0
CIRCLE
  5
1A5
  8
0
  6
CONTINUOUS
 62
     3
 10
124.707658
 20
-72.0
 30
0.0
 40
12.0
  0
ARC
  5
1A6
  8
0
  6
CONTINUOUS
 62
     2
 10
124.707658
 20
-72.0
 30
0.0
 40
20.5
 50
240.0000000000027
 51
60.000000000002721
  0
LINE
  5
1A7
  8
0
  6
CONTINUOUS
 62
     2
 10
134.95765800000001
 20
-54.246478999999908
 30
0.0
 11
120.46938400000001
 21
-45.881669999999978
 31
0.0
  0
ARC
  5
1A8
  8
0
  6
CONTINUOUS
 62
     2
 10
26.5
 20
127.2703819999999
 30
0.0
 40
6.0
 50
180.0
 51
258.23803800000121
  0
ARC
  5
1A9
  8
0
  6
CONTINUOUS
 62
     2
 10
26.5
 20
-127.270381
 30
0.0
 40
6.0
 50
101.7619619999988
 51
180.0
  0
LINE
  5
1AA
  8
0
  6
CONTINUOUS
 62
     2
 10
20.5
 20
-143.99999999999989
 30
0.0
 11
20.5
 21
-127.270381
 31
0.0
  0
ARC
  5
1AB
  8
0
  6
CONTINUOUS
 62
     2
 10
0.0
 20
0.0
 30
0.0
 40
124.0
 50
281.76196300000248
 51
318.23803800000059
  0
ARC
  5
1AC
  8
0
  6
CONTINUOUS
 62
     2
 10
0.0
 20
0.0
 30
0.0
 40
124.0
 50
41.761963000005657
 51
78.238038000001154
  0
LINE
  5
1AD
  8
0
  6
CONTINUOUS
 62
     3
 10
-132.70765800000001
 20
-286.66666599999991
 30
0.0
 11
-116.707658
 21
-286.66666599999991
 31
0.0
  0
ARC
  5
1AE
  8
0
  6
CONTINUOUS
 62
     3
 10
-124.707658
 20
-301.66666600000002
 30
0.0
 40
17.0
 50
61.92751299999248
 51
118.0724870000075
  0
LINE
  5
1AF
  8
0
  6
CONTINUOUS
 62
     3
 10
-116.707658
 20
-286.66666599999991
 30
0.0
 11
-116.707658
 21
-289.66666600000002
 31
0.0
  0
LINE
  5
1B0
  8
0
  6
CONTINUOUS
 62
     3
 10
-117.79015800000001
 20
-286.66666599999991
 30
0.0
 11
-117.79015800000001
 21
-289.66666600000002
 31
0.0
  0
LINE
  5
1B1
  8
0
  6
CONTINUOUS
 62
     3
 10
-131.625158
 20
-286.66666599999991
 30
0.0
 11
-131.625158
 21
-289.66666600000002
 31
0.0
  0
LINE
  5
1B2
  8
0
  6
CONTINUOUS
 62
     3
 10
-132.70765800000001
 20
-286.66666599999991
 30
0.0
 11
-132.70765800000001
 21
-289.66666600000002
 31
0.0
  0
LINE
  5
1B3
  8
0
  6
CONTINUOUS
 62
     3
 10
-132.70765800000001
 20
-323.66666600000002
 30
0.0
 11
-132.70765800000001
 21
-338.66666599999991
 31
0.0
  0
LINE
  5
1B4
  8
0
  6
CONTINUOUS
 62
     3
 10
-116.707658
 20
-323.66666600000002
 30
0.0
 11
-116.707658
 21
-338.66666599999991
 31
0.0
  0
LINE
  5
1B5
  8
0
  6
CONTINUOUS
 62
     3
 10
-131.63265799999999
 20
-302.66666600000002
 30
0.0
 11
-131.63265799999999
 21
-290.73476399999993
 31
0.0
  0
LINE
  5
1B6
  8
0
  6
CONTINUOUS
 62
     3
 10
-138.557658
 20
-302.66666600000002
 30
0.0
 11
-138.557658
 21
-290.73476399999993
 31
0.0
  0
LINE
  5
1B7
  8
0
  6
CONTINUOUS
 62
     3
 10
-135.27759
 20
-289.66666600000002
 30
0.0
 11
-114.50259
 21
-289.66666600000002
 31
0.0
  0
POINT
  5
1B8
  8
0
 62
     3
 10
-124.707658
 20
-302.66666600000002
 30
0.0
  0
LINE
  5
1B9
  8
0
  6
CONTINUOUS
 62
     3
 10
-117.7826579999999
 20
-302.66666600000002
 30
0.0
 11
-117.7826579999999
 21
-290.73476399999993
 31
0.0
  0
LINE
  5
1BA
  8
0
  6
CONTINUOUS
 62
     3
 10
-110.857658
 20
-302.66666600000002
 30
0.0
 11
-110.857658
 21
-290.73476399999993
 31
0.0
  0
ARC
  5
1BB
  8
0
  6
CONTINUOUS
 62
     3
 10
-135.095158
 20
-295.79740499999991
 30
0.0
 40
6.1334519999999992
 50
55.630539000001747
 51
124.3694609999982
  0
ARC
  5
1BC
  8
0
  6
CONTINUOUS
 62
     3
 10
-124.707658
 20
-312.64979099999988
 30
0.0
 40
22.983124
 50
72.463816999999651
 51
107.53618399999711
  0
ARC
  5
1BD
  8
0
  6
CONTINUOUS
 62
     3
 10
-114.32015800000001
 20
-295.79740499999991
 30
0.0
 40
6.1334519999999992
 50
55.630539000001747
 51
124.3694609999982
  0
LINE
  5
1BE
  8
0
  6
CONTINUOUS
 62
     3
 10
-109.0294550000001
 20
-373.66666600000002
 30
0.0
 11
-140.38586100000001
 21
-373.66666600000002
 31
0.0
  0
LINE
  5
1BF
  8
0
  6
CONTINUOUS
 62
     3
 10
-17.5
 20
-359.66666600000002
 30
0.0
 11
-17.5
 21
-373.66666600000002
 31
0.0
  0
ARC
  5
1C0
  8
0
  6
CONTINUOUS
 62
     2
 10
-34.5
 20
-302.66666600000002
 30
0.0
 40
14.0
 50
270.0
 51
0.0
  0
LINE
  5
1C1
  8
0
  6
CONTINUOUS
 62
     2
 10
-145.20765800000001
 20
-323.66666600000002
 30
0.0
 11
-145.20765800000001
 21
-302.66666600000002
 31
0.0
  0
LINE
  5
1C2
  8
0
  6
CONTINUOUS
 62
     3
 10
-109.0294550000001
 20
-359.66666600000002
 30
0.0
 11
-109.0294550000001
 21
-373.66666600000002
 31
0.0
  0
LINE
  5
1C3
  8
0
  6
CONTINUOUS
 62
     3
 10
-122.88586100000001
 20
-359.66666600000002
 30
0.0
 11
-122.88586100000001
 21
-373.66666600000002
 31
0.0
  0
LINE
  5
1C4
  8
0
  6
CONTINUOUS
 62
     3
 10
-140.38586100000001
 20
-359.66666600000002
 30
0.0
 11
-140.38586100000001
 21
-373.66666600000002
 31
0.0
  0
LINE
  5
1C5
  8
0
  6
CONTINUOUS
 62
     2
 10
-119.687484
 20
-316.66666600000002
 30
0.0
 11
-34.5
 21
-316.66666600000002
 31
0.0
  0
ARC
  5
1C6
  8
0
  6
CONTINUOUS
 62
     2
 10
-119.687484
 20
-302.66666600000002
 30
0.0
 40
14.0
 50
180.0
 51
270.0
  0
LINE
  5
1C7
  8
2
  6
CENTER
 62
     2
 10
-124.707658
 20
-275.209677
 30
0.0
 11
-124.707658
 21
-379.33355299999988
 31
0.0
  0
LINE
  5
1C8
  8
0
  6
CONTINUOUS
 62
     2
 10
-8.0
 20
-332.66666600000002
 30
0.0
 11
-116.707658
 21
-332.66666600000002
 31
0.0
  0
LINE
  5
1C9
  8
0
  6
CONTINUOUS
 62
     3
 10
-8.0
 20
-323.66666600000002
 30
0.0
 11
-8.0
 21
-338.66666599999991
 31
0.0
  0
LINE
  5
1CA
  8
0
  6
CONTINUOUS
 62
     6
 10
-123.5
 20
-494.66666599999991
 30
0.0
 11
-123.5
 21
-488.66666599999991
 31
0.0
  0
LINE
  5
1CB
  8
0
  6
CONTINUOUS
 62
     6
 10
123.5
 20
-494.66666599999991
 30
0.0
 11
123.5
 21
-488.66666599999991
 31
0.0
  0
LINE
  5
1CC
  8
2
  6
CENTER
 62
     2
 10
124.707658
 20
-552.12365599999998
 30
0.0
 11
124.707658
 21
-447.99977899999988
 31
0.0
  0
LINE
  5
1CD
  8
0
  6
CONTINUOUS
 62
     2
 10
145.20765800000001
 20
-503.66666599999991
 30
0.0
 11
-145.20765800000001
 21
-503.66666599999991
 31
0.0
  0
LINE
  5
1CE
  8
0
  6
CONTINUOUS
 62
     2
 10
145.20765800000001
 20
-524.66666599999985
 30
0.0
 11
-145.20765800000001
 21
-524.66666599999985
 31
0.0
  0
LINE
  5
1CF
  8
0
  6
CONTINUOUS
 62
     2
 10
8.0
 20
-494.66666599999991
 30
0.0
 11
116.707658
 21
-494.66666599999991
 31
0.0
  0
LINE
  5
1D0
  8
0
  6
CONTINUOUS
 62
     3
 10
132.70765800000001
 20
-540.66666599999985
 30
0.0
 11
116.707658
 21
-540.66666599999985
 31
0.0
  0
ARC
  5
1D1
  8
0
  6
CONTINUOUS
 62
     3
 10
124.707658
 20
-525.66666599999985
 30
0.0
 40
17.0
 50
241.9275129999925
 51
298.07248700000753
  0
LINE
  5
1D2
  8
0
  6
CONTINUOUS
 62
     3
 10
116.707658
 20
-540.66666599999985
 30
0.0
 11
116.707658
 21
-537.66666599999985
 31
0.0
  0
LINE
  5
1D3
  8
0
  6
CONTINUOUS
 62
     3
 10
117.79015800000001
 20
-540.66666599999985
 30
0.0
 11
117.79015800000001
 21
-537.66666599999985
 31
0.0
  0
LINE
  5
1D4
  8
0
  6
CONTINUOUS
 62
     3
 10
131.625158
 20
-540.66666599999985
 30
0.0
 11
131.625158
 21
-537.66666599999985
 31
0.0
  0
LINE
  5
1D5
  8
0
  6
CONTINUOUS
 62
     3
 10
132.70765800000001
 20
-540.66666599999985
 30
0.0
 11
132.70765800000001
 21
-537.66666599999985
 31
0.0
  0
LINE
  5
1D6
  8
0
  6
CONTINUOUS
 62
     3
 10
132.70765800000001
 20
-503.66666599999991
 30
0.0
 11
132.70765800000001
 21
-488.66666599999991
 31
0.0
  0
LINE
  5
1D7
  8
0
  6
CONTINUOUS
 62
     3
 10
116.707658
 20
-503.66666599999991
 30
0.0
 11
116.707658
 21
-488.66666599999991
 31
0.0
  0
LINE
  5
1D8
  8
0
  6
CONTINUOUS
 62
     3
 10
131.63265799999999
 20
-524.66666599999985
 30
0.0
 11
131.63265799999999
 21
-536.598568
 31
0.0
  0
LINE
  5
1D9
  8
0
  6
CONTINUOUS
 62
     3
 10
138.55765799999989
 20
-524.66666599999985
 30
0.0
 11
138.55765799999989
 21
-536.598568
 31
0.0
  0
LINE
  5
1DA
  8
0
  6
CONTINUOUS
 62
     3
 10
135.27759000000009
 20
-537.66666599999985
 30
0.0
 11
114.50259
 21
-537.66666599999985
 31
0.0
  0
POINT
  5
1DB
  8
0
 62
     3
 10
124.707658
 20
-524.66666599999985
 30
0.0
  0
LINE
  5
1DC
  8
0
  6
CONTINUOUS
 62
     3
 10
117.7826580000001
 20
-524.66666599999985
 30
0.0
 11
117.7826580000001
 21
-536.598568
 31
0.0
  0
LINE
  5
1DD
  8
0
  6
CONTINUOUS
 62
     3
 10
110.8576579999999
 20
-524.66666599999985
 30
0.0
 11
110.8576579999999
 21
-536.598568
 31
0.0
  0
ARC
  5
1DE
  8
0
  6
CONTINUOUS
 62
     3
 10
135.09515800000011
 20
-531.5359279999999
 30
0.0
 40
6.1334519999999992
 50
235.6305390000017
 51
304.36946099999818
  0
ARC
  5
1DF
  8
0
  6
CONTINUOUS
 62
     3
 10
124.707658
 20
-514.68354199999999
 30
0.0
 40
22.983124
 50
252.46381699999969
 51
287.53618399999709
  0
ARC
  5
1E0
  8
0
  6
CONTINUOUS
 62
     3
 10
114.32015800000001
 20
-531.5359279999999
 30
0.0
 40
6.1334519999999992
 50
235.6305390000017
 51
304.36946099999818
  0
LINE
  5
1E1
  8
0
  6
CONTINUOUS
 62
     3
 10
109.0294550000001
 20
-453.66666599999991
 30
0.0
 11
140.38586100000001
 21
-453.66666599999991
 31
0.0
  0
LINE
  5
1E2
  8
0
  6
CONTINUOUS
 62
     3
 10
8.0
 20
-540.66666599999985
 30
0.0
 11
-8.0
 21
-540.66666599999985
 31
0.0
  0
ARC
  5
1E3
  8
0
  6
CONTINUOUS
 62
     3
 10
0.0
 20
-525.66666599999985
 30
0.0
 40
17.0
 50
241.9275129999925
 51
298.07248700000753
  0
LINE
  5
1E4
  8
0
  6
CONTINUOUS
 62
     3
 10
-8.0
 20
-540.66666599999985
 30
0.0
 11
-8.0
 21
-537.66666599999985
 31
0.0
  0
LINE
  5
1E5
  8
0
  6
CONTINUOUS
 62
     3
 10
-6.9175000000000182
 20
-540.66666599999985
 30
0.0
 11
-6.9175000000000182
 21
-537.66666599999985
 31
0.0
  0
LINE
  5
1E6
  8
0
  6
CONTINUOUS
 62
     3
 10
6.9175000000000182
 20
-540.66666599999985
 30
0.0
 11
6.9175000000000182
 21
-537.66666599999985
 31
0.0
  0
LINE
  5
1E7
  8
0
  6
CONTINUOUS
 62
     3
 10
8.0
 20
-540.66666599999985
 30
0.0
 11
8.0
 21
-537.66666599999985
 31
0.0
  0
LINE
  5
1E8
  8
0
  6
CONTINUOUS
 62
     3
 10
8.0
 20
-503.66666599999991
 30
0.0
 11
8.0
 21
-488.66666599999991
 31
0.0
  0
LINE
  5
1E9
  8
0
  6
CONTINUOUS
 62
     3
 10
6.9249999999999536
 20
-524.66666599999985
 30
0.0
 11
6.9249999999999536
 21
-536.598568
 31
0.0
  0
LINE
  5
1EA
  8
0
  6
CONTINUOUS
 62
     3
 10
13.849999999999911
 20
-524.66666599999985
 30
0.0
 11
13.849999999999911
 21
-536.598568
 31
0.0
  0
LINE
  5
1EB
  8
0
  6
CONTINUOUS
 62
     3
 10
10.56993099999999
 20
-537.66666599999985
 30
0.0
 11
-10.20506899999986
 21
-537.66666599999985
 31
0.0
  0
POINT
  5
1EC
  8
0
 62
     3
 10
0.0
 20
-524.66666599999985
 30
0.0
  0
LINE
  5
1ED
  8
0
  6
CONTINUOUS
 62
     3
 10
-6.9249999999999536
 20
-524.66666599999985
 30
0.0
 11
-6.9249999999999536
 21
-536.598568
 31
0.0
  0
LINE
  5
1EE
  8
0
  6
CONTINUOUS
 62
     3
 10
-13.849999999999911
 20
-524.66666599999985
 30
0.0
 11
-13.849999999999911
 21
-536.598568
 31
0.0
  0
ARC
  5
1EF
  8
0
  6
CONTINUOUS
 62
     3
 10
10.38750000000004
 20
-531.5359279999999
 30
0.0
 40
6.1334519999999992
 50
235.6305390000017
 51
304.36946099999818
  0
ARC
  5
1F0
  8
0
  6
CONTINUOUS
 62
     3
 10
0.0
 20
-514.68354199999999
 30
0.0
 40
22.983124
 50
252.46381699999969
 51
287.53618399999709
  0
ARC
  5
1F1
  8
0
  6
CONTINUOUS
 62
     3
 10
-10.38750000000004
 20
-531.5359279999999
 30
0.0
 40
6.1334519999999992
 50
235.6305390000017
 51
304.36946099999818
  0
LINE
  5
1F2
  8
0
  6
CONTINUOUS
 62
     3
 10
17.5
 20
-453.66666599999991
 30
0.0
 11
-17.5
 21
-453.66666599999991
 31
0.0
  0
LINE
  5
1F3
  8
0
  6
CONTINUOUS
 62
     3
 10
17.5
 20
-467.66666599999991
 30
0.0
 11
17.5
 21
-453.66666599999991
 31
0.0
  0
ARC
  5
1F4
  8
0
  6
CONTINUOUS
 62
     2
 10
34.5
 20
-524.66666599999985
 30
0.0
 40
14.0
 50
90.0
 51
180.0
  0
LINE
  5
1F5
  8
0
  6
CONTINUOUS
 62
     2
 10
145.20765800000001
 20
-503.66666599999991
 30
0.0
 11
145.20765800000001
 21
-524.66666599999985
 31
0.0
  0
LINE
  5
1F6
  8
0
  6
CONTINUOUS
 62
     3
 10
109.0294550000001
 20
-467.66666599999991
 30
0.0
 11
109.0294550000001
 21
-453.66666599999991
 31
0.0
  0
LINE
  5
1F7
  8
0
  6
CONTINUOUS
 62
     3
 10
122.88586100000001
 20
-467.66666599999991
 30
0.0
 11
122.88586100000001
 21
-453.66666599999991
 31
0.0
  0
LINE
  5
1F8
  8
0
  6
CONTINUOUS
 62
     3
 10
140.38586100000001
 20
-467.66666599999991
 30
0.0
 11
140.38586100000001
 21
-453.66666599999991
 31
0.0
  0
LINE
  5
1F9
  8
0
  6
CONTINUOUS
 62
     2
 10
119.687484
 20
-510.66666600000002
 30
0.0
 11
34.5
 21
-510.66666600000002
 31
0.0
  0
ARC
  5
1FA
  8
0
  6
CONTINUOUS
 62
     2
 10
119.687484
 20
-524.66666599999985
 30
0.0
 40
14.0
 50
0.0
 51
90.0
  0
LINE
  5
1FB
  8
0
  6
CONTINUOUS
 62
     3
 10
-132.70765800000001
 20
-540.66666599999985
 30
0.0
 11
-116.707658
 21
-540.66666599999985
 31
0.0
  0
ARC
  5
1FC
  8
0
  6
CONTINUOUS
 62
     3
 10
-124.707658
 20
-525.66666599999985
 30
0.0
 40
17.0
 50
241.9275129999925
 51
298.07248700000753
  0
LINE
  5
1FD
  8
0
  6
CONTINUOUS
 62
     3
 10
-116.707658
 20
-540.66666599999985
 30
0.0
 11
-116.707658
 21
-537.66666599999985
 31
0.0
  0
LINE
  5
1FE
  8
0
  6
CONTINUOUS
 62
     3
 10
-117.79015800000001
 20
-540.66666599999985
 30
0.0
 11
-117.79015800000001
 21
-537.66666599999985
 31
0.0
  0
LINE
  5
1FF
  8
0
  6
CONTINUOUS
 62
     3
 10
-131.625158
 20
-540.66666599999985
 30
0.0
 11
-131.625158
 21
-537.66666599999985
 31
0.0
  0
LINE
  5
200
  8
0
  6
CONTINUOUS
 62
     3
 10
-132.70765800000001
 20
-540.66666599999985
 30
0.0
 11
-132.70765800000001
 21
-537.66666599999985
 31
0.0
  0
LINE
  5
201
  8
0
  6
CONTINUOUS
 62
     3
 10
-132.70765800000001
 20
-503.66666599999991
 30
0.0
 11
-132.70765800000001
 21
-488.66666599999991
 31
0.0
  0
LINE
  5
202
  8
0
  6
CONTINUOUS
 62
     3
 10
-116.707658
 20
-503.66666599999991
 30
0.0
 11
-116.707658
 21
-488.66666599999991
 31
0.0
  0
LINE
  5
203
  8
0
  6
CONTINUOUS
 62
     3
 10
-131.63265799999999
 20
-524.66666599999985
 30
0.0
 11
-131.63265799999999
 21
-536.598568
 31
0.0
  0
LINE
  5
204
  8
0
  6
CONTINUOUS
 62
     3
 10
-138.557658
 20
-524.66666599999985
 30
0.0
 11
-138.557658
 21
-536.598568
 31
0.0
  0
LINE
  5
205
  8
0
  6
CONTINUOUS
 62
     3
 10
-135.27759
 20
-537.66666599999985
 30
0.0
 11
-114.50259
 21
-537.66666599999985
 31
0.0
  0
POINT
  5
206
  8
0
 62
     3
 10
-124.707658
 20
-524.66666599999985
 30
0.0
  0
LINE
  5
207
  8
0
  6
CONTINUOUS
 62
     3
 10
-117.7826579999999
 20
-524.66666599999985
 30
0.0
 11
-117.7826579999999
 21
-536.598568
 31
0.0
  0
LINE
  5
208
  8
0
  6
CONTINUOUS
 62
     3
 10
-110.857658
 20
-524.66666599999985
 30
0.0
 11
-110.857658
 21
-536.598568
 31
0.0
  0
ARC
  5
209
  8
0
  6
CONTINUOUS
 62
     3
 10
-135.095158
 20
-531.5359279999999
 30
0.0
 40
6.1334519999999992
 50
235.6305390000017
 51
304.36946099999818
  0
ARC
  5
20A
  8
0
  6
CONTINUOUS
 62
     3
 10
-124.707658
 20
-514.68354199999999
 30
0.0
 40
22.983124
 50
252.46381600000291
 51
287.53618300000028
  0
ARC
  5
20B
  8
0
  6
CONTINUOUS
 62
     3
 10
-114.32015800000001
 20
-531.5359279999999
 30
0.0
 40
6.1334519999999992
 50
235.6305390000017
 51
304.36946099999818
  0
LINE
  5
20C
  8
0
  6
CONTINUOUS
 62
     3
 10
-109.0294550000001
 20
-453.66666599999991
 30
0.0
 11
-140.38586100000001
 21
-453.66666599999991
 31
0.0
  0
LINE
  5
20D
  8
0
  6
CONTINUOUS
 62
     3
 10
-17.5
 20
-467.66666599999991
 30
0.0
 11
-17.5
 21
-453.66666599999991
 31
0.0
  0
ARC
  5
20E
  8
0
  6
CONTINUOUS
 62
     2
 10
-34.5
 20
-524.66666599999985
 30
0.0
 40
14.0
 50
0.0
 51
90.0
  0
LINE
  5
20F
  8
0
  6
CONTINUOUS
 62
     2
 10
-145.20765800000001
 20
-503.66666599999991
 30
0.0
 11
-145.20765800000001
 21
-524.66666599999985
 31
0.0
  0
LINE
  5
210
  8
0
  6
CONTINUOUS
 62
     3
 10
-109.0294550000001
 20
-467.66666599999991
 30
0.0
 11
-109.0294550000001
 21
-453.66666599999991
 31
0.0
  0
LINE
  5
211
  8
0
  6
CONTINUOUS
 62
     3
 10
-122.88586100000001
 20
-467.66666599999991
 30
0.0
 11
-122.88586100000001
 21
-453.66666599999991
 31
0.0
  0
LINE
  5
212
  8
0
  6
CONTINUOUS
 62
     3
 10
-140.38586100000001
 20
-467.66666599999991
 30
0.0
 11
-140.38586100000001
 21
-453.66666599999991
 31
0.0
  0
LINE
  5
213
  8
0
  6
CONTINUOUS
 62
     2
 10
-119.687484
 20
-510.66666600000002
 30
0.0
 11
-34.5
 21
-510.66666600000002
 31
0.0
  0
ARC
  5
214
  8
0
  6
CONTINUOUS
 62
     2
 10
-119.687484
 20
-524.66666599999985
 30
0.0
 40
14.0
 50
90.0
 51
180.0
  0
LINE
  5
215
  8
2
  6
CENTER
 62
     2
 10
-124.707658
 20
-552.12365599999998
 30
0.0
 11
-124.707658
 21
-447.99977899999988
 31
0.0
  0
LINE
  5
216
  8
0
  6
CONTINUOUS
 62
     2
 10
-8.0
 20
-494.66666599999991
 30
0.0
 11
-116.707658
 21
-494.66666599999991
 31
0.0
  0
LINE
  5
217
  8
0
  6
CONTINUOUS
 62
     3
 10
-8.0
 20
-503.66666599999991
 30
0.0
 11
-8.0
 21
-488.66666599999991
 31
0.0
  0
POINT
  5
218
  8
0
 62
     1
 10
1049.5
 20
317.75525299999998
 30
0.0
  0
ENDSEC
  0
EOF
