  0
SECTION
  2
HEADER
  9
$ACADVER
  1
AC1009
  9
$INSBASE
 10
0.0
 20
0.0
 30
0.0
  9
$EXTMIN
 10
0.0
 20
-3537.4999999999959
 30
0.0
  9
$EXTMAX
 10
6580.0
 20
770.0
 30
0.0
  9
$LIMMIN
 10
0.0
 20
0.0
  9
$LIMMAX
 10
210.0
 20
297.0
  9
$ORTHOMODE
 70
     0
  9
$REGENMODE
 70
     1
  9
$FILLMODE
 70
     1
  9
$QTEXTMODE
 70
     0
  9
$MIRRTEXT
 70
     0
  9
$DRAGMODE
 70
     2
  9
$LTSCALE
 40
1.0
  9
$OSMODE
 70
  2429
  9
$ATTMODE
 70
     1
  9
$TEXTSIZE
 40
4.0
  9
$TRACEWID
 40
0.05
  9
$TEXTSTYLE
  7
STANDARD
  9
$CLAYER
  8
OBJECT
  9
$CELTYPE
  6
BYLAYER
  9
$CECOLOR
 62
   256
  9
$DIMSCALE
 40
10.0
  9
$DIMASZ
 40
2.0
  9
$DIMEXO
 40
1.0
  9
$DIMDLI
 40
10.0
  9
$DIMRND
 40
0.0
  9
$DIMDLE
 40
0.0
  9
$DIMEXE
 40
1.0
  9
$DIMTP
 40
0.0
  9
$DIMTM
 40
0.0
  9
$DIMTXT
 40
3.2000000000000002
  9
$DIMCEN
 40
0.0
  9
$DIMTSZ
 40
0.0
  9
$DIMTOL
 70
     0
  9
$DIMLIM
 70
     0
  9
$DIMTIH
 70
     0
  9
$DIMTOH
 70
     0
  9
$DIMSE1
 70
     0
  9
$DIMSE2
 70
     0
  9
$DIMTAD
 70
     1
  9
$DIMZIN
 70
     8
  9
$DIMBLK
  1
OPEN30
  9
$DIMASO
 70
     1
  9
$DIMSHO
 70
     1
  9
$DIMPOST
  1

  9
$DIMAPOST
  1

  9
$DIMALT
 70
     0
  9
$DIMALTD
 70
     2
  9
$DIMALTF
 40
25.399999999999999
  9
$DIMLFAC
 40
1.0
  9
$DIMTOFL
 70
     1
  9
$DIMTVP
 40
0.0
  9
$DIMTIX
 70
     0
  9
$DIMSOXD
 70
     0
  9
$DIMSAH
 70
     0
  9
$DIMBLK1
  1

  9
$DIMBLK2
  1

  9
$DIMSTYLE
  2
S10
  9
$DIMCLRD
 70
   256
  9
$DIMCLRE
 70
   256
  9
$DIMCLRT
 70
   256
  9
$DIMTFAC
 40
1.0
  9
$DIMGAP
 40
0.9
  9
$LUNITS
 70
     2
  9
$LUPREC
 70
     2
  9
$SKETCHINC
 40
0.1
  9
$FILLETRAD
 40
0.0
  9
$AUNITS
 70
     0
  9
$AUPREC
 70
     2
  9
$MENU
  1
ACAD
  9
$ELEVATION
 40
0.0
  9
$PELEVATION
 40
0.0
  9
$THICKNESS
 40
0.0
  9
$LIMCHECK
 70
     0
  9
$BLIPMODE
 70
     0
  9
$CHAMFERA
 40
2.0
  9
$CHAMFERB
 40
2.0
  9
$SKPOLY
 70
     0
  9
$TDCREATE
 40
2453095.4929404748
  9
$TDUPDATE
 40
2457233.6499510189
  9
$TDINDWG
 40
18.325892164399999
  9
$TDUSRTIMER
 40
18.3258914468
  9
$USRTIMER
 70
     1
  9
$ANGBASE
 50
0.0
  9
$ANGDIR
 70
     0
  9
$PDMODE
 70
    35
  9
$PDSIZE
 40
2.0
  9
$PLINEWID
 40
0.0
  9
$COORDS
 70
     0
  9
$SPLFRAME
 70
     0
  9
$SPLINETYPE
 70
     6
  9
$SPLINESEGS
 70
     8
  9
$ATTDIA
 70
     0
  9
$ATTREQ
 70
     1
  9
$HANDLING
 70
     1
  9
$HANDSEED
  5
129D8E
  9
$SURFTAB1
 70
     6
  9
$SURFTAB2
 70
     6
  9
$SURFTYPE
 70
     6
  9
$SURFU
 70
     6
  9
$SURFV
 70
     6
  9
$UCSNAME
  2

  9
$UCSORG
 10
0.0
 20
0.0
 30
0.0
  9
$UCSXDIR
 10
1.0
 20
0.0
 30
0.0
  9
$UCSYDIR
 10
0.0
 20
1.0
 30
0.0
  9
$PUCSNAME
  2

  9
$PUCSORG
 10
0.0
 20
0.0
 30
0.0
  9
$PUCSXDIR
 10
1.0
 20
0.0
 30
0.0
  9
$PUCSYDIR
 10
0.0
 20
1.0
 30
0.0
  9
$USERI1
 70
     0
  9
$USERI2
 70
     0
  9
$USERI3
 70
     0
  9
$USERI4
 70
     0
  9
$USERI5
 70
     0
  9
$USERR1
 40
0.0
  9
$USERR2
 40
0.0
  9
$USERR3
 40
0.0
  9
$USERR4
 40
0.0
  9
$USERR5
 40
0.0
  9
$WORLDVIEW
 70
     1
  9
$SHADEDGE
 70
     3
  9
$SHADEDIF
 70
    70
  9
$TILEMODE
 70
     1
  9
$MAXACTVP
 70
    64
  9
$PLIMCHECK
 70
     0
  9
$PEXTMIN
 10
29.066066288948051
 20
20.366566777229309
 30
0.0
  9
$PEXTMAX
 10
261.5945966005325
 20
183.29910099506381
 30
0.0
  9
$PLIMMIN
 10
-3.17498779296875
 20
-3.1749999523162842
  9
$PLIMMAX
 10
293.83566284179687
 20
206.8406708240509
  9
$UNITMODE
 70
     0
  9
$VISRETAIN
 70
     1
  9
$PLINEGEN
 70
     0
  9
$PSLTSCALE
 70
     1
  0
ENDSEC
  0
SECTION
  2
TABLES
  0
TABLE
  2
VPORT
 70
     1
  0
VPORT
  2
*ACTIVE
 70
     0
 10
0.0
 20
0.0
 11
1.0
 21
1.0
 12
5843.4627213530857
 22
-1611.998139363124
 13
0.0
 23
0.0
 14
1.0
 24
1.0
 15
0.0
 25
0.0
 16
0.0
 26
0.0
 36
1.0
 17
0.0
 27
0.0
 37
0.0
 40
4541.3183424140343
 41
1.6494178525226391
 42
50.0
 43
0.0
 44
0.0
 50
0.0
 51
0.0
 71
     0
 72
   600
 73
     1
 74
     1
 75
     0
 76
     0
 77
     0
 78
     0
  0
ENDTAB
  0
TABLE
  2
LTYPE
 70
     4
  0
LTYPE
  2
CONTINUOUS
 70
     0
  3
Solid line
 72
    65
 73
     0
 40
0.0
  0
LTYPE
  2
PHANTOM2
 70
     0
  3
___ _ _ ___ _ _ ___ _ _ ___ _ _
 72
    65
 73
     6
 40
1.25
 49
0.625
 49
-0.125
 49
0.125
 49
-0.125
 49
0.125
 49
-0.125
  0
LTYPE
  2
ACAD_ISO08W100
 70
     0
  3
ISO long-dash short-dash ____ __ ____ __ ____ _
 72
    65
 73
     4
 40
36.0
 49
24.0
 49
-3.0
 49
6.0
 49
-3.0
  0
LTYPE
  2
ACAD_ISO02W100
 70
     0
  3
ISO dash __ __ __ __ __ __ __ __ __ __ __ __ __
 72
    65
 73
     2
 40
15.0
 49
12.0
 49
-3.0
  0
ENDTAB
  0
TABLE
  2
LAYER
 70
     8
  0
LAYER
  2
0
 70
     0
 62
     7
  6
CONTINUOUS
  0
LAYER
  2
OBJECT
 70
     0
 62
     4
  6
CONTINUOUS
  0
LAYER
  2
DEFPOINTS
 70
     0
 62
     7
  6
CONTINUOUS
  0
LAYER
  2
DIM
 70
     0
 62
     7
  6
CONTINUOUS
  0
LAYER
  2
HIDDEN
 70
     0
 62
     2
  6
ACAD_ISO02W100
  0
LAYER
  2
CENTER
 70
     0
 62
     2
  6
ACAD_ISO08W100
  0
LAYER
  2
DOTS
 70
     0
 62
     1
  6
CONTINUOUS
  0
LAYER
  2
SLIM
 70
     0
 62
     2
  6
CONTINUOUS
  0
ENDTAB
  0
TABLE
  2
STYLE
 70
     2
  0
STYLE
  2
STANDARD
 70
     0
 40
0.0
 41
0.75
 50
0.0
 71
     0
 42
4.0
  3
simplex.shx
  4
bigfont.shx
  0
ENDTAB
  0
TABLE
  2
VIEW
 70
     0
  0
ENDTAB
  0
TABLE
  2
UCS
 70
     0
  0
ENDTAB
  0
TABLE
  2
APPID
 70
    18
  0
APPID
  2
ACAD
 70
     0
  0
APPID
  2
ACADANNOTATIVE
 70
     0
  0
APPID
  2
ACAD_PSEXT
 70
     0
  0
APPID
  2
ACAD_EXEMPT_FROM_CAD_STANDARDS
 70
     0
  0
APPID
  2
ACAECLAYERSTANDARD
 70
     0
  0
APPID
  2
ACAUTHENVIRON
 70
     0
  0
APPID
  2
ACDBDYNAMICBLOCKTRUENAME
 70
     0
  0
APPID
  2
ACDBDYNAMICBLOCKGUID
 70
     0
  0
APPID
  2
ACDBBLOCKREPETAG
 70
     0
  0
APPID
  2
ACDBBLOCKREPBTAG
 70
     0
  0
APPID
  2
ACAD_NAV_VCDISPLAY
 70
     0
  0
APPID
  2
ACAD_DSTYLE_DIMRADIAL_EXTENSION
 70
     0
  0
APPID
  2
ACAD_DSTYLE_DIMJAG
 70
     0
  0
APPID
  2
ACAD_DSTYLE_DIMTALN
 70
     0
  0
APPID
  2
ACADANNOPO
 70
     0
  0
APPID
  2
GRADIENTCOLOR1ACI
 70
     0
  0
APPID
  2
GRADIENTCOLOR2ACI
 70
     0
  0
APPID
  2
ACAD_MLEADERVER
 70
     0
  0
ENDTAB
  0
TABLE
  2
DIMSTYLE
 70
     3
  0
DIMSTYLE
  2
STANDARD
 70
     0
  3

  4

  5

  6

  7

 40
1.0
 41
0.18
 42
0.0625
 43
0.38
 44
0.18
 45
0.0
 46
0.0
 47
0.0
 48
0.0
140
0.18
141
0.09
142
0.0
143
25.399999999999999
144
1.0
145
0.0
146
1.0
147
0.09
 71
     0
 72
     0
 73
     1
 74
     1
 75
     0
 76
     0
 77
     0
 78
     0
170
     0
171
     2
172
     0
173
     0
174
     0
175
     0
176
     0
177
     0
178
     0
  0
DIMSTYLE
  2
S10
 70
     0
  3

  4

  5

  6

  7

 40
10.0
 41
2.0
 42
1.0
 43
10.0
 44
1.0
 45
0.0
 46
0.0
 47
0.0
 48
0.0
140
3.2000000000000002
141
0.0
142
0.0
143
25.399999999999999
144
1.0
145
0.0
146
1.0
147
0.9
 71
     0
 72
     0
 73
     0
 74
     0
 75
     0
 76
     0
 77
     1
 78
     8
170
     0
171
     2
172
     1
173
     0
174
     0
175
     0
176
   256
177
   256
178
   256
  0
ENDTAB
  0
ENDSEC
  0
SECTION
  2
BLOCKS
  0
BLOCK
  8
0
  2
$MODEL_SPACE
 70
     0
 10
0.0
 20
0.0
 30
0.0
  3
$MODEL_SPACE
  1

  0
ENDBLK
  5
129CBB
  8
0
  0
BLOCK
 67
     1
  8
0
  2
$PAPER_SPACE
 70
     0
 10
0.0
 20
0.0
 30
0.0
  3
$PAPER_SPACE
  1

  0
ENDBLK
  5
129CB7
 67
     1
  8
0
  0
BLOCK
  8
0
  2
_OPEN30
 70
     0
 10
0.0
 20
0.0
 30
0.0
  3
_OPEN30
  1

  0
LINE
  5
202
  8
0
  6
BYBLOCK
 62
     0
 10
-1.0
 20
0.26794919
 30
0.0
 11
0.0
 21
0.0
 31
0.0
  0
LINE
  5
203
  8
0
  6
BYBLOCK
 62
     0
 10
0.0
 20
0.0
 30
0.0
 11
-1.0
 21
-0.26794919
 31
0.0
  0
LINE
  5
204
  8
0
  6
BYBLOCK
 62
     0
 10
0.0
 20
0.0
 30
0.0
 11
-1.0
 21
0.0
 31
0.0
  0
ENDBLK
  5
206
  8
0
  0
BLOCK
  8
0
  2
*U3
 70
     1
 10
0.0
 20
0.0
 30
0.0
  3
*U3
  1

  0
TEXT
  5
129A91
  8
DIM
 10
2209.479620594459
 20
-3024.1428571428528
 30
0.0
 40
32.0
  1
A
 50
90.0
 41
0.75
  0
ENDBLK
  5
129A93
  8
0
  0
BLOCK
  8
0
  2
*U4
 70
     1
 10
0.0
 20
0.0
 30
0.0
  3
*U4
  1

  0
TEXT
  5
129A95
  8
DIM
 10
2207.8409284037348
 20
-3405.9999999999968
 30
0.0
 40
32.0
  1
B
 50
90.0
 41
0.75
  0
ENDBLK
  5
129A97
  8
0
  0
BLOCK
  8
0
  2
*U5
 70
     1
 10
0.0
 20
0.0
 30
0.0
  3
*U5
  1

  0
TEXT
  5
129A99
  8
DIM
 10
2061.428571428572
 20
-2878.208121984444
 30
0.0
 40
32.0
  1
C
 41
0.75
  0
ENDBLK
  5
129A9B
  8
0
  0
BLOCK
  8
0
  2
*U6
 70
     1
 10
0.0
 20
0.0
 30
0.0
  3
*U6
  1

  0
TEXT
  5
129A9D
  8
SLIM
 10
509.04761904774068
 20
-586.75000000000955
 30
0.0
 40
26.0
  1
100
  0
ENDBLK
  5
129A9F
  8
0
  0
BLOCK
  8
0
  2
*U7
 70
     1
 10
0.0
 20
0.0
 30
0.0
  3
*U7
  1

  0
TEXT
  5
129AA1
  8
SLIM
 10
158.9523809524228
 20
-594.00000000000955
 30
0.0
 40
26.0
  1
75
  0
ENDBLK
  5
129AA3
  8
0
  0
BLOCK
  8
0
  2
*U8
 70
     1
 10
0.0
 20
0.0
 30
0.0
  3
*U8
  1

  0
TEXT
  5
129AA5
  8
SLIM
 10
518.95238095250295
 20
-130.00000000000321
 30
0.0
 40
26.0
  1
65
  0
ENDBLK
  5
129AA7
  8
0
  0
BLOCK
  8
0
  2
*U9
 70
     1
 10
0.0
 20
0.0
 30
0.0
  3
*U9
  1

  0
TEXT
  5
129AA9
  8
SLIM
 10
158.9523809524228
 20
-130.00000000000321
 30
0.0
 40
26.0
  1
50
  0
ENDBLK
  5
129AAB
  8
0
  0
ENDSEC
  0
SECTION
  2
ENTITIES
  0
TEXT
  5
124845
  8
SLIM
 10
-0.0000000000000011
 20
282.5
 30
0.0
 40
35.0
  1
※ 100枝（4）がある場合、品名の最後に【管底】が付きます。
 41
0.9
 11
0.0
 21
300.0
 31
0.0
 73
     2
  0
LINE
  5
127012
  8
OBJECT
 10
1825.0
 20
-3419.9999999999959
 30
0.0
 11
5575.0
 21
-3419.9999999999959
 31
0.0
  0
LINE
  5
127014
  8
SLIM
 10
2616.0
 20
-2477.50001604727
 30
0.0
 11
2616.0
 21
-2807.50001604727
 31
0.0
  0
LINE
  5
127015
  8
SLIM
 10
2740.0
 20
-2477.50001604727
 30
0.0
 11
2740.0
 21
-2807.50001604727
 31
0.0
  0
LINE
  5
127016
  8
SLIM
 10
2870.0
 20
-2537.50001604727
 30
0.0
 11
2870.0
 21
-2807.50001604727
 31
0.0
  0
LINE
  5
127017
  8
SLIM
 10
3000.0
 20
-2537.50001604727
 30
0.0
 11
3000.0
 21
-2807.50001604727
 31
0.0
  0
LINE
  5
127018
  8
SLIM
 10
3130.0
 20
-2807.50001604727
 30
0.0
 11
3130.0
 21
-2537.50001604727
 31
0.0
  0
LINE
  5
127019
  8
SLIM
 10
3260.0
 20
-2807.50001604727
 30
0.0
 11
3260.0
 21
-2477.50001604727
 31
0.0
  0
LINE
  5
12701A
  8
SLIM
 10
3260.0
 20
-2477.50001604727
 30
0.0
 11
2616.0
 21
-2477.50001604727
 31
0.0
  0
LINE
  5
12701B
  8
SLIM
 10
3260.0
 20
-2537.50001604727
 30
0.0
 11
2740.0
 21
-2537.50001604727
 31
0.0
  0
LINE
  5
12701C
  8
SLIM
 10
3260.0
 20
-2597.50001604727
 30
0.0
 11
2616.0
 21
-2597.50001604727
 31
0.0
  0
LINE
  5
12701D
  8
SLIM
 10
3260.0
 20
-2667.5000160472709
 30
0.0
 11
2616.0
 21
-2667.5000160472709
 31
0.0
  0
LINE
  5
12701E
  8
SLIM
 10
3260.0
 20
-2737.50001604727
 30
0.0
 11
2616.0
 21
-2737.50001604727
 31
0.0
  0
LINE
  5
12701F
  8
SLIM
 10
3260.0
 20
-2807.50001604727
 30
0.0
 11
2616.0
 21
-2807.50001604727
 31
0.0
  0
LINE
  5
127034
  8
SLIM
 10
2740.0
 20
-2597.50001604727
 30
0.0
 11
2615.9999722746579
 21
-2477.5
 31
0.0
  0
LINE
  5
127069
  8
OBJECT
 10
5323.0
 20
-3235.9999999999968
 30
0.0
 11
5323.0
 21
-3214.9999999999968
 31
0.0
1001
ACDBBLOCKREPETAG
1070
     1
1071
       20
1005
127069
  0
LINE
  5
12706A
  8
OBJECT
 10
5323.0
 20
-3214.9999999999968
 30
0.0
 11
5477.0
 21
-3214.9999999999968
 31
0.0
1001
ACDBBLOCKREPETAG
1070
     1
1071
       21
1005
12706A
  0
LINE
  5
12706B
  8
HIDDEN
 10
5343.0
 20
-3284.9999999999968
 30
0.0
 11
5457.0
 21
-3284.9999999999968
 31
0.0
1001
ACDBBLOCKREPETAG
1070
     1
1071
       22
1005
12706B
  0
LINE
  5
12706C
  8
OBJECT
 10
5477.0
 20
-3214.9999999999968
 30
0.0
 11
5477.0
 21
-3235.9999999999968
 31
0.0
1001
ACDBBLOCKREPETAG
1070
     1
1071
       23
1005
12706C
  0
LINE
  5
12706D
  8
OBJECT
 10
5477.0
 20
-3235.9999999999968
 30
0.0
 11
5323.0
 21
-3235.9999999999968
 31
0.0
1001
ACDBBLOCKREPETAG
1070
     1
1071
       24
1005
12706D
  0
LINE
  5
12706E
  8
CENTER
 10
5400.0
 20
-3199.9999999999968
 30
0.0
 11
5400.0
 21
-3434.9999999999968
 31
0.0
1001
ACDBBLOCKREPETAG
1070
     1
1071
       25
1005
12706E
  0
LINE
  5
12706F
  8
OBJECT
 10
5325.0
 20
-3298.9999999999968
 30
0.0
 11
5325.0
 21
-3422.9999999999968
 31
0.0
1001
ACDBBLOCKREPETAG
1070
     1
1071
       26
1005
12706F
  0
LINE
  5
127070
  8
OBJECT
 10
5328.0
 20
-3235.9999999999968
 30
0.0
 11
5328.0
 21
-3298.9999999999968
 31
0.0
1001
ACDBBLOCKREPETAG
1070
     1
1071
       27
1005
127070
  0
LINE
  5
127071
  8
OBJECT
 10
5472.0
 20
-3298.9999999999968
 30
0.0
 11
5472.0
 21
-3235.9999999999968
 31
0.0
1001
ACDBBLOCKREPETAG
1070
     1
1071
       28
1005
127071
  0
LINE
  5
127072
  8
OBJECT
 10
5475.0
 20
-3298.9999999999968
 30
0.0
 11
5456.7802782663139
 21
-3298.9999999999968
 31
0.0
1001
ACDBBLOCKREPETAG
1070
     1
1071
       30
1005
127072
  0
LINE
  5
127073
  8
OBJECT
 10
5475.0
 20
-3298.9999999999968
 30
0.0
 11
5475.0
 21
-3422.9999999999968
 31
0.0
1001
ACDBBLOCKREPETAG
1070
     1
1071
       34
1005
127073
  0
POINT
  5
127074
  8
DOTS
 10
5400.0
 20
-3419.9999999999968
 30
0.0
1001
ACDBBLOCKREPETAG
1070
     1
1071
      187
1005
127074
  0
LINE
  5
127075
  8
CENTER
 10
5310.0
 20
-3347.9999999999968
 30
0.0
 11
5490.0
 21
-3347.9999999999968
 31
0.0
1001
ACDBBLOCKREPETAG
1070
     1
1071
       23
1005
127075
  0
CIRCLE
  5
127076
  8
OBJECT
 10
5400.0
 20
-3347.9999999999968
 30
0.0
 40
53.5
1001
ACDBBLOCKREPETAG
1070
     1
1071
       24
1005
127076
  0
CIRCLE
  5
127077
  8
OBJECT
 10
5400.0
 20
-3347.9999999999968
 30
0.0
 40
67.0
1001
ACDBBLOCKREPETAG
1070
     1
1071
       25
1005
127077
  0
ARC
  5
127078
  8
OBJECT
 10
5400.0
 20
-3347.9999999999968
 30
0.0
 40
75.0
 50
286.26020470824182
 51
253.73979529175821
1001
ACDBBLOCKREPETAG
1070
     1
1071
       27
1005
127078
  0
LINE
  5
127079
  8
OBJECT
 10
5379.0
 20
-3419.9999999999968
 30
0.0
 11
5421.0
 21
-3419.9999999999968
 31
0.0
1001
ACDBBLOCKREPETAG
1070
     1
1071
       28
1005
127079
  0
LINE
  5
12707A
  8
OBJECT
 10
5343.2197217336861
 20
-3298.9999999999968
 30
0.0
 11
5325.0
 21
-3298.9999999999968
 31
0.0
1001
ACDBBLOCKREPETAG
1070
     1
1071
       30
1005
127072
  0
ARC
  5
128D98
  8
OBJECT
 10
6000.0
 20
-199.99999999999909
 30
0.0
 40
50.0
 50
298.81994300000417
 51
228.52376955965491
1001
ACDBBLOCKREPETAG
1070
     1
1071
        1
1005
128D98
  0
LINE
  5
128D99
  8
CENTER
 10
6080.0
 20
-199.99999999999909
 30
0.0
 11
5905.0
 21
-199.99999999999909
 31
0.0
1001
ACDBBLOCKREPETAG
1070
     1
1071
        2
1005
128D99
  0
LINE
  5
128D9A
  8
CENTER
 10
6000.0
 20
-294.99999999999892
 30
0.0
 11
6000.0
 21
-104.9999999999991
 31
0.0
1001
ACDBBLOCKREPETAG
1070
     1
1071
        3
1005
128D9A
  0
CIRCLE
  5
128D9B
  8
OBJECT
 10
6000.0
 20
-199.99999999999909
 30
0.0
 40
70.0
1001
ACDBBLOCKREPETAG
1070
     1
1071
        4
1005
128D9B
  0
CIRCLE
  5
128D9C
  8
OBJECT
 10
6000.0
 20
-199.99999999999909
 30
0.0
 40
77.0
1001
ACDBBLOCKREPETAG
1070
     1
1071
        5
1005
128D9C
  0
ARC
  5
128D9D
  8
OBJECT
 10
6000.0
 20
-199.99999999999909
 30
0.0
 40
80.0
 50
50.80503257388439
 51
309.19496742611562
1001
ACDBBLOCKREPETAG
1070
     1
1071
        6
1005
128D9D
  0
LINE
  5
128D9E
  8
OBJECT
 10
6045.6618002273253
 20
-137.99999999999909
 30
0.0
 11
6080.0
 21
-137.99999999999909
 31
0.0
1001
ACDBBLOCKREPETAG
1070
     1
1071
        7
1005
128D9E
  0
LINE
  5
128D9F
  8
OBJECT
 10
6045.6618002273253
 20
-261.99999999999909
 30
0.0
 11
6080.0
 21
-261.99999999999909
 31
0.0
1001
ACDBBLOCKREPETAG
1070
     1
1071
        8
1005
128D9F
  0
LINE
  5
128DA0
  8
OBJECT
 10
6024.1029330932433
 20
-243.80694712379321
 30
0.0
 11
6024.1029330932433
 21
-234.00999999999931
 31
0.0
1001
ACDBBLOCKREPETAG
1070
     1
1071
      138
1005
128DA0
  0
LINE
  5
128DA1
  8
OBJECT
 10
6024.1029330932433
 20
-234.00999999999931
 30
0.0
 11
5986.589017458864
 21
-218.4712273665109
 31
0.0
1001
ACDBBLOCKREPETAG
1070
     1
1071
      139
1005
128DA1
  0
ARC
  5
128DA2
  8
OBJECT
 10
5982.7621831352126
 20
-227.7100226916217
 30
0.0
 40
10.0
 50
67.500000000096563
 51
154.0147343702935
1001
ACDBBLOCKREPETAG
1070
     1
1071
      140
1005
128DA2
  0
ARC
  5
128DA3
  8
OBJECT
 10
5986.022399255904
 20
-225.81327182420949
 30
0.0
 40
7.0
 50
67.500000000096563
 51
154.01473377488369
1001
ACDBBLOCKREPETAG
1070
     1
1071
      141
1005
128DA3
  0
ARC
  5
128DA4
  8
OBJECT
 10
5976.5796953073141
 20
-207.1289369828437
 30
0.0
 40
60.031113246032611
 50
314.07020130418567
 51
322.33936106089681
1001
ACDBBLOCKREPETAG
1070
     1
1071
      150
1005
128DA4
  0
LINE
  5
128DA5
  8
OBJECT
 10
5969.4199755553018
 20
-243.89888500818171
 30
0.0
 11
5979.7300520410208
 21
-222.74629179048591
 31
0.0
1001
ACDBBLOCKREPETAG
1070
     1
1071
      151
1005
128DA5
  0
LINE
  5
128DA6
  8
OBJECT
 10
5965.2972169006089
 20
-240.71813901882729
 30
0.0
 11
5973.773115639814
 21
-223.32862273686899
 31
0.0
1001
ACDBBLOCKREPETAG
1070
     1
1071
      152
1005
128DA6
  0
CIRCLE
  5
128DA7
  8
OBJECT
 10
6000.0
 20
-199.99999999999909
 30
0.0
 40
53.5
1001
ACDBBLOCKREPETAG
1070
     1
1071
      153
1005
128DA7
  0
POINT
  5
128DA8
  8
DOTS
 10
6000.0
 20
-199.99999999999909
 30
0.0
 50
270.0
1001
ACDBBLOCKREPETAG
1070
     1
1071
      159
1005
128DA8
  0
ARC
  5
128DA9
  8
OBJECT
 10
4000.0
 20
-199.99999999999909
 30
0.0
 40
50.0
 50
298.81994300000417
 51
228.52376955967449
1001
ACDBBLOCKREPETAG
1070
     1
1071
        1
1005
128DA9
  0
LINE
  5
128DAA
  8
CENTER
 10
4080.0
 20
-199.99999999999909
 30
0.0
 11
3905.0
 21
-199.99999999999909
 31
0.0
1001
ACDBBLOCKREPETAG
1070
     1
1071
        2
1005
128DAA
  0
LINE
  5
128DAB
  8
CENTER
 10
4000.0
 20
-294.99999999999892
 30
0.0
 11
4000.0
 21
-104.9999999999991
 31
0.0
1001
ACDBBLOCKREPETAG
1070
     1
1071
        3
1005
128DAB
  0
CIRCLE
  5
128DAC
  8
OBJECT
 10
4000.0
 20
-199.99999999999909
 30
0.0
 40
70.0
1001
ACDBBLOCKREPETAG
1070
     1
1071
        4
1005
128DAC
  0
CIRCLE
  5
128DAD
  8
OBJECT
 10
4000.0
 20
-199.99999999999909
 30
0.0
 40
77.0
1001
ACDBBLOCKREPETAG
1070
     1
1071
        5
1005
128DAD
  0
ARC
  5
128DAE
  8
OBJECT
 10
4000.0
 20
-199.99999999999909
 30
0.0
 40
80.0
 50
50.805032573864182
 51
309.1949674261358
1001
ACDBBLOCKREPETAG
1070
     1
1071
        6
1005
128DAE
  0
LINE
  5
128DAF
  8
OBJECT
 10
4045.661800227324
 20
-137.99999999999909
 30
0.0
 11
4080.0
 21
-137.99999999999909
 31
0.0
1001
ACDBBLOCKREPETAG
1070
     1
1071
        7
1005
128DAF
  0
LINE
  5
128DB0
  8
OBJECT
 10
4045.661800227324
 20
-261.99999999999909
 30
0.0
 11
4080.0
 21
-261.99999999999909
 31
0.0
1001
ACDBBLOCKREPETAG
1070
     1
1071
        8
1005
128DB0
  0
LINE
  5
128DB1
  8
OBJECT
 10
4024.1029330932411
 20
-243.80694712379321
 30
0.0
 11
4024.1029330932411
 21
-234.00999999999931
 31
0.0
1001
ACDBBLOCKREPETAG
1070
     1
1071
      138
1005
128DB1
  0
LINE
  5
128DB2
  8
OBJECT
 10
4024.1029330932411
 20
-234.00999999999931
 30
0.0
 11
3986.589017458864
 21
-218.4712273665109
 31
0.0
1001
ACDBBLOCKREPETAG
1070
     1
1071
      139
1005
128DB2
  0
ARC
  5
128DB3
  8
OBJECT
 10
3982.7621831352162
 20
-227.7100226916217
 30
0.0
 40
10.0
 50
67.500000000120636
 51
154.0147343702935
1001
ACDBBLOCKREPETAG
1070
     1
1071
      140
1005
128DB3
  0
ARC
  5
128DB4
  8
OBJECT
 10
3986.022399255904
 20
-225.81327182420949
 30
0.0
 40
7.0
 50
67.500000000120636
 51
154.01473377488369
1001
ACDBBLOCKREPETAG
1070
     1
1071
      141
1005
128DB4
  0
ARC
  5
128DB5
  8
OBJECT
 10
3976.579695307315
 20
-207.1289369828437
 30
0.0
 40
60.031113246032611
 50
314.07020130418567
 51
322.33936106091278
1001
ACDBBLOCKREPETAG
1070
     1
1071
      150
1005
128DB5
  0
LINE
  5
128DB6
  8
OBJECT
 10
3969.4199755553018
 20
-243.89888500818171
 30
0.0
 11
3979.7300520410208
 21
-222.74629179048591
 31
0.0
1001
ACDBBLOCKREPETAG
1070
     1
1071
      151
1005
128DB6
  0
LINE
  5
128DB7
  8
OBJECT
 10
3965.2972169006089
 20
-240.71813901882729
 30
0.0
 11
3973.7731156398149
 21
-223.32862273686899
 31
0.0
1001
ACDBBLOCKREPETAG
1070
     1
1071
      152
1005
128DB7
  0
CIRCLE
  5
128DB8
  8
OBJECT
 10
4000.0
 20
-199.99999999999909
 30
0.0
 40
53.5
1001
ACDBBLOCKREPETAG
1070
     1
1071
      153
1005
128DB8
  0
POINT
  5
128DB9
  8
DOTS
 10
4000.0
 20
-199.99999999999909
 30
0.0
 50
270.0
1001
ACDBBLOCKREPETAG
1070
     1
1071
      159
1005
128DB9
  0
ARC
  5
128DBA
  8
OBJECT
 10
2000.0
 20
-199.99999999999909
 30
0.0
 40
50.0
 50
298.81994300000417
 51
228.52376955967449
1001
ACDBBLOCKREPETAG
1070
     1
1071
        1
1005
128DBA
  0
LINE
  5
128DBB
  8
CENTER
 10
2080.0
 20
-199.99999999999909
 30
0.0
 11
1905.0
 21
-199.99999999999909
 31
0.0
1001
ACDBBLOCKREPETAG
1070
     1
1071
        2
1005
128DBB
  0
LINE
  5
128DBC
  8
CENTER
 10
2000.0
 20
-294.99999999999892
 30
0.0
 11
2000.0
 21
-104.9999999999991
 31
0.0
1001
ACDBBLOCKREPETAG
1070
     1
1071
        3
1005
128DBC
  0
CIRCLE
  5
128DBD
  8
OBJECT
 10
2000.0
 20
-199.99999999999909
 30
0.0
 40
70.0
1001
ACDBBLOCKREPETAG
1070
     1
1071
        4
1005
128DBD
  0
CIRCLE
  5
128DBE
  8
OBJECT
 10
2000.0
 20
-199.99999999999909
 30
0.0
 40
77.0
1001
ACDBBLOCKREPETAG
1070
     1
1071
        5
1005
128DBE
  0
ARC
  5
128DBF
  8
OBJECT
 10
2000.0
 20
-199.99999999999909
 30
0.0
 40
80.0
 50
50.805032573864182
 51
309.1949674261358
1001
ACDBBLOCKREPETAG
1070
     1
1071
        6
1005
128DBF
  0
LINE
  5
128DC0
  8
OBJECT
 10
2045.6618002273251
 20
-137.99999999999909
 30
0.0
 11
2080.0
 21
-137.99999999999909
 31
0.0
1001
ACDBBLOCKREPETAG
1070
     1
1071
        7
1005
128DC0
  0
LINE
  5
128DC1
  8
OBJECT
 10
2045.6618002273251
 20
-261.99999999999909
 30
0.0
 11
2080.0
 21
-261.99999999999909
 31
0.0
1001
ACDBBLOCKREPETAG
1070
     1
1071
        8
1005
128DC1
  0
LINE
  5
128DC2
  8
OBJECT
 10
2024.102933093244
 20
-243.80694712379321
 30
0.0
 11
2024.102933093244
 21
-234.00999999999931
 31
0.0
1001
ACDBBLOCKREPETAG
1070
     1
1071
      138
1005
128DC2
  0
LINE
  5
128DC3
  8
OBJECT
 10
2024.102933093244
 20
-234.00999999999931
 30
0.0
 11
1986.589017458864
 21
-218.4712273665109
 31
0.0
1001
ACDBBLOCKREPETAG
1070
     1
1071
      139
1005
128DC3
  0
ARC
  5
128DC4
  8
OBJECT
 10
1982.7621831352151
 20
-227.7100226916217
 30
0.0
 40
10.0
 50
67.500000000120636
 51
154.0147343702935
1001
ACDBBLOCKREPETAG
1070
     1
1071
      140
1005
128DC4
  0
ARC
  5
128DC5
  8
OBJECT
 10
1986.022399255904
 20
-225.81327182420949
 30
0.0
 40
7.0
 50
67.500000000120636
 51
154.01473377487801
1001
ACDBBLOCKREPETAG
1070
     1
1071
      141
1005
128DC5
  0
ARC
  5
128DC6
  8
OBJECT
 10
1976.579695307315
 20
-207.1289369828437
 30
0.0
 40
60.031113246032611
 50
314.07020130418567
 51
322.33936106091278
1001
ACDBBLOCKREPETAG
1070
     1
1071
      150
1005
128DC6
  0
LINE
  5
128DC7
  8
OBJECT
 10
1969.4199755553
 20
-243.89888500818171
 30
0.0
 11
1979.7300520410211
 21
-222.74629179048591
 31
0.0
1001
ACDBBLOCKREPETAG
1070
     1
1071
      151
1005
128DC7
  0
LINE
  5
128DC8
  8
OBJECT
 10
1965.2972169006091
 20
-240.71813901882729
 30
0.0
 11
1973.7731156398149
 21
-223.32862273686899
 31
0.0
1001
ACDBBLOCKREPETAG
1070
     1
1071
      152
1005
128DC8
  0
CIRCLE
  5
128DC9
  8
OBJECT
 10
2000.0
 20
-199.99999999999909
 30
0.0
 40
53.5
1001
ACDBBLOCKREPETAG
1070
     1
1071
      153
1005
128DC9
  0
POINT
  5
128DCA
  8
DOTS
 10
2000.0
 20
-199.99999999999909
 30
0.0
 50
270.0
1001
ACDBBLOCKREPETAG
1070
     1
1071
      159
1005
128DCA
  0
ARC
  5
128DCB
  8
OBJECT
 10
5000.0
 20
-3014.9999999999959
 30
0.0
 40
50.0
 50
298.81994299999963
 51
228.52376955965599
1001
ACDBBLOCKREPETAG
1070
     1
1071
        1
1005
128DCB
  0
LINE
  5
128DCC
  8
CENTER
 10
5080.0
 20
-3014.9999999999959
 30
0.0
 11
4905.0
 21
-3014.9999999999959
 31
0.0
1001
ACDBBLOCKREPETAG
1070
     1
1071
        2
1005
128DCC
  0
LINE
  5
128DCD
  8
CENTER
 10
5000.0
 20
-3109.9999999999959
 30
0.0
 11
5000.0
 21
-2919.9999999999959
 31
0.0
1001
ACDBBLOCKREPETAG
1070
     1
1071
        3
1005
128DCD
  0
CIRCLE
  5
128DCE
  8
OBJECT
 10
5000.0
 20
-3014.9999999999959
 30
0.0
 40
70.0
1001
ACDBBLOCKREPETAG
1070
     1
1071
        4
1005
128DCE
  0
CIRCLE
  5
128DCF
  8
OBJECT
 10
5000.0
 20
-3014.9999999999959
 30
0.0
 40
77.0
1001
ACDBBLOCKREPETAG
1070
     1
1071
        5
1005
128DCF
  0
ARC
  5
128DD0
  8
OBJECT
 10
5000.0
 20
-3014.9999999999959
 30
0.0
 40
80.0
 50
50.805032573882329
 51
309.19496742611773
1001
ACDBBLOCKREPETAG
1070
     1
1071
        6
1005
128DD0
  0
LINE
  5
128DD1
  8
OBJECT
 10
5045.6618002273253
 20
-2952.9999999999959
 30
0.0
 11
5080.0
 21
-2952.9999999999959
 31
0.0
1001
ACDBBLOCKREPETAG
1070
     1
1071
        7
1005
128DD1
  0
LINE
  5
128DD2
  8
OBJECT
 10
5045.6618002273253
 20
-3076.9999999999959
 30
0.0
 11
5080.0
 21
-3076.9999999999959
 31
0.0
1001
ACDBBLOCKREPETAG
1070
     1
1071
        8
1005
128DD2
  0
LINE
  5
128DD3
  8
OBJECT
 10
5024.1029330932424
 20
-3058.80694712379
 30
0.0
 11
5024.1029330932424
 21
-3049.0099999999961
 31
0.0
1001
ACDBBLOCKREPETAG
1070
     1
1071
      138
1005
128DD3
  0
LINE
  5
128DD4
  8
OBJECT
 10
5024.1029330932424
 20
-3049.0099999999961
 30
0.0
 11
4986.589017458864
 21
-3033.4712273665082
 31
0.0
1001
ACDBBLOCKREPETAG
1070
     1
1071
      139
1005
128DD4
  0
ARC
  5
128DD5
  8
OBJECT
 10
4982.7621831352144
 20
-3042.7100226916191
 30
0.0
 40
10.0
 50
67.500000000100925
 51
154.01473437029199
1001
ACDBBLOCKREPETAG
1070
     1
1071
      140
1005
128DD5
  0
ARC
  5
128DD6
  8
OBJECT
 10
4986.022399255904
 20
-3040.8132718242082
 30
0.0
 40
7.0
 50
67.500000000100925
 51
154.01473377488071
1001
ACDBBLOCKREPETAG
1070
     1
1071
      141
1005
128DD6
  0
ARC
  5
128DD7
  8
OBJECT
 10
4976.5796953073141
 20
-3022.128936982841
 30
0.0
 40
60.031113246032611
 50
314.070201304188
 51
322.33936106089038
1001
ACDBBLOCKREPETAG
1070
     1
1071
      150
1005
128DD7
  0
LINE
  5
128DD8
  8
OBJECT
 10
4969.4199755553018
 20
-3058.8988850081791
 30
0.0
 11
4979.7300520410208
 21
-3037.7462917904832
 31
0.0
1001
ACDBBLOCKREPETAG
1070
     1
1071
      151
1005
128DD8
  0
LINE
  5
128DD9
  8
OBJECT
 10
4965.2972169006089
 20
-3055.7181390188248
 30
0.0
 11
4973.7731156398149
 21
-3038.3286227368649
 31
0.0
1001
ACDBBLOCKREPETAG
1070
     1
1071
      152
1005
128DD9
  0
CIRCLE
  5
128DDA
  8
OBJECT
 10
5000.0
 20
-3014.9999999999959
 30
0.0
 40
53.5
1001
ACDBBLOCKREPETAG
1070
     1
1071
      153
1005
128DDA
  0
POINT
  5
128DDB
  8
DOTS
 10
5000.0
 20
-3014.9999999999959
 30
0.0
 50
270.0
1001
ACDBBLOCKREPETAG
1070
     1
1071
      159
1005
128DDB
  0
ARC
  5
128DDC
  8
OBJECT
 10
4000.0
 20
-3014.9999999999959
 30
0.0
 40
50.0
 50
298.81994299999963
 51
228.52376955967549
1001
ACDBBLOCKREPETAG
1070
     1
1071
        1
1005
128DDC
  0
LINE
  5
128DDD
  8
CENTER
 10
4080.0
 20
-3014.9999999999959
 30
0.0
 11
3905.0
 21
-3014.9999999999959
 31
0.0
1001
ACDBBLOCKREPETAG
1070
     1
1071
        2
1005
128DDD
  0
LINE
  5
128DDE
  8
CENTER
 10
4000.0
 20
-3109.9999999999959
 30
0.0
 11
4000.0
 21
-2919.9999999999959
 31
0.0
1001
ACDBBLOCKREPETAG
1070
     1
1071
        3
1005
128DDE
  0
CIRCLE
  5
128DDF
  8
OBJECT
 10
4000.0
 20
-3014.9999999999959
 30
0.0
 40
70.0
1001
ACDBBLOCKREPETAG
1070
     1
1071
        4
1005
128DDF
  0
CIRCLE
  5
128DE0
  8
OBJECT
 10
4000.0
 20
-3014.9999999999959
 30
0.0
 40
77.0
1001
ACDBBLOCKREPETAG
1070
     1
1071
        5
1005
128DE0
  0
ARC
  5
128DE1
  8
OBJECT
 10
4000.0
 20
-3014.9999999999959
 30
0.0
 40
80.0
 50
50.805032573862128
 51
309.19496742613791
1001
ACDBBLOCKREPETAG
1070
     1
1071
        6
1005
128DE1
  0
LINE
  5
128DE2
  8
OBJECT
 10
4045.661800227324
 20
-2952.9999999999959
 30
0.0
 11
4080.0
 21
-2952.9999999999959
 31
0.0
1001
ACDBBLOCKREPETAG
1070
     1
1071
        7
1005
128DE2
  0
LINE
  5
128DE3
  8
OBJECT
 10
4045.661800227324
 20
-3076.9999999999959
 30
0.0
 11
4080.0
 21
-3076.9999999999959
 31
0.0
1001
ACDBBLOCKREPETAG
1070
     1
1071
        8
1005
128DE3
  0
LINE
  5
128DE4
  8
OBJECT
 10
4024.1029330932411
 20
-3058.80694712379
 30
0.0
 11
4024.1029330932411
 21
-3049.0099999999961
 31
0.0
1001
ACDBBLOCKREPETAG
1070
     1
1071
      138
1005
128DE4
  0
LINE
  5
128DE5
  8
OBJECT
 10
4024.1029330932411
 20
-3049.0099999999961
 30
0.0
 11
3986.589017458864
 21
-3033.4712273665082
 31
0.0
1001
ACDBBLOCKREPETAG
1070
     1
1071
      139
1005
128DE5
  0
ARC
  5
128DE6
  8
OBJECT
 10
3982.7621831352162
 20
-3042.7100226916191
 30
0.0
 40
10.0
 50
67.500000000124999
 51
154.01473437029199
1001
ACDBBLOCKREPETAG
1070
     1
1071
      140
1005
128DE6
  0
ARC
  5
128DE7
  8
OBJECT
 10
3986.022399255904
 20
-3040.8132718242082
 30
0.0
 40
7.0
 50
67.500000000124999
 51
154.01473377488071
1001
ACDBBLOCKREPETAG
1070
     1
1071
      141
1005
128DE7
  0
ARC
  5
128DE8
  8
OBJECT
 10
3976.579695307315
 20
-3022.128936982841
 30
0.0
 40
60.031113246032611
 50
314.070201304188
 51
322.3393610609063
1001
ACDBBLOCKREPETAG
1070
     1
1071
      150
1005
128DE8
  0
LINE
  5
128DE9
  8
OBJECT
 10
3969.4199755553018
 20
-3058.8988850081791
 30
0.0
 11
3979.7300520410208
 21
-3037.7462917904832
 31
0.0
1001
ACDBBLOCKREPETAG
1070
     1
1071
      151
1005
128DE9
  0
LINE
  5
128DEA
  8
OBJECT
 10
3965.2972169006089
 20
-3055.7181390188248
 30
0.0
 11
3973.7731156398149
 21
-3038.3286227368649
 31
0.0
1001
ACDBBLOCKREPETAG
1070
     1
1071
      152
1005
128DEA
  0
CIRCLE
  5
128DEB
  8
OBJECT
 10
4000.0
 20
-3014.9999999999959
 30
0.0
 40
53.5
1001
ACDBBLOCKREPETAG
1070
     1
1071
      153
1005
128DEB
  0
POINT
  5
128DEC
  8
DOTS
 10
4000.0
 20
-3014.9999999999959
 30
0.0
 50
270.0
1001
ACDBBLOCKREPETAG
1070
     1
1071
      159
1005
128DEC
  0
ARC
  5
128DED
  8
OBJECT
 10
3000.0
 20
-3014.9999999999959
 30
0.0
 40
50.0
 50
298.81994299999963
 51
228.52376955967549
1001
ACDBBLOCKREPETAG
1070
     1
1071
        1
1005
128DED
  0
LINE
  5
128DEE
  8
CENTER
 10
3080.0
 20
-3014.9999999999959
 30
0.0
 11
2905.0
 21
-3014.9999999999959
 31
0.0
1001
ACDBBLOCKREPETAG
1070
     1
1071
        2
1005
128DEE
  0
LINE
  5
128DEF
  8
CENTER
 10
3000.0
 20
-3109.9999999999959
 30
0.0
 11
3000.0
 21
-2919.9999999999959
 31
0.0
1001
ACDBBLOCKREPETAG
1070
     1
1071
        3
1005
128DEF
  0
CIRCLE
  5
128DF0
  8
OBJECT
 10
3000.0
 20
-3014.9999999999959
 30
0.0
 40
70.0
1001
ACDBBLOCKREPETAG
1070
     1
1071
        4
1005
128DF0
  0
CIRCLE
  5
128DF1
  8
OBJECT
 10
3000.0
 20
-3014.9999999999959
 30
0.0
 40
77.0
1001
ACDBBLOCKREPETAG
1070
     1
1071
        5
1005
128DF1
  0
ARC
  5
128DF2
  8
OBJECT
 10
3000.0
 20
-3014.9999999999959
 30
0.0
 40
80.0
 50
50.805032573862128
 51
309.19496742613791
1001
ACDBBLOCKREPETAG
1070
     1
1071
        6
1005
128DF2
  0
LINE
  5
128DF3
  8
OBJECT
 10
3045.6618002273249
 20
-2952.9999999999959
 30
0.0
 11
3080.0
 21
-2952.9999999999959
 31
0.0
1001
ACDBBLOCKREPETAG
1070
     1
1071
        7
1005
128DF3
  0
LINE
  5
128DF4
  8
OBJECT
 10
3045.6618002273249
 20
-3076.9999999999959
 30
0.0
 11
3080.0
 21
-3076.9999999999959
 31
0.0
1001
ACDBBLOCKREPETAG
1070
     1
1071
        8
1005
128DF4
  0
LINE
  5
128DF5
  8
OBJECT
 10
3024.1029330932438
 20
-3058.80694712379
 30
0.0
 11
3024.1029330932438
 21
-3049.0099999999961
 31
0.0
1001
ACDBBLOCKREPETAG
1070
     1
1071
      138
1005
128DF5
  0
LINE
  5
128DF6
  8
OBJECT
 10
3024.1029330932438
 20
-3049.0099999999961
 30
0.0
 11
2986.589017458864
 21
-3033.4712273665082
 31
0.0
1001
ACDBBLOCKREPETAG
1070
     1
1071
      139
1005
128DF6
  0
ARC
  5
128DF7
  8
OBJECT
 10
2982.7621831352162
 20
-3042.7100226916191
 30
0.0
 40
10.0
 50
67.500000000124999
 51
154.01473437029199
1001
ACDBBLOCKREPETAG
1070
     1
1071
      140
1005
128DF7
  0
ARC
  5
128DF8
  8
OBJECT
 10
2986.022399255904
 20
-3040.8132718242082
 30
0.0
 40
7.0
 50
67.500000000124999
 51
154.01473377488071
1001
ACDBBLOCKREPETAG
1070
     1
1071
      141
1005
128DF8
  0
ARC
  5
128DF9
  8
OBJECT
 10
2976.579695307315
 20
-3022.128936982841
 30
0.0
 40
60.031113246032611
 50
314.070201304188
 51
322.3393610609063
1001
ACDBBLOCKREPETAG
1070
     1
1071
      150
1005
128DF9
  0
LINE
  5
128DFA
  8
OBJECT
 10
2969.4199755553018
 20
-3058.8988850081791
 30
0.0
 11
2979.7300520410222
 21
-3037.7462917904832
 31
0.0
1001
ACDBBLOCKREPETAG
1070
     1
1071
      151
1005
128DFA
  0
LINE
  5
128DFB
  8
OBJECT
 10
2965.2972169006089
 20
-3055.7181390188248
 30
0.0
 11
2973.7731156398149
 21
-3038.3286227368649
 31
0.0
1001
ACDBBLOCKREPETAG
1070
     1
1071
      152
1005
128DFB
  0
CIRCLE
  5
128DFC
  8
OBJECT
 10
3000.0
 20
-3014.9999999999959
 30
0.0
 40
53.5
1001
ACDBBLOCKREPETAG
1070
     1
1071
      153
1005
128DFC
  0
POINT
  5
128DFD
  8
DOTS
 10
3000.0
 20
-3014.9999999999959
 30
0.0
 50
270.0
1001
ACDBBLOCKREPETAG
1070
     1
1071
      159
1005
128DFD
  0
ARC
  5
128DFE
  8
OBJECT
 10
2000.0
 20
-3014.9999999999959
 30
0.0
 40
50.0
 50
298.81994299999963
 51
228.52376955967549
1001
ACDBBLOCKREPETAG
1070
     1
1071
        1
1005
128DFE
  0
LINE
  5
128DFF
  8
CENTER
 10
2080.0
 20
-3014.9999999999959
 30
0.0
 11
1905.0
 21
-3014.9999999999959
 31
0.0
1001
ACDBBLOCKREPETAG
1070
     1
1071
        2
1005
128DFF
  0
LINE
  5
128E00
  8
CENTER
 10
2000.0
 20
-3109.9999999999959
 30
0.0
 11
2000.0
 21
-2919.9999999999959
 31
0.0
1001
ACDBBLOCKREPETAG
1070
     1
1071
        3
1005
128E00
  0
CIRCLE
  5
128E01
  8
OBJECT
 10
2000.0
 20
-3014.9999999999959
 30
0.0
 40
70.0
1001
ACDBBLOCKREPETAG
1070
     1
1071
        4
1005
128E01
  0
CIRCLE
  5
128E02
  8
OBJECT
 10
2000.0
 20
-3014.9999999999959
 30
0.0
 40
77.0
1001
ACDBBLOCKREPETAG
1070
     1
1071
        5
1005
128E02
  0
ARC
  5
128E03
  8
OBJECT
 10
2000.0
 20
-3014.9999999999959
 30
0.0
 40
80.0
 50
50.805032573862128
 51
309.19496742613791
1001
ACDBBLOCKREPETAG
1070
     1
1071
        6
1005
128E03
  0
LINE
  5
128E04
  8
OBJECT
 10
2045.6618002273251
 20
-2952.9999999999959
 30
0.0
 11
2080.0
 21
-2952.9999999999959
 31
0.0
1001
ACDBBLOCKREPETAG
1070
     1
1071
        7
1005
128E04
  0
LINE
  5
128E05
  8
OBJECT
 10
2045.6618002273251
 20
-3076.9999999999959
 30
0.0
 11
2080.0
 21
-3076.9999999999959
 31
0.0
1001
ACDBBLOCKREPETAG
1070
     1
1071
        8
1005
128E05
  0
LINE
  5
128E06
  8
OBJECT
 10
2024.102933093244
 20
-3058.80694712379
 30
0.0
 11
2024.102933093244
 21
-3049.0099999999961
 31
0.0
1001
ACDBBLOCKREPETAG
1070
     1
1071
      138
1005
128E06
  0
LINE
  5
128E07
  8
OBJECT
 10
2024.102933093244
 20
-3049.0099999999961
 30
0.0
 11
1986.589017458864
 21
-3033.4712273665082
 31
0.0
1001
ACDBBLOCKREPETAG
1070
     1
1071
      139
1005
128E07
  0
ARC
  5
128E08
  8
OBJECT
 10
1982.7621831352151
 20
-3042.7100226916191
 30
0.0
 40
10.0
 50
67.500000000124999
 51
154.01473437029199
1001
ACDBBLOCKREPETAG
1070
     1
1071
      140
1005
128E08
  0
ARC
  5
128E09
  8
OBJECT
 10
1986.022399255904
 20
-3040.8132718242082
 30
0.0
 40
7.0
 50
67.500000000124999
 51
154.01473377487511
1001
ACDBBLOCKREPETAG
1070
     1
1071
      141
1005
128E09
  0
ARC
  5
128E0A
  8
OBJECT
 10
1976.579695307315
 20
-3022.128936982841
 30
0.0
 40
60.031113246032611
 50
314.070201304188
 51
322.3393610609063
1001
ACDBBLOCKREPETAG
1070
     1
1071
      150
1005
128E0A
  0
LINE
  5
128E0B
  8
OBJECT
 10
1969.4199755553
 20
-3058.8988850081791
 30
0.0
 11
1979.7300520410211
 21
-3037.7462917904832
 31
0.0
1001
ACDBBLOCKREPETAG
1070
     1
1071
      151
1005
128E0B
  0
LINE
  5
128E0C
  8
OBJECT
 10
1965.2972169006091
 20
-3055.7181390188248
 30
0.0
 11
1973.7731156398149
 21
-3038.3286227368649
 31
0.0
1001
ACDBBLOCKREPETAG
1070
     1
1071
      152
1005
128E0C
  0
CIRCLE
  5
128E0D
  8
OBJECT
 10
2000.0
 20
-3014.9999999999959
 30
0.0
 40
53.5
1001
ACDBBLOCKREPETAG
1070
     1
1071
      153
1005
128E0D
  0
POINT
  5
128E0E
  8
DOTS
 10
2000.0
 20
-3014.9999999999959
 30
0.0
 50
270.0
1001
ACDBBLOCKREPETAG
1070
     1
1071
      159
1005
128E0E
  0
LINE
  5
128E0F
  8
OBJECT
 10
4923.0
 20
-3235.9999999999968
 30
0.0
 11
4923.0
 21
-3214.9999999999968
 31
0.0
1001
ACDBBLOCKREPETAG
1070
     1
1071
        0
1005
128E0F
  0
LINE
  5
128E10
  8
OBJECT
 10
4923.0
 20
-3214.9999999999968
 30
0.0
 11
5077.0
 21
-3214.9999999999968
 31
0.0
1001
ACDBBLOCKREPETAG
1070
     1
1071
        1
1005
128E10
  0
LINE
  5
128E11
  8
HIDDEN
 10
4943.0
 20
-3284.9999999999968
 30
0.0
 11
5057.0
 21
-3284.9999999999968
 31
0.0
1001
ACDBBLOCKREPETAG
1070
     1
1071
        2
1005
128E11
  0
LINE
  5
128E12
  8
OBJECT
 10
5077.0
 20
-3214.9999999999968
 30
0.0
 11
5077.0
 21
-3235.9999999999968
 31
0.0
1001
ACDBBLOCKREPETAG
1070
     1
1071
        3
1005
128E12
  0
LINE
  5
128E13
  8
OBJECT
 10
5077.0
 20
-3235.9999999999968
 30
0.0
 11
4923.0
 21
-3235.9999999999968
 31
0.0
1001
ACDBBLOCKREPETAG
1070
     1
1071
        4
1005
128E13
  0
LINE
  5
128E14
  8
CENTER
 10
5000.0
 20
-3199.9999999999968
 30
0.0
 11
5000.0
 21
-3434.9999999999968
 31
0.0
1001
ACDBBLOCKREPETAG
1070
     1
1071
        5
1005
128E14
  0
LINE
  5
128E15
  8
OBJECT
 10
4925.0
 20
-3298.9999999999968
 30
0.0
 11
4925.0
 21
-3422.9999999999968
 31
0.0
1001
ACDBBLOCKREPETAG
1070
     1
1071
        6
1005
128E15
  0
LINE
  5
128E16
  8
OBJECT
 10
4928.0
 20
-3235.9999999999968
 30
0.0
 11
4928.0
 21
-3298.9999999999968
 31
0.0
1001
ACDBBLOCKREPETAG
1070
     1
1071
        7
1005
128E16
  0
LINE
  5
128E17
  8
OBJECT
 10
5072.0
 20
-3298.9999999999968
 30
0.0
 11
5072.0
 21
-3235.9999999999968
 31
0.0
1001
ACDBBLOCKREPETAG
1070
     1
1071
        8
1005
128E17
  0
LINE
  5
128E18
  8
OBJECT
 10
5074.9999999997999
 20
-3422.9999999997772
 30
0.0
 11
5080.0
 21
-3422.9999999999968
 31
0.0
1001
ACDBBLOCKREPETAG
1070
     1
1071
        9
1005
128E18
  0
LINE
  5
128E19
  8
OBJECT
 10
5080.0
 20
-3298.9999999999968
 30
0.0
 11
4925.0
 21
-3298.9999999999968
 31
0.0
1001
ACDBBLOCKREPETAG
1070
     1
1071
       10
1005
128E19
  0
ARC
  5
128E1A
  8
OBJECT
 10
5200.6872746716726
 20
-3414.408099410105
 30
0.0
 40
170.6350503965856
 50
137.44134459184301
 51
149.9194958133665
1001
ACDBBLOCKREPETAG
1070
     1
1071
       15
1005
128E1A
  0
ARC
  5
128E1B
  8
OBJECT
 10
5118.8455987040506
 20
-3370.8827266953631
 30
0.0
 40
78.072222021763665
 50
147.4551531037684
 51
164.66365997719291
1001
ACDBBLOCKREPETAG
1070
     1
1071
       16
1005
128E1B
  0
ARC
  5
128E1C
  8
OBJECT
 10
5085.7554349608727
 20
-3360.9999999999968
 30
0.0
 40
43.55353926885617
 50
165.6884523008477
 51
194.3115476991523
1001
ACDBBLOCKREPETAG
1070
     1
1071
       17
1005
128E1C
  0
ARC
  5
128E1D
  8
OBJECT
 10
5200.6872746716726
 20
-3307.5919005898891
 30
0.0
 40
170.6350503965856
 50
210.0805041866335
 51
222.55865540815699
1001
ACDBBLOCKREPETAG
1070
     1
1071
       18
1005
128E1D
  0
ARC
  5
128E1E
  8
OBJECT
 10
5118.8455987040506
 20
-3351.1172733046342
 30
0.0
 40
78.072222021763665
 50
195.33634002280701
 51
212.5448468962316
1001
ACDBBLOCKREPETAG
1070
     1
1071
       19
1005
128E1E
  0
POINT
  5
128E1F
  8
DOTS
 10
5000.0
 20
-3419.9999999999968
 30
0.0
1001
ACDBBLOCKREPETAG
1070
     1
1071
      186
1005
128E1F
  0
LINE
  5
128E20
  8
OBJECT
 10
4323.0
 20
-3235.9999999999968
 30
0.0
 11
4323.0
 21
-3214.9999999999968
 31
0.0
1001
ACDBBLOCKREPETAG
1070
     1
1071
       20
1005
128E20
  0
LINE
  5
128E21
  8
OBJECT
 10
4323.0
 20
-3214.9999999999968
 30
0.0
 11
4477.0
 21
-3214.9999999999968
 31
0.0
1001
ACDBBLOCKREPETAG
1070
     1
1071
       21
1005
128E21
  0
LINE
  5
128E22
  8
HIDDEN
 10
4343.0
 20
-3284.9999999999968
 30
0.0
 11
4457.0
 21
-3284.9999999999968
 31
0.0
1001
ACDBBLOCKREPETAG
1070
     1
1071
       22
1005
128E22
  0
LINE
  5
128E23
  8
OBJECT
 10
4477.0
 20
-3214.9999999999968
 30
0.0
 11
4477.0
 21
-3235.9999999999968
 31
0.0
1001
ACDBBLOCKREPETAG
1070
     1
1071
       23
1005
128E23
  0
LINE
  5
128E24
  8
OBJECT
 10
4477.0
 20
-3235.9999999999968
 30
0.0
 11
4323.0
 21
-3235.9999999999968
 31
0.0
1001
ACDBBLOCKREPETAG
1070
     1
1071
       24
1005
128E24
  0
LINE
  5
128E25
  8
CENTER
 10
4400.0
 20
-3199.9999999999968
 30
0.0
 11
4400.0
 21
-3434.9999999999968
 31
0.0
1001
ACDBBLOCKREPETAG
1070
     1
1071
       25
1005
128E25
  0
LINE
  5
128E26
  8
OBJECT
 10
4325.0
 20
-3298.9999999999968
 30
0.0
 11
4325.0
 21
-3422.9999999999968
 31
0.0
1001
ACDBBLOCKREPETAG
1070
     1
1071
       26
1005
128E26
  0
LINE
  5
128E27
  8
OBJECT
 10
4328.0
 20
-3235.9999999999968
 30
0.0
 11
4328.0
 21
-3298.9999999999968
 31
0.0
1001
ACDBBLOCKREPETAG
1070
     1
1071
       27
1005
128E27
  0
LINE
  5
128E28
  8
OBJECT
 10
4472.0
 20
-3298.9999999999968
 30
0.0
 11
4472.0
 21
-3235.9999999999968
 31
0.0
1001
ACDBBLOCKREPETAG
1070
     1
1071
       28
1005
128E28
  0
LINE
  5
128E29
  8
OBJECT
 10
4475.0
 20
-3298.9999999999968
 30
0.0
 11
4325.0
 21
-3298.9999999999968
 31
0.0
1001
ACDBBLOCKREPETAG
1070
     1
1071
       30
1005
128E29
  0
LINE
  5
128E2A
  8
OBJECT
 10
4475.0
 20
-3298.9999999999968
 30
0.0
 11
4475.0
 21
-3422.9999999999968
 31
0.0
1001
ACDBBLOCKREPETAG
1070
     1
1071
       34
1005
128E2A
  0
POINT
  5
128E2B
  8
DOTS
 10
4400.0
 20
-3419.9999999999968
 30
0.0
1001
ACDBBLOCKREPETAG
1070
     1
1071
      187
1005
128E2B
  0
LINE
  5
128E2C
  8
OBJECT
 10
3923.0
 20
-3235.9999999999968
 30
0.0
 11
3923.0
 21
-3214.9999999999968
 31
0.0
1001
ACDBBLOCKREPETAG
1070
     1
1071
        0
1005
128E2C
  0
LINE
  5
128E2D
  8
OBJECT
 10
3923.0
 20
-3214.9999999999968
 30
0.0
 11
4077.0
 21
-3214.9999999999968
 31
0.0
1001
ACDBBLOCKREPETAG
1070
     1
1071
        1
1005
128E2D
  0
LINE
  5
128E2E
  8
HIDDEN
 10
3943.0
 20
-3284.9999999999968
 30
0.0
 11
4057.0
 21
-3284.9999999999968
 31
0.0
1001
ACDBBLOCKREPETAG
1070
     1
1071
        2
1005
128E2E
  0
LINE
  5
128E2F
  8
OBJECT
 10
4077.0
 20
-3214.9999999999968
 30
0.0
 11
4077.0
 21
-3235.9999999999968
 31
0.0
1001
ACDBBLOCKREPETAG
1070
     1
1071
        3
1005
128E2F
  0
LINE
  5
128E30
  8
OBJECT
 10
4077.0
 20
-3235.9999999999968
 30
0.0
 11
3923.0
 21
-3235.9999999999968
 31
0.0
1001
ACDBBLOCKREPETAG
1070
     1
1071
        4
1005
128E30
  0
LINE
  5
128E31
  8
CENTER
 10
4000.0
 20
-3199.9999999999968
 30
0.0
 11
4000.0
 21
-3434.9999999999968
 31
0.0
1001
ACDBBLOCKREPETAG
1070
     1
1071
        5
1005
128E31
  0
LINE
  5
128E32
  8
OBJECT
 10
3925.0
 20
-3298.9999999999968
 30
0.0
 11
3925.0
 21
-3422.9999999999968
 31
0.0
1001
ACDBBLOCKREPETAG
1070
     1
1071
        6
1005
128E32
  0
LINE
  5
128E33
  8
OBJECT
 10
3928.0
 20
-3235.9999999999968
 30
0.0
 11
3928.0
 21
-3298.9999999999968
 31
0.0
1001
ACDBBLOCKREPETAG
1070
     1
1071
        7
1005
128E33
  0
LINE
  5
128E34
  8
OBJECT
 10
4072.0
 20
-3298.9999999999968
 30
0.0
 11
4072.0
 21
-3235.9999999999968
 31
0.0
1001
ACDBBLOCKREPETAG
1070
     1
1071
        8
1005
128E34
  0
LINE
  5
128E35
  8
OBJECT
 10
4074.999999999799
 20
-3422.9999999997772
 30
0.0
 11
4080.0
 21
-3422.9999999999968
 31
0.0
1001
ACDBBLOCKREPETAG
1070
     1
1071
        9
1005
128E35
  0
LINE
  5
128E36
  8
OBJECT
 10
4080.0
 20
-3298.9999999999968
 30
0.0
 11
3925.0
 21
-3298.9999999999968
 31
0.0
1001
ACDBBLOCKREPETAG
1070
     1
1071
       10
1005
128E36
  0
ARC
  5
128E37
  8
OBJECT
 10
4200.6872746716726
 20
-3414.408099410105
 30
0.0
 40
170.6350503965856
 50
137.44134459184301
 51
149.9194958133665
1001
ACDBBLOCKREPETAG
1070
     1
1071
       15
1005
128E37
  0
ARC
  5
128E38
  8
OBJECT
 10
4118.8455987040506
 20
-3370.8827266953631
 30
0.0
 40
78.072222021763665
 50
147.4551531037684
 51
164.663659977186
1001
ACDBBLOCKREPETAG
1070
     1
1071
       16
1005
128E38
  0
ARC
  5
128E39
  8
OBJECT
 10
4085.7554349608722
 20
-3360.9999999999968
 30
0.0
 40
43.55353926885617
 50
165.6884523008477
 51
194.3115476991523
1001
ACDBBLOCKREPETAG
1070
     1
1071
       17
1005
128E39
  0
ARC
  5
128E3A
  8
OBJECT
 10
4200.6872746716726
 20
-3307.5919005898891
 30
0.0
 40
170.6350503965856
 50
210.0805041866335
 51
222.55865540815699
1001
ACDBBLOCKREPETAG
1070
     1
1071
       18
1005
128E3A
  0
ARC
  5
128E3B
  8
OBJECT
 10
4118.8455987040506
 20
-3351.1172733046342
 30
0.0
 40
78.072222021763665
 50
195.33634002281391
 51
212.5448468962316
1001
ACDBBLOCKREPETAG
1070
     1
1071
       19
1005
128E3B
  0
POINT
  5
128E3C
  8
DOTS
 10
4000.0
 20
-3419.9999999999968
 30
0.0
1001
ACDBBLOCKREPETAG
1070
     1
1071
      186
1005
128E3C
  0
LINE
  5
128E3D
  8
OBJECT
 10
3323.0
 20
-3235.9999999999968
 30
0.0
 11
3323.0
 21
-3214.9999999999968
 31
0.0
1001
ACDBBLOCKREPETAG
1070
     1
1071
       20
1005
128E3D
  0
LINE
  5
128E3E
  8
OBJECT
 10
3323.0
 20
-3214.9999999999968
 30
0.0
 11
3477.0
 21
-3214.9999999999968
 31
0.0
1001
ACDBBLOCKREPETAG
1070
     1
1071
       21
1005
128E3E
  0
LINE
  5
128E3F
  8
HIDDEN
 10
3343.0
 20
-3284.9999999999968
 30
0.0
 11
3457.0
 21
-3284.9999999999968
 31
0.0
1001
ACDBBLOCKREPETAG
1070
     1
1071
       22
1005
128E3F
  0
LINE
  5
128E40
  8
OBJECT
 10
3477.0
 20
-3214.9999999999968
 30
0.0
 11
3477.0
 21
-3235.9999999999968
 31
0.0
1001
ACDBBLOCKREPETAG
1070
     1
1071
       23
1005
128E40
  0
LINE
  5
128E41
  8
OBJECT
 10
3477.0
 20
-3235.9999999999968
 30
0.0
 11
3323.0
 21
-3235.9999999999968
 31
0.0
1001
ACDBBLOCKREPETAG
1070
     1
1071
       24
1005
128E41
  0
LINE
  5
128E42
  8
CENTER
 10
3400.0
 20
-3199.9999999999968
 30
0.0
 11
3400.0
 21
-3434.9999999999968
 31
0.0
1001
ACDBBLOCKREPETAG
1070
     1
1071
       25
1005
128E42
  0
LINE
  5
128E43
  8
OBJECT
 10
3325.0
 20
-3298.9999999999968
 30
0.0
 11
3325.0
 21
-3422.9999999999968
 31
0.0
1001
ACDBBLOCKREPETAG
1070
     1
1071
       26
1005
128E43
  0
LINE
  5
128E44
  8
OBJECT
 10
3328.0
 20
-3235.9999999999968
 30
0.0
 11
3328.0
 21
-3298.9999999999968
 31
0.0
1001
ACDBBLOCKREPETAG
1070
     1
1071
       27
1005
128E44
  0
LINE
  5
128E45
  8
OBJECT
 10
3472.0
 20
-3298.9999999999968
 30
0.0
 11
3472.0
 21
-3235.9999999999968
 31
0.0
1001
ACDBBLOCKREPETAG
1070
     1
1071
       28
1005
128E45
  0
LINE
  5
128E46
  8
OBJECT
 10
3475.0
 20
-3298.9999999999968
 30
0.0
 11
3325.0
 21
-3298.9999999999968
 31
0.0
1001
ACDBBLOCKREPETAG
1070
     1
1071
       30
1005
128E46
  0
LINE
  5
128E47
  8
OBJECT
 10
3475.0
 20
-3298.9999999999968
 30
0.0
 11
3475.0
 21
-3422.9999999999968
 31
0.0
1001
ACDBBLOCKREPETAG
1070
     1
1071
       34
1005
128E47
  0
POINT
  5
128E48
  8
DOTS
 10
3400.0
 20
-3419.9999999999968
 30
0.0
1001
ACDBBLOCKREPETAG
1070
     1
1071
      187
1005
128E48
  0
LINE
  5
128E49
  8
OBJECT
 10
2923.0
 20
-3235.9999999999968
 30
0.0
 11
2923.0
 21
-3214.9999999999968
 31
0.0
1001
ACDBBLOCKREPETAG
1070
     1
1071
        0
1005
128E49
  0
LINE
  5
128E4A
  8
OBJECT
 10
2923.0
 20
-3214.9999999999968
 30
0.0
 11
3077.0
 21
-3214.9999999999968
 31
0.0
1001
ACDBBLOCKREPETAG
1070
     1
1071
        1
1005
128E4A
  0
LINE
  5
128E4B
  8
HIDDEN
 10
2943.0
 20
-3284.9999999999968
 30
0.0
 11
3057.0
 21
-3284.9999999999968
 31
0.0
1001
ACDBBLOCKREPETAG
1070
     1
1071
        2
1005
128E4B
  0
LINE
  5
128E4C
  8
OBJECT
 10
3077.0
 20
-3214.9999999999968
 30
0.0
 11
3077.0
 21
-3235.9999999999968
 31
0.0
1001
ACDBBLOCKREPETAG
1070
     1
1071
        3
1005
128E4C
  0
LINE
  5
128E4D
  8
OBJECT
 10
3077.0
 20
-3235.9999999999968
 30
0.0
 11
2923.0
 21
-3235.9999999999968
 31
0.0
1001
ACDBBLOCKREPETAG
1070
     1
1071
        4
1005
128E4D
  0
LINE
  5
128E4E
  8
CENTER
 10
3000.0
 20
-3199.9999999999968
 30
0.0
 11
3000.0
 21
-3434.9999999999968
 31
0.0
1001
ACDBBLOCKREPETAG
1070
     1
1071
        5
1005
128E4E
  0
LINE
  5
128E4F
  8
OBJECT
 10
2925.0
 20
-3298.9999999999968
 30
0.0
 11
2925.0
 21
-3422.9999999999968
 31
0.0
1001
ACDBBLOCKREPETAG
1070
     1
1071
        6
1005
128E4F
  0
LINE
  5
128E50
  8
OBJECT
 10
2928.0
 20
-3235.9999999999968
 30
0.0
 11
2928.0
 21
-3298.9999999999968
 31
0.0
1001
ACDBBLOCKREPETAG
1070
     1
1071
        7
1005
128E50
  0
LINE
  5
128E51
  8
OBJECT
 10
3072.0
 20
-3298.9999999999968
 30
0.0
 11
3072.0
 21
-3235.9999999999968
 31
0.0
1001
ACDBBLOCKREPETAG
1070
     1
1071
        8
1005
128E51
  0
LINE
  5
128E52
  8
OBJECT
 10
3074.9999999997999
 20
-3422.9999999997772
 30
0.0
 11
3080.0
 21
-3422.9999999999968
 31
0.0
1001
ACDBBLOCKREPETAG
1070
     1
1071
        9
1005
128E52
  0
LINE
  5
128E53
  8
OBJECT
 10
3080.0
 20
-3298.9999999999968
 30
0.0
 11
2925.0
 21
-3298.9999999999968
 31
0.0
1001
ACDBBLOCKREPETAG
1070
     1
1071
       10
1005
128E53
  0
ARC
  5
128E54
  8
OBJECT
 10
3200.6872746716722
 20
-3414.408099410105
 30
0.0
 40
170.6350503965856
 50
137.44134459184301
 51
149.9194958133665
1001
ACDBBLOCKREPETAG
1070
     1
1071
       15
1005
128E54
  0
ARC
  5
128E55
  8
OBJECT
 10
3118.8455987040511
 20
-3370.8827266953631
 30
0.0
 40
78.072222021763665
 50
147.4551531037684
 51
164.663659977186
1001
ACDBBLOCKREPETAG
1070
     1
1071
       16
1005
128E55
  0
ARC
  5
128E56
  8
OBJECT
 10
3085.7554349608731
 20
-3360.9999999999968
 30
0.0
 40
43.55353926885617
 50
165.6884523008477
 51
194.3115476991523
1001
ACDBBLOCKREPETAG
1070
     1
1071
       17
1005
128E56
  0
ARC
  5
128E57
  8
OBJECT
 10
3200.6872746716722
 20
-3307.5919005898891
 30
0.0
 40
170.6350503965856
 50
210.0805041866335
 51
222.55865540815699
1001
ACDBBLOCKREPETAG
1070
     1
1071
       18
1005
128E57
  0
ARC
  5
128E58
  8
OBJECT
 10
3118.8455987040511
 20
-3351.1172733046342
 30
0.0
 40
78.072222021763665
 50
195.33634002281391
 51
212.5448468962316
1001
ACDBBLOCKREPETAG
1070
     1
1071
       19
1005
128E58
  0
POINT
  5
128E59
  8
DOTS
 10
3000.0
 20
-3419.9999999999968
 30
0.0
1001
ACDBBLOCKREPETAG
1070
     1
1071
      186
1005
128E59
  0
LINE
  5
128E5A
  8
OBJECT
 10
2323.0
 20
-3235.9999999999968
 30
0.0
 11
2323.0
 21
-3214.9999999999968
 31
0.0
1001
ACDBBLOCKREPETAG
1070
     1
1071
       20
1005
128E5A
  0
LINE
  5
128E5B
  8
OBJECT
 10
2323.0
 20
-3214.9999999999968
 30
0.0
 11
2477.0
 21
-3214.9999999999968
 31
0.0
1001
ACDBBLOCKREPETAG
1070
     1
1071
       21
1005
128E5B
  0
LINE
  5
128E5C
  8
HIDDEN
 10
2343.0
 20
-3284.9999999999968
 30
0.0
 11
2457.0
 21
-3284.9999999999968
 31
0.0
1001
ACDBBLOCKREPETAG
1070
     1
1071
       22
1005
128E5C
  0
LINE
  5
128E5D
  8
OBJECT
 10
2477.0
 20
-3214.9999999999968
 30
0.0
 11
2477.0
 21
-3235.9999999999968
 31
0.0
1001
ACDBBLOCKREPETAG
1070
     1
1071
       23
1005
128E5D
  0
LINE
  5
128E5E
  8
OBJECT
 10
2477.0
 20
-3235.9999999999968
 30
0.0
 11
2323.0
 21
-3235.9999999999968
 31
0.0
1001
ACDBBLOCKREPETAG
1070
     1
1071
       24
1005
128E5E
  0
LINE
  5
128E5F
  8
CENTER
 10
2400.0
 20
-3199.9999999999968
 30
0.0
 11
2400.0
 21
-3434.9999999999968
 31
0.0
1001
ACDBBLOCKREPETAG
1070
     1
1071
       25
1005
128E5F
  0
LINE
  5
128E60
  8
OBJECT
 10
2325.0
 20
-3298.9999999999968
 30
0.0
 11
2325.0
 21
-3422.9999999999968
 31
0.0
1001
ACDBBLOCKREPETAG
1070
     1
1071
       26
1005
128E60
  0
LINE
  5
128E61
  8
OBJECT
 10
2328.0
 20
-3235.9999999999968
 30
0.0
 11
2328.0
 21
-3298.9999999999968
 31
0.0
1001
ACDBBLOCKREPETAG
1070
     1
1071
       27
1005
128E61
  0
LINE
  5
128E62
  8
OBJECT
 10
2472.0
 20
-3298.9999999999968
 30
0.0
 11
2472.0
 21
-3235.9999999999968
 31
0.0
1001
ACDBBLOCKREPETAG
1070
     1
1071
       28
1005
128E62
  0
LINE
  5
128E63
  8
OBJECT
 10
2475.0
 20
-3298.9999999999968
 30
0.0
 11
2325.0
 21
-3298.9999999999968
 31
0.0
1001
ACDBBLOCKREPETAG
1070
     1
1071
       30
1005
128E63
  0
LINE
  5
128E64
  8
OBJECT
 10
2475.0
 20
-3298.9999999999968
 30
0.0
 11
2475.0
 21
-3422.9999999999968
 31
0.0
1001
ACDBBLOCKREPETAG
1070
     1
1071
       34
1005
128E64
  0
POINT
  5
128E65
  8
DOTS
 10
2400.0
 20
-3419.9999999999968
 30
0.0
1001
ACDBBLOCKREPETAG
1070
     1
1071
      187
1005
128E65
  0
LINE
  5
128E66
  8
OBJECT
 10
1923.0
 20
-3235.9999999999968
 30
0.0
 11
1923.0
 21
-3214.9999999999968
 31
0.0
1001
ACDBBLOCKREPETAG
1070
     1
1071
        0
1005
128E66
  0
LINE
  5
128E67
  8
OBJECT
 10
1923.0
 20
-3214.9999999999968
 30
0.0
 11
2077.0
 21
-3214.9999999999968
 31
0.0
1001
ACDBBLOCKREPETAG
1070
     1
1071
        1
1005
128E67
  0
LINE
  5
128E68
  8
HIDDEN
 10
1943.0
 20
-3284.9999999999968
 30
0.0
 11
2057.0
 21
-3284.9999999999968
 31
0.0
1001
ACDBBLOCKREPETAG
1070
     1
1071
        2
1005
128E68
  0
LINE
  5
128E69
  8
OBJECT
 10
2077.0
 20
-3214.9999999999968
 30
0.0
 11
2077.0
 21
-3235.9999999999968
 31
0.0
1001
ACDBBLOCKREPETAG
1070
     1
1071
        3
1005
128E69
  0
LINE
  5
128E6A
  8
OBJECT
 10
2077.0
 20
-3235.9999999999968
 30
0.0
 11
1923.0
 21
-3235.9999999999968
 31
0.0
1001
ACDBBLOCKREPETAG
1070
     1
1071
        4
1005
128E6A
  0
LINE
  5
128E6B
  8
CENTER
 10
2000.0
 20
-3199.9999999999968
 30
0.0
 11
2000.0
 21
-3434.9999999999968
 31
0.0
1001
ACDBBLOCKREPETAG
1070
     1
1071
        5
1005
128E6B
  0
LINE
  5
128E6C
  8
OBJECT
 10
1925.0
 20
-3298.9999999999968
 30
0.0
 11
1925.0
 21
-3422.9999999999968
 31
0.0
1001
ACDBBLOCKREPETAG
1070
     1
1071
        6
1005
128E6C
  0
LINE
  5
128E6D
  8
OBJECT
 10
1928.0
 20
-3235.9999999999968
 30
0.0
 11
1928.0
 21
-3298.9999999999968
 31
0.0
1001
ACDBBLOCKREPETAG
1070
     1
1071
        7
1005
128E6D
  0
LINE
  5
128E6E
  8
OBJECT
 10
2072.0
 20
-3298.9999999999968
 30
0.0
 11
2072.0
 21
-3235.9999999999968
 31
0.0
1001
ACDBBLOCKREPETAG
1070
     1
1071
        8
1005
128E6E
  0
LINE
  5
128E6F
  8
OBJECT
 10
2074.999999999799
 20
-3422.9999999997772
 30
0.0
 11
2080.0
 21
-3422.9999999999968
 31
0.0
1001
ACDBBLOCKREPETAG
1070
     1
1071
        9
1005
128E6F
  0
LINE
  5
128E70
  8
OBJECT
 10
2080.0
 20
-3298.9999999999968
 30
0.0
 11
1925.0
 21
-3298.9999999999968
 31
0.0
1001
ACDBBLOCKREPETAG
1070
     1
1071
       10
1005
128E70
  0
ARC
  5
128E71
  8
OBJECT
 10
2200.6872746716731
 20
-3414.408099410105
 30
0.0
 40
170.6350503965856
 50
137.44134459184301
 51
149.91949581335999
1001
ACDBBLOCKREPETAG
1070
     1
1071
       15
1005
128E71
  0
ARC
  5
128E72
  8
OBJECT
 10
2118.8455987040511
 20
-3370.8827266953631
 30
0.0
 40
78.072222021763665
 50
147.45515310377539
 51
164.663659977186
1001
ACDBBLOCKREPETAG
1070
     1
1071
       16
1005
128E72
  0
ARC
  5
128E73
  8
OBJECT
 10
2085.7554349608731
 20
-3360.9999999999968
 30
0.0
 40
43.55353926885617
 50
165.6884523008477
 51
194.3115476991523
1001
ACDBBLOCKREPETAG
1070
     1
1071
       17
1005
128E73
  0
ARC
  5
128E74
  8
OBJECT
 10
2200.6872746716731
 20
-3307.5919005898891
 30
0.0
 40
170.6350503965856
 50
210.08050418664001
 51
222.55865540815699
1001
ACDBBLOCKREPETAG
1070
     1
1071
       18
1005
128E74
  0
ARC
  5
128E75
  8
OBJECT
 10
2118.8455987040511
 20
-3351.1172733046342
 30
0.0
 40
78.072222021763665
 50
195.33634002281391
 51
212.54484689622461
1001
ACDBBLOCKREPETAG
1070
     1
1071
       19
1005
128E75
  0
POINT
  5
128E76
  8
DOTS
 10
2000.0
 20
-3419.9999999999968
 30
0.0
1001
ACDBBLOCKREPETAG
1070
     1
1071
      186
1005
128E76
  0
LINE
  5
128E77
  8
DIM
 10
2150.0
 20
-3061.9999999999959
 30
0.0
 11
2228.479620594459
 21
-3061.9999999999959
 31
0.0
  0
LINE
  5
128E78
  8
DIM
 10
2150.0
 20
-2967.9999999999959
 30
0.0
 11
2228.479620594459
 21
-2967.9999999999959
 31
0.0
  0
LINE
  5
128E79
  8
DIM
 10
2218.479620594459
 20
-3041.9999999999959
 30
0.0
 11
2218.479620594459
 21
-2987.9999999999959
 31
0.0
  0
INSERT
  5
128E7A
  8
DIM
  2
_OPEN30
 10
2218.479620594459
 20
-3061.9999999999959
 30
0.0
 41
20.0
 42
20.0
 43
20.0
 50
270.0
  0
INSERT
  5
128E7B
  8
DIM
  2
_OPEN30
 10
2218.479620594459
 20
-2967.9999999999959
 30
0.0
 41
20.0
 42
20.0
 43
20.0
 50
90.0
  0
INSERT
  5
128E7C
  8
OBJECT
  2
*U3
 10
0.0
 20
0.0
 30
0.0
  0
LINE
  5
128E7D
  8
DIM
 10
2150.0
 20
-3419.9999999999968
 30
0.0
 11
2226.8409284037339
 21
-3419.9999999999968
 31
0.0
  0
LINE
  5
128E7E
  8
DIM
 10
2165.0
 20
-3375.9999999999968
 30
0.0
 11
2226.8409284037339
 21
-3375.9999999999968
 31
0.0
  0
LINE
  5
128E7F
  8
DIM
 10
2216.840928403733
 20
-3439.9999999999968
 30
0.0
 11
2216.840928403733
 21
-3459.9999999999968
 31
0.0
  0
LINE
  5
128E80
  8
DIM
 10
2216.840928403733
 20
-3355.9999999999968
 30
0.0
 11
2216.840928403733
 21
-3335.9999999999968
 31
0.0
  0
LINE
  5
128E81
  8
DIM
 10
2216.840928403733
 20
-3419.9999999999968
 30
0.0
 11
2216.840928403733
 21
-3375.9999999999968
 31
0.0
  0
INSERT
  5
128E82
  8
DIM
  2
_OPEN30
 10
2216.840928403733
 20
-3419.9999999999968
 30
0.0
 41
20.0
 42
20.0
 43
20.0
 50
90.0
  0
INSERT
  5
128E83
  8
DIM
  2
_OPEN30
 10
2216.840928403733
 20
-3375.9999999999968
 30
0.0
 41
20.0
 42
20.0
 43
20.0
 50
270.0
  0
INSERT
  5
128E84
  8
OBJECT
  2
*U4
 10
0.0
 20
0.0
 30
0.0
  0
LINE
  5
128E85
  8
DIM
 10
2000.0
 20
-2909.9999999999959
 30
0.0
 11
2000.0
 21
-2877.208121984444
 31
0.0
  0
LINE
  5
128E86
  8
DIM
 10
2140.0
 20
-2957.9999999999959
 30
0.0
 11
2140.0
 21
-2877.208121984444
 31
0.0
  0
LINE
  5
128E87
  8
DIM
 10
2020.0
 20
-2887.208121984444
 30
0.0
 11
2120.0
 21
-2887.208121984444
 31
0.0
  0
INSERT
  5
128E88
  8
DIM
  2
_OPEN30
 10
2000.0
 20
-2887.208121984444
 30
0.0
 41
20.0
 42
20.0
 43
20.0
 50
180.0
  0
INSERT
  5
128E89
  8
DIM
  2
_OPEN30
 10
2140.0
 20
-2887.208121984444
 30
0.0
 41
20.0
 42
20.0
 43
20.0
  0
INSERT
  5
128E8A
  8
OBJECT
  2
*U5
 10
0.0
 20
0.0
 30
0.0
  0
TEXT
  5
128E8B
  8
SLIM
 10
2631.0
 20
-2792.5000160472709
 30
0.0
 40
40.0
  1
C寸法
 41
0.75
  0
TEXT
  5
128E8C
  8
SLIM
 10
2631.0
 20
-2722.50001604727
 30
0.0
 40
40.0
  1
B寸法
 41
0.75
  0
TEXT
  5
128E8D
  8
SLIM
 10
2630.2857142857142
 20
-2652.50001604727
 30
0.0
 40
40.0
  1
A寸法
 41
0.75
  0
TEXT
  5
128E8E
  8
SLIM
 10
3159.2857142857151
 20
-2792.5000160472709
 30
0.0
 40
40.0
  1
150
 41
0.75
  0
TEXT
  5
128E8F
  8
SLIM
 10
3029.2857142857151
 20
-2792.5000160472709
 30
0.0
 40
40.0
  1
140
 41
0.75
  0
TEXT
  5
128E90
  8
SLIM
 10
2769.2857142857151
 20
-2792.5000160472709
 30
0.0
 40
40.0
  1
140
 41
0.75
  0
TEXT
  5
128E91
  8
SLIM
 10
2899.2857142857151
 20
-2792.5000160472709
 30
0.0
 40
40.0
  1
140
 41
0.75
  0
TEXT
  5
128E92
  8
SLIM
 10
3170.7142857142858
 20
-2722.50001604727
 30
0.0
 40
40.0
  1
72
 41
0.75
  0
TEXT
  5
128E93
  8
SLIM
 10
3041.4285714285711
 20
-2722.50001604727
 30
0.0
 40
40.0
  1
59
 41
0.75
  0
TEXT
  5
128E94
  8
SLIM
 10
2780.0
 20
-2722.50001604727
 30
0.0
 40
40.0
  1
44
 41
0.75
  0
TEXT
  5
128E95
  8
SLIM
 10
2910.7142857142858
 20
-2722.50001604727
 30
0.0
 40
40.0
  1
52
 41
0.75
  0
TEXT
  5
128E96
  8
SLIM
 10
2891.0
 20
-2527.50001604727
 30
0.0
 40
40.0
  1
横枝管サイズ
 41
0.75
  0
TEXT
  5
128E97
  8
SLIM
 10
3136.2857142857151
 20
-2582.50001604727
 30
0.0
 40
30.0
  1
100（4）
 41
0.75
  0
TEXT
  5
128E98
  8
SLIM
 10
3014.857142857144
 20
-2582.50001604727
 30
0.0
 40
30.0
  1
75（3）
 41
0.75
  0
TEXT
  5
128E99
  8
SLIM
 10
2884.8571428571431
 20
-2582.50001604727
 30
0.0
 40
30.0
  1
65（2）
 41
0.75
  0
TEXT
  5
128E9A
  8
SLIM
 10
2757.0
 20
-2582.50001604727
 30
0.0
 40
30.0
  1
50（1）
 41
0.75
  0
TEXT
  5
128E9B
  8
SLIM
 10
3159.2857142857151
 20
-2652.50001604727
 30
0.0
 40
40.0
  1
150
 41
0.75
  0
TEXT
  5
128E9C
  8
SLIM
 10
3028.571428571428
 20
-2652.50001604727
 30
0.0
 40
40.0
  1
124
 41
0.75
  0
TEXT
  5
128E9D
  8
SLIM
 10
2780.0
 20
-2652.50001604727
 30
0.0
 40
40.0
  1
94
 41
0.75
  0
TEXT
  5
128E9E
  8
SLIM
 10
2902.1428571428569
 20
-2652.50001604727
 30
0.0
 40
40.0
  1
110
 41
0.75
  0
TEXT
  5
128E9F
  8
SLIM
 10
1849.9999999999991
 20
-2552.5
 30
0.0
 40
75.0
  1
枝管サイズ毎の形状
 41
0.75
  0
LINE
  5
128EA0
  8
OBJECT
 10
5150.0
 20
-3272.9999999999968
 30
0.0
 11
5143.0
 21
-3272.9999999999968
 31
0.0
1001
ACDBBLOCKREPETAG
1070
     1
1071
       64
1005
128EA0
  0
LINE
  5
128EA1
  8
OBJECT
 10
5143.0
 20
-3272.9999999999968
 30
0.0
 11
5143.0
 21
-3419.9999999999968
 31
0.0
1001
ACDBBLOCKREPETAG
1070
     1
1071
       65
1005
128EA1
  0
LINE
  5
128EA2
  8
OBJECT
 10
5101.5
 20
-3275.9999999999968
 30
0.0
 11
5101.5
 21
-3419.9999999999968
 31
0.0
1001
ACDBBLOCKREPETAG
1070
     1
1071
       66
1005
128EA2
  0
LINE
  5
128EA3
  8
OBJECT
 10
5090.0
 20
-3282.4999999999968
 30
0.0
 11
5090.0
 21
-3413.4999999999968
 31
0.0
1001
ACDBBLOCKREPETAG
1070
     1
1071
       67
1005
128EA3
  0
LINE
  5
128EA4
  8
OBJECT
 10
5086.0
 20
-3354.500000000005
 30
0.0
 11
5086.0
 21
-3419.9999999999968
 31
0.0
1001
ACDBBLOCKREPETAG
1070
     1
1071
       68
1005
128EA4
  0
LINE
  5
128EA5
  8
OBJECT
 10
5150.0
 20
-3419.9999999999968
 30
0.0
 11
5150.0
 21
-3272.9999999999968
 31
0.0
1001
ACDBBLOCKREPETAG
1070
     1
1071
       69
1005
128EA5
  0
LINE
  5
128EA6
  8
CENTER
 10
5165.0
 20
-3347.9999999999968
 30
0.0
 11
5070.4144144144157
 21
-3347.9999999999968
 31
0.0
1001
ACDBBLOCKREPETAG
1070
     1
1071
       70
1005
128EA6
  0
LINE
  5
128EA7
  8
OBJECT
 10
5083.0000000000045
 20
-3422.9999999999968
 30
0.0
 11
5080.0
 21
-3422.9999999999968
 31
0.0
1001
ACDBBLOCKREPETAG
1070
     1
1071
       71
1005
128EA7
  0
ARC
  5
128EA8
  8
OBJECT
 10
5091.8815171830656
 20
-3421.4555591801418
 30
0.0
 40
6.0
 50
60.52411099686767
 51
170.6927439126847
1001
ACDBBLOCKREPETAG
1070
     1
1071
       72
1005
128EA8
  0
ARC
  5
128EA9
  8
OBJECT
 10
5083.0
 20
-3419.9999999999968
 30
0.0
 40
3.0
 50
270.0
 51
350.69274391268482
1001
ACDBBLOCKREPETAG
1070
     1
1071
       73
1005
128EA9
  0
LINE
  5
128EAA
  8
OBJECT
 10
5081.0
 20
-3298.9999999999968
 30
0.0
 11
5080.0
 21
-3298.9999999999968
 31
0.0
1001
ACDBBLOCKREPETAG
1070
     1
1071
       74
1005
128EAA
  0
LINE
  5
128EAB
  8
OBJECT
 10
5150.0
 20
-3419.9999999999968
 30
0.0
 11
5101.5
 21
-3419.9999999999968
 31
0.0
1001
ACDBBLOCKREPETAG
1070
     1
1071
       75
1005
128EAB
  0
LINE
  5
128EAC
  8
OBJECT
 10
5101.5
 20
-3275.9999999999968
 30
0.0
 11
5090.0
 21
-3282.4999999999968
 31
0.0
1001
ACDBBLOCKREPETAG
1070
     1
1071
       76
1005
128EAC
  0
LINE
  5
128EAD
  8
OBJECT
 10
5143.0
 20
-3275.9999999999968
 30
0.0
 11
5101.5
 21
-3275.9999999999968
 31
0.0
1001
ACDBBLOCKREPETAG
1070
     1
1071
       77
1005
128EAD
  0
LINE
  5
128EAE
  8
OBJECT
 10
5086.0
 20
-3354.500000000005
 30
0.0
 11
5081.0
 21
-3298.9999999999968
 31
0.0
1001
ACDBBLOCKREPETAG
1070
     1
1071
       78
1005
128EAE
  0
LINE
  5
128EAF
  8
OBJECT
 10
5090.0
 20
-3282.4999999999968
 30
0.0
 11
5081.0
 21
-3298.9999999999968
 31
0.0
1001
ACDBBLOCKREPETAG
1070
     1
1071
       79
1005
128EAF
  0
LINE
  5
128EB0
  8
OBJECT
 10
5101.5
 20
-3419.9999999999968
 30
0.0
 11
5094.8338607230708
 21
-3416.232182147819
 31
0.0
1001
ACDBBLOCKREPETAG
1070
     1
1071
       80
1005
128EB0
  0
LINE
  5
128EB1
  8
HIDDEN
 10
5098.0
 20
-3404.9999999999968
 30
0.0
 11
5098.0
 21
-3290.9999999999968
 31
0.0
1001
ACDBBLOCKREPETAG
1070
     1
1071
       81
1005
128EB1
  0
LINE
  5
128EB2
  8
OBJECT
 10
5150.0
 20
-2939.9999999999959
 30
0.0
 11
5143.0
 21
-2939.9999999999959
 31
0.0
1001
ACDBBLOCKREPETAG
1070
     1
1071
       67
1005
128EB2
  0
LINE
  5
128EB3
  8
OBJECT
 10
5143.0
 20
-2939.9999999999959
 30
0.0
 11
5143.0
 21
-3089.9999999999959
 31
0.0
1001
ACDBBLOCKREPETAG
1070
     1
1071
       68
1005
128EB3
  0
LINE
  5
128EB4
  8
OBJECT
 10
5101.5
 20
-2942.9999999999959
 30
0.0
 11
5101.5
 21
-3086.9999999999959
 31
0.0
1001
ACDBBLOCKREPETAG
1070
     1
1071
       69
1005
128EB4
  0
LINE
  5
128EB5
  8
OBJECT
 10
5090.0
 20
-2949.4999999999959
 30
0.0
 11
5090.0
 21
-3080.4999999999959
 31
0.0
1001
ACDBBLOCKREPETAG
1070
     1
1071
       70
1005
128EB5
  0
LINE
  5
128EB6
  8
OBJECT
 10
5143.0
 20
-3089.9999999999959
 30
0.0
 11
5150.0
 21
-3089.9999999999959
 31
0.0
1001
ACDBBLOCKREPETAG
1070
     1
1071
       71
1005
128EB6
  0
LINE
  5
128EB7
  8
OBJECT
 10
5150.0
 20
-3089.9999999999959
 30
0.0
 11
5150.0
 21
-2939.9999999999959
 31
0.0
1001
ACDBBLOCKREPETAG
1070
     1
1071
       72
1005
128EB7
  0
LINE
  5
128EB8
  8
HIDDEN
 10
5098.0
 20
-3071.9999999999959
 30
0.0
 11
5098.0
 21
-2957.9999999999959
 31
0.0
1001
ACDBBLOCKREPETAG
1070
     1
1071
       73
1005
128EB8
  0
LINE
  5
128EB9
  8
CENTER
 10
5165.0
 20
-3014.9999999999959
 30
0.0
 11
5080.0
 21
-3014.9999999999959
 31
0.0
1001
ACDBBLOCKREPETAG
1070
     1
1071
       74
1005
128EB9
  0
LINE
  5
128EBA
  8
OBJECT
 10
5086.0
 20
-3076.9999999999959
 30
0.0
 11
5080.0
 21
-3076.9999999999959
 31
0.0
1001
ACDBBLOCKREPETAG
1070
     1
1071
       75
1005
128EBA
  0
LINE
  5
128EBB
  8
OBJECT
 10
5143.0
 20
-3086.9999999999959
 30
0.0
 11
5101.5
 21
-3086.9999999999959
 31
0.0
1001
ACDBBLOCKREPETAG
1070
     1
1071
       76
1005
128EBB
  0
LINE
  5
128EBC
  8
OBJECT
 10
5101.5
 20
-3086.9999999999959
 30
0.0
 11
5090.0
 21
-3080.4999999999959
 31
0.0
1001
ACDBBLOCKREPETAG
1070
     1
1071
       77
1005
128EBC
  0
LINE
  5
128EBD
  8
OBJECT
 10
5090.0
 20
-3080.4999999999959
 30
0.0
 11
5086.0
 21
-3076.9999999999959
 31
0.0
1001
ACDBBLOCKREPETAG
1070
     1
1071
       78
1005
128EBD
  0
LINE
  5
128EBE
  8
OBJECT
 10
5101.5
 20
-2942.9999999999959
 30
0.0
 11
5090.0
 21
-2949.4999999999959
 31
0.0
1001
ACDBBLOCKREPETAG
1070
     1
1071
       79
1005
128EBE
  0
LINE
  5
128EBF
  8
OBJECT
 10
5090.0
 20
-2949.4999999999959
 30
0.0
 11
5086.0
 21
-2952.9999999999959
 31
0.0
1001
ACDBBLOCKREPETAG
1070
     1
1071
       80
1005
128EBF
  0
ARC
  5
128EC0
  8
OBJECT
 10
5467.9000000000005
 20
-3014.9999999999959
 30
0.0
 40
386.89999999999998
 50
170.77870136260421
 51
189.22129863739571
1001
ACDBBLOCKREPETAG
1070
     1
1071
       81
1005
128EC0
  0
LINE
  5
128EC1
  8
OBJECT
 10
5086.0
 20
-2952.9999999999959
 30
0.0
 11
5080.0
 21
-2952.9999999999959
 31
0.0
1001
ACDBBLOCKREPETAG
1070
     1
1071
       82
1005
128EC1
  0
LINE
  5
128EC2
  8
OBJECT
 10
5143.0
 20
-2942.9999999999959
 30
0.0
 11
5101.5
 21
-2942.9999999999959
 31
0.0
1001
ACDBBLOCKREPETAG
1070
     1
1071
       83
1005
128EC2
  0
TEXT
  5
128EC3
  8
SLIM
 10
4884.25
 20
-3537.4999999999959
 30
0.0
 40
35.0
  1
通常枝100（4）
 41
0.75
  0
LINE
  5
128EC4
  8
CENTER
 10
4477.0
 20
-3360.9999999999968
 30
0.0
 11
4323.0
 21
-3360.9999999999968
 31
0.0
1001
ACDBBLOCKREPETAG
1070
     1
1071
       17
1005
128EC4
  0
CIRCLE
  5
128EC5
  8
OBJECT
 10
4400.0
 20
-3360.9999999999968
 30
0.0
 40
41.5
1001
ACDBBLOCKREPETAG
1070
     1
1071
       19
1005
128EC5
  0
CIRCLE
  5
128EC6
  8
OBJECT
 10
4400.0
 20
-3360.9999999999968
 30
0.0
 40
54.0
1001
ACDBBLOCKREPETAG
1070
     1
1071
       20
1005
128EC6
  0
ARC
  5
128EC7
  8
OBJECT
 10
4400.0
 20
-3360.9999999999968
 30
0.0
 40
62.0
 50
287.89655112921122
 51
252.1034488707887
1001
ACDBBLOCKREPETAG
1070
     1
1071
       21
1005
128EC7
  0
LINE
  5
128EC8
  8
OBJECT
 10
4380.947441116743
 20
-3419.9999999999968
 30
0.0
 11
4419.052558883257
 21
-3419.9999999999968
 31
0.0
1001
ACDBBLOCKREPETAG
1070
     1
1071
       22
1005
128EC8
  0
LINE
  5
128EC9
  8
OBJECT
 10
4133.0
 20
-3298.9999999999968
 30
0.0
 11
4140.0
 21
-3298.9999999999968
 31
0.0
1001
ACDBBLOCKREPETAG
1070
     1
1071
       45
1005
128EC9
  0
LINE
  5
128ECA
  8
OBJECT
 10
4140.0
 20
-3298.9999999999968
 30
0.0
 11
4140.0
 21
-3419.9999999999968
 31
0.0
1001
ACDBBLOCKREPETAG
1070
     1
1071
       46
1005
128ECA
  0
LINE
  5
128ECB
  8
OBJECT
 10
4133.0
 20
-3419.9999999999968
 30
0.0
 11
4133.0
 21
-3298.9999999999968
 31
0.0
1001
ACDBBLOCKREPETAG
1070
     1
1071
       47
1005
128ECB
  0
LINE
  5
128ECC
  8
CENTER
 10
4155.0
 20
-3360.9999999999968
 30
0.0
 11
4071.0
 21
-3360.9999999999968
 31
0.0
1001
ACDBBLOCKREPETAG
1070
     1
1071
       48
1005
128ECC
  0
LINE
  5
128ECD
  8
OBJECT
 10
4133.0
 20
-3301.9999999999968
 30
0.0
 11
4097.0
 21
-3301.9999999999968
 31
0.0
1001
ACDBBLOCKREPETAG
1070
     1
1071
       49
1005
128ECD
  0
LINE
  5
128ECE
  8
OBJECT
 10
4097.0
 20
-3301.9999999999968
 30
0.0
 11
4097.0
 21
-3419.9999999999968
 31
0.0
1001
ACDBBLOCKREPETAG
1070
     1
1071
       50
1005
128ECE
  0
LINE
  5
128ECF
  8
OBJECT
 10
4097.0
 20
-3419.9999999999968
 30
0.0
 11
4140.0
 21
-3419.9999999999968
 31
0.0
1001
ACDBBLOCKREPETAG
1070
     1
1071
       51
1005
128ECF
  0
LINE
  5
128ED0
  8
OBJECT
 10
4093.0
 20
-3306.4999999999968
 30
0.0
 11
4086.0
 21
-3306.4999999999968
 31
0.0
1001
ACDBBLOCKREPETAG
1070
     1
1071
       52
1005
128ED0
  0
LINE
  5
128ED1
  8
OBJECT
 10
4086.0
 20
-3415.4999999999968
 30
0.0
 11
4093.0
 21
-3415.4999999999968
 31
0.0
1001
ACDBBLOCKREPETAG
1070
     1
1071
       53
1005
128ED1
  0
LINE
  5
128ED2
  8
OBJECT
 10
4093.0
 20
-3415.4999999999968
 30
0.0
 11
4093.0
 21
-3306.4999999999968
 31
0.0
1001
ACDBBLOCKREPETAG
1070
     1
1071
       54
1005
128ED2
  0
LINE
  5
128ED3
  8
OBJECT
 10
4097.0
 20
-3301.9999999999968
 30
0.0
 11
4093.0
 21
-3306.4999999999968
 31
0.0
1001
ACDBBLOCKREPETAG
1070
     1
1071
       55
1005
128ED3
  0
LINE
  5
128ED4
  8
OBJECT
 10
4097.0
 20
-3419.9999999999968
 30
0.0
 11
4093.0
 21
-3415.4999999999968
 31
0.0
1001
ACDBBLOCKREPETAG
1070
     1
1071
       56
1005
128ED4
  0
LINE
  5
128ED5
  8
OBJECT
 10
4083.0
 20
-3298.9999999999968
 30
0.0
 11
4080.0
 21
-3298.9999999999968
 31
0.0
1001
ACDBBLOCKREPETAG
1070
     1
1071
       57
1005
128ED5
  0
ARC
  5
128ED6
  8
OBJECT
 10
4083.0
 20
-3301.9999999999968
 30
0.0
 40
3.0
 50
0.0
 51
90.0
1001
ACDBBLOCKREPETAG
1070
     1
1071
       58
1005
128ED6
  0
LINE
  5
128ED7
  8
OBJECT
 10
4080.0
 20
-3422.9999999999968
 30
0.0
 11
4083.0
 21
-3422.9999999999968
 31
0.0
1001
ACDBBLOCKREPETAG
1070
     1
1071
       59
1005
128ED7
  0
ARC
  5
128ED8
  8
OBJECT
 10
4083.0
 20
-3419.9999999999968
 30
0.0
 40
3.0
 50
270.0
 51
0.0
1001
ACDBBLOCKREPETAG
1070
     1
1071
       60
1005
128ED8
  0
LINE
  5
128ED9
  8
OBJECT
 10
4086.0
 20
-3419.9999999999968
 30
0.0
 11
4086.0
 21
-3301.9999999999968
 31
0.0
1001
ACDBBLOCKREPETAG
1070
     1
1071
       61
1005
128ED9
  0
LINE
  5
128EDA
  8
HIDDEN
 10
4088.0
 20
-3316.4999999999968
 30
0.0
 11
4088.0
 21
-3405.4999999999968
 31
0.0
1001
ACDBBLOCKREPETAG
1070
     1
1071
       63
1005
128EDA
  0
LINE
  5
128EDB
  8
OBJECT
 10
4133.0
 20
-2952.9999999999959
 30
0.0
 11
4140.0
 21
-2952.9999999999959
 31
0.0
1001
ACDBBLOCKREPETAG
1070
     1
1071
       47
1005
128EDB
  0
LINE
  5
128EDC
  8
OBJECT
 10
4140.0
 20
-2952.9999999999959
 30
0.0
 11
4140.0
 21
-3076.9999999999959
 31
0.0
1001
ACDBBLOCKREPETAG
1070
     1
1071
       48
1005
128EDC
  0
LINE
  5
128EDD
  8
OBJECT
 10
4140.0
 20
-3076.9999999999959
 30
0.0
 11
4133.0
 21
-3076.9999999999959
 31
0.0
1001
ACDBBLOCKREPETAG
1070
     1
1071
       49
1005
128EDD
  0
LINE
  5
128EDE
  8
OBJECT
 10
4133.0
 20
-3076.9999999999959
 30
0.0
 11
4133.0
 21
-2952.9999999999959
 31
0.0
1001
ACDBBLOCKREPETAG
1070
     1
1071
       50
1005
128EDE
  0
LINE
  5
128EDF
  8
CENTER
 10
4155.0
 20
-3014.9999999999959
 30
0.0
 11
4080.0
 21
-3014.9999999999959
 31
0.0
1001
ACDBBLOCKREPETAG
1070
     1
1071
       51
1005
128EDF
  0
LINE
  5
128EE0
  8
OBJECT
 10
4133.0
 20
-2955.9999999999959
 30
0.0
 11
4097.0
 21
-2955.9999999999959
 31
0.0
1001
ACDBBLOCKREPETAG
1070
     1
1071
       52
1005
128EE0
  0
LINE
  5
128EE1
  8
OBJECT
 10
4097.0
 20
-2955.9999999999959
 30
0.0
 11
4097.0
 21
-3073.9999999999959
 31
0.0
1001
ACDBBLOCKREPETAG
1070
     1
1071
       53
1005
128EE1
  0
LINE
  5
128EE2
  8
OBJECT
 10
4097.0
 20
-3073.9999999999959
 30
0.0
 11
4133.0
 21
-3073.9999999999959
 31
0.0
1001
ACDBBLOCKREPETAG
1070
     1
1071
       54
1005
128EE2
  0
LINE
  5
128EE3
  8
OBJECT
 10
4093.0
 20
-2960.4999999999959
 30
0.0
 11
4086.0
 21
-2960.4999999999959
 31
0.0
1001
ACDBBLOCKREPETAG
1070
     1
1071
       55
1005
128EE3
  0
LINE
  5
128EE4
  8
OBJECT
 10
4086.0
 20
-3069.4999999999959
 30
0.0
 11
4093.0
 21
-3069.4999999999959
 31
0.0
1001
ACDBBLOCKREPETAG
1070
     1
1071
       56
1005
128EE4
  0
LINE
  5
128EE5
  8
OBJECT
 10
4093.0
 20
-3069.4999999999959
 30
0.0
 11
4093.0
 21
-2960.4999999999959
 31
0.0
1001
ACDBBLOCKREPETAG
1070
     1
1071
       57
1005
128EE5
  0
LINE
  5
128EE6
  8
OBJECT
 10
4097.0
 20
-2955.9999999999959
 30
0.0
 11
4093.0
 21
-2960.4999999999959
 31
0.0
1001
ACDBBLOCKREPETAG
1070
     1
1071
       58
1005
128EE6
  0
LINE
  5
128EE7
  8
OBJECT
 10
4097.0
 20
-3073.9999999999959
 30
0.0
 11
4093.0
 21
-3069.4999999999959
 31
0.0
1001
ACDBBLOCKREPETAG
1070
     1
1071
       59
1005
128EE7
  0
LINE
  5
128EE8
  8
OBJECT
 10
4083.0
 20
-2952.9999999999959
 30
0.0
 11
4080.0
 21
-2952.9999999999959
 31
0.0
1001
ACDBBLOCKREPETAG
1070
     1
1071
       60
1005
128EE8
  0
ARC
  5
128EE9
  8
OBJECT
 10
4083.0
 20
-2955.9999999999959
 30
0.0
 40
3.0
 50
0.0
 51
90.0
1001
ACDBBLOCKREPETAG
1070
     1
1071
       61
1005
128EE9
  0
LINE
  5
128EEA
  8
OBJECT
 10
4080.0
 20
-3076.9999999999959
 30
0.0
 11
4083.0
 21
-3076.9999999999959
 31
0.0
1001
ACDBBLOCKREPETAG
1070
     1
1071
       62
1005
128EEA
  0
ARC
  5
128EEB
  8
OBJECT
 10
4083.0
 20
-3073.9999999999959
 30
0.0
 40
3.0
 50
270.0
 51
0.0
1001
ACDBBLOCKREPETAG
1070
     1
1071
       63
1005
128EEB
  0
LINE
  5
128EEC
  8
OBJECT
 10
4086.0
 20
-3073.9999999999959
 30
0.0
 11
4086.0
 21
-2955.9999999999959
 31
0.0
1001
ACDBBLOCKREPETAG
1070
     1
1071
       64
1005
128EEC
  0
LINE
  5
128EED
  8
HIDDEN
 10
4088.0
 20
-2970.4999999999959
 30
0.0
 11
4088.0
 21
-3059.4999999999959
 31
0.0
1001
ACDBBLOCKREPETAG
1070
     1
1071
       65
1005
128EED
  0
TEXT
  5
128EEE
  8
SLIM
 10
3894.25
 20
-3537.4999999999959
 30
0.0
 40
35.0
  1
通常枝75（3）
 41
0.75
  0
CIRCLE
  5
128EEF
  8
OBJECT
 10
3400.0
 20
-3367.9999999999968
 30
0.0
 40
35.5
1001
ACDBBLOCKREPETAG
1070
     1
1071
       10
1005
128EEF
  0
CIRCLE
  5
128EF0
  8
OBJECT
 10
3400.0
 20
-3360.9999999999968
 30
0.0
 40
62.0
1001
ACDBBLOCKREPETAG
1070
     1
1071
       11
1005
128EF0
  0
LINE
  5
128EF1
  8
CENTER
 10
3330.0
 20
-3367.9999999999968
 30
0.0
 11
3470.0
 21
-3367.9999999999968
 31
0.0
1001
ACDBBLOCKREPETAG
1070
     1
1071
       12
1005
128EF1
  0
CIRCLE
  5
128EF2
  8
OBJECT
 10
3400.0
 20
-3367.9999999999968
 30
0.0
 40
47.0
1001
ACDBBLOCKREPETAG
1070
     1
1071
       14
1005
128EF2
  0
ARC
  5
128EF3
  8
OBJECT
 10
3400.0
 20
-3367.9999999999968
 30
0.0
 40
55.0
 50
289.01126526011359
 51
250.98873473988641
1001
ACDBBLOCKREPETAG
1070
     1
1071
       15
1005
128EF3
  0
LINE
  5
128EF4
  8
OBJECT
 10
3382.0835271328328
 20
-3419.9999999999968
 30
0.0
 11
3417.9164728671681
 21
-3419.9999999999968
 31
0.0
1001
ACDBBLOCKREPETAG
1070
     1
1071
       16
1005
128EF4
  0
LINE
  5
128EF5
  8
OBJECT
 10
3133.0
 20
-3312.9999999999968
 30
0.0
 11
3140.0
 21
-3312.9999999999968
 31
0.0
1001
ACDBBLOCKREPETAG
1070
     1
1071
       26
1005
128EF5
  0
LINE
  5
128EF6
  8
OBJECT
 10
3140.0
 20
-3312.9999999999968
 30
0.0
 11
3140.0
 21
-3419.9999999999968
 31
0.0
1001
ACDBBLOCKREPETAG
1070
     1
1071
       27
1005
128EF6
  0
LINE
  5
128EF7
  8
OBJECT
 10
3133.0
 20
-3419.9999999999968
 30
0.0
 11
3133.0
 21
-3312.9999999999968
 31
0.0
1001
ACDBBLOCKREPETAG
1070
     1
1071
       28
1005
128EF7
  0
LINE
  5
128EF8
  8
CENTER
 10
3155.0
 20
-3367.9999999999968
 30
0.0
 11
3071.0
 21
-3367.9999999999968
 31
0.0
1001
ACDBBLOCKREPETAG
1070
     1
1071
       29
1005
128EF8
  0
LINE
  5
128EF9
  8
OBJECT
 10
3133.0
 20
-3315.9999999999968
 30
0.0
 11
3097.0
 21
-3315.9999999999968
 31
0.0
1001
ACDBBLOCKREPETAG
1070
     1
1071
       30
1005
128EF9
  0
LINE
  5
128EFA
  8
OBJECT
 10
3097.0
 20
-3315.9999999999968
 30
0.0
 11
3097.0
 21
-3419.9999999999968
 31
0.0
1001
ACDBBLOCKREPETAG
1070
     1
1071
       31
1005
128EFA
  0
LINE
  5
128EFB
  8
OBJECT
 10
3097.0
 20
-3419.9999999999968
 30
0.0
 11
3140.0
 21
-3419.9999999999968
 31
0.0
1001
ACDBBLOCKREPETAG
1070
     1
1071
       32
1005
128EFB
  0
LINE
  5
128EFC
  8
OBJECT
 10
3093.0
 20
-3320.4999999999968
 30
0.0
 11
3086.0
 21
-3320.4999999999968
 31
0.0
1001
ACDBBLOCKREPETAG
1070
     1
1071
       33
1005
128EFC
  0
LINE
  5
128EFD
  8
OBJECT
 10
3086.0
 20
-3415.4999999999968
 30
0.0
 11
3093.0
 21
-3415.4999999999968
 31
0.0
1001
ACDBBLOCKREPETAG
1070
     1
1071
       34
1005
128EFD
  0
LINE
  5
128EFE
  8
OBJECT
 10
3093.0
 20
-3415.4999999999968
 30
0.0
 11
3093.0
 21
-3320.4999999999968
 31
0.0
1001
ACDBBLOCKREPETAG
1070
     1
1071
       35
1005
128EFE
  0
LINE
  5
128EFF
  8
OBJECT
 10
3097.0
 20
-3315.9999999999968
 30
0.0
 11
3093.0
 21
-3320.4999999999968
 31
0.0
1001
ACDBBLOCKREPETAG
1070
     1
1071
       36
1005
128EFF
  0
LINE
  5
128F00
  8
OBJECT
 10
3097.0
 20
-3419.9999999999968
 30
0.0
 11
3093.0
 21
-3415.4999999999968
 31
0.0
1001
ACDBBLOCKREPETAG
1070
     1
1071
       37
1005
128F00
  0
LINE
  5
128F01
  8
OBJECT
 10
3083.0
 20
-3298.9999999999968
 30
0.0
 11
3080.0
 21
-3298.9999999999968
 31
0.0
1001
ACDBBLOCKREPETAG
1070
     1
1071
       38
1005
128F01
  0
ARC
  5
128F02
  8
OBJECT
 10
3083.0
 20
-3301.9999999999968
 30
0.0
 40
3.0
 50
0.0
 51
90.0
1001
ACDBBLOCKREPETAG
1070
     1
1071
       39
1005
128F02
  0
LINE
  5
128F03
  8
OBJECT
 10
3080.0
 20
-3422.9999999999968
 30
0.0
 11
3083.0
 21
-3422.9999999999968
 31
0.0
1001
ACDBBLOCKREPETAG
1070
     1
1071
       40
1005
128F03
  0
ARC
  5
128F04
  8
OBJECT
 10
3083.0
 20
-3419.9999999999968
 30
0.0
 40
3.0
 50
270.0
 51
0.0
1001
ACDBBLOCKREPETAG
1070
     1
1071
       41
1005
128F04
  0
LINE
  5
128F05
  8
OBJECT
 10
3086.0
 20
-3419.9999999999968
 30
0.0
 11
3086.0
 21
-3301.9999999999968
 31
0.0
1001
ACDBBLOCKREPETAG
1070
     1
1071
       42
1005
128F05
  0
LINE
  5
128F06
  8
HIDDEN
 10
3088.0
 20
-3329.9999999999968
 30
0.0
 11
3088.0
 21
-3405.9999999999968
 31
0.0
1001
ACDBBLOCKREPETAG
1070
     1
1071
       43
1005
128F06
  0
LINE
  5
128F07
  8
OBJECT
 10
3133.0
 20
-2959.9999999999959
 30
0.0
 11
3140.0
 21
-2959.9999999999959
 31
0.0
1001
ACDBBLOCKREPETAG
1070
     1
1071
       27
1005
128F07
  0
LINE
  5
128F08
  8
OBJECT
 10
3140.0
 20
-2959.9999999999959
 30
0.0
 11
3140.0
 21
-3069.9999999999959
 31
0.0
1001
ACDBBLOCKREPETAG
1070
     1
1071
       28
1005
128F08
  0
LINE
  5
128F09
  8
OBJECT
 10
3140.0
 20
-3069.9999999999959
 30
0.0
 11
3133.0
 21
-3069.9999999999959
 31
0.0
1001
ACDBBLOCKREPETAG
1070
     1
1071
       29
1005
128F09
  0
LINE
  5
128F0A
  8
OBJECT
 10
3133.0
 20
-3069.9999999999959
 30
0.0
 11
3133.0
 21
-2959.9999999999959
 31
0.0
1001
ACDBBLOCKREPETAG
1070
     1
1071
       30
1005
128F0A
  0
LINE
  5
128F0B
  8
CENTER
 10
3155.0
 20
-3014.9999999999959
 30
0.0
 11
3080.0
 21
-3014.9999999999959
 31
0.0
1001
ACDBBLOCKREPETAG
1070
     1
1071
       31
1005
128F0B
  0
LINE
  5
128F0C
  8
OBJECT
 10
3133.0
 20
-2962.9999999999959
 30
0.0
 11
3097.0
 21
-2962.9999999999959
 31
0.0
1001
ACDBBLOCKREPETAG
1070
     1
1071
       32
1005
128F0C
  0
LINE
  5
128F0D
  8
OBJECT
 10
3097.0
 20
-2962.9999999999959
 30
0.0
 11
3097.0
 21
-3066.9999999999959
 31
0.0
1001
ACDBBLOCKREPETAG
1070
     1
1071
       33
1005
128F0D
  0
LINE
  5
128F0E
  8
OBJECT
 10
3097.0
 20
-3066.9999999999959
 30
0.0
 11
3133.0
 21
-3066.9999999999959
 31
0.0
1001
ACDBBLOCKREPETAG
1070
     1
1071
       34
1005
128F0E
  0
LINE
  5
128F0F
  8
OBJECT
 10
3093.0
 20
-2967.4999999999959
 30
0.0
 11
3086.0
 21
-2967.4999999999959
 31
0.0
1001
ACDBBLOCKREPETAG
1070
     1
1071
       35
1005
128F0F
  0
LINE
  5
128F10
  8
OBJECT
 10
3086.0
 20
-3062.4999999999959
 30
0.0
 11
3093.0
 21
-3062.4999999999959
 31
0.0
1001
ACDBBLOCKREPETAG
1070
     1
1071
       36
1005
128F10
  0
LINE
  5
128F11
  8
OBJECT
 10
3093.0
 20
-3062.4999999999959
 30
0.0
 11
3093.0
 21
-2967.4999999999959
 31
0.0
1001
ACDBBLOCKREPETAG
1070
     1
1071
       37
1005
128F11
  0
LINE
  5
128F12
  8
OBJECT
 10
3097.0
 20
-2962.9999999999959
 30
0.0
 11
3093.0
 21
-2967.4999999999959
 31
0.0
1001
ACDBBLOCKREPETAG
1070
     1
1071
       38
1005
128F12
  0
LINE
  5
128F13
  8
OBJECT
 10
3097.0
 20
-3066.9999999999959
 30
0.0
 11
3093.0
 21
-3062.4999999999959
 31
0.0
1001
ACDBBLOCKREPETAG
1070
     1
1071
       39
1005
128F13
  0
LINE
  5
128F14
  8
OBJECT
 10
3083.0
 20
-2952.9999999999959
 30
0.0
 11
3080.0
 21
-2952.9999999999959
 31
0.0
1001
ACDBBLOCKREPETAG
1070
     1
1071
       40
1005
128F14
  0
ARC
  5
128F15
  8
OBJECT
 10
3083.0
 20
-2955.9999999999959
 30
0.0
 40
3.0
 50
0.0
 51
90.0
1001
ACDBBLOCKREPETAG
1070
     1
1071
       41
1005
128F15
  0
LINE
  5
128F16
  8
OBJECT
 10
3080.0
 20
-3076.9999999999959
 30
0.0
 11
3083.0
 21
-3076.9999999999959
 31
0.0
1001
ACDBBLOCKREPETAG
1070
     1
1071
       42
1005
128F16
  0
ARC
  5
128F17
  8
OBJECT
 10
3083.0
 20
-3073.9999999999959
 30
0.0
 40
3.0
 50
270.0
 51
0.0
1001
ACDBBLOCKREPETAG
1070
     1
1071
       43
1005
128F17
  0
LINE
  5
128F18
  8
OBJECT
 10
3086.0
 20
-3073.9999999999959
 30
0.0
 11
3086.0
 21
-2955.9999999999959
 31
0.0
1001
ACDBBLOCKREPETAG
1070
     1
1071
       44
1005
128F18
  0
LINE
  5
128F19
  8
HIDDEN
 10
3088.0
 20
-2976.9999999999959
 30
0.0
 11
3088.0
 21
-3052.9999999999959
 31
0.0
1001
ACDBBLOCKREPETAG
1070
     1
1071
       45
1005
128F19
  0
TEXT
  5
128F1A
  8
SLIM
 10
2894.25
 20
-3537.4999999999959
 30
0.0
 40
35.0
  1
通常枝65（2）
 41
0.75
  0
CIRCLE
  5
128F1B
  8
OBJECT
 10
2400.0
 20
-3360.9999999999968
 30
0.0
 40
62.0
1001
ACDBBLOCKREPETAG
1070
     1
1071
        3
1005
128F1B
  0
LINE
  5
128F1C
  8
CENTER
 10
2338.0
 20
-3375.9999999999968
 30
0.0
 11
2462.0
 21
-3375.9999999999968
 31
0.0
1001
ACDBBLOCKREPETAG
1070
     1
1071
        4
1005
128F1C
  0
CIRCLE
  5
128F1D
  8
OBJECT
 10
2400.0
 20
-3375.9999999999968
 30
0.0
 40
28.0
1001
ACDBBLOCKREPETAG
1070
     1
1071
        6
1005
128F1D
  0
CIRCLE
  5
128F1E
  8
OBJECT
 10
2400.0
 20
-3375.9999999999968
 30
0.0
 40
39.0
1001
ACDBBLOCKREPETAG
1070
     1
1071
        7
1005
128F1E
  0
ARC
  5
128F1F
  8
OBJECT
 10
2400.0
 20
-3375.9999999999968
 30
0.0
 40
47.0
 50
290.58196921144412
 51
249.41803078855591
1001
ACDBBLOCKREPETAG
1070
     1
1071
        8
1005
128F1F
  0
LINE
  5
128F20
  8
OBJECT
 10
2383.4772883581431
 20
-3419.9999999999968
 30
0.0
 11
2416.5227116418569
 21
-3419.9999999999968
 31
0.0
1001
ACDBBLOCKREPETAG
1070
     1
1071
        9
1005
128F20
  0
LINE
  5
128F21
  8
OBJECT
 10
2133.0
 20
-3328.9999999999968
 30
0.0
 11
2140.0
 21
-3328.9999999999968
 31
0.0
1001
ACDBBLOCKREPETAG
1070
     1
1071
        7
1005
128F21
  0
LINE
  5
128F22
  8
OBJECT
 10
2140.0
 20
-3328.9999999999968
 30
0.0
 11
2140.0
 21
-3419.9999999999968
 31
0.0
1001
ACDBBLOCKREPETAG
1070
     1
1071
        8
1005
128F22
  0
LINE
  5
128F23
  8
OBJECT
 10
2133.0
 20
-3419.9999999999968
 30
0.0
 11
2133.0
 21
-3328.9999999999968
 31
0.0
1001
ACDBBLOCKREPETAG
1070
     1
1071
        9
1005
128F23
  0
LINE
  5
128F24
  8
CENTER
 10
2155.0
 20
-3375.9999999999968
 30
0.0
 11
2071.0
 21
-3375.9999999999968
 31
0.0
1001
ACDBBLOCKREPETAG
1070
     1
1071
       10
1005
128F24
  0
LINE
  5
128F25
  8
OBJECT
 10
2133.0
 20
-3331.9999999999968
 30
0.0
 11
2097.0
 21
-3331.9999999999968
 31
0.0
1001
ACDBBLOCKREPETAG
1070
     1
1071
       11
1005
128F25
  0
LINE
  5
128F26
  8
OBJECT
 10
2097.0
 20
-3331.9999999999968
 30
0.0
 11
2097.0
 21
-3419.9999999999968
 31
0.0
1001
ACDBBLOCKREPETAG
1070
     1
1071
       12
1005
128F26
  0
LINE
  5
128F27
  8
OBJECT
 10
2097.0
 20
-3419.9999999999968
 30
0.0
 11
2140.0
 21
-3419.9999999999968
 31
0.0
1001
ACDBBLOCKREPETAG
1070
     1
1071
       13
1005
128F27
  0
LINE
  5
128F28
  8
OBJECT
 10
2093.0
 20
-3336.4999999999968
 30
0.0
 11
2086.0
 21
-3336.4999999999968
 31
0.0
1001
ACDBBLOCKREPETAG
1070
     1
1071
       14
1005
128F28
  0
LINE
  5
128F29
  8
OBJECT
 10
2086.0
 20
-3415.4999999999968
 30
0.0
 11
2093.0
 21
-3415.4999999999968
 31
0.0
1001
ACDBBLOCKREPETAG
1070
     1
1071
       15
1005
128F29
  0
LINE
  5
128F2A
  8
OBJECT
 10
2093.0
 20
-3415.4999999999968
 30
0.0
 11
2093.0
 21
-3336.4999999999968
 31
0.0
1001
ACDBBLOCKREPETAG
1070
     1
1071
       16
1005
128F2A
  0
LINE
  5
128F2B
  8
OBJECT
 10
2097.0
 20
-3331.9999999999968
 30
0.0
 11
2093.0
 21
-3336.4999999999968
 31
0.0
1001
ACDBBLOCKREPETAG
1070
     1
1071
       17
1005
128F2B
  0
LINE
  5
128F2C
  8
OBJECT
 10
2097.0
 20
-3419.9999999999968
 30
0.0
 11
2093.0
 21
-3415.4999999999968
 31
0.0
1001
ACDBBLOCKREPETAG
1070
     1
1071
       18
1005
128F2C
  0
LINE
  5
128F2D
  8
OBJECT
 10
2083.0
 20
-3298.9999999999968
 30
0.0
 11
2080.0
 21
-3298.9999999999968
 31
0.0
1001
ACDBBLOCKREPETAG
1070
     1
1071
       19
1005
128F2D
  0
ARC
  5
128F2E
  8
OBJECT
 10
2083.0
 20
-3301.9999999999968
 30
0.0
 40
3.0
 50
0.0
 51
90.0
1001
ACDBBLOCKREPETAG
1070
     1
1071
       20
1005
128F2E
  0
LINE
  5
128F2F
  8
OBJECT
 10
2080.0
 20
-3422.9999999999968
 30
0.0
 11
2083.0
 21
-3422.9999999999968
 31
0.0
1001
ACDBBLOCKREPETAG
1070
     1
1071
       21
1005
128F2F
  0
ARC
  5
128F30
  8
OBJECT
 10
2083.0
 20
-3419.9999999999968
 30
0.0
 40
3.0
 50
270.0
 51
0.0
1001
ACDBBLOCKREPETAG
1070
     1
1071
       22
1005
128F30
  0
LINE
  5
128F31
  8
OBJECT
 10
2086.0
 20
-3419.9999999999968
 30
0.0
 11
2086.0
 21
-3301.9999999999968
 31
0.0
1001
ACDBBLOCKREPETAG
1070
     1
1071
       23
1005
128F31
  0
LINE
  5
128F32
  8
HIDDEN
 10
2088.0
 20
-3345.9999999999959
 30
0.0
 11
2088.0
 21
-3405.9999999999968
 31
0.0
1001
ACDBBLOCKREPETAG
1070
     1
1071
       24
1005
128F32
  0
LINE
  5
128F33
  8
OBJECT
 10
2133.0
 20
-2967.9999999999959
 30
0.0
 11
2140.0
 21
-2967.9999999999959
 31
0.0
1001
ACDBBLOCKREPETAG
1070
     1
1071
        7
1005
128F33
  0
LINE
  5
128F34
  8
OBJECT
 10
2140.0
 20
-2967.9999999999959
 30
0.0
 11
2140.0
 21
-3061.9999999999959
 31
0.0
1001
ACDBBLOCKREPETAG
1070
     1
1071
        8
1005
128F34
  0
LINE
  5
128F35
  8
OBJECT
 10
2140.0
 20
-3061.9999999999959
 30
0.0
 11
2133.0
 21
-3061.9999999999959
 31
0.0
1001
ACDBBLOCKREPETAG
1070
     1
1071
        9
1005
128F35
  0
LINE
  5
128F36
  8
OBJECT
 10
2133.0
 20
-3061.9999999999959
 30
0.0
 11
2133.0
 21
-2967.9999999999959
 31
0.0
1001
ACDBBLOCKREPETAG
1070
     1
1071
       10
1005
128F36
  0
LINE
  5
128F37
  8
CENTER
 10
2155.0
 20
-3014.9999999999959
 30
0.0
 11
2080.0
 21
-3014.9999999999959
 31
0.0
1001
ACDBBLOCKREPETAG
1070
     1
1071
       11
1005
128F37
  0
LINE
  5
128F38
  8
OBJECT
 10
2133.0
 20
-2970.9999999999959
 30
0.0
 11
2097.0
 21
-2970.9999999999959
 31
0.0
1001
ACDBBLOCKREPETAG
1070
     1
1071
       12
1005
128F38
  0
LINE
  5
128F39
  8
OBJECT
 10
2097.0
 20
-2970.9999999999959
 30
0.0
 11
2097.0
 21
-3058.9999999999959
 31
0.0
1001
ACDBBLOCKREPETAG
1070
     1
1071
       13
1005
128F39
  0
LINE
  5
128F3A
  8
OBJECT
 10
2097.0
 20
-3058.9999999999959
 30
0.0
 11
2133.0
 21
-3058.9999999999959
 31
0.0
1001
ACDBBLOCKREPETAG
1070
     1
1071
       14
1005
128F3A
  0
LINE
  5
128F3B
  8
OBJECT
 10
2093.0
 20
-2975.4999999999959
 30
0.0
 11
2086.0
 21
-2975.4999999999959
 31
0.0
1001
ACDBBLOCKREPETAG
1070
     1
1071
       15
1005
128F3B
  0
LINE
  5
128F3C
  8
OBJECT
 10
2086.0
 20
-3054.4999999999959
 30
0.0
 11
2093.0
 21
-3054.4999999999959
 31
0.0
1001
ACDBBLOCKREPETAG
1070
     1
1071
       16
1005
128F3C
  0
LINE
  5
128F3D
  8
OBJECT
 10
2093.0
 20
-3054.4999999999959
 30
0.0
 11
2093.0
 21
-2975.4999999999959
 31
0.0
1001
ACDBBLOCKREPETAG
1070
     1
1071
       17
1005
128F3D
  0
LINE
  5
128F3E
  8
OBJECT
 10
2097.0
 20
-2970.9999999999959
 30
0.0
 11
2093.0
 21
-2975.4999999999959
 31
0.0
1001
ACDBBLOCKREPETAG
1070
     1
1071
       18
1005
128F3E
  0
LINE
  5
128F3F
  8
OBJECT
 10
2097.0
 20
-3058.9999999999959
 30
0.0
 11
2093.0
 21
-3054.4999999999959
 31
0.0
1001
ACDBBLOCKREPETAG
1070
     1
1071
       19
1005
128F3F
  0
LINE
  5
128F40
  8
OBJECT
 10
2083.0
 20
-2952.9999999999959
 30
0.0
 11
2080.0
 21
-2952.9999999999959
 31
0.0
1001
ACDBBLOCKREPETAG
1070
     1
1071
       20
1005
128F40
  0
ARC
  5
128F41
  8
OBJECT
 10
2083.0
 20
-2955.9999999999959
 30
0.0
 40
3.0
 50
0.0
 51
90.0
1001
ACDBBLOCKREPETAG
1070
     1
1071
       21
1005
128F41
  0
LINE
  5
128F42
  8
OBJECT
 10
2080.0
 20
-3076.9999999999959
 30
0.0
 11
2083.0
 21
-3076.9999999999959
 31
0.0
1001
ACDBBLOCKREPETAG
1070
     1
1071
       22
1005
128F42
  0
ARC
  5
128F43
  8
OBJECT
 10
2083.0
 20
-3073.9999999999959
 30
0.0
 40
3.0
 50
270.0
 51
0.0
1001
ACDBBLOCKREPETAG
1070
     1
1071
       23
1005
128F43
  0
LINE
  5
128F44
  8
OBJECT
 10
2086.0
 20
-3073.9999999999959
 30
0.0
 11
2086.0
 21
-2955.9999999999959
 31
0.0
1001
ACDBBLOCKREPETAG
1070
     1
1071
       24
1005
128F44
  0
LINE
  5
128F45
  8
HIDDEN
 10
2088.0
 20
-2984.9999999999959
 30
0.0
 11
2088.0
 21
-3044.9999999999959
 31
0.0
1001
ACDBBLOCKREPETAG
1070
     1
1071
       25
1005
128F45
  0
TEXT
  5
128F46
  8
SLIM
 10
1896.75
 20
-3537.4999999999959
 30
0.0
 40
35.0
  1
通常枝50（1）
 41
0.75
  0
ARC
  5
128F47
  8
OBJECT
 10
539.99970544976713
 20
-695.99999999984175
 30
0.0
 40
50.0
 50
28.819943000140022
 51
318.52376955951871
1001
ACDBBLOCKREPETAG
1070
     1
1071
        1
1005
128F47
  0
CIRCLE
  5
128F48
  8
OBJECT
 10
539.99970544976713
 20
-695.99999999984175
 30
0.0
 40
70.0
1001
ACDBBLOCKREPETAG
1070
     1
1071
        2
1005
128F48
  0
CIRCLE
  5
128F49
  8
OBJECT
 10
539.99970544976713
 20
-695.99999999984175
 30
0.0
 40
77.0
1001
ACDBBLOCKREPETAG
1070
     1
1071
        3
1005
128F49
  0
ARC
  5
128F4A
  8
OBJECT
 10
539.99970544976713
 20
-695.99999999984175
 30
0.0
 40
80.0
 50
140.8050325737787
 51
39.194967426221282
1001
ACDBBLOCKREPETAG
1070
     1
1071
        4
1005
128F4A
  0
LINE
  5
128F4B
  8
OBJECT
 10
477.99970544976708
 20
-650.3381997725171
 30
0.0
 11
477.99970544976708
 21
-615.99999999984175
 31
0.0
1001
ACDBBLOCKREPETAG
1070
     1
1071
        5
1005
128F4B
  0
LINE
  5
128F4C
  8
OBJECT
 10
601.99970544976713
 20
-650.3381997725171
 30
0.0
 11
601.99970544976713
 21
-615.99999999984175
 31
0.0
1001
ACDBBLOCKREPETAG
1070
     1
1071
        6
1005
128F4C
  0
LINE
  5
128F4D
  8
OBJECT
 10
583.80694712367188
 20
-671.89706690659841
 30
0.0
 11
574.00999999987835
 21
-671.89706690659841
 31
0.0
1001
ACDBBLOCKREPETAG
1070
     1
1071
      141
1005
128F4D
  0
LINE
  5
128F4E
  8
OBJECT
 10
574.00999999987835
 20
-671.89706690659841
 30
0.0
 11
558.47122736638994
 21
-709.41098254097778
 31
0.0
1001
ACDBBLOCKREPETAG
1070
     1
1071
      142
1005
128F4E
  0
ARC
  5
128F4F
  8
OBJECT
 10
567.71002269150085
 20
-713.23781686462632
 30
0.0
 40
10.0
 50
157.5000000001636
 51
244.01473437020459
1001
ACDBBLOCKREPETAG
1070
     1
1071
      143
1005
128F4F
  0
ARC
  5
128F50
  8
OBJECT
 10
565.81327182408825
 20
-709.97760074393773
 30
0.0
 40
7.0
 50
157.5000000001636
 51
244.01473377496251
1001
ACDBBLOCKREPETAG
1070
     1
1071
      144
1005
128F50
  0
ARC
  5
128F51
  8
OBJECT
 10
547.12893698272273
 20
-719.42030469252654
 30
0.0
 40
60.031113246032611
 50
44.070201304183492
 51
52.339361060976579
1001
ACDBBLOCKREPETAG
1070
     1
1071
      153
1005
128F51
  0
LINE
  5
128F52
  8
OBJECT
 10
583.8988850080608
 20
-726.5800244445403
 30
0.0
 11
562.74629179036481
 21
-716.26994795882081
 31
0.0
1001
ACDBBLOCKREPETAG
1070
     1
1071
      154
1005
128F52
  0
LINE
  5
128F53
  8
OBJECT
 10
580.71813901870632
 20
-730.70278309923265
 30
0.0
 11
563.328622736748
 21
-722.22688436002682
 31
0.0
1001
ACDBBLOCKREPETAG
1070
     1
1071
      155
1005
128F53
  0
CIRCLE
  5
128F54
  8
OBJECT
 10
539.99999999987813
 20
-695.99999999984175
 30
0.0
 40
53.5
1001
ACDBBLOCKREPETAG
1070
     1
1071
      156
1005
128F54
  0
POINT
  5
128F55
  8
DOTS
 10
539.99999999987813
 20
-695.99999999984175
 30
0.0
1001
ACDBBLOCKREPETAG
1070
     1
1071
      161
1005
128F55
  0
ARC
  5
128F56
  8
OBJECT
 10
179.99970544988881
 20
-695.99999999984175
 30
0.0
 40
50.0
 50
28.819943000140022
 51
318.52376955951968
1001
ACDBBLOCKREPETAG
1070
     1
1071
        1
1005
128F56
  0
CIRCLE
  5
128F57
  8
OBJECT
 10
179.99970544988881
 20
-695.99999999984175
 30
0.0
 40
70.0
1001
ACDBBLOCKREPETAG
1070
     1
1071
        2
1005
128F57
  0
CIRCLE
  5
128F58
  8
OBJECT
 10
179.99970544988881
 20
-695.99999999984175
 30
0.0
 40
77.0
1001
ACDBBLOCKREPETAG
1070
     1
1071
        3
1005
128F58
  0
ARC
  5
128F59
  8
OBJECT
 10
179.99970544988881
 20
-695.99999999984175
 30
0.0
 40
80.0
 50
140.80503257377961
 51
39.194967426220252
1001
ACDBBLOCKREPETAG
1070
     1
1071
        4
1005
128F59
  0
LINE
  5
128F5A
  8
OBJECT
 10
117.99970544988891
 20
-650.3381997725171
 30
0.0
 11
117.99970544988891
 21
-615.99999999984175
 31
0.0
1001
ACDBBLOCKREPETAG
1070
     1
1071
        5
1005
128F5A
  0
LINE
  5
128F5B
  8
OBJECT
 10
241.99970544988889
 20
-650.3381997725171
 30
0.0
 11
241.99970544988889
 21
-615.99999999984175
 31
0.0
1001
ACDBBLOCKREPETAG
1070
     1
1071
        6
1005
128F5B
  0
LINE
  5
128F5C
  8
OBJECT
 10
223.806947123794
 20
-671.89706690659841
 30
0.0
 11
214.01000000000019
 21
-671.89706690659841
 31
0.0
1001
ACDBBLOCKREPETAG
1070
     1
1071
      141
1005
128F5C
  0
LINE
  5
128F5D
  8
OBJECT
 10
214.01000000000019
 20
-671.89706690659841
 30
0.0
 11
198.4712273665117
 21
-709.41098254097778
 31
0.0
1001
ACDBBLOCKREPETAG
1070
     1
1071
      142
1005
128F5D
  0
ARC
  5
128F5E
  8
OBJECT
 10
207.7100226916227
 20
-713.23781686462632
 30
0.0
 40
10.0
 50
157.5000000001636
 51
244.01473437020459
1001
ACDBBLOCKREPETAG
1070
     1
1071
      143
1005
128F5E
  0
ARC
  5
128F5F
  8
OBJECT
 10
205.8132718242104
 20
-709.97760074393773
 30
0.0
 40
7.0
 50
157.5000000001636
 51
244.01473377496541
1001
ACDBBLOCKREPETAG
1070
     1
1071
      144
1005
128F5F
  0
ARC
  5
128F60
  8
OBJECT
 10
187.12893698284449
 20
-719.42030469252654
 30
0.0
 40
60.031113246032611
 50
44.070201304185751
 51
52.339361060977858
1001
ACDBBLOCKREPETAG
1070
     1
1071
      153
1005
128F60
  0
LINE
  5
128F61
  8
OBJECT
 10
223.89888500818259
 20
-726.5800244445403
 30
0.0
 11
202.74629179048671
 21
-716.26994795882081
 31
0.0
1001
ACDBBLOCKREPETAG
1070
     1
1071
      154
1005
128F61
  0
LINE
  5
128F62
  8
OBJECT
 10
220.71813901882811
 20
-730.70278309923265
 30
0.0
 11
203.32862273686979
 21
-722.22688436002682
 31
0.0
1001
ACDBBLOCKREPETAG
1070
     1
1071
      155
1005
128F62
  0
CIRCLE
  5
128F63
  8
OBJECT
 10
179.99999999999989
 20
-695.99999999984175
 30
0.0
 40
53.5
1001
ACDBBLOCKREPETAG
1070
     1
1071
      156
1005
128F63
  0
POINT
  5
128F64
  8
DOTS
 10
179.99999999999989
 20
-695.99999999984175
 30
0.0
1001
ACDBBLOCKREPETAG
1070
     1
1071
      161
1005
128F64
  0
ARC
  5
128F65
  8
OBJECT
 10
539.99970544976713
 20
-232.0
 30
0.0
 40
50.0
 50
28.819943000140022
 51
318.52376955951871
1001
ACDBBLOCKREPETAG
1070
     1
1071
        1
1005
128F65
  0
CIRCLE
  5
128F66
  8
OBJECT
 10
539.99970544976713
 20
-232.0
 30
0.0
 40
70.0
1001
ACDBBLOCKREPETAG
1070
     1
1071
        2
1005
128F66
  0
CIRCLE
  5
128F67
  8
OBJECT
 10
539.99970544976713
 20
-232.0
 30
0.0
 40
77.0
1001
ACDBBLOCKREPETAG
1070
     1
1071
        3
1005
128F67
  0
ARC
  5
128F68
  8
OBJECT
 10
539.99970544976713
 20
-232.0
 30
0.0
 40
80.0
 50
140.8050325737787
 51
39.194967426221282
1001
ACDBBLOCKREPETAG
1070
     1
1071
        4
1005
128F68
  0
LINE
  5
128F69
  8
OBJECT
 10
477.99970544976708
 20
-186.33819977267561
 30
0.0
 11
477.99970544976708
 21
-152.0
 31
0.0
1001
ACDBBLOCKREPETAG
1070
     1
1071
        5
1005
128F69
  0
LINE
  5
128F6A
  8
OBJECT
 10
601.99970544976713
 20
-186.33819977267561
 30
0.0
 11
601.99970544976713
 21
-152.0
 31
0.0
1001
ACDBBLOCKREPETAG
1070
     1
1071
        6
1005
128F6A
  0
LINE
  5
128F6B
  8
OBJECT
 10
583.80694712367188
 20
-207.89706690675669
 30
0.0
 11
574.00999999987835
 21
-207.89706690675669
 31
0.0
1001
ACDBBLOCKREPETAG
1070
     1
1071
      141
1005
128F6B
  0
LINE
  5
128F6C
  8
OBJECT
 10
574.00999999987835
 20
-207.89706690675669
 30
0.0
 11
558.47122736638994
 21
-245.41098254113601
 31
0.0
1001
ACDBBLOCKREPETAG
1070
     1
1071
      142
1005
128F6C
  0
ARC
  5
128F6D
  8
OBJECT
 10
567.71002269150085
 20
-249.23781686478469
 30
0.0
 40
10.0
 50
157.5000000001651
 51
244.01473437020459
1001
ACDBBLOCKREPETAG
1070
     1
1071
      143
1005
128F6D
  0
ARC
  5
128F6E
  8
OBJECT
 10
565.81327182408825
 20
-245.97760074409601
 30
0.0
 40
7.0
 50
157.5000000001651
 51
244.01473377496251
1001
ACDBBLOCKREPETAG
1070
     1
1071
      144
1005
128F6E
  0
ARC
  5
128F6F
  8
OBJECT
 10
547.12893698272273
 20
-255.42030469268499
 30
0.0
 40
60.031113246032611
 50
44.07020130418465
 51
52.339361060977581
1001
ACDBBLOCKREPETAG
1070
     1
1071
      153
1005
128F6F
  0
LINE
  5
128F70
  8
OBJECT
 10
583.8988850080608
 20
-262.58002444469838
 30
0.0
 11
562.74629179036481
 21
-252.2699479589792
 31
0.0
1001
ACDBBLOCKREPETAG
1070
     1
1071
      154
1005
128F70
  0
LINE
  5
128F71
  8
OBJECT
 10
580.71813901870632
 20
-266.70278309939101
 30
0.0
 11
563.328622736748
 21
-258.22688436018512
 31
0.0
1001
ACDBBLOCKREPETAG
1070
     1
1071
      155
1005
128F71
  0
CIRCLE
  5
128F72
  8
OBJECT
 10
539.99999999987813
 20
-232.0
 30
0.0
 40
53.5
1001
ACDBBLOCKREPETAG
1070
     1
1071
      156
1005
128F72
  0
POINT
  5
128F73
  8
DOTS
 10
539.99999999987813
 20
-232.0
 30
0.0
1001
ACDBBLOCKREPETAG
1070
     1
1071
      161
1005
128F73
  0
ARC
  5
128F74
  8
OBJECT
 10
179.99970544988901
 20
-232.0
 30
0.0
 40
50.0
 50
28.819943000140022
 51
318.52376955951968
1001
ACDBBLOCKREPETAG
1070
     1
1071
        1
1005
128F74
  0
CIRCLE
  5
128F75
  8
OBJECT
 10
179.99970544988901
 20
-232.0
 30
0.0
 40
70.0
1001
ACDBBLOCKREPETAG
1070
     1
1071
        2
1005
128F75
  0
CIRCLE
  5
128F76
  8
OBJECT
 10
179.99970544988901
 20
-232.0
 30
0.0
 40
77.0
1001
ACDBBLOCKREPETAG
1070
     1
1071
        3
1005
128F76
  0
ARC
  5
128F77
  8
OBJECT
 10
179.99970544988901
 20
-232.0
 30
0.0
 40
80.0
 50
140.80503257377961
 51
39.194967426220252
1001
ACDBBLOCKREPETAG
1070
     1
1071
        4
1005
128F77
  0
LINE
  5
128F78
  8
OBJECT
 10
117.99970544988901
 20
-186.33819977267561
 30
0.0
 11
117.99970544988901
 21
-152.0
 31
0.0
1001
ACDBBLOCKREPETAG
1070
     1
1071
        5
1005
128F78
  0
LINE
  5
128F79
  8
OBJECT
 10
241.99970544988901
 20
-186.33819977267561
 30
0.0
 11
241.99970544988901
 21
-152.0
 31
0.0
1001
ACDBBLOCKREPETAG
1070
     1
1071
        6
1005
128F79
  0
LINE
  5
128F7A
  8
OBJECT
 10
223.80694712379409
 20
-207.89706690675669
 30
0.0
 11
214.01000000000019
 21
-207.89706690675669
 31
0.0
1001
ACDBBLOCKREPETAG
1070
     1
1071
      141
1005
128F7A
  0
LINE
  5
128F7B
  8
OBJECT
 10
214.01000000000019
 20
-207.89706690675669
 30
0.0
 11
198.47122736651181
 21
-245.41098254113601
 31
0.0
1001
ACDBBLOCKREPETAG
1070
     1
1071
      142
1005
128F7B
  0
ARC
  5
128F7C
  8
OBJECT
 10
207.7100226916227
 20
-249.23781686478469
 30
0.0
 40
10.0
 50
157.5000000001651
 51
244.01473437020459
1001
ACDBBLOCKREPETAG
1070
     1
1071
      143
1005
128F7C
  0
ARC
  5
128F7D
  8
OBJECT
 10
205.8132718242104
 20
-245.97760074409601
 30
0.0
 40
7.0
 50
157.5000000001651
 51
244.01473377496541
1001
ACDBBLOCKREPETAG
1070
     1
1071
      144
1005
128F7D
  0
ARC
  5
128F7E
  8
OBJECT
 10
187.12893698284461
 20
-255.42030469268499
 30
0.0
 40
60.031113246032611
 50
44.070201304186917
 51
52.339361060978852
1001
ACDBBLOCKREPETAG
1070
     1
1071
      153
1005
128F7E
  0
LINE
  5
128F7F
  8
OBJECT
 10
223.8988850081827
 20
-262.58002444469838
 30
0.0
 11
202.74629179048679
 21
-252.2699479589792
 31
0.0
1001
ACDBBLOCKREPETAG
1070
     1
1071
      154
1005
128F7F
  0
LINE
  5
128F80
  8
OBJECT
 10
220.7181390188282
 20
-266.70278309939101
 30
0.0
 11
203.3286227368699
 21
-258.22688436018512
 31
0.0
1001
ACDBBLOCKREPETAG
1070
     1
1071
      155
1005
128F80
  0
CIRCLE
  5
128F81
  8
OBJECT
 10
180.0
 20
-232.0
 30
0.0
 40
53.5
1001
ACDBBLOCKREPETAG
1070
     1
1071
      156
1005
128F81
  0
POINT
  5
128F82
  8
DOTS
 10
180.0
 20
-232.0
 30
0.0
1001
ACDBBLOCKREPETAG
1070
     1
1071
      161
1005
128F82
  0
LINE
  5
128F83
  8
OBJECT
 10
6423.0
 20
-470.99999999999932
 30
0.0
 11
6423.0
 21
-449.99999999999932
 31
0.0
1001
ACDBBLOCKREPETAG
1070
     1
1071
       20
1005
128F83
  0
LINE
  5
128F84
  8
OBJECT
 10
6423.0
 20
-449.99999999999932
 30
0.0
 11
6577.0
 21
-449.99999999999932
 31
0.0
1001
ACDBBLOCKREPETAG
1070
     1
1071
       21
1005
128F84
  0
LINE
  5
128F85
  8
HIDDEN
 10
6443.0
 20
-519.99999999999955
 30
0.0
 11
6557.0
 21
-519.99999999999955
 31
0.0
1001
ACDBBLOCKREPETAG
1070
     1
1071
       22
1005
128F85
  0
LINE
  5
128F86
  8
OBJECT
 10
6577.0
 20
-449.99999999999932
 30
0.0
 11
6577.0
 21
-470.99999999999932
 31
0.0
1001
ACDBBLOCKREPETAG
1070
     1
1071
       23
1005
128F86
  0
LINE
  5
128F87
  8
OBJECT
 10
6577.0
 20
-470.99999999999932
 30
0.0
 11
6423.0
 21
-470.99999999999932
 31
0.0
1001
ACDBBLOCKREPETAG
1070
     1
1071
       24
1005
128F87
  0
LINE
  5
128F88
  8
CENTER
 10
6500.0
 20
-434.99999999999949
 30
0.0
 11
6500.0
 21
-669.99999999999955
 31
0.0
1001
ACDBBLOCKREPETAG
1070
     1
1071
       25
1005
128F88
  0
LINE
  5
128F89
  8
OBJECT
 10
6425.0
 20
-533.99999999999955
 30
0.0
 11
6425.0
 21
-657.99999999999955
 31
0.0
1001
ACDBBLOCKREPETAG
1070
     1
1071
       26
1005
128F89
  0
LINE
  5
128F8A
  8
OBJECT
 10
6428.0
 20
-470.99999999999932
 30
0.0
 11
6428.0
 21
-533.99999999999955
 31
0.0
1001
ACDBBLOCKREPETAG
1070
     1
1071
       27
1005
128F8A
  0
LINE
  5
128F8B
  8
OBJECT
 10
6572.0
 20
-533.99999999999955
 30
0.0
 11
6572.0
 21
-470.99999999999932
 31
0.0
1001
ACDBBLOCKREPETAG
1070
     1
1071
       28
1005
128F8B
  0
LINE
  5
128F8C
  8
OBJECT
 10
6420.0
 20
-657.99999999999955
 30
0.0
 11
6580.0
 21
-657.99999999999955
 31
0.0
1001
ACDBBLOCKREPETAG
1070
     1
1071
       29
1005
128F8C
  0
LINE
  5
128F8D
  8
OBJECT
 10
6575.0
 20
-533.99999999999955
 30
0.0
 11
6425.0
 21
-533.99999999999955
 31
0.0
1001
ACDBBLOCKREPETAG
1070
     1
1071
       30
1005
128F8D
  0
LINE
  5
128F8E
  8
OBJECT
 10
6420.0
 20
-657.99999999999955
 30
0.0
 11
6420.0
 21
-669.99999999999955
 31
0.0
1001
ACDBBLOCKREPETAG
1070
     1
1071
       31
1005
128F8E
  0
LINE
  5
128F8F
  8
OBJECT
 10
6420.0
 20
-669.99999999999955
 30
0.0
 11
6580.0
 21
-669.99999999999955
 31
0.0
1001
ACDBBLOCKREPETAG
1070
     1
1071
       32
1005
128F8F
  0
LINE
  5
128F90
  8
OBJECT
 10
6580.0
 20
-669.99999999999955
 30
0.0
 11
6580.0
 21
-657.99999999999955
 31
0.0
1001
ACDBBLOCKREPETAG
1070
     1
1071
       33
1005
128F90
  0
LINE
  5
128F91
  8
OBJECT
 10
6575.0
 20
-533.99999999999955
 30
0.0
 11
6575.0
 21
-657.99999999999955
 31
0.0
1001
ACDBBLOCKREPETAG
1070
     1
1071
       34
1005
128F91
  0
POINT
  5
128F92
  8
DOTS
 10
6500.0
 20
-654.99999999999966
 30
0.0
1001
ACDBBLOCKREPETAG
1070
     1
1071
      187
1005
128F92
  0
LINE
  5
128F93
  8
OBJECT
 10
5923.0
 20
-470.99999999999932
 30
0.0
 11
5923.0
 21
-449.99999999999932
 31
0.0
1001
ACDBBLOCKREPETAG
1070
     1
1071
        0
1005
128F93
  0
LINE
  5
128F94
  8
OBJECT
 10
5923.0
 20
-449.99999999999932
 30
0.0
 11
6077.0
 21
-449.99999999999932
 31
0.0
1001
ACDBBLOCKREPETAG
1070
     1
1071
        1
1005
128F94
  0
LINE
  5
128F95
  8
HIDDEN
 10
5943.0
 20
-519.99999999999955
 30
0.0
 11
6057.0
 21
-519.99999999999955
 31
0.0
1001
ACDBBLOCKREPETAG
1070
     1
1071
        2
1005
128F95
  0
LINE
  5
128F96
  8
OBJECT
 10
6077.0
 20
-449.99999999999932
 30
0.0
 11
6077.0
 21
-470.99999999999932
 31
0.0
1001
ACDBBLOCKREPETAG
1070
     1
1071
        3
1005
128F96
  0
LINE
  5
128F97
  8
OBJECT
 10
6077.0
 20
-470.99999999999932
 30
0.0
 11
5923.0
 21
-470.99999999999932
 31
0.0
1001
ACDBBLOCKREPETAG
1070
     1
1071
        4
1005
128F97
  0
LINE
  5
128F98
  8
CENTER
 10
6000.0
 20
-434.99999999999949
 30
0.0
 11
6000.0
 21
-669.99999999999955
 31
0.0
1001
ACDBBLOCKREPETAG
1070
     1
1071
        5
1005
128F98
  0
LINE
  5
128F99
  8
OBJECT
 10
5925.0
 20
-533.99999999999955
 30
0.0
 11
5925.0
 21
-657.99999999999955
 31
0.0
1001
ACDBBLOCKREPETAG
1070
     1
1071
        6
1005
128F99
  0
LINE
  5
128F9A
  8
OBJECT
 10
5928.0
 20
-470.99999999999932
 30
0.0
 11
5928.0
 21
-533.99999999999955
 31
0.0
1001
ACDBBLOCKREPETAG
1070
     1
1071
        7
1005
128F9A
  0
LINE
  5
128F9B
  8
OBJECT
 10
6072.0
 20
-533.99999999999955
 30
0.0
 11
6072.0
 21
-470.99999999999932
 31
0.0
1001
ACDBBLOCKREPETAG
1070
     1
1071
        8
1005
128F9B
  0
LINE
  5
128F9C
  8
OBJECT
 10
5920.0
 20
-657.99999999999955
 30
0.0
 11
6080.0
 21
-657.99999999999955
 31
0.0
1001
ACDBBLOCKREPETAG
1070
     1
1071
        9
1005
128F9C
  0
LINE
  5
128F9D
  8
OBJECT
 10
6080.0
 20
-533.99999999999955
 30
0.0
 11
5925.0
 21
-533.99999999999955
 31
0.0
1001
ACDBBLOCKREPETAG
1070
     1
1071
       10
1005
128F9D
  0
LINE
  5
128F9E
  8
OBJECT
 10
5920.0
 20
-657.99999999999955
 30
0.0
 11
5920.0
 21
-669.99999999999955
 31
0.0
1001
ACDBBLOCKREPETAG
1070
     1
1071
       11
1005
128F9E
  0
LINE
  5
128F9F
  8
OBJECT
 10
5920.0
 20
-669.99999999999955
 30
0.0
 11
6080.0
 21
-669.99999999999955
 31
0.0
1001
ACDBBLOCKREPETAG
1070
     1
1071
       12
1005
128F9F
  0
LINE
  5
128FA0
  8
OBJECT
 10
6080.0
 20
-669.99999999999955
 30
0.0
 11
6080.0
 21
-657.99999999999955
 31
0.0
1001
ACDBBLOCKREPETAG
1070
     1
1071
       13
1005
128FA0
  0
ARC
  5
128FA1
  8
OBJECT
 10
6200.6872746716735
 20
-649.40809941010718
 30
0.0
 40
170.6350503965856
 50
137.44134459184301
 51
149.91949581337221
1001
ACDBBLOCKREPETAG
1070
     1
1071
       15
1005
128FA1
  0
ARC
  5
128FA2
  8
OBJECT
 10
6118.8455987040506
 20
-605.88272669536445
 30
0.0
 40
78.072222021763665
 50
147.4551531037684
 51
164.66365997718671
1001
ACDBBLOCKREPETAG
1070
     1
1071
       16
1005
128FA2
  0
ARC
  5
128FA3
  8
OBJECT
 10
6085.7554349608727
 20
-595.99999999999955
 30
0.0
 40
43.55353926885617
 50
165.6884523008477
 51
194.3115476991523
1001
ACDBBLOCKREPETAG
1070
     1
1071
       17
1005
128FA3
  0
ARC
  5
128FA4
  8
OBJECT
 10
6200.6872746716735
 20
-542.59190058989179
 30
0.0
 40
170.6350503965856
 50
210.08050418662771
 51
222.55865540815699
1001
ACDBBLOCKREPETAG
1070
     1
1071
       18
1005
128FA4
  0
ARC
  5
128FA5
  8
OBJECT
 10
6118.8455987040506
 20
-586.11727330463452
 30
0.0
 40
78.072222021763665
 50
195.33634002281309
 51
212.5448468962316
1001
ACDBBLOCKREPETAG
1070
     1
1071
       19
1005
128FA5
  0
POINT
  5
128FA6
  8
DOTS
 10
6000.0
 20
-654.99999999999966
 30
0.0
1001
ACDBBLOCKREPETAG
1070
     1
1071
      186
1005
128FA6
  0
LINE
  5
128FA7
  8
OBJECT
 10
2423.0
 20
-470.99999999999932
 30
0.0
 11
2423.0
 21
-449.99999999999932
 31
0.0
1001
ACDBBLOCKREPETAG
1070
     1
1071
       20
1005
128FA7
  0
LINE
  5
128FA8
  8
OBJECT
 10
2423.0
 20
-449.99999999999932
 30
0.0
 11
2577.0
 21
-449.99999999999932
 31
0.0
1001
ACDBBLOCKREPETAG
1070
     1
1071
       21
1005
128FA8
  0
LINE
  5
128FA9
  8
HIDDEN
 10
2443.0
 20
-519.99999999999955
 30
0.0
 11
2557.0
 21
-519.99999999999955
 31
0.0
1001
ACDBBLOCKREPETAG
1070
     1
1071
       22
1005
128FA9
  0
LINE
  5
128FAA
  8
OBJECT
 10
2577.0
 20
-449.99999999999932
 30
0.0
 11
2577.0
 21
-470.99999999999932
 31
0.0
1001
ACDBBLOCKREPETAG
1070
     1
1071
       23
1005
128FAA
  0
LINE
  5
128FAB
  8
OBJECT
 10
2577.0
 20
-470.99999999999932
 30
0.0
 11
2423.0
 21
-470.99999999999932
 31
0.0
1001
ACDBBLOCKREPETAG
1070
     1
1071
       24
1005
128FAB
  0
LINE
  5
128FAC
  8
CENTER
 10
2500.0
 20
-434.99999999999949
 30
0.0
 11
2500.0
 21
-669.99999999999955
 31
0.0
1001
ACDBBLOCKREPETAG
1070
     1
1071
       25
1005
128FAC
  0
LINE
  5
128FAD
  8
OBJECT
 10
2425.0
 20
-533.99999999999955
 30
0.0
 11
2425.0
 21
-657.99999999999955
 31
0.0
1001
ACDBBLOCKREPETAG
1070
     1
1071
       26
1005
128FAD
  0
LINE
  5
128FAE
  8
OBJECT
 10
2428.0
 20
-470.99999999999932
 30
0.0
 11
2428.0
 21
-533.99999999999955
 31
0.0
1001
ACDBBLOCKREPETAG
1070
     1
1071
       27
1005
128FAE
  0
LINE
  5
128FAF
  8
OBJECT
 10
2572.0
 20
-533.99999999999955
 30
0.0
 11
2572.0
 21
-470.99999999999932
 31
0.0
1001
ACDBBLOCKREPETAG
1070
     1
1071
       28
1005
128FAF
  0
LINE
  5
128FB0
  8
OBJECT
 10
2420.0
 20
-657.99999999999955
 30
0.0
 11
2580.0
 21
-657.99999999999955
 31
0.0
1001
ACDBBLOCKREPETAG
1070
     1
1071
       29
1005
128FB0
  0
LINE
  5
128FB1
  8
OBJECT
 10
2575.0
 20
-533.99999999999955
 30
0.0
 11
2425.0
 21
-533.99999999999955
 31
0.0
1001
ACDBBLOCKREPETAG
1070
     1
1071
       30
1005
128FB1
  0
LINE
  5
128FB2
  8
OBJECT
 10
2420.0
 20
-657.99999999999955
 30
0.0
 11
2420.0
 21
-669.99999999999955
 31
0.0
1001
ACDBBLOCKREPETAG
1070
     1
1071
       31
1005
128FB2
  0
LINE
  5
128FB3
  8
OBJECT
 10
2420.0
 20
-669.99999999999955
 30
0.0
 11
2580.0
 21
-669.99999999999955
 31
0.0
1001
ACDBBLOCKREPETAG
1070
     1
1071
       32
1005
128FB3
  0
LINE
  5
128FB4
  8
OBJECT
 10
2580.0
 20
-669.99999999999955
 30
0.0
 11
2580.0
 21
-657.99999999999955
 31
0.0
1001
ACDBBLOCKREPETAG
1070
     1
1071
       33
1005
128FB4
  0
LINE
  5
128FB5
  8
OBJECT
 10
2575.0
 20
-533.99999999999955
 30
0.0
 11
2575.0
 21
-657.99999999999955
 31
0.0
1001
ACDBBLOCKREPETAG
1070
     1
1071
       34
1005
128FB5
  0
POINT
  5
128FB6
  8
DOTS
 10
2500.0
 20
-654.99999999999966
 30
0.0
1001
ACDBBLOCKREPETAG
1070
     1
1071
      187
1005
128FB6
  0
LINE
  5
128FB7
  8
OBJECT
 10
1923.0
 20
-470.99999999999932
 30
0.0
 11
1923.0
 21
-449.99999999999932
 31
0.0
1001
ACDBBLOCKREPETAG
1070
     1
1071
        0
1005
128FB7
  0
LINE
  5
128FB8
  8
OBJECT
 10
1923.0
 20
-449.99999999999932
 30
0.0
 11
2077.0
 21
-449.99999999999932
 31
0.0
1001
ACDBBLOCKREPETAG
1070
     1
1071
        1
1005
128FB8
  0
LINE
  5
128FB9
  8
HIDDEN
 10
1943.0
 20
-519.99999999999955
 30
0.0
 11
2057.0
 21
-519.99999999999955
 31
0.0
1001
ACDBBLOCKREPETAG
1070
     1
1071
        2
1005
128FB9
  0
LINE
  5
128FBA
  8
OBJECT
 10
2077.0
 20
-449.99999999999932
 30
0.0
 11
2077.0
 21
-470.99999999999932
 31
0.0
1001
ACDBBLOCKREPETAG
1070
     1
1071
        3
1005
128FBA
  0
LINE
  5
128FBB
  8
OBJECT
 10
2077.0
 20
-470.99999999999932
 30
0.0
 11
1923.0
 21
-470.99999999999932
 31
0.0
1001
ACDBBLOCKREPETAG
1070
     1
1071
        4
1005
128FBB
  0
LINE
  5
128FBC
  8
CENTER
 10
2000.0
 20
-434.99999999999949
 30
0.0
 11
2000.0
 21
-669.99999999999955
 31
0.0
1001
ACDBBLOCKREPETAG
1070
     1
1071
        5
1005
128FBC
  0
LINE
  5
128FBD
  8
OBJECT
 10
1925.0
 20
-533.99999999999955
 30
0.0
 11
1925.0
 21
-657.99999999999955
 31
0.0
1001
ACDBBLOCKREPETAG
1070
     1
1071
        6
1005
128FBD
  0
LINE
  5
128FBE
  8
OBJECT
 10
1928.0
 20
-470.99999999999932
 30
0.0
 11
1928.0
 21
-533.99999999999955
 31
0.0
1001
ACDBBLOCKREPETAG
1070
     1
1071
        7
1005
128FBE
  0
LINE
  5
128FBF
  8
OBJECT
 10
2072.0
 20
-533.99999999999955
 30
0.0
 11
2072.0
 21
-470.99999999999932
 31
0.0
1001
ACDBBLOCKREPETAG
1070
     1
1071
        8
1005
128FBF
  0
LINE
  5
128FC0
  8
OBJECT
 10
1920.0
 20
-657.99999999999955
 30
0.0
 11
2080.0
 21
-657.99999999999955
 31
0.0
1001
ACDBBLOCKREPETAG
1070
     1
1071
        9
1005
128FC0
  0
LINE
  5
128FC1
  8
OBJECT
 10
2080.0
 20
-533.99999999999955
 30
0.0
 11
1925.0
 21
-533.99999999999955
 31
0.0
1001
ACDBBLOCKREPETAG
1070
     1
1071
       10
1005
128FC1
  0
LINE
  5
128FC2
  8
OBJECT
 10
1920.0
 20
-657.99999999999955
 30
0.0
 11
1920.0
 21
-669.99999999999955
 31
0.0
1001
ACDBBLOCKREPETAG
1070
     1
1071
       11
1005
128FC2
  0
LINE
  5
128FC3
  8
OBJECT
 10
1920.0
 20
-669.99999999999955
 30
0.0
 11
2080.0
 21
-669.99999999999955
 31
0.0
1001
ACDBBLOCKREPETAG
1070
     1
1071
       12
1005
128FC3
  0
LINE
  5
128FC4
  8
OBJECT
 10
2080.0
 20
-669.99999999999955
 30
0.0
 11
2080.0
 21
-657.99999999999955
 31
0.0
1001
ACDBBLOCKREPETAG
1070
     1
1071
       13
1005
128FC4
  0
ARC
  5
128FC5
  8
OBJECT
 10
2200.6872746716731
 20
-649.40809941010718
 30
0.0
 40
170.6350503965856
 50
137.44134459184301
 51
149.91949581336559
1001
ACDBBLOCKREPETAG
1070
     1
1071
       15
1005
128FC5
  0
ARC
  5
128FC6
  8
OBJECT
 10
2118.8455987040511
 20
-605.88272669536445
 30
0.0
 40
78.072222021763665
 50
147.45515310377539
 51
164.6636599771798
1001
ACDBBLOCKREPETAG
1070
     1
1071
       16
1005
128FC6
  0
ARC
  5
128FC7
  8
OBJECT
 10
2085.7554349608731
 20
-595.99999999999955
 30
0.0
 40
43.55353926885617
 50
165.6884523008477
 51
194.3115476991523
1001
ACDBBLOCKREPETAG
1070
     1
1071
       17
1005
128FC7
  0
ARC
  5
128FC8
  8
OBJECT
 10
2200.6872746716731
 20
-542.59190058989179
 30
0.0
 40
170.6350503965856
 50
210.0805041866343
 51
222.55865540815699
1001
ACDBBLOCKREPETAG
1070
     1
1071
       18
1005
128FC8
  0
ARC
  5
128FC9
  8
OBJECT
 10
2118.8455987040511
 20
-586.11727330463452
 30
0.0
 40
78.072222021763665
 50
195.3363400228202
 51
212.54484689622461
1001
ACDBBLOCKREPETAG
1070
     1
1071
       19
1005
128FC9
  0
POINT
  5
128FCA
  8
DOTS
 10
2000.0
 20
-654.99999999999966
 30
0.0
1001
ACDBBLOCKREPETAG
1070
     1
1071
      186
1005
128FCA
  0
LINE
  5
128FCB
  8
OBJECT
 10
4423.0
 20
-470.99999999999932
 30
0.0
 11
4423.0
 21
-449.99999999999932
 31
0.0
1001
ACDBBLOCKREPETAG
1070
     1
1071
       20
1005
128FCB
  0
LINE
  5
128FCC
  8
OBJECT
 10
4423.0
 20
-449.99999999999932
 30
0.0
 11
4577.0
 21
-449.99999999999932
 31
0.0
1001
ACDBBLOCKREPETAG
1070
     1
1071
       21
1005
128FCC
  0
LINE
  5
128FCD
  8
HIDDEN
 10
4443.0
 20
-519.99999999999955
 30
0.0
 11
4557.0
 21
-519.99999999999955
 31
0.0
1001
ACDBBLOCKREPETAG
1070
     1
1071
       22
1005
128FCD
  0
LINE
  5
128FCE
  8
OBJECT
 10
4577.0
 20
-449.99999999999932
 30
0.0
 11
4577.0
 21
-470.99999999999932
 31
0.0
1001
ACDBBLOCKREPETAG
1070
     1
1071
       23
1005
128FCE
  0
LINE
  5
128FCF
  8
OBJECT
 10
4577.0
 20
-470.99999999999932
 30
0.0
 11
4423.0
 21
-470.99999999999932
 31
0.0
1001
ACDBBLOCKREPETAG
1070
     1
1071
       24
1005
128FCF
  0
LINE
  5
128FD0
  8
CENTER
 10
4500.0
 20
-434.99999999999949
 30
0.0
 11
4500.0
 21
-669.99999999999955
 31
0.0
1001
ACDBBLOCKREPETAG
1070
     1
1071
       25
1005
128FD0
  0
LINE
  5
128FD1
  8
OBJECT
 10
4425.0
 20
-533.99999999999955
 30
0.0
 11
4425.0
 21
-657.99999999999955
 31
0.0
1001
ACDBBLOCKREPETAG
1070
     1
1071
       26
1005
128FD1
  0
LINE
  5
128FD2
  8
OBJECT
 10
4428.0
 20
-470.99999999999932
 30
0.0
 11
4428.0
 21
-533.99999999999955
 31
0.0
1001
ACDBBLOCKREPETAG
1070
     1
1071
       27
1005
128FD2
  0
LINE
  5
128FD3
  8
OBJECT
 10
4572.0
 20
-533.99999999999955
 30
0.0
 11
4572.0
 21
-470.99999999999932
 31
0.0
1001
ACDBBLOCKREPETAG
1070
     1
1071
       28
1005
128FD3
  0
LINE
  5
128FD4
  8
OBJECT
 10
4420.0
 20
-657.99999999999955
 30
0.0
 11
4580.0
 21
-657.99999999999955
 31
0.0
1001
ACDBBLOCKREPETAG
1070
     1
1071
       29
1005
128FD4
  0
LINE
  5
128FD5
  8
OBJECT
 10
4575.0
 20
-533.99999999999955
 30
0.0
 11
4425.0
 21
-533.99999999999955
 31
0.0
1001
ACDBBLOCKREPETAG
1070
     1
1071
       30
1005
128FD5
  0
LINE
  5
128FD6
  8
OBJECT
 10
4420.0
 20
-657.99999999999955
 30
0.0
 11
4420.0
 21
-669.99999999999955
 31
0.0
1001
ACDBBLOCKREPETAG
1070
     1
1071
       31
1005
128FD6
  0
LINE
  5
128FD7
  8
OBJECT
 10
4420.0
 20
-669.99999999999955
 30
0.0
 11
4580.0
 21
-669.99999999999955
 31
0.0
1001
ACDBBLOCKREPETAG
1070
     1
1071
       32
1005
128FD7
  0
LINE
  5
128FD8
  8
OBJECT
 10
4580.0
 20
-669.99999999999955
 30
0.0
 11
4580.0
 21
-657.99999999999955
 31
0.0
1001
ACDBBLOCKREPETAG
1070
     1
1071
       33
1005
128FD8
  0
LINE
  5
128FD9
  8
OBJECT
 10
4575.0
 20
-533.99999999999955
 30
0.0
 11
4575.0
 21
-657.99999999999955
 31
0.0
1001
ACDBBLOCKREPETAG
1070
     1
1071
       34
1005
128FD9
  0
POINT
  5
128FDA
  8
DOTS
 10
4500.0
 20
-654.99999999999966
 30
0.0
1001
ACDBBLOCKREPETAG
1070
     1
1071
      187
1005
128FDA
  0
LINE
  5
128FDB
  8
OBJECT
 10
3923.0
 20
-470.99999999999932
 30
0.0
 11
3923.0
 21
-449.99999999999932
 31
0.0
1001
ACDBBLOCKREPETAG
1070
     1
1071
        0
1005
128FDB
  0
LINE
  5
128FDC
  8
OBJECT
 10
3923.0
 20
-449.99999999999932
 30
0.0
 11
4077.0
 21
-449.99999999999932
 31
0.0
1001
ACDBBLOCKREPETAG
1070
     1
1071
        1
1005
128FDC
  0
LINE
  5
128FDD
  8
HIDDEN
 10
3943.0
 20
-519.99999999999955
 30
0.0
 11
4057.0
 21
-519.99999999999955
 31
0.0
1001
ACDBBLOCKREPETAG
1070
     1
1071
        2
1005
128FDD
  0
LINE
  5
128FDE
  8
OBJECT
 10
4077.0
 20
-449.99999999999932
 30
0.0
 11
4077.0
 21
-470.99999999999932
 31
0.0
1001
ACDBBLOCKREPETAG
1070
     1
1071
        3
1005
128FDE
  0
LINE
  5
128FDF
  8
OBJECT
 10
4077.0
 20
-470.99999999999932
 30
0.0
 11
3923.0
 21
-470.99999999999932
 31
0.0
1001
ACDBBLOCKREPETAG
1070
     1
1071
        4
1005
128FDF
  0
LINE
  5
128FE0
  8
CENTER
 10
4000.0
 20
-434.99999999999949
 30
0.0
 11
4000.0
 21
-669.99999999999955
 31
0.0
1001
ACDBBLOCKREPETAG
1070
     1
1071
        5
1005
128FE0
  0
LINE
  5
128FE1
  8
OBJECT
 10
3925.0
 20
-533.99999999999955
 30
0.0
 11
3925.0
 21
-657.99999999999955
 31
0.0
1001
ACDBBLOCKREPETAG
1070
     1
1071
        6
1005
128FE1
  0
LINE
  5
128FE2
  8
OBJECT
 10
3928.0
 20
-470.99999999999932
 30
0.0
 11
3928.0
 21
-533.99999999999955
 31
0.0
1001
ACDBBLOCKREPETAG
1070
     1
1071
        7
1005
128FE2
  0
LINE
  5
128FE3
  8
OBJECT
 10
4072.0
 20
-533.99999999999955
 30
0.0
 11
4072.0
 21
-470.99999999999932
 31
0.0
1001
ACDBBLOCKREPETAG
1070
     1
1071
        8
1005
128FE3
  0
LINE
  5
128FE4
  8
OBJECT
 10
3920.0
 20
-657.99999999999955
 30
0.0
 11
4080.0
 21
-657.99999999999955
 31
0.0
1001
ACDBBLOCKREPETAG
1070
     1
1071
        9
1005
128FE4
  0
LINE
  5
128FE5
  8
OBJECT
 10
4080.0
 20
-533.99999999999955
 30
0.0
 11
3925.0
 21
-533.99999999999955
 31
0.0
1001
ACDBBLOCKREPETAG
1070
     1
1071
       10
1005
128FE5
  0
LINE
  5
128FE6
  8
OBJECT
 10
3920.0
 20
-657.99999999999955
 30
0.0
 11
3920.0
 21
-669.99999999999955
 31
0.0
1001
ACDBBLOCKREPETAG
1070
     1
1071
       11
1005
128FE6
  0
LINE
  5
128FE7
  8
OBJECT
 10
3920.0
 20
-669.99999999999955
 30
0.0
 11
4080.0
 21
-669.99999999999955
 31
0.0
1001
ACDBBLOCKREPETAG
1070
     1
1071
       12
1005
128FE7
  0
LINE
  5
128FE8
  8
OBJECT
 10
4080.0
 20
-669.99999999999955
 30
0.0
 11
4080.0
 21
-657.99999999999955
 31
0.0
1001
ACDBBLOCKREPETAG
1070
     1
1071
       13
1005
128FE8
  0
ARC
  5
128FE9
  8
OBJECT
 10
4200.6872746716726
 20
-649.40809941010718
 30
0.0
 40
170.6350503965856
 50
137.44134459184301
 51
149.91949581337221
1001
ACDBBLOCKREPETAG
1070
     1
1071
       15
1005
128FE9
  0
ARC
  5
128FEA
  8
OBJECT
 10
4118.8455987040506
 20
-605.88272669536445
 30
0.0
 40
78.072222021763665
 50
147.4551531037684
 51
164.6636599771798
1001
ACDBBLOCKREPETAG
1070
     1
1071
       16
1005
128FEA
  0
ARC
  5
128FEB
  8
OBJECT
 10
4085.7554349608722
 20
-595.99999999999955
 30
0.0
 40
43.55353926885617
 50
165.6884523008477
 51
194.3115476991523
1001
ACDBBLOCKREPETAG
1070
     1
1071
       17
1005
128FEB
  0
ARC
  5
128FEC
  8
OBJECT
 10
4200.6872746716726
 20
-542.59190058989179
 30
0.0
 40
170.6350503965856
 50
210.08050418662771
 51
222.55865540815699
1001
ACDBBLOCKREPETAG
1070
     1
1071
       18
1005
128FEC
  0
ARC
  5
128FED
  8
OBJECT
 10
4118.8455987040506
 20
-586.11727330463452
 30
0.0
 40
78.072222021763665
 50
195.3363400228202
 51
212.5448468962316
1001
ACDBBLOCKREPETAG
1070
     1
1071
       19
1005
128FED
  0
POINT
  5
128FEE
  8
DOTS
 10
4000.0
 20
-654.99999999999966
 30
0.0
1001
ACDBBLOCKREPETAG
1070
     1
1071
      186
1005
128FEE
  0
TEXT
  5
128FEF
  8
SLIM
 10
1837.75
 20
282.50000000000011
 30
0.0
 40
35.0
  1
（枝管サイズ毎に寸法が異なります。管底の位置は全サイズで同じです）
 41
0.75
  0
TEXT
  5
128FF0
  8
SLIM
 10
1850.0
 20
532.5
 30
0.0
 40
75.0
  1
側面図の代表機種
 41
0.75
  0
TEXT
  5
128FF1
  8
SLIM
 10
1850.0
 20
369.99999999999989
 30
0.0
 40
100.0
  1
4CL-A3
 41
0.75
  0
LINE
  5
128FF2
  8
CENTER
 10
6577.0
 20
-596.0
 30
0.0
 11
6423.0
 21
-596.0
 31
0.0
1001
ACDBBLOCKREPETAG
1070
     1
1071
       17
1005
128FF2
  0
CIRCLE
  5
128FF3
  8
OBJECT
 10
6500.0
 20
-596.0
 30
0.0
 40
41.5
1001
ACDBBLOCKREPETAG
1070
     1
1071
       19
1005
128FF3
  0
CIRCLE
  5
128FF4
  8
OBJECT
 10
6500.0
 20
-596.0
 30
0.0
 40
54.0
1001
ACDBBLOCKREPETAG
1070
     1
1071
       20
1005
128FF4
  0
ARC
  5
128FF5
  8
OBJECT
 10
6500.0
 20
-596.0
 30
0.0
 40
62.0
 50
287.89655112920718
 51
252.10344887079279
1001
ACDBBLOCKREPETAG
1070
     1
1071
       21
1005
128FF5
  0
LINE
  5
128FF6
  8
OBJECT
 10
6480.947441116743
 20
-655.0
 30
0.0
 11
6519.052558883257
 21
-655.0
 31
0.0
1001
ACDBBLOCKREPETAG
1070
     1
1071
       22
1005
128FF6
  0
LINE
  5
128FF7
  8
OBJECT
 10
6133.0
 20
-137.99999999999909
 30
0.0
 11
6140.0
 21
-137.99999999999909
 31
0.0
1001
ACDBBLOCKREPETAG
1070
     1
1071
       47
1005
128FF7
  0
LINE
  5
128FF8
  8
OBJECT
 10
6140.0
 20
-137.99999999999909
 30
0.0
 11
6140.0
 21
-261.99999999999909
 31
0.0
1001
ACDBBLOCKREPETAG
1070
     1
1071
       48
1005
128FF8
  0
LINE
  5
128FF9
  8
OBJECT
 10
6140.0
 20
-261.99999999999909
 30
0.0
 11
6133.0
 21
-261.99999999999909
 31
0.0
1001
ACDBBLOCKREPETAG
1070
     1
1071
       49
1005
128FF9
  0
LINE
  5
128FFA
  8
OBJECT
 10
6133.0
 20
-261.99999999999909
 30
0.0
 11
6133.0
 21
-137.99999999999909
 31
0.0
1001
ACDBBLOCKREPETAG
1070
     1
1071
       50
1005
128FFA
  0
LINE
  5
128FFB
  8
CENTER
 10
6155.0
 20
-199.99999999999909
 30
0.0
 11
6080.0
 21
-199.99999999999909
 31
0.0
1001
ACDBBLOCKREPETAG
1070
     1
1071
       51
1005
128FFB
  0
LINE
  5
128FFC
  8
OBJECT
 10
6133.0
 20
-140.99999999999909
 30
0.0
 11
6097.0
 21
-140.99999999999909
 31
0.0
1001
ACDBBLOCKREPETAG
1070
     1
1071
       52
1005
128FFC
  0
LINE
  5
128FFD
  8
OBJECT
 10
6097.0
 20
-140.99999999999909
 30
0.0
 11
6097.0
 21
-258.99999999999909
 31
0.0
1001
ACDBBLOCKREPETAG
1070
     1
1071
       53
1005
128FFD
  0
LINE
  5
128FFE
  8
OBJECT
 10
6097.0
 20
-258.99999999999909
 30
0.0
 11
6133.0
 21
-258.99999999999909
 31
0.0
1001
ACDBBLOCKREPETAG
1070
     1
1071
       54
1005
128FFE
  0
LINE
  5
128FFF
  8
OBJECT
 10
6093.0
 20
-145.49999999999909
 30
0.0
 11
6086.0
 21
-145.49999999999909
 31
0.0
1001
ACDBBLOCKREPETAG
1070
     1
1071
       55
1005
128FFF
  0
LINE
  5
129000
  8
OBJECT
 10
6086.0
 20
-254.49999999999909
 30
0.0
 11
6093.0
 21
-254.49999999999909
 31
0.0
1001
ACDBBLOCKREPETAG
1070
     1
1071
       56
1005
129000
  0
LINE
  5
129001
  8
OBJECT
 10
6093.0
 20
-254.49999999999909
 30
0.0
 11
6093.0
 21
-145.49999999999909
 31
0.0
1001
ACDBBLOCKREPETAG
1070
     1
1071
       57
1005
129001
  0
LINE
  5
129002
  8
OBJECT
 10
6097.0
 20
-140.99999999999909
 30
0.0
 11
6093.0
 21
-145.49999999999909
 31
0.0
1001
ACDBBLOCKREPETAG
1070
     1
1071
       58
1005
129002
  0
LINE
  5
129003
  8
OBJECT
 10
6097.0
 20
-258.99999999999909
 30
0.0
 11
6093.0
 21
-254.49999999999909
 31
0.0
1001
ACDBBLOCKREPETAG
1070
     1
1071
       59
1005
129003
  0
LINE
  5
129004
  8
OBJECT
 10
6083.0
 20
-137.99999999999909
 30
0.0
 11
6080.0
 21
-137.99999999999909
 31
0.0
1001
ACDBBLOCKREPETAG
1070
     1
1071
       60
1005
129004
  0
ARC
  5
129005
  8
OBJECT
 10
6083.0
 20
-140.99999999999909
 30
0.0
 40
3.0
 50
0.0
 51
90.0
1001
ACDBBLOCKREPETAG
1070
     1
1071
       61
1005
129005
  0
LINE
  5
129006
  8
OBJECT
 10
6080.0
 20
-261.99999999999909
 30
0.0
 11
6083.0
 21
-261.99999999999909
 31
0.0
1001
ACDBBLOCKREPETAG
1070
     1
1071
       62
1005
129006
  0
ARC
  5
129007
  8
OBJECT
 10
6083.0
 20
-258.99999999999909
 30
0.0
 40
3.0
 50
270.0
 51
0.0
1001
ACDBBLOCKREPETAG
1070
     1
1071
       63
1005
129007
  0
LINE
  5
129008
  8
OBJECT
 10
6086.0
 20
-258.99999999999909
 30
0.0
 11
6086.0
 21
-140.99999999999909
 31
0.0
1001
ACDBBLOCKREPETAG
1070
     1
1071
       64
1005
129008
  0
LINE
  5
129009
  8
HIDDEN
 10
6088.0
 20
-155.49999999999909
 30
0.0
 11
6088.0
 21
-244.49999999999909
 31
0.0
1001
ACDBBLOCKREPETAG
1070
     1
1071
       65
1005
129009
  0
LINE
  5
12900A
  8
OBJECT
 10
4133.0
 20
-137.99999999999909
 30
0.0
 11
4140.0
 21
-137.99999999999909
 31
0.0
1001
ACDBBLOCKREPETAG
1070
     1
1071
       47
1005
12900A
  0
LINE
  5
12900B
  8
OBJECT
 10
4140.0
 20
-137.99999999999909
 30
0.0
 11
4140.0
 21
-261.99999999999909
 31
0.0
1001
ACDBBLOCKREPETAG
1070
     1
1071
       48
1005
12900B
  0
LINE
  5
12900C
  8
OBJECT
 10
4140.0
 20
-261.99999999999909
 30
0.0
 11
4133.0
 21
-261.99999999999909
 31
0.0
1001
ACDBBLOCKREPETAG
1070
     1
1071
       49
1005
12900C
  0
LINE
  5
12900D
  8
OBJECT
 10
4133.0
 20
-261.99999999999909
 30
0.0
 11
4133.0
 21
-137.99999999999909
 31
0.0
1001
ACDBBLOCKREPETAG
1070
     1
1071
       50
1005
12900D
  0
LINE
  5
12900E
  8
CENTER
 10
4155.0
 20
-199.99999999999909
 30
0.0
 11
4080.0
 21
-199.99999999999909
 31
0.0
1001
ACDBBLOCKREPETAG
1070
     1
1071
       51
1005
12900E
  0
LINE
  5
12900F
  8
OBJECT
 10
4133.0
 20
-140.99999999999909
 30
0.0
 11
4097.0
 21
-140.99999999999909
 31
0.0
1001
ACDBBLOCKREPETAG
1070
     1
1071
       52
1005
12900F
  0
LINE
  5
129010
  8
OBJECT
 10
4097.0
 20
-140.99999999999909
 30
0.0
 11
4097.0
 21
-258.99999999999909
 31
0.0
1001
ACDBBLOCKREPETAG
1070
     1
1071
       53
1005
129010
  0
LINE
  5
129011
  8
OBJECT
 10
4097.0
 20
-258.99999999999909
 30
0.0
 11
4133.0
 21
-258.99999999999909
 31
0.0
1001
ACDBBLOCKREPETAG
1070
     1
1071
       54
1005
129011
  0
LINE
  5
129012
  8
OBJECT
 10
4093.0
 20
-145.49999999999909
 30
0.0
 11
4086.0
 21
-145.49999999999909
 31
0.0
1001
ACDBBLOCKREPETAG
1070
     1
1071
       55
1005
129012
  0
LINE
  5
129013
  8
OBJECT
 10
4086.0
 20
-254.49999999999909
 30
0.0
 11
4093.0
 21
-254.49999999999909
 31
0.0
1001
ACDBBLOCKREPETAG
1070
     1
1071
       56
1005
129013
  0
LINE
  5
129014
  8
OBJECT
 10
4093.0
 20
-254.49999999999909
 30
0.0
 11
4093.0
 21
-145.49999999999909
 31
0.0
1001
ACDBBLOCKREPETAG
1070
     1
1071
       57
1005
129014
  0
LINE
  5
129015
  8
OBJECT
 10
4097.0
 20
-140.99999999999909
 30
0.0
 11
4093.0
 21
-145.49999999999909
 31
0.0
1001
ACDBBLOCKREPETAG
1070
     1
1071
       58
1005
129015
  0
LINE
  5
129016
  8
OBJECT
 10
4097.0
 20
-258.99999999999909
 30
0.0
 11
4093.0
 21
-254.49999999999909
 31
0.0
1001
ACDBBLOCKREPETAG
1070
     1
1071
       59
1005
129016
  0
LINE
  5
129017
  8
OBJECT
 10
4083.0
 20
-137.99999999999909
 30
0.0
 11
4080.0
 21
-137.99999999999909
 31
0.0
1001
ACDBBLOCKREPETAG
1070
     1
1071
       60
1005
129017
  0
ARC
  5
129018
  8
OBJECT
 10
4083.0
 20
-140.99999999999909
 30
0.0
 40
3.0
 50
0.0
 51
90.0
1001
ACDBBLOCKREPETAG
1070
     1
1071
       61
1005
129018
  0
LINE
  5
129019
  8
OBJECT
 10
4080.0
 20
-261.99999999999909
 30
0.0
 11
4083.0
 21
-261.99999999999909
 31
0.0
1001
ACDBBLOCKREPETAG
1070
     1
1071
       62
1005
129019
  0
ARC
  5
12901A
  8
OBJECT
 10
4083.0
 20
-258.99999999999909
 30
0.0
 40
3.0
 50
270.0
 51
0.0
1001
ACDBBLOCKREPETAG
1070
     1
1071
       63
1005
12901A
  0
LINE
  5
12901B
  8
OBJECT
 10
4086.0
 20
-258.99999999999909
 30
0.0
 11
4086.0
 21
-140.99999999999909
 31
0.0
1001
ACDBBLOCKREPETAG
1070
     1
1071
       64
1005
12901B
  0
LINE
  5
12901C
  8
HIDDEN
 10
4088.0
 20
-155.49999999999909
 30
0.0
 11
4088.0
 21
-244.49999999999909
 31
0.0
1001
ACDBBLOCKREPETAG
1070
     1
1071
       65
1005
12901C
  0
LINE
  5
12901D
  8
OBJECT
 10
6133.0
 20
-534.0
 30
0.0
 11
6140.0
 21
-534.0
 31
0.0
1001
ACDBBLOCKREPETAG
1070
     1
1071
       45
1005
12901D
  0
LINE
  5
12901E
  8
OBJECT
 10
6140.0
 20
-534.0
 30
0.0
 11
6140.0
 21
-655.0
 31
0.0
1001
ACDBBLOCKREPETAG
1070
     1
1071
       46
1005
12901E
  0
LINE
  5
12901F
  8
OBJECT
 10
6133.0
 20
-655.0
 30
0.0
 11
6133.0
 21
-534.0
 31
0.0
1001
ACDBBLOCKREPETAG
1070
     1
1071
       47
1005
12901F
  0
LINE
  5
129020
  8
CENTER
 10
6155.0
 20
-596.0
 30
0.0
 11
6071.0
 21
-596.0
 31
0.0
1001
ACDBBLOCKREPETAG
1070
     1
1071
       48
1005
129020
  0
LINE
  5
129021
  8
OBJECT
 10
6133.0
 20
-537.0
 30
0.0
 11
6097.0
 21
-537.0
 31
0.0
1001
ACDBBLOCKREPETAG
1070
     1
1071
       49
1005
129021
  0
LINE
  5
129022
  8
OBJECT
 10
6097.0
 20
-537.0
 30
0.0
 11
6097.0
 21
-655.0
 31
0.0
1001
ACDBBLOCKREPETAG
1070
     1
1071
       50
1005
129022
  0
LINE
  5
129023
  8
OBJECT
 10
6097.0
 20
-655.0
 30
0.0
 11
6140.0
 21
-655.0
 31
0.0
1001
ACDBBLOCKREPETAG
1070
     1
1071
       51
1005
129023
  0
LINE
  5
129024
  8
OBJECT
 10
6093.0
 20
-541.5
 30
0.0
 11
6086.0
 21
-541.5
 31
0.0
1001
ACDBBLOCKREPETAG
1070
     1
1071
       52
1005
129024
  0
LINE
  5
129025
  8
OBJECT
 10
6086.0
 20
-650.49999999999989
 30
0.0
 11
6093.0
 21
-650.49999999999989
 31
0.0
1001
ACDBBLOCKREPETAG
1070
     1
1071
       53
1005
129025
  0
LINE
  5
129026
  8
OBJECT
 10
6093.0
 20
-650.49999999999989
 30
0.0
 11
6093.0
 21
-541.5
 31
0.0
1001
ACDBBLOCKREPETAG
1070
     1
1071
       54
1005
129026
  0
LINE
  5
129027
  8
OBJECT
 10
6097.0
 20
-537.0
 30
0.0
 11
6093.0
 21
-541.5
 31
0.0
1001
ACDBBLOCKREPETAG
1070
     1
1071
       55
1005
129027
  0
LINE
  5
129028
  8
OBJECT
 10
6097.0
 20
-655.0
 30
0.0
 11
6093.0
 21
-650.49999999999989
 31
0.0
1001
ACDBBLOCKREPETAG
1070
     1
1071
       56
1005
129028
  0
LINE
  5
129029
  8
OBJECT
 10
6083.0
 20
-534.0
 30
0.0
 11
6080.0
 21
-534.0
 31
0.0
1001
ACDBBLOCKREPETAG
1070
     1
1071
       57
1005
129029
  0
ARC
  5
12902A
  8
OBJECT
 10
6083.0
 20
-537.0
 30
0.0
 40
3.0
 50
0.0
 51
90.0
1001
ACDBBLOCKREPETAG
1070
     1
1071
       58
1005
12902A
  0
LINE
  5
12902B
  8
OBJECT
 10
6080.0
 20
-658.0
 30
0.0
 11
6083.0
 21
-658.0
 31
0.0
1001
ACDBBLOCKREPETAG
1070
     1
1071
       59
1005
12902B
  0
ARC
  5
12902C
  8
OBJECT
 10
6083.0
 20
-655.0
 30
0.0
 40
3.0
 50
270.0
 51
0.0
1001
ACDBBLOCKREPETAG
1070
     1
1071
       60
1005
12902C
  0
LINE
  5
12902D
  8
OBJECT
 10
6086.0
 20
-655.0
 30
0.0
 11
6086.0
 21
-537.0
 31
0.0
1001
ACDBBLOCKREPETAG
1070
     1
1071
       61
1005
12902D
  0
LINE
  5
12902E
  8
HIDDEN
 10
6088.0
 20
-551.49999999999966
 30
0.0
 11
6088.0
 21
-640.5
 31
0.0
1001
ACDBBLOCKREPETAG
1070
     1
1071
       63
1005
12902E
  0
LINE
  5
12902F
  8
CENTER
 10
4577.0
 20
-596.0
 30
0.0
 11
4423.0
 21
-596.0
 31
0.0
1001
ACDBBLOCKREPETAG
1070
     1
1071
       17
1005
12902F
  0
CIRCLE
  5
129030
  8
OBJECT
 10
4500.0
 20
-596.0
 30
0.0
 40
41.5
1001
ACDBBLOCKREPETAG
1070
     1
1071
       19
1005
129030
  0
CIRCLE
  5
129031
  8
OBJECT
 10
4500.0
 20
-596.0
 30
0.0
 40
54.0
1001
ACDBBLOCKREPETAG
1070
     1
1071
       20
1005
129031
  0
ARC
  5
129032
  8
OBJECT
 10
4500.0
 20
-596.0
 30
0.0
 40
62.0
 50
287.89655112920718
 51
252.10344887079279
1001
ACDBBLOCKREPETAG
1070
     1
1071
       21
1005
129032
  0
LINE
  5
129033
  8
OBJECT
 10
4480.9474411167421
 20
-655.0
 30
0.0
 11
4519.052558883257
 21
-655.0
 31
0.0
1001
ACDBBLOCKREPETAG
1070
     1
1071
       22
1005
129033
  0
LINE
  5
129034
  8
OBJECT
 10
4133.0
 20
-534.0
 30
0.0
 11
4140.0
 21
-534.0
 31
0.0
1001
ACDBBLOCKREPETAG
1070
     1
1071
       45
1005
129034
  0
LINE
  5
129035
  8
OBJECT
 10
4140.0
 20
-534.0
 30
0.0
 11
4140.0
 21
-655.0
 31
0.0
1001
ACDBBLOCKREPETAG
1070
     1
1071
       46
1005
129035
  0
LINE
  5
129036
  8
OBJECT
 10
4133.0
 20
-655.0
 30
0.0
 11
4133.0
 21
-534.0
 31
0.0
1001
ACDBBLOCKREPETAG
1070
     1
1071
       47
1005
129036
  0
LINE
  5
129037
  8
CENTER
 10
4155.0
 20
-596.0
 30
0.0
 11
4071.0
 21
-596.0
 31
0.0
1001
ACDBBLOCKREPETAG
1070
     1
1071
       48
1005
129037
  0
LINE
  5
129038
  8
OBJECT
 10
4133.0
 20
-537.0
 30
0.0
 11
4097.0
 21
-537.0
 31
0.0
1001
ACDBBLOCKREPETAG
1070
     1
1071
       49
1005
129038
  0
LINE
  5
129039
  8
OBJECT
 10
4097.0
 20
-537.0
 30
0.0
 11
4097.0
 21
-655.0
 31
0.0
1001
ACDBBLOCKREPETAG
1070
     1
1071
       50
1005
129039
  0
LINE
  5
12903A
  8
OBJECT
 10
4097.0
 20
-655.0
 30
0.0
 11
4140.0
 21
-655.0
 31
0.0
1001
ACDBBLOCKREPETAG
1070
     1
1071
       51
1005
12903A
  0
LINE
  5
12903B
  8
OBJECT
 10
4093.0
 20
-541.5
 30
0.0
 11
4086.0
 21
-541.5
 31
0.0
1001
ACDBBLOCKREPETAG
1070
     1
1071
       52
1005
12903B
  0
LINE
  5
12903C
  8
OBJECT
 10
4086.0
 20
-650.49999999999989
 30
0.0
 11
4093.0
 21
-650.49999999999989
 31
0.0
1001
ACDBBLOCKREPETAG
1070
     1
1071
       53
1005
12903C
  0
LINE
  5
12903D
  8
OBJECT
 10
4093.0
 20
-650.49999999999989
 30
0.0
 11
4093.0
 21
-541.5
 31
0.0
1001
ACDBBLOCKREPETAG
1070
     1
1071
       54
1005
12903D
  0
LINE
  5
12903E
  8
OBJECT
 10
4097.0
 20
-537.0
 30
0.0
 11
4093.0
 21
-541.5
 31
0.0
1001
ACDBBLOCKREPETAG
1070
     1
1071
       55
1005
12903E
  0
LINE
  5
12903F
  8
OBJECT
 10
4097.0
 20
-655.0
 30
0.0
 11
4093.0
 21
-650.49999999999989
 31
0.0
1001
ACDBBLOCKREPETAG
1070
     1
1071
       56
1005
12903F
  0
LINE
  5
129040
  8
OBJECT
 10
4083.0
 20
-534.0
 30
0.0
 11
4080.0
 21
-534.0
 31
0.0
1001
ACDBBLOCKREPETAG
1070
     1
1071
       57
1005
129040
  0
ARC
  5
129041
  8
OBJECT
 10
4083.0
 20
-537.0
 30
0.0
 40
3.0
 50
0.0
 51
90.0
1001
ACDBBLOCKREPETAG
1070
     1
1071
       58
1005
129041
  0
LINE
  5
129042
  8
OBJECT
 10
4080.0
 20
-658.0
 30
0.0
 11
4083.0
 21
-658.0
 31
0.0
1001
ACDBBLOCKREPETAG
1070
     1
1071
       59
1005
129042
  0
ARC
  5
129043
  8
OBJECT
 10
4083.0
 20
-655.0
 30
0.0
 40
3.0
 50
270.0
 51
0.0
1001
ACDBBLOCKREPETAG
1070
     1
1071
       60
1005
129043
  0
LINE
  5
129044
  8
OBJECT
 10
4086.0
 20
-655.0
 30
0.0
 11
4086.0
 21
-537.0
 31
0.0
1001
ACDBBLOCKREPETAG
1070
     1
1071
       61
1005
129044
  0
LINE
  5
129045
  8
HIDDEN
 10
4088.0
 20
-551.49999999999966
 30
0.0
 11
4088.0
 21
-640.5
 31
0.0
1001
ACDBBLOCKREPETAG
1070
     1
1071
       63
1005
129045
  0
LINE
  5
129046
  8
CENTER
 10
2577.0
 20
-596.0
 30
0.0
 11
2423.0
 21
-596.0
 31
0.0
1001
ACDBBLOCKREPETAG
1070
     1
1071
       17
1005
129046
  0
CIRCLE
  5
129047
  8
OBJECT
 10
2500.0
 20
-596.0
 30
0.0
 40
41.5
1001
ACDBBLOCKREPETAG
1070
     1
1071
       19
1005
129047
  0
CIRCLE
  5
129048
  8
OBJECT
 10
2500.0
 20
-596.0
 30
0.0
 40
54.0
1001
ACDBBLOCKREPETAG
1070
     1
1071
       20
1005
129048
  0
ARC
  5
129049
  8
OBJECT
 10
2500.0
 20
-596.0
 30
0.0
 40
62.0
 50
287.89655112920718
 51
252.10344887079279
1001
ACDBBLOCKREPETAG
1070
     1
1071
       21
1005
129049
  0
LINE
  5
12904A
  8
OBJECT
 10
2480.947441116743
 20
-655.0
 30
0.0
 11
2519.052558883257
 21
-655.0
 31
0.0
1001
ACDBBLOCKREPETAG
1070
     1
1071
       22
1005
12904A
  0
LINE
  5
12904B
  8
OBJECT
 10
2133.0
 20
-534.0
 30
0.0
 11
2140.0
 21
-534.0
 31
0.0
1001
ACDBBLOCKREPETAG
1070
     1
1071
       45
1005
12904B
  0
LINE
  5
12904C
  8
OBJECT
 10
2140.0
 20
-534.0
 30
0.0
 11
2140.0
 21
-655.0
 31
0.0
1001
ACDBBLOCKREPETAG
1070
     1
1071
       46
1005
12904C
  0
LINE
  5
12904D
  8
OBJECT
 10
2133.0
 20
-655.0
 30
0.0
 11
2133.0
 21
-534.0
 31
0.0
1001
ACDBBLOCKREPETAG
1070
     1
1071
       47
1005
12904D
  0
LINE
  5
12904E
  8
CENTER
 10
2155.0
 20
-596.0
 30
0.0
 11
2071.0
 21
-596.0
 31
0.0
1001
ACDBBLOCKREPETAG
1070
     1
1071
       48
1005
12904E
  0
LINE
  5
12904F
  8
OBJECT
 10
2133.0
 20
-537.0
 30
0.0
 11
2097.0
 21
-537.0
 31
0.0
1001
ACDBBLOCKREPETAG
1070
     1
1071
       49
1005
12904F
  0
LINE
  5
129050
  8
OBJECT
 10
2097.0
 20
-537.0
 30
0.0
 11
2097.0
 21
-655.0
 31
0.0
1001
ACDBBLOCKREPETAG
1070
     1
1071
       50
1005
129050
  0
LINE
  5
129051
  8
OBJECT
 10
2097.0
 20
-655.0
 30
0.0
 11
2140.0
 21
-655.0
 31
0.0
1001
ACDBBLOCKREPETAG
1070
     1
1071
       51
1005
129051
  0
LINE
  5
129052
  8
OBJECT
 10
2093.0
 20
-541.5
 30
0.0
 11
2086.0
 21
-541.5
 31
0.0
1001
ACDBBLOCKREPETAG
1070
     1
1071
       52
1005
129052
  0
LINE
  5
129053
  8
OBJECT
 10
2086.0
 20
-650.49999999999989
 30
0.0
 11
2093.0
 21
-650.49999999999989
 31
0.0
1001
ACDBBLOCKREPETAG
1070
     1
1071
       53
1005
129053
  0
LINE
  5
129054
  8
OBJECT
 10
2093.0
 20
-650.49999999999989
 30
0.0
 11
2093.0
 21
-541.5
 31
0.0
1001
ACDBBLOCKREPETAG
1070
     1
1071
       54
1005
129054
  0
LINE
  5
129055
  8
OBJECT
 10
2097.0
 20
-537.0
 30
0.0
 11
2093.0
 21
-541.5
 31
0.0
1001
ACDBBLOCKREPETAG
1070
     1
1071
       55
1005
129055
  0
LINE
  5
129056
  8
OBJECT
 10
2097.0
 20
-655.0
 30
0.0
 11
2093.0
 21
-650.49999999999989
 31
0.0
1001
ACDBBLOCKREPETAG
1070
     1
1071
       56
1005
129056
  0
LINE
  5
129057
  8
OBJECT
 10
2083.0
 20
-534.0
 30
0.0
 11
2080.0
 21
-534.0
 31
0.0
1001
ACDBBLOCKREPETAG
1070
     1
1071
       57
1005
129057
  0
ARC
  5
129058
  8
OBJECT
 10
2083.0
 20
-537.0
 30
0.0
 40
3.0
 50
0.0
 51
90.0
1001
ACDBBLOCKREPETAG
1070
     1
1071
       58
1005
129058
  0
LINE
  5
129059
  8
OBJECT
 10
2080.0
 20
-658.0
 30
0.0
 11
2083.0
 21
-658.0
 31
0.0
1001
ACDBBLOCKREPETAG
1070
     1
1071
       59
1005
129059
  0
ARC
  5
12905A
  8
OBJECT
 10
2083.0
 20
-655.0
 30
0.0
 40
3.0
 50
270.0
 51
0.0
1001
ACDBBLOCKREPETAG
1070
     1
1071
       60
1005
12905A
  0
LINE
  5
12905B
  8
OBJECT
 10
2086.0
 20
-655.0
 30
0.0
 11
2086.0
 21
-537.0
 31
0.0
1001
ACDBBLOCKREPETAG
1070
     1
1071
       61
1005
12905B
  0
LINE
  5
12905C
  8
HIDDEN
 10
2088.0
 20
-551.49999999999966
 30
0.0
 11
2088.0
 21
-640.5
 31
0.0
1001
ACDBBLOCKREPETAG
1070
     1
1071
       63
1005
12905C
  0
LINE
  5
12905D
  8
OBJECT
 10
2133.0
 20
-137.99999999999909
 30
0.0
 11
2140.0
 21
-137.99999999999909
 31
0.0
1001
ACDBBLOCKREPETAG
1070
     1
1071
       47
1005
12905D
  0
LINE
  5
12905E
  8
OBJECT
 10
2140.0
 20
-137.99999999999909
 30
0.0
 11
2140.0
 21
-261.99999999999909
 31
0.0
1001
ACDBBLOCKREPETAG
1070
     1
1071
       48
1005
12905E
  0
LINE
  5
12905F
  8
OBJECT
 10
2140.0
 20
-261.99999999999909
 30
0.0
 11
2133.0
 21
-261.99999999999909
 31
0.0
1001
ACDBBLOCKREPETAG
1070
     1
1071
       49
1005
12905F
  0
LINE
  5
129060
  8
OBJECT
 10
2133.0
 20
-261.99999999999909
 30
0.0
 11
2133.0
 21
-137.99999999999909
 31
0.0
1001
ACDBBLOCKREPETAG
1070
     1
1071
       50
1005
129060
  0
LINE
  5
129061
  8
CENTER
 10
2155.0
 20
-199.99999999999909
 30
0.0
 11
2080.0
 21
-199.99999999999909
 31
0.0
1001
ACDBBLOCKREPETAG
1070
     1
1071
       51
1005
129061
  0
LINE
  5
129062
  8
OBJECT
 10
2133.0
 20
-140.99999999999909
 30
0.0
 11
2097.0
 21
-140.99999999999909
 31
0.0
1001
ACDBBLOCKREPETAG
1070
     1
1071
       52
1005
129062
  0
LINE
  5
129063
  8
OBJECT
 10
2097.0
 20
-140.99999999999909
 30
0.0
 11
2097.0
 21
-258.99999999999909
 31
0.0
1001
ACDBBLOCKREPETAG
1070
     1
1071
       53
1005
129063
  0
LINE
  5
129064
  8
OBJECT
 10
2097.0
 20
-258.99999999999909
 30
0.0
 11
2133.0
 21
-258.99999999999909
 31
0.0
1001
ACDBBLOCKREPETAG
1070
     1
1071
       54
1005
129064
  0
LINE
  5
129065
  8
OBJECT
 10
2093.0
 20
-145.49999999999909
 30
0.0
 11
2086.0
 21
-145.49999999999909
 31
0.0
1001
ACDBBLOCKREPETAG
1070
     1
1071
       55
1005
129065
  0
LINE
  5
129066
  8
OBJECT
 10
2086.0
 20
-254.49999999999909
 30
0.0
 11
2093.0
 21
-254.49999999999909
 31
0.0
1001
ACDBBLOCKREPETAG
1070
     1
1071
       56
1005
129066
  0
LINE
  5
129067
  8
OBJECT
 10
2093.0
 20
-254.49999999999909
 30
0.0
 11
2093.0
 21
-145.49999999999909
 31
0.0
1001
ACDBBLOCKREPETAG
1070
     1
1071
       57
1005
129067
  0
LINE
  5
129068
  8
OBJECT
 10
2097.0
 20
-140.99999999999909
 30
0.0
 11
2093.0
 21
-145.49999999999909
 31
0.0
1001
ACDBBLOCKREPETAG
1070
     1
1071
       58
1005
129068
  0
LINE
  5
129069
  8
OBJECT
 10
2097.0
 20
-258.99999999999909
 30
0.0
 11
2093.0
 21
-254.49999999999909
 31
0.0
1001
ACDBBLOCKREPETAG
1070
     1
1071
       59
1005
129069
  0
LINE
  5
12906A
  8
OBJECT
 10
2083.0
 20
-137.99999999999909
 30
0.0
 11
2080.0
 21
-137.99999999999909
 31
0.0
1001
ACDBBLOCKREPETAG
1070
     1
1071
       60
1005
12906A
  0
ARC
  5
12906B
  8
OBJECT
 10
2083.0
 20
-140.99999999999909
 30
0.0
 40
3.0
 50
0.0
 51
90.0
1001
ACDBBLOCKREPETAG
1070
     1
1071
       61
1005
12906B
  0
LINE
  5
12906C
  8
OBJECT
 10
2080.0
 20
-261.99999999999909
 30
0.0
 11
2083.0
 21
-261.99999999999909
 31
0.0
1001
ACDBBLOCKREPETAG
1070
     1
1071
       62
1005
12906C
  0
ARC
  5
12906D
  8
OBJECT
 10
2083.0
 20
-258.99999999999909
 30
0.0
 40
3.0
 50
270.0
 51
0.0
1001
ACDBBLOCKREPETAG
1070
     1
1071
       63
1005
12906D
  0
LINE
  5
12906E
  8
OBJECT
 10
2086.0
 20
-258.99999999999909
 30
0.0
 11
2086.0
 21
-140.99999999999909
 31
0.0
1001
ACDBBLOCKREPETAG
1070
     1
1071
       64
1005
12906E
  0
LINE
  5
12906F
  8
HIDDEN
 10
2088.0
 20
-155.49999999999909
 30
0.0
 11
2088.0
 21
-244.49999999999909
 31
0.0
1001
ACDBBLOCKREPETAG
1070
     1
1071
       65
1005
12906F
  0
LINE
  5
129070
  8
OBJECT
 10
465.00000000012182
 20
-546.00000000000955
 30
0.0
 11
465.00000000012182
 21
-553.00000000000966
 31
0.0
1001
ACDBBLOCKREPETAG
1070
     1
1071
       57
1005
129070
  0
LINE
  5
129071
  8
OBJECT
 10
465.00000000012182
 20
-553.00000000000966
 30
0.0
 11
615.00000000012176
 21
-553.00000000000966
 31
0.0
1001
ACDBBLOCKREPETAG
1070
     1
1071
       58
1005
129071
  0
LINE
  5
129072
  8
OBJECT
 10
468.0000000001217
 20
-594.50000000000966
 30
0.0
 11
612.00000000012164
 21
-594.50000000000966
 31
0.0
1001
ACDBBLOCKREPETAG
1070
     1
1071
       59
1005
129072
  0
LINE
  5
129073
  8
OBJECT
 10
474.50000000012159
 20
-606.00000000000955
 30
0.0
 11
605.50000000012187
 21
-606.00000000000955
 31
0.0
1001
ACDBBLOCKREPETAG
1070
     1
1071
       60
1005
129073
  0
LINE
  5
129074
  8
OBJECT
 10
615.00000000012176
 20
-553.00000000000966
 30
0.0
 11
615.00000000012176
 21
-546.00000000000955
 31
0.0
1001
ACDBBLOCKREPETAG
1070
     1
1071
       61
1005
129074
  0
LINE
  5
129075
  8
OBJECT
 10
615.00000000012176
 20
-546.00000000000955
 30
0.0
 11
465.00000000012182
 21
-546.00000000000955
 31
0.0
1001
ACDBBLOCKREPETAG
1070
     1
1071
       62
1005
129075
  0
LINE
  5
129076
  8
OBJECT
 10
602.00000000012187
 20
-610.00000000000955
 30
0.0
 11
602.00000000012187
 21
-616.00000000000955
 31
0.0
1001
ACDBBLOCKREPETAG
1070
     1
1071
       63
1005
129076
  0
LINE
  5
129077
  8
OBJECT
 10
612.00000000012164
 20
-553.00000000000966
 30
0.0
 11
612.00000000012164
 21
-594.50000000000966
 31
0.0
1001
ACDBBLOCKREPETAG
1070
     1
1071
       64
1005
129077
  0
LINE
  5
129078
  8
OBJECT
 10
612.00000000012164
 20
-594.50000000000966
 30
0.0
 11
605.50000000012187
 21
-606.00000000000955
 31
0.0
1001
ACDBBLOCKREPETAG
1070
     1
1071
       65
1005
129078
  0
LINE
  5
129079
  8
OBJECT
 10
605.50000000012187
 20
-606.00000000000955
 30
0.0
 11
602.00000000012187
 21
-610.00000000000955
 31
0.0
1001
ACDBBLOCKREPETAG
1070
     1
1071
       66
1005
129079
  0
LINE
  5
12907A
  8
OBJECT
 10
468.0000000001217
 20
-594.50000000000966
 30
0.0
 11
474.50000000012159
 21
-606.00000000000955
 31
0.0
1001
ACDBBLOCKREPETAG
1070
     1
1071
       67
1005
12907A
  0
LINE
  5
12907B
  8
OBJECT
 10
474.50000000012159
 20
-606.00000000000955
 30
0.0
 11
478.0000000001217
 21
-610.00000000000955
 31
0.0
1001
ACDBBLOCKREPETAG
1070
     1
1071
       68
1005
12907B
  0
ARC
  5
12907C
  8
OBJECT
 10
540.00000000012176
 20
-228.10000000000809
 30
0.0
 40
386.89999999999998
 50
260.77870136257951
 51
279.22129863742049
1001
ACDBBLOCKREPETAG
1070
     1
1071
       69
1005
12907C
  0
LINE
  5
12907D
  8
OBJECT
 10
478.0000000001217
 20
-610.00000000000955
 30
0.0
 11
478.0000000001217
 21
-616.00000000000955
 31
0.0
1001
ACDBBLOCKREPETAG
1070
     1
1071
       70
1005
12907D
  0
LINE
  5
12907E
  8
OBJECT
 10
468.0000000001217
 20
-553.00000000000966
 30
0.0
 11
468.0000000001217
 21
-594.50000000000966
 31
0.0
1001
ACDBBLOCKREPETAG
1070
     1
1071
       71
1005
12907E
  0
INSERT
  5
12907F
  8
OBJECT
  2
*U6
 10
0.0
 20
0.0
 30
0.0
  0
LINE
  5
129080
  8
HIDDEN
 10
597.00000000012187
 20
-598.00000000000955
 30
0.0
 11
483.00000000012159
 21
-598.00000000000955
 31
0.0
1001
ACDBBLOCKREPETAG
1070
     1
1071
      431
1005
129080
  0
INSERT
  5
129081
  8
OBJECT
  2
*U7
 10
0.0
 20
0.0
 30
0.0
  0
LINE
  5
129082
  8
OBJECT
 10
118.00000000004179
 20
-563.00000000000955
 30
0.0
 11
118.00000000004179
 21
-556.00000000000955
 31
0.0
1001
ACDBBLOCKREPETAG
1070
     1
1071
       39
1005
129082
  0
LINE
  5
129083
  8
OBJECT
 10
118.00000000004179
 20
-556.00000000000955
 30
0.0
 11
242.00000000004181
 21
-556.00000000000955
 31
0.0
1001
ACDBBLOCKREPETAG
1070
     1
1071
       40
1005
129083
  0
LINE
  5
129084
  8
OBJECT
 10
242.00000000004181
 20
-556.00000000000955
 30
0.0
 11
242.00000000004181
 21
-563.00000000000955
 31
0.0
1001
ACDBBLOCKREPETAG
1070
     1
1071
       41
1005
129084
  0
LINE
  5
129085
  8
OBJECT
 10
242.00000000004181
 20
-563.00000000000955
 30
0.0
 11
118.00000000004179
 21
-563.00000000000955
 31
0.0
1001
ACDBBLOCKREPETAG
1070
     1
1071
       42
1005
129085
  0
LINE
  5
129086
  8
OBJECT
 10
121.00000000004179
 20
-563.00000000000955
 30
0.0
 11
121.00000000004179
 21
-599.00000000000966
 31
0.0
1001
ACDBBLOCKREPETAG
1070
     1
1071
       43
1005
129086
  0
LINE
  5
129087
  8
OBJECT
 10
121.00000000004179
 20
-599.00000000000966
 30
0.0
 11
239.00000000004181
 21
-599.00000000000966
 31
0.0
1001
ACDBBLOCKREPETAG
1070
     1
1071
       44
1005
129087
  0
LINE
  5
129088
  8
OBJECT
 10
239.00000000004181
 20
-599.00000000000966
 30
0.0
 11
239.00000000004181
 21
-563.00000000000955
 31
0.0
1001
ACDBBLOCKREPETAG
1070
     1
1071
       45
1005
129088
  0
LINE
  5
129089
  8
OBJECT
 10
125.50000000004179
 20
-603.00000000000966
 30
0.0
 11
125.50000000004179
 21
-610.00000000000955
 31
0.0
1001
ACDBBLOCKREPETAG
1070
     1
1071
       46
1005
129089
  0
LINE
  5
12908A
  8
OBJECT
 10
234.50000000004181
 20
-610.00000000000955
 30
0.0
 11
234.50000000004181
 21
-603.00000000000966
 31
0.0
1001
ACDBBLOCKREPETAG
1070
     1
1071
       47
1005
12908A
  0
LINE
  5
12908B
  8
OBJECT
 10
234.50000000004181
 20
-603.00000000000966
 30
0.0
 11
125.50000000004179
 21
-603.00000000000966
 31
0.0
1001
ACDBBLOCKREPETAG
1070
     1
1071
       48
1005
12908B
  0
LINE
  5
12908C
  8
OBJECT
 10
121.00000000004179
 20
-599.00000000000966
 30
0.0
 11
125.50000000004179
 21
-603.00000000000966
 31
0.0
1001
ACDBBLOCKREPETAG
1070
     1
1071
       49
1005
12908C
  0
LINE
  5
12908D
  8
OBJECT
 10
239.00000000004181
 20
-599.00000000000966
 30
0.0
 11
234.50000000004181
 21
-603.00000000000966
 31
0.0
1001
ACDBBLOCKREPETAG
1070
     1
1071
       50
1005
12908D
  0
LINE
  5
12908E
  8
OBJECT
 10
118.00000000004179
 20
-613.00000000000864
 30
0.0
 11
118.00000000004179
 21
-616.00000000000955
 31
0.0
1001
ACDBBLOCKREPETAG
1070
     1
1071
       51
1005
12908E
  0
ARC
  5
12908F
  8
OBJECT
 10
121.00000000004179
 20
-613.00000000000864
 30
0.0
 40
3.0
 50
90.0
 51
180.0
1001
ACDBBLOCKREPETAG
1070
     1
1071
       52
1005
12908F
  0
LINE
  5
129090
  8
OBJECT
 10
242.00000000004181
 20
-616.00000000000955
 30
0.0
 11
242.00000000004181
 21
-613.00000000001035
 31
0.0
1001
ACDBBLOCKREPETAG
1070
     1
1071
       53
1005
129090
  0
ARC
  5
129091
  8
OBJECT
 10
239.00000000004181
 20
-613.00000000001035
 30
0.0
 40
3.0
 50
0.0
 51
90.0
1001
ACDBBLOCKREPETAG
1070
     1
1071
       54
1005
129091
  0
LINE
  5
129092
  8
OBJECT
 10
239.00000000004181
 20
-610.00000000001035
 30
0.0
 11
121.00000000004179
 21
-610.00000000000864
 31
0.0
1001
ACDBBLOCKREPETAG
1070
     1
1071
       55
1005
129092
  0
LINE
  5
129093
  8
HIDDEN
 10
135.50000000004181
 20
-608.00000000000955
 30
0.0
 11
224.50000000004181
 21
-608.00000000000955
 31
0.0
1001
ACDBBLOCKREPETAG
1070
     1
1071
      426
1005
129093
  0
INSERT
  5
129094
  8
OBJECT
  2
*U8
 10
0.0
 20
0.0
 30
0.0
  0
LINE
  5
129095
  8
OBJECT
 10
485.0000000001217
 20
-99.000000000003183
 30
0.0
 11
485.0000000001217
 21
-92.000000000003183
 31
0.0
1001
ACDBBLOCKREPETAG
1070
     1
1071
       20
1005
129095
  0
LINE
  5
129096
  8
OBJECT
 10
485.0000000001217
 20
-92.000000000003183
 30
0.0
 11
595.00000000012164
 21
-92.000000000003183
 31
0.0
1001
ACDBBLOCKREPETAG
1070
     1
1071
       21
1005
129096
  0
LINE
  5
129097
  8
OBJECT
 10
595.00000000012164
 20
-92.000000000003183
 30
0.0
 11
595.00000000012164
 21
-99.000000000003183
 31
0.0
1001
ACDBBLOCKREPETAG
1070
     1
1071
       22
1005
129097
  0
LINE
  5
129098
  8
OBJECT
 10
595.00000000012164
 20
-99.000000000003183
 30
0.0
 11
485.0000000001217
 21
-99.000000000003183
 31
0.0
1001
ACDBBLOCKREPETAG
1070
     1
1071
       23
1005
129098
  0
LINE
  5
129099
  8
OBJECT
 10
488.00000000012159
 20
-99.000000000003183
 30
0.0
 11
488.00000000012159
 21
-135.00000000000321
 31
0.0
1001
ACDBBLOCKREPETAG
1070
     1
1071
       24
1005
129099
  0
LINE
  5
12909A
  8
OBJECT
 10
488.00000000012159
 20
-135.00000000000321
 30
0.0
 11
592.00000000012164
 21
-135.00000000000321
 31
0.0
1001
ACDBBLOCKREPETAG
1070
     1
1071
       25
1005
12909A
  0
LINE
  5
12909B
  8
OBJECT
 10
592.00000000012164
 20
-135.00000000000321
 30
0.0
 11
592.00000000012164
 21
-99.000000000003183
 31
0.0
1001
ACDBBLOCKREPETAG
1070
     1
1071
       26
1005
12909B
  0
LINE
  5
12909C
  8
OBJECT
 10
492.5000000001217
 20
-139.00000000000321
 30
0.0
 11
492.5000000001217
 21
-146.00000000000321
 31
0.0
1001
ACDBBLOCKREPETAG
1070
     1
1071
       27
1005
12909C
  0
LINE
  5
12909D
  8
OBJECT
 10
587.50000000012164
 20
-146.00000000000321
 30
0.0
 11
587.50000000012164
 21
-139.00000000000321
 31
0.0
1001
ACDBBLOCKREPETAG
1070
     1
1071
       28
1005
12909D
  0
LINE
  5
12909E
  8
OBJECT
 10
587.50000000012164
 20
-139.00000000000321
 30
0.0
 11
492.5000000001217
 21
-139.00000000000321
 31
0.0
1001
ACDBBLOCKREPETAG
1070
     1
1071
       29
1005
12909E
  0
LINE
  5
12909F
  8
OBJECT
 10
488.00000000012159
 20
-135.00000000000321
 30
0.0
 11
492.5000000001217
 21
-139.00000000000321
 31
0.0
1001
ACDBBLOCKREPETAG
1070
     1
1071
       30
1005
12909F
  0
LINE
  5
1290A0
  8
OBJECT
 10
592.00000000012164
 20
-135.00000000000321
 30
0.0
 11
587.50000000012164
 21
-139.00000000000321
 31
0.0
1001
ACDBBLOCKREPETAG
1070
     1
1071
       31
1005
1290A0
  0
LINE
  5
1290A1
  8
OBJECT
 10
478.0000000001217
 20
-149.0000000000023
 30
0.0
 11
478.0000000001217
 21
-152.0000000000031
 31
0.0
1001
ACDBBLOCKREPETAG
1070
     1
1071
       32
1005
1290A1
  0
ARC
  5
1290A2
  8
OBJECT
 10
481.0000000001217
 20
-149.0000000000023
 30
0.0
 40
3.0
 50
90.0
 51
180.0
1001
ACDBBLOCKREPETAG
1070
     1
1071
       33
1005
1290A2
  0
LINE
  5
1290A3
  8
OBJECT
 10
602.00000000012187
 20
-152.0000000000031
 30
0.0
 11
602.00000000012187
 21
-149.00000000000409
 31
0.0
1001
ACDBBLOCKREPETAG
1070
     1
1071
       34
1005
1290A3
  0
ARC
  5
1290A4
  8
OBJECT
 10
599.00000000012164
 20
-149.00000000000409
 30
0.0
 40
3.0
 50
0.0
 51
90.0
1001
ACDBBLOCKREPETAG
1070
     1
1071
       35
1005
1290A4
  0
LINE
  5
1290A5
  8
OBJECT
 10
599.00000000012164
 20
-146.00000000000409
 30
0.0
 11
481.0000000001217
 21
-146.0000000000023
 31
0.0
1001
ACDBBLOCKREPETAG
1070
     1
1071
       36
1005
1290A5
  0
LINE
  5
1290A6
  8
HIDDEN
 10
502.0000000001217
 20
-144.00000000000321
 30
0.0
 11
578.00000000012164
 21
-144.00000000000321
 31
0.0
1001
ACDBBLOCKREPETAG
1070
     1
1071
      423
1005
1290A6
  0
INSERT
  5
1290A7
  8
OBJECT
  2
*U9
 10
0.0
 20
0.0
 30
0.0
  0
LINE
  5
1290A8
  8
OBJECT
 10
133.00000000004169
 20
-99.000000000003183
 30
0.0
 11
133.00000000004169
 21
-92.000000000003183
 31
0.0
1001
ACDBBLOCKREPETAG
1070
     1
1071
        1
1005
1290A8
  0
LINE
  5
1290A9
  8
OBJECT
 10
133.00000000004169
 20
-92.000000000003183
 30
0.0
 11
227.00000000004181
 21
-92.000000000003183
 31
0.0
1001
ACDBBLOCKREPETAG
1070
     1
1071
        2
1005
1290A9
  0
LINE
  5
1290AA
  8
OBJECT
 10
227.00000000004181
 20
-92.000000000003183
 30
0.0
 11
227.00000000004181
 21
-99.000000000003183
 31
0.0
1001
ACDBBLOCKREPETAG
1070
     1
1071
        3
1005
1290AA
  0
LINE
  5
1290AB
  8
OBJECT
 10
227.00000000004181
 20
-99.000000000003183
 30
0.0
 11
133.00000000004169
 21
-99.000000000003183
 31
0.0
1001
ACDBBLOCKREPETAG
1070
     1
1071
        4
1005
1290AB
  0
LINE
  5
1290AC
  8
OBJECT
 10
136.00000000004169
 20
-99.000000000003183
 30
0.0
 11
136.00000000004169
 21
-135.00000000000321
 31
0.0
1001
ACDBBLOCKREPETAG
1070
     1
1071
        5
1005
1290AC
  0
LINE
  5
1290AD
  8
OBJECT
 10
136.00000000004169
 20
-135.00000000000321
 30
0.0
 11
224.00000000004181
 21
-135.00000000000321
 31
0.0
1001
ACDBBLOCKREPETAG
1070
     1
1071
        6
1005
1290AD
  0
LINE
  5
1290AE
  8
OBJECT
 10
224.00000000004181
 20
-135.00000000000321
 30
0.0
 11
224.00000000004181
 21
-99.000000000003183
 31
0.0
1001
ACDBBLOCKREPETAG
1070
     1
1071
        7
1005
1290AE
  0
LINE
  5
1290AF
  8
OBJECT
 10
140.50000000004181
 20
-139.00000000000321
 30
0.0
 11
140.50000000004181
 21
-146.00000000000321
 31
0.0
1001
ACDBBLOCKREPETAG
1070
     1
1071
        8
1005
1290AF
  0
LINE
  5
1290B0
  8
OBJECT
 10
219.50000000004189
 20
-146.00000000000321
 30
0.0
 11
219.50000000004189
 21
-139.00000000000321
 31
0.0
1001
ACDBBLOCKREPETAG
1070
     1
1071
        9
1005
1290B0
  0
LINE
  5
1290B1
  8
OBJECT
 10
219.50000000004189
 20
-139.00000000000321
 30
0.0
 11
140.50000000004181
 21
-139.00000000000321
 31
0.0
1001
ACDBBLOCKREPETAG
1070
     1
1071
       10
1005
1290B1
  0
LINE
  5
1290B2
  8
OBJECT
 10
136.00000000004169
 20
-135.00000000000321
 30
0.0
 11
140.50000000004181
 21
-139.00000000000321
 31
0.0
1001
ACDBBLOCKREPETAG
1070
     1
1071
       11
1005
1290B2
  0
LINE
  5
1290B3
  8
OBJECT
 10
224.00000000004181
 20
-135.00000000000321
 30
0.0
 11
219.50000000004189
 21
-139.00000000000321
 31
0.0
1001
ACDBBLOCKREPETAG
1070
     1
1071
       12
1005
1290B3
  0
LINE
  5
1290B4
  8
OBJECT
 10
118.00000000004179
 20
-149.0000000000023
 30
0.0
 11
118.00000000004179
 21
-152.0000000000031
 31
0.0
1001
ACDBBLOCKREPETAG
1070
     1
1071
       13
1005
1290B4
  0
ARC
  5
1290B5
  8
OBJECT
 10
121.00000000004179
 20
-149.0000000000023
 30
0.0
 40
3.0
 50
90.0
 51
180.0
1001
ACDBBLOCKREPETAG
1070
     1
1071
       14
1005
1290B5
  0
LINE
  5
1290B6
  8
OBJECT
 10
242.00000000004181
 20
-152.0000000000031
 30
0.0
 11
242.00000000004181
 21
-149.00000000000409
 31
0.0
1001
ACDBBLOCKREPETAG
1070
     1
1071
       15
1005
1290B6
  0
ARC
  5
1290B7
  8
OBJECT
 10
239.00000000004181
 20
-149.00000000000409
 30
0.0
 40
3.0
 50
0.0
 51
90.0
1001
ACDBBLOCKREPETAG
1070
     1
1071
       16
1005
1290B7
  0
LINE
  5
1290B8
  8
OBJECT
 10
239.00000000004181
 20
-146.00000000000409
 30
0.0
 11
121.00000000004179
 21
-146.0000000000023
 31
0.0
1001
ACDBBLOCKREPETAG
1070
     1
1071
       17
1005
1290B8
  0
LINE
  5
1290B9
  8
HIDDEN
 10
150.00000000004181
 20
-144.00000000000321
 30
0.0
 11
210.00000000004181
 21
-144.00000000000321
 31
0.0
1001
ACDBBLOCKREPETAG
1070
     1
1071
      420
1005
1290B9
  0
POLYLINE
  5
1290BA
  8
HIDDEN
 66
     1
 10
0.0
 20
0.0
 30
0.0
 70
     1
1001
ACDBBLOCKREPETAG
1070
     1
1071
      105
1005
0
  0
VERTEX
  5
129D14
  8
HIDDEN
 10
359.99999999987818
 20
0.0
 30
0.0
  0
VERTEX
  5
129D15
  8
HIDDEN
 10
719.99999999975626
 20
0.0
 30
0.0
  0
VERTEX
  5
129D16
  8
HIDDEN
 10
719.99999999975626
 20
-463.99999999984158
 30
0.0
  0
VERTEX
  5
129D17
  8
HIDDEN
 10
359.99999999987818
 20
-463.99999999984158
 30
0.0
  0
SEQEND
  5
129D18
  8
HIDDEN
  0
POLYLINE
  5
1290BB
  8
HIDDEN
 66
     1
 10
0.0
 20
0.0
 30
0.0
 70
     1
1001
ACDBBLOCKREPETAG
1070
     1
1071
      110
1005
0
  0
VERTEX
  5
129D19
  8
HIDDEN
 10
0.0
 20
0.0
 30
0.0
  0
VERTEX
  5
129D1A
  8
HIDDEN
 10
359.99999999987818
 20
0.0
 30
0.0
  0
VERTEX
  5
129D1B
  8
HIDDEN
 10
359.99999999987818
 20
-463.99999999984158
 30
0.0
  0
VERTEX
  5
129D1C
  8
HIDDEN
 10
0.0
 20
-463.99999999984158
 30
0.0
  0
SEQEND
  5
129D1D
  8
HIDDEN
  0
POLYLINE
  5
1290BC
  8
HIDDEN
 66
     1
 10
0.0
 20
0.0
 30
0.0
 70
     1
1001
ACDBBLOCKREPETAG
1070
     1
1071
      120
1005
0
  0
VERTEX
  5
129D1E
  8
HIDDEN
 10
359.99999999987818
 20
-463.99999999984158
 30
0.0
  0
VERTEX
  5
129D1F
  8
HIDDEN
 10
719.99999999975626
 20
-463.99999999984158
 30
0.0
  0
VERTEX
  5
129D20
  8
HIDDEN
 10
719.99999999975626
 20
-927.9999999996835
 30
0.0
  0
VERTEX
  5
129D21
  8
HIDDEN
 10
359.99999999987818
 20
-927.9999999996835
 30
0.0
  0
SEQEND
  5
129D22
  8
HIDDEN
  0
POLYLINE
  5
1290BD
  8
HIDDEN
 66
     1
 10
0.0
 20
0.0
 30
0.0
 70
     1
1001
ACDBBLOCKREPETAG
1070
     1
1071
      125
1005
0
  0
VERTEX
  5
129D23
  8
HIDDEN
 10
0.0
 20
-463.99999999984158
 30
0.0
  0
VERTEX
  5
129D24
  8
HIDDEN
 10
359.99999999987818
 20
-463.99999999984158
 30
0.0
  0
VERTEX
  5
129D25
  8
HIDDEN
 10
359.99999999987818
 20
-927.9999999996835
 30
0.0
  0
VERTEX
  5
129D26
  8
HIDDEN
 10
0.0
 20
-927.9999999996835
 30
0.0
  0
SEQEND
  5
129D27
  8
HIDDEN
  0
TEXT
  5
1290BE
  8
SLIM
 10
508.28571428553232
 20
-907.999999999691
 30
0.0
 40
48.0
  1
A4
 41
0.75
1001
ACDBBLOCKREPETAG
1070
     1
1071
      119
1005
0
  0
TEXT
  5
1290BF
  8
SLIM
 10
149.14285714279711
 20
-907.999999999691
 30
0.0
 40
48.0
  1
A3
 41
0.75
1001
ACDBBLOCKREPETAG
1070
     1
1071
      119
1005
0
  0
TEXT
  5
1290C0
  8
SLIM
 10
509.14285714267498
 20
-443.99999999984919
 30
0.0
 40
48.0
  1
A2
 41
0.75
1001
ACDBBLOCKREPETAG
1070
     1
1071
      119
1005
0
  0
TEXT
  5
1290C1
  8
SLIM
 10
156.85714285708281
 20
-443.99999999984919
 30
0.0
 40
48.0
  1
A1
 41
0.75
1001
ACDBBLOCKREPETAG
1070
     1
1071
      119
1005
0
  0
TEXT
  5
1290C2
  8
SLIM
 10
0.0
 20
670.0
 30
0.0
 40
100.0
  1
4CL-AX-S
 41
0.75
  0
TEXT
  5
1290C3
  8
SLIM
 10
0.0
 20
520.0
 30
0.0
 40
100.0
  1
4CL-AX-W
 41
0.75
  0
TEXT
  5
1290C4
  8
SLIM
 10
0.0000035665234464
 20
24.000004585317601
 30
0.0
 40
79.999999999972701
  1
枝管バリエーション
 41
0.75
1001
ACDBBLOCKREPETAG
1070
     1
1071
      119
1005
12475A
  0
TEXT
  5
1290C5
  8
SLIM
 10
0.0
 20
370.0
 30
0.0
 40
100.0
  1
4CL-AX-WKP
 41
0.75
  0
LINE
  5
1290C6
  8
OBJECT
 10
6566.0
 20
-840.49999999999579
 30
0.0
 11
6434.0
 21
-840.49999999999579
 31
0.0
1001
ACDBBLOCKREPETAG
1070
     1
1071
      163
1005
1290C6
  0
LINE
  5
1290C7
  8
HIDDEN
 10
6443.0
 20
-849.99999999999955
 30
0.0
 11
6557.0
 21
-849.99999999999955
 31
0.0
1001
ACDBBLOCKREPETAG
1070
     1
1071
      164
1005
1290C7
  0
LINE
  5
1290C8
  8
CENTER
 10
6500.0
 20
-669.99999999999955
 30
0.0
 11
6500.0
 21
-969.99999999999966
 31
0.0
1001
ACDBBLOCKREPETAG
1070
     1
1071
      165
1005
1290C8
  0
LINE
  5
1290C9
  8
OBJECT
 10
6425.0
 20
-669.99999999999955
 30
0.0
 11
6425.0
 21
-722.99999999999591
 31
0.0
1001
ACDBBLOCKREPETAG
1070
     1
1071
      166
1005
1290C9
  0
LINE
  5
1290CA
  8
OBJECT
 10
6575.0
 20
-669.99999999999955
 30
0.0
 11
6575.0
 21
-722.99999999999204
 31
0.0
1001
ACDBBLOCKREPETAG
1070
     1
1071
      167
1005
1290CA
  0
LINE
  5
1290CB
  8
OBJECT
 10
6425.0
 20
-722.99999999999591
 30
0.0
 11
6575.0
 21
-722.99999999999204
 31
0.0
1001
ACDBBLOCKREPETAG
1070
     1
1071
      168
1005
1290CB
  0
LINE
  5
1290CC
  8
OBJECT
 10
6557.0
 20
-840.49999999999216
 30
0.0
 11
6443.0
 21
-840.49999999999216
 31
0.0
1001
ACDBBLOCKREPETAG
1070
     1
1071
      169
1005
1290CC
  0
LINE
  5
1290CD
  8
OBJECT
 10
6425.0
 20
-722.99999999999591
 30
0.0
 11
6443.0
 21
-840.49999999999216
 31
0.0
1001
ACDBBLOCKREPETAG
1070
     1
1071
      170
1005
1290CD
  0
LINE
  5
1290CE
  8
OBJECT
 10
6557.0
 20
-840.49999999999216
 30
0.0
 11
6575.0
 21
-722.99999999999204
 31
0.0
1001
ACDBBLOCKREPETAG
1070
     1
1071
      171
1005
1290CE
  0
LINE
  5
1290CF
  8
OBJECT
 10
6434.0
 20
-840.49999999999579
 30
0.0
 11
6434.0
 21
-874.99999999999591
 31
0.0
1001
ACDBBLOCKREPETAG
1070
     1
1071
      172
1005
1290CF
  0
LINE
  5
1290D0
  8
OBJECT
 10
6566.0
 20
-840.49999999999579
 30
0.0
 11
6566.0
 21
-874.99999999999591
 31
0.0
1001
ACDBBLOCKREPETAG
1070
     1
1071
      173
1005
1290D0
  0
LINE
  5
1290D1
  8
OBJECT
 10
6492.0
 20
-913.99999999999966
 30
0.0
 11
6492.0
 21
-923.99999999999943
 31
0.0
1001
ACDBBLOCKREPETAG
1070
     1
1071
      174
1005
1290D1
  0
LINE
  5
1290D2
  8
OBJECT
 10
6508.0
 20
-913.99999999999966
 30
0.0
 11
6508.0
 21
-923.99999999999943
 31
0.0
1001
ACDBBLOCKREPETAG
1070
     1
1071
      175
1005
1290D2
  0
LINE
  5
1290D3
  8
OBJECT
 10
6492.0
 20
-923.99999999999943
 30
0.0
 11
6508.0
 21
-923.99999999999943
 31
0.0
1001
ACDBBLOCKREPETAG
1070
     1
1071
      176
1005
1290D3
  0
LINE
  5
1290D4
  8
OBJECT
 10
6579.5499814951818
 20
-874.99999999999591
 30
0.0
 11
6420.4500185047982
 21
-874.99999999999955
 31
0.0
1001
ACDBBLOCKREPETAG
1070
     1
1071
      177
1005
1290D4
  0
LINE
  5
1290D5
  8
OBJECT
 10
6420.4500185047982
 20
-889.99999999999955
 30
0.0
 11
6579.5499814951818
 21
-889.99999999999955
 31
0.0
1001
ACDBBLOCKREPETAG
1070
     1
1071
      178
1005
1290D5
  0
LINE
  5
1290D6
  8
OBJECT
 10
6495.0
 20
-899.99999999999955
 30
0.0
 11
6495.0
 21
-889.99999999999955
 31
0.0
1001
ACDBBLOCKREPETAG
1070
     1
1071
      179
1005
1290D6
  0
LINE
  5
1290D7
  8
OBJECT
 10
6505.0
 20
-899.99999999999955
 30
0.0
 11
6505.0
 21
-889.99999999999955
 31
0.0
1001
ACDBBLOCKREPETAG
1070
     1
1071
      180
1005
1290D7
  0
LINE
  5
1290D8
  8
OBJECT
 10
6567.4999999999873
 20
-889.99999999999955
 30
0.0
 11
6567.4999999999873
 21
-899.99999999999955
 31
0.0
1001
ACDBBLOCKREPETAG
1070
     1
1071
      181
1005
1290D8
  0
LINE
  5
1290D9
  8
OBJECT
 10
6420.4500185047982
 20
-913.99999999999966
 30
0.0
 11
6579.5499814951818
 21
-913.99999999999591
 31
0.0
1001
ACDBBLOCKREPETAG
1070
     1
1071
      182
1005
1290D9
  0
LINE
  5
1290DA
  8
OBJECT
 10
6420.4500185047982
 20
-899.99999999999955
 30
0.0
 11
6579.5499814951818
 21
-899.99999999999955
 31
0.0
1001
ACDBBLOCKREPETAG
1070
     1
1071
      183
1005
1290DA
  0
LINE
  5
1290DB
  8
OBJECT
 10
6432.4999999999864
 20
-889.99999999999955
 30
0.0
 11
6432.4999999999864
 21
-899.99999999999955
 31
0.0
1001
ACDBBLOCKREPETAG
1070
     1
1071
      184
1005
1290DB
  0
LINE
  5
1290DC
  8
OBJECT
 10
6515.0
 20
-873.20000000000005
 30
0.0
 11
6515.0
 21
-874.99999999999955
 31
0.0
1001
ACDBBLOCKREPETAG
1070
     1
1071
      185
1005
1290DC
  0
LINE
  5
1290DD
  8
OBJECT
 10
6485.0
 20
-873.20000000000005
 30
0.0
 11
6485.0
 21
-874.99999999999955
 31
0.0
1001
ACDBBLOCKREPETAG
1070
     1
1071
      186
1005
1290DD
  0
LINE
  5
1290DE
  8
OBJECT
 10
6494.25
 20
-863.49999999999955
 30
0.0
 11
6505.75
 21
-863.49999999999955
 31
0.0
1001
ACDBBLOCKREPETAG
1070
     1
1071
      187
1005
1290DE
  0
LINE
  5
1290DF
  8
OBJECT
 10
6494.25
 20
-863.49999999999955
 30
0.0
 11
6494.25
 21
-873.20000000000005
 31
0.0
1001
ACDBBLOCKREPETAG
1070
     1
1071
      188
1005
1290DF
  0
LINE
  5
1290E0
  8
OBJECT
 10
6505.75
 20
-863.49999999999955
 30
0.0
 11
6505.75
 21
-873.20000000000005
 31
0.0
1001
ACDBBLOCKREPETAG
1070
     1
1071
      189
1005
1290E0
  0
LINE
  5
1290E1
  8
OBJECT
 10
6431.9999999999873
 20
-954.99999999999966
 30
0.0
 11
6567.9999999999873
 21
-954.99999999999966
 31
0.0
1001
ACDBBLOCKREPETAG
1070
     1
1071
      190
1005
1290E1
  0
LINE
  5
1290E2
  8
OBJECT
 10
6431.9999999999873
 20
-954.99999999999966
 30
0.0
 11
6431.9999999999873
 21
-913.99999999999966
 31
0.0
1001
ACDBBLOCKREPETAG
1070
     1
1071
      191
1005
1290E2
  0
LINE
  5
1290E3
  8
OBJECT
 10
6567.9999999999873
 20
-954.99999999999966
 30
0.0
 11
6567.9999999999873
 21
-913.99999999999966
 31
0.0
1001
ACDBBLOCKREPETAG
1070
     1
1071
      192
1005
1290E3
  0
LINE
  5
1290E4
  8
OBJECT
 10
6515.0
 20
-873.20000000000005
 30
0.0
 11
6485.0
 21
-873.20000000000005
 31
0.0
1001
ACDBBLOCKREPETAG
1070
     1
1071
      193
1005
1290E4
  0
LINE
  5
1290E5
  8
OBJECT
 10
6567.4999999999991
 20
-889.99999999999955
 30
0.0
 11
6567.4999999999991
 21
-899.99999999999955
 31
0.0
1001
ACDBBLOCKREPETAG
1070
     1
1071
      194
1005
1290E5
  0
LINE
  5
1290E6
  8
OBJECT
 10
6579.5499814951818
 20
-889.99999999999955
 30
0.0
 11
6579.5499814951818
 21
-874.99999999999955
 31
0.0
1001
ACDBBLOCKREPETAG
1070
     1
1071
      195
1005
1290E6
  0
LINE
  5
1290E7
  8
OBJECT
 10
6579.5499814951818
 20
-899.99999999999955
 30
0.0
 11
6579.5499814951818
 21
-913.99999999999966
 31
0.0
1001
ACDBBLOCKREPETAG
1070
     1
1071
      196
1005
1290E7
  0
LINE
  5
1290E8
  8
OBJECT
 10
6420.4500185047982
 20
-889.99999999999955
 30
0.0
 11
6420.4500185047982
 21
-874.99999999999955
 31
0.0
1001
ACDBBLOCKREPETAG
1070
     1
1071
      197
1005
1290E8
  0
LINE
  5
1290E9
  8
OBJECT
 10
6420.4500185047982
 20
-899.99999999999955
 30
0.0
 11
6420.4500185047982
 21
-913.99999999999966
 31
0.0
1001
ACDBBLOCKREPETAG
1070
     1
1071
      198
1005
1290E9
  0
LINE
  5
1290EA
  8
OBJECT
 10
6424.45001850481
 20
-913.99999999999966
 30
0.0
 11
6424.45001850481
 21
-923.99999999999943
 31
0.0
1001
ACDBBLOCKREPETAG
1070
     1
1071
      199
1005
1290EA
  0
LINE
  5
1290EB
  8
OBJECT
 10
6431.9999999999873
 20
-923.99999999999943
 30
0.0
 11
6424.45001850481
 21
-923.99999999999943
 31
0.0
1001
ACDBBLOCKREPETAG
1070
     1
1071
      200
1005
1290EB
  0
LINE
  5
1290EC
  8
OBJECT
 10
6427.45001850481
 20
-899.99999999999955
 30
0.0
 11
6427.45001850481
 21
-889.99999999999955
 31
0.0
1001
ACDBBLOCKREPETAG
1070
     1
1071
      201
1005
1290EC
  0
LINE
  5
1290ED
  8
OBJECT
 10
6423.4500185048091
 20
-873.20000000000005
 30
0.0
 11
6423.4500185048091
 21
-874.99999999999955
 31
0.0
1001
ACDBBLOCKREPETAG
1070
     1
1071
      202
1005
1290ED
  0
LINE
  5
1290EE
  8
OBJECT
 10
6426.7000185048091
 20
-863.49999999999955
 30
0.0
 11
6434.0
 21
-863.49999999999955
 31
0.0
1001
ACDBBLOCKREPETAG
1070
     1
1071
      203
1005
1290EE
  0
LINE
  5
1290EF
  8
OBJECT
 10
6426.7000185048091
 20
-863.49999999999955
 30
0.0
 11
6426.7000185048091
 21
-873.20000000000005
 31
0.0
1001
ACDBBLOCKREPETAG
1070
     1
1071
      204
1005
1290EF
  0
LINE
  5
1290F0
  8
OBJECT
 10
6433.9999999999927
 20
-873.20000000000005
 30
0.0
 11
6423.4500185048091
 21
-873.20000000000005
 31
0.0
1001
ACDBBLOCKREPETAG
1070
     1
1071
      205
1005
1290F0
  0
LINE
  5
1290F1
  8
OBJECT
 10
6575.54998149519
 20
-913.99999999999966
 30
0.0
 11
6575.54998149519
 21
-923.99999999999943
 31
0.0
1001
ACDBBLOCKREPETAG
1070
     1
1071
      206
1005
1290F1
  0
LINE
  5
1290F2
  8
OBJECT
 10
6568.0
 20
-923.99999999999943
 30
0.0
 11
6575.54998149519
 21
-923.99999999999943
 31
0.0
1001
ACDBBLOCKREPETAG
1070
     1
1071
      207
1005
1290F2
  0
LINE
  5
1290F3
  8
OBJECT
 10
6572.5499814951918
 20
-899.99999999999955
 30
0.0
 11
6572.5499814951918
 21
-889.99999999999955
 31
0.0
1001
ACDBBLOCKREPETAG
1070
     1
1071
      208
1005
1290F3
  0
LINE
  5
1290F4
  8
OBJECT
 10
6576.54998149519
 20
-873.20000000000005
 30
0.0
 11
6576.54998149519
 21
-874.99999999999955
 31
0.0
1001
ACDBBLOCKREPETAG
1070
     1
1071
      209
1005
1290F4
  0
LINE
  5
1290F5
  8
OBJECT
 10
6573.2999814951909
 20
-863.49999999999955
 30
0.0
 11
6566.0
 21
-863.49999999999955
 31
0.0
1001
ACDBBLOCKREPETAG
1070
     1
1071
      210
1005
1290F5
  0
LINE
  5
1290F6
  8
OBJECT
 10
6573.2999814951909
 20
-863.49999999999955
 30
0.0
 11
6573.2999814951909
 21
-873.20000000000005
 31
0.0
1001
ACDBBLOCKREPETAG
1070
     1
1071
      211
1005
1290F6
  0
LINE
  5
1290F7
  8
OBJECT
 10
6566.0
 20
-873.20000000000005
 30
0.0
 11
6576.54998149519
 21
-873.20000000000005
 31
0.0
1001
ACDBBLOCKREPETAG
1070
     1
1071
      212
1005
1290F7
  0
LINE
  5
1290F8
  8
OBJECT
 10
6066.0
 20
-840.49999999999579
 30
0.0
 11
5934.0
 21
-840.49999999999579
 31
0.0
1001
ACDBBLOCKREPETAG
1070
     1
1071
      117
1005
1290F8
  0
LINE
  5
1290F9
  8
HIDDEN
 10
5943.0
 20
-849.99999999999955
 30
0.0
 11
6057.0
 21
-849.99999999999955
 31
0.0
1001
ACDBBLOCKREPETAG
1070
     1
1071
      118
1005
1290F9
  0
LINE
  5
1290FA
  8
CENTER
 10
6000.0
 20
-669.99999999999955
 30
0.0
 11
6000.0
 21
-969.99999999999966
 31
0.0
1001
ACDBBLOCKREPETAG
1070
     1
1071
      119
1005
1290FA
  0
LINE
  5
1290FB
  8
OBJECT
 10
5925.0
 20
-669.99999999999955
 30
0.0
 11
5925.0
 21
-722.99999999999591
 31
0.0
1001
ACDBBLOCKREPETAG
1070
     1
1071
      120
1005
1290FB
  0
LINE
  5
1290FC
  8
OBJECT
 10
6075.0
 20
-669.99999999999955
 30
0.0
 11
6075.0
 21
-722.99999999999204
 31
0.0
1001
ACDBBLOCKREPETAG
1070
     1
1071
      121
1005
1290FC
  0
LINE
  5
1290FD
  8
OBJECT
 10
5925.0
 20
-722.99999999999591
 30
0.0
 11
6075.0
 21
-722.99999999999204
 31
0.0
1001
ACDBBLOCKREPETAG
1070
     1
1071
      122
1005
1290FD
  0
LINE
  5
1290FE
  8
OBJECT
 10
6057.0
 20
-840.49999999999216
 30
0.0
 11
5943.0
 21
-840.49999999999216
 31
0.0
1001
ACDBBLOCKREPETAG
1070
     1
1071
      123
1005
1290FE
  0
LINE
  5
1290FF
  8
OBJECT
 10
5925.0
 20
-722.99999999999591
 30
0.0
 11
5943.0
 21
-840.49999999999216
 31
0.0
1001
ACDBBLOCKREPETAG
1070
     1
1071
      124
1005
1290FF
  0
LINE
  5
129100
  8
OBJECT
 10
6057.0
 20
-840.49999999999216
 30
0.0
 11
6075.0
 21
-722.99999999999204
 31
0.0
1001
ACDBBLOCKREPETAG
1070
     1
1071
      125
1005
129100
  0
LINE
  5
129101
  8
OBJECT
 10
5934.0
 20
-840.49999999999579
 30
0.0
 11
5934.0
 21
-874.99999999999591
 31
0.0
1001
ACDBBLOCKREPETAG
1070
     1
1071
      126
1005
129101
  0
LINE
  5
129102
  8
OBJECT
 10
6066.0
 20
-840.49999999999579
 30
0.0
 11
6066.0
 21
-874.99999999999591
 31
0.0
1001
ACDBBLOCKREPETAG
1070
     1
1071
      127
1005
129102
  0
LINE
  5
129103
  8
OBJECT
 10
6085.9999999999927
 20
-913.99999999999966
 30
0.0
 11
6085.9999999999927
 21
-923.99999999999943
 31
0.0
1001
ACDBBLOCKREPETAG
1070
     1
1071
      128
1005
129103
  0
LINE
  5
129104
  8
OBJECT
 10
6069.9999999999927
 20
-913.99999999999966
 30
0.0
 11
6069.9999999999927
 21
-923.99999999999943
 31
0.0
1001
ACDBBLOCKREPETAG
1070
     1
1071
      129
1005
129104
  0
LINE
  5
129105
  8
OBJECT
 10
6085.9999999999927
 20
-923.99999999999943
 30
0.0
 11
6069.9999999999927
 21
-923.99999999999943
 31
0.0
1001
ACDBBLOCKREPETAG
1070
     1
1071
      130
1005
129105
  0
LINE
  5
129106
  8
OBJECT
 10
6090.0
 20
-874.99999999999591
 30
0.0
 11
5924.0
 21
-874.99999999999591
 31
0.0
1001
ACDBBLOCKREPETAG
1070
     1
1071
      131
1005
129106
  0
LINE
  5
129107
  8
OBJECT
 10
6090.0
 20
-889.99999999999955
 30
0.0
 11
6090.0
 21
-874.99999999999591
 31
0.0
1001
ACDBBLOCKREPETAG
1070
     1
1071
      132
1005
129107
  0
LINE
  5
129108
  8
OBJECT
 10
5924.0
 20
-889.99999999999955
 30
0.0
 11
6090.0
 21
-889.99999999999955
 31
0.0
1001
ACDBBLOCKREPETAG
1070
     1
1071
      133
1005
129108
  0
LINE
  5
129109
  8
OBJECT
 10
6067.4999999999864
 20
-889.99999999999955
 30
0.0
 11
6067.4999999999864
 21
-899.99999999999955
 31
0.0
1001
ACDBBLOCKREPETAG
1070
     1
1071
      134
1005
129109
  0
LINE
  5
12910A
  8
OBJECT
 10
6072.9999999999927
 20
-899.99999999999955
 30
0.0
 11
6072.9999999999927
 21
-889.99999999999955
 31
0.0
1001
ACDBBLOCKREPETAG
1070
     1
1071
      135
1005
12910A
  0
LINE
  5
12910B
  8
OBJECT
 10
6082.9999999999927
 20
-899.99999999999955
 30
0.0
 11
6082.9999999999927
 21
-889.99999999999955
 31
0.0
1001
ACDBBLOCKREPETAG
1070
     1
1071
      136
1005
12910B
  0
LINE
  5
12910C
  8
OBJECT
 10
5924.0
 20
-899.99999999999955
 30
0.0
 11
5924.0
 21
-913.99999999999591
 31
0.0
1001
ACDBBLOCKREPETAG
1070
     1
1071
      137
1005
12910C
  0
LINE
  5
12910D
  8
OBJECT
 10
6090.0
 20
-899.99999999999955
 30
0.0
 11
6090.0
 21
-913.99999999999591
 31
0.0
1001
ACDBBLOCKREPETAG
1070
     1
1071
      138
1005
12910D
  0
LINE
  5
12910E
  8
OBJECT
 10
5924.0
 20
-913.99999999999591
 30
0.0
 11
6090.0
 21
-913.99999999999591
 31
0.0
1001
ACDBBLOCKREPETAG
1070
     1
1071
      139
1005
12910E
  0
LINE
  5
12910F
  8
OBJECT
 10
5924.0
 20
-899.99999999999955
 30
0.0
 11
6090.0
 21
-899.99999999999955
 31
0.0
1001
ACDBBLOCKREPETAG
1070
     1
1071
      140
1005
12910F
  0
LINE
  5
129110
  8
OBJECT
 10
5932.4999999999864
 20
-889.99999999999955
 30
0.0
 11
5932.4999999999864
 21
-899.99999999999955
 31
0.0
1001
ACDBBLOCKREPETAG
1070
     1
1071
      141
1005
129110
  0
LINE
  5
129111
  8
OBJECT
 10
5924.0
 20
-889.99999999999955
 30
0.0
 11
5924.0
 21
-874.99999999999591
 31
0.0
1001
ACDBBLOCKREPETAG
1070
     1
1071
      142
1005
129111
  0
LINE
  5
129112
  8
OBJECT
 10
6086.9999999999918
 20
-873.20000000000005
 30
0.0
 11
6086.9999999999918
 21
-874.99999999999955
 31
0.0
1001
ACDBBLOCKREPETAG
1070
     1
1071
      143
1005
129112
  0
LINE
  5
129113
  8
OBJECT
 10
6068.9999999999909
 20
-873.20000000000005
 30
0.0
 11
6068.9999999999909
 21
-874.99999999999955
 31
0.0
1001
ACDBBLOCKREPETAG
1070
     1
1071
      144
1005
129113
  0
LINE
  5
129114
  8
OBJECT
 10
6072.2499999999927
 20
-863.49999999999955
 30
0.0
 11
6083.7499999999927
 21
-863.49999999999955
 31
0.0
1001
ACDBBLOCKREPETAG
1070
     1
1071
      145
1005
129114
  0
LINE
  5
129115
  8
OBJECT
 10
6072.2499999999927
 20
-863.49999999999955
 30
0.0
 11
6072.2499999999927
 21
-873.20000000000005
 31
0.0
1001
ACDBBLOCKREPETAG
1070
     1
1071
      146
1005
129115
  0
LINE
  5
129116
  8
OBJECT
 10
6083.7499999999927
 20
-863.49999999999955
 30
0.0
 11
6083.7499999999927
 21
-873.20000000000005
 31
0.0
1001
ACDBBLOCKREPETAG
1070
     1
1071
      147
1005
129116
  0
LINE
  5
129117
  8
OBJECT
 10
5931.9999999999873
 20
-954.99999999999966
 30
0.0
 11
6067.9999999999873
 21
-954.99999999999966
 31
0.0
1001
ACDBBLOCKREPETAG
1070
     1
1071
      148
1005
129117
  0
LINE
  5
129118
  8
OBJECT
 10
5931.9999999999873
 20
-954.99999999999966
 30
0.0
 11
5931.9999999999873
 21
-913.99999999999966
 31
0.0
1001
ACDBBLOCKREPETAG
1070
     1
1071
      149
1005
129118
  0
LINE
  5
129119
  8
OBJECT
 10
6067.9999999999873
 20
-954.99999999999966
 30
0.0
 11
6067.9999999999873
 21
-913.99999999999966
 31
0.0
1001
ACDBBLOCKREPETAG
1070
     1
1071
      150
1005
129119
  0
LINE
  5
12911A
  8
OBJECT
 10
6086.9999999999918
 20
-873.20000000000005
 30
0.0
 11
6068.9999999999909
 21
-873.20000000000005
 31
0.0
1001
ACDBBLOCKREPETAG
1070
     1
1071
      151
1005
12911A
  0
LINE
  5
12911B
  8
OBJECT
 10
5954.75
 20
-864.699999999993
 30
0.0
 11
5967.2499999999991
 21
-864.699999999993
 31
0.0
1001
ACDBBLOCKREPETAG
1070
     1
1071
      152
1005
12911B
  0
LINE
  5
12911C
  8
OBJECT
 10
5946.0
 20
-874.99999999999591
 30
0.0
 11
5946.0
 21
-872.69999999999663
 31
0.0
1001
ACDBBLOCKREPETAG
1070
     1
1071
      153
1005
12911C
  0
LINE
  5
12911D
  8
OBJECT
 10
5976.0
 20
-874.99999999999591
 30
0.0
 11
5976.0
 21
-872.69999999999663
 31
0.0
1001
ACDBBLOCKREPETAG
1070
     1
1071
      154
1005
12911D
  0
LINE
  5
12911E
  8
OBJECT
 10
5954.75
 20
-864.699999999993
 30
0.0
 11
5954.75
 21
-872.69999999999663
 31
0.0
1001
ACDBBLOCKREPETAG
1070
     1
1071
      155
1005
12911E
  0
LINE
  5
12911F
  8
OBJECT
 10
5967.2499999999991
 20
-864.699999999993
 30
0.0
 11
5967.2499999999991
 21
-872.69999999999663
 31
0.0
1001
ACDBBLOCKREPETAG
1070
     1
1071
      156
1005
12911F
  0
LINE
  5
129120
  8
OBJECT
 10
5946.0
 20
-872.69999999999663
 30
0.0
 11
5976.0
 21
-872.69999999999663
 31
0.0
1001
ACDBBLOCKREPETAG
1070
     1
1071
      157
1005
129120
  0
LINE
  5
129121
  8
OBJECT
 10
5953.0
 20
-913.99999999999591
 30
0.0
 11
5953.0
 21
-923.99999999999613
 31
0.0
1001
ACDBBLOCKREPETAG
1070
     1
1071
      158
1005
129121
  0
LINE
  5
129122
  8
OBJECT
 10
5969.0
 20
-913.99999999999591
 30
0.0
 11
5969.0
 21
-923.99999999999613
 31
0.0
1001
ACDBBLOCKREPETAG
1070
     1
1071
      159
1005
129122
  0
LINE
  5
129123
  8
OBJECT
 10
5953.0
 20
-923.99999999999613
 30
0.0
 11
5969.0
 21
-923.99999999999613
 31
0.0
1001
ACDBBLOCKREPETAG
1070
     1
1071
      160
1005
129123
  0
LINE
  5
129124
  8
OBJECT
 10
5966.0
 20
-899.99999999999591
 30
0.0
 11
5966.0
 21
-889.99999999999591
 31
0.0
1001
ACDBBLOCKREPETAG
1070
     1
1071
      161
1005
129124
  0
LINE
  5
129125
  8
OBJECT
 10
5956.0
 20
-899.99999999999591
 30
0.0
 11
5956.0
 21
-889.99999999999591
 31
0.0
1001
ACDBBLOCKREPETAG
1070
     1
1071
      162
1005
129125
  0
LINE
  5
129126
  8
OBJECT
 10
4579.5499814951818
 20
-874.99999999999591
 30
0.0
 11
4420.4500185047982
 21
-874.99999999999591
 31
0.0
1001
ACDBBLOCKREPETAG
1070
     1
1071
       60
1005
129126
  0
LINE
  5
129127
  8
OBJECT
 10
4566.0
 20
-840.49999999999579
 30
0.0
 11
4434.0
 21
-840.49999999999579
 31
0.0
1001
ACDBBLOCKREPETAG
1070
     1
1071
       61
1005
129127
  0
LINE
  5
129128
  8
OBJECT
 10
4579.5499814951818
 20
-889.99999999999955
 30
0.0
 11
4579.5499814951818
 21
-874.99999999999591
 31
0.0
1001
ACDBBLOCKREPETAG
1070
     1
1071
       62
1005
129128
  0
LINE
  5
129129
  8
OBJECT
 10
4420.4500185047982
 20
-889.99999999999955
 30
0.0
 11
4579.5499814951818
 21
-889.99999999999955
 31
0.0
1001
ACDBBLOCKREPETAG
1070
     1
1071
       63
1005
129129
  0
LINE
  5
12912A
  8
OBJECT
 10
4567.4999999999864
 20
-889.99999999999955
 30
0.0
 11
4567.4999999999864
 21
-899.99999999999955
 31
0.0
1001
ACDBBLOCKREPETAG
1070
     1
1071
       64
1005
12912A
  0
LINE
  5
12912B
  8
OBJECT
 10
4579.5499814951818
 20
-899.99999999999955
 30
0.0
 11
4579.5499814951818
 21
-913.99999999999591
 31
0.0
1001
ACDBBLOCKREPETAG
1070
     1
1071
       65
1005
12912B
  0
LINE
  5
12912C
  8
OBJECT
 10
4420.4500185048046
 20
-913.99999999999591
 30
0.0
 11
4579.5499814951818
 21
-913.99999999999591
 31
0.0
1001
ACDBBLOCKREPETAG
1070
     1
1071
       66
1005
12912C
  0
LINE
  5
12912D
  8
OBJECT
 10
4420.4500185048046
 20
-899.99999999999955
 30
0.0
 11
4579.5499814951818
 21
-899.99999999999955
 31
0.0
1001
ACDBBLOCKREPETAG
1070
     1
1071
       67
1005
12912D
  0
LINE
  5
12912E
  8
HIDDEN
 10
4443.0
 20
-849.99999999999955
 30
0.0
 11
4557.0
 21
-849.99999999999955
 31
0.0
1001
ACDBBLOCKREPETAG
1070
     1
1071
       68
1005
12912E
  0
LINE
  5
12912F
  8
CENTER
 10
4500.0
 20
-669.99999999999955
 30
0.0
 11
4500.0
 21
-939.99999999999613
 31
0.0
1001
ACDBBLOCKREPETAG
1070
     1
1071
       69
1005
12912F
  0
LINE
  5
129130
  8
OBJECT
 10
4425.0
 20
-669.99999999999955
 30
0.0
 11
4425.0
 21
-722.99999999999591
 31
0.0
1001
ACDBBLOCKREPETAG
1070
     1
1071
       70
1005
129130
  0
LINE
  5
129131
  8
OBJECT
 10
4575.0
 20
-669.99999999999955
 30
0.0
 11
4575.0
 21
-722.99999999999204
 31
0.0
1001
ACDBBLOCKREPETAG
1070
     1
1071
       71
1005
129131
  0
LINE
  5
129132
  8
OBJECT
 10
4425.0
 20
-722.99999999999591
 30
0.0
 11
4575.0
 21
-722.99999999999204
 31
0.0
1001
ACDBBLOCKREPETAG
1070
     1
1071
       72
1005
129132
  0
LINE
  5
129133
  8
OBJECT
 10
4557.0
 20
-840.49999999999216
 30
0.0
 11
4443.0
 21
-840.49999999999216
 31
0.0
1001
ACDBBLOCKREPETAG
1070
     1
1071
       73
1005
129133
  0
LINE
  5
129134
  8
OBJECT
 10
4425.0
 20
-722.99999999999591
 30
0.0
 11
4443.0
 21
-840.49999999999216
 31
0.0
1001
ACDBBLOCKREPETAG
1070
     1
1071
       74
1005
129134
  0
LINE
  5
129135
  8
OBJECT
 10
4557.0
 20
-840.49999999999216
 30
0.0
 11
4575.0
 21
-722.99999999999204
 31
0.0
1001
ACDBBLOCKREPETAG
1070
     1
1071
       75
1005
129135
  0
LINE
  5
129136
  8
OBJECT
 10
4434.0
 20
-840.49999999999579
 30
0.0
 11
4434.0
 21
-874.99999999999591
 31
0.0
1001
ACDBBLOCKREPETAG
1070
     1
1071
       76
1005
129136
  0
LINE
  5
129137
  8
OBJECT
 10
4566.0
 20
-840.49999999999579
 30
0.0
 11
4566.0
 21
-874.99999999999591
 31
0.0
1001
ACDBBLOCKREPETAG
1070
     1
1071
       77
1005
129137
  0
LINE
  5
129138
  8
OBJECT
 10
4420.4500185047982
 20
-889.99999999999955
 30
0.0
 11
4420.4500185047982
 21
-874.99999999999591
 31
0.0
1001
ACDBBLOCKREPETAG
1070
     1
1071
       78
1005
129138
  0
LINE
  5
129139
  8
OBJECT
 10
4432.5
 20
-889.99999999999955
 30
0.0
 11
4432.5
 21
-899.99999999999955
 31
0.0
1001
ACDBBLOCKREPETAG
1070
     1
1071
       79
1005
129139
  0
LINE
  5
12913A
  8
OBJECT
 10
4420.4500185047982
 20
-899.99999999999955
 30
0.0
 11
4420.4500185047982
 21
-913.99999999999591
 31
0.0
1001
ACDBBLOCKREPETAG
1070
     1
1071
       80
1005
12913A
  0
LINE
  5
12913B
  8
OBJECT
 10
4507.5
 20
-869.99999999999579
 30
0.0
 11
4490.9999999999909
 21
-869.99999999999579
 31
0.0
1001
ACDBBLOCKREPETAG
1070
     1
1071
       81
1005
12913B
  0
LINE
  5
12913C
  8
OBJECT
 10
4515.0
 20
-874.99999999999591
 30
0.0
 11
4515.0
 21
-872.99999999999591
 31
0.0
1001
ACDBBLOCKREPETAG
1070
     1
1071
       82
1005
12913C
  0
LINE
  5
12913D
  8
OBJECT
 10
4505.0
 20
-899.99999999999591
 30
0.0
 11
4505.0
 21
-889.99999999999591
 31
0.0
1001
ACDBBLOCKREPETAG
1070
     1
1071
       83
1005
12913D
  0
LINE
  5
12913E
  8
OBJECT
 10
4495.0
 20
-899.99999999999591
 30
0.0
 11
4495.0
 21
-889.99999999999591
 31
0.0
1001
ACDBBLOCKREPETAG
1070
     1
1071
       84
1005
12913E
  0
LINE
  5
12913F
  8
OBJECT
 10
4490.9999999999909
 20
-869.99999999999579
 30
0.0
 11
4490.9999999999909
 21
-874.99999999999591
 31
0.0
1001
ACDBBLOCKREPETAG
1070
     1
1071
       85
1005
12913F
  0
LINE
  5
129140
  8
OBJECT
 10
4495.0
 20
-921.99999999999591
 30
0.0
 11
4495.0
 21
-924.99999999999602
 31
0.0
1001
ACDBBLOCKREPETAG
1070
     1
1071
       86
1005
129140
  0
LINE
  5
129141
  8
OBJECT
 10
4495.0
 20
-924.99999999999602
 30
0.0
 11
4505.0
 21
-924.99999999999602
 31
0.0
1001
ACDBBLOCKREPETAG
1070
     1
1071
       87
1005
129141
  0
LINE
  5
129142
  8
OBJECT
 10
4505.0
 20
-924.99999999999602
 30
0.0
 11
4505.0
 21
-921.99999999999591
 31
0.0
1001
ACDBBLOCKREPETAG
1070
     1
1071
       89
1005
129142
  0
LINE
  5
129143
  8
OBJECT
 10
4515.0
 20
-872.99999999999591
 30
0.0
 11
4507.5
 21
-869.99999999999579
 31
0.0
1001
ACDBBLOCKREPETAG
1070
     1
1071
       90
1005
129143
  0
LINE
  5
129144
  8
OBJECT
 10
4427.4500185048091
 20
-899.99999999999591
 30
0.0
 11
4427.4500185048091
 21
-889.99999999999591
 31
0.0
1001
ACDBBLOCKREPETAG
1070
     1
1071
       95
1005
129144
  0
LINE
  5
129145
  8
OBJECT
 10
4423.4500185048018
 20
-869.99999999999579
 30
0.0
 11
4423.4500185048018
 21
-874.99999999999591
 31
0.0
1001
ACDBBLOCKREPETAG
1070
     1
1071
       96
1005
129145
  0
LINE
  5
129146
  8
OBJECT
 10
4434.0
 20
-869.99999999999579
 30
0.0
 11
4423.4500185048018
 21
-869.99999999999579
 31
0.0
1001
ACDBBLOCKREPETAG
1070
     1
1071
       97
1005
129146
  0
LINE
  5
129147
  8
OBJECT
 10
4427.4500185048091
 20
-921.99999999999591
 30
0.0
 11
4427.4500185048091
 21
-924.99999999999602
 31
0.0
1001
ACDBBLOCKREPETAG
1070
     1
1071
       98
1005
129147
  0
LINE
  5
129148
  8
OBJECT
 10
4427.4500185048091
 20
-924.99999999999602
 30
0.0
 11
4437.4500185048091
 21
-924.99999999999602
 31
0.0
1001
ACDBBLOCKREPETAG
1070
     1
1071
       99
1005
129148
  0
LINE
  5
129149
  8
OBJECT
 10
4437.4500185048091
 20
-924.99999999999602
 30
0.0
 11
4437.4500185048091
 21
-921.99999999999591
 31
0.0
1001
ACDBBLOCKREPETAG
1070
     1
1071
      101
1005
129149
  0
LINE
  5
12914A
  8
OBJECT
 10
4572.5499814951909
 20
-899.99999999999591
 30
0.0
 11
4572.5499814951909
 21
-889.99999999999591
 31
0.0
1001
ACDBBLOCKREPETAG
1070
     1
1071
      106
1005
12914A
  0
LINE
  5
12914B
  8
OBJECT
 10
4576.5499814951891
 20
-869.99999999999579
 30
0.0
 11
4576.5499814951891
 21
-874.99999999999591
 31
0.0
1001
ACDBBLOCKREPETAG
1070
     1
1071
      107
1005
12914B
  0
LINE
  5
12914C
  8
OBJECT
 10
4566.0
 20
-869.99999999999579
 30
0.0
 11
4576.5499814951891
 21
-869.99999999999579
 31
0.0
1001
ACDBBLOCKREPETAG
1070
     1
1071
      108
1005
12914C
  0
LINE
  5
12914D
  8
OBJECT
 10
4572.5499814951836
 20
-921.99999999999591
 30
0.0
 11
4572.5499814951836
 21
-924.99999999999602
 31
0.0
1001
ACDBBLOCKREPETAG
1070
     1
1071
      109
1005
12914D
  0
LINE
  5
12914E
  8
OBJECT
 10
4572.5499814951836
 20
-924.99999999999602
 30
0.0
 11
4562.5499814951827
 21
-924.99999999999602
 31
0.0
1001
ACDBBLOCKREPETAG
1070
     1
1071
      110
1005
12914E
  0
LINE
  5
12914F
  8
OBJECT
 10
4562.5499814951827
 20
-924.99999999999602
 30
0.0
 11
4562.5499814951827
 21
-921.99999999999591
 31
0.0
1001
ACDBBLOCKREPETAG
1070
     1
1071
      112
1005
12914F
  0
LINE
  5
129150
  8
OBJECT
 10
4422.6350639285811
 20
-921.99999999999591
 30
0.0
 11
4442.264973081029
 21
-921.99999999999591
 31
0.0
1001
ACDBBLOCKREPETAG
1070
     1
1071
      459
1005
129150
  0
LINE
  5
129151
  8
OBJECT
 10
4422.6350639285847
 20
-913.99999999999591
 30
0.0
 11
4422.6350639285847
 21
-921.99999999999591
 31
0.0
1001
ACDBBLOCKREPETAG
1070
     1
1071
      460
1005
129151
  0
LINE
  5
129152
  8
OBJECT
 10
4427.5425412166969
 20
-913.99999999999591
 30
0.0
 11
4427.5425412166969
 21
-921.99999999999591
 31
0.0
1001
ACDBBLOCKREPETAG
1070
     1
1071
      461
1005
129152
  0
LINE
  5
129153
  8
OBJECT
 10
4437.3574957929213
 20
-913.99999999999591
 30
0.0
 11
4437.3574957929213
 21
-921.99999999999591
 31
0.0
1001
ACDBBLOCKREPETAG
1070
     1
1071
      462
1005
129153
  0
LINE
  5
129154
  8
OBJECT
 10
4442.2649730810326
 20
-913.99999999999591
 30
0.0
 11
4442.2649730810326
 21
-921.99999999999591
 31
0.0
1001
ACDBBLOCKREPETAG
1070
     1
1071
      463
1005
129154
  0
LINE
  5
129155
  8
OBJECT
 10
4490.1850454237692
 20
-921.99999999999591
 30
0.0
 11
4509.8149545762208
 21
-921.99999999999591
 31
0.0
1001
ACDBBLOCKREPETAG
1070
     1
1071
      464
1005
129155
  0
LINE
  5
129156
  8
OBJECT
 10
4490.1850454237774
 20
-913.99999999999591
 30
0.0
 11
4490.1850454237774
 21
-921.99999999999591
 31
0.0
1001
ACDBBLOCKREPETAG
1070
     1
1071
      465
1005
129156
  0
LINE
  5
129157
  8
OBJECT
 10
4495.0925227118878
 20
-913.99999999999591
 30
0.0
 11
4495.0925227118878
 21
-921.99999999999591
 31
0.0
1001
ACDBBLOCKREPETAG
1070
     1
1071
      466
1005
129157
  0
LINE
  5
129158
  8
OBJECT
 10
4504.9074772881122
 20
-913.99999999999591
 30
0.0
 11
4504.9074772881122
 21
-921.99999999999591
 31
0.0
1001
ACDBBLOCKREPETAG
1070
     1
1071
      467
1005
129158
  0
LINE
  5
129159
  8
OBJECT
 10
4509.8149545762226
 20
-913.99999999999591
 30
0.0
 11
4509.8149545762226
 21
-921.99999999999591
 31
0.0
1001
ACDBBLOCKREPETAG
1070
     1
1071
      468
1005
129159
  0
LINE
  5
12915A
  8
OBJECT
 10
4557.7350269189556
 20
-921.99999999999591
 30
0.0
 11
4577.3649360714053
 21
-921.99999999999591
 31
0.0
1001
ACDBBLOCKREPETAG
1070
     1
1071
      469
1005
12915A
  0
LINE
  5
12915B
  8
OBJECT
 10
4557.7350269189601
 20
-913.99999999999591
 30
0.0
 11
4557.7350269189601
 21
-921.99999999999591
 31
0.0
1001
ACDBBLOCKREPETAG
1070
     1
1071
      470
1005
12915B
  0
LINE
  5
12915C
  8
OBJECT
 10
4562.6425042070714
 20
-913.99999999999591
 30
0.0
 11
4562.6425042070714
 21
-921.99999999999591
 31
0.0
1001
ACDBBLOCKREPETAG
1070
     1
1071
      471
1005
12915C
  0
LINE
  5
12915D
  8
OBJECT
 10
4572.4574587832958
 20
-913.99999999999591
 30
0.0
 11
4572.4574587832958
 21
-921.99999999999591
 31
0.0
1001
ACDBBLOCKREPETAG
1070
     1
1071
      472
1005
12915D
  0
LINE
  5
12915E
  8
OBJECT
 10
4577.3649360714071
 20
-913.99999999999591
 30
0.0
 11
4577.3649360714071
 21
-921.99999999999591
 31
0.0
1001
ACDBBLOCKREPETAG
1070
     1
1071
      473
1005
12915E
  0
LINE
  5
12915F
  8
OBJECT
 10
4090.0
 20
-874.99999999999591
 30
0.0
 11
3924.0
 21
-874.99999999999591
 31
0.0
1001
ACDBBLOCKREPETAG
1070
     1
1071
       12
1005
12915F
  0
LINE
  5
129160
  8
OBJECT
 10
4066.0
 20
-840.49999999999579
 30
0.0
 11
3934.0
 21
-840.49999999999579
 31
0.0
1001
ACDBBLOCKREPETAG
1070
     1
1071
       13
1005
129160
  0
LINE
  5
129161
  8
OBJECT
 10
4090.0
 20
-889.99999999999955
 30
0.0
 11
4090.0
 21
-874.99999999999591
 31
0.0
1001
ACDBBLOCKREPETAG
1070
     1
1071
       14
1005
129161
  0
LINE
  5
129162
  8
OBJECT
 10
3924.0
 20
-889.99999999999955
 30
0.0
 11
4090.0
 21
-889.99999999999955
 31
0.0
1001
ACDBBLOCKREPETAG
1070
     1
1071
       15
1005
129162
  0
LINE
  5
129163
  8
OBJECT
 10
4067.4999999999832
 20
-889.99999999999955
 30
0.0
 11
4067.4999999999832
 21
-899.99999999999955
 31
0.0
1001
ACDBBLOCKREPETAG
1070
     1
1071
       16
1005
129163
  0
LINE
  5
129164
  8
OBJECT
 10
3924.0
 20
-899.99999999999955
 30
0.0
 11
3924.0
 21
-913.99999999999591
 31
0.0
1001
ACDBBLOCKREPETAG
1070
     1
1071
       17
1005
129164
  0
LINE
  5
129165
  8
OBJECT
 10
4090.0
 20
-899.99999999999955
 30
0.0
 11
4090.0
 21
-913.99999999999591
 31
0.0
1001
ACDBBLOCKREPETAG
1070
     1
1071
       18
1005
129165
  0
LINE
  5
129166
  8
OBJECT
 10
3924.0
 20
-913.99999999999591
 30
0.0
 11
4090.0
 21
-913.99999999999591
 31
0.0
1001
ACDBBLOCKREPETAG
1070
     1
1071
       19
1005
129166
  0
LINE
  5
129167
  8
OBJECT
 10
3924.0
 20
-899.99999999999955
 30
0.0
 11
4090.0
 21
-899.99999999999955
 31
0.0
1001
ACDBBLOCKREPETAG
1070
     1
1071
       20
1005
129167
  0
LINE
  5
129168
  8
OBJECT
 10
3932.499999999985
 20
-889.99999999999955
 30
0.0
 11
3932.499999999985
 21
-899.99999999999955
 31
0.0
1001
ACDBBLOCKREPETAG
1070
     1
1071
       21
1005
129168
  0
LINE
  5
129169
  8
OBJECT
 10
3924.0
 20
-889.99999999999955
 30
0.0
 11
3924.0
 21
-874.99999999999591
 31
0.0
1001
ACDBBLOCKREPETAG
1070
     1
1071
       22
1005
129169
  0
LINE
  5
12916A
  8
HIDDEN
 10
3943.0
 20
-849.99999999999955
 30
0.0
 11
4057.0
 21
-849.99999999999955
 31
0.0
1001
ACDBBLOCKREPETAG
1070
     1
1071
       23
1005
12916A
  0
LINE
  5
12916B
  8
CENTER
 10
4000.0
 20
-669.99999999999955
 30
0.0
 11
4000.0
 21
-928.99999999999602
 31
0.0
1001
ACDBBLOCKREPETAG
1070
     1
1071
       24
1005
12916B
  0
LINE
  5
12916C
  8
OBJECT
 10
3925.0
 20
-669.99999999999955
 30
0.0
 11
3925.0
 21
-722.99999999999591
 31
0.0
1001
ACDBBLOCKREPETAG
1070
     1
1071
       25
1005
12916C
  0
LINE
  5
12916D
  8
OBJECT
 10
4075.0
 20
-669.99999999999955
 30
0.0
 11
4075.0
 21
-722.99999999999204
 31
0.0
1001
ACDBBLOCKREPETAG
1070
     1
1071
       26
1005
12916D
  0
LINE
  5
12916E
  8
OBJECT
 10
3925.0
 20
-722.99999999999591
 30
0.0
 11
4075.0
 21
-722.99999999999204
 31
0.0
1001
ACDBBLOCKREPETAG
1070
     1
1071
       27
1005
12916E
  0
LINE
  5
12916F
  8
OBJECT
 10
4057.0
 20
-840.49999999999216
 30
0.0
 11
3943.0
 21
-840.49999999999216
 31
0.0
1001
ACDBBLOCKREPETAG
1070
     1
1071
       28
1005
12916F
  0
LINE
  5
129170
  8
OBJECT
 10
3925.0
 20
-722.99999999999591
 30
0.0
 11
3943.0
 21
-840.49999999999216
 31
0.0
1001
ACDBBLOCKREPETAG
1070
     1
1071
       29
1005
129170
  0
LINE
  5
129171
  8
OBJECT
 10
4057.0
 20
-840.49999999999216
 30
0.0
 11
4075.0
 21
-722.99999999999204
 31
0.0
1001
ACDBBLOCKREPETAG
1070
     1
1071
       30
1005
129171
  0
LINE
  5
129172
  8
OBJECT
 10
3934.0
 20
-840.49999999999579
 30
0.0
 11
3934.0
 21
-874.99999999999591
 31
0.0
1001
ACDBBLOCKREPETAG
1070
     1
1071
       31
1005
129172
  0
LINE
  5
129173
  8
OBJECT
 10
4066.0
 20
-840.49999999999579
 30
0.0
 11
4066.0
 21
-874.99999999999591
 31
0.0
1001
ACDBBLOCKREPETAG
1070
     1
1071
       32
1005
129173
  0
LINE
  5
129174
  8
OBJECT
 10
4082.9999999999932
 20
-899.99999999999591
 30
0.0
 11
4082.9999999999932
 21
-889.99999999999591
 31
0.0
1001
ACDBBLOCKREPETAG
1070
     1
1071
       33
1005
129174
  0
LINE
  5
129175
  8
OBJECT
 10
4072.9999999999918
 20
-899.99999999999591
 30
0.0
 11
4072.9999999999918
 21
-889.99999999999591
 31
0.0
1001
ACDBBLOCKREPETAG
1070
     1
1071
       34
1005
129175
  0
LINE
  5
129176
  8
OBJECT
 10
4068.9999999999832
 20
-869.99999999999579
 30
0.0
 11
4068.9999999999832
 21
-874.99999999999591
 31
0.0
1001
ACDBBLOCKREPETAG
1070
     1
1071
       35
1005
129176
  0
LINE
  5
129177
  8
OBJECT
 10
4087.0
 20
-869.99999999999579
 30
0.0
 11
4087.0
 21
-874.99999999999591
 31
0.0
1001
ACDBBLOCKREPETAG
1070
     1
1071
       36
1005
129177
  0
LINE
  5
129178
  8
OBJECT
 10
4087.0
 20
-869.99999999999579
 30
0.0
 11
4068.9999999999832
 21
-869.99999999999579
 31
0.0
1001
ACDBBLOCKREPETAG
1070
     1
1071
       37
1005
129178
  0
LINE
  5
129179
  8
OBJECT
 10
4073.0
 20
-921.99999999999591
 30
0.0
 11
4073.0
 21
-924.99999999999602
 31
0.0
1001
ACDBBLOCKREPETAG
1070
     1
1071
       38
1005
129179
  0
LINE
  5
12917A
  8
OBJECT
 10
4073.0
 20
-924.99999999999602
 30
0.0
 11
4083.0
 21
-924.99999999999602
 31
0.0
1001
ACDBBLOCKREPETAG
1070
     1
1071
       39
1005
12917A
  0
LINE
  5
12917B
  8
OBJECT
 10
4083.0
 20
-924.99999999999602
 30
0.0
 11
4083.0
 21
-921.99999999999591
 31
0.0
1001
ACDBBLOCKREPETAG
1070
     1
1071
       41
1005
12917B
  0
LINE
  5
12917C
  8
OBJECT
 10
3968.5
 20
-869.99999999999579
 30
0.0
 11
3951.9999999999932
 21
-869.99999999999579
 31
0.0
1001
ACDBBLOCKREPETAG
1070
     1
1071
       46
1005
12917C
  0
LINE
  5
12917D
  8
OBJECT
 10
3976.0
 20
-874.99999999999591
 30
0.0
 11
3976.0
 21
-872.99999999999591
 31
0.0
1001
ACDBBLOCKREPETAG
1070
     1
1071
       47
1005
12917D
  0
LINE
  5
12917E
  8
OBJECT
 10
3966.0
 20
-899.99999999999591
 30
0.0
 11
3966.0
 21
-889.99999999999591
 31
0.0
1001
ACDBBLOCKREPETAG
1070
     1
1071
       48
1005
12917E
  0
LINE
  5
12917F
  8
OBJECT
 10
3956.0
 20
-899.99999999999591
 30
0.0
 11
3956.0
 21
-889.99999999999591
 31
0.0
1001
ACDBBLOCKREPETAG
1070
     1
1071
       49
1005
12917F
  0
LINE
  5
129180
  8
OBJECT
 10
3951.9999999999932
 20
-869.99999999999579
 30
0.0
 11
3951.9999999999932
 21
-874.99999999999591
 31
0.0
1001
ACDBBLOCKREPETAG
1070
     1
1071
       50
1005
129180
  0
LINE
  5
129181
  8
OBJECT
 10
3956.0
 20
-921.99999999999591
 30
0.0
 11
3956.0
 21
-924.99999999999602
 31
0.0
1001
ACDBBLOCKREPETAG
1070
     1
1071
       51
1005
129181
  0
LINE
  5
129182
  8
OBJECT
 10
3956.0
 20
-924.99999999999602
 30
0.0
 11
3966.0
 21
-924.99999999999602
 31
0.0
1001
ACDBBLOCKREPETAG
1070
     1
1071
       52
1005
129182
  0
LINE
  5
129183
  8
OBJECT
 10
3966.0
 20
-924.99999999999602
 30
0.0
 11
3966.0
 21
-921.99999999999591
 31
0.0
1001
ACDBBLOCKREPETAG
1070
     1
1071
       54
1005
129183
  0
LINE
  5
129184
  8
OBJECT
 10
3976.0
 20
-872.99999999999591
 30
0.0
 11
3968.5
 21
-869.99999999999579
 31
0.0
1001
ACDBBLOCKREPETAG
1070
     1
1071
       55
1005
129184
  0
LINE
  5
129185
  8
OBJECT
 10
3951.185045423772
 20
-921.99999999999591
 30
0.0
 11
3970.8149545762212
 21
-921.99999999999591
 31
0.0
1001
ACDBBLOCKREPETAG
1070
     1
1071
      449
1005
129185
  0
LINE
  5
129186
  8
OBJECT
 10
3951.185045423777
 20
-913.99999999999591
 30
0.0
 11
3951.185045423777
 21
-921.99999999999591
 31
0.0
1001
ACDBBLOCKREPETAG
1070
     1
1071
      450
1005
129186
  0
LINE
  5
129187
  8
OBJECT
 10
3956.0925227118901
 20
-913.99999999999591
 30
0.0
 11
3956.0925227118901
 21
-921.99999999999591
 31
0.0
1001
ACDBBLOCKREPETAG
1070
     1
1071
      451
1005
129187
  0
LINE
  5
129188
  8
OBJECT
 10
3965.9074772881122
 20
-913.99999999999591
 30
0.0
 11
3965.9074772881122
 21
-921.99999999999591
 31
0.0
1001
ACDBBLOCKREPETAG
1070
     1
1071
      452
1005
129188
  0
LINE
  5
129189
  8
OBJECT
 10
3970.814954576223
 20
-913.99999999999591
 30
0.0
 11
3970.814954576223
 21
-921.99999999999591
 31
0.0
1001
ACDBBLOCKREPETAG
1070
     1
1071
      453
1005
129189
  0
LINE
  5
12918A
  8
OBJECT
 10
4068.185045423772
 20
-921.99999999999591
 30
0.0
 11
4087.8149545762199
 21
-921.99999999999591
 31
0.0
1001
ACDBBLOCKREPETAG
1070
     1
1071
      454
1005
12918A
  0
LINE
  5
12918B
  8
OBJECT
 10
4068.185045423777
 20
-913.99999999999591
 30
0.0
 11
4068.185045423777
 21
-921.99999999999591
 31
0.0
1001
ACDBBLOCKREPETAG
1070
     1
1071
      455
1005
12918B
  0
LINE
  5
12918C
  8
OBJECT
 10
4073.0925227118869
 20
-913.99999999999591
 30
0.0
 11
4073.0925227118869
 21
-921.99999999999591
 31
0.0
1001
ACDBBLOCKREPETAG
1070
     1
1071
      456
1005
12918C
  0
LINE
  5
12918D
  8
OBJECT
 10
4082.9074772881122
 20
-913.99999999999591
 30
0.0
 11
4082.9074772881122
 21
-921.99999999999591
 31
0.0
1001
ACDBBLOCKREPETAG
1070
     1
1071
      457
1005
12918D
  0
LINE
  5
12918E
  8
OBJECT
 10
4087.814954576223
 20
-913.99999999999591
 30
0.0
 11
4087.814954576223
 21
-921.99999999999591
 31
0.0
1001
ACDBBLOCKREPETAG
1070
     1
1071
      458
1005
12918E
  0
LINE
  5
12918F
  8
OBJECT
 10
2443.0
 20
-919.99999999999557
 30
0.0
 11
2557.0
 21
-919.99999999999557
 31
0.0
1001
ACDBBLOCKREPETAG
1070
     1
1071
        0
1005
12918F
  0
LINE
  5
129190
  8
OBJECT
 10
2443.0
 20
-919.99999999999557
 30
0.0
 11
2443.0
 21
-839.99999999999591
 31
0.0
1001
ACDBBLOCKREPETAG
1070
     1
1071
        1
1005
129190
  0
LINE
  5
129191
  8
OBJECT
 10
2557.0
 20
-919.99999999999557
 30
0.0
 11
2557.0
 21
-839.99999999999591
 31
0.0
1001
ACDBBLOCKREPETAG
1070
     1
1071
        2
1005
129191
  0
LINE
  5
129192
  8
OBJECT
 10
2443.0
 20
-839.99999999999591
 30
0.0
 11
2557.0
 21
-839.99999999999591
 31
0.0
1001
ACDBBLOCKREPETAG
1070
     1
1071
        3
1005
129192
  0
LINE
  5
129193
  8
HIDDEN
 10
2450.0
 20
-839.99999999999591
 30
0.0
 11
2450.0
 21
-919.99999999999557
 31
0.0
1001
ACDBBLOCKREPETAG
1070
     1
1071
        4
1005
129193
  0
LINE
  5
129194
  8
HIDDEN
 10
2550.0
 20
-839.99999999999591
 30
0.0
 11
2550.0
 21
-919.99999999999557
 31
0.0
1001
ACDBBLOCKREPETAG
1070
     1
1071
        5
1005
129194
  0
LINE
  5
129195
  8
CENTER
 10
2500.0
 20
-669.99999999999955
 30
0.0
 11
2500.0
 21
-934.99999999999545
 31
0.0
1001
ACDBBLOCKREPETAG
1070
     1
1071
        6
1005
129195
  0
LINE
  5
129196
  8
OBJECT
 10
2425.0
 20
-669.99999999999955
 30
0.0
 11
2425.0
 21
-722.99999999999591
 31
0.0
1001
ACDBBLOCKREPETAG
1070
     1
1071
        7
1005
129196
  0
LINE
  5
129197
  8
OBJECT
 10
2575.0
 20
-669.99999999999955
 30
0.0
 11
2575.0
 21
-722.99999999999591
 31
0.0
1001
ACDBBLOCKREPETAG
1070
     1
1071
        8
1005
129197
  0
LINE
  5
129198
  8
OBJECT
 10
2425.0
 20
-722.99999999999591
 30
0.0
 11
2575.0
 21
-722.99999999999591
 31
0.0
1001
ACDBBLOCKREPETAG
1070
     1
1071
        9
1005
129198
  0
LINE
  5
129199
  8
OBJECT
 10
2425.0
 20
-722.99999999999591
 30
0.0
 11
2443.0
 21
-839.99999999999591
 31
0.0
1001
ACDBBLOCKREPETAG
1070
     1
1071
       10
1005
129199
  0
LINE
  5
12919A
  8
OBJECT
 10
2557.0
 20
-839.99999999999591
 30
0.0
 11
2575.0
 21
-722.99999999999591
 31
0.0
1001
ACDBBLOCKREPETAG
1070
     1
1071
       11
1005
12919A
  0
LINE
  5
12919B
  8
OBJECT
 10
1943.0
 20
-919.99999999999557
 30
0.0
 11
2057.0
 21
-919.99999999999557
 31
0.0
1001
ACDBBLOCKREPETAG
1070
     1
1071
        0
1005
12919B
  0
LINE
  5
12919C
  8
OBJECT
 10
1943.0
 20
-919.99999999999557
 30
0.0
 11
1943.0
 21
-839.99999999999591
 31
0.0
1001
ACDBBLOCKREPETAG
1070
     1
1071
        1
1005
12919C
  0
LINE
  5
12919D
  8
OBJECT
 10
2057.0
 20
-919.99999999999557
 30
0.0
 11
2057.0
 21
-839.99999999999591
 31
0.0
1001
ACDBBLOCKREPETAG
1070
     1
1071
        2
1005
12919D
  0
LINE
  5
12919E
  8
OBJECT
 10
1943.0
 20
-839.99999999999591
 30
0.0
 11
2057.0
 21
-839.99999999999591
 31
0.0
1001
ACDBBLOCKREPETAG
1070
     1
1071
        3
1005
12919E
  0
LINE
  5
12919F
  8
HIDDEN
 10
1950.0
 20
-839.99999999999591
 30
0.0
 11
1950.0
 21
-919.99999999999557
 31
0.0
1001
ACDBBLOCKREPETAG
1070
     1
1071
        4
1005
12919F
  0
LINE
  5
1291A0
  8
HIDDEN
 10
2050.0
 20
-839.99999999999591
 30
0.0
 11
2050.0
 21
-919.99999999999557
 31
0.0
1001
ACDBBLOCKREPETAG
1070
     1
1071
        5
1005
1291A0
  0
LINE
  5
1291A1
  8
CENTER
 10
2000.0
 20
-669.99999999999955
 30
0.0
 11
2000.0
 21
-934.99999999999545
 31
0.0
1001
ACDBBLOCKREPETAG
1070
     1
1071
        6
1005
1291A1
  0
LINE
  5
1291A2
  8
OBJECT
 10
1925.0
 20
-669.99999999999955
 30
0.0
 11
1925.0
 21
-722.99999999999591
 31
0.0
1001
ACDBBLOCKREPETAG
1070
     1
1071
        7
1005
1291A2
  0
LINE
  5
1291A3
  8
OBJECT
 10
2075.0
 20
-669.99999999999955
 30
0.0
 11
2075.0
 21
-722.99999999999591
 31
0.0
1001
ACDBBLOCKREPETAG
1070
     1
1071
        8
1005
1291A3
  0
LINE
  5
1291A4
  8
OBJECT
 10
1925.0
 20
-722.99999999999591
 30
0.0
 11
2075.0
 21
-722.99999999999591
 31
0.0
1001
ACDBBLOCKREPETAG
1070
     1
1071
        9
1005
1291A4
  0
LINE
  5
1291A5
  8
OBJECT
 10
1925.0
 20
-722.99999999999591
 30
0.0
 11
1943.0
 21
-839.99999999999591
 31
0.0
1001
ACDBBLOCKREPETAG
1070
     1
1071
       10
1005
1291A5
  0
LINE
  5
1291A6
  8
OBJECT
 10
2057.0
 20
-839.99999999999591
 30
0.0
 11
2075.0
 21
-722.99999999999591
 31
0.0
1001
ACDBBLOCKREPETAG
1070
     1
1071
       11
1005
1291A6
  0
TEXT
  5
1291A7
  8
SLIM
 10
5797.6000000000004
 20
-1528.9999999999991
 30
0.0
 40
28.0
  1
※ 対応スラブ厚　150～180mm
 41
0.75
  0
TEXT
  5
1291A8
  8
SLIM
 10
5598.8999999999996
 20
-1622.3333333333319
 30
0.0
 40
28.0
  1
国土交通大臣認定・（一財）日本消防設備安全センター性能評定取得品
 41
0.75
  0
TEXT
  5
1291A9
  8
SLIM
 10
5631.1000000000004
 20
-1668.9999999999991
 30
0.0
 40
28.0
  1
注）ご採用にあたり、認定書及び評定書の内容をご確認ください。
 41
0.75
  0
TEXT
  5
1291AA
  8
SLIM
 10
3811.8000000000002
 20
-1507.9999999999959
 30
0.0
 40
28.0
  1
※ 対応スラブ厚　180mm以下
 41
0.75
  0
TEXT
  5
1291AB
  8
SLIM
 10
1811.8
 20
-1263.999999999998
 30
0.0
 40
28.0
  1
※ 対応スラブ厚　180mm以下
 41
0.75
  0
LINE
  5
1291AC
  8
CENTER
 10
5909.0
 20
-1204.9999999999991
 30
0.0
 11
6105.0
 21
-1204.9999999999991
 31
0.0
1001
ACDBBLOCKREPETAG
1070
     1
1071
       10
1005
1291AC
  0
LINE
  5
1291AD
  8
CENTER
 10
6000.0
 20
-1113.7253355707819
 30
0.0
 11
6000.0
 21
-1296.274664429216
 31
0.0
1001
ACDBBLOCKREPETAG
1070
     1
1071
       11
1005
1291AD
  0
CIRCLE
  5
1291AE
  8
OBJECT
 10
6000.0
 20
-1204.9999999999991
 30
0.0
 40
50.0
1001
ACDBBLOCKREPETAG
1070
     1
1071
       12
1005
1291AE
  0
CIRCLE
  5
1291AF
  8
OBJECT
 10
6000.0
 20
-1204.9999999999991
 30
0.0
 40
60.0
1001
ACDBBLOCKREPETAG
1070
     1
1071
       13
1005
1291AF
  0
CIRCLE
  5
1291B0
  8
OBJECT
 10
6000.0
 20
-1204.9999999999991
 30
0.0
 40
68.0
1001
ACDBBLOCKREPETAG
1070
     1
1071
       14
1005
1291B0
  0
ARC
  5
1291B1
  8
OBJECT
 10
6077.5
 20
-1204.9999999999991
 30
0.0
 40
12.0
 50
272.10542627221611
 51
87.894573727783893
1001
ACDBBLOCKREPETAG
1070
     1
1071
       15
1005
1291B1
  0
ARC
  5
1291B2
  8
OBJECT
 10
6078.4919354838639
 20
-1178.0182271895269
 30
0.0
 40
15.0
 50
198.97051877963551
 51
267.89457372778372
1001
ACDBBLOCKREPETAG
1070
     1
1071
       16
1005
1291B2
  0
ARC
  5
1291B3
  8
OBJECT
 10
6078.4919354838639
 20
-1231.981772810467
 30
0.0
 40
15.0
 50
92.105426272216135
 51
161.02948122036429
1001
ACDBBLOCKREPETAG
1070
     1
1071
       17
1005
1291B3
  0
CIRCLE
  5
1291B4
  8
SLIM
 10
6078.0
 20
-1204.9999999999991
 30
0.0
 40
8.0
1001
ACDBBLOCKREPETAG
1070
     1
1071
       18
1005
1291B4
  0
POLYLINE
  5
1291B5
  8
SLIM
 66
     1
 10
0.0
 20
0.0
 30
0.0
 70
     1
1001
ACDBBLOCKREPETAG
1070
     1
1071
       19
1005
1291B5
  0
VERTEX
  5
129D28
  8
SLIM
 10
6075.6905989232328
 20
-1200.9999999999991
 30
0.0
  0
VERTEX
  5
129D29
  8
SLIM
 10
6073.3811978464801
 20
-1204.9999999999991
 30
0.0
  0
VERTEX
  5
129D2A
  8
SLIM
 10
6075.6905989232328
 20
-1208.9999999999991
 30
0.0
  0
VERTEX
  5
129D2B
  8
SLIM
 10
6080.3094010767527
 20
-1208.9999999999991
 30
0.0
  0
VERTEX
  5
129D2C
  8
SLIM
 10
6082.6188021535154
 20
-1204.9999999999991
 30
0.0
  0
VERTEX
  5
129D2D
  8
SLIM
 10
6080.3094010767527
 20
-1200.9999999999991
 30
0.0
  0
SEQEND
  5
129D2E
  8
SLIM
  0
ARC
  5
1291B6
  8
OBJECT
 10
5961.25
 20
-1137.883031206703
 30
0.0
 40
12.0
 50
32.105426272157878
 51
207.89457372770741
1001
ACDBBLOCKREPETAG
1070
     1
1071
       20
1005
1291B6
  0
ARC
  5
1291B7
  8
OBJECT
 10
5937.387131565054
 20
-1150.514876283992
 30
0.0
 40
15.0
 50
318.97051877944762
 51
27.894573727707481
1001
ACDBBLOCKREPETAG
1070
     1
1071
       21
1005
1291B7
  0
ARC
  5
1291B8
  8
OBJECT
 10
5984.1209329510702
 20
-1123.53310347352
 30
0.0
 40
15.0
 50
212.1054262721579
 51
281.02948122044069
1001
ACDBBLOCKREPETAG
1070
     1
1071
       22
1005
1291B8
  0
CIRCLE
  5
1291B9
  8
SLIM
 10
5961.0
 20
-1137.4500185048121
 30
0.0
 40
7.9999999999999982
1001
ACDBBLOCKREPETAG
1070
     1
1071
       23
1005
1291B9
  0
POLYLINE
  5
1291BA
  8
SLIM
 66
     1
 10
0.0
 20
0.0
 30
0.0
 70
     1
1001
ACDBBLOCKREPETAG
1070
     1
1071
       24
1005
1291BA
  0
VERTEX
  5
129D2F
  8
SLIM
 10
5958.69059892324
 20
-1141.4500185048121
 30
0.0
  0
VERTEX
  5
129D30
  8
SLIM
 10
5963.3094010767518
 20
-1141.4500185048121
 30
0.0
  0
VERTEX
  5
129D31
  8
SLIM
 10
5965.6188021535136
 20
-1137.4500185048121
 30
0.0
  0
VERTEX
  5
129D32
  8
SLIM
 10
5963.3094010767518
 20
-1133.4500185048121
 30
0.0
  0
VERTEX
  5
129D33
  8
SLIM
 10
5958.69059892324
 20
-1133.4500185048121
 30
0.0
  0
VERTEX
  5
129D34
  8
SLIM
 10
5956.3811978464792
 20
-1137.4500185048121
 30
0.0
  0
SEQEND
  5
129D35
  8
SLIM
  0
ARC
  5
1291BB
  8
OBJECT
 10
5961.25
 20
-1272.1169687932911
 30
0.0
 40
12.0
 50
152.1054262722925
 51
327.89457372784221
1001
ACDBBLOCKREPETAG
1070
     1
1071
       25
1005
1291BB
  0
ARC
  5
1291BC
  8
OBJECT
 10
5984.1209329510702
 20
-1286.4668965264741
 30
0.0
 40
15.0
 50
78.970518779559228
 51
147.8945737278421
1001
ACDBBLOCKREPETAG
1070
     1
1071
       26
1005
1291BC
  0
ARC
  5
1291BD
  8
OBJECT
 10
5937.387131565054
 20
-1259.485123716006
 30
0.0
 40
15.0
 50
332.1054262722925
 51
41.029481220552412
1001
ACDBBLOCKREPETAG
1070
     1
1071
       27
1005
1291BD
  0
CIRCLE
  5
1291BE
  8
SLIM
 10
5961.0
 20
-1272.5499814951861
 30
0.0
 40
8.0
1001
ACDBBLOCKREPETAG
1070
     1
1071
       28
1005
1291BE
  0
POLYLINE
  5
1291BF
  8
SLIM
 66
     1
 10
0.0
 20
0.0
 30
0.0
 70
     1
1001
ACDBBLOCKREPETAG
1070
     1
1071
       29
1005
1291BF
  0
VERTEX
  5
129D36
  8
SLIM
 10
5965.6188021535136
 20
-1272.5499814951829
 30
0.0
  0
VERTEX
  5
129D37
  8
SLIM
 10
5963.3094010767518
 20
-1268.5499814951861
 30
0.0
  0
VERTEX
  5
129D38
  8
SLIM
 10
5958.69059892324
 20
-1268.5499814951829
 30
0.0
  0
VERTEX
  5
129D39
  8
SLIM
 10
5956.3811978464792
 20
-1272.5499814951861
 30
0.0
  0
VERTEX
  5
129D3A
  8
SLIM
 10
5958.6905989232328
 20
-1276.5499814951829
 30
0.0
  0
VERTEX
  5
129D3B
  8
SLIM
 10
5963.3094010767518
 20
-1276.5499814951861
 30
0.0
  0
SEQEND
  5
129D3C
  8
SLIM
  0
ARC
  5
1291C0
  8
OBJECT
 10
6000.0
 20
-1204.9999999999991
 30
0.0
 40
76.0
 50
34.863837954142063
 51
85.136162045732945
1001
ACDBBLOCKREPETAG
1070
     1
1071
       42
1005
1291C0
  0
ARC
  5
1291C1
  8
OBJECT
 10
6000.0
 20
-1204.9999999999991
 30
0.0
 40
76.0
 50
154.86383795430939
 51
205.1361620456905
1001
ACDBBLOCKREPETAG
1070
     1
1071
       43
1005
1291C1
  0
ARC
  5
1291C2
  8
OBJECT
 10
6000.0
 20
-1204.9999999999991
 30
0.0
 40
76.0
 50
274.86383795426718
 51
325.13616204585799
1001
ACDBBLOCKREPETAG
1070
     1
1071
       44
1005
1291C2
  0
ARC
  5
1291C3
  8
OBJECT
 10
6078.0
 20
-1204.9999999999991
 30
0.0
 40
12.0
 50
325.13616204585799
 51
34.863837954142063
1001
ACDBBLOCKREPETAG
1070
     1
1071
       45
1005
1291C3
  0
LINE
  5
1291C4
  8
OBJECT
 10
6087.846153846167
 20
-1198.1404625201369
 30
0.0
 11
6062.3589743590501
 21
-1161.5562626275371
 31
0.0
1001
ACDBBLOCKREPETAG
1070
     1
1071
       46
1005
1291C4
  0
LINE
  5
1291C5
  8
OBJECT
 10
6087.8461538461697
 20
-1211.859537479859
 30
0.0
 11
6062.3589743590501
 21
-1248.443737372462
 31
0.0
1001
ACDBBLOCKREPETAG
1070
     1
1071
       47
1005
1291C5
  0
ARC
  5
1291C6
  8
OBJECT
 10
5961.0
 20
-1137.450018504813
 30
0.0
 40
12.0
 50
85.136162045942811
 51
154.86383795410001
1001
ACDBBLOCKREPETAG
1070
     1
1071
       48
1005
1291C6
  0
LINE
  5
1291C7
  8
OBJECT
 10
5950.1363893611451
 20
-1132.3527678843941
 30
0.0
 11
5931.1971326205849
 21
-1172.7174127373501
 31
0.0
1001
ACDBBLOCKREPETAG
1070
     1
1071
       49
1005
1291C7
  0
LINE
  5
1291C8
  8
OBJECT
 10
5962.0174567926842
 20
-1125.493230404529
 30
0.0
 11
6006.4438930203669
 21
-1129.273675364888
 31
0.0
1001
ACDBBLOCKREPETAG
1070
     1
1071
       50
1005
1291C8
  0
ARC
  5
1291C9
  8
OBJECT
 10
5961.0
 20
-1272.5499814951841
 30
0.0
 40
12.0
 50
205.13616204589991
 51
274.8638379540572
1001
ACDBBLOCKREPETAG
1070
     1
1071
       51
1005
1291C9
  0
LINE
  5
1291CA
  8
OBJECT
 10
5962.0174567926879
 20
-1284.5067695954669
 30
0.0
 11
6006.4438930203651
 21
-1280.726324635109
 31
0.0
1001
ACDBBLOCKREPETAG
1070
     1
1071
       52
1005
1291CA
  0
LINE
  5
1291CB
  8
OBJECT
 10
5950.1363893611451
 20
-1277.6472321156079
 30
0.0
 11
5931.1971326205821
 21
-1237.2825872626461
 31
0.0
1001
ACDBBLOCKREPETAG
1070
     1
1071
       53
1005
1291CB
  0
LINE
  5
1291CC
  8
CENTER
 10
3909.0
 20
-1163.9999999999959
 30
0.0
 11
4105.0
 21
-1163.9999999999959
 31
0.0
1001
ACDBBLOCKREPETAG
1070
     1
1071
        0
1005
1291CC
  0
LINE
  5
1291CD
  8
CENTER
 10
4000.0
 20
-1072.725335570779
 30
0.0
 11
4000.0
 21
-1255.274664429212
 31
0.0
1001
ACDBBLOCKREPETAG
1070
     1
1071
        1
1005
1291CD
  0
CIRCLE
  5
1291CE
  8
OBJECT
 10
4000.0
 20
-1163.9999999999959
 30
0.0
 40
50.0
1001
ACDBBLOCKREPETAG
1070
     1
1071
        2
1005
1291CE
  0
CIRCLE
  5
1291CF
  8
OBJECT
 10
4000.0
 20
-1163.9999999999959
 30
0.0
 40
62.0
1001
ACDBBLOCKREPETAG
1070
     1
1071
        3
1005
1291CF
  0
CIRCLE
  5
1291D0
  8
SLIM
 10
4078.0
 20
-1163.9999999999959
 30
0.0
 40
5.0
1001
ACDBBLOCKREPETAG
1070
     1
1071
        4
1005
1291D0
  0
POLYLINE
  5
1291D1
  8
SLIM
 66
     1
 10
0.0
 20
0.0
 30
0.0
 70
     1
1001
ACDBBLOCKREPETAG
1070
     1
1071
        5
1005
1291D1
  0
VERTEX
  5
129D3D
  8
SLIM
 10
4073.092522711886
 20
-1155.4999999999959
 30
0.0
  0
VERTEX
  5
129D3E
  8
SLIM
 10
4068.185045423772
 20
-1163.9999999999959
 30
0.0
  0
VERTEX
  5
129D3F
  8
SLIM
 10
4073.092522711886
 20
-1172.4999999999959
 30
0.0
  0
VERTEX
  5
129D40
  8
SLIM
 10
4082.9074772881072
 20
-1172.4999999999959
 30
0.0
  0
VERTEX
  5
129D41
  8
SLIM
 10
4087.8149545762199
 20
-1163.9999999999959
 30
0.0
  0
VERTEX
  5
129D42
  8
SLIM
 10
4082.9074772881072
 20
-1155.4999999999959
 30
0.0
  0
SEQEND
  5
129D43
  8
SLIM
  0
CIRCLE
  5
1291D2
  8
SLIM
 10
3961.0
 20
-1096.450018504808
 30
0.0
 40
4.9999999999999991
1001
ACDBBLOCKREPETAG
1070
     1
1071
        6
1005
1291D2
  0
POLYLINE
  5
1291D3
  8
SLIM
 66
     1
 10
0.0
 20
0.0
 30
0.0
 70
     1
1001
ACDBBLOCKREPETAG
1070
     1
1071
        7
1005
1291D3
  0
VERTEX
  5
129D44
  8
SLIM
 10
3956.092522711886
 20
-1104.950018504808
 30
0.0
  0
VERTEX
  5
129D45
  8
SLIM
 10
3965.907477288114
 20
-1104.950018504808
 30
0.0
  0
VERTEX
  5
129D46
  8
SLIM
 10
3970.8149545762212
 20
-1096.450018504808
 30
0.0
  0
VERTEX
  5
129D47
  8
SLIM
 10
3965.907477288114
 20
-1087.950018504808
 30
0.0
  0
VERTEX
  5
129D48
  8
SLIM
 10
3956.092522711886
 20
-1087.950018504808
 30
0.0
  0
VERTEX
  5
129D49
  8
SLIM
 10
3951.185045423772
 20
-1096.450018504808
 30
0.0
  0
SEQEND
  5
129D4A
  8
SLIM
  0
CIRCLE
  5
1291D4
  8
SLIM
 10
3961.0
 20
-1231.5499814951829
 30
0.0
 40
5.0
1001
ACDBBLOCKREPETAG
1070
     1
1071
        8
1005
1291D4
  0
POLYLINE
  5
1291D5
  8
SLIM
 66
     1
 10
0.0
 20
0.0
 30
0.0
 70
     1
1001
ACDBBLOCKREPETAG
1070
     1
1071
        9
1005
1291D5
  0
VERTEX
  5
129D4B
  8
SLIM
 10
3970.8149545762212
 20
-1231.5499814951829
 30
0.0
  0
VERTEX
  5
129D4C
  8
SLIM
 10
3965.9074772881072
 20
-1223.0499814951791
 30
0.0
  0
VERTEX
  5
129D4D
  8
SLIM
 10
3956.092522711886
 20
-1223.049981495182
 30
0.0
  0
VERTEX
  5
129D4E
  8
SLIM
 10
3951.185045423772
 20
-1231.5499814951791
 30
0.0
  0
VERTEX
  5
129D4F
  8
SLIM
 10
3956.092522711886
 20
-1240.0499814951829
 30
0.0
  0
VERTEX
  5
129D50
  8
SLIM
 10
3965.907477288114
 20
-1240.0499814951791
 30
0.0
  0
SEQEND
  5
129D51
  8
SLIM
  0
ARC
  5
1291D6
  8
OBJECT
 10
4000.0
 20
-1163.9999999999959
 30
0.0
 40
76.0
 50
34.863837954142063
 51
85.136162045732945
1001
ACDBBLOCKREPETAG
1070
     1
1071
       30
1005
1291D6
  0
ARC
  5
1291D7
  8
OBJECT
 10
4000.0
 20
-1163.9999999999959
 30
0.0
 40
76.0
 50
154.86383795430939
 51
205.1361620456905
1001
ACDBBLOCKREPETAG
1070
     1
1071
       31
1005
1291D7
  0
ARC
  5
1291D8
  8
OBJECT
 10
4000.0
 20
-1163.9999999999959
 30
0.0
 40
76.0
 50
274.86383795426718
 51
325.13616204585799
1001
ACDBBLOCKREPETAG
1070
     1
1071
       32
1005
1291D8
  0
ARC
  5
1291D9
  8
OBJECT
 10
4078.0
 20
-1163.9999999999959
 30
0.0
 40
12.0
 50
325.13616204585799
 51
34.863837954142063
1001
ACDBBLOCKREPETAG
1070
     1
1071
       33
1005
1291D9
  0
LINE
  5
1291DA
  8
OBJECT
 10
4087.846153846167
 20
-1157.140462520133
 30
0.0
 11
4062.3589743590492
 21
-1120.5562626275339
 31
0.0
1001
ACDBBLOCKREPETAG
1070
     1
1071
       34
1005
1291DA
  0
LINE
  5
1291DB
  8
OBJECT
 10
4087.8461538461711
 20
-1170.859537479856
 30
0.0
 11
4062.3589743590492
 21
-1207.4437373724591
 31
0.0
1001
ACDBBLOCKREPETAG
1070
     1
1071
       35
1005
1291DB
  0
ARC
  5
1291DC
  8
OBJECT
 10
3961.0
 20
-1096.45001850481
 30
0.0
 40
12.0
 50
85.136162045942811
 51
154.86383795411109
1001
ACDBBLOCKREPETAG
1070
     1
1071
       36
1005
1291DC
  0
LINE
  5
1291DD
  8
OBJECT
 10
3950.136389361146
 20
-1091.3527678843909
 30
0.0
 11
3931.1971326205862
 21
-1131.7174127373471
 31
0.0
1001
ACDBBLOCKREPETAG
1070
     1
1071
       37
1005
1291DD
  0
LINE
  5
1291DE
  8
OBJECT
 10
3962.0174567926852
 20
-1084.493230404526
 30
0.0
 11
4006.4438930203678
 21
-1088.2736753648851
 31
0.0
1001
ACDBBLOCKREPETAG
1070
     1
1071
       38
1005
1291DE
  0
ARC
  5
1291DF
  8
OBJECT
 10
3961.0
 20
-1231.5499814951811
 30
0.0
 40
12.0
 50
205.13616204588891
 51
274.8638379540572
1001
ACDBBLOCKREPETAG
1070
     1
1071
       39
1005
1291DF
  0
LINE
  5
1291E0
  8
OBJECT
 10
3962.0174567926879
 20
-1243.506769595464
 30
0.0
 11
4006.4438930203651
 21
-1239.726324635106
 31
0.0
1001
ACDBBLOCKREPETAG
1070
     1
1071
       40
1005
1291E0
  0
LINE
  5
1291E1
  8
OBJECT
 10
3950.136389361146
 20
-1236.647232115605
 30
0.0
 11
3931.1971326205821
 21
-1196.2825872626429
 31
0.0
1001
ACDBBLOCKREPETAG
1070
     1
1071
       41
1005
1291E1
  0
TEXT
  5
1291E2
  8
SLIM
 10
3853.75
 20
-1431.4999999999959
 30
0.0
 40
35.0
  1
両受けスタイル（W）
 41
0.75
  0
TEXT
  5
1291E3
  8
SLIM
 10
5858.1250000000009
 20
-1472.4999999999991
 30
0.0
 40
35.0
  1
カンペイ君（WKP）
 41
0.75
  0
TEXT
  5
1291E4
  8
SLIM
 10
1856.25
 20
-1187.499999999998
 30
0.0
 40
35.0
  1
片受けスタイル（S）
 41
0.75
  0
VIEWPORT
  5
F6BA7
 67
     1
  8
0
 10
145.33033752441401
 20
101.8328354358673
 30
0.0
 40
334.0025019414623
 41
222.19657968139651
 68
     1
 69
     1
1001
ACAD
1000
MVIEW
1002
{
1070
    16
1010
0.0
1020
0.0
1030
0.0
1010
0.0
1020
0.0
1030
1.0
1040
0.0
1040
222.19657968139651
1040
145.33033752441401
1040
101.8328354358673
1040
50.0
1040
0.0
1040
0.0
1070
     0
1070
     0
1070
     1
1070
     1
1070
     0
1070
     0
1070
     0
1070
     0
1040
0.0
1040
0.0
1040
0.0
1040
10.0
1040
10.0
1040
10.0
1040
10.0
1070
     0
1002
{
1002
}
1002
}
  0
VIEWPORT
  5
F6BA9
 67
     1
  8
OBJECT
 10
145.3303314447403
 20
101.8328338861465
 30
0.0
 40
232.5285303115844
 41
162.93253421783439
 68
     2
 69
     2
1001
ACAD
1000
MVIEW
1002
{
1070
    16
1010
0.0
1020
0.0
1030
0.0
1010
0.0
1020
0.0
1030
1.0
1040
0.0
1040
25942.55904403147
1040
2377.604457077377
1040
-7591.5176687056619
1040
50.0
1040
0.0
1040
0.0
1070
     0
1070
   600
1070
     1
1070
     1
1070
     0
1070
     0
1070
     0
1070
     0
1040
0.0
1040
0.0
1040
0.0
1040
1.0
1040
1.0
1040
0.0
1040
0.0
1070
     0
1002
{
1002
}
1002
}
  0
ENDSEC
  0
EOF
