  0
SECTION
  2
HEADER
  9
$ACADVER
  1
AC1009
  9
$INSBASE
 10
0.0
 20
0.0
 30
0.0
  9
$EXTMIN
 10
0.0
 20
-1989.0
 30
0.0
  9
$EXTMAX
 10
12399.70000000001
 20
770.0
 30
0.0
  9
$LIMMIN
 10
0.0
 20
0.0
  9
$LIMMAX
 10
210.0
 20
297.0
  9
$ORTHOMODE
 70
     0
  9
$REGENMODE
 70
     1
  9
$FILLMODE
 70
     1
  9
$QTEXTMODE
 70
     0
  9
$MIRRTEXT
 70
     0
  9
$DRAGMODE
 70
     2
  9
$LTSCALE
 40
1.0
  9
$OSMODE
 70
   109
  9
$ATTMODE
 70
     1
  9
$TEXTSIZE
 40
4.0
  9
$TRACEWID
 40
0.05
  9
$TEXTSTYLE
  7
STANDARD
  9
$CLAYER
  8
OBJECT
  9
$CELTYPE
  6
BYLAYER
  9
$CECOLOR
 62
   256
  9
$DIMSCALE
 40
10.0
  9
$DIMASZ
 40
2.0
  9
$DIMEXO
 40
1.0
  9
$DIMDLI
 40
10.0
  9
$DIMRND
 40
0.0
  9
$DIMDLE
 40
0.0
  9
$DIMEXE
 40
1.0
  9
$DIMTP
 40
0.0
  9
$DIMTM
 40
0.0
  9
$DIMTXT
 40
3.2000000000000002
  9
$DIMCEN
 40
0.0
  9
$DIMTSZ
 40
0.0
  9
$DIMTOL
 70
     0
  9
$DIMLIM
 70
     0
  9
$DIMTIH
 70
     0
  9
$DIMTOH
 70
     0
  9
$DIMSE1
 70
     0
  9
$DIMSE2
 70
     0
  9
$DIMTAD
 70
     1
  9
$DIMZIN
 70
     8
  9
$DIMBLK
  1
OPEN30
  9
$DIMASO
 70
     1
  9
$DIMSHO
 70
     1
  9
$DIMPOST
  1

  9
$DIMAPOST
  1

  9
$DIMALT
 70
     0
  9
$DIMALTD
 70
     2
  9
$DIMALTF
 40
25.399999999999999
  9
$DIMLFAC
 40
1.0
  9
$DIMTOFL
 70
     1
  9
$DIMTVP
 40
0.0
  9
$DIMTIX
 70
     0
  9
$DIMSOXD
 70
     0
  9
$DIMSAH
 70
     0
  9
$DIMBLK1
  1

  9
$DIMBLK2
  1

  9
$DIMSTYLE
  2
S10
  9
$DIMCLRD
 70
   256
  9
$DIMCLRE
 70
   256
  9
$DIMCLRT
 70
   256
  9
$DIMTFAC
 40
1.0
  9
$DIMGAP
 40
0.9
  9
$LUNITS
 70
     2
  9
$LUPREC
 70
     2
  9
$SKETCHINC
 40
0.1
  9
$FILLETRAD
 40
0.0
  9
$AUNITS
 70
     0
  9
$AUPREC
 70
     2
  9
$MENU
  1
ACAD
  9
$ELEVATION
 40
0.0
  9
$PELEVATION
 40
0.0
  9
$THICKNESS
 40
0.0
  9
$LIMCHECK
 70
     0
  9
$BLIPMODE
 70
     0
  9
$CHAMFERA
 40
2.0
  9
$CHAMFERB
 40
2.0
  9
$SKPOLY
 70
     0
  9
$TDCREATE
 40
2453095.4929404748
  9
$TDUPDATE
 40
2457290.6372638312
  9
$TDINDWG
 40
18.51557875
  9
$TDUSRTIMER
 40
18.515577835599998
  9
$USRTIMER
 70
     1
  9
$ANGBASE
 50
0.0
  9
$ANGDIR
 70
     0
  9
$PDMODE
 70
    35
  9
$PDSIZE
 40
2.0
  9
$PLINEWID
 40
0.0
  9
$COORDS
 70
     1
  9
$SPLFRAME
 70
     0
  9
$SPLINETYPE
 70
     6
  9
$SPLINESEGS
 70
     8
  9
$ATTDIA
 70
     0
  9
$ATTREQ
 70
     1
  9
$HANDLING
 70
     1
  9
$HANDSEED
  5
13A63D
  9
$SURFTAB1
 70
     6
  9
$SURFTAB2
 70
     6
  9
$SURFTYPE
 70
     6
  9
$SURFU
 70
     6
  9
$SURFV
 70
     6
  9
$UCSNAME
  2

  9
$UCSORG
 10
0.0
 20
0.0
 30
0.0
  9
$UCSXDIR
 10
1.0
 20
0.0
 30
0.0
  9
$UCSYDIR
 10
0.0
 20
1.0
 30
0.0
  9
$PUCSNAME
  2

  9
$PUCSORG
 10
0.0
 20
0.0
 30
0.0
  9
$PUCSXDIR
 10
1.0
 20
0.0
 30
0.0
  9
$PUCSYDIR
 10
0.0
 20
1.0
 30
0.0
  9
$USERI1
 70
     0
  9
$USERI2
 70
     0
  9
$USERI3
 70
     0
  9
$USERI4
 70
     0
  9
$USERI5
 70
     0
  9
$USERR1
 40
0.0
  9
$USERR2
 40
0.0
  9
$USERR3
 40
0.0
  9
$USERR4
 40
0.0
  9
$USERR5
 40
0.0
  9
$WORLDVIEW
 70
     1
  9
$SHADEDGE
 70
     3
  9
$SHADEDIF
 70
    70
  9
$TILEMODE
 70
     1
  9
$MAXACTVP
 70
    64
  9
$PLIMCHECK
 70
     0
  9
$PEXTMIN
 10
29.066066288948051
 20
20.366566777229309
 30
0.0
  9
$PEXTMAX
 10
261.5945966005325
 20
183.29910099506381
 30
0.0
  9
$PLIMMIN
 10
-3.17498779296875
 20
-3.1749999523162842
  9
$PLIMMAX
 10
293.83566284179687
 20
206.8406708240509
  9
$UNITMODE
 70
     0
  9
$VISRETAIN
 70
     1
  9
$PLINEGEN
 70
     0
  9
$PSLTSCALE
 70
     1
  0
ENDSEC
  0
SECTION
  2
TABLES
  0
TABLE
  2
VPORT
 70
     1
  0
VPORT
  2
*ACTIVE
 70
     0
 10
0.0
 20
0.0
 11
1.0
 21
1.0
 12
6199.5072769214803
 22
-564.50401295912525
 13
0.0
 23
0.0
 14
1.0
 24
1.0
 15
0.0
 25
0.0
 16
0.0
 26
0.0
 36
1.0
 17
0.0
 27
0.0
 37
0.0
 40
8779.2957591637314
 41
1.6494178525226391
 42
50.0
 43
0.0
 44
0.0
 50
0.0
 51
0.0
 71
     0
 72
   600
 73
     1
 74
     1
 75
     0
 76
     0
 77
     0
 78
     0
  0
ENDTAB
  0
TABLE
  2
LTYPE
 70
     4
  0
LTYPE
  2
CONTINUOUS
 70
     0
  3
Solid line
 72
    65
 73
     0
 40
0.0
  0
LTYPE
  2
PHANTOM2
 70
     0
  3
___ _ _ ___ _ _ ___ _ _ ___ _ _
 72
    65
 73
     6
 40
1.25
 49
0.625
 49
-0.125
 49
0.125
 49
-0.125
 49
0.125
 49
-0.125
  0
LTYPE
  2
ACAD_ISO08W100
 70
     0
  3
ISO long-dash short-dash ____ __ ____ __ ____ _
 72
    65
 73
     4
 40
36.0
 49
24.0
 49
-3.0
 49
6.0
 49
-3.0
  0
LTYPE
  2
ACAD_ISO02W100
 70
     0
  3
ISO dash __ __ __ __ __ __ __ __ __ __ __ __ __
 72
    65
 73
     2
 40
15.0
 49
12.0
 49
-3.0
  0
ENDTAB
  0
TABLE
  2
LAYER
 70
     7
  0
LAYER
  2
0
 70
     0
 62
     7
  6
CONTINUOUS
  0
LAYER
  2
OBJECT
 70
     0
 62
     4
  6
CONTINUOUS
  0
LAYER
  2
DEFPOINTS
 70
     0
 62
     7
  6
CONTINUOUS
  0
LAYER
  2
HIDDEN
 70
     0
 62
     2
  6
ACAD_ISO02W100
  0
LAYER
  2
CENTER
 70
     0
 62
     2
  6
ACAD_ISO08W100
  0
LAYER
  2
DOTS
 70
     0
 62
     1
  6
CONTINUOUS
  0
LAYER
  2
SLIM
 70
     0
 62
     2
  6
CONTINUOUS
  0
ENDTAB
  0
TABLE
  2
STYLE
 70
     2
  0
STYLE
  2
STANDARD
 70
     0
 40
0.0
 41
0.75
 50
0.0
 71
     0
 42
4.0
  3
simplex.shx
  4
bigfont.shx
  0
ENDTAB
  0
TABLE
  2
VIEW
 70
     0
  0
ENDTAB
  0
TABLE
  2
UCS
 70
     0
  0
ENDTAB
  0
TABLE
  2
APPID
 70
    19
  0
APPID
  2
ACAD
 70
     0
  0
APPID
  2
ACADANNOTATIVE
 70
     0
  0
APPID
  2
ACAD_PSEXT
 70
     0
  0
APPID
  2
ACAD_EXEMPT_FROM_CAD_STANDARDS
 70
     0
  0
APPID
  2
ACAECLAYERSTANDARD
 70
     0
  0
APPID
  2
ACAUTHENVIRON
 70
     0
  0
APPID
  2
ACDBDYNAMICBLOCKTRUENAME
 70
     0
  0
APPID
  2
ACDBDYNAMICBLOCKGUID
 70
     0
  0
APPID
  2
ACDBBLOCKREPETAG
 70
     0
  0
APPID
  2
ACDBBLOCKREPBTAG
 70
     0
  0
APPID
  2
ACAD_NAV_VCDISPLAY
 70
     0
  0
APPID
  2
ACAD_DSTYLE_DIMRADIAL_EXTENSION
 70
     0
  0
APPID
  2
ACAD_DSTYLE_DIMJAG
 70
     0
  0
APPID
  2
ACAD_DSTYLE_DIMTALN
 70
     0
  0
APPID
  2
ACADANNOPO
 70
     0
  0
APPID
  2
GRADIENTCOLOR1ACI
 70
     0
  0
APPID
  2
GRADIENTCOLOR2ACI
 70
     0
  0
APPID
  2
CONTENTBLOCKICON
 70
     0
  0
APPID
  2
ACAD_MLEADERVER
 70
     0
  0
ENDTAB
  0
TABLE
  2
DIMSTYLE
 70
     3
  0
DIMSTYLE
  2
STANDARD
 70
     0
  3

  4

  5

  6

  7

 40
1.0
 41
0.18
 42
0.0625
 43
0.38
 44
0.18
 45
0.0
 46
0.0
 47
0.0
 48
0.0
140
0.18
141
0.09
142
0.0
143
25.399999999999999
144
1.0
145
0.0
146
1.0
147
0.09
 71
     0
 72
     0
 73
     1
 74
     1
 75
     0
 76
     0
 77
     0
 78
     0
170
     0
171
     2
172
     0
173
     0
174
     0
175
     0
176
     0
177
     0
178
     0
  0
DIMSTYLE
  2
S10
 70
     0
  3

  4

  5

  6

  7

 40
10.0
 41
2.0
 42
1.0
 43
10.0
 44
1.0
 45
0.0
 46
0.0
 47
0.0
 48
0.0
140
3.2000000000000002
141
0.0
142
0.0
143
25.399999999999999
144
1.0
145
0.0
146
1.0
147
0.9
 71
     0
 72
     0
 73
     0
 74
     0
 75
     0
 76
     0
 77
     1
 78
     8
170
     0
171
     2
172
     1
173
     0
174
     0
175
     0
176
   256
177
   256
178
   256
  0
ENDTAB
  0
ENDSEC
  0
SECTION
  2
BLOCKS
  0
BLOCK
  8
0
  2
$MODEL_SPACE
 70
     0
 10
0.0
 20
0.0
 30
0.0
  3
$MODEL_SPACE
  1

  0
ENDBLK
  5
13A565
  8
0
  0
BLOCK
 67
     1
  8
0
  2
$PAPER_SPACE
 70
     0
 10
0.0
 20
0.0
 30
0.0
  3
$PAPER_SPACE
  1

  0
ENDBLK
  5
13A561
 67
     1
  8
0
  0
BLOCK
  8
0
  2
_OPEN30
 70
     0
 10
0.0
 20
0.0
 30
0.0
  3
_OPEN30
  1

  0
LINE
  5
202
  8
0
  6
BYBLOCK
 62
     0
 10
-1.0
 20
0.26794919
 30
0.0
 11
0.0
 21
0.0
 31
0.0
  0
LINE
  5
203
  8
0
  6
BYBLOCK
 62
     0
 10
0.0
 20
0.0
 30
0.0
 11
-1.0
 21
-0.26794919
 31
0.0
  0
LINE
  5
204
  8
0
  6
BYBLOCK
 62
     0
 10
0.0
 20
0.0
 30
0.0
 11
-1.0
 21
0.0
 31
0.0
  0
ENDBLK
  5
206
  8
0
  0
ENDSEC
  0
SECTION
  2
ENTITIES
  0
LINE
  5
139E2F
  8
OBJECT
 10
11787.0
 20
-553.0
 30
0.0
 11
11780.000000000009
 21
-553.0
 31
0.0
1001
ACDBBLOCKREPETAG
1070
     1
1071
      106
1005
139E2F
  0
LINE
  5
139E30
  8
OBJECT
 10
11780.000000000009
 20
-553.0
 30
0.0
 11
11780.000000000009
 21
-677.0
 31
0.0
1001
ACDBBLOCKREPETAG
1070
     1
1071
      107
1005
139E30
  0
LINE
  5
139E31
  8
OBJECT
 10
11914.0
 20
-653.3502637757274
 30
0.0
 11
11914.0
 21
-755.00000000000102
 31
0.0
1001
ACDBBLOCKREPETAG
1070
     1
1071
      108
1005
139E31
  0
LINE
  5
139E32
  8
OBJECT
 10
11780.000000000009
 20
-677.0
 30
0.0
 11
11787.0
 21
-677.0
 31
0.0
1001
ACDBBLOCKREPETAG
1070
     1
1071
      109
1005
139E32
  0
LINE
  5
139E33
  8
OBJECT
 10
11787.0
 20
-677.0
 30
0.0
 11
11787.0
 21
-553.0
 31
0.0
1001
ACDBBLOCKREPETAG
1070
     1
1071
      110
1005
139E33
  0
LINE
  5
139E34
  8
CENTER
 10
11855.000000000009
 20
-615.0000000000008
 30
0.0
 11
11765.0
 21
-615.0
 31
0.0
1001
ACDBBLOCKREPETAG
1070
     1
1071
      111
1005
139E34
  0
LINE
  5
139E35
  8
OBJECT
 10
11920.00000000002
 20
-758.0
 30
0.0
 11
11917.000000000009
 21
-758.0000000000008
 31
0.0
1001
ACDBBLOCKREPETAG
1070
     1
1071
      112
1005
139E35
  0
ARC
  5
139E36
  8
OBJECT
 10
11917.000000000009
 20
-755.00000000000102
 30
0.0
 40
3.0
 50
180.0
 51
270.0
1001
ACDBBLOCKREPETAG
1070
     1
1071
      113
1005
139E36
  0
LINE
  5
139E37
  8
OBJECT
 10
11787.0
 20
-556.0
 30
0.0
 11
11823.000000000009
 21
-556.0000000000008
 31
0.0
1001
ACDBBLOCKREPETAG
1070
     1
1071
      114
1005
139E37
  0
LINE
  5
139E38
  8
OBJECT
 10
11823.000000000009
 20
-556.0000000000008
 30
0.0
 11
11823.000000000009
 21
-653.15756805667843
 31
0.0
1001
ACDBBLOCKREPETAG
1070
     1
1071
      115
1005
139E38
  0
LINE
  5
139E39
  8
OBJECT
 10
11827.0
 20
-560.5000000000008
 30
0.0
 11
11827.00000000002
 21
-645.74491827928705
 31
0.0
1001
ACDBBLOCKREPETAG
1070
     1
1071
      116
1005
139E39
  0
LINE
  5
139E3A
  8
OBJECT
 10
11827.0
 20
-560.5000000000008
 30
0.0
 11
11840.000000000009
 21
-560.5000000000008
 31
0.0
1001
ACDBBLOCKREPETAG
1070
     1
1071
      117
1005
139E3A
  0
LINE
  5
139E3B
  8
OBJECT
 10
11831.343683174529
 20
-674.0000000000008
 30
0.0
 11
11787.0
 21
-674.0
 31
0.0
1001
ACDBBLOCKREPETAG
1070
     1
1071
      118
1005
139E3B
  0
LINE
  5
139E3C
  8
OBJECT
 10
11823.000000000009
 20
-556.0000000000008
 30
0.0
 11
11827.0
 21
-560.5000000000008
 31
0.0
1001
ACDBBLOCKREPETAG
1070
     1
1071
      119
1005
139E3C
  0
LINE
  5
139E3D
  8
OBJECT
 10
11840.000000000009
 20
-560.5000000000008
 30
0.0
 11
11840.000000000009
 21
-645.74491827928784
 31
0.0
1001
ACDBBLOCKREPETAG
1070
     1
1071
      120
1005
139E3D
  0
ARC
  5
139E3E
  8
OBJECT
 10
11908.0
 20
-637.27386365609345
 30
0.0
 40
85.0
 50
205.5991387218653
 51
231.40900676279119
1001
ACDBBLOCKREPETAG
1070
     1
1071
      121
1005
139E3E
  0
ARC
  5
139E3F
  8
OBJECT
 10
11837.20000000001
 20
-655.00000000000068
 30
0.0
 40
85.0
 50
19.925932125430649
 51
88.112268108168848
1001
ACDBBLOCKREPETAG
1070
     1
1071
      122
1005
139E3F
  0
LINE
  5
139E40
  8
OBJECT
 10
11914.0
 20
-750.81075719270905
 30
0.0
 11
11854.9806774564
 21
-703.71143914629454
 31
0.0
1001
ACDBBLOCKREPETAG
1070
     1
1071
      123
1005
139E40
  0
LINE
  5
139E41
  8
OBJECT
 10
11827.00000000002
 20
-645.74491827928705
 30
0.0
 11
11840.000000000009
 21
-645.74491827928784
 31
0.0
1001
ACDBBLOCKREPETAG
1070
     1
1071
      124
1005
139E41
  0
LINE
  5
139E42
  8
OBJECT
 10
11823.000000000009
 20
-653.15756805667843
 30
0.0
 11
11827.00000000002
 21
-645.74491827928705
 31
0.0
1001
ACDBBLOCKREPETAG
1070
     1
1071
      125
1005
139E42
  0
LINE
  5
139E43
  8
OBJECT
 10
11919.99999999998
 20
-634.0
 30
0.0
 11
11917.111387840379
 21
-626.03156729425325
 31
0.0
1001
ACDBBLOCKREPETAG
1070
     1
1071
      126
1005
139E43
  0
LINE
  5
139E44
  8
OBJECT
 10
11919.99999999998
 20
-634.0
 30
0.0
 11
11914.0
 21
-653.3502637757274
 31
0.0
1001
ACDBBLOCKREPETAG
1070
     1
1071
      127
1005
139E44
  0
LINE
  5
139E45
  8
HIDDEN
 10
11832.0
 20
-570.5000000000008
 30
0.0
 11
11832.0
 21
-659.50000000000068
 31
0.0
1001
ACDBBLOCKREPETAG
1070
     1
1071
      129
1005
139E45
  0
CIRCLE
  5
139E46
  8
OBJECT
 10
12000.0
 20
-696.0
 30
0.0
 40
62.0
1001
ACDBBLOCKREPETAG
1070
     1
1071
        0
1005
139E46
  0
LINE
  5
139E47
  8
OBJECT
 10
11787.00000000002
 20
-137.99999999999909
 30
0.0
 11
11780.00000000002
 21
-137.99999999999909
 31
0.0
1001
ACDBBLOCKREPETAG
1070
     1
1071
      110
1005
139E47
  0
LINE
  5
139E48
  8
OBJECT
 10
11780.00000000002
 20
-137.99999999999909
 30
0.0
 11
11780.00000000002
 21
-261.99999999999909
 31
0.0
1001
ACDBBLOCKREPETAG
1070
     1
1071
      111
1005
139E48
  0
LINE
  5
139E49
  8
OBJECT
 10
11780.00000000002
 20
-261.99999999999909
 30
0.0
 11
11787.00000000002
 21
-261.99999999999909
 31
0.0
1001
ACDBBLOCKREPETAG
1070
     1
1071
      112
1005
139E49
  0
LINE
  5
139E4A
  8
OBJECT
 10
11787.00000000002
 20
-261.99999999999909
 30
0.0
 11
11787.00000000002
 21
-137.99999999999909
 31
0.0
1001
ACDBBLOCKREPETAG
1070
     1
1071
      113
1005
139E4A
  0
LINE
  5
139E4B
  8
CENTER
 10
11765.00000000002
 20
-199.99999999999909
 30
0.0
 11
11920.0
 21
-199.99999999999909
 31
0.0
1001
ACDBBLOCKREPETAG
1070
     1
1071
      114
1005
139E4B
  0
LINE
  5
139E4C
  8
OBJECT
 10
11840.00002503581
 20
-245.0000000000027
 30
0.0
 11
11914.0
 21
-244.99999999999909
 31
0.0
1001
ACDBBLOCKREPETAG
1070
     1
1071
      115
1005
139E4C
  0
LINE
  5
139E4D
  8
OBJECT
 10
11840.00002503581
 20
-154.99999999999909
 30
0.0
 11
11914.0
 21
-154.99999999999909
 31
0.0
1001
ACDBBLOCKREPETAG
1070
     1
1071
      116
1005
139E4D
  0
LINE
  5
139E4E
  8
OBJECT
 10
11787.00000000002
 20
-140.99999999999909
 30
0.0
 11
11823.00000000002
 21
-140.99999999999909
 31
0.0
1001
ACDBBLOCKREPETAG
1070
     1
1071
      117
1005
139E4E
  0
LINE
  5
139E4F
  8
OBJECT
 10
11823.00000000002
 20
-140.99999999999909
 30
0.0
 11
11823.00000000002
 21
-258.99999999999909
 31
0.0
1001
ACDBBLOCKREPETAG
1070
     1
1071
      118
1005
139E4F
  0
LINE
  5
139E50
  8
OBJECT
 10
11823.00000000002
 20
-258.99999999999909
 30
0.0
 11
11787.00000000002
 21
-258.99999999999909
 31
0.0
1001
ACDBBLOCKREPETAG
1070
     1
1071
      119
1005
139E50
  0
LINE
  5
139E51
  8
OBJECT
 10
11827.00000000002
 20
-145.49999999999909
 30
0.0
 11
11840.00000000002
 21
-145.49999999999909
 31
0.0
1001
ACDBBLOCKREPETAG
1070
     1
1071
      120
1005
139E51
  0
LINE
  5
139E52
  8
OBJECT
 10
11840.00000000002
 20
-254.49999999999909
 30
0.0
 11
11827.00000000002
 21
-254.49999999999909
 31
0.0
1001
ACDBBLOCKREPETAG
1070
     1
1071
      121
1005
139E52
  0
LINE
  5
139E53
  8
OBJECT
 10
11827.00000000002
 20
-254.49999999999909
 30
0.0
 11
11827.00000000002
 21
-145.49999999999909
 31
0.0
1001
ACDBBLOCKREPETAG
1070
     1
1071
      122
1005
139E53
  0
LINE
  5
139E54
  8
OBJECT
 10
11823.00000000002
 20
-140.99999999999909
 30
0.0
 11
11827.00000000002
 21
-145.49999999999909
 31
0.0
1001
ACDBBLOCKREPETAG
1070
     1
1071
      123
1005
139E54
  0
LINE
  5
139E55
  8
OBJECT
 10
11823.00000000002
 20
-258.99999999999909
 30
0.0
 11
11827.00000000002
 21
-254.49999999999909
 31
0.0
1001
ACDBBLOCKREPETAG
1070
     1
1071
      124
1005
139E55
  0
LINE
  5
139E56
  8
OBJECT
 10
11917.0
 20
-137.99999999999909
 30
0.0
 11
11920.0
 21
-137.99999999999909
 31
0.0
1001
ACDBBLOCKREPETAG
1070
     1
1071
      125
1005
139E56
  0
ARC
  5
139E57
  8
OBJECT
 10
11917.0
 20
-140.99999999999909
 30
0.0
 40
3.0
 50
90.0
 51
180.0
1001
ACDBBLOCKREPETAG
1070
     1
1071
      126
1005
139E57
  0
LINE
  5
139E58
  8
OBJECT
 10
11920.0
 20
-261.99999999999909
 30
0.0
 11
11917.0
 21
-261.99999999999909
 31
0.0
1001
ACDBBLOCKREPETAG
1070
     1
1071
      127
1005
139E58
  0
ARC
  5
139E59
  8
OBJECT
 10
11917.0
 20
-258.99999999999909
 30
0.0
 40
3.0
 50
180.0
 51
270.0
1001
ACDBBLOCKREPETAG
1070
     1
1071
      128
1005
139E59
  0
LINE
  5
139E5A
  8
OBJECT
 10
11914.0
 20
-258.99999999999909
 30
0.0
 11
11914.0
 21
-222.44994432063581
 31
0.0
1001
ACDBBLOCKREPETAG
1070
     1
1071
      129
1005
139E5A
  0
LINE
  5
139E5B
  8
OBJECT
 10
11914.0
 20
-177.55005567935859
 30
0.0
 11
11914.0
 21
-140.99999999999909
 31
0.0
1001
ACDBBLOCKREPETAG
1070
     1
1071
      130
1005
139E5B
  0
LINE
  5
139E5C
  8
HIDDEN
 10
11832.00000000002
 20
-155.49999999999909
 30
0.0
 11
11832.00000000002
 21
-244.49999999999909
 31
0.0
1001
ACDBBLOCKREPETAG
1070
     1
1071
      131
1005
139E5C
  0
LINE
  5
139E5D
  8
OBJECT
 10
11840.00002503581
 20
-254.4999509238105
 30
0.0
 11
11840.00002503581
 21
-145.4999509238105
 31
0.0
1001
ACDBBLOCKREPETAG
1070
     1
1071
      133
1005
139E5D
  0
ARC
  5
139E5E
  8
OBJECT
 10
11875.0
 20
-199.99999999999909
 30
0.0
 40
45.000000000000547
 50
270.0
 51
346.21579484130518
1001
ACDBBLOCKREPETAG
1070
     1
1071
      134
1005
139E5E
  0
ARC
  5
139E5F
  8
OBJECT
 10
11875.0
 20
-199.99999999999909
 30
0.0
 40
45.000000000000547
 50
13.78420515869484
 51
90.0
1001
ACDBBLOCKREPETAG
1070
     1
1071
      402
1005
139E5F
  0
LINE
  5
139E60
  8
CENTER
 10
12000.0
 20
-300.99999999999898
 30
0.0
 11
12000.0
 21
-279.99999999999909
 31
0.0
1001
ACDBBLOCKREPETAG
1070
     1
1071
        0
1005
139E60
  0
LINE
  5
139E61
  8
OBJECT
 10
12062.0
 20
-283.0
 30
0.0
 11
12062.0
 21
-279.99999999999909
 31
0.0
1001
ACDBBLOCKREPETAG
1070
     1
1071
        1
1005
139E61
  0
ARC
  5
139E62
  8
OBJECT
 10
12059.0
 20
-283.0
 30
0.0
 40
3.0
 50
270.0
 51
0.0
1001
ACDBBLOCKREPETAG
1070
     1
1071
        2
1005
139E62
  0
LINE
  5
139E63
  8
OBJECT
 10
11938.0
 20
-279.99999999999909
 30
0.0
 11
11938.0
 21
-282.99999999999818
 31
0.0
1001
ACDBBLOCKREPETAG
1070
     1
1071
        3
1005
139E63
  0
ARC
  5
139E64
  8
OBJECT
 10
11941.0
 20
-282.99999999999818
 30
0.0
 40
3.0
 50
180.0
 51
270.0
1001
ACDBBLOCKREPETAG
1070
     1
1071
        4
1005
139E64
  0
LINE
  5
139E65
  8
OBJECT
 10
11941.0
 20
-285.99999999999818
 30
0.0
 11
12059.0
 21
-286.0
 31
0.0
1001
ACDBBLOCKREPETAG
1070
     1
1071
        5
1005
139E65
  0
LINE
  5
139E66
  8
HIDDEN
 10
11943.0
 20
-619.99999999999955
 30
0.0
 11
12057.0
 21
-619.99999999999955
 31
0.0
1001
ACDBBLOCKREPETAG
1070
     1
1071
       57
1005
139E66
  0
LINE
  5
139E67
  8
CENTER
 10
12000.0
 20
-534.99999999999955
 30
0.0
 11
12000.0
 21
-899.99999999999955
 31
0.0
1001
ACDBBLOCKREPETAG
1070
     1
1071
       58
1005
139E67
  0
LINE
  5
139E68
  8
OBJECT
 10
11928.0
 20
-570.99999999999955
 30
0.0
 11
11928.0
 21
-633.99999999999955
 31
0.0
1001
ACDBBLOCKREPETAG
1070
     1
1071
       59
1005
139E68
  0
LINE
  5
139E69
  8
OBJECT
 10
12072.0
 20
-633.99999999999955
 30
0.0
 11
12072.0
 21
-570.99999999999955
 31
0.0
1001
ACDBBLOCKREPETAG
1070
     1
1071
       60
1005
139E69
  0
LINE
  5
139E6A
  8
OBJECT
 10
11920.0
 20
-887.99999999999955
 30
0.0
 11
12080.0
 21
-887.99999999999955
 31
0.0
1001
ACDBBLOCKREPETAG
1070
     1
1071
       61
1005
139E6A
  0
LINE
  5
139E6B
  8
OBJECT
 10
12080.0
 20
-633.99999999999955
 30
0.0
 11
11920.0
 21
-633.99999999999955
 31
0.0
1001
ACDBBLOCKREPETAG
1070
     1
1071
       62
1005
139E6B
  0
LINE
  5
139E6C
  8
OBJECT
 10
11920.0
 20
-887.99999999999955
 30
0.0
 11
11920.0
 21
-899.99999999999955
 31
0.0
1001
ACDBBLOCKREPETAG
1070
     1
1071
       63
1005
139E6C
  0
LINE
  5
139E6D
  8
OBJECT
 10
11920.0
 20
-899.99999999999955
 30
0.0
 11
12080.0
 21
-899.99999999999955
 31
0.0
1001
ACDBBLOCKREPETAG
1070
     1
1071
       64
1005
139E6D
  0
LINE
  5
139E6E
  8
OBJECT
 10
12080.0
 20
-899.99999999999955
 30
0.0
 11
12080.0
 21
-887.99999999999955
 31
0.0
1001
ACDBBLOCKREPETAG
1070
     1
1071
       65
1005
139E6E
  0
LINE
  5
139E6F
  8
OBJECT
 10
12074.99999999986
 20
-757.99999999985016
 30
0.0
 11
12075.0
 21
-887.99999999999955
 31
0.0
1001
ACDBBLOCKREPETAG
1070
     1
1071
       69
1005
139E6F
  0
LINE
  5
139E70
  8
OBJECT
 10
12074.99999080298
 20
-757.99998602702112
 30
0.0
 11
12080.0
 21
-757.99998602702112
 31
0.0
1001
ACDBBLOCKREPETAG
1070
     1
1071
       70
1005
139E70
  0
LINE
  5
139E71
  8
OBJECT
 10
11925.00000000014
 20
-757.99999999985016
 30
0.0
 11
11925.0
 21
-887.99999999999955
 31
0.0
1001
ACDBBLOCKREPETAG
1070
     1
1071
       71
1005
139E71
  0
LINE
  5
139E72
  8
OBJECT
 10
11925.000009197011
 20
-757.99998602702112
 30
0.0
 11
11920.0
 21
-757.99998602702112
 31
0.0
1001
ACDBBLOCKREPETAG
1070
     1
1071
       72
1005
139E72
  0
LINE
  5
139E73
  8
OBJECT
 10
11918.0
 20
-570.99999999999955
 30
0.0
 11
11918.0
 21
-549.99999999999955
 31
0.0
1001
ACDBBLOCKREPETAG
1070
     1
1071
       73
1005
139E73
  0
LINE
  5
139E74
  8
OBJECT
 10
11918.0
 20
-549.99999999999955
 30
0.0
 11
12082.0
 21
-549.99999999999955
 31
0.0
1001
ACDBBLOCKREPETAG
1070
     1
1071
       74
1005
139E74
  0
LINE
  5
139E75
  8
OBJECT
 10
12082.0
 20
-570.99999999999955
 30
0.0
 11
11918.0
 21
-570.99999999999955
 31
0.0
1001
ACDBBLOCKREPETAG
1070
     1
1071
       75
1005
139E75
  0
LINE
  5
139E76
  8
OBJECT
 10
11920.79408171202
 20
-549.99999999999955
 30
0.0
 11
11920.79408171202
 21
-570.99999999999955
 31
0.0
1001
ACDBBLOCKREPETAG
1070
     1
1071
       76
1005
139E76
  0
LINE
  5
139E77
  8
OBJECT
 10
11928.737896000001
 20
-549.99999999999955
 30
0.0
 11
11928.737896000001
 21
-570.99999999999955
 31
0.0
1001
ACDBBLOCKREPETAG
1070
     1
1071
       77
1005
139E77
  0
LINE
  5
139E78
  8
OBJECT
 10
11970.833026
 20
-549.99999999999955
 30
0.0
 11
11970.833026
 21
-570.99999999999955
 31
0.0
1001
ACDBBLOCKREPETAG
1070
     1
1071
       78
1005
139E78
  0
LINE
  5
139E79
  8
OBJECT
 10
11978.7768389218
 20
-549.99999999999955
 30
0.0
 11
11978.7768389218
 21
-570.99999999999955
 31
0.0
1001
ACDBBLOCKREPETAG
1070
     1
1071
       79
1005
139E79
  0
LINE
  5
139E7A
  8
OBJECT
 10
12082.0
 20
-570.99999999999955
 30
0.0
 11
12082.0
 21
-549.99999999999955
 31
0.0
1001
ACDBBLOCKREPETAG
1070
     1
1071
       80
1005
139E7A
  0
LINE
  5
139E7B
  8
OBJECT
 10
12079.205918287969
 20
-549.99999999999955
 30
0.0
 11
12079.205918287969
 21
-570.99999999999955
 31
0.0
1001
ACDBBLOCKREPETAG
1070
     1
1071
       81
1005
139E7B
  0
LINE
  5
139E7C
  8
OBJECT
 10
12071.262103999999
 20
-549.99999999999955
 30
0.0
 11
12071.262103999999
 21
-570.99999999999955
 31
0.0
1001
ACDBBLOCKREPETAG
1070
     1
1071
       82
1005
139E7C
  0
LINE
  5
139E7D
  8
OBJECT
 10
12029.166974
 20
-549.99999999999955
 30
0.0
 11
12029.166974
 21
-570.99999999999955
 31
0.0
1001
ACDBBLOCKREPETAG
1070
     1
1071
       83
1005
139E7D
  0
LINE
  5
139E7E
  8
OBJECT
 10
12021.2231610782
 20
-549.99999999999955
 30
0.0
 11
12021.2231610782
 21
-570.99999999999955
 31
0.0
1001
ACDBBLOCKREPETAG
1070
     1
1071
       84
1005
139E7E
  0
ARC
  5
139E7F
  8
OBJECT
 10
12200.687274671671
 20
-749.40809941010718
 30
0.0
 40
170.6350503965856
 50
137.44134459184301
 51
149.91949581337221
1001
ACDBBLOCKREPETAG
1070
     1
1071
       85
1005
139E7F
  0
ARC
  5
139E80
  8
OBJECT
 10
12200.687274671671
 20
-642.59190058989179
 30
0.0
 40
170.6350503965856
 50
210.08050418662771
 51
222.55865540815699
1001
ACDBBLOCKREPETAG
1070
     1
1071
       86
1005
139E80
  0
ARC
  5
139E81
  8
OBJECT
 10
11799.312725328329
 20
-749.40809941010718
 30
0.0
 40
170.6350503965856
 50
30.08050418668418
 51
42.558655408347391
1001
ACDBBLOCKREPETAG
1070
     1
1071
       87
1005
139E81
  0
ARC
  5
139E82
  8
OBJECT
 10
11799.312725328329
 20
-642.59190058989179
 30
0.0
 40
170.6350503965856
 50
317.44134459165258
 51
329.91949581331568
1001
ACDBBLOCKREPETAG
1070
     1
1071
       88
1005
139E82
  0
POINT
  5
139E83
  8
DOTS
 10
12000.0
 20
-754.99999999999955
 30
0.0
1001
ACDBBLOCKREPETAG
1070
     1
1071
      202
1005
139E83
  0
ARC
  5
139E84
  8
OBJECT
 10
12000.0
 20
-199.99999999999909
 30
0.0
 40
77.0
 50
292.25886900009442
 51
337.74113100019838
1001
ACDBBLOCKREPETAG
1070
     1
1071
      169
1005
139E84
  0
LINE
  5
139E85
  8
SLIM
 10
11945.256670426101
 20
-137.99999999999909
 30
0.0
 11
11955.954840369581
 21
-127.30183005652231
 31
0.0
1001
GRADIENTCOLOR1ACI
1070
     5
1001
GRADIENTCOLOR2ACI
1070
     2
1001
ACAD
1010
0.0
1020
0.0
1030
0.0
1001
ACDBBLOCKREPETAG
1070
     1
1071
      403
1005
139E85
  0
LINE
  5
139E86
  8
SLIM
 10
11954.23692654717
 20
-137.99999999999909
 30
0.0
 11
11972.75077447633
 21
-119.4861520708364
 31
0.0
1001
GRADIENTCOLOR1ACI
1070
     5
1001
GRADIENTCOLOR2ACI
1070
     2
1001
ACAD
1010
0.0
1020
0.0
1030
0.0
1001
ACDBBLOCKREPETAG
1070
     1
1071
      404
1005
139E86
  0
LINE
  5
139E87
  8
SLIM
 10
11980.98109123123
 20
-120.2360914370078
 30
0.0
 11
11984.857514674861
 21
-116.359667993377
 31
0.0
1001
GRADIENTCOLOR1ACI
1070
     5
1001
GRADIENTCOLOR2ACI
1070
     2
1001
ACAD
1010
0.0
1020
0.0
1030
0.0
1001
ACDBBLOCKREPETAG
1070
     1
1071
      405
1005
139E87
  0
LINE
  5
139E88
  8
SLIM
 10
11991.78488845058
 20
-118.412550338727
 30
0.0
 11
11995.05338120025
 21
-115.1440575890517
 31
0.0
1001
GRADIENTCOLOR1ACI
1070
     5
1001
GRADIENTCOLOR2ACI
1070
     2
1001
ACAD
1010
0.0
1020
0.0
1030
0.0
1001
ACDBBLOCKREPETAG
1070
     1
1071
      406
1005
139E88
  0
LINE
  5
139E89
  8
SLIM
 10
12001.169356711331
 20
-118.0083381990472
 30
0.0
 11
12004.0797313529
 21
-115.0979635574724
 31
0.0
1001
GRADIENTCOLOR1ACI
1070
     5
1001
GRADIENTCOLOR2ACI
1070
     2
1001
ACAD
1010
0.0
1020
0.0
1030
0.0
1001
ACDBBLOCKREPETAG
1070
     1
1071
      407
1005
139E89
  0
LINE
  5
139E8A
  8
SLIM
 10
12009.59468708876
 20
-118.5632639426843
 30
0.0
 11
12012.267978410569
 21
-115.88997262087101
 31
0.0
1001
GRADIENTCOLOR1ACI
1070
     5
1001
GRADIENTCOLOR2ACI
1070
     2
1001
ACAD
1010
0.0
1020
0.0
1030
0.0
1001
ACDBBLOCKREPETAG
1070
     1
1071
      408
1005
139E8A
  0
LINE
  5
139E8B
  8
SLIM
 10
12017.293827793021
 20
-119.84437935949001
 30
0.0
 11
12019.799941457361
 21
-117.3382656951527
 31
0.0
1001
GRADIENTCOLOR1ACI
1070
     5
1001
GRADIENTCOLOR2ACI
1070
     2
1001
ACAD
1010
0.0
1020
0.0
1030
0.0
1001
ACDBBLOCKREPETAG
1070
     1
1071
      409
1005
139E8B
  0
LINE
  5
139E8C
  8
SLIM
 10
12023.27377163679
 20
-122.8446916367926
 30
0.0
 11
12026.787203867279
 21
-119.3312594063044
 31
0.0
1001
GRADIENTCOLOR1ACI
1070
     5
1001
GRADIENTCOLOR2ACI
1070
     2
1001
ACAD
1010
0.0
1020
0.0
1030
0.0
1001
ACDBBLOCKREPETAG
1070
     1
1071
      410
1005
139E8C
  0
LINE
  5
139E8D
  8
SLIM
 10
12027.76389969732
 20
-127.33481969732929
 30
0.0
 11
12033.303003076029
 21
-121.7957163186195
 31
0.0
1001
GRADIENTCOLOR1ACI
1070
     5
1001
GRADIENTCOLOR2ACI
1070
     2
1001
ACAD
1010
0.0
1020
0.0
1030
0.0
1001
ACDBBLOCKREPETAG
1070
     1
1071
      411
1005
139E8D
  0
LINE
  5
139E8E
  8
SLIM
 10
12033.43909865133
 20
-130.63987686439191
 30
0.0
 11
12039.397311984379
 21
-124.681663531344
 31
0.0
1001
GRADIENTCOLOR1ACI
1070
     5
1001
GRADIENTCOLOR2ACI
1070
     2
1001
ACAD
1010
0.0
1020
0.0
1030
0.0
1001
ACDBBLOCKREPETAG
1070
     1
1071
      412
1005
139E8E
  0
LINE
  5
139E8F
  8
SLIM
 10
12039.284224621801
 20
-133.77500701499321
 30
0.0
 11
12045.10477053437
 21
-127.95446110242381
 31
0.0
1001
GRADIENTCOLOR1ACI
1070
     5
1001
GRADIENTCOLOR2ACI
1070
     2
1001
ACAD
1010
0.0
1020
0.0
1030
0.0
1001
ACDBBLOCKREPETAG
1070
     1
1071
      413
1005
139E8F
  0
LINE
  5
139E90
  8
SLIM
 10
12044.721280169801
 20
-137.31820758805651
 30
0.0
 11
12050.449155789191
 21
-131.59033196866449
 31
0.0
1001
GRADIENTCOLOR1ACI
1070
     5
1001
GRADIENTCOLOR2ACI
1070
     2
1001
ACAD
1010
0.0
1020
0.0
1030
0.0
1001
ACDBBLOCKREPETAG
1070
     1
1071
      414
1005
139E90
  0
LINE
  5
139E91
  8
SLIM
 10
12053.01974387892
 20
-137.99999999999909
 30
0.0
 11
12055.445994186401
 21
-135.57374969252561
 31
0.0
1001
GRADIENTCOLOR1ACI
1070
     5
1001
GRADIENTCOLOR2ACI
1070
     2
1001
ACAD
1010
0.0
1020
0.0
1030
0.0
1001
ACDBBLOCKREPETAG
1070
     1
1071
      415
1005
139E91
  0
ARC
  5
139E92
  8
OBJECT
 10
12000.0
 20
-199.99999999999909
 30
0.0
 40
77.0
 50
112.25886900009441
 51
157.74113100019829
1001
ACDBBLOCKREPETAG
1070
     1
1071
      170
1005
139E92
  0
ARC
  5
139E93
  8
OBJECT
 10
12000.0
 20
-199.99999999999909
 30
0.0
 40
77.0
 50
22.258868999801621
 51
67.741130999905565
1001
ACDBBLOCKREPETAG
1070
     1
1071
      172
1005
139E93
  0
CIRCLE
  5
139E94
  8
OBJECT
 10
12000.0
 20
-199.99999999999909
 30
0.0
 40
70.0
1001
ACDBBLOCKREPETAG
1070
     1
1071
      173
1005
139E94
  0
LINE
  5
139E95
  8
OBJECT
 10
12029.16697499998
 20
-271.26210499999888
 30
0.0
 11
12021.223162444099
 21
-279.20591755589248
 31
0.0
1001
ACDBBLOCKREPETAG
1070
     1
1071
      174
1005
139E95
  0
LINE
  5
139E96
  8
OBJECT
 10
11970.833026
 20
-271.26210499999888
 30
0.0
 11
11978.77683892192
 21
-279.20591792191681
 31
0.0
1001
ACDBBLOCKREPETAG
1070
     1
1071
      175
1005
139E96
  0
ARC
  5
139E97
  8
OBJECT
 10
12000.0
 20
-199.99999999999909
 30
0.0
 40
82.000000000000014
 50
255.00000044864069
 51
285.00000053969438
1001
ACDBBLOCKREPETAG
1070
     1
1071
      176
1005
139E97
  0
LINE
  5
139E98
  8
OBJECT
 10
11928.737896000001
 20
-229.1669739999989
 30
0.0
 11
11920.794081712051
 21
-221.2231597120545
 31
0.0
1001
ACDBBLOCKREPETAG
1070
     1
1071
      177
1005
139E98
  0
ARC
  5
139E99
  8
OBJECT
 10
12000.0
 20
-199.99999999999909
 30
0.0
 40
82.000000000000014
 50
165.00000044874901
 51
194.9999985630001
1001
ACDBBLOCKREPETAG
1070
     1
1071
      178
1005
139E99
  0
LINE
  5
139E9A
  8
OBJECT
 10
11970.833026
 20
-128.7378949999993
 30
0.0
 11
11978.77683892192
 21
-120.7940820780795
 31
0.0
1001
ACDBBLOCKREPETAG
1070
     1
1071
      179
1005
139E9A
  0
ARC
  5
139E9B
  8
OBJECT
 10
12000.0
 20
-199.99999999999909
 30
0.0
 40
82.000000000000014
 50
74.999999460305631
 51
104.99999955135929
1001
ACDBBLOCKREPETAG
1070
     1
1071
      180
1005
139E9B
  0
LINE
  5
139E9C
  8
OBJECT
 10
12029.16697499998
 20
-128.7378949999993
 30
0.0
 11
12021.223162444099
 21
-120.79408244410391
 31
0.0
1001
ACDBBLOCKREPETAG
1070
     1
1071
      181
1005
139E9C
  0
LINE
  5
139E9D
  8
OBJECT
 10
11962.402059
 20
-161.93893300000039
 30
0.0
 11
12037.08411027142
 21
-174.5180316957439
 31
0.0
1001
ACDBBLOCKREPETAG
1070
     1
1071
      182
1005
139E9D
  0
LINE
  5
139E9E
  8
OBJECT
 10
12044.093656999999
 20
-169.70149399999991
 30
0.0
 11
12037.08411027142
 21
-174.5180316957439
 31
0.0
1001
ACDBBLOCKREPETAG
1070
     1
1071
      183
1005
139E9E
  0
LINE
  5
139E9F
  8
OBJECT
 10
11928.737896000001
 20
-170.833024999999
 30
0.0
 11
11920.79408207808
 21
-178.77683892191911
 31
0.0
1001
ACDBBLOCKREPETAG
1070
     1
1071
      184
1005
139E9F
  0
CIRCLE
  5
139EA0
  8
OBJECT
 10
12000.0
 20
-199.99999999999909
 30
0.0
 40
53.500000000000007
1001
ACDBBLOCKREPETAG
1070
     1
1071
      185
1005
139EA0
  0
ARC
  5
139EA1
  8
OBJECT
 10
12000.0
 20
-199.99999999999909
 30
0.0
 40
50.0
 50
131.70180964351781
 51
168.52376955953341
1001
ACDBBLOCKREPETAG
1070
     1
1071
      186
1005
139EA1
  0
ARC
  5
139EA2
  8
OBJECT
 10
12000.0
 20
-199.99999999999909
 30
0.0
 40
50.0
 50
238.8199429999047
 51
34.49450625011707
1001
ACDBBLOCKREPETAG
1070
     1
1071
      187
1005
139EA2
  0
LINE
  5
139EA3
  8
OBJECT
 10
12071.262104999991
 20
-170.833024999999
 30
0.0
 11
12079.20591755589
 21
-178.77683755589439
 31
0.0
1001
ACDBBLOCKREPETAG
1070
     1
1071
      188
1005
139EA3
  0
ARC
  5
139EA4
  8
OBJECT
 10
12000.0
 20
-199.99999999999909
 30
0.0
 40
82.000000000000014
 50
345.00000044874901
 51
15.000000539345651
1001
ACDBBLOCKREPETAG
1070
     1
1071
      189
1005
139EA4
  0
LINE
  5
139EA5
  8
OBJECT
 10
12071.262104999991
 20
-229.1669739999989
 30
0.0
 11
12079.20591792192
 21
-221.2231610780791
 31
0.0
1001
ACDBBLOCKREPETAG
1070
     1
1071
      190
1005
139EA5
  0
LINE
  5
139EA6
  8
OBJECT
 10
12045.661800227321
 20
-137.99999999999909
 30
0.0
 11
12080.0
 21
-137.99999999999909
 31
0.0
1001
ACDBBLOCKREPETAG
1070
     1
1071
      191
1005
139EA6
  0
LINE
  5
139EA7
  8
OBJECT
 10
12062.0
 20
-261.99999999999909
 30
0.0
 11
12080.0
 21
-261.99999999999909
 31
0.0
1001
ACDBBLOCKREPETAG
1070
     1
1071
      192
1005
139EA7
  0
LINE
  5
139EA8
  8
OBJECT
 10
12062.0
 20
-261.99999999999909
 30
0.0
 11
12062.0
 21
-279.99999999999909
 31
0.0
1001
ACDBBLOCKREPETAG
1070
     1
1071
      194
1005
139EA8
  0
LINE
  5
139EA9
  8
OBJECT
 10
11938.0
 20
-261.99999999999909
 30
0.0
 11
11938.0
 21
-279.99999999999909
 31
0.0
1001
ACDBBLOCKREPETAG
1070
     1
1071
      195
1005
139EA9
  0
LINE
  5
139EAA
  8
OBJECT
 10
11938.0
 20
-261.99999999999909
 30
0.0
 11
11920.0
 21
-261.99999999999909
 31
0.0
1001
ACDBBLOCKREPETAG
1070
     1
1071
      197
1005
139EAA
  0
LINE
  5
139EAB
  8
OBJECT
 10
11954.33819977267
 20
-137.99999999999909
 30
0.0
 11
11920.0
 21
-137.99999999999909
 31
0.0
1001
ACDBBLOCKREPETAG
1070
     1
1071
      198
1005
139EAB
  0
LINE
  5
139EAC
  8
CENTER
 10
12080.0
 20
-199.99999999999909
 30
0.0
 11
11920.0
 21
-199.99999999999909
 31
0.0
1001
ACDBBLOCKREPETAG
1070
     1
1071
      207
1005
139EAC
  0
LINE
  5
139EAD
  8
CENTER
 10
12000.0
 20
-279.99999999999909
 30
0.0
 11
12000.0
 21
-99.999999999999091
 31
0.0
1001
ACDBBLOCKREPETAG
1070
     1
1071
      208
1005
139EAD
  0
LINE
  5
139EAE
  8
OBJECT
 10
11945.55277784863
 20
-254.44722215136329
 30
0.0
 11
11938.0
 21
-261.99999999999909
 31
0.0
1001
ACDBBLOCKREPETAG
1070
     1
1071
      209
1005
139EAE
  0
LINE
  5
139EAF
  8
OBJECT
 10
12054.447222151361
 20
-254.44722215136329
 30
0.0
 11
12062.0
 21
-261.99999999999909
 31
0.0
1001
ACDBBLOCKREPETAG
1070
     1
1071
      210
1005
139EAF
  0
ARC
  5
139EB0
  8
OBJECT
 10
12000.0
 20
-199.99999999999909
 30
0.0
 40
85.0
 50
46.837102859844251
 51
133.16289714015571
1001
ACDBBLOCKREPETAG
1070
     1
1071
      211
1005
139EB0
  0
LINE
  5
139EB1
  8
OBJECT
 10
11946.69219414375
 20
-195.46638161316051
 30
0.0
 11
11970.45403438563
 21
-193.79865146436981
 31
0.0
1001
ACDBBLOCKREPETAG
1070
     1
1071
      333
1005
139EB1
  0
LINE
  5
139EB2
  8
OBJECT
 10
11947.385434727061
 20
-190.305593971766
 30
0.0
 11
11966.9884352629
 21
-188.92975272660161
 31
0.0
1001
ACDBBLOCKREPETAG
1070
     1
1071
      334
1005
139EB2
  0
LINE
  5
139EB3
  8
OBJECT
 10
11974.11353747527
 20
-242.77722592637201
 30
0.0
 11
11982.136698837399
 21
-234.1690987954708
 31
0.0
1001
ACDBBLOCKREPETAG
1070
     1
1071
      335
1005
139EB3
  0
ARC
  5
139EB4
  8
OBJECT
 10
11982.116007124539
 20
-183.28188966318251
 30
0.0
 40
60.031113246032611
 50
254.07020130412749
 51
262.33936106086588
1001
ACDBBLOCKREPETAG
1070
     1
1071
      336
1005
139EB4
  0
LINE
  5
139EB5
  8
OBJECT
 10
11977.612599732511
 20
-197.67495277149911
 30
0.0
 11
11982.136698837399
 21
-234.1690987954708
 31
0.0
1001
ACDBBLOCKREPETAG
1070
     1
1071
      337
1005
139EB5
  0
ARC
  5
139EB6
  8
OBJECT
 10
11967.688565345639
 20
-198.90521351131881
 30
0.0
 40
10.0
 50
7.0667782929989968
 51
94.014734370532395
1001
ACDBBLOCKREPETAG
1070
     1
1071
      338
1005
139EB6
  0
ARC
  5
139EB7
  8
OBJECT
 10
11970.94412537097
 20
-200.78147401875589
 30
0.0
 40
7.0
 50
7.0667782929989968
 51
94.014733775014648
1001
ACDBBLOCKREPETAG
1070
     1
1071
      339
1005
139EB7
  0
POINT
  5
139EB8
  8
DOTS
 10
12000.0
 20
-199.99999999999909
 30
0.0
 50
270.0
1001
ACDBBLOCKREPETAG
1070
     1
1071
      348
1005
139EB8
  0
ARC
  5
139EB9
  8
OBJECT
 10
12000.0
 20
-199.99999999999909
 30
0.0
 40
77.0
 50
202.25886899980159
 51
247.74113099990561
1001
ACDBBLOCKREPETAG
1070
     1
1071
      166
1005
139EB9
  0
LINE
  5
139EBA
  8
OBJECT
 10
12212.99999999998
 20
-553.0000000000008
 30
0.0
 11
12219.99999999998
 21
-553.0000000000008
 31
0.0
1001
ACDBBLOCKREPETAG
1070
     1
1071
      106
1005
139EBA
  0
LINE
  5
139EBB
  8
OBJECT
 10
12219.99999999998
 20
-553.0000000000008
 30
0.0
 11
12219.99999999998
 21
-677.0000000000008
 31
0.0
1001
ACDBBLOCKREPETAG
1070
     1
1071
      107
1005
139EBB
  0
LINE
  5
139EBC
  8
OBJECT
 10
12085.99999999998
 20
-653.3502637757274
 30
0.0
 11
12085.99999999998
 21
-755.00000000000102
 31
0.0
1001
ACDBBLOCKREPETAG
1070
     1
1071
      108
1005
139EBC
  0
LINE
  5
139EBD
  8
OBJECT
 10
12219.99999999998
 20
-677.0000000000008
 30
0.0
 11
12212.99999999998
 21
-677.0000000000008
 31
0.0
1001
ACDBBLOCKREPETAG
1070
     1
1071
      109
1005
139EBD
  0
LINE
  5
139EBE
  8
OBJECT
 10
12212.99999999998
 20
-677.0000000000008
 30
0.0
 11
12212.99999999998
 21
-553.0000000000008
 31
0.0
1001
ACDBBLOCKREPETAG
1070
     1
1071
      110
1005
139EBE
  0
LINE
  5
139EBF
  8
CENTER
 10
12144.99999999998
 20
-615.0000000000008
 30
0.0
 11
12234.99999999998
 21
-615.0000000000008
 31
0.0
1001
ACDBBLOCKREPETAG
1070
     1
1071
      111
1005
139EBF
  0
LINE
  5
139EC0
  8
OBJECT
 10
12079.99999999998
 20
-758.0
 30
0.0
 11
12082.99999999998
 21
-758.0000000000008
 31
0.0
1001
ACDBBLOCKREPETAG
1070
     1
1071
      112
1005
139EC0
  0
ARC
  5
139EC1
  8
OBJECT
 10
12082.99999999998
 20
-755.00000000000102
 30
0.0
 40
3.0
 50
270.0
 51
0.0
1001
ACDBBLOCKREPETAG
1070
     1
1071
      113
1005
139EC1
  0
LINE
  5
139EC2
  8
OBJECT
 10
12212.99999999998
 20
-556.0000000000008
 30
0.0
 11
12176.99999999998
 21
-556.0000000000008
 31
0.0
1001
ACDBBLOCKREPETAG
1070
     1
1071
      114
1005
139EC2
  0
LINE
  5
139EC3
  8
OBJECT
 10
12176.99999999998
 20
-556.0000000000008
 30
0.0
 11
12176.99999999998
 21
-653.15756805667843
 31
0.0
1001
ACDBBLOCKREPETAG
1070
     1
1071
      115
1005
139EC3
  0
LINE
  5
139EC4
  8
OBJECT
 10
12172.99999999998
 20
-560.5000000000008
 30
0.0
 11
12172.99999999998
 21
-645.74491827928705
 31
0.0
1001
ACDBBLOCKREPETAG
1070
     1
1071
      116
1005
139EC4
  0
LINE
  5
139EC5
  8
OBJECT
 10
12172.99999999998
 20
-560.5000000000008
 30
0.0
 11
12159.99999999998
 21
-560.5000000000008
 31
0.0
1001
ACDBBLOCKREPETAG
1070
     1
1071
      117
1005
139EC5
  0
LINE
  5
139EC6
  8
OBJECT
 10
12168.656316825471
 20
-674.0000000000008
 30
0.0
 11
12212.99999999998
 21
-674.0000000000008
 31
0.0
1001
ACDBBLOCKREPETAG
1070
     1
1071
      118
1005
139EC6
  0
LINE
  5
139EC7
  8
OBJECT
 10
12176.99999999998
 20
-556.0000000000008
 30
0.0
 11
12172.99999999998
 21
-560.5000000000008
 31
0.0
1001
ACDBBLOCKREPETAG
1070
     1
1071
      119
1005
139EC7
  0
LINE
  5
139EC8
  8
OBJECT
 10
12159.99999999998
 20
-560.5000000000008
 30
0.0
 11
12159.99999999998
 21
-645.74491827928784
 31
0.0
1001
ACDBBLOCKREPETAG
1070
     1
1071
      120
1005
139EC8
  0
ARC
  5
139EC9
  8
OBJECT
 10
12091.99999999998
 20
-637.27386365609345
 30
0.0
 40
85.0
 50
308.59099323720869
 51
334.4008612781347
1001
ACDBBLOCKREPETAG
1070
     1
1071
      121
1005
139EC9
  0
ARC
  5
139ECA
  8
OBJECT
 10
12162.799999999979
 20
-655.00000000000068
 30
0.0
 40
85.0
 50
91.887731891831123
 51
160.07406787456929
1001
ACDBBLOCKREPETAG
1070
     1
1071
      122
1005
139ECA
  0
LINE
  5
139ECB
  8
OBJECT
 10
12085.99999999998
 20
-750.81075719270905
 30
0.0
 11
12145.0193225436
 21
-703.71143914629454
 31
0.0
1001
ACDBBLOCKREPETAG
1070
     1
1071
      123
1005
139ECB
  0
LINE
  5
139ECC
  8
OBJECT
 10
12172.99999999998
 20
-645.74491827928705
 30
0.0
 11
12159.99999999998
 21
-645.74491827928784
 31
0.0
1001
ACDBBLOCKREPETAG
1070
     1
1071
      124
1005
139ECC
  0
LINE
  5
139ECD
  8
OBJECT
 10
12176.99999999998
 20
-653.15756805667843
 30
0.0
 11
12172.99999999998
 21
-645.74491827928705
 31
0.0
1001
ACDBBLOCKREPETAG
1070
     1
1071
      125
1005
139ECD
  0
LINE
  5
139ECE
  8
OBJECT
 10
12080.00000000002
 20
-634.0
 30
0.0
 11
12082.888612159621
 21
-626.03156729425325
 31
0.0
1001
ACDBBLOCKREPETAG
1070
     1
1071
      126
1005
139ECE
  0
LINE
  5
139ECF
  8
OBJECT
 10
12080.00000000002
 20
-634.0
 30
0.0
 11
12085.99999999998
 21
-653.3502637757274
 31
0.0
1001
ACDBBLOCKREPETAG
1070
     1
1071
      127
1005
139ECF
  0
LINE
  5
139ED0
  8
HIDDEN
 10
12167.99999999998
 20
-570.5000000000008
 30
0.0
 11
12167.99999999998
 21
-659.50000000000068
 31
0.0
1001
ACDBBLOCKREPETAG
1070
     1
1071
      129
1005
139ED0
  0
LINE
  5
139ED1
  8
OBJECT
 10
12212.99999999998
 20
-137.99999999999909
 30
0.0
 11
12219.99999999998
 21
-137.99999999999909
 31
0.0
1001
ACDBBLOCKREPETAG
1070
     1
1071
      110
1005
139ED1
  0
LINE
  5
139ED2
  8
OBJECT
 10
12219.99999999998
 20
-137.99999999999909
 30
0.0
 11
12219.99999999998
 21
-261.99999999999909
 31
0.0
1001
ACDBBLOCKREPETAG
1070
     1
1071
      111
1005
139ED2
  0
LINE
  5
139ED3
  8
OBJECT
 10
12219.99999999998
 20
-261.99999999999909
 30
0.0
 11
12212.99999999998
 21
-261.99999999999909
 31
0.0
1001
ACDBBLOCKREPETAG
1070
     1
1071
      112
1005
139ED3
  0
LINE
  5
139ED4
  8
OBJECT
 10
12212.99999999998
 20
-261.99999999999909
 30
0.0
 11
12212.99999999998
 21
-137.99999999999909
 31
0.0
1001
ACDBBLOCKREPETAG
1070
     1
1071
      113
1005
139ED4
  0
LINE
  5
139ED5
  8
CENTER
 10
12234.99999999998
 20
-199.99999999999909
 30
0.0
 11
12080.0
 21
-199.99999999999909
 31
0.0
1001
ACDBBLOCKREPETAG
1070
     1
1071
      114
1005
139ED5
  0
LINE
  5
139ED6
  8
OBJECT
 10
12159.999974964179
 20
-245.0000000000027
 30
0.0
 11
12086.0
 21
-244.99999999999909
 31
0.0
1001
ACDBBLOCKREPETAG
1070
     1
1071
      115
1005
139ED6
  0
LINE
  5
139ED7
  8
OBJECT
 10
12159.999974964179
 20
-154.99999999999909
 30
0.0
 11
12086.0
 21
-154.99999999999909
 31
0.0
1001
ACDBBLOCKREPETAG
1070
     1
1071
      116
1005
139ED7
  0
LINE
  5
139ED8
  8
OBJECT
 10
12212.99999999998
 20
-140.99999999999909
 30
0.0
 11
12176.99999999998
 21
-140.99999999999909
 31
0.0
1001
ACDBBLOCKREPETAG
1070
     1
1071
      117
1005
139ED8
  0
LINE
  5
139ED9
  8
OBJECT
 10
12176.99999999998
 20
-140.99999999999909
 30
0.0
 11
12176.99999999998
 21
-258.99999999999909
 31
0.0
1001
ACDBBLOCKREPETAG
1070
     1
1071
      118
1005
139ED9
  0
LINE
  5
139EDA
  8
OBJECT
 10
12176.99999999998
 20
-258.99999999999909
 30
0.0
 11
12212.99999999998
 21
-258.99999999999909
 31
0.0
1001
ACDBBLOCKREPETAG
1070
     1
1071
      119
1005
139EDA
  0
LINE
  5
139EDB
  8
OBJECT
 10
12172.99999999998
 20
-145.49999999999909
 30
0.0
 11
12159.99999999998
 21
-145.49999999999909
 31
0.0
1001
ACDBBLOCKREPETAG
1070
     1
1071
      120
1005
139EDB
  0
LINE
  5
139EDC
  8
OBJECT
 10
12159.99999999998
 20
-254.49999999999909
 30
0.0
 11
12172.99999999998
 21
-254.49999999999909
 31
0.0
1001
ACDBBLOCKREPETAG
1070
     1
1071
      121
1005
139EDC
  0
LINE
  5
139EDD
  8
OBJECT
 10
12172.99999999998
 20
-254.49999999999909
 30
0.0
 11
12172.99999999998
 21
-145.49999999999909
 31
0.0
1001
ACDBBLOCKREPETAG
1070
     1
1071
      122
1005
139EDD
  0
LINE
  5
139EDE
  8
OBJECT
 10
12176.99999999998
 20
-140.99999999999909
 30
0.0
 11
12172.99999999998
 21
-145.49999999999909
 31
0.0
1001
ACDBBLOCKREPETAG
1070
     1
1071
      123
1005
139EDE
  0
LINE
  5
139EDF
  8
OBJECT
 10
12176.99999999998
 20
-258.99999999999909
 30
0.0
 11
12172.99999999998
 21
-254.49999999999909
 31
0.0
1001
ACDBBLOCKREPETAG
1070
     1
1071
      124
1005
139EDF
  0
LINE
  5
139EE0
  8
OBJECT
 10
12083.0
 20
-137.99999999999909
 30
0.0
 11
12080.0
 21
-137.99999999999909
 31
0.0
1001
ACDBBLOCKREPETAG
1070
     1
1071
      125
1005
139EE0
  0
ARC
  5
139EE1
  8
OBJECT
 10
12083.0
 20
-140.99999999999909
 30
0.0
 40
3.0
 50
0.0
 51
90.0
1001
ACDBBLOCKREPETAG
1070
     1
1071
      126
1005
139EE1
  0
LINE
  5
139EE2
  8
OBJECT
 10
12080.0
 20
-261.99999999999909
 30
0.0
 11
12083.0
 21
-261.99999999999909
 31
0.0
1001
ACDBBLOCKREPETAG
1070
     1
1071
      127
1005
139EE2
  0
ARC
  5
139EE3
  8
OBJECT
 10
12083.0
 20
-258.99999999999909
 30
0.0
 40
3.0
 50
270.0
 51
0.0
1001
ACDBBLOCKREPETAG
1070
     1
1071
      128
1005
139EE3
  0
LINE
  5
139EE4
  8
OBJECT
 10
12086.0
 20
-258.99999999999909
 30
0.0
 11
12086.0
 21
-222.44994432063581
 31
0.0
1001
ACDBBLOCKREPETAG
1070
     1
1071
      129
1005
139EE4
  0
LINE
  5
139EE5
  8
OBJECT
 10
12086.0
 20
-177.55005567935859
 30
0.0
 11
12086.0
 21
-140.99999999999909
 31
0.0
1001
ACDBBLOCKREPETAG
1070
     1
1071
      130
1005
139EE5
  0
LINE
  5
139EE6
  8
HIDDEN
 10
12167.99999999998
 20
-155.49999999999909
 30
0.0
 11
12167.99999999998
 21
-244.49999999999909
 31
0.0
1001
ACDBBLOCKREPETAG
1070
     1
1071
      131
1005
139EE6
  0
LINE
  5
139EE7
  8
OBJECT
 10
12159.999974964179
 20
-254.4999509238105
 30
0.0
 11
12159.999974964179
 21
-145.4999509238105
 31
0.0
1001
ACDBBLOCKREPETAG
1070
     1
1071
      133
1005
139EE7
  0
ARC
  5
139EE8
  8
OBJECT
 10
12125.0
 20
-199.99999999999909
 30
0.0
 40
45.000000000000547
 50
90.0
 51
166.2158024759261
1001
ACDBBLOCKREPETAG
1070
     1
1071
      134
1005
139EE8
  0
ARC
  5
139EE9
  8
OBJECT
 10
12125.0
 20
-199.99999999999909
 30
0.0
 40
45.000000000000547
 50
193.78421279332531
 51
270.0
1001
ACDBBLOCKREPETAG
1070
     1
1071
      402
1005
139EE9
  0
LINE
  5
139EEA
  8
OBJECT
 10
9787.0000000000127
 20
-553.0
 30
0.0
 11
9780.0000000000127
 21
-553.0
 31
0.0
1001
ACDBBLOCKREPETAG
1070
     1
1071
      106
1005
139EEA
  0
LINE
  5
139EEB
  8
OBJECT
 10
9780.0000000000127
 20
-553.0
 30
0.0
 11
9780.0000000000127
 21
-677.0
 31
0.0
1001
ACDBBLOCKREPETAG
1070
     1
1071
      107
1005
139EEB
  0
LINE
  5
139EEC
  8
OBJECT
 10
9914.0000000000127
 20
-653.3502637757274
 30
0.0
 11
9914.0000000000127
 21
-755.00000000000102
 31
0.0
1001
ACDBBLOCKREPETAG
1070
     1
1071
      108
1005
139EEC
  0
LINE
  5
139EED
  8
OBJECT
 10
9780.0000000000127
 20
-677.0
 30
0.0
 11
9787.0000000000127
 21
-677.0
 31
0.0
1001
ACDBBLOCKREPETAG
1070
     1
1071
      109
1005
139EED
  0
LINE
  5
139EEE
  8
OBJECT
 10
9787.0000000000127
 20
-677.0
 30
0.0
 11
9787.0000000000127
 21
-553.0
 31
0.0
1001
ACDBBLOCKREPETAG
1070
     1
1071
      110
1005
139EEE
  0
LINE
  5
139EEF
  8
CENTER
 10
9855.0000000000182
 20
-615.0000000000008
 30
0.0
 11
9765.0000000000146
 21
-615.0
 31
0.0
1001
ACDBBLOCKREPETAG
1070
     1
1071
      111
1005
139EEF
  0
LINE
  5
139EF0
  8
OBJECT
 10
9920.0000000000182
 20
-758.0
 30
0.0
 11
9917.0000000000146
 21
-758.0000000000008
 31
0.0
1001
ACDBBLOCKREPETAG
1070
     1
1071
      112
1005
139EF0
  0
ARC
  5
139EF1
  8
OBJECT
 10
9917.0000000000146
 20
-755.00000000000102
 30
0.0
 40
3.0
 50
180.0
 51
270.0
1001
ACDBBLOCKREPETAG
1070
     1
1071
      113
1005
139EF1
  0
LINE
  5
139EF2
  8
OBJECT
 10
9787.0000000000127
 20
-556.0
 30
0.0
 11
9823.0000000000146
 21
-556.0000000000008
 31
0.0
1001
ACDBBLOCKREPETAG
1070
     1
1071
      114
1005
139EF2
  0
LINE
  5
139EF3
  8
OBJECT
 10
9823.0000000000146
 20
-556.0000000000008
 30
0.0
 11
9823.0000000000146
 21
-653.15756805667843
 31
0.0
1001
ACDBBLOCKREPETAG
1070
     1
1071
      115
1005
139EF3
  0
LINE
  5
139EF4
  8
OBJECT
 10
9827.0000000000127
 20
-560.5000000000008
 30
0.0
 11
9827.0000000000182
 21
-645.74491827928705
 31
0.0
1001
ACDBBLOCKREPETAG
1070
     1
1071
      116
1005
139EF4
  0
LINE
  5
139EF5
  8
OBJECT
 10
9827.0000000000127
 20
-560.5000000000008
 30
0.0
 11
9840.0000000000146
 21
-560.5000000000008
 31
0.0
1001
ACDBBLOCKREPETAG
1070
     1
1071
      117
1005
139EF5
  0
LINE
  5
139EF6
  8
OBJECT
 10
9831.3436831745348
 20
-674.0000000000008
 30
0.0
 11
9787.0000000000127
 21
-674.0
 31
0.0
1001
ACDBBLOCKREPETAG
1070
     1
1071
      118
1005
139EF6
  0
LINE
  5
139EF7
  8
OBJECT
 10
9823.0000000000146
 20
-556.0000000000008
 30
0.0
 11
9827.0000000000127
 21
-560.5000000000008
 31
0.0
1001
ACDBBLOCKREPETAG
1070
     1
1071
      119
1005
139EF7
  0
LINE
  5
139EF8
  8
OBJECT
 10
9840.0000000000146
 20
-560.5000000000008
 30
0.0
 11
9840.0000000000146
 21
-645.74491827928784
 31
0.0
1001
ACDBBLOCKREPETAG
1070
     1
1071
      120
1005
139EF8
  0
ARC
  5
139EF9
  8
OBJECT
 10
9908.0000000000127
 20
-637.27386365609345
 30
0.0
 40
85.0
 50
205.5991387218653
 51
231.40900676279119
1001
ACDBBLOCKREPETAG
1070
     1
1071
      121
1005
139EF9
  0
ARC
  5
139EFA
  8
OBJECT
 10
9837.2000000000171
 20
-655.00000000000068
 30
0.0
 40
85.0
 50
19.925932125430649
 51
88.112268108168848
1001
ACDBBLOCKREPETAG
1070
     1
1071
      122
1005
139EFA
  0
LINE
  5
139EFB
  8
OBJECT
 10
9914.0000000000127
 20
-750.81075719270905
 30
0.0
 11
9854.9806774563986
 21
-703.71143914629454
 31
0.0
1001
ACDBBLOCKREPETAG
1070
     1
1071
      123
1005
139EFB
  0
LINE
  5
139EFC
  8
OBJECT
 10
9827.0000000000182
 20
-645.74491827928705
 30
0.0
 11
9840.0000000000146
 21
-645.74491827928784
 31
0.0
1001
ACDBBLOCKREPETAG
1070
     1
1071
      124
1005
139EFC
  0
LINE
  5
139EFD
  8
OBJECT
 10
9823.0000000000146
 20
-653.15756805667843
 30
0.0
 11
9827.0000000000182
 21
-645.74491827928705
 31
0.0
1001
ACDBBLOCKREPETAG
1070
     1
1071
      125
1005
139EFD
  0
LINE
  5
139EFE
  8
OBJECT
 10
9919.99999999998
 20
-634.0
 30
0.0
 11
9917.1113878403758
 21
-626.03156729425325
 31
0.0
1001
ACDBBLOCKREPETAG
1070
     1
1071
      126
1005
139EFE
  0
LINE
  5
139EFF
  8
OBJECT
 10
9919.99999999998
 20
-634.0
 30
0.0
 11
9914.0000000000127
 21
-653.3502637757274
 31
0.0
1001
ACDBBLOCKREPETAG
1070
     1
1071
      127
1005
139EFF
  0
LINE
  5
139F00
  8
HIDDEN
 10
9832.0000000000146
 20
-570.5000000000008
 30
0.0
 11
9832.0000000000146
 21
-659.50000000000068
 31
0.0
1001
ACDBBLOCKREPETAG
1070
     1
1071
      129
1005
139F00
  0
CIRCLE
  5
139F01
  8
OBJECT
 10
10000.0
 20
-696.0
 30
0.0
 40
62.0
1001
ACDBBLOCKREPETAG
1070
     1
1071
        0
1005
139F01
  0
LINE
  5
139F02
  8
OBJECT
 10
9787.00000000002
 20
-137.99999999999909
 30
0.0
 11
9780.0000000000182
 21
-137.99999999999909
 31
0.0
1001
ACDBBLOCKREPETAG
1070
     1
1071
      110
1005
139F02
  0
LINE
  5
139F03
  8
OBJECT
 10
9780.0000000000182
 20
-137.99999999999909
 30
0.0
 11
9780.0000000000182
 21
-261.99999999999909
 31
0.0
1001
ACDBBLOCKREPETAG
1070
     1
1071
      111
1005
139F03
  0
LINE
  5
139F04
  8
OBJECT
 10
9780.0000000000182
 20
-261.99999999999909
 30
0.0
 11
9787.00000000002
 21
-261.99999999999909
 31
0.0
1001
ACDBBLOCKREPETAG
1070
     1
1071
      112
1005
139F04
  0
LINE
  5
139F05
  8
OBJECT
 10
9787.00000000002
 20
-261.99999999999909
 30
0.0
 11
9787.00000000002
 21
-137.99999999999909
 31
0.0
1001
ACDBBLOCKREPETAG
1070
     1
1071
      113
1005
139F05
  0
LINE
  5
139F06
  8
CENTER
 10
9765.0000000000218
 20
-199.99999999999909
 30
0.0
 11
9920.0
 21
-199.99999999999909
 31
0.0
1001
ACDBBLOCKREPETAG
1070
     1
1071
      114
1005
139F06
  0
LINE
  5
139F07
  8
OBJECT
 10
9840.0000250358207
 20
-245.0000000000027
 30
0.0
 11
9914.0000000000055
 21
-244.99999999999909
 31
0.0
1001
ACDBBLOCKREPETAG
1070
     1
1071
      115
1005
139F07
  0
LINE
  5
139F08
  8
OBJECT
 10
9840.0000250358207
 20
-154.99999999999909
 30
0.0
 11
9914.0000000000055
 21
-154.99999999999909
 31
0.0
1001
ACDBBLOCKREPETAG
1070
     1
1071
      116
1005
139F08
  0
LINE
  5
139F09
  8
OBJECT
 10
9787.00000000002
 20
-140.99999999999909
 30
0.0
 11
9823.0000000000182
 21
-140.99999999999909
 31
0.0
1001
ACDBBLOCKREPETAG
1070
     1
1071
      117
1005
139F09
  0
LINE
  5
139F0A
  8
OBJECT
 10
9823.0000000000182
 20
-140.99999999999909
 30
0.0
 11
9823.0000000000182
 21
-258.99999999999909
 31
0.0
1001
ACDBBLOCKREPETAG
1070
     1
1071
      118
1005
139F0A
  0
LINE
  5
139F0B
  8
OBJECT
 10
9823.0000000000182
 20
-258.99999999999909
 30
0.0
 11
9787.00000000002
 21
-258.99999999999909
 31
0.0
1001
ACDBBLOCKREPETAG
1070
     1
1071
      119
1005
139F0B
  0
LINE
  5
139F0C
  8
OBJECT
 10
9827.0000000000182
 20
-145.49999999999909
 30
0.0
 11
9840.0000000000182
 21
-145.49999999999909
 31
0.0
1001
ACDBBLOCKREPETAG
1070
     1
1071
      120
1005
139F0C
  0
LINE
  5
139F0D
  8
OBJECT
 10
9840.0000000000182
 20
-254.49999999999909
 30
0.0
 11
9827.0000000000182
 21
-254.49999999999909
 31
0.0
1001
ACDBBLOCKREPETAG
1070
     1
1071
      121
1005
139F0D
  0
LINE
  5
139F0E
  8
OBJECT
 10
9827.0000000000182
 20
-254.49999999999909
 30
0.0
 11
9827.0000000000182
 21
-145.49999999999909
 31
0.0
1001
ACDBBLOCKREPETAG
1070
     1
1071
      122
1005
139F0E
  0
LINE
  5
139F0F
  8
OBJECT
 10
9823.0000000000182
 20
-140.99999999999909
 30
0.0
 11
9827.0000000000182
 21
-145.49999999999909
 31
0.0
1001
ACDBBLOCKREPETAG
1070
     1
1071
      123
1005
139F0F
  0
LINE
  5
139F10
  8
OBJECT
 10
9823.0000000000182
 20
-258.99999999999909
 30
0.0
 11
9827.0000000000182
 21
-254.49999999999909
 31
0.0
1001
ACDBBLOCKREPETAG
1070
     1
1071
      124
1005
139F10
  0
LINE
  5
139F11
  8
OBJECT
 10
9917.0000000000055
 20
-137.99999999999909
 30
0.0
 11
9920.0000000000055
 21
-137.99999999999909
 31
0.0
1001
ACDBBLOCKREPETAG
1070
     1
1071
      125
1005
139F11
  0
ARC
  5
139F12
  8
OBJECT
 10
9917.0000000000055
 20
-140.99999999999909
 30
0.0
 40
3.0
 50
90.0
 51
180.0
1001
ACDBBLOCKREPETAG
1070
     1
1071
      126
1005
139F12
  0
LINE
  5
139F13
  8
OBJECT
 10
9920.0000000000055
 20
-261.99999999999909
 30
0.0
 11
9917.0000000000055
 21
-261.99999999999909
 31
0.0
1001
ACDBBLOCKREPETAG
1070
     1
1071
      127
1005
139F13
  0
ARC
  5
139F14
  8
OBJECT
 10
9917.0000000000055
 20
-258.99999999999909
 30
0.0
 40
3.0
 50
180.0
 51
270.0
1001
ACDBBLOCKREPETAG
1070
     1
1071
      128
1005
139F14
  0
LINE
  5
139F15
  8
OBJECT
 10
9914.0000000000055
 20
-258.99999999999909
 30
0.0
 11
9914.0000000000055
 21
-222.44994432063581
 31
0.0
1001
ACDBBLOCKREPETAG
1070
     1
1071
      129
1005
139F15
  0
LINE
  5
139F16
  8
OBJECT
 10
9914.0000000000055
 20
-177.55005567935859
 30
0.0
 11
9914.0000000000055
 21
-140.99999999999909
 31
0.0
1001
ACDBBLOCKREPETAG
1070
     1
1071
      130
1005
139F16
  0
LINE
  5
139F17
  8
HIDDEN
 10
9832.0000000000182
 20
-155.49999999999909
 30
0.0
 11
9832.0000000000182
 21
-244.49999999999909
 31
0.0
1001
ACDBBLOCKREPETAG
1070
     1
1071
      131
1005
139F17
  0
LINE
  5
139F18
  8
OBJECT
 10
9840.0000250358207
 20
-254.4999509238105
 30
0.0
 11
9840.0000250358207
 21
-145.4999509238105
 31
0.0
1001
ACDBBLOCKREPETAG
1070
     1
1071
      133
1005
139F18
  0
ARC
  5
139F19
  8
OBJECT
 10
9875.0
 20
-199.99999999999909
 30
0.0
 40
45.000000000000547
 50
270.0
 51
346.21579484130518
1001
ACDBBLOCKREPETAG
1070
     1
1071
      134
1005
139F19
  0
ARC
  5
139F1A
  8
OBJECT
 10
9875.0
 20
-199.99999999999909
 30
0.0
 40
45.000000000000547
 50
13.78420515869484
 51
90.0
1001
ACDBBLOCKREPETAG
1070
     1
1071
      402
1005
139F1A
  0
LINE
  5
139F1B
  8
CENTER
 10
10000.0
 20
-300.99999999999898
 30
0.0
 11
10000.0
 21
-279.99999999999909
 31
0.0
1001
ACDBBLOCKREPETAG
1070
     1
1071
        0
1005
139F1B
  0
LINE
  5
139F1C
  8
OBJECT
 10
10062.0
 20
-283.0
 30
0.0
 11
10062.0
 21
-279.99999999999909
 31
0.0
1001
ACDBBLOCKREPETAG
1070
     1
1071
        1
1005
139F1C
  0
ARC
  5
139F1D
  8
OBJECT
 10
10059.0
 20
-283.0
 30
0.0
 40
3.0
 50
270.0
 51
0.0
1001
ACDBBLOCKREPETAG
1070
     1
1071
        2
1005
139F1D
  0
LINE
  5
139F1E
  8
OBJECT
 10
9938.0
 20
-279.99999999999909
 30
0.0
 11
9938.0
 21
-282.99999999999818
 31
0.0
1001
ACDBBLOCKREPETAG
1070
     1
1071
        3
1005
139F1E
  0
ARC
  5
139F1F
  8
OBJECT
 10
9941.0
 20
-282.99999999999818
 30
0.0
 40
3.0
 50
180.0
 51
270.0
1001
ACDBBLOCKREPETAG
1070
     1
1071
        4
1005
139F1F
  0
LINE
  5
139F20
  8
OBJECT
 10
9941.0
 20
-285.99999999999818
 30
0.0
 11
10059.0
 21
-286.0
 31
0.0
1001
ACDBBLOCKREPETAG
1070
     1
1071
        5
1005
139F20
  0
LINE
  5
139F21
  8
HIDDEN
 10
9943.0
 20
-619.99999999999955
 30
0.0
 11
10057.0
 21
-619.99999999999955
 31
0.0
1001
ACDBBLOCKREPETAG
1070
     1
1071
       57
1005
139F21
  0
LINE
  5
139F22
  8
CENTER
 10
10000.0
 20
-534.99999999999955
 30
0.0
 11
10000.0
 21
-899.99999999999955
 31
0.0
1001
ACDBBLOCKREPETAG
1070
     1
1071
       58
1005
139F22
  0
LINE
  5
139F23
  8
OBJECT
 10
9928.0
 20
-570.99999999999955
 30
0.0
 11
9928.0
 21
-633.99999999999955
 31
0.0
1001
ACDBBLOCKREPETAG
1070
     1
1071
       59
1005
139F23
  0
LINE
  5
139F24
  8
OBJECT
 10
10072.0
 20
-633.99999999999955
 30
0.0
 11
10072.0
 21
-570.99999999999955
 31
0.0
1001
ACDBBLOCKREPETAG
1070
     1
1071
       60
1005
139F24
  0
LINE
  5
139F25
  8
OBJECT
 10
9920.0
 20
-887.99999999999955
 30
0.0
 11
10080.0
 21
-887.99999999999955
 31
0.0
1001
ACDBBLOCKREPETAG
1070
     1
1071
       61
1005
139F25
  0
LINE
  5
139F26
  8
OBJECT
 10
10080.0
 20
-633.99999999999955
 30
0.0
 11
9920.0
 21
-633.99999999999955
 31
0.0
1001
ACDBBLOCKREPETAG
1070
     1
1071
       62
1005
139F26
  0
LINE
  5
139F27
  8
OBJECT
 10
9920.0
 20
-887.99999999999955
 30
0.0
 11
9920.0
 21
-899.99999999999955
 31
0.0
1001
ACDBBLOCKREPETAG
1070
     1
1071
       63
1005
139F27
  0
LINE
  5
139F28
  8
OBJECT
 10
9920.0
 20
-899.99999999999955
 30
0.0
 11
10080.0
 21
-899.99999999999955
 31
0.0
1001
ACDBBLOCKREPETAG
1070
     1
1071
       64
1005
139F28
  0
LINE
  5
139F29
  8
OBJECT
 10
10080.0
 20
-899.99999999999955
 30
0.0
 11
10080.0
 21
-887.99999999999955
 31
0.0
1001
ACDBBLOCKREPETAG
1070
     1
1071
       65
1005
139F29
  0
LINE
  5
139F2A
  8
OBJECT
 10
10074.99999999986
 20
-757.99999999985016
 30
0.0
 11
10075.0
 21
-887.99999999999955
 31
0.0
1001
ACDBBLOCKREPETAG
1070
     1
1071
       69
1005
139F2A
  0
LINE
  5
139F2B
  8
OBJECT
 10
10074.99999080298
 20
-757.99998602702112
 30
0.0
 11
10080.0
 21
-757.99998602702112
 31
0.0
1001
ACDBBLOCKREPETAG
1070
     1
1071
       70
1005
139F2B
  0
LINE
  5
139F2C
  8
OBJECT
 10
9925.0000000001382
 20
-757.99999999985016
 30
0.0
 11
9925.0
 21
-887.99999999999955
 31
0.0
1001
ACDBBLOCKREPETAG
1070
     1
1071
       71
1005
139F2C
  0
LINE
  5
139F2D
  8
OBJECT
 10
9925.0000091970142
 20
-757.99998602702112
 30
0.0
 11
9920.0
 21
-757.99998602702112
 31
0.0
1001
ACDBBLOCKREPETAG
1070
     1
1071
       72
1005
139F2D
  0
LINE
  5
139F2E
  8
OBJECT
 10
9918.0
 20
-570.99999999999955
 30
0.0
 11
9918.0
 21
-549.99999999999955
 31
0.0
1001
ACDBBLOCKREPETAG
1070
     1
1071
       73
1005
139F2E
  0
LINE
  5
139F2F
  8
OBJECT
 10
9918.0
 20
-549.99999999999955
 30
0.0
 11
10082.0
 21
-549.99999999999955
 31
0.0
1001
ACDBBLOCKREPETAG
1070
     1
1071
       74
1005
139F2F
  0
LINE
  5
139F30
  8
OBJECT
 10
10082.0
 20
-570.99999999999955
 30
0.0
 11
9918.0
 21
-570.99999999999955
 31
0.0
1001
ACDBBLOCKREPETAG
1070
     1
1071
       75
1005
139F30
  0
LINE
  5
139F31
  8
OBJECT
 10
9920.7940817120234
 20
-549.99999999999955
 30
0.0
 11
9920.7940817120234
 21
-570.99999999999955
 31
0.0
1001
ACDBBLOCKREPETAG
1070
     1
1071
       76
1005
139F31
  0
LINE
  5
139F32
  8
OBJECT
 10
9928.7378959999969
 20
-549.99999999999955
 30
0.0
 11
9928.7378959999969
 21
-570.99999999999955
 31
0.0
1001
ACDBBLOCKREPETAG
1070
     1
1071
       77
1005
139F32
  0
LINE
  5
139F33
  8
OBJECT
 10
9970.8330260000002
 20
-549.99999999999955
 30
0.0
 11
9970.8330260000002
 21
-570.99999999999955
 31
0.0
1001
ACDBBLOCKREPETAG
1070
     1
1071
       78
1005
139F33
  0
LINE
  5
139F34
  8
OBJECT
 10
9978.7768389218036
 20
-549.99999999999955
 30
0.0
 11
9978.7768389218036
 21
-570.99999999999955
 31
0.0
1001
ACDBBLOCKREPETAG
1070
     1
1071
       79
1005
139F34
  0
LINE
  5
139F35
  8
OBJECT
 10
10082.0
 20
-570.99999999999955
 30
0.0
 11
10082.0
 21
-549.99999999999955
 31
0.0
1001
ACDBBLOCKREPETAG
1070
     1
1071
       80
1005
139F35
  0
LINE
  5
139F36
  8
OBJECT
 10
10079.205918287969
 20
-549.99999999999955
 30
0.0
 11
10079.205918287969
 21
-570.99999999999955
 31
0.0
1001
ACDBBLOCKREPETAG
1070
     1
1071
       81
1005
139F36
  0
LINE
  5
139F37
  8
OBJECT
 10
10071.262103999999
 20
-549.99999999999955
 30
0.0
 11
10071.262103999999
 21
-570.99999999999955
 31
0.0
1001
ACDBBLOCKREPETAG
1070
     1
1071
       82
1005
139F37
  0
LINE
  5
139F38
  8
OBJECT
 10
10029.166974
 20
-549.99999999999955
 30
0.0
 11
10029.166974
 21
-570.99999999999955
 31
0.0
1001
ACDBBLOCKREPETAG
1070
     1
1071
       83
1005
139F38
  0
LINE
  5
139F39
  8
OBJECT
 10
10021.2231610782
 20
-549.99999999999955
 30
0.0
 11
10021.2231610782
 21
-570.99999999999955
 31
0.0
1001
ACDBBLOCKREPETAG
1070
     1
1071
       84
1005
139F39
  0
ARC
  5
139F3A
  8
OBJECT
 10
10200.687274671671
 20
-749.40809941010718
 30
0.0
 40
170.6350503965856
 50
137.44134459184301
 51
149.91949581337221
1001
ACDBBLOCKREPETAG
1070
     1
1071
       85
1005
139F3A
  0
ARC
  5
139F3B
  8
OBJECT
 10
10200.687274671671
 20
-642.59190058989179
 30
0.0
 40
170.6350503965856
 50
210.08050418662771
 51
222.55865540815699
1001
ACDBBLOCKREPETAG
1070
     1
1071
       86
1005
139F3B
  0
ARC
  5
139F3C
  8
OBJECT
 10
9799.3127253283274
 20
-749.40809941010718
 30
0.0
 40
170.6350503965856
 50
30.08050418668418
 51
42.558655408347391
1001
ACDBBLOCKREPETAG
1070
     1
1071
       87
1005
139F3C
  0
ARC
  5
139F3D
  8
OBJECT
 10
9799.3127253283274
 20
-642.59190058989179
 30
0.0
 40
170.6350503965856
 50
317.44134459165258
 51
329.91949581331568
1001
ACDBBLOCKREPETAG
1070
     1
1071
       88
1005
139F3D
  0
POINT
  5
139F3E
  8
DOTS
 10
10000.0
 20
-754.99999999999955
 30
0.0
1001
ACDBBLOCKREPETAG
1070
     1
1071
      202
1005
139F3E
  0
ARC
  5
139F3F
  8
OBJECT
 10
10000.0
 20
-199.99999999999909
 30
0.0
 40
77.0
 50
292.25886900009442
 51
337.74113100019838
1001
ACDBBLOCKREPETAG
1070
     1
1071
      169
1005
139F3F
  0
LINE
  5
139F40
  8
SLIM
 10
9945.2566704261044
 20
-137.99999999999909
 30
0.0
 11
9955.9548403695771
 21
-127.30183005652231
 31
0.0
1001
GRADIENTCOLOR1ACI
1070
     5
1001
GRADIENTCOLOR2ACI
1070
     2
1001
ACAD
1010
0.0
1020
0.0
1030
0.0
1001
ACDBBLOCKREPETAG
1070
     1
1071
      403
1005
139F40
  0
LINE
  5
139F41
  8
SLIM
 10
9954.2369265471734
 20
-137.99999999999909
 30
0.0
 11
9972.7507744763316
 21
-119.4861520708364
 31
0.0
1001
GRADIENTCOLOR1ACI
1070
     5
1001
GRADIENTCOLOR2ACI
1070
     2
1001
ACAD
1010
0.0
1020
0.0
1030
0.0
1001
ACDBBLOCKREPETAG
1070
     1
1071
      404
1005
139F41
  0
LINE
  5
139F42
  8
SLIM
 10
9980.9810912312314
 20
-120.2360914370078
 30
0.0
 11
9984.8575146748644
 21
-116.359667993377
 31
0.0
1001
GRADIENTCOLOR1ACI
1070
     5
1001
GRADIENTCOLOR2ACI
1070
     2
1001
ACAD
1010
0.0
1020
0.0
1030
0.0
1001
ACDBBLOCKREPETAG
1070
     1
1071
      405
1005
139F42
  0
LINE
  5
139F43
  8
SLIM
 10
9991.7848884505802
 20
-118.412550338727
 30
0.0
 11
9995.0533812002577
 21
-115.1440575890517
 31
0.0
1001
GRADIENTCOLOR1ACI
1070
     5
1001
GRADIENTCOLOR2ACI
1070
     2
1001
ACAD
1010
0.0
1020
0.0
1030
0.0
1001
ACDBBLOCKREPETAG
1070
     1
1071
      406
1005
139F43
  0
LINE
  5
139F44
  8
SLIM
 10
10001.169356711331
 20
-118.0083381990472
 30
0.0
 11
10004.0797313529
 21
-115.0979635574724
 31
0.0
1001
GRADIENTCOLOR1ACI
1070
     5
1001
GRADIENTCOLOR2ACI
1070
     2
1001
ACAD
1010
0.0
1020
0.0
1030
0.0
1001
ACDBBLOCKREPETAG
1070
     1
1071
      407
1005
139F44
  0
LINE
  5
139F45
  8
SLIM
 10
10009.59468708876
 20
-118.5632639426843
 30
0.0
 11
10012.26797841056
 21
-115.88997262087101
 31
0.0
1001
GRADIENTCOLOR1ACI
1070
     5
1001
GRADIENTCOLOR2ACI
1070
     2
1001
ACAD
1010
0.0
1020
0.0
1030
0.0
1001
ACDBBLOCKREPETAG
1070
     1
1071
      408
1005
139F45
  0
LINE
  5
139F46
  8
SLIM
 10
10017.293827793021
 20
-119.84437935949001
 30
0.0
 11
10019.799941457361
 21
-117.3382656951527
 31
0.0
1001
GRADIENTCOLOR1ACI
1070
     5
1001
GRADIENTCOLOR2ACI
1070
     2
1001
ACAD
1010
0.0
1020
0.0
1030
0.0
1001
ACDBBLOCKREPETAG
1070
     1
1071
      409
1005
139F46
  0
LINE
  5
139F47
  8
SLIM
 10
10023.27377163679
 20
-122.8446916367926
 30
0.0
 11
10026.787203867279
 21
-119.3312594063044
 31
0.0
1001
GRADIENTCOLOR1ACI
1070
     5
1001
GRADIENTCOLOR2ACI
1070
     2
1001
ACAD
1010
0.0
1020
0.0
1030
0.0
1001
ACDBBLOCKREPETAG
1070
     1
1071
      410
1005
139F47
  0
LINE
  5
139F48
  8
SLIM
 10
10027.76389969732
 20
-127.33481969732929
 30
0.0
 11
10033.303003076029
 21
-121.7957163186195
 31
0.0
1001
GRADIENTCOLOR1ACI
1070
     5
1001
GRADIENTCOLOR2ACI
1070
     2
1001
ACAD
1010
0.0
1020
0.0
1030
0.0
1001
ACDBBLOCKREPETAG
1070
     1
1071
      411
1005
139F48
  0
LINE
  5
139F49
  8
SLIM
 10
10033.43909865133
 20
-130.63987686439191
 30
0.0
 11
10039.39731198437
 21
-124.681663531344
 31
0.0
1001
GRADIENTCOLOR1ACI
1070
     5
1001
GRADIENTCOLOR2ACI
1070
     2
1001
ACAD
1010
0.0
1020
0.0
1030
0.0
1001
ACDBBLOCKREPETAG
1070
     1
1071
      412
1005
139F49
  0
LINE
  5
139F4A
  8
SLIM
 10
10039.284224621801
 20
-133.77500701499321
 30
0.0
 11
10045.104770534361
 21
-127.95446110242381
 31
0.0
1001
GRADIENTCOLOR1ACI
1070
     5
1001
GRADIENTCOLOR2ACI
1070
     2
1001
ACAD
1010
0.0
1020
0.0
1030
0.0
1001
ACDBBLOCKREPETAG
1070
     1
1071
      413
1005
139F4A
  0
LINE
  5
139F4B
  8
SLIM
 10
10044.721280169801
 20
-137.31820758805651
 30
0.0
 11
10050.449155789191
 21
-131.59033196866449
 31
0.0
1001
GRADIENTCOLOR1ACI
1070
     5
1001
GRADIENTCOLOR2ACI
1070
     2
1001
ACAD
1010
0.0
1020
0.0
1030
0.0
1001
ACDBBLOCKREPETAG
1070
     1
1071
      414
1005
139F4B
  0
LINE
  5
139F4C
  8
SLIM
 10
10053.019743878929
 20
-137.99999999999909
 30
0.0
 11
10055.445994186401
 21
-135.57374969252561
 31
0.0
1001
GRADIENTCOLOR1ACI
1070
     5
1001
GRADIENTCOLOR2ACI
1070
     2
1001
ACAD
1010
0.0
1020
0.0
1030
0.0
1001
ACDBBLOCKREPETAG
1070
     1
1071
      415
1005
139F4C
  0
ARC
  5
139F4D
  8
OBJECT
 10
10000.0
 20
-199.99999999999909
 30
0.0
 40
77.0
 50
112.25886900009441
 51
157.74113100019829
1001
ACDBBLOCKREPETAG
1070
     1
1071
      170
1005
139F4D
  0
ARC
  5
139F4E
  8
OBJECT
 10
10000.0
 20
-199.99999999999909
 30
0.0
 40
77.0
 50
22.258868999801621
 51
67.741130999905565
1001
ACDBBLOCKREPETAG
1070
     1
1071
      172
1005
139F4E
  0
CIRCLE
  5
139F4F
  8
OBJECT
 10
10000.0
 20
-199.99999999999909
 30
0.0
 40
70.0
1001
ACDBBLOCKREPETAG
1070
     1
1071
      173
1005
139F4F
  0
LINE
  5
139F50
  8
OBJECT
 10
10029.166974999989
 20
-271.26210499999888
 30
0.0
 11
10021.223162444099
 21
-279.20591755589248
 31
0.0
1001
ACDBBLOCKREPETAG
1070
     1
1071
      174
1005
139F50
  0
LINE
  5
139F51
  8
OBJECT
 10
9970.8330260000002
 20
-271.26210499999888
 30
0.0
 11
9978.77683892192
 21
-279.20591792191681
 31
0.0
1001
ACDBBLOCKREPETAG
1070
     1
1071
      175
1005
139F51
  0
ARC
  5
139F52
  8
OBJECT
 10
10000.0
 20
-199.99999999999909
 30
0.0
 40
82.000000000000014
 50
255.00000044864069
 51
285.00000053969438
1001
ACDBBLOCKREPETAG
1070
     1
1071
      176
1005
139F52
  0
LINE
  5
139F53
  8
OBJECT
 10
9928.7378959999969
 20
-229.1669739999989
 30
0.0
 11
9920.7940817120543
 21
-221.2231597120545
 31
0.0
1001
ACDBBLOCKREPETAG
1070
     1
1071
      177
1005
139F53
  0
ARC
  5
139F54
  8
OBJECT
 10
10000.0
 20
-199.99999999999909
 30
0.0
 40
82.000000000000014
 50
165.00000044874901
 51
194.9999985630001
1001
ACDBBLOCKREPETAG
1070
     1
1071
      178
1005
139F54
  0
LINE
  5
139F55
  8
OBJECT
 10
9970.8330260000002
 20
-128.7378949999993
 30
0.0
 11
9978.77683892192
 21
-120.7940820780795
 31
0.0
1001
ACDBBLOCKREPETAG
1070
     1
1071
      179
1005
139F55
  0
ARC
  5
139F56
  8
OBJECT
 10
10000.0
 20
-199.99999999999909
 30
0.0
 40
82.000000000000014
 50
74.999999460305631
 51
104.99999955135929
1001
ACDBBLOCKREPETAG
1070
     1
1071
      180
1005
139F56
  0
LINE
  5
139F57
  8
OBJECT
 10
10029.166974999989
 20
-128.7378949999993
 30
0.0
 11
10021.223162444099
 21
-120.79408244410391
 31
0.0
1001
ACDBBLOCKREPETAG
1070
     1
1071
      181
1005
139F57
  0
LINE
  5
139F58
  8
OBJECT
 10
9962.402059
 20
-161.93893300000039
 30
0.0
 11
10037.08411027142
 21
-174.5180316957439
 31
0.0
1001
ACDBBLOCKREPETAG
1070
     1
1071
      182
1005
139F58
  0
LINE
  5
139F59
  8
OBJECT
 10
10044.09365699999
 20
-169.70149399999991
 30
0.0
 11
10037.08411027142
 21
-174.5180316957439
 31
0.0
1001
ACDBBLOCKREPETAG
1070
     1
1071
      183
1005
139F59
  0
LINE
  5
139F5A
  8
OBJECT
 10
9928.7378959999969
 20
-170.833024999999
 30
0.0
 11
9920.7940820780805
 21
-178.77683892191911
 31
0.0
1001
ACDBBLOCKREPETAG
1070
     1
1071
      184
1005
139F5A
  0
CIRCLE
  5
139F5B
  8
OBJECT
 10
10000.0
 20
-199.99999999999909
 30
0.0
 40
53.500000000000007
1001
ACDBBLOCKREPETAG
1070
     1
1071
      185
1005
139F5B
  0
ARC
  5
139F5C
  8
OBJECT
 10
10000.0
 20
-199.99999999999909
 30
0.0
 40
50.0
 50
131.70180964351781
 51
168.52376955953341
1001
ACDBBLOCKREPETAG
1070
     1
1071
      186
1005
139F5C
  0
ARC
  5
139F5D
  8
OBJECT
 10
10000.0
 20
-199.99999999999909
 30
0.0
 40
50.0
 50
238.8199429999047
 51
34.49450625011707
1001
ACDBBLOCKREPETAG
1070
     1
1071
      187
1005
139F5D
  0
LINE
  5
139F5E
  8
OBJECT
 10
10071.262104999991
 20
-170.833024999999
 30
0.0
 11
10079.20591755589
 21
-178.77683755589439
 31
0.0
1001
ACDBBLOCKREPETAG
1070
     1
1071
      188
1005
139F5E
  0
ARC
  5
139F5F
  8
OBJECT
 10
10000.0
 20
-199.99999999999909
 30
0.0
 40
82.000000000000014
 50
345.00000044874901
 51
15.000000539345651
1001
ACDBBLOCKREPETAG
1070
     1
1071
      189
1005
139F5F
  0
LINE
  5
139F60
  8
OBJECT
 10
10071.262104999991
 20
-229.1669739999989
 30
0.0
 11
10079.20591792192
 21
-221.2231610780791
 31
0.0
1001
ACDBBLOCKREPETAG
1070
     1
1071
      190
1005
139F60
  0
LINE
  5
139F61
  8
OBJECT
 10
10045.661800227321
 20
-137.99999999999909
 30
0.0
 11
10080.0
 21
-137.99999999999909
 31
0.0
1001
ACDBBLOCKREPETAG
1070
     1
1071
      191
1005
139F61
  0
LINE
  5
139F62
  8
OBJECT
 10
10062.0
 20
-261.99999999999909
 30
0.0
 11
10080.0
 21
-261.99999999999909
 31
0.0
1001
ACDBBLOCKREPETAG
1070
     1
1071
      192
1005
139F62
  0
LINE
  5
139F63
  8
OBJECT
 10
10062.0
 20
-261.99999999999909
 30
0.0
 11
10062.0
 21
-279.99999999999909
 31
0.0
1001
ACDBBLOCKREPETAG
1070
     1
1071
      194
1005
139F63
  0
LINE
  5
139F64
  8
OBJECT
 10
9938.0
 20
-261.99999999999909
 30
0.0
 11
9938.0
 21
-279.99999999999909
 31
0.0
1001
ACDBBLOCKREPETAG
1070
     1
1071
      195
1005
139F64
  0
LINE
  5
139F65
  8
OBJECT
 10
9938.0
 20
-261.99999999999909
 30
0.0
 11
9920.0
 21
-261.99999999999909
 31
0.0
1001
ACDBBLOCKREPETAG
1070
     1
1071
      197
1005
139F65
  0
LINE
  5
139F66
  8
OBJECT
 10
9954.3381997726756
 20
-137.99999999999909
 30
0.0
 11
9920.0
 21
-137.99999999999909
 31
0.0
1001
ACDBBLOCKREPETAG
1070
     1
1071
      198
1005
139F66
  0
LINE
  5
139F67
  8
CENTER
 10
10080.0
 20
-199.99999999999909
 30
0.0
 11
9920.0
 21
-199.99999999999909
 31
0.0
1001
ACDBBLOCKREPETAG
1070
     1
1071
      207
1005
139F67
  0
LINE
  5
139F68
  8
CENTER
 10
10000.0
 20
-279.99999999999909
 30
0.0
 11
10000.0
 21
-99.999999999999091
 31
0.0
1001
ACDBBLOCKREPETAG
1070
     1
1071
      208
1005
139F68
  0
LINE
  5
139F69
  8
OBJECT
 10
9945.5527778486357
 20
-254.44722215136329
 30
0.0
 11
9938.0
 21
-261.99999999999909
 31
0.0
1001
ACDBBLOCKREPETAG
1070
     1
1071
      209
1005
139F69
  0
LINE
  5
139F6A
  8
OBJECT
 10
10054.447222151361
 20
-254.44722215136329
 30
0.0
 11
10062.0
 21
-261.99999999999909
 31
0.0
1001
ACDBBLOCKREPETAG
1070
     1
1071
      210
1005
139F6A
  0
ARC
  5
139F6B
  8
OBJECT
 10
10000.0
 20
-199.99999999999909
 30
0.0
 40
85.0
 50
46.837102859844251
 51
133.16289714015571
1001
ACDBBLOCKREPETAG
1070
     1
1071
      211
1005
139F6B
  0
LINE
  5
139F6C
  8
OBJECT
 10
9946.6921941437577
 20
-195.46638161316051
 30
0.0
 11
9970.4540343856352
 21
-193.79865146436981
 31
0.0
1001
ACDBBLOCKREPETAG
1070
     1
1071
      333
1005
139F6C
  0
LINE
  5
139F6D
  8
OBJECT
 10
9947.3854347270626
 20
-190.305593971766
 30
0.0
 11
9966.9884352628997
 21
-188.92975272660161
 31
0.0
1001
ACDBBLOCKREPETAG
1070
     1
1071
      334
1005
139F6D
  0
LINE
  5
139F6E
  8
OBJECT
 10
9974.1135374752757
 20
-242.77722592637201
 30
0.0
 11
9982.1366988374084
 21
-234.1690987954708
 31
0.0
1001
ACDBBLOCKREPETAG
1070
     1
1071
      335
1005
139F6E
  0
ARC
  5
139F6F
  8
OBJECT
 10
9982.1160071245395
 20
-183.28188966318251
 30
0.0
 40
60.031113246032611
 50
254.07020130412749
 51
262.33936106086588
1001
ACDBBLOCKREPETAG
1070
     1
1071
      336
1005
139F6F
  0
LINE
  5
139F70
  8
OBJECT
 10
9977.6125997325162
 20
-197.67495277149911
 30
0.0
 11
9982.1366988374084
 21
-234.1690987954708
 31
0.0
1001
ACDBBLOCKREPETAG
1070
     1
1071
      337
1005
139F70
  0
ARC
  5
139F71
  8
OBJECT
 10
9967.6885653456393
 20
-198.90521351131881
 30
0.0
 40
10.0
 50
7.0667782929989968
 51
94.014734370532395
1001
ACDBBLOCKREPETAG
1070
     1
1071
      338
1005
139F71
  0
ARC
  5
139F72
  8
OBJECT
 10
9970.9441253709756
 20
-200.78147401875589
 30
0.0
 40
7.0
 50
7.0667782929989968
 51
94.014733775014648
1001
ACDBBLOCKREPETAG
1070
     1
1071
      339
1005
139F72
  0
POINT
  5
139F73
  8
DOTS
 10
10000.0
 20
-199.99999999999909
 30
0.0
 50
270.0
1001
ACDBBLOCKREPETAG
1070
     1
1071
      348
1005
139F73
  0
ARC
  5
139F74
  8
OBJECT
 10
10000.0
 20
-199.99999999999909
 30
0.0
 40
77.0
 50
202.25886899980159
 51
247.74113099990561
1001
ACDBBLOCKREPETAG
1070
     1
1071
      166
1005
139F74
  0
LINE
  5
139F75
  8
OBJECT
 10
10212.99999999998
 20
-553.0000000000008
 30
0.0
 11
10219.99999999998
 21
-553.0000000000008
 31
0.0
1001
ACDBBLOCKREPETAG
1070
     1
1071
      106
1005
139F75
  0
LINE
  5
139F76
  8
OBJECT
 10
10219.99999999998
 20
-553.0000000000008
 30
0.0
 11
10219.99999999998
 21
-677.0000000000008
 31
0.0
1001
ACDBBLOCKREPETAG
1070
     1
1071
      107
1005
139F76
  0
LINE
  5
139F77
  8
OBJECT
 10
10085.99999999998
 20
-653.3502637757274
 30
0.0
 11
10085.99999999998
 21
-755.00000000000102
 31
0.0
1001
ACDBBLOCKREPETAG
1070
     1
1071
      108
1005
139F77
  0
LINE
  5
139F78
  8
OBJECT
 10
10219.99999999998
 20
-677.0000000000008
 30
0.0
 11
10212.99999999998
 21
-677.0000000000008
 31
0.0
1001
ACDBBLOCKREPETAG
1070
     1
1071
      109
1005
139F78
  0
LINE
  5
139F79
  8
OBJECT
 10
10212.99999999998
 20
-677.0000000000008
 30
0.0
 11
10212.99999999998
 21
-553.0000000000008
 31
0.0
1001
ACDBBLOCKREPETAG
1070
     1
1071
      110
1005
139F79
  0
LINE
  5
139F7A
  8
CENTER
 10
10144.99999999998
 20
-615.0000000000008
 30
0.0
 11
10234.99999999998
 21
-615.0000000000008
 31
0.0
1001
ACDBBLOCKREPETAG
1070
     1
1071
      111
1005
139F7A
  0
LINE
  5
139F7B
  8
OBJECT
 10
10079.99999999998
 20
-758.0
 30
0.0
 11
10082.99999999998
 21
-758.0000000000008
 31
0.0
1001
ACDBBLOCKREPETAG
1070
     1
1071
      112
1005
139F7B
  0
ARC
  5
139F7C
  8
OBJECT
 10
10082.99999999998
 20
-755.00000000000102
 30
0.0
 40
3.0
 50
270.0
 51
0.0
1001
ACDBBLOCKREPETAG
1070
     1
1071
      113
1005
139F7C
  0
LINE
  5
139F7D
  8
OBJECT
 10
10212.99999999998
 20
-556.0000000000008
 30
0.0
 11
10176.99999999998
 21
-556.0000000000008
 31
0.0
1001
ACDBBLOCKREPETAG
1070
     1
1071
      114
1005
139F7D
  0
LINE
  5
139F7E
  8
OBJECT
 10
10176.99999999998
 20
-556.0000000000008
 30
0.0
 11
10176.99999999998
 21
-653.15756805667843
 31
0.0
1001
ACDBBLOCKREPETAG
1070
     1
1071
      115
1005
139F7E
  0
LINE
  5
139F7F
  8
OBJECT
 10
10172.99999999998
 20
-560.5000000000008
 30
0.0
 11
10172.99999999998
 21
-645.74491827928705
 31
0.0
1001
ACDBBLOCKREPETAG
1070
     1
1071
      116
1005
139F7F
  0
LINE
  5
139F80
  8
OBJECT
 10
10172.99999999998
 20
-560.5000000000008
 30
0.0
 11
10159.99999999998
 21
-560.5000000000008
 31
0.0
1001
ACDBBLOCKREPETAG
1070
     1
1071
      117
1005
139F80
  0
LINE
  5
139F81
  8
OBJECT
 10
10168.656316825471
 20
-674.0000000000008
 30
0.0
 11
10212.99999999998
 21
-674.0000000000008
 31
0.0
1001
ACDBBLOCKREPETAG
1070
     1
1071
      118
1005
139F81
  0
LINE
  5
139F82
  8
OBJECT
 10
10176.99999999998
 20
-556.0000000000008
 30
0.0
 11
10172.99999999998
 21
-560.5000000000008
 31
0.0
1001
ACDBBLOCKREPETAG
1070
     1
1071
      119
1005
139F82
  0
LINE
  5
139F83
  8
OBJECT
 10
10159.99999999998
 20
-560.5000000000008
 30
0.0
 11
10159.99999999998
 21
-645.74491827928784
 31
0.0
1001
ACDBBLOCKREPETAG
1070
     1
1071
      120
1005
139F83
  0
ARC
  5
139F84
  8
OBJECT
 10
10091.99999999998
 20
-637.27386365609345
 30
0.0
 40
85.0
 50
308.59099323720869
 51
334.4008612781347
1001
ACDBBLOCKREPETAG
1070
     1
1071
      121
1005
139F84
  0
ARC
  5
139F85
  8
OBJECT
 10
10162.799999999979
 20
-655.00000000000068
 30
0.0
 40
85.0
 50
91.887731891831123
 51
160.07406787456929
1001
ACDBBLOCKREPETAG
1070
     1
1071
      122
1005
139F85
  0
LINE
  5
139F86
  8
OBJECT
 10
10085.99999999998
 20
-750.81075719270905
 30
0.0
 11
10145.0193225436
 21
-703.71143914629454
 31
0.0
1001
ACDBBLOCKREPETAG
1070
     1
1071
      123
1005
139F86
  0
LINE
  5
139F87
  8
OBJECT
 10
10172.99999999998
 20
-645.74491827928705
 30
0.0
 11
10159.99999999998
 21
-645.74491827928784
 31
0.0
1001
ACDBBLOCKREPETAG
1070
     1
1071
      124
1005
139F87
  0
LINE
  5
139F88
  8
OBJECT
 10
10176.99999999998
 20
-653.15756805667843
 30
0.0
 11
10172.99999999998
 21
-645.74491827928705
 31
0.0
1001
ACDBBLOCKREPETAG
1070
     1
1071
      125
1005
139F88
  0
LINE
  5
139F89
  8
OBJECT
 10
10080.00000000002
 20
-634.0
 30
0.0
 11
10082.888612159621
 21
-626.03156729425325
 31
0.0
1001
ACDBBLOCKREPETAG
1070
     1
1071
      126
1005
139F89
  0
LINE
  5
139F8A
  8
OBJECT
 10
10080.00000000002
 20
-634.0
 30
0.0
 11
10085.99999999998
 21
-653.3502637757274
 31
0.0
1001
ACDBBLOCKREPETAG
1070
     1
1071
      127
1005
139F8A
  0
LINE
  5
139F8B
  8
HIDDEN
 10
10167.99999999998
 20
-570.5000000000008
 30
0.0
 11
10167.99999999998
 21
-659.50000000000068
 31
0.0
1001
ACDBBLOCKREPETAG
1070
     1
1071
      129
1005
139F8B
  0
LINE
  5
139F8C
  8
OBJECT
 10
10212.99999999998
 20
-137.99999999999909
 30
0.0
 11
10219.99999999998
 21
-137.99999999999909
 31
0.0
1001
ACDBBLOCKREPETAG
1070
     1
1071
      110
1005
139F8C
  0
LINE
  5
139F8D
  8
OBJECT
 10
10219.99999999998
 20
-137.99999999999909
 30
0.0
 11
10219.99999999998
 21
-261.99999999999909
 31
0.0
1001
ACDBBLOCKREPETAG
1070
     1
1071
      111
1005
139F8D
  0
LINE
  5
139F8E
  8
OBJECT
 10
10219.99999999998
 20
-261.99999999999909
 30
0.0
 11
10212.99999999998
 21
-261.99999999999909
 31
0.0
1001
ACDBBLOCKREPETAG
1070
     1
1071
      112
1005
139F8E
  0
LINE
  5
139F8F
  8
OBJECT
 10
10212.99999999998
 20
-261.99999999999909
 30
0.0
 11
10212.99999999998
 21
-137.99999999999909
 31
0.0
1001
ACDBBLOCKREPETAG
1070
     1
1071
      113
1005
139F8F
  0
LINE
  5
139F90
  8
CENTER
 10
10234.99999999998
 20
-199.99999999999909
 30
0.0
 11
10080.0
 21
-199.99999999999909
 31
0.0
1001
ACDBBLOCKREPETAG
1070
     1
1071
      114
1005
139F90
  0
LINE
  5
139F91
  8
OBJECT
 10
10159.999974964179
 20
-245.0000000000027
 30
0.0
 11
10086.0
 21
-244.99999999999909
 31
0.0
1001
ACDBBLOCKREPETAG
1070
     1
1071
      115
1005
139F91
  0
LINE
  5
139F92
  8
OBJECT
 10
10159.999974964179
 20
-154.99999999999909
 30
0.0
 11
10086.0
 21
-154.99999999999909
 31
0.0
1001
ACDBBLOCKREPETAG
1070
     1
1071
      116
1005
139F92
  0
LINE
  5
139F93
  8
OBJECT
 10
10212.99999999998
 20
-140.99999999999909
 30
0.0
 11
10176.99999999998
 21
-140.99999999999909
 31
0.0
1001
ACDBBLOCKREPETAG
1070
     1
1071
      117
1005
139F93
  0
LINE
  5
139F94
  8
OBJECT
 10
10176.99999999998
 20
-140.99999999999909
 30
0.0
 11
10176.99999999998
 21
-258.99999999999909
 31
0.0
1001
ACDBBLOCKREPETAG
1070
     1
1071
      118
1005
139F94
  0
LINE
  5
139F95
  8
OBJECT
 10
10176.99999999998
 20
-258.99999999999909
 30
0.0
 11
10212.99999999998
 21
-258.99999999999909
 31
0.0
1001
ACDBBLOCKREPETAG
1070
     1
1071
      119
1005
139F95
  0
LINE
  5
139F96
  8
OBJECT
 10
10172.99999999998
 20
-145.49999999999909
 30
0.0
 11
10159.99999999998
 21
-145.49999999999909
 31
0.0
1001
ACDBBLOCKREPETAG
1070
     1
1071
      120
1005
139F96
  0
LINE
  5
139F97
  8
OBJECT
 10
10159.99999999998
 20
-254.49999999999909
 30
0.0
 11
10172.99999999998
 21
-254.49999999999909
 31
0.0
1001
ACDBBLOCKREPETAG
1070
     1
1071
      121
1005
139F97
  0
LINE
  5
139F98
  8
OBJECT
 10
10172.99999999998
 20
-254.49999999999909
 30
0.0
 11
10172.99999999998
 21
-145.49999999999909
 31
0.0
1001
ACDBBLOCKREPETAG
1070
     1
1071
      122
1005
139F98
  0
LINE
  5
139F99
  8
OBJECT
 10
10176.99999999998
 20
-140.99999999999909
 30
0.0
 11
10172.99999999998
 21
-145.49999999999909
 31
0.0
1001
ACDBBLOCKREPETAG
1070
     1
1071
      123
1005
139F99
  0
LINE
  5
139F9A
  8
OBJECT
 10
10176.99999999998
 20
-258.99999999999909
 30
0.0
 11
10172.99999999998
 21
-254.49999999999909
 31
0.0
1001
ACDBBLOCKREPETAG
1070
     1
1071
      124
1005
139F9A
  0
LINE
  5
139F9B
  8
OBJECT
 10
10083.0
 20
-137.99999999999909
 30
0.0
 11
10080.0
 21
-137.99999999999909
 31
0.0
1001
ACDBBLOCKREPETAG
1070
     1
1071
      125
1005
139F9B
  0
ARC
  5
139F9C
  8
OBJECT
 10
10083.0
 20
-140.99999999999909
 30
0.0
 40
3.0
 50
0.0
 51
90.0
1001
ACDBBLOCKREPETAG
1070
     1
1071
      126
1005
139F9C
  0
LINE
  5
139F9D
  8
OBJECT
 10
10080.0
 20
-261.99999999999909
 30
0.0
 11
10083.0
 21
-261.99999999999909
 31
0.0
1001
ACDBBLOCKREPETAG
1070
     1
1071
      127
1005
139F9D
  0
ARC
  5
139F9E
  8
OBJECT
 10
10083.0
 20
-258.99999999999909
 30
0.0
 40
3.0
 50
270.0
 51
0.0
1001
ACDBBLOCKREPETAG
1070
     1
1071
      128
1005
139F9E
  0
LINE
  5
139F9F
  8
OBJECT
 10
10086.0
 20
-258.99999999999909
 30
0.0
 11
10086.0
 21
-222.44994432063581
 31
0.0
1001
ACDBBLOCKREPETAG
1070
     1
1071
      129
1005
139F9F
  0
LINE
  5
139FA0
  8
OBJECT
 10
10086.0
 20
-177.55005567935859
 30
0.0
 11
10086.0
 21
-140.99999999999909
 31
0.0
1001
ACDBBLOCKREPETAG
1070
     1
1071
      130
1005
139FA0
  0
LINE
  5
139FA1
  8
HIDDEN
 10
10167.99999999998
 20
-155.49999999999909
 30
0.0
 11
10167.99999999998
 21
-244.49999999999909
 31
0.0
1001
ACDBBLOCKREPETAG
1070
     1
1071
      131
1005
139FA1
  0
LINE
  5
139FA2
  8
OBJECT
 10
10159.999974964179
 20
-254.4999509238105
 30
0.0
 11
10159.999974964179
 21
-145.4999509238105
 31
0.0
1001
ACDBBLOCKREPETAG
1070
     1
1071
      133
1005
139FA2
  0
ARC
  5
139FA3
  8
OBJECT
 10
10125.0
 20
-199.99999999999909
 30
0.0
 40
45.000000000000547
 50
90.0
 51
166.2158024759261
1001
ACDBBLOCKREPETAG
1070
     1
1071
      134
1005
139FA3
  0
ARC
  5
139FA4
  8
OBJECT
 10
10125.0
 20
-199.99999999999909
 30
0.0
 40
45.000000000000547
 50
193.78421279332531
 51
270.0
1001
ACDBBLOCKREPETAG
1070
     1
1071
      402
1005
139FA4
  0
LINE
  5
139FA5
  8
OBJECT
 10
7787.0000000000164
 20
-553.0
 30
0.0
 11
7780.0000000000136
 21
-553.0
 31
0.0
1001
ACDBBLOCKREPETAG
1070
     1
1071
      106
1005
139FA5
  0
LINE
  5
139FA6
  8
OBJECT
 10
7780.0000000000136
 20
-553.0
 30
0.0
 11
7780.0000000000136
 21
-677.0
 31
0.0
1001
ACDBBLOCKREPETAG
1070
     1
1071
      107
1005
139FA6
  0
LINE
  5
139FA7
  8
OBJECT
 10
7914.0000000000136
 20
-653.3502637757274
 30
0.0
 11
7914.0000000000136
 21
-755.00000000000102
 31
0.0
1001
ACDBBLOCKREPETAG
1070
     1
1071
      108
1005
139FA7
  0
LINE
  5
139FA8
  8
OBJECT
 10
7780.0000000000136
 20
-677.0
 30
0.0
 11
7787.0000000000164
 21
-677.0
 31
0.0
1001
ACDBBLOCKREPETAG
1070
     1
1071
      109
1005
139FA8
  0
LINE
  5
139FA9
  8
OBJECT
 10
7787.0000000000164
 20
-677.0
 30
0.0
 11
7787.0000000000164
 21
-553.0
 31
0.0
1001
ACDBBLOCKREPETAG
1070
     1
1071
      110
1005
139FA9
  0
LINE
  5
139FAA
  8
CENTER
 10
7855.0000000000136
 20
-615.0000000000008
 30
0.0
 11
7765.0000000000164
 21
-615.0
 31
0.0
1001
ACDBBLOCKREPETAG
1070
     1
1071
      111
1005
139FAA
  0
LINE
  5
139FAB
  8
OBJECT
 10
7920.0000000000191
 20
-758.0
 30
0.0
 11
7917.0000000000136
 21
-758.0000000000008
 31
0.0
1001
ACDBBLOCKREPETAG
1070
     1
1071
      112
1005
139FAB
  0
ARC
  5
139FAC
  8
OBJECT
 10
7917.0000000000136
 20
-755.00000000000102
 30
0.0
 40
3.0
 50
180.0
 51
270.0
1001
ACDBBLOCKREPETAG
1070
     1
1071
      113
1005
139FAC
  0
LINE
  5
139FAD
  8
OBJECT
 10
7787.0000000000164
 20
-556.0
 30
0.0
 11
7823.0000000000164
 21
-556.0000000000008
 31
0.0
1001
ACDBBLOCKREPETAG
1070
     1
1071
      114
1005
139FAD
  0
LINE
  5
139FAE
  8
OBJECT
 10
7823.0000000000164
 20
-556.0000000000008
 30
0.0
 11
7823.0000000000164
 21
-653.15756805667843
 31
0.0
1001
ACDBBLOCKREPETAG
1070
     1
1071
      115
1005
139FAE
  0
LINE
  5
139FAF
  8
OBJECT
 10
7827.0000000000136
 20
-560.5000000000008
 30
0.0
 11
7827.0000000000191
 21
-645.74491827928705
 31
0.0
1001
ACDBBLOCKREPETAG
1070
     1
1071
      116
1005
139FAF
  0
LINE
  5
139FB0
  8
OBJECT
 10
7827.0000000000136
 20
-560.5000000000008
 30
0.0
 11
7840.0000000000164
 21
-560.5000000000008
 31
0.0
1001
ACDBBLOCKREPETAG
1070
     1
1071
      117
1005
139FB0
  0
LINE
  5
139FB1
  8
OBJECT
 10
7831.3436831745303
 20
-674.0000000000008
 30
0.0
 11
7787.0000000000164
 21
-674.0
 31
0.0
1001
ACDBBLOCKREPETAG
1070
     1
1071
      118
1005
139FB1
  0
LINE
  5
139FB2
  8
OBJECT
 10
7823.0000000000164
 20
-556.0000000000008
 30
0.0
 11
7827.0000000000136
 21
-560.5000000000008
 31
0.0
1001
ACDBBLOCKREPETAG
1070
     1
1071
      119
1005
139FB2
  0
LINE
  5
139FB3
  8
OBJECT
 10
7840.0000000000164
 20
-560.5000000000008
 30
0.0
 11
7840.0000000000164
 21
-645.74491827928784
 31
0.0
1001
ACDBBLOCKREPETAG
1070
     1
1071
      120
1005
139FB3
  0
ARC
  5
139FB4
  8
OBJECT
 10
7908.0000000000136
 20
-637.27386365609345
 30
0.0
 40
85.0
 50
205.5991387218879
 51
231.40900676279119
1001
ACDBBLOCKREPETAG
1070
     1
1071
      121
1005
139FB4
  0
ARC
  5
139FB5
  8
OBJECT
 10
7837.200000000018
 20
-655.00000000000068
 30
0.0
 40
85.0
 50
19.925932125430649
 51
88.112268108168848
1001
ACDBBLOCKREPETAG
1070
     1
1071
      122
1005
139FB5
  0
LINE
  5
139FB6
  8
OBJECT
 10
7914.0000000000136
 20
-750.81075719270905
 30
0.0
 11
7854.9806774563967
 21
-703.71143914629454
 31
0.0
1001
ACDBBLOCKREPETAG
1070
     1
1071
      123
1005
139FB6
  0
LINE
  5
139FB7
  8
OBJECT
 10
7827.0000000000191
 20
-645.74491827928705
 30
0.0
 11
7840.0000000000164
 21
-645.74491827928784
 31
0.0
1001
ACDBBLOCKREPETAG
1070
     1
1071
      124
1005
139FB7
  0
LINE
  5
139FB8
  8
OBJECT
 10
7823.0000000000164
 20
-653.15756805667843
 30
0.0
 11
7827.0000000000191
 21
-645.74491827928705
 31
0.0
1001
ACDBBLOCKREPETAG
1070
     1
1071
      125
1005
139FB8
  0
LINE
  5
139FB9
  8
OBJECT
 10
7919.9999999999818
 20
-634.0
 30
0.0
 11
7917.1113878403776
 21
-626.03156729425325
 31
0.0
1001
ACDBBLOCKREPETAG
1070
     1
1071
      126
1005
139FB9
  0
LINE
  5
139FBA
  8
OBJECT
 10
7919.9999999999818
 20
-634.0
 30
0.0
 11
7914.0000000000136
 21
-653.3502637757274
 31
0.0
1001
ACDBBLOCKREPETAG
1070
     1
1071
      127
1005
139FBA
  0
LINE
  5
139FBB
  8
HIDDEN
 10
7832.0000000000136
 20
-570.5000000000008
 30
0.0
 11
7832.0000000000136
 21
-659.50000000000068
 31
0.0
1001
ACDBBLOCKREPETAG
1070
     1
1071
      129
1005
139FBB
  0
CIRCLE
  5
139FBC
  8
OBJECT
 10
8000.0000000000027
 20
-696.0
 30
0.0
 40
62.0
1001
ACDBBLOCKREPETAG
1070
     1
1071
        0
1005
139FBC
  0
LINE
  5
139FBD
  8
OBJECT
 10
7787.0000000000191
 20
-137.99999999999909
 30
0.0
 11
7780.0000000000191
 21
-137.99999999999909
 31
0.0
1001
ACDBBLOCKREPETAG
1070
     1
1071
      110
1005
139FBD
  0
LINE
  5
139FBE
  8
OBJECT
 10
7780.0000000000191
 20
-137.99999999999909
 30
0.0
 11
7780.0000000000191
 21
-261.99999999999909
 31
0.0
1001
ACDBBLOCKREPETAG
1070
     1
1071
      111
1005
139FBE
  0
LINE
  5
139FBF
  8
OBJECT
 10
7780.0000000000191
 20
-261.99999999999909
 30
0.0
 11
7787.0000000000191
 21
-261.99999999999909
 31
0.0
1001
ACDBBLOCKREPETAG
1070
     1
1071
      112
1005
139FBF
  0
LINE
  5
139FC0
  8
OBJECT
 10
7787.0000000000191
 20
-261.99999999999909
 30
0.0
 11
7787.0000000000191
 21
-137.99999999999909
 31
0.0
1001
ACDBBLOCKREPETAG
1070
     1
1071
      113
1005
139FC0
  0
LINE
  5
139FC1
  8
CENTER
 10
7765.0000000000191
 20
-199.99999999999909
 30
0.0
 11
7920.0000000000027
 21
-199.99999999999909
 31
0.0
1001
ACDBBLOCKREPETAG
1070
     1
1071
      114
1005
139FC1
  0
LINE
  5
139FC2
  8
OBJECT
 10
7840.0000250358171
 20
-245.0000000000027
 30
0.0
 11
7914.0000000000027
 21
-244.99999999999909
 31
0.0
1001
ACDBBLOCKREPETAG
1070
     1
1071
      115
1005
139FC2
  0
LINE
  5
139FC3
  8
OBJECT
 10
7840.0000250358171
 20
-154.99999999999909
 30
0.0
 11
7914.0000000000027
 21
-154.99999999999909
 31
0.0
1001
ACDBBLOCKREPETAG
1070
     1
1071
      116
1005
139FC3
  0
LINE
  5
139FC4
  8
OBJECT
 10
7787.0000000000191
 20
-140.99999999999909
 30
0.0
 11
7823.0000000000191
 21
-140.99999999999909
 31
0.0
1001
ACDBBLOCKREPETAG
1070
     1
1071
      117
1005
139FC4
  0
LINE
  5
139FC5
  8
OBJECT
 10
7823.0000000000191
 20
-140.99999999999909
 30
0.0
 11
7823.0000000000191
 21
-258.99999999999909
 31
0.0
1001
ACDBBLOCKREPETAG
1070
     1
1071
      118
1005
139FC5
  0
LINE
  5
139FC6
  8
OBJECT
 10
7823.0000000000191
 20
-258.99999999999909
 30
0.0
 11
7787.0000000000191
 21
-258.99999999999909
 31
0.0
1001
ACDBBLOCKREPETAG
1070
     1
1071
      119
1005
139FC6
  0
LINE
  5
139FC7
  8
OBJECT
 10
7827.0000000000191
 20
-145.49999999999909
 30
0.0
 11
7840.0000000000191
 21
-145.49999999999909
 31
0.0
1001
ACDBBLOCKREPETAG
1070
     1
1071
      120
1005
139FC7
  0
LINE
  5
139FC8
  8
OBJECT
 10
7840.0000000000191
 20
-254.49999999999909
 30
0.0
 11
7827.0000000000191
 21
-254.49999999999909
 31
0.0
1001
ACDBBLOCKREPETAG
1070
     1
1071
      121
1005
139FC8
  0
LINE
  5
139FC9
  8
OBJECT
 10
7827.0000000000191
 20
-254.49999999999909
 30
0.0
 11
7827.0000000000191
 21
-145.49999999999909
 31
0.0
1001
ACDBBLOCKREPETAG
1070
     1
1071
      122
1005
139FC9
  0
LINE
  5
139FCA
  8
OBJECT
 10
7823.0000000000191
 20
-140.99999999999909
 30
0.0
 11
7827.0000000000191
 21
-145.49999999999909
 31
0.0
1001
ACDBBLOCKREPETAG
1070
     1
1071
      123
1005
139FCA
  0
LINE
  5
139FCB
  8
OBJECT
 10
7823.0000000000191
 20
-258.99999999999909
 30
0.0
 11
7827.0000000000191
 21
-254.49999999999909
 31
0.0
1001
ACDBBLOCKREPETAG
1070
     1
1071
      124
1005
139FCB
  0
LINE
  5
139FCC
  8
OBJECT
 10
7917.0000000000027
 20
-137.99999999999909
 30
0.0
 11
7920.0000000000027
 21
-137.99999999999909
 31
0.0
1001
ACDBBLOCKREPETAG
1070
     1
1071
      125
1005
139FCC
  0
ARC
  5
139FCD
  8
OBJECT
 10
7917.0000000000027
 20
-140.99999999999909
 30
0.0
 40
3.0
 50
90.0
 51
180.0
1001
ACDBBLOCKREPETAG
1070
     1
1071
      126
1005
139FCD
  0
LINE
  5
139FCE
  8
OBJECT
 10
7920.0000000000027
 20
-261.99999999999909
 30
0.0
 11
7917.0000000000027
 21
-261.99999999999909
 31
0.0
1001
ACDBBLOCKREPETAG
1070
     1
1071
      127
1005
139FCE
  0
ARC
  5
139FCF
  8
OBJECT
 10
7917.0000000000027
 20
-258.99999999999909
 30
0.0
 40
3.0
 50
180.0
 51
270.0
1001
ACDBBLOCKREPETAG
1070
     1
1071
      128
1005
139FCF
  0
LINE
  5
139FD0
  8
OBJECT
 10
7914.0000000000027
 20
-258.99999999999909
 30
0.0
 11
7914.0000000000027
 21
-222.44994432063581
 31
0.0
1001
ACDBBLOCKREPETAG
1070
     1
1071
      129
1005
139FD0
  0
LINE
  5
139FD1
  8
OBJECT
 10
7914.0000000000027
 20
-177.55005567935859
 30
0.0
 11
7914.0000000000027
 21
-140.99999999999909
 31
0.0
1001
ACDBBLOCKREPETAG
1070
     1
1071
      130
1005
139FD1
  0
LINE
  5
139FD2
  8
HIDDEN
 10
7832.0000000000191
 20
-155.49999999999909
 30
0.0
 11
7832.0000000000191
 21
-244.49999999999909
 31
0.0
1001
ACDBBLOCKREPETAG
1070
     1
1071
      131
1005
139FD2
  0
LINE
  5
139FD3
  8
OBJECT
 10
7840.0000250358171
 20
-254.4999509238105
 30
0.0
 11
7840.0000250358171
 21
-145.4999509238105
 31
0.0
1001
ACDBBLOCKREPETAG
1070
     1
1071
      133
1005
139FD3
  0
ARC
  5
139FD4
  8
OBJECT
 10
7875.0000000000027
 20
-199.99999999999909
 30
0.0
 40
45.000000000000547
 50
270.0
 51
346.21579484130518
1001
ACDBBLOCKREPETAG
1070
     1
1071
      134
1005
139FD4
  0
ARC
  5
139FD5
  8
OBJECT
 10
7875.0000000000027
 20
-199.99999999999909
 30
0.0
 40
45.000000000000547
 50
13.78420515869484
 51
90.0
1001
ACDBBLOCKREPETAG
1070
     1
1071
      402
1005
139FD5
  0
LINE
  5
139FD6
  8
CENTER
 10
8000.0000000000027
 20
-300.99999999999898
 30
0.0
 11
8000.0000000000027
 21
-279.99999999999909
 31
0.0
1001
ACDBBLOCKREPETAG
1070
     1
1071
        0
1005
139FD6
  0
LINE
  5
139FD7
  8
OBJECT
 10
8062.0000000000018
 20
-283.0
 30
0.0
 11
8062.0000000000018
 21
-279.99999999999909
 31
0.0
1001
ACDBBLOCKREPETAG
1070
     1
1071
        1
1005
139FD7
  0
ARC
  5
139FD8
  8
OBJECT
 10
8059.0000000000018
 20
-283.0
 30
0.0
 40
3.0
 50
270.0
 51
0.0
1001
ACDBBLOCKREPETAG
1070
     1
1071
        2
1005
139FD8
  0
LINE
  5
139FD9
  8
OBJECT
 10
7938.0000000000018
 20
-279.99999999999909
 30
0.0
 11
7938.0000000000018
 21
-282.99999999999818
 31
0.0
1001
ACDBBLOCKREPETAG
1070
     1
1071
        3
1005
139FD9
  0
ARC
  5
139FDA
  8
OBJECT
 10
7941.0000000000018
 20
-282.99999999999818
 30
0.0
 40
3.0
 50
180.0
 51
270.0
1001
ACDBBLOCKREPETAG
1070
     1
1071
        4
1005
139FDA
  0
LINE
  5
139FDB
  8
OBJECT
 10
7941.0000000000018
 20
-285.99999999999818
 30
0.0
 11
8059.0000000000018
 21
-286.0
 31
0.0
1001
ACDBBLOCKREPETAG
1070
     1
1071
        5
1005
139FDB
  0
LINE
  5
139FDC
  8
HIDDEN
 10
7943.0000000000036
 20
-619.99999999999955
 30
0.0
 11
8057.0
 21
-619.99999999999955
 31
0.0
1001
ACDBBLOCKREPETAG
1070
     1
1071
       57
1005
139FDC
  0
LINE
  5
139FDD
  8
CENTER
 10
8000.0000000000027
 20
-534.99999999999955
 30
0.0
 11
8000.0000000000027
 21
-899.99999999999955
 31
0.0
1001
ACDBBLOCKREPETAG
1070
     1
1071
       58
1005
139FDD
  0
LINE
  5
139FDE
  8
OBJECT
 10
7928.0000000000027
 20
-570.99999999999955
 30
0.0
 11
7928.0000000000027
 21
-633.99999999999955
 31
0.0
1001
ACDBBLOCKREPETAG
1070
     1
1071
       59
1005
139FDE
  0
LINE
  5
139FDF
  8
OBJECT
 10
8072.0
 20
-633.99999999999955
 30
0.0
 11
8072.0
 21
-570.99999999999955
 31
0.0
1001
ACDBBLOCKREPETAG
1070
     1
1071
       60
1005
139FDF
  0
LINE
  5
139FE0
  8
OBJECT
 10
7920.0000000000027
 20
-887.99999999999955
 30
0.0
 11
8080.0000000000027
 21
-887.99999999999955
 31
0.0
1001
ACDBBLOCKREPETAG
1070
     1
1071
       61
1005
139FE0
  0
LINE
  5
139FE1
  8
OBJECT
 10
8080.0000000000027
 20
-633.99999999999955
 30
0.0
 11
7920.0000000000027
 21
-633.99999999999955
 31
0.0
1001
ACDBBLOCKREPETAG
1070
     1
1071
       62
1005
139FE1
  0
LINE
  5
139FE2
  8
OBJECT
 10
7920.0000000000027
 20
-887.99999999999955
 30
0.0
 11
7920.0000000000027
 21
-899.99999999999955
 31
0.0
1001
ACDBBLOCKREPETAG
1070
     1
1071
       63
1005
139FE2
  0
LINE
  5
139FE3
  8
OBJECT
 10
7920.0000000000027
 20
-899.99999999999955
 30
0.0
 11
8080.0000000000027
 21
-899.99999999999955
 31
0.0
1001
ACDBBLOCKREPETAG
1070
     1
1071
       64
1005
139FE3
  0
LINE
  5
139FE4
  8
OBJECT
 10
8080.0000000000027
 20
-899.99999999999955
 30
0.0
 11
8080.0000000000027
 21
-887.99999999999955
 31
0.0
1001
ACDBBLOCKREPETAG
1070
     1
1071
       65
1005
139FE4
  0
LINE
  5
139FE5
  8
OBJECT
 10
8074.9999999998618
 20
-757.99999999985016
 30
0.0
 11
8075.0000000000018
 21
-887.99999999999955
 31
0.0
1001
ACDBBLOCKREPETAG
1070
     1
1071
       69
1005
139FE5
  0
LINE
  5
139FE6
  8
OBJECT
 10
8074.9999908029858
 20
-757.99998602702112
 30
0.0
 11
8080.0000000000027
 21
-757.99998602702112
 31
0.0
1001
ACDBBLOCKREPETAG
1070
     1
1071
       70
1005
139FE6
  0
LINE
  5
139FE7
  8
OBJECT
 10
7925.0000000001392
 20
-757.99999999985016
 30
0.0
 11
7925.0000000000027
 21
-887.99999999999955
 31
0.0
1001
ACDBBLOCKREPETAG
1070
     1
1071
       71
1005
139FE7
  0
LINE
  5
139FE8
  8
OBJECT
 10
7925.0000091970132
 20
-757.99998602702112
 30
0.0
 11
7920.0000000000027
 21
-757.99998602702112
 31
0.0
1001
ACDBBLOCKREPETAG
1070
     1
1071
       72
1005
139FE8
  0
LINE
  5
139FE9
  8
OBJECT
 10
7918.0000000000027
 20
-570.99999999999955
 30
0.0
 11
7918.0000000000027
 21
-549.99999999999955
 31
0.0
1001
ACDBBLOCKREPETAG
1070
     1
1071
       73
1005
139FE9
  0
LINE
  5
139FEA
  8
OBJECT
 10
7918.0000000000027
 20
-549.99999999999955
 30
0.0
 11
8082.0000000000064
 21
-549.99999999999955
 31
0.0
1001
ACDBBLOCKREPETAG
1070
     1
1071
       74
1005
139FEA
  0
LINE
  5
139FEB
  8
OBJECT
 10
8082.0000000000064
 20
-570.99999999999955
 30
0.0
 11
7918.0000000000027
 21
-570.99999999999955
 31
0.0
1001
ACDBBLOCKREPETAG
1070
     1
1071
       75
1005
139FEB
  0
LINE
  5
139FEC
  8
OBJECT
 10
7920.7940817120261
 20
-549.99999999999955
 30
0.0
 11
7920.7940817120261
 21
-570.99999999999955
 31
0.0
1001
ACDBBLOCKREPETAG
1070
     1
1071
       76
1005
139FEC
  0
LINE
  5
139FED
  8
OBJECT
 10
7928.7378959999978
 20
-549.99999999999955
 30
0.0
 11
7928.7378959999978
 21
-570.99999999999955
 31
0.0
1001
ACDBBLOCKREPETAG
1070
     1
1071
       77
1005
139FED
  0
LINE
  5
139FEE
  8
OBJECT
 10
7970.8330260000021
 20
-549.99999999999955
 30
0.0
 11
7970.8330260000021
 21
-570.99999999999955
 31
0.0
1001
ACDBBLOCKREPETAG
1070
     1
1071
       78
1005
139FEE
  0
LINE
  5
139FEF
  8
OBJECT
 10
7978.7768389218018
 20
-549.99999999999955
 30
0.0
 11
7978.7768389218018
 21
-570.99999999999955
 31
0.0
1001
ACDBBLOCKREPETAG
1070
     1
1071
       79
1005
139FEF
  0
LINE
  5
139FF0
  8
OBJECT
 10
8082.0
 20
-570.99999999999955
 30
0.0
 11
8082.0
 21
-549.99999999999955
 31
0.0
1001
ACDBBLOCKREPETAG
1070
     1
1071
       80
1005
139FF0
  0
LINE
  5
139FF1
  8
OBJECT
 10
8079.205918287973
 20
-549.99999999999955
 30
0.0
 11
8079.205918287973
 21
-570.99999999999955
 31
0.0
1001
ACDBBLOCKREPETAG
1070
     1
1071
       81
1005
139FF1
  0
LINE
  5
139FF2
  8
OBJECT
 10
8071.262104000004
 20
-549.99999999999955
 30
0.0
 11
8071.262104000004
 21
-570.99999999999955
 31
0.0
1001
ACDBBLOCKREPETAG
1070
     1
1071
       82
1005
139FF2
  0
LINE
  5
139FF3
  8
OBJECT
 10
8029.1669739999998
 20
-549.99999999999955
 30
0.0
 11
8029.1669739999998
 21
-570.99999999999955
 31
0.0
1001
ACDBBLOCKREPETAG
1070
     1
1071
       83
1005
139FF3
  0
LINE
  5
139FF4
  8
OBJECT
 10
8021.2231610782019
 20
-549.99999999999955
 30
0.0
 11
8021.2231610782019
 21
-570.99999999999955
 31
0.0
1001
ACDBBLOCKREPETAG
1070
     1
1071
       84
1005
139FF4
  0
ARC
  5
139FF5
  8
OBJECT
 10
8200.6872746716726
 20
-749.40809941010718
 30
0.0
 40
170.6350503965856
 50
137.44134459184301
 51
149.91949581337221
1001
ACDBBLOCKREPETAG
1070
     1
1071
       85
1005
139FF5
  0
ARC
  5
139FF6
  8
OBJECT
 10
8200.6872746716726
 20
-642.59190058989179
 30
0.0
 40
170.6350503965856
 50
210.08050418662771
 51
222.55865540815699
1001
ACDBBLOCKREPETAG
1070
     1
1071
       86
1005
139FF6
  0
ARC
  5
139FF7
  8
OBJECT
 10
7799.312725328331
 20
-749.40809941010718
 30
0.0
 40
170.6350503965856
 50
30.080504186710289
 51
42.558655408382641
1001
ACDBBLOCKREPETAG
1070
     1
1071
       87
1005
139FF7
  0
ARC
  5
139FF8
  8
OBJECT
 10
7799.312725328331
 20
-642.59190058989179
 30
0.0
 40
170.6350503965856
 50
317.44134459161722
 51
329.9194958132897
1001
ACDBBLOCKREPETAG
1070
     1
1071
       88
1005
139FF8
  0
POINT
  5
139FF9
  8
DOTS
 10
8000.0000000000027
 20
-754.99999999999955
 30
0.0
1001
ACDBBLOCKREPETAG
1070
     1
1071
      202
1005
139FF9
  0
ARC
  5
139FFA
  8
OBJECT
 10
8000.0000000000027
 20
-199.99999999999909
 30
0.0
 40
77.0
 50
292.25886900009442
 51
337.74113100019838
1001
ACDBBLOCKREPETAG
1070
     1
1071
      169
1005
139FFA
  0
LINE
  5
139FFB
  8
SLIM
 10
7945.2566704260989
 20
-137.99999999999909
 30
0.0
 11
7955.9548403695781
 21
-127.30183005652231
 31
0.0
1001
GRADIENTCOLOR1ACI
1070
     5
1001
GRADIENTCOLOR2ACI
1070
     2
1001
ACAD
1010
0.0
1020
0.0
1030
0.0
1001
ACDBBLOCKREPETAG
1070
     1
1071
      403
1005
139FFB
  0
LINE
  5
139FFC
  8
SLIM
 10
7954.2369265471707
 20
-137.99999999999909
 30
0.0
 11
7972.7507744763334
 21
-119.4861520708364
 31
0.0
1001
GRADIENTCOLOR1ACI
1070
     5
1001
GRADIENTCOLOR2ACI
1070
     2
1001
ACAD
1010
0.0
1020
0.0
1030
0.0
1001
ACDBBLOCKREPETAG
1070
     1
1071
      404
1005
139FFC
  0
LINE
  5
139FFD
  8
SLIM
 10
7980.9810912312323
 20
-120.2360914370078
 30
0.0
 11
7984.8575146748608
 21
-116.359667993377
 31
0.0
1001
GRADIENTCOLOR1ACI
1070
     5
1001
GRADIENTCOLOR2ACI
1070
     2
1001
ACAD
1010
0.0
1020
0.0
1030
0.0
1001
ACDBBLOCKREPETAG
1070
     1
1071
      405
1005
139FFD
  0
LINE
  5
139FFE
  8
SLIM
 10
7991.7848884505811
 20
-118.412550338727
 30
0.0
 11
7995.0533812002559
 21
-115.1440575890517
 31
0.0
1001
GRADIENTCOLOR1ACI
1070
     5
1001
GRADIENTCOLOR2ACI
1070
     2
1001
ACAD
1010
0.0
1020
0.0
1030
0.0
1001
ACDBBLOCKREPETAG
1070
     1
1071
      406
1005
139FFE
  0
LINE
  5
139FFF
  8
SLIM
 10
8001.1693567113307
 20
-118.0083381990472
 30
0.0
 11
8004.0797313529074
 21
-115.0979635574724
 31
0.0
1001
GRADIENTCOLOR1ACI
1070
     5
1001
GRADIENTCOLOR2ACI
1070
     2
1001
ACAD
1010
0.0
1020
0.0
1030
0.0
1001
ACDBBLOCKREPETAG
1070
     1
1071
      407
1005
139FFF
  0
LINE
  5
13A000
  8
SLIM
 10
8009.5946870887637
 20
-118.5632639426843
 30
0.0
 11
8012.2679784105749
 21
-115.88997262087101
 31
0.0
1001
GRADIENTCOLOR1ACI
1070
     5
1001
GRADIENTCOLOR2ACI
1070
     2
1001
ACAD
1010
0.0
1020
0.0
1030
0.0
1001
ACDBBLOCKREPETAG
1070
     1
1071
      408
1005
13A000
  0
LINE
  5
13A001
  8
SLIM
 10
8017.2938277930252
 20
-119.84437935949001
 30
0.0
 11
8019.7999414573624
 21
-117.3382656951527
 31
0.0
1001
GRADIENTCOLOR1ACI
1070
     5
1001
GRADIENTCOLOR2ACI
1070
     2
1001
ACAD
1010
0.0
1020
0.0
1030
0.0
1001
ACDBBLOCKREPETAG
1070
     1
1071
      409
1005
13A001
  0
LINE
  5
13A002
  8
SLIM
 10
8023.2737716367947
 20
-122.8446916367926
 30
0.0
 11
8026.7872038672804
 21
-119.3312594063044
 31
0.0
1001
GRADIENTCOLOR1ACI
1070
     5
1001
GRADIENTCOLOR2ACI
1070
     2
1001
ACAD
1010
0.0
1020
0.0
1030
0.0
1001
ACDBBLOCKREPETAG
1070
     1
1071
      410
1005
13A002
  0
LINE
  5
13A003
  8
SLIM
 10
8027.7638996973228
 20
-127.33481969732929
 30
0.0
 11
8033.3030030760328
 21
-121.7957163186195
 31
0.0
1001
GRADIENTCOLOR1ACI
1070
     5
1001
GRADIENTCOLOR2ACI
1070
     2
1001
ACAD
1010
0.0
1020
0.0
1030
0.0
1001
ACDBBLOCKREPETAG
1070
     1
1071
      411
1005
13A003
  0
LINE
  5
13A004
  8
SLIM
 10
8033.4390986513308
 20
-130.63987686439191
 30
0.0
 11
8039.3973119843777
 21
-124.681663531344
 31
0.0
1001
GRADIENTCOLOR1ACI
1070
     5
1001
GRADIENTCOLOR2ACI
1070
     2
1001
ACAD
1010
0.0
1020
0.0
1030
0.0
1001
ACDBBLOCKREPETAG
1070
     1
1071
      412
1005
13A004
  0
LINE
  5
13A005
  8
SLIM
 10
8039.2842246217979
 20
-133.77500701499321
 30
0.0
 11
8045.1047705343717
 21
-127.95446110242381
 31
0.0
1001
GRADIENTCOLOR1ACI
1070
     5
1001
GRADIENTCOLOR2ACI
1070
     2
1001
ACAD
1010
0.0
1020
0.0
1030
0.0
1001
ACDBBLOCKREPETAG
1070
     1
1071
      413
1005
13A005
  0
LINE
  5
13A006
  8
SLIM
 10
8044.7212801698061
 20
-137.31820758805651
 30
0.0
 11
8050.449155789197
 21
-131.59033196866449
 31
0.0
1001
GRADIENTCOLOR1ACI
1070
     5
1001
GRADIENTCOLOR2ACI
1070
     2
1001
ACAD
1010
0.0
1020
0.0
1030
0.0
1001
ACDBBLOCKREPETAG
1070
     1
1071
      414
1005
13A006
  0
LINE
  5
13A007
  8
SLIM
 10
8053.0197438789319
 20
-137.99999999999909
 30
0.0
 11
8055.4459941864034
 21
-135.57374969252561
 31
0.0
1001
GRADIENTCOLOR1ACI
1070
     5
1001
GRADIENTCOLOR2ACI
1070
     2
1001
ACAD
1010
0.0
1020
0.0
1030
0.0
1001
ACDBBLOCKREPETAG
1070
     1
1071
      415
1005
13A007
  0
ARC
  5
13A008
  8
OBJECT
 10
8000.0000000000027
 20
-199.99999999999909
 30
0.0
 40
77.0
 50
112.25886900009441
 51
157.74113100019829
1001
ACDBBLOCKREPETAG
1070
     1
1071
      170
1005
13A008
  0
ARC
  5
13A009
  8
OBJECT
 10
8000.0000000000027
 20
-199.99999999999909
 30
0.0
 40
77.0
 50
22.258868999801621
 51
67.741130999905565
1001
ACDBBLOCKREPETAG
1070
     1
1071
      172
1005
13A009
  0
CIRCLE
  5
13A00A
  8
OBJECT
 10
8000.0000000000027
 20
-199.99999999999909
 30
0.0
 40
70.0
1001
ACDBBLOCKREPETAG
1070
     1
1071
      173
1005
13A00A
  0
LINE
  5
13A00B
  8
OBJECT
 10
8029.1669749999928
 20
-271.26210499999888
 30
0.0
 11
8021.2231624441074
 21
-279.20591755589248
 31
0.0
1001
ACDBBLOCKREPETAG
1070
     1
1071
      174
1005
13A00B
  0
LINE
  5
13A00C
  8
OBJECT
 10
7970.8330260000021
 20
-271.26210499999888
 30
0.0
 11
7978.7768389219218
 21
-279.20591792191681
 31
0.0
1001
ACDBBLOCKREPETAG
1070
     1
1071
      175
1005
13A00C
  0
ARC
  5
13A00D
  8
OBJECT
 10
8000.0000000000027
 20
-199.99999999999909
 30
0.0
 40
82.000000000000014
 50
255.00000044864069
 51
285.00000053969438
1001
ACDBBLOCKREPETAG
1070
     1
1071
      176
1005
13A00D
  0
LINE
  5
13A00E
  8
OBJECT
 10
7928.7378959999978
 20
-229.1669739999989
 30
0.0
 11
7920.7940817120561
 21
-221.2231597120545
 31
0.0
1001
ACDBBLOCKREPETAG
1070
     1
1071
      177
1005
13A00E
  0
ARC
  5
13A00F
  8
OBJECT
 10
8000.0000000000027
 20
-199.99999999999909
 30
0.0
 40
82.000000000000014
 50
165.00000044876251
 51
194.99999856301361
1001
ACDBBLOCKREPETAG
1070
     1
1071
      178
1005
13A00F
  0
LINE
  5
13A010
  8
OBJECT
 10
7970.8330260000021
 20
-128.7378949999993
 30
0.0
 11
7978.7768389219218
 21
-120.7940820780795
 31
0.0
1001
ACDBBLOCKREPETAG
1070
     1
1071
      179
1005
13A010
  0
ARC
  5
13A011
  8
OBJECT
 10
8000.0000000000027
 20
-199.99999999999909
 30
0.0
 40
82.000000000000014
 50
74.999999460305631
 51
104.99999955135929
1001
ACDBBLOCKREPETAG
1070
     1
1071
      180
1005
13A011
  0
LINE
  5
13A012
  8
OBJECT
 10
8029.1669749999928
 20
-128.7378949999993
 30
0.0
 11
8021.2231624441074
 21
-120.79408244410391
 31
0.0
1001
ACDBBLOCKREPETAG
1070
     1
1071
      181
1005
13A012
  0
LINE
  5
13A013
  8
OBJECT
 10
7962.4020590000027
 20
-161.93893300000039
 30
0.0
 11
8037.0841102714267
 21
-174.5180316957439
 31
0.0
1001
ACDBBLOCKREPETAG
1070
     1
1071
      182
1005
13A013
  0
LINE
  5
13A014
  8
OBJECT
 10
8044.0936569999967
 20
-169.70149399999991
 30
0.0
 11
8037.0841102714267
 21
-174.5180316957439
 31
0.0
1001
ACDBBLOCKREPETAG
1070
     1
1071
      183
1005
13A014
  0
LINE
  5
13A015
  8
OBJECT
 10
7928.7378959999978
 20
-170.833024999999
 30
0.0
 11
7920.7940820780777
 21
-178.77683892191911
 31
0.0
1001
ACDBBLOCKREPETAG
1070
     1
1071
      184
1005
13A015
  0
CIRCLE
  5
13A016
  8
OBJECT
 10
8000.0000000000027
 20
-199.99999999999909
 30
0.0
 40
53.500000000000007
1001
ACDBBLOCKREPETAG
1070
     1
1071
      185
1005
13A016
  0
ARC
  5
13A017
  8
OBJECT
 10
8000.0000000000027
 20
-199.99999999999909
 30
0.0
 40
50.0
 50
131.70180964351781
 51
168.52376955952309
1001
ACDBBLOCKREPETAG
1070
     1
1071
      186
1005
13A017
  0
ARC
  5
13A018
  8
OBJECT
 10
8000.0000000000027
 20
-199.99999999999909
 30
0.0
 40
50.0
 50
238.8199429999047
 51
34.49450625011707
1001
ACDBBLOCKREPETAG
1070
     1
1071
      187
1005
13A018
  0
LINE
  5
13A019
  8
OBJECT
 10
8071.2621049999952
 20
-170.833024999999
 30
0.0
 11
8079.2059175558898
 21
-178.77683755589439
 31
0.0
1001
ACDBBLOCKREPETAG
1070
     1
1071
      188
1005
13A019
  0
ARC
  5
13A01A
  8
OBJECT
 10
8000.0000000000027
 20
-199.99999999999909
 30
0.0
 40
82.000000000000014
 50
345.00000044876259
 51
15.00000053935913
1001
ACDBBLOCKREPETAG
1070
     1
1071
      189
1005
13A01A
  0
LINE
  5
13A01B
  8
OBJECT
 10
8071.2621049999952
 20
-229.1669739999989
 30
0.0
 11
8079.2059179219232
 21
-221.2231610780791
 31
0.0
1001
ACDBBLOCKREPETAG
1070
     1
1071
      190
1005
13A01B
  0
LINE
  5
13A01C
  8
OBJECT
 10
8045.6618002273271
 20
-137.99999999999909
 30
0.0
 11
8080.0000000000027
 21
-137.99999999999909
 31
0.0
1001
ACDBBLOCKREPETAG
1070
     1
1071
      191
1005
13A01C
  0
LINE
  5
13A01D
  8
OBJECT
 10
8062.0000000000018
 20
-261.99999999999909
 30
0.0
 11
8080.0000000000027
 21
-261.99999999999909
 31
0.0
1001
ACDBBLOCKREPETAG
1070
     1
1071
      192
1005
13A01D
  0
LINE
  5
13A01E
  8
OBJECT
 10
8062.0000000000018
 20
-261.99999999999909
 30
0.0
 11
8062.0000000000018
 21
-279.99999999999909
 31
0.0
1001
ACDBBLOCKREPETAG
1070
     1
1071
      194
1005
13A01E
  0
LINE
  5
13A01F
  8
OBJECT
 10
7938.0000000000018
 20
-261.99999999999909
 30
0.0
 11
7938.0000000000018
 21
-279.99999999999909
 31
0.0
1001
ACDBBLOCKREPETAG
1070
     1
1071
      195
1005
13A01F
  0
LINE
  5
13A020
  8
OBJECT
 10
7938.0000000000018
 20
-261.99999999999909
 30
0.0
 11
7920.0000000000027
 21
-261.99999999999909
 31
0.0
1001
ACDBBLOCKREPETAG
1070
     1
1071
      197
1005
13A020
  0
LINE
  5
13A021
  8
OBJECT
 10
7954.3381997726774
 20
-137.99999999999909
 30
0.0
 11
7920.0000000000027
 21
-137.99999999999909
 31
0.0
1001
ACDBBLOCKREPETAG
1070
     1
1071
      198
1005
13A021
  0
LINE
  5
13A022
  8
CENTER
 10
8080.0000000000027
 20
-199.99999999999909
 30
0.0
 11
7920.0000000000027
 21
-199.99999999999909
 31
0.0
1001
ACDBBLOCKREPETAG
1070
     1
1071
      207
1005
13A022
  0
LINE
  5
13A023
  8
CENTER
 10
8000.0000000000027
 20
-279.99999999999909
 30
0.0
 11
8000.0000000000027
 21
-99.999999999999091
 31
0.0
1001
ACDBBLOCKREPETAG
1070
     1
1071
      208
1005
13A023
  0
LINE
  5
13A024
  8
OBJECT
 10
7945.5527778486367
 20
-254.44722215136329
 30
0.0
 11
7938.0000000000018
 21
-261.99999999999909
 31
0.0
1001
ACDBBLOCKREPETAG
1070
     1
1071
      209
1005
13A024
  0
LINE
  5
13A025
  8
OBJECT
 10
8054.4472221513652
 20
-254.44722215136329
 30
0.0
 11
8062.0000000000018
 21
-261.99999999999909
 31
0.0
1001
ACDBBLOCKREPETAG
1070
     1
1071
      210
1005
13A025
  0
ARC
  5
13A026
  8
OBJECT
 10
8000.0000000000027
 20
-199.99999999999909
 30
0.0
 40
85.0
 50
46.837102859806208
 51
133.16289714019371
1001
ACDBBLOCKREPETAG
1070
     1
1071
      211
1005
13A026
  0
LINE
  5
13A027
  8
OBJECT
 10
7946.692194143754
 20
-195.46638161316051
 30
0.0
 11
7970.4540343856352
 21
-193.79865146436981
 31
0.0
1001
ACDBBLOCKREPETAG
1070
     1
1071
      333
1005
13A027
  0
LINE
  5
13A028
  8
OBJECT
 10
7947.3854347270599
 20
-190.305593971766
 30
0.0
 11
7966.9884352629006
 21
-188.92975272660161
 31
0.0
1001
ACDBBLOCKREPETAG
1070
     1
1071
      334
1005
13A028
  0
LINE
  5
13A029
  8
OBJECT
 10
7974.1135374752794
 20
-242.77722592637201
 30
0.0
 11
7982.1366988374084
 21
-234.1690987954708
 31
0.0
1001
ACDBBLOCKREPETAG
1070
     1
1071
      335
1005
13A029
  0
ARC
  5
13A02A
  8
OBJECT
 10
7982.1160071245422
 20
-183.28188966318251
 30
0.0
 40
60.031113246032611
 50
254.07020130412749
 51
262.33936106086588
1001
ACDBBLOCKREPETAG
1070
     1
1071
      336
1005
13A02A
  0
LINE
  5
13A02B
  8
OBJECT
 10
7977.6125997325144
 20
-197.67495277149911
 30
0.0
 11
7982.1366988374084
 21
-234.1690987954708
 31
0.0
1001
ACDBBLOCKREPETAG
1070
     1
1071
      337
1005
13A02B
  0
ARC
  5
13A02C
  8
OBJECT
 10
7967.6885653456429
 20
-198.90521351131881
 30
0.0
 40
10.0
 50
7.0667782929925851
 51
94.014734370532395
1001
ACDBBLOCKREPETAG
1070
     1
1071
      338
1005
13A02C
  0
ARC
  5
13A02D
  8
OBJECT
 10
7970.9441253709738
 20
-200.78147401875589
 30
0.0
 40
7.0
 50
7.0667782929925851
 51
94.014733775014648
1001
ACDBBLOCKREPETAG
1070
     1
1071
      339
1005
13A02D
  0
POINT
  5
13A02E
  8
DOTS
 10
8000.0000000000027
 20
-199.99999999999909
 30
0.0
 50
270.0
1001
ACDBBLOCKREPETAG
1070
     1
1071
      348
1005
13A02E
  0
ARC
  5
13A02F
  8
OBJECT
 10
8000.0000000000027
 20
-199.99999999999909
 30
0.0
 40
77.0
 50
202.25886899980159
 51
247.74113099990561
1001
ACDBBLOCKREPETAG
1070
     1
1071
      166
1005
13A02F
  0
LINE
  5
13A030
  8
OBJECT
 10
8212.9999999999836
 20
-553.0000000000008
 30
0.0
 11
8219.9999999999873
 21
-553.0000000000008
 31
0.0
1001
ACDBBLOCKREPETAG
1070
     1
1071
      106
1005
13A030
  0
LINE
  5
13A031
  8
OBJECT
 10
8219.9999999999873
 20
-553.0000000000008
 30
0.0
 11
8219.9999999999873
 21
-677.0000000000008
 31
0.0
1001
ACDBBLOCKREPETAG
1070
     1
1071
      107
1005
13A031
  0
LINE
  5
13A032
  8
OBJECT
 10
8085.9999999999873
 20
-653.3502637757274
 30
0.0
 11
8085.9999999999873
 21
-755.00000000000102
 31
0.0
1001
ACDBBLOCKREPETAG
1070
     1
1071
      108
1005
13A032
  0
LINE
  5
13A033
  8
OBJECT
 10
8219.9999999999873
 20
-677.0000000000008
 30
0.0
 11
8212.9999999999836
 21
-677.0000000000008
 31
0.0
1001
ACDBBLOCKREPETAG
1070
     1
1071
      109
1005
13A033
  0
LINE
  5
13A034
  8
OBJECT
 10
8212.9999999999836
 20
-677.0000000000008
 30
0.0
 11
8212.9999999999836
 21
-553.0000000000008
 31
0.0
1001
ACDBBLOCKREPETAG
1070
     1
1071
      110
1005
13A034
  0
LINE
  5
13A035
  8
CENTER
 10
8144.9999999999873
 20
-615.0000000000008
 30
0.0
 11
8234.9999999999873
 21
-615.0000000000008
 31
0.0
1001
ACDBBLOCKREPETAG
1070
     1
1071
      111
1005
13A035
  0
LINE
  5
13A036
  8
OBJECT
 10
8079.9999999999818
 20
-758.0
 30
0.0
 11
8082.9999999999873
 21
-758.0000000000008
 31
0.0
1001
ACDBBLOCKREPETAG
1070
     1
1071
      112
1005
13A036
  0
ARC
  5
13A037
  8
OBJECT
 10
8082.9999999999873
 20
-755.00000000000102
 30
0.0
 40
3.0
 50
270.0
 51
0.0
1001
ACDBBLOCKREPETAG
1070
     1
1071
      113
1005
13A037
  0
LINE
  5
13A038
  8
OBJECT
 10
8212.9999999999836
 20
-556.0000000000008
 30
0.0
 11
8176.9999999999873
 21
-556.0000000000008
 31
0.0
1001
ACDBBLOCKREPETAG
1070
     1
1071
      114
1005
13A038
  0
LINE
  5
13A039
  8
OBJECT
 10
8176.9999999999873
 20
-556.0000000000008
 30
0.0
 11
8176.9999999999873
 21
-653.15756805667843
 31
0.0
1001
ACDBBLOCKREPETAG
1070
     1
1071
      115
1005
13A039
  0
LINE
  5
13A03A
  8
OBJECT
 10
8172.9999999999854
 20
-560.5000000000008
 30
0.0
 11
8172.9999999999818
 21
-645.74491827928705
 31
0.0
1001
ACDBBLOCKREPETAG
1070
     1
1071
      116
1005
13A03A
  0
LINE
  5
13A03B
  8
OBJECT
 10
8172.9999999999854
 20
-560.5000000000008
 30
0.0
 11
8159.9999999999873
 21
-560.5000000000008
 31
0.0
1001
ACDBBLOCKREPETAG
1070
     1
1071
      117
1005
13A03B
  0
LINE
  5
13A03C
  8
OBJECT
 10
8168.6563168254688
 20
-674.0000000000008
 30
0.0
 11
8212.9999999999836
 21
-674.0000000000008
 31
0.0
1001
ACDBBLOCKREPETAG
1070
     1
1071
      118
1005
13A03C
  0
LINE
  5
13A03D
  8
OBJECT
 10
8176.9999999999873
 20
-556.0000000000008
 30
0.0
 11
8172.9999999999854
 21
-560.5000000000008
 31
0.0
1001
ACDBBLOCKREPETAG
1070
     1
1071
      119
1005
13A03D
  0
LINE
  5
13A03E
  8
OBJECT
 10
8159.9999999999873
 20
-560.5000000000008
 30
0.0
 11
8159.9999999999873
 21
-645.74491827928784
 31
0.0
1001
ACDBBLOCKREPETAG
1070
     1
1071
      120
1005
13A03E
  0
ARC
  5
13A03F
  8
OBJECT
 10
8091.9999999999864
 20
-637.27386365609345
 30
0.0
 40
85.0
 50
308.59099323720869
 51
334.40086127811207
1001
ACDBBLOCKREPETAG
1070
     1
1071
      121
1005
13A03F
  0
ARC
  5
13A040
  8
OBJECT
 10
8162.7999999999884
 20
-655.00000000000068
 30
0.0
 40
85.0
 50
91.887731891831123
 51
160.07406787456929
1001
ACDBBLOCKREPETAG
1070
     1
1071
      122
1005
13A040
  0
LINE
  5
13A041
  8
OBJECT
 10
8085.9999999999873
 20
-750.81075719270905
 30
0.0
 11
8145.0193225436024
 21
-703.71143914629454
 31
0.0
1001
ACDBBLOCKREPETAG
1070
     1
1071
      123
1005
13A041
  0
LINE
  5
13A042
  8
OBJECT
 10
8172.9999999999818
 20
-645.74491827928705
 30
0.0
 11
8159.9999999999873
 21
-645.74491827928784
 31
0.0
1001
ACDBBLOCKREPETAG
1070
     1
1071
      124
1005
13A042
  0
LINE
  5
13A043
  8
OBJECT
 10
8176.9999999999873
 20
-653.15756805667843
 30
0.0
 11
8172.9999999999818
 21
-645.74491827928705
 31
0.0
1001
ACDBBLOCKREPETAG
1070
     1
1071
      125
1005
13A043
  0
LINE
  5
13A044
  8
OBJECT
 10
8080.0000000000191
 20
-634.0
 30
0.0
 11
8082.8886121596242
 21
-626.03156729425325
 31
0.0
1001
ACDBBLOCKREPETAG
1070
     1
1071
      126
1005
13A044
  0
LINE
  5
13A045
  8
OBJECT
 10
8080.0000000000191
 20
-634.0
 30
0.0
 11
8085.9999999999873
 21
-653.3502637757274
 31
0.0
1001
ACDBBLOCKREPETAG
1070
     1
1071
      127
1005
13A045
  0
LINE
  5
13A046
  8
HIDDEN
 10
8167.9999999999864
 20
-570.5000000000008
 30
0.0
 11
8167.9999999999864
 21
-659.50000000000068
 31
0.0
1001
ACDBBLOCKREPETAG
1070
     1
1071
      129
1005
13A046
  0
LINE
  5
13A047
  8
OBJECT
 10
8212.9999999999836
 20
-137.99999999999909
 30
0.0
 11
8219.9999999999873
 21
-137.99999999999909
 31
0.0
1001
ACDBBLOCKREPETAG
1070
     1
1071
      110
1005
13A047
  0
LINE
  5
13A048
  8
OBJECT
 10
8219.9999999999873
 20
-137.99999999999909
 30
0.0
 11
8219.9999999999873
 21
-261.99999999999909
 31
0.0
1001
ACDBBLOCKREPETAG
1070
     1
1071
      111
1005
13A048
  0
LINE
  5
13A049
  8
OBJECT
 10
8219.9999999999873
 20
-261.99999999999909
 30
0.0
 11
8212.9999999999836
 21
-261.99999999999909
 31
0.0
1001
ACDBBLOCKREPETAG
1070
     1
1071
      112
1005
13A049
  0
LINE
  5
13A04A
  8
OBJECT
 10
8212.9999999999836
 20
-261.99999999999909
 30
0.0
 11
8212.9999999999836
 21
-137.99999999999909
 31
0.0
1001
ACDBBLOCKREPETAG
1070
     1
1071
      113
1005
13A04A
  0
LINE
  5
13A04B
  8
CENTER
 10
8234.9999999999873
 20
-199.99999999999909
 30
0.0
 11
8080.0000000000027
 21
-199.99999999999909
 31
0.0
1001
ACDBBLOCKREPETAG
1070
     1
1071
      114
1005
13A04B
  0
LINE
  5
13A04C
  8
OBJECT
 10
8159.9999749641902
 20
-245.0000000000027
 30
0.0
 11
8086.0000000000027
 21
-244.99999999999909
 31
0.0
1001
ACDBBLOCKREPETAG
1070
     1
1071
      115
1005
13A04C
  0
LINE
  5
13A04D
  8
OBJECT
 10
8159.9999749641902
 20
-154.99999999999909
 30
0.0
 11
8086.0000000000027
 21
-154.99999999999909
 31
0.0
1001
ACDBBLOCKREPETAG
1070
     1
1071
      116
1005
13A04D
  0
LINE
  5
13A04E
  8
OBJECT
 10
8212.9999999999836
 20
-140.99999999999909
 30
0.0
 11
8176.9999999999873
 21
-140.99999999999909
 31
0.0
1001
ACDBBLOCKREPETAG
1070
     1
1071
      117
1005
13A04E
  0
LINE
  5
13A04F
  8
OBJECT
 10
8176.9999999999873
 20
-140.99999999999909
 30
0.0
 11
8176.9999999999873
 21
-258.99999999999909
 31
0.0
1001
ACDBBLOCKREPETAG
1070
     1
1071
      118
1005
13A04F
  0
LINE
  5
13A050
  8
OBJECT
 10
8176.9999999999873
 20
-258.99999999999909
 30
0.0
 11
8212.9999999999836
 21
-258.99999999999909
 31
0.0
1001
ACDBBLOCKREPETAG
1070
     1
1071
      119
1005
13A050
  0
LINE
  5
13A051
  8
OBJECT
 10
8172.9999999999854
 20
-145.49999999999909
 30
0.0
 11
8159.9999999999873
 21
-145.49999999999909
 31
0.0
1001
ACDBBLOCKREPETAG
1070
     1
1071
      120
1005
13A051
  0
LINE
  5
13A052
  8
OBJECT
 10
8159.9999999999873
 20
-254.49999999999909
 30
0.0
 11
8172.9999999999854
 21
-254.49999999999909
 31
0.0
1001
ACDBBLOCKREPETAG
1070
     1
1071
      121
1005
13A052
  0
LINE
  5
13A053
  8
OBJECT
 10
8172.9999999999854
 20
-254.49999999999909
 30
0.0
 11
8172.9999999999854
 21
-145.49999999999909
 31
0.0
1001
ACDBBLOCKREPETAG
1070
     1
1071
      122
1005
13A053
  0
LINE
  5
13A054
  8
OBJECT
 10
8176.9999999999873
 20
-140.99999999999909
 30
0.0
 11
8172.9999999999854
 21
-145.49999999999909
 31
0.0
1001
ACDBBLOCKREPETAG
1070
     1
1071
      123
1005
13A054
  0
LINE
  5
13A055
  8
OBJECT
 10
8176.9999999999873
 20
-258.99999999999909
 30
0.0
 11
8172.9999999999854
 21
-254.49999999999909
 31
0.0
1001
ACDBBLOCKREPETAG
1070
     1
1071
      124
1005
13A055
  0
LINE
  5
13A056
  8
OBJECT
 10
8083.0000000000027
 20
-137.99999999999909
 30
0.0
 11
8080.0000000000027
 21
-137.99999999999909
 31
0.0
1001
ACDBBLOCKREPETAG
1070
     1
1071
      125
1005
13A056
  0
ARC
  5
13A057
  8
OBJECT
 10
8083.0000000000027
 20
-140.99999999999909
 30
0.0
 40
3.0
 50
0.0
 51
90.0
1001
ACDBBLOCKREPETAG
1070
     1
1071
      126
1005
13A057
  0
LINE
  5
13A058
  8
OBJECT
 10
8080.0000000000027
 20
-261.99999999999909
 30
0.0
 11
8083.0000000000027
 21
-261.99999999999909
 31
0.0
1001
ACDBBLOCKREPETAG
1070
     1
1071
      127
1005
13A058
  0
ARC
  5
13A059
  8
OBJECT
 10
8083.0000000000027
 20
-258.99999999999909
 30
0.0
 40
3.0
 50
270.0
 51
0.0
1001
ACDBBLOCKREPETAG
1070
     1
1071
      128
1005
13A059
  0
LINE
  5
13A05A
  8
OBJECT
 10
8086.0000000000027
 20
-258.99999999999909
 30
0.0
 11
8086.0000000000027
 21
-222.44994432063581
 31
0.0
1001
ACDBBLOCKREPETAG
1070
     1
1071
      129
1005
13A05A
  0
LINE
  5
13A05B
  8
OBJECT
 10
8086.0000000000027
 20
-177.55005567935859
 30
0.0
 11
8086.0000000000027
 21
-140.99999999999909
 31
0.0
1001
ACDBBLOCKREPETAG
1070
     1
1071
      130
1005
13A05B
  0
LINE
  5
13A05C
  8
HIDDEN
 10
8167.9999999999864
 20
-155.49999999999909
 30
0.0
 11
8167.9999999999864
 21
-244.49999999999909
 31
0.0
1001
ACDBBLOCKREPETAG
1070
     1
1071
      131
1005
13A05C
  0
LINE
  5
13A05D
  8
OBJECT
 10
8159.9999749641902
 20
-254.4999509238105
 30
0.0
 11
8159.9999749641902
 21
-145.4999509238105
 31
0.0
1001
ACDBBLOCKREPETAG
1070
     1
1071
      133
1005
13A05D
  0
ARC
  5
13A05E
  8
OBJECT
 10
8125.0000000000027
 20
-199.99999999999909
 30
0.0
 40
45.000000000000547
 50
90.0
 51
166.2158024759261
1001
ACDBBLOCKREPETAG
1070
     1
1071
      134
1005
13A05E
  0
ARC
  5
13A05F
  8
OBJECT
 10
8125.0000000000027
 20
-199.99999999999909
 30
0.0
 40
45.000000000000547
 50
193.78421279332531
 51
270.0
1001
ACDBBLOCKREPETAG
1070
     1
1071
      402
1005
13A05F
  0
LINE
  5
13A060
  8
OBJECT
 10
5787.0000000000146
 20
-553.0
 30
0.0
 11
5780.0000000000146
 21
-553.0
 31
0.0
1001
ACDBBLOCKREPETAG
1070
     1
1071
      106
1005
13A060
  0
LINE
  5
13A061
  8
OBJECT
 10
5780.0000000000146
 20
-553.0
 30
0.0
 11
5780.0000000000146
 21
-677.0
 31
0.0
1001
ACDBBLOCKREPETAG
1070
     1
1071
      107
1005
13A061
  0
LINE
  5
13A062
  8
OBJECT
 10
5914.0000000000146
 20
-653.3502637757274
 30
0.0
 11
5914.0000000000146
 21
-755.00000000000102
 31
0.0
1001
ACDBBLOCKREPETAG
1070
     1
1071
      108
1005
13A062
  0
LINE
  5
13A063
  8
OBJECT
 10
5780.0000000000146
 20
-677.0
 30
0.0
 11
5787.0000000000146
 21
-677.0
 31
0.0
1001
ACDBBLOCKREPETAG
1070
     1
1071
      109
1005
13A063
  0
LINE
  5
13A064
  8
OBJECT
 10
5787.0000000000146
 20
-677.0
 30
0.0
 11
5787.0000000000146
 21
-553.0
 31
0.0
1001
ACDBBLOCKREPETAG
1070
     1
1071
      110
1005
13A064
  0
LINE
  5
13A065
  8
CENTER
 10
5855.0000000000136
 20
-615.0000000000008
 30
0.0
 11
5765.0000000000136
 21
-615.0
 31
0.0
1001
ACDBBLOCKREPETAG
1070
     1
1071
      111
1005
13A065
  0
LINE
  5
13A066
  8
OBJECT
 10
5920.0000000000182
 20
-758.0
 30
0.0
 11
5917.0000000000136
 21
-758.0000000000008
 31
0.0
1001
ACDBBLOCKREPETAG
1070
     1
1071
      112
1005
13A066
  0
ARC
  5
13A067
  8
OBJECT
 10
5917.0000000000136
 20
-755.00000000000102
 30
0.0
 40
3.0
 50
180.0
 51
270.0
1001
ACDBBLOCKREPETAG
1070
     1
1071
      113
1005
13A067
  0
LINE
  5
13A068
  8
OBJECT
 10
5787.0000000000146
 20
-556.0
 30
0.0
 11
5823.0000000000136
 21
-556.0000000000008
 31
0.0
1001
ACDBBLOCKREPETAG
1070
     1
1071
      114
1005
13A068
  0
LINE
  5
13A069
  8
OBJECT
 10
5823.0000000000136
 20
-556.0000000000008
 30
0.0
 11
5823.0000000000136
 21
-653.15756805667843
 31
0.0
1001
ACDBBLOCKREPETAG
1070
     1
1071
      115
1005
13A069
  0
LINE
  5
13A06A
  8
OBJECT
 10
5827.0000000000146
 20
-560.5000000000008
 30
0.0
 11
5827.0000000000182
 21
-645.74491827928705
 31
0.0
1001
ACDBBLOCKREPETAG
1070
     1
1071
      116
1005
13A06A
  0
LINE
  5
13A06B
  8
OBJECT
 10
5827.0000000000146
 20
-560.5000000000008
 30
0.0
 11
5840.0000000000136
 21
-560.5000000000008
 31
0.0
1001
ACDBBLOCKREPETAG
1070
     1
1071
      117
1005
13A06B
  0
LINE
  5
13A06C
  8
OBJECT
 10
5831.3436831745312
 20
-674.0000000000008
 30
0.0
 11
5787.0000000000146
 21
-674.0
 31
0.0
1001
ACDBBLOCKREPETAG
1070
     1
1071
      118
1005
13A06C
  0
LINE
  5
13A06D
  8
OBJECT
 10
5823.0000000000136
 20
-556.0000000000008
 30
0.0
 11
5827.0000000000146
 21
-560.5000000000008
 31
0.0
1001
ACDBBLOCKREPETAG
1070
     1
1071
      119
1005
13A06D
  0
LINE
  5
13A06E
  8
OBJECT
 10
5840.0000000000136
 20
-560.5000000000008
 30
0.0
 11
5840.0000000000136
 21
-645.74491827928784
 31
0.0
1001
ACDBBLOCKREPETAG
1070
     1
1071
      120
1005
13A06E
  0
ARC
  5
13A06F
  8
OBJECT
 10
5908.0000000000146
 20
-637.27386365609345
 30
0.0
 40
85.0
 50
205.5991387218879
 51
231.40900676279119
1001
ACDBBLOCKREPETAG
1070
     1
1071
      121
1005
13A06F
  0
ARC
  5
13A070
  8
OBJECT
 10
5837.2000000000171
 20
-655.00000000000068
 30
0.0
 40
85.0
 50
19.925932125430649
 51
88.112268108168848
1001
ACDBBLOCKREPETAG
1070
     1
1071
      122
1005
13A070
  0
LINE
  5
13A071
  8
OBJECT
 10
5914.0000000000146
 20
-750.81075719270905
 30
0.0
 11
5854.9806774563986
 21
-703.71143914629454
 31
0.0
1001
ACDBBLOCKREPETAG
1070
     1
1071
      123
1005
13A071
  0
LINE
  5
13A072
  8
OBJECT
 10
5827.0000000000182
 20
-645.74491827928705
 30
0.0
 11
5840.0000000000136
 21
-645.74491827928784
 31
0.0
1001
ACDBBLOCKREPETAG
1070
     1
1071
      124
1005
13A072
  0
LINE
  5
13A073
  8
OBJECT
 10
5823.0000000000136
 20
-653.15756805667843
 30
0.0
 11
5827.0000000000182
 21
-645.74491827928705
 31
0.0
1001
ACDBBLOCKREPETAG
1070
     1
1071
      125
1005
13A073
  0
LINE
  5
13A074
  8
OBJECT
 10
5919.9999999999818
 20
-634.0
 30
0.0
 11
5917.1113878403776
 21
-626.03156729425325
 31
0.0
1001
ACDBBLOCKREPETAG
1070
     1
1071
      126
1005
13A074
  0
LINE
  5
13A075
  8
OBJECT
 10
5919.9999999999818
 20
-634.0
 30
0.0
 11
5914.0000000000146
 21
-653.3502637757274
 31
0.0
1001
ACDBBLOCKREPETAG
1070
     1
1071
      127
1005
13A075
  0
LINE
  5
13A076
  8
HIDDEN
 10
5832.0000000000136
 20
-570.5000000000008
 30
0.0
 11
5832.0000000000136
 21
-659.50000000000068
 31
0.0
1001
ACDBBLOCKREPETAG
1070
     1
1071
      129
1005
13A076
  0
CIRCLE
  5
13A077
  8
OBJECT
 10
6000.0
 20
-696.0
 30
0.0
 40
62.0
1001
ACDBBLOCKREPETAG
1070
     1
1071
        0
1005
13A077
  0
LINE
  5
13A078
  8
OBJECT
 10
5787.0000000000182
 20
-137.99999999999909
 30
0.0
 11
5780.0000000000182
 21
-137.99999999999909
 31
0.0
1001
ACDBBLOCKREPETAG
1070
     1
1071
      110
1005
13A078
  0
LINE
  5
13A079
  8
OBJECT
 10
5780.0000000000182
 20
-137.99999999999909
 30
0.0
 11
5780.0000000000182
 21
-261.99999999999909
 31
0.0
1001
ACDBBLOCKREPETAG
1070
     1
1071
      111
1005
13A079
  0
LINE
  5
13A07A
  8
OBJECT
 10
5780.0000000000182
 20
-261.99999999999909
 30
0.0
 11
5787.0000000000182
 21
-261.99999999999909
 31
0.0
1001
ACDBBLOCKREPETAG
1070
     1
1071
      112
1005
13A07A
  0
LINE
  5
13A07B
  8
OBJECT
 10
5787.0000000000182
 20
-261.99999999999909
 30
0.0
 11
5787.0000000000182
 21
-137.99999999999909
 31
0.0
1001
ACDBBLOCKREPETAG
1070
     1
1071
      113
1005
13A07B
  0
LINE
  5
13A07C
  8
CENTER
 10
5765.0000000000182
 20
-199.99999999999909
 30
0.0
 11
5920.0
 21
-199.99999999999909
 31
0.0
1001
ACDBBLOCKREPETAG
1070
     1
1071
      114
1005
13A07C
  0
LINE
  5
13A07D
  8
OBJECT
 10
5840.0000250358171
 20
-245.0000000000027
 30
0.0
 11
5914.0000000000036
 21
-244.99999999999909
 31
0.0
1001
ACDBBLOCKREPETAG
1070
     1
1071
      115
1005
13A07D
  0
LINE
  5
13A07E
  8
OBJECT
 10
5840.0000250358171
 20
-154.99999999999909
 30
0.0
 11
5914.0000000000036
 21
-154.99999999999909
 31
0.0
1001
ACDBBLOCKREPETAG
1070
     1
1071
      116
1005
13A07E
  0
LINE
  5
13A07F
  8
OBJECT
 10
5787.0000000000182
 20
-140.99999999999909
 30
0.0
 11
5823.0000000000182
 21
-140.99999999999909
 31
0.0
1001
ACDBBLOCKREPETAG
1070
     1
1071
      117
1005
13A07F
  0
LINE
  5
13A080
  8
OBJECT
 10
5823.0000000000182
 20
-140.99999999999909
 30
0.0
 11
5823.0000000000182
 21
-258.99999999999909
 31
0.0
1001
ACDBBLOCKREPETAG
1070
     1
1071
      118
1005
13A080
  0
LINE
  5
13A081
  8
OBJECT
 10
5823.0000000000182
 20
-258.99999999999909
 30
0.0
 11
5787.0000000000182
 21
-258.99999999999909
 31
0.0
1001
ACDBBLOCKREPETAG
1070
     1
1071
      119
1005
13A081
  0
LINE
  5
13A082
  8
OBJECT
 10
5827.0000000000182
 20
-145.49999999999909
 30
0.0
 11
5840.0000000000182
 21
-145.49999999999909
 31
0.0
1001
ACDBBLOCKREPETAG
1070
     1
1071
      120
1005
13A082
  0
LINE
  5
13A083
  8
OBJECT
 10
5840.0000000000182
 20
-254.49999999999909
 30
0.0
 11
5827.0000000000182
 21
-254.49999999999909
 31
0.0
1001
ACDBBLOCKREPETAG
1070
     1
1071
      121
1005
13A083
  0
LINE
  5
13A084
  8
OBJECT
 10
5827.0000000000182
 20
-254.49999999999909
 30
0.0
 11
5827.0000000000182
 21
-145.49999999999909
 31
0.0
1001
ACDBBLOCKREPETAG
1070
     1
1071
      122
1005
13A084
  0
LINE
  5
13A085
  8
OBJECT
 10
5823.0000000000182
 20
-140.99999999999909
 30
0.0
 11
5827.0000000000182
 21
-145.49999999999909
 31
0.0
1001
ACDBBLOCKREPETAG
1070
     1
1071
      123
1005
13A085
  0
LINE
  5
13A086
  8
OBJECT
 10
5823.0000000000182
 20
-258.99999999999909
 30
0.0
 11
5827.0000000000182
 21
-254.49999999999909
 31
0.0
1001
ACDBBLOCKREPETAG
1070
     1
1071
      124
1005
13A086
  0
LINE
  5
13A087
  8
OBJECT
 10
5917.0000000000036
 20
-137.99999999999909
 30
0.0
 11
5920.0000000000036
 21
-137.99999999999909
 31
0.0
1001
ACDBBLOCKREPETAG
1070
     1
1071
      125
1005
13A087
  0
ARC
  5
13A088
  8
OBJECT
 10
5917.0000000000036
 20
-140.99999999999909
 30
0.0
 40
3.0
 50
90.0
 51
180.0
1001
ACDBBLOCKREPETAG
1070
     1
1071
      126
1005
13A088
  0
LINE
  5
13A089
  8
OBJECT
 10
5920.0000000000036
 20
-261.99999999999909
 30
0.0
 11
5917.0000000000036
 21
-261.99999999999909
 31
0.0
1001
ACDBBLOCKREPETAG
1070
     1
1071
      127
1005
13A089
  0
ARC
  5
13A08A
  8
OBJECT
 10
5917.0000000000036
 20
-258.99999999999909
 30
0.0
 40
3.0
 50
180.0
 51
270.0
1001
ACDBBLOCKREPETAG
1070
     1
1071
      128
1005
13A08A
  0
LINE
  5
13A08B
  8
OBJECT
 10
5914.0000000000036
 20
-258.99999999999909
 30
0.0
 11
5914.0000000000036
 21
-222.44994432063581
 31
0.0
1001
ACDBBLOCKREPETAG
1070
     1
1071
      129
1005
13A08B
  0
LINE
  5
13A08C
  8
OBJECT
 10
5914.0000000000036
 20
-177.55005567935859
 30
0.0
 11
5914.0000000000036
 21
-140.99999999999909
 31
0.0
1001
ACDBBLOCKREPETAG
1070
     1
1071
      130
1005
13A08C
  0
LINE
  5
13A08D
  8
HIDDEN
 10
5832.0000000000182
 20
-155.49999999999909
 30
0.0
 11
5832.0000000000182
 21
-244.49999999999909
 31
0.0
1001
ACDBBLOCKREPETAG
1070
     1
1071
      131
1005
13A08D
  0
LINE
  5
13A08E
  8
OBJECT
 10
5840.0000250358171
 20
-254.4999509238105
 30
0.0
 11
5840.0000250358171
 21
-145.4999509238105
 31
0.0
1001
ACDBBLOCKREPETAG
1070
     1
1071
      133
1005
13A08E
  0
ARC
  5
13A08F
  8
OBJECT
 10
5875.0
 20
-199.99999999999909
 30
0.0
 40
45.000000000000547
 50
270.0
 51
346.21579484130518
1001
ACDBBLOCKREPETAG
1070
     1
1071
      134
1005
13A08F
  0
ARC
  5
13A090
  8
OBJECT
 10
5875.0
 20
-199.99999999999909
 30
0.0
 40
45.000000000000547
 50
13.78420515869484
 51
90.0
1001
ACDBBLOCKREPETAG
1070
     1
1071
      402
1005
13A090
  0
LINE
  5
13A091
  8
CENTER
 10
6000.0
 20
-300.99999999999898
 30
0.0
 11
6000.0
 21
-279.99999999999909
 31
0.0
1001
ACDBBLOCKREPETAG
1070
     1
1071
        0
1005
13A091
  0
LINE
  5
13A092
  8
OBJECT
 10
6062.0
 20
-283.0
 30
0.0
 11
6062.0
 21
-279.99999999999909
 31
0.0
1001
ACDBBLOCKREPETAG
1070
     1
1071
        1
1005
13A092
  0
ARC
  5
13A093
  8
OBJECT
 10
6059.0
 20
-283.0
 30
0.0
 40
3.0
 50
270.0
 51
0.0
1001
ACDBBLOCKREPETAG
1070
     1
1071
        2
1005
13A093
  0
LINE
  5
13A094
  8
OBJECT
 10
5938.0
 20
-279.99999999999909
 30
0.0
 11
5938.0
 21
-282.99999999999818
 31
0.0
1001
ACDBBLOCKREPETAG
1070
     1
1071
        3
1005
13A094
  0
ARC
  5
13A095
  8
OBJECT
 10
5941.0
 20
-282.99999999999818
 30
0.0
 40
3.0
 50
180.0
 51
270.0
1001
ACDBBLOCKREPETAG
1070
     1
1071
        4
1005
13A095
  0
LINE
  5
13A096
  8
OBJECT
 10
5941.0
 20
-285.99999999999818
 30
0.0
 11
6059.0
 21
-286.0
 31
0.0
1001
ACDBBLOCKREPETAG
1070
     1
1071
        5
1005
13A096
  0
LINE
  5
13A097
  8
HIDDEN
 10
5943.0
 20
-619.99999999999955
 30
0.0
 11
6057.0
 21
-619.99999999999955
 31
0.0
1001
ACDBBLOCKREPETAG
1070
     1
1071
       57
1005
13A097
  0
LINE
  5
13A098
  8
CENTER
 10
6000.0
 20
-534.99999999999955
 30
0.0
 11
6000.0
 21
-899.99999999999955
 31
0.0
1001
ACDBBLOCKREPETAG
1070
     1
1071
       58
1005
13A098
  0
LINE
  5
13A099
  8
OBJECT
 10
5928.0
 20
-570.99999999999955
 30
0.0
 11
5928.0
 21
-633.99999999999955
 31
0.0
1001
ACDBBLOCKREPETAG
1070
     1
1071
       59
1005
13A099
  0
LINE
  5
13A09A
  8
OBJECT
 10
6072.0
 20
-633.99999999999955
 30
0.0
 11
6072.0
 21
-570.99999999999955
 31
0.0
1001
ACDBBLOCKREPETAG
1070
     1
1071
       60
1005
13A09A
  0
LINE
  5
13A09B
  8
OBJECT
 10
5920.0
 20
-887.99999999999955
 30
0.0
 11
6080.0
 21
-887.99999999999955
 31
0.0
1001
ACDBBLOCKREPETAG
1070
     1
1071
       61
1005
13A09B
  0
LINE
  5
13A09C
  8
OBJECT
 10
6080.0
 20
-633.99999999999955
 30
0.0
 11
5920.0
 21
-633.99999999999955
 31
0.0
1001
ACDBBLOCKREPETAG
1070
     1
1071
       62
1005
13A09C
  0
LINE
  5
13A09D
  8
OBJECT
 10
5920.0
 20
-887.99999999999955
 30
0.0
 11
5920.0
 21
-899.99999999999955
 31
0.0
1001
ACDBBLOCKREPETAG
1070
     1
1071
       63
1005
13A09D
  0
LINE
  5
13A09E
  8
OBJECT
 10
5920.0
 20
-899.99999999999955
 30
0.0
 11
6080.0
 21
-899.99999999999955
 31
0.0
1001
ACDBBLOCKREPETAG
1070
     1
1071
       64
1005
13A09E
  0
LINE
  5
13A09F
  8
OBJECT
 10
6080.0
 20
-899.99999999999955
 30
0.0
 11
6080.0
 21
-887.99999999999955
 31
0.0
1001
ACDBBLOCKREPETAG
1070
     1
1071
       65
1005
13A09F
  0
LINE
  5
13A0A0
  8
OBJECT
 10
6074.9999999998618
 20
-757.99999999985016
 30
0.0
 11
6075.0
 21
-887.99999999999955
 31
0.0
1001
ACDBBLOCKREPETAG
1070
     1
1071
       69
1005
13A0A0
  0
LINE
  5
13A0A1
  8
OBJECT
 10
6074.9999908029858
 20
-757.99998602702112
 30
0.0
 11
6080.0
 21
-757.99998602702112
 31
0.0
1001
ACDBBLOCKREPETAG
1070
     1
1071
       70
1005
13A0A1
  0
LINE
  5
13A0A2
  8
OBJECT
 10
5925.0000000001392
 20
-757.99999999985016
 30
0.0
 11
5925.0
 21
-887.99999999999955
 31
0.0
1001
ACDBBLOCKREPETAG
1070
     1
1071
       71
1005
13A0A2
  0
LINE
  5
13A0A3
  8
OBJECT
 10
5925.0000091970142
 20
-757.99998602702112
 30
0.0
 11
5920.0
 21
-757.99998602702112
 31
0.0
1001
ACDBBLOCKREPETAG
1070
     1
1071
       72
1005
13A0A3
  0
LINE
  5
13A0A4
  8
OBJECT
 10
5918.0
 20
-570.99999999999955
 30
0.0
 11
5918.0
 21
-549.99999999999955
 31
0.0
1001
ACDBBLOCKREPETAG
1070
     1
1071
       73
1005
13A0A4
  0
LINE
  5
13A0A5
  8
OBJECT
 10
5918.0
 20
-549.99999999999955
 30
0.0
 11
6082.0000000000036
 21
-549.99999999999955
 31
0.0
1001
ACDBBLOCKREPETAG
1070
     1
1071
       74
1005
13A0A5
  0
LINE
  5
13A0A6
  8
OBJECT
 10
6082.0000000000036
 20
-570.99999999999955
 30
0.0
 11
5918.0
 21
-570.99999999999955
 31
0.0
1001
ACDBBLOCKREPETAG
1070
     1
1071
       75
1005
13A0A6
  0
LINE
  5
13A0A7
  8
OBJECT
 10
5920.7940817120252
 20
-549.99999999999955
 30
0.0
 11
5920.7940817120252
 21
-570.99999999999955
 31
0.0
1001
ACDBBLOCKREPETAG
1070
     1
1071
       76
1005
13A0A7
  0
LINE
  5
13A0A8
  8
OBJECT
 10
5928.7378959999987
 20
-549.99999999999955
 30
0.0
 11
5928.7378959999987
 21
-570.99999999999955
 31
0.0
1001
ACDBBLOCKREPETAG
1070
     1
1071
       77
1005
13A0A8
  0
LINE
  5
13A0A9
  8
OBJECT
 10
5970.8330260000012
 20
-549.99999999999955
 30
0.0
 11
5970.8330260000012
 21
-570.99999999999955
 31
0.0
1001
ACDBBLOCKREPETAG
1070
     1
1071
       78
1005
13A0A9
  0
LINE
  5
13A0AA
  8
OBJECT
 10
5978.7768389218008
 20
-549.99999999999955
 30
0.0
 11
5978.7768389218008
 21
-570.99999999999955
 31
0.0
1001
ACDBBLOCKREPETAG
1070
     1
1071
       79
1005
13A0AA
  0
LINE
  5
13A0AB
  8
OBJECT
 10
6082.0
 20
-570.99999999999955
 30
0.0
 11
6082.0
 21
-549.99999999999955
 31
0.0
1001
ACDBBLOCKREPETAG
1070
     1
1071
       80
1005
13A0AB
  0
LINE
  5
13A0AC
  8
OBJECT
 10
6079.2059182879748
 20
-549.99999999999955
 30
0.0
 11
6079.2059182879748
 21
-570.99999999999955
 31
0.0
1001
ACDBBLOCKREPETAG
1070
     1
1071
       81
1005
13A0AC
  0
LINE
  5
13A0AD
  8
OBJECT
 10
6071.2621040000022
 20
-549.99999999999955
 30
0.0
 11
6071.2621040000022
 21
-570.99999999999955
 31
0.0
1001
ACDBBLOCKREPETAG
1070
     1
1071
       82
1005
13A0AD
  0
LINE
  5
13A0AE
  8
OBJECT
 10
6029.1669739999979
 20
-549.99999999999955
 30
0.0
 11
6029.1669739999979
 21
-570.99999999999955
 31
0.0
1001
ACDBBLOCKREPETAG
1070
     1
1071
       83
1005
13A0AE
  0
LINE
  5
13A0AF
  8
OBJECT
 10
6021.2231610781992
 20
-549.99999999999955
 30
0.0
 11
6021.2231610781992
 21
-570.99999999999955
 31
0.0
1001
ACDBBLOCKREPETAG
1070
     1
1071
       84
1005
13A0AF
  0
ARC
  5
13A0B0
  8
OBJECT
 10
6200.6872746716735
 20
-749.40809941010718
 30
0.0
 40
170.6350503965856
 50
137.44134459184301
 51
149.91949581337221
1001
ACDBBLOCKREPETAG
1070
     1
1071
       85
1005
13A0B0
  0
ARC
  5
13A0B1
  8
OBJECT
 10
6200.6872746716735
 20
-642.59190058989179
 30
0.0
 40
170.6350503965856
 50
210.08050418662771
 51
222.55865540815699
1001
ACDBBLOCKREPETAG
1070
     1
1071
       86
1005
13A0B1
  0
ARC
  5
13A0B2
  8
OBJECT
 10
5799.3127253283274
 20
-749.40809941010718
 30
0.0
 40
170.6350503965856
 50
30.080504186710289
 51
42.558655408382641
1001
ACDBBLOCKREPETAG
1070
     1
1071
       87
1005
13A0B2
  0
ARC
  5
13A0B3
  8
OBJECT
 10
5799.3127253283274
 20
-642.59190058989179
 30
0.0
 40
170.6350503965856
 50
317.44134459161722
 51
329.9194958132897
1001
ACDBBLOCKREPETAG
1070
     1
1071
       88
1005
13A0B3
  0
POINT
  5
13A0B4
  8
DOTS
 10
6000.0
 20
-754.99999999999955
 30
0.0
1001
ACDBBLOCKREPETAG
1070
     1
1071
      202
1005
13A0B4
  0
LINE
  5
13A0B5
  8
OBJECT
 10
5946.692194143754
 20
-195.46638161316051
 30
0.0
 11
5970.4540343856352
 21
-193.79865146436981
 31
0.0
1001
ACDBBLOCKREPETAG
1070
     1
1071
      319
1005
13A0B5
  0
LINE
  5
13A0B6
  8
OBJECT
 10
5947.3854347270608
 20
-190.305593971766
 30
0.0
 11
5966.9884352629006
 21
-188.92975272660161
 31
0.0
1001
ACDBBLOCKREPETAG
1070
     1
1071
      320
1005
13A0B6
  0
LINE
  5
13A0B7
  8
OBJECT
 10
5974.1135374752794
 20
-242.77722592637201
 30
0.0
 11
5982.1366988374084
 21
-234.1690987954708
 31
0.0
1001
ACDBBLOCKREPETAG
1070
     1
1071
      321
1005
13A0B7
  0
ARC
  5
13A0B8
  8
OBJECT
 10
5982.1160071245376
 20
-183.28188966318251
 30
0.0
 40
60.031113246032611
 50
254.07020130412749
 51
262.33936106086588
1001
ACDBBLOCKREPETAG
1070
     1
1071
      322
1005
13A0B8
  0
LINE
  5
13A0B9
  8
OBJECT
 10
5977.6125997325144
 20
-197.67495277149911
 30
0.0
 11
5982.1366988374084
 21
-234.1690987954708
 31
0.0
1001
ACDBBLOCKREPETAG
1070
     1
1071
      323
1005
13A0B9
  0
ARC
  5
13A0BA
  8
OBJECT
 10
5967.6885653456411
 20
-198.90521351131881
 30
0.0
 40
10.0
 50
7.0667782929925851
 51
94.014734370532395
1001
ACDBBLOCKREPETAG
1070
     1
1071
      324
1005
13A0BA
  0
ARC
  5
13A0BB
  8
OBJECT
 10
5970.9441253709738
 20
-200.78147401875589
 30
0.0
 40
7.0
 50
7.0667782929925851
 51
94.014733775014648
1001
ACDBBLOCKREPETAG
1070
     1
1071
      325
1005
13A0BB
  0
POINT
  5
13A0BC
  8
DOTS
 10
6000.0
 20
-199.99999999999909
 30
0.0
 50
270.0
1001
ACDBBLOCKREPETAG
1070
     1
1071
      153
1005
13A0BC
  0
ARC
  5
13A0BD
  8
OBJECT
 10
6000.0
 20
-199.99999999999909
 30
0.0
 40
77.0
 50
202.25886899988009
 51
247.74113099990561
1001
ACDBBLOCKREPETAG
1070
     1
1071
       57
1005
13A0BD
  0
ARC
  5
13A0BE
  8
OBJECT
 10
6000.0
 20
-199.99999999999909
 30
0.0
 40
80.0
 50
50.804965661401717
 51
72.417343999921059
1001
ACDBBLOCKREPETAG
1070
     1
1071
       58
1005
13A0BE
  0
ARC
  5
13A0BF
  8
OBJECT
 10
6000.0
 20
-199.99999999999909
 30
0.0
 40
77.0
 50
292.25886900009442
 51
337.74113100011988
1001
ACDBBLOCKREPETAG
1070
     1
1071
       59
1005
13A0BF
  0
ARC
  5
13A0C0
  8
OBJECT
 10
6000.0
 20
-199.99999999999909
 30
0.0
 40
77.0
 50
112.25886900009441
 51
157.74113100011991
1001
ACDBBLOCKREPETAG
1070
     1
1071
       60
1005
13A0C0
  0
ARC
  5
13A0C1
  8
OBJECT
 10
6000.0
 20
-199.99999999999909
 30
0.0
 40
80.0
 50
107.5826560000789
 51
129.19497730755359
1001
ACDBBLOCKREPETAG
1070
     1
1071
       61
1005
13A0C1
  0
ARC
  5
13A0C2
  8
OBJECT
 10
6000.0
 20
-199.99999999999909
 30
0.0
 40
77.0
 50
22.258868999880129
 51
67.741130999905565
1001
ACDBBLOCKREPETAG
1070
     1
1071
       62
1005
13A0C2
  0
CIRCLE
  5
13A0C3
  8
OBJECT
 10
6000.0
 20
-199.99999999999909
 30
0.0
 40
70.0
1001
ACDBBLOCKREPETAG
1070
     1
1071
       63
1005
13A0C3
  0
LINE
  5
13A0C4
  8
OBJECT
 10
6029.1669749999983
 20
-271.26210499999888
 30
0.0
 11
6021.2231624441056
 21
-279.20591755589248
 31
0.0
1001
ACDBBLOCKREPETAG
1070
     1
1071
       64
1005
13A0C4
  0
LINE
  5
13A0C5
  8
OBJECT
 10
5970.8330260000012
 20
-271.26210499999888
 30
0.0
 11
5978.7768389219164
 21
-279.20591792191681
 31
0.0
1001
ACDBBLOCKREPETAG
1070
     1
1071
       65
1005
13A0C5
  0
ARC
  5
13A0C6
  8
OBJECT
 10
6000.0
 20
-199.99999999999909
 30
0.0
 40
82.000000000000014
 50
255.00000044864069
 51
285.00000053947957
1001
ACDBBLOCKREPETAG
1070
     1
1071
       66
1005
13A0C6
  0
LINE
  5
13A0C7
  8
OBJECT
 10
5928.7378959999987
 20
-229.1669739999989
 30
0.0
 11
5920.7940817120543
 21
-221.2231597120545
 31
0.0
1001
ACDBBLOCKREPETAG
1070
     1
1071
       67
1005
13A0C7
  0
ARC
  5
13A0C8
  8
OBJECT
 10
6000.0
 20
-199.99999999999909
 30
0.0
 40
82.000000000000014
 50
165.0000004488474
 51
194.9999985630262
1001
ACDBBLOCKREPETAG
1070
     1
1071
       68
1005
13A0C8
  0
LINE
  5
13A0C9
  8
OBJECT
 10
5970.8330260000012
 20
-128.7378949999993
 30
0.0
 11
5978.7768389219164
 21
-120.7940820780795
 31
0.0
1001
ACDBBLOCKREPETAG
1070
     1
1071
       69
1005
13A0C9
  0
ARC
  5
13A0CA
  8
OBJECT
 10
6000.0
 20
-199.99999999999909
 30
0.0
 40
82.000000000000014
 50
74.999999460520442
 51
104.99999955135929
1001
ACDBBLOCKREPETAG
1070
     1
1071
       70
1005
13A0CA
  0
LINE
  5
13A0CB
  8
OBJECT
 10
6029.1669749999983
 20
-128.7378949999993
 30
0.0
 11
6021.2231624441056
 21
-120.79408244410391
 31
0.0
1001
ACDBBLOCKREPETAG
1070
     1
1071
       71
1005
13A0CB
  0
LINE
  5
13A0CC
  8
OBJECT
 10
5962.402059
 20
-161.93893300000039
 30
0.0
 11
6037.0841102714221
 21
-174.5180316957439
 31
0.0
1001
ACDBBLOCKREPETAG
1070
     1
1071
       72
1005
13A0CC
  0
LINE
  5
13A0CD
  8
OBJECT
 10
6044.0936569999967
 20
-169.70149399999991
 30
0.0
 11
6037.0841102714221
 21
-174.5180316957439
 31
0.0
1001
ACDBBLOCKREPETAG
1070
     1
1071
       73
1005
13A0CD
  0
LINE
  5
13A0CE
  8
OBJECT
 10
5928.7378959999987
 20
-170.833024999999
 30
0.0
 11
5920.7940820780777
 21
-178.77683892191911
 31
0.0
1001
ACDBBLOCKREPETAG
1070
     1
1071
       74
1005
13A0CE
  0
CIRCLE
  5
13A0CF
  8
OBJECT
 10
6000.0
 20
-199.99999999999909
 30
0.0
 40
53.500000000000007
1001
ACDBBLOCKREPETAG
1070
     1
1071
       75
1005
13A0CF
  0
ARC
  5
13A0D0
  8
OBJECT
 10
6000.0
 20
-199.99999999999909
 30
0.0
 40
50.0
 50
131.70180964353301
 51
168.52376955958221
1001
ACDBBLOCKREPETAG
1070
     1
1071
       76
1005
13A0D0
  0
ARC
  5
13A0D1
  8
OBJECT
 10
6000.0
 20
-199.99999999999909
 30
0.0
 40
50.0
 50
238.8199429999047
 51
34.49450625011707
1001
ACDBBLOCKREPETAG
1070
     1
1071
       77
1005
13A0D1
  0
LINE
  5
13A0D2
  8
OBJECT
 10
6071.262104999998
 20
-170.833024999999
 30
0.0
 11
6079.2059175558934
 21
-178.77683755589439
 31
0.0
1001
ACDBBLOCKREPETAG
1070
     1
1071
       78
1005
13A0D2
  0
ARC
  5
13A0D3
  8
OBJECT
 10
6000.0
 20
-199.99999999999909
 30
0.0
 40
82.000000000000014
 50
345.00000044884729
 51
15.00000053937171
1001
ACDBBLOCKREPETAG
1070
     1
1071
       79
1005
13A0D3
  0
LINE
  5
13A0D4
  8
OBJECT
 10
6071.262104999998
 20
-229.1669739999989
 30
0.0
 11
6079.2059179219223
 21
-221.2231610780791
 31
0.0
1001
ACDBBLOCKREPETAG
1070
     1
1071
       80
1005
13A0D4
  0
LINE
  5
13A0D5
  8
OBJECT
 10
6045.6618002273253
 20
-137.99999999999909
 30
0.0
 11
6080.0
 21
-137.99999999999909
 31
0.0
1001
ACDBBLOCKREPETAG
1070
     1
1071
       81
1005
13A0D5
  0
LINE
  5
13A0D6
  8
OBJECT
 10
6062.0
 20
-261.99999999999909
 30
0.0
 11
6080.0
 21
-261.99999999999909
 31
0.0
1001
ACDBBLOCKREPETAG
1070
     1
1071
       82
1005
13A0D6
  0
LINE
  5
13A0D7
  8
OBJECT
 10
6062.0
 20
-261.99999999999909
 30
0.0
 11
6062.0
 21
-279.99999999999909
 31
0.0
1001
ACDBBLOCKREPETAG
1070
     1
1071
       84
1005
13A0D7
  0
LINE
  5
13A0D8
  8
OBJECT
 10
5938.0
 20
-261.99999999999909
 30
0.0
 11
5938.0
 21
-279.99999999999909
 31
0.0
1001
ACDBBLOCKREPETAG
1070
     1
1071
       85
1005
13A0D8
  0
LINE
  5
13A0D9
  8
OBJECT
 10
5938.0
 20
-261.99999999999909
 30
0.0
 11
5920.0
 21
-261.99999999999909
 31
0.0
1001
ACDBBLOCKREPETAG
1070
     1
1071
       87
1005
13A0D9
  0
LINE
  5
13A0DA
  8
OBJECT
 10
5954.3381997726738
 20
-137.99999999999909
 30
0.0
 11
5920.0
 21
-137.99999999999909
 31
0.0
1001
ACDBBLOCKREPETAG
1070
     1
1071
       88
1005
13A0DA
  0
LINE
  5
13A0DB
  8
CENTER
 10
6080.0
 20
-199.99999999999909
 30
0.0
 11
5920.0
 21
-199.99999999999909
 31
0.0
1001
ACDBBLOCKREPETAG
1070
     1
1071
       97
1005
13A0DB
  0
LINE
  5
13A0DC
  8
CENTER
 10
6000.0
 20
-279.99999999999909
 30
0.0
 11
6000.0
 21
-104.9999999999991
 31
0.0
1001
ACDBBLOCKREPETAG
1070
     1
1071
       98
1005
13A0DC
  0
LINE
  5
13A0DD
  8
OBJECT
 10
5945.5527778486367
 20
-254.44722215136329
 30
0.0
 11
5938.0
 21
-261.99999999999909
 31
0.0
1001
ACDBBLOCKREPETAG
1070
     1
1071
       99
1005
13A0DD
  0
LINE
  5
13A0DE
  8
OBJECT
 10
6054.4472221513633
 20
-254.44722215136329
 30
0.0
 11
6062.0
 21
-261.99999999999909
 31
0.0
1001
ACDBBLOCKREPETAG
1070
     1
1071
      100
1005
13A0DE
  0
LINE
  5
13A0DF
  8
OBJECT
 10
6212.9999999999864
 20
-553.0000000000008
 30
0.0
 11
6219.9999999999873
 21
-553.0000000000008
 31
0.0
1001
ACDBBLOCKREPETAG
1070
     1
1071
      106
1005
13A0DF
  0
LINE
  5
13A0E0
  8
OBJECT
 10
6219.9999999999873
 20
-553.0000000000008
 30
0.0
 11
6219.9999999999873
 21
-677.0000000000008
 31
0.0
1001
ACDBBLOCKREPETAG
1070
     1
1071
      107
1005
13A0E0
  0
LINE
  5
13A0E1
  8
OBJECT
 10
6085.9999999999864
 20
-653.3502637757274
 30
0.0
 11
6085.9999999999864
 21
-755.00000000000102
 31
0.0
1001
ACDBBLOCKREPETAG
1070
     1
1071
      108
1005
13A0E1
  0
LINE
  5
13A0E2
  8
OBJECT
 10
6219.9999999999873
 20
-677.0000000000008
 30
0.0
 11
6212.9999999999864
 21
-677.0000000000008
 31
0.0
1001
ACDBBLOCKREPETAG
1070
     1
1071
      109
1005
13A0E2
  0
LINE
  5
13A0E3
  8
OBJECT
 10
6212.9999999999864
 20
-677.0000000000008
 30
0.0
 11
6212.9999999999864
 21
-553.0000000000008
 31
0.0
1001
ACDBBLOCKREPETAG
1070
     1
1071
      110
1005
13A0E3
  0
LINE
  5
13A0E4
  8
CENTER
 10
6144.9999999999873
 20
-615.0000000000008
 30
0.0
 11
6234.9999999999864
 21
-615.0000000000008
 31
0.0
1001
ACDBBLOCKREPETAG
1070
     1
1071
      111
1005
13A0E4
  0
LINE
  5
13A0E5
  8
OBJECT
 10
6079.9999999999818
 20
-758.0
 30
0.0
 11
6082.9999999999864
 21
-758.0000000000008
 31
0.0
1001
ACDBBLOCKREPETAG
1070
     1
1071
      112
1005
13A0E5
  0
ARC
  5
13A0E6
  8
OBJECT
 10
6082.9999999999864
 20
-755.00000000000102
 30
0.0
 40
3.0
 50
270.0
 51
0.0
1001
ACDBBLOCKREPETAG
1070
     1
1071
      113
1005
13A0E6
  0
LINE
  5
13A0E7
  8
OBJECT
 10
6212.9999999999864
 20
-556.0000000000008
 30
0.0
 11
6176.9999999999873
 21
-556.0000000000008
 31
0.0
1001
ACDBBLOCKREPETAG
1070
     1
1071
      114
1005
13A0E7
  0
LINE
  5
13A0E8
  8
OBJECT
 10
6176.9999999999873
 20
-556.0000000000008
 30
0.0
 11
6176.9999999999873
 21
-653.15756805667843
 31
0.0
1001
ACDBBLOCKREPETAG
1070
     1
1071
      115
1005
13A0E8
  0
LINE
  5
13A0E9
  8
OBJECT
 10
6172.9999999999864
 20
-560.5000000000008
 30
0.0
 11
6172.9999999999818
 21
-645.74491827928705
 31
0.0
1001
ACDBBLOCKREPETAG
1070
     1
1071
      116
1005
13A0E9
  0
LINE
  5
13A0EA
  8
OBJECT
 10
6172.9999999999864
 20
-560.5000000000008
 30
0.0
 11
6159.9999999999864
 21
-560.5000000000008
 31
0.0
1001
ACDBBLOCKREPETAG
1070
     1
1071
      117
1005
13A0EA
  0
LINE
  5
13A0EB
  8
OBJECT
 10
6168.6563168254688
 20
-674.0000000000008
 30
0.0
 11
6212.9999999999864
 21
-674.0000000000008
 31
0.0
1001
ACDBBLOCKREPETAG
1070
     1
1071
      118
1005
13A0EB
  0
LINE
  5
13A0EC
  8
OBJECT
 10
6176.9999999999873
 20
-556.0000000000008
 30
0.0
 11
6172.9999999999864
 21
-560.5000000000008
 31
0.0
1001
ACDBBLOCKREPETAG
1070
     1
1071
      119
1005
13A0EC
  0
LINE
  5
13A0ED
  8
OBJECT
 10
6159.9999999999864
 20
-560.5000000000008
 30
0.0
 11
6159.9999999999864
 21
-645.74491827928784
 31
0.0
1001
ACDBBLOCKREPETAG
1070
     1
1071
      120
1005
13A0ED
  0
ARC
  5
13A0EE
  8
OBJECT
 10
6091.9999999999873
 20
-637.27386365609345
 30
0.0
 40
85.0
 50
308.59099323720869
 51
334.40086127811207
1001
ACDBBLOCKREPETAG
1070
     1
1071
      121
1005
13A0EE
  0
ARC
  5
13A0EF
  8
OBJECT
 10
6162.7999999999856
 20
-655.00000000000068
 30
0.0
 40
85.0
 50
91.887731891831123
 51
160.07406787456929
1001
ACDBBLOCKREPETAG
1070
     1
1071
      122
1005
13A0EF
  0
LINE
  5
13A0F0
  8
OBJECT
 10
6085.9999999999864
 20
-750.81075719270905
 30
0.0
 11
6145.0193225436024
 21
-703.71143914629454
 31
0.0
1001
ACDBBLOCKREPETAG
1070
     1
1071
      123
1005
13A0F0
  0
LINE
  5
13A0F1
  8
OBJECT
 10
6172.9999999999818
 20
-645.74491827928705
 30
0.0
 11
6159.9999999999864
 21
-645.74491827928784
 31
0.0
1001
ACDBBLOCKREPETAG
1070
     1
1071
      124
1005
13A0F1
  0
LINE
  5
13A0F2
  8
OBJECT
 10
6176.9999999999873
 20
-653.15756805667843
 30
0.0
 11
6172.9999999999818
 21
-645.74491827928705
 31
0.0
1001
ACDBBLOCKREPETAG
1070
     1
1071
      125
1005
13A0F2
  0
LINE
  5
13A0F3
  8
OBJECT
 10
6080.0000000000182
 20
-634.0
 30
0.0
 11
6082.8886121596233
 21
-626.03156729425325
 31
0.0
1001
ACDBBLOCKREPETAG
1070
     1
1071
      126
1005
13A0F3
  0
LINE
  5
13A0F4
  8
OBJECT
 10
6080.0000000000182
 20
-634.0
 30
0.0
 11
6085.9999999999864
 21
-653.3502637757274
 31
0.0
1001
ACDBBLOCKREPETAG
1070
     1
1071
      127
1005
13A0F4
  0
LINE
  5
13A0F5
  8
HIDDEN
 10
6167.9999999999864
 20
-570.5000000000008
 30
0.0
 11
6167.9999999999864
 21
-659.50000000000068
 31
0.0
1001
ACDBBLOCKREPETAG
1070
     1
1071
      129
1005
13A0F5
  0
LINE
  5
13A0F6
  8
OBJECT
 10
6212.9999999999864
 20
-137.99999999999909
 30
0.0
 11
6219.9999999999873
 21
-137.99999999999909
 31
0.0
1001
ACDBBLOCKREPETAG
1070
     1
1071
      110
1005
13A0F6
  0
LINE
  5
13A0F7
  8
OBJECT
 10
6219.9999999999873
 20
-137.99999999999909
 30
0.0
 11
6219.9999999999873
 21
-261.99999999999909
 31
0.0
1001
ACDBBLOCKREPETAG
1070
     1
1071
      111
1005
13A0F7
  0
LINE
  5
13A0F8
  8
OBJECT
 10
6219.9999999999873
 20
-261.99999999999909
 30
0.0
 11
6212.9999999999864
 21
-261.99999999999909
 31
0.0
1001
ACDBBLOCKREPETAG
1070
     1
1071
      112
1005
13A0F8
  0
LINE
  5
13A0F9
  8
OBJECT
 10
6212.9999999999864
 20
-261.99999999999909
 30
0.0
 11
6212.9999999999864
 21
-137.99999999999909
 31
0.0
1001
ACDBBLOCKREPETAG
1070
     1
1071
      113
1005
13A0F9
  0
LINE
  5
13A0FA
  8
CENTER
 10
6234.9999999999864
 20
-199.99999999999909
 30
0.0
 11
6080.0000000000036
 21
-199.99999999999909
 31
0.0
1001
ACDBBLOCKREPETAG
1070
     1
1071
      114
1005
13A0FA
  0
LINE
  5
13A0FB
  8
OBJECT
 10
6159.9999749641856
 20
-245.0000000000027
 30
0.0
 11
6086.0
 21
-244.99999999999909
 31
0.0
1001
ACDBBLOCKREPETAG
1070
     1
1071
      115
1005
13A0FB
  0
LINE
  5
13A0FC
  8
OBJECT
 10
6159.9999749641856
 20
-154.99999999999909
 30
0.0
 11
6086.0
 21
-154.99999999999909
 31
0.0
1001
ACDBBLOCKREPETAG
1070
     1
1071
      116
1005
13A0FC
  0
LINE
  5
13A0FD
  8
OBJECT
 10
6212.9999999999864
 20
-140.99999999999909
 30
0.0
 11
6176.9999999999873
 21
-140.99999999999909
 31
0.0
1001
ACDBBLOCKREPETAG
1070
     1
1071
      117
1005
13A0FD
  0
LINE
  5
13A0FE
  8
OBJECT
 10
6176.9999999999873
 20
-140.99999999999909
 30
0.0
 11
6176.9999999999873
 21
-258.99999999999909
 31
0.0
1001
ACDBBLOCKREPETAG
1070
     1
1071
      118
1005
13A0FE
  0
LINE
  5
13A0FF
  8
OBJECT
 10
6176.9999999999873
 20
-258.99999999999909
 30
0.0
 11
6212.9999999999864
 21
-258.99999999999909
 31
0.0
1001
ACDBBLOCKREPETAG
1070
     1
1071
      119
1005
13A0FF
  0
LINE
  5
13A100
  8
OBJECT
 10
6172.9999999999864
 20
-145.49999999999909
 30
0.0
 11
6159.9999999999864
 21
-145.49999999999909
 31
0.0
1001
ACDBBLOCKREPETAG
1070
     1
1071
      120
1005
13A100
  0
LINE
  5
13A101
  8
OBJECT
 10
6159.9999999999864
 20
-254.49999999999909
 30
0.0
 11
6172.9999999999864
 21
-254.49999999999909
 31
0.0
1001
ACDBBLOCKREPETAG
1070
     1
1071
      121
1005
13A101
  0
LINE
  5
13A102
  8
OBJECT
 10
6172.9999999999864
 20
-254.49999999999909
 30
0.0
 11
6172.9999999999864
 21
-145.49999999999909
 31
0.0
1001
ACDBBLOCKREPETAG
1070
     1
1071
      122
1005
13A102
  0
LINE
  5
13A103
  8
OBJECT
 10
6176.9999999999873
 20
-140.99999999999909
 30
0.0
 11
6172.9999999999864
 21
-145.49999999999909
 31
0.0
1001
ACDBBLOCKREPETAG
1070
     1
1071
      123
1005
13A103
  0
LINE
  5
13A104
  8
OBJECT
 10
6176.9999999999873
 20
-258.99999999999909
 30
0.0
 11
6172.9999999999864
 21
-254.49999999999909
 31
0.0
1001
ACDBBLOCKREPETAG
1070
     1
1071
      124
1005
13A104
  0
LINE
  5
13A105
  8
OBJECT
 10
6083.0
 20
-137.99999999999909
 30
0.0
 11
6080.0
 21
-137.99999999999909
 31
0.0
1001
ACDBBLOCKREPETAG
1070
     1
1071
      125
1005
13A105
  0
ARC
  5
13A106
  8
OBJECT
 10
6083.0
 20
-140.99999999999909
 30
0.0
 40
3.0
 50
0.0
 51
90.0
1001
ACDBBLOCKREPETAG
1070
     1
1071
      126
1005
13A106
  0
LINE
  5
13A107
  8
OBJECT
 10
6080.0
 20
-261.99999999999909
 30
0.0
 11
6083.0
 21
-261.99999999999909
 31
0.0
1001
ACDBBLOCKREPETAG
1070
     1
1071
      127
1005
13A107
  0
ARC
  5
13A108
  8
OBJECT
 10
6083.0
 20
-258.99999999999909
 30
0.0
 40
3.0
 50
270.0
 51
0.0
1001
ACDBBLOCKREPETAG
1070
     1
1071
      128
1005
13A108
  0
LINE
  5
13A109
  8
OBJECT
 10
6086.0
 20
-258.99999999999909
 30
0.0
 11
6086.0
 21
-222.44994432063581
 31
0.0
1001
ACDBBLOCKREPETAG
1070
     1
1071
      129
1005
13A109
  0
LINE
  5
13A10A
  8
OBJECT
 10
6086.0
 20
-177.55005567935859
 30
0.0
 11
6086.0
 21
-140.99999999999909
 31
0.0
1001
ACDBBLOCKREPETAG
1070
     1
1071
      130
1005
13A10A
  0
LINE
  5
13A10B
  8
HIDDEN
 10
6167.9999999999864
 20
-155.49999999999909
 30
0.0
 11
6167.9999999999864
 21
-244.49999999999909
 31
0.0
1001
ACDBBLOCKREPETAG
1070
     1
1071
      131
1005
13A10B
  0
LINE
  5
13A10C
  8
OBJECT
 10
6159.9999749641856
 20
-254.4999509238105
 30
0.0
 11
6159.9999749641856
 21
-145.4999509238105
 31
0.0
1001
ACDBBLOCKREPETAG
1070
     1
1071
      133
1005
13A10C
  0
ARC
  5
13A10D
  8
OBJECT
 10
6125.0000000000027
 20
-199.99999999999909
 30
0.0
 40
45.000000000000547
 50
90.0
 51
166.2158024759261
1001
ACDBBLOCKREPETAG
1070
     1
1071
      134
1005
13A10D
  0
ARC
  5
13A10E
  8
OBJECT
 10
6125.0000000000027
 20
-199.99999999999909
 30
0.0
 40
45.000000000000547
 50
193.78421279332531
 51
270.0
1001
ACDBBLOCKREPETAG
1070
     1
1071
      402
1005
13A10E
  0
LINE
  5
13A10F
  8
OBJECT
 10
3787.000000000015
 20
-553.0
 30
0.0
 11
3780.000000000015
 21
-553.0
 31
0.0
1001
ACDBBLOCKREPETAG
1070
     1
1071
      106
1005
13A10F
  0
LINE
  5
13A110
  8
OBJECT
 10
3780.000000000015
 20
-553.0
 30
0.0
 11
3780.000000000015
 21
-677.0
 31
0.0
1001
ACDBBLOCKREPETAG
1070
     1
1071
      107
1005
13A110
  0
LINE
  5
13A111
  8
OBJECT
 10
3914.0000000000159
 20
-653.3502637757274
 30
0.0
 11
3914.0000000000159
 21
-755.00000000000102
 31
0.0
1001
ACDBBLOCKREPETAG
1070
     1
1071
      108
1005
13A111
  0
LINE
  5
13A112
  8
OBJECT
 10
3780.000000000015
 20
-677.0
 30
0.0
 11
3787.000000000015
 21
-677.0
 31
0.0
1001
ACDBBLOCKREPETAG
1070
     1
1071
      109
1005
13A112
  0
LINE
  5
13A113
  8
OBJECT
 10
3787.000000000015
 20
-677.0
 30
0.0
 11
3787.000000000015
 21
-553.0
 31
0.0
1001
ACDBBLOCKREPETAG
1070
     1
1071
      110
1005
13A113
  0
LINE
  5
13A114
  8
CENTER
 10
3855.0000000000141
 20
-615.0000000000008
 30
0.0
 11
3765.0000000000159
 21
-615.0
 31
0.0
1001
ACDBBLOCKREPETAG
1070
     1
1071
      111
1005
13A114
  0
LINE
  5
13A115
  8
OBJECT
 10
3920.0000000000182
 20
-758.0
 30
0.0
 11
3917.0000000000141
 21
-758.0000000000008
 31
0.0
1001
ACDBBLOCKREPETAG
1070
     1
1071
      112
1005
13A115
  0
ARC
  5
13A116
  8
OBJECT
 10
3917.0000000000141
 20
-755.00000000000102
 30
0.0
 40
3.0
 50
180.0
 51
270.0
1001
ACDBBLOCKREPETAG
1070
     1
1071
      113
1005
13A116
  0
LINE
  5
13A117
  8
OBJECT
 10
3787.000000000015
 20
-556.0
 30
0.0
 11
3823.0000000000141
 21
-556.0000000000008
 31
0.0
1001
ACDBBLOCKREPETAG
1070
     1
1071
      114
1005
13A117
  0
LINE
  5
13A118
  8
OBJECT
 10
3823.0000000000141
 20
-556.0000000000008
 30
0.0
 11
3823.0000000000141
 21
-653.15756805667843
 31
0.0
1001
ACDBBLOCKREPETAG
1070
     1
1071
      115
1005
13A118
  0
LINE
  5
13A119
  8
OBJECT
 10
3827.000000000015
 20
-560.5000000000008
 30
0.0
 11
3827.0000000000182
 21
-645.74491827928705
 31
0.0
1001
ACDBBLOCKREPETAG
1070
     1
1071
      116
1005
13A119
  0
LINE
  5
13A11A
  8
OBJECT
 10
3827.000000000015
 20
-560.5000000000008
 30
0.0
 11
3840.0000000000159
 21
-560.5000000000008
 31
0.0
1001
ACDBBLOCKREPETAG
1070
     1
1071
      117
1005
13A11A
  0
LINE
  5
13A11B
  8
OBJECT
 10
3831.3436831745321
 20
-674.0000000000008
 30
0.0
 11
3787.000000000015
 21
-674.0
 31
0.0
1001
ACDBBLOCKREPETAG
1070
     1
1071
      118
1005
13A11B
  0
LINE
  5
13A11C
  8
OBJECT
 10
3823.0000000000141
 20
-556.0000000000008
 30
0.0
 11
3827.000000000015
 21
-560.5000000000008
 31
0.0
1001
ACDBBLOCKREPETAG
1070
     1
1071
      119
1005
13A11C
  0
LINE
  5
13A11D
  8
OBJECT
 10
3840.0000000000159
 20
-560.5000000000008
 30
0.0
 11
3840.0000000000159
 21
-645.74491827928784
 31
0.0
1001
ACDBBLOCKREPETAG
1070
     1
1071
      120
1005
13A11D
  0
ARC
  5
13A11E
  8
OBJECT
 10
3908.000000000015
 20
-637.27386365609345
 30
0.0
 40
85.0
 50
205.59913872187661
 51
231.40900676279119
1001
ACDBBLOCKREPETAG
1070
     1
1071
      121
1005
13A11E
  0
ARC
  5
13A11F
  8
OBJECT
 10
3837.2000000000162
 20
-655.00000000000068
 30
0.0
 40
85.0
 50
19.925932125430649
 51
88.112268108168848
1001
ACDBBLOCKREPETAG
1070
     1
1071
      122
1005
13A11F
  0
LINE
  5
13A120
  8
OBJECT
 10
3914.0000000000159
 20
-750.81075719270905
 30
0.0
 11
3854.9806774563981
 21
-703.71143914629454
 31
0.0
1001
ACDBBLOCKREPETAG
1070
     1
1071
      123
1005
13A120
  0
LINE
  5
13A121
  8
OBJECT
 10
3827.0000000000182
 20
-645.74491827928705
 30
0.0
 11
3840.0000000000159
 21
-645.74491827928784
 31
0.0
1001
ACDBBLOCKREPETAG
1070
     1
1071
      124
1005
13A121
  0
LINE
  5
13A122
  8
OBJECT
 10
3823.0000000000141
 20
-653.15756805667843
 30
0.0
 11
3827.0000000000182
 21
-645.74491827928705
 31
0.0
1001
ACDBBLOCKREPETAG
1070
     1
1071
      125
1005
13A122
  0
LINE
  5
13A123
  8
OBJECT
 10
3919.9999999999818
 20
-634.0
 30
0.0
 11
3917.111387840378
 21
-626.03156729425325
 31
0.0
1001
ACDBBLOCKREPETAG
1070
     1
1071
      126
1005
13A123
  0
LINE
  5
13A124
  8
OBJECT
 10
3919.9999999999818
 20
-634.0
 30
0.0
 11
3914.0000000000159
 21
-653.3502637757274
 31
0.0
1001
ACDBBLOCKREPETAG
1070
     1
1071
      127
1005
13A124
  0
LINE
  5
13A125
  8
HIDDEN
 10
3832.0000000000159
 20
-570.5000000000008
 30
0.0
 11
3832.0000000000159
 21
-659.50000000000068
 31
0.0
1001
ACDBBLOCKREPETAG
1070
     1
1071
      129
1005
13A125
  0
CIRCLE
  5
13A126
  8
OBJECT
 10
4000.0
 20
-696.0
 30
0.0
 40
62.0
1001
ACDBBLOCKREPETAG
1070
     1
1071
        0
1005
13A126
  0
LINE
  5
13A127
  8
OBJECT
 10
3787.0000000000191
 20
-137.99999999999909
 30
0.0
 11
3780.0000000000182
 21
-137.99999999999909
 31
0.0
1001
ACDBBLOCKREPETAG
1070
     1
1071
      110
1005
13A127
  0
LINE
  5
13A128
  8
OBJECT
 10
3780.0000000000182
 20
-137.99999999999909
 30
0.0
 11
3780.0000000000182
 21
-261.99999999999909
 31
0.0
1001
ACDBBLOCKREPETAG
1070
     1
1071
      111
1005
13A128
  0
LINE
  5
13A129
  8
OBJECT
 10
3780.0000000000182
 20
-261.99999999999909
 30
0.0
 11
3787.0000000000191
 21
-261.99999999999909
 31
0.0
1001
ACDBBLOCKREPETAG
1070
     1
1071
      112
1005
13A129
  0
LINE
  5
13A12A
  8
OBJECT
 10
3787.0000000000191
 20
-261.99999999999909
 30
0.0
 11
3787.0000000000191
 21
-137.99999999999909
 31
0.0
1001
ACDBBLOCKREPETAG
1070
     1
1071
      113
1005
13A12A
  0
LINE
  5
13A12B
  8
CENTER
 10
3765.0000000000182
 20
-199.99999999999909
 30
0.0
 11
3920.0
 21
-199.99999999999909
 31
0.0
1001
ACDBBLOCKREPETAG
1070
     1
1071
      114
1005
13A12B
  0
LINE
  5
13A12C
  8
OBJECT
 10
3840.0000250358171
 20
-245.0000000000027
 30
0.0
 11
3914.000000000005
 21
-244.99999999999909
 31
0.0
1001
ACDBBLOCKREPETAG
1070
     1
1071
      115
1005
13A12C
  0
LINE
  5
13A12D
  8
OBJECT
 10
3840.0000250358171
 20
-154.99999999999909
 30
0.0
 11
3914.000000000005
 21
-154.99999999999909
 31
0.0
1001
ACDBBLOCKREPETAG
1070
     1
1071
      116
1005
13A12D
  0
LINE
  5
13A12E
  8
OBJECT
 10
3787.0000000000191
 20
-140.99999999999909
 30
0.0
 11
3823.0000000000182
 21
-140.99999999999909
 31
0.0
1001
ACDBBLOCKREPETAG
1070
     1
1071
      117
1005
13A12E
  0
LINE
  5
13A12F
  8
OBJECT
 10
3823.0000000000182
 20
-140.99999999999909
 30
0.0
 11
3823.0000000000182
 21
-258.99999999999909
 31
0.0
1001
ACDBBLOCKREPETAG
1070
     1
1071
      118
1005
13A12F
  0
LINE
  5
13A130
  8
OBJECT
 10
3823.0000000000182
 20
-258.99999999999909
 30
0.0
 11
3787.0000000000191
 21
-258.99999999999909
 31
0.0
1001
ACDBBLOCKREPETAG
1070
     1
1071
      119
1005
13A130
  0
LINE
  5
13A131
  8
OBJECT
 10
3827.0000000000182
 20
-145.49999999999909
 30
0.0
 11
3840.0000000000191
 21
-145.49999999999909
 31
0.0
1001
ACDBBLOCKREPETAG
1070
     1
1071
      120
1005
13A131
  0
LINE
  5
13A132
  8
OBJECT
 10
3840.0000000000191
 20
-254.49999999999909
 30
0.0
 11
3827.0000000000182
 21
-254.49999999999909
 31
0.0
1001
ACDBBLOCKREPETAG
1070
     1
1071
      121
1005
13A132
  0
LINE
  5
13A133
  8
OBJECT
 10
3827.0000000000182
 20
-254.49999999999909
 30
0.0
 11
3827.0000000000182
 21
-145.49999999999909
 31
0.0
1001
ACDBBLOCKREPETAG
1070
     1
1071
      122
1005
13A133
  0
LINE
  5
13A134
  8
OBJECT
 10
3823.0000000000182
 20
-140.99999999999909
 30
0.0
 11
3827.0000000000182
 21
-145.49999999999909
 31
0.0
1001
ACDBBLOCKREPETAG
1070
     1
1071
      123
1005
13A134
  0
LINE
  5
13A135
  8
OBJECT
 10
3823.0000000000182
 20
-258.99999999999909
 30
0.0
 11
3827.0000000000182
 21
-254.49999999999909
 31
0.0
1001
ACDBBLOCKREPETAG
1070
     1
1071
      124
1005
13A135
  0
LINE
  5
13A136
  8
OBJECT
 10
3917.000000000005
 20
-137.99999999999909
 30
0.0
 11
3920.0000000000041
 21
-137.99999999999909
 31
0.0
1001
ACDBBLOCKREPETAG
1070
     1
1071
      125
1005
13A136
  0
ARC
  5
13A137
  8
OBJECT
 10
3917.000000000005
 20
-140.99999999999909
 30
0.0
 40
3.0
 50
90.0
 51
180.0
1001
ACDBBLOCKREPETAG
1070
     1
1071
      126
1005
13A137
  0
LINE
  5
13A138
  8
OBJECT
 10
3920.0000000000041
 20
-261.99999999999909
 30
0.0
 11
3917.000000000005
 21
-261.99999999999909
 31
0.0
1001
ACDBBLOCKREPETAG
1070
     1
1071
      127
1005
13A138
  0
ARC
  5
13A139
  8
OBJECT
 10
3917.000000000005
 20
-258.99999999999909
 30
0.0
 40
3.0
 50
180.0
 51
270.0
1001
ACDBBLOCKREPETAG
1070
     1
1071
      128
1005
13A139
  0
LINE
  5
13A13A
  8
OBJECT
 10
3914.000000000005
 20
-258.99999999999909
 30
0.0
 11
3914.000000000005
 21
-222.44994432063581
 31
0.0
1001
ACDBBLOCKREPETAG
1070
     1
1071
      129
1005
13A13A
  0
LINE
  5
13A13B
  8
OBJECT
 10
3914.000000000005
 20
-177.55005567935859
 30
0.0
 11
3914.000000000005
 21
-140.99999999999909
 31
0.0
1001
ACDBBLOCKREPETAG
1070
     1
1071
      130
1005
13A13B
  0
LINE
  5
13A13C
  8
HIDDEN
 10
3832.0000000000182
 20
-155.49999999999909
 30
0.0
 11
3832.0000000000182
 21
-244.49999999999909
 31
0.0
1001
ACDBBLOCKREPETAG
1070
     1
1071
      131
1005
13A13C
  0
LINE
  5
13A13D
  8
OBJECT
 10
3840.0000250358171
 20
-254.4999509238105
 30
0.0
 11
3840.0000250358171
 21
-145.4999509238105
 31
0.0
1001
ACDBBLOCKREPETAG
1070
     1
1071
      133
1005
13A13D
  0
ARC
  5
13A13E
  8
OBJECT
 10
3875.0
 20
-199.99999999999909
 30
0.0
 40
45.000000000000547
 50
270.0
 51
346.21579484130518
1001
ACDBBLOCKREPETAG
1070
     1
1071
      134
1005
13A13E
  0
ARC
  5
13A13F
  8
OBJECT
 10
3875.0
 20
-199.99999999999909
 30
0.0
 40
45.000000000000547
 50
13.78420515869484
 51
90.0
1001
ACDBBLOCKREPETAG
1070
     1
1071
      402
1005
13A13F
  0
LINE
  5
13A140
  8
CENTER
 10
4000.0
 20
-300.99999999999898
 30
0.0
 11
4000.0
 21
-279.99999999999909
 31
0.0
1001
ACDBBLOCKREPETAG
1070
     1
1071
        0
1005
13A140
  0
LINE
  5
13A141
  8
OBJECT
 10
4062.0
 20
-283.0
 30
0.0
 11
4062.0
 21
-279.99999999999909
 31
0.0
1001
ACDBBLOCKREPETAG
1070
     1
1071
        1
1005
13A141
  0
ARC
  5
13A142
  8
OBJECT
 10
4059.0
 20
-283.0
 30
0.0
 40
3.0
 50
270.0
 51
0.0
1001
ACDBBLOCKREPETAG
1070
     1
1071
        2
1005
13A142
  0
LINE
  5
13A143
  8
OBJECT
 10
3938.0
 20
-279.99999999999909
 30
0.0
 11
3938.0
 21
-282.99999999999818
 31
0.0
1001
ACDBBLOCKREPETAG
1070
     1
1071
        3
1005
13A143
  0
ARC
  5
13A144
  8
OBJECT
 10
3941.0
 20
-282.99999999999818
 30
0.0
 40
3.0
 50
180.0
 51
270.0
1001
ACDBBLOCKREPETAG
1070
     1
1071
        4
1005
13A144
  0
LINE
  5
13A145
  8
OBJECT
 10
3941.0
 20
-285.99999999999818
 30
0.0
 11
4059.0
 21
-286.0
 31
0.0
1001
ACDBBLOCKREPETAG
1070
     1
1071
        5
1005
13A145
  0
LINE
  5
13A146
  8
HIDDEN
 10
3943.0
 20
-619.99999999999955
 30
0.0
 11
4057.0
 21
-619.99999999999955
 31
0.0
1001
ACDBBLOCKREPETAG
1070
     1
1071
       57
1005
13A146
  0
LINE
  5
13A147
  8
CENTER
 10
4000.0
 20
-534.99999999999955
 30
0.0
 11
4000.0
 21
-899.99999999999955
 31
0.0
1001
ACDBBLOCKREPETAG
1070
     1
1071
       58
1005
13A147
  0
LINE
  5
13A148
  8
OBJECT
 10
3928.0
 20
-570.99999999999955
 30
0.0
 11
3928.0
 21
-633.99999999999955
 31
0.0
1001
ACDBBLOCKREPETAG
1070
     1
1071
       59
1005
13A148
  0
LINE
  5
13A149
  8
OBJECT
 10
4072.0
 20
-633.99999999999955
 30
0.0
 11
4072.0
 21
-570.99999999999955
 31
0.0
1001
ACDBBLOCKREPETAG
1070
     1
1071
       60
1005
13A149
  0
LINE
  5
13A14A
  8
OBJECT
 10
3920.0
 20
-887.99999999999955
 30
0.0
 11
4080.0
 21
-887.99999999999955
 31
0.0
1001
ACDBBLOCKREPETAG
1070
     1
1071
       61
1005
13A14A
  0
LINE
  5
13A14B
  8
OBJECT
 10
4080.0
 20
-633.99999999999955
 30
0.0
 11
3920.0
 21
-633.99999999999955
 31
0.0
1001
ACDBBLOCKREPETAG
1070
     1
1071
       62
1005
13A14B
  0
LINE
  5
13A14C
  8
OBJECT
 10
3920.0
 20
-887.99999999999955
 30
0.0
 11
3920.0
 21
-899.99999999999955
 31
0.0
1001
ACDBBLOCKREPETAG
1070
     1
1071
       63
1005
13A14C
  0
LINE
  5
13A14D
  8
OBJECT
 10
3920.0
 20
-899.99999999999955
 30
0.0
 11
4080.0
 21
-899.99999999999955
 31
0.0
1001
ACDBBLOCKREPETAG
1070
     1
1071
       64
1005
13A14D
  0
LINE
  5
13A14E
  8
OBJECT
 10
4080.0
 20
-899.99999999999955
 30
0.0
 11
4080.0
 21
-887.99999999999955
 31
0.0
1001
ACDBBLOCKREPETAG
1070
     1
1071
       65
1005
13A14E
  0
LINE
  5
13A14F
  8
OBJECT
 10
4074.9999999998631
 20
-757.99999999985016
 30
0.0
 11
4075.0
 21
-887.99999999999955
 31
0.0
1001
ACDBBLOCKREPETAG
1070
     1
1071
       69
1005
13A14F
  0
LINE
  5
13A150
  8
OBJECT
 10
4074.9999908029849
 20
-757.99998602702112
 30
0.0
 11
4080.0
 21
-757.99998602702112
 31
0.0
1001
ACDBBLOCKREPETAG
1070
     1
1071
       70
1005
13A150
  0
LINE
  5
13A151
  8
OBJECT
 10
3925.0000000001392
 20
-757.99999999985016
 30
0.0
 11
3925.0
 21
-887.99999999999955
 31
0.0
1001
ACDBBLOCKREPETAG
1070
     1
1071
       71
1005
13A151
  0
LINE
  5
13A152
  8
OBJECT
 10
3925.0000091970151
 20
-757.99998602702112
 30
0.0
 11
3920.0
 21
-757.99998602702112
 31
0.0
1001
ACDBBLOCKREPETAG
1070
     1
1071
       72
1005
13A152
  0
LINE
  5
13A153
  8
OBJECT
 10
3918.0
 20
-570.99999999999955
 30
0.0
 11
3918.0
 21
-549.99999999999955
 31
0.0
1001
ACDBBLOCKREPETAG
1070
     1
1071
       73
1005
13A153
  0
LINE
  5
13A154
  8
OBJECT
 10
3918.0
 20
-549.99999999999955
 30
0.0
 11
4082.0000000000032
 21
-549.99999999999955
 31
0.0
1001
ACDBBLOCKREPETAG
1070
     1
1071
       74
1005
13A154
  0
LINE
  5
13A155
  8
OBJECT
 10
4082.0000000000032
 20
-570.99999999999955
 30
0.0
 11
3918.0
 21
-570.99999999999955
 31
0.0
1001
ACDBBLOCKREPETAG
1070
     1
1071
       75
1005
13A155
  0
LINE
  5
13A156
  8
OBJECT
 10
3920.7940817120261
 20
-549.99999999999955
 30
0.0
 11
3920.7940817120261
 21
-570.99999999999955
 31
0.0
1001
ACDBBLOCKREPETAG
1070
     1
1071
       76
1005
13A156
  0
LINE
  5
13A157
  8
OBJECT
 10
3928.7378959999992
 20
-549.99999999999955
 30
0.0
 11
3928.7378959999992
 21
-570.99999999999955
 31
0.0
1001
ACDBBLOCKREPETAG
1070
     1
1071
       77
1005
13A157
  0
LINE
  5
13A158
  8
OBJECT
 10
3970.8330260000012
 20
-549.99999999999955
 30
0.0
 11
3970.8330260000012
 21
-570.99999999999955
 31
0.0
1001
ACDBBLOCKREPETAG
1070
     1
1071
       78
1005
13A158
  0
LINE
  5
13A159
  8
OBJECT
 10
3978.7768389217999
 20
-549.99999999999955
 30
0.0
 11
3978.7768389217999
 21
-570.99999999999955
 31
0.0
1001
ACDBBLOCKREPETAG
1070
     1
1071
       79
1005
13A159
  0
LINE
  5
13A15A
  8
OBJECT
 10
4082.0
 20
-570.99999999999955
 30
0.0
 11
4082.0
 21
-549.99999999999955
 31
0.0
1001
ACDBBLOCKREPETAG
1070
     1
1071
       80
1005
13A15A
  0
LINE
  5
13A15B
  8
OBJECT
 10
4079.205918287973
 20
-549.99999999999955
 30
0.0
 11
4079.205918287973
 21
-570.99999999999955
 31
0.0
1001
ACDBBLOCKREPETAG
1070
     1
1071
       81
1005
13A15B
  0
LINE
  5
13A15C
  8
OBJECT
 10
4071.2621040000008
 20
-549.99999999999955
 30
0.0
 11
4071.2621040000008
 21
-570.99999999999955
 31
0.0
1001
ACDBBLOCKREPETAG
1070
     1
1071
       82
1005
13A15C
  0
LINE
  5
13A15D
  8
OBJECT
 10
4029.1669739999979
 20
-549.99999999999955
 30
0.0
 11
4029.1669739999979
 21
-570.99999999999955
 31
0.0
1001
ACDBBLOCKREPETAG
1070
     1
1071
       83
1005
13A15D
  0
LINE
  5
13A15E
  8
OBJECT
 10
4021.2231610781992
 20
-549.99999999999955
 30
0.0
 11
4021.2231610781992
 21
-570.99999999999955
 31
0.0
1001
ACDBBLOCKREPETAG
1070
     1
1071
       84
1005
13A15E
  0
ARC
  5
13A15F
  8
OBJECT
 10
4200.6872746716726
 20
-749.40809941010718
 30
0.0
 40
170.6350503965856
 50
137.44134459184301
 51
149.91949581337221
1001
ACDBBLOCKREPETAG
1070
     1
1071
       85
1005
13A15F
  0
ARC
  5
13A160
  8
OBJECT
 10
4200.6872746716726
 20
-642.59190058989179
 30
0.0
 40
170.6350503965856
 50
210.08050418662771
 51
222.55865540815699
1001
ACDBBLOCKREPETAG
1070
     1
1071
       86
1005
13A160
  0
ARC
  5
13A161
  8
OBJECT
 10
3799.3127253283278
 20
-749.40809941010718
 30
0.0
 40
170.6350503965856
 50
30.080504186710289
 51
42.558655408382641
1001
ACDBBLOCKREPETAG
1070
     1
1071
       87
1005
13A161
  0
ARC
  5
13A162
  8
OBJECT
 10
3799.3127253283278
 20
-642.59190058989179
 30
0.0
 40
170.6350503965856
 50
317.44134459161722
 51
329.9194958132897
1001
ACDBBLOCKREPETAG
1070
     1
1071
       88
1005
13A162
  0
POINT
  5
13A163
  8
DOTS
 10
4000.0
 20
-754.99999999999955
 30
0.0
1001
ACDBBLOCKREPETAG
1070
     1
1071
      202
1005
13A163
  0
LINE
  5
13A164
  8
OBJECT
 10
3946.6921941437549
 20
-195.46638161316051
 30
0.0
 11
3970.4540343856352
 21
-193.79865146436981
 31
0.0
1001
ACDBBLOCKREPETAG
1070
     1
1071
      319
1005
13A164
  0
LINE
  5
13A165
  8
OBJECT
 10
3947.3854347270608
 20
-190.305593971766
 30
0.0
 11
3966.9884352629019
 21
-188.92975272660161
 31
0.0
1001
ACDBBLOCKREPETAG
1070
     1
1071
      320
1005
13A165
  0
LINE
  5
13A166
  8
OBJECT
 10
3974.113537475278
 20
-242.77722592637201
 30
0.0
 11
3982.1366988374079
 21
-234.1690987954708
 31
0.0
1001
ACDBBLOCKREPETAG
1070
     1
1071
      321
1005
13A166
  0
ARC
  5
13A167
  8
OBJECT
 10
3982.1160071245399
 20
-183.28188966318251
 30
0.0
 40
60.031113246032611
 50
254.07020130412749
 51
262.33936106086588
1001
ACDBBLOCKREPETAG
1070
     1
1071
      322
1005
13A167
  0
LINE
  5
13A168
  8
OBJECT
 10
3977.6125997325148
 20
-197.67495277149911
 30
0.0
 11
3982.1366988374079
 21
-234.1690987954708
 31
0.0
1001
ACDBBLOCKREPETAG
1070
     1
1071
      323
1005
13A168
  0
ARC
  5
13A169
  8
OBJECT
 10
3967.6885653456411
 20
-198.90521351131881
 30
0.0
 40
10.0
 50
7.0667782929957941
 51
94.014734370532395
1001
ACDBBLOCKREPETAG
1070
     1
1071
      324
1005
13A169
  0
ARC
  5
13A16A
  8
OBJECT
 10
3970.9441253709729
 20
-200.78147401875589
 30
0.0
 40
7.0
 50
7.0667782929957941
 51
94.014733775014648
1001
ACDBBLOCKREPETAG
1070
     1
1071
      325
1005
13A16A
  0
POINT
  5
13A16B
  8
DOTS
 10
4000.0
 20
-199.99999999999909
 30
0.0
 50
270.0
1001
ACDBBLOCKREPETAG
1070
     1
1071
      153
1005
13A16B
  0
ARC
  5
13A16C
  8
OBJECT
 10
4000.0
 20
-199.99999999999909
 30
0.0
 40
77.0
 50
202.25886899988009
 51
247.74113099990561
1001
ACDBBLOCKREPETAG
1070
     1
1071
       57
1005
13A16C
  0
ARC
  5
13A16D
  8
OBJECT
 10
4000.0
 20
-199.99999999999909
 30
0.0
 40
80.0
 50
50.804965661401717
 51
72.417343999921059
1001
ACDBBLOCKREPETAG
1070
     1
1071
       58
1005
13A16D
  0
ARC
  5
13A16E
  8
OBJECT
 10
4000.0
 20
-199.99999999999909
 30
0.0
 40
77.0
 50
292.25886900009442
 51
337.74113100011988
1001
ACDBBLOCKREPETAG
1070
     1
1071
       59
1005
13A16E
  0
ARC
  5
13A16F
  8
OBJECT
 10
4000.0
 20
-199.99999999999909
 30
0.0
 40
77.0
 50
112.25886900009441
 51
157.74113100011991
1001
ACDBBLOCKREPETAG
1070
     1
1071
       60
1005
13A16F
  0
ARC
  5
13A170
  8
OBJECT
 10
4000.0
 20
-199.99999999999909
 30
0.0
 40
80.0
 50
107.5826560000789
 51
129.19497730757379
1001
ACDBBLOCKREPETAG
1070
     1
1071
       61
1005
13A170
  0
ARC
  5
13A171
  8
OBJECT
 10
4000.0
 20
-199.99999999999909
 30
0.0
 40
77.0
 50
22.258868999880129
 51
67.741130999905565
1001
ACDBBLOCKREPETAG
1070
     1
1071
       62
1005
13A171
  0
CIRCLE
  5
13A172
  8
OBJECT
 10
4000.0
 20
-199.99999999999909
 30
0.0
 40
70.0
1001
ACDBBLOCKREPETAG
1070
     1
1071
       63
1005
13A172
  0
LINE
  5
13A173
  8
OBJECT
 10
4029.1669749999969
 20
-271.26210499999888
 30
0.0
 11
4021.2231624441042
 21
-279.20591755589248
 31
0.0
1001
ACDBBLOCKREPETAG
1070
     1
1071
       64
1005
13A173
  0
LINE
  5
13A174
  8
OBJECT
 10
3970.8330260000012
 20
-271.26210499999888
 30
0.0
 11
3978.7768389219182
 21
-279.20591792191681
 31
0.0
1001
ACDBBLOCKREPETAG
1070
     1
1071
       65
1005
13A174
  0
ARC
  5
13A175
  8
OBJECT
 10
4000.0
 20
-199.99999999999909
 30
0.0
 40
82.000000000000014
 50
255.00000044864069
 51
285.00000053947957
1001
ACDBBLOCKREPETAG
1070
     1
1071
       66
1005
13A175
  0
LINE
  5
13A176
  8
OBJECT
 10
3928.7378959999992
 20
-229.1669739999989
 30
0.0
 11
3920.7940817120548
 21
-221.2231597120545
 31
0.0
1001
ACDBBLOCKREPETAG
1070
     1
1071
       67
1005
13A176
  0
ARC
  5
13A177
  8
OBJECT
 10
4000.0
 20
-199.99999999999909
 30
0.0
 40
82.000000000000014
 50
165.00000044885411
 51
194.9999985630262
1001
ACDBBLOCKREPETAG
1070
     1
1071
       68
1005
13A177
  0
LINE
  5
13A178
  8
OBJECT
 10
3970.8330260000012
 20
-128.7378949999993
 30
0.0
 11
3978.7768389219182
 21
-120.7940820780795
 31
0.0
1001
ACDBBLOCKREPETAG
1070
     1
1071
       69
1005
13A178
  0
ARC
  5
13A179
  8
OBJECT
 10
4000.0
 20
-199.99999999999909
 30
0.0
 40
82.000000000000014
 50
74.999999460520442
 51
104.99999955135929
1001
ACDBBLOCKREPETAG
1070
     1
1071
       70
1005
13A179
  0
LINE
  5
13A17A
  8
OBJECT
 10
4029.1669749999969
 20
-128.7378949999993
 30
0.0
 11
4021.2231624441042
 21
-120.79408244410391
 31
0.0
1001
ACDBBLOCKREPETAG
1070
     1
1071
       71
1005
13A17A
  0
LINE
  5
13A17B
  8
OBJECT
 10
3962.4020590000009
 20
-161.93893300000039
 30
0.0
 11
4037.0841102714221
 21
-174.5180316957439
 31
0.0
1001
ACDBBLOCKREPETAG
1070
     1
1071
       72
1005
13A17B
  0
LINE
  5
13A17C
  8
OBJECT
 10
4044.0936569999958
 20
-169.70149399999991
 30
0.0
 11
4037.0841102714221
 21
-174.5180316957439
 31
0.0
1001
ACDBBLOCKREPETAG
1070
     1
1071
       73
1005
13A17C
  0
LINE
  5
13A17D
  8
OBJECT
 10
3928.7378959999992
 20
-170.833024999999
 30
0.0
 11
3920.7940820780782
 21
-178.77683892191911
 31
0.0
1001
ACDBBLOCKREPETAG
1070
     1
1071
       74
1005
13A17D
  0
CIRCLE
  5
13A17E
  8
OBJECT
 10
4000.0
 20
-199.99999999999909
 30
0.0
 40
53.500000000000007
1001
ACDBBLOCKREPETAG
1070
     1
1071
       75
1005
13A17E
  0
ARC
  5
13A17F
  8
OBJECT
 10
4000.0
 20
-199.99999999999909
 30
0.0
 40
50.0
 50
131.70180964355251
 51
168.52376955958741
1001
ACDBBLOCKREPETAG
1070
     1
1071
       76
1005
13A17F
  0
ARC
  5
13A180
  8
OBJECT
 10
4000.0
 20
-199.99999999999909
 30
0.0
 40
50.0
 50
238.8199429999047
 51
34.49450625011707
1001
ACDBBLOCKREPETAG
1070
     1
1071
       77
1005
13A180
  0
LINE
  5
13A181
  8
OBJECT
 10
4071.2621049999971
 20
-170.833024999999
 30
0.0
 11
4079.2059175558929
 21
-178.77683755589439
 31
0.0
1001
ACDBBLOCKREPETAG
1070
     1
1071
       78
1005
13A181
  0
ARC
  5
13A182
  8
OBJECT
 10
4000.0
 20
-199.99999999999909
 30
0.0
 40
82.000000000000014
 50
345.00000044885422
 51
15.00000053937171
1001
ACDBBLOCKREPETAG
1070
     1
1071
       79
1005
13A182
  0
LINE
  5
13A183
  8
OBJECT
 10
4071.2621049999971
 20
-229.1669739999989
 30
0.0
 11
4079.20591792192
 21
-221.2231610780791
 31
0.0
1001
ACDBBLOCKREPETAG
1070
     1
1071
       80
1005
13A183
  0
LINE
  5
13A184
  8
OBJECT
 10
4045.661800227324
 20
-137.99999999999909
 30
0.0
 11
4080.0
 21
-137.99999999999909
 31
0.0
1001
ACDBBLOCKREPETAG
1070
     1
1071
       81
1005
13A184
  0
LINE
  5
13A185
  8
OBJECT
 10
4062.0
 20
-261.99999999999909
 30
0.0
 11
4080.0
 21
-261.99999999999909
 31
0.0
1001
ACDBBLOCKREPETAG
1070
     1
1071
       82
1005
13A185
  0
LINE
  5
13A186
  8
OBJECT
 10
4062.0
 20
-261.99999999999909
 30
0.0
 11
4062.0
 21
-279.99999999999909
 31
0.0
1001
ACDBBLOCKREPETAG
1070
     1
1071
       84
1005
13A186
  0
LINE
  5
13A187
  8
OBJECT
 10
3938.0
 20
-261.99999999999909
 30
0.0
 11
3938.0
 21
-279.99999999999909
 31
0.0
1001
ACDBBLOCKREPETAG
1070
     1
1071
       85
1005
13A187
  0
LINE
  5
13A188
  8
OBJECT
 10
3938.0
 20
-261.99999999999909
 30
0.0
 11
3920.0
 21
-261.99999999999909
 31
0.0
1001
ACDBBLOCKREPETAG
1070
     1
1071
       87
1005
13A188
  0
LINE
  5
13A189
  8
OBJECT
 10
3954.338199772676
 20
-137.99999999999909
 30
0.0
 11
3920.0
 21
-137.99999999999909
 31
0.0
1001
ACDBBLOCKREPETAG
1070
     1
1071
       88
1005
13A189
  0
LINE
  5
13A18A
  8
CENTER
 10
4080.0
 20
-199.99999999999909
 30
0.0
 11
3920.0
 21
-199.99999999999909
 31
0.0
1001
ACDBBLOCKREPETAG
1070
     1
1071
       97
1005
13A18A
  0
LINE
  5
13A18B
  8
CENTER
 10
4000.0
 20
-279.99999999999909
 30
0.0
 11
4000.0
 21
-104.9999999999991
 31
0.0
1001
ACDBBLOCKREPETAG
1070
     1
1071
       98
1005
13A18B
  0
LINE
  5
13A18C
  8
OBJECT
 10
3945.5527778486362
 20
-254.44722215136329
 30
0.0
 11
3938.0
 21
-261.99999999999909
 31
0.0
1001
ACDBBLOCKREPETAG
1070
     1
1071
       99
1005
13A18C
  0
LINE
  5
13A18D
  8
OBJECT
 10
4054.4472221513638
 20
-254.44722215136329
 30
0.0
 11
4062.0
 21
-261.99999999999909
 31
0.0
1001
ACDBBLOCKREPETAG
1070
     1
1071
      100
1005
13A18D
  0
LINE
  5
13A18E
  8
OBJECT
 10
4212.9999999999854
 20
-553.0000000000008
 30
0.0
 11
4219.9999999999854
 21
-553.0000000000008
 31
0.0
1001
ACDBBLOCKREPETAG
1070
     1
1071
      106
1005
13A18E
  0
LINE
  5
13A18F
  8
OBJECT
 10
4219.9999999999854
 20
-553.0000000000008
 30
0.0
 11
4219.9999999999854
 21
-677.0000000000008
 31
0.0
1001
ACDBBLOCKREPETAG
1070
     1
1071
      107
1005
13A18F
  0
LINE
  5
13A190
  8
OBJECT
 10
4085.9999999999859
 20
-653.3502637757274
 30
0.0
 11
4085.9999999999859
 21
-755.00000000000102
 31
0.0
1001
ACDBBLOCKREPETAG
1070
     1
1071
      108
1005
13A190
  0
LINE
  5
13A191
  8
OBJECT
 10
4219.9999999999854
 20
-677.0000000000008
 30
0.0
 11
4212.9999999999854
 21
-677.0000000000008
 31
0.0
1001
ACDBBLOCKREPETAG
1070
     1
1071
      109
1005
13A191
  0
LINE
  5
13A192
  8
OBJECT
 10
4212.9999999999854
 20
-677.0000000000008
 30
0.0
 11
4212.9999999999854
 21
-553.0000000000008
 31
0.0
1001
ACDBBLOCKREPETAG
1070
     1
1071
      110
1005
13A192
  0
LINE
  5
13A193
  8
CENTER
 10
4144.9999999999854
 20
-615.0000000000008
 30
0.0
 11
4234.9999999999854
 21
-615.0000000000008
 31
0.0
1001
ACDBBLOCKREPETAG
1070
     1
1071
      111
1005
13A193
  0
LINE
  5
13A194
  8
OBJECT
 10
4079.9999999999818
 20
-758.0
 30
0.0
 11
4082.999999999985
 21
-758.0000000000008
 31
0.0
1001
ACDBBLOCKREPETAG
1070
     1
1071
      112
1005
13A194
  0
ARC
  5
13A195
  8
OBJECT
 10
4082.999999999985
 20
-755.00000000000102
 30
0.0
 40
3.0
 50
270.0
 51
0.0
1001
ACDBBLOCKREPETAG
1070
     1
1071
      113
1005
13A195
  0
LINE
  5
13A196
  8
OBJECT
 10
4212.9999999999854
 20
-556.0000000000008
 30
0.0
 11
4176.9999999999854
 21
-556.0000000000008
 31
0.0
1001
ACDBBLOCKREPETAG
1070
     1
1071
      114
1005
13A196
  0
LINE
  5
13A197
  8
OBJECT
 10
4176.9999999999854
 20
-556.0000000000008
 30
0.0
 11
4176.9999999999854
 21
-653.15756805667843
 31
0.0
1001
ACDBBLOCKREPETAG
1070
     1
1071
      115
1005
13A197
  0
LINE
  5
13A198
  8
OBJECT
 10
4172.9999999999854
 20
-560.5000000000008
 30
0.0
 11
4172.9999999999818
 21
-645.74491827928705
 31
0.0
1001
ACDBBLOCKREPETAG
1070
     1
1071
      116
1005
13A198
  0
LINE
  5
13A199
  8
OBJECT
 10
4172.9999999999854
 20
-560.5000000000008
 30
0.0
 11
4159.9999999999854
 21
-560.5000000000008
 31
0.0
1001
ACDBBLOCKREPETAG
1070
     1
1071
      117
1005
13A199
  0
LINE
  5
13A19A
  8
OBJECT
 10
4168.6563168254679
 20
-674.0000000000008
 30
0.0
 11
4212.9999999999854
 21
-674.0000000000008
 31
0.0
1001
ACDBBLOCKREPETAG
1070
     1
1071
      118
1005
13A19A
  0
LINE
  5
13A19B
  8
OBJECT
 10
4176.9999999999854
 20
-556.0000000000008
 30
0.0
 11
4172.9999999999854
 21
-560.5000000000008
 31
0.0
1001
ACDBBLOCKREPETAG
1070
     1
1071
      119
1005
13A19B
  0
LINE
  5
13A19C
  8
OBJECT
 10
4159.9999999999854
 20
-560.5000000000008
 30
0.0
 11
4159.9999999999854
 21
-645.74491827928784
 31
0.0
1001
ACDBBLOCKREPETAG
1070
     1
1071
      120
1005
13A19C
  0
ARC
  5
13A19D
  8
OBJECT
 10
4091.9999999999841
 20
-637.27386365609345
 30
0.0
 40
85.0
 50
308.59099323720869
 51
334.40086127812339
1001
ACDBBLOCKREPETAG
1070
     1
1071
      121
1005
13A19D
  0
ARC
  5
13A19E
  8
OBJECT
 10
4162.7999999999847
 20
-655.00000000000068
 30
0.0
 40
85.0
 50
91.887731891831123
 51
160.07406787456929
1001
ACDBBLOCKREPETAG
1070
     1
1071
      122
1005
13A19E
  0
LINE
  5
13A19F
  8
OBJECT
 10
4085.9999999999859
 20
-750.81075719270905
 30
0.0
 11
4145.0193225436024
 21
-703.71143914629454
 31
0.0
1001
ACDBBLOCKREPETAG
1070
     1
1071
      123
1005
13A19F
  0
LINE
  5
13A1A0
  8
OBJECT
 10
4172.9999999999818
 20
-645.74491827928705
 30
0.0
 11
4159.9999999999854
 21
-645.74491827928784
 31
0.0
1001
ACDBBLOCKREPETAG
1070
     1
1071
      124
1005
13A1A0
  0
LINE
  5
13A1A1
  8
OBJECT
 10
4176.9999999999854
 20
-653.15756805667843
 30
0.0
 11
4172.9999999999818
 21
-645.74491827928705
 31
0.0
1001
ACDBBLOCKREPETAG
1070
     1
1071
      125
1005
13A1A1
  0
LINE
  5
13A1A2
  8
OBJECT
 10
4080.0000000000168
 20
-634.0
 30
0.0
 11
4082.8886121596229
 21
-626.03156729425325
 31
0.0
1001
ACDBBLOCKREPETAG
1070
     1
1071
      126
1005
13A1A2
  0
LINE
  5
13A1A3
  8
OBJECT
 10
4080.0000000000168
 20
-634.0
 30
0.0
 11
4085.9999999999859
 21
-653.3502637757274
 31
0.0
1001
ACDBBLOCKREPETAG
1070
     1
1071
      127
1005
13A1A3
  0
LINE
  5
13A1A4
  8
HIDDEN
 10
4167.9999999999854
 20
-570.5000000000008
 30
0.0
 11
4167.9999999999854
 21
-659.50000000000068
 31
0.0
1001
ACDBBLOCKREPETAG
1070
     1
1071
      129
1005
13A1A4
  0
LINE
  5
13A1A5
  8
OBJECT
 10
4212.9999999999854
 20
-137.99999999999909
 30
0.0
 11
4219.9999999999854
 21
-137.99999999999909
 31
0.0
1001
ACDBBLOCKREPETAG
1070
     1
1071
      110
1005
13A1A5
  0
LINE
  5
13A1A6
  8
OBJECT
 10
4219.9999999999854
 20
-137.99999999999909
 30
0.0
 11
4219.9999999999854
 21
-261.99999999999909
 31
0.0
1001
ACDBBLOCKREPETAG
1070
     1
1071
      111
1005
13A1A6
  0
LINE
  5
13A1A7
  8
OBJECT
 10
4219.9999999999854
 20
-261.99999999999909
 30
0.0
 11
4212.9999999999854
 21
-261.99999999999909
 31
0.0
1001
ACDBBLOCKREPETAG
1070
     1
1071
      112
1005
13A1A7
  0
LINE
  5
13A1A8
  8
OBJECT
 10
4212.9999999999854
 20
-261.99999999999909
 30
0.0
 11
4212.9999999999854
 21
-137.99999999999909
 31
0.0
1001
ACDBBLOCKREPETAG
1070
     1
1071
      113
1005
13A1A8
  0
LINE
  5
13A1A9
  8
CENTER
 10
4234.9999999999854
 20
-199.99999999999909
 30
0.0
 11
4080.0000000000041
 21
-199.99999999999909
 31
0.0
1001
ACDBBLOCKREPETAG
1070
     1
1071
      114
1005
13A1A9
  0
LINE
  5
13A1AA
  8
OBJECT
 10
4159.9999749641847
 20
-245.0000000000027
 30
0.0
 11
4086.0
 21
-244.99999999999909
 31
0.0
1001
ACDBBLOCKREPETAG
1070
     1
1071
      115
1005
13A1AA
  0
LINE
  5
13A1AB
  8
OBJECT
 10
4159.9999749641847
 20
-154.99999999999909
 30
0.0
 11
4086.0
 21
-154.99999999999909
 31
0.0
1001
ACDBBLOCKREPETAG
1070
     1
1071
      116
1005
13A1AB
  0
LINE
  5
13A1AC
  8
OBJECT
 10
4212.9999999999854
 20
-140.99999999999909
 30
0.0
 11
4176.9999999999854
 21
-140.99999999999909
 31
0.0
1001
ACDBBLOCKREPETAG
1070
     1
1071
      117
1005
13A1AC
  0
LINE
  5
13A1AD
  8
OBJECT
 10
4176.9999999999854
 20
-140.99999999999909
 30
0.0
 11
4176.9999999999854
 21
-258.99999999999909
 31
0.0
1001
ACDBBLOCKREPETAG
1070
     1
1071
      118
1005
13A1AD
  0
LINE
  5
13A1AE
  8
OBJECT
 10
4176.9999999999854
 20
-258.99999999999909
 30
0.0
 11
4212.9999999999854
 21
-258.99999999999909
 31
0.0
1001
ACDBBLOCKREPETAG
1070
     1
1071
      119
1005
13A1AE
  0
LINE
  5
13A1AF
  8
OBJECT
 10
4172.9999999999854
 20
-145.49999999999909
 30
0.0
 11
4159.9999999999854
 21
-145.49999999999909
 31
0.0
1001
ACDBBLOCKREPETAG
1070
     1
1071
      120
1005
13A1AF
  0
LINE
  5
13A1B0
  8
OBJECT
 10
4159.9999999999854
 20
-254.49999999999909
 30
0.0
 11
4172.9999999999854
 21
-254.49999999999909
 31
0.0
1001
ACDBBLOCKREPETAG
1070
     1
1071
      121
1005
13A1B0
  0
LINE
  5
13A1B1
  8
OBJECT
 10
4172.9999999999854
 20
-254.49999999999909
 30
0.0
 11
4172.9999999999854
 21
-145.49999999999909
 31
0.0
1001
ACDBBLOCKREPETAG
1070
     1
1071
      122
1005
13A1B1
  0
LINE
  5
13A1B2
  8
OBJECT
 10
4176.9999999999854
 20
-140.99999999999909
 30
0.0
 11
4172.9999999999854
 21
-145.49999999999909
 31
0.0
1001
ACDBBLOCKREPETAG
1070
     1
1071
      123
1005
13A1B2
  0
LINE
  5
13A1B3
  8
OBJECT
 10
4176.9999999999854
 20
-258.99999999999909
 30
0.0
 11
4172.9999999999854
 21
-254.49999999999909
 31
0.0
1001
ACDBBLOCKREPETAG
1070
     1
1071
      124
1005
13A1B3
  0
LINE
  5
13A1B4
  8
OBJECT
 10
4083.0
 20
-137.99999999999909
 30
0.0
 11
4080.0
 21
-137.99999999999909
 31
0.0
1001
ACDBBLOCKREPETAG
1070
     1
1071
      125
1005
13A1B4
  0
ARC
  5
13A1B5
  8
OBJECT
 10
4083.0
 20
-140.99999999999909
 30
0.0
 40
3.0
 50
0.0
 51
90.0
1001
ACDBBLOCKREPETAG
1070
     1
1071
      126
1005
13A1B5
  0
LINE
  5
13A1B6
  8
OBJECT
 10
4080.0
 20
-261.99999999999909
 30
0.0
 11
4083.0
 21
-261.99999999999909
 31
0.0
1001
ACDBBLOCKREPETAG
1070
     1
1071
      127
1005
13A1B6
  0
ARC
  5
13A1B7
  8
OBJECT
 10
4083.0
 20
-258.99999999999909
 30
0.0
 40
3.0
 50
270.0
 51
0.0
1001
ACDBBLOCKREPETAG
1070
     1
1071
      128
1005
13A1B7
  0
LINE
  5
13A1B8
  8
OBJECT
 10
4086.0
 20
-258.99999999999909
 30
0.0
 11
4086.0
 21
-222.44994432063581
 31
0.0
1001
ACDBBLOCKREPETAG
1070
     1
1071
      129
1005
13A1B8
  0
LINE
  5
13A1B9
  8
OBJECT
 10
4086.0
 20
-177.55005567935859
 30
0.0
 11
4086.0
 21
-140.99999999999909
 31
0.0
1001
ACDBBLOCKREPETAG
1070
     1
1071
      130
1005
13A1B9
  0
LINE
  5
13A1BA
  8
HIDDEN
 10
4167.9999999999854
 20
-155.49999999999909
 30
0.0
 11
4167.9999999999854
 21
-244.49999999999909
 31
0.0
1001
ACDBBLOCKREPETAG
1070
     1
1071
      131
1005
13A1BA
  0
LINE
  5
13A1BB
  8
OBJECT
 10
4159.9999749641847
 20
-254.4999509238105
 30
0.0
 11
4159.9999749641847
 21
-145.4999509238105
 31
0.0
1001
ACDBBLOCKREPETAG
1070
     1
1071
      133
1005
13A1BB
  0
ARC
  5
13A1BC
  8
OBJECT
 10
4125.0000000000018
 20
-199.99999999999909
 30
0.0
 40
45.000000000000547
 50
90.0
 51
166.2158024759261
1001
ACDBBLOCKREPETAG
1070
     1
1071
      134
1005
13A1BC
  0
ARC
  5
13A1BD
  8
OBJECT
 10
4125.0000000000018
 20
-199.99999999999909
 30
0.0
 40
45.000000000000547
 50
193.78421279332531
 51
270.0
1001
ACDBBLOCKREPETAG
1070
     1
1071
      402
1005
13A1BD
  0
LINE
  5
13A1BE
  8
OBJECT
 10
1787.000000000015
 20
-553.0
 30
0.0
 11
1780.0000000000141
 21
-553.0
 31
0.0
1001
ACDBBLOCKREPETAG
1070
     1
1071
      106
1005
13A1BE
  0
LINE
  5
13A1BF
  8
OBJECT
 10
1780.0000000000141
 20
-553.0
 30
0.0
 11
1780.0000000000141
 21
-677.0
 31
0.0
1001
ACDBBLOCKREPETAG
1070
     1
1071
      107
1005
13A1BF
  0
LINE
  5
13A1C0
  8
OBJECT
 10
1914.0000000000141
 20
-653.3502637757274
 30
0.0
 11
1914.0000000000141
 21
-755.00000000000102
 31
0.0
1001
ACDBBLOCKREPETAG
1070
     1
1071
      108
1005
13A1C0
  0
LINE
  5
13A1C1
  8
OBJECT
 10
1780.0000000000141
 20
-677.0
 30
0.0
 11
1787.000000000015
 21
-677.0
 31
0.0
1001
ACDBBLOCKREPETAG
1070
     1
1071
      109
1005
13A1C1
  0
LINE
  5
13A1C2
  8
OBJECT
 10
1787.000000000015
 20
-677.0
 30
0.0
 11
1787.000000000015
 21
-553.0
 31
0.0
1001
ACDBBLOCKREPETAG
1070
     1
1071
      110
1005
13A1C2
  0
LINE
  5
13A1C3
  8
CENTER
 10
1855.0000000000141
 20
-615.0000000000008
 30
0.0
 11
1765.0000000000141
 21
-615.0
 31
0.0
1001
ACDBBLOCKREPETAG
1070
     1
1071
      111
1005
13A1C3
  0
LINE
  5
13A1C4
  8
OBJECT
 10
1920.000000000018
 20
-758.0
 30
0.0
 11
1917.000000000015
 21
-758.0000000000008
 31
0.0
1001
ACDBBLOCKREPETAG
1070
     1
1071
      112
1005
13A1C4
  0
ARC
  5
13A1C5
  8
OBJECT
 10
1917.000000000015
 20
-755.00000000000102
 30
0.0
 40
3.0
 50
180.0
 51
270.0
1001
ACDBBLOCKREPETAG
1070
     1
1071
      113
1005
13A1C5
  0
LINE
  5
13A1C6
  8
OBJECT
 10
1787.000000000015
 20
-556.0
 30
0.0
 11
1823.0000000000141
 21
-556.0000000000008
 31
0.0
1001
ACDBBLOCKREPETAG
1070
     1
1071
      114
1005
13A1C6
  0
LINE
  5
13A1C7
  8
OBJECT
 10
1823.0000000000141
 20
-556.0000000000008
 30
0.0
 11
1823.0000000000141
 21
-653.15756805667843
 31
0.0
1001
ACDBBLOCKREPETAG
1070
     1
1071
      115
1005
13A1C7
  0
LINE
  5
13A1C8
  8
OBJECT
 10
1827.0000000000141
 20
-560.5000000000008
 30
0.0
 11
1827.000000000018
 21
-645.74491827928705
 31
0.0
1001
ACDBBLOCKREPETAG
1070
     1
1071
      116
1005
13A1C8
  0
LINE
  5
13A1C9
  8
OBJECT
 10
1827.0000000000141
 20
-560.5000000000008
 30
0.0
 11
1840.0000000000141
 21
-560.5000000000008
 31
0.0
1001
ACDBBLOCKREPETAG
1070
     1
1071
      117
1005
13A1C9
  0
LINE
  5
13A1CA
  8
OBJECT
 10
1831.343683174531
 20
-674.0000000000008
 30
0.0
 11
1787.000000000015
 21
-674.0
 31
0.0
1001
ACDBBLOCKREPETAG
1070
     1
1071
      118
1005
13A1CA
  0
LINE
  5
13A1CB
  8
OBJECT
 10
1823.0000000000141
 20
-556.0000000000008
 30
0.0
 11
1827.0000000000141
 21
-560.5000000000008
 31
0.0
1001
ACDBBLOCKREPETAG
1070
     1
1071
      119
1005
13A1CB
  0
LINE
  5
13A1CC
  8
OBJECT
 10
1840.0000000000141
 20
-560.5000000000008
 30
0.0
 11
1840.0000000000141
 21
-645.74491827928784
 31
0.0
1001
ACDBBLOCKREPETAG
1070
     1
1071
      120
1005
13A1CC
  0
ARC
  5
13A1CD
  8
OBJECT
 10
1908.000000000015
 20
-637.27386365609345
 30
0.0
 40
85.0
 50
205.59913872188221
 51
231.40900676279119
1001
ACDBBLOCKREPETAG
1070
     1
1071
      121
1005
13A1CD
  0
ARC
  5
13A1CE
  8
OBJECT
 10
1837.2000000000151
 20
-655.00000000000068
 30
0.0
 40
85.0
 50
19.925932125426211
 51
88.112268108168848
1001
ACDBBLOCKREPETAG
1070
     1
1071
      122
1005
13A1CE
  0
LINE
  5
13A1CF
  8
OBJECT
 10
1914.0000000000141
 20
-750.81075719270905
 30
0.0
 11
1854.980677456399
 21
-703.71143914629454
 31
0.0
1001
ACDBBLOCKREPETAG
1070
     1
1071
      123
1005
13A1CF
  0
LINE
  5
13A1D0
  8
OBJECT
 10
1827.000000000018
 20
-645.74491827928705
 30
0.0
 11
1840.0000000000141
 21
-645.74491827928784
 31
0.0
1001
ACDBBLOCKREPETAG
1070
     1
1071
      124
1005
13A1D0
  0
LINE
  5
13A1D1
  8
OBJECT
 10
1823.0000000000141
 20
-653.15756805667843
 30
0.0
 11
1827.000000000018
 21
-645.74491827928705
 31
0.0
1001
ACDBBLOCKREPETAG
1070
     1
1071
      125
1005
13A1D1
  0
LINE
  5
13A1D2
  8
OBJECT
 10
1919.999999999982
 20
-634.0
 30
0.0
 11
1917.111387840378
 21
-626.03156729425325
 31
0.0
1001
ACDBBLOCKREPETAG
1070
     1
1071
      126
1005
13A1D2
  0
LINE
  5
13A1D3
  8
OBJECT
 10
1919.999999999982
 20
-634.0
 30
0.0
 11
1914.0000000000141
 21
-653.3502637757274
 31
0.0
1001
ACDBBLOCKREPETAG
1070
     1
1071
      127
1005
13A1D3
  0
LINE
  5
13A1D4
  8
HIDDEN
 10
1832.0000000000141
 20
-570.5000000000008
 30
0.0
 11
1832.0000000000141
 21
-659.50000000000068
 31
0.0
1001
ACDBBLOCKREPETAG
1070
     1
1071
      129
1005
13A1D4
  0
CIRCLE
  5
13A1D5
  8
OBJECT
 10
2000.0
 20
-696.0
 30
0.0
 40
62.0
1001
ACDBBLOCKREPETAG
1070
     1
1071
        0
1005
13A1D5
  0
LINE
  5
13A1D6
  8
OBJECT
 10
1787.000000000018
 20
-137.99999999999909
 30
0.0
 11
1780.000000000018
 21
-137.99999999999909
 31
0.0
1001
ACDBBLOCKREPETAG
1070
     1
1071
      110
1005
13A1D6
  0
LINE
  5
13A1D7
  8
OBJECT
 10
1780.000000000018
 20
-137.99999999999909
 30
0.0
 11
1780.000000000018
 21
-261.99999999999909
 31
0.0
1001
ACDBBLOCKREPETAG
1070
     1
1071
      111
1005
13A1D7
  0
LINE
  5
13A1D8
  8
OBJECT
 10
1780.000000000018
 20
-261.99999999999909
 30
0.0
 11
1787.000000000018
 21
-261.99999999999909
 31
0.0
1001
ACDBBLOCKREPETAG
1070
     1
1071
      112
1005
13A1D8
  0
LINE
  5
13A1D9
  8
OBJECT
 10
1787.000000000018
 20
-261.99999999999909
 30
0.0
 11
1787.000000000018
 21
-137.99999999999909
 31
0.0
1001
ACDBBLOCKREPETAG
1070
     1
1071
      113
1005
13A1D9
  0
LINE
  5
13A1DA
  8
CENTER
 10
1765.000000000018
 20
-199.99999999999909
 30
0.0
 11
1920.0
 21
-199.99999999999909
 31
0.0
1001
ACDBBLOCKREPETAG
1070
     1
1071
      114
1005
13A1DA
  0
LINE
  5
13A1DB
  8
OBJECT
 10
1840.0000250358171
 20
-245.0000000000027
 30
0.0
 11
1914.000000000003
 21
-244.99999999999909
 31
0.0
1001
ACDBBLOCKREPETAG
1070
     1
1071
      115
1005
13A1DB
  0
LINE
  5
13A1DC
  8
OBJECT
 10
1840.0000250358171
 20
-154.99999999999909
 30
0.0
 11
1914.000000000003
 21
-154.99999999999909
 31
0.0
1001
ACDBBLOCKREPETAG
1070
     1
1071
      116
1005
13A1DC
  0
LINE
  5
13A1DD
  8
OBJECT
 10
1787.000000000018
 20
-140.99999999999909
 30
0.0
 11
1823.000000000018
 21
-140.99999999999909
 31
0.0
1001
ACDBBLOCKREPETAG
1070
     1
1071
      117
1005
13A1DD
  0
LINE
  5
13A1DE
  8
OBJECT
 10
1823.000000000018
 20
-140.99999999999909
 30
0.0
 11
1823.000000000018
 21
-258.99999999999909
 31
0.0
1001
ACDBBLOCKREPETAG
1070
     1
1071
      118
1005
13A1DE
  0
LINE
  5
13A1DF
  8
OBJECT
 10
1823.000000000018
 20
-258.99999999999909
 30
0.0
 11
1787.000000000018
 21
-258.99999999999909
 31
0.0
1001
ACDBBLOCKREPETAG
1070
     1
1071
      119
1005
13A1DF
  0
LINE
  5
13A1E0
  8
OBJECT
 10
1827.000000000018
 20
-145.49999999999909
 30
0.0
 11
1840.000000000018
 21
-145.49999999999909
 31
0.0
1001
ACDBBLOCKREPETAG
1070
     1
1071
      120
1005
13A1E0
  0
LINE
  5
13A1E1
  8
OBJECT
 10
1840.000000000018
 20
-254.49999999999909
 30
0.0
 11
1827.000000000018
 21
-254.49999999999909
 31
0.0
1001
ACDBBLOCKREPETAG
1070
     1
1071
      121
1005
13A1E1
  0
LINE
  5
13A1E2
  8
OBJECT
 10
1827.000000000018
 20
-254.49999999999909
 30
0.0
 11
1827.000000000018
 21
-145.49999999999909
 31
0.0
1001
ACDBBLOCKREPETAG
1070
     1
1071
      122
1005
13A1E2
  0
LINE
  5
13A1E3
  8
OBJECT
 10
1823.000000000018
 20
-140.99999999999909
 30
0.0
 11
1827.000000000018
 21
-145.49999999999909
 31
0.0
1001
ACDBBLOCKREPETAG
1070
     1
1071
      123
1005
13A1E3
  0
LINE
  5
13A1E4
  8
OBJECT
 10
1823.000000000018
 20
-258.99999999999909
 30
0.0
 11
1827.000000000018
 21
-254.49999999999909
 31
0.0
1001
ACDBBLOCKREPETAG
1070
     1
1071
      124
1005
13A1E4
  0
LINE
  5
13A1E5
  8
OBJECT
 10
1917.0000000000041
 20
-137.99999999999909
 30
0.0
 11
1920.0000000000041
 21
-137.99999999999909
 31
0.0
1001
ACDBBLOCKREPETAG
1070
     1
1071
      125
1005
13A1E5
  0
ARC
  5
13A1E6
  8
OBJECT
 10
1917.0000000000041
 20
-140.99999999999909
 30
0.0
 40
3.0
 50
90.0
 51
180.0
1001
ACDBBLOCKREPETAG
1070
     1
1071
      126
1005
13A1E6
  0
LINE
  5
13A1E7
  8
OBJECT
 10
1920.0000000000041
 20
-261.99999999999909
 30
0.0
 11
1917.0000000000041
 21
-261.99999999999909
 31
0.0
1001
ACDBBLOCKREPETAG
1070
     1
1071
      127
1005
13A1E7
  0
ARC
  5
13A1E8
  8
OBJECT
 10
1917.0000000000041
 20
-258.99999999999909
 30
0.0
 40
3.0
 50
180.0
 51
270.0
1001
ACDBBLOCKREPETAG
1070
     1
1071
      128
1005
13A1E8
  0
LINE
  5
13A1E9
  8
OBJECT
 10
1914.000000000003
 20
-258.99999999999909
 30
0.0
 11
1914.000000000003
 21
-222.44994432063581
 31
0.0
1001
ACDBBLOCKREPETAG
1070
     1
1071
      129
1005
13A1E9
  0
LINE
  5
13A1EA
  8
OBJECT
 10
1914.000000000003
 20
-177.55005567935859
 30
0.0
 11
1914.000000000003
 21
-140.99999999999909
 31
0.0
1001
ACDBBLOCKREPETAG
1070
     1
1071
      130
1005
13A1EA
  0
LINE
  5
13A1EB
  8
HIDDEN
 10
1832.000000000018
 20
-155.49999999999909
 30
0.0
 11
1832.000000000018
 21
-244.49999999999909
 31
0.0
1001
ACDBBLOCKREPETAG
1070
     1
1071
      131
1005
13A1EB
  0
LINE
  5
13A1EC
  8
OBJECT
 10
1840.0000250358171
 20
-254.4999509238105
 30
0.0
 11
1840.0000250358171
 21
-145.4999509238105
 31
0.0
1001
ACDBBLOCKREPETAG
1070
     1
1071
      133
1005
13A1EC
  0
ARC
  5
13A1ED
  8
OBJECT
 10
1875.0
 20
-199.99999999999909
 30
0.0
 40
45.000000000000547
 50
270.0
 51
346.21579484130518
1001
ACDBBLOCKREPETAG
1070
     1
1071
      134
1005
13A1ED
  0
ARC
  5
13A1EE
  8
OBJECT
 10
1875.0
 20
-199.99999999999909
 30
0.0
 40
45.000000000000547
 50
13.78420515869484
 51
90.0
1001
ACDBBLOCKREPETAG
1070
     1
1071
      402
1005
13A1EE
  0
LINE
  5
13A1EF
  8
CENTER
 10
2000.0
 20
-300.99999999999898
 30
0.0
 11
2000.0
 21
-279.99999999999909
 31
0.0
1001
ACDBBLOCKREPETAG
1070
     1
1071
        0
1005
13A1EF
  0
LINE
  5
13A1F0
  8
OBJECT
 10
2062.0
 20
-283.0
 30
0.0
 11
2062.0
 21
-279.99999999999909
 31
0.0
1001
ACDBBLOCKREPETAG
1070
     1
1071
        1
1005
13A1F0
  0
ARC
  5
13A1F1
  8
OBJECT
 10
2059.0
 20
-283.0
 30
0.0
 40
3.0
 50
270.0
 51
0.0
1001
ACDBBLOCKREPETAG
1070
     1
1071
        2
1005
13A1F1
  0
LINE
  5
13A1F2
  8
OBJECT
 10
1938.0
 20
-279.99999999999909
 30
0.0
 11
1938.0
 21
-282.99999999999818
 31
0.0
1001
ACDBBLOCKREPETAG
1070
     1
1071
        3
1005
13A1F2
  0
ARC
  5
13A1F3
  8
OBJECT
 10
1941.0
 20
-282.99999999999818
 30
0.0
 40
3.0
 50
180.0
 51
270.0
1001
ACDBBLOCKREPETAG
1070
     1
1071
        4
1005
13A1F3
  0
LINE
  5
13A1F4
  8
OBJECT
 10
1941.0
 20
-285.99999999999818
 30
0.0
 11
2059.0
 21
-286.0
 31
0.0
1001
ACDBBLOCKREPETAG
1070
     1
1071
        5
1005
13A1F4
  0
LINE
  5
13A1F5
  8
SLIM
 10
11914.999999999991
 20
-769.47385309434685
 30
0.0
 11
11929.47385309434
 21
-754.99999999999955
 31
0.0
1001
GRADIENTCOLOR1ACI
1070
     5
1001
GRADIENTCOLOR2ACI
1070
     2
1001
ACAD
1010
0.0
1020
0.0
1030
0.0
  0
LINE
  5
13A1F6
  8
SLIM
 10
11914.999999999991
 20
-787.43436533648469
 30
0.0
 11
11947.434365336479
 21
-754.99999999999955
 31
0.0
1001
GRADIENTCOLOR1ACI
1070
     5
1001
GRADIENTCOLOR2ACI
1070
     2
1001
ACAD
1010
0.0
1020
0.0
1030
0.0
  0
LINE
  5
13A1F7
  8
SLIM
 10
11915.0
 20
-805.39487757862241
 30
0.0
 11
11965.394877578619
 21
-754.99999999999955
 31
0.0
1001
GRADIENTCOLOR1ACI
1070
     5
1001
GRADIENTCOLOR2ACI
1070
     2
1001
ACAD
1010
0.0
1020
0.0
1030
0.0
  0
LINE
  5
13A1F8
  8
SLIM
 10
11915.0
 20
-823.35538982076014
 30
0.0
 11
11983.355389820759
 21
-754.99999999999955
 31
0.0
1001
GRADIENTCOLOR1ACI
1070
     5
1001
GRADIENTCOLOR2ACI
1070
     2
1001
ACAD
1010
0.0
1020
0.0
1030
0.0
  0
LINE
  5
13A1F9
  8
SLIM
 10
11915.0
 20
-841.31590206289775
 30
0.0
 11
12001.31590206289
 21
-754.99999999999955
 31
0.0
1001
GRADIENTCOLOR1ACI
1070
     5
1001
GRADIENTCOLOR2ACI
1070
     2
1001
ACAD
1010
0.0
1020
0.0
1030
0.0
  0
LINE
  5
13A1FA
  8
SLIM
 10
11915.0
 20
-859.27641430503559
 30
0.0
 11
12019.27641430503
 21
-754.99999999999955
 31
0.0
1001
GRADIENTCOLOR1ACI
1070
     5
1001
GRADIENTCOLOR2ACI
1070
     2
1001
ACAD
1010
0.0
1020
0.0
1030
0.0
  0
LINE
  5
13A1FB
  8
SLIM
 10
11915.0
 20
-877.2369265471732
 30
0.0
 11
12037.23692654717
 21
-754.99999999999955
 31
0.0
1001
GRADIENTCOLOR1ACI
1070
     5
1001
GRADIENTCOLOR2ACI
1070
     2
1001
ACAD
1010
0.0
1020
0.0
1030
0.0
  0
LINE
  5
13A1FC
  8
SLIM
 10
11915.0
 20
-895.19743878931092
 30
0.0
 11
12055.19743878931
 21
-754.99999999999955
 31
0.0
1001
GRADIENTCOLOR1ACI
1070
     5
1001
GRADIENTCOLOR2ACI
1070
     2
1001
ACAD
1010
0.0
1020
0.0
1030
0.0
  0
LINE
  5
13A1FD
  8
SLIM
 10
11915.0
 20
-913.15795103144865
 30
0.0
 11
12073.15795103145
 21
-754.99999999999955
 31
0.0
1001
GRADIENTCOLOR1ACI
1070
     5
1001
GRADIENTCOLOR2ACI
1070
     2
1001
ACAD
1010
0.0
1020
0.0
1030
0.0
  0
LINE
  5
13A1FE
  8
SLIM
 10
11915.0
 20
-931.11846327358637
 30
0.0
 11
12085.000000000009
 21
-761.11846327357694
 31
0.0
1001
GRADIENTCOLOR1ACI
1070
     5
1001
GRADIENTCOLOR2ACI
1070
     2
1001
ACAD
1010
0.0
1020
0.0
1030
0.0
  0
LINE
  5
13A1FF
  8
SLIM
 10
11915.0
 20
-949.07897551572387
 30
0.0
 11
12085.000000000009
 21
-779.07897551571614
 31
0.0
1001
GRADIENTCOLOR1ACI
1070
     5
1001
GRADIENTCOLOR2ACI
1070
     2
1001
ACAD
1010
0.0
1020
0.0
1030
0.0
  0
LINE
  5
13A200
  8
SLIM
 10
11915.0
 20
-967.03948775786148
 30
0.0
 11
12085.000000000009
 21
-797.039487757855
 31
0.0
1001
GRADIENTCOLOR1ACI
1070
     5
1001
GRADIENTCOLOR2ACI
1070
     2
1001
ACAD
1010
0.0
1020
0.0
1030
0.0
  0
LINE
  5
13A201
  8
SLIM
 10
11915.283600749561
 20
-984.71639925044155
 30
0.0
 11
12085.000000000009
 21
-814.99999999999375
 31
0.0
1001
GRADIENTCOLOR1ACI
1070
     5
1001
GRADIENTCOLOR2ACI
1070
     2
1001
ACAD
1010
0.0
1020
0.0
1030
0.0
  0
LINE
  5
13A202
  8
SLIM
 10
11917.49791047804
 20
-1000.462601764097
 30
0.0
 11
12085.000000000009
 21
-832.96051224213272
 31
0.0
1001
GRADIENTCOLOR1ACI
1070
     5
1001
GRADIENTCOLOR2ACI
1070
     2
1001
ACAD
1010
0.0
1020
0.0
1030
0.0
  0
LINE
  5
13A203
  8
SLIM
 10
11919.71222020652
 20
-1016.2088042777521
 30
0.0
 11
12085.0
 21
-850.92102448427181
 31
0.0
1001
GRADIENTCOLOR1ACI
1070
     5
1001
GRADIENTCOLOR2ACI
1070
     2
1001
ACAD
1010
0.0
1020
0.0
1030
0.0
  0
LINE
  5
13A204
  8
SLIM
 10
11921.92652993501
 20
-1031.9550067914081
 30
0.0
 11
12085.0
 21
-868.88153672641045
 31
0.0
1001
GRADIENTCOLOR1ACI
1070
     5
1001
GRADIENTCOLOR2ACI
1070
     2
1001
ACAD
1010
0.0
1020
0.0
1030
0.0
  0
LINE
  5
13A205
  8
SLIM
 10
11924.140839663491
 20
-1047.701209305063
 30
0.0
 11
12085.0
 21
-886.84204896854965
 31
0.0
1001
GRADIENTCOLOR1ACI
1070
     5
1001
GRADIENTCOLOR2ACI
1070
     2
1001
ACAD
1010
0.0
1020
0.0
1030
0.0
  0
LINE
  5
13A206
  8
SLIM
 10
11926.35514939196
 20
-1063.4474118187179
 30
0.0
 11
12085.0
 21
-904.80256121068828
 31
0.0
1001
GRADIENTCOLOR1ACI
1070
     5
1001
GRADIENTCOLOR2ACI
1070
     2
1001
ACAD
1010
0.0
1020
0.0
1030
0.0
  0
LINE
  5
13A207
  8
SLIM
 10
11928.56945912045
 20
-1079.193614332373
 30
0.0
 11
12085.0
 21
-922.76307345282714
 31
0.0
1001
GRADIENTCOLOR1ACI
1070
     5
1001
GRADIENTCOLOR2ACI
1070
     2
1001
ACAD
1010
0.0
1020
0.0
1030
0.0
  0
LINE
  5
13A208
  8
SLIM
 10
11930.78376884894
 20
-1094.9398168460291
 30
0.0
 11
12085.0
 21
-940.72358569496646
 31
0.0
1001
GRADIENTCOLOR1ACI
1070
     5
1001
GRADIENTCOLOR2ACI
1070
     2
1001
ACAD
1010
0.0
1020
0.0
1030
0.0
  0
LINE
  5
13A209
  8
SLIM
 10
11932.998078577421
 20
-1110.686019359684
 30
0.0
 11
12085.0
 21
-958.68409793710521
 31
0.0
1001
GRADIENTCOLOR1ACI
1070
     5
1001
GRADIENTCOLOR2ACI
1070
     2
1001
ACAD
1010
0.0
1020
0.0
1030
0.0
  0
LINE
  5
13A20A
  8
SLIM
 10
11932.999999999991
 20
-1128.644610179251
 30
0.0
 11
12085.0
 21
-976.64461017924395
 31
0.0
1001
GRADIENTCOLOR1ACI
1070
     5
1001
GRADIENTCOLOR2ACI
1070
     2
1001
ACAD
1010
0.0
1020
0.0
1030
0.0
  0
LINE
  5
13A20B
  8
SLIM
 10
11934.60512242139
 20
-1144.9999999999959
 30
0.0
 11
12083.051837154369
 21
-996.55328526701646
 31
0.0
1001
GRADIENTCOLOR1ACI
1070
     5
1001
GRADIENTCOLOR2ACI
1070
     2
1001
ACAD
1010
0.0
1020
0.0
1030
0.0
  0
LINE
  5
13A20C
  8
SLIM
 10
11952.565634663521
 20
-1144.9999999999959
 30
0.0
 11
12080.112844242019
 21
-1017.452790421504
 31
0.0
1001
GRADIENTCOLOR1ACI
1070
     5
1001
GRADIENTCOLOR2ACI
1070
     2
1001
ACAD
1010
0.0
1020
0.0
1030
0.0
  0
LINE
  5
13A20D
  8
SLIM
 10
11970.52614690566
 20
-1144.999999999997
 30
0.0
 11
12077.17385132967
 21
-1038.3522955759911
 31
0.0
1001
GRADIENTCOLOR1ACI
1070
     5
1001
GRADIENTCOLOR2ACI
1070
     2
1001
ACAD
1010
0.0
1020
0.0
1030
0.0
  0
LINE
  5
13A20E
  8
SLIM
 10
11988.4866591478
 20
-1144.999999999997
 30
0.0
 11
12074.23485841732
 21
-1059.251800730478
 31
0.0
1001
GRADIENTCOLOR1ACI
1070
     5
1001
GRADIENTCOLOR2ACI
1070
     2
1001
ACAD
1010
0.0
1020
0.0
1030
0.0
  0
LINE
  5
13A20F
  8
SLIM
 10
12006.44717138994
 20
-1144.999999999998
 30
0.0
 11
12071.29586550497
 21
-1080.151305884966
 31
0.0
1001
GRADIENTCOLOR1ACI
1070
     5
1001
GRADIENTCOLOR2ACI
1070
     2
1001
ACAD
1010
0.0
1020
0.0
1030
0.0
  0
LINE
  5
13A210
  8
SLIM
 10
12024.40768363208
 20
-1144.999999999998
 30
0.0
 11
12068.35687259262
 21
-1101.050811039453
 31
0.0
1001
GRADIENTCOLOR1ACI
1070
     5
1001
GRADIENTCOLOR2ACI
1070
     2
1001
ACAD
1010
0.0
1020
0.0
1030
0.0
  0
LINE
  5
13A211
  8
SLIM
 10
12042.368195874211
 20
-1144.9999999999991
 30
0.0
 11
12067.0
 21
-1120.3681958742011
 31
0.0
1001
GRADIENTCOLOR1ACI
1070
     5
1001
GRADIENTCOLOR2ACI
1070
     2
1001
ACAD
1010
0.0
1020
0.0
1030
0.0
  0
LINE
  5
13A212
  8
SLIM
 10
12060.328708116351
 20
-1144.9999999999991
 30
0.0
 11
12067.0
 21
-1138.3287081163401
 31
0.0
1001
GRADIENTCOLOR1ACI
1070
     5
1001
GRADIENTCOLOR2ACI
1070
     2
1001
ACAD
1010
0.0
1020
0.0
1030
0.0
  0
LINE
  5
13A213
  8
OBJECT
 10
11932.999999999991
 20
-1144.9999999999959
 30
0.0
 11
12067.0
 21
-1144.9999999999991
 31
0.0
1001
ACDBBLOCKREPETAG
1070
     1
1071
        1
1005
13A213
  0
LINE
  5
13A214
  8
OBJECT
 10
11914.999999999991
 20
-754.99999999999955
 30
0.0
 11
11915.0
 21
-982.69968280914077
 31
0.0
1001
ACDBBLOCKREPETAG
1070
     1
1071
        2
1005
13A214
  0
LINE
  5
13A215
  8
OBJECT
 10
12085.000000000009
 20
-754.99999999999955
 30
0.0
 11
12085.0
 21
-982.69968280917203
 31
0.0
1001
ACDBBLOCKREPETAG
1070
     1
1071
        3
1005
13A215
  0
LINE
  5
13A216
  8
OBJECT
 10
11915.0
 20
-982.69968280914077
 30
0.0
 11
11932.999999999991
 21
-1110.699682809081
 31
0.0
1001
ACDBBLOCKREPETAG
1070
     1
1071
        4
1005
13A216
  0
LINE
  5
13A217
  8
OBJECT
 10
12067.0
 20
-1110.699682809128
 30
0.0
 11
12085.0
 21
-982.69968280917203
 31
0.0
1001
ACDBBLOCKREPETAG
1070
     1
1071
        5
1005
13A217
  0
LINE
  5
13A218
  8
OBJECT
 10
12085.000000000009
 20
-754.99999999999955
 30
0.0
 11
11914.999999999991
 21
-754.99999999999955
 31
0.0
1001
ACDBBLOCKREPETAG
1070
     1
1071
        6
1005
13A218
  0
LINE
  5
13A219
  8
OBJECT
 10
11932.999999999991
 20
-1110.699682809081
 30
0.0
 11
11932.999999999991
 21
-1144.9999999999959
 31
0.0
1001
ACDBBLOCKREPETAG
1070
     1
1071
        8
1005
13A219
  0
LINE
  5
13A21A
  8
OBJECT
 10
12067.0
 20
-1110.699682809128
 30
0.0
 11
12067.0
 21
-1144.9999999999991
 31
0.0
1001
ACDBBLOCKREPETAG
1070
     1
1071
        9
1005
13A21A
  0
LINE
  5
13A21B
  8
SLIM
 10
9914.9999999999927
 20
-769.47385309434685
 30
0.0
 11
9929.4738530943396
 21
-754.99999999999955
 31
0.0
1001
GRADIENTCOLOR1ACI
1070
     5
1001
GRADIENTCOLOR2ACI
1070
     2
1001
ACAD
1010
0.0
1020
0.0
1030
0.0
  0
LINE
  5
13A21C
  8
SLIM
 10
9914.9999999999927
 20
-787.43436533648469
 30
0.0
 11
9947.4343653364795
 21
-754.99999999999955
 31
0.0
1001
GRADIENTCOLOR1ACI
1070
     5
1001
GRADIENTCOLOR2ACI
1070
     2
1001
ACAD
1010
0.0
1020
0.0
1030
0.0
  0
LINE
  5
13A21D
  8
SLIM
 10
9914.9999999999945
 20
-805.39487757862241
 30
0.0
 11
9965.3948775786175
 21
-754.99999999999955
 31
0.0
1001
GRADIENTCOLOR1ACI
1070
     5
1001
GRADIENTCOLOR2ACI
1070
     2
1001
ACAD
1010
0.0
1020
0.0
1030
0.0
  0
LINE
  5
13A21E
  8
SLIM
 10
9914.9999999999945
 20
-823.35538982076014
 30
0.0
 11
9983.3553898207556
 21
-754.99999999999955
 31
0.0
1001
GRADIENTCOLOR1ACI
1070
     5
1001
GRADIENTCOLOR2ACI
1070
     2
1001
ACAD
1010
0.0
1020
0.0
1030
0.0
  0
LINE
  5
13A21F
  8
SLIM
 10
9914.9999999999945
 20
-841.31590206289775
 30
0.0
 11
10001.31590206289
 21
-754.99999999999955
 31
0.0
1001
GRADIENTCOLOR1ACI
1070
     5
1001
GRADIENTCOLOR2ACI
1070
     2
1001
ACAD
1010
0.0
1020
0.0
1030
0.0
  0
LINE
  5
13A220
  8
SLIM
 10
9914.9999999999964
 20
-859.27641430503559
 30
0.0
 11
10019.27641430503
 21
-754.99999999999955
 31
0.0
1001
GRADIENTCOLOR1ACI
1070
     5
1001
GRADIENTCOLOR2ACI
1070
     2
1001
ACAD
1010
0.0
1020
0.0
1030
0.0
  0
LINE
  5
13A221
  8
SLIM
 10
9914.9999999999964
 20
-877.2369265471732
 30
0.0
 11
10037.23692654717
 21
-754.99999999999955
 31
0.0
1001
GRADIENTCOLOR1ACI
1070
     5
1001
GRADIENTCOLOR2ACI
1070
     2
1001
ACAD
1010
0.0
1020
0.0
1030
0.0
  0
LINE
  5
13A222
  8
SLIM
 10
9914.9999999999964
 20
-895.19743878931092
 30
0.0
 11
10055.197438789301
 21
-754.99999999999955
 31
0.0
1001
GRADIENTCOLOR1ACI
1070
     5
1001
GRADIENTCOLOR2ACI
1070
     2
1001
ACAD
1010
0.0
1020
0.0
1030
0.0
  0
LINE
  5
13A223
  8
SLIM
 10
9914.9999999999982
 20
-913.15795103144865
 30
0.0
 11
10073.15795103144
 21
-754.99999999999955
 31
0.0
1001
GRADIENTCOLOR1ACI
1070
     5
1001
GRADIENTCOLOR2ACI
1070
     2
1001
ACAD
1010
0.0
1020
0.0
1030
0.0
  0
LINE
  5
13A224
  8
SLIM
 10
9914.9999999999982
 20
-931.11846327358637
 30
0.0
 11
10085.000000000009
 21
-761.11846327357694
 31
0.0
1001
GRADIENTCOLOR1ACI
1070
     5
1001
GRADIENTCOLOR2ACI
1070
     2
1001
ACAD
1010
0.0
1020
0.0
1030
0.0
  0
LINE
  5
13A225
  8
SLIM
 10
9914.9999999999982
 20
-949.07897551572387
 30
0.0
 11
10085.000000000009
 21
-779.07897551571614
 31
0.0
1001
GRADIENTCOLOR1ACI
1070
     5
1001
GRADIENTCOLOR2ACI
1070
     2
1001
ACAD
1010
0.0
1020
0.0
1030
0.0
  0
LINE
  5
13A226
  8
SLIM
 10
9915.0
 20
-967.03948775786148
 30
0.0
 11
10085.0
 21
-797.039487757855
 31
0.0
1001
GRADIENTCOLOR1ACI
1070
     5
1001
GRADIENTCOLOR2ACI
1070
     2
1001
ACAD
1010
0.0
1020
0.0
1030
0.0
  0
LINE
  5
13A227
  8
SLIM
 10
9915.2836007495607
 20
-984.71639925044155
 30
0.0
 11
10085.0
 21
-814.99999999999375
 31
0.0
1001
GRADIENTCOLOR1ACI
1070
     5
1001
GRADIENTCOLOR2ACI
1070
     2
1001
ACAD
1010
0.0
1020
0.0
1030
0.0
  0
LINE
  5
13A228
  8
SLIM
 10
9917.4979104780396
 20
-1000.462601764097
 30
0.0
 11
10085.0
 21
-832.96051224213272
 31
0.0
1001
GRADIENTCOLOR1ACI
1070
     5
1001
GRADIENTCOLOR2ACI
1070
     2
1001
ACAD
1010
0.0
1020
0.0
1030
0.0
  0
LINE
  5
13A229
  8
SLIM
 10
9919.7122202065257
 20
-1016.2088042777521
 30
0.0
 11
10085.0
 21
-850.92102448427181
 31
0.0
1001
GRADIENTCOLOR1ACI
1070
     5
1001
GRADIENTCOLOR2ACI
1070
     2
1001
ACAD
1010
0.0
1020
0.0
1030
0.0
  0
LINE
  5
13A22A
  8
SLIM
 10
9921.9265299350063
 20
-1031.9550067914081
 30
0.0
 11
10085.0
 21
-868.88153672641045
 31
0.0
1001
GRADIENTCOLOR1ACI
1070
     5
1001
GRADIENTCOLOR2ACI
1070
     2
1001
ACAD
1010
0.0
1020
0.0
1030
0.0
  0
LINE
  5
13A22B
  8
SLIM
 10
9924.1408396634924
 20
-1047.701209305063
 30
0.0
 11
10085.0
 21
-886.84204896854965
 31
0.0
1001
GRADIENTCOLOR1ACI
1070
     5
1001
GRADIENTCOLOR2ACI
1070
     2
1001
ACAD
1010
0.0
1020
0.0
1030
0.0
  0
LINE
  5
13A22C
  8
SLIM
 10
9926.3551493919731
 20
-1063.4474118187179
 30
0.0
 11
10085.0
 21
-904.80256121068828
 31
0.0
1001
GRADIENTCOLOR1ACI
1070
     5
1001
GRADIENTCOLOR2ACI
1070
     2
1001
ACAD
1010
0.0
1020
0.0
1030
0.0
  0
LINE
  5
13A22D
  8
SLIM
 10
9928.5694591204574
 20
-1079.193614332373
 30
0.0
 11
10085.0
 21
-922.76307345282714
 31
0.0
1001
GRADIENTCOLOR1ACI
1070
     5
1001
GRADIENTCOLOR2ACI
1070
     2
1001
ACAD
1010
0.0
1020
0.0
1030
0.0
  0
LINE
  5
13A22E
  8
SLIM
 10
9930.7837688489417
 20
-1094.9398168460291
 30
0.0
 11
10085.0
 21
-940.72358569496646
 31
0.0
1001
GRADIENTCOLOR1ACI
1070
     5
1001
GRADIENTCOLOR2ACI
1070
     2
1001
ACAD
1010
0.0
1020
0.0
1030
0.0
  0
LINE
  5
13A22F
  8
SLIM
 10
9932.9980785774187
 20
-1110.686019359684
 30
0.0
 11
10085.0
 21
-958.68409793710521
 31
0.0
1001
GRADIENTCOLOR1ACI
1070
     5
1001
GRADIENTCOLOR2ACI
1070
     2
1001
ACAD
1010
0.0
1020
0.0
1030
0.0
  0
LINE
  5
13A230
  8
SLIM
 10
9932.9999999999927
 20
-1128.644610179251
 30
0.0
 11
10085.0
 21
-976.64461017924395
 31
0.0
1001
GRADIENTCOLOR1ACI
1070
     5
1001
GRADIENTCOLOR2ACI
1070
     2
1001
ACAD
1010
0.0
1020
0.0
1030
0.0
  0
LINE
  5
13A231
  8
SLIM
 10
9934.6051224213898
 20
-1144.9999999999959
 30
0.0
 11
10083.05183715436
 21
-996.55328526701646
 31
0.0
1001
GRADIENTCOLOR1ACI
1070
     5
1001
GRADIENTCOLOR2ACI
1070
     2
1001
ACAD
1010
0.0
1020
0.0
1030
0.0
  0
LINE
  5
13A232
  8
SLIM
 10
9952.5656346635242
 20
-1144.9999999999959
 30
0.0
 11
10080.11284424201
 21
-1017.452790421504
 31
0.0
1001
GRADIENTCOLOR1ACI
1070
     5
1001
GRADIENTCOLOR2ACI
1070
     2
1001
ACAD
1010
0.0
1020
0.0
1030
0.0
  0
LINE
  5
13A233
  8
SLIM
 10
9970.5261469056622
 20
-1144.999999999997
 30
0.0
 11
10077.17385132967
 21
-1038.3522955759911
 31
0.0
1001
GRADIENTCOLOR1ACI
1070
     5
1001
GRADIENTCOLOR2ACI
1070
     2
1001
ACAD
1010
0.0
1020
0.0
1030
0.0
  0
LINE
  5
13A234
  8
SLIM
 10
9988.4866591478003
 20
-1144.999999999997
 30
0.0
 11
10074.23485841732
 21
-1059.251800730478
 31
0.0
1001
GRADIENTCOLOR1ACI
1070
     5
1001
GRADIENTCOLOR2ACI
1070
     2
1001
ACAD
1010
0.0
1020
0.0
1030
0.0
  0
LINE
  5
13A235
  8
SLIM
 10
10006.44717138994
 20
-1144.999999999998
 30
0.0
 11
10071.29586550497
 21
-1080.151305884966
 31
0.0
1001
GRADIENTCOLOR1ACI
1070
     5
1001
GRADIENTCOLOR2ACI
1070
     2
1001
ACAD
1010
0.0
1020
0.0
1030
0.0
  0
LINE
  5
13A236
  8
SLIM
 10
10024.407683632069
 20
-1144.999999999998
 30
0.0
 11
10068.35687259262
 21
-1101.050811039453
 31
0.0
1001
GRADIENTCOLOR1ACI
1070
     5
1001
GRADIENTCOLOR2ACI
1070
     2
1001
ACAD
1010
0.0
1020
0.0
1030
0.0
  0
LINE
  5
13A237
  8
SLIM
 10
10042.368195874211
 20
-1144.9999999999991
 30
0.0
 11
10067.000000000009
 21
-1120.3681958742011
 31
0.0
1001
GRADIENTCOLOR1ACI
1070
     5
1001
GRADIENTCOLOR2ACI
1070
     2
1001
ACAD
1010
0.0
1020
0.0
1030
0.0
  0
LINE
  5
13A238
  8
SLIM
 10
10060.328708116351
 20
-1144.9999999999991
 30
0.0
 11
10067.000000000009
 21
-1138.3287081163401
 31
0.0
1001
GRADIENTCOLOR1ACI
1070
     5
1001
GRADIENTCOLOR2ACI
1070
     2
1001
ACAD
1010
0.0
1020
0.0
1030
0.0
  0
LINE
  5
13A239
  8
OBJECT
 10
9932.9999999999927
 20
-1144.9999999999959
 30
0.0
 11
10067.000000000009
 21
-1144.9999999999991
 31
0.0
1001
ACDBBLOCKREPETAG
1070
     1
1071
        1
1005
13A239
  0
LINE
  5
13A23A
  8
OBJECT
 10
9914.9999999999927
 20
-754.99999999999955
 30
0.0
 11
9915.0
 21
-982.69968280914077
 31
0.0
1001
ACDBBLOCKREPETAG
1070
     1
1071
        2
1005
13A23A
  0
LINE
  5
13A23B
  8
OBJECT
 10
10085.000000000009
 20
-754.99999999999955
 30
0.0
 11
10085.0
 21
-982.69968280917203
 31
0.0
1001
ACDBBLOCKREPETAG
1070
     1
1071
        3
1005
13A23B
  0
LINE
  5
13A23C
  8
OBJECT
 10
9915.0
 20
-982.69968280914077
 30
0.0
 11
9932.9999999999927
 21
-1110.699682809081
 31
0.0
1001
ACDBBLOCKREPETAG
1070
     1
1071
        4
1005
13A23C
  0
LINE
  5
13A23D
  8
OBJECT
 10
10067.000000000009
 20
-1110.699682809128
 30
0.0
 11
10085.0
 21
-982.69968280917203
 31
0.0
1001
ACDBBLOCKREPETAG
1070
     1
1071
        5
1005
13A23D
  0
LINE
  5
13A23E
  8
OBJECT
 10
10085.000000000009
 20
-754.99999999999955
 30
0.0
 11
9914.9999999999927
 21
-754.99999999999955
 31
0.0
1001
ACDBBLOCKREPETAG
1070
     1
1071
        6
1005
13A23E
  0
LINE
  5
13A23F
  8
OBJECT
 10
9932.9999999999927
 20
-1110.699682809081
 30
0.0
 11
9932.9999999999927
 21
-1144.9999999999959
 31
0.0
1001
ACDBBLOCKREPETAG
1070
     1
1071
        8
1005
13A23F
  0
LINE
  5
13A240
  8
OBJECT
 10
10067.000000000009
 20
-1110.699682809128
 30
0.0
 11
10067.000000000009
 21
-1144.9999999999991
 31
0.0
1001
ACDBBLOCKREPETAG
1070
     1
1071
        9
1005
13A240
  0
LINE
  5
13A241
  8
SLIM
 10
7914.9999999999918
 20
-769.47385309434685
 30
0.0
 11
7929.4738530943387
 21
-754.99999999999955
 31
0.0
1001
GRADIENTCOLOR1ACI
1070
     5
1001
GRADIENTCOLOR2ACI
1070
     2
1001
ACAD
1010
0.0
1020
0.0
1030
0.0
  0
LINE
  5
13A242
  8
SLIM
 10
7914.9999999999918
 20
-787.43436533648469
 30
0.0
 11
7947.4343653364758
 21
-754.99999999999955
 31
0.0
1001
GRADIENTCOLOR1ACI
1070
     5
1001
GRADIENTCOLOR2ACI
1070
     2
1001
ACAD
1010
0.0
1020
0.0
1030
0.0
  0
LINE
  5
13A243
  8
SLIM
 10
7914.9999999999918
 20
-805.39487757862241
 30
0.0
 11
7965.3948775786139
 21
-754.99999999999955
 31
0.0
1001
GRADIENTCOLOR1ACI
1070
     5
1001
GRADIENTCOLOR2ACI
1070
     2
1001
ACAD
1010
0.0
1020
0.0
1030
0.0
  0
LINE
  5
13A244
  8
SLIM
 10
7914.9999999999964
 20
-823.35538982076014
 30
0.0
 11
7983.3553898207547
 21
-754.99999999999955
 31
0.0
1001
GRADIENTCOLOR1ACI
1070
     5
1001
GRADIENTCOLOR2ACI
1070
     2
1001
ACAD
1010
0.0
1020
0.0
1030
0.0
  0
LINE
  5
13A245
  8
SLIM
 10
7914.9999999999982
 20
-841.31590206289775
 30
0.0
 11
8001.3159020628927
 21
-754.99999999999955
 31
0.0
1001
GRADIENTCOLOR1ACI
1070
     5
1001
GRADIENTCOLOR2ACI
1070
     2
1001
ACAD
1010
0.0
1020
0.0
1030
0.0
  0
LINE
  5
13A246
  8
SLIM
 10
7914.9999999999982
 20
-859.27641430503536
 30
0.0
 11
8019.2764143050299
 21
-754.99999999999955
 31
0.0
1001
GRADIENTCOLOR1ACI
1070
     5
1001
GRADIENTCOLOR2ACI
1070
     2
1001
ACAD
1010
0.0
1020
0.0
1030
0.0
  0
LINE
  5
13A247
  8
SLIM
 10
7914.9999999999982
 20
-877.2369265471732
 30
0.0
 11
8037.2369265471707
 21
-754.99999999999955
 31
0.0
1001
GRADIENTCOLOR1ACI
1070
     5
1001
GRADIENTCOLOR2ACI
1070
     2
1001
ACAD
1010
0.0
1020
0.0
1030
0.0
  0
LINE
  5
13A248
  8
SLIM
 10
7914.9999999999982
 20
-895.19743878931092
 30
0.0
 11
8055.1974387893079
 21
-754.99999999999955
 31
0.0
1001
GRADIENTCOLOR1ACI
1070
     5
1001
GRADIENTCOLOR2ACI
1070
     2
1001
ACAD
1010
0.0
1020
0.0
1030
0.0
  0
LINE
  5
13A249
  8
SLIM
 10
7914.9999999999982
 20
-913.15795103144865
 30
0.0
 11
8073.1579510314468
 21
-754.99999999999955
 31
0.0
1001
GRADIENTCOLOR1ACI
1070
     5
1001
GRADIENTCOLOR2ACI
1070
     2
1001
ACAD
1010
0.0
1020
0.0
1030
0.0
  0
LINE
  5
13A24A
  8
SLIM
 10
7914.9999999999982
 20
-931.11846327358569
 30
0.0
 11
8085.0000000000064
 21
-761.11846327357694
 31
0.0
1001
GRADIENTCOLOR1ACI
1070
     5
1001
GRADIENTCOLOR2ACI
1070
     2
1001
ACAD
1010
0.0
1020
0.0
1030
0.0
  0
LINE
  5
13A24B
  8
SLIM
 10
7914.9999999999982
 20
-949.07897551572387
 30
0.0
 11
8085.0000000000064
 21
-779.07897551571614
 31
0.0
1001
GRADIENTCOLOR1ACI
1070
     5
1001
GRADIENTCOLOR2ACI
1070
     2
1001
ACAD
1010
0.0
1020
0.0
1030
0.0
  0
LINE
  5
13A24C
  8
SLIM
 10
7914.9999999999982
 20
-967.03948775786148
 30
0.0
 11
8085.0000000000064
 21
-797.039487757855
 31
0.0
1001
GRADIENTCOLOR1ACI
1070
     5
1001
GRADIENTCOLOR2ACI
1070
     2
1001
ACAD
1010
0.0
1020
0.0
1030
0.0
  0
LINE
  5
13A24D
  8
SLIM
 10
7915.283600749558
 20
-984.71639925044155
 30
0.0
 11
8085.0000000000064
 21
-814.99999999999375
 31
0.0
1001
GRADIENTCOLOR1ACI
1070
     5
1001
GRADIENTCOLOR2ACI
1070
     2
1001
ACAD
1010
0.0
1020
0.0
1030
0.0
  0
LINE
  5
13A24E
  8
SLIM
 10
7917.4979104780423
 20
-1000.462601764097
 30
0.0
 11
8085.0000000000064
 21
-832.96051224213272
 31
0.0
1001
GRADIENTCOLOR1ACI
1070
     5
1001
GRADIENTCOLOR2ACI
1070
     2
1001
ACAD
1010
0.0
1020
0.0
1030
0.0
  0
LINE
  5
13A24F
  8
SLIM
 10
7919.7122202065239
 20
-1016.2088042777521
 30
0.0
 11
8085.0000000000064
 21
-850.92102448427181
 31
0.0
1001
GRADIENTCOLOR1ACI
1070
     5
1001
GRADIENTCOLOR2ACI
1070
     2
1001
ACAD
1010
0.0
1020
0.0
1030
0.0
  0
LINE
  5
13A250
  8
SLIM
 10
7921.9265299350072
 20
-1031.955006791407
 30
0.0
 11
8085.0000000000018
 21
-868.88153672641045
 31
0.0
1001
GRADIENTCOLOR1ACI
1070
     5
1001
GRADIENTCOLOR2ACI
1070
     2
1001
ACAD
1010
0.0
1020
0.0
1030
0.0
  0
LINE
  5
13A251
  8
SLIM
 10
7924.1408396634897
 20
-1047.701209305063
 30
0.0
 11
8085.0000000000018
 21
-886.84204896854965
 31
0.0
1001
GRADIENTCOLOR1ACI
1070
     5
1001
GRADIENTCOLOR2ACI
1070
     2
1001
ACAD
1010
0.0
1020
0.0
1030
0.0
  0
LINE
  5
13A252
  8
SLIM
 10
7926.3551493919731
 20
-1063.4474118187179
 30
0.0
 11
8085.0000000000018
 21
-904.80256121068828
 31
0.0
1001
GRADIENTCOLOR1ACI
1070
     5
1001
GRADIENTCOLOR2ACI
1070
     2
1001
ACAD
1010
0.0
1020
0.0
1030
0.0
  0
LINE
  5
13A253
  8
SLIM
 10
7928.5694591204538
 20
-1079.193614332373
 30
0.0
 11
8085.0000000000018
 21
-922.76307345282714
 31
0.0
1001
GRADIENTCOLOR1ACI
1070
     5
1001
GRADIENTCOLOR2ACI
1070
     2
1001
ACAD
1010
0.0
1020
0.0
1030
0.0
  0
LINE
  5
13A254
  8
SLIM
 10
7930.783768848939
 20
-1094.939816846028
 30
0.0
 11
8085.0000000000018
 21
-940.72358569496646
 31
0.0
1001
GRADIENTCOLOR1ACI
1070
     5
1001
GRADIENTCOLOR2ACI
1070
     2
1001
ACAD
1010
0.0
1020
0.0
1030
0.0
  0
LINE
  5
13A255
  8
SLIM
 10
7938.6840979371091
 20
-1104.999999999997
 30
0.0
 11
8085.0
 21
-958.68409793710521
 31
0.0
1001
GRADIENTCOLOR1ACI
1070
     5
1001
GRADIENTCOLOR2ACI
1070
     2
1001
ACAD
1010
0.0
1020
0.0
1030
0.0
  0
LINE
  5
13A256
  8
SLIM
 10
7943.0
 20
-1118.644610179244
 30
0.0
 11
7956.6446101792453
 21
-1104.999999999997
 31
0.0
1001
GRADIENTCOLOR1ACI
1070
     5
1001
GRADIENTCOLOR2ACI
1070
     2
1001
ACAD
1010
0.0
1020
0.0
1030
0.0
  0
LINE
  5
13A257
  8
SLIM
 10
7956.6446101792453
 20
-1104.999999999997
 30
0.0
 11
8085.0
 21
-976.64461017924395
 31
0.0
1001
GRADIENTCOLOR1ACI
1070
     5
1001
GRADIENTCOLOR2ACI
1070
     2
1001
ACAD
1010
0.0
1020
0.0
1030
0.0
  0
LINE
  5
13A258
  8
SLIM
 10
7944.6051224213861
 20
-1134.999999999998
 30
0.0
 11
7974.6051224213861
 21
-1104.999999999997
 31
0.0
1001
GRADIENTCOLOR1ACI
1070
     5
1001
GRADIENTCOLOR2ACI
1070
     2
1001
ACAD
1010
0.0
1020
0.0
1030
0.0
  0
LINE
  5
13A259
  8
SLIM
 10
7974.6051224213861
 20
-1104.999999999997
 30
0.0
 11
8083.051837154364
 21
-996.55328526701703
 31
0.0
1001
GRADIENTCOLOR1ACI
1070
     5
1001
GRADIENTCOLOR2ACI
1070
     2
1001
ACAD
1010
0.0
1020
0.0
1030
0.0
  0
LINE
  5
13A25A
  8
SLIM
 10
7962.5656346635242
 20
-1134.999999999998
 30
0.0
 11
7992.5656346635242
 21
-1104.999999999997
 31
0.0
1001
GRADIENTCOLOR1ACI
1070
     5
1001
GRADIENTCOLOR2ACI
1070
     2
1001
ACAD
1010
0.0
1020
0.0
1030
0.0
  0
LINE
  5
13A25B
  8
SLIM
 10
7992.5656346635242
 20
-1104.999999999997
 30
0.0
 11
8080.1128442420159
 21
-1017.452790421505
 31
0.0
1001
GRADIENTCOLOR1ACI
1070
     5
1001
GRADIENTCOLOR2ACI
1070
     2
1001
ACAD
1010
0.0
1020
0.0
1030
0.0
  0
LINE
  5
13A25C
  8
SLIM
 10
7980.5261469056622
 20
-1134.999999999998
 30
0.0
 11
8010.5261469056586
 21
-1104.999999999997
 31
0.0
1001
GRADIENTCOLOR1ACI
1070
     5
1001
GRADIENTCOLOR2ACI
1070
     2
1001
ACAD
1010
0.0
1020
0.0
1030
0.0
  0
LINE
  5
13A25D
  8
SLIM
 10
8010.5261469056586
 20
-1104.999999999997
 30
0.0
 11
8077.1738513296659
 21
-1038.352295575992
 31
0.0
1001
GRADIENTCOLOR1ACI
1070
     5
1001
GRADIENTCOLOR2ACI
1070
     2
1001
ACAD
1010
0.0
1020
0.0
1030
0.0
  0
LINE
  5
13A25E
  8
SLIM
 10
7998.4866591478003
 20
-1134.999999999998
 30
0.0
 11
8028.4866591478003
 21
-1104.999999999997
 31
0.0
1001
GRADIENTCOLOR1ACI
1070
     5
1001
GRADIENTCOLOR2ACI
1070
     2
1001
ACAD
1010
0.0
1020
0.0
1030
0.0
  0
LINE
  5
13A25F
  8
SLIM
 10
8028.4866591478003
 20
-1104.999999999997
 30
0.0
 11
8074.234858417316
 21
-1059.2518007304809
 31
0.0
1001
GRADIENTCOLOR1ACI
1070
     5
1001
GRADIENTCOLOR2ACI
1070
     2
1001
ACAD
1010
0.0
1020
0.0
1030
0.0
  0
LINE
  5
13A260
  8
SLIM
 10
8016.4471713899393
 20
-1134.999999999998
 30
0.0
 11
8046.4471713899411
 21
-1104.999999999997
 31
0.0
1001
GRADIENTCOLOR1ACI
1070
     5
1001
GRADIENTCOLOR2ACI
1070
     2
1001
ACAD
1010
0.0
1020
0.0
1030
0.0
  0
LINE
  5
13A261
  8
SLIM
 10
8046.4471713899411
 20
-1104.999999999997
 30
0.0
 11
8071.2958655049679
 21
-1080.151305884968
 31
0.0
1001
GRADIENTCOLOR1ACI
1070
     5
1001
GRADIENTCOLOR2ACI
1070
     2
1001
ACAD
1010
0.0
1020
0.0
1030
0.0
  0
LINE
  5
13A262
  8
SLIM
 10
8034.4076836320774
 20
-1134.999999999998
 30
0.0
 11
8057.0
 21
-1112.4076836320739
 31
0.0
1001
GRADIENTCOLOR1ACI
1070
     5
1001
GRADIENTCOLOR2ACI
1070
     2
1001
ACAD
1010
0.0
1020
0.0
1030
0.0
  0
LINE
  5
13A263
  8
SLIM
 10
8064.4076836320764
 20
-1104.999999999997
 30
0.0
 11
8068.3568725926198
 21
-1101.050811039456
 31
0.0
1001
GRADIENTCOLOR1ACI
1070
     5
1001
GRADIENTCOLOR2ACI
1070
     2
1001
ACAD
1010
0.0
1020
0.0
1030
0.0
  0
LINE
  5
13A264
  8
SLIM
 10
8052.3681958742136
 20
-1134.999999999998
 30
0.0
 11
8057.0
 21
-1130.368195874212
 31
0.0
1001
GRADIENTCOLOR1ACI
1070
     5
1001
GRADIENTCOLOR2ACI
1070
     2
1001
ACAD
1010
0.0
1020
0.0
1030
0.0
  0
LINE
  5
13A265
  8
OBJECT
 10
7943.0
 20
-1134.999999999998
 30
0.0
 11
8057.0
 21
-1134.999999999998
 31
0.0
1001
ACDBBLOCKREPETAG
1070
     1
1071
        1
1005
13A265
  0
LINE
  5
13A266
  8
OBJECT
 10
7932.1984821049646
 20
-1104.999999999997
 30
0.0
 11
8067.8015178950409
 21
-1104.999999999997
 31
0.0
1001
ACDBBLOCKREPETAG
1070
     1
1071
        2
1005
13A266
  0
LINE
  5
13A267
  8
OBJECT
 10
7943.0
 20
-1134.999999999998
 30
0.0
 11
7943.0
 21
-1109.999999999998
 31
0.0
1001
ACDBBLOCKREPETAG
1070
     1
1071
        3
1005
13A267
  0
LINE
  5
13A268
  8
OBJECT
 10
7914.9999999999918
 20
-754.99999999999955
 30
0.0
 11
7915.0
 21
-982.69968280914077
 31
0.0
1001
ACDBBLOCKREPETAG
1070
     1
1071
        4
1005
13A268
  0
LINE
  5
13A269
  8
OBJECT
 10
8085.0000000000064
 20
-754.99999999999955
 30
0.0
 11
8085.0
 21
-982.69968280917203
 31
0.0
1001
ACDBBLOCKREPETAG
1070
     1
1071
        5
1005
13A269
  0
LINE
  5
13A26A
  8
OBJECT
 10
7915.0
 20
-982.69968280914077
 30
0.0
 11
7932.1984821049646
 21
-1104.999999999997
 31
0.0
1001
ACDBBLOCKREPETAG
1070
     1
1071
        6
1005
13A26A
  0
LINE
  5
13A26B
  8
OBJECT
 10
8067.8015178950409
 20
-1104.999999999997
 30
0.0
 11
8085.0
 21
-982.69968280917203
 31
0.0
1001
ACDBBLOCKREPETAG
1070
     1
1071
        7
1005
13A26B
  0
LINE
  5
13A26C
  8
OBJECT
 10
8085.0000000000064
 20
-754.99999999999955
 30
0.0
 11
7914.9999999999918
 21
-754.99999999999955
 31
0.0
1001
ACDBBLOCKREPETAG
1070
     1
1071
        8
1005
13A26C
  0
LINE
  5
13A26D
  8
OBJECT
 10
7943.0
 20
-1109.999999999998
 30
0.0
 11
7942.296875
 21
-1104.999999999997
 31
0.0
1001
ACDBBLOCKREPETAG
1070
     1
1071
       10
1005
13A26D
  0
LINE
  5
13A26E
  8
OBJECT
 10
8057.0
 20
-1134.999999999998
 30
0.0
 11
8057.0
 21
-1109.999999999998
 31
0.0
1001
ACDBBLOCKREPETAG
1070
     1
1071
       11
1005
13A26E
  0
LINE
  5
13A26F
  8
OBJECT
 10
8057.0
 20
-1109.999999999998
 30
0.0
 11
8057.7031250000027
 21
-1104.999999999997
 31
0.0
1001
ACDBBLOCKREPETAG
1070
     1
1071
       12
1005
13A26F
  0
LINE
  5
13A270
  8
HIDDEN
 10
1943.0
 20
-619.99999999999955
 30
0.0
 11
2057.0
 21
-619.99999999999955
 31
0.0
1001
ACDBBLOCKREPETAG
1070
     1
1071
       57
1005
13A270
  0
LINE
  5
13A271
  8
CENTER
 10
2000.0
 20
-534.99999999999955
 30
0.0
 11
2000.0
 21
-899.99999999999955
 31
0.0
1001
ACDBBLOCKREPETAG
1070
     1
1071
       58
1005
13A271
  0
LINE
  5
13A272
  8
OBJECT
 10
1928.0
 20
-570.99999999999955
 30
0.0
 11
1928.0
 21
-633.99999999999955
 31
0.0
1001
ACDBBLOCKREPETAG
1070
     1
1071
       59
1005
13A272
  0
LINE
  5
13A273
  8
OBJECT
 10
2072.0
 20
-633.99999999999955
 30
0.0
 11
2072.0
 21
-570.99999999999955
 31
0.0
1001
ACDBBLOCKREPETAG
1070
     1
1071
       60
1005
13A273
  0
LINE
  5
13A274
  8
OBJECT
 10
1920.0
 20
-887.99999999999955
 30
0.0
 11
2080.0
 21
-887.99999999999955
 31
0.0
1001
ACDBBLOCKREPETAG
1070
     1
1071
       61
1005
13A274
  0
LINE
  5
13A275
  8
OBJECT
 10
2080.0
 20
-633.99999999999955
 30
0.0
 11
1920.0
 21
-633.99999999999955
 31
0.0
1001
ACDBBLOCKREPETAG
1070
     1
1071
       62
1005
13A275
  0
LINE
  5
13A276
  8
OBJECT
 10
1920.0
 20
-887.99999999999955
 30
0.0
 11
1920.0
 21
-899.99999999999955
 31
0.0
1001
ACDBBLOCKREPETAG
1070
     1
1071
       63
1005
13A276
  0
LINE
  5
13A277
  8
OBJECT
 10
1920.0
 20
-899.99999999999955
 30
0.0
 11
2080.0
 21
-899.99999999999955
 31
0.0
1001
ACDBBLOCKREPETAG
1070
     1
1071
       64
1005
13A277
  0
LINE
  5
13A278
  8
OBJECT
 10
2080.0
 20
-899.99999999999955
 30
0.0
 11
2080.0
 21
-887.99999999999955
 31
0.0
1001
ACDBBLOCKREPETAG
1070
     1
1071
       65
1005
13A278
  0
LINE
  5
13A279
  8
OBJECT
 10
2074.9999999998622
 20
-757.99999999985016
 30
0.0
 11
2075.0
 21
-887.99999999999955
 31
0.0
1001
ACDBBLOCKREPETAG
1070
     1
1071
       69
1005
13A279
  0
LINE
  5
13A27A
  8
OBJECT
 10
2074.9999908029849
 20
-757.99998602702112
 30
0.0
 11
2080.0
 21
-757.99998602702112
 31
0.0
1001
ACDBBLOCKREPETAG
1070
     1
1071
       70
1005
13A27A
  0
LINE
  5
13A27B
  8
OBJECT
 10
1925.000000000138
 20
-757.99999999985016
 30
0.0
 11
1925.0
 21
-887.99999999999955
 31
0.0
1001
ACDBBLOCKREPETAG
1070
     1
1071
       71
1005
13A27B
  0
LINE
  5
13A27C
  8
OBJECT
 10
1925.000009197013
 20
-757.99998602702112
 30
0.0
 11
1920.0
 21
-757.99998602702112
 31
0.0
1001
ACDBBLOCKREPETAG
1070
     1
1071
       72
1005
13A27C
  0
LINE
  5
13A27D
  8
OBJECT
 10
1918.0
 20
-570.99999999999955
 30
0.0
 11
1918.0
 21
-549.99999999999955
 31
0.0
1001
ACDBBLOCKREPETAG
1070
     1
1071
       73
1005
13A27D
  0
LINE
  5
13A27E
  8
OBJECT
 10
1918.0
 20
-549.99999999999955
 30
0.0
 11
2082.0000000000041
 21
-549.99999999999955
 31
0.0
1001
ACDBBLOCKREPETAG
1070
     1
1071
       74
1005
13A27E
  0
LINE
  5
13A27F
  8
OBJECT
 10
2082.0000000000041
 20
-570.99999999999955
 30
0.0
 11
1918.0
 21
-570.99999999999955
 31
0.0
1001
ACDBBLOCKREPETAG
1070
     1
1071
       75
1005
13A27F
  0
LINE
  5
13A280
  8
OBJECT
 10
1920.794081712025
 20
-549.99999999999955
 30
0.0
 11
1920.794081712025
 21
-570.99999999999955
 31
0.0
1001
ACDBBLOCKREPETAG
1070
     1
1071
       76
1005
13A280
  0
LINE
  5
13A281
  8
OBJECT
 10
1928.737895999999
 20
-549.99999999999955
 30
0.0
 11
1928.737895999999
 21
-570.99999999999955
 31
0.0
1001
ACDBBLOCKREPETAG
1070
     1
1071
       77
1005
13A281
  0
LINE
  5
13A282
  8
OBJECT
 10
1970.833026
 20
-549.99999999999955
 30
0.0
 11
1970.833026
 21
-570.99999999999955
 31
0.0
1001
ACDBBLOCKREPETAG
1070
     1
1071
       78
1005
13A282
  0
LINE
  5
13A283
  8
OBJECT
 10
1978.7768389217999
 20
-549.99999999999955
 30
0.0
 11
1978.7768389217999
 21
-570.99999999999955
 31
0.0
1001
ACDBBLOCKREPETAG
1070
     1
1071
       79
1005
13A283
  0
LINE
  5
13A284
  8
OBJECT
 10
2082.0
 20
-570.99999999999955
 30
0.0
 11
2082.0
 21
-549.99999999999955
 31
0.0
1001
ACDBBLOCKREPETAG
1070
     1
1071
       80
1005
13A284
  0
LINE
  5
13A285
  8
OBJECT
 10
2079.2059182879748
 20
-549.99999999999955
 30
0.0
 11
2079.2059182879748
 21
-570.99999999999955
 31
0.0
1001
ACDBBLOCKREPETAG
1070
     1
1071
       81
1005
13A285
  0
LINE
  5
13A286
  8
OBJECT
 10
2071.2621040000008
 20
-549.99999999999955
 30
0.0
 11
2071.2621040000008
 21
-570.99999999999955
 31
0.0
1001
ACDBBLOCKREPETAG
1070
     1
1071
       82
1005
13A286
  0
LINE
  5
13A287
  8
OBJECT
 10
2029.166974
 20
-549.99999999999955
 30
0.0
 11
2029.166974
 21
-570.99999999999955
 31
0.0
1001
ACDBBLOCKREPETAG
1070
     1
1071
       83
1005
13A287
  0
LINE
  5
13A288
  8
OBJECT
 10
2021.2231610782001
 20
-549.99999999999955
 30
0.0
 11
2021.2231610782001
 21
-570.99999999999955
 31
0.0
1001
ACDBBLOCKREPETAG
1070
     1
1071
       84
1005
13A288
  0
ARC
  5
13A289
  8
OBJECT
 10
2200.6872746716731
 20
-749.40809941010718
 30
0.0
 40
170.6350503965856
 50
137.44134459184301
 51
149.91949581336559
1001
ACDBBLOCKREPETAG
1070
     1
1071
       85
1005
13A289
  0
ARC
  5
13A28A
  8
OBJECT
 10
2200.6872746716731
 20
-642.59190058989179
 30
0.0
 40
170.6350503965856
 50
210.0805041866343
 51
222.55865540815699
1001
ACDBBLOCKREPETAG
1070
     1
1071
       86
1005
13A28A
  0
ARC
  5
13A28B
  8
OBJECT
 10
1799.312725328326
 20
-749.40809941010718
 30
0.0
 40
170.6350503965856
 50
30.080504186710289
 51
42.558655408373838
1001
ACDBBLOCKREPETAG
1070
     1
1071
       87
1005
13A28B
  0
ARC
  5
13A28C
  8
OBJECT
 10
1799.312725328326
 20
-642.59190058989179
 30
0.0
 40
170.6350503965856
 50
317.4413445916262
 51
329.9194958132897
1001
ACDBBLOCKREPETAG
1070
     1
1071
       88
1005
13A28C
  0
POINT
  5
13A28D
  8
DOTS
 10
2000.0
 20
-754.99999999999955
 30
0.0
1001
ACDBBLOCKREPETAG
1070
     1
1071
      202
1005
13A28D
  0
LINE
  5
13A28E
  8
OBJECT
 10
1946.692194143754
 20
-195.46638161316051
 30
0.0
 11
1970.4540343856349
 21
-193.79865146436981
 31
0.0
1001
ACDBBLOCKREPETAG
1070
     1
1071
      319
1005
13A28E
  0
LINE
  5
13A28F
  8
OBJECT
 10
1947.385434727061
 20
-190.305593971766
 30
0.0
 11
1966.988435262901
 21
-188.92975272660161
 31
0.0
1001
ACDBBLOCKREPETAG
1070
     1
1071
      320
1005
13A28F
  0
LINE
  5
13A290
  8
OBJECT
 10
1974.1135374752771
 20
-242.77722592637201
 30
0.0
 11
1982.136698837405
 21
-234.1690987954708
 31
0.0
1001
ACDBBLOCKREPETAG
1070
     1
1071
      321
1005
13A290
  0
ARC
  5
13A291
  8
OBJECT
 10
1982.1160071245381
 20
-183.28188966318251
 30
0.0
 40
60.031113246032611
 50
254.07020130412749
 51
262.33936106086588
1001
ACDBBLOCKREPETAG
1070
     1
1071
      322
1005
13A291
  0
LINE
  5
13A292
  8
OBJECT
 10
1977.612599732513
 20
-197.67495277149911
 30
0.0
 11
1982.136698837405
 21
-234.1690987954708
 31
0.0
1001
ACDBBLOCKREPETAG
1070
     1
1071
      323
1005
13A292
  0
ARC
  5
13A293
  8
OBJECT
 10
1967.6885653456411
 20
-198.90521351131881
 30
0.0
 40
10.0
 50
7.0667782929957941
 51
94.014734370532395
1001
ACDBBLOCKREPETAG
1070
     1
1071
      324
1005
13A293
  0
ARC
  5
13A294
  8
OBJECT
 10
1970.944125370974
 20
-200.78147401875589
 30
0.0
 40
7.0
 50
7.0667782929957941
 51
94.014733775014648
1001
ACDBBLOCKREPETAG
1070
     1
1071
      325
1005
13A294
  0
POINT
  5
13A295
  8
DOTS
 10
2000.0
 20
-199.99999999999909
 30
0.0
 50
270.0
1001
ACDBBLOCKREPETAG
1070
     1
1071
      153
1005
13A295
  0
ARC
  5
13A296
  8
OBJECT
 10
2000.0
 20
-199.99999999999909
 30
0.0
 40
77.0
 50
202.25886899987509
 51
247.7411309999176
1001
ACDBBLOCKREPETAG
1070
     1
1071
       57
1005
13A296
  0
ARC
  5
13A297
  8
OBJECT
 10
2000.0
 20
-199.99999999999909
 30
0.0
 40
80.0
 50
50.804965661401717
 51
72.417343999921059
1001
ACDBBLOCKREPETAG
1070
     1
1071
       58
1005
13A297
  0
ARC
  5
13A298
  8
OBJECT
 10
2000.0
 20
-199.99999999999909
 30
0.0
 40
77.0
 50
292.25886900008243
 51
337.74113100012482
1001
ACDBBLOCKREPETAG
1070
     1
1071
       59
1005
13A298
  0
ARC
  5
13A299
  8
OBJECT
 10
2000.0
 20
-199.99999999999909
 30
0.0
 40
77.0
 50
112.2588690000823
 51
157.7411310001248
1001
ACDBBLOCKREPETAG
1070
     1
1071
       60
1005
13A299
  0
ARC
  5
13A29A
  8
OBJECT
 10
2000.0
 20
-199.99999999999909
 30
0.0
 40
80.0
 50
107.5826560000789
 51
129.1949773075637
1001
ACDBBLOCKREPETAG
1070
     1
1071
       61
1005
13A29A
  0
ARC
  5
13A29B
  8
OBJECT
 10
2000.0
 20
-199.99999999999909
 30
0.0
 40
77.0
 50
22.258868999875201
 51
67.74113099991763
1001
ACDBBLOCKREPETAG
1070
     1
1071
       62
1005
13A29B
  0
CIRCLE
  5
13A29C
  8
OBJECT
 10
2000.0
 20
-199.99999999999909
 30
0.0
 40
70.0
1001
ACDBBLOCKREPETAG
1070
     1
1071
       63
1005
13A29C
  0
LINE
  5
13A29D
  8
OBJECT
 10
2029.1669749999969
 20
-271.26210499999888
 30
0.0
 11
2021.2231624441049
 21
-279.20591755589248
 31
0.0
1001
ACDBBLOCKREPETAG
1070
     1
1071
       64
1005
13A29D
  0
LINE
  5
13A29E
  8
OBJECT
 10
1970.833026
 20
-271.26210499999888
 30
0.0
 11
1978.7768389219159
 21
-279.20591792191681
 31
0.0
1001
ACDBBLOCKREPETAG
1070
     1
1071
       65
1005
13A29E
  0
ARC
  5
13A29F
  8
OBJECT
 10
2000.0
 20
-199.99999999999909
 30
0.0
 40
82.000000000000014
 50
255.00000044864069
 51
285.00000053949208
1001
ACDBBLOCKREPETAG
1070
     1
1071
       66
1005
13A29F
  0
LINE
  5
13A2A0
  8
OBJECT
 10
1928.737895999999
 20
-229.1669739999989
 30
0.0
 11
1920.7940817120541
 21
-221.2231597120545
 31
0.0
1001
ACDBBLOCKREPETAG
1070
     1
1071
       67
1005
13A2A0
  0
ARC
  5
13A2A1
  8
OBJECT
 10
2000.0
 20
-199.99999999999909
 30
0.0
 40
82.000000000000014
 50
165.00000044885081
 51
194.9999985630262
1001
ACDBBLOCKREPETAG
1070
     1
1071
       68
1005
13A2A1
  0
LINE
  5
13A2A2
  8
OBJECT
 10
1970.833026
 20
-128.7378949999993
 30
0.0
 11
1978.7768389219159
 21
-120.7940820780795
 31
0.0
1001
ACDBBLOCKREPETAG
1070
     1
1071
       69
1005
13A2A2
  0
ARC
  5
13A2A3
  8
OBJECT
 10
2000.0
 20
-199.99999999999909
 30
0.0
 40
82.000000000000014
 50
74.999999460507865
 51
104.99999955135929
1001
ACDBBLOCKREPETAG
1070
     1
1071
       70
1005
13A2A3
  0
LINE
  5
13A2A4
  8
OBJECT
 10
2029.1669749999969
 20
-128.7378949999993
 30
0.0
 11
2021.2231624441049
 21
-120.79408244410391
 31
0.0
1001
ACDBBLOCKREPETAG
1070
     1
1071
       71
1005
13A2A4
  0
LINE
  5
13A2A5
  8
OBJECT
 10
1962.402059
 20
-161.93893300000039
 30
0.0
 11
2037.0841102714221
 21
-174.5180316957439
 31
0.0
1001
ACDBBLOCKREPETAG
1070
     1
1071
       72
1005
13A2A5
  0
LINE
  5
13A2A6
  8
OBJECT
 10
2044.0936569999981
 20
-169.70149399999991
 30
0.0
 11
2037.0841102714221
 21
-174.5180316957439
 31
0.0
1001
ACDBBLOCKREPETAG
1070
     1
1071
       73
1005
13A2A6
  0
LINE
  5
13A2A7
  8
OBJECT
 10
1928.737895999999
 20
-170.833024999999
 30
0.0
 11
1920.7940820780791
 21
-178.77683892191911
 31
0.0
1001
ACDBBLOCKREPETAG
1070
     1
1071
       74
1005
13A2A7
  0
CIRCLE
  5
13A2A8
  8
OBJECT
 10
2000.0
 20
-199.99999999999909
 30
0.0
 40
53.500000000000007
1001
ACDBBLOCKREPETAG
1070
     1
1071
       75
1005
13A2A8
  0
ARC
  5
13A2A9
  8
OBJECT
 10
2000.0
 20
-199.99999999999909
 30
0.0
 40
50.0
 50
131.70180964355251
 51
168.52376955958479
1001
ACDBBLOCKREPETAG
1070
     1
1071
       76
1005
13A2A9
  0
ARC
  5
13A2AA
  8
OBJECT
 10
2000.0
 20
-199.99999999999909
 30
0.0
 40
50.0
 50
238.8199429999047
 51
34.49450625011707
1001
ACDBBLOCKREPETAG
1070
     1
1071
       77
1005
13A2AA
  0
LINE
  5
13A2AB
  8
OBJECT
 10
2071.262104999998
 20
-170.833024999999
 30
0.0
 11
2079.2059175558929
 21
-178.77683755589439
 31
0.0
1001
ACDBBLOCKREPETAG
1070
     1
1071
       78
1005
13A2AB
  0
ARC
  5
13A2AC
  8
OBJECT
 10
2000.0
 20
-199.99999999999909
 30
0.0
 40
82.000000000000014
 50
345.00000044885081
 51
15.00000053937171
1001
ACDBBLOCKREPETAG
1070
     1
1071
       79
1005
13A2AC
  0
LINE
  5
13A2AD
  8
OBJECT
 10
2071.262104999998
 20
-229.1669739999989
 30
0.0
 11
2079.2059179219209
 21
-221.2231610780791
 31
0.0
1001
ACDBBLOCKREPETAG
1070
     1
1071
       80
1005
13A2AD
  0
LINE
  5
13A2AE
  8
OBJECT
 10
2045.6618002273251
 20
-137.99999999999909
 30
0.0
 11
2080.0
 21
-137.99999999999909
 31
0.0
1001
ACDBBLOCKREPETAG
1070
     1
1071
       81
1005
13A2AE
  0
LINE
  5
13A2AF
  8
OBJECT
 10
2062.0
 20
-261.99999999999909
 30
0.0
 11
2080.0
 21
-261.99999999999909
 31
0.0
1001
ACDBBLOCKREPETAG
1070
     1
1071
       82
1005
13A2AF
  0
LINE
  5
13A2B0
  8
OBJECT
 10
2062.0
 20
-261.99999999999909
 30
0.0
 11
2062.0
 21
-279.99999999999909
 31
0.0
1001
ACDBBLOCKREPETAG
1070
     1
1071
       84
1005
13A2B0
  0
LINE
  5
13A2B1
  8
OBJECT
 10
1938.0
 20
-261.99999999999909
 30
0.0
 11
1938.0
 21
-279.99999999999909
 31
0.0
1001
ACDBBLOCKREPETAG
1070
     1
1071
       85
1005
13A2B1
  0
LINE
  5
13A2B2
  8
OBJECT
 10
1938.0
 20
-261.99999999999909
 30
0.0
 11
1920.0
 21
-261.99999999999909
 31
0.0
1001
ACDBBLOCKREPETAG
1070
     1
1071
       87
1005
13A2B2
  0
LINE
  5
13A2B3
  8
OBJECT
 10
1954.3381997726749
 20
-137.99999999999909
 30
0.0
 11
1920.0
 21
-137.99999999999909
 31
0.0
1001
ACDBBLOCKREPETAG
1070
     1
1071
       88
1005
13A2B3
  0
LINE
  5
13A2B4
  8
CENTER
 10
2080.0
 20
-199.99999999999909
 30
0.0
 11
1920.0
 21
-199.99999999999909
 31
0.0
1001
ACDBBLOCKREPETAG
1070
     1
1071
       97
1005
13A2B4
  0
LINE
  5
13A2B5
  8
CENTER
 10
2000.0
 20
-279.99999999999909
 30
0.0
 11
2000.0
 21
-104.9999999999991
 31
0.0
1001
ACDBBLOCKREPETAG
1070
     1
1071
       98
1005
13A2B5
  0
LINE
  5
13A2B6
  8
OBJECT
 10
1945.5527778486351
 20
-254.44722215136329
 30
0.0
 11
1938.0
 21
-261.99999999999909
 31
0.0
1001
ACDBBLOCKREPETAG
1070
     1
1071
       99
1005
13A2B6
  0
LINE
  5
13A2B7
  8
OBJECT
 10
2054.4472221513638
 20
-254.44722215136329
 30
0.0
 11
2062.0
 21
-261.99999999999909
 31
0.0
1001
ACDBBLOCKREPETAG
1070
     1
1071
      100
1005
13A2B7
  0
LINE
  5
13A2B8
  8
OBJECT
 10
12085.999999999991
 20
-1233.9999999999991
 30
0.0
 11
12085.999999999991
 21
-1243.9999999999991
 31
0.0
1001
ACDBBLOCKREPETAG
1070
     1
1071
      121
1005
13A2B8
  0
LINE
  5
13A2B9
  8
OBJECT
 10
12069.999999999991
 20
-1233.9999999999991
 30
0.0
 11
12069.999999999991
 21
-1243.9999999999991
 31
0.0
1001
ACDBBLOCKREPETAG
1070
     1
1071
      122
1005
13A2B9
  0
LINE
  5
13A2BA
  8
OBJECT
 10
12085.999999999991
 20
-1243.9999999999991
 30
0.0
 11
12069.999999999991
 21
-1243.9999999999991
 31
0.0
1001
ACDBBLOCKREPETAG
1070
     1
1071
      123
1005
13A2BA
  0
LINE
  5
13A2BB
  8
OBJECT
 10
12090.0
 20
-1194.9999999999959
 30
0.0
 11
11924.0
 21
-1194.9999999999959
 31
0.0
1001
ACDBBLOCKREPETAG
1070
     1
1071
      124
1005
13A2BB
  0
LINE
  5
13A2BC
  8
OBJECT
 10
12090.0
 20
-1209.9999999999991
 30
0.0
 11
12090.0
 21
-1194.9999999999959
 31
0.0
1001
ACDBBLOCKREPETAG
1070
     1
1071
      125
1005
13A2BC
  0
LINE
  5
13A2BD
  8
OBJECT
 10
11924.0
 20
-1209.9999999999991
 30
0.0
 11
12090.0
 21
-1209.9999999999991
 31
0.0
1001
ACDBBLOCKREPETAG
1070
     1
1071
      126
1005
13A2BD
  0
LINE
  5
13A2BE
  8
OBJECT
 10
12067.49999999998
 20
-1209.9999999999991
 30
0.0
 11
12067.49999999998
 21
-1219.9999999999991
 31
0.0
1001
ACDBBLOCKREPETAG
1070
     1
1071
      127
1005
13A2BE
  0
LINE
  5
13A2BF
  8
OBJECT
 10
12072.999999999991
 20
-1219.9999999999991
 30
0.0
 11
12072.999999999991
 21
-1209.9999999999991
 31
0.0
1001
ACDBBLOCKREPETAG
1070
     1
1071
      128
1005
13A2BF
  0
LINE
  5
13A2C0
  8
OBJECT
 10
12082.999999999991
 20
-1219.9999999999991
 30
0.0
 11
12082.999999999991
 21
-1209.9999999999991
 31
0.0
1001
ACDBBLOCKREPETAG
1070
     1
1071
      129
1005
13A2C0
  0
LINE
  5
13A2C1
  8
OBJECT
 10
11924.0
 20
-1219.9999999999991
 30
0.0
 11
11924.0
 21
-1233.9999999999959
 31
0.0
1001
ACDBBLOCKREPETAG
1070
     1
1071
      130
1005
13A2C1
  0
LINE
  5
13A2C2
  8
OBJECT
 10
12090.0
 20
-1219.9999999999991
 30
0.0
 11
12090.0
 21
-1233.9999999999959
 31
0.0
1001
ACDBBLOCKREPETAG
1070
     1
1071
      131
1005
13A2C2
  0
LINE
  5
13A2C3
  8
OBJECT
 10
11924.0
 20
-1233.9999999999959
 30
0.0
 11
12090.0
 21
-1233.9999999999959
 31
0.0
1001
ACDBBLOCKREPETAG
1070
     1
1071
      132
1005
13A2C3
  0
LINE
  5
13A2C4
  8
OBJECT
 10
11924.0
 20
-1219.9999999999991
 30
0.0
 11
12090.0
 21
-1219.9999999999991
 31
0.0
1001
ACDBBLOCKREPETAG
1070
     1
1071
      133
1005
13A2C4
  0
LINE
  5
13A2C5
  8
OBJECT
 10
11932.49999999998
 20
-1209.9999999999991
 30
0.0
 11
11932.49999999998
 21
-1219.9999999999991
 31
0.0
1001
ACDBBLOCKREPETAG
1070
     1
1071
      134
1005
13A2C5
  0
LINE
  5
13A2C6
  8
OBJECT
 10
11934.0
 20
-1158.9999999999959
 30
0.0
 11
12065.999999999991
 21
-1158.9999999999959
 31
0.0
1001
ACDBBLOCKREPETAG
1070
     1
1071
      135
1005
13A2C6
  0
LINE
  5
13A2C7
  8
OBJECT
 10
11924.0
 20
-1209.9999999999991
 30
0.0
 11
11924.0
 21
-1194.9999999999959
 31
0.0
1001
ACDBBLOCKREPETAG
1070
     1
1071
      136
1005
13A2C7
  0
LINE
  5
13A2C8
  8
HIDDEN
 10
11943.0
 20
-1169.9999999999991
 30
0.0
 11
12057.0
 21
-1169.9999999999991
 31
0.0
1001
ACDBBLOCKREPETAG
1070
     1
1071
      137
1005
13A2C8
  0
LINE
  5
13A2C9
  8
OBJECT
 10
12086.999999999991
 20
-1193.2
 30
0.0
 11
12086.999999999991
 21
-1194.9999999999991
 31
0.0
1001
ACDBBLOCKREPETAG
1070
     1
1071
      138
1005
13A2C9
  0
LINE
  5
13A2CA
  8
OBJECT
 10
12068.999999999991
 20
-1193.2
 30
0.0
 11
12068.999999999991
 21
-1194.9999999999991
 31
0.0
1001
ACDBBLOCKREPETAG
1070
     1
1071
      139
1005
13A2CA
  0
LINE
  5
13A2CB
  8
OBJECT
 10
12072.249999999991
 20
-1183.4999999999991
 30
0.0
 11
12083.749999999991
 21
-1183.4999999999991
 31
0.0
1001
ACDBBLOCKREPETAG
1070
     1
1071
      140
1005
13A2CB
  0
LINE
  5
13A2CC
  8
OBJECT
 10
12072.249999999991
 20
-1183.4999999999991
 30
0.0
 11
12072.249999999991
 21
-1193.2
 31
0.0
1001
ACDBBLOCKREPETAG
1070
     1
1071
      141
1005
13A2CC
  0
LINE
  5
13A2CD
  8
OBJECT
 10
12083.749999999991
 20
-1183.4999999999991
 30
0.0
 11
12083.749999999991
 21
-1193.2
 31
0.0
1001
ACDBBLOCKREPETAG
1070
     1
1071
      142
1005
13A2CD
  0
LINE
  5
13A2CE
  8
OBJECT
 10
11931.99999999998
 20
-1274.9999999999991
 30
0.0
 11
12067.99999999998
 21
-1274.9999999999991
 31
0.0
1001
ACDBBLOCKREPETAG
1070
     1
1071
      143
1005
13A2CE
  0
LINE
  5
13A2CF
  8
OBJECT
 10
11931.99999999998
 20
-1274.9999999999991
 30
0.0
 11
11931.99999999998
 21
-1233.9999999999991
 31
0.0
1001
ACDBBLOCKREPETAG
1070
     1
1071
      144
1005
13A2CF
  0
LINE
  5
13A2D0
  8
OBJECT
 10
12067.99999999998
 20
-1274.9999999999991
 30
0.0
 11
12067.99999999998
 21
-1233.9999999999991
 31
0.0
1001
ACDBBLOCKREPETAG
1070
     1
1071
      145
1005
13A2D0
  0
LINE
  5
13A2D1
  8
OBJECT
 10
12086.999999999991
 20
-1193.2
 30
0.0
 11
12068.999999999991
 21
-1193.2
 31
0.0
1001
ACDBBLOCKREPETAG
1070
     1
1071
      146
1005
13A2D1
  0
LINE
  5
13A2D2
  8
CENTER
 10
12000.0
 20
-899.99999999999955
 30
0.0
 11
12000.0
 21
-1289.9999999999991
 31
0.0
1001
ACDBBLOCKREPETAG
1070
     1
1071
      147
1005
13A2D2
  0
LINE
  5
13A2D3
  8
OBJECT
 10
11925.0
 20
-899.99999999999955
 30
0.0
 11
11925.0
 21
-981.99999999999613
 31
0.0
1001
ACDBBLOCKREPETAG
1070
     1
1071
      148
1005
13A2D3
  0
LINE
  5
13A2D4
  8
OBJECT
 10
12075.0
 20
-899.99999999999955
 30
0.0
 11
12075.0
 21
-981.99999999999204
 31
0.0
1001
ACDBBLOCKREPETAG
1070
     1
1071
      149
1005
13A2D4
  0
LINE
  5
13A2D5
  8
OBJECT
 10
11925.0
 20
-981.99999999999613
 30
0.0
 11
12075.0
 21
-981.99999999999204
 31
0.0
1001
ACDBBLOCKREPETAG
1070
     1
1071
      150
1005
13A2D5
  0
LINE
  5
13A2D6
  8
OBJECT
 10
11943.0
 20
-1158.9999999999959
 30
0.0
 11
11943.0
 21
-1109.999999999992
 31
0.0
1001
ACDBBLOCKREPETAG
1070
     1
1071
      151
1005
13A2D6
  0
LINE
  5
13A2D7
  8
OBJECT
 10
12057.0
 20
-1109.999999999992
 30
0.0
 11
11943.0
 21
-1109.999999999992
 31
0.0
1001
ACDBBLOCKREPETAG
1070
     1
1071
      152
1005
13A2D7
  0
LINE
  5
13A2D8
  8
OBJECT
 10
12057.0
 20
-1109.999999999992
 30
0.0
 11
12057.0
 21
-1158.9999999999959
 31
0.0
1001
ACDBBLOCKREPETAG
1070
     1
1071
      153
1005
13A2D8
  0
LINE
  5
13A2D9
  8
OBJECT
 10
11925.0
 20
-981.99999999999613
 30
0.0
 11
11943.0
 21
-1109.999999999992
 31
0.0
1001
ACDBBLOCKREPETAG
1070
     1
1071
      154
1005
13A2D9
  0
LINE
  5
13A2DA
  8
OBJECT
 10
12057.0
 20
-1109.999999999992
 30
0.0
 11
12075.0
 21
-981.99999999999204
 31
0.0
1001
ACDBBLOCKREPETAG
1070
     1
1071
      155
1005
13A2DA
  0
LINE
  5
13A2DB
  8
OBJECT
 10
11934.0
 20
-1194.9999999999959
 30
0.0
 11
11934.0
 21
-1158.9999999999959
 31
0.0
1001
ACDBBLOCKREPETAG
1070
     1
1071
      156
1005
13A2DB
  0
LINE
  5
13A2DC
  8
OBJECT
 10
12066.0
 20
-1194.9999999999959
 30
0.0
 11
12065.999999999991
 21
-1158.9999999999959
 31
0.0
1001
ACDBBLOCKREPETAG
1070
     1
1071
      157
1005
13A2DC
  0
LINE
  5
13A2DD
  8
OBJECT
 10
11954.75
 20
-1184.699999999993
 30
0.0
 11
11967.25
 21
-1184.699999999993
 31
0.0
1001
ACDBBLOCKREPETAG
1070
     1
1071
      158
1005
13A2DD
  0
LINE
  5
13A2DE
  8
OBJECT
 10
11946.0
 20
-1194.9999999999959
 30
0.0
 11
11946.0
 21
-1192.699999999996
 31
0.0
1001
ACDBBLOCKREPETAG
1070
     1
1071
      159
1005
13A2DE
  0
LINE
  5
13A2DF
  8
OBJECT
 10
11976.0
 20
-1194.9999999999959
 30
0.0
 11
11976.0
 21
-1192.699999999996
 31
0.0
1001
ACDBBLOCKREPETAG
1070
     1
1071
      160
1005
13A2DF
  0
LINE
  5
13A2E0
  8
OBJECT
 10
11954.75
 20
-1184.699999999993
 30
0.0
 11
11954.75
 21
-1192.699999999996
 31
0.0
1001
ACDBBLOCKREPETAG
1070
     1
1071
      161
1005
13A2E0
  0
LINE
  5
13A2E1
  8
OBJECT
 10
11967.25
 20
-1184.699999999993
 30
0.0
 11
11967.25
 21
-1192.699999999996
 31
0.0
1001
ACDBBLOCKREPETAG
1070
     1
1071
      162
1005
13A2E1
  0
LINE
  5
13A2E2
  8
OBJECT
 10
11946.0
 20
-1192.699999999996
 30
0.0
 11
11976.0
 21
-1192.699999999996
 31
0.0
1001
ACDBBLOCKREPETAG
1070
     1
1071
      163
1005
13A2E2
  0
LINE
  5
13A2E3
  8
OBJECT
 10
11953.0
 20
-1233.9999999999959
 30
0.0
 11
11953.0
 21
-1243.9999999999959
 31
0.0
1001
ACDBBLOCKREPETAG
1070
     1
1071
      164
1005
13A2E3
  0
LINE
  5
13A2E4
  8
OBJECT
 10
11969.0
 20
-1233.9999999999959
 30
0.0
 11
11969.0
 21
-1243.9999999999959
 31
0.0
1001
ACDBBLOCKREPETAG
1070
     1
1071
      165
1005
13A2E4
  0
LINE
  5
13A2E5
  8
OBJECT
 10
11953.0
 20
-1243.9999999999959
 30
0.0
 11
11969.0
 21
-1243.9999999999959
 31
0.0
1001
ACDBBLOCKREPETAG
1070
     1
1071
      166
1005
13A2E5
  0
LINE
  5
13A2E6
  8
OBJECT
 10
11966.0
 20
-1219.9999999999959
 30
0.0
 11
11966.0
 21
-1209.9999999999959
 31
0.0
1001
ACDBBLOCKREPETAG
1070
     1
1071
      167
1005
13A2E6
  0
LINE
  5
13A2E7
  8
OBJECT
 10
11956.0
 20
-1219.9999999999959
 30
0.0
 11
11956.0
 21
-1209.9999999999959
 31
0.0
1001
ACDBBLOCKREPETAG
1070
     1
1071
      168
1005
13A2E7
  0
LINE
  5
13A2E8
  8
OBJECT
 10
10090.0
 20
-1194.9999999999959
 30
0.0
 11
9924.0
 21
-1194.9999999999959
 31
0.0
1001
ACDBBLOCKREPETAG
1070
     1
1071
       12
1005
13A2E8
  0
LINE
  5
13A2E9
  8
OBJECT
 10
10066.0
 20
-1158.9999999999959
 30
0.0
 11
9934.0
 21
-1158.9999999999959
 31
0.0
1001
ACDBBLOCKREPETAG
1070
     1
1071
       13
1005
13A2E9
  0
LINE
  5
13A2EA
  8
OBJECT
 10
10090.0
 20
-1209.9999999999991
 30
0.0
 11
10090.0
 21
-1194.9999999999959
 31
0.0
1001
ACDBBLOCKREPETAG
1070
     1
1071
       14
1005
13A2EA
  0
LINE
  5
13A2EB
  8
OBJECT
 10
9924.0
 20
-1209.9999999999991
 30
0.0
 11
10090.0
 21
-1209.9999999999991
 31
0.0
1001
ACDBBLOCKREPETAG
1070
     1
1071
       15
1005
13A2EB
  0
LINE
  5
13A2EC
  8
OBJECT
 10
10067.49999999998
 20
-1209.9999999999991
 30
0.0
 11
10067.49999999998
 21
-1219.9999999999991
 31
0.0
1001
ACDBBLOCKREPETAG
1070
     1
1071
       16
1005
13A2EC
  0
LINE
  5
13A2ED
  8
OBJECT
 10
9924.0
 20
-1219.9999999999991
 30
0.0
 11
9924.0
 21
-1233.9999999999959
 31
0.0
1001
ACDBBLOCKREPETAG
1070
     1
1071
       17
1005
13A2ED
  0
LINE
  5
13A2EE
  8
OBJECT
 10
10090.0
 20
-1219.9999999999991
 30
0.0
 11
10090.0
 21
-1233.9999999999959
 31
0.0
1001
ACDBBLOCKREPETAG
1070
     1
1071
       18
1005
13A2EE
  0
LINE
  5
13A2EF
  8
OBJECT
 10
9924.0
 20
-1233.9999999999959
 30
0.0
 11
10090.0
 21
-1233.9999999999959
 31
0.0
1001
ACDBBLOCKREPETAG
1070
     1
1071
       19
1005
13A2EF
  0
LINE
  5
13A2F0
  8
OBJECT
 10
9924.0
 20
-1219.9999999999991
 30
0.0
 11
10090.0
 21
-1219.9999999999991
 31
0.0
1001
ACDBBLOCKREPETAG
1070
     1
1071
       20
1005
13A2F0
  0
LINE
  5
13A2F1
  8
OBJECT
 10
9932.4999999999836
 20
-1209.9999999999991
 30
0.0
 11
9932.4999999999836
 21
-1219.9999999999991
 31
0.0
1001
ACDBBLOCKREPETAG
1070
     1
1071
       21
1005
13A2F1
  0
LINE
  5
13A2F2
  8
OBJECT
 10
9924.0
 20
-1209.9999999999991
 30
0.0
 11
9924.0
 21
-1194.9999999999959
 31
0.0
1001
ACDBBLOCKREPETAG
1070
     1
1071
       22
1005
13A2F2
  0
LINE
  5
13A2F3
  8
HIDDEN
 10
9943.0
 20
-1169.9999999999991
 30
0.0
 11
10057.0
 21
-1169.9999999999991
 31
0.0
1001
ACDBBLOCKREPETAG
1070
     1
1071
       23
1005
13A2F3
  0
LINE
  5
13A2F4
  8
CENTER
 10
10000.0
 20
-899.99999999999955
 30
0.0
 11
10000.0
 21
-1248.9999999999959
 31
0.0
1001
ACDBBLOCKREPETAG
1070
     1
1071
       24
1005
13A2F4
  0
LINE
  5
13A2F5
  8
OBJECT
 10
9925.0
 20
-899.99999999999955
 30
0.0
 11
9925.0
 21
-981.99999999999613
 31
0.0
1001
ACDBBLOCKREPETAG
1070
     1
1071
       25
1005
13A2F5
  0
LINE
  5
13A2F6
  8
OBJECT
 10
10075.0
 20
-899.99999999999955
 30
0.0
 11
10075.0
 21
-981.99999999999204
 31
0.0
1001
ACDBBLOCKREPETAG
1070
     1
1071
       26
1005
13A2F6
  0
LINE
  5
13A2F7
  8
OBJECT
 10
9925.0
 20
-981.99999999999613
 30
0.0
 11
10075.0
 21
-981.99999999999204
 31
0.0
1001
ACDBBLOCKREPETAG
1070
     1
1071
       27
1005
13A2F7
  0
LINE
  5
13A2F8
  8
OBJECT
 10
10057.0
 20
-1158.9999999999959
 30
0.0
 11
10057.0
 21
-1109.999999999992
 31
0.0
1001
ACDBBLOCKREPETAG
1070
     1
1071
       28
1005
13A2F8
  0
LINE
  5
13A2F9
  8
OBJECT
 10
9943.0
 20
-1158.9999999999959
 30
0.0
 11
9943.0
 21
-1109.999999999992
 31
0.0
1001
ACDBBLOCKREPETAG
1070
     1
1071
       29
1005
13A2F9
  0
LINE
  5
13A2FA
  8
OBJECT
 10
10057.0
 20
-1109.999999999992
 30
0.0
 11
9943.0
 21
-1109.999999999992
 31
0.0
1001
ACDBBLOCKREPETAG
1070
     1
1071
       30
1005
13A2FA
  0
LINE
  5
13A2FB
  8
OBJECT
 10
9925.0
 20
-981.99999999999613
 30
0.0
 11
9943.0
 21
-1109.999999999992
 31
0.0
1001
ACDBBLOCKREPETAG
1070
     1
1071
       31
1005
13A2FB
  0
LINE
  5
13A2FC
  8
OBJECT
 10
10057.0
 20
-1109.999999999992
 30
0.0
 11
10075.0
 21
-981.99999999999204
 31
0.0
1001
ACDBBLOCKREPETAG
1070
     1
1071
       32
1005
13A2FC
  0
LINE
  5
13A2FD
  8
OBJECT
 10
9934.0
 20
-1158.9999999999959
 30
0.0
 11
9934.0
 21
-1194.9999999999959
 31
0.0
1001
ACDBBLOCKREPETAG
1070
     1
1071
       33
1005
13A2FD
  0
LINE
  5
13A2FE
  8
OBJECT
 10
10066.0
 20
-1158.9999999999959
 30
0.0
 11
10066.0
 21
-1194.9999999999959
 31
0.0
1001
ACDBBLOCKREPETAG
1070
     1
1071
       34
1005
13A2FE
  0
LINE
  5
13A2FF
  8
OBJECT
 10
10082.999999999991
 20
-1219.9999999999959
 30
0.0
 11
10082.999999999991
 21
-1209.9999999999959
 31
0.0
1001
ACDBBLOCKREPETAG
1070
     1
1071
       35
1005
13A2FF
  0
LINE
  5
13A300
  8
OBJECT
 10
10072.999999999991
 20
-1219.9999999999959
 30
0.0
 11
10072.999999999991
 21
-1209.9999999999959
 31
0.0
1001
ACDBBLOCKREPETAG
1070
     1
1071
       36
1005
13A300
  0
LINE
  5
13A301
  8
OBJECT
 10
10068.99999999998
 20
-1189.9999999999959
 30
0.0
 11
10068.99999999998
 21
-1194.9999999999959
 31
0.0
1001
ACDBBLOCKREPETAG
1070
     1
1071
       37
1005
13A301
  0
LINE
  5
13A302
  8
OBJECT
 10
10087.0
 20
-1189.9999999999959
 30
0.0
 11
10087.0
 21
-1194.9999999999959
 31
0.0
1001
ACDBBLOCKREPETAG
1070
     1
1071
       38
1005
13A302
  0
LINE
  5
13A303
  8
OBJECT
 10
10087.0
 20
-1189.9999999999959
 30
0.0
 11
10068.99999999998
 21
-1189.9999999999959
 31
0.0
1001
ACDBBLOCKREPETAG
1070
     1
1071
       39
1005
13A303
  0
LINE
  5
13A304
  8
OBJECT
 10
10073.0
 20
-1241.9999999999959
 30
0.0
 11
10073.0
 21
-1244.9999999999959
 31
0.0
1001
ACDBBLOCKREPETAG
1070
     1
1071
       40
1005
13A304
  0
LINE
  5
13A305
  8
OBJECT
 10
10073.0
 20
-1244.9999999999959
 30
0.0
 11
10083.0
 21
-1244.9999999999959
 31
0.0
1001
ACDBBLOCKREPETAG
1070
     1
1071
       41
1005
13A305
  0
LINE
  5
13A306
  8
OBJECT
 10
10083.0
 20
-1244.9999999999959
 30
0.0
 11
10083.0
 21
-1241.9999999999959
 31
0.0
1001
ACDBBLOCKREPETAG
1070
     1
1071
       43
1005
13A306
  0
LINE
  5
13A307
  8
OBJECT
 10
9968.5
 20
-1189.9999999999959
 30
0.0
 11
9951.9999999999909
 21
-1189.9999999999959
 31
0.0
1001
ACDBBLOCKREPETAG
1070
     1
1071
       48
1005
13A307
  0
LINE
  5
13A308
  8
OBJECT
 10
9976.0
 20
-1194.9999999999959
 30
0.0
 11
9976.0
 21
-1192.9999999999959
 31
0.0
1001
ACDBBLOCKREPETAG
1070
     1
1071
       49
1005
13A308
  0
LINE
  5
13A309
  8
OBJECT
 10
9966.0
 20
-1219.9999999999959
 30
0.0
 11
9966.0
 21
-1209.9999999999959
 31
0.0
1001
ACDBBLOCKREPETAG
1070
     1
1071
       50
1005
13A309
  0
LINE
  5
13A30A
  8
OBJECT
 10
9956.0
 20
-1219.9999999999959
 30
0.0
 11
9956.0
 21
-1209.9999999999959
 31
0.0
1001
ACDBBLOCKREPETAG
1070
     1
1071
       51
1005
13A30A
  0
LINE
  5
13A30B
  8
OBJECT
 10
9951.9999999999909
 20
-1189.9999999999959
 30
0.0
 11
9951.9999999999909
 21
-1194.9999999999959
 31
0.0
1001
ACDBBLOCKREPETAG
1070
     1
1071
       52
1005
13A30B
  0
LINE
  5
13A30C
  8
OBJECT
 10
9956.0
 20
-1241.9999999999959
 30
0.0
 11
9956.0
 21
-1244.9999999999959
 31
0.0
1001
ACDBBLOCKREPETAG
1070
     1
1071
       53
1005
13A30C
  0
LINE
  5
13A30D
  8
OBJECT
 10
9956.0
 20
-1244.9999999999959
 30
0.0
 11
9966.0
 21
-1244.9999999999959
 31
0.0
1001
ACDBBLOCKREPETAG
1070
     1
1071
       54
1005
13A30D
  0
LINE
  5
13A30E
  8
OBJECT
 10
9951.185045423772
 20
-1241.9999999999959
 30
0.0
 11
9970.814954576219
 21
-1241.9999999999959
 31
0.0
1001
ACDBBLOCKREPETAG
1070
     1
1071
       55
1005
13A30E
  0
LINE
  5
13A30F
  8
OBJECT
 10
9966.0
 20
-1244.9999999999959
 30
0.0
 11
9966.0
 21
-1241.9999999999959
 31
0.0
1001
ACDBBLOCKREPETAG
1070
     1
1071
       56
1005
13A30F
  0
LINE
  5
13A310
  8
OBJECT
 10
9976.0
 20
-1192.9999999999959
 30
0.0
 11
9968.5
 21
-1189.9999999999959
 31
0.0
1001
ACDBBLOCKREPETAG
1070
     1
1071
       57
1005
13A310
  0
LINE
  5
13A311
  8
OBJECT
 10
9951.1850454237774
 20
-1233.9999999999959
 30
0.0
 11
9951.1850454237774
 21
-1241.9999999999959
 31
0.0
1001
ACDBBLOCKREPETAG
1070
     1
1071
      630
1005
13A311
  0
LINE
  5
13A312
  8
OBJECT
 10
9956.0925227118896
 20
-1233.9999999999959
 30
0.0
 11
9956.0925227118896
 21
-1241.9999999999959
 31
0.0
1001
ACDBBLOCKREPETAG
1070
     1
1071
      631
1005
13A312
  0
LINE
  5
13A313
  8
OBJECT
 10
9965.9074772881122
 20
-1233.9999999999959
 30
0.0
 11
9965.9074772881122
 21
-1241.9999999999959
 31
0.0
1001
ACDBBLOCKREPETAG
1070
     1
1071
      632
1005
13A313
  0
LINE
  5
13A314
  8
OBJECT
 10
9970.8149545762244
 20
-1233.9999999999959
 30
0.0
 11
9970.8149545762244
 21
-1241.9999999999959
 31
0.0
1001
ACDBBLOCKREPETAG
1070
     1
1071
      633
1005
13A314
  0
LINE
  5
13A315
  8
OBJECT
 10
10068.18504542377
 20
-1241.9999999999959
 30
0.0
 11
10087.814954576221
 21
-1241.9999999999959
 31
0.0
1001
ACDBBLOCKREPETAG
1070
     1
1071
      634
1005
13A315
  0
LINE
  5
13A316
  8
OBJECT
 10
10068.18504542377
 20
-1233.9999999999959
 30
0.0
 11
10068.18504542377
 21
-1241.9999999999959
 31
0.0
1001
ACDBBLOCKREPETAG
1070
     1
1071
      635
1005
13A316
  0
LINE
  5
13A317
  8
OBJECT
 10
10073.09252271189
 20
-1233.9999999999959
 30
0.0
 11
10073.09252271189
 21
-1241.9999999999959
 31
0.0
1001
ACDBBLOCKREPETAG
1070
     1
1071
      636
1005
13A317
  0
LINE
  5
13A318
  8
OBJECT
 10
10082.90747728811
 20
-1233.9999999999959
 30
0.0
 11
10082.90747728811
 21
-1241.9999999999959
 31
0.0
1001
ACDBBLOCKREPETAG
1070
     1
1071
      637
1005
13A318
  0
LINE
  5
13A319
  8
OBJECT
 10
10087.814954576221
 20
-1233.9999999999959
 30
0.0
 11
10087.814954576221
 21
-1241.9999999999959
 31
0.0
1001
ACDBBLOCKREPETAG
1070
     1
1071
      638
1005
13A319
  0
LINE
  5
13A31A
  8
OBJECT
 10
7943.0
 20
-1209.9999999999959
 30
0.0
 11
8057.0
 21
-1209.9999999999959
 31
0.0
1001
ACDBBLOCKREPETAG
1070
     1
1071
        0
1005
13A31A
  0
LINE
  5
13A31B
  8
OBJECT
 10
7943.0
 20
-1209.9999999999959
 30
0.0
 11
7943.0
 21
-1109.9999999999959
 31
0.0
1001
ACDBBLOCKREPETAG
1070
     1
1071
        1
1005
13A31B
  0
LINE
  5
13A31C
  8
OBJECT
 10
8057.0
 20
-1209.9999999999959
 30
0.0
 11
8057.0
 21
-1109.9999999999959
 31
0.0
1001
ACDBBLOCKREPETAG
1070
     1
1071
        2
1005
13A31C
  0
LINE
  5
13A31D
  8
OBJECT
 10
7943.0
 20
-1109.9999999999959
 30
0.0
 11
8057.0
 21
-1109.9999999999959
 31
0.0
1001
ACDBBLOCKREPETAG
1070
     1
1071
        3
1005
13A31D
  0
LINE
  5
13A31E
  8
HIDDEN
 10
7950.0
 20
-1109.9999999999959
 30
0.0
 11
7950.0
 21
-1209.9999999999959
 31
0.0
1001
ACDBBLOCKREPETAG
1070
     1
1071
        4
1005
13A31E
  0
LINE
  5
13A31F
  8
HIDDEN
 10
8050.0
 20
-1109.9999999999959
 30
0.0
 11
8050.0
 21
-1209.9999999999959
 31
0.0
1001
ACDBBLOCKREPETAG
1070
     1
1071
        5
1005
13A31F
  0
LINE
  5
13A320
  8
CENTER
 10
8000.0
 20
-899.99999999999955
 30
0.0
 11
8000.0
 21
-1224.9999999999959
 31
0.0
1001
ACDBBLOCKREPETAG
1070
     1
1071
        6
1005
13A320
  0
LINE
  5
13A321
  8
OBJECT
 10
7925.0
 20
-899.99999999999955
 30
0.0
 11
7925.0
 21
-981.99999999999613
 31
0.0
1001
ACDBBLOCKREPETAG
1070
     1
1071
        7
1005
13A321
  0
LINE
  5
13A322
  8
OBJECT
 10
8075.0
 20
-899.99999999999955
 30
0.0
 11
8075.0
 21
-981.99999999999613
 31
0.0
1001
ACDBBLOCKREPETAG
1070
     1
1071
        8
1005
13A322
  0
LINE
  5
13A323
  8
OBJECT
 10
7925.0
 20
-981.99999999999613
 30
0.0
 11
8075.0
 21
-981.99999999999613
 31
0.0
1001
ACDBBLOCKREPETAG
1070
     1
1071
        9
1005
13A323
  0
LINE
  5
13A324
  8
OBJECT
 10
7925.0
 20
-981.99999999999613
 30
0.0
 11
7943.0
 21
-1109.9999999999959
 31
0.0
1001
ACDBBLOCKREPETAG
1070
     1
1071
       10
1005
13A324
  0
LINE
  5
13A325
  8
OBJECT
 10
8057.0
 20
-1109.9999999999959
 30
0.0
 11
8075.0
 21
-981.99999999999613
 31
0.0
1001
ACDBBLOCKREPETAG
1070
     1
1071
       11
1005
13A325
  0
LINE
  5
13A326
  8
OBJECT
 10
6085.9999999999927
 20
-1233.9999999999991
 30
0.0
 11
6085.9999999999927
 21
-1243.9999999999991
 31
0.0
1001
ACDBBLOCKREPETAG
1070
     1
1071
      121
1005
13A326
  0
LINE
  5
13A327
  8
OBJECT
 10
6069.9999999999927
 20
-1233.9999999999991
 30
0.0
 11
6069.9999999999927
 21
-1243.9999999999991
 31
0.0
1001
ACDBBLOCKREPETAG
1070
     1
1071
      122
1005
13A327
  0
LINE
  5
13A328
  8
OBJECT
 10
6085.9999999999927
 20
-1243.9999999999991
 30
0.0
 11
6069.9999999999927
 21
-1243.9999999999991
 31
0.0
1001
ACDBBLOCKREPETAG
1070
     1
1071
      123
1005
13A328
  0
LINE
  5
13A329
  8
OBJECT
 10
6090.0
 20
-1194.9999999999959
 30
0.0
 11
5924.0
 21
-1194.9999999999959
 31
0.0
1001
ACDBBLOCKREPETAG
1070
     1
1071
      124
1005
13A329
  0
LINE
  5
13A32A
  8
OBJECT
 10
6090.0
 20
-1209.9999999999991
 30
0.0
 11
6090.0
 21
-1194.9999999999959
 31
0.0
1001
ACDBBLOCKREPETAG
1070
     1
1071
      125
1005
13A32A
  0
LINE
  5
13A32B
  8
OBJECT
 10
5924.0
 20
-1209.9999999999991
 30
0.0
 11
6090.0
 21
-1209.9999999999991
 31
0.0
1001
ACDBBLOCKREPETAG
1070
     1
1071
      126
1005
13A32B
  0
LINE
  5
13A32C
  8
OBJECT
 10
6067.4999999999864
 20
-1209.9999999999991
 30
0.0
 11
6067.4999999999864
 21
-1219.9999999999991
 31
0.0
1001
ACDBBLOCKREPETAG
1070
     1
1071
      127
1005
13A32C
  0
LINE
  5
13A32D
  8
OBJECT
 10
6072.9999999999927
 20
-1219.9999999999991
 30
0.0
 11
6072.9999999999927
 21
-1209.9999999999991
 31
0.0
1001
ACDBBLOCKREPETAG
1070
     1
1071
      128
1005
13A32D
  0
LINE
  5
13A32E
  8
OBJECT
 10
6082.9999999999927
 20
-1219.9999999999991
 30
0.0
 11
6082.9999999999927
 21
-1209.9999999999991
 31
0.0
1001
ACDBBLOCKREPETAG
1070
     1
1071
      129
1005
13A32E
  0
LINE
  5
13A32F
  8
OBJECT
 10
5924.0
 20
-1219.9999999999991
 30
0.0
 11
5924.0
 21
-1233.9999999999959
 31
0.0
1001
ACDBBLOCKREPETAG
1070
     1
1071
      130
1005
13A32F
  0
LINE
  5
13A330
  8
OBJECT
 10
6090.0
 20
-1219.9999999999991
 30
0.0
 11
6090.0
 21
-1233.9999999999959
 31
0.0
1001
ACDBBLOCKREPETAG
1070
     1
1071
      131
1005
13A330
  0
LINE
  5
13A331
  8
OBJECT
 10
5924.0
 20
-1233.9999999999959
 30
0.0
 11
6090.0
 21
-1233.9999999999959
 31
0.0
1001
ACDBBLOCKREPETAG
1070
     1
1071
      132
1005
13A331
  0
LINE
  5
13A332
  8
OBJECT
 10
5924.0
 20
-1219.9999999999991
 30
0.0
 11
6090.0
 21
-1219.9999999999991
 31
0.0
1001
ACDBBLOCKREPETAG
1070
     1
1071
      133
1005
13A332
  0
LINE
  5
13A333
  8
OBJECT
 10
5932.4999999999864
 20
-1209.9999999999991
 30
0.0
 11
5932.4999999999864
 21
-1219.9999999999991
 31
0.0
1001
ACDBBLOCKREPETAG
1070
     1
1071
      134
1005
13A333
  0
LINE
  5
13A334
  8
OBJECT
 10
5934.0
 20
-1158.9999999999959
 30
0.0
 11
6065.9999999999909
 21
-1158.9999999999959
 31
0.0
1001
ACDBBLOCKREPETAG
1070
     1
1071
      135
1005
13A334
  0
LINE
  5
13A335
  8
OBJECT
 10
5924.0
 20
-1209.9999999999991
 30
0.0
 11
5924.0
 21
-1194.9999999999959
 31
0.0
1001
ACDBBLOCKREPETAG
1070
     1
1071
      136
1005
13A335
  0
LINE
  5
13A336
  8
HIDDEN
 10
5943.0
 20
-1169.9999999999991
 30
0.0
 11
6057.0
 21
-1169.9999999999991
 31
0.0
1001
ACDBBLOCKREPETAG
1070
     1
1071
      137
1005
13A336
  0
LINE
  5
13A337
  8
OBJECT
 10
6086.9999999999918
 20
-1193.2
 30
0.0
 11
6086.9999999999918
 21
-1194.9999999999991
 31
0.0
1001
ACDBBLOCKREPETAG
1070
     1
1071
      138
1005
13A337
  0
LINE
  5
13A338
  8
OBJECT
 10
6068.9999999999909
 20
-1193.2
 30
0.0
 11
6068.9999999999909
 21
-1194.9999999999991
 31
0.0
1001
ACDBBLOCKREPETAG
1070
     1
1071
      139
1005
13A338
  0
LINE
  5
13A339
  8
OBJECT
 10
6072.2499999999927
 20
-1183.4999999999991
 30
0.0
 11
6083.7499999999927
 21
-1183.4999999999991
 31
0.0
1001
ACDBBLOCKREPETAG
1070
     1
1071
      140
1005
13A339
  0
LINE
  5
13A33A
  8
OBJECT
 10
6072.2499999999927
 20
-1183.4999999999991
 30
0.0
 11
6072.2499999999927
 21
-1193.2
 31
0.0
1001
ACDBBLOCKREPETAG
1070
     1
1071
      141
1005
13A33A
  0
LINE
  5
13A33B
  8
OBJECT
 10
6083.7499999999927
 20
-1183.4999999999991
 30
0.0
 11
6083.7499999999927
 21
-1193.2
 31
0.0
1001
ACDBBLOCKREPETAG
1070
     1
1071
      142
1005
13A33B
  0
LINE
  5
13A33C
  8
OBJECT
 10
5931.9999999999873
 20
-1274.9999999999991
 30
0.0
 11
6067.9999999999873
 21
-1274.9999999999991
 31
0.0
1001
ACDBBLOCKREPETAG
1070
     1
1071
      143
1005
13A33C
  0
LINE
  5
13A33D
  8
OBJECT
 10
5931.9999999999873
 20
-1274.9999999999991
 30
0.0
 11
5931.9999999999873
 21
-1233.9999999999991
 31
0.0
1001
ACDBBLOCKREPETAG
1070
     1
1071
      144
1005
13A33D
  0
LINE
  5
13A33E
  8
OBJECT
 10
6067.9999999999873
 20
-1274.9999999999991
 30
0.0
 11
6067.9999999999873
 21
-1233.9999999999991
 31
0.0
1001
ACDBBLOCKREPETAG
1070
     1
1071
      145
1005
13A33E
  0
LINE
  5
13A33F
  8
OBJECT
 10
6086.9999999999918
 20
-1193.2
 30
0.0
 11
6068.9999999999909
 21
-1193.2
 31
0.0
1001
ACDBBLOCKREPETAG
1070
     1
1071
      146
1005
13A33F
  0
LINE
  5
13A340
  8
CENTER
 10
6000.0
 20
-899.99999999999955
 30
0.0
 11
6000.0
 21
-1289.9999999999991
 31
0.0
1001
ACDBBLOCKREPETAG
1070
     1
1071
      147
1005
13A340
  0
LINE
  5
13A341
  8
OBJECT
 10
5925.0
 20
-899.99999999999955
 30
0.0
 11
5925.0
 21
-981.99999999999613
 31
0.0
1001
ACDBBLOCKREPETAG
1070
     1
1071
      148
1005
13A341
  0
LINE
  5
13A342
  8
OBJECT
 10
6075.0
 20
-899.99999999999955
 30
0.0
 11
6075.0
 21
-981.99999999999204
 31
0.0
1001
ACDBBLOCKREPETAG
1070
     1
1071
      149
1005
13A342
  0
LINE
  5
13A343
  8
OBJECT
 10
5925.0
 20
-981.99999999999613
 30
0.0
 11
6075.0
 21
-981.99999999999204
 31
0.0
1001
ACDBBLOCKREPETAG
1070
     1
1071
      150
1005
13A343
  0
LINE
  5
13A344
  8
OBJECT
 10
5943.0
 20
-1158.9999999999959
 30
0.0
 11
5943.0
 21
-1109.999999999992
 31
0.0
1001
ACDBBLOCKREPETAG
1070
     1
1071
      151
1005
13A344
  0
LINE
  5
13A345
  8
OBJECT
 10
6057.0
 20
-1109.999999999992
 30
0.0
 11
5943.0
 21
-1109.999999999992
 31
0.0
1001
ACDBBLOCKREPETAG
1070
     1
1071
      152
1005
13A345
  0
LINE
  5
13A346
  8
OBJECT
 10
6057.0
 20
-1109.999999999992
 30
0.0
 11
6057.0
 21
-1158.9999999999959
 31
0.0
1001
ACDBBLOCKREPETAG
1070
     1
1071
      153
1005
13A346
  0
LINE
  5
13A347
  8
OBJECT
 10
5925.0
 20
-981.99999999999613
 30
0.0
 11
5943.0
 21
-1109.999999999992
 31
0.0
1001
ACDBBLOCKREPETAG
1070
     1
1071
      154
1005
13A347
  0
LINE
  5
13A348
  8
OBJECT
 10
6057.0
 20
-1109.999999999992
 30
0.0
 11
6075.0
 21
-981.99999999999204
 31
0.0
1001
ACDBBLOCKREPETAG
1070
     1
1071
      155
1005
13A348
  0
LINE
  5
13A349
  8
OBJECT
 10
5934.0
 20
-1194.9999999999959
 30
0.0
 11
5934.0
 21
-1158.9999999999959
 31
0.0
1001
ACDBBLOCKREPETAG
1070
     1
1071
      156
1005
13A349
  0
LINE
  5
13A34A
  8
OBJECT
 10
6066.0
 20
-1194.9999999999959
 30
0.0
 11
6065.9999999999909
 21
-1158.9999999999959
 31
0.0
1001
ACDBBLOCKREPETAG
1070
     1
1071
      157
1005
13A34A
  0
LINE
  5
13A34B
  8
OBJECT
 10
5954.75
 20
-1184.699999999993
 30
0.0
 11
5967.2499999999991
 21
-1184.699999999993
 31
0.0
1001
ACDBBLOCKREPETAG
1070
     1
1071
      158
1005
13A34B
  0
LINE
  5
13A34C
  8
OBJECT
 10
5946.0
 20
-1194.9999999999959
 30
0.0
 11
5946.0
 21
-1192.699999999996
 31
0.0
1001
ACDBBLOCKREPETAG
1070
     1
1071
      159
1005
13A34C
  0
LINE
  5
13A34D
  8
OBJECT
 10
5976.0
 20
-1194.9999999999959
 30
0.0
 11
5976.0
 21
-1192.699999999996
 31
0.0
1001
ACDBBLOCKREPETAG
1070
     1
1071
      160
1005
13A34D
  0
LINE
  5
13A34E
  8
OBJECT
 10
5954.75
 20
-1184.699999999993
 30
0.0
 11
5954.75
 21
-1192.699999999996
 31
0.0
1001
ACDBBLOCKREPETAG
1070
     1
1071
      161
1005
13A34E
  0
LINE
  5
13A34F
  8
OBJECT
 10
5967.2499999999991
 20
-1184.699999999993
 30
0.0
 11
5967.2499999999991
 21
-1192.699999999996
 31
0.0
1001
ACDBBLOCKREPETAG
1070
     1
1071
      162
1005
13A34F
  0
LINE
  5
13A350
  8
OBJECT
 10
5946.0
 20
-1192.699999999996
 30
0.0
 11
5976.0
 21
-1192.699999999996
 31
0.0
1001
ACDBBLOCKREPETAG
1070
     1
1071
      163
1005
13A350
  0
LINE
  5
13A351
  8
OBJECT
 10
5953.0
 20
-1233.9999999999959
 30
0.0
 11
5953.0
 21
-1243.9999999999959
 31
0.0
1001
ACDBBLOCKREPETAG
1070
     1
1071
      164
1005
13A351
  0
LINE
  5
13A352
  8
OBJECT
 10
5969.0
 20
-1233.9999999999959
 30
0.0
 11
5969.0
 21
-1243.9999999999959
 31
0.0
1001
ACDBBLOCKREPETAG
1070
     1
1071
      165
1005
13A352
  0
LINE
  5
13A353
  8
OBJECT
 10
5953.0
 20
-1243.9999999999959
 30
0.0
 11
5969.0
 21
-1243.9999999999959
 31
0.0
1001
ACDBBLOCKREPETAG
1070
     1
1071
      166
1005
13A353
  0
LINE
  5
13A354
  8
OBJECT
 10
5966.0
 20
-1219.9999999999959
 30
0.0
 11
5966.0
 21
-1209.9999999999959
 31
0.0
1001
ACDBBLOCKREPETAG
1070
     1
1071
      167
1005
13A354
  0
LINE
  5
13A355
  8
OBJECT
 10
5956.0
 20
-1219.9999999999959
 30
0.0
 11
5956.0
 21
-1209.9999999999959
 31
0.0
1001
ACDBBLOCKREPETAG
1070
     1
1071
      168
1005
13A355
  0
LINE
  5
13A356
  8
OBJECT
 10
4090.0
 20
-1194.9999999999959
 30
0.0
 11
3924.0
 21
-1194.9999999999959
 31
0.0
1001
ACDBBLOCKREPETAG
1070
     1
1071
       12
1005
13A356
  0
LINE
  5
13A357
  8
OBJECT
 10
4066.0
 20
-1158.9999999999959
 30
0.0
 11
3934.0
 21
-1158.9999999999959
 31
0.0
1001
ACDBBLOCKREPETAG
1070
     1
1071
       13
1005
13A357
  0
LINE
  5
13A358
  8
OBJECT
 10
4090.0
 20
-1209.9999999999991
 30
0.0
 11
4090.0
 21
-1194.9999999999959
 31
0.0
1001
ACDBBLOCKREPETAG
1070
     1
1071
       14
1005
13A358
  0
LINE
  5
13A359
  8
OBJECT
 10
3924.0
 20
-1209.9999999999991
 30
0.0
 11
4090.0
 21
-1209.9999999999991
 31
0.0
1001
ACDBBLOCKREPETAG
1070
     1
1071
       15
1005
13A359
  0
LINE
  5
13A35A
  8
OBJECT
 10
4067.4999999999841
 20
-1209.9999999999991
 30
0.0
 11
4067.4999999999841
 21
-1219.9999999999991
 31
0.0
1001
ACDBBLOCKREPETAG
1070
     1
1071
       16
1005
13A35A
  0
LINE
  5
13A35B
  8
OBJECT
 10
3924.0
 20
-1219.9999999999991
 30
0.0
 11
3924.0
 21
-1233.9999999999959
 31
0.0
1001
ACDBBLOCKREPETAG
1070
     1
1071
       17
1005
13A35B
  0
LINE
  5
13A35C
  8
OBJECT
 10
4090.0
 20
-1219.9999999999991
 30
0.0
 11
4090.0
 21
-1233.9999999999959
 31
0.0
1001
ACDBBLOCKREPETAG
1070
     1
1071
       18
1005
13A35C
  0
LINE
  5
13A35D
  8
OBJECT
 10
3924.0
 20
-1233.9999999999959
 30
0.0
 11
4090.0
 21
-1233.9999999999959
 31
0.0
1001
ACDBBLOCKREPETAG
1070
     1
1071
       19
1005
13A35D
  0
LINE
  5
13A35E
  8
OBJECT
 10
3924.0
 20
-1219.9999999999991
 30
0.0
 11
4090.0
 21
-1219.9999999999991
 31
0.0
1001
ACDBBLOCKREPETAG
1070
     1
1071
       20
1005
13A35E
  0
LINE
  5
13A35F
  8
OBJECT
 10
3932.499999999985
 20
-1209.9999999999991
 30
0.0
 11
3932.499999999985
 21
-1219.9999999999991
 31
0.0
1001
ACDBBLOCKREPETAG
1070
     1
1071
       21
1005
13A35F
  0
LINE
  5
13A360
  8
OBJECT
 10
3924.0
 20
-1209.9999999999991
 30
0.0
 11
3924.0
 21
-1194.9999999999959
 31
0.0
1001
ACDBBLOCKREPETAG
1070
     1
1071
       22
1005
13A360
  0
LINE
  5
13A361
  8
HIDDEN
 10
3943.0
 20
-1169.9999999999991
 30
0.0
 11
4057.0
 21
-1169.9999999999991
 31
0.0
1001
ACDBBLOCKREPETAG
1070
     1
1071
       23
1005
13A361
  0
LINE
  5
13A362
  8
CENTER
 10
4000.0
 20
-899.99999999999955
 30
0.0
 11
4000.0
 21
-1248.9999999999959
 31
0.0
1001
ACDBBLOCKREPETAG
1070
     1
1071
       24
1005
13A362
  0
LINE
  5
13A363
  8
OBJECT
 10
3925.0
 20
-899.99999999999955
 30
0.0
 11
3925.0
 21
-981.99999999999613
 31
0.0
1001
ACDBBLOCKREPETAG
1070
     1
1071
       25
1005
13A363
  0
LINE
  5
13A364
  8
OBJECT
 10
4075.0
 20
-899.99999999999955
 30
0.0
 11
4075.0
 21
-981.99999999999204
 31
0.0
1001
ACDBBLOCKREPETAG
1070
     1
1071
       26
1005
13A364
  0
LINE
  5
13A365
  8
OBJECT
 10
3925.0
 20
-981.99999999999613
 30
0.0
 11
4075.0
 21
-981.99999999999204
 31
0.0
1001
ACDBBLOCKREPETAG
1070
     1
1071
       27
1005
13A365
  0
LINE
  5
13A366
  8
OBJECT
 10
4057.0
 20
-1158.9999999999959
 30
0.0
 11
4057.0
 21
-1109.999999999992
 31
0.0
1001
ACDBBLOCKREPETAG
1070
     1
1071
       28
1005
13A366
  0
LINE
  5
13A367
  8
OBJECT
 10
3943.0
 20
-1158.9999999999959
 30
0.0
 11
3943.0
 21
-1109.999999999992
 31
0.0
1001
ACDBBLOCKREPETAG
1070
     1
1071
       29
1005
13A367
  0
LINE
  5
13A368
  8
OBJECT
 10
4057.0
 20
-1109.999999999992
 30
0.0
 11
3943.0
 21
-1109.999999999992
 31
0.0
1001
ACDBBLOCKREPETAG
1070
     1
1071
       30
1005
13A368
  0
LINE
  5
13A369
  8
OBJECT
 10
3925.0
 20
-981.99999999999613
 30
0.0
 11
3943.0
 21
-1109.999999999992
 31
0.0
1001
ACDBBLOCKREPETAG
1070
     1
1071
       31
1005
13A369
  0
LINE
  5
13A36A
  8
OBJECT
 10
4057.0
 20
-1109.999999999992
 30
0.0
 11
4075.0
 21
-981.99999999999204
 31
0.0
1001
ACDBBLOCKREPETAG
1070
     1
1071
       32
1005
13A36A
  0
LINE
  5
13A36B
  8
OBJECT
 10
3934.0
 20
-1158.9999999999959
 30
0.0
 11
3934.0
 21
-1194.9999999999959
 31
0.0
1001
ACDBBLOCKREPETAG
1070
     1
1071
       33
1005
13A36B
  0
LINE
  5
13A36C
  8
OBJECT
 10
4066.0
 20
-1158.9999999999959
 30
0.0
 11
4066.0
 21
-1194.9999999999959
 31
0.0
1001
ACDBBLOCKREPETAG
1070
     1
1071
       34
1005
13A36C
  0
LINE
  5
13A36D
  8
OBJECT
 10
4082.9999999999932
 20
-1219.9999999999959
 30
0.0
 11
4082.9999999999932
 21
-1209.9999999999959
 31
0.0
1001
ACDBBLOCKREPETAG
1070
     1
1071
       35
1005
13A36D
  0
LINE
  5
13A36E
  8
OBJECT
 10
4072.9999999999918
 20
-1219.9999999999959
 30
0.0
 11
4072.9999999999918
 21
-1209.9999999999959
 31
0.0
1001
ACDBBLOCKREPETAG
1070
     1
1071
       36
1005
13A36E
  0
LINE
  5
13A36F
  8
OBJECT
 10
4068.9999999999841
 20
-1189.9999999999959
 30
0.0
 11
4068.9999999999841
 21
-1194.9999999999959
 31
0.0
1001
ACDBBLOCKREPETAG
1070
     1
1071
       37
1005
13A36F
  0
LINE
  5
13A370
  8
OBJECT
 10
4087.0
 20
-1189.9999999999959
 30
0.0
 11
4087.0
 21
-1194.9999999999959
 31
0.0
1001
ACDBBLOCKREPETAG
1070
     1
1071
       38
1005
13A370
  0
LINE
  5
13A371
  8
OBJECT
 10
4087.0
 20
-1189.9999999999959
 30
0.0
 11
4068.9999999999841
 21
-1189.9999999999959
 31
0.0
1001
ACDBBLOCKREPETAG
1070
     1
1071
       39
1005
13A371
  0
LINE
  5
13A372
  8
OBJECT
 10
4073.0
 20
-1241.9999999999959
 30
0.0
 11
4073.0
 21
-1244.9999999999959
 31
0.0
1001
ACDBBLOCKREPETAG
1070
     1
1071
       40
1005
13A372
  0
LINE
  5
13A373
  8
OBJECT
 10
4073.0
 20
-1244.9999999999959
 30
0.0
 11
4083.0
 21
-1244.9999999999959
 31
0.0
1001
ACDBBLOCKREPETAG
1070
     1
1071
       41
1005
13A373
  0
LINE
  5
13A374
  8
OBJECT
 10
4083.0
 20
-1244.9999999999959
 30
0.0
 11
4083.0
 21
-1241.9999999999959
 31
0.0
1001
ACDBBLOCKREPETAG
1070
     1
1071
       43
1005
13A374
  0
LINE
  5
13A375
  8
OBJECT
 10
3968.5
 20
-1189.9999999999959
 30
0.0
 11
3951.9999999999932
 21
-1189.9999999999959
 31
0.0
1001
ACDBBLOCKREPETAG
1070
     1
1071
       48
1005
13A375
  0
LINE
  5
13A376
  8
OBJECT
 10
3976.0
 20
-1194.9999999999959
 30
0.0
 11
3976.0
 21
-1192.9999999999959
 31
0.0
1001
ACDBBLOCKREPETAG
1070
     1
1071
       49
1005
13A376
  0
LINE
  5
13A377
  8
OBJECT
 10
3966.0
 20
-1219.9999999999959
 30
0.0
 11
3966.0
 21
-1209.9999999999959
 31
0.0
1001
ACDBBLOCKREPETAG
1070
     1
1071
       50
1005
13A377
  0
LINE
  5
13A378
  8
OBJECT
 10
3956.0
 20
-1219.9999999999959
 30
0.0
 11
3956.0
 21
-1209.9999999999959
 31
0.0
1001
ACDBBLOCKREPETAG
1070
     1
1071
       51
1005
13A378
  0
LINE
  5
13A379
  8
OBJECT
 10
3951.9999999999932
 20
-1189.9999999999959
 30
0.0
 11
3951.9999999999932
 21
-1194.9999999999959
 31
0.0
1001
ACDBBLOCKREPETAG
1070
     1
1071
       52
1005
13A379
  0
LINE
  5
13A37A
  8
OBJECT
 10
3956.0
 20
-1241.9999999999959
 30
0.0
 11
3956.0
 21
-1244.9999999999959
 31
0.0
1001
ACDBBLOCKREPETAG
1070
     1
1071
       53
1005
13A37A
  0
LINE
  5
13A37B
  8
OBJECT
 10
3956.0
 20
-1244.9999999999959
 30
0.0
 11
3966.0
 21
-1244.9999999999959
 31
0.0
1001
ACDBBLOCKREPETAG
1070
     1
1071
       54
1005
13A37B
  0
LINE
  5
13A37C
  8
OBJECT
 10
3951.185045423772
 20
-1241.9999999999959
 30
0.0
 11
3970.8149545762212
 21
-1241.9999999999959
 31
0.0
1001
ACDBBLOCKREPETAG
1070
     1
1071
       55
1005
13A37C
  0
LINE
  5
13A37D
  8
OBJECT
 10
3966.0
 20
-1244.9999999999959
 30
0.0
 11
3966.0
 21
-1241.9999999999959
 31
0.0
1001
ACDBBLOCKREPETAG
1070
     1
1071
       56
1005
13A37D
  0
LINE
  5
13A37E
  8
OBJECT
 10
3976.0
 20
-1192.9999999999959
 30
0.0
 11
3968.5
 21
-1189.9999999999959
 31
0.0
1001
ACDBBLOCKREPETAG
1070
     1
1071
       57
1005
13A37E
  0
LINE
  5
13A37F
  8
OBJECT
 10
3951.185045423777
 20
-1233.9999999999959
 30
0.0
 11
3951.185045423777
 21
-1241.9999999999959
 31
0.0
1001
ACDBBLOCKREPETAG
1070
     1
1071
      630
1005
13A37F
  0
LINE
  5
13A380
  8
OBJECT
 10
3956.0925227118901
 20
-1233.9999999999959
 30
0.0
 11
3956.0925227118901
 21
-1241.9999999999959
 31
0.0
1001
ACDBBLOCKREPETAG
1070
     1
1071
      631
1005
13A380
  0
LINE
  5
13A381
  8
OBJECT
 10
3965.9074772881122
 20
-1233.9999999999959
 30
0.0
 11
3965.9074772881122
 21
-1241.9999999999959
 31
0.0
1001
ACDBBLOCKREPETAG
1070
     1
1071
      632
1005
13A381
  0
LINE
  5
13A382
  8
OBJECT
 10
3970.814954576223
 20
-1233.9999999999959
 30
0.0
 11
3970.814954576223
 21
-1241.9999999999959
 31
0.0
1001
ACDBBLOCKREPETAG
1070
     1
1071
      633
1005
13A382
  0
LINE
  5
13A383
  8
OBJECT
 10
4068.185045423772
 20
-1241.9999999999959
 30
0.0
 11
4087.8149545762199
 21
-1241.9999999999959
 31
0.0
1001
ACDBBLOCKREPETAG
1070
     1
1071
      634
1005
13A383
  0
LINE
  5
13A384
  8
OBJECT
 10
4068.185045423777
 20
-1233.9999999999959
 30
0.0
 11
4068.185045423777
 21
-1241.9999999999959
 31
0.0
1001
ACDBBLOCKREPETAG
1070
     1
1071
      635
1005
13A384
  0
LINE
  5
13A385
  8
OBJECT
 10
4073.0925227118869
 20
-1233.9999999999959
 30
0.0
 11
4073.0925227118869
 21
-1241.9999999999959
 31
0.0
1001
ACDBBLOCKREPETAG
1070
     1
1071
      636
1005
13A385
  0
LINE
  5
13A386
  8
OBJECT
 10
4082.9074772881122
 20
-1233.9999999999959
 30
0.0
 11
4082.9074772881122
 21
-1241.9999999999959
 31
0.0
1001
ACDBBLOCKREPETAG
1070
     1
1071
      637
1005
13A386
  0
LINE
  5
13A387
  8
OBJECT
 10
4087.814954576223
 20
-1233.9999999999959
 30
0.0
 11
4087.814954576223
 21
-1241.9999999999959
 31
0.0
1001
ACDBBLOCKREPETAG
1070
     1
1071
      638
1005
13A387
  0
LINE
  5
13A388
  8
OBJECT
 10
1943.0
 20
-1209.9999999999959
 30
0.0
 11
2057.0
 21
-1209.9999999999959
 31
0.0
1001
ACDBBLOCKREPETAG
1070
     1
1071
        0
1005
13A388
  0
LINE
  5
13A389
  8
OBJECT
 10
1943.0
 20
-1209.9999999999959
 30
0.0
 11
1943.0
 21
-1109.9999999999959
 31
0.0
1001
ACDBBLOCKREPETAG
1070
     1
1071
        1
1005
13A389
  0
LINE
  5
13A38A
  8
OBJECT
 10
2057.0
 20
-1209.9999999999959
 30
0.0
 11
2057.0
 21
-1109.9999999999959
 31
0.0
1001
ACDBBLOCKREPETAG
1070
     1
1071
        2
1005
13A38A
  0
LINE
  5
13A38B
  8
OBJECT
 10
1943.0
 20
-1109.9999999999959
 30
0.0
 11
2057.0
 21
-1109.9999999999959
 31
0.0
1001
ACDBBLOCKREPETAG
1070
     1
1071
        3
1005
13A38B
  0
LINE
  5
13A38C
  8
HIDDEN
 10
1950.0
 20
-1109.9999999999959
 30
0.0
 11
1950.0
 21
-1209.9999999999959
 31
0.0
1001
ACDBBLOCKREPETAG
1070
     1
1071
        4
1005
13A38C
  0
LINE
  5
13A38D
  8
HIDDEN
 10
2050.0
 20
-1109.9999999999959
 30
0.0
 11
2050.0
 21
-1209.9999999999959
 31
0.0
1001
ACDBBLOCKREPETAG
1070
     1
1071
        5
1005
13A38D
  0
LINE
  5
13A38E
  8
CENTER
 10
2000.0
 20
-899.99999999999955
 30
0.0
 11
2000.0
 21
-1224.9999999999959
 31
0.0
1001
ACDBBLOCKREPETAG
1070
     1
1071
        6
1005
13A38E
  0
LINE
  5
13A38F
  8
OBJECT
 10
1925.0
 20
-899.99999999999955
 30
0.0
 11
1925.0
 21
-981.99999999999613
 31
0.0
1001
ACDBBLOCKREPETAG
1070
     1
1071
        7
1005
13A38F
  0
LINE
  5
13A390
  8
OBJECT
 10
2075.0
 20
-899.99999999999955
 30
0.0
 11
2075.0
 21
-981.99999999999613
 31
0.0
1001
ACDBBLOCKREPETAG
1070
     1
1071
        8
1005
13A390
  0
LINE
  5
13A391
  8
OBJECT
 10
1925.0
 20
-981.99999999999613
 30
0.0
 11
2075.0
 21
-981.99999999999613
 31
0.0
1001
ACDBBLOCKREPETAG
1070
     1
1071
        9
1005
13A391
  0
LINE
  5
13A392
  8
OBJECT
 10
1925.0
 20
-981.99999999999613
 30
0.0
 11
1943.0
 21
-1109.9999999999959
 31
0.0
1001
ACDBBLOCKREPETAG
1070
     1
1071
       10
1005
13A392
  0
LINE
  5
13A393
  8
OBJECT
 10
2057.0
 20
-1109.9999999999959
 30
0.0
 11
2075.0
 21
-981.99999999999613
 31
0.0
1001
ACDBBLOCKREPETAG
1070
     1
1071
       11
1005
13A393
  0
LINE
  5
13A394
  8
OBJECT
 10
2212.999999999985
 20
-553.0000000000008
 30
0.0
 11
2219.999999999985
 21
-553.0000000000008
 31
0.0
1001
ACDBBLOCKREPETAG
1070
     1
1071
      106
1005
13A394
  0
LINE
  5
13A395
  8
OBJECT
 10
2219.999999999985
 20
-553.0000000000008
 30
0.0
 11
2219.999999999985
 21
-677.0000000000008
 31
0.0
1001
ACDBBLOCKREPETAG
1070
     1
1071
      107
1005
13A395
  0
LINE
  5
13A396
  8
OBJECT
 10
2085.9999999999859
 20
-653.3502637757274
 30
0.0
 11
2085.9999999999859
 21
-755.00000000000102
 31
0.0
1001
ACDBBLOCKREPETAG
1070
     1
1071
      108
1005
13A396
  0
LINE
  5
13A397
  8
OBJECT
 10
2219.999999999985
 20
-677.0000000000008
 30
0.0
 11
2212.999999999985
 21
-677.0000000000008
 31
0.0
1001
ACDBBLOCKREPETAG
1070
     1
1071
      109
1005
13A397
  0
LINE
  5
13A398
  8
OBJECT
 10
2212.999999999985
 20
-677.0000000000008
 30
0.0
 11
2212.999999999985
 21
-553.0000000000008
 31
0.0
1001
ACDBBLOCKREPETAG
1070
     1
1071
      110
1005
13A398
  0
LINE
  5
13A399
  8
CENTER
 10
2144.999999999985
 20
-615.0000000000008
 30
0.0
 11
2234.9999999999859
 21
-615.0000000000008
 31
0.0
1001
ACDBBLOCKREPETAG
1070
     1
1071
      111
1005
13A399
  0
LINE
  5
13A39A
  8
OBJECT
 10
2079.9999999999809
 20
-758.0
 30
0.0
 11
2082.999999999985
 21
-758.0000000000008
 31
0.0
1001
ACDBBLOCKREPETAG
1070
     1
1071
      112
1005
13A39A
  0
ARC
  5
13A39B
  8
OBJECT
 10
2082.999999999985
 20
-755.00000000000102
 30
0.0
 40
3.0
 50
270.0
 51
0.0
1001
ACDBBLOCKREPETAG
1070
     1
1071
      113
1005
13A39B
  0
LINE
  5
13A39C
  8
OBJECT
 10
2212.999999999985
 20
-556.0000000000008
 30
0.0
 11
2176.999999999985
 21
-556.0000000000008
 31
0.0
1001
ACDBBLOCKREPETAG
1070
     1
1071
      114
1005
13A39C
  0
LINE
  5
13A39D
  8
OBJECT
 10
2176.999999999985
 20
-556.0000000000008
 30
0.0
 11
2176.999999999985
 21
-653.15756805667843
 31
0.0
1001
ACDBBLOCKREPETAG
1070
     1
1071
      115
1005
13A39D
  0
LINE
  5
13A39E
  8
OBJECT
 10
2172.999999999985
 20
-560.5000000000008
 30
0.0
 11
2172.9999999999818
 21
-645.74491827928705
 31
0.0
1001
ACDBBLOCKREPETAG
1070
     1
1071
      116
1005
13A39E
  0
LINE
  5
13A39F
  8
OBJECT
 10
2172.999999999985
 20
-560.5000000000008
 30
0.0
 11
2159.999999999985
 21
-560.5000000000008
 31
0.0
1001
ACDBBLOCKREPETAG
1070
     1
1071
      117
1005
13A39F
  0
LINE
  5
13A3A0
  8
OBJECT
 10
2168.6563168254688
 20
-674.0000000000008
 30
0.0
 11
2212.999999999985
 21
-674.0000000000008
 31
0.0
1001
ACDBBLOCKREPETAG
1070
     1
1071
      118
1005
13A3A0
  0
LINE
  5
13A3A1
  8
OBJECT
 10
2176.999999999985
 20
-556.0000000000008
 30
0.0
 11
2172.999999999985
 21
-560.5000000000008
 31
0.0
1001
ACDBBLOCKREPETAG
1070
     1
1071
      119
1005
13A3A1
  0
LINE
  5
13A3A2
  8
OBJECT
 10
2159.999999999985
 20
-560.5000000000008
 30
0.0
 11
2159.999999999985
 21
-645.74491827928784
 31
0.0
1001
ACDBBLOCKREPETAG
1070
     1
1071
      120
1005
13A3A2
  0
ARC
  5
13A3A3
  8
OBJECT
 10
2091.9999999999859
 20
-637.27386365609345
 30
0.0
 40
85.0
 50
308.59099323720869
 51
334.40086127812339
1001
ACDBBLOCKREPETAG
1070
     1
1071
      121
1005
13A3A3
  0
ARC
  5
13A3A4
  8
OBJECT
 10
2162.7999999999852
 20
-655.00000000000068
 30
0.0
 40
85.0
 50
91.887731891831123
 51
160.07406787456929
1001
ACDBBLOCKREPETAG
1070
     1
1071
      122
1005
13A3A4
  0
LINE
  5
13A3A5
  8
OBJECT
 10
2085.9999999999859
 20
-750.81075719270905
 30
0.0
 11
2145.0193225436019
 21
-703.71143914629454
 31
0.0
1001
ACDBBLOCKREPETAG
1070
     1
1071
      123
1005
13A3A5
  0
LINE
  5
13A3A6
  8
OBJECT
 10
2172.9999999999818
 20
-645.74491827928705
 30
0.0
 11
2159.999999999985
 21
-645.74491827928784
 31
0.0
1001
ACDBBLOCKREPETAG
1070
     1
1071
      124
1005
13A3A6
  0
LINE
  5
13A3A7
  8
OBJECT
 10
2176.999999999985
 20
-653.15756805667843
 30
0.0
 11
2172.9999999999818
 21
-645.74491827928705
 31
0.0
1001
ACDBBLOCKREPETAG
1070
     1
1071
      125
1005
13A3A7
  0
LINE
  5
13A3A8
  8
OBJECT
 10
2080.0000000000191
 20
-634.0
 30
0.0
 11
2082.8886121596229
 21
-626.03156729425325
 31
0.0
1001
ACDBBLOCKREPETAG
1070
     1
1071
      126
1005
13A3A8
  0
LINE
  5
13A3A9
  8
OBJECT
 10
2080.0000000000191
 20
-634.0
 30
0.0
 11
2085.9999999999859
 21
-653.3502637757274
 31
0.0
1001
ACDBBLOCKREPETAG
1070
     1
1071
      127
1005
13A3A9
  0
LINE
  5
13A3AA
  8
HIDDEN
 10
2167.999999999985
 20
-570.5000000000008
 30
0.0
 11
2167.999999999985
 21
-659.50000000000068
 31
0.0
1001
ACDBBLOCKREPETAG
1070
     1
1071
      129
1005
13A3AA
  0
LINE
  5
13A3AB
  8
OBJECT
 10
2212.999999999985
 20
-137.99999999999909
 30
0.0
 11
2219.999999999985
 21
-137.99999999999909
 31
0.0
1001
ACDBBLOCKREPETAG
1070
     1
1071
      110
1005
13A3AB
  0
LINE
  5
13A3AC
  8
OBJECT
 10
2219.999999999985
 20
-137.99999999999909
 30
0.0
 11
2219.999999999985
 21
-261.99999999999909
 31
0.0
1001
ACDBBLOCKREPETAG
1070
     1
1071
      111
1005
13A3AC
  0
LINE
  5
13A3AD
  8
OBJECT
 10
2219.999999999985
 20
-261.99999999999909
 30
0.0
 11
2212.999999999985
 21
-261.99999999999909
 31
0.0
1001
ACDBBLOCKREPETAG
1070
     1
1071
      112
1005
13A3AD
  0
LINE
  5
13A3AE
  8
OBJECT
 10
2212.999999999985
 20
-261.99999999999909
 30
0.0
 11
2212.999999999985
 21
-137.99999999999909
 31
0.0
1001
ACDBBLOCKREPETAG
1070
     1
1071
      113
1005
13A3AE
  0
LINE
  5
13A3AF
  8
CENTER
 10
2234.9999999999859
 20
-199.99999999999909
 30
0.0
 11
2080.0000000000041
 21
-199.99999999999909
 31
0.0
1001
ACDBBLOCKREPETAG
1070
     1
1071
      114
1005
13A3AF
  0
LINE
  5
13A3B0
  8
OBJECT
 10
2159.999974964187
 20
-245.0000000000027
 30
0.0
 11
2086.0
 21
-244.99999999999909
 31
0.0
1001
ACDBBLOCKREPETAG
1070
     1
1071
      115
1005
13A3B0
  0
LINE
  5
13A3B1
  8
OBJECT
 10
2159.999974964187
 20
-154.99999999999909
 30
0.0
 11
2086.0
 21
-154.99999999999909
 31
0.0
1001
ACDBBLOCKREPETAG
1070
     1
1071
      116
1005
13A3B1
  0
LINE
  5
13A3B2
  8
OBJECT
 10
2212.999999999985
 20
-140.99999999999909
 30
0.0
 11
2176.999999999985
 21
-140.99999999999909
 31
0.0
1001
ACDBBLOCKREPETAG
1070
     1
1071
      117
1005
13A3B2
  0
LINE
  5
13A3B3
  8
OBJECT
 10
2176.999999999985
 20
-140.99999999999909
 30
0.0
 11
2176.999999999985
 21
-258.99999999999909
 31
0.0
1001
ACDBBLOCKREPETAG
1070
     1
1071
      118
1005
13A3B3
  0
LINE
  5
13A3B4
  8
OBJECT
 10
2176.999999999985
 20
-258.99999999999909
 30
0.0
 11
2212.999999999985
 21
-258.99999999999909
 31
0.0
1001
ACDBBLOCKREPETAG
1070
     1
1071
      119
1005
13A3B4
  0
LINE
  5
13A3B5
  8
OBJECT
 10
2172.999999999985
 20
-145.49999999999909
 30
0.0
 11
2159.999999999985
 21
-145.49999999999909
 31
0.0
1001
ACDBBLOCKREPETAG
1070
     1
1071
      120
1005
13A3B5
  0
LINE
  5
13A3B6
  8
OBJECT
 10
2159.999999999985
 20
-254.49999999999909
 30
0.0
 11
2172.999999999985
 21
-254.49999999999909
 31
0.0
1001
ACDBBLOCKREPETAG
1070
     1
1071
      121
1005
13A3B6
  0
LINE
  5
13A3B7
  8
OBJECT
 10
2172.999999999985
 20
-254.49999999999909
 30
0.0
 11
2172.999999999985
 21
-145.49999999999909
 31
0.0
1001
ACDBBLOCKREPETAG
1070
     1
1071
      122
1005
13A3B7
  0
LINE
  5
13A3B8
  8
OBJECT
 10
2176.999999999985
 20
-140.99999999999909
 30
0.0
 11
2172.999999999985
 21
-145.49999999999909
 31
0.0
1001
ACDBBLOCKREPETAG
1070
     1
1071
      123
1005
13A3B8
  0
LINE
  5
13A3B9
  8
OBJECT
 10
2176.999999999985
 20
-258.99999999999909
 30
0.0
 11
2172.999999999985
 21
-254.49999999999909
 31
0.0
1001
ACDBBLOCKREPETAG
1070
     1
1071
      124
1005
13A3B9
  0
LINE
  5
13A3BA
  8
OBJECT
 10
2083.0
 20
-137.99999999999909
 30
0.0
 11
2080.0
 21
-137.99999999999909
 31
0.0
1001
ACDBBLOCKREPETAG
1070
     1
1071
      125
1005
13A3BA
  0
ARC
  5
13A3BB
  8
OBJECT
 10
2083.0
 20
-140.99999999999909
 30
0.0
 40
3.0
 50
0.0
 51
90.0
1001
ACDBBLOCKREPETAG
1070
     1
1071
      126
1005
13A3BB
  0
LINE
  5
13A3BC
  8
OBJECT
 10
2080.0
 20
-261.99999999999909
 30
0.0
 11
2083.0
 21
-261.99999999999909
 31
0.0
1001
ACDBBLOCKREPETAG
1070
     1
1071
      127
1005
13A3BC
  0
ARC
  5
13A3BD
  8
OBJECT
 10
2083.0
 20
-258.99999999999909
 30
0.0
 40
3.0
 50
270.0
 51
0.0
1001
ACDBBLOCKREPETAG
1070
     1
1071
      128
1005
13A3BD
  0
LINE
  5
13A3BE
  8
OBJECT
 10
2086.0
 20
-258.99999999999909
 30
0.0
 11
2086.0
 21
-222.44994432063581
 31
0.0
1001
ACDBBLOCKREPETAG
1070
     1
1071
      129
1005
13A3BE
  0
LINE
  5
13A3BF
  8
OBJECT
 10
2086.0
 20
-177.55005567935859
 30
0.0
 11
2086.0
 21
-140.99999999999909
 31
0.0
1001
ACDBBLOCKREPETAG
1070
     1
1071
      130
1005
13A3BF
  0
LINE
  5
13A3C0
  8
HIDDEN
 10
2167.999999999985
 20
-155.49999999999909
 30
0.0
 11
2167.999999999985
 21
-244.49999999999909
 31
0.0
1001
ACDBBLOCKREPETAG
1070
     1
1071
      131
1005
13A3C0
  0
LINE
  5
13A3C1
  8
OBJECT
 10
2159.999974964187
 20
-254.4999509238105
 30
0.0
 11
2159.999974964187
 21
-145.4999509238105
 31
0.0
1001
ACDBBLOCKREPETAG
1070
     1
1071
      133
1005
13A3C1
  0
ARC
  5
13A3C2
  8
OBJECT
 10
2125.0000000000032
 20
-199.99999999999909
 30
0.0
 40
45.000000000000547
 50
90.0
 51
166.2158024759261
1001
ACDBBLOCKREPETAG
1070
     1
1071
      134
1005
13A3C2
  0
ARC
  5
13A3C3
  8
OBJECT
 10
2125.0000000000032
 20
-199.99999999999909
 30
0.0
 40
45.000000000000547
 50
193.78421279332531
 51
270.0
1001
ACDBBLOCKREPETAG
1070
     1
1071
      402
1005
13A3C3
  0
TEXT
  5
13A3C4
  8
SLIM
 10
0.0
 20
670.0
 30
0.0
 40
100.0
  1
4HF-Z606-P140-S
 41
0.75
  0
TEXT
  5
13A3C5
  8
SLIM
 10
0.0
 20
520.0
 30
0.0
 40
100.0
  1
4HF-Z606-P140-W
 41
0.75
  0
LINE
  5
13A3C6
  8
CENTER
 10
12091.0
 20
-1483.9999999999959
 30
0.0
 11
11895.0
 21
-1483.9999999999959
 31
0.0
1001
ACDBBLOCKREPETAG
1070
     1
1071
       10
1005
13A3C6
  0
LINE
  5
13A3C7
  8
CENTER
 10
12000.0
 20
-1575.274664429212
 30
0.0
 11
12000.0
 21
-1392.725335570779
 31
0.0
1001
ACDBBLOCKREPETAG
1070
     1
1071
       11
1005
13A3C7
  0
CIRCLE
  5
13A3C8
  8
OBJECT
 10
12000.0
 20
-1483.9999999999959
 30
0.0
 40
50.0
1001
ACDBBLOCKREPETAG
1070
     1
1071
       12
1005
13A3C8
  0
CIRCLE
  5
13A3C9
  8
OBJECT
 10
12000.0
 20
-1483.9999999999959
 30
0.0
 40
60.0
1001
ACDBBLOCKREPETAG
1070
     1
1071
       13
1005
13A3C9
  0
CIRCLE
  5
13A3CA
  8
OBJECT
 10
12000.0
 20
-1483.9999999999959
 30
0.0
 40
68.0
1001
ACDBBLOCKREPETAG
1070
     1
1071
       14
1005
13A3CA
  0
ARC
  5
13A3CB
  8
OBJECT
 10
11922.5
 20
-1483.9999999999959
 30
0.0
 40
12.0
 50
92.105426272216135
 51
267.89457372778372
1001
ACDBBLOCKREPETAG
1070
     1
1071
       15
1005
13A3CB
  0
ARC
  5
13A3CC
  8
OBJECT
 10
11921.508064516131
 20
-1510.9817728104681
 30
0.0
 40
15.0
 50
18.97051877965265
 51
87.894573727783893
1001
ACDBBLOCKREPETAG
1070
     1
1071
       16
1005
13A3CC
  0
ARC
  5
13A3CD
  8
OBJECT
 10
11921.508064516131
 20
-1457.018227189528
 30
0.0
 40
15.0
 50
272.10542627221611
 51
341.02948122034741
1001
ACDBBLOCKREPETAG
1070
     1
1071
       17
1005
13A3CD
  0
CIRCLE
  5
13A3CE
  8
SLIM
 10
11922.0
 20
-1483.9999999999959
 30
0.0
 40
8.0
1001
ACDBBLOCKREPETAG
1070
     1
1071
       18
1005
13A3CE
  0
POLYLINE
  5
13A3CF
  8
SLIM
 66
     1
 10
0.0
 20
0.0
 30
0.0
 70
     1
1001
ACDBBLOCKREPETAG
1070
     1
1071
       19
1005
13A3CF
  0
VERTEX
  5
13A5AD
  8
SLIM
 10
11924.30940107676
 20
-1487.9999999999959
 30
0.0
  0
VERTEX
  5
13A5AE
  8
SLIM
 10
11926.61880215352
 20
-1483.9999999999959
 30
0.0
  0
VERTEX
  5
13A5AF
  8
SLIM
 10
11924.30940107676
 20
-1479.9999999999959
 30
0.0
  0
VERTEX
  5
13A5B0
  8
SLIM
 10
11919.69059892324
 20
-1479.9999999999959
 30
0.0
  0
VERTEX
  5
13A5B1
  8
SLIM
 10
11917.381197846489
 20
-1483.9999999999959
 30
0.0
  0
VERTEX
  5
13A5B2
  8
SLIM
 10
11919.69059892324
 20
-1487.9999999999959
 30
0.0
  0
SEQEND
  5
13A5B3
  8
SLIM
  0
ARC
  5
13A3D0
  8
OBJECT
 10
12038.75
 20
-1551.116968793292
 30
0.0
 40
12.0
 50
212.10542627213019
 51
27.89457372768311
1001
ACDBBLOCKREPETAG
1070
     1
1071
       20
1005
13A3D0
  0
ARC
  5
13A3D1
  8
OBJECT
 10
12062.612868434941
 20
-1538.485123716003
 30
0.0
 40
15.0
 50
138.97051877944759
 51
207.89457372768319
1001
ACDBBLOCKREPETAG
1070
     1
1071
       21
1005
13A3D1
  0
ARC
  5
13A3D2
  8
OBJECT
 10
12015.879067048931
 20
-1565.466896526475
 30
0.0
 40
15.0
 50
32.105426272130188
 51
101.0294812204407
1001
ACDBBLOCKREPETAG
1070
     1
1071
       22
1005
13A3D2
  0
CIRCLE
  5
13A3D3
  8
SLIM
 10
12039.0
 20
-1551.549981495182
 30
0.0
 40
7.9999999999999982
1001
ACDBBLOCKREPETAG
1070
     1
1071
       23
1005
13A3D3
  0
POLYLINE
  5
13A3D4
  8
SLIM
 66
     1
 10
0.0
 20
0.0
 30
0.0
 70
     1
1001
ACDBBLOCKREPETAG
1070
     1
1071
       24
1005
13A3D4
  0
VERTEX
  5
13A5B4
  8
SLIM
 10
12041.30940107676
 20
-1547.5499814951829
 30
0.0
  0
VERTEX
  5
13A5B5
  8
SLIM
 10
12036.69059892324
 20
-1547.5499814951829
 30
0.0
  0
VERTEX
  5
13A5B6
  8
SLIM
 10
12034.381197846489
 20
-1551.549981495182
 30
0.0
  0
VERTEX
  5
13A5B7
  8
SLIM
 10
12036.69059892324
 20
-1555.5499814951829
 30
0.0
  0
VERTEX
  5
13A5B8
  8
SLIM
 10
12041.30940107676
 20
-1555.5499814951829
 30
0.0
  0
VERTEX
  5
13A5B9
  8
SLIM
 10
12043.61880215352
 20
-1551.549981495182
 30
0.0
  0
SEQEND
  5
13A5BA
  8
SLIM
  0
ARC
  5
13A3D5
  8
OBJECT
 10
12038.75
 20
-1416.883031206703
 30
0.0
 40
12.0
 50
332.10542627231678
 51
147.89457372786981
1001
ACDBBLOCKREPETAG
1070
     1
1071
       25
1005
13A3D5
  0
ARC
  5
13A3D6
  8
OBJECT
 10
12015.879067048931
 20
-1402.53310347352
 30
0.0
 40
15.0
 50
258.97051877955931
 51
327.89457372786978
1001
ACDBBLOCKREPETAG
1070
     1
1071
       26
1005
13A3D6
  0
ARC
  5
13A3D7
  8
OBJECT
 10
12062.612868434941
 20
-1429.5148762839881
 30
0.0
 40
15.0
 50
152.10542627231681
 51
221.02948122055241
1001
ACDBBLOCKREPETAG
1070
     1
1071
       27
1005
13A3D7
  0
CIRCLE
  5
13A3D8
  8
SLIM
 10
12039.0
 20
-1416.4500185048089
 30
0.0
 40
8.0
1001
ACDBBLOCKREPETAG
1070
     1
1071
       28
1005
13A3D8
  0
POLYLINE
  5
13A3D9
  8
SLIM
 66
     1
 10
0.0
 20
0.0
 30
0.0
 70
     1
1001
ACDBBLOCKREPETAG
1070
     1
1071
       29
1005
13A3D9
  0
VERTEX
  5
13A5BB
  8
SLIM
 10
12034.381197846489
 20
-1416.4500185048121
 30
0.0
  0
VERTEX
  5
13A5BC
  8
SLIM
 10
12036.69059892324
 20
-1420.4500185048089
 30
0.0
  0
VERTEX
  5
13A5BD
  8
SLIM
 10
12041.30940107676
 20
-1420.4500185048121
 30
0.0
  0
VERTEX
  5
13A5BE
  8
SLIM
 10
12043.61880215352
 20
-1416.4500185048089
 30
0.0
  0
VERTEX
  5
13A5BF
  8
SLIM
 10
12041.30940107676
 20
-1412.4500185048121
 30
0.0
  0
VERTEX
  5
13A5C0
  8
SLIM
 10
12036.69059892324
 20
-1412.4500185048089
 30
0.0
  0
SEQEND
  5
13A5C1
  8
SLIM
  0
ARC
  5
13A3DA
  8
OBJECT
 10
12000.0
 20
-1483.9999999999959
 30
0.0
 40
76.0
 50
214.8638379541718
 51
265.13616204573287
1001
ACDBBLOCKREPETAG
1070
     1
1071
       42
1005
13A3DA
  0
ARC
  5
13A3DB
  8
OBJECT
 10
12000.0
 20
-1483.9999999999959
 30
0.0
 40
76.0
 50
334.86383795430942
 51
25.136162045690561
1001
ACDBBLOCKREPETAG
1070
     1
1071
       43
1005
13A3DB
  0
ARC
  5
13A3DC
  8
OBJECT
 10
12000.0
 20
-1483.9999999999959
 30
0.0
 40
76.0
 50
94.863837954267041
 51
145.13616204582809
1001
ACDBBLOCKREPETAG
1070
     1
1071
       44
1005
13A3DC
  0
ARC
  5
13A3DD
  8
OBJECT
 10
11922.0
 20
-1483.9999999999959
 30
0.0
 40
12.0
 50
145.13616204582809
 51
214.8638379541718
1001
ACDBBLOCKREPETAG
1070
     1
1071
       45
1005
13A3DD
  0
LINE
  5
13A3DE
  8
OBJECT
 10
11912.153846153829
 20
-1490.8595374798581
 30
0.0
 11
11937.641025640951
 21
-1527.443737372457
 31
0.0
1001
ACDBBLOCKREPETAG
1070
     1
1071
       46
1005
13A3DE
  0
LINE
  5
13A3DF
  8
OBJECT
 10
11912.153846153829
 20
-1477.1404625201351
 30
0.0
 11
11937.641025640951
 21
-1440.556262627533
 31
0.0
1001
ACDBBLOCKREPETAG
1070
     1
1071
       47
1005
13A3DF
  0
ARC
  5
13A3E0
  8
OBJECT
 10
12039.0
 20
-1551.5499814951811
 30
0.0
 40
12.0
 50
265.13616204594291
 51
334.86383795410012
1001
ACDBBLOCKREPETAG
1070
     1
1071
       48
1005
13A3E0
  0
LINE
  5
13A3E1
  8
OBJECT
 10
12049.863610638849
 20
-1556.6472321156009
 30
0.0
 11
12068.802867379411
 21
-1516.2825872626449
 31
0.0
1001
ACDBBLOCKREPETAG
1070
     1
1071
       49
1005
13A3E1
  0
LINE
  5
13A3E2
  8
OBJECT
 10
12037.98254320731
 20
-1563.5067695954649
 30
0.0
 11
11993.556106979629
 21
-1559.726324635106
 31
0.0
1001
ACDBBLOCKREPETAG
1070
     1
1071
       50
1005
13A3E2
  0
ARC
  5
13A3E3
  8
OBJECT
 10
12039.0
 20
-1416.45001850481
 30
0.0
 40
12.0
 50
25.136162045899951
 51
94.863837954057146
1001
ACDBBLOCKREPETAG
1070
     1
1071
       51
1005
13A3E3
  0
LINE
  5
13A3E4
  8
OBJECT
 10
12037.98254320731
 20
-1404.493230404528
 30
0.0
 11
11993.556106979629
 21
-1408.2736753648851
 31
0.0
1001
ACDBBLOCKREPETAG
1070
     1
1071
       52
1005
13A3E4
  0
LINE
  5
13A3E5
  8
OBJECT
 10
12049.863610638849
 20
-1411.352767884387
 30
0.0
 11
12068.80286737942
 21
-1451.717412737348
 31
0.0
1001
ACDBBLOCKREPETAG
1070
     1
1071
       53
1005
13A3E5
  0
LINE
  5
13A3E6
  8
CENTER
 10
9909.0
 20
-1483.9999999999959
 30
0.0
 11
10105.0
 21
-1483.9999999999959
 31
0.0
1001
ACDBBLOCKREPETAG
1070
     1
1071
        0
1005
13A3E6
  0
LINE
  5
13A3E7
  8
CENTER
 10
10000.0
 20
-1575.274664429212
 30
0.0
 11
10000.0
 21
-1392.725335570779
 31
0.0
1001
ACDBBLOCKREPETAG
1070
     1
1071
        1
1005
13A3E7
  0
CIRCLE
  5
13A3E8
  8
OBJECT
 10
10000.0
 20
-1483.9999999999959
 30
0.0
 40
50.0
1001
ACDBBLOCKREPETAG
1070
     1
1071
        2
1005
13A3E8
  0
CIRCLE
  5
13A3E9
  8
OBJECT
 10
10000.0
 20
-1483.9999999999959
 30
0.0
 40
62.0
1001
ACDBBLOCKREPETAG
1070
     1
1071
        3
1005
13A3E9
  0
CIRCLE
  5
13A3EA
  8
SLIM
 10
9922.0
 20
-1483.9999999999959
 30
0.0
 40
5.0
1001
ACDBBLOCKREPETAG
1070
     1
1071
        4
1005
13A3EA
  0
POLYLINE
  5
13A3EB
  8
SLIM
 66
     1
 10
0.0
 20
0.0
 30
0.0
 70
     1
1001
ACDBBLOCKREPETAG
1070
     1
1071
        5
1005
13A3EB
  0
VERTEX
  5
13A5C2
  8
SLIM
 10
9926.907477288114
 20
-1492.4999999999959
 30
0.0
  0
VERTEX
  5
13A5C3
  8
SLIM
 10
9931.814954576228
 20
-1483.9999999999959
 30
0.0
  0
VERTEX
  5
13A5C4
  8
SLIM
 10
9926.907477288114
 20
-1475.4999999999959
 30
0.0
  0
VERTEX
  5
13A5C5
  8
SLIM
 10
9917.0925227118914
 20
-1475.4999999999959
 30
0.0
  0
VERTEX
  5
13A5C6
  8
SLIM
 10
9912.1850454237829
 20
-1483.9999999999959
 30
0.0
  0
VERTEX
  5
13A5C7
  8
SLIM
 10
9917.0925227118914
 20
-1492.4999999999959
 30
0.0
  0
SEQEND
  5
13A5C8
  8
SLIM
  0
CIRCLE
  5
13A3EC
  8
SLIM
 10
10039.0
 20
-1551.549981495182
 30
0.0
 40
4.9999999999999991
1001
ACDBBLOCKREPETAG
1070
     1
1071
        6
1005
13A3EC
  0
POLYLINE
  5
13A3ED
  8
SLIM
 66
     1
 10
0.0
 20
0.0
 30
0.0
 70
     1
1001
ACDBBLOCKREPETAG
1070
     1
1071
        7
1005
13A3ED
  0
VERTEX
  5
13A5C9
  8
SLIM
 10
10043.90747728811
 20
-1543.049981495182
 30
0.0
  0
VERTEX
  5
13A5CA
  8
SLIM
 10
10034.092522711881
 20
-1543.049981495182
 30
0.0
  0
VERTEX
  5
13A5CB
  8
SLIM
 10
10029.185045423779
 20
-1551.549981495182
 30
0.0
  0
VERTEX
  5
13A5CC
  8
SLIM
 10
10034.092522711881
 20
-1560.0499814951829
 30
0.0
  0
VERTEX
  5
13A5CD
  8
SLIM
 10
10043.90747728811
 20
-1560.0499814951829
 30
0.0
  0
VERTEX
  5
13A5CE
  8
SLIM
 10
10048.81495457623
 20
-1551.549981495182
 30
0.0
  0
SEQEND
  5
13A5CF
  8
SLIM
  0
CIRCLE
  5
13A3EE
  8
SLIM
 10
10039.0
 20
-1416.4500185048089
 30
0.0
 40
5.0
1001
ACDBBLOCKREPETAG
1070
     1
1071
        8
1005
13A3EE
  0
POLYLINE
  5
13A3EF
  8
SLIM
 66
     1
 10
0.0
 20
0.0
 30
0.0
 70
     1
1001
ACDBBLOCKREPETAG
1070
     1
1071
        9
1005
13A3EF
  0
VERTEX
  5
13A5D0
  8
SLIM
 10
10029.185045423779
 20
-1416.4500185048089
 30
0.0
  0
VERTEX
  5
13A5D1
  8
SLIM
 10
10034.09252271189
 20
-1424.9500185048121
 30
0.0
  0
VERTEX
  5
13A5D2
  8
SLIM
 10
10043.90747728811
 20
-1424.9500185048089
 30
0.0
  0
VERTEX
  5
13A5D3
  8
SLIM
 10
10048.81495457623
 20
-1416.4500185048121
 30
0.0
  0
VERTEX
  5
13A5D4
  8
SLIM
 10
10043.90747728811
 20
-1407.9500185048089
 30
0.0
  0
VERTEX
  5
13A5D5
  8
SLIM
 10
10034.092522711881
 20
-1407.9500185048121
 30
0.0
  0
SEQEND
  5
13A5D6
  8
SLIM
  0
ARC
  5
13A3F0
  8
OBJECT
 10
10000.0
 20
-1483.9999999999959
 30
0.0
 40
76.0
 50
214.8638379541718
 51
265.13616204573287
1001
ACDBBLOCKREPETAG
1070
     1
1071
       30
1005
13A3F0
  0
ARC
  5
13A3F1
  8
OBJECT
 10
10000.0
 20
-1483.9999999999959
 30
0.0
 40
76.0
 50
334.86383795430942
 51
25.136162045690561
1001
ACDBBLOCKREPETAG
1070
     1
1071
       31
1005
13A3F1
  0
ARC
  5
13A3F2
  8
OBJECT
 10
10000.0
 20
-1483.9999999999959
 30
0.0
 40
76.0
 50
94.863837954267041
 51
145.13616204582809
1001
ACDBBLOCKREPETAG
1070
     1
1071
       32
1005
13A3F2
  0
ARC
  5
13A3F3
  8
OBJECT
 10
9922.0
 20
-1483.9999999999959
 30
0.0
 40
12.0
 50
145.13616204582809
 51
214.8638379541718
1001
ACDBBLOCKREPETAG
1070
     1
1071
       33
1005
13A3F3
  0
LINE
  5
13A3F4
  8
OBJECT
 10
9912.1538461538348
 20
-1490.8595374798581
 30
0.0
 11
9937.641025640949
 21
-1527.443737372457
 31
0.0
1001
ACDBBLOCKREPETAG
1070
     1
1071
       34
1005
13A3F4
  0
LINE
  5
13A3F5
  8
OBJECT
 10
9912.1538461538275
 20
-1477.1404625201351
 30
0.0
 11
9937.641025640949
 21
-1440.556262627533
 31
0.0
1001
ACDBBLOCKREPETAG
1070
     1
1071
       35
1005
13A3F5
  0
ARC
  5
13A3F6
  8
OBJECT
 10
10039.0
 20
-1551.5499814951811
 30
0.0
 40
12.0
 50
265.13616204594291
 51
334.86383795410012
1001
ACDBBLOCKREPETAG
1070
     1
1071
       36
1005
13A3F6
  0
LINE
  5
13A3F7
  8
OBJECT
 10
10049.86361063884
 20
-1556.6472321156009
 30
0.0
 11
10068.802867379411
 21
-1516.2825872626449
 31
0.0
1001
ACDBBLOCKREPETAG
1070
     1
1071
       37
1005
13A3F7
  0
LINE
  5
13A3F8
  8
OBJECT
 10
10037.98254320731
 20
-1563.5067695954649
 30
0.0
 11
9993.5561069796331
 21
-1559.726324635106
 31
0.0
1001
ACDBBLOCKREPETAG
1070
     1
1071
       38
1005
13A3F8
  0
ARC
  5
13A3F9
  8
OBJECT
 10
10039.0
 20
-1416.45001850481
 30
0.0
 40
12.0
 50
25.136162045899951
 51
94.863837954057146
1001
ACDBBLOCKREPETAG
1070
     1
1071
       39
1005
13A3F9
  0
LINE
  5
13A3FA
  8
OBJECT
 10
10037.98254320731
 20
-1404.493230404528
 30
0.0
 11
9993.5561069796368
 21
-1408.2736753648851
 31
0.0
1001
ACDBBLOCKREPETAG
1070
     1
1071
       40
1005
13A3FA
  0
LINE
  5
13A3FB
  8
OBJECT
 10
10049.86361063884
 20
-1411.352767884387
 30
0.0
 11
10068.80286737942
 21
-1451.717412737348
 31
0.0
1001
ACDBBLOCKREPETAG
1070
     1
1071
       41
1005
13A3FB
  0
LINE
  5
13A3FC
  8
CENTER
 10
6091.0
 20
-1524.9999999999991
 30
0.0
 11
5895.0
 21
-1524.9999999999991
 31
0.0
1001
ACDBBLOCKREPETAG
1070
     1
1071
       10
1005
13A3FC
  0
LINE
  5
13A3FD
  8
CENTER
 10
6000.0
 20
-1616.2746644292149
 30
0.0
 11
6000.0
 21
-1433.7253355707819
 31
0.0
1001
ACDBBLOCKREPETAG
1070
     1
1071
       11
1005
13A3FD
  0
CIRCLE
  5
13A3FE
  8
OBJECT
 10
6000.0
 20
-1524.9999999999991
 30
0.0
 40
50.0
1001
ACDBBLOCKREPETAG
1070
     1
1071
       12
1005
13A3FE
  0
CIRCLE
  5
13A3FF
  8
OBJECT
 10
6000.0
 20
-1524.9999999999991
 30
0.0
 40
60.0
1001
ACDBBLOCKREPETAG
1070
     1
1071
       13
1005
13A3FF
  0
CIRCLE
  5
13A400
  8
OBJECT
 10
6000.0
 20
-1524.9999999999991
 30
0.0
 40
68.0
1001
ACDBBLOCKREPETAG
1070
     1
1071
       14
1005
13A400
  0
ARC
  5
13A401
  8
OBJECT
 10
5922.5
 20
-1524.9999999999991
 30
0.0
 40
12.0
 50
92.105426272216135
 51
267.89457372778372
1001
ACDBBLOCKREPETAG
1070
     1
1071
       15
1005
13A401
  0
ARC
  5
13A402
  8
OBJECT
 10
5921.5080645161361
 20
-1551.9817728104711
 30
0.0
 40
15.0
 50
18.970518779635711
 51
87.894573727783893
1001
ACDBBLOCKREPETAG
1070
     1
1071
       16
1005
13A402
  0
ARC
  5
13A403
  8
OBJECT
 10
5921.5080645161361
 20
-1498.018227189531
 30
0.0
 40
15.0
 50
272.10542627221611
 51
341.02948122036429
1001
ACDBBLOCKREPETAG
1070
     1
1071
       17
1005
13A403
  0
CIRCLE
  5
13A404
  8
SLIM
 10
5922.0
 20
-1524.9999999999991
 30
0.0
 40
8.0
1001
ACDBBLOCKREPETAG
1070
     1
1071
       18
1005
13A404
  0
POLYLINE
  5
13A405
  8
SLIM
 66
     1
 10
0.0
 20
0.0
 30
0.0
 70
     1
1001
ACDBBLOCKREPETAG
1070
     1
1071
       19
1005
13A405
  0
VERTEX
  5
13A5D7
  8
SLIM
 10
5924.3094010767672
 20
-1528.9999999999991
 30
0.0
  0
VERTEX
  5
13A5D8
  8
SLIM
 10
5926.618802153519
 20
-1524.9999999999991
 30
0.0
  0
VERTEX
  5
13A5D9
  8
SLIM
 10
5924.3094010767672
 20
-1520.9999999999991
 30
0.0
  0
VERTEX
  5
13A5DA
  8
SLIM
 10
5919.6905989232482
 20
-1520.9999999999991
 30
0.0
  0
VERTEX
  5
13A5DB
  8
SLIM
 10
5917.3811978464882
 20
-1524.9999999999991
 30
0.0
  0
VERTEX
  5
13A5DC
  8
SLIM
 10
5919.6905989232482
 20
-1528.9999999999991
 30
0.0
  0
SEQEND
  5
13A5DD
  8
SLIM
  0
ARC
  5
13A406
  8
OBJECT
 10
6038.75
 20
-1592.116968793295
 30
0.0
 40
12.0
 50
212.1054262721579
 51
27.894573727707481
1001
ACDBBLOCKREPETAG
1070
     1
1071
       20
1005
13A406
  0
ARC
  5
13A407
  8
OBJECT
 10
6062.612868434946
 20
-1579.485123716006
 30
0.0
 40
15.0
 50
138.97051877944759
 51
207.89457372770741
1001
ACDBBLOCKREPETAG
1070
     1
1071
       21
1005
13A407
  0
ARC
  5
13A408
  8
OBJECT
 10
6015.8790670489307
 20
-1606.466896526478
 30
0.0
 40
15.0
 50
32.105426272157878
 51
101.0294812204407
1001
ACDBBLOCKREPETAG
1070
     1
1071
       22
1005
13A408
  0
CIRCLE
  5
13A409
  8
SLIM
 10
6039.0
 20
-1592.5499814951861
 30
0.0
 40
7.9999999999999982
1001
ACDBBLOCKREPETAG
1070
     1
1071
       23
1005
13A409
  0
POLYLINE
  5
13A40A
  8
SLIM
 66
     1
 10
0.0
 20
0.0
 30
0.0
 70
     1
1001
ACDBBLOCKREPETAG
1070
     1
1071
       24
1005
13A40A
  0
VERTEX
  5
13A5DE
  8
SLIM
 10
6041.30940107676
 20
-1588.5499814951861
 30
0.0
  0
VERTEX
  5
13A5DF
  8
SLIM
 10
6036.6905989232473
 20
-1588.5499814951861
 30
0.0
  0
VERTEX
  5
13A5E0
  8
SLIM
 10
6034.3811978464892
 20
-1592.5499814951861
 30
0.0
  0
VERTEX
  5
13A5E1
  8
SLIM
 10
6036.6905989232473
 20
-1596.5499814951861
 30
0.0
  0
VERTEX
  5
13A5E2
  8
SLIM
 10
6041.30940107676
 20
-1596.5499814951861
 30
0.0
  0
VERTEX
  5
13A5E3
  8
SLIM
 10
6043.6188021535199
 20
-1592.5499814951861
 30
0.0
  0
SEQEND
  5
13A5E4
  8
SLIM
  0
ARC
  5
13A40B
  8
OBJECT
 10
6038.75
 20
-1457.8830312067071
 30
0.0
 40
12.0
 50
332.1054262722925
 51
147.8945737278421
1001
ACDBBLOCKREPETAG
1070
     1
1071
       25
1005
13A40B
  0
ARC
  5
13A40C
  8
OBJECT
 10
6015.8790670489307
 20
-1443.5331034735229
 30
0.0
 40
15.0
 50
258.97051877955931
 51
327.89457372784221
1001
ACDBBLOCKREPETAG
1070
     1
1071
       26
1005
13A40C
  0
ARC
  5
13A40D
  8
OBJECT
 10
6062.612868434946
 20
-1470.514876283991
 30
0.0
 40
15.0
 50
152.1054262722925
 51
221.02948122055241
1001
ACDBBLOCKREPETAG
1070
     1
1071
       27
1005
13A40D
  0
CIRCLE
  5
13A40E
  8
SLIM
 10
6039.0
 20
-1457.4500185048121
 30
0.0
 40
8.0
1001
ACDBBLOCKREPETAG
1070
     1
1071
       28
1005
13A40E
  0
POLYLINE
  5
13A40F
  8
SLIM
 66
     1
 10
0.0
 20
0.0
 30
0.0
 70
     1
1001
ACDBBLOCKREPETAG
1070
     1
1071
       29
1005
13A40F
  0
VERTEX
  5
13A5E5
  8
SLIM
 10
6034.3811978464892
 20
-1457.450018504815
 30
0.0
  0
VERTEX
  5
13A5E6
  8
SLIM
 10
6036.6905989232473
 20
-1461.4500185048121
 30
0.0
  0
VERTEX
  5
13A5E7
  8
SLIM
 10
6041.30940107676
 20
-1461.450018504815
 30
0.0
  0
VERTEX
  5
13A5E8
  8
SLIM
 10
6043.6188021535199
 20
-1457.4500185048121
 30
0.0
  0
VERTEX
  5
13A5E9
  8
SLIM
 10
6041.3094010767672
 20
-1453.450018504815
 30
0.0
  0
VERTEX
  5
13A5EA
  8
SLIM
 10
6036.6905989232473
 20
-1453.4500185048121
 30
0.0
  0
SEQEND
  5
13A5EB
  8
SLIM
  0
ARC
  5
13A410
  8
OBJECT
 10
6000.0
 20
-1524.9999999999991
 30
0.0
 40
76.0
 50
214.8638379541421
 51
265.13616204573287
1001
ACDBBLOCKREPETAG
1070
     1
1071
       42
1005
13A410
  0
ARC
  5
13A411
  8
OBJECT
 10
6000.0
 20
-1524.9999999999991
 30
0.0
 40
76.0
 50
334.86383795430942
 51
25.136162045690561
1001
ACDBBLOCKREPETAG
1070
     1
1071
       43
1005
13A411
  0
ARC
  5
13A412
  8
OBJECT
 10
6000.0
 20
-1524.9999999999991
 30
0.0
 40
76.0
 50
94.863837954267041
 51
145.1361620458579
1001
ACDBBLOCKREPETAG
1070
     1
1071
       44
1005
13A412
  0
ARC
  5
13A413
  8
OBJECT
 10
5922.0
 20
-1524.9999999999991
 30
0.0
 40
12.0
 50
145.1361620458579
 51
214.8638379541421
1001
ACDBBLOCKREPETAG
1070
     1
1071
       45
1005
13A413
  0
LINE
  5
13A414
  8
OBJECT
 10
5912.153846153833
 20
-1531.859537479861
 30
0.0
 11
5937.641025640949
 21
-1568.44373737246
 31
0.0
1001
ACDBBLOCKREPETAG
1070
     1
1071
       46
1005
13A414
  0
LINE
  5
13A415
  8
OBJECT
 10
5912.1538461538294
 20
-1518.140462520138
 30
0.0
 11
5937.641025640949
 21
-1481.5562626275359
 31
0.0
1001
ACDBBLOCKREPETAG
1070
     1
1071
       47
1005
13A415
  0
ARC
  5
13A416
  8
OBJECT
 10
6039.0
 20
-1592.5499814951841
 30
0.0
 40
12.0
 50
265.13616204594291
 51
334.86383795410012
1001
ACDBBLOCKREPETAG
1070
     1
1071
       48
1005
13A416
  0
LINE
  5
13A417
  8
OBJECT
 10
6049.8636106388549
 20
-1597.6472321156041
 30
0.0
 11
6068.8028673794142
 21
-1557.2825872626479
 31
0.0
1001
ACDBBLOCKREPETAG
1070
     1
1071
       49
1005
13A417
  0
LINE
  5
13A418
  8
OBJECT
 10
6037.9825432073158
 20
-1604.5067695954681
 30
0.0
 11
5993.5561069796322
 21
-1600.726324635109
 31
0.0
1001
ACDBBLOCKREPETAG
1070
     1
1071
       50
1005
13A418
  0
ARC
  5
13A419
  8
OBJECT
 10
6039.0
 20
-1457.4500185048139
 30
0.0
 40
12.0
 50
25.136162045899951
 51
94.863837954057146
1001
ACDBBLOCKREPETAG
1070
     1
1071
       51
1005
13A419
  0
LINE
  5
13A41A
  8
OBJECT
 10
6037.9825432073121
 20
-1445.493230404531
 30
0.0
 11
5993.556106979634
 21
-1449.273675364889
 31
0.0
1001
ACDBBLOCKREPETAG
1070
     1
1071
       52
1005
13A41A
  0
LINE
  5
13A41B
  8
OBJECT
 10
6049.8636106388549
 20
-1452.35276788439
 30
0.0
 11
6068.8028673794161
 21
-1492.7174127373521
 31
0.0
1001
ACDBBLOCKREPETAG
1070
     1
1071
       53
1005
13A41B
  0
LINE
  5
13A41C
  8
CENTER
 10
3909.0
 20
-1483.9999999999959
 30
0.0
 11
4105.0
 21
-1483.9999999999959
 31
0.0
1001
ACDBBLOCKREPETAG
1070
     1
1071
        0
1005
13A41C
  0
LINE
  5
13A41D
  8
CENTER
 10
4000.0
 20
-1575.274664429212
 30
0.0
 11
4000.0
 21
-1392.725335570779
 31
0.0
1001
ACDBBLOCKREPETAG
1070
     1
1071
        1
1005
13A41D
  0
CIRCLE
  5
13A41E
  8
OBJECT
 10
4000.0
 20
-1483.9999999999959
 30
0.0
 40
50.0
1001
ACDBBLOCKREPETAG
1070
     1
1071
        2
1005
13A41E
  0
CIRCLE
  5
13A41F
  8
OBJECT
 10
4000.0
 20
-1483.9999999999959
 30
0.0
 40
62.0
1001
ACDBBLOCKREPETAG
1070
     1
1071
        3
1005
13A41F
  0
CIRCLE
  5
13A420
  8
SLIM
 10
3922.0
 20
-1483.9999999999959
 30
0.0
 40
5.0
1001
ACDBBLOCKREPETAG
1070
     1
1071
        4
1005
13A420
  0
POLYLINE
  5
13A421
  8
SLIM
 66
     1
 10
0.0
 20
0.0
 30
0.0
 70
     1
1001
ACDBBLOCKREPETAG
1070
     1
1071
        5
1005
13A421
  0
VERTEX
  5
13A5EC
  8
SLIM
 10
3926.907477288114
 20
-1492.4999999999959
 30
0.0
  0
VERTEX
  5
13A5ED
  8
SLIM
 10
3931.814954576228
 20
-1483.9999999999959
 30
0.0
  0
VERTEX
  5
13A5EE
  8
SLIM
 10
3926.907477288114
 20
-1475.4999999999959
 30
0.0
  0
VERTEX
  5
13A5EF
  8
SLIM
 10
3917.0925227118928
 20
-1475.4999999999959
 30
0.0
  0
VERTEX
  5
13A5F0
  8
SLIM
 10
3912.1850454237788
 20
-1483.9999999999959
 30
0.0
  0
VERTEX
  5
13A5F1
  8
SLIM
 10
3917.0925227118928
 20
-1492.4999999999959
 30
0.0
  0
SEQEND
  5
13A5F2
  8
SLIM
  0
CIRCLE
  5
13A422
  8
SLIM
 10
4039.0
 20
-1551.549981495182
 30
0.0
 40
4.9999999999999991
1001
ACDBBLOCKREPETAG
1070
     1
1071
        6
1005
13A422
  0
POLYLINE
  5
13A423
  8
SLIM
 66
     1
 10
0.0
 20
0.0
 30
0.0
 70
     1
1001
ACDBBLOCKREPETAG
1070
     1
1071
        7
1005
13A423
  0
VERTEX
  5
13A5F3
  8
SLIM
 10
4043.907477288114
 20
-1543.049981495182
 30
0.0
  0
VERTEX
  5
13A5F4
  8
SLIM
 10
4034.092522711886
 20
-1543.049981495182
 30
0.0
  0
VERTEX
  5
13A5F5
  8
SLIM
 10
4029.1850454237788
 20
-1551.549981495182
 30
0.0
  0
VERTEX
  5
13A5F6
  8
SLIM
 10
4034.092522711886
 20
-1560.0499814951829
 30
0.0
  0
VERTEX
  5
13A5F7
  8
SLIM
 10
4043.907477288114
 20
-1560.0499814951829
 30
0.0
  0
VERTEX
  5
13A5F8
  8
SLIM
 10
4048.814954576228
 20
-1551.549981495182
 30
0.0
  0
SEQEND
  5
13A5F9
  8
SLIM
  0
CIRCLE
  5
13A424
  8
SLIM
 10
4039.0
 20
-1416.4500185048089
 30
0.0
 40
5.0
1001
ACDBBLOCKREPETAG
1070
     1
1071
        8
1005
13A424
  0
POLYLINE
  5
13A425
  8
SLIM
 66
     1
 10
0.0
 20
0.0
 30
0.0
 70
     1
1001
ACDBBLOCKREPETAG
1070
     1
1071
        9
1005
13A425
  0
VERTEX
  5
13A5FA
  8
SLIM
 10
4029.1850454237788
 20
-1416.4500185048089
 30
0.0
  0
VERTEX
  5
13A5FB
  8
SLIM
 10
4034.0925227118928
 20
-1424.9500185048121
 30
0.0
  0
VERTEX
  5
13A5FC
  8
SLIM
 10
4043.907477288114
 20
-1424.9500185048089
 30
0.0
  0
VERTEX
  5
13A5FD
  8
SLIM
 10
4048.814954576228
 20
-1416.4500185048121
 30
0.0
  0
VERTEX
  5
13A5FE
  8
SLIM
 10
4043.907477288114
 20
-1407.9500185048089
 30
0.0
  0
VERTEX
  5
13A5FF
  8
SLIM
 10
4034.092522711886
 20
-1407.9500185048121
 30
0.0
  0
SEQEND
  5
13A600
  8
SLIM
  0
ARC
  5
13A426
  8
OBJECT
 10
4000.0
 20
-1483.9999999999959
 30
0.0
 40
76.0
 50
214.8638379541421
 51
265.13616204573287
1001
ACDBBLOCKREPETAG
1070
     1
1071
       30
1005
13A426
  0
ARC
  5
13A427
  8
OBJECT
 10
4000.0
 20
-1483.9999999999959
 30
0.0
 40
76.0
 50
334.86383795430942
 51
25.136162045690561
1001
ACDBBLOCKREPETAG
1070
     1
1071
       31
1005
13A427
  0
ARC
  5
13A428
  8
OBJECT
 10
4000.0
 20
-1483.9999999999959
 30
0.0
 40
76.0
 50
94.863837954267041
 51
145.1361620458579
1001
ACDBBLOCKREPETAG
1070
     1
1071
       32
1005
13A428
  0
ARC
  5
13A429
  8
OBJECT
 10
3922.0
 20
-1483.9999999999959
 30
0.0
 40
12.0
 50
145.1361620458579
 51
214.8638379541421
1001
ACDBBLOCKREPETAG
1070
     1
1071
       33
1005
13A429
  0
LINE
  5
13A42A
  8
OBJECT
 10
3912.153846153833
 20
-1490.8595374798581
 30
0.0
 11
3937.6410256409508
 21
-1527.443737372457
 31
0.0
1001
ACDBBLOCKREPETAG
1070
     1
1071
       34
1005
13A42A
  0
LINE
  5
13A42B
  8
OBJECT
 10
3912.1538461538298
 20
-1477.1404625201351
 30
0.0
 11
3937.6410256409508
 21
-1440.556262627533
 31
0.0
1001
ACDBBLOCKREPETAG
1070
     1
1071
       35
1005
13A42B
  0
ARC
  5
13A42C
  8
OBJECT
 10
4039.0
 20
-1551.5499814951811
 30
0.0
 40
12.0
 50
265.13616204594291
 51
334.86383795411098
1001
ACDBBLOCKREPETAG
1070
     1
1071
       36
1005
13A42C
  0
LINE
  5
13A42D
  8
OBJECT
 10
4049.8636106388549
 20
-1556.6472321156009
 30
0.0
 11
4068.8028673794129
 21
-1516.2825872626449
 31
0.0
1001
ACDBBLOCKREPETAG
1070
     1
1071
       37
1005
13A42D
  0
LINE
  5
13A42E
  8
OBJECT
 10
4037.9825432073148
 20
-1563.5067695954649
 30
0.0
 11
3993.5561069796322
 21
-1559.726324635106
 31
0.0
1001
ACDBBLOCKREPETAG
1070
     1
1071
       38
1005
13A42E
  0
ARC
  5
13A42F
  8
OBJECT
 10
4039.0
 20
-1416.45001850481
 30
0.0
 40
12.0
 50
25.13616204588887
 51
94.863837954057146
1001
ACDBBLOCKREPETAG
1070
     1
1071
       39
1005
13A42F
  0
LINE
  5
13A430
  8
OBJECT
 10
4037.9825432073121
 20
-1404.493230404528
 30
0.0
 11
3993.556106979634
 21
-1408.2736753648851
 31
0.0
1001
ACDBBLOCKREPETAG
1070
     1
1071
       40
1005
13A430
  0
LINE
  5
13A431
  8
OBJECT
 10
4049.8636106388549
 20
-1411.352767884387
 30
0.0
 11
4068.8028673794161
 21
-1451.717412737348
 31
0.0
1001
ACDBBLOCKREPETAG
1070
     1
1071
       41
1005
13A431
  0
TEXT
  5
13A432
  8
SLIM
 10
3853.75
 20
-1751.4999999999959
 30
0.0
 40
35.0
  1
両受けスタイル（W）
 41
0.75
  0
TEXT
  5
13A433
  8
SLIM
 10
5811.8000000000002
 20
-1848.9999999999991
 30
0.0
 40
28.0
  1
※ 対応スラブ厚　150mm以上
 41
0.75
  0
TEXT
  5
13A434
  8
SLIM
 10
5598.8999999999996
 20
-1942.3333333333319
 30
0.0
 40
28.0
  1
国土交通大臣認定・（一財）日本消防設備安全センター性能評定取得品
 41
0.75
  0
TEXT
  5
13A435
  8
SLIM
 10
5631.1000000000004
 20
-1988.9999999999991
 30
0.0
 40
28.0
  1
注）ご採用にあたり、認定書及び評定書の内容をご確認ください。
 41
0.75
  0
TEXT
  5
13A436
  8
SLIM
 10
11824.6
 20
-1807.9999999999959
 30
0.0
 40
28.0
  1
※ 対応スラブ厚　150～380
 41
0.75
  0
TEXT
  5
13A437
  8
SLIM
 10
11598.9
 20
-1901.3333333333289
 30
0.0
 40
28.0
  1
国土交通大臣認定・（一財）日本消防設備安全センター性能評定取得品
 41
0.75
  0
TEXT
  5
13A438
  8
SLIM
 10
11631.1
 20
-1947.9999999999959
 30
0.0
 40
28.0
  1
注）ご採用にあたり、認定書及び評定書の内容をご確認ください。
 41
0.75
  0
TEXT
  5
13A439
  8
SLIM
 10
9824.6000000000004
 20
-1807.9999999999959
 30
0.0
 40
28.0
  1
※ 対応スラブ厚　180～380
 41
0.75
  0
TEXT
  5
13A43A
  8
SLIM
 10
9598.8999999999996
 20
-1901.3333333333289
 30
0.0
 40
28.0
  1
国土交通大臣認定・（一財）日本消防設備安全センター性能評定取得品
 41
0.75
  0
TEXT
  5
13A43B
  8
SLIM
 10
9631.1000000000004
 20
-1947.9999999999959
 30
0.0
 40
28.0
  1
注）ご採用にあたり、認定書及び評定書の内容をご確認ください。
 41
0.75
  0
TEXT
  5
13A43C
  8
SLIM
 10
7771.3999999999987
 20
-1540.666666666664
 30
0.0
 40
28.0
  1
※ 対応スラブ厚　180｛150｝～340
 41
0.75
  0
TEXT
  5
13A43D
  8
SLIM
 10
7733.2999999999975
 20
-1587.333333333331
 30
0.0
 40
28.0
  1
｛｝内はカンペイ立て管との組み合わせの場合
 41
0.75
  0
TEXT
  5
13A43E
  8
SLIM
 10
7598.8999999999969
 20
-1680.666666666664
 30
0.0
 40
28.0
  1
国土交通大臣認定・（一財）日本消防設備安全センター性能評定取得品
 41
0.75
  0
TEXT
  5
13A43F
  8
SLIM
 10
7631.1000000000004
 20
-1727.333333333331
 30
0.0
 40
28.0
  1
注）ご採用にあたり、認定書及び評定書の内容をご確認ください。
 41
0.75
  0
TEXT
  5
13A440
  8
SLIM
 10
9739.1250000000018
 20
-1751.4999999999959
 30
0.0
 40
35.0
  1
両受けスタイル（W）＋シンドカット
 41
0.75
  0
TEXT
  5
13A441
  8
SLIM
 10
11743.5
 20
-1751.4999999999959
 30
0.0
 40
35.0
  1
カンペイ君（WKP）＋シンドカット
 41
0.75
  0
TEXT
  5
13A442
  8
SLIM
 10
7741.625
 20
-1477.499999999998
 30
0.0
 40
35.0
  1
片受けスタイル（S）＋シンドカット
 41
0.75
  0
TEXT
  5
13A443
  8
SLIM
 10
5858.1250000000009
 20
-1792.4999999999991
 30
0.0
 40
35.0
  1
カンペイ君（WKP）
 41
0.75
  0
TEXT
  5
13A444
  8
SLIM
 10
1856.25
 20
-1477.499999999998
 30
0.0
 40
35.0
  1
片受けスタイル（S）
 41
0.75
  0
TEXT
  5
13A445
  8
SLIM
 10
0.0
 20
370.0
 30
0.0
 40
100.0
  1
4HF-Z606-P140-WKP
 41
0.75
  0
VIEWPORT
  5
F6BA7
 67
     1
  8
0
 10
145.33033752441401
 20
101.8328354358673
 30
0.0
 40
334.0025019414623
 41
222.19657968139651
 68
     1
 69
     1
1001
ACAD
1000
MVIEW
1002
{
1070
    16
1010
0.0
1020
0.0
1030
0.0
1010
0.0
1020
0.0
1030
1.0
1040
0.0
1040
222.19657968139651
1040
145.33033752441401
1040
101.8328354358673
1040
50.0
1040
0.0
1040
0.0
1070
     0
1070
     0
1070
     1
1070
     1
1070
     0
1070
     0
1070
     0
1070
     0
1040
0.0
1040
0.0
1040
0.0
1040
10.0
1040
10.0
1040
10.0
1040
10.0
1070
     0
1002
{
1002
}
1002
}
  0
VIEWPORT
  5
F6BA9
 67
     1
  8
OBJECT
 10
145.3303314447403
 20
101.8328338861465
 30
0.0
 40
232.5285303115844
 41
162.93253421783439
 68
     2
 69
     2
1001
ACAD
1000
MVIEW
1002
{
1070
    16
1010
0.0
1020
0.0
1030
0.0
1010
0.0
1020
0.0
1030
1.0
1040
0.0
1040
25942.55904403147
1040
2377.604457077377
1040
-7591.5176687056619
1040
50.0
1040
0.0
1040
0.0
1070
     0
1070
   600
1070
     1
1070
     1
1070
     0
1070
     0
1070
     0
1070
     0
1040
0.0
1040
0.0
1040
0.0
1040
1.0
1040
1.0
1040
0.0
1040
0.0
1070
     0
1002
{
1002
}
1002
}
  0
ENDSEC
  0
EOF
