  0
SECTION
  2
HEADER
  9
$ACADVER
  1
AC1009
  9
$INSBASE
 10
0.0
 20
0.0
 30
0.0
  9
$EXTMIN
 10
0.0
 20
-3717.4999999999959
 30
0.0
  9
$EXTMAX
 10
5575.0
 20
607.5
 30
0.0
  9
$LIMMIN
 10
0.0
 20
0.0
  9
$LIMMAX
 10
210.0
 20
297.0
  9
$ORTHOMODE
 70
     0
  9
$REGENMODE
 70
     1
  9
$FILLMODE
 70
     1
  9
$QTEXTMODE
 70
     0
  9
$MIRRTEXT
 70
     0
  9
$DRAGMODE
 70
     2
  9
$LTSCALE
 40
1.0
  9
$OSMODE
 70
   109
  9
$ATTMODE
 70
     1
  9
$TEXTSIZE
 40
4.0
  9
$TRACEWID
 40
0.05
  9
$TEXTSTYLE
  7
STANDARD
  9
$CLAYER
  8
OBJECT
  9
$CELTYPE
  6
BYLAYER
  9
$CECOLOR
 62
   256
  9
$DIMSCALE
 40
10.0
  9
$DIMASZ
 40
2.0
  9
$DIMEXO
 40
1.0
  9
$DIMDLI
 40
10.0
  9
$DIMRND
 40
0.0
  9
$DIMDLE
 40
0.0
  9
$DIMEXE
 40
1.0
  9
$DIMTP
 40
0.0
  9
$DIMTM
 40
0.0
  9
$DIMTXT
 40
3.2000000000000002
  9
$DIMCEN
 40
0.0
  9
$DIMTSZ
 40
0.0
  9
$DIMTOL
 70
     0
  9
$DIMLIM
 70
     0
  9
$DIMTIH
 70
     0
  9
$DIMTOH
 70
     0
  9
$DIMSE1
 70
     0
  9
$DIMSE2
 70
     0
  9
$DIMTAD
 70
     1
  9
$DIMZIN
 70
     8
  9
$DIMBLK
  1
OPEN30
  9
$DIMASO
 70
     1
  9
$DIMSHO
 70
     1
  9
$DIMPOST
  1

  9
$DIMAPOST
  1

  9
$DIMALT
 70
     0
  9
$DIMALTD
 70
     2
  9
$DIMALTF
 40
25.399999999999999
  9
$DIMLFAC
 40
1.0
  9
$DIMTOFL
 70
     1
  9
$DIMTVP
 40
0.0
  9
$DIMTIX
 70
     0
  9
$DIMSOXD
 70
     0
  9
$DIMSAH
 70
     0
  9
$DIMBLK1
  1

  9
$DIMBLK2
  1

  9
$DIMSTYLE
  2
S10
  9
$DIMCLRD
 70
   256
  9
$DIMCLRE
 70
   256
  9
$DIMCLRT
 70
   256
  9
$DIMTFAC
 40
1.0
  9
$DIMGAP
 40
0.9
  9
$LUNITS
 70
     2
  9
$LUPREC
 70
     2
  9
$SKETCHINC
 40
0.1
  9
$FILLETRAD
 40
0.0
  9
$AUNITS
 70
     0
  9
$AUPREC
 70
     2
  9
$MENU
  1
ACAD
  9
$ELEVATION
 40
0.0
  9
$PELEVATION
 40
0.0
  9
$THICKNESS
 40
0.0
  9
$LIMCHECK
 70
     0
  9
$BLIPMODE
 70
     0
  9
$CHAMFERA
 40
2.0
  9
$CHAMFERB
 40
2.0
  9
$SKPOLY
 70
     0
  9
$TDCREATE
 40
2453095.4929404748
  9
$TDUPDATE
 40
2457259.613623322
  9
$TDINDWG
 40
19.134042002299999
  9
$TDUSRTIMER
 40
19.1340414583
  9
$USRTIMER
 70
     1
  9
$ANGBASE
 50
0.0
  9
$ANGDIR
 70
     0
  9
$PDMODE
 70
    35
  9
$PDSIZE
 40
2.0
  9
$PLINEWID
 40
0.0
  9
$COORDS
 70
     1
  9
$SPLFRAME
 70
     0
  9
$SPLINETYPE
 70
     6
  9
$SPLINESEGS
 70
     8
  9
$ATTDIA
 70
     0
  9
$ATTREQ
 70
     1
  9
$HANDLING
 70
     1
  9
$HANDSEED
  5
12690E
  9
$SURFTAB1
 70
     6
  9
$SURFTAB2
 70
     6
  9
$SURFTYPE
 70
     6
  9
$SURFU
 70
     6
  9
$SURFV
 70
     6
  9
$UCSNAME
  2

  9
$UCSORG
 10
0.0
 20
0.0
 30
0.0
  9
$UCSXDIR
 10
1.0
 20
0.0
 30
0.0
  9
$UCSYDIR
 10
0.0
 20
1.0
 30
0.0
  9
$PUCSNAME
  2

  9
$PUCSORG
 10
0.0
 20
0.0
 30
0.0
  9
$PUCSXDIR
 10
1.0
 20
0.0
 30
0.0
  9
$PUCSYDIR
 10
0.0
 20
1.0
 30
0.0
  9
$USERI1
 70
     0
  9
$USERI2
 70
     0
  9
$USERI3
 70
     0
  9
$USERI4
 70
     0
  9
$USERI5
 70
     0
  9
$USERR1
 40
0.0
  9
$USERR2
 40
0.0
  9
$USERR3
 40
0.0
  9
$USERR4
 40
0.0
  9
$USERR5
 40
0.0
  9
$WORLDVIEW
 70
     1
  9
$SHADEDGE
 70
     3
  9
$SHADEDIF
 70
    70
  9
$TILEMODE
 70
     1
  9
$MAXACTVP
 70
    64
  9
$PLIMCHECK
 70
     0
  9
$PEXTMIN
 10
29.066066288948051
 20
20.366566777229309
 30
0.0
  9
$PEXTMAX
 10
261.5945966005325
 20
183.29910099506381
 30
0.0
  9
$PLIMMIN
 10
-3.17498779296875
 20
-3.1749999523162842
  9
$PLIMMAX
 10
293.83566284179687
 20
206.8406708240509
  9
$UNITMODE
 70
     0
  9
$VISRETAIN
 70
     1
  9
$PLINEGEN
 70
     0
  9
$PSLTSCALE
 70
     1
  0
ENDSEC
  0
SECTION
  2
TABLES
  0
TABLE
  2
VPORT
 70
     1
  0
VPORT
  2
*ACTIVE
 70
     0
 10
0.0
 20
0.0
 11
1.0
 21
1.0
 12
3342.8859199160011
 22
-1326.8100848525421
 13
0.0
 23
0.0
 14
1.0
 24
1.0
 15
0.0
 25
0.0
 16
0.0
 26
0.0
 36
1.0
 17
0.0
 27
0.0
 37
0.0
 40
5802.8069300690631
 41
1.6494178525226391
 42
50.0
 43
0.0
 44
0.0
 50
0.0
 51
0.0
 71
     0
 72
   600
 73
     1
 74
     1
 75
     0
 76
     0
 77
     0
 78
     0
  0
ENDTAB
  0
TABLE
  2
LTYPE
 70
     4
  0
LTYPE
  2
CONTINUOUS
 70
     0
  3
Solid line
 72
    65
 73
     0
 40
0.0
  0
LTYPE
  2
PHANTOM2
 70
     0
  3
___ _ _ ___ _ _ ___ _ _ ___ _ _
 72
    65
 73
     6
 40
1.25
 49
0.625
 49
-0.125
 49
0.125
 49
-0.125
 49
0.125
 49
-0.125
  0
LTYPE
  2
ACAD_ISO08W100
 70
     0
  3
ISO long-dash short-dash ____ __ ____ __ ____ _
 72
    65
 73
     4
 40
36.0
 49
24.0
 49
-3.0
 49
6.0
 49
-3.0
  0
LTYPE
  2
ACAD_ISO02W100
 70
     0
  3
ISO dash __ __ __ __ __ __ __ __ __ __ __ __ __
 72
    65
 73
     2
 40
15.0
 49
12.0
 49
-3.0
  0
ENDTAB
  0
TABLE
  2
LAYER
 70
     8
  0
LAYER
  2
0
 70
     0
 62
     7
  6
CONTINUOUS
  0
LAYER
  2
OBJECT
 70
     0
 62
     4
  6
CONTINUOUS
  0
LAYER
  2
DEFPOINTS
 70
     0
 62
     7
  6
CONTINUOUS
  0
LAYER
  2
DIM
 70
     0
 62
     7
  6
CONTINUOUS
  0
LAYER
  2
HIDDEN
 70
     0
 62
     2
  6
ACAD_ISO02W100
  0
LAYER
  2
CENTER
 70
     0
 62
     2
  6
ACAD_ISO08W100
  0
LAYER
  2
DOTS
 70
     0
 62
     1
  6
CONTINUOUS
  0
LAYER
  2
SLIM
 70
     0
 62
     2
  6
CONTINUOUS
  0
ENDTAB
  0
TABLE
  2
STYLE
 70
     2
  0
STYLE
  2
STANDARD
 70
     0
 40
0.0
 41
0.75
 50
0.0
 71
     0
 42
4.0
  3
simplex.shx
  4
bigfont.shx
  0
ENDTAB
  0
TABLE
  2
VIEW
 70
     0
  0
ENDTAB
  0
TABLE
  2
UCS
 70
     0
  0
ENDTAB
  0
TABLE
  2
APPID
 70
    18
  0
APPID
  2
ACAD
 70
     0
  0
APPID
  2
ACADANNOTATIVE
 70
     0
  0
APPID
  2
ACAD_PSEXT
 70
     0
  0
APPID
  2
ACAD_EXEMPT_FROM_CAD_STANDARDS
 70
     0
  0
APPID
  2
ACAECLAYERSTANDARD
 70
     0
  0
APPID
  2
ACAUTHENVIRON
 70
     0
  0
APPID
  2
ACDBDYNAMICBLOCKTRUENAME
 70
     0
  0
APPID
  2
ACDBDYNAMICBLOCKGUID
 70
     0
  0
APPID
  2
ACDBBLOCKREPETAG
 70
     0
  0
APPID
  2
ACDBBLOCKREPBTAG
 70
     0
  0
APPID
  2
ACAD_NAV_VCDISPLAY
 70
     0
  0
APPID
  2
ACAD_DSTYLE_DIMRADIAL_EXTENSION
 70
     0
  0
APPID
  2
ACAD_DSTYLE_DIMJAG
 70
     0
  0
APPID
  2
ACAD_DSTYLE_DIMTALN
 70
     0
  0
APPID
  2
ACADANNOPO
 70
     0
  0
APPID
  2
GRADIENTCOLOR1ACI
 70
     0
  0
APPID
  2
GRADIENTCOLOR2ACI
 70
     0
  0
APPID
  2
ACAD_MLEADERVER
 70
     0
  0
ENDTAB
  0
TABLE
  2
DIMSTYLE
 70
     3
  0
DIMSTYLE
  2
STANDARD
 70
     0
  3

  4

  5

  6

  7

 40
1.0
 41
0.18
 42
0.0625
 43
0.38
 44
0.18
 45
0.0
 46
0.0
 47
0.0
 48
0.0
140
0.18
141
0.09
142
0.0
143
25.399999999999999
144
1.0
145
0.0
146
1.0
147
0.09
 71
     0
 72
     0
 73
     1
 74
     1
 75
     0
 76
     0
 77
     0
 78
     0
170
     0
171
     2
172
     0
173
     0
174
     0
175
     0
176
     0
177
     0
178
     0
  0
DIMSTYLE
  2
S10
 70
     0
  3

  4

  5

  6

  7

 40
10.0
 41
2.0
 42
1.0
 43
10.0
 44
1.0
 45
0.0
 46
0.0
 47
0.0
 48
0.0
140
3.2000000000000002
141
0.0
142
0.0
143
25.399999999999999
144
1.0
145
0.0
146
1.0
147
0.9
 71
     0
 72
     0
 73
     0
 74
     0
 75
     0
 76
     0
 77
     1
 78
     8
170
     0
171
     2
172
     1
173
     0
174
     0
175
     0
176
   256
177
   256
178
   256
  0
ENDTAB
  0
ENDSEC
  0
SECTION
  2
BLOCKS
  0
BLOCK
  8
0
  2
$MODEL_SPACE
 70
     0
 10
0.0
 20
0.0
 30
0.0
  3
$MODEL_SPACE
  1

  0
ENDBLK
  5
126814
  8
0
  0
BLOCK
 67
     1
  8
0
  2
$PAPER_SPACE
 70
     0
 10
0.0
 20
0.0
 30
0.0
  3
$PAPER_SPACE
  1

  0
ENDBLK
  5
126810
 67
     1
  8
0
  0
BLOCK
  8
0
  2
_OPEN30
 70
     0
 10
0.0
 20
0.0
 30
0.0
  3
_OPEN30
  1

  0
LINE
  5
202
  8
0
  6
BYBLOCK
 62
     0
 10
-1.0
 20
0.26794919
 30
0.0
 11
0.0
 21
0.0
 31
0.0
  0
LINE
  5
203
  8
0
  6
BYBLOCK
 62
     0
 10
0.0
 20
0.0
 30
0.0
 11
-1.0
 21
-0.26794919
 31
0.0
  0
LINE
  5
204
  8
0
  6
BYBLOCK
 62
     0
 10
0.0
 20
0.0
 30
0.0
 11
-1.0
 21
0.0
 31
0.0
  0
ENDBLK
  5
206
  8
0
  0
BLOCK
  8
0
  2
*X43
 70
     1
 10
0.0
 20
0.0
 30
0.0
  3
*X43
  1

  0
LINE
  5
1265E4
  8
0
 62
     0
 10
4044.9012806053461
 20
-129.28048304657929
 30
0.0
 11
4041.364797757567
 21
-125.74400019880041
 31
0.0
  0
LINE
  5
1265E5
  8
0
 62
     0
 10
4053.6207975587658
 20
-137.99999999999881
 30
0.0
 11
4049.3914086658801
 21
-133.77061110711381
 31
0.0
  0
LINE
  5
1265E6
  8
0
 62
     0
 10
4026.9407683632062
 20
-120.3002269255103
 30
0.0
 11
4025.5813318337941
 21
-118.9407903960974
 31
0.0
  0
LINE
  5
1265E7
  8
0
 62
     0
 10
4035.9210244842761
 20
-129.28048304657941
 30
0.0
 11
4031.4308964237398
 21
-124.7903549860448
 31
0.0
  0
LINE
  5
1265E8
  8
0
 62
     0
 10
4044.6405414376959
 20
-137.99999999999881
 30
0.0
 11
4040.4111525448111
 21
-133.77061110711401
 31
0.0
  0
LINE
  5
1265E9
  8
0
 62
     0
 10
4017.9605122421381
 20
-120.3002269255104
 30
0.0
 11
4013.785639980023
 21
-116.1253546633947
 31
0.0
  0
LINE
  5
1265EA
  8
0
 62
     0
 10
4026.9407683632062
 20
-129.28048304657941
 30
0.0
 11
4022.450640302673
 21
-124.790354986045
 31
0.0
  0
LINE
  5
1265EB
  8
0
 62
     0
 10
4008.980256121069
 20
-120.3002269255104
 30
0.0
 11
4004.490128060535
 21
-115.8100988649758
 31
0.0
  0
LINE
  5
1265EC
  8
0
 62
     0
 10
4015.2459755954542
 20
-126.56594639989611
 30
0.0
 11
4013.470384181604
 21
-124.790354986045
 31
0.0
  0
LINE
  5
1265ED
  8
0
 62
     0
 10
4000.0
 20
-120.3002269255102
 30
0.0
 11
3995.5098719394659
 21
-115.8100988649757
 31
0.0
  0
LINE
  5
1265EE
  8
0
 62
     0
 10
4004.857222406476
 20
-125.1574493319865
 30
0.0
 11
4004.4901280605341
 21
-124.7903549860449
 31
0.0
  0
LINE
  5
1265EF
  8
0
 62
     0
 10
3991.0197438789319
 20
-120.3002269255101
 30
0.0
 11
3986.7574181990171
 21
-116.03790124559499
 31
0.0
  0
LINE
  5
1265F0
  8
0
 62
     0
 10
3995.8352410164198
 20
-125.1157240629995
 30
0.0
 11
3995.5098719394659
 21
-124.7903549860446
 31
0.0
  0
LINE
  5
1265F1
  8
0
 62
     0
 10
3982.039487757861
 20
-120.3002269255105
 30
0.0
 11
3979.2986509997559
 21
-117.5593901674046
 31
0.0
  0
LINE
  5
1265F2
  8
0
 62
     0
 10
3987.7469459221788
 20
-126.0076850898276
 30
0.0
 11
3986.5296158183978
 21
-124.7903549860451
 31
0.0
  0
LINE
  5
1265F3
  8
0
 62
     0
 10
3973.059231636792
 20
-120.3002269255101
 30
0.0
 11
3972.3737447415801
 21
-119.6147400302971
 31
0.0
  0
LINE
  5
1265F4
  8
0
 62
     0
 10
3980.3727435536048
 20
-127.61373884232211
 30
0.0
 11
3977.5493596973279
 21
-124.7903549860447
 31
0.0
  0
LINE
  5
1265F5
  8
0
 62
     0
 10
3973.0592316367929
 20
-129.28048304657941
 30
0.0
 11
3968.5691035762588
 21
-124.7903549860449
 31
0.0
  0
LINE
  5
1265F6
  8
0
 62
     0
 10
3964.0789755157239
 20
-129.28048304657949
 30
0.0
 11
3959.8686784425822
 21
-125.0701859734376
 31
0.0
  0
LINE
  5
1265F7
  8
0
 62
     0
 10
3955.098719394653
 20
-129.28048304657929
 30
0.0
 11
3954.207715567552
 21
-128.38947921947619
 31
0.0
  0
LINE
  5
1265F8
  8
0
 62
     0
 10
3961.4712462510188
 20
-135.65300990294469
 30
0.0
 11
3959.5888474551889
 21
-133.77061110711381
 31
0.0
  0
LINE
  5
1265F9
  8
0
 62
     0
 10
3955.098719394653
 20
-138.2607391676483
 30
0.0
 11
3950.6085913341199
 21
-133.77061110711369
 31
0.0
  0
LINE
  5
1265FA
  8
0
 62
     0
 10
3946.1184632735858
 20
-138.26073916764861
 30
0.0
 11
3943.953333351933
 21
-136.09560924599609
 31
0.0
  0
LINE
  5
1265FB
  8
0
 62
     0
 10
3951.0415852941028
 20
-143.18386118816659
 30
0.0
 11
3950.6085913341199
 21
-142.7508672281831
 31
0.0
  0
LINE
  5
1265FC
  8
0
 62
     0
 10
3946.1184632735858
 20
-147.2409952887179
 30
0.0
 11
3941.6283352130508
 21
-142.7508672281833
 31
0.0
  0
LINE
  5
1265FD
  8
0
 62
     0
 10
3937.1382071525159
 20
-147.24099528871739
 30
0.0
 11
3935.0571756770728
 21
-145.15996381327381
 31
0.0
  0
LINE
  5
1265FE
  8
0
 62
     0
 10
3942.156718127344
 20
-152.25950626354521
 30
0.0
 11
3941.6283352130508
 21
-151.7311233492519
 31
0.0
  0
LINE
  5
1265FF
  8
0
 62
     0
 10
4053.8815367264142
 20
-263.9843248626164
 30
0.0
 11
4051.8972118637971
 21
-261.99999999999892
 31
0.0
  0
LINE
  5
126600
  8
0
 62
     0
 10
3937.1382071525159
 20
-156.22125140978679
 30
0.0
 11
3932.6480790919818
 21
-151.73112334925219
 31
0.0
  0
LINE
  5
126601
  8
0
 62
     0
 10
4044.9012806053461
 20
-263.98432486261618
 30
0.0
 11
4042.9169557427281
 21
-261.99999999999881
 31
0.0
  0
LINE
  5
126602
  8
0
 62
     0
 10
4049.800363209366
 20
-268.88340746663852
 30
0.0
 11
4049.3914086658801
 21
-268.47445292315081
 31
0.0
  0
LINE
  5
126603
  8
0
 62
     0
 10
3928.1579510314468
 20
-156.22125140978699
 30
0.0
 11
3927.5251056078532
 21
-155.58840598619329
 31
0.0
  0
LINE
  5
126604
  8
0
 62
     0
 10
3934.825287788999
 20
-162.88858816733961
 30
0.0
 11
3932.6480790919818
 21
-160.71137947032159
 31
0.0
  0
LINE
  5
126605
  8
0
 62
     0
 10
4044.4115940138049
 20
-272.4748943921461
 30
0.0
 11
4040.4111525448111
 21
-268.4744529231512
 31
0.0
  0
LINE
  5
126606
  8
0
 62
     0
 10
3928.1579510314468
 20
-165.20150753085591
 30
0.0
 11
3924.2991719989341
 21
-161.3427284983421
 31
0.0
  0
LINE
  5
126607
  8
0
 62
     0
 10
4035.9210244842761
 20
-272.96458098368589
 30
0.0
 11
4031.4308964237398
 21
-268.47445292315138
 31
0.0
  0
LINE
  5
126608
  8
0
 62
     0
 10
3928.1579510314468
 20
-174.181763651925
 30
0.0
 11
3923.6678229709119
 21
-169.69163559139051
 31
0.0
  0
LINE
  5
126609
  8
0
 62
     0
 10
4026.9407683632062
 20
-272.96458098368601
 30
0.0
 11
4024.768342412101
 21
-270.79215503257979
 31
0.0
  0
LINE
  5
12660A
  8
0
 62
     0
 10
4032.5124322087249
 20
-278.5362448292048
 30
0.0
 11
4031.4308964237398
 21
-277.45470904422058
 31
0.0
  0
LINE
  5
12660B
  8
0
 62
     0
 10
3919.1776949103769
 20
-174.18176365192531
 30
0.0
 11
3919.0551166644791
 21
-174.05918540602639
 31
0.0
  0
LINE
  5
12660C
  8
0
 62
     0
 10
3927.1533065670092
 20
-182.1573753085558
 30
0.0
 11
3923.6678229709119
 21
-178.67189171245991
 31
0.0
  0
LINE
  5
12660D
  8
0
 62
     0
 10
4017.9605122421381
 20
-272.96458098368629
 30
0.0
 11
4017.8426246914419
 21
-272.84669343299117
 31
0.0
  0
LINE
  5
12660E
  8
0
 62
     0
 10
4025.9408145939719
 20
-280.94488333552027
 30
0.0
 11
4022.450640302673
 21
-277.45470904422081
 31
0.0
  0
LINE
  5
12660F
  8
0
 62
     0
 10
3919.1776949103769
 20
-183.1620197729942
 30
0.0
 11
3917.1256054736991
 21
-181.10993033631479
 31
0.0
  0
LINE
  5
126610
  8
0
 62
     0
 10
3925.711247363703
 20
-189.6955722263192
 30
0.0
 11
3923.6678229709119
 21
-187.6521478335288
 31
0.0
  0
LINE
  5
126611
  8
0
 62
     0
 10
4017.9605122421381
 20
-281.94483710475532
 30
0.0
 11
4013.470384181604
 21
-277.45470904422069
 31
0.0
  0
LINE
  5
126612
  8
0
 62
     0
 10
3919.1776949103769
 20
-192.1422758940634
 30
0.0
 11
3915.7522148444491
 21
-188.71679582813411
 31
0.0
  0
LINE
  5
126613
  8
0
 62
     0
 10
3925.0268991702492
 20
-197.99148015393521
 30
0.0
 11
3923.6678229709119
 21
-196.63240395459809
 31
0.0
  0
LINE
  5
126614
  8
0
 62
     0
 10
4008.980256121069
 20
-281.94483710475538
 30
0.0
 11
4004.490128060535
 21
-277.45470904422081
 31
0.0
  0
LINE
  5
126615
  8
0
 62
     0
 10
3919.1776949103769
 20
-201.12253201513241
 30
0.0
 11
3918.0551628952448
 21
-199.99999999999881
 31
0.0
  0
LINE
  5
126616
  8
0
 62
     0
 10
3925.3562150071471
 20
-207.30105211190201
 30
0.0
 11
3923.6678229709119
 21
-205.61266007566701
 31
0.0
  0
LINE
  5
126617
  8
0
 62
     0
 10
4000.0
 20
-281.94483710475492
 30
0.0
 11
3995.5098719394659
 21
-277.45470904422041
 31
0.0
  0
LINE
  5
126618
  8
0
 62
     0
 10
3918.0551628952448
 20
-199.99999999999881
 30
0.0
 11
3915.0530329227231
 21
-196.99787002747709
 31
0.0
  0
LINE
  5
126619
  8
0
 62
     0
 10
3919.1776949103769
 20
-210.1027881362015
 30
0.0
 11
3915.2226107005299
 21
-206.14770392635421
 31
0.0
  0
LINE
  5
12661A
  8
0
 62
     0
 10
3927.230735249077
 20
-218.1558284749012
 30
0.0
 11
3923.6678229709119
 21
-214.5929161967361
 31
0.0
  0
LINE
  5
12661B
  8
0
 62
     0
 10
3982.039487757861
 20
-272.96458098368589
 30
0.0
 11
3981.8441715250988
 21
-272.76926475092228
 31
0.0
  0
LINE
  5
12661C
  8
0
 62
     0
 10
3991.0197438789319
 20
-281.94483710475492
 30
0.0
 11
3986.5296158183978
 21
-277.45470904422041
 31
0.0
  0
LINE
  5
12661D
  8
0
 62
     0
 10
3919.1776949103769
 20
-219.0830442572709
 30
0.0
 11
3916.6223302933631
 21
-216.52767964025639
 31
0.0
  0
LINE
  5
12661E
  8
0
 62
     0
 10
3928.1579510314468
 20
-228.0633003783401
 30
0.0
 11
3923.6678229709119
 21
-223.5731723178055
 31
0.0
  0
LINE
  5
12661F
  8
0
 62
     0
 10
3973.059231636792
 20
-272.96458098368589
 30
0.0
 11
3968.569103576257
 21
-268.47445292315132
 31
0.0
  0
LINE
  5
126620
  8
0
 62
     0
 10
3982.039487757861
 20
-281.94483710475492
 30
0.0
 11
3977.5493596973279
 21
-277.45470904422041
 31
0.0
  0
LINE
  5
126621
  8
0
 62
     0
 10
3928.1579510314468
 20
-237.04355649940939
 30
0.0
 11
3923.6678229709141
 21
-232.55342843887479
 31
0.0
  0
LINE
  5
126622
  8
0
 62
     0
 10
3937.1382071525159
 20
-246.02381262047859
 30
0.0
 11
3932.6480790919818
 21
-241.53368455994399
 31
0.0
  0
LINE
  5
126623
  8
0
 62
     0
 10
3946.1184632735858
 20
-255.00406874154771
 30
0.0
 11
3941.6283352130508
 21
-250.5139406810132
 31
0.0
  0
LINE
  5
126624
  8
0
 62
     0
 10
3955.0987193946548
 20
-263.9843248626168
 30
0.0
 11
3950.6085913341199
 21
-259.49419680208229
 31
0.0
  0
LINE
  5
126625
  8
0
 62
     0
 10
3964.0789755157239
 20
-272.96458098368601
 30
0.0
 11
3959.5888474551889
 21
-268.47445292315138
 31
0.0
  0
LINE
  5
126626
  8
0
 62
     0
 10
3971.0224918935851
 20
-279.90809736154699
 30
0.0
 11
3968.569103576257
 21
-277.45470904422058
 31
0.0
  0
LINE
  5
126627
  8
0
 62
     0
 10
3937.1382071525159
 20
-255.0040687415476
 30
0.0
 11
3932.6480790919818
 21
-250.513940681013
 31
0.0
  0
LINE
  5
126628
  8
0
 62
     0
 10
3946.1184632735858
 20
-263.9843248626168
 30
0.0
 11
3941.6283352130508
 21
-259.49419680208212
 31
0.0
  0
LINE
  5
126629
  8
0
 62
     0
 10
3952.8742563374281
 20
-270.74011792645967
 30
0.0
 11
3950.6085913341199
 21
-268.47445292315132
 31
0.0
  0
LINE
  5
12662A
  8
0
 62
     0
 10
4043.217482582646
 20
-130.9642810692803
 30
0.0
 11
4038.727354522111
 21
-126.4741530087457
 31
0.0
  0
LINE
  5
12662B
  8
0
 62
     0
 10
4050.2532015133638
 20
-137.99999999999901
 30
0.0
 11
4047.70761064318
 21
-135.45440912981479
 31
0.0
  0
LINE
  5
12662C
  8
0
 62
     0
 10
4025.256970340507
 20
-121.9840249482111
 30
0.0
 11
4020.8765200385119
 21
-117.60357464621541
 31
0.0
  0
LINE
  5
12662D
  8
0
 62
     0
 10
4034.237226461576
 20
-130.9642810692803
 30
0.0
 11
4029.747098401042
 21
-126.4741530087457
 31
0.0
  0
LINE
  5
12662E
  8
0
 62
     0
 10
4039.546200263319
 20
-136.2732548710234
 30
0.0
 11
4038.727354522111
 21
-135.45440912981479
 31
0.0
  0
LINE
  5
12662F
  8
0
 62
     0
 10
4016.276714219438
 20
-121.9840249482111
 30
0.0
 11
4011.7865861589039
 21
-117.4938968876765
 31
0.0
  0
LINE
  5
126630
  8
0
 62
     0
 10
4022.8621483857878
 20
-128.56945911456131
 30
0.0
 11
4020.766842279972
 21
-126.4741530087457
 31
0.0
  0
LINE
  5
126631
  8
0
 62
     0
 10
4007.2964580983689
 20
-121.9840249482111
 30
0.0
 11
4002.806330037834
 21
-117.4938968876766
 31
0.0
  0
LINE
  5
126632
  8
0
 62
     0
 10
3998.3162019772999
 20
-121.9840249482109
 30
0.0
 11
3993.8260739167658
 21
-117.4938968876763
 31
0.0
  0
LINE
  5
126633
  8
0
 62
     0
 10
3989.3359458562309
 20
-121.9840249482111
 30
0.0
 11
3984.8458177956959
 21
-117.4938968876765
 31
0.0
  0
LINE
  5
126634
  8
0
 62
     0
 10
3980.3556897351609
 20
-121.9840249482111
 30
0.0
 11
3976.643590459008
 21
-118.2719256720581
 31
0.0
  0
LINE
  5
126635
  8
0
 62
     0
 10
3984.9061848395481
 20
-126.5345200525973
 30
0.0
 11
3984.8458177956959
 21
-126.4741530087457
 31
0.0
  0
LINE
  5
126636
  8
0
 62
     0
 10
3971.3754336140919
 20
-121.9840249482108
 30
0.0
 11
3969.899516623394
 21
-120.5081079575113
 31
0.0
  0
LINE
  5
126637
  8
0
 62
     0
 10
3977.763602446279
 20
-128.3721937803972
 30
0.0
 11
3975.8655616746269
 21
-126.4741530087454
 31
0.0
  0
LINE
  5
126638
  8
0
 62
     0
 10
3971.1725803665872
 20
-130.76142782177519
 30
0.0
 11
3966.8853055535569
 21
-126.4741530087454
 31
0.0
  0
LINE
  5
126639
  8
0
 62
     0
 10
3962.3951774930229
 20
-130.96428106928039
 30
0.0
 11
3957.9050494324879
 21
-126.4741530087458
 31
0.0
  0
LINE
  5
12663A
  8
0
 62
     0
 10
3953.4149213719538
 20
-130.9642810692801
 30
0.0
 11
3952.1787945338201
 21
-129.72815423114619
 31
0.0
  0
LINE
  5
12663B
  8
0
 62
     0
 10
3959.393937886342
 20
-136.943297583668
 30
0.0
 11
3957.9050494324879
 21
-135.45440912981471
 31
0.0
  0
LINE
  5
12663C
  8
0
 62
     0
 10
3953.4149213719538
 20
-139.94453719034911
 30
0.0
 11
3948.9247933114189
 21
-135.45440912981459
 31
0.0
  0
LINE
  5
12663D
  8
0
 62
     0
 10
3944.4346652508839
 20
-139.94453719034911
 30
0.0
 11
3942.1829321375349
 21
-137.69280407699949
 31
0.0
  0
LINE
  5
12663E
  8
0
 62
     0
 10
3949.2595972728632
 20
-144.76946921232741
 30
0.0
 11
3948.9247933114189
 21
-144.4346652508836
 31
0.0
  0
LINE
  5
12663F
  8
0
 62
     0
 10
3944.4346652508839
 20
-148.92479331141831
 30
0.0
 11
3939.9445371903498
 21
-144.43466525088371
 31
0.0
  0
LINE
  5
126640
  8
0
 62
     0
 10
4057.8170678624638
 20
-262.30719592299891
 30
0.0
 11
4057.509871939465
 21
-261.99999999999898
 31
0.0
  0
LINE
  5
126641
  8
0
 62
     0
 10
3935.4544091298148
 20
-148.9247933114182
 30
0.0
 11
3933.5392925284159
 21
-147.00967671001919
 31
0.0
  0
LINE
  5
126642
  8
0
 62
     0
 10
3940.6612225988802
 20
-154.13160678048209
 30
0.0
 11
3939.9445371903498
 21
-153.4149213719528
 31
0.0
  0
LINE
  5
126643
  8
0
 62
     0
 10
4052.1977387037132
 20
-265.6681228853173
 30
0.0
 11
4048.529615818396
 21
-261.99999999999909
 31
0.0
  0
LINE
  5
126644
  8
0
 62
     0
 10
3935.4544091298171
 20
-157.9050494324874
 30
0.0
 11
3930.9642810692808
 21
-153.414921371953
 31
0.0
  0
LINE
  5
126645
  8
0
 62
     0
 10
4043.217482582646
 20
-265.66812288531719
 30
0.0
 11
4040.606062113658
 21
-263.05670241633021
 31
0.0
  0
LINE
  5
126646
  8
0
 62
     0
 10
4047.8212054661799
 20
-270.27184576885168
 30
0.0
 11
4047.70761064318
 21
-270.15825094585188
 31
0.0
  0
LINE
  5
126647
  8
0
 62
     0
 10
3926.4741530087458
 20
-157.9050494324876
 30
0.0
 11
3926.271409419352
 21
-157.70230584309289
 31
0.0
  0
LINE
  5
126648
  8
0
 62
     0
 10
3933.6335430370682
 20
-165.06443946080969
 30
0.0
 11
3930.9642810692808
 21
-162.3951774930222
 31
0.0
  0
LINE
  5
126649
  8
0
 62
     0
 10
4042.297694156905
 20
-273.72859058064722
 30
0.0
 11
4038.727354522111
 21
-270.15825094585227
 31
0.0
  0
LINE
  5
12664A
  8
0
 62
     0
 10
3926.4741530087458
 20
-166.88530555355689
 30
0.0
 11
3923.1884639044451
 21
-163.59961644925551
 31
0.0
  0
LINE
  5
12664B
  8
0
 62
     0
 10
4034.237226461576
 20
-274.64837900638662
 30
0.0
 11
4029.7470984010411
 21
-270.15825094585199
 31
0.0
  0
LINE
  5
12664C
  8
0
 62
     0
 10
3926.4741530087458
 20
-175.86556167462581
 30
0.0
 11
3921.9840249482122
 21
-171.37543361409129
 31
0.0
  0
LINE
  5
12664D
  8
0
 62
     0
 10
4025.256970340507
 20
-274.64837900638662
 30
0.0
 11
4022.2363975537201
 21
-271.6278062196011
 31
0.0
  0
LINE
  5
12664E
  8
0
 62
     0
 10
4030.1004833766069
 20
-279.49189204248711
 30
0.0
 11
4029.7470984010411
 21
-279.13850706692119
 31
0.0
  0
LINE
  5
12664F
  8
0
 62
     0
 10
3926.4741530087458
 20
-184.84581779569501
 30
0.0
 11
3921.9840249482122
 21
-180.3556897351605
 31
0.0
  0
LINE
  5
126650
  8
0
 62
     0
 10
4016.276714219438
 20
-274.64837900638662
 30
0.0
 11
4015.0938151604519
 21
-273.46547994740098
 31
0.0
  0
LINE
  5
126651
  8
0
 62
     0
 10
4023.3564095409911
 20
-281.72807432794031
 30
0.0
 11
4020.766842279972
 21
-279.13850706692108
 31
0.0
  0
LINE
  5
126652
  8
0
 62
     0
 10
3917.4938968876768
 20
-184.8458177956949
 30
0.0
 11
3916.540209967503
 21
-183.89213087551991
 31
0.0
  0
LINE
  5
126653
  8
0
 62
     0
 10
3925.3553968115771
 20
-192.7073177195951
 30
0.0
 11
3921.9840249482122
 21
-189.3359458562295
 31
0.0
  0
LINE
  5
126654
  8
0
 62
     0
 10
4007.2964580983689
 20
-274.64837900638651
 30
0.0
 11
4007.2926822804038
 21
-274.6446031884218
 31
0.0
  0
LINE
  5
126655
  8
0
 62
     0
 10
4016.1078691244779
 20
-283.45979003249693
 30
0.0
 11
4011.7865861589039
 21
-279.13850706692102
 31
0.0
  0
LINE
  5
126656
  8
0
 62
     0
 10
3925.012047226568
 20
-201.34422425565469
 30
0.0
 11
3923.6678229709119
 21
-199.9999999999992
 31
0.0
  0
LINE
  5
126657
  8
0
 62
     0
 10
3917.4938968876768
 20
-193.82607391676399
 30
0.0
 11
3915.4027830531209
 21
-191.73496008220761
 31
0.0
  0
LINE
  5
126658
  8
0
 62
     0
 10
3923.6678229709119
 20
-199.99999999999901
 30
0.0
 11
3921.9840249482108
 21
-198.3162019772985
 31
0.0
  0
LINE
  5
126659
  8
0
 62
     0
 10
4007.2964580983689
 20
-283.6286351274556
 30
0.0
 11
4002.806330037834
 21
-279.13850706692108
 31
0.0
  0
LINE
  5
12665A
  8
0
 62
     0
 10
3917.4938968876768
 20
-202.80633003783291
 30
0.0
 11
3915.0005763250811
 21
-200.31300947523701
 31
0.0
  0
LINE
  5
12665B
  8
0
 62
     0
 10
3925.8327188999019
 20
-211.14515205005731
 30
0.0
 11
3921.9840249482122
 21
-207.29645809836751
 31
0.0
  0
LINE
  5
12665C
  8
0
 62
     0
 10
3989.33594585623
 20
-274.64837900638599
 30
0.0
 11
3988.8548479499409
 21
-274.16728110009763
 31
0.0
  0
LINE
  5
12665D
  8
0
 62
     0
 10
3998.316201977299
 20
-283.62863512745508
 30
0.0
 11
3993.826073916764
 21
-279.13850706692062
 31
0.0
  0
LINE
  5
12665E
  8
0
 62
     0
 10
3917.4938968876768
 20
-211.7865861589022
 30
0.0
 11
3915.5746775417588
 21
-209.8673668129841
 31
0.0
  0
LINE
  5
12665F
  8
0
 62
     0
 10
3926.4741530087458
 20
-220.7668422799714
 30
0.0
 11
3921.9840249482122
 21
-216.2767142194368
 31
0.0
  0
LINE
  5
126660
  8
0
 62
     0
 10
3980.3556897351609
 20
-274.64837900638628
 30
0.0
 11
3977.1378516142122
 21
-271.43054088543681
 31
0.0
  0
LINE
  5
126661
  8
0
 62
     0
 10
3989.3359458562309
 20
-283.62863512745548
 30
0.0
 11
3984.8458177956959
 21
-279.13850706692091
 31
0.0
  0
LINE
  5
126662
  8
0
 62
     0
 10
3926.4741530087458
 20
-229.7470984010408
 30
0.0
 11
3921.9840249482122
 21
-225.2569703405062
 31
0.0
  0
LINE
  5
126663
  8
0
 62
     0
 10
3935.4544091298148
 20
-238.72735452210981
 30
0.0
 11
3930.9642810692808
 21
-234.2372264615754
 31
0.0
  0
LINE
  5
126664
  8
0
 62
     0
 10
3962.3951774930242
 20
-265.66812288531742
 30
0.0
 11
3960.453799736681
 21
-263.72674512897458
 31
0.0
  0
LINE
  5
126665
  8
0
 62
     0
 10
3971.3754336140919
 20
-274.64837900638662
 30
0.0
 11
3966.8853055535578
 21
-270.15825094585199
 31
0.0
  0
LINE
  5
126666
  8
0
 62
     0
 10
3979.1234799614899
 20
-282.39642535378249
 30
0.0
 11
3975.8655616746269
 21
-279.13850706692108
 31
0.0
  0
LINE
  5
126667
  8
0
 62
     0
 10
3926.4741530087472
 20
-238.72735452211001
 30
0.0
 11
3922.3721274786062
 21
-234.6253289919695
 31
0.0
  0
LINE
  5
126668
  8
0
 62
     0
 10
3935.4544091298171
 20
-247.70761064317909
 30
0.0
 11
3930.9642810692808
 21
-243.21748258264461
 31
0.0
  0
LINE
  5
126669
  8
0
 62
     0
 10
3944.4346652508848
 20
-256.68786676424838
 30
0.0
 11
3939.9445371903512
 21
-252.1977387037137
 31
0.0
  0
LINE
  5
12666A
  8
0
 62
     0
 10
3953.4149213719538
 20
-265.66812288531742
 30
0.0
 11
3948.9247933114189
 21
-261.17799482478279
 31
0.0
  0
LINE
  5
12666B
  8
0
 62
     0
 10
3962.3951774930229
 20
-274.64837900638662
 30
0.0
 11
3957.9050494324879
 21
-270.15825094585199
 31
0.0
  0
LINE
  5
12666C
  8
0
 62
     0
 10
4050.5139406810131
 20
-132.64807909198001
 30
0.0
 11
4047.1257436625701
 21
-129.25988207353819
 31
0.0
  0
LINE
  5
12666D
  8
0
 62
     0
 10
4055.8658615890322
 20
-137.9999999999992
 30
0.0
 11
4055.0040687415481
 21
-137.1382071525147
 31
0.0
  0
LINE
  5
12666E
  8
0
 62
     0
 10
4032.5534284388759
 20
-123.6678229709118
 30
0.0
 11
4028.977508106414
 21
-120.0919026384511
 31
0.0
  0
LINE
  5
12666F
  8
0
 62
     0
 10
4041.533684559944
 20
-132.64807909198089
 30
0.0
 11
4037.04355649941
 21
-128.1579510314464
 31
0.0
  0
LINE
  5
126670
  8
0
 62
     0
 10
4046.8856054679632
 20
-137.99999999999901
 30
0.0
 11
4046.0238126204799
 21
-137.13820715251549
 31
0.0
  0
LINE
  5
126671
  8
0
 62
     0
 10
4023.573172317806
 20
-123.6678229709115
 30
0.0
 11
4019.0830442572701
 21
-119.1776949103769
 31
0.0
  0
LINE
  5
126672
  8
0
 62
     0
 10
4032.1417147619541
 20
-132.2363654150605
 30
0.0
 11
4028.063300378341
 21
-128.15795103144609
 31
0.0
  0
LINE
  5
126673
  8
0
 62
     0
 10
4014.592916196737
 20
-123.6678229709114
 30
0.0
 11
4010.102788136202
 21
-119.1776949103769
 31
0.0
  0
LINE
  5
126674
  8
0
 62
     0
 10
4005.6126600756679
 20
-123.6678229709113
 30
0.0
 11
4001.1225320151329
 21
-119.1776949103767
 31
0.0
  0
LINE
  5
126675
  8
0
 62
     0
 10
3996.6324039545989
 20
-123.6678229709114
 30
0.0
 11
3992.1422758940639
 21
-119.1776949103769
 31
0.0
  0
LINE
  5
126676
  8
0
 62
     0
 10
3987.6521478335299
 20
-123.6678229709111
 30
0.0
 11
3983.1620197729958
 21
-119.1776949103765
 31
0.0
  0
LINE
  5
126677
  8
0
 62
     0
 10
3978.6718917124608
 20
-123.6678229709112
 30
0.0
 11
3974.1817636519272
 21
-119.1776949103766
 31
0.0
  0
LINE
  5
126678
  8
0
 62
     0
 10
3969.6916355913918
 20
-123.6678229709111
 30
0.0
 11
3967.4875677912742
 21
-121.4637551707935
 31
0.0
  0
LINE
  5
126679
  8
0
 62
     0
 10
3975.2316575878999
 20
-129.20784496741859
 30
0.0
 11
3974.1817636519258
 21
-128.15795103144569
 31
0.0
  0
LINE
  5
12667A
  8
0
 62
     0
 10
3968.8282803805801
 20
-131.78472388116879
 30
0.0
 11
3965.2015075308559
 21
-128.15795103144521
 31
0.0
  0
LINE
  5
12667B
  8
0
 62
     0
 10
3960.7113794703232
 20
-132.64807909198041
 30
0.0
 11
3956.2212514097891
 21
-128.1579510314458
 31
0.0
  0
LINE
  5
12667C
  8
0
 62
     0
 10
3951.7311233492551
 20
-132.64807909198069
 30
0.0
 11
3950.1996367906331
 21
-131.11659253336001
 31
0.0
  0
LINE
  5
12667D
  8
0
 62
     0
 10
3957.3739138312571
 20
-138.29086957398431
 30
0.0
 11
3956.2212514097891
 21
-137.13820715251521
 31
0.0
  0
LINE
  5
12667E
  8
0
 62
     0
 10
3951.7311233492551
 20
-141.62833521305001
 30
0.0
 11
3947.2409952887192
 21
-137.13820715251541
 31
0.0
  0
LINE
  5
12667F
  8
0
 62
     0
 10
3942.7508672281838
 20
-141.62833521304941
 30
0.0
 11
3940.4598102808641
 21
-139.33727826572991
 31
0.0
  0
LINE
  5
126680
  8
0
 62
     0
 10
3947.5312275343699
 20
-146.40869551923541
 30
0.0
 11
3947.2409952887178
 21
-146.1184632735839
 31
0.0
  0
LINE
  5
126681
  8
0
 62
     0
 10
3942.7508672281838
 20
-150.6085913341189
 30
0.0
 11
3938.2607391676502
 21
-146.1184632735843
 31
0.0
  0
LINE
  5
126682
  8
0
 62
     0
 10
4056.046666648067
 20
-263.90439075400258
 30
0.0
 11
4055.0040687415481
 21
-262.86179284748329
 31
0.0
  0
LINE
  5
126683
  8
0
 62
     0
 10
3933.7706111071152
 20
-150.6085913341187
 30
0.0
 11
3932.069493308034
 21
-148.9074735350377
 31
0.0
  0
LINE
  5
126684
  8
0
 62
     0
 10
3939.220522823553
 20
-156.05850305055731
 30
0.0
 11
3938.2607391676488
 21
-155.09871939465319
 31
0.0
  0
LINE
  5
126685
  8
0
 62
     0
 10
4050.5139406810131
 20
-267.35192090801792
 30
0.0
 11
4046.023812620479
 21
-262.86179284748329
 31
0.0
  0
LINE
  5
126686
  8
0
 62
     0
 10
3933.7706111071138
 20
-159.5888474551875
 30
0.0
 11
3929.2804830465811
 21
-155.0987193946529
 31
0.0
  0
LINE
  5
126687
  8
0
 62
     0
 10
4041.533684559944
 20
-267.35192090801752
 30
0.0
 11
4038.5287537489799
 21
-264.34699009705378
 31
0.0
  0
LINE
  5
126688
  8
0
 62
     0
 10
3932.5031866541531
 20
-167.3016791232952
 30
0.0
 11
3929.2804830465811
 21
-164.0789755157231
 31
0.0
  0
LINE
  5
126689
  8
0
 62
     0
 10
4040.1313215574169
 20
-274.92981402656062
 30
0.0
 11
4037.04355649941
 21
-271.84204896855249
 31
0.0
  0
LINE
  5
12668A
  8
0
 62
     0
 10
3924.7903549860471
 20
-168.56910357625699
 30
0.0
 11
3922.1342441411598
 21
-165.9129927313713
 31
0.0
  0
LINE
  5
12668B
  8
0
 62
     0
 10
3929.8058092476431
 20
-173.58455783785379
 30
0.0
 11
3929.2804830465811
 21
-173.05923163679159
 31
0.0
  0
LINE
  5
12668C
  8
0
 62
     0
 10
4032.5534284388759
 20
-276.33217702908701
 30
0.0
 11
4028.063300378341
 21
-271.84204896855238
 31
0.0
  0
LINE
  5
12668D
  8
0
 62
     0
 10
3924.7903549860471
 20
-177.54935969732591
 30
0.0
 11
3920.3002269255112
 21
-173.05923163679131
 31
0.0
  0
LINE
  5
12668E
  8
0
 62
     0
 10
4023.573172317806
 20
-276.33217702908678
 30
0.0
 11
4019.6272564463952
 21
-272.38626115767607
 31
0.0
  0
LINE
  5
12668F
  8
0
 62
     0
 10
3924.7903549860471
 20
-186.52961581839551
 30
0.0
 11
3920.3002269255121
 21
-182.039487757861
 31
0.0
  0
LINE
  5
126690
  8
0
 62
     0
 10
4014.592916196737
 20
-276.33217702908712
 30
0.0
 11
4012.2530540778212
 21
-273.99231491017071
 31
0.0
  0
LINE
  5
126691
  8
0
 62
     0
 10
4020.7013490002441
 20
-282.44060983259368
 30
0.0
 11
4019.0830442572701
 21
-280.82230508962169
 31
0.0
  0
LINE
  5
126692
  8
0
 62
     0
 10
3924.7903549860471
 20
-195.5098719394644
 30
0.0
 11
3920.3002269255121
 21
-191.0197438789298
 31
0.0
  0
LINE
  5
126693
  8
0
 62
     0
 10
4005.6126600756679
 20
-276.33217702908678
 30
0.0
 11
4004.1647589835802
 21
-274.88427593699879
 31
0.0
  0
LINE
  5
126694
  8
0
 62
     0
 10
4013.2425818009829
 20
-283.96209875440292
 30
0.0
 11
4010.102788136202
 21
-280.82230508962141
 31
0.0
  0
LINE
  5
126695
  8
0
 62
     0
 10
3924.7903549860471
 20
-204.49012806053369
 30
0.0
 11
3920.3002269255121
 21
-199.99999999999909
 31
0.0
  0
LINE
  5
126696
  8
0
 62
     0
 10
3996.6324039545989
 20
-276.33217702908689
 30
0.0
 11
3995.1427775935249
 21
-274.84255066801131
 31
0.0
  0
LINE
  5
126697
  8
0
 62
     0
 10
3915.8100988649771
 20
-195.5098719394644
 30
0.0
 11
3915.15581890257
 21
-194.8555919770578
 31
0.0
  0
LINE
  5
126698
  8
0
 62
     0
 10
4005.1444080229421
 20
-284.8441810974291
 30
0.0
 11
4001.1225320151329
 21
-280.82230508962158
 31
0.0
  0
LINE
  5
126699
  8
0
 62
     0
 10
3915.8100988649771
 20
-204.49012806053361
 30
0.0
 11
3915.0833528969388
 21
-203.7633820924957
 31
0.0
  0
LINE
  5
12669A
  8
0
 62
     0
 10
3924.7903549860471
 20
-213.4703841816027
 30
0.0
 11
3920.3002269255121
 21
-208.98025612106821
 31
0.0
  0
LINE
  5
12669B
  8
0
 62
     0
 10
3987.6521478335299
 20
-276.33217702908712
 30
0.0
 11
3984.7540244045458
 21
-273.4340536001024
 31
0.0
  0
LINE
  5
12669C
  8
0
 62
     0
 10
3996.2366179075038
 20
-284.91664710306048
 30
0.0
 11
3992.1422758940639
 21
-280.82230508962158
 31
0.0
  0
LINE
  5
12669D
  8
0
 62
     0
 10
3924.7903549860471
 20
-222.4506403026717
 30
0.0
 11
3920.3002269255121
 21
-217.96051224213721
 31
0.0
  0
LINE
  5
12669E
  8
0
 62
     0
 10
3930.4788649061188
 20
-228.13915022274449
 30
0.0
 11
3929.2804830465811
 21
-226.94076836320639
 31
0.0
  0
LINE
  5
12669F
  8
0
 62
     0
 10
3978.6718917124599
 20
-276.33217702908661
 30
0.0
 11
3974.1817636519258
 21
-271.84204896855198
 31
0.0
  0
LINE
  5
1266A0
  8
0
 62
     0
 10
3986.214360019977
 20
-283.87464533660358
 30
0.0
 11
3983.1620197729949
 21
-280.82230508962118
 31
0.0
  0
LINE
  5
1266A1
  8
0
 62
     0
 10
3924.7903549860471
 20
-231.4308964237413
 30
0.0
 11
3920.3002269255121
 21
-226.94076836320679
 31
0.0
  0
LINE
  5
1266A2
  8
0
 62
     0
 10
3933.7706111071161
 20
-240.41115254481051
 30
0.0
 11
3929.2804830465811
 21
-235.9210244842759
 31
0.0
  0
LINE
  5
1266A3
  8
0
 62
     0
 10
3942.7508672281838
 20
-249.3914086658796
 30
0.0
 11
3938.2607391676502
 21
-244.90128060534491
 31
0.0
  0
LINE
  5
1266A4
  8
0
 62
     0
 10
3951.7311233492551
 20
-258.37166478694883
 30
0.0
 11
3947.2409952887192
 21
-253.8815367264142
 31
0.0
  0
LINE
  5
1266A5
  8
0
 62
     0
 10
3960.7113794703232
 20
-267.35192090801792
 30
0.0
 11
3956.2212514097891
 21
-262.8617928474834
 31
0.0
  0
LINE
  5
1266A6
  8
0
 62
     0
 10
3969.6916355913918
 20
-276.33217702908712
 30
0.0
 11
3965.2015075308582
 21
-271.84204896855249
 31
0.0
  0
LINE
  5
1266A7
  8
0
 62
     0
 10
3974.4186681662059
 20
-281.05920960390091
 30
0.0
 11
3974.1817636519272
 21
-280.82230508962158
 31
0.0
  0
LINE
  5
1266A8
  8
0
 62
     0
 10
3933.7706111071152
 20
-249.3914086658794
 30
0.0
 11
3929.2804830465811
 21
-244.90128060534479
 31
0.0
  0
LINE
  5
1266A9
  8
0
 62
     0
 10
3942.7508672281838
 20
-258.37166478694849
 30
0.0
 11
3938.2607391676488
 21
-253.881536726414
 31
0.0
  0
LINE
  5
1266AA
  8
0
 62
     0
 10
3951.7311233492528
 20
-267.35192090801769
 30
0.0
 11
3947.2409952887178
 21
-262.86179284748312
 31
0.0
  0
LINE
  5
1266AB
  8
0
 62
     0
 10
3958.635202242433
 20
-274.25599980119728
 30
0.0
 11
3956.221251409786
 21
-271.84204896855232
 31
0.0
  0
LINE
  5
1266AC
  8
0
 62
     0
 10
4050.9536729964252
 20
-268.03472060773998
 30
0.0
 11
4055.0040687415481
 21
-263.98432486261697
 31
0.0
  0
LINE
  5
1266AD
  8
0
 62
     0
 10
4041.533684559944
 20
-268.4744529231512
 30
0.0
 11
4046.023812620479
 21
-263.98432486261657
 31
0.0
  0
LINE
  5
1266AE
  8
0
 62
     0
 10
4032.5534284388759
 20
-277.45470904422041
 30
0.0
 11
4037.04355649941
 21
-272.96458098368578
 31
0.0
  0
LINE
  5
1266AF
  8
0
 62
     0
 10
4032.5534284388759
 20
-268.4744529231512
 30
0.0
 11
4034.3633432655911
 21
-266.66453809643377
 31
0.0
  0
LINE
  5
1266B0
  8
0
 62
     0
 10
4023.573172317806
 20
-277.45470904422029
 30
0.0
 11
4028.063300378341
 21
-272.96458098368572
 31
0.0
  0
LINE
  5
1266B1
  8
0
 62
     0
 10
4017.943374261697
 20
-283.08450710032798
 30
0.0
 11
4019.0830442572701
 21
-281.94483710475492
 31
0.0
  0
LINE
  5
1266B2
  8
0
 62
     0
 10
4014.592916196737
 20
-277.45470904422001
 30
0.0
 11
4019.0830442572701
 21
-272.96458098368549
 31
0.0
  0
LINE
  5
1266B3
  8
0
 62
     0
 10
4007.36752371589
 20
-284.68010152506679
 30
0.0
 11
4010.102788136202
 21
-281.94483710475458
 31
0.0
  0
LINE
  5
1266B4
  8
0
 62
     0
 10
4005.6126600756679
 20
-277.45470904422041
 30
0.0
 11
4008.5571315733901
 21
-274.51023754649788
 31
0.0
  0
LINE
  5
1266B5
  8
0
 62
     0
 10
4000.0
 20
-283.0673691198885
 30
0.0
 11
4001.1225320151329
 21
-281.94483710475492
 31
0.0
  0
LINE
  5
1266B6
  8
0
 62
     0
 10
3998.0888569405961
 20
-284.97851217929349
 30
0.0
 11
4000.0
 21
-283.06736911988838
 31
0.0
  0
LINE
  5
1266B7
  8
0
 62
     0
 10
3996.6324039545989
 20
-277.45470904422058
 30
0.0
 11
3999.0926023365032
 21
-274.99451066231558
 31
0.0
  0
LINE
  5
1266B8
  8
0
 62
     0
 10
3989.7120139313201
 20
-284.37509906750029
 30
0.0
 11
3992.1422758940639
 21
-281.94483710475521
 31
0.0
  0
LINE
  5
1266B9
  8
0
 62
     0
 10
3987.6521478335299
 20
-277.45470904422001
 30
0.0
 11
3990.687281053727
 21
-274.41957582402341
 31
0.0
  0
LINE
  5
1266BA
  8
0
 62
     0
 10
3982.0284415821229
 20
-283.07841529562711
 30
0.0
 11
3983.1620197729958
 21
-281.94483710475458
 31
0.0
  0
LINE
  5
1266BB
  8
0
 62
     0
 10
3978.6718917124608
 20
-277.45470904422041
 30
0.0
 11
3983.0638429163332
 21
-273.0627578403475
 31
0.0
  0
LINE
  5
1266BC
  8
0
 62
     0
 10
3969.6916355913918
 20
-277.45470904422041
 30
0.0
 11
3974.1817636519258
 21
-272.96458098368589
 31
0.0
  0
LINE
  5
1266BD
  8
0
 62
     0
 10
3962.0888566424378
 20
-276.07723187210598
 30
0.0
 11
3965.2015075308568
 21
-272.96458098368589
 31
0.0
  0
LINE
  5
1266BE
  8
0
 62
     0
 10
3960.7113794703232
 20
-268.47445292315132
 30
0.0
 11
3963.60716527675
 21
-265.57866711672352
 31
0.0
  0
LINE
  5
1266BF
  8
0
 62
     0
 10
3951.7311233492551
 20
-268.47445292315092
 30
0.0
 11
3956.2212514097891
 21
-263.9843248626164
 31
0.0
  0
LINE
  5
1266C0
  8
0
 62
     0
 10
3951.7311233492551
 20
-259.49419680208177
 30
0.0
 11
3952.8774911001642
 21
-258.34782905117117
 31
0.0
  0
LINE
  5
1266C1
  8
0
 62
     0
 10
3945.7712191933251
 20
-265.4541009580106
 30
0.0
 11
3947.2409952887192
 21
-263.9843248626164
 31
0.0
  0
LINE
  5
1266C2
  8
0
 62
     0
 10
3942.7508672281838
 20
-259.49419680208212
 30
0.0
 11
3947.2409952887178
 21
-255.00406874154771
 31
0.0
  0
LINE
  5
1266C3
  8
0
 62
     0
 10
3942.7508672281838
 20
-250.51394068101291
 30
0.0
 11
3943.7064245411289
 21
-249.55838336806741
 31
0.0
  0
LINE
  5
1266C4
  8
0
 62
     0
 10
3936.622743924941
 20
-256.64206398425489
 30
0.0
 11
3938.2607391676488
 21
-255.00406874154751
 31
0.0
  0
LINE
  5
1266C5
  8
0
 62
     0
 10
4050.5139406810131
 20
-133.77061110711421
 30
0.0
 11
4051.7304976486612
 21
-132.5540541394667
 31
0.0
  0
LINE
  5
1266C6
  8
0
 62
     0
 10
3933.7706111071152
 20
-250.51394068101291
 30
0.0
 11
3938.2607391676488
 21
-246.02381262047831
 31
0.0
  0
LINE
  5
1266C7
  8
0
 62
     0
 10
4041.533684559944
 20
-133.77061110711401
 30
0.0
 11
4046.023812620479
 21
-129.28048304657941
 31
0.0
  0
LINE
  5
1266C8
  8
0
 62
     0
 10
3933.7706111071152
 20
-241.53368455994359
 30
0.0
 11
3936.0766638622199
 21
-239.22763180484009
 31
0.0
  0
LINE
  5
1266C9
  8
0
 62
     0
 10
3928.8301234984651
 20
-246.47417216859409
 30
0.0
 11
3929.2804830465811
 21
-246.0238126204782
 31
0.0
  0
LINE
  5
1266CA
  8
0
 62
     0
 10
4033.4510088449092
 20
-132.87303070108121
 30
0.0
 11
4037.04355649941
 21
-129.28048304657929
 31
0.0
  0
LINE
  5
1266CB
  8
0
 62
     0
 10
3925.4646851562661
 20
-240.85935438972501
 30
0.0
 11
3929.2804830465811
 21
-237.04355649940939
 31
0.0
  0
LINE
  5
1266CC
  8
0
 62
     0
 10
4032.5534284388759
 20
-124.7903549860448
 30
0.0
 11
4034.8645228741611
 21
-122.4792605507585
 31
0.0
  0
LINE
  5
1266CD
  8
0
 62
     0
 10
4027.2271365051188
 20
-130.11664691980121
 30
0.0
 11
4028.063300378341
 21
-129.28048304657941
 31
0.0
  0
LINE
  5
1266CE
  8
0
 62
     0
 10
3924.7903549860471
 20
-232.5534284388745
 30
0.0
 11
3929.2804830465811
 21
-228.0633003783399
 31
0.0
  0
LINE
  5
1266CF
  8
0
 62
     0
 10
4023.573172317806
 20
-124.7903549860448
 30
0.0
 11
4028.063300378341
 21
-120.3002269255102
 31
0.0
  0
LINE
  5
1266D0
  8
0
 62
     0
 10
3924.7903549860471
 20
-223.57317231780559
 30
0.0
 11
3927.8577021733058
 21
-220.50582513054559
 31
0.0
  0
LINE
  5
1266D1
  8
0
 62
     0
 10
3919.905445870826
 20
-228.4580814330256
 30
0.0
 11
3920.3002269255112
 21
-228.0633003783401
 31
0.0
  0
LINE
  5
1266D2
  8
0
 62
     0
 10
4014.592916196737
 20
-124.7903549860449
 30
0.0
 11
4019.0830442572701
 21
-120.3002269255104
 31
0.0
  0
LINE
  5
1266D3
  8
0
 62
     0
 10
3924.7903549860471
 20
-214.59291619673641
 30
0.0
 11
3926.172639200448
 21
-213.21063198233429
 31
0.0
  0
LINE
  5
1266D4
  8
0
 62
     0
 10
3917.788812480554
 20
-221.59445870222919
 30
0.0
 11
3920.3002269255112
 21
-219.08304425727101
 31
0.0
  0
LINE
  5
1266D5
  8
0
 62
     0
 10
4005.6126600756679
 20
-124.7903549860446
 30
0.0
 11
4010.102788136202
 21
-120.3002269255101
 31
0.0
  0
LINE
  5
1266D6
  8
0
 62
     0
 10
3924.7903549860471
 20
-205.61266007566701
 30
0.0
 11
3925.181950788246
 21
-205.2210642734662
 31
0.0
  0
LINE
  5
1266D7
  8
0
 62
     0
 10
3916.1957433609659
 20
-214.20727170074721
 30
0.0
 11
3920.3002269255121
 21
-210.10278813620161
 31
0.0
  0
LINE
  5
1266D8
  8
0
 62
     0
 10
3996.6324039545989
 20
-124.7903549860448
 30
0.0
 11
4000.0
 21
-121.422758940644
 31
0.0
  0
LINE
  5
1266D9
  8
0
 62
     0
 10
3924.7903549860471
 20
-196.63240395459809
 30
0.0
 11
3925.0896965107122
 21
-196.33306242993169
 31
0.0
  0
LINE
  5
1266DA
  8
0
 62
     0
 10
4005.6126600756679
 20
-115.8100988649755
 30
0.0
 11
4006.1965891199989
 21
-115.2261698206453
 31
0.0
  0
LINE
  5
1266DB
  8
0
 62
     0
 10
4000.0
 20
-121.4227589406439
 30
0.0
 11
4001.1225320151329
 21
-120.3002269255101
 31
0.0
  0
LINE
  5
1266DC
  8
0
 62
     0
 10
3915.8100988649771
 20
-205.61266007566701
 30
0.0
 11
3920.3002269255121
 21
-201.12253201513249
 31
0.0
  0
LINE
  5
1266DD
  8
0
 62
     0
 10
3996.6324039545989
 20
-115.8100988649758
 30
0.0
 11
3997.402814904573
 21
-115.0396879150022
 31
0.0
  0
LINE
  5
1266DE
  8
0
 62
     0
 10
3987.6521478335299
 20
-124.790354986045
 30
0.0
 11
3992.1422758940639
 21
-120.3002269255104
 31
0.0
  0
LINE
  5
1266DF
  8
0
 62
     0
 10
3924.7903549860471
 20
-187.65214783352911
 30
0.0
 11
3926.2893090759699
 21
-186.1531937436045
 31
0.0
  0
LINE
  5
1266E0
  8
0
 62
     0
 10
3915.8100988649771
 20
-196.6324039545982
 30
0.0
 11
3920.3002269255112
 21
-192.14227589406369
 31
0.0
  0
LINE
  5
1266E1
  8
0
 62
     0
 10
3978.6718917124599
 20
-124.7903549860448
 30
0.0
 11
3983.1620197729949
 21
-120.3002269255103
 31
0.0
  0
LINE
  5
1266E2
  8
0
 62
     0
 10
3973.6996359724371
 20
-129.7626107260684
 30
0.0
 11
3974.1817636519258
 21
-129.28048304657941
 31
0.0
  0
LINE
  5
1266E3
  8
0
 62
     0
 10
3924.7903549860471
 20
-178.67189171246
 30
0.0
 11
3929.2804830465811
 21
-174.18176365192539
 31
0.0
  0
LINE
  5
1266E4
  8
0
 62
     0
 10
3915.9175009846422
 20
-187.54474571386359
 30
0.0
 11
3920.3002269255121
 21
-183.1620197729946
 31
0.0
  0
LINE
  5
1266E5
  8
0
 62
     0
 10
3969.6916355913918
 20
-124.790354986045
 30
0.0
 11
3974.1817636519258
 21
-120.3002269255104
 31
0.0
  0
LINE
  5
1266E6
  8
0
 62
     0
 10
3960.7113794703232
 20
-133.77061110711409
 30
0.0
 11
3965.2015075308568
 21
-129.28048304657941
 31
0.0
  0
LINE
  5
1266E7
  8
0
 62
     0
 10
3952.6249921196049
 20
-141.85699845783171
 30
0.0
 11
3956.2212514097891
 21
-138.26073916764869
 31
0.0
  0
LINE
  5
1266E8
  8
0
 62
     0
 10
3933.7706111071152
 20
-160.71137947032159
 30
0.0
 11
3938.2607391676488
 21
-156.22125140978699
 31
0.0
  0
LINE
  5
1266E9
  8
0
 62
     0
 10
3924.7903549860471
 20
-169.69163559139079
 30
0.0
 11
3929.2804830465811
 21
-165.20150753085619
 31
0.0
  0
LINE
  5
1266EA
  8
0
 62
     0
 10
3918.448853619941
 20
-176.0331369574958
 30
0.0
 11
3920.3002269255121
 21
-174.18176365192531
 31
0.0
  0
LINE
  5
1266EB
  8
0
 62
     0
 10
3960.7113794703218
 20
-124.7903549860447
 30
0.0
 11
3961.0548776323271
 21
-124.4468568240398
 31
0.0
  0
LINE
  5
1266EC
  8
0
 62
     0
 10
3951.7311233492528
 20
-133.77061110711381
 30
0.0
 11
3956.221251409786
 21
-129.28048304657921
 31
0.0
  0
LINE
  5
1266ED
  8
0
 62
     0
 10
3942.7508672281838
 20
-142.7508672281829
 30
0.0
 11
3947.2409952887178
 21
-138.26073916764841
 31
0.0
  0
LINE
  5
1266EE
  8
0
 62
     0
 10
3933.7706111071152
 20
-151.7311233492521
 30
0.0
 11
3938.2607391676488
 21
-147.2409952887175
 31
0.0
  0
LINE
  5
1266EF
  8
0
 62
     0
 10
3924.7903549860471
 20
-160.7113794703213
 30
0.0
 11
3929.2804830465811
 21
-156.2212514097867
 31
0.0
  0
LINE
  5
1266F0
  8
0
 62
     0
 10
4043.2174825826451
 20
-270.15825094585188
 30
0.0
 11
4047.7076106431782
 21
-265.66812288531719
 31
0.0
  0
LINE
  5
1266F1
  8
0
 62
     0
 10
4036.7132388148038
 20
-276.66249471369321
 30
0.0
 11
4038.7273545221101
 21
-274.64837900638628
 31
0.0
  0
LINE
  5
1266F2
  8
0
 62
     0
 10
4034.2372264615742
 20
-270.1582509458521
 30
0.0
 11
4038.7273545221101
 21
-265.66812288531747
 31
0.0
  0
LINE
  5
1266F3
  8
0
 62
     0
 10
4025.2569703405052
 20
-279.13850706692131
 30
0.0
 11
4029.7470984010411
 21
-274.64837900638668
 31
0.0
  0
LINE
  5
1266F4
  8
0
 62
     0
 10
4016.2767142194361
 20
-279.13850706692102
 30
0.0
 11
4020.766842279972
 21
-274.64837900638651
 31
0.0
  0
LINE
  5
1266F5
  8
0
 62
     0
 10
4011.1496582016271
 20
-284.26556308473062
 30
0.0
 11
4011.786586158903
 21
-283.6286351274556
 31
0.0
  0
LINE
  5
1266F6
  8
0
 62
     0
 10
4007.2964580983689
 20
-279.13850706692102
 30
0.0
 11
4011.786586158903
 21
-274.64837900638639
 31
0.0
  0
LINE
  5
1266F7
  8
0
 62
     0
 10
4001.447287476341
 20
-284.98767768894908
 30
0.0
 11
4002.806330037834
 21
-283.62863512745548
 31
0.0
  0
LINE
  5
1266F8
  8
0
 62
     0
 10
4000.0
 20
-277.45470904422041
 30
0.0
 11
4002.4962627400669
 21
-274.95844630415212
 31
0.0
  0
LINE
  5
1266F9
  8
0
 62
     0
 10
3998.3162019772999
 20
-279.13850706692108
 30
0.0
 11
4000.0
 21
-277.45470904422041
 31
0.0
  0
LINE
  5
1266FA
  8
0
 62
     0
 10
3992.7633249803198
 20
-284.69138406390198
 30
0.0
 11
3993.8260739167658
 21
-283.6286351274556
 31
0.0
  0
LINE
  5
1266FB
  8
0
 62
     0
 10
3989.33594585623
 20
-279.13850706692131
 30
0.0
 11
3993.7364570340851
 21
-274.73799588906581
 31
0.0
  0
LINE
  5
1266FC
  8
0
 62
     0
 10
3984.8377090123272
 20
-283.6367439108252
 30
0.0
 11
3984.8458177956959
 21
-283.62863512745582
 31
0.0
  0
LINE
  5
1266FD
  8
0
 62
     0
 10
3980.3556897351609
 20
-279.13850706692108
 30
0.0
 11
3984.8458177956959
 21
-274.64837900638662
 31
0.0
  0
LINE
  5
1266FE
  8
0
 62
     0
 10
3971.3754336140919
 20
-279.13850706692131
 30
0.0
 11
3975.8655616746269
 21
-274.64837900638668
 31
0.0
  0
LINE
  5
1266FF
  8
0
 62
     0
 10
3971.3754336140919
 20
-270.15825094585188
 30
0.0
 11
3971.9689093143361
 21
-269.56477524560802
 31
0.0
  0
LINE
  5
126700
  8
0
 62
     0
 10
3964.3643754747118
 20
-277.16930908523409
 30
0.0
 11
3966.8853055535569
 21
-274.64837900638651
 31
0.0
  0
LINE
  5
126701
  8
0
 62
     0
 10
3962.3951774930229
 20
-270.15825094585188
 30
0.0
 11
3965.803269971806
 21
-266.75015846706839
 31
0.0
  0
LINE
  5
126702
  8
0
 62
     0
 10
3953.4149213719538
 20
-270.15825094585199
 30
0.0
 11
3957.9050494324879
 21
-265.66812288531742
 31
0.0
  0
LINE
  5
126703
  8
0
 62
     0
 10
3953.4149213719538
 20
-261.17799482478279
 30
0.0
 11
3954.767783079682
 21
-259.82513311705378
 31
0.0
  0
LINE
  5
126704
  8
0
 62
     0
 10
3947.636909833077
 20
-266.95600636366009
 30
0.0
 11
3948.9247933114189
 21
-265.66812288531742
 31
0.0
  0
LINE
  5
126705
  8
0
 62
     0
 10
3944.4346652508839
 20
-261.17799482478318
 30
0.0
 11
3948.9247933114189
 21
-256.68786676424861
 31
0.0
  0
LINE
  5
126706
  8
0
 62
     0
 10
3944.4346652508839
 20
-252.19773870371381
 30
0.0
 11
3945.3099304217681
 21
-251.32247353283009
 31
0.0
  0
LINE
  5
126707
  8
0
 62
     0
 10
3938.2357157590709
 20
-258.39668819552708
 30
0.0
 11
3939.9445371903498
 21
-256.68786676424838
 31
0.0
  0
LINE
  5
126708
  8
0
 62
     0
 10
4052.1977387037132
 20
-135.45440912981459
 30
0.0
 11
4053.612214758256
 21
-134.0399330752719
 31
0.0
  0
LINE
  5
126709
  8
0
 62
     0
 10
3935.4544091298148
 20
-252.19773870371341
 30
0.0
 11
3939.9445371903498
 21
-247.70761064317881
 31
0.0
  0
LINE
  5
12670A
  8
0
 62
     0
 10
4043.2174825826451
 20
-135.45440912981471
 30
0.0
 11
4047.7076106431782
 21
-130.9642810692801
 31
0.0
  0
LINE
  5
12670B
  8
0
 62
     0
 10
3935.4544091298148
 20
-243.21748258264441
 30
0.0
 11
3937.3861821491769
 21
-241.28570956328321
 31
0.0
  0
LINE
  5
12670C
  8
0
 62
     0
 10
3930.1854771411072
 20
-248.48641457135241
 30
0.0
 11
3930.9642810692808
 21
-247.70761064317901
 31
0.0
  0
LINE
  5
12670D
  8
0
 62
     0
 10
4035.6675726032449
 20
-134.02406298814469
 30
0.0
 11
4038.7273545221101
 21
-130.96428106928059
 31
0.0
  0
LINE
  5
12670E
  8
0
 62
     0
 10
3926.683538252003
 20
-243.0080973393884
 30
0.0
 11
3930.9642810692808
 21
-238.7273545221102
 31
0.0
  0
LINE
  5
12670F
  8
0
 62
     0
 10
4034.2372264615742
 20
-126.4741530087455
 30
0.0
 11
4037.158868116469
 21
-123.5525113538519
 31
0.0
  0
LINE
  5
126710
  8
0
 62
     0
 10
4029.6162325074311
 20
-131.0951469628892
 30
0.0
 11
4029.7470984010411
 21
-130.9642810692801
 31
0.0
  0
LINE
  5
126711
  8
0
 62
     0
 10
3926.4741530087458
 20
-234.2372264615754
 30
0.0
 11
3930.9642810692808
 21
-229.7470984010408
 31
0.0
  0
LINE
  5
126712
  8
0
 62
     0
 10
4025.256970340507
 20
-126.4741530087452
 30
0.0
 11
4029.7470984010411
 21
-121.9840249482106
 31
0.0
  0
LINE
  5
126713
  8
0
 62
     0
 10
3926.4741530087458
 20
-225.25697034050609
 30
0.0
 11
3928.6423800080051
 21
-223.08874334124749
 31
0.0
  0
LINE
  5
126714
  8
0
 62
     0
 10
3920.8198635073882
 20
-230.91125984186439
 30
0.0
 11
3921.9840249482108
 21
-229.7470984010406
 31
0.0
  0
LINE
  5
126715
  8
0
 62
     0
 10
4016.2767142194361
 20
-126.4741530087455
 30
0.0
 11
4020.766842279972
 21
-121.9840249482109
 31
0.0
  0
LINE
  5
126716
  8
0
 62
     0
 10
3926.4741530087458
 20
-216.276714219437
 30
0.0
 11
3926.7309020428152
 21
-216.01996518536791
 31
0.0
  0
LINE
  5
126717
  8
0
 62
     0
 10
3918.5253229309651
 20
-224.22554429721791
 30
0.0
 11
3921.9840249482108
 21
-220.7668422799716
 31
0.0
  0
LINE
  5
126718
  8
0
 62
     0
 10
4016.2767142194361
 20
-117.4938968876765
 30
0.0
 11
4017.0442231228062
 21
-116.72638798430749
 31
0.0
  0
LINE
  5
126719
  8
0
 62
     0
 10
4008.3089342178669
 20
-125.4616768892453
 30
0.0
 11
4011.786586158903
 21
-121.984024948211
 31
0.0
  0
LINE
  5
12671A
  8
0
 62
     0
 10
3917.4938968876768
 20
-216.27671421943711
 30
0.0
 11
3921.9840249482108
 21
-211.78658615890251
 31
0.0
  0
LINE
  5
12671B
  8
0
 62
     0
 10
3999.7900611566838
 20
-125.0002938293609
 30
0.0
 11
4000.0
 21
-124.7903549860448
 31
0.0
  0
LINE
  5
12671C
  8
0
 62
     0
 10
4007.2964580983689
 20
-117.4938968876765
 30
0.0
 11
4009.2820341185061
 21
-115.50832086753741
 31
0.0
  0
LINE
  5
12671D
  8
0
 62
     0
 10
4000.0
 20
-124.7903549860449
 30
0.0
 11
4002.806330037834
 21
-121.9840249482111
 31
0.0
  0
LINE
  5
12671E
  8
0
 62
     0
 10
3917.4938968876768
 20
-207.29645809836811
 30
0.0
 11
3921.9840249482108
 21
-202.8063300378335
 31
0.0
  0
LINE
  5
12671F
  8
0
 62
     0
 10
3998.316201977299
 20
-117.4938968876764
 30
0.0
 11
4000.0
 21
-115.8100988649757
 31
0.0
  0
LINE
  5
126720
  8
0
 62
     0
 10
3990.1620662926812
 20
-125.6480325722948
 30
0.0
 11
3993.826073916764
 21
-121.984024948211
 31
0.0
  0
LINE
  5
126721
  8
0
 62
     0
 10
3917.4938968876768
 20
-198.3162019772989
 30
0.0
 11
3921.9840249482108
 21
-193.82607391676439
 31
0.0
  0
LINE
  5
126722
  8
0
 62
     0
 10
4000.0
 20
-115.8100988649756
 30
0.0
 11
4000.8062747846711
 21
-115.0038240803046
 31
0.0
  0
LINE
  5
126723
  8
0
 62
     0
 10
3989.3359458562309
 20
-117.493896887676
 30
0.0
 11
3991.3929472450659
 21
-115.4368954988411
 31
0.0
  0
LINE
  5
126724
  8
0
 62
     0
 10
3980.3556897351609
 20
-126.4741530087452
 30
0.0
 11
3984.8458177956959
 21
-121.9840249482106
 31
0.0
  0
LINE
  5
126725
  8
0
 62
     0
 10
3926.4741530087458
 20
-180.35568973516041
 30
0.0
 11
3928.0706823970172
 21
-178.75916034689041
 31
0.0
  0
LINE
  5
126726
  8
0
 62
     0
 10
3917.4938968876768
 20
-189.33594585622961
 30
0.0
 11
3921.9840249482122
 21
-184.84581779569501
 31
0.0
  0
LINE
  5
126727
  8
0
 62
     0
 10
3980.3556897351609
 20
-117.4938968876763
 30
0.0
 11
3980.6079633188342
 21
-117.2416233040032
 31
0.0
  0
LINE
  5
126728
  8
0
 62
     0
 10
3971.3754336140919
 20
-126.4741530087454
 30
0.0
 11
3975.8655616746269
 21
-121.9840249482109
 31
0.0
  0
LINE
  5
126729
  8
0
 62
     0
 10
3963.201461750476
 20
-134.6481248723619
 30
0.0
 11
3966.8853055535569
 21
-130.96428106927999
 31
0.0
  0
LINE
  5
12672A
  8
0
 62
     0
 10
3926.4741530087458
 20
-171.37543361409121
 30
0.0
 11
3930.9642810692808
 21
-166.88530555355661
 31
0.0
  0
LINE
  5
12672B
  8
0
 62
     0
 10
3917.4938968876768
 20
-180.3556897351603
 30
0.0
 11
3921.9840249482122
 21
-175.86556167462581
 31
0.0
  0
LINE
  5
12672C
  8
0
 62
     0
 10
3962.395177493021
 20
-126.4741530087456
 30
0.0
 11
3966.8853055535569
 21
-121.9840249482111
 31
0.0
  0
LINE
  5
12672D
  8
0
 62
     0
 10
3953.4149213719529
 20
-135.45440912981479
 30
0.0
 11
3957.9050494324879
 21
-130.96428106928019
 31
0.0
  0
LINE
  5
12672E
  8
0
 62
     0
 10
3944.4346652508839
 20
-144.43466525088391
 30
0.0
 11
3948.9247933114189
 21
-139.94453719034931
 31
0.0
  0
LINE
  5
12672F
  8
0
 62
     0
 10
3935.4544091298148
 20
-153.41492137195311
 30
0.0
 11
3939.9445371903498
 21
-148.92479331141851
 31
0.0
  0
LINE
  5
126730
  8
0
 62
     0
 10
3926.4741530087458
 20
-162.3951774930222
 30
0.0
 11
3930.9642810692808
 21
-157.9050494324876
 31
0.0
  0
LINE
  5
126731
  8
0
 62
     0
 10
3921.5219269985778
 20
-167.34740350319089
 30
0.0
 11
3921.9840249482108
 21
-166.8853055535568
 31
0.0
  0
LINE
  5
126732
  8
0
 62
     0
 10
3937.527641098512
 20
-142.3614332821877
 30
0.0
 11
3939.9445371903498
 21
-139.94453719034939
 31
0.0
  0
LINE
  5
126733
  8
0
 62
     0
 10
4053.8815367264142
 20
-262.8617928474834
 30
0.0
 11
4054.7433295738979
 21
-261.9999999999992
 31
0.0
  0
LINE
  5
126734
  8
0
 62
     0
 10
4044.9012806053461
 20
-271.84204896855249
 30
0.0
 11
4049.3914086658801
 21
-267.35192090801792
 31
0.0
  0
LINE
  5
126735
  8
0
 62
     0
 10
4044.9012806053461
 20
-262.861792847483
 30
0.0
 11
4045.7630734528302
 21
-261.99999999999898
 31
0.0
  0
LINE
  5
126736
  8
0
 62
     0
 10
4035.9210244842761
 20
-271.84204896855209
 30
0.0
 11
4040.411152544812
 21
-267.35192090801758
 31
0.0
  0
LINE
  5
126737
  8
0
 62
     0
 10
4027.2492255236671
 20
-280.51384792916173
 30
0.0
 11
4031.4308964237421
 21
-276.33217702908672
 31
0.0
  0
LINE
  5
126738
  8
0
 62
     0
 10
4026.9407683632062
 20
-271.84204896855238
 30
0.0
 11
4030.0784920037072
 21
-268.70432532805171
 31
0.0
  0
LINE
  5
126739
  8
0
 62
     0
 10
4017.9605122421381
 20
-280.82230508962152
 30
0.0
 11
4022.450640302673
 21
-276.33217702908701
 31
0.0
  0
LINE
  5
12673A
  8
0
 62
     0
 10
4008.980256121069
 20
-280.8223050896213
 30
0.0
 11
4013.4703841816022
 21
-276.33217702908678
 31
0.0
  0
LINE
  5
12673B
  8
0
 62
     0
 10
4000.0
 20
-280.8223050896213
 30
0.0
 11
4004.4901280605341
 21
-276.33217702908678
 31
0.0
  0
LINE
  5
12673C
  8
0
 62
     0
 10
3991.0197438789319
 20
-280.82230508962141
 30
0.0
 11
3995.5098719394659
 21
-276.33217702908678
 31
0.0
  0
LINE
  5
12673D
  8
0
 62
     0
 10
3982.039487757861
 20
-280.82230508962152
 30
0.0
 11
3986.529615818396
 21
-276.33217702908689
 31
0.0
  0
LINE
  5
12673E
  8
0
 62
     0
 10
3973.212796132721
 20
-280.66874059369371
 30
0.0
 11
3977.5493596973279
 21
-276.33217702908701
 31
0.0
  0
LINE
  5
12673F
  8
0
 62
     0
 10
3973.059231636792
 20
-271.84204896855238
 30
0.0
 11
3974.4041133730389
 21
-270.4971672323058
 31
0.0
  0
LINE
  5
126740
  8
0
 62
     0
 10
3966.6969969239681
 20
-278.20428368137863
 30
0.0
 11
3968.569103576257
 21
-276.33217702908701
 31
0.0
  0
LINE
  5
126741
  8
0
 62
     0
 10
3964.0789755157239
 20
-271.84204896855277
 30
0.0
 11
3968.0614140538951
 21
-267.85961043038139
 31
0.0
  0
LINE
  5
126742
  8
0
 62
     0
 10
3955.098719394653
 20
-271.84204896855238
 30
0.0
 11
3959.5888474551889
 21
-267.3519209080178
 31
0.0
  0
LINE
  5
126743
  8
0
 62
     0
 10
3955.098719394653
 20
-262.861792847483
 30
0.0
 11
3956.7131058256882
 21
-261.24740641644962
 31
0.0
  0
LINE
  5
126744
  8
0
 62
     0
 10
3949.550844210803
 20
-268.40966803133369
 30
0.0
 11
3950.6085913341199
 21
-267.35192090801758
 31
0.0
  0
LINE
  5
126745
  8
0
 62
     0
 10
3946.1184632735858
 20
-262.86179284748312
 30
0.0
 11
3950.6085913341199
 21
-258.37166478694849
 31
0.0
  0
LINE
  5
126746
  8
0
 62
     0
 10
3946.1184632735858
 20
-253.881536726414
 30
0.0
 11
3946.9669914110091
 21
-253.0330085889901
 31
0.0
  0
LINE
  5
126747
  8
0
 62
     0
 10
3939.8959235991442
 20
-260.1040764008556
 30
0.0
 11
3941.6283352130508
 21
-258.37166478694849
 31
0.0
  0
LINE
  5
126748
  8
0
 62
     0
 10
4053.8815367264142
 20
-137.13820715251521
 30
0.0
 11
4055.4459941864038
 21
-135.57374969252569
 31
0.0
  0
LINE
  5
126749
  8
0
 62
     0
 10
3937.1382071525159
 20
-253.881536726414
 30
0.0
 11
3941.6283352130508
 21
-249.3914086658794
 31
0.0
  0
LINE
  5
12674A
  8
0
 62
     0
 10
4044.9012806053461
 20
-137.13820715251561
 30
0.0
 11
4049.3914086658801
 21
-132.648079091981
 31
0.0
  0
LINE
  5
12674B
  8
0
 62
     0
 10
3937.1382071525159
 20
-244.90128060534491
 30
0.0
 11
3938.7525935835511
 21
-243.2868941743113
 31
0.0
  0
LINE
  5
12674C
  8
0
 62
     0
 10
3931.5903319686659
 20
-250.4491557891954
 30
0.0
 11
3932.6480790919818
 21
-249.39140866587951
 31
0.0
  0
LINE
  5
12674D
  8
0
 62
     0
 10
4044.9012806053461
 20
-128.15795103144609
 30
0.0
 11
4045.1047705343681
 21
-127.95446110242381
 31
0.0
  0
LINE
  5
12674E
  8
0
 62
     0
 10
4037.8233654376231
 20
-135.2358661991679
 30
0.0
 11
4040.4111525448111
 21
-132.64807909198069
 31
0.0
  0
LINE
  5
12674F
  8
0
 62
     0
 10
3928.1579510314468
 20
-244.90128060534491
 30
0.0
 11
3932.6480790919818
 21
-240.41115254481039
 31
0.0
  0
LINE
  5
126750
  8
0
 62
     0
 10
4035.9210244842761
 20
-128.15795103144561
 30
0.0
 11
4039.3973119843781
 21
-124.6816635313438
 31
0.0
  0
LINE
  5
126751
  8
0
 62
     0
 10
3928.1579510314468
 20
-235.9210244842757
 30
0.0
 11
3932.140389569618
 21
-231.93858594610509
 31
0.0
  0
LINE
  5
126752
  8
0
 62
     0
 10
4026.9407683632062
 20
-128.157951031446
 30
0.0
 11
4031.4308964237398
 21
-123.6678229709114
 31
0.0
  0
LINE
  5
126753
  8
0
 62
     0
 10
3928.1579510314468
 20
-226.94076836320639
 30
0.0
 11
3929.5028327676951
 21
-225.59588662695961
 31
0.0
  0
LINE
  5
126754
  8
0
 62
     0
 10
3921.795716318622
 20
-233.30300307603281
 30
0.0
 11
3923.6678229709119
 21
-231.4308964237409
 31
0.0
  0
LINE
  5
126755
  8
0
 62
     0
 10
4018.7395884655198
 20
-127.3788748080627
 30
0.0
 11
4022.450640302673
 21
-123.6678229709112
 31
0.0
  0
LINE
  5
126756
  8
0
 62
     0
 10
3919.331259406305
 20
-226.78720386727881
 30
0.0
 11
3923.6678229709119
 21
-222.4506403026721
 31
0.0
  0
LINE
  5
126757
  8
0
 62
     0
 10
4017.9605122421381
 20
-119.1776949103768
 30
0.0
 11
4019.799941457361
 21
-117.3382656951527
 31
0.0
  0
LINE
  5
126758
  8
0
 62
     0
 10
4011.284425768652
 20
-125.85378138386331
 30
0.0
 11
4013.4703841816022
 21
-123.6678229709113
 31
0.0
  0
LINE
  5
126759
  8
0
 62
     0
 10
3919.1776949103769
 20
-217.9605122421377
 30
0.0
 11
3923.6678229709119
 21
-213.47038418160309
 31
0.0
  0
LINE
  5
12675A
  8
0
 62
     0
 10
4008.980256121069
 20
-119.1776949103765
 30
0.0
 11
4012.2679784105749
 21
-115.88997262087111
 31
0.0
  0
LINE
  5
12675B
  8
0
 62
     0
 10
4003.0941007878541
 20
-125.0638502435924
 30
0.0
 11
4004.490128060535
 21
-123.6678229709111
 31
0.0
  0
LINE
  5
12675C
  8
0
 62
     0
 10
3919.1776949103769
 20
-208.98025612106821
 30
0.0
 11
3923.6678229709119
 21
-204.49012806053369
 31
0.0
  0
LINE
  5
12675D
  8
0
 62
     0
 10
3993.9318052486001
 20
-125.245889661777
 30
0.0
 11
3995.5098719394659
 21
-123.6678229709112
 31
0.0
  0
LINE
  5
12675E
  8
0
 62
     0
 10
3919.1776949103769
 20
-199.99999999999909
 30
0.0
 11
3923.6678229709119
 21
-195.5098719394644
 31
0.0
  0
LINE
  5
12675F
  8
0
 62
     0
 10
4000.0
 20
-119.1776949103767
 30
0.0
 11
4004.0797313529042
 21
-115.0979635574724
 31
0.0
  0
LINE
  5
126760
  8
0
 62
     0
 10
3991.0197438789319
 20
-119.1776949103768
 30
0.0
 11
3995.0533812002559
 21
-115.1440575890517
 31
0.0
  0
LINE
  5
126761
  8
0
 62
     0
 10
3983.3188363327549
 20
-126.87860245655401
 30
0.0
 11
3986.529615818396
 21
-123.6678229709114
 31
0.0
  0
LINE
  5
126762
  8
0
 62
     0
 10
3919.1776949103769
 20
-191.01974387893009
 30
0.0
 11
3923.6678229709119
 21
-186.52961581839551
 31
0.0
  0
LINE
  5
126763
  8
0
 62
     0
 10
3982.039487757861
 20
-119.1776949103769
 30
0.0
 11
3984.8575146748631
 21
-116.359667993377
 31
0.0
  0
LINE
  5
126764
  8
0
 62
     0
 10
3973.059231636792
 20
-128.15795103144609
 30
0.0
 11
3977.5493596973279
 21
-123.6678229709115
 31
0.0
  0
LINE
  5
126765
  8
0
 62
     0
 10
3928.1579510314468
 20
-173.05923163679179
 30
0.0
 11
3931.2956746719469
 21
-169.92150799629059
 31
0.0
  0
LINE
  5
126766
  8
0
 62
     0
 10
3919.1776949103769
 20
-182.03948775786091
 30
0.0
 11
3923.6678229709119
 21
-177.54935969732631
 31
0.0
  0
LINE
  5
126767
  8
0
 62
     0
 10
3964.0789755157239
 20
-128.1579510314458
 30
0.0
 11
3968.569103576257
 21
-123.6678229709113
 31
0.0
  0
LINE
  5
126768
  8
0
 62
     0
 10
3955.098719394653
 20
-137.13820715251509
 30
0.0
 11
3959.588847455188
 21
-132.64807909198041
 31
0.0
  0
LINE
  5
126769
  8
0
 62
     0
 10
3946.1184632735858
 20
-146.1184632735841
 30
0.0
 11
3950.6085913341199
 21
-141.62833521304961
 31
0.0
  0
LINE
  5
12676A
  8
0
 62
     0
 10
3937.1382071525159
 20
-155.09871939465339
 30
0.0
 11
3941.6283352130499
 21
-150.60859133411881
 31
0.0
  0
LINE
  5
12676B
  8
0
 62
     0
 10
3928.1579510314468
 20
-164.0789755157225
 30
0.0
 11
3932.6480790919818
 21
-159.5888474551879
 31
0.0
  0
LINE
  5
12676C
  8
0
 62
     0
 10
3919.4861520708369
 20
-172.7507744763318
 30
0.0
 11
3923.6678229709119
 21
-168.56910357625711
 31
0.0
  0
LINE
  5
12676D
  8
0
 62
     0
 10
3955.098719394653
 20
-128.15795103144549
 30
0.0
 11
3955.9548403695771
 21
-127.30183005652231
 31
0.0
  0
LINE
  5
12676E
  8
0
 62
     0
 10
3946.1184632735858
 20
-137.1382071525147
 30
0.0
 11
3950.6085913341199
 21
-132.64807909198001
 31
0.0
  0
LINE
  5
12676F
  8
0
 62
     0
 10
3937.1382071525159
 20
-146.11846327358381
 30
0.0
 11
3941.6283352130508
 21
-141.62833521304921
 31
0.0
  0
LINE
  5
126770
  8
0
 62
     0
 10
3928.1579510314468
 20
-155.0987193946529
 30
0.0
 11
3932.6480790919818
 21
-150.60859133411839
 31
0.0
  0
ENDBLK
  5
126772
  8
0
  0
BLOCK
  8
0
  2
*U44
 70
     1
 10
0.0
 20
0.0
 30
0.0
  3
*U44
  1

  0
TEXT
  5
126774
  8
DIM
 10
2209.479620594459
 20
-3204.1428571428528
 30
0.0
 40
32.0
  1
A
 50
90.0
 41
0.75
  0
ENDBLK
  5
126776
  8
0
  0
BLOCK
  8
0
  2
*U45
 70
     1
 10
0.0
 20
0.0
 30
0.0
  3
*U45
  1

  0
TEXT
  5
126778
  8
DIM
 10
2207.8409284037348
 20
-3585.9999999999968
 30
0.0
 40
32.0
  1
B
 50
90.0
 41
0.75
  0
ENDBLK
  5
12677A
  8
0
  0
BLOCK
  8
0
  2
*U46
 70
     1
 10
0.0
 20
0.0
 30
0.0
  3
*U46
  1

  0
TEXT
  5
12677C
  8
DIM
 10
2061.428571428572
 20
-3058.208121984444
 30
0.0
 40
32.0
  1
C
 41
0.75
  0
ENDBLK
  5
12677E
  8
0
  0
BLOCK
  8
0
  2
*U47
 70
     1
 10
0.0
 20
0.0
 30
0.0
  3
*U47
  1

  0
TEXT
  5
126780
  8
SLIM
 10
509.0476190477408
 20
-586.75000000000955
 30
0.0
 40
26.0
  1
100
  0
ENDBLK
  5
126782
  8
0
  0
BLOCK
  8
0
  2
*U48
 70
     1
 10
0.0
 20
0.0
 30
0.0
  3
*U48
  1

  0
TEXT
  5
126784
  8
SLIM
 10
158.9523809524228
 20
-594.00000000000955
 30
0.0
 40
26.0
  1
75
  0
ENDBLK
  5
126786
  8
0
  0
BLOCK
  8
0
  2
*U49
 70
     1
 10
0.0
 20
0.0
 30
0.0
  3
*U49
  1

  0
TEXT
  5
126788
  8
SLIM
 10
518.95238095250295
 20
-130.00000000000321
 30
0.0
 40
26.0
  1
65
  0
ENDBLK
  5
12678A
  8
0
  0
BLOCK
  8
0
  2
*U50
 70
     1
 10
0.0
 20
0.0
 30
0.0
  3
*U50
  1

  0
TEXT
  5
12678C
  8
SLIM
 10
158.9523809524228
 20
-130.00000000000321
 30
0.0
 40
26.0
  1
50
  0
ENDBLK
  5
12678E
  8
0
  0
ENDSEC
  0
SECTION
  2
ENTITIES
  0
LINE
  5
11E11D
  8
OBJECT
 10
1825.0
 20
-3599.9999999999959
 30
0.0
 11
5575.0
 21
-3599.9999999999959
 31
0.0
  0
LINE
  5
11E11F
  8
SLIM
 10
2616.0
 20
-2657.50001604727
 30
0.0
 11
2616.0
 21
-2987.50001604727
 31
0.0
  0
LINE
  5
11E120
  8
SLIM
 10
2740.0
 20
-2657.50001604727
 30
0.0
 11
2740.0
 21
-2987.50001604727
 31
0.0
  0
LINE
  5
11E121
  8
SLIM
 10
2870.0
 20
-2717.50001604727
 30
0.0
 11
2870.0
 21
-2987.50001604727
 31
0.0
  0
LINE
  5
11E122
  8
SLIM
 10
3000.0
 20
-2717.50001604727
 30
0.0
 11
3000.0
 21
-2987.50001604727
 31
0.0
  0
LINE
  5
11E123
  8
SLIM
 10
3130.0
 20
-2987.50001604727
 30
0.0
 11
3130.0
 21
-2717.50001604727
 31
0.0
  0
LINE
  5
11E124
  8
SLIM
 10
3260.0
 20
-2987.50001604727
 30
0.0
 11
3260.0
 21
-2657.50001604727
 31
0.0
  0
LINE
  5
11E125
  8
SLIM
 10
3260.0
 20
-2657.50001604727
 30
0.0
 11
2616.0
 21
-2657.50001604727
 31
0.0
  0
LINE
  5
11E126
  8
SLIM
 10
3260.0
 20
-2717.50001604727
 30
0.0
 11
2740.0
 21
-2717.50001604727
 31
0.0
  0
LINE
  5
11E127
  8
SLIM
 10
3260.0
 20
-2777.50001604727
 30
0.0
 11
2616.0
 21
-2777.50001604727
 31
0.0
  0
LINE
  5
11E128
  8
SLIM
 10
3260.0
 20
-2847.50001604727
 30
0.0
 11
2616.0
 21
-2847.50001604727
 31
0.0
  0
LINE
  5
11E129
  8
SLIM
 10
3260.0
 20
-2917.50001604727
 30
0.0
 11
2616.0
 21
-2917.50001604727
 31
0.0
  0
LINE
  5
11E12A
  8
SLIM
 10
3260.0
 20
-2987.50001604727
 30
0.0
 11
2616.0
 21
-2987.50001604727
 31
0.0
  0
LINE
  5
11E13F
  8
SLIM
 10
2740.0
 20
-2777.50001604727
 30
0.0
 11
2615.9999722746579
 21
-2657.5
 31
0.0
  0
LINE
  5
11F2E7
  8
OBJECT
 10
5325.0
 20
-3478.9999999999968
 30
0.0
 11
5325.0
 21
-3602.9999999999968
 31
0.0
1001
ACDBBLOCKREPETAG
1070
     1
1071
       26
1005
11F2E7
  0
LINE
  5
11F2EA
  8
OBJECT
 10
5472.0
 20
-3478.9999999999968
 30
0.0
 11
5456.7802782663139
 21
-3478.9999999999968
 31
0.0
1001
ACDBBLOCKREPETAG
1070
     1
1071
       30
1005
11F2EA
  0
LINE
  5
11F2EB
  8
OBJECT
 10
5475.0
 20
-3590.9999999999968
 30
0.0
 11
5475.0
 21
-3602.9999999999968
 31
0.0
1001
ACDBBLOCKREPETAG
1070
     1
1071
       34
1005
11F2EB
  0
POINT
  5
11F2EC
  8
DOTS
 10
5400.0
 20
-3599.9999999999968
 30
0.0
1001
ACDBBLOCKREPETAG
1070
     1
1071
      187
1005
11F2EC
  0
LINE
  5
11F2ED
  8
CENTER
 10
5310.0
 20
-3527.9999999999968
 30
0.0
 11
5490.0
 21
-3527.9999999999968
 31
0.0
1001
ACDBBLOCKREPETAG
1070
     1
1071
       23
1005
11F2ED
  0
CIRCLE
  5
11F2EE
  8
OBJECT
 10
5400.0
 20
-3527.9999999999968
 30
0.0
 40
53.5
1001
ACDBBLOCKREPETAG
1070
     1
1071
       24
1005
11F2EE
  0
CIRCLE
  5
11F2EF
  8
OBJECT
 10
5400.0
 20
-3527.9999999999968
 30
0.0
 40
67.0
1001
ACDBBLOCKREPETAG
1070
     1
1071
       25
1005
11F2EF
  0
ARC
  5
11F2F0
  8
OBJECT
 10
5400.0
 20
-3527.9999999999968
 30
0.0
 40
75.0
 50
286.26020470824
 51
253.73979529175989
1001
ACDBBLOCKREPETAG
1070
     1
1071
       27
1005
11F2F0
  0
LINE
  5
11F2F1
  8
OBJECT
 10
5379.0
 20
-3599.9999999999968
 30
0.0
 11
5421.0
 21
-3599.9999999999968
 31
0.0
1001
ACDBBLOCKREPETAG
1070
     1
1071
       28
1005
11F2F1
  0
LINE
  5
11F2F2
  8
OBJECT
 10
5343.2197217336861
 20
-3478.9999999999968
 30
0.0
 11
5325.0
 21
-3478.9999999999968
 31
0.0
1001
ACDBBLOCKREPETAG
1070
     1
1071
       30
1005
11F2EA
  0
TEXT
  5
11F3FE
  8
SLIM
 10
-0.0000000000000011
 20
282.5
 30
0.0
 40
35.0
  1
※ 100枝（4）がある場合、品名の最後に【管底】が付きます。
 41
0.9
 11
0.0
 21
300.0
 31
0.0
 73
     2
  0
LINE
  5
1217B8
  8
OBJECT
 10
5460.0
 20
-3472.9999999999968
 30
0.0
 11
5450.9901951359279
 21
-3472.9999999999968
 31
0.0
1001
ACDBBLOCKREPETAG
1070
     1
1071
      215
1005
1217B8
  0
ARC
  5
1217B9
  8
OBJECT
 10
5340.0
 20
-3475.9999999999968
 30
0.0
 40
3.0
 50
90.0
 51
180.0
1001
ACDBBLOCKREPETAG
1070
     1
1071
      216
1005
1217B9
  0
LINE
  5
1217BA
  8
OBJECT
 10
5337.0
 20
-3475.9999999999968
 30
0.0
 11
5337.0
 21
-3478.9999999999968
 31
0.0
1001
ACDBBLOCKREPETAG
1070
     1
1071
      217
1005
1217BA
  0
LINE
  5
1217BB
  8
OBJECT
 10
5463.0
 20
-3475.9999999999968
 30
0.0
 11
5463.0
 21
-3478.9999999999968
 31
0.0
1001
ACDBBLOCKREPETAG
1070
     1
1071
      218
1005
1217BB
  0
ARC
  5
1217BC
  8
OBJECT
 10
5460.0
 20
-3475.9999999999968
 30
0.0
 40
3.0
 50
0.0
 51
90.0
1001
ACDBBLOCKREPETAG
1070
     1
1071
      219
1005
1217BC
  0
LINE
  5
1217BD
  8
OBJECT
 10
5343.0
 20
-3404.9999999999968
 30
0.0
 11
5343.0
 21
-3472.9999999999968
 31
0.0
1001
ACDBBLOCKREPETAG
1070
     1
1071
      220
1005
1217BD
  0
LINE
  5
1217BE
  8
OBJECT
 10
5457.0
 20
-3404.9999999999968
 30
0.0
 11
5343.0
 21
-3404.9999999999968
 31
0.0
1001
ACDBBLOCKREPETAG
1070
     1
1071
      221
1005
1217BE
  0
LINE
  5
1217BF
  8
OBJECT
 10
5457.0
 20
-3404.9999999999968
 30
0.0
 11
5457.0
 21
-3472.9999999999968
 31
0.0
1001
ACDBBLOCKREPETAG
1070
     1
1071
      222
1005
1217BF
  0
LINE
  5
1217C0
  8
CENTER
 10
5400.0
 20
-3389.9999999999968
 30
0.0
 11
5400.0
 21
-3614.9999999999968
 31
0.0
1001
ACDBBLOCKREPETAG
1070
     1
1071
      223
1005
1217C0
  0
LINE
  5
1217C1
  8
HIDDEN
 10
5452.5
 20
-3404.9999999999968
 30
0.0
 11
5452.5
 21
-3478.9999999999968
 31
0.0
1001
ACDBBLOCKREPETAG
1070
     1
1071
      224
1005
1217C1
  0
LINE
  5
1217C2
  8
HIDDEN
 10
5347.5
 20
-3404.9999999999968
 30
0.0
 11
5347.5
 21
-3478.9999999999968
 31
0.0
1001
ACDBBLOCKREPETAG
1070
     1
1071
      225
1005
1217C2
  0
LINE
  5
1217C3
  8
OBJECT
 10
5349.0098048640721
 20
-3472.9999999999968
 30
0.0
 11
5340.0
 21
-3472.9999999999968
 31
0.0
1001
ACDBBLOCKREPETAG
1070
     1
1071
      215
1005
1217B8
  0
LINE
  5
122E35
  8
OBJECT
 10
5465.2380257212008
 20
-3490.9999999999968
 30
0.0
 11
5472.0
 21
-3490.9999999999968
 31
0.0
1001
ACDBBLOCKREPETAG
1070
     1
1071
       32
1005
122E35
  0
LINE
  5
122E36
  8
OBJECT
 10
5463.4999999999236
 20
-3590.9999999999968
 30
0.0
 11
5474.9999999999236
 21
-3590.9999999999968
 31
0.0
1001
ACDBBLOCKREPETAG
1070
     1
1071
       33
1005
122E36
  0
LINE
  5
122E37
  8
OBJECT
 10
5472.0
 20
-3490.9999999999968
 30
0.0
 11
5472.0
 21
-3478.9999999999968
 31
0.0
1001
ACDBBLOCKREPETAG
1070
     1
1071
       39
1005
122E37
  0
LINE
  5
122E38
  8
OBJECT
 10
5463.4999999998581
 20
-3478.9999999999968
 30
0.0
 11
5463.4999999998709
 21
-3488.0907278941768
 31
0.0
1001
ACDBBLOCKREPETAG
1070
     1
1071
       46
1005
122E38
  0
LINE
  5
122E39
  8
OBJECT
 10
5463.4999999999718
 20
-3567.9092721056568
 30
0.0
 11
5463.4999999999991
 21
-3590.9999999999968
 31
0.0
1001
ACDBBLOCKREPETAG
1070
     1
1071
       46
1005
122E38
  0
INSERT
  5
12416A
  8
SLIM
  6
CONTINUOUS
  2
*X43
 10
0.0
 20
0.0
 30
0.0
1001
GRADIENTCOLOR1ACI
1070
     5
1001
GRADIENTCOLOR2ACI
1070
     2
1001
ACDBBLOCKREPETAG
1070
     1
1071
      432
1005
12416A
1001
ACAD
1000
HATCH
1002
{
1070
    19
1000
EARTH
1040
1.0
1040
0.7853981633974483
1000
R14_HATCH_DATA
1000
12416A
1011
1.0
1021
0.0
1031
0.0
1021
0.0
1031
0.0
1011
0.0
1021
0.0
1031
0.0
1021
1.0
1031
0.0
1011
0.0
1021
0.0
1031
0.0
1021
0.0
1031
1.0
1040
0.0
1010
0.0
1020
0.0
1030
1.0
1000
EARTH
1070
     0
1070
     0
1071
        4
1071
        7
1070
     1
1070
     1
1071
        4
1040
4000.0
1040
-124.9999999999991
1040
0.0
1040
4000.0
1040
-114.9999999999991
1040
0.4142135623730951
1040
3915.0
1040
-199.99999999999909
1040
0.0
1040
3925.0
1040
-199.99999999999909
1040
-0.4142135623730951
1071
        0
1071
        7
1070
     1
1070
     1
1071
        4
1040
4000.0
1040
-114.9999999999991
1040
0.0
1040
4000.0
1040
-124.9999999999991
1040
-0.1505314338169883
1040
4042.2018956920169
1040
-137.99999999999909
1040
0.0
1040
4058.1463670404269
1040
-137.99999999999909
1040
0.1905924244794524
1071
        0
1071
        7
1070
     1
1070
     1
1071
        4
1040
3925.0
1040
-199.99999999999909
1040
0.0
1040
3915.0
1040
-199.99999999999909
1040
0.4142135623730951
1040
4000.0
1040
-284.99999999999898
1040
0.0
1040
4000.0
1040
-274.99999999999909
1040
-0.4142135623730951
1071
        0
1071
        7
1070
     1
1070
     1
1071
        4
1040
4058.1463670404269
1040
-261.99999999999909
1040
0.0
1040
4042.2018956920169
1040
-261.99999999999909
1040
-0.1505314338169883
1040
4000.0
1040
-274.99999999999909
1040
0.0
1040
4000.0
1040
-284.99999999999898
1040
0.1905924244794523
1071
        0
1070
     1
1070
     1
1040
0.7853981633974483
1040
1.0
1070
     0
1070
     6
1040
0.7853981633974483
1040
4000.0
1040
-199.99999999999909
1040
0.0000000000000009
1040
8.9802561210691536
1070
     2
1040
6.3499999999999979
1040
-6.3499999999999979
1040
0.7853981633974483
1040
3998.3162019772999
1040
-198.3162019772985
1040
0.0000000000000009
1040
8.9802561210691536
1070
     2
1040
6.3499999999999979
1040
-6.3499999999999979
1040
0.7853981633974483
1040
3996.6324039545989
1040
-196.63240395459809
1040
0.0000000000000009
1040
8.9802561210691536
1070
     2
1040
6.3499999999999979
1040
-6.3499999999999979
1040
2.3561944901923431
1040
3996.6324039545989
1040
-195.5098719394644
1040
-8.9802561210691536
1040
0.0000000000000009
1070
     2
1040
6.3499999999999979
1040
-6.3499999999999979
1040
2.3561944901923431
1040
3998.3162019772999
1040
-193.82607391676399
1040
-8.9802561210691536
1040
0.0000000000000009
1070
     2
1040
6.3499999999999979
1040
-6.3499999999999979
1040
2.3561944901923431
1040
4000.0
1040
-192.1422758940636
1040
-8.9802561210691536
1040
0.0000000000000009
1070
     2
1040
6.3499999999999979
1040
-6.3499999999999979
1040
0.4342751263886047
1071
        4
1040
3959.3761951646779
1040
-131.36763164202341
1040
0.0
1040
4015.8724194276788
1040
-123.984954442348
1040
0.0
1040
3934.6047737479348
1040
-242.97633920374849
1040
0.0
1040
4015.8724194276788
1040
-277.71834973731791
1040
0.0
1002
}
  0
CIRCLE
  5
12416B
  8
OBJECT
 10
4000.0
 20
-199.99999999999909
 30
0.0
 40
75.0
1001
ACDBBLOCKREPETAG
1070
     1
1071
      398
1005
12416B
  0
LINE
  5
12416C
  8
OBJECT
 10
3963.6238040660278
 20
-162.14471807827491
 30
0.0
 11
4037.0841102714221
 21
-174.5180316957439
 31
0.0
1001
ACDBBLOCKREPETAG
1070
     1
1071
      399
1005
12416C
  0
LINE
  5
12416D
  8
OBJECT
 10
4043.2694760507111
 20
-170.26782143372259
 30
0.0
 11
4037.0841102714221
 21
-174.5180316957439
 31
0.0
1001
ACDBBLOCKREPETAG
1070
     1
1071
      400
1005
12416D
  0
CIRCLE
  5
12416E
  8
OBJECT
 10
4000.0
 20
-199.99999999999909
 30
0.0
 40
52.5
1001
ACDBBLOCKREPETAG
1070
     1
1071
      401
1005
12416E
  0
ARC
  5
12416F
  8
OBJECT
 10
4000.0
 20
-199.99999999999909
 30
0.0
 40
50.0
 50
131.70180964355251
 51
168.52376955958741
1001
ACDBBLOCKREPETAG
1070
     1
1071
      402
1005
12416F
  0
ARC
  5
124170
  8
OBJECT
 10
4000.0
 20
-199.99999999999909
 30
0.0
 40
50.0
 50
238.8199429999047
 51
34.49450625011707
1001
ACDBBLOCKREPETAG
1070
     1
1071
      403
1005
124170
  0
LINE
  5
124171
  8
OBJECT
 10
4042.2018956920169
 20
-137.99999999999909
 30
0.0
 11
4080.0
 21
-137.99999999999909
 31
0.0
1001
ACDBBLOCKREPETAG
1070
     1
1071
      404
1005
124171
  0
LINE
  5
124172
  8
OBJECT
 10
4042.2018956920169
 20
-261.99999999999909
 30
0.0
 11
4080.0
 21
-261.99999999999909
 31
0.0
1001
ACDBBLOCKREPETAG
1070
     1
1071
      405
1005
124172
  0
LINE
  5
124173
  8
CENTER
 10
4080.0
 20
-199.99999999999909
 30
0.0
 11
3900.0
 21
-199.99999999999909
 31
0.0
1001
ACDBBLOCKREPETAG
1070
     1
1071
      407
1005
124173
  0
LINE
  5
124174
  8
CENTER
 10
4000.0
 20
-299.99999999999898
 30
0.0
 11
4000.0
 21
-99.999999999999091
 31
0.0
1001
ACDBBLOCKREPETAG
1070
     1
1071
      408
1005
124174
  0
LINE
  5
124175
  8
OBJECT
 10
3947.702309276614
 20
-195.39548645337189
 30
0.0
 11
3970.4540343856352
 21
-193.79865146436981
 31
0.0
1001
ACDBBLOCKREPETAG
1070
     1
1071
      409
1005
124175
  0
LINE
  5
124176
  8
OBJECT
 10
3948.416473471706
 20
-190.2332302727674
 30
0.0
 11
3966.9884352629019
 21
-188.92975272660161
 31
0.0
1001
ACDBBLOCKREPETAG
1070
     1
1071
      410
1005
124176
  0
LINE
  5
124177
  8
OBJECT
 10
3974.113537475278
 20
-242.77722592637201
 30
0.0
 11
3982.1366988374079
 21
-234.1690987954708
 31
0.0
1001
ACDBBLOCKREPETAG
1070
     1
1071
      411
1005
124177
  0
ARC
  5
124178
  8
OBJECT
 10
3982.1160071245399
 20
-183.28188966318251
 30
0.0
 40
60.031113246032611
 50
256.417442267745
 51
262.33936106086588
1001
ACDBBLOCKREPETAG
1070
     1
1071
      412
1005
124178
  0
LINE
  5
124179
  8
OBJECT
 10
3977.6125997325148
 20
-197.67495277149911
 30
0.0
 11
3982.1366988374079
 21
-234.1690987954708
 31
0.0
1001
ACDBBLOCKREPETAG
1070
     1
1071
      413
1005
124179
  0
ARC
  5
12417A
  8
OBJECT
 10
3967.6885653456411
 20
-198.90521351131881
 30
0.0
 40
10.0
 50
7.0667782929957941
 51
94.014734370532395
1001
ACDBBLOCKREPETAG
1070
     1
1071
      414
1005
12417A
  0
ARC
  5
12417B
  8
OBJECT
 10
3970.9441253709729
 20
-200.78147401875589
 30
0.0
 40
7.0
 50
7.0667782929957941
 51
94.014733775014648
1001
ACDBBLOCKREPETAG
1070
     1
1071
      415
1005
12417B
  0
CIRCLE
  5
12417C
  8
OBJECT
 10
4000.0
 20
-199.99999999999909
 30
0.0
 40
57.0
1001
ACDBBLOCKREPETAG
1070
     1
1071
      416
1005
12417C
  0
ARC
  5
12417D
  8
OBJECT
 10
4000.0
 20
-199.99999999999909
 30
0.0
 40
85.0
 50
46.837102859702419
 51
313.1628971402975
1001
ACDBBLOCKREPETAG
1070
     1
1071
      417
1005
12417D
  0
POINT
  5
12417E
  8
DOTS
 10
4000.0
 20
-199.99999999999909
 30
0.0
1001
ACDBBLOCKREPETAG
1070
     1
1071
      436
1005
12417E
  0
ARC
  5
12417F
  8
OBJECT
 10
4000.0
 20
-199.99999999999909
 30
0.0
 40
72.0
 50
61.877817547648696
 51
118.1221824523513
1001
ACDBBLOCKREPETAG
1070
     1
1071
      447
1005
12417F
  0
LINE
  5
124180
  8
OBJECT
 10
3960.0907278943841
 20
-136.49999999999909
 30
0.0
 11
3966.0625575506938
 21
-136.49999999999909
 31
0.0
1001
ACDBBLOCKREPETAG
1070
     1
1071
      448
1005
124180
  0
LINE
  5
124181
  8
OBJECT
 10
4033.9374424493049
 20
-136.49999999999909
 30
0.0
 11
4039.9092721056159
 21
-136.49999999999909
 31
0.0
1001
ACDBBLOCKREPETAG
1070
     1
1071
      449
1005
124181
  0
LINE
  5
124182
  8
OBJECT
 10
4133.0
 20
-137.99999999999909
 30
0.0
 11
4140.0
 21
-137.99999999999909
 31
0.0
1001
ACDBBLOCKREPETAG
1070
     1
1071
       47
1005
124182
  0
LINE
  5
124183
  8
OBJECT
 10
4140.0
 20
-137.99999999999909
 30
0.0
 11
4140.0
 21
-261.99999999999909
 31
0.0
1001
ACDBBLOCKREPETAG
1070
     1
1071
       48
1005
124183
  0
LINE
  5
124184
  8
OBJECT
 10
4140.0
 20
-261.99999999999909
 30
0.0
 11
4133.0
 21
-261.99999999999909
 31
0.0
1001
ACDBBLOCKREPETAG
1070
     1
1071
       49
1005
124184
  0
LINE
  5
124185
  8
OBJECT
 10
4133.0
 20
-261.99999999999909
 30
0.0
 11
4133.0
 21
-137.99999999999909
 31
0.0
1001
ACDBBLOCKREPETAG
1070
     1
1071
       50
1005
124185
  0
LINE
  5
124186
  8
CENTER
 10
4155.0
 20
-199.99999999999909
 30
0.0
 11
4080.0
 21
-199.99999999999909
 31
0.0
1001
ACDBBLOCKREPETAG
1070
     1
1071
       51
1005
124186
  0
LINE
  5
124187
  8
OBJECT
 10
4133.0
 20
-140.99999999999909
 30
0.0
 11
4097.0
 21
-140.99999999999909
 31
0.0
1001
ACDBBLOCKREPETAG
1070
     1
1071
       52
1005
124187
  0
LINE
  5
124188
  8
OBJECT
 10
4097.0
 20
-140.99999999999909
 30
0.0
 11
4097.0
 21
-258.99999999999909
 31
0.0
1001
ACDBBLOCKREPETAG
1070
     1
1071
       53
1005
124188
  0
LINE
  5
124189
  8
OBJECT
 10
4097.0
 20
-258.99999999999909
 30
0.0
 11
4133.0
 21
-258.99999999999909
 31
0.0
1001
ACDBBLOCKREPETAG
1070
     1
1071
       54
1005
124189
  0
LINE
  5
12418A
  8
OBJECT
 10
4093.0
 20
-145.49999999999909
 30
0.0
 11
4086.0
 21
-145.49999999999909
 31
0.0
1001
ACDBBLOCKREPETAG
1070
     1
1071
       55
1005
12418A
  0
LINE
  5
12418B
  8
OBJECT
 10
4086.0
 20
-254.49999999999909
 30
0.0
 11
4093.0
 21
-254.49999999999909
 31
0.0
1001
ACDBBLOCKREPETAG
1070
     1
1071
       56
1005
12418B
  0
LINE
  5
12418C
  8
OBJECT
 10
4093.0
 20
-254.49999999999909
 30
0.0
 11
4093.0
 21
-145.49999999999909
 31
0.0
1001
ACDBBLOCKREPETAG
1070
     1
1071
       57
1005
12418C
  0
LINE
  5
12418D
  8
OBJECT
 10
4097.0
 20
-140.99999999999909
 30
0.0
 11
4093.0
 21
-145.49999999999909
 31
0.0
1001
ACDBBLOCKREPETAG
1070
     1
1071
       58
1005
12418D
  0
LINE
  5
12418E
  8
OBJECT
 10
4097.0
 20
-258.99999999999909
 30
0.0
 11
4093.0
 21
-254.49999999999909
 31
0.0
1001
ACDBBLOCKREPETAG
1070
     1
1071
       59
1005
12418E
  0
LINE
  5
12418F
  8
OBJECT
 10
4083.0
 20
-137.99999999999909
 30
0.0
 11
4080.0
 21
-137.99999999999909
 31
0.0
1001
ACDBBLOCKREPETAG
1070
     1
1071
       60
1005
12418F
  0
ARC
  5
124190
  8
OBJECT
 10
4083.0
 20
-140.99999999999909
 30
0.0
 40
3.0
 50
0.0
 51
90.0
1001
ACDBBLOCKREPETAG
1070
     1
1071
       61
1005
124190
  0
LINE
  5
124191
  8
OBJECT
 10
4080.0
 20
-261.99999999999909
 30
0.0
 11
4083.0
 21
-261.99999999999909
 31
0.0
1001
ACDBBLOCKREPETAG
1070
     1
1071
       62
1005
124191
  0
ARC
  5
124192
  8
OBJECT
 10
4083.0
 20
-258.99999999999909
 30
0.0
 40
3.0
 50
270.0
 51
0.0
1001
ACDBBLOCKREPETAG
1070
     1
1071
       63
1005
124192
  0
LINE
  5
124193
  8
OBJECT
 10
4086.0
 20
-258.99999999999909
 30
0.0
 11
4086.0
 21
-140.99999999999909
 31
0.0
1001
ACDBBLOCKREPETAG
1070
     1
1071
       64
1005
124193
  0
LINE
  5
124194
  8
HIDDEN
 10
4088.0
 20
-155.49999999999909
 30
0.0
 11
4088.0
 21
-244.49999999999909
 31
0.0
1001
ACDBBLOCKREPETAG
1070
     1
1071
       65
1005
124194
  0
ARC
  5
124195
  8
OBJECT
 10
5000.0
 20
-3194.9999999999959
 30
0.0
 40
80.0
 50
50.80496566140377
 51
309.19496742597107
1001
ACDBBLOCKREPETAG
1070
     1
1071
      348
1005
124195
  0
CIRCLE
  5
124196
  8
OBJECT
 10
5000.0
 20
-3194.9999999999959
 30
0.0
 40
75.0
1001
ACDBBLOCKREPETAG
1070
     1
1071
      349
1005
124196
  0
LINE
  5
124197
  8
OBJECT
 10
4963.6238040660282
 20
-3157.144718078272
 30
0.0
 11
5037.0841102714221
 21
-3169.5180316957408
 31
0.0
1001
ACDBBLOCKREPETAG
1070
     1
1071
      350
1005
124197
  0
LINE
  5
124198
  8
OBJECT
 10
5043.2694760507111
 20
-3165.2678214337188
 30
0.0
 11
5037.0841102714221
 21
-3169.5180316957408
 31
0.0
1001
ACDBBLOCKREPETAG
1070
     1
1071
      351
1005
124198
  0
CIRCLE
  5
124199
  8
OBJECT
 10
5000.0
 20
-3194.9999999999959
 30
0.0
 40
52.5
1001
ACDBBLOCKREPETAG
1070
     1
1071
      352
1005
124199
  0
ARC
  5
12419A
  8
OBJECT
 10
5000.0
 20
-3194.9999999999959
 30
0.0
 40
50.0
 50
131.70180964353401
 51
168.52376955958539
1001
ACDBBLOCKREPETAG
1070
     1
1071
      353
1005
12419A
  0
ARC
  5
12419B
  8
OBJECT
 10
5000.0
 20
-3194.9999999999959
 30
0.0
 40
50.0
 50
238.8199429999039
 51
34.494506250118413
1001
ACDBBLOCKREPETAG
1070
     1
1071
      354
1005
12419B
  0
LINE
  5
12419C
  8
OBJECT
 10
5042.2018956920174
 20
-3132.9999999999959
 30
0.0
 11
5080.0
 21
-3132.9999999999959
 31
0.0
1001
ACDBBLOCKREPETAG
1070
     1
1071
      355
1005
12419C
  0
LINE
  5
12419D
  8
OBJECT
 10
5042.2018956920174
 20
-3256.9999999999959
 30
0.0
 11
5080.0
 21
-3256.9999999999959
 31
0.0
1001
ACDBBLOCKREPETAG
1070
     1
1071
      356
1005
12419D
  0
LINE
  5
12419E
  8
CENTER
 10
5080.0
 20
-3194.9999999999959
 30
0.0
 11
4905.0
 21
-3194.9999999999959
 31
0.0
1001
ACDBBLOCKREPETAG
1070
     1
1071
      364
1005
12419E
  0
LINE
  5
12419F
  8
CENTER
 10
5000.0
 20
-3289.9999999999959
 30
0.0
 11
5000.0
 21
-3099.9999999999959
 31
0.0
1001
ACDBBLOCKREPETAG
1070
     1
1071
      365
1005
12419F
  0
LINE
  5
1241A0
  8
OBJECT
 10
4947.702309276614
 20
-3190.3954864533698
 30
0.0
 11
4970.4540343856352
 21
-3188.7986514643671
 31
0.0
1001
ACDBBLOCKREPETAG
1070
     1
1071
      368
1005
1241A0
  0
LINE
  5
1241A1
  8
OBJECT
 10
4948.416473471706
 20
-3185.233230272765
 30
0.0
 11
4966.9884352629006
 21
-3183.929752726599
 31
0.0
1001
ACDBBLOCKREPETAG
1070
     1
1071
      369
1005
1241A1
  0
LINE
  5
1241A2
  8
OBJECT
 10
4974.1135374752776
 20
-3237.7772259263688
 30
0.0
 11
4982.1366988374084
 21
-3229.1690987954671
 31
0.0
1001
ACDBBLOCKREPETAG
1070
     1
1071
      370
1005
1241A2
  0
ARC
  5
1241A3
  8
OBJECT
 10
4982.1160071245376
 20
-3178.2818896631802
 30
0.0
 40
60.031113246032611
 50
256.41744226771999
 51
262.33936106086571
1001
ACDBBLOCKREPETAG
1070
     1
1071
      371
1005
1241A3
  0
LINE
  5
1241A4
  8
OBJECT
 10
4977.6125997325144
 20
-3192.674952771496
 30
0.0
 11
4982.1366988374084
 21
-3229.1690987954671
 31
0.0
1001
ACDBBLOCKREPETAG
1070
     1
1071
      372
1005
1241A4
  0
ARC
  5
1241A5
  8
OBJECT
 10
4967.6885653456411
 20
-3193.9052135113161
 30
0.0
 40
10.0
 50
7.0667782930022831
 51
94.014734370533304
1001
ACDBBLOCKREPETAG
1070
     1
1071
      373
1005
1241A5
  0
ARC
  5
1241A6
  8
OBJECT
 10
4970.9441253709738
 20
-3195.7814740187532
 30
0.0
 40
7.0
 50
7.0667782930022831
 51
94.014733775014165
1001
ACDBBLOCKREPETAG
1070
     1
1071
      374
1005
1241A6
  0
CIRCLE
  5
1241A7
  8
OBJECT
 10
5000.0
 20
-3194.9999999999959
 30
0.0
 40
57.0
1001
ACDBBLOCKREPETAG
1070
     1
1071
      375
1005
1241A7
  0
POINT
  5
1241A8
  8
DOTS
 10
5000.0
 20
-3194.9999999999959
 30
0.0
1001
ACDBBLOCKREPETAG
1070
     1
1071
      434
1005
1241A8
  0
ARC
  5
1241A9
  8
OBJECT
 10
5000.0
 20
-3194.9999999999959
 30
0.0
 40
72.0
 50
61.877817547670901
 51
118.1221824523291
1001
ACDBBLOCKREPETAG
1070
     1
1071
      441
1005
1241A9
  0
LINE
  5
1241AA
  8
OBJECT
 10
4960.0907278943851
 20
-3131.4999999999959
 30
0.0
 11
4966.062557550692
 21
-3131.4999999999959
 31
0.0
1001
ACDBBLOCKREPETAG
1070
     1
1071
      442
1005
1241AA
  0
LINE
  5
1241AB
  8
OBJECT
 10
5033.9374424493071
 20
-3131.4999999999959
 30
0.0
 11
5039.9092721056149
 21
-3131.4999999999959
 31
0.0
1001
ACDBBLOCKREPETAG
1070
     1
1071
      443
1005
1241AB
  0
ARC
  5
1241AC
  8
OBJECT
 10
4000.0
 20
-3194.9999999999959
 30
0.0
 40
80.0
 50
50.80496566140377
 51
309.19496742597107
1001
ACDBBLOCKREPETAG
1070
     1
1071
      348
1005
1241AC
  0
CIRCLE
  5
1241AD
  8
OBJECT
 10
4000.0
 20
-3194.9999999999959
 30
0.0
 40
75.0
1001
ACDBBLOCKREPETAG
1070
     1
1071
      349
1005
1241AD
  0
LINE
  5
1241AE
  8
OBJECT
 10
3963.6238040660278
 20
-3157.144718078272
 30
0.0
 11
4037.0841102714221
 21
-3169.5180316957408
 31
0.0
1001
ACDBBLOCKREPETAG
1070
     1
1071
      350
1005
1241AE
  0
LINE
  5
1241AF
  8
OBJECT
 10
4043.2694760507111
 20
-3165.2678214337188
 30
0.0
 11
4037.0841102714221
 21
-3169.5180316957408
 31
0.0
1001
ACDBBLOCKREPETAG
1070
     1
1071
      351
1005
1241AF
  0
CIRCLE
  5
1241B0
  8
OBJECT
 10
4000.0
 20
-3194.9999999999959
 30
0.0
 40
52.5
1001
ACDBBLOCKREPETAG
1070
     1
1071
      352
1005
1241B0
  0
ARC
  5
1241B1
  8
OBJECT
 10
4000.0
 20
-3194.9999999999959
 30
0.0
 40
50.0
 50
131.7018096435535
 51
168.52376955959059
1001
ACDBBLOCKREPETAG
1070
     1
1071
      353
1005
1241B1
  0
ARC
  5
1241B2
  8
OBJECT
 10
4000.0
 20
-3194.9999999999959
 30
0.0
 40
50.0
 50
238.8199429999039
 51
34.494506250118413
1001
ACDBBLOCKREPETAG
1070
     1
1071
      354
1005
1241B2
  0
LINE
  5
1241B3
  8
OBJECT
 10
4042.2018956920169
 20
-3132.9999999999959
 30
0.0
 11
4080.0
 21
-3132.9999999999959
 31
0.0
1001
ACDBBLOCKREPETAG
1070
     1
1071
      355
1005
1241B3
  0
LINE
  5
1241B4
  8
OBJECT
 10
4042.2018956920169
 20
-3256.9999999999959
 30
0.0
 11
4080.0
 21
-3256.9999999999959
 31
0.0
1001
ACDBBLOCKREPETAG
1070
     1
1071
      356
1005
1241B4
  0
LINE
  5
1241B5
  8
CENTER
 10
4080.0
 20
-3194.9999999999959
 30
0.0
 11
3905.0
 21
-3194.9999999999959
 31
0.0
1001
ACDBBLOCKREPETAG
1070
     1
1071
      364
1005
1241B5
  0
LINE
  5
1241B6
  8
CENTER
 10
4000.0
 20
-3289.9999999999959
 30
0.0
 11
4000.0
 21
-3099.9999999999959
 31
0.0
1001
ACDBBLOCKREPETAG
1070
     1
1071
      365
1005
1241B6
  0
LINE
  5
1241B7
  8
OBJECT
 10
3947.702309276614
 20
-3190.3954864533698
 30
0.0
 11
3970.4540343856352
 21
-3188.7986514643671
 31
0.0
1001
ACDBBLOCKREPETAG
1070
     1
1071
      368
1005
1241B7
  0
LINE
  5
1241B8
  8
OBJECT
 10
3948.416473471706
 20
-3185.233230272765
 30
0.0
 11
3966.9884352629019
 21
-3183.929752726599
 31
0.0
1001
ACDBBLOCKREPETAG
1070
     1
1071
      369
1005
1241B8
  0
LINE
  5
1241B9
  8
OBJECT
 10
3974.113537475278
 20
-3237.7772259263688
 30
0.0
 11
3982.1366988374079
 21
-3229.1690987954671
 31
0.0
1001
ACDBBLOCKREPETAG
1070
     1
1071
      370
1005
1241B9
  0
ARC
  5
1241BA
  8
OBJECT
 10
3982.1160071245399
 20
-3178.2818896631802
 30
0.0
 40
60.031113246032611
 50
256.41744226774529
 51
262.33936106086571
1001
ACDBBLOCKREPETAG
1070
     1
1071
      371
1005
1241BA
  0
LINE
  5
1241BB
  8
OBJECT
 10
3977.6125997325148
 20
-3192.674952771496
 30
0.0
 11
3982.1366988374079
 21
-3229.1690987954671
 31
0.0
1001
ACDBBLOCKREPETAG
1070
     1
1071
      372
1005
1241BB
  0
ARC
  5
1241BC
  8
OBJECT
 10
3967.6885653456411
 20
-3193.9052135113161
 30
0.0
 40
10.0
 50
7.0667782930054903
 51
94.014734370533304
1001
ACDBBLOCKREPETAG
1070
     1
1071
      373
1005
1241BC
  0
ARC
  5
1241BD
  8
OBJECT
 10
3970.9441253709729
 20
-3195.7814740187532
 30
0.0
 40
7.0
 50
7.0667782930054903
 51
94.014733775014165
1001
ACDBBLOCKREPETAG
1070
     1
1071
      374
1005
1241BD
  0
CIRCLE
  5
1241BE
  8
OBJECT
 10
4000.0
 20
-3194.9999999999959
 30
0.0
 40
57.0
1001
ACDBBLOCKREPETAG
1070
     1
1071
      375
1005
1241BE
  0
POINT
  5
1241BF
  8
DOTS
 10
4000.0
 20
-3194.9999999999959
 30
0.0
1001
ACDBBLOCKREPETAG
1070
     1
1071
      434
1005
1241BF
  0
ARC
  5
1241C0
  8
OBJECT
 10
4000.0
 20
-3194.9999999999959
 30
0.0
 40
72.0
 50
61.877817547647943
 51
118.12218245235211
1001
ACDBBLOCKREPETAG
1070
     1
1071
      441
1005
1241C0
  0
LINE
  5
1241C1
  8
OBJECT
 10
3960.0907278943841
 20
-3131.4999999999959
 30
0.0
 11
3966.0625575506938
 21
-3131.4999999999959
 31
0.0
1001
ACDBBLOCKREPETAG
1070
     1
1071
      442
1005
1241C1
  0
LINE
  5
1241C2
  8
OBJECT
 10
4033.9374424493049
 20
-3131.4999999999959
 30
0.0
 11
4039.9092721056159
 21
-3131.4999999999959
 31
0.0
1001
ACDBBLOCKREPETAG
1070
     1
1071
      443
1005
1241C2
  0
ARC
  5
1241C3
  8
OBJECT
 10
3000.0
 20
-3194.9999999999959
 30
0.0
 40
80.0
 50
50.80496566140377
 51
309.19496742597107
1001
ACDBBLOCKREPETAG
1070
     1
1071
      348
1005
1241C3
  0
CIRCLE
  5
1241C4
  8
OBJECT
 10
3000.0
 20
-3194.9999999999959
 30
0.0
 40
75.0
1001
ACDBBLOCKREPETAG
1070
     1
1071
      349
1005
1241C4
  0
LINE
  5
1241C5
  8
OBJECT
 10
2963.6238040660278
 20
-3157.144718078272
 30
0.0
 11
3037.0841102714221
 21
-3169.5180316957408
 31
0.0
1001
ACDBBLOCKREPETAG
1070
     1
1071
      350
1005
1241C5
  0
LINE
  5
1241C6
  8
OBJECT
 10
3043.2694760507111
 20
-3165.2678214337188
 30
0.0
 11
3037.0841102714221
 21
-3169.5180316957408
 31
0.0
1001
ACDBBLOCKREPETAG
1070
     1
1071
      351
1005
1241C6
  0
CIRCLE
  5
1241C7
  8
OBJECT
 10
3000.0
 20
-3194.9999999999959
 30
0.0
 40
52.5
1001
ACDBBLOCKREPETAG
1070
     1
1071
      352
1005
1241C7
  0
ARC
  5
1241C8
  8
OBJECT
 10
3000.0
 20
-3194.9999999999959
 30
0.0
 40
50.0
 50
131.7018096435535
 51
168.52376955959059
1001
ACDBBLOCKREPETAG
1070
     1
1071
      353
1005
1241C8
  0
ARC
  5
1241C9
  8
OBJECT
 10
3000.0
 20
-3194.9999999999959
 30
0.0
 40
50.0
 50
238.8199429999039
 51
34.494506250118413
1001
ACDBBLOCKREPETAG
1070
     1
1071
      354
1005
1241C9
  0
LINE
  5
1241CA
  8
OBJECT
 10
3042.2018956920201
 20
-3132.9999999999959
 30
0.0
 11
3080.0
 21
-3132.9999999999959
 31
0.0
1001
ACDBBLOCKREPETAG
1070
     1
1071
      355
1005
1241CA
  0
LINE
  5
1241CB
  8
OBJECT
 10
3042.2018956920201
 20
-3256.9999999999959
 30
0.0
 11
3080.0
 21
-3256.9999999999959
 31
0.0
1001
ACDBBLOCKREPETAG
1070
     1
1071
      356
1005
1241CB
  0
LINE
  5
1241CC
  8
CENTER
 10
3080.0
 20
-3194.9999999999959
 30
0.0
 11
2905.0
 21
-3194.9999999999959
 31
0.0
1001
ACDBBLOCKREPETAG
1070
     1
1071
      364
1005
1241CC
  0
LINE
  5
1241CD
  8
CENTER
 10
3000.0
 20
-3289.9999999999959
 30
0.0
 11
3000.0
 21
-3099.9999999999959
 31
0.0
1001
ACDBBLOCKREPETAG
1070
     1
1071
      365
1005
1241CD
  0
LINE
  5
1241CE
  8
OBJECT
 10
2947.702309276614
 20
-3190.3954864533698
 30
0.0
 11
2970.4540343856352
 21
-3188.7986514643671
 31
0.0
1001
ACDBBLOCKREPETAG
1070
     1
1071
      368
1005
1241CE
  0
LINE
  5
1241CF
  8
OBJECT
 10
2948.416473471706
 20
-3185.233230272765
 30
0.0
 11
2966.9884352629019
 21
-3183.929752726599
 31
0.0
1001
ACDBBLOCKREPETAG
1070
     1
1071
      369
1005
1241CF
  0
LINE
  5
1241D0
  8
OBJECT
 10
2974.1135374752771
 20
-3237.7772259263688
 30
0.0
 11
2982.136698837407
 21
-3229.1690987954671
 31
0.0
1001
ACDBBLOCKREPETAG
1070
     1
1071
      370
1005
1241D0
  0
ARC
  5
1241D1
  8
OBJECT
 10
2982.1160071245399
 20
-3178.2818896631802
 30
0.0
 40
60.031113246032611
 50
256.41744226774529
 51
262.33936106086571
1001
ACDBBLOCKREPETAG
1070
     1
1071
      371
1005
1241D1
  0
LINE
  5
1241D2
  8
OBJECT
 10
2977.6125997325148
 20
-3192.674952771496
 30
0.0
 11
2982.136698837407
 21
-3229.1690987954671
 31
0.0
1001
ACDBBLOCKREPETAG
1070
     1
1071
      372
1005
1241D2
  0
ARC
  5
1241D3
  8
OBJECT
 10
2967.6885653456411
 20
-3193.9052135113161
 30
0.0
 40
10.0
 50
7.0667782930054903
 51
94.014734370533304
1001
ACDBBLOCKREPETAG
1070
     1
1071
      373
1005
1241D3
  0
ARC
  5
1241D4
  8
OBJECT
 10
2970.9441253709729
 20
-3195.7814740187532
 30
0.0
 40
7.0
 50
7.0667782930054903
 51
94.014733775014165
1001
ACDBBLOCKREPETAG
1070
     1
1071
      374
1005
1241D4
  0
CIRCLE
  5
1241D5
  8
OBJECT
 10
3000.0
 20
-3194.9999999999959
 30
0.0
 40
57.0
1001
ACDBBLOCKREPETAG
1070
     1
1071
      375
1005
1241D5
  0
POINT
  5
1241D6
  8
DOTS
 10
3000.0
 20
-3194.9999999999959
 30
0.0
1001
ACDBBLOCKREPETAG
1070
     1
1071
      434
1005
1241D6
  0
ARC
  5
1241D7
  8
OBJECT
 10
3000.0
 20
-3194.9999999999959
 30
0.0
 40
72.0
 50
61.877817547647943
 51
118.12218245235211
1001
ACDBBLOCKREPETAG
1070
     1
1071
      441
1005
1241D7
  0
LINE
  5
1241D8
  8
OBJECT
 10
2960.0907278943851
 20
-3131.4999999999959
 30
0.0
 11
2966.0625575506938
 21
-3131.4999999999959
 31
0.0
1001
ACDBBLOCKREPETAG
1070
     1
1071
      442
1005
1241D8
  0
LINE
  5
1241D9
  8
OBJECT
 10
3033.9374424493071
 20
-3131.4999999999959
 30
0.0
 11
3039.9092721056159
 21
-3131.4999999999959
 31
0.0
1001
ACDBBLOCKREPETAG
1070
     1
1071
      443
1005
1241D9
  0
ARC
  5
1241DA
  8
OBJECT
 10
2000.0
 20
-3194.9999999999959
 30
0.0
 40
80.0
 50
50.80496566140377
 51
309.19496742598119
1001
ACDBBLOCKREPETAG
1070
     1
1071
      348
1005
1241DA
  0
CIRCLE
  5
1241DB
  8
OBJECT
 10
2000.0
 20
-3194.9999999999959
 30
0.0
 40
75.0
1001
ACDBBLOCKREPETAG
1070
     1
1071
      349
1005
1241DB
  0
LINE
  5
1241DC
  8
OBJECT
 10
1963.6238040660271
 20
-3157.144718078272
 30
0.0
 11
2037.0841102714221
 21
-3169.5180316957408
 31
0.0
1001
ACDBBLOCKREPETAG
1070
     1
1071
      350
1005
1241DC
  0
LINE
  5
1241DD
  8
OBJECT
 10
2043.269476050712
 20
-3165.2678214337188
 30
0.0
 11
2037.0841102714221
 21
-3169.5180316957408
 31
0.0
1001
ACDBBLOCKREPETAG
1070
     1
1071
      351
1005
1241DD
  0
CIRCLE
  5
1241DE
  8
OBJECT
 10
2000.0
 20
-3194.9999999999959
 30
0.0
 40
52.5
1001
ACDBBLOCKREPETAG
1070
     1
1071
      352
1005
1241DE
  0
ARC
  5
1241DF
  8
OBJECT
 10
2000.0
 20
-3194.9999999999959
 30
0.0
 40
50.0
 50
131.7018096435535
 51
168.523769559588
1001
ACDBBLOCKREPETAG
1070
     1
1071
      353
1005
1241DF
  0
ARC
  5
1241E0
  8
OBJECT
 10
2000.0
 20
-3194.9999999999959
 30
0.0
 40
50.0
 50
238.8199429999039
 51
34.494506250118413
1001
ACDBBLOCKREPETAG
1070
     1
1071
      354
1005
1241E0
  0
LINE
  5
1241E1
  8
OBJECT
 10
2042.2018956920181
 20
-3132.9999999999959
 30
0.0
 11
2080.0
 21
-3132.9999999999959
 31
0.0
1001
ACDBBLOCKREPETAG
1070
     1
1071
      355
1005
1241E1
  0
LINE
  5
1241E2
  8
OBJECT
 10
2042.2018956920181
 20
-3256.9999999999959
 30
0.0
 11
2080.0
 21
-3256.9999999999959
 31
0.0
1001
ACDBBLOCKREPETAG
1070
     1
1071
      356
1005
1241E2
  0
LINE
  5
1241E3
  8
CENTER
 10
2080.0
 20
-3194.9999999999959
 30
0.0
 11
1905.0
 21
-3194.9999999999959
 31
0.0
1001
ACDBBLOCKREPETAG
1070
     1
1071
      364
1005
1241E3
  0
LINE
  5
1241E4
  8
CENTER
 10
2000.0
 20
-3289.9999999999959
 30
0.0
 11
2000.0
 21
-3099.9999999999959
 31
0.0
1001
ACDBBLOCKREPETAG
1070
     1
1071
      365
1005
1241E4
  0
LINE
  5
1241E5
  8
OBJECT
 10
1947.702309276614
 20
-3190.3954864533698
 30
0.0
 11
1970.4540343856349
 21
-3188.7986514643671
 31
0.0
1001
ACDBBLOCKREPETAG
1070
     1
1071
      368
1005
1241E5
  0
LINE
  5
1241E6
  8
OBJECT
 10
1948.416473471706
 20
-3185.233230272765
 30
0.0
 11
1966.988435262901
 21
-3183.929752726599
 31
0.0
1001
ACDBBLOCKREPETAG
1070
     1
1071
      369
1005
1241E6
  0
LINE
  5
1241E7
  8
OBJECT
 10
1974.1135374752771
 20
-3237.7772259263688
 30
0.0
 11
1982.136698837405
 21
-3229.1690987954671
 31
0.0
1001
ACDBBLOCKREPETAG
1070
     1
1071
      370
1005
1241E7
  0
ARC
  5
1241E8
  8
OBJECT
 10
1982.1160071245381
 20
-3178.2818896631802
 30
0.0
 40
60.031113246032611
 50
256.41744226774529
 51
262.33936106086571
1001
ACDBBLOCKREPETAG
1070
     1
1071
      371
1005
1241E8
  0
LINE
  5
1241E9
  8
OBJECT
 10
1977.612599732513
 20
-3192.674952771496
 30
0.0
 11
1982.136698837405
 21
-3229.1690987954671
 31
0.0
1001
ACDBBLOCKREPETAG
1070
     1
1071
      372
1005
1241E9
  0
ARC
  5
1241EA
  8
OBJECT
 10
1967.6885653456411
 20
-3193.9052135113161
 30
0.0
 40
10.0
 50
7.0667782930054903
 51
94.014734370533304
1001
ACDBBLOCKREPETAG
1070
     1
1071
      373
1005
1241EA
  0
ARC
  5
1241EB
  8
OBJECT
 10
1970.944125370974
 20
-3195.7814740187532
 30
0.0
 40
7.0
 50
7.0667782930054903
 51
94.014733775014165
1001
ACDBBLOCKREPETAG
1070
     1
1071
      374
1005
1241EB
  0
CIRCLE
  5
1241EC
  8
OBJECT
 10
2000.0
 20
-3194.9999999999959
 30
0.0
 40
57.0
1001
ACDBBLOCKREPETAG
1070
     1
1071
      375
1005
1241EC
  0
POINT
  5
1241ED
  8
DOTS
 10
2000.0
 20
-3194.9999999999959
 30
0.0
1001
ACDBBLOCKREPETAG
1070
     1
1071
      434
1005
1241ED
  0
ARC
  5
1241EE
  8
OBJECT
 10
2000.0
 20
-3194.9999999999959
 30
0.0
 40
72.0
 50
61.877817547647943
 51
118.12218245235211
1001
ACDBBLOCKREPETAG
1070
     1
1071
      441
1005
1241EE
  0
LINE
  5
1241EF
  8
OBJECT
 10
1960.0907278943851
 20
-3131.4999999999959
 30
0.0
 11
1966.062557550692
 21
-3131.4999999999959
 31
0.0
1001
ACDBBLOCKREPETAG
1070
     1
1071
      442
1005
1241EF
  0
LINE
  5
1241F0
  8
OBJECT
 10
2033.9374424493069
 20
-3131.4999999999959
 30
0.0
 11
2039.9092721056149
 21
-3131.4999999999959
 31
0.0
1001
ACDBBLOCKREPETAG
1070
     1
1071
      443
1005
1241F0
  0
LINE
  5
1241F1
  8
SLIM
 10
4414.9999999999918
 20
-659.47385309434696
 30
0.0
 11
4429.4738530943396
 21
-644.99999999999955
 31
0.0
1001
GRADIENTCOLOR1ACI
1070
     5
1001
GRADIENTCOLOR2ACI
1070
     2
1001
ACAD
1010
0.0
1020
0.0
1030
0.0
  0
LINE
  5
1241F2
  8
SLIM
 10
4414.9999999999927
 20
-677.43436533648446
 30
0.0
 11
4447.4343653364767
 21
-644.99999999999955
 31
0.0
1001
GRADIENTCOLOR1ACI
1070
     5
1001
GRADIENTCOLOR2ACI
1070
     2
1001
ACAD
1010
0.0
1020
0.0
1030
0.0
  0
LINE
  5
1241F3
  8
SLIM
 10
4414.9999999999927
 20
-695.39487757862241
 30
0.0
 11
4465.3948775786148
 21
-644.99999999999955
 31
0.0
1001
GRADIENTCOLOR1ACI
1070
     5
1001
GRADIENTCOLOR2ACI
1070
     2
1001
ACAD
1010
0.0
1020
0.0
1030
0.0
  0
LINE
  5
1241F4
  8
SLIM
 10
4414.9999999999927
 20
-713.35538982076014
 30
0.0
 11
4483.3553898207538
 21
-644.99999999999955
 31
0.0
1001
GRADIENTCOLOR1ACI
1070
     5
1001
GRADIENTCOLOR2ACI
1070
     2
1001
ACAD
1010
0.0
1020
0.0
1030
0.0
  0
LINE
  5
1241F5
  8
SLIM
 10
4414.9999999999955
 20
-731.31590206289775
 30
0.0
 11
4501.3159020628937
 21
-644.99999999999955
 31
0.0
1001
GRADIENTCOLOR1ACI
1070
     5
1001
GRADIENTCOLOR2ACI
1070
     2
1001
ACAD
1010
0.0
1020
0.0
1030
0.0
  0
LINE
  5
1241F6
  8
SLIM
 10
4414.9999999999955
 20
-749.27641430503525
 30
0.0
 11
4519.2764143050308
 21
-644.99999999999955
 31
0.0
1001
GRADIENTCOLOR1ACI
1070
     5
1001
GRADIENTCOLOR2ACI
1070
     2
1001
ACAD
1010
0.0
1020
0.0
1030
0.0
  0
LINE
  5
1241F7
  8
SLIM
 10
4414.9999999999973
 20
-767.23692654717331
 30
0.0
 11
4537.236926547168
 21
-644.99999999999955
 31
0.0
1001
GRADIENTCOLOR1ACI
1070
     5
1001
GRADIENTCOLOR2ACI
1070
     2
1001
ACAD
1010
0.0
1020
0.0
1030
0.0
  0
LINE
  5
1241F8
  8
SLIM
 10
4414.9999999999973
 20
-785.19743878931081
 30
0.0
 11
4555.1974387893088
 21
-644.99999999999955
 31
0.0
1001
GRADIENTCOLOR1ACI
1070
     5
1001
GRADIENTCOLOR2ACI
1070
     2
1001
ACAD
1010
0.0
1020
0.0
1030
0.0
  0
LINE
  5
1241F9
  8
SLIM
 10
4414.9999999999973
 20
-803.15795103144865
 30
0.0
 11
4573.1579510314459
 21
-644.99999999999955
 31
0.0
1001
GRADIENTCOLOR1ACI
1070
     5
1001
GRADIENTCOLOR2ACI
1070
     2
1001
ACAD
1010
0.0
1020
0.0
1030
0.0
  0
LINE
  5
1241FA
  8
SLIM
 10
4414.9999999999991
 20
-821.11846327358626
 30
0.0
 11
4585.0000000000073
 21
-651.11846327357694
 31
0.0
1001
GRADIENTCOLOR1ACI
1070
     5
1001
GRADIENTCOLOR2ACI
1070
     2
1001
ACAD
1010
0.0
1020
0.0
1030
0.0
  0
LINE
  5
1241FB
  8
SLIM
 10
4414.9999999999991
 20
-839.07897551572387
 30
0.0
 11
4585.0000000000073
 21
-669.07897551571614
 31
0.0
1001
GRADIENTCOLOR1ACI
1070
     5
1001
GRADIENTCOLOR2ACI
1070
     2
1001
ACAD
1010
0.0
1020
0.0
1030
0.0
  0
LINE
  5
1241FC
  8
SLIM
 10
4414.9999999999991
 20
-857.03948775786182
 30
0.0
 11
4585.0000000000073
 21
-687.039487757855
 31
0.0
1001
GRADIENTCOLOR1ACI
1070
     5
1001
GRADIENTCOLOR2ACI
1070
     2
1001
ACAD
1010
0.0
1020
0.0
1030
0.0
  0
LINE
  5
1241FD
  8
SLIM
 10
4415.283600749558
 20
-874.71639925044155
 30
0.0
 11
4585.0000000000073
 21
-704.99999999999375
 31
0.0
1001
GRADIENTCOLOR1ACI
1070
     5
1001
GRADIENTCOLOR2ACI
1070
     2
1001
ACAD
1010
0.0
1020
0.0
1030
0.0
  0
LINE
  5
1241FE
  8
SLIM
 10
4417.4979104780414
 20
-890.46260176409692
 30
0.0
 11
4585.0000000000073
 21
-722.96051224213272
 31
0.0
1001
GRADIENTCOLOR1ACI
1070
     5
1001
GRADIENTCOLOR2ACI
1070
     2
1001
ACAD
1010
0.0
1020
0.0
1030
0.0
  0
LINE
  5
1241FF
  8
SLIM
 10
4419.712220206522
 20
-906.20880427775205
 30
0.0
 11
4585.0000000000036
 21
-740.92102448427181
 31
0.0
1001
GRADIENTCOLOR1ACI
1070
     5
1001
GRADIENTCOLOR2ACI
1070
     2
1001
ACAD
1010
0.0
1020
0.0
1030
0.0
  0
LINE
  5
124200
  8
SLIM
 10
4421.9265299350063
 20
-921.95500679140719
 30
0.0
 11
4585.0000000000009
 21
-758.88153672641045
 31
0.0
1001
GRADIENTCOLOR1ACI
1070
     5
1001
GRADIENTCOLOR2ACI
1070
     2
1001
ACAD
1010
0.0
1020
0.0
1030
0.0
  0
LINE
  5
124201
  8
SLIM
 10
4424.1408396634888
 20
-937.70120930506255
 30
0.0
 11
4585.0000000000009
 21
-776.84204896854953
 31
0.0
1001
GRADIENTCOLOR1ACI
1070
     5
1001
GRADIENTCOLOR2ACI
1070
     2
1001
ACAD
1010
0.0
1020
0.0
1030
0.0
  0
LINE
  5
124202
  8
SLIM
 10
4426.3551493919731
 20
-953.4474118187178
 30
0.0
 11
4585.0000000000009
 21
-794.80256121068851
 31
0.0
1001
GRADIENTCOLOR1ACI
1070
     5
1001
GRADIENTCOLOR2ACI
1070
     2
1001
ACAD
1010
0.0
1020
0.0
1030
0.0
  0
LINE
  5
124203
  8
SLIM
 10
4428.5694591204547
 20
-969.19361433237304
 30
0.0
 11
4585.0
 21
-812.76307345282714
 31
0.0
1001
GRADIENTCOLOR1ACI
1070
     5
1001
GRADIENTCOLOR2ACI
1070
     2
1001
ACAD
1010
0.0
1020
0.0
1030
0.0
  0
LINE
  5
124204
  8
SLIM
 10
4430.783768848939
 20
-984.93981684602841
 30
0.0
 11
4585.0
 21
-830.72358569496612
 31
0.0
1001
GRADIENTCOLOR1ACI
1070
     5
1001
GRADIENTCOLOR2ACI
1070
     2
1001
ACAD
1010
0.0
1020
0.0
1030
0.0
  0
LINE
  5
124205
  8
SLIM
 10
4438.6840979371082
 20
-994.99999999999761
 30
0.0
 11
4585.0
 21
-848.68409793710521
 31
0.0
1001
GRADIENTCOLOR1ACI
1070
     5
1001
GRADIENTCOLOR2ACI
1070
     2
1001
ACAD
1010
0.0
1020
0.0
1030
0.0
  0
LINE
  5
124206
  8
SLIM
 10
4443.0
 20
-1008.644610179244
 30
0.0
 11
4456.6446101792462
 21
-994.99999999999761
 31
0.0
1001
GRADIENTCOLOR1ACI
1070
     5
1001
GRADIENTCOLOR2ACI
1070
     2
1001
ACAD
1010
0.0
1020
0.0
1030
0.0
  0
LINE
  5
124207
  8
SLIM
 10
4456.6446101792462
 20
-994.99999999999761
 30
0.0
 11
4585.0
 21
-866.64461017924395
 31
0.0
1001
GRADIENTCOLOR1ACI
1070
     5
1001
GRADIENTCOLOR2ACI
1070
     2
1001
ACAD
1010
0.0
1020
0.0
1030
0.0
  0
LINE
  5
124208
  8
SLIM
 10
4444.6051224213852
 20
-1024.999999999997
 30
0.0
 11
4474.6051224213852
 21
-994.99999999999761
 31
0.0
1001
GRADIENTCOLOR1ACI
1070
     5
1001
GRADIENTCOLOR2ACI
1070
     2
1001
ACAD
1010
0.0
1020
0.0
1030
0.0
  0
LINE
  5
124209
  8
SLIM
 10
4474.6051224213852
 20
-994.99999999999761
 30
0.0
 11
4583.0518371543658
 21
-886.55328526701703
 31
0.0
1001
GRADIENTCOLOR1ACI
1070
     5
1001
GRADIENTCOLOR2ACI
1070
     2
1001
ACAD
1010
0.0
1020
0.0
1030
0.0
  0
LINE
  5
12420A
  8
SLIM
 10
4462.5656346635233
 20
-1024.999999999997
 30
0.0
 11
4492.5656346635233
 21
-994.99999999999761
 31
0.0
1001
GRADIENTCOLOR1ACI
1070
     5
1001
GRADIENTCOLOR2ACI
1070
     2
1001
ACAD
1010
0.0
1020
0.0
1030
0.0
  0
LINE
  5
12420B
  8
SLIM
 10
4492.5656346635233
 20
-994.99999999999761
 30
0.0
 11
4580.1128442420149
 21
-907.45279042150526
 31
0.0
1001
GRADIENTCOLOR1ACI
1070
     5
1001
GRADIENTCOLOR2ACI
1070
     2
1001
ACAD
1010
0.0
1020
0.0
1030
0.0
  0
LINE
  5
12420C
  8
SLIM
 10
4480.5261469056622
 20
-1024.999999999997
 30
0.0
 11
4510.5261469056613
 21
-994.99999999999761
 31
0.0
1001
GRADIENTCOLOR1ACI
1070
     5
1001
GRADIENTCOLOR2ACI
1070
     2
1001
ACAD
1010
0.0
1020
0.0
1030
0.0
  0
LINE
  5
12420D
  8
SLIM
 10
4510.5261469056613
 20
-994.99999999999761
 30
0.0
 11
4577.1738513296659
 21
-928.35229557599314
 31
0.0
1001
GRADIENTCOLOR1ACI
1070
     5
1001
GRADIENTCOLOR2ACI
1070
     2
1001
ACAD
1010
0.0
1020
0.0
1030
0.0
  0
LINE
  5
12420E
  8
SLIM
 10
4498.4866591478003
 20
-1024.999999999997
 30
0.0
 11
4528.4866591478012
 21
-994.99999999999761
 31
0.0
1001
GRADIENTCOLOR1ACI
1070
     5
1001
GRADIENTCOLOR2ACI
1070
     2
1001
ACAD
1010
0.0
1020
0.0
1030
0.0
  0
LINE
  5
12420F
  8
SLIM
 10
4528.4866591478012
 20
-994.99999999999761
 30
0.0
 11
4574.2348584173151
 21
-949.25180073048125
 31
0.0
1001
GRADIENTCOLOR1ACI
1070
     5
1001
GRADIENTCOLOR2ACI
1070
     2
1001
ACAD
1010
0.0
1020
0.0
1030
0.0
  0
LINE
  5
124210
  8
SLIM
 10
4516.4471713899366
 20
-1024.999999999997
 30
0.0
 11
4546.4471713899384
 21
-994.99999999999761
 31
0.0
1001
GRADIENTCOLOR1ACI
1070
     5
1001
GRADIENTCOLOR2ACI
1070
     2
1001
ACAD
1010
0.0
1020
0.0
1030
0.0
  0
LINE
  5
124211
  8
SLIM
 10
4546.4471713899384
 20
-994.99999999999761
 30
0.0
 11
4571.295865504967
 21
-970.15130588496913
 31
0.0
1001
GRADIENTCOLOR1ACI
1070
     5
1001
GRADIENTCOLOR2ACI
1070
     2
1001
ACAD
1010
0.0
1020
0.0
1030
0.0
  0
LINE
  5
124212
  8
SLIM
 10
4534.4076836320774
 20
-1024.999999999997
 30
0.0
 11
4557.0
 21
-1002.4076836320741
 31
0.0
1001
GRADIENTCOLOR1ACI
1070
     5
1001
GRADIENTCOLOR2ACI
1070
     2
1001
ACAD
1010
0.0
1020
0.0
1030
0.0
  0
LINE
  5
124213
  8
SLIM
 10
4564.4076836320774
 20
-994.99999999999761
 30
0.0
 11
4568.356872592617
 21
-991.05081103945713
 31
0.0
1001
GRADIENTCOLOR1ACI
1070
     5
1001
GRADIENTCOLOR2ACI
1070
     2
1001
ACAD
1010
0.0
1020
0.0
1030
0.0
  0
LINE
  5
124214
  8
SLIM
 10
4552.3681958742154
 20
-1024.999999999997
 30
0.0
 11
4557.0
 21
-1020.368195874212
 31
0.0
1001
GRADIENTCOLOR1ACI
1070
     5
1001
GRADIENTCOLOR2ACI
1070
     2
1001
ACAD
1010
0.0
1020
0.0
1030
0.0
  0
LINE
  5
124215
  8
OBJECT
 10
4443.0
 20
-1024.999999999997
 30
0.0
 11
4557.0
 21
-1024.999999999997
 31
0.0
1001
ACDBBLOCKREPETAG
1070
     1
1071
        1
1005
124215
  0
LINE
  5
124216
  8
OBJECT
 10
4432.1984821049682
 20
-994.99999999999761
 30
0.0
 11
4567.80151789504
 21
-994.99999999999761
 31
0.0
1001
ACDBBLOCKREPETAG
1070
     1
1071
        2
1005
124216
  0
LINE
  5
124217
  8
OBJECT
 10
4443.0
 20
-1024.999999999997
 30
0.0
 11
4443.0
 21
-999.99999999999761
 31
0.0
1001
ACDBBLOCKREPETAG
1070
     1
1071
        3
1005
124217
  0
LINE
  5
124218
  8
OBJECT
 10
4414.9999999999918
 20
-644.99999999999955
 30
0.0
 11
4415.0
 21
-872.69968280914077
 31
0.0
1001
ACDBBLOCKREPETAG
1070
     1
1071
        4
1005
124218
  0
LINE
  5
124219
  8
OBJECT
 10
4585.0000000000073
 20
-644.99999999999955
 30
0.0
 11
4585.0
 21
-872.69968280917192
 31
0.0
1001
ACDBBLOCKREPETAG
1070
     1
1071
        5
1005
124219
  0
LINE
  5
12421A
  8
OBJECT
 10
4415.0
 20
-872.69968280914077
 30
0.0
 11
4432.1984821049682
 21
-994.99999999999761
 31
0.0
1001
ACDBBLOCKREPETAG
1070
     1
1071
        6
1005
12421A
  0
LINE
  5
12421B
  8
OBJECT
 10
4567.80151789504
 20
-994.99999999999761
 30
0.0
 11
4585.0
 21
-872.69968280917192
 31
0.0
1001
ACDBBLOCKREPETAG
1070
     1
1071
        7
1005
12421B
  0
LINE
  5
12421C
  8
OBJECT
 10
4585.0000000000073
 20
-644.99999999999955
 30
0.0
 11
4414.9999999999918
 21
-644.99999999999955
 31
0.0
1001
ACDBBLOCKREPETAG
1070
     1
1071
        8
1005
12421C
  0
LINE
  5
12421D
  8
OBJECT
 10
4443.0
 20
-999.99999999999761
 30
0.0
 11
4442.296875
 21
-994.99999999999761
 31
0.0
1001
ACDBBLOCKREPETAG
1070
     1
1071
       10
1005
12421D
  0
LINE
  5
12421E
  8
OBJECT
 10
4557.0
 20
-1024.999999999997
 30
0.0
 11
4557.0
 21
-999.99999999999761
 31
0.0
1001
ACDBBLOCKREPETAG
1070
     1
1071
       11
1005
12421E
  0
LINE
  5
12421F
  8
OBJECT
 10
4557.0
 20
-999.99999999999761
 30
0.0
 11
4557.7031249999982
 21
-994.99999999999761
 31
0.0
1001
ACDBBLOCKREPETAG
1070
     1
1071
       12
1005
12421F
  0
LINE
  5
124220
  8
SLIM
 10
3914.9999999999941
 20
-659.47385309434696
 30
0.0
 11
3929.4738530943409
 21
-644.99999999999955
 31
0.0
1001
GRADIENTCOLOR1ACI
1070
     5
1001
GRADIENTCOLOR2ACI
1070
     2
1001
ACAD
1010
0.0
1020
0.0
1030
0.0
  0
LINE
  5
124221
  8
SLIM
 10
3914.9999999999941
 20
-677.43436533648446
 30
0.0
 11
3947.434365336479
 21
-644.99999999999955
 31
0.0
1001
GRADIENTCOLOR1ACI
1070
     5
1001
GRADIENTCOLOR2ACI
1070
     2
1001
ACAD
1010
0.0
1020
0.0
1030
0.0
  0
LINE
  5
124222
  8
SLIM
 10
3914.9999999999941
 20
-695.39487757862241
 30
0.0
 11
3965.3948775786171
 21
-644.99999999999955
 31
0.0
1001
GRADIENTCOLOR1ACI
1070
     5
1001
GRADIENTCOLOR2ACI
1070
     2
1001
ACAD
1010
0.0
1020
0.0
1030
0.0
  0
LINE
  5
124223
  8
SLIM
 10
3914.999999999995
 20
-713.35538982076014
 30
0.0
 11
3983.355389820756
 21
-644.99999999999955
 31
0.0
1001
GRADIENTCOLOR1ACI
1070
     5
1001
GRADIENTCOLOR2ACI
1070
     2
1001
ACAD
1010
0.0
1020
0.0
1030
0.0
  0
LINE
  5
124224
  8
SLIM
 10
3914.999999999995
 20
-731.31590206289775
 30
0.0
 11
4001.3159020628941
 21
-644.99999999999955
 31
0.0
1001
GRADIENTCOLOR1ACI
1070
     5
1001
GRADIENTCOLOR2ACI
1070
     2
1001
ACAD
1010
0.0
1020
0.0
1030
0.0
  0
LINE
  5
124225
  8
SLIM
 10
3914.9999999999968
 20
-749.27641430503525
 30
0.0
 11
4019.2764143050308
 21
-644.99999999999955
 31
0.0
1001
GRADIENTCOLOR1ACI
1070
     5
1001
GRADIENTCOLOR2ACI
1070
     2
1001
ACAD
1010
0.0
1020
0.0
1030
0.0
  0
LINE
  5
124226
  8
SLIM
 10
3914.9999999999968
 20
-767.23692654717331
 30
0.0
 11
4037.2369265471689
 21
-644.99999999999955
 31
0.0
1001
GRADIENTCOLOR1ACI
1070
     5
1001
GRADIENTCOLOR2ACI
1070
     2
1001
ACAD
1010
0.0
1020
0.0
1030
0.0
  0
LINE
  5
124227
  8
SLIM
 10
3914.9999999999968
 20
-785.19743878931081
 30
0.0
 11
4055.1974387893079
 21
-644.99999999999955
 31
0.0
1001
GRADIENTCOLOR1ACI
1070
     5
1001
GRADIENTCOLOR2ACI
1070
     2
1001
ACAD
1010
0.0
1020
0.0
1030
0.0
  0
LINE
  5
124228
  8
SLIM
 10
3914.9999999999991
 20
-803.15795103144865
 30
0.0
 11
4073.157951031445
 21
-644.99999999999955
 31
0.0
1001
GRADIENTCOLOR1ACI
1070
     5
1001
GRADIENTCOLOR2ACI
1070
     2
1001
ACAD
1010
0.0
1020
0.0
1030
0.0
  0
LINE
  5
124229
  8
SLIM
 10
3914.9999999999991
 20
-821.11846327358626
 30
0.0
 11
4085.0000000000068
 21
-651.11846327357694
 31
0.0
1001
GRADIENTCOLOR1ACI
1070
     5
1001
GRADIENTCOLOR2ACI
1070
     2
1001
ACAD
1010
0.0
1020
0.0
1030
0.0
  0
LINE
  5
12422A
  8
SLIM
 10
3914.9999999999991
 20
-839.07897551572387
 30
0.0
 11
4085.0000000000068
 21
-669.07897551571614
 31
0.0
1001
GRADIENTCOLOR1ACI
1070
     5
1001
GRADIENTCOLOR2ACI
1070
     2
1001
ACAD
1010
0.0
1020
0.0
1030
0.0
  0
LINE
  5
12422B
  8
SLIM
 10
3915.0
 20
-857.03948775786182
 30
0.0
 11
4085.0000000000068
 21
-687.039487757855
 31
0.0
1001
GRADIENTCOLOR1ACI
1070
     5
1001
GRADIENTCOLOR2ACI
1070
     2
1001
ACAD
1010
0.0
1020
0.0
1030
0.0
  0
LINE
  5
12422C
  8
SLIM
 10
3915.283600749558
 20
-874.71639925044155
 30
0.0
 11
4085.0000000000059
 21
-704.99999999999375
 31
0.0
1001
GRADIENTCOLOR1ACI
1070
     5
1001
GRADIENTCOLOR2ACI
1070
     2
1001
ACAD
1010
0.0
1020
0.0
1030
0.0
  0
LINE
  5
12422D
  8
SLIM
 10
3917.4979104780409
 20
-890.46260176409692
 30
0.0
 11
4085.000000000005
 21
-722.96051224213272
 31
0.0
1001
GRADIENTCOLOR1ACI
1070
     5
1001
GRADIENTCOLOR2ACI
1070
     2
1001
ACAD
1010
0.0
1020
0.0
1030
0.0
  0
LINE
  5
12422E
  8
SLIM
 10
3919.7122202065239
 20
-906.20880427775205
 30
0.0
 11
4085.0000000000041
 21
-740.92102448427181
 31
0.0
1001
GRADIENTCOLOR1ACI
1070
     5
1001
GRADIENTCOLOR2ACI
1070
     2
1001
ACAD
1010
0.0
1020
0.0
1030
0.0
  0
LINE
  5
12422F
  8
SLIM
 10
3921.9265299350068
 20
-921.95500679140719
 30
0.0
 11
4085.0000000000032
 21
-758.88153672641045
 31
0.0
1001
GRADIENTCOLOR1ACI
1070
     5
1001
GRADIENTCOLOR2ACI
1070
     2
1001
ACAD
1010
0.0
1020
0.0
1030
0.0
  0
LINE
  5
124230
  8
SLIM
 10
3924.1408396634902
 20
-937.70120930506255
 30
0.0
 11
4085.0000000000032
 21
-776.84204896854953
 31
0.0
1001
GRADIENTCOLOR1ACI
1070
     5
1001
GRADIENTCOLOR2ACI
1070
     2
1001
ACAD
1010
0.0
1020
0.0
1030
0.0
  0
LINE
  5
124231
  8
SLIM
 10
3926.3551493919731
 20
-953.4474118187178
 30
0.0
 11
4085.0000000000032
 21
-794.80256121068851
 31
0.0
1001
GRADIENTCOLOR1ACI
1070
     5
1001
GRADIENTCOLOR2ACI
1070
     2
1001
ACAD
1010
0.0
1020
0.0
1030
0.0
  0
LINE
  5
124232
  8
SLIM
 10
3928.569459120456
 20
-969.19361433237304
 30
0.0
 11
4085.0000000000009
 21
-812.76307345282714
 31
0.0
1001
GRADIENTCOLOR1ACI
1070
     5
1001
GRADIENTCOLOR2ACI
1070
     2
1001
ACAD
1010
0.0
1020
0.0
1030
0.0
  0
LINE
  5
124233
  8
SLIM
 10
3930.783768848939
 20
-984.93981684602841
 30
0.0
 11
4085.0000000000009
 21
-830.72358569496612
 31
0.0
1001
GRADIENTCOLOR1ACI
1070
     5
1001
GRADIENTCOLOR2ACI
1070
     2
1001
ACAD
1010
0.0
1020
0.0
1030
0.0
  0
LINE
  5
124234
  8
SLIM
 10
3938.6840979371082
 20
-994.99999999999761
 30
0.0
 11
4085.0
 21
-848.68409793710521
 31
0.0
1001
GRADIENTCOLOR1ACI
1070
     5
1001
GRADIENTCOLOR2ACI
1070
     2
1001
ACAD
1010
0.0
1020
0.0
1030
0.0
  0
LINE
  5
124235
  8
SLIM
 10
3943.0
 20
-1008.644610179244
 30
0.0
 11
3956.6446101792458
 21
-994.99999999999761
 31
0.0
1001
GRADIENTCOLOR1ACI
1070
     5
1001
GRADIENTCOLOR2ACI
1070
     2
1001
ACAD
1010
0.0
1020
0.0
1030
0.0
  0
LINE
  5
124236
  8
SLIM
 10
3956.6446101792458
 20
-994.99999999999761
 30
0.0
 11
4085.0
 21
-866.64461017924395
 31
0.0
1001
GRADIENTCOLOR1ACI
1070
     5
1001
GRADIENTCOLOR2ACI
1070
     2
1001
ACAD
1010
0.0
1020
0.0
1030
0.0
  0
LINE
  5
124237
  8
SLIM
 10
3944.6051224213852
 20
-1024.999999999997
 30
0.0
 11
3974.6051224213852
 21
-994.99999999999761
 31
0.0
1001
GRADIENTCOLOR1ACI
1070
     5
1001
GRADIENTCOLOR2ACI
1070
     2
1001
ACAD
1010
0.0
1020
0.0
1030
0.0
  0
LINE
  5
124238
  8
SLIM
 10
3974.6051224213852
 20
-994.99999999999761
 30
0.0
 11
4083.0518371543649
 21
-886.55328526701703
 31
0.0
1001
GRADIENTCOLOR1ACI
1070
     5
1001
GRADIENTCOLOR2ACI
1070
     2
1001
ACAD
1010
0.0
1020
0.0
1030
0.0
  0
LINE
  5
124239
  8
SLIM
 10
3962.5656346635228
 20
-1024.999999999997
 30
0.0
 11
3992.5656346635242
 21
-994.99999999999761
 31
0.0
1001
GRADIENTCOLOR1ACI
1070
     5
1001
GRADIENTCOLOR2ACI
1070
     2
1001
ACAD
1010
0.0
1020
0.0
1030
0.0
  0
LINE
  5
12423A
  8
SLIM
 10
3992.5656346635242
 20
-994.99999999999761
 30
0.0
 11
4080.1128442420149
 21
-907.45279042150526
 31
0.0
1001
GRADIENTCOLOR1ACI
1070
     5
1001
GRADIENTCOLOR2ACI
1070
     2
1001
ACAD
1010
0.0
1020
0.0
1030
0.0
  0
LINE
  5
12423B
  8
SLIM
 10
3980.5261469056618
 20
-1024.999999999997
 30
0.0
 11
4010.52614690566
 21
-994.99999999999761
 31
0.0
1001
GRADIENTCOLOR1ACI
1070
     5
1001
GRADIENTCOLOR2ACI
1070
     2
1001
ACAD
1010
0.0
1020
0.0
1030
0.0
  0
LINE
  5
12423C
  8
SLIM
 10
4010.52614690566
 20
-994.99999999999761
 30
0.0
 11
4077.173851329665
 21
-928.35229557599314
 31
0.0
1001
GRADIENTCOLOR1ACI
1070
     5
1001
GRADIENTCOLOR2ACI
1070
     2
1001
ACAD
1010
0.0
1020
0.0
1030
0.0
  0
LINE
  5
12423D
  8
SLIM
 10
3998.4866591477999
 20
-1024.999999999997
 30
0.0
 11
4028.4866591478012
 21
-994.99999999999761
 31
0.0
1001
GRADIENTCOLOR1ACI
1070
     5
1001
GRADIENTCOLOR2ACI
1070
     2
1001
ACAD
1010
0.0
1020
0.0
1030
0.0
  0
LINE
  5
12423E
  8
SLIM
 10
4028.4866591478012
 20
-994.99999999999761
 30
0.0
 11
4074.234858417316
 21
-949.25180073048125
 31
0.0
1001
GRADIENTCOLOR1ACI
1070
     5
1001
GRADIENTCOLOR2ACI
1070
     2
1001
ACAD
1010
0.0
1020
0.0
1030
0.0
  0
LINE
  5
12423F
  8
SLIM
 10
4016.4471713899379
 20
-1024.999999999997
 30
0.0
 11
4046.4471713899379
 21
-994.99999999999761
 31
0.0
1001
GRADIENTCOLOR1ACI
1070
     5
1001
GRADIENTCOLOR2ACI
1070
     2
1001
ACAD
1010
0.0
1020
0.0
1030
0.0
  0
LINE
  5
124240
  8
SLIM
 10
4046.4471713899379
 20
-994.99999999999761
 30
0.0
 11
4071.295865504967
 21
-970.15130588496913
 31
0.0
1001
GRADIENTCOLOR1ACI
1070
     5
1001
GRADIENTCOLOR2ACI
1070
     2
1001
ACAD
1010
0.0
1020
0.0
1030
0.0
  0
LINE
  5
124241
  8
SLIM
 10
4034.4076836320769
 20
-1024.999999999997
 30
0.0
 11
4057.0
 21
-1002.4076836320741
 31
0.0
1001
GRADIENTCOLOR1ACI
1070
     5
1001
GRADIENTCOLOR2ACI
1070
     2
1001
ACAD
1010
0.0
1020
0.0
1030
0.0
  0
LINE
  5
124242
  8
SLIM
 10
4064.407683632076
 20
-994.99999999999761
 30
0.0
 11
4068.356872592617
 21
-991.05081103945713
 31
0.0
1001
GRADIENTCOLOR1ACI
1070
     5
1001
GRADIENTCOLOR2ACI
1070
     2
1001
ACAD
1010
0.0
1020
0.0
1030
0.0
  0
LINE
  5
124243
  8
SLIM
 10
4052.368195874215
 20
-1024.999999999997
 30
0.0
 11
4057.0
 21
-1020.368195874212
 31
0.0
1001
GRADIENTCOLOR1ACI
1070
     5
1001
GRADIENTCOLOR2ACI
1070
     2
1001
ACAD
1010
0.0
1020
0.0
1030
0.0
  0
LINE
  5
124244
  8
OBJECT
 10
3943.0
 20
-1024.999999999997
 30
0.0
 11
4057.0
 21
-1024.999999999997
 31
0.0
1001
ACDBBLOCKREPETAG
1070
     1
1071
        1
1005
124244
  0
LINE
  5
124245
  8
OBJECT
 10
3932.1984821049668
 20
-994.99999999999761
 30
0.0
 11
4067.8015178950391
 21
-994.99999999999761
 31
0.0
1001
ACDBBLOCKREPETAG
1070
     1
1071
        2
1005
124245
  0
LINE
  5
124246
  8
OBJECT
 10
3943.0
 20
-1024.999999999997
 30
0.0
 11
3943.0
 21
-999.99999999999761
 31
0.0
1001
ACDBBLOCKREPETAG
1070
     1
1071
        3
1005
124246
  0
LINE
  5
124247
  8
OBJECT
 10
3914.9999999999918
 20
-644.99999999999955
 30
0.0
 11
3915.0
 21
-872.69968280914077
 31
0.0
1001
ACDBBLOCKREPETAG
1070
     1
1071
        4
1005
124247
  0
LINE
  5
124248
  8
OBJECT
 10
4085.0000000000068
 20
-644.99999999999955
 30
0.0
 11
4085.0
 21
-872.69968280917192
 31
0.0
1001
ACDBBLOCKREPETAG
1070
     1
1071
        5
1005
124248
  0
LINE
  5
124249
  8
OBJECT
 10
3915.0
 20
-872.69968280914077
 30
0.0
 11
3932.1984821049668
 21
-994.99999999999761
 31
0.0
1001
ACDBBLOCKREPETAG
1070
     1
1071
        6
1005
124249
  0
LINE
  5
12424A
  8
OBJECT
 10
4067.8015178950391
 20
-994.99999999999761
 30
0.0
 11
4085.0
 21
-872.69968280917192
 31
0.0
1001
ACDBBLOCKREPETAG
1070
     1
1071
        7
1005
12424A
  0
LINE
  5
12424B
  8
OBJECT
 10
4085.0000000000068
 20
-644.99999999999955
 30
0.0
 11
3914.9999999999918
 21
-644.99999999999955
 31
0.0
1001
ACDBBLOCKREPETAG
1070
     1
1071
        8
1005
12424B
  0
LINE
  5
12424C
  8
OBJECT
 10
3943.0
 20
-999.99999999999761
 30
0.0
 11
3942.296875
 21
-994.99999999999761
 31
0.0
1001
ACDBBLOCKREPETAG
1070
     1
1071
       10
1005
12424C
  0
LINE
  5
12424D
  8
OBJECT
 10
4057.0
 20
-1024.999999999997
 30
0.0
 11
4057.0
 21
-999.99999999999761
 31
0.0
1001
ACDBBLOCKREPETAG
1070
     1
1071
       11
1005
12424D
  0
LINE
  5
12424E
  8
OBJECT
 10
4057.0
 20
-999.99999999999761
 30
0.0
 11
4057.7031249999982
 21
-994.99999999999761
 31
0.0
1001
ACDBBLOCKREPETAG
1070
     1
1071
       12
1005
12424E
  0
LINE
  5
12424F
  8
OBJECT
 10
4443.0
 20
-449.99999999999937
 30
0.0
 11
4443.0
 21
-517.99999999999966
 31
0.0
1001
ACDBBLOCKREPETAG
1070
     1
1071
      214
1005
12424F
  0
LINE
  5
124250
  8
OBJECT
 10
4437.0
 20
-523.99999999999955
 30
0.0
 11
4437.0
 21
-520.99999999999955
 31
0.0
1001
ACDBBLOCKREPETAG
1070
     1
1071
      215
1005
124250
  0
LINE
  5
124251
  8
OBJECT
 10
4443.0
 20
-449.99999999999937
 30
0.0
 11
4557.0
 21
-449.99999999999937
 31
0.0
1001
ACDBBLOCKREPETAG
1070
     1
1071
      216
1005
124251
  0
LINE
  5
124252
  8
OBJECT
 10
4560.0
 20
-517.99999999999966
 30
0.0
 11
4440.0
 21
-517.99999999999966
 31
0.0
1001
ACDBBLOCKREPETAG
1070
     1
1071
      217
1005
124252
  0
ARC
  5
124253
  8
OBJECT
 10
4440.0
 20
-520.99999999999955
 30
0.0
 40
3.0
 50
90.0
 51
180.0
1001
ACDBBLOCKREPETAG
1070
     1
1071
      218
1005
124253
  0
LINE
  5
124254
  8
OBJECT
 10
4557.0
 20
-449.99999999999937
 30
0.0
 11
4557.0
 21
-517.99999999999966
 31
0.0
1001
ACDBBLOCKREPETAG
1070
     1
1071
      219
1005
124254
  0
LINE
  5
124255
  8
OBJECT
 10
4563.0
 20
-523.99999999999955
 30
0.0
 11
4563.0
 21
-520.99999999999955
 31
0.0
1001
ACDBBLOCKREPETAG
1070
     1
1071
      220
1005
124255
  0
ARC
  5
124256
  8
OBJECT
 10
4560.0
 20
-520.99999999999955
 30
0.0
 40
3.0
 50
0.0
 51
90.0
1001
ACDBBLOCKREPETAG
1070
     1
1071
      221
1005
124256
  0
LINE
  5
124257
  8
OBJECT
 10
4563.4999999998718
 20
-535.99999999999955
 30
0.0
 11
4572.0
 21
-535.99999999999955
 31
0.0
1001
ACDBBLOCKREPETAG
1070
     1
1071
       32
1005
124257
  0
LINE
  5
124258
  8
OBJECT
 10
4563.4999999999218
 20
-635.99999999999955
 30
0.0
 11
4574.9999999999218
 21
-635.99999999999955
 31
0.0
1001
ACDBBLOCKREPETAG
1070
     1
1071
       33
1005
124258
  0
LINE
  5
124259
  8
CENTER
 10
4500.0
 20
-434.99999999999949
 30
0.0
 11
4500.0
 21
-789.99999999999955
 31
0.0
1001
ACDBBLOCKREPETAG
1070
     1
1071
       36
1005
124259
  0
LINE
  5
12425A
  8
OBJECT
 10
4425.0
 20
-523.99999999999955
 30
0.0
 11
4425.0
 21
-777.99999999999955
 31
0.0
1001
ACDBBLOCKREPETAG
1070
     1
1071
       37
1005
12425A
  0
LINE
  5
12425B
  8
OBJECT
 10
4572.0
 20
-535.99999999999955
 30
0.0
 11
4572.0
 21
-523.99999999999955
 31
0.0
1001
ACDBBLOCKREPETAG
1070
     1
1071
       39
1005
12425B
  0
LINE
  5
12425C
  8
OBJECT
 10
4420.0
 20
-777.99999999999955
 30
0.0
 11
4580.0
 21
-777.99999999999955
 31
0.0
1001
ACDBBLOCKREPETAG
1070
     1
1071
       40
1005
12425C
  0
LINE
  5
12425D
  8
OBJECT
 10
4572.0
 20
-523.99999999999955
 30
0.0
 11
4425.0
 21
-523.99999999999955
 31
0.0
1001
ACDBBLOCKREPETAG
1070
     1
1071
       41
1005
12425D
  0
LINE
  5
12425E
  8
OBJECT
 10
4420.0
 20
-777.99999999999955
 30
0.0
 11
4420.0
 21
-789.99999999999955
 31
0.0
1001
ACDBBLOCKREPETAG
1070
     1
1071
       42
1005
12425E
  0
LINE
  5
12425F
  8
OBJECT
 10
4420.0
 20
-789.99999999999955
 30
0.0
 11
4580.0
 21
-789.99999999999955
 31
0.0
1001
ACDBBLOCKREPETAG
1070
     1
1071
       43
1005
12425F
  0
LINE
  5
124260
  8
OBJECT
 10
4580.0
 20
-789.99999999999955
 30
0.0
 11
4580.0
 21
-777.99999999999955
 31
0.0
1001
ACDBBLOCKREPETAG
1070
     1
1071
       44
1005
124260
  0
LINE
  5
124261
  8
OBJECT
 10
4574.9999999999218
 20
-635.99999999999955
 30
0.0
 11
4575.0
 21
-777.99999999999955
 31
0.0
1001
ACDBBLOCKREPETAG
1070
     1
1071
       45
1005
124261
  0
LINE
  5
124262
  8
OBJECT
 10
4563.4999999998581
 20
-523.99999999999955
 30
0.0
 11
4563.5
 21
-635.99999999999955
 31
0.0
1001
ACDBBLOCKREPETAG
1070
     1
1071
       46
1005
124262
  0
LINE
  5
124263
  8
HIDDEN
 10
4552.5
 20
-449.99999999999937
 30
0.0
 11
4552.5
 21
-523.99999999999955
 31
0.0
1001
ACDBBLOCKREPETAG
1070
     1
1071
      252
1005
124263
  0
LINE
  5
124264
  8
HIDDEN
 10
4447.5
 20
-449.99999999999937
 30
0.0
 11
4447.5
 21
-523.99999999999955
 31
0.0
1001
ACDBBLOCKREPETAG
1070
     1
1071
      253
1005
124264
  0
POINT
  5
124265
  8
DOTS
 10
4500.0
 20
-644.99999999999955
 30
0.0
1001
ACDBBLOCKREPETAG
1070
     1
1071
      261
1005
124265
  0
LINE
  5
124266
  8
OBJECT
 10
3943.0
 20
-449.99999999999937
 30
0.0
 11
3943.0
 21
-517.99999999999966
 31
0.0
1001
ACDBBLOCKREPETAG
1070
     1
1071
      206
1005
124266
  0
LINE
  5
124267
  8
OBJECT
 10
3937.0
 20
-523.99999999999955
 30
0.0
 11
3937.0
 21
-520.99999999999955
 31
0.0
1001
ACDBBLOCKREPETAG
1070
     1
1071
      207
1005
124267
  0
LINE
  5
124268
  8
OBJECT
 10
3943.0
 20
-449.99999999999937
 30
0.0
 11
4057.0
 21
-449.99999999999937
 31
0.0
1001
ACDBBLOCKREPETAG
1070
     1
1071
      208
1005
124268
  0
LINE
  5
124269
  8
OBJECT
 10
4060.0
 20
-517.99999999999966
 30
0.0
 11
3940.0
 21
-517.99999999999966
 31
0.0
1001
ACDBBLOCKREPETAG
1070
     1
1071
      209
1005
124269
  0
ARC
  5
12426A
  8
OBJECT
 10
3940.0
 20
-520.99999999999955
 30
0.0
 40
3.0
 50
90.0
 51
180.0
1001
ACDBBLOCKREPETAG
1070
     1
1071
      210
1005
12426A
  0
LINE
  5
12426B
  8
OBJECT
 10
4057.0
 20
-449.99999999999937
 30
0.0
 11
4057.0
 21
-517.99999999999966
 31
0.0
1001
ACDBBLOCKREPETAG
1070
     1
1071
      211
1005
12426B
  0
LINE
  5
12426C
  8
OBJECT
 10
4063.0
 20
-523.99999999999955
 30
0.0
 11
4063.0
 21
-520.99999999999955
 31
0.0
1001
ACDBBLOCKREPETAG
1070
     1
1071
      212
1005
12426C
  0
ARC
  5
12426D
  8
OBJECT
 10
4060.0
 20
-520.99999999999955
 30
0.0
 40
3.0
 50
0.0
 51
90.0
1001
ACDBBLOCKREPETAG
1070
     1
1071
      213
1005
12426D
  0
LINE
  5
12426E
  8
CENTER
 10
4000.0
 20
-434.99999999999949
 30
0.0
 11
4000.0
 21
-789.99999999999955
 31
0.0
1001
ACDBBLOCKREPETAG
1070
     1
1071
        4
1005
12426E
  0
LINE
  5
12426F
  8
OBJECT
 10
3925.0
 20
-523.99999999999955
 30
0.0
 11
3925.0
 21
-777.99999999999955
 31
0.0
1001
ACDBBLOCKREPETAG
1070
     1
1071
        5
1005
12426F
  0
LINE
  5
124270
  8
OBJECT
 10
3920.0
 20
-777.99999999999955
 30
0.0
 11
4080.0
 21
-777.99999999999955
 31
0.0
1001
ACDBBLOCKREPETAG
1070
     1
1071
        8
1005
124270
  0
LINE
  5
124271
  8
OBJECT
 10
4080.0
 20
-523.99999999999955
 30
0.0
 11
3925.0
 21
-523.99999999999955
 31
0.0
1001
ACDBBLOCKREPETAG
1070
     1
1071
        9
1005
124271
  0
LINE
  5
124272
  8
OBJECT
 10
3920.0
 20
-777.99999999999955
 30
0.0
 11
3920.0
 21
-789.99999999999955
 31
0.0
1001
ACDBBLOCKREPETAG
1070
     1
1071
       10
1005
124272
  0
LINE
  5
124273
  8
OBJECT
 10
3920.0
 20
-789.99999999999955
 30
0.0
 11
4080.0
 21
-789.99999999999955
 31
0.0
1001
ACDBBLOCKREPETAG
1070
     1
1071
       11
1005
124273
  0
LINE
  5
124274
  8
OBJECT
 10
4080.0
 20
-789.99999999999955
 30
0.0
 11
4080.0
 21
-777.99999999999955
 31
0.0
1001
ACDBBLOCKREPETAG
1070
     1
1071
       12
1005
124274
  0
LINE
  5
124275
  8
OBJECT
 10
4074.9999999998631
 20
-647.99999999985027
 30
0.0
 11
4075.0
 21
-777.99999999999955
 31
0.0
1001
ACDBBLOCKREPETAG
1070
     1
1071
       14
1005
124275
  0
LINE
  5
124276
  8
OBJECT
 10
4074.9999908029849
 20
-647.99998602702135
 30
0.0
 11
4080.0
 21
-647.99998602702135
 31
0.0
1001
ACDBBLOCKREPETAG
1070
     1
1071
       15
1005
124276
  0
ARC
  5
124277
  8
OBJECT
 10
4200.6872746716726
 20
-639.4080994101073
 30
0.0
 40
170.6350503965856
 50
137.44134459184301
 51
149.91949581337221
1001
ACDBBLOCKREPETAG
1070
     1
1071
       25
1005
124277
  0
ARC
  5
124278
  8
OBJECT
 10
4118.8455987040506
 20
-595.88272669536457
 30
0.0
 40
78.072222021763665
 50
147.45515310381529
 51
164.66365997719231
1001
ACDBBLOCKREPETAG
1070
     1
1071
       26
1005
124278
  0
ARC
  5
124279
  8
OBJECT
 10
4085.7554349608722
 20
-585.99999999999955
 30
0.0
 40
43.55353926885617
 50
165.6884523007466
 51
194.3115476992534
1001
ACDBBLOCKREPETAG
1070
     1
1071
       27
1005
124279
  0
ARC
  5
12427A
  8
OBJECT
 10
4200.6872746716726
 20
-532.59190058989157
 30
0.0
 40
170.6350503965856
 50
210.08050418662771
 51
222.55865540815699
1001
ACDBBLOCKREPETAG
1070
     1
1071
       28
1005
12427A
  0
ARC
  5
12427B
  8
OBJECT
 10
4118.8455987040506
 20
-576.11727330463452
 30
0.0
 40
78.072222021763665
 50
195.33634002280749
 51
212.54484689618471
1001
ACDBBLOCKREPETAG
1070
     1
1071
       29
1005
12427B
  0
LINE
  5
12427C
  8
HIDDEN
 10
4052.5
 20
-449.99999999999937
 30
0.0
 11
4052.5
 21
-523.99999999999955
 31
0.0
1001
ACDBBLOCKREPETAG
1070
     1
1071
      250
1005
12427C
  0
LINE
  5
12427D
  8
HIDDEN
 10
3947.5
 20
-449.99999999999937
 30
0.0
 11
3947.5
 21
-523.99999999999955
 31
0.0
1001
ACDBBLOCKREPETAG
1070
     1
1071
      251
1005
12427D
  0
POINT
  5
12427E
  8
DOTS
 10
4000.0
 20
-644.99999999999955
 30
0.0
1001
ACDBBLOCKREPETAG
1070
     1
1071
      260
1005
12427E
  0
LINE
  5
12427F
  8
CENTER
 10
4577.0
 20
-586.0
 30
0.0
 11
4423.0
 21
-586.0
 31
0.0
1001
ACDBBLOCKREPETAG
1070
     1
1071
       17
1005
12427F
  0
CIRCLE
  5
124280
  8
OBJECT
 10
4500.0
 20
-586.0
 30
0.0
 40
41.5
1001
ACDBBLOCKREPETAG
1070
     1
1071
       19
1005
124280
  0
CIRCLE
  5
124281
  8
OBJECT
 10
4500.0
 20
-586.0
 30
0.0
 40
54.0
1001
ACDBBLOCKREPETAG
1070
     1
1071
       20
1005
124281
  0
ARC
  5
124282
  8
OBJECT
 10
4500.0
 20
-586.0
 30
0.0
 40
62.0
 50
287.89655112920718
 51
252.10344887079279
1001
ACDBBLOCKREPETAG
1070
     1
1071
       21
1005
124282
  0
LINE
  5
124283
  8
OBJECT
 10
4480.9474411167421
 20
-645.0
 30
0.0
 11
4519.052558883257
 21
-645.0
 31
0.0
1001
ACDBBLOCKREPETAG
1070
     1
1071
       22
1005
124283
  0
LINE
  5
124284
  8
OBJECT
 10
4133.0
 20
-524.0
 30
0.0
 11
4140.0
 21
-524.0
 31
0.0
1001
ACDBBLOCKREPETAG
1070
     1
1071
       45
1005
124284
  0
LINE
  5
124285
  8
OBJECT
 10
4140.0
 20
-524.0
 30
0.0
 11
4140.0
 21
-645.0
 31
0.0
1001
ACDBBLOCKREPETAG
1070
     1
1071
       46
1005
124285
  0
LINE
  5
124286
  8
OBJECT
 10
4133.0
 20
-645.0
 30
0.0
 11
4133.0
 21
-524.0
 31
0.0
1001
ACDBBLOCKREPETAG
1070
     1
1071
       47
1005
124286
  0
LINE
  5
124287
  8
CENTER
 10
4155.0
 20
-586.0
 30
0.0
 11
4071.0
 21
-586.0
 31
0.0
1001
ACDBBLOCKREPETAG
1070
     1
1071
       48
1005
124287
  0
LINE
  5
124288
  8
OBJECT
 10
4133.0
 20
-527.0
 30
0.0
 11
4097.0
 21
-527.0
 31
0.0
1001
ACDBBLOCKREPETAG
1070
     1
1071
       49
1005
124288
  0
LINE
  5
124289
  8
OBJECT
 10
4097.0
 20
-527.0
 30
0.0
 11
4097.0
 21
-645.0
 31
0.0
1001
ACDBBLOCKREPETAG
1070
     1
1071
       50
1005
124289
  0
LINE
  5
12428A
  8
OBJECT
 10
4097.0
 20
-645.0
 30
0.0
 11
4140.0
 21
-645.0
 31
0.0
1001
ACDBBLOCKREPETAG
1070
     1
1071
       51
1005
12428A
  0
LINE
  5
12428B
  8
OBJECT
 10
4093.0
 20
-531.5
 30
0.0
 11
4086.0
 21
-531.5
 31
0.0
1001
ACDBBLOCKREPETAG
1070
     1
1071
       52
1005
12428B
  0
LINE
  5
12428C
  8
OBJECT
 10
4086.0
 20
-640.5
 30
0.0
 11
4093.0
 21
-640.5
 31
0.0
1001
ACDBBLOCKREPETAG
1070
     1
1071
       53
1005
12428C
  0
LINE
  5
12428D
  8
OBJECT
 10
4093.0
 20
-640.5
 30
0.0
 11
4093.0
 21
-531.5
 31
0.0
1001
ACDBBLOCKREPETAG
1070
     1
1071
       54
1005
12428D
  0
LINE
  5
12428E
  8
OBJECT
 10
4097.0
 20
-527.0
 30
0.0
 11
4093.0
 21
-531.5
 31
0.0
1001
ACDBBLOCKREPETAG
1070
     1
1071
       55
1005
12428E
  0
LINE
  5
12428F
  8
OBJECT
 10
4097.0
 20
-645.0
 30
0.0
 11
4093.0
 21
-640.5
 31
0.0
1001
ACDBBLOCKREPETAG
1070
     1
1071
       56
1005
12428F
  0
LINE
  5
124290
  8
OBJECT
 10
4083.0
 20
-524.0
 30
0.0
 11
4080.0
 21
-524.0
 31
0.0
1001
ACDBBLOCKREPETAG
1070
     1
1071
       57
1005
124290
  0
ARC
  5
124291
  8
OBJECT
 10
4083.0
 20
-527.0
 30
0.0
 40
3.0
 50
0.0
 51
90.0
1001
ACDBBLOCKREPETAG
1070
     1
1071
       58
1005
124291
  0
LINE
  5
124292
  8
OBJECT
 10
4080.0
 20
-648.0
 30
0.0
 11
4083.0
 21
-648.0
 31
0.0
1001
ACDBBLOCKREPETAG
1070
     1
1071
       59
1005
124292
  0
ARC
  5
124293
  8
OBJECT
 10
4083.0
 20
-645.0
 30
0.0
 40
3.0
 50
270.0
 51
0.0
1001
ACDBBLOCKREPETAG
1070
     1
1071
       60
1005
124293
  0
LINE
  5
124294
  8
OBJECT
 10
4086.0
 20
-645.0
 30
0.0
 11
4086.0
 21
-527.0
 31
0.0
1001
ACDBBLOCKREPETAG
1070
     1
1071
       61
1005
124294
  0
LINE
  5
124295
  8
HIDDEN
 10
4088.0
 20
-541.5
 30
0.0
 11
4088.0
 21
-630.49999999999977
 31
0.0
1001
ACDBBLOCKREPETAG
1070
     1
1071
       63
1005
124295
  0
LINE
  5
124296
  8
OBJECT
 10
2443.0
 20
-449.99999999999937
 30
0.0
 11
2443.0
 21
-517.99999999999966
 31
0.0
1001
ACDBBLOCKREPETAG
1070
     1
1071
      214
1005
124296
  0
LINE
  5
124297
  8
OBJECT
 10
2437.0
 20
-523.99999999999955
 30
0.0
 11
2437.0
 21
-520.99999999999955
 31
0.0
1001
ACDBBLOCKREPETAG
1070
     1
1071
      215
1005
124297
  0
LINE
  5
124298
  8
OBJECT
 10
2443.0
 20
-449.99999999999937
 30
0.0
 11
2557.0
 21
-449.99999999999937
 31
0.0
1001
ACDBBLOCKREPETAG
1070
     1
1071
      216
1005
124298
  0
LINE
  5
124299
  8
OBJECT
 10
2560.0
 20
-517.99999999999966
 30
0.0
 11
2440.0
 21
-517.99999999999966
 31
0.0
1001
ACDBBLOCKREPETAG
1070
     1
1071
      217
1005
124299
  0
ARC
  5
12429A
  8
OBJECT
 10
2440.0
 20
-520.99999999999955
 30
0.0
 40
3.0
 50
90.0
 51
180.0
1001
ACDBBLOCKREPETAG
1070
     1
1071
      218
1005
12429A
  0
LINE
  5
12429B
  8
OBJECT
 10
2557.0
 20
-449.99999999999937
 30
0.0
 11
2557.0
 21
-517.99999999999966
 31
0.0
1001
ACDBBLOCKREPETAG
1070
     1
1071
      219
1005
12429B
  0
LINE
  5
12429C
  8
OBJECT
 10
2563.0
 20
-523.99999999999955
 30
0.0
 11
2563.0
 21
-520.99999999999955
 31
0.0
1001
ACDBBLOCKREPETAG
1070
     1
1071
      220
1005
12429C
  0
ARC
  5
12429D
  8
OBJECT
 10
2560.0
 20
-520.99999999999955
 30
0.0
 40
3.0
 50
0.0
 51
90.0
1001
ACDBBLOCKREPETAG
1070
     1
1071
      221
1005
12429D
  0
LINE
  5
12429E
  8
OBJECT
 10
2563.4999999998731
 20
-535.99999999999955
 30
0.0
 11
2572.0
 21
-535.99999999999955
 31
0.0
1001
ACDBBLOCKREPETAG
1070
     1
1071
       32
1005
12429E
  0
LINE
  5
12429F
  8
OBJECT
 10
2563.4999999999241
 20
-635.99999999999955
 30
0.0
 11
2574.9999999999241
 21
-635.99999999999955
 31
0.0
1001
ACDBBLOCKREPETAG
1070
     1
1071
       33
1005
12429F
  0
LINE
  5
1242A0
  8
CENTER
 10
2500.0
 20
-434.99999999999949
 30
0.0
 11
2500.0
 21
-789.99999999999955
 31
0.0
1001
ACDBBLOCKREPETAG
1070
     1
1071
       36
1005
1242A0
  0
LINE
  5
1242A1
  8
OBJECT
 10
2425.0
 20
-523.99999999999955
 30
0.0
 11
2425.0
 21
-777.99999999999955
 31
0.0
1001
ACDBBLOCKREPETAG
1070
     1
1071
       37
1005
1242A1
  0
LINE
  5
1242A2
  8
OBJECT
 10
2572.0
 20
-535.99999999999955
 30
0.0
 11
2572.0
 21
-523.99999999999955
 31
0.0
1001
ACDBBLOCKREPETAG
1070
     1
1071
       39
1005
1242A2
  0
LINE
  5
1242A3
  8
OBJECT
 10
2420.0
 20
-777.99999999999955
 30
0.0
 11
2580.0
 21
-777.99999999999955
 31
0.0
1001
ACDBBLOCKREPETAG
1070
     1
1071
       40
1005
1242A3
  0
LINE
  5
1242A4
  8
OBJECT
 10
2572.0
 20
-523.99999999999955
 30
0.0
 11
2425.0
 21
-523.99999999999955
 31
0.0
1001
ACDBBLOCKREPETAG
1070
     1
1071
       41
1005
1242A4
  0
LINE
  5
1242A5
  8
OBJECT
 10
2420.0
 20
-777.99999999999955
 30
0.0
 11
2420.0
 21
-789.99999999999955
 31
0.0
1001
ACDBBLOCKREPETAG
1070
     1
1071
       42
1005
1242A5
  0
LINE
  5
1242A6
  8
OBJECT
 10
2420.0
 20
-789.99999999999955
 30
0.0
 11
2580.0
 21
-789.99999999999955
 31
0.0
1001
ACDBBLOCKREPETAG
1070
     1
1071
       43
1005
1242A6
  0
LINE
  5
1242A7
  8
OBJECT
 10
2580.0
 20
-789.99999999999955
 30
0.0
 11
2580.0
 21
-777.99999999999955
 31
0.0
1001
ACDBBLOCKREPETAG
1070
     1
1071
       44
1005
1242A7
  0
LINE
  5
1242A8
  8
OBJECT
 10
2574.9999999999241
 20
-635.99999999999955
 30
0.0
 11
2575.0
 21
-777.99999999999955
 31
0.0
1001
ACDBBLOCKREPETAG
1070
     1
1071
       45
1005
1242A8
  0
LINE
  5
1242A9
  8
OBJECT
 10
2563.4999999998581
 20
-523.99999999999955
 30
0.0
 11
2563.5
 21
-635.99999999999955
 31
0.0
1001
ACDBBLOCKREPETAG
1070
     1
1071
       46
1005
1242A9
  0
LINE
  5
1242AA
  8
HIDDEN
 10
2552.5
 20
-449.99999999999937
 30
0.0
 11
2552.5
 21
-523.99999999999955
 31
0.0
1001
ACDBBLOCKREPETAG
1070
     1
1071
      252
1005
1242AA
  0
LINE
  5
1242AB
  8
HIDDEN
 10
2447.5
 20
-449.99999999999937
 30
0.0
 11
2447.5
 21
-523.99999999999955
 31
0.0
1001
ACDBBLOCKREPETAG
1070
     1
1071
      253
1005
1242AB
  0
POINT
  5
1242AC
  8
DOTS
 10
2500.0
 20
-644.99999999999955
 30
0.0
1001
ACDBBLOCKREPETAG
1070
     1
1071
      261
1005
1242AC
  0
LINE
  5
1242AD
  8
OBJECT
 10
1943.0
 20
-449.99999999999937
 30
0.0
 11
1943.0
 21
-517.99999999999966
 31
0.0
1001
ACDBBLOCKREPETAG
1070
     1
1071
      206
1005
1242AD
  0
LINE
  5
1242AE
  8
OBJECT
 10
1937.0
 20
-523.99999999999955
 30
0.0
 11
1937.0
 21
-520.99999999999955
 31
0.0
1001
ACDBBLOCKREPETAG
1070
     1
1071
      207
1005
1242AE
  0
LINE
  5
1242AF
  8
OBJECT
 10
1943.0
 20
-449.99999999999937
 30
0.0
 11
2057.0
 21
-449.99999999999937
 31
0.0
1001
ACDBBLOCKREPETAG
1070
     1
1071
      208
1005
1242AF
  0
LINE
  5
1242B0
  8
OBJECT
 10
2060.0
 20
-517.99999999999966
 30
0.0
 11
1940.0
 21
-517.99999999999966
 31
0.0
1001
ACDBBLOCKREPETAG
1070
     1
1071
      209
1005
1242B0
  0
ARC
  5
1242B1
  8
OBJECT
 10
1940.0
 20
-520.99999999999955
 30
0.0
 40
3.0
 50
90.0
 51
180.0
1001
ACDBBLOCKREPETAG
1070
     1
1071
      210
1005
1242B1
  0
LINE
  5
1242B2
  8
OBJECT
 10
2057.0
 20
-449.99999999999937
 30
0.0
 11
2057.0
 21
-517.99999999999966
 31
0.0
1001
ACDBBLOCKREPETAG
1070
     1
1071
      211
1005
1242B2
  0
LINE
  5
1242B3
  8
OBJECT
 10
2063.0
 20
-523.99999999999955
 30
0.0
 11
2063.0
 21
-520.99999999999955
 31
0.0
1001
ACDBBLOCKREPETAG
1070
     1
1071
      212
1005
1242B3
  0
ARC
  5
1242B4
  8
OBJECT
 10
2060.0
 20
-520.99999999999955
 30
0.0
 40
3.0
 50
0.0
 51
90.0
1001
ACDBBLOCKREPETAG
1070
     1
1071
      213
1005
1242B4
  0
LINE
  5
1242B5
  8
CENTER
 10
2000.0
 20
-434.99999999999949
 30
0.0
 11
2000.0
 21
-789.99999999999955
 31
0.0
1001
ACDBBLOCKREPETAG
1070
     1
1071
        4
1005
1242B5
  0
LINE
  5
1242B6
  8
OBJECT
 10
1925.0
 20
-523.99999999999955
 30
0.0
 11
1925.0
 21
-777.99999999999955
 31
0.0
1001
ACDBBLOCKREPETAG
1070
     1
1071
        5
1005
1242B6
  0
LINE
  5
1242B7
  8
OBJECT
 10
1920.0
 20
-777.99999999999955
 30
0.0
 11
2080.0
 21
-777.99999999999955
 31
0.0
1001
ACDBBLOCKREPETAG
1070
     1
1071
        8
1005
1242B7
  0
LINE
  5
1242B8
  8
OBJECT
 10
2080.0
 20
-523.99999999999955
 30
0.0
 11
1925.0
 21
-523.99999999999955
 31
0.0
1001
ACDBBLOCKREPETAG
1070
     1
1071
        9
1005
1242B8
  0
LINE
  5
1242B9
  8
OBJECT
 10
1920.0
 20
-777.99999999999955
 30
0.0
 11
1920.0
 21
-789.99999999999955
 31
0.0
1001
ACDBBLOCKREPETAG
1070
     1
1071
       10
1005
1242B9
  0
LINE
  5
1242BA
  8
OBJECT
 10
1920.0
 20
-789.99999999999955
 30
0.0
 11
2080.0
 21
-789.99999999999955
 31
0.0
1001
ACDBBLOCKREPETAG
1070
     1
1071
       11
1005
1242BA
  0
LINE
  5
1242BB
  8
OBJECT
 10
2080.0
 20
-789.99999999999955
 30
0.0
 11
2080.0
 21
-777.99999999999955
 31
0.0
1001
ACDBBLOCKREPETAG
1070
     1
1071
       12
1005
1242BB
  0
LINE
  5
1242BC
  8
OBJECT
 10
2074.9999999998622
 20
-647.99999999985027
 30
0.0
 11
2075.0
 21
-777.99999999999955
 31
0.0
1001
ACDBBLOCKREPETAG
1070
     1
1071
       14
1005
1242BC
  0
LINE
  5
1242BD
  8
OBJECT
 10
2074.9999908029849
 20
-647.99998602702135
 30
0.0
 11
2080.0
 21
-647.99998602702135
 31
0.0
1001
ACDBBLOCKREPETAG
1070
     1
1071
       15
1005
1242BD
  0
ARC
  5
1242BE
  8
OBJECT
 10
2200.6872746716731
 20
-639.4080994101073
 30
0.0
 40
170.6350503965856
 50
137.44134459184301
 51
149.91949581336559
1001
ACDBBLOCKREPETAG
1070
     1
1071
       25
1005
1242BE
  0
ARC
  5
1242BF
  8
OBJECT
 10
2118.8455987040511
 20
-595.88272669536457
 30
0.0
 40
78.072222021763665
 50
147.45515310381529
 51
164.66365997719581
1001
ACDBBLOCKREPETAG
1070
     1
1071
       26
1005
1242BF
  0
ARC
  5
1242C0
  8
OBJECT
 10
2085.7554349608731
 20
-585.99999999999955
 30
0.0
 40
43.55353926885617
 50
165.6884523007466
 51
194.3115476992534
1001
ACDBBLOCKREPETAG
1070
     1
1071
       27
1005
1242C0
  0
ARC
  5
1242C1
  8
OBJECT
 10
2200.6872746716731
 20
-532.59190058989157
 30
0.0
 40
170.6350503965856
 50
210.0805041866343
 51
222.55865540815699
1001
ACDBBLOCKREPETAG
1070
     1
1071
       28
1005
1242C1
  0
ARC
  5
1242C2
  8
OBJECT
 10
2118.8455987040511
 20
-576.11727330463452
 30
0.0
 40
78.072222021763665
 50
195.33634002280411
 51
212.54484689618471
1001
ACDBBLOCKREPETAG
1070
     1
1071
       29
1005
1242C2
  0
LINE
  5
1242C3
  8
HIDDEN
 10
2052.5
 20
-449.99999999999937
 30
0.0
 11
2052.5
 21
-523.99999999999955
 31
0.0
1001
ACDBBLOCKREPETAG
1070
     1
1071
      250
1005
1242C3
  0
LINE
  5
1242C4
  8
HIDDEN
 10
1947.5
 20
-449.99999999999937
 30
0.0
 11
1947.5
 21
-523.99999999999955
 31
0.0
1001
ACDBBLOCKREPETAG
1070
     1
1071
      251
1005
1242C4
  0
POINT
  5
1242C5
  8
DOTS
 10
2000.0
 20
-644.99999999999955
 30
0.0
1001
ACDBBLOCKREPETAG
1070
     1
1071
      260
1005
1242C5
  0
ARC
  5
1242C6
  8
OBJECT
 10
2000.0
 20
-199.99999999999909
 30
0.0
 40
80.0
 50
50.804965661401717
 51
309.19496742598432
1001
ACDBBLOCKREPETAG
1070
     1
1071
      348
1005
1242C6
  0
CIRCLE
  5
1242C7
  8
OBJECT
 10
2000.0
 20
-199.99999999999909
 30
0.0
 40
75.0
1001
ACDBBLOCKREPETAG
1070
     1
1071
      349
1005
1242C7
  0
LINE
  5
1242C8
  8
OBJECT
 10
1963.6238040660271
 20
-162.14471807827491
 30
0.0
 11
2037.0841102714221
 21
-174.5180316957439
 31
0.0
1001
ACDBBLOCKREPETAG
1070
     1
1071
      350
1005
1242C8
  0
LINE
  5
1242C9
  8
OBJECT
 10
2043.269476050712
 20
-170.26782143372259
 30
0.0
 11
2037.0841102714221
 21
-174.5180316957439
 31
0.0
1001
ACDBBLOCKREPETAG
1070
     1
1071
      351
1005
1242C9
  0
CIRCLE
  5
1242CA
  8
OBJECT
 10
2000.0
 20
-199.99999999999909
 30
0.0
 40
52.5
1001
ACDBBLOCKREPETAG
1070
     1
1071
      352
1005
1242CA
  0
ARC
  5
1242CB
  8
OBJECT
 10
2000.0
 20
-199.99999999999909
 30
0.0
 40
50.0
 50
131.70180964355251
 51
168.52376955958479
1001
ACDBBLOCKREPETAG
1070
     1
1071
      353
1005
1242CB
  0
ARC
  5
1242CC
  8
OBJECT
 10
2000.0
 20
-199.99999999999909
 30
0.0
 40
50.0
 50
238.8199429999047
 51
34.49450625011707
1001
ACDBBLOCKREPETAG
1070
     1
1071
      354
1005
1242CC
  0
LINE
  5
1242CD
  8
OBJECT
 10
2042.2018956920181
 20
-137.99999999999909
 30
0.0
 11
2080.0
 21
-137.99999999999909
 31
0.0
1001
ACDBBLOCKREPETAG
1070
     1
1071
      355
1005
1242CD
  0
LINE
  5
1242CE
  8
OBJECT
 10
2042.2018956920181
 20
-261.99999999999909
 30
0.0
 11
2080.0
 21
-261.99999999999909
 31
0.0
1001
ACDBBLOCKREPETAG
1070
     1
1071
      356
1005
1242CE
  0
LINE
  5
1242CF
  8
CENTER
 10
2080.0
 20
-199.99999999999909
 30
0.0
 11
1905.0
 21
-199.99999999999909
 31
0.0
1001
ACDBBLOCKREPETAG
1070
     1
1071
      364
1005
1242CF
  0
LINE
  5
1242D0
  8
CENTER
 10
2000.0
 20
-294.99999999999898
 30
0.0
 11
2000.0
 21
-104.9999999999991
 31
0.0
1001
ACDBBLOCKREPETAG
1070
     1
1071
      365
1005
1242D0
  0
LINE
  5
1242D1
  8
OBJECT
 10
1947.702309276614
 20
-195.39548645337189
 30
0.0
 11
1970.4540343856349
 21
-193.79865146436981
 31
0.0
1001
ACDBBLOCKREPETAG
1070
     1
1071
      368
1005
1242D1
  0
LINE
  5
1242D2
  8
OBJECT
 10
1948.416473471706
 20
-190.2332302727674
 30
0.0
 11
1966.988435262901
 21
-188.92975272660161
 31
0.0
1001
ACDBBLOCKREPETAG
1070
     1
1071
      369
1005
1242D2
  0
LINE
  5
1242D3
  8
OBJECT
 10
1974.1135374752771
 20
-242.77722592637201
 30
0.0
 11
1982.136698837405
 21
-234.1690987954708
 31
0.0
1001
ACDBBLOCKREPETAG
1070
     1
1071
      370
1005
1242D3
  0
ARC
  5
1242D4
  8
OBJECT
 10
1982.1160071245381
 20
-183.28188966318251
 30
0.0
 40
60.031113246032611
 50
256.417442267745
 51
262.33936106086588
1001
ACDBBLOCKREPETAG
1070
     1
1071
      371
1005
1242D4
  0
LINE
  5
1242D5
  8
OBJECT
 10
1977.612599732513
 20
-197.67495277149911
 30
0.0
 11
1982.136698837405
 21
-234.1690987954708
 31
0.0
1001
ACDBBLOCKREPETAG
1070
     1
1071
      372
1005
1242D5
  0
ARC
  5
1242D6
  8
OBJECT
 10
1967.6885653456411
 20
-198.90521351131881
 30
0.0
 40
10.0
 50
7.0667782929957941
 51
94.014734370532395
1001
ACDBBLOCKREPETAG
1070
     1
1071
      373
1005
1242D6
  0
ARC
  5
1242D7
  8
OBJECT
 10
1970.944125370974
 20
-200.78147401875589
 30
0.0
 40
7.0
 50
7.0667782929957941
 51
94.014733775014648
1001
ACDBBLOCKREPETAG
1070
     1
1071
      374
1005
1242D7
  0
CIRCLE
  5
1242D8
  8
OBJECT
 10
2000.0
 20
-199.99999999999909
 30
0.0
 40
57.0
1001
ACDBBLOCKREPETAG
1070
     1
1071
      375
1005
1242D8
  0
POINT
  5
1242D9
  8
DOTS
 10
2000.0
 20
-199.99999999999909
 30
0.0
1001
ACDBBLOCKREPETAG
1070
     1
1071
      434
1005
1242D9
  0
ARC
  5
1242DA
  8
OBJECT
 10
2000.0
 20
-199.99999999999909
 30
0.0
 40
72.0
 50
61.877817547648696
 51
118.1221824523513
1001
ACDBBLOCKREPETAG
1070
     1
1071
      441
1005
1242DA
  0
LINE
  5
1242DB
  8
OBJECT
 10
1960.0907278943851
 20
-136.49999999999909
 30
0.0
 11
1966.062557550692
 21
-136.49999999999909
 31
0.0
1001
ACDBBLOCKREPETAG
1070
     1
1071
      442
1005
1242DB
  0
LINE
  5
1242DC
  8
OBJECT
 10
2033.9374424493069
 20
-136.49999999999909
 30
0.0
 11
2039.9092721056149
 21
-136.49999999999909
 31
0.0
1001
ACDBBLOCKREPETAG
1070
     1
1071
      443
1005
1242DC
  0
ARC
  5
1242DD
  8
OBJECT
 10
539.99999999987813
 20
-695.99999999984175
 30
0.0
 40
80.0
 50
140.80496566139959
 51
39.194967425985247
1001
ACDBBLOCKREPETAG
1070
     1
1071
      348
1005
1242DD
  0
CIRCLE
  5
1242DE
  8
OBJECT
 10
539.99999999987813
 20
-695.99999999984175
 30
0.0
 40
75.0
1001
ACDBBLOCKREPETAG
1070
     1
1071
      349
1005
1242DE
  0
LINE
  5
1242DF
  8
OBJECT
 10
502.14471807815403
 20
-732.37619593381453
 30
0.0
 11
514.51803169562299
 21
-658.91588972841964
 31
0.0
1001
ACDBBLOCKREPETAG
1070
     1
1071
      350
1005
1242DF
  0
LINE
  5
1242E0
  8
OBJECT
 10
510.26782143360163
 20
-652.73052394913066
 30
0.0
 11
514.51803169562299
 21
-658.91588972841964
 31
0.0
1001
ACDBBLOCKREPETAG
1070
     1
1071
      351
1005
1242E0
  0
CIRCLE
  5
1242E1
  8
OBJECT
 10
539.99999999987813
 20
-695.99999999984175
 30
0.0
 40
52.5
1001
ACDBBLOCKREPETAG
1070
     1
1071
      352
1005
1242E1
  0
ARC
  5
1242E2
  8
OBJECT
 10
539.99999999987813
 20
-695.99999999984175
 30
0.0
 40
50.0
 50
221.7018096435535
 51
258.52376955958158
1001
ACDBBLOCKREPETAG
1070
     1
1071
      353
1005
1242E2
  0
ARC
  5
1242E3
  8
OBJECT
 10
539.99999999987813
 20
-695.99999999984175
 30
0.0
 40
50.0
 50
328.8199429999039
 51
124.49450625011841
1001
ACDBBLOCKREPETAG
1070
     1
1071
      354
1005
1242E3
  0
LINE
  5
1242E4
  8
OBJECT
 10
477.99999999987801
 20
-653.79810430782345
 30
0.0
 11
477.99999999987801
 21
-615.99999999984175
 31
0.0
1001
ACDBBLOCKREPETAG
1070
     1
1071
      355
1005
1242E4
  0
LINE
  5
1242E5
  8
OBJECT
 10
601.99999999987801
 20
-653.79810430782345
 30
0.0
 11
601.99999999987801
 21
-615.99999999984175
 31
0.0
1001
ACDBBLOCKREPETAG
1070
     1
1071
      356
1005
1242E5
  0
LINE
  5
1242E6
  8
OBJECT
 10
535.39548645325101
 20
-748.29769072322745
 30
0.0
 11
533.79865146424891
 21
-725.54596561420669
 31
0.0
1001
ACDBBLOCKREPETAG
1070
     1
1071
      368
1005
1242E6
  0
LINE
  5
1242E7
  8
OBJECT
 10
530.23323027264644
 20
-747.58352652813585
 30
0.0
 11
528.92975272648073
 21
-729.01156473694004
 31
0.0
1001
ACDBBLOCKREPETAG
1070
     1
1071
      369
1005
1242E7
  0
LINE
  5
1242E8
  8
OBJECT
 10
582.77722592625105
 20
-721.88646252456397
 30
0.0
 11
574.16909879534956
 21
-713.86330116243505
 31
0.0
1001
ACDBBLOCKREPETAG
1070
     1
1071
      370
1005
1242E8
  0
ARC
  5
1242E9
  8
OBJECT
 10
523.28188966306152
 20
-713.88399287530206
 30
0.0
 40
60.031113246032611
 50
346.41744226773898
 51
352.33936106086571
1001
ACDBBLOCKREPETAG
1070
     1
1071
      371
1005
1242E9
  0
LINE
  5
1242EA
  8
OBJECT
 10
537.67495277137823
 20
-718.38740026732739
 30
0.0
 11
574.16909879534956
 21
-713.86330116243505
 31
0.0
1001
ACDBBLOCKREPETAG
1070
     1
1071
      372
1005
1242EA
  0
ARC
  5
1242EB
  8
OBJECT
 10
538.90521351119776
 20
-728.31143465420064
 30
0.0
 40
10.0
 50
97.066778292998222
 51
184.01473437053241
1001
ACDBBLOCKREPETAG
1070
     1
1071
      373
1005
1242EB
  0
ARC
  5
1242EC
  8
OBJECT
 10
540.78147401863475
 20
-725.05587462886785
 30
0.0
 40
7.0
 50
97.066778292998222
 51
184.0147337750081
1001
ACDBBLOCKREPETAG
1070
     1
1071
      374
1005
1242EC
  0
CIRCLE
  5
1242ED
  8
OBJECT
 10
539.99999999987813
 20
-695.99999999984175
 30
0.0
 40
57.0
1001
ACDBBLOCKREPETAG
1070
     1
1071
      375
1005
1242ED
  0
POINT
  5
1242EE
  8
DOTS
 10
539.99999999987813
 20
-695.99999999984175
 30
0.0
1001
ACDBBLOCKREPETAG
1070
     1
1071
      432
1005
1242EE
  0
ARC
  5
1242EF
  8
OBJECT
 10
539.99999999987813
 20
-695.99999999984175
 30
0.0
 40
72.0
 50
151.87781754764791
 51
208.12218245235209
1001
ACDBBLOCKREPETAG
1070
     1
1071
      436
1005
1242EF
  0
LINE
  5
1242F0
  8
OBJECT
 10
476.49999999987813
 20
-735.90927210545658
 30
0.0
 11
476.49999999987813
 21
-729.93744244914831
 31
0.0
1001
ACDBBLOCKREPETAG
1070
     1
1071
      437
1005
1242F0
  0
LINE
  5
1242F1
  8
OBJECT
 10
476.49999999987813
 20
-662.06255755053485
 30
0.0
 11
476.49999999987813
 21
-656.09072789422646
 31
0.0
1001
ACDBBLOCKREPETAG
1070
     1
1071
      438
1005
1242F1
  0
ARC
  5
1242F2
  8
OBJECT
 10
180.0
 20
-695.99999999984175
 30
0.0
 40
80.0
 50
140.8049656614017
 51
39.194967425984217
1001
ACDBBLOCKREPETAG
1070
     1
1071
      348
1005
1242F2
  0
CIRCLE
  5
1242F3
  8
OBJECT
 10
180.0
 20
-695.99999999984175
 30
0.0
 40
75.0
1001
ACDBBLOCKREPETAG
1070
     1
1071
      349
1005
1242F3
  0
LINE
  5
1242F4
  8
OBJECT
 10
142.14471807827579
 20
-732.37619593381453
 30
0.0
 11
154.51803169574481
 21
-658.91588972841964
 31
0.0
1001
ACDBBLOCKREPETAG
1070
     1
1071
      350
1005
1242F4
  0
LINE
  5
1242F5
  8
OBJECT
 10
150.2678214337235
 20
-652.73052394913066
 30
0.0
 11
154.51803169574481
 21
-658.91588972841964
 31
0.0
1001
ACDBBLOCKREPETAG
1070
     1
1071
      351
1005
1242F5
  0
CIRCLE
  5
1242F6
  8
OBJECT
 10
180.0
 20
-695.99999999984175
 30
0.0
 40
52.5
1001
ACDBBLOCKREPETAG
1070
     1
1071
      352
1005
1242F6
  0
ARC
  5
1242F7
  8
OBJECT
 10
180.0
 20
-695.99999999984175
 30
0.0
 40
50.0
 50
221.70180964355239
 51
258.52376955958482
1001
ACDBBLOCKREPETAG
1070
     1
1071
      353
1005
1242F7
  0
ARC
  5
1242F8
  8
OBJECT
 10
180.0
 20
-695.99999999984175
 30
0.0
 40
50.0
 50
328.8199429999047
 51
124.494506250117
1001
ACDBBLOCKREPETAG
1070
     1
1071
      354
1005
1242F8
  0
LINE
  5
1242F9
  8
OBJECT
 10
118.0
 20
-653.79810430782345
 30
0.0
 11
118.0
 21
-615.99999999984175
 31
0.0
1001
ACDBBLOCKREPETAG
1070
     1
1071
      355
1005
1242F9
  0
LINE
  5
1242FA
  8
OBJECT
 10
242.0
 20
-653.79810430782345
 30
0.0
 11
242.0
 21
-615.99999999984175
 31
0.0
1001
ACDBBLOCKREPETAG
1070
     1
1071
      356
1005
1242FA
  0
LINE
  5
1242FB
  8
OBJECT
 10
175.3954864533728
 20
-748.29769072322745
 30
0.0
 11
173.79865146437081
 21
-725.54596561420669
 31
0.0
1001
ACDBBLOCKREPETAG
1070
     1
1071
      368
1005
1242FB
  0
LINE
  5
1242FC
  8
OBJECT
 10
170.23323027276831
 20
-747.58352652813585
 30
0.0
 11
168.9297527266026
 21
-729.01156473694004
 31
0.0
1001
ACDBBLOCKREPETAG
1070
     1
1071
      369
1005
1242FC
  0
LINE
  5
1242FD
  8
OBJECT
 10
222.77722592637289
 20
-721.88646252456397
 30
0.0
 11
214.16909879547171
 21
-713.86330116243505
 31
0.0
1001
ACDBBLOCKREPETAG
1070
     1
1071
      370
1005
1242FD
  0
ARC
  5
1242FE
  8
OBJECT
 10
163.28188966318339
 20
-713.88399287530206
 30
0.0
 40
60.031113246032611
 50
346.41744226773858
 51
352.339361060866
1001
ACDBBLOCKREPETAG
1070
     1
1071
      371
1005
1242FE
  0
LINE
  5
1242FF
  8
OBJECT
 10
177.6749527715001
 20
-718.38740026732739
 30
0.0
 11
214.16909879547171
 21
-713.86330116243505
 31
0.0
1001
ACDBBLOCKREPETAG
1070
     1
1071
      372
1005
1242FF
  0
ARC
  5
124300
  8
OBJECT
 10
178.90521351131969
 20
-728.31143465420064
 30
0.0
 40
10.0
 50
97.066778292994968
 51
184.01473437053241
1001
ACDBBLOCKREPETAG
1070
     1
1071
      373
1005
124300
  0
ARC
  5
124301
  8
OBJECT
 10
180.7814740187568
 20
-725.05587462886785
 30
0.0
 40
7.0
 50
97.066778292994968
 51
184.0147337750081
1001
ACDBBLOCKREPETAG
1070
     1
1071
      374
1005
124301
  0
CIRCLE
  5
124302
  8
OBJECT
 10
180.0
 20
-695.99999999984175
 30
0.0
 40
57.0
1001
ACDBBLOCKREPETAG
1070
     1
1071
      375
1005
124302
  0
POINT
  5
124303
  8
DOTS
 10
180.0
 20
-695.99999999984175
 30
0.0
1001
ACDBBLOCKREPETAG
1070
     1
1071
      432
1005
124303
  0
ARC
  5
124304
  8
OBJECT
 10
180.0
 20
-695.99999999984175
 30
0.0
 40
72.0
 50
151.87781754764791
 51
208.12218245235209
1001
ACDBBLOCKREPETAG
1070
     1
1071
      436
1005
124304
  0
LINE
  5
124305
  8
OBJECT
 10
116.5
 20
-735.90927210545658
 30
0.0
 11
116.5
 21
-729.93744244914831
 31
0.0
1001
ACDBBLOCKREPETAG
1070
     1
1071
      437
1005
124305
  0
LINE
  5
124306
  8
OBJECT
 10
116.5
 20
-662.06255755053485
 30
0.0
 11
116.5
 21
-656.09072789422646
 31
0.0
1001
ACDBBLOCKREPETAG
1070
     1
1071
      438
1005
124306
  0
ARC
  5
124307
  8
OBJECT
 10
539.99999999987813
 20
-232.0
 30
0.0
 40
80.0
 50
140.80496566140209
 51
39.194967425983982
1001
ACDBBLOCKREPETAG
1070
     1
1071
      348
1005
124307
  0
CIRCLE
  5
124308
  8
OBJECT
 10
539.99999999987813
 20
-232.0
 30
0.0
 40
75.0
1001
ACDBBLOCKREPETAG
1070
     1
1071
      349
1005
124308
  0
LINE
  5
124309
  8
OBJECT
 10
502.14471807815403
 20
-268.37619593397289
 30
0.0
 11
514.51803169562299
 21
-194.91588972857789
 31
0.0
1001
ACDBBLOCKREPETAG
1070
     1
1071
      350
1005
124309
  0
LINE
  5
12430A
  8
OBJECT
 10
510.26782143360163
 20
-188.73052394928891
 30
0.0
 11
514.51803169562299
 21
-194.91588972857789
 31
0.0
1001
ACDBBLOCKREPETAG
1070
     1
1071
      351
1005
12430A
  0
CIRCLE
  5
12430B
  8
OBJECT
 10
539.99999999987813
 20
-232.0
 30
0.0
 40
52.5
1001
ACDBBLOCKREPETAG
1070
     1
1071
      352
1005
12430B
  0
ARC
  5
12430C
  8
OBJECT
 10
539.99999999987813
 20
-232.0
 30
0.0
 40
50.0
 50
221.70180964355231
 51
258.52376955958221
1001
ACDBBLOCKREPETAG
1070
     1
1071
      353
1005
12430C
  0
ARC
  5
12430D
  8
OBJECT
 10
539.99999999987813
 20
-232.0
 30
0.0
 40
50.0
 50
328.81994299990248
 51
124.4945062501202
1001
ACDBBLOCKREPETAG
1070
     1
1071
      354
1005
12430D
  0
LINE
  5
12430E
  8
OBJECT
 10
477.99999999987801
 20
-189.79810430798159
 30
0.0
 11
477.99999999987801
 21
-152.0
 31
0.0
1001
ACDBBLOCKREPETAG
1070
     1
1071
      355
1005
12430E
  0
LINE
  5
12430F
  8
OBJECT
 10
601.99999999987801
 20
-189.79810430798159
 30
0.0
 11
601.99999999987801
 21
-152.0
 31
0.0
1001
ACDBBLOCKREPETAG
1070
     1
1071
      356
1005
12430F
  0
LINE
  5
124310
  8
OBJECT
 10
535.39548645325101
 20
-284.29769072338593
 30
0.0
 11
533.79865146424891
 21
-261.54596561436477
 31
0.0
1001
ACDBBLOCKREPETAG
1070
     1
1071
      368
1005
124310
  0
LINE
  5
124311
  8
OBJECT
 10
530.23323027264644
 20
-283.58352652829421
 30
0.0
 11
528.92975272648073
 21
-265.01156473709852
 31
0.0
1001
ACDBBLOCKREPETAG
1070
     1
1071
      369
1005
124311
  0
LINE
  5
124312
  8
OBJECT
 10
582.77722592625105
 20
-257.88646252472239
 30
0.0
 11
574.16909879534956
 21
-249.86330116259339
 31
0.0
1001
ACDBBLOCKREPETAG
1070
     1
1071
      370
1005
124312
  0
ARC
  5
124313
  8
OBJECT
 10
523.28188966306152
 20
-249.88399287546051
 30
0.0
 40
60.031113246032611
 50
346.41744226774222
 51
352.33936106086571
1001
ACDBBLOCKREPETAG
1070
     1
1071
      371
1005
124313
  0
LINE
  5
124314
  8
OBJECT
 10
537.67495277137823
 20
-254.38740026748559
 30
0.0
 11
574.16909879534956
 21
-249.86330116259339
 31
0.0
1001
ACDBBLOCKREPETAG
1070
     1
1071
      372
1005
124314
  0
ARC
  5
124315
  8
OBJECT
 10
538.90521351119776
 20
-264.31143465435889
 30
0.0
 40
10.0
 50
97.066778292998421
 51
184.01473437053559
1001
ACDBBLOCKREPETAG
1070
     1
1071
      373
1005
124315
  0
ARC
  5
124316
  8
OBJECT
 10
540.78147401863475
 20
-261.05587462902628
 30
0.0
 40
7.0
 50
97.066778292998421
 51
184.01473377500969
1001
ACDBBLOCKREPETAG
1070
     1
1071
      374
1005
124316
  0
CIRCLE
  5
124317
  8
OBJECT
 10
539.99999999987813
 20
-232.0
 30
0.0
 40
57.0
1001
ACDBBLOCKREPETAG
1070
     1
1071
      375
1005
124317
  0
POINT
  5
124318
  8
DOTS
 10
539.99999999987813
 20
-232.0
 30
0.0
1001
ACDBBLOCKREPETAG
1070
     1
1071
      432
1005
124318
  0
ARC
  5
124319
  8
OBJECT
 10
539.99999999987813
 20
-232.0
 30
0.0
 40
72.0
 50
151.87781754764791
 51
208.12218245235209
1001
ACDBBLOCKREPETAG
1070
     1
1071
      436
1005
124319
  0
LINE
  5
12431A
  8
OBJECT
 10
476.49999999987813
 20
-271.90927210561489
 30
0.0
 11
476.49999999987813
 21
-265.93744244930667
 31
0.0
1001
ACDBBLOCKREPETAG
1070
     1
1071
      437
1005
12431A
  0
LINE
  5
12431B
  8
OBJECT
 10
476.49999999987813
 20
-198.0625575506933
 30
0.0
 11
476.49999999987813
 21
-192.090727894385
 31
0.0
1001
ACDBBLOCKREPETAG
1070
     1
1071
      438
1005
12431B
  0
ARC
  5
12431C
  8
OBJECT
 10
180.0
 20
-232.0
 30
0.0
 40
80.0
 50
140.8049656614042
 51
39.194967425982952
1001
ACDBBLOCKREPETAG
1070
     1
1071
      348
1005
12431C
  0
CIRCLE
  5
12431D
  8
OBJECT
 10
180.0
 20
-232.0
 30
0.0
 40
75.0
1001
ACDBBLOCKREPETAG
1070
     1
1071
      349
1005
12431D
  0
LINE
  5
12431E
  8
OBJECT
 10
142.14471807827579
 20
-268.37619593397289
 30
0.0
 11
154.51803169574481
 21
-194.91588972857789
 31
0.0
1001
ACDBBLOCKREPETAG
1070
     1
1071
      350
1005
12431E
  0
LINE
  5
12431F
  8
OBJECT
 10
150.2678214337235
 20
-188.73052394928891
 30
0.0
 11
154.51803169574481
 21
-194.91588972857789
 31
0.0
1001
ACDBBLOCKREPETAG
1070
     1
1071
      351
1005
12431F
  0
CIRCLE
  5
124320
  8
OBJECT
 10
180.0
 20
-232.0
 30
0.0
 40
52.5
1001
ACDBBLOCKREPETAG
1070
     1
1071
      352
1005
124320
  0
ARC
  5
124321
  8
OBJECT
 10
180.0
 20
-232.0
 30
0.0
 40
50.0
 50
221.70180964355129
 51
258.5237695595855
1001
ACDBBLOCKREPETAG
1070
     1
1071
      353
1005
124321
  0
ARC
  5
124322
  8
OBJECT
 10
180.0
 20
-232.0
 30
0.0
 40
50.0
 50
328.81994299990328
 51
124.4945062501189
1001
ACDBBLOCKREPETAG
1070
     1
1071
      354
1005
124322
  0
LINE
  5
124323
  8
OBJECT
 10
118.0
 20
-189.79810430798159
 30
0.0
 11
118.0
 21
-152.0
 31
0.0
1001
ACDBBLOCKREPETAG
1070
     1
1071
      355
1005
124323
  0
LINE
  5
124324
  8
OBJECT
 10
242.0
 20
-189.79810430798159
 30
0.0
 11
242.0
 21
-152.0
 31
0.0
1001
ACDBBLOCKREPETAG
1070
     1
1071
      356
1005
124324
  0
LINE
  5
124325
  8
OBJECT
 10
175.3954864533728
 20
-284.29769072338593
 30
0.0
 11
173.79865146437081
 21
-261.54596561436477
 31
0.0
1001
ACDBBLOCKREPETAG
1070
     1
1071
      368
1005
124325
  0
LINE
  5
124326
  8
OBJECT
 10
170.23323027276831
 20
-283.58352652829421
 30
0.0
 11
168.9297527266026
 21
-265.01156473709852
 31
0.0
1001
ACDBBLOCKREPETAG
1070
     1
1071
      369
1005
124326
  0
LINE
  5
124327
  8
OBJECT
 10
222.77722592637289
 20
-257.88646252472239
 30
0.0
 11
214.16909879547171
 21
-249.86330116259339
 31
0.0
1001
ACDBBLOCKREPETAG
1070
     1
1071
      370
1005
124327
  0
ARC
  5
124328
  8
OBJECT
 10
163.28188966318339
 20
-249.88399287546051
 30
0.0
 40
60.031113246032611
 50
346.41744226774182
 51
352.339361060866
1001
ACDBBLOCKREPETAG
1070
     1
1071
      371
1005
124328
  0
LINE
  5
124329
  8
OBJECT
 10
177.6749527715001
 20
-254.38740026748559
 30
0.0
 11
214.16909879547171
 21
-249.86330116259339
 31
0.0
1001
ACDBBLOCKREPETAG
1070
     1
1071
      372
1005
124329
  0
ARC
  5
12432A
  8
OBJECT
 10
178.90521351131969
 20
-264.31143465435889
 30
0.0
 40
10.0
 50
97.066778292995238
 51
184.01473437053559
1001
ACDBBLOCKREPETAG
1070
     1
1071
      373
1005
12432A
  0
ARC
  5
12432B
  8
OBJECT
 10
180.7814740187568
 20
-261.05587462902628
 30
0.0
 40
7.0
 50
97.066778292995238
 51
184.01473377500969
1001
ACDBBLOCKREPETAG
1070
     1
1071
      374
1005
12432B
  0
CIRCLE
  5
12432C
  8
OBJECT
 10
180.0
 20
-232.0
 30
0.0
 40
57.0
1001
ACDBBLOCKREPETAG
1070
     1
1071
      375
1005
12432C
  0
POINT
  5
12432D
  8
DOTS
 10
180.0
 20
-232.0
 30
0.0
1001
ACDBBLOCKREPETAG
1070
     1
1071
      432
1005
12432D
  0
ARC
  5
12432E
  8
OBJECT
 10
180.0
 20
-232.0
 30
0.0
 40
72.0
 50
151.87781754764791
 51
208.12218245235209
1001
ACDBBLOCKREPETAG
1070
     1
1071
      436
1005
12432E
  0
LINE
  5
12432F
  8
OBJECT
 10
116.5
 20
-271.90927210561489
 30
0.0
 11
116.5
 21
-265.93744244930667
 31
0.0
1001
ACDBBLOCKREPETAG
1070
     1
1071
      437
1005
12432F
  0
LINE
  5
124330
  8
OBJECT
 10
116.5
 20
-198.0625575506933
 30
0.0
 11
116.5
 21
-192.090727894385
 31
0.0
1001
ACDBBLOCKREPETAG
1070
     1
1071
      438
1005
124330
  0
LINE
  5
124331
  8
CENTER
 10
4577.0
 20
-586.0
 30
0.0
 11
4423.0
 21
-586.0
 31
0.0
1001
ACDBBLOCKREPETAG
1070
     1
1071
       17
1005
124331
  0
CIRCLE
  5
124332
  8
OBJECT
 10
4500.0
 20
-586.0
 30
0.0
 40
41.5
1001
ACDBBLOCKREPETAG
1070
     1
1071
       19
1005
124332
  0
CIRCLE
  5
124333
  8
OBJECT
 10
4500.0
 20
-586.0
 30
0.0
 40
54.0
1001
ACDBBLOCKREPETAG
1070
     1
1071
       20
1005
124333
  0
ARC
  5
124334
  8
OBJECT
 10
4500.0
 20
-586.0
 30
0.0
 40
62.0
 50
287.89655112920718
 51
252.10344887079279
1001
ACDBBLOCKREPETAG
1070
     1
1071
       21
1005
124334
  0
LINE
  5
124335
  8
OBJECT
 10
4480.9474411167421
 20
-645.0
 30
0.0
 11
4519.052558883257
 21
-645.0
 31
0.0
1001
ACDBBLOCKREPETAG
1070
     1
1071
       22
1005
124335
  0
LINE
  5
124336
  8
OBJECT
 10
4133.0
 20
-524.0
 30
0.0
 11
4140.0
 21
-524.0
 31
0.0
1001
ACDBBLOCKREPETAG
1070
     1
1071
       45
1005
124336
  0
LINE
  5
124337
  8
OBJECT
 10
4140.0
 20
-524.0
 30
0.0
 11
4140.0
 21
-645.0
 31
0.0
1001
ACDBBLOCKREPETAG
1070
     1
1071
       46
1005
124337
  0
LINE
  5
124338
  8
OBJECT
 10
4133.0
 20
-645.0
 30
0.0
 11
4133.0
 21
-524.0
 31
0.0
1001
ACDBBLOCKREPETAG
1070
     1
1071
       47
1005
124338
  0
LINE
  5
124339
  8
CENTER
 10
4155.0
 20
-586.0
 30
0.0
 11
4071.0
 21
-586.0
 31
0.0
1001
ACDBBLOCKREPETAG
1070
     1
1071
       48
1005
124339
  0
LINE
  5
12433A
  8
OBJECT
 10
4133.0
 20
-527.0
 30
0.0
 11
4097.0
 21
-527.0
 31
0.0
1001
ACDBBLOCKREPETAG
1070
     1
1071
       49
1005
12433A
  0
LINE
  5
12433B
  8
OBJECT
 10
4097.0
 20
-527.0
 30
0.0
 11
4097.0
 21
-645.0
 31
0.0
1001
ACDBBLOCKREPETAG
1070
     1
1071
       50
1005
12433B
  0
LINE
  5
12433C
  8
OBJECT
 10
4097.0
 20
-645.0
 30
0.0
 11
4140.0
 21
-645.0
 31
0.0
1001
ACDBBLOCKREPETAG
1070
     1
1071
       51
1005
12433C
  0
LINE
  5
12433D
  8
OBJECT
 10
4093.0
 20
-531.5
 30
0.0
 11
4086.0
 21
-531.5
 31
0.0
1001
ACDBBLOCKREPETAG
1070
     1
1071
       52
1005
12433D
  0
LINE
  5
12433E
  8
OBJECT
 10
4086.0
 20
-640.5
 30
0.0
 11
4093.0
 21
-640.5
 31
0.0
1001
ACDBBLOCKREPETAG
1070
     1
1071
       53
1005
12433E
  0
LINE
  5
12433F
  8
OBJECT
 10
4093.0
 20
-640.5
 30
0.0
 11
4093.0
 21
-531.5
 31
0.0
1001
ACDBBLOCKREPETAG
1070
     1
1071
       54
1005
12433F
  0
LINE
  5
124340
  8
OBJECT
 10
4097.0
 20
-527.0
 30
0.0
 11
4093.0
 21
-531.5
 31
0.0
1001
ACDBBLOCKREPETAG
1070
     1
1071
       55
1005
124340
  0
LINE
  5
124341
  8
OBJECT
 10
4097.0
 20
-645.0
 30
0.0
 11
4093.0
 21
-640.5
 31
0.0
1001
ACDBBLOCKREPETAG
1070
     1
1071
       56
1005
124341
  0
LINE
  5
124342
  8
OBJECT
 10
4083.0
 20
-524.0
 30
0.0
 11
4080.0
 21
-524.0
 31
0.0
1001
ACDBBLOCKREPETAG
1070
     1
1071
       57
1005
124342
  0
ARC
  5
124343
  8
OBJECT
 10
4083.0
 20
-527.0
 30
0.0
 40
3.0
 50
0.0
 51
90.0
1001
ACDBBLOCKREPETAG
1070
     1
1071
       58
1005
124343
  0
LINE
  5
124344
  8
OBJECT
 10
4080.0
 20
-648.0
 30
0.0
 11
4083.0
 21
-648.0
 31
0.0
1001
ACDBBLOCKREPETAG
1070
     1
1071
       59
1005
124344
  0
ARC
  5
124345
  8
OBJECT
 10
4083.0
 20
-645.0
 30
0.0
 40
3.0
 50
270.0
 51
0.0
1001
ACDBBLOCKREPETAG
1070
     1
1071
       60
1005
124345
  0
LINE
  5
124346
  8
OBJECT
 10
4086.0
 20
-645.0
 30
0.0
 11
4086.0
 21
-527.0
 31
0.0
1001
ACDBBLOCKREPETAG
1070
     1
1071
       61
1005
124346
  0
LINE
  5
124347
  8
HIDDEN
 10
4088.0
 20
-541.5
 30
0.0
 11
4088.0
 21
-630.49999999999977
 31
0.0
1001
ACDBBLOCKREPETAG
1070
     1
1071
       63
1005
124347
  0
LINE
  5
124348
  8
OBJECT
 10
4925.0
 20
-3478.9999999999968
 30
0.0
 11
4925.0
 21
-3602.9999999999968
 31
0.0
1001
ACDBBLOCKREPETAG
1070
     1
1071
        6
1005
124348
  0
LINE
  5
124349
  8
OBJECT
 10
5074.9999999997999
 20
-3602.9999999997758
 30
0.0
 11
5080.0
 21
-3602.9999999999968
 31
0.0
1001
ACDBBLOCKREPETAG
1070
     1
1071
        9
1005
124349
  0
LINE
  5
12434A
  8
OBJECT
 10
5080.0
 20
-3478.9999999999968
 30
0.0
 11
4925.0
 21
-3478.9999999999968
 31
0.0
1001
ACDBBLOCKREPETAG
1070
     1
1071
       10
1005
12434A
  0
ARC
  5
12434B
  8
OBJECT
 10
5200.6872746716726
 20
-3594.408099410105
 30
0.0
 40
170.6350503965856
 50
137.44134459184301
 51
149.9194958133665
1001
ACDBBLOCKREPETAG
1070
     1
1071
       15
1005
12434B
  0
ARC
  5
12434C
  8
OBJECT
 10
5118.8455987040506
 20
-3550.8827266953631
 30
0.0
 40
78.072222021763665
 50
147.4551531037684
 51
164.66365997719291
1001
ACDBBLOCKREPETAG
1070
     1
1071
       16
1005
12434C
  0
ARC
  5
12434D
  8
OBJECT
 10
5085.7554349608727
 20
-3540.9999999999968
 30
0.0
 40
43.55353926885617
 50
165.6884523008477
 51
194.3115476991523
1001
ACDBBLOCKREPETAG
1070
     1
1071
       17
1005
12434D
  0
ARC
  5
12434E
  8
OBJECT
 10
5200.6872746716726
 20
-3487.5919005898891
 30
0.0
 40
170.6350503965856
 50
210.0805041866335
 51
222.55865540815699
1001
ACDBBLOCKREPETAG
1070
     1
1071
       18
1005
12434E
  0
ARC
  5
12434F
  8
OBJECT
 10
5118.8455987040506
 20
-3531.1172733046319
 30
0.0
 40
78.072222021763665
 50
195.33634002280701
 51
212.5448468962316
1001
ACDBBLOCKREPETAG
1070
     1
1071
       19
1005
12434F
  0
POINT
  5
124350
  8
DOTS
 10
5000.0
 20
-3599.9999999999968
 30
0.0
1001
ACDBBLOCKREPETAG
1070
     1
1071
      186
1005
124350
  0
LINE
  5
124351
  8
OBJECT
 10
5060.0
 20
-3472.9999999999968
 30
0.0
 11
4940.0
 21
-3472.9999999999968
 31
0.0
1001
ACDBBLOCKREPETAG
1070
     1
1071
      215
1005
124351
  0
ARC
  5
124352
  8
OBJECT
 10
4940.0
 20
-3475.9999999999968
 30
0.0
 40
3.0
 50
90.0
 51
180.0
1001
ACDBBLOCKREPETAG
1070
     1
1071
      216
1005
124352
  0
LINE
  5
124353
  8
OBJECT
 10
4937.0
 20
-3475.9999999999968
 30
0.0
 11
4937.0
 21
-3478.9999999999968
 31
0.0
1001
ACDBBLOCKREPETAG
1070
     1
1071
      217
1005
124353
  0
LINE
  5
124354
  8
OBJECT
 10
5063.0
 20
-3475.9999999999968
 30
0.0
 11
5063.0
 21
-3478.9999999999968
 31
0.0
1001
ACDBBLOCKREPETAG
1070
     1
1071
      218
1005
124354
  0
ARC
  5
124355
  8
OBJECT
 10
5060.0
 20
-3475.9999999999968
 30
0.0
 40
3.0
 50
0.0
 51
90.0
1001
ACDBBLOCKREPETAG
1070
     1
1071
      219
1005
124355
  0
LINE
  5
124356
  8
OBJECT
 10
4943.0
 20
-3404.9999999999968
 30
0.0
 11
4943.0
 21
-3472.9999999999968
 31
0.0
1001
ACDBBLOCKREPETAG
1070
     1
1071
      220
1005
124356
  0
LINE
  5
124357
  8
OBJECT
 10
5057.0
 20
-3404.9999999999968
 30
0.0
 11
4943.0
 21
-3404.9999999999968
 31
0.0
1001
ACDBBLOCKREPETAG
1070
     1
1071
      221
1005
124357
  0
LINE
  5
124358
  8
OBJECT
 10
5057.0
 20
-3404.9999999999968
 30
0.0
 11
5057.0
 21
-3472.9999999999968
 31
0.0
1001
ACDBBLOCKREPETAG
1070
     1
1071
      222
1005
124358
  0
LINE
  5
124359
  8
CENTER
 10
5000.0
 20
-3389.9999999999968
 30
0.0
 11
5000.0
 21
-3614.9999999999968
 31
0.0
1001
ACDBBLOCKREPETAG
1070
     1
1071
      223
1005
124359
  0
LINE
  5
12435A
  8
HIDDEN
 10
5052.5
 20
-3404.9999999999968
 30
0.0
 11
5052.5
 21
-3478.9999999999968
 31
0.0
1001
ACDBBLOCKREPETAG
1070
     1
1071
      224
1005
12435A
  0
LINE
  5
12435B
  8
HIDDEN
 10
4947.5
 20
-3404.9999999999968
 30
0.0
 11
4947.5
 21
-3478.9999999999968
 31
0.0
1001
ACDBBLOCKREPETAG
1070
     1
1071
      225
1005
12435B
  0
LINE
  5
12435C
  8
OBJECT
 10
4325.0
 20
-3478.9999999999968
 30
0.0
 11
4325.0
 21
-3602.9999999999968
 31
0.0
1001
ACDBBLOCKREPETAG
1070
     1
1071
       26
1005
12435C
  0
LINE
  5
12435D
  8
OBJECT
 10
4472.0
 20
-3478.9999999999968
 30
0.0
 11
4325.0
 21
-3478.9999999999968
 31
0.0
1001
ACDBBLOCKREPETAG
1070
     1
1071
       30
1005
12435D
  0
LINE
  5
12435E
  8
OBJECT
 10
4475.0
 20
-3590.9999999999968
 30
0.0
 11
4475.0
 21
-3602.9999999999968
 31
0.0
1001
ACDBBLOCKREPETAG
1070
     1
1071
       34
1005
12435E
  0
POINT
  5
12435F
  8
DOTS
 10
4400.0
 20
-3599.9999999999968
 30
0.0
1001
ACDBBLOCKREPETAG
1070
     1
1071
      187
1005
12435F
  0
LINE
  5
124360
  8
OBJECT
 10
4460.0
 20
-3472.9999999999968
 30
0.0
 11
4340.0
 21
-3472.9999999999968
 31
0.0
1001
ACDBBLOCKREPETAG
1070
     1
1071
      226
1005
124360
  0
ARC
  5
124361
  8
OBJECT
 10
4340.0
 20
-3475.9999999999968
 30
0.0
 40
3.0
 50
90.0
 51
180.0
1001
ACDBBLOCKREPETAG
1070
     1
1071
      227
1005
124361
  0
LINE
  5
124362
  8
OBJECT
 10
4337.0
 20
-3475.9999999999968
 30
0.0
 11
4337.0
 21
-3478.9999999999968
 31
0.0
1001
ACDBBLOCKREPETAG
1070
     1
1071
      228
1005
124362
  0
LINE
  5
124363
  8
OBJECT
 10
4463.0
 20
-3475.9999999999968
 30
0.0
 11
4463.0
 21
-3478.9999999999968
 31
0.0
1001
ACDBBLOCKREPETAG
1070
     1
1071
      229
1005
124363
  0
ARC
  5
124364
  8
OBJECT
 10
4460.0
 20
-3475.9999999999968
 30
0.0
 40
3.0
 50
0.0
 51
90.0
1001
ACDBBLOCKREPETAG
1070
     1
1071
      230
1005
124364
  0
LINE
  5
124365
  8
OBJECT
 10
4343.0
 20
-3404.9999999999968
 30
0.0
 11
4343.0
 21
-3472.9999999999968
 31
0.0
1001
ACDBBLOCKREPETAG
1070
     1
1071
      231
1005
124365
  0
LINE
  5
124366
  8
OBJECT
 10
4457.0
 20
-3404.9999999999968
 30
0.0
 11
4343.0
 21
-3404.9999999999968
 31
0.0
1001
ACDBBLOCKREPETAG
1070
     1
1071
      232
1005
124366
  0
LINE
  5
124367
  8
OBJECT
 10
4457.0
 20
-3404.9999999999968
 30
0.0
 11
4457.0
 21
-3472.9999999999968
 31
0.0
1001
ACDBBLOCKREPETAG
1070
     1
1071
      233
1005
124367
  0
LINE
  5
124368
  8
CENTER
 10
4400.0
 20
-3389.9999999999968
 30
0.0
 11
4400.0
 21
-3614.9999999999968
 31
0.0
1001
ACDBBLOCKREPETAG
1070
     1
1071
      234
1005
124368
  0
LINE
  5
124369
  8
HIDDEN
 10
4452.4999999999991
 20
-3404.9999999999968
 30
0.0
 11
4452.4999999999991
 21
-3478.9999999999968
 31
0.0
1001
ACDBBLOCKREPETAG
1070
     1
1071
      235
1005
124369
  0
LINE
  5
12436A
  8
HIDDEN
 10
4347.5
 20
-3404.9999999999968
 30
0.0
 11
4347.5
 21
-3478.9999999999968
 31
0.0
1001
ACDBBLOCKREPETAG
1070
     1
1071
      236
1005
12436A
  0
LINE
  5
12436B
  8
OBJECT
 10
4463.4999999998709
 20
-3490.9999999999968
 30
0.0
 11
4472.0
 21
-3490.9999999999968
 31
0.0
1001
ACDBBLOCKREPETAG
1070
     1
1071
      277
1005
12436B
  0
LINE
  5
12436C
  8
OBJECT
 10
4463.4999999999236
 20
-3590.9999999999968
 30
0.0
 11
4474.9999999999236
 21
-3590.9999999999968
 31
0.0
1001
ACDBBLOCKREPETAG
1070
     1
1071
      278
1005
12436C
  0
LINE
  5
12436D
  8
OBJECT
 10
4472.0
 20
-3490.9999999999968
 30
0.0
 11
4472.0
 21
-3478.9999999999968
 31
0.0
1001
ACDBBLOCKREPETAG
1070
     1
1071
      279
1005
12436D
  0
LINE
  5
12436E
  8
OBJECT
 10
4463.4999999998581
 20
-3478.9999999999968
 30
0.0
 11
4463.4999999999982
 21
-3590.9999999999968
 31
0.0
1001
ACDBBLOCKREPETAG
1070
     1
1071
      280
1005
12436E
  0
LINE
  5
12436F
  8
OBJECT
 10
3925.0
 20
-3478.9999999999968
 30
0.0
 11
3925.0
 21
-3602.9999999999968
 31
0.0
1001
ACDBBLOCKREPETAG
1070
     1
1071
        6
1005
12436F
  0
LINE
  5
124370
  8
OBJECT
 10
4074.999999999799
 20
-3602.9999999997758
 30
0.0
 11
4080.0
 21
-3602.9999999999968
 31
0.0
1001
ACDBBLOCKREPETAG
1070
     1
1071
        9
1005
124370
  0
LINE
  5
124371
  8
OBJECT
 10
4080.0
 20
-3478.9999999999968
 30
0.0
 11
3925.0
 21
-3478.9999999999968
 31
0.0
1001
ACDBBLOCKREPETAG
1070
     1
1071
       10
1005
124371
  0
ARC
  5
124372
  8
OBJECT
 10
4200.6872746716726
 20
-3594.408099410105
 30
0.0
 40
170.6350503965856
 50
137.44134459184301
 51
149.9194958133665
1001
ACDBBLOCKREPETAG
1070
     1
1071
       15
1005
124372
  0
ARC
  5
124373
  8
OBJECT
 10
4118.8455987040506
 20
-3550.8827266953631
 30
0.0
 40
78.072222021763665
 50
147.4551531037684
 51
164.663659977186
1001
ACDBBLOCKREPETAG
1070
     1
1071
       16
1005
124373
  0
ARC
  5
124374
  8
OBJECT
 10
4085.7554349608722
 20
-3540.9999999999968
 30
0.0
 40
43.55353926885617
 50
165.6884523008477
 51
194.3115476991523
1001
ACDBBLOCKREPETAG
1070
     1
1071
       17
1005
124374
  0
ARC
  5
124375
  8
OBJECT
 10
4200.6872746716726
 20
-3487.5919005898891
 30
0.0
 40
170.6350503965856
 50
210.0805041866335
 51
222.55865540815699
1001
ACDBBLOCKREPETAG
1070
     1
1071
       18
1005
124375
  0
ARC
  5
124376
  8
OBJECT
 10
4118.8455987040506
 20
-3531.1172733046319
 30
0.0
 40
78.072222021763665
 50
195.33634002281391
 51
212.5448468962316
1001
ACDBBLOCKREPETAG
1070
     1
1071
       19
1005
124376
  0
POINT
  5
124377
  8
DOTS
 10
4000.0
 20
-3599.9999999999968
 30
0.0
1001
ACDBBLOCKREPETAG
1070
     1
1071
      186
1005
124377
  0
LINE
  5
124378
  8
OBJECT
 10
4060.0
 20
-3472.9999999999968
 30
0.0
 11
3940.0
 21
-3472.9999999999968
 31
0.0
1001
ACDBBLOCKREPETAG
1070
     1
1071
      215
1005
124378
  0
ARC
  5
124379
  8
OBJECT
 10
3940.0
 20
-3475.9999999999968
 30
0.0
 40
3.0
 50
90.0
 51
180.0
1001
ACDBBLOCKREPETAG
1070
     1
1071
      216
1005
124379
  0
LINE
  5
12437A
  8
OBJECT
 10
3937.0
 20
-3475.9999999999968
 30
0.0
 11
3937.0
 21
-3478.9999999999968
 31
0.0
1001
ACDBBLOCKREPETAG
1070
     1
1071
      217
1005
12437A
  0
LINE
  5
12437B
  8
OBJECT
 10
4063.0
 20
-3475.9999999999968
 30
0.0
 11
4063.0
 21
-3478.9999999999968
 31
0.0
1001
ACDBBLOCKREPETAG
1070
     1
1071
      218
1005
12437B
  0
ARC
  5
12437C
  8
OBJECT
 10
4060.0
 20
-3475.9999999999968
 30
0.0
 40
3.0
 50
0.0
 51
90.0
1001
ACDBBLOCKREPETAG
1070
     1
1071
      219
1005
12437C
  0
LINE
  5
12437D
  8
OBJECT
 10
3943.0
 20
-3404.9999999999968
 30
0.0
 11
3943.0
 21
-3472.9999999999968
 31
0.0
1001
ACDBBLOCKREPETAG
1070
     1
1071
      220
1005
12437D
  0
LINE
  5
12437E
  8
OBJECT
 10
4057.0
 20
-3404.9999999999968
 30
0.0
 11
3943.0
 21
-3404.9999999999968
 31
0.0
1001
ACDBBLOCKREPETAG
1070
     1
1071
      221
1005
12437E
  0
LINE
  5
12437F
  8
OBJECT
 10
4057.0
 20
-3404.9999999999968
 30
0.0
 11
4057.0
 21
-3472.9999999999968
 31
0.0
1001
ACDBBLOCKREPETAG
1070
     1
1071
      222
1005
12437F
  0
LINE
  5
124380
  8
CENTER
 10
4000.0
 20
-3389.9999999999968
 30
0.0
 11
4000.0
 21
-3614.9999999999968
 31
0.0
1001
ACDBBLOCKREPETAG
1070
     1
1071
      223
1005
124380
  0
LINE
  5
124381
  8
HIDDEN
 10
4052.5
 20
-3404.9999999999968
 30
0.0
 11
4052.5
 21
-3478.9999999999968
 31
0.0
1001
ACDBBLOCKREPETAG
1070
     1
1071
      224
1005
124381
  0
LINE
  5
124382
  8
HIDDEN
 10
3947.5
 20
-3404.9999999999968
 30
0.0
 11
3947.5
 21
-3478.9999999999968
 31
0.0
1001
ACDBBLOCKREPETAG
1070
     1
1071
      225
1005
124382
  0
LINE
  5
124383
  8
OBJECT
 10
3325.0
 20
-3478.9999999999968
 30
0.0
 11
3325.0
 21
-3602.9999999999968
 31
0.0
1001
ACDBBLOCKREPETAG
1070
     1
1071
       26
1005
124383
  0
LINE
  5
124384
  8
OBJECT
 10
3472.0
 20
-3478.9999999999968
 30
0.0
 11
3325.0
 21
-3478.9999999999968
 31
0.0
1001
ACDBBLOCKREPETAG
1070
     1
1071
       30
1005
124384
  0
LINE
  5
124385
  8
OBJECT
 10
3475.0
 20
-3590.9999999999968
 30
0.0
 11
3475.0
 21
-3602.9999999999968
 31
0.0
1001
ACDBBLOCKREPETAG
1070
     1
1071
       34
1005
124385
  0
POINT
  5
124386
  8
DOTS
 10
3400.0
 20
-3599.9999999999968
 30
0.0
1001
ACDBBLOCKREPETAG
1070
     1
1071
      187
1005
124386
  0
LINE
  5
124387
  8
OBJECT
 10
3460.0
 20
-3472.9999999999968
 30
0.0
 11
3340.0
 21
-3472.9999999999968
 31
0.0
1001
ACDBBLOCKREPETAG
1070
     1
1071
      226
1005
124387
  0
ARC
  5
124388
  8
OBJECT
 10
3340.0
 20
-3475.9999999999968
 30
0.0
 40
3.0
 50
90.0
 51
180.0
1001
ACDBBLOCKREPETAG
1070
     1
1071
      227
1005
124388
  0
LINE
  5
124389
  8
OBJECT
 10
3337.0
 20
-3475.9999999999968
 30
0.0
 11
3337.0
 21
-3478.9999999999968
 31
0.0
1001
ACDBBLOCKREPETAG
1070
     1
1071
      228
1005
124389
  0
LINE
  5
12438A
  8
OBJECT
 10
3463.0
 20
-3475.9999999999968
 30
0.0
 11
3463.0
 21
-3478.9999999999968
 31
0.0
1001
ACDBBLOCKREPETAG
1070
     1
1071
      229
1005
12438A
  0
ARC
  5
12438B
  8
OBJECT
 10
3460.0
 20
-3475.9999999999968
 30
0.0
 40
3.0
 50
0.0
 51
90.0
1001
ACDBBLOCKREPETAG
1070
     1
1071
      230
1005
12438B
  0
LINE
  5
12438C
  8
OBJECT
 10
3343.0
 20
-3404.9999999999968
 30
0.0
 11
3343.0
 21
-3472.9999999999968
 31
0.0
1001
ACDBBLOCKREPETAG
1070
     1
1071
      231
1005
12438C
  0
LINE
  5
12438D
  8
OBJECT
 10
3457.0
 20
-3404.9999999999968
 30
0.0
 11
3343.0
 21
-3404.9999999999968
 31
0.0
1001
ACDBBLOCKREPETAG
1070
     1
1071
      232
1005
12438D
  0
LINE
  5
12438E
  8
OBJECT
 10
3457.0
 20
-3404.9999999999968
 30
0.0
 11
3457.0
 21
-3472.9999999999968
 31
0.0
1001
ACDBBLOCKREPETAG
1070
     1
1071
      233
1005
12438E
  0
LINE
  5
12438F
  8
CENTER
 10
3400.0
 20
-3389.9999999999968
 30
0.0
 11
3400.0
 21
-3614.9999999999968
 31
0.0
1001
ACDBBLOCKREPETAG
1070
     1
1071
      234
1005
12438F
  0
LINE
  5
124390
  8
HIDDEN
 10
3452.5
 20
-3404.9999999999968
 30
0.0
 11
3452.5
 21
-3478.9999999999968
 31
0.0
1001
ACDBBLOCKREPETAG
1070
     1
1071
      235
1005
124390
  0
LINE
  5
124391
  8
HIDDEN
 10
3347.5
 20
-3404.9999999999968
 30
0.0
 11
3347.5
 21
-3478.9999999999968
 31
0.0
1001
ACDBBLOCKREPETAG
1070
     1
1071
      236
1005
124391
  0
LINE
  5
124392
  8
OBJECT
 10
3463.499999999874
 20
-3490.9999999999968
 30
0.0
 11
3472.0
 21
-3490.9999999999968
 31
0.0
1001
ACDBBLOCKREPETAG
1070
     1
1071
      277
1005
124392
  0
LINE
  5
124393
  8
OBJECT
 10
3463.4999999999241
 20
-3590.9999999999968
 30
0.0
 11
3474.9999999999241
 21
-3590.9999999999968
 31
0.0
1001
ACDBBLOCKREPETAG
1070
     1
1071
      278
1005
124393
  0
LINE
  5
124394
  8
OBJECT
 10
3472.0
 20
-3490.9999999999968
 30
0.0
 11
3472.0
 21
-3478.9999999999968
 31
0.0
1001
ACDBBLOCKREPETAG
1070
     1
1071
      279
1005
124394
  0
LINE
  5
124395
  8
OBJECT
 10
3463.499999999859
 20
-3478.9999999999968
 30
0.0
 11
3463.5
 21
-3590.9999999999968
 31
0.0
1001
ACDBBLOCKREPETAG
1070
     1
1071
      280
1005
124395
  0
LINE
  5
124396
  8
OBJECT
 10
2925.0
 20
-3478.9999999999968
 30
0.0
 11
2925.0
 21
-3602.9999999999968
 31
0.0
1001
ACDBBLOCKREPETAG
1070
     1
1071
        6
1005
124396
  0
LINE
  5
124397
  8
OBJECT
 10
3074.9999999997999
 20
-3602.9999999997758
 30
0.0
 11
3080.0
 21
-3602.9999999999968
 31
0.0
1001
ACDBBLOCKREPETAG
1070
     1
1071
        9
1005
124397
  0
LINE
  5
124398
  8
OBJECT
 10
3080.0
 20
-3478.9999999999968
 30
0.0
 11
2925.0
 21
-3478.9999999999968
 31
0.0
1001
ACDBBLOCKREPETAG
1070
     1
1071
       10
1005
124398
  0
ARC
  5
124399
  8
OBJECT
 10
3200.6872746716722
 20
-3594.408099410105
 30
0.0
 40
170.6350503965856
 50
137.44134459184301
 51
149.9194958133665
1001
ACDBBLOCKREPETAG
1070
     1
1071
       15
1005
124399
  0
ARC
  5
12439A
  8
OBJECT
 10
3118.8455987040511
 20
-3550.8827266953631
 30
0.0
 40
78.072222021763665
 50
147.4551531037684
 51
164.663659977186
1001
ACDBBLOCKREPETAG
1070
     1
1071
       16
1005
12439A
  0
ARC
  5
12439B
  8
OBJECT
 10
3085.7554349608731
 20
-3540.9999999999968
 30
0.0
 40
43.55353926885617
 50
165.6884523008477
 51
194.3115476991523
1001
ACDBBLOCKREPETAG
1070
     1
1071
       17
1005
12439B
  0
ARC
  5
12439C
  8
OBJECT
 10
3200.6872746716722
 20
-3487.5919005898891
 30
0.0
 40
170.6350503965856
 50
210.0805041866335
 51
222.55865540815699
1001
ACDBBLOCKREPETAG
1070
     1
1071
       18
1005
12439C
  0
ARC
  5
12439D
  8
OBJECT
 10
3118.8455987040511
 20
-3531.1172733046319
 30
0.0
 40
78.072222021763665
 50
195.33634002281391
 51
212.5448468962316
1001
ACDBBLOCKREPETAG
1070
     1
1071
       19
1005
12439D
  0
POINT
  5
12439E
  8
DOTS
 10
3000.0
 20
-3599.9999999999968
 30
0.0
1001
ACDBBLOCKREPETAG
1070
     1
1071
      186
1005
12439E
  0
LINE
  5
12439F
  8
OBJECT
 10
3060.0
 20
-3472.9999999999968
 30
0.0
 11
2940.0
 21
-3472.9999999999968
 31
0.0
1001
ACDBBLOCKREPETAG
1070
     1
1071
      215
1005
12439F
  0
ARC
  5
1243A0
  8
OBJECT
 10
2940.0
 20
-3475.9999999999968
 30
0.0
 40
3.0
 50
90.0
 51
180.0
1001
ACDBBLOCKREPETAG
1070
     1
1071
      216
1005
1243A0
  0
LINE
  5
1243A1
  8
OBJECT
 10
2937.0
 20
-3475.9999999999968
 30
0.0
 11
2937.0
 21
-3478.9999999999968
 31
0.0
1001
ACDBBLOCKREPETAG
1070
     1
1071
      217
1005
1243A1
  0
LINE
  5
1243A2
  8
OBJECT
 10
3063.0
 20
-3475.9999999999968
 30
0.0
 11
3063.0
 21
-3478.9999999999968
 31
0.0
1001
ACDBBLOCKREPETAG
1070
     1
1071
      218
1005
1243A2
  0
ARC
  5
1243A3
  8
OBJECT
 10
3060.0
 20
-3475.9999999999968
 30
0.0
 40
3.0
 50
0.0
 51
90.0
1001
ACDBBLOCKREPETAG
1070
     1
1071
      219
1005
1243A3
  0
LINE
  5
1243A4
  8
OBJECT
 10
2943.0
 20
-3404.9999999999968
 30
0.0
 11
2943.0
 21
-3472.9999999999968
 31
0.0
1001
ACDBBLOCKREPETAG
1070
     1
1071
      220
1005
1243A4
  0
LINE
  5
1243A5
  8
OBJECT
 10
3057.0
 20
-3404.9999999999968
 30
0.0
 11
2943.0
 21
-3404.9999999999968
 31
0.0
1001
ACDBBLOCKREPETAG
1070
     1
1071
      221
1005
1243A5
  0
LINE
  5
1243A6
  8
OBJECT
 10
3057.0
 20
-3404.9999999999968
 30
0.0
 11
3057.0
 21
-3472.9999999999968
 31
0.0
1001
ACDBBLOCKREPETAG
1070
     1
1071
      222
1005
1243A6
  0
LINE
  5
1243A7
  8
CENTER
 10
3000.0
 20
-3389.9999999999968
 30
0.0
 11
3000.0
 21
-3614.9999999999968
 31
0.0
1001
ACDBBLOCKREPETAG
1070
     1
1071
      223
1005
1243A7
  0
LINE
  5
1243A8
  8
HIDDEN
 10
3052.5
 20
-3404.9999999999968
 30
0.0
 11
3052.5
 21
-3478.9999999999968
 31
0.0
1001
ACDBBLOCKREPETAG
1070
     1
1071
      224
1005
1243A8
  0
LINE
  5
1243A9
  8
HIDDEN
 10
2947.5
 20
-3404.9999999999968
 30
0.0
 11
2947.5
 21
-3478.9999999999968
 31
0.0
1001
ACDBBLOCKREPETAG
1070
     1
1071
      225
1005
1243A9
  0
LINE
  5
1243AA
  8
OBJECT
 10
2325.0
 20
-3478.9999999999968
 30
0.0
 11
2325.0
 21
-3602.9999999999968
 31
0.0
1001
ACDBBLOCKREPETAG
1070
     1
1071
       26
1005
1243AA
  0
LINE
  5
1243AB
  8
OBJECT
 10
2472.0
 20
-3478.9999999999968
 30
0.0
 11
2325.0
 21
-3478.9999999999968
 31
0.0
1001
ACDBBLOCKREPETAG
1070
     1
1071
       30
1005
1243AB
  0
LINE
  5
1243AC
  8
OBJECT
 10
2475.0
 20
-3590.9999999999968
 30
0.0
 11
2475.0
 21
-3602.9999999999968
 31
0.0
1001
ACDBBLOCKREPETAG
1070
     1
1071
       34
1005
1243AC
  0
POINT
  5
1243AD
  8
DOTS
 10
2400.0
 20
-3599.9999999999968
 30
0.0
1001
ACDBBLOCKREPETAG
1070
     1
1071
      187
1005
1243AD
  0
LINE
  5
1243AE
  8
OBJECT
 10
2460.0
 20
-3472.9999999999968
 30
0.0
 11
2340.0
 21
-3472.9999999999968
 31
0.0
1001
ACDBBLOCKREPETAG
1070
     1
1071
      226
1005
1243AE
  0
ARC
  5
1243AF
  8
OBJECT
 10
2340.0
 20
-3475.9999999999968
 30
0.0
 40
3.0
 50
90.0
 51
180.0
1001
ACDBBLOCKREPETAG
1070
     1
1071
      227
1005
1243AF
  0
LINE
  5
1243B0
  8
OBJECT
 10
2337.0
 20
-3475.9999999999968
 30
0.0
 11
2337.0
 21
-3478.9999999999968
 31
0.0
1001
ACDBBLOCKREPETAG
1070
     1
1071
      228
1005
1243B0
  0
LINE
  5
1243B1
  8
OBJECT
 10
2463.0
 20
-3475.9999999999968
 30
0.0
 11
2463.0
 21
-3478.9999999999968
 31
0.0
1001
ACDBBLOCKREPETAG
1070
     1
1071
      229
1005
1243B1
  0
ARC
  5
1243B2
  8
OBJECT
 10
2460.0
 20
-3475.9999999999968
 30
0.0
 40
3.0
 50
0.0
 51
90.0
1001
ACDBBLOCKREPETAG
1070
     1
1071
      230
1005
1243B2
  0
LINE
  5
1243B3
  8
OBJECT
 10
2343.0
 20
-3404.9999999999968
 30
0.0
 11
2343.0
 21
-3472.9999999999968
 31
0.0
1001
ACDBBLOCKREPETAG
1070
     1
1071
      231
1005
1243B3
  0
LINE
  5
1243B4
  8
OBJECT
 10
2457.0
 20
-3404.9999999999968
 30
0.0
 11
2343.0
 21
-3404.9999999999968
 31
0.0
1001
ACDBBLOCKREPETAG
1070
     1
1071
      232
1005
1243B4
  0
LINE
  5
1243B5
  8
OBJECT
 10
2457.0
 20
-3404.9999999999968
 30
0.0
 11
2457.0
 21
-3472.9999999999968
 31
0.0
1001
ACDBBLOCKREPETAG
1070
     1
1071
      233
1005
1243B5
  0
LINE
  5
1243B6
  8
CENTER
 10
2400.0
 20
-3389.9999999999968
 30
0.0
 11
2400.0
 21
-3614.9999999999968
 31
0.0
1001
ACDBBLOCKREPETAG
1070
     1
1071
      234
1005
1243B6
  0
LINE
  5
1243B7
  8
HIDDEN
 10
2452.5000000000009
 20
-3404.9999999999968
 30
0.0
 11
2452.5000000000009
 21
-3478.9999999999968
 31
0.0
1001
ACDBBLOCKREPETAG
1070
     1
1071
      235
1005
1243B7
  0
LINE
  5
1243B8
  8
HIDDEN
 10
2347.5
 20
-3404.9999999999968
 30
0.0
 11
2347.5
 21
-3478.9999999999968
 31
0.0
1001
ACDBBLOCKREPETAG
1070
     1
1071
      236
1005
1243B8
  0
LINE
  5
1243B9
  8
OBJECT
 10
2463.499999999874
 20
-3490.9999999999968
 30
0.0
 11
2472.0
 21
-3490.9999999999968
 31
0.0
1001
ACDBBLOCKREPETAG
1070
     1
1071
      277
1005
1243B9
  0
LINE
  5
1243BA
  8
OBJECT
 10
2463.4999999999241
 20
-3590.9999999999968
 30
0.0
 11
2474.9999999999241
 21
-3590.9999999999968
 31
0.0
1001
ACDBBLOCKREPETAG
1070
     1
1071
      278
1005
1243BA
  0
LINE
  5
1243BB
  8
OBJECT
 10
2472.0
 20
-3490.9999999999968
 30
0.0
 11
2472.0
 21
-3478.9999999999968
 31
0.0
1001
ACDBBLOCKREPETAG
1070
     1
1071
      279
1005
1243BB
  0
LINE
  5
1243BC
  8
OBJECT
 10
2463.4999999998581
 20
-3478.9999999999968
 30
0.0
 11
2463.5
 21
-3590.9999999999968
 31
0.0
1001
ACDBBLOCKREPETAG
1070
     1
1071
      280
1005
1243BC
  0
LINE
  5
1243BD
  8
OBJECT
 10
1925.0
 20
-3478.9999999999968
 30
0.0
 11
1925.0
 21
-3602.9999999999968
 31
0.0
1001
ACDBBLOCKREPETAG
1070
     1
1071
        6
1005
1243BD
  0
LINE
  5
1243BE
  8
OBJECT
 10
2074.999999999799
 20
-3602.9999999997758
 30
0.0
 11
2080.0
 21
-3602.9999999999968
 31
0.0
1001
ACDBBLOCKREPETAG
1070
     1
1071
        9
1005
1243BE
  0
LINE
  5
1243BF
  8
OBJECT
 10
2080.0
 20
-3478.9999999999968
 30
0.0
 11
1925.0
 21
-3478.9999999999968
 31
0.0
1001
ACDBBLOCKREPETAG
1070
     1
1071
       10
1005
1243BF
  0
ARC
  5
1243C0
  8
OBJECT
 10
2200.6872746716731
 20
-3594.408099410105
 30
0.0
 40
170.6350503965856
 50
137.44134459184301
 51
149.91949581335999
1001
ACDBBLOCKREPETAG
1070
     1
1071
       15
1005
1243C0
  0
ARC
  5
1243C1
  8
OBJECT
 10
2118.8455987040511
 20
-3550.8827266953631
 30
0.0
 40
78.072222021763665
 50
147.45515310377539
 51
164.663659977186
1001
ACDBBLOCKREPETAG
1070
     1
1071
       16
1005
1243C1
  0
ARC
  5
1243C2
  8
OBJECT
 10
2085.7554349608731
 20
-3540.9999999999968
 30
0.0
 40
43.55353926885617
 50
165.6884523008477
 51
194.3115476991523
1001
ACDBBLOCKREPETAG
1070
     1
1071
       17
1005
1243C2
  0
ARC
  5
1243C3
  8
OBJECT
 10
2200.6872746716731
 20
-3487.5919005898891
 30
0.0
 40
170.6350503965856
 50
210.08050418664001
 51
222.55865540815699
1001
ACDBBLOCKREPETAG
1070
     1
1071
       18
1005
1243C3
  0
ARC
  5
1243C4
  8
OBJECT
 10
2118.8455987040511
 20
-3531.1172733046319
 30
0.0
 40
78.072222021763665
 50
195.33634002281391
 51
212.54484689622461
1001
ACDBBLOCKREPETAG
1070
     1
1071
       19
1005
1243C4
  0
POINT
  5
1243C5
  8
DOTS
 10
2000.0
 20
-3599.9999999999968
 30
0.0
1001
ACDBBLOCKREPETAG
1070
     1
1071
      186
1005
1243C5
  0
LINE
  5
1243C6
  8
OBJECT
 10
2060.0
 20
-3472.9999999999968
 30
0.0
 11
1940.0
 21
-3472.9999999999968
 31
0.0
1001
ACDBBLOCKREPETAG
1070
     1
1071
      215
1005
1243C6
  0
ARC
  5
1243C7
  8
OBJECT
 10
1940.0
 20
-3475.9999999999968
 30
0.0
 40
3.0
 50
90.0
 51
180.0
1001
ACDBBLOCKREPETAG
1070
     1
1071
      216
1005
1243C7
  0
LINE
  5
1243C8
  8
OBJECT
 10
1937.0
 20
-3475.9999999999968
 30
0.0
 11
1937.0
 21
-3478.9999999999968
 31
0.0
1001
ACDBBLOCKREPETAG
1070
     1
1071
      217
1005
1243C8
  0
LINE
  5
1243C9
  8
OBJECT
 10
2063.0
 20
-3475.9999999999968
 30
0.0
 11
2063.0
 21
-3478.9999999999968
 31
0.0
1001
ACDBBLOCKREPETAG
1070
     1
1071
      218
1005
1243C9
  0
ARC
  5
1243CA
  8
OBJECT
 10
2060.0
 20
-3475.9999999999968
 30
0.0
 40
3.0
 50
0.0
 51
90.0
1001
ACDBBLOCKREPETAG
1070
     1
1071
      219
1005
1243CA
  0
LINE
  5
1243CB
  8
OBJECT
 10
1943.0
 20
-3404.9999999999968
 30
0.0
 11
1943.0
 21
-3472.9999999999968
 31
0.0
1001
ACDBBLOCKREPETAG
1070
     1
1071
      220
1005
1243CB
  0
LINE
  5
1243CC
  8
OBJECT
 10
2057.0
 20
-3404.9999999999968
 30
0.0
 11
1943.0
 21
-3404.9999999999968
 31
0.0
1001
ACDBBLOCKREPETAG
1070
     1
1071
      221
1005
1243CC
  0
LINE
  5
1243CD
  8
OBJECT
 10
2057.0
 20
-3404.9999999999968
 30
0.0
 11
2057.0
 21
-3472.9999999999968
 31
0.0
1001
ACDBBLOCKREPETAG
1070
     1
1071
      222
1005
1243CD
  0
LINE
  5
1243CE
  8
CENTER
 10
2000.0
 20
-3389.9999999999968
 30
0.0
 11
2000.0
 21
-3614.9999999999968
 31
0.0
1001
ACDBBLOCKREPETAG
1070
     1
1071
      223
1005
1243CE
  0
LINE
  5
1243CF
  8
HIDDEN
 10
2052.5
 20
-3404.9999999999968
 30
0.0
 11
2052.5
 21
-3478.9999999999968
 31
0.0
1001
ACDBBLOCKREPETAG
1070
     1
1071
      224
1005
1243CF
  0
LINE
  5
1243D0
  8
HIDDEN
 10
1947.4999999999991
 20
-3404.9999999999968
 30
0.0
 11
1947.4999999999991
 21
-3478.9999999999968
 31
0.0
1001
ACDBBLOCKREPETAG
1070
     1
1071
      225
1005
1243D0
  0
LINE
  5
1243D1
  8
DIM
 10
2150.0
 20
-3241.9999999999959
 30
0.0
 11
2228.479620594459
 21
-3241.9999999999959
 31
0.0
  0
LINE
  5
1243D2
  8
DIM
 10
2150.0
 20
-3147.9999999999959
 30
0.0
 11
2228.479620594459
 21
-3147.9999999999959
 31
0.0
  0
LINE
  5
1243D3
  8
DIM
 10
2218.479620594459
 20
-3221.9999999999959
 30
0.0
 11
2218.479620594459
 21
-3167.9999999999959
 31
0.0
  0
INSERT
  5
1243D4
  8
DIM
  2
_OPEN30
 10
2218.479620594459
 20
-3241.9999999999959
 30
0.0
 41
20.0
 42
20.0
 43
20.0
 50
270.0
  0
INSERT
  5
1243D5
  8
DIM
  2
_OPEN30
 10
2218.479620594459
 20
-3147.9999999999959
 30
0.0
 41
20.0
 42
20.0
 43
20.0
 50
90.0
  0
INSERT
  5
1243D6
  8
OBJECT
  2
*U44
 10
0.0
 20
0.0
 30
0.0
  0
LINE
  5
1243D7
  8
DIM
 10
2150.0
 20
-3599.9999999999968
 30
0.0
 11
2226.8409284037339
 21
-3599.9999999999968
 31
0.0
  0
LINE
  5
1243D8
  8
DIM
 10
2165.0
 20
-3555.9999999999968
 30
0.0
 11
2226.8409284037339
 21
-3555.9999999999968
 31
0.0
  0
LINE
  5
1243D9
  8
DIM
 10
2216.840928403733
 20
-3619.9999999999968
 30
0.0
 11
2216.840928403733
 21
-3639.9999999999968
 31
0.0
  0
LINE
  5
1243DA
  8
DIM
 10
2216.840928403733
 20
-3535.9999999999968
 30
0.0
 11
2216.840928403733
 21
-3515.9999999999968
 31
0.0
  0
LINE
  5
1243DB
  8
DIM
 10
2216.840928403733
 20
-3599.9999999999968
 30
0.0
 11
2216.840928403733
 21
-3555.9999999999968
 31
0.0
  0
INSERT
  5
1243DC
  8
DIM
  2
_OPEN30
 10
2216.840928403733
 20
-3599.9999999999968
 30
0.0
 41
20.0
 42
20.0
 43
20.0
 50
90.0
  0
INSERT
  5
1243DD
  8
DIM
  2
_OPEN30
 10
2216.840928403733
 20
-3555.9999999999968
 30
0.0
 41
20.0
 42
20.0
 43
20.0
 50
270.0
  0
INSERT
  5
1243DE
  8
OBJECT
  2
*U45
 10
0.0
 20
0.0
 30
0.0
  0
LINE
  5
1243DF
  8
DIM
 10
2000.0
 20
-3089.9999999999959
 30
0.0
 11
2000.0
 21
-3057.208121984444
 31
0.0
  0
LINE
  5
1243E0
  8
DIM
 10
2140.0
 20
-3137.9999999999959
 30
0.0
 11
2140.0
 21
-3057.208121984444
 31
0.0
  0
LINE
  5
1243E1
  8
DIM
 10
2020.0
 20
-3067.208121984444
 30
0.0
 11
2120.0
 21
-3067.208121984444
 31
0.0
  0
INSERT
  5
1243E2
  8
DIM
  2
_OPEN30
 10
2000.0
 20
-3067.208121984444
 30
0.0
 41
20.0
 42
20.0
 43
20.0
 50
180.0
  0
INSERT
  5
1243E3
  8
DIM
  2
_OPEN30
 10
2140.0
 20
-3067.208121984444
 30
0.0
 41
20.0
 42
20.0
 43
20.0
  0
INSERT
  5
1243E4
  8
OBJECT
  2
*U46
 10
0.0
 20
0.0
 30
0.0
  0
TEXT
  5
1243E5
  8
SLIM
 10
2631.0
 20
-2972.50001604727
 30
0.0
 40
40.0
  1
C寸法
 41
0.75
  0
TEXT
  5
1243E6
  8
SLIM
 10
2631.0
 20
-2902.50001604727
 30
0.0
 40
40.0
  1
B寸法
 41
0.75
  0
TEXT
  5
1243E7
  8
SLIM
 10
2630.2857142857142
 20
-2832.50001604727
 30
0.0
 40
40.0
  1
A寸法
 41
0.75
  0
TEXT
  5
1243E8
  8
SLIM
 10
3159.2857142857151
 20
-2972.50001604727
 30
0.0
 40
40.0
  1
150
 41
0.75
  0
TEXT
  5
1243E9
  8
SLIM
 10
3029.2857142857151
 20
-2972.50001604727
 30
0.0
 40
40.0
  1
140
 41
0.75
  0
TEXT
  5
1243EA
  8
SLIM
 10
2769.2857142857151
 20
-2972.50001604727
 30
0.0
 40
40.0
  1
140
 41
0.75
  0
TEXT
  5
1243EB
  8
SLIM
 10
2899.2857142857151
 20
-2972.50001604727
 30
0.0
 40
40.0
  1
140
 41
0.75
  0
TEXT
  5
1243EC
  8
SLIM
 10
3170.7142857142858
 20
-2902.50001604727
 30
0.0
 40
40.0
  1
72
 41
0.75
  0
TEXT
  5
1243ED
  8
SLIM
 10
3041.4285714285711
 20
-2902.50001604727
 30
0.0
 40
40.0
  1
59
 41
0.75
  0
TEXT
  5
1243EE
  8
SLIM
 10
2780.0
 20
-2902.50001604727
 30
0.0
 40
40.0
  1
44
 41
0.75
  0
TEXT
  5
1243EF
  8
SLIM
 10
2910.7142857142858
 20
-2902.50001604727
 30
0.0
 40
40.0
  1
52
 41
0.75
  0
TEXT
  5
1243F0
  8
SLIM
 10
2891.0
 20
-2707.50001604727
 30
0.0
 40
40.0
  1
横枝管サイズ
 41
0.75
  0
TEXT
  5
1243F1
  8
SLIM
 10
3136.2857142857151
 20
-2762.50001604727
 30
0.0
 40
30.0
  1
100（4）
 41
0.75
  0
TEXT
  5
1243F2
  8
SLIM
 10
3014.857142857144
 20
-2762.50001604727
 30
0.0
 40
30.0
  1
75（3）
 41
0.75
  0
TEXT
  5
1243F3
  8
SLIM
 10
2884.8571428571431
 20
-2762.50001604727
 30
0.0
 40
30.0
  1
65（2）
 41
0.75
  0
TEXT
  5
1243F4
  8
SLIM
 10
2757.0
 20
-2762.50001604727
 30
0.0
 40
30.0
  1
50（1）
 41
0.75
  0
TEXT
  5
1243F5
  8
SLIM
 10
3159.2857142857151
 20
-2832.50001604727
 30
0.0
 40
40.0
  1
150
 41
0.75
  0
TEXT
  5
1243F6
  8
SLIM
 10
3028.571428571428
 20
-2832.50001604727
 30
0.0
 40
40.0
  1
124
 41
0.75
  0
TEXT
  5
1243F7
  8
SLIM
 10
2780.0
 20
-2832.50001604727
 30
0.0
 40
40.0
  1
94
 41
0.75
  0
TEXT
  5
1243F8
  8
SLIM
 10
2902.1428571428569
 20
-2832.50001604727
 30
0.0
 40
40.0
  1
110
 41
0.75
  0
TEXT
  5
1243F9
  8
SLIM
 10
1849.9999999999991
 20
-2732.5
 30
0.0
 40
75.0
  1
枝管サイズ毎の形状
 41
0.75
  0
LINE
  5
1243FA
  8
OBJECT
 10
5150.0
 20
-3452.9999999999968
 30
0.0
 11
5143.0
 21
-3452.9999999999968
 31
0.0
1001
ACDBBLOCKREPETAG
1070
     1
1071
       64
1005
1243FA
  0
LINE
  5
1243FB
  8
OBJECT
 10
5143.0
 20
-3452.9999999999968
 30
0.0
 11
5143.0
 21
-3599.9999999999968
 31
0.0
1001
ACDBBLOCKREPETAG
1070
     1
1071
       65
1005
1243FB
  0
LINE
  5
1243FC
  8
OBJECT
 10
5101.5
 20
-3455.9999999999968
 30
0.0
 11
5101.5
 21
-3599.9999999999968
 31
0.0
1001
ACDBBLOCKREPETAG
1070
     1
1071
       66
1005
1243FC
  0
LINE
  5
1243FD
  8
OBJECT
 10
5090.0
 20
-3462.4999999999968
 30
0.0
 11
5090.0
 21
-3593.4999999999968
 31
0.0
1001
ACDBBLOCKREPETAG
1070
     1
1071
       67
1005
1243FD
  0
LINE
  5
1243FE
  8
OBJECT
 10
5086.0
 20
-3534.5000000000041
 30
0.0
 11
5086.0
 21
-3599.9999999999968
 31
0.0
1001
ACDBBLOCKREPETAG
1070
     1
1071
       68
1005
1243FE
  0
LINE
  5
1243FF
  8
OBJECT
 10
5150.0
 20
-3599.9999999999968
 30
0.0
 11
5150.0
 21
-3452.9999999999968
 31
0.0
1001
ACDBBLOCKREPETAG
1070
     1
1071
       69
1005
1243FF
  0
LINE
  5
124400
  8
CENTER
 10
5165.0
 20
-3527.9999999999968
 30
0.0
 11
5070.4144144144157
 21
-3527.9999999999968
 31
0.0
1001
ACDBBLOCKREPETAG
1070
     1
1071
       70
1005
124400
  0
LINE
  5
124401
  8
OBJECT
 10
5083.0000000000045
 20
-3602.9999999999968
 30
0.0
 11
5080.0
 21
-3602.9999999999968
 31
0.0
1001
ACDBBLOCKREPETAG
1070
     1
1071
       71
1005
124401
  0
ARC
  5
124402
  8
OBJECT
 10
5091.8815171830656
 20
-3601.4555591801432
 30
0.0
 40
6.0
 50
60.52411099686767
 51
170.6927439126847
1001
ACDBBLOCKREPETAG
1070
     1
1071
       72
1005
124402
  0
ARC
  5
124403
  8
OBJECT
 10
5083.0
 20
-3599.9999999999968
 30
0.0
 40
3.0
 50
270.0
 51
350.69274391268482
1001
ACDBBLOCKREPETAG
1070
     1
1071
       73
1005
124403
  0
LINE
  5
124404
  8
OBJECT
 10
5081.0
 20
-3478.9999999999968
 30
0.0
 11
5080.0
 21
-3478.9999999999968
 31
0.0
1001
ACDBBLOCKREPETAG
1070
     1
1071
       74
1005
124404
  0
LINE
  5
124405
  8
OBJECT
 10
5150.0
 20
-3599.9999999999968
 30
0.0
 11
5101.5
 21
-3599.9999999999968
 31
0.0
1001
ACDBBLOCKREPETAG
1070
     1
1071
       75
1005
124405
  0
LINE
  5
124406
  8
OBJECT
 10
5101.5
 20
-3455.9999999999968
 30
0.0
 11
5090.0
 21
-3462.4999999999968
 31
0.0
1001
ACDBBLOCKREPETAG
1070
     1
1071
       76
1005
124406
  0
LINE
  5
124407
  8
OBJECT
 10
5143.0
 20
-3455.9999999999968
 30
0.0
 11
5101.5
 21
-3455.9999999999968
 31
0.0
1001
ACDBBLOCKREPETAG
1070
     1
1071
       77
1005
124407
  0
LINE
  5
124408
  8
OBJECT
 10
5086.0
 20
-3534.5000000000041
 30
0.0
 11
5081.0
 21
-3478.9999999999968
 31
0.0
1001
ACDBBLOCKREPETAG
1070
     1
1071
       78
1005
124408
  0
LINE
  5
124409
  8
OBJECT
 10
5090.0
 20
-3462.4999999999968
 30
0.0
 11
5081.0
 21
-3478.9999999999968
 31
0.0
1001
ACDBBLOCKREPETAG
1070
     1
1071
       79
1005
124409
  0
LINE
  5
12440A
  8
OBJECT
 10
5101.5
 20
-3599.9999999999968
 30
0.0
 11
5094.8338607230708
 21
-3596.232182147819
 31
0.0
1001
ACDBBLOCKREPETAG
1070
     1
1071
       80
1005
12440A
  0
LINE
  5
12440B
  8
HIDDEN
 10
5098.0
 20
-3584.9999999999968
 30
0.0
 11
5098.0
 21
-3470.9999999999968
 31
0.0
1001
ACDBBLOCKREPETAG
1070
     1
1071
       81
1005
12440B
  0
LINE
  5
12440C
  8
OBJECT
 10
5150.0
 20
-3119.9999999999959
 30
0.0
 11
5143.0
 21
-3119.9999999999959
 31
0.0
1001
ACDBBLOCKREPETAG
1070
     1
1071
       67
1005
12440C
  0
LINE
  5
12440D
  8
OBJECT
 10
5143.0
 20
-3119.9999999999959
 30
0.0
 11
5143.0
 21
-3269.9999999999959
 31
0.0
1001
ACDBBLOCKREPETAG
1070
     1
1071
       68
1005
12440D
  0
LINE
  5
12440E
  8
OBJECT
 10
5101.5
 20
-3122.9999999999959
 30
0.0
 11
5101.5
 21
-3266.9999999999959
 31
0.0
1001
ACDBBLOCKREPETAG
1070
     1
1071
       69
1005
12440E
  0
LINE
  5
12440F
  8
OBJECT
 10
5090.0
 20
-3129.4999999999959
 30
0.0
 11
5090.0
 21
-3260.4999999999959
 31
0.0
1001
ACDBBLOCKREPETAG
1070
     1
1071
       70
1005
12440F
  0
LINE
  5
124410
  8
OBJECT
 10
5143.0
 20
-3269.9999999999959
 30
0.0
 11
5150.0
 21
-3269.9999999999959
 31
0.0
1001
ACDBBLOCKREPETAG
1070
     1
1071
       71
1005
124410
  0
LINE
  5
124411
  8
OBJECT
 10
5150.0
 20
-3269.9999999999959
 30
0.0
 11
5150.0
 21
-3119.9999999999959
 31
0.0
1001
ACDBBLOCKREPETAG
1070
     1
1071
       72
1005
124411
  0
LINE
  5
124412
  8
HIDDEN
 10
5098.0
 20
-3251.9999999999959
 30
0.0
 11
5098.0
 21
-3137.9999999999959
 31
0.0
1001
ACDBBLOCKREPETAG
1070
     1
1071
       73
1005
124412
  0
LINE
  5
124413
  8
CENTER
 10
5165.0
 20
-3194.9999999999959
 30
0.0
 11
5080.0
 21
-3194.9999999999959
 31
0.0
1001
ACDBBLOCKREPETAG
1070
     1
1071
       74
1005
124413
  0
LINE
  5
124414
  8
OBJECT
 10
5086.0
 20
-3256.9999999999959
 30
0.0
 11
5080.0
 21
-3256.9999999999959
 31
0.0
1001
ACDBBLOCKREPETAG
1070
     1
1071
       75
1005
124414
  0
LINE
  5
124415
  8
OBJECT
 10
5143.0
 20
-3266.9999999999959
 30
0.0
 11
5101.5
 21
-3266.9999999999959
 31
0.0
1001
ACDBBLOCKREPETAG
1070
     1
1071
       76
1005
124415
  0
LINE
  5
124416
  8
OBJECT
 10
5101.5
 20
-3266.9999999999959
 30
0.0
 11
5090.0
 21
-3260.4999999999959
 31
0.0
1001
ACDBBLOCKREPETAG
1070
     1
1071
       77
1005
124416
  0
LINE
  5
124417
  8
OBJECT
 10
5090.0
 20
-3260.4999999999959
 30
0.0
 11
5086.0
 21
-3256.9999999999959
 31
0.0
1001
ACDBBLOCKREPETAG
1070
     1
1071
       78
1005
124417
  0
LINE
  5
124418
  8
OBJECT
 10
5101.5
 20
-3122.9999999999959
 30
0.0
 11
5090.0
 21
-3129.4999999999959
 31
0.0
1001
ACDBBLOCKREPETAG
1070
     1
1071
       79
1005
124418
  0
LINE
  5
124419
  8
OBJECT
 10
5090.0
 20
-3129.4999999999959
 30
0.0
 11
5086.0
 21
-3132.9999999999959
 31
0.0
1001
ACDBBLOCKREPETAG
1070
     1
1071
       80
1005
124419
  0
ARC
  5
12441A
  8
OBJECT
 10
5467.9000000000005
 20
-3194.9999999999959
 30
0.0
 40
386.89999999999998
 50
170.77870136260421
 51
189.22129863739571
1001
ACDBBLOCKREPETAG
1070
     1
1071
       81
1005
12441A
  0
LINE
  5
12441B
  8
OBJECT
 10
5086.0
 20
-3132.9999999999959
 30
0.0
 11
5080.0
 21
-3132.9999999999959
 31
0.0
1001
ACDBBLOCKREPETAG
1070
     1
1071
       82
1005
12441B
  0
LINE
  5
12441C
  8
OBJECT
 10
5143.0
 20
-3122.9999999999959
 30
0.0
 11
5101.5
 21
-3122.9999999999959
 31
0.0
1001
ACDBBLOCKREPETAG
1070
     1
1071
       83
1005
12441C
  0
TEXT
  5
12441D
  8
SLIM
 10
4884.25
 20
-3717.4999999999959
 30
0.0
 40
35.0
  1
通常枝100（4）
 41
0.75
  0
LINE
  5
12441E
  8
CENTER
 10
4477.0
 20
-3540.9999999999968
 30
0.0
 11
4323.0
 21
-3540.9999999999968
 31
0.0
1001
ACDBBLOCKREPETAG
1070
     1
1071
       17
1005
12441E
  0
CIRCLE
  5
12441F
  8
OBJECT
 10
4400.0
 20
-3540.9999999999968
 30
0.0
 40
41.5
1001
ACDBBLOCKREPETAG
1070
     1
1071
       19
1005
12441F
  0
CIRCLE
  5
124420
  8
OBJECT
 10
4400.0
 20
-3540.9999999999968
 30
0.0
 40
54.0
1001
ACDBBLOCKREPETAG
1070
     1
1071
       20
1005
124420
  0
ARC
  5
124421
  8
OBJECT
 10
4400.0
 20
-3540.9999999999968
 30
0.0
 40
62.0
 50
287.89655112921122
 51
252.1034488707887
1001
ACDBBLOCKREPETAG
1070
     1
1071
       21
1005
124421
  0
LINE
  5
124422
  8
OBJECT
 10
4380.947441116743
 20
-3599.9999999999968
 30
0.0
 11
4419.052558883257
 21
-3599.9999999999968
 31
0.0
1001
ACDBBLOCKREPETAG
1070
     1
1071
       22
1005
124422
  0
LINE
  5
124423
  8
OBJECT
 10
4133.0
 20
-3478.9999999999968
 30
0.0
 11
4140.0
 21
-3478.9999999999968
 31
0.0
1001
ACDBBLOCKREPETAG
1070
     1
1071
       45
1005
124423
  0
LINE
  5
124424
  8
OBJECT
 10
4140.0
 20
-3478.9999999999968
 30
0.0
 11
4140.0
 21
-3599.9999999999968
 31
0.0
1001
ACDBBLOCKREPETAG
1070
     1
1071
       46
1005
124424
  0
LINE
  5
124425
  8
OBJECT
 10
4133.0
 20
-3599.9999999999968
 30
0.0
 11
4133.0
 21
-3478.9999999999968
 31
0.0
1001
ACDBBLOCKREPETAG
1070
     1
1071
       47
1005
124425
  0
LINE
  5
124426
  8
CENTER
 10
4155.0
 20
-3540.9999999999968
 30
0.0
 11
4071.0
 21
-3540.9999999999968
 31
0.0
1001
ACDBBLOCKREPETAG
1070
     1
1071
       48
1005
124426
  0
LINE
  5
124427
  8
OBJECT
 10
4133.0
 20
-3481.9999999999968
 30
0.0
 11
4097.0
 21
-3481.9999999999968
 31
0.0
1001
ACDBBLOCKREPETAG
1070
     1
1071
       49
1005
124427
  0
LINE
  5
124428
  8
OBJECT
 10
4097.0
 20
-3481.9999999999968
 30
0.0
 11
4097.0
 21
-3599.9999999999968
 31
0.0
1001
ACDBBLOCKREPETAG
1070
     1
1071
       50
1005
124428
  0
LINE
  5
124429
  8
OBJECT
 10
4097.0
 20
-3599.9999999999968
 30
0.0
 11
4140.0
 21
-3599.9999999999968
 31
0.0
1001
ACDBBLOCKREPETAG
1070
     1
1071
       51
1005
124429
  0
LINE
  5
12442A
  8
OBJECT
 10
4093.0
 20
-3486.4999999999968
 30
0.0
 11
4086.0
 21
-3486.4999999999968
 31
0.0
1001
ACDBBLOCKREPETAG
1070
     1
1071
       52
1005
12442A
  0
LINE
  5
12442B
  8
OBJECT
 10
4086.0
 20
-3595.4999999999968
 30
0.0
 11
4093.0
 21
-3595.4999999999968
 31
0.0
1001
ACDBBLOCKREPETAG
1070
     1
1071
       53
1005
12442B
  0
LINE
  5
12442C
  8
OBJECT
 10
4093.0
 20
-3595.4999999999968
 30
0.0
 11
4093.0
 21
-3486.4999999999968
 31
0.0
1001
ACDBBLOCKREPETAG
1070
     1
1071
       54
1005
12442C
  0
LINE
  5
12442D
  8
OBJECT
 10
4097.0
 20
-3481.9999999999968
 30
0.0
 11
4093.0
 21
-3486.4999999999968
 31
0.0
1001
ACDBBLOCKREPETAG
1070
     1
1071
       55
1005
12442D
  0
LINE
  5
12442E
  8
OBJECT
 10
4097.0
 20
-3599.9999999999968
 30
0.0
 11
4093.0
 21
-3595.4999999999968
 31
0.0
1001
ACDBBLOCKREPETAG
1070
     1
1071
       56
1005
12442E
  0
LINE
  5
12442F
  8
OBJECT
 10
4083.0
 20
-3478.9999999999968
 30
0.0
 11
4080.0
 21
-3478.9999999999968
 31
0.0
1001
ACDBBLOCKREPETAG
1070
     1
1071
       57
1005
12442F
  0
ARC
  5
124430
  8
OBJECT
 10
4083.0
 20
-3481.9999999999968
 30
0.0
 40
3.0
 50
0.0
 51
90.0
1001
ACDBBLOCKREPETAG
1070
     1
1071
       58
1005
124430
  0
LINE
  5
124431
  8
OBJECT
 10
4080.0
 20
-3602.9999999999968
 30
0.0
 11
4083.0
 21
-3602.9999999999968
 31
0.0
1001
ACDBBLOCKREPETAG
1070
     1
1071
       59
1005
124431
  0
ARC
  5
124432
  8
OBJECT
 10
4083.0
 20
-3599.9999999999968
 30
0.0
 40
3.0
 50
270.0
 51
0.0
1001
ACDBBLOCKREPETAG
1070
     1
1071
       60
1005
124432
  0
LINE
  5
124433
  8
OBJECT
 10
4086.0
 20
-3599.9999999999968
 30
0.0
 11
4086.0
 21
-3481.9999999999968
 31
0.0
1001
ACDBBLOCKREPETAG
1070
     1
1071
       61
1005
124433
  0
LINE
  5
124434
  8
HIDDEN
 10
4088.0
 20
-3496.4999999999968
 30
0.0
 11
4088.0
 21
-3585.4999999999968
 31
0.0
1001
ACDBBLOCKREPETAG
1070
     1
1071
       63
1005
124434
  0
LINE
  5
124435
  8
OBJECT
 10
4133.0
 20
-3132.9999999999959
 30
0.0
 11
4140.0
 21
-3132.9999999999959
 31
0.0
1001
ACDBBLOCKREPETAG
1070
     1
1071
       47
1005
124435
  0
LINE
  5
124436
  8
OBJECT
 10
4140.0
 20
-3132.9999999999959
 30
0.0
 11
4140.0
 21
-3256.9999999999959
 31
0.0
1001
ACDBBLOCKREPETAG
1070
     1
1071
       48
1005
124436
  0
LINE
  5
124437
  8
OBJECT
 10
4140.0
 20
-3256.9999999999959
 30
0.0
 11
4133.0
 21
-3256.9999999999959
 31
0.0
1001
ACDBBLOCKREPETAG
1070
     1
1071
       49
1005
124437
  0
LINE
  5
124438
  8
OBJECT
 10
4133.0
 20
-3256.9999999999959
 30
0.0
 11
4133.0
 21
-3132.9999999999959
 31
0.0
1001
ACDBBLOCKREPETAG
1070
     1
1071
       50
1005
124438
  0
LINE
  5
124439
  8
CENTER
 10
4155.0
 20
-3194.9999999999959
 30
0.0
 11
4080.0
 21
-3194.9999999999959
 31
0.0
1001
ACDBBLOCKREPETAG
1070
     1
1071
       51
1005
124439
  0
LINE
  5
12443A
  8
OBJECT
 10
4133.0
 20
-3135.9999999999959
 30
0.0
 11
4097.0
 21
-3135.9999999999959
 31
0.0
1001
ACDBBLOCKREPETAG
1070
     1
1071
       52
1005
12443A
  0
LINE
  5
12443B
  8
OBJECT
 10
4097.0
 20
-3135.9999999999959
 30
0.0
 11
4097.0
 21
-3253.9999999999959
 31
0.0
1001
ACDBBLOCKREPETAG
1070
     1
1071
       53
1005
12443B
  0
LINE
  5
12443C
  8
OBJECT
 10
4097.0
 20
-3253.9999999999959
 30
0.0
 11
4133.0
 21
-3253.9999999999959
 31
0.0
1001
ACDBBLOCKREPETAG
1070
     1
1071
       54
1005
12443C
  0
LINE
  5
12443D
  8
OBJECT
 10
4093.0
 20
-3140.4999999999959
 30
0.0
 11
4086.0
 21
-3140.4999999999959
 31
0.0
1001
ACDBBLOCKREPETAG
1070
     1
1071
       55
1005
12443D
  0
LINE
  5
12443E
  8
OBJECT
 10
4086.0
 20
-3249.4999999999959
 30
0.0
 11
4093.0
 21
-3249.4999999999959
 31
0.0
1001
ACDBBLOCKREPETAG
1070
     1
1071
       56
1005
12443E
  0
LINE
  5
12443F
  8
OBJECT
 10
4093.0
 20
-3249.4999999999959
 30
0.0
 11
4093.0
 21
-3140.4999999999959
 31
0.0
1001
ACDBBLOCKREPETAG
1070
     1
1071
       57
1005
12443F
  0
LINE
  5
124440
  8
OBJECT
 10
4097.0
 20
-3135.9999999999959
 30
0.0
 11
4093.0
 21
-3140.4999999999959
 31
0.0
1001
ACDBBLOCKREPETAG
1070
     1
1071
       58
1005
124440
  0
LINE
  5
124441
  8
OBJECT
 10
4097.0
 20
-3253.9999999999959
 30
0.0
 11
4093.0
 21
-3249.4999999999959
 31
0.0
1001
ACDBBLOCKREPETAG
1070
     1
1071
       59
1005
124441
  0
LINE
  5
124442
  8
OBJECT
 10
4083.0
 20
-3132.9999999999959
 30
0.0
 11
4080.0
 21
-3132.9999999999959
 31
0.0
1001
ACDBBLOCKREPETAG
1070
     1
1071
       60
1005
124442
  0
ARC
  5
124443
  8
OBJECT
 10
4083.0
 20
-3135.9999999999959
 30
0.0
 40
3.0
 50
0.0
 51
90.0
1001
ACDBBLOCKREPETAG
1070
     1
1071
       61
1005
124443
  0
LINE
  5
124444
  8
OBJECT
 10
4080.0
 20
-3256.9999999999959
 30
0.0
 11
4083.0
 21
-3256.9999999999959
 31
0.0
1001
ACDBBLOCKREPETAG
1070
     1
1071
       62
1005
124444
  0
ARC
  5
124445
  8
OBJECT
 10
4083.0
 20
-3253.9999999999959
 30
0.0
 40
3.0
 50
270.0
 51
0.0
1001
ACDBBLOCKREPETAG
1070
     1
1071
       63
1005
124445
  0
LINE
  5
124446
  8
OBJECT
 10
4086.0
 20
-3253.9999999999959
 30
0.0
 11
4086.0
 21
-3135.9999999999959
 31
0.0
1001
ACDBBLOCKREPETAG
1070
     1
1071
       64
1005
124446
  0
LINE
  5
124447
  8
HIDDEN
 10
4088.0
 20
-3150.4999999999959
 30
0.0
 11
4088.0
 21
-3239.4999999999959
 31
0.0
1001
ACDBBLOCKREPETAG
1070
     1
1071
       65
1005
124447
  0
TEXT
  5
124448
  8
SLIM
 10
3894.25
 20
-3717.4999999999959
 30
0.0
 40
35.0
  1
通常枝75（3）
 41
0.75
  0
CIRCLE
  5
124449
  8
OBJECT
 10
3400.0
 20
-3547.9999999999968
 30
0.0
 40
35.5
1001
ACDBBLOCKREPETAG
1070
     1
1071
       10
1005
124449
  0
CIRCLE
  5
12444A
  8
OBJECT
 10
3400.0
 20
-3540.9999999999968
 30
0.0
 40
62.0
1001
ACDBBLOCKREPETAG
1070
     1
1071
       11
1005
12444A
  0
LINE
  5
12444B
  8
CENTER
 10
3330.0
 20
-3547.9999999999968
 30
0.0
 11
3470.0
 21
-3547.9999999999968
 31
0.0
1001
ACDBBLOCKREPETAG
1070
     1
1071
       12
1005
12444B
  0
CIRCLE
  5
12444C
  8
OBJECT
 10
3400.0
 20
-3547.9999999999968
 30
0.0
 40
47.0
1001
ACDBBLOCKREPETAG
1070
     1
1071
       14
1005
12444C
  0
ARC
  5
12444D
  8
OBJECT
 10
3400.0
 20
-3547.9999999999968
 30
0.0
 40
55.0
 50
289.01126526011359
 51
250.98873473988641
1001
ACDBBLOCKREPETAG
1070
     1
1071
       15
1005
12444D
  0
LINE
  5
12444E
  8
OBJECT
 10
3382.0835271328328
 20
-3599.9999999999968
 30
0.0
 11
3417.9164728671681
 21
-3599.9999999999968
 31
0.0
1001
ACDBBLOCKREPETAG
1070
     1
1071
       16
1005
12444E
  0
LINE
  5
12444F
  8
OBJECT
 10
3133.0
 20
-3492.9999999999968
 30
0.0
 11
3140.0
 21
-3492.9999999999968
 31
0.0
1001
ACDBBLOCKREPETAG
1070
     1
1071
       26
1005
12444F
  0
LINE
  5
124450
  8
OBJECT
 10
3140.0
 20
-3492.9999999999968
 30
0.0
 11
3140.0
 21
-3599.9999999999968
 31
0.0
1001
ACDBBLOCKREPETAG
1070
     1
1071
       27
1005
124450
  0
LINE
  5
124451
  8
OBJECT
 10
3133.0
 20
-3599.9999999999968
 30
0.0
 11
3133.0
 21
-3492.9999999999968
 31
0.0
1001
ACDBBLOCKREPETAG
1070
     1
1071
       28
1005
124451
  0
LINE
  5
124452
  8
CENTER
 10
3155.0
 20
-3547.9999999999968
 30
0.0
 11
3071.0
 21
-3547.9999999999968
 31
0.0
1001
ACDBBLOCKREPETAG
1070
     1
1071
       29
1005
124452
  0
LINE
  5
124453
  8
OBJECT
 10
3133.0
 20
-3495.9999999999968
 30
0.0
 11
3097.0
 21
-3495.9999999999968
 31
0.0
1001
ACDBBLOCKREPETAG
1070
     1
1071
       30
1005
124453
  0
LINE
  5
124454
  8
OBJECT
 10
3097.0
 20
-3495.9999999999968
 30
0.0
 11
3097.0
 21
-3599.9999999999968
 31
0.0
1001
ACDBBLOCKREPETAG
1070
     1
1071
       31
1005
124454
  0
LINE
  5
124455
  8
OBJECT
 10
3097.0
 20
-3599.9999999999968
 30
0.0
 11
3140.0
 21
-3599.9999999999968
 31
0.0
1001
ACDBBLOCKREPETAG
1070
     1
1071
       32
1005
124455
  0
LINE
  5
124456
  8
OBJECT
 10
3093.0
 20
-3500.4999999999968
 30
0.0
 11
3086.0
 21
-3500.4999999999968
 31
0.0
1001
ACDBBLOCKREPETAG
1070
     1
1071
       33
1005
124456
  0
LINE
  5
124457
  8
OBJECT
 10
3086.0
 20
-3595.4999999999968
 30
0.0
 11
3093.0
 21
-3595.4999999999968
 31
0.0
1001
ACDBBLOCKREPETAG
1070
     1
1071
       34
1005
124457
  0
LINE
  5
124458
  8
OBJECT
 10
3093.0
 20
-3595.4999999999968
 30
0.0
 11
3093.0
 21
-3500.4999999999968
 31
0.0
1001
ACDBBLOCKREPETAG
1070
     1
1071
       35
1005
124458
  0
LINE
  5
124459
  8
OBJECT
 10
3097.0
 20
-3495.9999999999968
 30
0.0
 11
3093.0
 21
-3500.4999999999968
 31
0.0
1001
ACDBBLOCKREPETAG
1070
     1
1071
       36
1005
124459
  0
LINE
  5
12445A
  8
OBJECT
 10
3097.0
 20
-3599.9999999999968
 30
0.0
 11
3093.0
 21
-3595.4999999999968
 31
0.0
1001
ACDBBLOCKREPETAG
1070
     1
1071
       37
1005
12445A
  0
LINE
  5
12445B
  8
OBJECT
 10
3083.0
 20
-3478.9999999999968
 30
0.0
 11
3080.0
 21
-3478.9999999999968
 31
0.0
1001
ACDBBLOCKREPETAG
1070
     1
1071
       38
1005
12445B
  0
ARC
  5
12445C
  8
OBJECT
 10
3083.0
 20
-3481.9999999999968
 30
0.0
 40
3.0
 50
0.0
 51
90.0
1001
ACDBBLOCKREPETAG
1070
     1
1071
       39
1005
12445C
  0
LINE
  5
12445D
  8
OBJECT
 10
3080.0
 20
-3602.9999999999968
 30
0.0
 11
3083.0
 21
-3602.9999999999968
 31
0.0
1001
ACDBBLOCKREPETAG
1070
     1
1071
       40
1005
12445D
  0
ARC
  5
12445E
  8
OBJECT
 10
3083.0
 20
-3599.9999999999968
 30
0.0
 40
3.0
 50
270.0
 51
0.0
1001
ACDBBLOCKREPETAG
1070
     1
1071
       41
1005
12445E
  0
LINE
  5
12445F
  8
OBJECT
 10
3086.0
 20
-3599.9999999999968
 30
0.0
 11
3086.0
 21
-3481.9999999999968
 31
0.0
1001
ACDBBLOCKREPETAG
1070
     1
1071
       42
1005
12445F
  0
LINE
  5
124460
  8
HIDDEN
 10
3088.0
 20
-3509.9999999999968
 30
0.0
 11
3088.0
 21
-3585.9999999999968
 31
0.0
1001
ACDBBLOCKREPETAG
1070
     1
1071
       43
1005
124460
  0
LINE
  5
124461
  8
OBJECT
 10
3133.0
 20
-3139.9999999999959
 30
0.0
 11
3140.0
 21
-3139.9999999999959
 31
0.0
1001
ACDBBLOCKREPETAG
1070
     1
1071
       27
1005
124461
  0
LINE
  5
124462
  8
OBJECT
 10
3140.0
 20
-3139.9999999999959
 30
0.0
 11
3140.0
 21
-3249.9999999999959
 31
0.0
1001
ACDBBLOCKREPETAG
1070
     1
1071
       28
1005
124462
  0
LINE
  5
124463
  8
OBJECT
 10
3140.0
 20
-3249.9999999999959
 30
0.0
 11
3133.0
 21
-3249.9999999999959
 31
0.0
1001
ACDBBLOCKREPETAG
1070
     1
1071
       29
1005
124463
  0
LINE
  5
124464
  8
OBJECT
 10
3133.0
 20
-3249.9999999999959
 30
0.0
 11
3133.0
 21
-3139.9999999999959
 31
0.0
1001
ACDBBLOCKREPETAG
1070
     1
1071
       30
1005
124464
  0
LINE
  5
124465
  8
CENTER
 10
3155.0
 20
-3194.9999999999959
 30
0.0
 11
3080.0
 21
-3194.9999999999959
 31
0.0
1001
ACDBBLOCKREPETAG
1070
     1
1071
       31
1005
124465
  0
LINE
  5
124466
  8
OBJECT
 10
3133.0
 20
-3142.9999999999959
 30
0.0
 11
3097.0
 21
-3142.9999999999959
 31
0.0
1001
ACDBBLOCKREPETAG
1070
     1
1071
       32
1005
124466
  0
LINE
  5
124467
  8
OBJECT
 10
3097.0
 20
-3142.9999999999959
 30
0.0
 11
3097.0
 21
-3246.9999999999959
 31
0.0
1001
ACDBBLOCKREPETAG
1070
     1
1071
       33
1005
124467
  0
LINE
  5
124468
  8
OBJECT
 10
3097.0
 20
-3246.9999999999959
 30
0.0
 11
3133.0
 21
-3246.9999999999959
 31
0.0
1001
ACDBBLOCKREPETAG
1070
     1
1071
       34
1005
124468
  0
LINE
  5
124469
  8
OBJECT
 10
3093.0
 20
-3147.4999999999959
 30
0.0
 11
3086.0
 21
-3147.4999999999959
 31
0.0
1001
ACDBBLOCKREPETAG
1070
     1
1071
       35
1005
124469
  0
LINE
  5
12446A
  8
OBJECT
 10
3086.0
 20
-3242.4999999999959
 30
0.0
 11
3093.0
 21
-3242.4999999999959
 31
0.0
1001
ACDBBLOCKREPETAG
1070
     1
1071
       36
1005
12446A
  0
LINE
  5
12446B
  8
OBJECT
 10
3093.0
 20
-3242.4999999999959
 30
0.0
 11
3093.0
 21
-3147.4999999999959
 31
0.0
1001
ACDBBLOCKREPETAG
1070
     1
1071
       37
1005
12446B
  0
LINE
  5
12446C
  8
OBJECT
 10
3097.0
 20
-3142.9999999999959
 30
0.0
 11
3093.0
 21
-3147.4999999999959
 31
0.0
1001
ACDBBLOCKREPETAG
1070
     1
1071
       38
1005
12446C
  0
LINE
  5
12446D
  8
OBJECT
 10
3097.0
 20
-3246.9999999999959
 30
0.0
 11
3093.0
 21
-3242.4999999999959
 31
0.0
1001
ACDBBLOCKREPETAG
1070
     1
1071
       39
1005
12446D
  0
LINE
  5
12446E
  8
OBJECT
 10
3083.0
 20
-3132.9999999999959
 30
0.0
 11
3080.0
 21
-3132.9999999999959
 31
0.0
1001
ACDBBLOCKREPETAG
1070
     1
1071
       40
1005
12446E
  0
ARC
  5
12446F
  8
OBJECT
 10
3083.0
 20
-3135.9999999999959
 30
0.0
 40
3.0
 50
0.0
 51
90.0
1001
ACDBBLOCKREPETAG
1070
     1
1071
       41
1005
12446F
  0
LINE
  5
124470
  8
OBJECT
 10
3080.0
 20
-3256.9999999999959
 30
0.0
 11
3083.0
 21
-3256.9999999999959
 31
0.0
1001
ACDBBLOCKREPETAG
1070
     1
1071
       42
1005
124470
  0
ARC
  5
124471
  8
OBJECT
 10
3083.0
 20
-3253.9999999999959
 30
0.0
 40
3.0
 50
270.0
 51
0.0
1001
ACDBBLOCKREPETAG
1070
     1
1071
       43
1005
124471
  0
LINE
  5
124472
  8
OBJECT
 10
3086.0
 20
-3253.9999999999959
 30
0.0
 11
3086.0
 21
-3135.9999999999959
 31
0.0
1001
ACDBBLOCKREPETAG
1070
     1
1071
       44
1005
124472
  0
LINE
  5
124473
  8
HIDDEN
 10
3088.0
 20
-3156.9999999999959
 30
0.0
 11
3088.0
 21
-3232.9999999999959
 31
0.0
1001
ACDBBLOCKREPETAG
1070
     1
1071
       45
1005
124473
  0
TEXT
  5
124474
  8
SLIM
 10
2894.25
 20
-3717.4999999999959
 30
0.0
 40
35.0
  1
通常枝65（2）
 41
0.75
  0
CIRCLE
  5
124475
  8
OBJECT
 10
2400.0
 20
-3540.9999999999968
 30
0.0
 40
62.0
1001
ACDBBLOCKREPETAG
1070
     1
1071
        3
1005
124475
  0
LINE
  5
124476
  8
CENTER
 10
2338.0
 20
-3555.9999999999968
 30
0.0
 11
2462.0
 21
-3555.9999999999968
 31
0.0
1001
ACDBBLOCKREPETAG
1070
     1
1071
        4
1005
124476
  0
CIRCLE
  5
124477
  8
OBJECT
 10
2400.0
 20
-3555.9999999999968
 30
0.0
 40
28.0
1001
ACDBBLOCKREPETAG
1070
     1
1071
        6
1005
124477
  0
CIRCLE
  5
124478
  8
OBJECT
 10
2400.0
 20
-3555.9999999999968
 30
0.0
 40
39.0
1001
ACDBBLOCKREPETAG
1070
     1
1071
        7
1005
124478
  0
ARC
  5
124479
  8
OBJECT
 10
2400.0
 20
-3555.9999999999968
 30
0.0
 40
47.0
 50
290.58196921144412
 51
249.41803078855591
1001
ACDBBLOCKREPETAG
1070
     1
1071
        8
1005
124479
  0
LINE
  5
12447A
  8
OBJECT
 10
2383.4772883581431
 20
-3599.9999999999968
 30
0.0
 11
2416.5227116418569
 21
-3599.9999999999968
 31
0.0
1001
ACDBBLOCKREPETAG
1070
     1
1071
        9
1005
12447A
  0
LINE
  5
12447B
  8
OBJECT
 10
2133.0
 20
-3508.9999999999968
 30
0.0
 11
2140.0
 21
-3508.9999999999968
 31
0.0
1001
ACDBBLOCKREPETAG
1070
     1
1071
        7
1005
12447B
  0
LINE
  5
12447C
  8
OBJECT
 10
2140.0
 20
-3508.9999999999968
 30
0.0
 11
2140.0
 21
-3599.9999999999968
 31
0.0
1001
ACDBBLOCKREPETAG
1070
     1
1071
        8
1005
12447C
  0
LINE
  5
12447D
  8
OBJECT
 10
2133.0
 20
-3599.9999999999968
 30
0.0
 11
2133.0
 21
-3508.9999999999968
 31
0.0
1001
ACDBBLOCKREPETAG
1070
     1
1071
        9
1005
12447D
  0
LINE
  5
12447E
  8
CENTER
 10
2155.0
 20
-3555.9999999999968
 30
0.0
 11
2071.0
 21
-3555.9999999999968
 31
0.0
1001
ACDBBLOCKREPETAG
1070
     1
1071
       10
1005
12447E
  0
LINE
  5
12447F
  8
OBJECT
 10
2133.0
 20
-3511.9999999999968
 30
0.0
 11
2097.0
 21
-3511.9999999999968
 31
0.0
1001
ACDBBLOCKREPETAG
1070
     1
1071
       11
1005
12447F
  0
LINE
  5
124480
  8
OBJECT
 10
2097.0
 20
-3511.9999999999968
 30
0.0
 11
2097.0
 21
-3599.9999999999968
 31
0.0
1001
ACDBBLOCKREPETAG
1070
     1
1071
       12
1005
124480
  0
LINE
  5
124481
  8
OBJECT
 10
2097.0
 20
-3599.9999999999968
 30
0.0
 11
2140.0
 21
-3599.9999999999968
 31
0.0
1001
ACDBBLOCKREPETAG
1070
     1
1071
       13
1005
124481
  0
LINE
  5
124482
  8
OBJECT
 10
2093.0
 20
-3516.4999999999968
 30
0.0
 11
2086.0
 21
-3516.4999999999968
 31
0.0
1001
ACDBBLOCKREPETAG
1070
     1
1071
       14
1005
124482
  0
LINE
  5
124483
  8
OBJECT
 10
2086.0
 20
-3595.4999999999968
 30
0.0
 11
2093.0
 21
-3595.4999999999968
 31
0.0
1001
ACDBBLOCKREPETAG
1070
     1
1071
       15
1005
124483
  0
LINE
  5
124484
  8
OBJECT
 10
2093.0
 20
-3595.4999999999968
 30
0.0
 11
2093.0
 21
-3516.4999999999968
 31
0.0
1001
ACDBBLOCKREPETAG
1070
     1
1071
       16
1005
124484
  0
LINE
  5
124485
  8
OBJECT
 10
2097.0
 20
-3511.9999999999968
 30
0.0
 11
2093.0
 21
-3516.4999999999968
 31
0.0
1001
ACDBBLOCKREPETAG
1070
     1
1071
       17
1005
124485
  0
LINE
  5
124486
  8
OBJECT
 10
2097.0
 20
-3599.9999999999968
 30
0.0
 11
2093.0
 21
-3595.4999999999968
 31
0.0
1001
ACDBBLOCKREPETAG
1070
     1
1071
       18
1005
124486
  0
LINE
  5
124487
  8
OBJECT
 10
2083.0
 20
-3478.9999999999968
 30
0.0
 11
2080.0
 21
-3478.9999999999968
 31
0.0
1001
ACDBBLOCKREPETAG
1070
     1
1071
       19
1005
124487
  0
ARC
  5
124488
  8
OBJECT
 10
2083.0
 20
-3481.9999999999968
 30
0.0
 40
3.0
 50
0.0
 51
90.0
1001
ACDBBLOCKREPETAG
1070
     1
1071
       20
1005
124488
  0
LINE
  5
124489
  8
OBJECT
 10
2080.0
 20
-3602.9999999999968
 30
0.0
 11
2083.0
 21
-3602.9999999999968
 31
0.0
1001
ACDBBLOCKREPETAG
1070
     1
1071
       21
1005
124489
  0
ARC
  5
12448A
  8
OBJECT
 10
2083.0
 20
-3599.9999999999968
 30
0.0
 40
3.0
 50
270.0
 51
0.0
1001
ACDBBLOCKREPETAG
1070
     1
1071
       22
1005
12448A
  0
LINE
  5
12448B
  8
OBJECT
 10
2086.0
 20
-3599.9999999999968
 30
0.0
 11
2086.0
 21
-3481.9999999999968
 31
0.0
1001
ACDBBLOCKREPETAG
1070
     1
1071
       23
1005
12448B
  0
LINE
  5
12448C
  8
HIDDEN
 10
2088.0
 20
-3525.9999999999968
 30
0.0
 11
2088.0
 21
-3585.9999999999968
 31
0.0
1001
ACDBBLOCKREPETAG
1070
     1
1071
       24
1005
12448C
  0
LINE
  5
12448D
  8
OBJECT
 10
2133.0
 20
-3147.9999999999959
 30
0.0
 11
2140.0
 21
-3147.9999999999959
 31
0.0
1001
ACDBBLOCKREPETAG
1070
     1
1071
        7
1005
12448D
  0
LINE
  5
12448E
  8
OBJECT
 10
2140.0
 20
-3147.9999999999959
 30
0.0
 11
2140.0
 21
-3241.9999999999959
 31
0.0
1001
ACDBBLOCKREPETAG
1070
     1
1071
        8
1005
12448E
  0
LINE
  5
12448F
  8
OBJECT
 10
2140.0
 20
-3241.9999999999959
 30
0.0
 11
2133.0
 21
-3241.9999999999959
 31
0.0
1001
ACDBBLOCKREPETAG
1070
     1
1071
        9
1005
12448F
  0
LINE
  5
124490
  8
OBJECT
 10
2133.0
 20
-3241.9999999999959
 30
0.0
 11
2133.0
 21
-3147.9999999999959
 31
0.0
1001
ACDBBLOCKREPETAG
1070
     1
1071
       10
1005
124490
  0
LINE
  5
124491
  8
CENTER
 10
2155.0
 20
-3194.9999999999959
 30
0.0
 11
2080.0
 21
-3194.9999999999959
 31
0.0
1001
ACDBBLOCKREPETAG
1070
     1
1071
       11
1005
124491
  0
LINE
  5
124492
  8
OBJECT
 10
2133.0
 20
-3150.9999999999959
 30
0.0
 11
2097.0
 21
-3150.9999999999959
 31
0.0
1001
ACDBBLOCKREPETAG
1070
     1
1071
       12
1005
124492
  0
LINE
  5
124493
  8
OBJECT
 10
2097.0
 20
-3150.9999999999959
 30
0.0
 11
2097.0
 21
-3238.9999999999959
 31
0.0
1001
ACDBBLOCKREPETAG
1070
     1
1071
       13
1005
124493
  0
LINE
  5
124494
  8
OBJECT
 10
2097.0
 20
-3238.9999999999959
 30
0.0
 11
2133.0
 21
-3238.9999999999959
 31
0.0
1001
ACDBBLOCKREPETAG
1070
     1
1071
       14
1005
124494
  0
LINE
  5
124495
  8
OBJECT
 10
2093.0
 20
-3155.4999999999959
 30
0.0
 11
2086.0
 21
-3155.4999999999959
 31
0.0
1001
ACDBBLOCKREPETAG
1070
     1
1071
       15
1005
124495
  0
LINE
  5
124496
  8
OBJECT
 10
2086.0
 20
-3234.4999999999959
 30
0.0
 11
2093.0
 21
-3234.4999999999959
 31
0.0
1001
ACDBBLOCKREPETAG
1070
     1
1071
       16
1005
124496
  0
LINE
  5
124497
  8
OBJECT
 10
2093.0
 20
-3234.4999999999959
 30
0.0
 11
2093.0
 21
-3155.4999999999959
 31
0.0
1001
ACDBBLOCKREPETAG
1070
     1
1071
       17
1005
124497
  0
LINE
  5
124498
  8
OBJECT
 10
2097.0
 20
-3150.9999999999959
 30
0.0
 11
2093.0
 21
-3155.4999999999959
 31
0.0
1001
ACDBBLOCKREPETAG
1070
     1
1071
       18
1005
124498
  0
LINE
  5
124499
  8
OBJECT
 10
2097.0
 20
-3238.9999999999959
 30
0.0
 11
2093.0
 21
-3234.4999999999959
 31
0.0
1001
ACDBBLOCKREPETAG
1070
     1
1071
       19
1005
124499
  0
LINE
  5
12449A
  8
OBJECT
 10
2083.0
 20
-3132.9999999999959
 30
0.0
 11
2080.0
 21
-3132.9999999999959
 31
0.0
1001
ACDBBLOCKREPETAG
1070
     1
1071
       20
1005
12449A
  0
ARC
  5
12449B
  8
OBJECT
 10
2083.0
 20
-3135.9999999999959
 30
0.0
 40
3.0
 50
0.0
 51
90.0
1001
ACDBBLOCKREPETAG
1070
     1
1071
       21
1005
12449B
  0
LINE
  5
12449C
  8
OBJECT
 10
2080.0
 20
-3256.9999999999959
 30
0.0
 11
2083.0
 21
-3256.9999999999959
 31
0.0
1001
ACDBBLOCKREPETAG
1070
     1
1071
       22
1005
12449C
  0
ARC
  5
12449D
  8
OBJECT
 10
2083.0
 20
-3253.9999999999959
 30
0.0
 40
3.0
 50
270.0
 51
0.0
1001
ACDBBLOCKREPETAG
1070
     1
1071
       23
1005
12449D
  0
LINE
  5
12449E
  8
OBJECT
 10
2086.0
 20
-3253.9999999999959
 30
0.0
 11
2086.0
 21
-3135.9999999999959
 31
0.0
1001
ACDBBLOCKREPETAG
1070
     1
1071
       24
1005
12449E
  0
LINE
  5
12449F
  8
HIDDEN
 10
2088.0
 20
-3164.9999999999959
 30
0.0
 11
2088.0
 21
-3224.9999999999959
 31
0.0
1001
ACDBBLOCKREPETAG
1070
     1
1071
       25
1005
12449F
  0
TEXT
  5
1244A0
  8
SLIM
 10
1896.75
 20
-3717.4999999999959
 30
0.0
 40
35.0
  1
通常枝50（1）
 41
0.75
  0
TEXT
  5
1244A1
  8
SLIM
 10
1837.75
 20
282.50000000000011
 30
0.0
 40
35.0
  1
（枝管サイズ毎に寸法が異なります。管底の位置は全サイズで同じです）
 41
0.75
  0
TEXT
  5
1244A2
  8
SLIM
 10
1850.0
 20
532.5
 30
0.0
 40
75.0
  1
側面図の代表機種
 41
0.75
  0
TEXT
  5
1244A3
  8
SLIM
 10
1850.0
 20
369.99999999999989
 30
0.0
 40
100.0
  1
4SHF-A3
 41
0.75
  0
LINE
  5
1244A4
  8
OBJECT
 10
4443.0
 20
-1099.999999999995
 30
0.0
 11
4557.0
 21
-1099.999999999995
 31
0.0
1001
ACDBBLOCKREPETAG
1070
     1
1071
        0
1005
1244A4
  0
LINE
  5
1244A5
  8
OBJECT
 10
4443.0
 20
-1099.999999999995
 30
0.0
 11
4443.0
 21
-999.99999999999545
 31
0.0
1001
ACDBBLOCKREPETAG
1070
     1
1071
        1
1005
1244A5
  0
LINE
  5
1244A6
  8
OBJECT
 10
4557.0
 20
-1099.999999999995
 30
0.0
 11
4557.0
 21
-999.99999999999545
 31
0.0
1001
ACDBBLOCKREPETAG
1070
     1
1071
        2
1005
1244A6
  0
LINE
  5
1244A7
  8
OBJECT
 10
4443.0
 20
-999.99999999999545
 30
0.0
 11
4557.0
 21
-999.99999999999545
 31
0.0
1001
ACDBBLOCKREPETAG
1070
     1
1071
        3
1005
1244A7
  0
LINE
  5
1244A8
  8
HIDDEN
 10
4450.0
 20
-999.99999999999545
 30
0.0
 11
4450.0
 21
-1099.999999999995
 31
0.0
1001
ACDBBLOCKREPETAG
1070
     1
1071
        4
1005
1244A8
  0
LINE
  5
1244A9
  8
HIDDEN
 10
4550.0
 20
-999.99999999999545
 30
0.0
 11
4550.0
 21
-1099.999999999995
 31
0.0
1001
ACDBBLOCKREPETAG
1070
     1
1071
        5
1005
1244A9
  0
LINE
  5
1244AA
  8
CENTER
 10
4500.0
 20
-789.9999999999992
 30
0.0
 11
4500.0
 21
-1114.999999999995
 31
0.0
1001
ACDBBLOCKREPETAG
1070
     1
1071
        6
1005
1244AA
  0
LINE
  5
1244AB
  8
OBJECT
 10
4425.0
 20
-789.9999999999992
 30
0.0
 11
4425.0
 21
-871.99999999999545
 31
0.0
1001
ACDBBLOCKREPETAG
1070
     1
1071
        7
1005
1244AB
  0
LINE
  5
1244AC
  8
OBJECT
 10
4575.0
 20
-789.9999999999992
 30
0.0
 11
4575.0
 21
-871.99999999999545
 31
0.0
1001
ACDBBLOCKREPETAG
1070
     1
1071
        8
1005
1244AC
  0
LINE
  5
1244AD
  8
OBJECT
 10
4425.0
 20
-871.99999999999545
 30
0.0
 11
4575.0
 21
-871.99999999999545
 31
0.0
1001
ACDBBLOCKREPETAG
1070
     1
1071
        9
1005
1244AD
  0
LINE
  5
1244AE
  8
OBJECT
 10
4425.0
 20
-871.99999999999545
 30
0.0
 11
4443.0
 21
-999.99999999999545
 31
0.0
1001
ACDBBLOCKREPETAG
1070
     1
1071
       10
1005
1244AE
  0
LINE
  5
1244AF
  8
OBJECT
 10
4557.0
 20
-999.99999999999545
 30
0.0
 11
4575.0
 21
-871.99999999999545
 31
0.0
1001
ACDBBLOCKREPETAG
1070
     1
1071
       11
1005
1244AF
  0
LINE
  5
1244B0
  8
OBJECT
 10
3943.0
 20
-1099.999999999995
 30
0.0
 11
4057.0
 21
-1099.999999999995
 31
0.0
1001
ACDBBLOCKREPETAG
1070
     1
1071
        0
1005
1244B0
  0
LINE
  5
1244B1
  8
OBJECT
 10
3943.0
 20
-1099.999999999995
 30
0.0
 11
3943.0
 21
-999.99999999999545
 31
0.0
1001
ACDBBLOCKREPETAG
1070
     1
1071
        1
1005
1244B1
  0
LINE
  5
1244B2
  8
OBJECT
 10
4057.0
 20
-1099.999999999995
 30
0.0
 11
4057.0
 21
-999.99999999999545
 31
0.0
1001
ACDBBLOCKREPETAG
1070
     1
1071
        2
1005
1244B2
  0
LINE
  5
1244B3
  8
OBJECT
 10
3943.0
 20
-999.99999999999545
 30
0.0
 11
4057.0
 21
-999.99999999999545
 31
0.0
1001
ACDBBLOCKREPETAG
1070
     1
1071
        3
1005
1244B3
  0
LINE
  5
1244B4
  8
HIDDEN
 10
3950.0
 20
-999.99999999999545
 30
0.0
 11
3950.0
 21
-1099.999999999995
 31
0.0
1001
ACDBBLOCKREPETAG
1070
     1
1071
        4
1005
1244B4
  0
LINE
  5
1244B5
  8
HIDDEN
 10
4050.0
 20
-999.99999999999545
 30
0.0
 11
4050.0
 21
-1099.999999999995
 31
0.0
1001
ACDBBLOCKREPETAG
1070
     1
1071
        5
1005
1244B5
  0
LINE
  5
1244B6
  8
CENTER
 10
4000.0
 20
-789.9999999999992
 30
0.0
 11
4000.0
 21
-1114.999999999995
 31
0.0
1001
ACDBBLOCKREPETAG
1070
     1
1071
        6
1005
1244B6
  0
LINE
  5
1244B7
  8
OBJECT
 10
3925.0
 20
-789.9999999999992
 30
0.0
 11
3925.0
 21
-871.99999999999545
 31
0.0
1001
ACDBBLOCKREPETAG
1070
     1
1071
        7
1005
1244B7
  0
LINE
  5
1244B8
  8
OBJECT
 10
4075.0
 20
-789.9999999999992
 30
0.0
 11
4075.0
 21
-871.99999999999545
 31
0.0
1001
ACDBBLOCKREPETAG
1070
     1
1071
        8
1005
1244B8
  0
LINE
  5
1244B9
  8
OBJECT
 10
3925.0
 20
-871.99999999999545
 30
0.0
 11
4075.0
 21
-871.99999999999545
 31
0.0
1001
ACDBBLOCKREPETAG
1070
     1
1071
        9
1005
1244B9
  0
LINE
  5
1244BA
  8
OBJECT
 10
3925.0
 20
-871.99999999999545
 30
0.0
 11
3943.0
 21
-999.99999999999545
 31
0.0
1001
ACDBBLOCKREPETAG
1070
     1
1071
       10
1005
1244BA
  0
LINE
  5
1244BB
  8
OBJECT
 10
4057.0
 20
-999.99999999999545
 30
0.0
 11
4075.0
 21
-871.99999999999545
 31
0.0
1001
ACDBBLOCKREPETAG
1070
     1
1071
       11
1005
1244BB
  0
LINE
  5
1244BC
  8
OBJECT
 10
2443.0
 20
-1099.9999999999959
 30
0.0
 11
2557.0
 21
-1099.9999999999959
 31
0.0
1001
ACDBBLOCKREPETAG
1070
     1
1071
        0
1005
1244BC
  0
LINE
  5
1244BD
  8
OBJECT
 10
2443.0
 20
-1099.9999999999959
 30
0.0
 11
2443.0
 21
-999.99999999999602
 31
0.0
1001
ACDBBLOCKREPETAG
1070
     1
1071
        1
1005
1244BD
  0
LINE
  5
1244BE
  8
OBJECT
 10
2557.0
 20
-1099.9999999999959
 30
0.0
 11
2557.0
 21
-999.99999999999602
 31
0.0
1001
ACDBBLOCKREPETAG
1070
     1
1071
        2
1005
1244BE
  0
LINE
  5
1244BF
  8
OBJECT
 10
2443.0
 20
-999.99999999999602
 30
0.0
 11
2557.0
 21
-999.99999999999602
 31
0.0
1001
ACDBBLOCKREPETAG
1070
     1
1071
        3
1005
1244BF
  0
LINE
  5
1244C0
  8
HIDDEN
 10
2450.0
 20
-999.99999999999602
 30
0.0
 11
2450.0
 21
-1099.9999999999959
 31
0.0
1001
ACDBBLOCKREPETAG
1070
     1
1071
        4
1005
1244C0
  0
LINE
  5
1244C1
  8
HIDDEN
 10
2550.0
 20
-999.99999999999602
 30
0.0
 11
2550.0
 21
-1099.9999999999959
 31
0.0
1001
ACDBBLOCKREPETAG
1070
     1
1071
        5
1005
1244C1
  0
LINE
  5
1244C2
  8
CENTER
 10
2500.0
 20
-789.99999999999955
 30
0.0
 11
2500.0
 21
-1114.9999999999959
 31
0.0
1001
ACDBBLOCKREPETAG
1070
     1
1071
        6
1005
1244C2
  0
LINE
  5
1244C3
  8
OBJECT
 10
2425.0
 20
-789.99999999999955
 30
0.0
 11
2425.0
 21
-871.99999999999591
 31
0.0
1001
ACDBBLOCKREPETAG
1070
     1
1071
        7
1005
1244C3
  0
LINE
  5
1244C4
  8
OBJECT
 10
2575.0
 20
-789.99999999999955
 30
0.0
 11
2575.0
 21
-871.99999999999591
 31
0.0
1001
ACDBBLOCKREPETAG
1070
     1
1071
        8
1005
1244C4
  0
LINE
  5
1244C5
  8
OBJECT
 10
2425.0
 20
-871.99999999999591
 30
0.0
 11
2575.0
 21
-871.99999999999591
 31
0.0
1001
ACDBBLOCKREPETAG
1070
     1
1071
        9
1005
1244C5
  0
LINE
  5
1244C6
  8
OBJECT
 10
2425.0
 20
-871.99999999999591
 30
0.0
 11
2443.0
 21
-999.99999999999602
 31
0.0
1001
ACDBBLOCKREPETAG
1070
     1
1071
       10
1005
1244C6
  0
LINE
  5
1244C7
  8
OBJECT
 10
2557.0
 20
-999.99999999999602
 30
0.0
 11
2575.0
 21
-871.99999999999591
 31
0.0
1001
ACDBBLOCKREPETAG
1070
     1
1071
       11
1005
1244C7
  0
LINE
  5
1244C8
  8
OBJECT
 10
1943.0
 20
-1099.9999999999959
 30
0.0
 11
2057.0
 21
-1099.9999999999959
 31
0.0
1001
ACDBBLOCKREPETAG
1070
     1
1071
        0
1005
1244C8
  0
LINE
  5
1244C9
  8
OBJECT
 10
1943.0
 20
-1099.9999999999959
 30
0.0
 11
1943.0
 21
-999.99999999999602
 31
0.0
1001
ACDBBLOCKREPETAG
1070
     1
1071
        1
1005
1244C9
  0
LINE
  5
1244CA
  8
OBJECT
 10
2057.0
 20
-1099.9999999999959
 30
0.0
 11
2057.0
 21
-999.99999999999602
 31
0.0
1001
ACDBBLOCKREPETAG
1070
     1
1071
        2
1005
1244CA
  0
LINE
  5
1244CB
  8
OBJECT
 10
1943.0
 20
-999.99999999999602
 30
0.0
 11
2057.0
 21
-999.99999999999602
 31
0.0
1001
ACDBBLOCKREPETAG
1070
     1
1071
        3
1005
1244CB
  0
LINE
  5
1244CC
  8
HIDDEN
 10
1950.0
 20
-999.99999999999602
 30
0.0
 11
1950.0
 21
-1099.9999999999959
 31
0.0
1001
ACDBBLOCKREPETAG
1070
     1
1071
        4
1005
1244CC
  0
LINE
  5
1244CD
  8
HIDDEN
 10
2050.0
 20
-999.99999999999602
 30
0.0
 11
2050.0
 21
-1099.9999999999959
 31
0.0
1001
ACDBBLOCKREPETAG
1070
     1
1071
        5
1005
1244CD
  0
LINE
  5
1244CE
  8
CENTER
 10
2000.0
 20
-789.99999999999955
 30
0.0
 11
2000.0
 21
-1114.9999999999959
 31
0.0
1001
ACDBBLOCKREPETAG
1070
     1
1071
        6
1005
1244CE
  0
LINE
  5
1244CF
  8
OBJECT
 10
1925.0
 20
-789.99999999999955
 30
0.0
 11
1925.0
 21
-871.99999999999591
 31
0.0
1001
ACDBBLOCKREPETAG
1070
     1
1071
        7
1005
1244CF
  0
LINE
  5
1244D0
  8
OBJECT
 10
2075.0
 20
-789.99999999999955
 30
0.0
 11
2075.0
 21
-871.99999999999591
 31
0.0
1001
ACDBBLOCKREPETAG
1070
     1
1071
        8
1005
1244D0
  0
LINE
  5
1244D1
  8
OBJECT
 10
1925.0
 20
-871.99999999999591
 30
0.0
 11
2075.0
 21
-871.99999999999591
 31
0.0
1001
ACDBBLOCKREPETAG
1070
     1
1071
        9
1005
1244D1
  0
LINE
  5
1244D2
  8
OBJECT
 10
1925.0
 20
-871.99999999999591
 30
0.0
 11
1943.0
 21
-999.99999999999602
 31
0.0
1001
ACDBBLOCKREPETAG
1070
     1
1071
       10
1005
1244D2
  0
LINE
  5
1244D3
  8
OBJECT
 10
2057.0
 20
-999.99999999999602
 30
0.0
 11
2075.0
 21
-871.99999999999591
 31
0.0
1001
ACDBBLOCKREPETAG
1070
     1
1071
       11
1005
1244D3
  0
LINE
  5
1244D4
  8
CENTER
 10
2577.0
 20
-586.0
 30
0.0
 11
2423.0
 21
-586.0
 31
0.0
1001
ACDBBLOCKREPETAG
1070
     1
1071
       17
1005
1244D4
  0
CIRCLE
  5
1244D5
  8
OBJECT
 10
2500.0
 20
-586.0
 30
0.0
 40
41.5
1001
ACDBBLOCKREPETAG
1070
     1
1071
       19
1005
1244D5
  0
CIRCLE
  5
1244D6
  8
OBJECT
 10
2500.0
 20
-586.0
 30
0.0
 40
54.0
1001
ACDBBLOCKREPETAG
1070
     1
1071
       20
1005
1244D6
  0
ARC
  5
1244D7
  8
OBJECT
 10
2500.0
 20
-586.0
 30
0.0
 40
62.0
 50
287.89655112920718
 51
252.10344887079279
1001
ACDBBLOCKREPETAG
1070
     1
1071
       21
1005
1244D7
  0
LINE
  5
1244D8
  8
OBJECT
 10
2480.947441116743
 20
-645.0
 30
0.0
 11
2519.052558883257
 21
-645.0
 31
0.0
1001
ACDBBLOCKREPETAG
1070
     1
1071
       22
1005
1244D8
  0
LINE
  5
1244D9
  8
OBJECT
 10
2133.0
 20
-524.0
 30
0.0
 11
2140.0
 21
-524.0
 31
0.0
1001
ACDBBLOCKREPETAG
1070
     1
1071
       45
1005
1244D9
  0
LINE
  5
1244DA
  8
OBJECT
 10
2140.0
 20
-524.0
 30
0.0
 11
2140.0
 21
-645.0
 31
0.0
1001
ACDBBLOCKREPETAG
1070
     1
1071
       46
1005
1244DA
  0
LINE
  5
1244DB
  8
OBJECT
 10
2133.0
 20
-645.0
 30
0.0
 11
2133.0
 21
-524.0
 31
0.0
1001
ACDBBLOCKREPETAG
1070
     1
1071
       47
1005
1244DB
  0
LINE
  5
1244DC
  8
CENTER
 10
2155.0
 20
-586.0
 30
0.0
 11
2071.0
 21
-586.0
 31
0.0
1001
ACDBBLOCKREPETAG
1070
     1
1071
       48
1005
1244DC
  0
LINE
  5
1244DD
  8
OBJECT
 10
2133.0
 20
-527.0
 30
0.0
 11
2097.0
 21
-527.0
 31
0.0
1001
ACDBBLOCKREPETAG
1070
     1
1071
       49
1005
1244DD
  0
LINE
  5
1244DE
  8
OBJECT
 10
2097.0
 20
-527.0
 30
0.0
 11
2097.0
 21
-645.0
 31
0.0
1001
ACDBBLOCKREPETAG
1070
     1
1071
       50
1005
1244DE
  0
LINE
  5
1244DF
  8
OBJECT
 10
2097.0
 20
-645.0
 30
0.0
 11
2140.0
 21
-645.0
 31
0.0
1001
ACDBBLOCKREPETAG
1070
     1
1071
       51
1005
1244DF
  0
LINE
  5
1244E0
  8
OBJECT
 10
2093.0
 20
-531.5
 30
0.0
 11
2086.0
 21
-531.5
 31
0.0
1001
ACDBBLOCKREPETAG
1070
     1
1071
       52
1005
1244E0
  0
LINE
  5
1244E1
  8
OBJECT
 10
2086.0
 20
-640.5
 30
0.0
 11
2093.0
 21
-640.5
 31
0.0
1001
ACDBBLOCKREPETAG
1070
     1
1071
       53
1005
1244E1
  0
LINE
  5
1244E2
  8
OBJECT
 10
2093.0
 20
-640.5
 30
0.0
 11
2093.0
 21
-531.5
 31
0.0
1001
ACDBBLOCKREPETAG
1070
     1
1071
       54
1005
1244E2
  0
LINE
  5
1244E3
  8
OBJECT
 10
2097.0
 20
-527.0
 30
0.0
 11
2093.0
 21
-531.5
 31
0.0
1001
ACDBBLOCKREPETAG
1070
     1
1071
       55
1005
1244E3
  0
LINE
  5
1244E4
  8
OBJECT
 10
2097.0
 20
-645.0
 30
0.0
 11
2093.0
 21
-640.5
 31
0.0
1001
ACDBBLOCKREPETAG
1070
     1
1071
       56
1005
1244E4
  0
LINE
  5
1244E5
  8
OBJECT
 10
2083.0
 20
-524.0
 30
0.0
 11
2080.0
 21
-524.0
 31
0.0
1001
ACDBBLOCKREPETAG
1070
     1
1071
       57
1005
1244E5
  0
ARC
  5
1244E6
  8
OBJECT
 10
2083.0
 20
-527.0
 30
0.0
 40
3.0
 50
0.0
 51
90.0
1001
ACDBBLOCKREPETAG
1070
     1
1071
       58
1005
1244E6
  0
LINE
  5
1244E7
  8
OBJECT
 10
2080.0
 20
-648.0
 30
0.0
 11
2083.0
 21
-648.0
 31
0.0
1001
ACDBBLOCKREPETAG
1070
     1
1071
       59
1005
1244E7
  0
ARC
  5
1244E8
  8
OBJECT
 10
2083.0
 20
-645.0
 30
0.0
 40
3.0
 50
270.0
 51
0.0
1001
ACDBBLOCKREPETAG
1070
     1
1071
       60
1005
1244E8
  0
LINE
  5
1244E9
  8
OBJECT
 10
2086.0
 20
-645.0
 30
0.0
 11
2086.0
 21
-527.0
 31
0.0
1001
ACDBBLOCKREPETAG
1070
     1
1071
       61
1005
1244E9
  0
LINE
  5
1244EA
  8
HIDDEN
 10
2088.0
 20
-541.5
 30
0.0
 11
2088.0
 21
-630.49999999999977
 31
0.0
1001
ACDBBLOCKREPETAG
1070
     1
1071
       63
1005
1244EA
  0
LINE
  5
1244EB
  8
OBJECT
 10
2133.0
 20
-137.99999999999909
 30
0.0
 11
2140.0
 21
-137.99999999999909
 31
0.0
1001
ACDBBLOCKREPETAG
1070
     1
1071
       47
1005
1244EB
  0
LINE
  5
1244EC
  8
OBJECT
 10
2140.0
 20
-137.99999999999909
 30
0.0
 11
2140.0
 21
-261.99999999999909
 31
0.0
1001
ACDBBLOCKREPETAG
1070
     1
1071
       48
1005
1244EC
  0
LINE
  5
1244ED
  8
OBJECT
 10
2140.0
 20
-261.99999999999909
 30
0.0
 11
2133.0
 21
-261.99999999999909
 31
0.0
1001
ACDBBLOCKREPETAG
1070
     1
1071
       49
1005
1244ED
  0
LINE
  5
1244EE
  8
OBJECT
 10
2133.0
 20
-261.99999999999909
 30
0.0
 11
2133.0
 21
-137.99999999999909
 31
0.0
1001
ACDBBLOCKREPETAG
1070
     1
1071
       50
1005
1244EE
  0
LINE
  5
1244EF
  8
CENTER
 10
2155.0
 20
-199.99999999999909
 30
0.0
 11
2080.0
 21
-199.99999999999909
 31
0.0
1001
ACDBBLOCKREPETAG
1070
     1
1071
       51
1005
1244EF
  0
LINE
  5
1244F0
  8
OBJECT
 10
2133.0
 20
-140.99999999999909
 30
0.0
 11
2097.0
 21
-140.99999999999909
 31
0.0
1001
ACDBBLOCKREPETAG
1070
     1
1071
       52
1005
1244F0
  0
LINE
  5
1244F1
  8
OBJECT
 10
2097.0
 20
-140.99999999999909
 30
0.0
 11
2097.0
 21
-258.99999999999909
 31
0.0
1001
ACDBBLOCKREPETAG
1070
     1
1071
       53
1005
1244F1
  0
LINE
  5
1244F2
  8
OBJECT
 10
2097.0
 20
-258.99999999999909
 30
0.0
 11
2133.0
 21
-258.99999999999909
 31
0.0
1001
ACDBBLOCKREPETAG
1070
     1
1071
       54
1005
1244F2
  0
LINE
  5
1244F3
  8
OBJECT
 10
2093.0
 20
-145.49999999999909
 30
0.0
 11
2086.0
 21
-145.49999999999909
 31
0.0
1001
ACDBBLOCKREPETAG
1070
     1
1071
       55
1005
1244F3
  0
LINE
  5
1244F4
  8
OBJECT
 10
2086.0
 20
-254.49999999999909
 30
0.0
 11
2093.0
 21
-254.49999999999909
 31
0.0
1001
ACDBBLOCKREPETAG
1070
     1
1071
       56
1005
1244F4
  0
LINE
  5
1244F5
  8
OBJECT
 10
2093.0
 20
-254.49999999999909
 30
0.0
 11
2093.0
 21
-145.49999999999909
 31
0.0
1001
ACDBBLOCKREPETAG
1070
     1
1071
       57
1005
1244F5
  0
LINE
  5
1244F6
  8
OBJECT
 10
2097.0
 20
-140.99999999999909
 30
0.0
 11
2093.0
 21
-145.49999999999909
 31
0.0
1001
ACDBBLOCKREPETAG
1070
     1
1071
       58
1005
1244F6
  0
LINE
  5
1244F7
  8
OBJECT
 10
2097.0
 20
-258.99999999999909
 30
0.0
 11
2093.0
 21
-254.49999999999909
 31
0.0
1001
ACDBBLOCKREPETAG
1070
     1
1071
       59
1005
1244F7
  0
LINE
  5
1244F8
  8
OBJECT
 10
2083.0
 20
-137.99999999999909
 30
0.0
 11
2080.0
 21
-137.99999999999909
 31
0.0
1001
ACDBBLOCKREPETAG
1070
     1
1071
       60
1005
1244F8
  0
ARC
  5
1244F9
  8
OBJECT
 10
2083.0
 20
-140.99999999999909
 30
0.0
 40
3.0
 50
0.0
 51
90.0
1001
ACDBBLOCKREPETAG
1070
     1
1071
       61
1005
1244F9
  0
LINE
  5
1244FA
  8
OBJECT
 10
2080.0
 20
-261.99999999999909
 30
0.0
 11
2083.0
 21
-261.99999999999909
 31
0.0
1001
ACDBBLOCKREPETAG
1070
     1
1071
       62
1005
1244FA
  0
ARC
  5
1244FB
  8
OBJECT
 10
2083.0
 20
-258.99999999999909
 30
0.0
 40
3.0
 50
270.0
 51
0.0
1001
ACDBBLOCKREPETAG
1070
     1
1071
       63
1005
1244FB
  0
LINE
  5
1244FC
  8
OBJECT
 10
2086.0
 20
-258.99999999999909
 30
0.0
 11
2086.0
 21
-140.99999999999909
 31
0.0
1001
ACDBBLOCKREPETAG
1070
     1
1071
       64
1005
1244FC
  0
LINE
  5
1244FD
  8
HIDDEN
 10
2088.0
 20
-155.49999999999909
 30
0.0
 11
2088.0
 21
-244.49999999999909
 31
0.0
1001
ACDBBLOCKREPETAG
1070
     1
1071
       65
1005
1244FD
  0
LINE
  5
1244FE
  8
OBJECT
 10
465.00000000012182
 20
-546.00000000000955
 30
0.0
 11
465.00000000012182
 21
-553.00000000000966
 31
0.0
1001
ACDBBLOCKREPETAG
1070
     1
1071
       57
1005
1244FE
  0
LINE
  5
1244FF
  8
OBJECT
 10
465.00000000012182
 20
-553.00000000000966
 30
0.0
 11
615.00000000012176
 21
-553.00000000000966
 31
0.0
1001
ACDBBLOCKREPETAG
1070
     1
1071
       58
1005
1244FF
  0
LINE
  5
124500
  8
OBJECT
 10
468.00000000012182
 20
-594.50000000000966
 30
0.0
 11
612.00000000012164
 21
-594.50000000000966
 31
0.0
1001
ACDBBLOCKREPETAG
1070
     1
1071
       59
1005
124500
  0
LINE
  5
124501
  8
OBJECT
 10
474.5000000001217
 20
-606.00000000000955
 30
0.0
 11
605.50000000012187
 21
-606.00000000000955
 31
0.0
1001
ACDBBLOCKREPETAG
1070
     1
1071
       60
1005
124501
  0
LINE
  5
124502
  8
OBJECT
 10
615.00000000012176
 20
-553.00000000000966
 30
0.0
 11
615.00000000012176
 21
-546.00000000000955
 31
0.0
1001
ACDBBLOCKREPETAG
1070
     1
1071
       61
1005
124502
  0
LINE
  5
124503
  8
OBJECT
 10
615.00000000012176
 20
-546.00000000000955
 30
0.0
 11
465.00000000012182
 21
-546.00000000000955
 31
0.0
1001
ACDBBLOCKREPETAG
1070
     1
1071
       62
1005
124503
  0
LINE
  5
124504
  8
OBJECT
 10
602.00000000012187
 20
-610.00000000000955
 30
0.0
 11
602.00000000012187
 21
-616.00000000000955
 31
0.0
1001
ACDBBLOCKREPETAG
1070
     1
1071
       63
1005
124504
  0
LINE
  5
124505
  8
OBJECT
 10
612.00000000012164
 20
-553.00000000000966
 30
0.0
 11
612.00000000012164
 21
-594.50000000000966
 31
0.0
1001
ACDBBLOCKREPETAG
1070
     1
1071
       64
1005
124505
  0
LINE
  5
124506
  8
OBJECT
 10
612.00000000012164
 20
-594.50000000000966
 30
0.0
 11
605.50000000012187
 21
-606.00000000000955
 31
0.0
1001
ACDBBLOCKREPETAG
1070
     1
1071
       65
1005
124506
  0
LINE
  5
124507
  8
OBJECT
 10
605.50000000012187
 20
-606.00000000000955
 30
0.0
 11
602.00000000012187
 21
-610.00000000000955
 31
0.0
1001
ACDBBLOCKREPETAG
1070
     1
1071
       66
1005
124507
  0
LINE
  5
124508
  8
OBJECT
 10
468.00000000012182
 20
-594.50000000000966
 30
0.0
 11
474.5000000001217
 21
-606.00000000000955
 31
0.0
1001
ACDBBLOCKREPETAG
1070
     1
1071
       67
1005
124508
  0
LINE
  5
124509
  8
OBJECT
 10
474.5000000001217
 20
-606.00000000000955
 30
0.0
 11
478.0000000001217
 21
-610.00000000000955
 31
0.0
1001
ACDBBLOCKREPETAG
1070
     1
1071
       68
1005
124509
  0
ARC
  5
12450A
  8
OBJECT
 10
540.00000000012176
 20
-228.10000000000809
 30
0.0
 40
386.89999999999998
 50
260.77870136257951
 51
279.22129863742049
1001
ACDBBLOCKREPETAG
1070
     1
1071
       69
1005
12450A
  0
LINE
  5
12450B
  8
OBJECT
 10
478.0000000001217
 20
-610.00000000000955
 30
0.0
 11
478.0000000001217
 21
-616.00000000000955
 31
0.0
1001
ACDBBLOCKREPETAG
1070
     1
1071
       70
1005
12450B
  0
LINE
  5
12450C
  8
OBJECT
 10
468.00000000012182
 20
-553.00000000000966
 30
0.0
 11
468.00000000012182
 21
-594.50000000000966
 31
0.0
1001
ACDBBLOCKREPETAG
1070
     1
1071
       71
1005
12450C
  0
INSERT
  5
12450D
  8
OBJECT
  2
*U47
 10
0.0
 20
0.0
 30
0.0
  0
LINE
  5
12450E
  8
HIDDEN
 10
597.00000000012187
 20
-598.00000000000955
 30
0.0
 11
483.0000000001217
 21
-598.00000000000955
 31
0.0
1001
ACDBBLOCKREPETAG
1070
     1
1071
      431
1005
12450E
  0
INSERT
  5
12450F
  8
OBJECT
  2
*U48
 10
0.0
 20
0.0
 30
0.0
  0
LINE
  5
124510
  8
OBJECT
 10
118.00000000004179
 20
-563.00000000000955
 30
0.0
 11
118.00000000004179
 21
-556.00000000000955
 31
0.0
1001
ACDBBLOCKREPETAG
1070
     1
1071
       39
1005
124510
  0
LINE
  5
124511
  8
OBJECT
 10
118.00000000004179
 20
-556.00000000000955
 30
0.0
 11
242.00000000004181
 21
-556.00000000000955
 31
0.0
1001
ACDBBLOCKREPETAG
1070
     1
1071
       40
1005
124511
  0
LINE
  5
124512
  8
OBJECT
 10
242.00000000004181
 20
-556.00000000000955
 30
0.0
 11
242.00000000004181
 21
-563.00000000000955
 31
0.0
1001
ACDBBLOCKREPETAG
1070
     1
1071
       41
1005
124512
  0
LINE
  5
124513
  8
OBJECT
 10
242.00000000004181
 20
-563.00000000000955
 30
0.0
 11
118.00000000004179
 21
-563.00000000000955
 31
0.0
1001
ACDBBLOCKREPETAG
1070
     1
1071
       42
1005
124513
  0
LINE
  5
124514
  8
OBJECT
 10
121.00000000004179
 20
-563.00000000000955
 30
0.0
 11
121.00000000004179
 21
-599.00000000000966
 31
0.0
1001
ACDBBLOCKREPETAG
1070
     1
1071
       43
1005
124514
  0
LINE
  5
124515
  8
OBJECT
 10
121.00000000004179
 20
-599.00000000000966
 30
0.0
 11
239.00000000004181
 21
-599.00000000000966
 31
0.0
1001
ACDBBLOCKREPETAG
1070
     1
1071
       44
1005
124515
  0
LINE
  5
124516
  8
OBJECT
 10
239.00000000004181
 20
-599.00000000000966
 30
0.0
 11
239.00000000004181
 21
-563.00000000000955
 31
0.0
1001
ACDBBLOCKREPETAG
1070
     1
1071
       45
1005
124516
  0
LINE
  5
124517
  8
OBJECT
 10
125.50000000004179
 20
-603.00000000000966
 30
0.0
 11
125.50000000004179
 21
-610.00000000000955
 31
0.0
1001
ACDBBLOCKREPETAG
1070
     1
1071
       46
1005
124517
  0
LINE
  5
124518
  8
OBJECT
 10
234.50000000004181
 20
-610.00000000000955
 30
0.0
 11
234.50000000004181
 21
-603.00000000000966
 31
0.0
1001
ACDBBLOCKREPETAG
1070
     1
1071
       47
1005
124518
  0
LINE
  5
124519
  8
OBJECT
 10
234.50000000004181
 20
-603.00000000000966
 30
0.0
 11
125.50000000004179
 21
-603.00000000000966
 31
0.0
1001
ACDBBLOCKREPETAG
1070
     1
1071
       48
1005
124519
  0
LINE
  5
12451A
  8
OBJECT
 10
121.00000000004179
 20
-599.00000000000966
 30
0.0
 11
125.50000000004179
 21
-603.00000000000966
 31
0.0
1001
ACDBBLOCKREPETAG
1070
     1
1071
       49
1005
12451A
  0
LINE
  5
12451B
  8
OBJECT
 10
239.00000000004181
 20
-599.00000000000966
 30
0.0
 11
234.50000000004181
 21
-603.00000000000966
 31
0.0
1001
ACDBBLOCKREPETAG
1070
     1
1071
       50
1005
12451B
  0
LINE
  5
12451C
  8
OBJECT
 10
118.00000000004179
 20
-613.00000000000864
 30
0.0
 11
118.00000000004179
 21
-616.00000000000955
 31
0.0
1001
ACDBBLOCKREPETAG
1070
     1
1071
       51
1005
12451C
  0
ARC
  5
12451D
  8
OBJECT
 10
121.00000000004179
 20
-613.00000000000864
 30
0.0
 40
3.0
 50
90.0
 51
180.0
1001
ACDBBLOCKREPETAG
1070
     1
1071
       52
1005
12451D
  0
LINE
  5
12451E
  8
OBJECT
 10
242.00000000004181
 20
-616.00000000000955
 30
0.0
 11
242.00000000004181
 21
-613.00000000001035
 31
0.0
1001
ACDBBLOCKREPETAG
1070
     1
1071
       53
1005
12451E
  0
ARC
  5
12451F
  8
OBJECT
 10
239.00000000004181
 20
-613.00000000001035
 30
0.0
 40
3.0
 50
0.0
 51
90.0
1001
ACDBBLOCKREPETAG
1070
     1
1071
       54
1005
12451F
  0
LINE
  5
124520
  8
OBJECT
 10
239.00000000004181
 20
-610.00000000001035
 30
0.0
 11
121.00000000004179
 21
-610.00000000000864
 31
0.0
1001
ACDBBLOCKREPETAG
1070
     1
1071
       55
1005
124520
  0
LINE
  5
124521
  8
HIDDEN
 10
135.50000000004181
 20
-608.00000000000955
 30
0.0
 11
224.50000000004181
 21
-608.00000000000955
 31
0.0
1001
ACDBBLOCKREPETAG
1070
     1
1071
      426
1005
124521
  0
INSERT
  5
124522
  8
OBJECT
  2
*U49
 10
0.0
 20
0.0
 30
0.0
  0
LINE
  5
124523
  8
OBJECT
 10
485.00000000012182
 20
-99.000000000003183
 30
0.0
 11
485.00000000012182
 21
-92.000000000003183
 31
0.0
1001
ACDBBLOCKREPETAG
1070
     1
1071
       20
1005
124523
  0
LINE
  5
124524
  8
OBJECT
 10
485.00000000012182
 20
-92.000000000003183
 30
0.0
 11
595.00000000012164
 21
-92.000000000003183
 31
0.0
1001
ACDBBLOCKREPETAG
1070
     1
1071
       21
1005
124524
  0
LINE
  5
124525
  8
OBJECT
 10
595.00000000012164
 20
-92.000000000003183
 30
0.0
 11
595.00000000012164
 21
-99.000000000003183
 31
0.0
1001
ACDBBLOCKREPETAG
1070
     1
1071
       22
1005
124525
  0
LINE
  5
124526
  8
OBJECT
 10
595.00000000012164
 20
-99.000000000003183
 30
0.0
 11
485.00000000012182
 21
-99.000000000003183
 31
0.0
1001
ACDBBLOCKREPETAG
1070
     1
1071
       23
1005
124526
  0
LINE
  5
124527
  8
OBJECT
 10
488.0000000001217
 20
-99.000000000003183
 30
0.0
 11
488.0000000001217
 21
-135.00000000000321
 31
0.0
1001
ACDBBLOCKREPETAG
1070
     1
1071
       24
1005
124527
  0
LINE
  5
124528
  8
OBJECT
 10
488.0000000001217
 20
-135.00000000000321
 30
0.0
 11
592.00000000012164
 21
-135.00000000000321
 31
0.0
1001
ACDBBLOCKREPETAG
1070
     1
1071
       25
1005
124528
  0
LINE
  5
124529
  8
OBJECT
 10
592.00000000012164
 20
-135.00000000000321
 30
0.0
 11
592.00000000012164
 21
-99.000000000003183
 31
0.0
1001
ACDBBLOCKREPETAG
1070
     1
1071
       26
1005
124529
  0
LINE
  5
12452A
  8
OBJECT
 10
492.5000000001217
 20
-139.00000000000321
 30
0.0
 11
492.5000000001217
 21
-146.00000000000321
 31
0.0
1001
ACDBBLOCKREPETAG
1070
     1
1071
       27
1005
12452A
  0
LINE
  5
12452B
  8
OBJECT
 10
587.50000000012164
 20
-146.00000000000321
 30
0.0
 11
587.50000000012164
 21
-139.00000000000321
 31
0.0
1001
ACDBBLOCKREPETAG
1070
     1
1071
       28
1005
12452B
  0
LINE
  5
12452C
  8
OBJECT
 10
587.50000000012164
 20
-139.00000000000321
 30
0.0
 11
492.5000000001217
 21
-139.00000000000321
 31
0.0
1001
ACDBBLOCKREPETAG
1070
     1
1071
       29
1005
12452C
  0
LINE
  5
12452D
  8
OBJECT
 10
488.0000000001217
 20
-135.00000000000321
 30
0.0
 11
492.5000000001217
 21
-139.00000000000321
 31
0.0
1001
ACDBBLOCKREPETAG
1070
     1
1071
       30
1005
12452D
  0
LINE
  5
12452E
  8
OBJECT
 10
592.00000000012164
 20
-135.00000000000321
 30
0.0
 11
587.50000000012164
 21
-139.00000000000321
 31
0.0
1001
ACDBBLOCKREPETAG
1070
     1
1071
       31
1005
12452E
  0
LINE
  5
12452F
  8
OBJECT
 10
478.0000000001217
 20
-149.0000000000023
 30
0.0
 11
478.0000000001217
 21
-152.0000000000031
 31
0.0
1001
ACDBBLOCKREPETAG
1070
     1
1071
       32
1005
12452F
  0
ARC
  5
124530
  8
OBJECT
 10
481.00000000012182
 20
-149.0000000000023
 30
0.0
 40
3.0
 50
90.0
 51
180.0
1001
ACDBBLOCKREPETAG
1070
     1
1071
       33
1005
124530
  0
LINE
  5
124531
  8
OBJECT
 10
602.00000000012187
 20
-152.0000000000031
 30
0.0
 11
602.00000000012187
 21
-149.00000000000409
 31
0.0
1001
ACDBBLOCKREPETAG
1070
     1
1071
       34
1005
124531
  0
ARC
  5
124532
  8
OBJECT
 10
599.00000000012164
 20
-149.00000000000409
 30
0.0
 40
3.0
 50
0.0
 51
90.0
1001
ACDBBLOCKREPETAG
1070
     1
1071
       35
1005
124532
  0
LINE
  5
124533
  8
OBJECT
 10
599.00000000012164
 20
-146.00000000000409
 30
0.0
 11
481.00000000012182
 21
-146.0000000000023
 31
0.0
1001
ACDBBLOCKREPETAG
1070
     1
1071
       36
1005
124533
  0
LINE
  5
124534
  8
HIDDEN
 10
502.00000000012182
 20
-144.00000000000321
 30
0.0
 11
578.00000000012164
 21
-144.00000000000321
 31
0.0
1001
ACDBBLOCKREPETAG
1070
     1
1071
      423
1005
124534
  0
INSERT
  5
124535
  8
OBJECT
  2
*U50
 10
0.0
 20
0.0
 30
0.0
  0
LINE
  5
124536
  8
OBJECT
 10
133.00000000004169
 20
-99.000000000003183
 30
0.0
 11
133.00000000004169
 21
-92.000000000003183
 31
0.0
1001
ACDBBLOCKREPETAG
1070
     1
1071
        1
1005
124536
  0
LINE
  5
124537
  8
OBJECT
 10
133.00000000004169
 20
-92.000000000003183
 30
0.0
 11
227.00000000004181
 21
-92.000000000003183
 31
0.0
1001
ACDBBLOCKREPETAG
1070
     1
1071
        2
1005
124537
  0
LINE
  5
124538
  8
OBJECT
 10
227.00000000004181
 20
-92.000000000003183
 30
0.0
 11
227.00000000004181
 21
-99.000000000003183
 31
0.0
1001
ACDBBLOCKREPETAG
1070
     1
1071
        3
1005
124538
  0
LINE
  5
124539
  8
OBJECT
 10
227.00000000004181
 20
-99.000000000003183
 30
0.0
 11
133.00000000004169
 21
-99.000000000003183
 31
0.0
1001
ACDBBLOCKREPETAG
1070
     1
1071
        4
1005
124539
  0
LINE
  5
12453A
  8
OBJECT
 10
136.00000000004169
 20
-99.000000000003183
 30
0.0
 11
136.00000000004169
 21
-135.00000000000321
 31
0.0
1001
ACDBBLOCKREPETAG
1070
     1
1071
        5
1005
12453A
  0
LINE
  5
12453B
  8
OBJECT
 10
136.00000000004169
 20
-135.00000000000321
 30
0.0
 11
224.00000000004181
 21
-135.00000000000321
 31
0.0
1001
ACDBBLOCKREPETAG
1070
     1
1071
        6
1005
12453B
  0
LINE
  5
12453C
  8
OBJECT
 10
224.00000000004181
 20
-135.00000000000321
 30
0.0
 11
224.00000000004181
 21
-99.000000000003183
 31
0.0
1001
ACDBBLOCKREPETAG
1070
     1
1071
        7
1005
12453C
  0
LINE
  5
12453D
  8
OBJECT
 10
140.50000000004181
 20
-139.00000000000321
 30
0.0
 11
140.50000000004181
 21
-146.00000000000321
 31
0.0
1001
ACDBBLOCKREPETAG
1070
     1
1071
        8
1005
12453D
  0
LINE
  5
12453E
  8
OBJECT
 10
219.50000000004189
 20
-146.00000000000321
 30
0.0
 11
219.50000000004189
 21
-139.00000000000321
 31
0.0
1001
ACDBBLOCKREPETAG
1070
     1
1071
        9
1005
12453E
  0
LINE
  5
12453F
  8
OBJECT
 10
219.50000000004189
 20
-139.00000000000321
 30
0.0
 11
140.50000000004181
 21
-139.00000000000321
 31
0.0
1001
ACDBBLOCKREPETAG
1070
     1
1071
       10
1005
12453F
  0
LINE
  5
124540
  8
OBJECT
 10
136.00000000004169
 20
-135.00000000000321
 30
0.0
 11
140.50000000004181
 21
-139.00000000000321
 31
0.0
1001
ACDBBLOCKREPETAG
1070
     1
1071
       11
1005
124540
  0
LINE
  5
124541
  8
OBJECT
 10
224.00000000004181
 20
-135.00000000000321
 30
0.0
 11
219.50000000004189
 21
-139.00000000000321
 31
0.0
1001
ACDBBLOCKREPETAG
1070
     1
1071
       12
1005
124541
  0
LINE
  5
124542
  8
OBJECT
 10
118.00000000004179
 20
-149.0000000000023
 30
0.0
 11
118.00000000004179
 21
-152.0000000000031
 31
0.0
1001
ACDBBLOCKREPETAG
1070
     1
1071
       13
1005
124542
  0
ARC
  5
124543
  8
OBJECT
 10
121.00000000004179
 20
-149.0000000000023
 30
0.0
 40
3.0
 50
90.0
 51
180.0
1001
ACDBBLOCKREPETAG
1070
     1
1071
       14
1005
124543
  0
LINE
  5
124544
  8
OBJECT
 10
242.00000000004181
 20
-152.0000000000031
 30
0.0
 11
242.00000000004181
 21
-149.00000000000409
 31
0.0
1001
ACDBBLOCKREPETAG
1070
     1
1071
       15
1005
124544
  0
ARC
  5
124545
  8
OBJECT
 10
239.00000000004181
 20
-149.00000000000409
 30
0.0
 40
3.0
 50
0.0
 51
90.0
1001
ACDBBLOCKREPETAG
1070
     1
1071
       16
1005
124545
  0
LINE
  5
124546
  8
OBJECT
 10
239.00000000004181
 20
-146.00000000000409
 30
0.0
 11
121.00000000004179
 21
-146.0000000000023
 31
0.0
1001
ACDBBLOCKREPETAG
1070
     1
1071
       17
1005
124546
  0
LINE
  5
124547
  8
HIDDEN
 10
150.00000000004181
 20
-144.00000000000321
 30
0.0
 11
210.00000000004181
 21
-144.00000000000321
 31
0.0
1001
ACDBBLOCKREPETAG
1070
     1
1071
      420
1005
124547
  0
POLYLINE
  5
124548
  8
HIDDEN
 66
     1
 10
0.0
 20
0.0
 30
0.0
 70
     1
1001
ACDBBLOCKREPETAG
1070
     1
1071
      105
1005
0
  0
VERTEX
  5
1268BE
  8
HIDDEN
 10
359.99999999987818
 20
0.0
 30
0.0
  0
VERTEX
  5
1268BF
  8
HIDDEN
 10
719.99999999975626
 20
0.0
 30
0.0
  0
VERTEX
  5
1268C0
  8
HIDDEN
 10
719.99999999975626
 20
-463.99999999984158
 30
0.0
  0
VERTEX
  5
1268C1
  8
HIDDEN
 10
359.99999999987818
 20
-463.99999999984158
 30
0.0
  0
SEQEND
  5
1268C2
  8
HIDDEN
  0
POLYLINE
  5
124549
  8
HIDDEN
 66
     1
 10
0.0
 20
0.0
 30
0.0
 70
     1
1001
ACDBBLOCKREPETAG
1070
     1
1071
      110
1005
0
  0
VERTEX
  5
1268C3
  8
HIDDEN
 10
0.0
 20
0.0
 30
0.0
  0
VERTEX
  5
1268C4
  8
HIDDEN
 10
359.99999999987818
 20
0.0
 30
0.0
  0
VERTEX
  5
1268C5
  8
HIDDEN
 10
359.99999999987818
 20
-463.99999999984158
 30
0.0
  0
VERTEX
  5
1268C6
  8
HIDDEN
 10
0.0
 20
-463.99999999984158
 30
0.0
  0
SEQEND
  5
1268C7
  8
HIDDEN
  0
POLYLINE
  5
12454A
  8
HIDDEN
 66
     1
 10
0.0
 20
0.0
 30
0.0
 70
     1
1001
ACDBBLOCKREPETAG
1070
     1
1071
      120
1005
0
  0
VERTEX
  5
1268C8
  8
HIDDEN
 10
359.99999999987818
 20
-463.99999999984158
 30
0.0
  0
VERTEX
  5
1268C9
  8
HIDDEN
 10
719.99999999975626
 20
-463.99999999984158
 30
0.0
  0
VERTEX
  5
1268CA
  8
HIDDEN
 10
719.99999999975626
 20
-927.99999999968372
 30
0.0
  0
VERTEX
  5
1268CB
  8
HIDDEN
 10
359.99999999987818
 20
-927.99999999968372
 30
0.0
  0
SEQEND
  5
1268CC
  8
HIDDEN
  0
POLYLINE
  5
12454B
  8
HIDDEN
 66
     1
 10
0.0
 20
0.0
 30
0.0
 70
     1
1001
ACDBBLOCKREPETAG
1070
     1
1071
      125
1005
0
  0
VERTEX
  5
1268CD
  8
HIDDEN
 10
0.0
 20
-463.99999999984158
 30
0.0
  0
VERTEX
  5
1268CE
  8
HIDDEN
 10
359.99999999987818
 20
-463.99999999984158
 30
0.0
  0
VERTEX
  5
1268CF
  8
HIDDEN
 10
359.99999999987818
 20
-927.99999999968372
 30
0.0
  0
VERTEX
  5
1268D0
  8
HIDDEN
 10
0.0
 20
-927.99999999968372
 30
0.0
  0
SEQEND
  5
1268D1
  8
HIDDEN
  0
TEXT
  5
12454C
  8
SLIM
 10
508.28571428553232
 20
-907.999999999691
 30
0.0
 40
48.0
  1
A4
 41
0.75
1001
ACDBBLOCKREPETAG
1070
     1
1071
      119
1005
F4955
  0
TEXT
  5
12454D
  8
SLIM
 10
149.14285714279711
 20
-907.999999999691
 30
0.0
 40
48.0
  1
A3
 41
0.75
1001
ACDBBLOCKREPETAG
1070
     1
1071
      119
1005
F4955
  0
TEXT
  5
12454E
  8
SLIM
 10
509.1428571426751
 20
-443.99999999984919
 30
0.0
 40
48.0
  1
A2
 41
0.75
1001
ACDBBLOCKREPETAG
1070
     1
1071
      119
1005
F4955
  0
TEXT
  5
12454F
  8
SLIM
 10
156.85714285708281
 20
-443.99999999984919
 30
0.0
 40
48.0
  1
A1
 41
0.75
1001
ACDBBLOCKREPETAG
1070
     1
1071
      119
1005
F4955
  0
TEXT
  5
124550
  8
SLIM
 10
0.0000035665234464
 20
24.000004585317601
 30
0.0
 40
79.999999999972701
  1
枝管バリエーション
 41
0.75
1001
ACDBBLOCKREPETAG
1070
     1
1071
      119
1005
F48AB
  0
TEXT
  5
124551
  8
SLIM
 10
3771.4000000000001
 20
-1430.666666666664
 30
0.0
 40
28.0
  1
※ 対応スラブ厚　180｛150｝～340
 41
0.75
  0
TEXT
  5
124552
  8
SLIM
 10
3733.3000000000011
 20
-1477.333333333331
 30
0.0
 40
28.0
  1
｛｝内はカンペイ立て管との組み合わせの場合
 41
0.75
  0
TEXT
  5
124553
  8
SLIM
 10
3598.9000000000001
 20
-1570.666666666664
 30
0.0
 40
28.0
  1
国土交通大臣認定・（一財）日本消防設備安全センター性能評定取得品
 41
0.75
  0
TEXT
  5
124554
  8
SLIM
 10
3631.1000000000022
 20
-1617.333333333331
 30
0.0
 40
28.0
  1
注）ご採用にあたり、認定書及び評定書の内容をご確認ください。
 41
0.75
  0
TEXT
  5
124555
  8
SLIM
 10
3741.625
 20
-1367.499999999997
 30
0.0
 40
35.0
  1
片受けスタイル（S）＋シンドカット
 41
0.75
  0
TEXT
  5
124556
  8
SLIM
 10
1856.25
 20
-1367.499999999998
 30
0.0
 40
35.0
  1
片受けスタイル（S）
 41
0.75
  0
TEXT
  5
124557
  8
SLIM
 10
0.0
 20
370.0
 30
0.0
 40
100.0
  1
4SHF-AX-S
 41
0.75
  0
VIEWPORT
  5
F6BA7
 67
     1
  8
0
 10
195.9179030619629
 20
101.8328354358673
 30
0.0
 40
435.32876295022521
 41
222.2737448475267
 68
     1
 69
     1
1001
ACAD
1000
MVIEW
1002
{
1070
    16
1010
0.0
1020
0.0
1030
0.0
1010
0.0
1020
0.0
1030
1.0
1040
0.0
1040
222.2737448475267
1040
195.9179030619629
1040
101.8328354358673
1040
50.0
1040
0.0
1040
0.0
1070
     0
1070
     0
1070
     1
1070
     1
1070
     0
1070
     0
1070
     0
1070
     0
1040
0.0
1040
0.0
1040
0.0
1040
10.0
1040
10.0
1040
10.0
1040
10.0
1070
     0
1002
{
1002
}
1002
}
  0
VIEWPORT
  5
F6BA9
 67
     1
  8
OBJECT
 10
145.3303314447403
 20
101.8328338861465
 30
0.0
 40
232.5285303115844
 41
162.93253421783439
 68
     2
 69
     2
1001
ACAD
1000
MVIEW
1002
{
1070
    16
1010
0.0
1020
0.0
1030
0.0
1010
0.0
1020
0.0
1030
1.0
1040
0.0
1040
25942.55904403147
1040
2377.604457077377
1040
-7591.5176687056619
1040
50.0
1040
0.0
1040
0.0
1070
     0
1070
   600
1070
     1
1070
     1
1070
     0
1070
     0
1070
     0
1070
     0
1040
0.0
1040
0.0
1040
0.0
1040
1.0
1040
1.0
1040
0.0
1040
0.0
1070
     0
1002
{
1002
}
1002
}
  0
ENDSEC
  0
EOF
