  0
SECTION
  2
HEADER
  9
$ACADVER
  1
AC1009
  9
$INSBASE
 10
0.0
 20
0.0
 30
0.0
  9
$EXTMIN
 10
0.0
 20
-3697.5000000000009095
 30
0.0
  9
$EXTMAX
 10
12399.7000000000098225
 20
770.0
 30
0.0
  9
$LIMMIN
 10
0.0
 20
0.0
  9
$LIMMAX
 10
210.0
 20
297.0
  9
$ORTHOMODE
 70
     0
  9
$REGENMODE
 70
     1
  9
$FILLMODE
 70
     1
  9
$QTEXTMODE
 70
     0
  9
$MIRRTEXT
 70
     0
  9
$DRAGMODE
 70
     2
  9
$LTSCALE
 40
1.0
  9
$OSMODE
 70
   295
  9
$ATTMODE
 70
     1
  9
$TEXTSIZE
 40
81.7863705736145334
  9
$TRACEWID
 40
0.05
  9
$TEXTSTYLE
  7
STANDARD
  9
$CLAYER
  8
OBJECT
  9
$CELTYPE
  6
BYLAYER
  9
$CECOLOR
 62
   256
  9
$DIMSCALE
 40
10.0
  9
$DIMASZ
 40
2.0
  9
$DIMEXO
 40
1.0
  9
$DIMDLI
 40
10.0
  9
$DIMRND
 40
0.0
  9
$DIMDLE
 40
0.0
  9
$DIMEXE
 40
1.0
  9
$DIMTP
 40
0.0
  9
$DIMTM
 40
0.0
  9
$DIMTXT
 40
3.2000000000000002
  9
$DIMCEN
 40
0.0
  9
$DIMTSZ
 40
0.0
  9
$DIMTOL
 70
     0
  9
$DIMLIM
 70
     0
  9
$DIMTIH
 70
     0
  9
$DIMTOH
 70
     0
  9
$DIMSE1
 70
     0
  9
$DIMSE2
 70
     0
  9
$DIMTAD
 70
     1
  9
$DIMZIN
 70
     8
  9
$DIMBLK
  1
OPEN30
  9
$DIMASO
 70
     1
  9
$DIMSHO
 70
     1
  9
$DIMPOST
  1

  9
$DIMAPOST
  1

  9
$DIMALT
 70
     0
  9
$DIMALTD
 70
     2
  9
$DIMALTF
 40
25.3999999999999986
  9
$DIMLFAC
 40
1.0
  9
$DIMTOFL
 70
     1
  9
$DIMTVP
 40
0.0
  9
$DIMTIX
 70
     0
  9
$DIMSOXD
 70
     0
  9
$DIMSAH
 70
     0
  9
$DIMBLK1
  1

  9
$DIMBLK2
  1

  9
$DIMSTYLE
  2
S10
  9
$DIMCLRD
 70
   256
  9
$DIMCLRE
 70
   256
  9
$DIMCLRT
 70
   256
  9
$DIMTFAC
 40
1.0
  9
$DIMGAP
 40
0.9
  9
$LUNITS
 70
     2
  9
$LUPREC
 70
     2
  9
$SKETCHINC
 40
0.1
  9
$FILLETRAD
 40
0.0
  9
$AUNITS
 70
     0
  9
$AUPREC
 70
     2
  9
$MENU
  1
ACAD
  9
$ELEVATION
 40
0.0
  9
$PELEVATION
 40
0.0
  9
$THICKNESS
 40
0.0
  9
$LIMCHECK
 70
     0
  9
$BLIPMODE
 70
     0
  9
$CHAMFERA
 40
2.0
  9
$CHAMFERB
 40
2.0
  9
$SKPOLY
 70
     0
  9
$TDCREATE
 40
2453095.4929398149251938
  9
$TDUPDATE
 40
2459941.3210185188800097
  9
$TDINDWG
 40
18.6404818865999999
  9
$TDUSRTIMER
 40
18.6404813426000011
  9
$USRTIMER
 70
     1
  9
$ANGBASE
 50
0.0
  9
$ANGDIR
 70
     0
  9
$PDMODE
 70
    35
  9
$PDSIZE
 40
2.0
  9
$PLINEWID
 40
0.0
  9
$COORDS
 70
     1
  9
$SPLFRAME
 70
     0
  9
$SPLINETYPE
 70
     6
  9
$SPLINESEGS
 70
     8
  9
$ATTDIA
 70
     1
  9
$ATTREQ
 70
     1
  9
$HANDLING
 70
     1
  9
$HANDSEED
  5
1494A4
  9
$SURFTAB1
 70
     6
  9
$SURFTAB2
 70
     6
  9
$SURFTYPE
 70
     6
  9
$SURFU
 70
     6
  9
$SURFV
 70
     6
  9
$UCSNAME
  2

  9
$UCSORG
 10
0.0
 20
0.0
 30
0.0
  9
$UCSXDIR
 10
1.0
 20
0.0
 30
0.0
  9
$UCSYDIR
 10
0.0
 20
1.0
 30
0.0
  9
$PUCSNAME
  2

  9
$PUCSORG
 10
0.0
 20
0.0
 30
0.0
  9
$PUCSXDIR
 10
1.0
 20
0.0
 30
0.0
  9
$PUCSYDIR
 10
0.0
 20
1.0
 30
0.0
  9
$USERI1
 70
     0
  9
$USERI2
 70
     0
  9
$USERI3
 70
     0
  9
$USERI4
 70
     0
  9
$USERI5
 70
     0
  9
$USERR1
 40
0.0
  9
$USERR2
 40
0.0
  9
$USERR3
 40
0.0
  9
$USERR4
 40
0.0
  9
$USERR5
 40
0.0
  9
$WORLDVIEW
 70
     1
  9
$SHADEDGE
 70
     3
  9
$SHADEDIF
 70
    70
  9
$TILEMODE
 70
     1
  9
$MAXACTVP
 70
    64
  9
$PLIMCHECK
 70
     0
  9
$PEXTMIN
 10
29.0660662889480506
 20
20.3665667772293091
 30
0.0
  9
$PEXTMAX
 10
261.5945966005324976
 20
183.2991009950638102
 30
0.0
  9
$PLIMMIN
 10
-3.17498779296875
 20
-3.1749999523162842
  9
$PLIMMAX
 10
293.835662841796875
 20
206.8406708240509033
  9
$UNITMODE
 70
     0
  9
$VISRETAIN
 70
     1
  9
$PLINEGEN
 70
     0
  9
$PSLTSCALE
 70
     1
  0
ENDSEC
  0
SECTION
  2
TABLES
  0
TABLE
  2
VPORT
 70
     1
  0
VPORT
  2
*ACTIVE
 70
     0
 10
0.0
 20
0.0
 11
1.0
 21
1.0
 12
10131.4199668519795523
 22
-743.9442868654514314
 13
0.0
 23
0.0
 14
1.0
 24
1.0
 15
0.0
 25
0.0
 16
0.0
 26
0.0
 36
1.0
 17
0.0
 27
0.0
 37
0.0
 40
3155.047312902766862
 41
2.1135135135135128
 42
50.0
 43
0.0
 44
0.0
 50
0.0
 51
0.0
 71
     0
 72
   600
 73
     1
 74
     1
 75
     0
 76
     0
 77
     0
 78
     0
  0
ENDTAB
  0
TABLE
  2
LTYPE
 70
     5
  0
LTYPE
  2
CONTINUOUS
 70
     0
  3
Solid line
 72
    65
 73
     0
 40
0.0
  0
LTYPE
  2
ACAD_ISO08W100
 70
     0
  3
ISO long-dash short-dash ____ __ ____ __ ____ _
 72
    65
 73
     4
 40
36.0
 49
24.0
 49
-3.0
 49
6.0
 49
-3.0
  0
LTYPE
  2
ACAD_ISO02W100
 70
     0
  3
ISO dash __ __ __ __ __ __ __ __ __ __ __ __ __
 72
    65
 73
     2
 40
15.0
 49
12.0
 49
-3.0
  0
ENDTAB
  0
TABLE
  2
LAYER
 70
     8
  0
LAYER
  2
0
 70
     0
 62
     7
  6
CONTINUOUS
  0
LAYER
  2
OBJECT
 70
     0
 62
     4
  6
CONTINUOUS
  0
LAYER
  2
DEFPOINTS
 70
     0
 62
     7
  6
CONTINUOUS
  0
LAYER
  2
DIM
 70
     0
 62
     7
  6
CONTINUOUS
  0
LAYER
  2
HIDDEN
 70
     0
 62
     2
  6
ACAD_ISO02W100
  0
LAYER
  2
CENTER
 70
     0
 62
     2
  6
ACAD_ISO08W100
  0
LAYER
  2
DOTS
 70
     0
 62
     1
  6
CONTINUOUS
  0
LAYER
  2
SLIM
 70
     0
 62
     2
  6
CONTINUOUS
  0
ENDTAB
  0
TABLE
  2
STYLE
 70
     2
  0
STYLE
  2
STANDARD
 70
     0
 40
0.0
 41
0.75
 50
0.0
 71
     0
 42
81.7863705736145334
  3
simplex.shx
  4
bigfont.shx
  0
STYLE
  2
ANNOTATIVE
 70
     0
 40
0.0
 41
1.0
 50
0.0
 71
     0
 42
0.2
  3
txt
  4

  0
ENDTAB
  0
TABLE
  2
VIEW
 70
     0
  0
ENDTAB
  0
TABLE
  2
UCS
 70
     0
  0
ENDTAB
  0
TABLE
  2
APPID
 70
    19
  0
APPID
  2
ACAD
 70
     0
  0
APPID
  2
ACADANNOTATIVE
 70
     0
  0
APPID
  2
ACAD_PSEXT
 70
     0
  0
APPID
  2
ACAD_EXEMPT_FROM_CAD_STANDARDS
 70
     0
  0
APPID
  2
ACAECLAYERSTANDARD
 70
     0
  0
APPID
  2
ACAUTHENVIRON
 70
     0
  0
APPID
  2
ACDBDYNAMICBLOCKTRUENAME
 70
     0
  0
APPID
  2
ACDBDYNAMICBLOCKGUID
 70
     0
  0
APPID
  2
ACDBBLOCKREPETAG
 70
     0
  0
APPID
  2
ACDBBLOCKREPBTAG
 70
     0
  0
APPID
  2
ACAD_NAV_VCDISPLAY
 70
     0
  0
APPID
  2
ACAD_DSTYLE_DIMRADIAL_EXTENSION
 70
     0
  0
APPID
  2
ACAD_DSTYLE_DIMJAG
 70
     0
  0
APPID
  2
ACAD_DSTYLE_DIMTALN
 70
     0
  0
APPID
  2
ACADANNOPO
 70
     0
  0
APPID
  2
GRADIENTCOLOR1ACI
 70
     0
  0
APPID
  2
GRADIENTCOLOR2ACI
 70
     0
  0
APPID
  2
ACADANNOMONITORALERTICONDI
 70
     0
  0
APPID
  2
ACAD_MLEADERVER
 70
     0
  0
ENDTAB
  0
TABLE
  2
DIMSTYLE
 70
     4
  0
DIMSTYLE
  2
STANDARD
 70
     0
  3

  4

  5

  6

  7

 40
1.0
 41
0.18
 42
0.0625
 43
0.38
 44
0.18
 45
0.0
 46
0.0
 47
0.0
 48
0.0
140
0.18
141
0.09
142
0.0
143
25.3999999999999986
144
1.0
145
0.0
146
1.0
147
0.09
 71
     0
 72
     0
 73
     1
 74
     1
 75
     0
 76
     0
 77
     0
 78
     0
170
     0
171
     2
172
     0
173
     0
174
     0
175
     0
176
     0
177
     0
178
     0
  0
DIMSTYLE
  2
ANNOTATIVE
 70
     0
  3

  4

  5

  6

  7

 40
1.0
 41
0.18
 42
0.0625
 43
0.38
 44
0.18
 45
0.0
 46
0.0
 47
0.0
 48
0.0
140
0.18
141
0.09
142
0.0
143
25.3999999999999986
144
1.0
145
0.0
146
1.0
147
0.09
 71
     0
 72
     0
 73
     1
 74
     1
 75
     0
 76
     0
 77
     0
 78
     0
170
     0
171
     2
172
     0
173
     0
174
     0
175
     0
176
     0
177
     0
178
     0
  0
DIMSTYLE
  2
S10
 70
     0
  3

  4

  5

  6

  7

 40
10.0
 41
2.0
 42
1.0
 43
10.0
 44
1.0
 45
0.0
 46
0.0
 47
0.0
 48
0.0
140
3.2000000000000002
141
0.0
142
0.0
143
25.3999999999999986
144
1.0
145
0.0
146
1.0
147
0.9
 71
     0
 72
     0
 73
     0
 74
     0
 75
     0
 76
     0
 77
     1
 78
     8
170
     0
171
     2
172
     1
173
     0
174
     0
175
     0
176
   256
177
   256
178
   256
  0
ENDTAB
  0
ENDSEC
  0
SECTION
  2
BLOCKS
  0
BLOCK
  8
0
  2
$MODEL_SPACE
 70
     0
 10
0.0
 20
0.0
 30
0.0
  3
$MODEL_SPACE
  1

  0
ENDBLK
  5
14939C
  8
0
  0
BLOCK
 67
     1
  8
0
  2
$PAPER_SPACE
 70
     0
 10
0.0
 20
0.0
 30
0.0
  3
$PAPER_SPACE
  1

  0
ENDBLK
  5
149398
 67
     1
  8
0
  0
BLOCK
  8
0
  2
_OPEN30
 70
     0
 10
0.0
 20
0.0
 30
0.0
  3
_OPEN30
  1

  0
LINE
  5
202
  8
0
  6
BYBLOCK
 62
     0
 10
-1.0
 20
0.26794919
 30
0.0
 11
0.0
 21
0.0
 31
0.0
  0
LINE
  5
203
  8
0
  6
BYBLOCK
 62
     0
 10
0.0
 20
0.0
 30
0.0
 11
-1.0
 21
-0.26794919
 31
0.0
  0
LINE
  5
204
  8
0
  6
BYBLOCK
 62
     0
 10
0.0
 20
0.0
 30
0.0
 11
-1.0
 21
0.0
 31
0.0
  0
ENDBLK
  5
206
  8
0
  0
BLOCK
  8
0
  2
*U3
 70
     1
 10
0.0
 20
0.0
 30
0.0
  3
*U3
  1

  0
TEXT
  5
149136
  8
DIM
 10
2130.8571428571390243
 20
-3344.9596942694829522
 30
0.0
 40
32.0
  1
A
 41
0.75
  0
ENDBLK
  5
149138
  8
0
  0
BLOCK
  8
0
  2
*U4
 70
     1
 10
0.0
 20
0.0
 30
0.0
  3
*U4
  1

  0
TEXT
  5
14913A
  8
DIM
 10
2086.0714285714279868
 20
-2971.5561980522920749
 30
0.0
 40
32.0
  1
E
 41
0.75
  0
ENDBLK
  5
14913C
  8
0
  0
BLOCK
  8
0
  2
*U5
 70
     1
 10
0.0
 20
0.0
 30
0.0
  3
*U5
  1

  0
TEXT
  5
14913E
  8
DIM
 10
2062.5714285714298057
 20
-3037.3619769402162092
 30
0.0
 40
32.0
  1
F
 41
0.75
  0
ENDBLK
  5
149140
  8
0
  0
BLOCK
  8
0
  2
*U6
 70
     1
 10
0.0
 20
0.0
 30
0.0
  3
*U6
  1

  0
TEXT
  5
149142
  8
DIM
 10
2253.6903592692679013
 20
-3232.9999999999968168
 30
0.0
 40
32.0
  1
D
 50
90.0
 41
0.75
  0
ENDBLK
  5
149144
  8
0
  0
BLOCK
  8
0
  2
*U7
 70
     1
 10
0.0
 20
0.0
 30
0.0
  3
*U7
  1

  0
TEXT
  5
149146
  8
DIM
 10
2243.6360868796750765
 20
-3565.9999999999968168
 30
0.0
 40
32.0
  1
B
 50
90.0
 41
0.75
  0
ENDBLK
  5
149148
  8
0
  0
BLOCK
  8
0
  2
*U8
 70
     1
 10
0.0
 20
0.0
 30
0.0
  3
*U8
  1

  0
TEXT
  5
14914A
  8
SLIM
 10
237.0000000006112089
 20
-533.8095238095171453
 30
0.0
 40
26.0
  1
75L
 50
270.0
  0
ENDBLK
  5
14914C
  8
0
  0
BLOCK
  8
0
  2
*U9
 70
     1
 10
0.0
 20
0.0
 30
0.0
  3
*U9
  1

  0
TEXT
  5
14914E
  8
SLIM
 10
587.0000000006911023
 20
-79.8095238095108641
 30
0.0
 40
26.0
  1
65L
 50
270.0
  0
ENDBLK
  5
149150
  8
0
  0
BLOCK
  8
0
  2
*U10
 70
     1
 10
0.0
 20
0.0
 30
0.0
  3
*U10
  1

  0
TEXT
  5
149152
  8
SLIM
 10
227.0000000006112089
 20
-79.8095238095108641
 30
0.0
 40
26.0
  1
50L
 50
270.0
  0
ENDBLK
  5
149154
  8
0
  0
ENDSEC
  0
SECTION
  2
ENTITIES
  0
LINE
  5
13A2FF
  8
SLIM
 10
2600.0
 20
-2734.9999999999959073
 30
0.0
 11
2600.0
 21
-3204.9999999999959073
 31
0.0
  0
LINE
  5
13A300
  8
SLIM
 10
2724.0
 20
-2734.9999999999959073
 30
0.0
 11
2724.0
 21
-3204.9999999999959073
 31
0.0
  0
LINE
  5
13A301
  8
SLIM
 10
2854.0
 20
-2794.9999999999959073
 30
0.0
 11
2854.0
 21
-3204.9999999999959073
 31
0.0
  0
LINE
  5
13A302
  8
SLIM
 10
2984.0
 20
-2794.9999999999959073
 30
0.0
 11
2984.0
 21
-3204.9999999999959073
 31
0.0
  0
LINE
  5
13A303
  8
SLIM
 10
3114.0
 20
-3204.9999999999959073
 30
0.0
 11
3114.0
 21
-2794.9999999999959073
 31
0.0
  0
LINE
  5
13A304
  8
SLIM
 10
3244.0
 20
-3204.9999999999959073
 30
0.0
 11
3244.0
 21
-2734.9999999999959073
 31
0.0
  0
LINE
  5
13A305
  8
SLIM
 10
3244.0
 20
-2734.9999999999959073
 30
0.0
 11
2600.0
 21
-2734.9999999999959073
 31
0.0
  0
LINE
  5
13A306
  8
SLIM
 10
3244.0
 20
-2794.9999999999959073
 30
0.0
 11
2724.0
 21
-2794.9999999999959073
 31
0.0
  0
LINE
  5
13A307
  8
SLIM
 10
3244.0
 20
-2854.9999999999949978
 30
0.0
 11
2600.0
 21
-2854.9999999999949978
 31
0.0
  0
LINE
  5
13A308
  8
SLIM
 10
3244.0
 20
-2924.9999999999949978
 30
0.0
 11
2600.0
 21
-2924.9999999999949978
 31
0.0
  0
LINE
  5
13A30A
  8
SLIM
 10
3244.0
 20
-2994.9999999999959073
 30
0.0
 11
2600.0
 21
-2994.9999999999959073
 31
0.0
  0
LINE
  5
13A31F
  8
SLIM
 10
2724.0
 20
-2854.9999999999949978
 30
0.0
 11
2599.9999722746579209
 21
-2734.9999839527267795
 31
0.0
  0
LINE
  5
13A320
  8
SLIM
 10
3244.0
 20
-3064.9999999999959073
 30
0.0
 11
2600.0
 21
-3064.9999999999959073
 31
0.0
  0
LINE
  5
13A325
  8
SLIM
 10
3244.0
 20
-3134.9999999999959073
 30
0.0
 11
2600.0
 21
-3134.9999999999959073
 31
0.0
  0
LINE
  5
13A32A
  8
SLIM
 10
3244.0
 20
-3204.9999999999959073
 30
0.0
 11
2600.0
 21
-3204.9999999999959073
 31
0.0
  0
LINE
  5
13A32F
  8
SLIM
 10
3244.0
 20
-3064.9999999999959073
 30
0.0
 11
3114.0
 21
-2994.9999999999959073
 31
0.0
  0
LINE
  5
13A330
  8
SLIM
 10
3244.0
 20
-3134.9999999999959073
 30
0.0
 11
3114.0
 21
-3064.9999999999959073
 31
0.0
  0
LINE
  5
13A331
  8
SLIM
 10
3244.0
 20
-3204.9999999999959073
 30
0.0
 11
3114.0
 21
-3134.9999999999959073
 31
0.0
  0
TEXT
  5
13F2E7
  8
SLIM
 10
139.7142857142929984
 20
-908.0
 30
0.0
 40
48.0
  1
JL3
 41
0.75
 72
     4
 11
180.0000000000073044
 21
-884.0
 31
0.0
  0
TEXT
  5
13F2EB
  8
SLIM
 10
499.7142857142929984
 20
-444.0
 30
0.0
 40
48.0
  1
JL2
 41
0.75
 72
     4
 11
540.000000000007276
 21
-420.0
 31
0.0
  0
TEXT
  5
13F2EC
  8
SLIM
 10
147.4285714285786923
 20
-444.0
 30
0.0
 40
48.0
  1
JL1
 41
0.75
 72
     4
 11
180.0000000000073044
 21
-420.0
 31
0.0
  0
ARC
  5
14896E
  8
OBJECT
 10
2400.0
 20
-3520.9999999999968168
 30
0.0
 40
62.0
 50
231.467789145387286
 51
153.7433895902769052
1001
ACDBBLOCKREPETAG
1070
     1
1071
      113
1005
14896E
  0
LINE
  5
14896F
  8
CENTER
 10
2285.0
 20
-3535.9999999999968168
 30
0.0
 11
2448.5000036366400309
 21
-3535.9999999999968168
 31
0.0
1001
ACDBBLOCKREPETAG
1070
     1
1071
      114
1005
14896F
  0
LINE
  5
148970
  8
OBJECT
 10
2307.0
 20
-3488.9999999999968168
 30
0.0
 11
2300.0
 21
-3488.9999999999968168
 31
0.0
1001
ACDBBLOCKREPETAG
1070
     1
1071
      115
1005
148970
  0
LINE
  5
148971
  8
OBJECT
 10
2300.0
 20
-3488.9999999999968168
 30
0.0
 11
2300.0
 21
-3579.999999999998181
 31
0.0
1001
ACDBBLOCKREPETAG
1070
     1
1071
      116
1005
148971
  0
LINE
  5
148972
  8
OBJECT
 10
2307.0
 20
-3579.999999999998181
 30
0.0
 11
2307.0
 21
-3488.9999999999968168
 31
0.0
1001
ACDBBLOCKREPETAG
1070
     1
1071
      118
1005
148972
  0
LINE
  5
148973
  8
OBJECT
 10
2307.0
 20
-3491.9999999999968168
 30
0.0
 11
2342.9999999999990905
 21
-3491.9999999999968168
 31
0.0
1001
ACDBBLOCKREPETAG
1070
     1
1071
      119
1005
148973
  0
LINE
  5
148974
  8
OBJECT
 10
2342.9999999999990905
 20
-3491.9999999999968168
 30
0.0
 11
2342.9999999999990905
 21
-3579.999999999998181
 31
0.0
1001
ACDBBLOCKREPETAG
1070
     1
1071
      120
1005
148974
  0
LINE
  5
148975
  8
OBJECT
 10
2346.9999999999990905
 20
-3496.4999999999968168
 30
0.0
 11
2359.9999999999990905
 21
-3496.4999999999968168
 31
0.0
1001
ACDBBLOCKREPETAG
1070
     1
1071
      121
1005
148975
  0
LINE
  5
148976
  8
OBJECT
 10
2342.9999999999990905
 20
-3579.999999999998181
 30
0.0
 11
2300.0
 21
-3579.999999999998181
 31
0.0
1001
ACDBBLOCKREPETAG
1070
     1
1071
      122
1005
148976
  0
LINE
  5
148977
  8
OBJECT
 10
2359.9999999999990905
 20
-3575.499999999998181
 30
0.0
 11
2346.9999999999990905
 21
-3575.499999999998181
 31
0.0
1001
ACDBBLOCKREPETAG
1070
     1
1071
      123
1005
148977
  0
LINE
  5
148978
  8
OBJECT
 10
2346.9999999999990905
 20
-3575.499999999998181
 30
0.0
 11
2346.9999999999990905
 21
-3496.4999999999968168
 31
0.0
1001
ACDBBLOCKREPETAG
1070
     1
1071
      124
1005
148978
  0
LINE
  5
148979
  8
OBJECT
 10
2342.9999999999990905
 20
-3491.9999999999968168
 30
0.0
 11
2346.9999999999990905
 21
-3496.4999999999968168
 31
0.0
1001
ACDBBLOCKREPETAG
1070
     1
1071
      125
1005
148979
  0
LINE
  5
14897A
  8
HIDDEN
 10
2352.0
 20
-3505.999999999998181
 30
0.0
 11
2352.0
 21
-3565.999999999998181
 31
0.0
1001
ACDBBLOCKREPETAG
1070
     1
1071
      126
1005
14897A
  0
LINE
  5
14897B
  8
OBJECT
 10
2342.9999999999990905
 20
-3579.999999999998181
 30
0.0
 11
2346.9999999999990905
 21
-3575.499999999998181
 31
0.0
1001
ACDBBLOCKREPETAG
1070
     1
1071
      127
1005
14897B
  0
LINE
  5
14897C
  8
OBJECT
 10
2360.0000356160157935
 20
-3502.4999999999968168
 30
0.0
 11
2400.0000036366400309
 21
-3502.4999999999968168
 31
0.0
1001
ACDBBLOCKREPETAG
1070
     1
1071
      128
1005
14897C
  0
LINE
  5
14897D
  8
OBJECT
 10
2360.0000356160157935
 20
-3575.5000004705839274
 30
0.0
 11
2360.0000356160157935
 21
-3496.5000004705848369
 31
0.0
1001
ACDBBLOCKREPETAG
1070
     1
1071
      129
1005
14897D
  0
LINE
  5
14897E
  8
OBJECT
 10
2360.0000356160157935
 20
-3569.4999999999968168
 30
0.0
 11
2400.0000036366400309
 21
-3569.4999999999968168
 31
0.0
1001
ACDBBLOCKREPETAG
1070
     1
1071
      130
1005
14897E
  0
ARC
  5
14897F
  8
OBJECT
 10
2400.0000036366400309
 20
-3535.9999999999968168
 30
0.0
 40
33.5
 50
270.0
 51
90.0
1001
ACDBBLOCKREPETAG
1070
     1
1071
      131
1005
14897F
  0
LINE
  5
14898E
  8
OBJECT
 10
2323.0
 20
-3395.9999999999968168
 30
0.0
 11
2323.0
 21
-3374.9999999999968168
 31
0.0
1001
ACDBBLOCKREPETAG
1070
     1
1071
       20
1005
14898E
  0
LINE
  5
14898F
  8
OBJECT
 10
2323.0
 20
-3374.9999999999968168
 30
0.0
 11
2477.0
 21
-3374.9999999999968168
 31
0.0
1001
ACDBBLOCKREPETAG
1070
     1
1071
       21
1005
14898F
  0
LINE
  5
148990
  8
HIDDEN
 10
2342.9999999999990905
 20
-3444.999999999998181
 30
0.0
 11
2457.0
 21
-3444.999999999998181
 31
0.0
1001
ACDBBLOCKREPETAG
1070
     1
1071
       22
1005
148990
  0
LINE
  5
148991
  8
OBJECT
 10
2477.0
 20
-3374.9999999999968168
 30
0.0
 11
2477.0
 21
-3395.9999999999968168
 31
0.0
1001
ACDBBLOCKREPETAG
1070
     1
1071
       23
1005
148991
  0
LINE
  5
148992
  8
OBJECT
 10
2477.0
 20
-3395.9999999999968168
 30
0.0
 11
2323.0
 21
-3395.9999999999968168
 31
0.0
1001
ACDBBLOCKREPETAG
1070
     1
1071
       24
1005
148992
  0
LINE
  5
148993
  8
CENTER
 10
2400.0
 20
-3359.999999999998181
 30
0.0
 11
2400.0
 21
-3594.9999999999968168
 31
0.0
1001
ACDBBLOCKREPETAG
1070
     1
1071
       25
1005
148993
  0
LINE
  5
148994
  8
OBJECT
 10
2325.0
 20
-3458.999999999998181
 30
0.0
 11
2325.0
 21
-3491.9999999999968168
 31
0.0
1001
ACDBBLOCKREPETAG
1070
     1
1071
       26
1005
148994
  0
LINE
  5
148995
  8
OBJECT
 10
2325.0
 20
-3579.999999999998181
 30
0.0
 11
2325.0
 21
-3582.999999999998181
 31
0.0
1001
ACDBBLOCKREPETAG
1070
     1
1071
       26
1005
148994
  0
LINE
  5
148996
  8
OBJECT
 10
2328.0
 20
-3395.9999999999968168
 30
0.0
 11
2328.0
 21
-3458.999999999998181
 31
0.0
1001
ACDBBLOCKREPETAG
1070
     1
1071
       27
1005
148996
  0
LINE
  5
148997
  8
OBJECT
 10
2471.9999999999990905
 20
-3458.999999999998181
 30
0.0
 11
2471.9999999999990905
 21
-3395.9999999999968168
 31
0.0
1001
ACDBBLOCKREPETAG
1070
     1
1071
       28
1005
148997
  0
LINE
  5
148998
  8
OBJECT
 10
2475.0
 20
-3458.999999999998181
 30
0.0
 11
2325.0
 21
-3458.999999999998181
 31
0.0
1001
ACDBBLOCKREPETAG
1070
     1
1071
       30
1005
148998
  0
LINE
  5
148999
  8
OBJECT
 10
2475.0
 20
-3458.999999999998181
 30
0.0
 11
2475.0
 21
-3582.999999999998181
 31
0.0
1001
ACDBBLOCKREPETAG
1070
     1
1071
       34
1005
148999
  0
POINT
  5
14899A
  8
DOTS
 10
2400.0
 20
-3579.999999999998181
 30
0.0
1001
ACDBBLOCKREPETAG
1070
     1
1071
      187
1005
14899A
  0
LINE
  5
14899B
  8
OBJECT
 10
2877.0
 20
-3395.9999999999968168
 30
0.0
 11
2877.0
 21
-3374.9999999999968168
 31
0.0
1001
ACDBBLOCKREPETAG
1070
     1
1071
        0
1005
14899B
  0
LINE
  5
14899C
  8
OBJECT
 10
2877.0
 20
-3374.9999999999968168
 30
0.0
 11
2723.0
 21
-3374.9999999999968168
 31
0.0
1001
ACDBBLOCKREPETAG
1070
     1
1071
        1
1005
14899C
  0
LINE
  5
14899D
  8
HIDDEN
 10
2857.0
 20
-3444.999999999998181
 30
0.0
 11
2743.0
 21
-3444.999999999998181
 31
0.0
1001
ACDBBLOCKREPETAG
1070
     1
1071
        2
1005
14899D
  0
LINE
  5
14899E
  8
OBJECT
 10
2723.0
 20
-3374.9999999999968168
 30
0.0
 11
2723.0
 21
-3395.9999999999968168
 31
0.0
1001
ACDBBLOCKREPETAG
1070
     1
1071
        3
1005
14899E
  0
LINE
  5
14899F
  8
OBJECT
 10
2723.0
 20
-3395.9999999999968168
 30
0.0
 11
2877.0
 21
-3395.9999999999968168
 31
0.0
1001
ACDBBLOCKREPETAG
1070
     1
1071
        4
1005
14899F
  0
LINE
  5
1489A0
  8
CENTER
 10
2800.0
 20
-3359.999999999998181
 30
0.0
 11
2800.0
 21
-3594.9999999999968168
 31
0.0
1001
ACDBBLOCKREPETAG
1070
     1
1071
        5
1005
1489A0
  0
LINE
  5
1489A1
  8
OBJECT
 10
2875.0
 20
-3458.999999999998181
 30
0.0
 11
2875.0
 21
-3582.999999999998181
 31
0.0
1001
ACDBBLOCKREPETAG
1070
     1
1071
        6
1005
1489A1
  0
LINE
  5
1489A2
  8
OBJECT
 10
2872.0
 20
-3395.9999999999968168
 30
0.0
 11
2872.0
 21
-3458.999999999998181
 31
0.0
1001
ACDBBLOCKREPETAG
1070
     1
1071
        7
1005
1489A2
  0
LINE
  5
1489A3
  8
OBJECT
 10
2728.0
 20
-3458.999999999998181
 30
0.0
 11
2728.0
 21
-3395.9999999999968168
 31
0.0
1001
ACDBBLOCKREPETAG
1070
     1
1071
        8
1005
1489A3
  0
LINE
  5
1489A4
  8
OBJECT
 10
2725.0000000002000888
 20
-3582.9999999997749001
 30
0.0
 11
2720.0
 21
-3582.999999999998181
 31
0.0
1001
ACDBBLOCKREPETAG
1070
     1
1071
        9
1005
1489A4
  0
LINE
  5
1489A5
  8
OBJECT
 10
2720.0
 20
-3458.999999999998181
 30
0.0
 11
2875.0
 21
-3458.999999999998181
 31
0.0
1001
ACDBBLOCKREPETAG
1070
     1
1071
       10
1005
1489A5
  0
ARC
  5
1489A6
  8
OBJECT
 10
2599.3127253283269056
 20
-3574.4080994101050237
 30
0.0
 40
170.6350503965855978
 50
30.0805041866399812
 51
42.558655408156973
1001
ACDBBLOCKREPETAG
1070
     1
1071
       15
1005
1489A6
  0
ARC
  5
1489A7
  8
OBJECT
 10
2681.154401295948901
 20
-3530.8827266953621802
 30
0.0
 40
78.0722220217636647
 50
15.3363400228104698
 51
32.5448468961956294
1001
ACDBBLOCKREPETAG
1070
     1
1071
       16
1005
1489A7
  0
ARC
  5
1489A8
  8
OBJECT
 10
2714.2445650391268828
 20
-3520.9999999999968168
 30
0.0
 40
43.5535392688561771
 50
345.6884523008477004
 51
14.3115476991522801
1001
ACDBBLOCKREPETAG
1070
     1
1071
       17
1005
1489A8
  0
ARC
  5
1489A9
  8
OBJECT
 10
2599.3127253283269056
 20
-3467.5919005898899741
 30
0.0
 40
170.6350503965855978
 50
317.4413445918430057
 51
329.9194958133600153
1001
ACDBBLOCKREPETAG
1070
     1
1071
       18
1005
1489A9
  0
ARC
  5
1489AA
  8
OBJECT
 10
2681.154401295948901
 20
-3511.1172733046328176
 30
0.0
 40
78.0722220217636647
 50
327.4551531038043777
 51
344.6636599771895249
1001
ACDBBLOCKREPETAG
1070
     1
1071
       19
1005
1489AA
  0
POINT
  5
1489AB
  8
DOTS
 10
2800.0
 20
-3579.999999999998181
 30
0.0
 50
180.0
1001
ACDBBLOCKREPETAG
1070
     1
1071
      186
1005
1489AB
  0
LINE
  5
1489AD
  8
OBJECT
 10
1825.0
 20
-3579.999999999998181
 30
0.0
 11
5975.0
 21
-3579.999999999998181
 31
0.0
  0
LINE
  5
1489CA
  8
OBJECT
 10
4377.0
 20
-3395.9999999999968168
 30
0.0
 11
4377.0
 21
-3374.9999999999968168
 31
0.0
1001
ACDBBLOCKREPETAG
1070
     1
1071
        0
1005
14899B
  0
LINE
  5
1489CB
  8
OBJECT
 10
4377.0
 20
-3374.9999999999968168
 30
0.0
 11
4223.0
 21
-3374.9999999999968168
 31
0.0
1001
ACDBBLOCKREPETAG
1070
     1
1071
        1
1005
14899C
  0
LINE
  5
1489CC
  8
HIDDEN
 10
4357.0
 20
-3444.999999999998181
 30
0.0
 11
4243.0
 21
-3444.999999999998181
 31
0.0
1001
ACDBBLOCKREPETAG
1070
     1
1071
        2
1005
14899D
  0
LINE
  5
1489CD
  8
OBJECT
 10
4223.0
 20
-3374.9999999999968168
 30
0.0
 11
4223.0
 21
-3395.9999999999968168
 31
0.0
1001
ACDBBLOCKREPETAG
1070
     1
1071
        3
1005
14899E
  0
LINE
  5
1489CE
  8
OBJECT
 10
4223.0
 20
-3395.9999999999968168
 30
0.0
 11
4377.0
 21
-3395.9999999999968168
 31
0.0
1001
ACDBBLOCKREPETAG
1070
     1
1071
        4
1005
14899F
  0
LINE
  5
1489CF
  8
CENTER
 10
4300.0
 20
-3359.999999999998181
 30
0.0
 11
4300.0
 21
-3594.9999999999968168
 31
0.0
1001
ACDBBLOCKREPETAG
1070
     1
1071
        5
1005
1489A0
  0
LINE
  5
1489D0
  8
OBJECT
 10
4375.0
 20
-3458.999999999998181
 30
0.0
 11
4375.0
 21
-3582.999999999998181
 31
0.0
1001
ACDBBLOCKREPETAG
1070
     1
1071
        6
1005
1489A1
  0
LINE
  5
1489D1
  8
OBJECT
 10
4372.0
 20
-3395.9999999999968168
 30
0.0
 11
4372.0
 21
-3458.999999999998181
 31
0.0
1001
ACDBBLOCKREPETAG
1070
     1
1071
        7
1005
1489A2
  0
LINE
  5
1489D2
  8
OBJECT
 10
4228.0
 20
-3458.999999999998181
 30
0.0
 11
4228.0
 21
-3395.9999999999968168
 31
0.0
1001
ACDBBLOCKREPETAG
1070
     1
1071
        8
1005
1489A3
  0
LINE
  5
1489D3
  8
OBJECT
 10
4225.0000000002000888
 20
-3582.9999999997749001
 30
0.0
 11
4220.0
 21
-3582.999999999998181
 31
0.0
1001
ACDBBLOCKREPETAG
1070
     1
1071
        9
1005
1489A4
  0
LINE
  5
1489D4
  8
OBJECT
 10
4220.0
 20
-3458.999999999998181
 30
0.0
 11
4375.0
 21
-3458.999999999998181
 31
0.0
1001
ACDBBLOCKREPETAG
1070
     1
1071
       10
1005
1489A5
  0
ARC
  5
1489D5
  8
OBJECT
 10
4099.3127253283273603
 20
-3574.4080994101050237
 30
0.0
 40
170.6350503965855978
 50
30.0805041866399812
 51
42.558655408156973
1001
ACDBBLOCKREPETAG
1070
     1
1071
       15
1005
1489A6
  0
ARC
  5
1489D6
  8
OBJECT
 10
4181.1544012959493557
 20
-3530.8827266953621802
 30
0.0
 40
78.0722220217636647
 50
15.3363400228104698
 51
32.5448468961956294
1001
ACDBBLOCKREPETAG
1070
     1
1071
       16
1005
1489A7
  0
ARC
  5
1489D7
  8
OBJECT
 10
4214.2445650391273375
 20
-3520.9999999999968168
 30
0.0
 40
43.5535392688561771
 50
345.6884523008477004
 51
14.3115476991522801
1001
ACDBBLOCKREPETAG
1070
     1
1071
       17
1005
1489A8
  0
ARC
  5
1489D8
  8
OBJECT
 10
4099.3127253283273603
 20
-3467.5919005898899741
 30
0.0
 40
170.6350503965855978
 50
317.4413445918430057
 51
329.9194958133600153
1001
ACDBBLOCKREPETAG
1070
     1
1071
       18
1005
1489A9
  0
ARC
  5
1489D9
  8
OBJECT
 10
4181.1544012959493557
 20
-3511.1172733046328176
 30
0.0
 40
78.0722220217636647
 50
327.4551531038043777
 51
344.6636599771895249
1001
ACDBBLOCKREPETAG
1070
     1
1071
       19
1005
1489AA
  0
POINT
  5
1489DA
  8
DOTS
 10
4300.0
 20
-3579.999999999998181
 30
0.0
 50
180.0
1001
ACDBBLOCKREPETAG
1070
     1
1071
      186
1005
1489AB
  0
ARC
  5
1489DC
  8
OBJECT
 10
3900.0
 20
-3520.9999999999968168
 30
0.0
 40
62.0
 50
230.7319739981793987
 51
139.214742286190301
1001
ACDBBLOCKREPETAG
1070
     1
1071
      132
1005
1489DC
  0
LINE
  5
1489DD
  8
CENTER
 10
3785.0
 20
-3527.9999999999968168
 30
0.0
 11
3955.9999999999990905
 21
-3527.9999999999968168
 31
0.0
1001
ACDBBLOCKREPETAG
1070
     1
1071
      133
1005
1489DD
  0
LINE
  5
1489DE
  8
OBJECT
 10
3807.0
 20
-3472.999999999998181
 30
0.0
 11
3799.9999999999990905
 21
-3472.999999999998181
 31
0.0
1001
ACDBBLOCKREPETAG
1070
     1
1071
      135
1005
1489DE
  0
LINE
  5
1489DF
  8
OBJECT
 10
3799.9999999999990905
 20
-3472.999999999998181
 30
0.0
 11
3799.9999999999990905
 21
-3579.999999999998181
 31
0.0
1001
ACDBBLOCKREPETAG
1070
     1
1071
      136
1005
1489DF
  0
LINE
  5
1489E0
  8
OBJECT
 10
3807.0
 20
-3579.999999999998181
 30
0.0
 11
3807.0
 21
-3472.999999999998181
 31
0.0
1001
ACDBBLOCKREPETAG
1070
     1
1071
      137
1005
1489E0
  0
LINE
  5
1489E1
  8
OBJECT
 10
3807.0
 20
-3476.0
 30
0.0
 11
3843.0
 21
-3476.0
 31
0.0
1001
ACDBBLOCKREPETAG
1070
     1
1071
      138
1005
1489E1
  0
LINE
  5
1489E2
  8
OBJECT
 10
3843.0
 20
-3476.0
 30
0.0
 11
3843.0
 21
-3579.999999999998181
 31
0.0
1001
ACDBBLOCKREPETAG
1070
     1
1071
      139
1005
1489E2
  0
LINE
  5
1489E3
  8
OBJECT
 10
3843.0
 20
-3579.999999999998181
 30
0.0
 11
3799.9999999999990905
 21
-3579.999999999998181
 31
0.0
1001
ACDBBLOCKREPETAG
1070
     1
1071
      140
1005
1489E3
  0
LINE
  5
1489E4
  8
OBJECT
 10
3847.0
 20
-3480.4999999999968168
 30
0.0
 11
3859.9999999999990905
 21
-3480.4999999999968168
 31
0.0
1001
ACDBBLOCKREPETAG
1070
     1
1071
      141
1005
1489E4
  0
LINE
  5
1489E5
  8
OBJECT
 10
3859.9999999999990905
 20
-3575.499999999998181
 30
0.0
 11
3847.0
 21
-3575.499999999998181
 31
0.0
1001
ACDBBLOCKREPETAG
1070
     1
1071
      142
1005
1489E5
  0
LINE
  5
1489E6
  8
OBJECT
 10
3847.0
 20
-3575.499999999998181
 30
0.0
 11
3847.0
 21
-3480.4999999999968168
 31
0.0
1001
ACDBBLOCKREPETAG
1070
     1
1071
      143
1005
1489E6
  0
LINE
  5
1489E7
  8
OBJECT
 10
3843.0
 20
-3476.0
 30
0.0
 11
3847.0
 21
-3480.4999999999968168
 31
0.0
1001
ACDBBLOCKREPETAG
1070
     1
1071
      144
1005
1489E7
  0
LINE
  5
1489E8
  8
OBJECT
 10
3843.0
 20
-3579.999999999998181
 30
0.0
 11
3847.0
 21
-3575.499999999998181
 31
0.0
1001
ACDBBLOCKREPETAG
1070
     1
1071
      145
1005
1489E8
  0
LINE
  5
1489E9
  8
HIDDEN
 10
3852.0
 20
-3489.9999999999968168
 30
0.0
 11
3852.0
 21
-3565.999999999998181
 31
0.0
1001
ACDBBLOCKREPETAG
1070
     1
1071
      146
1005
1489E9
  0
LINE
  5
1489EA
  8
OBJECT
 10
3859.9999468059068022
 20
-3569.0
 30
0.0
 11
3900.0
 21
-3569.0
 31
0.0
1001
ACDBBLOCKREPETAG
1070
     1
1071
      147
1005
1489EA
  0
LINE
  5
1489EB
  8
OBJECT
 10
3859.9999468059031642
 20
-3486.999999999998181
 30
0.0
 11
3900.0
 21
-3486.999999999998181
 31
0.0
1001
ACDBBLOCKREPETAG
1070
     1
1071
      148
1005
1489EB
  0
LINE
  5
1489EC
  8
OBJECT
 10
3859.9999468059031642
 20
-3575.4999991052468431
 30
0.0
 11
3859.9999468059031642
 21
-3480.4999991052491168
 31
0.0
1001
ACDBBLOCKREPETAG
1070
     1
1071
      149
1005
1489EC
  0
ARC
  5
1489ED
  8
OBJECT
 10
3900.0
 20
-3527.9999999999968168
 30
0.0
 40
41.0000000000008882
 50
270.0
 51
90.0
1001
ACDBBLOCKREPETAG
1070
     1
1071
      150
1005
1489ED
  0
LINE
  5
1489EE
  8
OBJECT
 10
3823.0
 20
-3395.9999999999968168
 30
0.0
 11
3823.0
 21
-3374.9999999999968168
 31
0.0
1001
ACDBBLOCKREPETAG
1070
     1
1071
       20
1005
1489EE
  0
LINE
  5
1489EF
  8
OBJECT
 10
3823.0
 20
-3374.9999999999968168
 30
0.0
 11
3977.0
 21
-3374.9999999999968168
 31
0.0
1001
ACDBBLOCKREPETAG
1070
     1
1071
       21
1005
1489EF
  0
LINE
  5
1489F0
  8
HIDDEN
 10
3843.0
 20
-3444.999999999998181
 30
0.0
 11
3956.9999999999990905
 21
-3444.999999999998181
 31
0.0
1001
ACDBBLOCKREPETAG
1070
     1
1071
       22
1005
1489F0
  0
LINE
  5
1489F1
  8
OBJECT
 10
3977.0
 20
-3374.9999999999968168
 30
0.0
 11
3977.0
 21
-3395.9999999999968168
 31
0.0
1001
ACDBBLOCKREPETAG
1070
     1
1071
       23
1005
1489F1
  0
LINE
  5
1489F2
  8
OBJECT
 10
3977.0
 20
-3395.9999999999968168
 30
0.0
 11
3823.0
 21
-3395.9999999999968168
 31
0.0
1001
ACDBBLOCKREPETAG
1070
     1
1071
       24
1005
1489F2
  0
LINE
  5
1489F3
  8
CENTER
 10
3900.0
 20
-3359.999999999998181
 30
0.0
 11
3900.0
 21
-3594.9999999999968168
 31
0.0
1001
ACDBBLOCKREPETAG
1070
     1
1071
       25
1005
1489F3
  0
LINE
  5
1489F4
  8
OBJECT
 10
5297.0
 20
-3458.999999999998181
 30
0.0
 11
5290.0
 21
-3458.999999999998181
 31
0.0
1001
ACDBBLOCKREPETAG
1070
     1
1071
      152
1005
1489F4
  0
LINE
  5
1489F5
  8
OBJECT
 10
5297.0
 20
-3579.999999999998181
 30
0.0
 11
5297.0
 21
-3458.999999999998181
 31
0.0
1001
ACDBBLOCKREPETAG
1070
     1
1071
      153
1005
1489F5
  0
LINE
  5
1489F6
  8
OBJECT
 10
5297.0
 20
-3461.999999999998181
 30
0.0
 11
5333.0
 21
-3461.999999999998181
 31
0.0
1001
ACDBBLOCKREPETAG
1070
     1
1071
      154
1005
1489F6
  0
LINE
  5
1489F7
  8
OBJECT
 10
5333.0
 20
-3579.999999999998181
 30
0.0
 11
5290.0
 21
-3579.999999999998181
 31
0.0
1001
ACDBBLOCKREPETAG
1070
     1
1071
      155
1005
1489F7
  0
LINE
  5
1489F8
  8
OBJECT
 10
5333.0
 20
-3461.999999999998181
 30
0.0
 11
5333.0
 21
-3579.999999999998181
 31
0.0
1001
ACDBBLOCKREPETAG
1070
     1
1071
      156
1005
1489F8
  0
LINE
  5
1489F9
  8
OBJECT
 10
5337.0
 20
-3466.4999999999968168
 30
0.0
 11
5350.0
 21
-3466.4999999999968168
 31
0.0
1001
ACDBBLOCKREPETAG
1070
     1
1071
      157
1005
1489F9
  0
LINE
  5
1489FA
  8
OBJECT
 10
5350.0
 20
-3575.499999999998181
 30
0.0
 11
5337.0
 21
-3575.499999999998181
 31
0.0
1001
ACDBBLOCKREPETAG
1070
     1
1071
      158
1005
1489FA
  0
LINE
  5
1489FB
  8
OBJECT
 10
5337.0
 20
-3575.499999999998181
 30
0.0
 11
5337.0
 21
-3466.4999999999968168
 31
0.0
1001
ACDBBLOCKREPETAG
1070
     1
1071
      159
1005
1489FB
  0
LINE
  5
1489FC
  8
OBJECT
 10
5333.0
 20
-3461.999999999998181
 30
0.0
 11
5337.0
 21
-3466.4999999999968168
 31
0.0
1001
ACDBBLOCKREPETAG
1070
     1
1071
      160
1005
1489FC
  0
LINE
  5
1489FD
  8
HIDDEN
 10
5342.0
 20
-3476.4999999999968168
 30
0.0
 11
5342.0
 21
-3565.4999999999968168
 31
0.0
1001
ACDBBLOCKREPETAG
1070
     1
1071
      161
1005
1489FD
  0
LINE
  5
1489FE
  8
OBJECT
 10
5333.0
 20
-3579.999999999998181
 30
0.0
 11
5337.0
 21
-3575.499999999998181
 31
0.0
1001
ACDBBLOCKREPETAG
1070
     1
1071
      162
1005
1489FE
  0
LINE
  5
1489FF
  8
CENTER
 10
5477.0
 20
-3520.9999999999968168
 30
0.0
 11
5275.0
 21
-3520.9999999999968168
 31
0.0
1001
ACDBBLOCKREPETAG
1070
     1
1071
      163
1005
1489FF
  0
LINE
  5
148A00
  8
OBJECT
 10
5349.9999392348408946
 20
-3567.9999999999968168
 30
0.0
 11
5400.0
 21
-3567.9999999999968168
 31
0.0
1001
ACDBBLOCKREPETAG
1070
     1
1071
      164
1005
148A00
  0
LINE
  5
148A01
  8
OBJECT
 10
5349.9999392348408946
 20
-3473.9999999999968168
 30
0.0
 11
5400.0
 21
-3473.9999999999968168
 31
0.0
1001
ACDBBLOCKREPETAG
1070
     1
1071
      165
1005
148A01
  0
LINE
  5
148A02
  8
OBJECT
 10
5349.9999392348408946
 20
-3575.4999867281608203
 30
0.0
 11
5349.9999392348408946
 21
-3466.4999867281590014
 31
0.0
1001
ACDBBLOCKREPETAG
1070
     1
1071
      166
1005
148A02
  0
ARC
  5
148A03
  8
OBJECT
 10
5400.0
 20
-3520.9999999999968168
 30
0.0
 40
62.0
 50
229.2938657322252141
 51
130.7061342677747007
1001
ACDBBLOCKREPETAG
1070
     1
1071
      167
1005
148A03
  0
ARC
  5
148A04
  8
OBJECT
 10
5400.0
 20
-3520.9999999999968168
 30
0.0
 40
47.0
 50
270.0
 51
90.0
1001
ACDBBLOCKREPETAG
1070
     1
1071
      168
1005
148A04
  0
LINE
  5
148A05
  8
OBJECT
 10
5323.0
 20
-3395.9999999999968168
 30
0.0
 11
5323.0
 21
-3374.9999999999968168
 31
0.0
1001
ACDBBLOCKREPETAG
1070
     1
1071
       20
1005
148A05
  0
LINE
  5
148A06
  8
OBJECT
 10
5323.0
 20
-3374.9999999999968168
 30
0.0
 11
5477.0
 21
-3374.9999999999968168
 31
0.0
1001
ACDBBLOCKREPETAG
1070
     1
1071
       21
1005
148A06
  0
LINE
  5
148A07
  8
HIDDEN
 10
5343.0
 20
-3444.999999999998181
 30
0.0
 11
5457.0
 21
-3444.999999999998181
 31
0.0
1001
ACDBBLOCKREPETAG
1070
     1
1071
       22
1005
148A07
  0
LINE
  5
148A08
  8
OBJECT
 10
5477.0
 20
-3374.9999999999968168
 30
0.0
 11
5477.0
 21
-3395.9999999999968168
 31
0.0
1001
ACDBBLOCKREPETAG
1070
     1
1071
       23
1005
148A08
  0
LINE
  5
148A09
  8
OBJECT
 10
5477.0
 20
-3395.9999999999968168
 30
0.0
 11
5323.0
 21
-3395.9999999999968168
 31
0.0
1001
ACDBBLOCKREPETAG
1070
     1
1071
       24
1005
148A09
  0
LINE
  5
148A0A
  8
CENTER
 10
5400.0
 20
-3359.999999999998181
 30
0.0
 11
5400.0
 21
-3594.9999999999968168
 31
0.0
1001
ACDBBLOCKREPETAG
1070
     1
1071
       25
1005
148A0A
  0
LINE
  5
148A0B
  8
OBJECT
 10
5325.0
 20
-3458.999999999998181
 30
0.0
 11
5325.0
 21
-3461.999999999998181
 31
0.0
1001
ACDBBLOCKREPETAG
1070
     1
1071
       26
1005
148A0B
  0
LINE
  5
148A0C
  8
OBJECT
 10
5325.0
 20
-3579.999999999998181
 30
0.0
 11
5325.0
 21
-3582.999999999998181
 31
0.0
1001
ACDBBLOCKREPETAG
1070
     1
1071
       26
1005
148A0B
  0
LINE
  5
148A0D
  8
OBJECT
 10
5328.0
 20
-3395.9999999999968168
 30
0.0
 11
5328.0
 21
-3458.999999999998181
 31
0.0
1001
ACDBBLOCKREPETAG
1070
     1
1071
       27
1005
148A0D
  0
LINE
  5
148A0E
  8
OBJECT
 10
5472.0
 20
-3458.999999999998181
 30
0.0
 11
5472.0
 21
-3395.9999999999968168
 31
0.0
1001
ACDBBLOCKREPETAG
1070
     1
1071
       28
1005
148A0E
  0
LINE
  5
148A0F
  8
OBJECT
 10
5475.0
 20
-3458.999999999998181
 30
0.0
 11
5325.0
 21
-3458.999999999998181
 31
0.0
1001
ACDBBLOCKREPETAG
1070
     1
1071
       30
1005
148A0F
  0
LINE
  5
148A10
  8
OBJECT
 10
5475.0
 20
-3458.999999999998181
 30
0.0
 11
5475.0
 21
-3582.999999999998181
 31
0.0
1001
ACDBBLOCKREPETAG
1070
     1
1071
       34
1005
148A10
  0
POINT
  5
148A11
  8
DOTS
 10
5400.0
 20
-3579.999999999998181
 30
0.0
1001
ACDBBLOCKREPETAG
1070
     1
1071
      187
1005
148A11
  0
LINE
  5
148A12
  8
OBJECT
 10
3824.9999999999990905
 20
-3458.999999999998181
 30
0.0
 11
3824.9999999999990905
 21
-3476.0
 31
0.0
1001
ACDBBLOCKREPETAG
1070
     1
1071
       26
1005
148A12
  0
LINE
  5
148A13
  8
OBJECT
 10
3824.9999999999990905
 20
-3579.999999999998181
 30
0.0
 11
3824.9999999999990905
 21
-3582.999999999998181
 31
0.0
1001
ACDBBLOCKREPETAG
1070
     1
1071
       26
1005
148A12
  0
LINE
  5
148A14
  8
OBJECT
 10
3827.9999999999990905
 20
-3395.9999999999968168
 30
0.0
 11
3827.9999999999990905
 21
-3458.999999999998181
 31
0.0
1001
ACDBBLOCKREPETAG
1070
     1
1071
       27
1005
148A14
  0
LINE
  5
148A15
  8
OBJECT
 10
3972.0
 20
-3458.999999999998181
 30
0.0
 11
3972.0
 21
-3395.9999999999968168
 31
0.0
1001
ACDBBLOCKREPETAG
1070
     1
1071
       28
1005
148A15
  0
LINE
  5
148A16
  8
OBJECT
 10
3975.0
 20
-3458.999999999998181
 30
0.0
 11
3824.9999999999990905
 21
-3458.999999999998181
 31
0.0
1001
ACDBBLOCKREPETAG
1070
     1
1071
       30
1005
148A16
  0
LINE
  5
148A17
  8
OBJECT
 10
3975.0
 20
-3458.999999999998181
 30
0.0
 11
3975.0
 21
-3582.999999999998181
 31
0.0
1001
ACDBBLOCKREPETAG
1070
     1
1071
       34
1005
148A17
  0
POINT
  5
148A18
  8
DOTS
 10
3900.0
 20
-3579.999999999998181
 30
0.0
1001
ACDBBLOCKREPETAG
1070
     1
1071
      187
1005
148A18
  0
LINE
  5
148A3C
  8
OBJECT
 10
5877.0
 20
-3395.9999999999968168
 30
0.0
 11
5877.0
 21
-3374.9999999999968168
 31
0.0
1001
ACDBBLOCKREPETAG
1070
     1
1071
        0
1005
14899B
  0
LINE
  5
148A3D
  8
OBJECT
 10
5877.0
 20
-3374.9999999999968168
 30
0.0
 11
5723.0
 21
-3374.9999999999968168
 31
0.0
1001
ACDBBLOCKREPETAG
1070
     1
1071
        1
1005
14899C
  0
LINE
  5
148A3E
  8
OBJECT
 10
5290.0
 20
-3458.999999999998181
 30
0.0
 11
5290.0
 21
-3579.999999999998181
 31
0.0
1001
ACDBBLOCKREPETAG
1070
     1
1071
      151
1005
148A3E
  0
LINE
  5
148A3F
  8
HIDDEN
 10
5857.0
 20
-3444.999999999998181
 30
0.0
 11
5743.0
 21
-3444.999999999998181
 31
0.0
1001
ACDBBLOCKREPETAG
1070
     1
1071
        2
1005
14899D
  0
LINE
  5
148A40
  8
OBJECT
 10
5723.0
 20
-3374.9999999999968168
 30
0.0
 11
5723.0
 21
-3395.9999999999968168
 31
0.0
1001
ACDBBLOCKREPETAG
1070
     1
1071
        3
1005
14899E
  0
LINE
  5
148A41
  8
OBJECT
 10
5723.0
 20
-3395.9999999999968168
 30
0.0
 11
5877.0
 21
-3395.9999999999968168
 31
0.0
1001
ACDBBLOCKREPETAG
1070
     1
1071
        4
1005
14899F
  0
LINE
  5
148A42
  8
CENTER
 10
5800.0
 20
-3359.999999999998181
 30
0.0
 11
5800.0
 21
-3594.9999999999968168
 31
0.0
1001
ACDBBLOCKREPETAG
1070
     1
1071
        5
1005
1489A0
  0
LINE
  5
148A43
  8
OBJECT
 10
5875.0
 20
-3458.999999999998181
 30
0.0
 11
5875.0
 21
-3582.999999999998181
 31
0.0
1001
ACDBBLOCKREPETAG
1070
     1
1071
        6
1005
1489A1
  0
LINE
  5
148A44
  8
OBJECT
 10
5872.0
 20
-3395.9999999999968168
 30
0.0
 11
5872.0
 21
-3458.999999999998181
 31
0.0
1001
ACDBBLOCKREPETAG
1070
     1
1071
        7
1005
1489A2
  0
LINE
  5
148A45
  8
OBJECT
 10
5728.0
 20
-3458.999999999998181
 30
0.0
 11
5728.0
 21
-3395.9999999999968168
 31
0.0
1001
ACDBBLOCKREPETAG
1070
     1
1071
        8
1005
1489A3
  0
LINE
  5
148A46
  8
OBJECT
 10
5725.0000000002000888
 20
-3582.9999999997749001
 30
0.0
 11
5720.0
 21
-3582.999999999998181
 31
0.0
1001
ACDBBLOCKREPETAG
1070
     1
1071
        9
1005
1489A4
  0
LINE
  5
148A47
  8
OBJECT
 10
5720.0
 20
-3458.999999999998181
 30
0.0
 11
5875.0
 21
-3458.999999999998181
 31
0.0
1001
ACDBBLOCKREPETAG
1070
     1
1071
       10
1005
1489A5
  0
ARC
  5
148A48
  8
OBJECT
 10
5599.3127253283282698
 20
-3574.4080994101050237
 30
0.0
 40
170.6350503965855978
 50
30.0805041866399812
 51
42.558655408156973
1001
ACDBBLOCKREPETAG
1070
     1
1071
       15
1005
1489A6
  0
ARC
  5
148A49
  8
OBJECT
 10
5681.1544012959493557
 20
-3530.8827266953621802
 30
0.0
 40
78.0722220217636647
 50
15.3363400228104698
 51
32.5448468961956294
1001
ACDBBLOCKREPETAG
1070
     1
1071
       16
1005
1489A7
  0
ARC
  5
148A4A
  8
OBJECT
 10
5714.2445650391273375
 20
-3520.9999999999968168
 30
0.0
 40
43.5535392688561771
 50
345.6884523008477004
 51
14.3115476991522801
1001
ACDBBLOCKREPETAG
1070
     1
1071
       17
1005
1489A8
  0
ARC
  5
148A4B
  8
OBJECT
 10
5599.3127253283282698
 20
-3467.5919005898899741
 30
0.0
 40
170.6350503965855978
 50
317.4413445918430057
 51
329.9194958133600153
1001
ACDBBLOCKREPETAG
1070
     1
1071
       18
1005
1489A9
  0
ARC
  5
148A4C
  8
OBJECT
 10
5681.1544012959493557
 20
-3511.1172733046328176
 30
0.0
 40
78.0722220217636647
 50
327.4551531038043777
 51
344.6636599771895249
1001
ACDBBLOCKREPETAG
1070
     1
1071
       19
1005
1489AA
  0
POINT
  5
148A4D
  8
DOTS
 10
5800.0
 20
-3579.999999999998181
 30
0.0
 50
180.0
1001
ACDBBLOCKREPETAG
1070
     1
1071
      186
1005
1489AB
  0
LINE
  5
148ADD
  8
DIM
 10
2092.9999999999959073
 20
-3284.9999999999968168
 30
0.0
 11
2092.9999999999959073
 21
-3363.9596942694838617
 31
0.0
  0
LINE
  5
148ADE
  8
DIM
 10
2186.9999999999968168
 20
-3285.0
 30
0.0
 11
2186.9999999999968168
 21
-3363.9596942694838617
 31
0.0
  0
LINE
  5
148ADF
  8
DIM
 10
2112.9999999999959073
 20
-3353.9596942694838617
 30
0.0
 11
2166.9999999999959073
 21
-3353.9596942694838617
 31
0.0
  0
INSERT
  5
148AE0
  8
DIM
  2
_OPEN30
 10
2092.9999999999959073
 20
-3353.9596942694838617
 30
0.0
 41
20.0
 42
20.0
 43
20.0
 50
180.0
  0
INSERT
  5
148AE1
  8
DIM
  2
_OPEN30
 10
2186.9999999999968168
 20
-3353.9596942694838617
 30
0.0
 41
20.0
 42
20.0
 43
20.0
  0
INSERT
  5
148AE2
  8
OBJECT
  2
*U3
 10
0.0
 20
0.0
 30
0.0
  0
LINE
  5
148AE3
  8
DIM
 10
2000.0
 20
-3069.9999999999959073
 30
0.0
 11
2000.0
 21
-2970.5561980522911654
 31
0.0
  0
LINE
  5
148AE4
  8
DIM
 10
2187.0
 20
-3258.0
 30
0.0
 11
2187.0
 21
-2970.5561980522911654
 31
0.0
  0
LINE
  5
148AE5
  8
DIM
 10
2020.0
 20
-2980.5561980522911654
 30
0.0
 11
2166.9999999999990905
 21
-2980.5561980522911654
 31
0.0
  0
INSERT
  5
148AE6
  8
DIM
  2
_OPEN30
 10
2000.0
 20
-2980.5561980522911654
 30
0.0
 41
20.0
 42
20.0
 43
20.0
 50
180.0
  0
INSERT
  5
148AE7
  8
DIM
  2
_OPEN30
 10
2187.0
 20
-2980.5561980522911654
 30
0.0
 41
20.0
 42
20.0
 43
20.0
  0
INSERT
  5
148AE8
  8
OBJECT
  2
*U4
 10
0.0
 20
0.0
 30
0.0
  0
LINE
  5
148AE9
  8
DIM
 10
2000.0
 20
-3069.9999999999959073
 30
0.0
 11
2000.0
 21
-3036.3619769402148449
 31
0.0
  0
LINE
  5
148AEA
  8
DIM
 10
2140.0000000000031832
 20
-3126.5504415491609507
 30
0.0
 11
2140.0000000000031832
 21
-3036.3619769402148449
 31
0.0
  0
LINE
  5
148AEB
  8
DIM
 10
2020.0
 20
-3046.3619769402148449
 30
0.0
 11
2120.0000000000031832
 21
-3046.3619769402148449
 31
0.0
  0
INSERT
  5
148AEC
  8
DIM
  2
_OPEN30
 10
2000.0
 20
-3046.3619769402148449
 30
0.0
 41
20.0
 42
20.0
 43
20.0
 50
180.0
  0
INSERT
  5
148AED
  8
DIM
  2
_OPEN30
 10
2140.0000000000031832
 20
-3046.3619769402148449
 30
0.0
 41
20.0
 42
20.0
 43
20.0
  0
INSERT
  5
148AEE
  8
OBJECT
  2
*U5
 10
0.0
 20
0.0
 30
0.0
  0
LINE
  5
148AEF
  8
DIM
 10
2188.4495584508408683
 20
-3174.9999999999940883
 30
0.0
 11
2272.6903592692688107
 21
-3174.9999999999940883
 31
0.0
  0
LINE
  5
148AF0
  8
DIM
 10
2197.0
 20
-3275.0000000000009095
 30
0.0
 11
2272.6903592692688107
 21
-3275.0000000000009095
 31
0.0
  0
LINE
  5
148AF1
  8
DIM
 10
2262.6903592692688107
 20
-3194.9999999999940883
 30
0.0
 11
2262.6903592692688107
 21
-3255.0000000000009095
 31
0.0
  0
INSERT
  5
148AF2
  8
DIM
  2
_OPEN30
 10
2262.6903592692688107
 20
-3174.9999999999940883
 30
0.0
 41
20.0
 42
20.0
 43
20.0
 50
90.0
  0
INSERT
  5
148AF3
  8
DIM
  2
_OPEN30
 10
2262.6903592692688107
 20
-3275.0000000000009095
 30
0.0
 41
20.0
 42
20.0
 43
20.0
 50
270.0
  0
INSERT
  5
148AF4
  8
OBJECT
  2
*U6
 10
0.0
 20
0.0
 30
0.0
  0
LINE
  5
148AF5
  8
DIM
 10
2212.0000000000009095
 20
-3535.9999999999968168
 30
0.0
 11
2262.6360868796768955
 21
-3535.9999999999968168
 31
0.0
  0
LINE
  5
148AF6
  8
DIM
 10
2166.5227116418591322
 20
-3579.999999999998181
 30
0.0
 11
2262.6360868796768955
 21
-3579.999999999998181
 31
0.0
  0
LINE
  5
148AF7
  8
DIM
 10
2252.6360868796768955
 20
-3515.999999999998181
 30
0.0
 11
2252.6360868796768955
 21
-3495.9999999999968168
 31
0.0
  0
LINE
  5
148AF8
  8
DIM
 10
2252.6360868796768955
 20
-3599.9999999999968168
 30
0.0
 11
2252.6360868796768955
 21
-3619.9999999999968168
 31
0.0
  0
LINE
  5
148AF9
  8
DIM
 10
2252.6360868796768955
 20
-3535.9999999999968168
 30
0.0
 11
2252.6360868796768955
 21
-3579.999999999998181
 31
0.0
  0
INSERT
  5
148AFA
  8
DIM
  2
_OPEN30
 10
2252.6360868796768955
 20
-3535.9999999999968168
 30
0.0
 41
20.0
 42
20.0
 43
20.0
 50
270.0
  0
INSERT
  5
148AFB
  8
DIM
  2
_OPEN30
 10
2252.6360868796768955
 20
-3579.999999999998181
 30
0.0
 41
20.0
 42
20.0
 43
20.0
 50
90.0
  0
INSERT
  5
148AFC
  8
OBJECT
  2
*U7
 10
0.0
 20
0.0
 30
0.0
  0
LINE
  5
148AFD
  8
CENTER
 10
2598.0
 20
-3535.9999999999968168
 30
0.0
 11
2729.0
 21
-3535.9999999999968168
 31
0.0
1001
ACDBBLOCKREPETAG
1070
     1
1071
      255
1005
148AFD
  0
LINE
  5
148AFE
  8
OBJECT
 10
2717.0
 20
-3458.999999999998181
 30
0.0
 11
2720.0
 21
-3458.999999999998181
 31
0.0
1001
ACDBBLOCKREPETAG
1070
     1
1071
      256
1005
148AFE
  0
LINE
  5
148AFF
  8
OBJECT
 10
2720.0
 20
-3582.999999999998181
 30
0.0
 11
2717.0
 21
-3582.999999999998181
 31
0.0
1001
ACDBBLOCKREPETAG
1070
     1
1071
      257
1005
148AFF
  0
ARC
  5
148B00
  8
OBJECT
 10
2717.0
 20
-3461.999999999998181
 30
0.0
 40
3.0
 50
90.0
 51
180.0
1001
ACDBBLOCKREPETAG
1070
     1
1071
      258
1005
148B00
  0
ARC
  5
148B01
  8
OBJECT
 10
2717.0
 20
-3579.999999999998181
 30
0.0
 40
3.0
 50
180.0
 51
270.0
1001
ACDBBLOCKREPETAG
1070
     1
1071
      259
1005
148B01
  0
LINE
  5
148B02
  8
OBJECT
 10
2714.0
 20
-3579.999999999998181
 30
0.0
 11
2714.0
 21
-3461.999999999998181
 31
0.0
1001
ACDBBLOCKREPETAG
1070
     1
1071
      260
1005
148B02
  0
ARC
  5
148B03
  8
OBJECT
 10
2660.0
 20
-3535.9999999999968168
 30
0.0
 40
47.0
 50
290.581969211666717
 51
314.5395908250486059
1001
ACDBBLOCKREPETAG
1070
     1
1071
      262
1005
148B03
  0
ARC
  5
148B04
  8
OBJECT
 10
2660.0
 20
-3535.9999999999968168
 30
0.0
 40
47.0
 50
45.4604091749513017
 51
249.4180307883333114
1001
ACDBBLOCKREPETAG
1070
     1
1071
      263
1005
148B04
  0
LINE
  5
148B05
  8
OBJECT
 10
2676.5227116418568585
 20
-3579.999999999998181
 30
0.0
 11
2643.477288358144051
 21
-3579.999999999998181
 31
0.0
1001
ACDBBLOCKREPETAG
1070
     1
1071
      264
1005
148B05
  0
LINE
  5
148B06
  8
OBJECT
 10
2660.0
 20
-3569.4999999999968168
 30
0.0
 11
2713.9999901410719758
 21
-3569.4999999999968168
 31
0.0
1001
ACDBBLOCKREPETAG
1070
     1
1071
      265
1005
148B06
  0
LINE
  5
148B07
  8
OBJECT
 10
2660.0
 20
-3502.4999999999968168
 30
0.0
 11
2714.0
 21
-3502.4999999999968168
 31
0.0
1001
ACDBBLOCKREPETAG
1070
     1
1071
      266
1005
148B07
  0
LINE
  5
148B08
  8
CENTER
 10
2660.0
 20
-3594.9999999999968168
 30
0.0
 11
2660.0
 21
-3473.9999999999968168
 31
0.0
1001
ACDBBLOCKREPETAG
1070
     1
1071
      267
1005
148B08
  0
ARC
  5
148B09
  8
OBJECT
 10
2660.0
 20
-3535.9999999999968168
 30
0.0
 40
44.0
 50
49.584560978621532
 51
310.4154390213785177
1001
ACDBBLOCKREPETAG
1070
     1
1071
      268
1005
148B09
  0
ARC
  5
148B0A
  8
OBJECT
 10
2660.0
 20
-3535.9999999999968168
 30
0.0
 40
39.5
 50
58.0057492570096613
 51
301.9942507429902889
1001
ACDBBLOCKREPETAG
1070
     1
1071
      269
1005
148B0A
  0
ARC
  5
148B0B
  8
OBJECT
 10
2660.0
 20
-3535.9999999999968168
 30
0.0
 40
33.5
 50
90.0
 51
270.0
1001
ACDBBLOCKREPETAG
1070
     1
1071
      270
1005
148B0B
  0
LINE
  5
148B0C
  8
CENTER
 10
5573.0
 20
-3520.9999999999968168
 30
0.0
 11
5729.0
 21
-3520.9999999999968168
 31
0.0
1001
ACDBBLOCKREPETAG
1070
     1
1071
      287
1005
148B0C
  0
LINE
  5
148B0D
  8
OBJECT
 10
5650.0
 20
-3567.9999999999968168
 30
0.0
 11
5713.999999999996362
 21
-3567.9999999999968168
 31
0.0
1001
ACDBBLOCKREPETAG
1070
     1
1071
      288
1005
148B0D
  0
LINE
  5
148B0E
  8
OBJECT
 10
5717.0
 20
-3458.999999999998181
 30
0.0
 11
5720.0
 21
-3458.999999999998181
 31
0.0
1001
ACDBBLOCKREPETAG
1070
     1
1071
      289
1005
148B0E
  0
LINE
  5
148B0F
  8
OBJECT
 10
5650.0
 20
-3473.9999999999968168
 30
0.0
 11
5713.999999999996362
 21
-3473.9999999999968168
 31
0.0
1001
ACDBBLOCKREPETAG
1070
     1
1071
      290
1005
148B0F
  0
ARC
  5
148B10
  8
OBJECT
 10
5717.0
 20
-3461.999999999998181
 30
0.0
 40
3.0
 50
90.0
 51
180.0
1001
ACDBBLOCKREPETAG
1070
     1
1071
      291
1005
148B10
  0
LINE
  5
148B11
  8
OBJECT
 10
5720.0
 20
-3582.999999999998181
 30
0.0
 11
5717.0
 21
-3582.999999999998181
 31
0.0
1001
ACDBBLOCKREPETAG
1070
     1
1071
      292
1005
148B11
  0
ARC
  5
148B12
  8
OBJECT
 10
5717.0
 20
-3579.999999999998181
 30
0.0
 40
3.0
 50
180.0
 51
270.0
1001
ACDBBLOCKREPETAG
1070
     1
1071
      293
1005
148B12
  0
LINE
  5
148B13
  8
OBJECT
 10
5714.0
 20
-3579.999999999998181
 30
0.0
 11
5714.0
 21
-3461.999999999998181
 31
0.0
1001
ACDBBLOCKREPETAG
1070
     1
1071
      294
1005
148B13
  0
ARC
  5
148B14
  8
OBJECT
 10
5650.0
 20
-3520.9999999999968168
 30
0.0
 40
62.0
 50
287.8965511292032033
 51
310.7061342677847051
1001
ACDBBLOCKREPETAG
1070
     1
1071
      296
1005
148B14
  0
ARC
  5
148B15
  8
OBJECT
 10
5650.0
 20
-3520.9999999999968168
 30
0.0
 40
62.0
 50
49.2938657322152807
 51
252.1034488707967967
1001
ACDBBLOCKREPETAG
1070
     1
1071
      297
1005
148B15
  0
LINE
  5
148B16
  8
OBJECT
 10
5669.052558883257916
 20
-3579.999999999998181
 30
0.0
 11
5630.947441116742084
 21
-3579.999999999998181
 31
0.0
1001
ACDBBLOCKREPETAG
1070
     1
1071
      298
1005
148B16
  0
LINE
  5
148B17
  8
CENTER
 10
5650.0
 20
-3594.9999999999968168
 30
0.0
 11
5650.0
 21
-3444.0
 31
0.0
1001
ACDBBLOCKREPETAG
1070
     1
1071
      299
1005
148B17
  0
ARC
  5
148B18
  8
OBJECT
 10
5650.0
 20
-3520.9999999999968168
 30
0.0
 40
54.5
 50
59.5854708984121828
 51
300.4145291015877888
1001
ACDBBLOCKREPETAG
1070
     1
1071
      300
1005
148B18
  0
ARC
  5
148B19
  8
OBJECT
 10
5650.0
 20
-3520.9999999999968168
 30
0.0
 40
47.0
 50
90.0
 51
270.0
1001
ACDBBLOCKREPETAG
1070
     1
1071
      301
1005
148B19
  0
ARC
  5
148B1A
  8
OBJECT
 10
5650.0
 20
-3520.9999999999968168
 30
0.0
 40
59.0
 50
52.8076058208588179
 51
307.1923941791411039
1001
ACDBBLOCKREPETAG
1070
     1
1071
      302
1005
148B1A
  0
TEXT
  5
148B1B
  8
SLIM
 10
4819.7499999999990905
 20
-3697.5
 30
0.0
 40
35.0
  1
エルボ枝75左回り（L3）
 41
0.75
  0
LINE
  5
148B1C
  8
OBJECT
 10
4923.0
 20
-3395.9999999999968168
 30
0.0
 11
4923.0
 21
-3374.9999999999968168
 31
0.0
1001
ACDBBLOCKREPETAG
1070
     1
1071
        0
1005
148B1C
  0
LINE
  5
148B1D
  8
OBJECT
 10
4923.0
 20
-3374.9999999999968168
 30
0.0
 11
5077.0
 21
-3374.9999999999968168
 31
0.0
1001
ACDBBLOCKREPETAG
1070
     1
1071
        1
1005
148B1D
  0
LINE
  5
148B1E
  8
HIDDEN
 10
4943.0
 20
-3444.999999999998181
 30
0.0
 11
5057.0
 21
-3444.999999999998181
 31
0.0
1001
ACDBBLOCKREPETAG
1070
     1
1071
        2
1005
148B1E
  0
LINE
  5
148B1F
  8
OBJECT
 10
5077.0
 20
-3374.9999999999968168
 30
0.0
 11
5077.0
 21
-3395.9999999999968168
 31
0.0
1001
ACDBBLOCKREPETAG
1070
     1
1071
        3
1005
148B1F
  0
LINE
  5
148B20
  8
OBJECT
 10
5077.0
 20
-3395.9999999999968168
 30
0.0
 11
4923.0
 21
-3395.9999999999968168
 31
0.0
1001
ACDBBLOCKREPETAG
1070
     1
1071
        4
1005
148B20
  0
LINE
  5
148B21
  8
CENTER
 10
5000.0
 20
-3359.999999999998181
 30
0.0
 11
5000.0
 21
-3594.9999999999968168
 31
0.0
1001
ACDBBLOCKREPETAG
1070
     1
1071
        5
1005
148B21
  0
LINE
  5
148B22
  8
OBJECT
 10
4925.0
 20
-3458.999999999998181
 30
0.0
 11
4925.0
 21
-3582.999999999998181
 31
0.0
1001
ACDBBLOCKREPETAG
1070
     1
1071
        6
1005
148B22
  0
LINE
  5
148B23
  8
OBJECT
 10
4928.0
 20
-3395.9999999999968168
 30
0.0
 11
4928.0
 21
-3458.999999999998181
 31
0.0
1001
ACDBBLOCKREPETAG
1070
     1
1071
        7
1005
148B23
  0
LINE
  5
148B24
  8
OBJECT
 10
5072.0
 20
-3458.999999999998181
 30
0.0
 11
5072.0
 21
-3395.9999999999968168
 31
0.0
1001
ACDBBLOCKREPETAG
1070
     1
1071
        8
1005
148B24
  0
LINE
  5
148B25
  8
OBJECT
 10
5074.9999999997999112
 20
-3582.9999999997771738
 30
0.0
 11
5080.0
 21
-3582.999999999998181
 31
0.0
1001
ACDBBLOCKREPETAG
1070
     1
1071
        9
1005
148B25
  0
LINE
  5
148B26
  8
OBJECT
 10
5080.0
 20
-3458.999999999998181
 30
0.0
 11
4925.0
 21
-3458.999999999998181
 31
0.0
1001
ACDBBLOCKREPETAG
1070
     1
1071
       10
1005
148B26
  0
ARC
  5
148B27
  8
OBJECT
 10
5200.6872746716735492
 20
-3574.4080994101050237
 30
0.0
 40
170.6350503965855978
 50
137.4413445918430057
 51
149.9194958133664102
1001
ACDBBLOCKREPETAG
1070
     1
1071
       15
1005
148B27
  0
ARC
  5
148B28
  8
OBJECT
 10
5118.8455987040497348
 20
-3530.8827266953621802
 30
0.0
 40
78.0722220217636647
 50
147.4551531037683105
 51
164.6636599771929923
1001
ACDBBLOCKREPETAG
1070
     1
1071
       16
1005
148B28
  0
ARC
  5
148B29
  8
OBJECT
 10
5085.7554349608726625
 20
-3520.9999999999968168
 30
0.0
 40
43.5535392688561771
 50
165.6884523008477004
 51
194.3115476991521859
1001
ACDBBLOCKREPETAG
1070
     1
1071
       17
1005
148B29
  0
ARC
  5
148B2A
  8
OBJECT
 10
5200.6872746716735492
 20
-3467.5919005898899741
 30
0.0
 40
170.6350503965855978
 50
210.0805041866335046
 51
222.5586554081569943
1001
ACDBBLOCKREPETAG
1070
     1
1071
       18
1005
148B2A
  0
ARC
  5
148B2B
  8
OBJECT
 10
5118.8455987040497348
 20
-3511.1172733046328176
 30
0.0
 40
78.0722220217636647
 50
195.3363400228070077
 51
212.5448468962316042
1001
ACDBBLOCKREPETAG
1070
     1
1071
       19
1005
148B2B
  0
POINT
  5
148B2C
  8
DOTS
 10
5000.0
 20
-3579.999999999998181
 30
0.0
1001
ACDBBLOCKREPETAG
1070
     1
1071
      186
1005
148B2C
  0
LINE
  5
148B2D
  8
OBJECT
 10
5024.1029330933033634
 20
-3218.8069471237117796
 30
0.0
 11
5020.6596569999956046
 21
-3207.5546219999951063
 31
0.0
1001
ACDBBLOCKREPETAG
1070
     1
1071
      300
1005
148B2D
  0
LINE
  5
148B2E
  8
OBJECT
 10
4986.7927499013749184
 20
-3193.2255337420770047
 30
0.0
 11
5020.6596569999956046
 21
-3207.5546219999951063
 31
0.0
1001
ACDBBLOCKREPETAG
1070
     1
1071
      302
1005
148B2E
  0
ARC
  5
148B2F
  8
OBJECT
 10
4982.8961697618997277
 20
-3202.4351299990530606
 30
0.0
 40
10.0
 50
67.0667782929126304
 51
154.0147343702919045
1001
ACDBBLOCKREPETAG
1070
     1
1071
      303
1005
148B2F
  0
ARC
  5
148B30
  8
OBJECT
 10
4986.1488390381273348
 20
-3200.5538625672879789
 30
0.0
 40
7.0
 50
67.0667782929126304
 51
154.0147337749737915
1001
ACDBBLOCKREPETAG
1070
     1
1071
      304
1005
148B30
  0
LINE
  5
148B31
  8
OBJECT
 10
4969.4199755553017894
 20
-3218.8988850081791497
 30
0.0
 11
4979.8564918232368655
 21
-3197.4868825335638576
 31
0.0
1001
ACDBBLOCKREPETAG
1070
     1
1071
      341
1005
148B31
  0
LINE
  5
148B32
  8
OBJECT
 10
4965.2972169006088734
 20
-3215.7181390188238765
 30
0.0
 11
4973.9071022665093551
 21
-3198.0537300443038475
 31
0.0
1001
ACDBBLOCKREPETAG
1070
     1
1071
      342
1005
148B32
  0
ARC
  5
148B33
  8
OBJECT
 10
4976.5796953073140685
 20
-3182.1289369828400595
 30
0.0
 40
60.0311132460326178
 50
314.0702013041880036
 51
322.3393610608903828
1001
ACDBBLOCKREPETAG
1070
     1
1071
      343
1005
148B33
  0
CIRCLE
  5
148B34
  8
OBJECT
 10
5000.0
 20
-3174.9999999999949978
 30
0.0
 40
53.5
1001
ACDBBLOCKREPETAG
1070
     1
1071
      344
1005
148B34
  0
POINT
  5
148B35
  8
DOTS
 10
5000.0
 20
-3174.9999999999949978
 30
0.0
 50
270.0
1001
ACDBBLOCKREPETAG
1070
     1
1071
      362
1005
148B35
  0
LINE
  5
148B36
  8
CENTER
 10
5080.0
 20
-3174.9999999999949978
 30
0.0
 11
4905.0
 21
-3174.9999999999949978
 31
0.0
1001
ACDBBLOCKREPETAG
1070
     1
1071
       14
1005
148B36
  0
LINE
  5
148B37
  8
CENTER
 10
5000.0
 20
-3269.9999999999959073
 30
0.0
 11
5000.0
 21
-3079.9999999999959073
 31
0.0
1001
ACDBBLOCKREPETAG
1070
     1
1071
       15
1005
148B37
  0
CIRCLE
  5
148B38
  8
OBJECT
 10
5000.0
 20
-3174.9999999999949978
 30
0.0
 40
70.0
1001
ACDBBLOCKREPETAG
1070
     1
1071
       16
1005
148B38
  0
CIRCLE
  5
148B39
  8
OBJECT
 10
5000.0
 20
-3174.9999999999949978
 30
0.0
 40
77.0
1001
ACDBBLOCKREPETAG
1070
     1
1071
       17
1005
148B39
  0
ARC
  5
148B3A
  8
OBJECT
 10
5000.0
 20
-3174.9999999999949978
 30
0.0
 40
80.0
 50
50.805032573882329
 51
309.1949674261177279
1001
ACDBBLOCKREPETAG
1070
     1
1071
       18
1005
148B3A
  0
LINE
  5
148B3B
  8
OBJECT
 10
5045.6618002273253296
 20
-3112.9999999999959073
 30
0.0
 11
5080.0
 21
-3112.9999999999959073
 31
0.0
1001
ACDBBLOCKREPETAG
1070
     1
1071
       19
1005
148B3B
  0
LINE
  5
148B3C
  8
OBJECT
 10
5045.6618002273253296
 20
-3236.9999999999959073
 30
0.0
 11
5080.0
 21
-3236.9999999999959073
 31
0.0
1001
ACDBBLOCKREPETAG
1070
     1
1071
       20
1005
148B3C
  0
ARC
  5
148B3D
  8
OBJECT
 10
5000.0
 20
-3174.9999999999949978
 30
0.0
 40
50.0
 50
298.8199429999996255
 51
228.5237695596271124
1001
ACDBBLOCKREPETAG
1070
     1
1071
       48
1005
148B3D
  0
LINE
  5
148B40
  8
CENTER
 10
5227.0
 20
-3520.9999999999968168
 30
0.0
 11
5071.0
 21
-3520.9999999999968168
 31
0.0
1001
ACDBBLOCKREPETAG
1070
     1
1071
      241
1005
148B40
  0
LINE
  5
148B41
  8
OBJECT
 10
5109.5648667616869716
 20
-3567.9999999999968168
 30
0.0
 11
5086.000000000001819
 21
-3567.9999999999968168
 31
0.0
1001
ACDBBLOCKREPETAG
1070
     1
1071
      242
1005
148B41
  0
LINE
  5
148B42
  8
OBJECT
 10
5109.5648667616869716
 20
-3473.9999999999968168
 30
0.0
 11
5086.000000000001819
 21
-3473.9999999999968168
 31
0.0
1001
ACDBBLOCKREPETAG
1070
     1
1071
      243
1005
148B42
  0
LINE
  5
148B43
  8
OBJECT
 10
5083.0
 20
-3458.999999999998181
 30
0.0
 11
5080.0
 21
-3458.999999999998181
 31
0.0
1001
ACDBBLOCKREPETAG
1070
     1
1071
      244
1005
148B43
  0
LINE
  5
148B44
  8
OBJECT
 10
5080.0
 20
-3582.999999999998181
 30
0.0
 11
5083.0
 21
-3582.999999999998181
 31
0.0
1001
ACDBBLOCKREPETAG
1070
     1
1071
      245
1005
148B44
  0
ARC
  5
148B45
  8
OBJECT
 10
5083.0
 20
-3461.999999999998181
 30
0.0
 40
3.0
 50
0.0
 51
90.0
1001
ACDBBLOCKREPETAG
1070
     1
1071
      246
1005
148B45
  0
ARC
  5
148B46
  8
OBJECT
 10
5083.0
 20
-3579.999999999998181
 30
0.0
 40
3.0
 50
270.0
 51
0.0
1001
ACDBBLOCKREPETAG
1070
     1
1071
      247
1005
148B46
  0
LINE
  5
148B47
  8
OBJECT
 10
5086.0
 20
-3579.999999999998181
 30
0.0
 11
5086.0
 21
-3461.999999999998181
 31
0.0
1001
ACDBBLOCKREPETAG
1070
     1
1071
      248
1005
148B47
  0
CIRCLE
  5
148B48
  8
OBJECT
 10
5150.0
 20
-3520.9999999999968168
 30
0.0
 40
54.0
1001
ACDBBLOCKREPETAG
1070
     1
1071
      250
1005
148B48
  0
CIRCLE
  5
148B49
  8
OBJECT
 10
5150.0
 20
-3520.9999999999968168
 30
0.0
 40
41.5
1001
ACDBBLOCKREPETAG
1070
     1
1071
      251
1005
148B49
  0
ARC
  5
148B4A
  8
OBJECT
 10
5150.0
 20
-3520.9999999999968168
 30
0.0
 40
62.0
 50
287.8965511292032033
 51
252.1034488707967967
1001
ACDBBLOCKREPETAG
1070
     1
1071
      252
1005
148B4A
  0
LINE
  5
148B4B
  8
CENTER
 10
5150.0
 20
-3594.9999999999968168
 30
0.0
 11
5150.0
 21
-3444.0
 31
0.0
1001
ACDBBLOCKREPETAG
1070
     1
1071
      253
1005
148B4B
  0
LINE
  5
148B4C
  8
OBJECT
 10
5130.947441116742084
 20
-3579.999999999998181
 30
0.0
 11
5169.052558883257916
 21
-3579.999999999998181
 31
0.0
1001
ACDBBLOCKREPETAG
1070
     1
1071
      254
1005
148B4C
  0
LINE
  5
148B4D
  8
OBJECT
 10
5212.0
 20
-3277.9999999999959073
 30
0.0
 11
5212.0
 21
-3284.9999999999949978
 31
0.0
1001
ACDBBLOCKREPETAG
1070
     1
1071
      241
1005
148B4D
  0
LINE
  5
148B4E
  8
OBJECT
 10
5212.0
 20
-3284.9999999999949978
 30
0.0
 11
5088.0
 21
-3284.9999999999949978
 31
0.0
1001
ACDBBLOCKREPETAG
1070
     1
1071
      242
1005
148B4E
  0
LINE
  5
148B4F
  8
OBJECT
 10
5088.0
 20
-3284.9999999999949978
 30
0.0
 11
5088.0
 21
-3277.9999999999959073
 31
0.0
1001
ACDBBLOCKREPETAG
1070
     1
1071
      243
1005
148B4F
  0
LINE
  5
148B50
  8
OBJECT
 10
5088.0
 20
-3277.9999999999959073
 30
0.0
 11
5212.0
 21
-3277.9999999999959073
 31
0.0
1001
ACDBBLOCKREPETAG
1070
     1
1071
      244
1005
148B50
  0
LINE
  5
148B51
  8
CENTER
 10
5197.2436941260311869
 20
-3175.0
 30
0.0
 11
5080.0
 21
-3174.9999999999949978
 31
0.0
1001
ACDBBLOCKREPETAG
1070
     1
1071
      245
1005
148B51
  0
LINE
  5
148B52
  8
OBJECT
 10
5092.5000000000009095
 20
-3222.0
 30
0.0
 11
5086.0
 21
-3222.0
 31
0.0
1001
ACDBBLOCKREPETAG
1070
     1
1071
      246
1005
148B52
  0
LINE
  5
148B53
  8
OBJECT
 10
5098.0
 20
-3128.0
 30
0.0
 11
5086.0
 21
-3127.9999999999959073
 31
0.0
1001
ACDBBLOCKREPETAG
1070
     1
1071
      247
1005
148B53
  0
LINE
  5
148B54
  8
OBJECT
 10
5209.0
 20
-3277.9999999999959073
 30
0.0
 11
5209.0
 21
-3241.9999999999949978
 31
0.0
1001
ACDBBLOCKREPETAG
1070
     1
1071
      248
1005
148B54
  0
LINE
  5
148B55
  8
OBJECT
 10
5209.0
 20
-3241.9999999999949978
 30
0.0
 11
5091.0
 21
-3241.9999999999949978
 31
0.0
1001
ACDBBLOCKREPETAG
1070
     1
1071
      249
1005
148B55
  0
LINE
  5
148B56
  8
OBJECT
 10
5091.0
 20
-3241.9999999999949978
 30
0.0
 11
5091.0
 21
-3277.9999999999959073
 31
0.0
1001
ACDBBLOCKREPETAG
1070
     1
1071
      250
1005
148B56
  0
LINE
  5
148B57
  8
OBJECT
 10
5204.5
 20
-3237.9999999999949978
 30
0.0
 11
5204.5
 21
-3224.9999999999959073
 31
0.0
1001
ACDBBLOCKREPETAG
1070
     1
1071
      251
1005
148B57
  0
LINE
  5
148B58
  8
OBJECT
 10
5095.5
 20
-3224.9999999999959073
 30
0.0
 11
5095.5
 21
-3237.9999999999949978
 31
0.0
1001
ACDBBLOCKREPETAG
1070
     1
1071
      252
1005
148B58
  0
LINE
  5
148B59
  8
OBJECT
 10
5095.5
 20
-3237.9999999999949978
 30
0.0
 11
5204.5
 21
-3237.9999999999949978
 31
0.0
1001
ACDBBLOCKREPETAG
1070
     1
1071
      253
1005
148B59
  0
LINE
  5
148B5A
  8
OBJECT
 10
5209.0
 20
-3241.9999999999949978
 30
0.0
 11
5204.5
 21
-3237.9999999999949978
 31
0.0
1001
ACDBBLOCKREPETAG
1070
     1
1071
      254
1005
148B5A
  0
LINE
  5
148B5B
  8
OBJECT
 10
5091.0
 20
-3241.9999999999949978
 30
0.0
 11
5095.5
 21
-3237.9999999999949978
 31
0.0
1001
ACDBBLOCKREPETAG
1070
     1
1071
      255
1005
148B5B
  0
LINE
  5
148B5C
  8
OBJECT
 10
5083.0
 20
-3112.9999999999959073
 30
0.0
 11
5080.0
 21
-3112.9999999999959073
 31
0.0
1001
ACDBBLOCKREPETAG
1070
     1
1071
      256
1005
148B5C
  0
ARC
  5
148B5D
  8
OBJECT
 10
5083.0
 20
-3115.9999999999959073
 30
0.0
 40
3.0
 50
0.0
 51
90.0
1001
ACDBBLOCKREPETAG
1070
     1
1071
      257
1005
148B5D
  0
LINE
  5
148B5E
  8
OBJECT
 10
5080.0
 20
-3236.9999999999959073
 30
0.0
 11
5095.5
 21
-3236.9999999999959073
 31
0.0
1001
ACDBBLOCKREPETAG
1070
     1
1071
      258
1005
148B5E
  0
ARC
  5
148B5F
  8
OBJECT
 10
5083.0
 20
-3233.9999999999949978
 30
0.0
 40
3.0
 50
270.0
 51
0.0
1001
ACDBBLOCKREPETAG
1070
     1
1071
      259
1005
148B5F
  0
LINE
  5
148B60
  8
OBJECT
 10
5086.0
 20
-3233.9999999999949978
 30
0.0
 11
5086.0
 21
-3115.9999999999959073
 31
0.0
1001
ACDBBLOCKREPETAG
1070
     1
1071
      260
1005
148B60
  0
LINE
  5
148B61
  8
HIDDEN
 10
5194.5
 20
-3232.9999999999959073
 30
0.0
 11
5105.5
 21
-3232.9999999999959073
 31
0.0
1001
ACDBBLOCKREPETAG
1070
     1
1071
      261
1005
148B61
  0
LINE
  5
148B62
  8
OBJECT
 10
5095.5000212374470721
 20
-3224.9999591361311104
 30
0.0
 11
5204.5000212374470721
 21
-3224.9999591361311104
 31
0.0
1001
ACDBBLOCKREPETAG
1070
     1
1071
      263
1005
148B62
  0
LINE
  5
148B63
  8
CENTER
 10
5150.0
 20
-3127.7563058739688131
 30
0.0
 11
5150.0
 21
-3299.9999999999959073
 31
0.0
1001
ACDBBLOCKREPETAG
1070
     1
1071
      264
1005
148B63
  0
ARC
  5
148B64
  8
CENTER
 10
5098.0
 20
-3227.0
 30
0.0
 40
52.0
 50
0.0
 51
90.0
1001
ACDBBLOCKREPETAG
1070
     1
1071
      265
1005
148B64
  0
ARC
  5
148B65
  8
OBJECT
 10
5092.5000000000009095
 20
-3225.0
 30
0.0
 40
3.0
 50
0.0
 51
90.0
1001
ACDBBLOCKREPETAG
1070
     1
1071
      266
1005
148B65
  0
ARC
  5
148B66
  8
OBJECT
 10
5098.0
 20
-3227.0
 30
0.0
 40
99.0
 50
1.157592897190024
 51
90.0
1001
ACDBBLOCKREPETAG
1070
     1
1071
      267
1005
148B66
  0
LINE
  5
148B67
  8
CENTER
 10
4090.0
 20
-3527.9999999999968168
 30
0.0
 11
4230.0
 21
-3527.9999999999968168
 31
0.0
1001
ACDBBLOCKREPETAG
1070
     1
1071
      271
1005
148B67
  0
LINE
  5
148B68
  8
OBJECT
 10
4160.0
 20
-3569.0
 30
0.0
 11
4214.0
 21
-3569.0
 31
0.0
1001
ACDBBLOCKREPETAG
1070
     1
1071
      272
1005
148B68
  0
LINE
  5
148B69
  8
OBJECT
 10
4160.0
 20
-3486.999999999998181
 30
0.0
 11
4213.9999999999954525
 21
-3486.999999999998181
 31
0.0
1001
ACDBBLOCKREPETAG
1070
     1
1071
      273
1005
148B69
  0
LINE
  5
148B6A
  8
OBJECT
 10
4217.0
 20
-3458.999999999998181
 30
0.0
 11
4220.0
 21
-3458.999999999998181
 31
0.0
1001
ACDBBLOCKREPETAG
1070
     1
1071
      274
1005
148B6A
  0
ARC
  5
148B6B
  8
OBJECT
 10
4217.0
 20
-3461.999999999998181
 30
0.0
 40
3.0
 50
90.0
 51
180.0
1001
ACDBBLOCKREPETAG
1070
     1
1071
      275
1005
148B6B
  0
LINE
  5
148B6C
  8
OBJECT
 10
4220.0
 20
-3582.999999999998181
 30
0.0
 11
4217.0
 21
-3582.999999999998181
 31
0.0
1001
ACDBBLOCKREPETAG
1070
     1
1071
      276
1005
148B6C
  0
ARC
  5
148B6D
  8
OBJECT
 10
4217.0
 20
-3579.999999999998181
 30
0.0
 40
3.0
 50
180.0
 51
270.0
1001
ACDBBLOCKREPETAG
1070
     1
1071
      277
1005
148B6D
  0
LINE
  5
148B6E
  8
OBJECT
 10
4214.0
 20
-3579.999999999998181
 30
0.0
 11
4214.0
 21
-3461.999999999998181
 31
0.0
1001
ACDBBLOCKREPETAG
1070
     1
1071
      278
1005
148B6E
  0
ARC
  5
148B6F
  8
OBJECT
 10
4160.0
 20
-3527.9999999999968168
 30
0.0
 40
55.0
 50
289.0112652601135892
 51
311.8018441930087192
1001
ACDBBLOCKREPETAG
1070
     1
1071
      280
1005
148B6F
  0
LINE
  5
148B70
  8
OBJECT
 10
4177.9164728671667035
 20
-3579.999999999998181
 30
0.0
 11
4142.083527132832387
 21
-3579.999999999998181
 31
0.0
1001
ACDBBLOCKREPETAG
1070
     1
1071
      281
1005
148B70
  0
ARC
  5
148B71
  8
OBJECT
 10
4160.0
 20
-3527.9999999999968168
 30
0.0
 40
55.0
 50
48.1981558069912381
 51
250.9887347398864108
1001
ACDBBLOCKREPETAG
1070
     1
1071
      282
1005
148B71
  0
LINE
  5
148B72
  8
CENTER
 10
4160.0
 20
-3594.9999999999968168
 30
0.0
 11
4160.0
 21
-3457.999999999998181
 31
0.0
1001
ACDBBLOCKREPETAG
1070
     1
1071
      283
1005
148B72
  0
ARC
  5
148B73
  8
OBJECT
 10
4160.0
 20
-3527.9999999999968168
 30
0.0
 40
52.0
 50
52.0419714192599585
 51
307.9580285807401197
1001
ACDBBLOCKREPETAG
1070
     1
1071
      284
1005
148B73
  0
ARC
  5
148B74
  8
OBJECT
 10
4160.0
 20
-3527.9999999999968168
 30
0.0
 40
47.5
 50
59.6730219032535985
 51
300.3269780967463021
1001
ACDBBLOCKREPETAG
1070
     1
1071
      285
1005
148B74
  0
ARC
  5
148B75
  8
OBJECT
 10
4160.0
 20
-3527.9999999999968168
 30
0.0
 40
40.9999999999990905
 50
90.0
 51
270.0
1001
ACDBBLOCKREPETAG
1070
     1
1071
      286
1005
148B75
  0
TEXT
  5
148B76
  8
SLIM
 10
3319.75
 20
-3697.5
 30
0.0
 40
35.0
  1
エルボ枝65左回り（L2）
 41
0.75
  0
LINE
  5
148B77
  8
OBJECT
 10
3423.0
 20
-3395.9999999999968168
 30
0.0
 11
3423.0
 21
-3374.9999999999968168
 31
0.0
1001
ACDBBLOCKREPETAG
1070
     1
1071
        0
1005
148B77
  0
LINE
  5
148B78
  8
OBJECT
 10
3423.0
 20
-3374.9999999999968168
 30
0.0
 11
3577.0
 21
-3374.9999999999968168
 31
0.0
1001
ACDBBLOCKREPETAG
1070
     1
1071
        1
1005
148B78
  0
LINE
  5
148B79
  8
HIDDEN
 10
3443.0
 20
-3444.999999999998181
 30
0.0
 11
3556.9999999999990905
 21
-3444.999999999998181
 31
0.0
1001
ACDBBLOCKREPETAG
1070
     1
1071
        2
1005
148B79
  0
LINE
  5
148B7A
  8
OBJECT
 10
3577.0
 20
-3374.9999999999968168
 30
0.0
 11
3577.0
 21
-3395.9999999999968168
 31
0.0
1001
ACDBBLOCKREPETAG
1070
     1
1071
        3
1005
148B7A
  0
LINE
  5
148B7B
  8
OBJECT
 10
3577.0
 20
-3395.9999999999968168
 30
0.0
 11
3423.0
 21
-3395.9999999999968168
 31
0.0
1001
ACDBBLOCKREPETAG
1070
     1
1071
        4
1005
148B7B
  0
LINE
  5
148B7C
  8
CENTER
 10
3500.0
 20
-3359.999999999998181
 30
0.0
 11
3500.0
 21
-3594.9999999999968168
 31
0.0
1001
ACDBBLOCKREPETAG
1070
     1
1071
        5
1005
148B7C
  0
LINE
  5
148B7D
  8
OBJECT
 10
3424.9999999999990905
 20
-3458.999999999998181
 30
0.0
 11
3424.9999999999990905
 21
-3582.999999999998181
 31
0.0
1001
ACDBBLOCKREPETAG
1070
     1
1071
        6
1005
148B7D
  0
LINE
  5
148B7E
  8
OBJECT
 10
3427.9999999999990905
 20
-3395.9999999999968168
 30
0.0
 11
3427.9999999999990905
 21
-3458.999999999998181
 31
0.0
1001
ACDBBLOCKREPETAG
1070
     1
1071
        7
1005
148B7E
  0
LINE
  5
148B7F
  8
OBJECT
 10
3572.0
 20
-3458.999999999998181
 30
0.0
 11
3572.0
 21
-3395.9999999999968168
 31
0.0
1001
ACDBBLOCKREPETAG
1070
     1
1071
        8
1005
148B7F
  0
LINE
  5
148B80
  8
OBJECT
 10
3574.9999999997999112
 20
-3582.9999999997771738
 30
0.0
 11
3580.0
 21
-3582.999999999998181
 31
0.0
1001
ACDBBLOCKREPETAG
1070
     1
1071
        9
1005
148B80
  0
LINE
  5
148B81
  8
OBJECT
 10
3580.0
 20
-3458.999999999998181
 30
0.0
 11
3424.9999999999990905
 21
-3458.999999999998181
 31
0.0
1001
ACDBBLOCKREPETAG
1070
     1
1071
       10
1005
148B81
  0
ARC
  5
148B82
  8
OBJECT
 10
3700.6872746716730944
 20
-3574.4080994101050237
 30
0.0
 40
170.6350503965855978
 50
137.4413445918430057
 51
149.9194958133664102
1001
ACDBBLOCKREPETAG
1070
     1
1071
       15
1005
148B82
  0
ARC
  5
148B83
  8
OBJECT
 10
3618.845598704051099
 20
-3530.8827266953621802
 30
0.0
 40
78.0722220217636647
 50
147.4551531037683105
 51
164.6636599771860858
1001
ACDBBLOCKREPETAG
1070
     1
1071
       16
1005
148B83
  0
ARC
  5
148B84
  8
OBJECT
 10
3585.7554349608731172
 20
-3520.9999999999968168
 30
0.0
 40
43.5535392688561771
 50
165.6884523008477004
 51
194.3115476991521859
1001
ACDBBLOCKREPETAG
1070
     1
1071
       17
1005
148B84
  0
ARC
  5
148B85
  8
OBJECT
 10
3700.6872746716730944
 20
-3467.5919005898899741
 30
0.0
 40
170.6350503965855978
 50
210.0805041866335046
 51
222.5586554081569943
1001
ACDBBLOCKREPETAG
1070
     1
1071
       18
1005
148B85
  0
ARC
  5
148B86
  8
OBJECT
 10
3618.845598704051099
 20
-3511.1172733046328176
 30
0.0
 40
78.0722220217636647
 50
195.3363400228139142
 51
212.5448468962316042
1001
ACDBBLOCKREPETAG
1070
     1
1071
       19
1005
148B86
  0
POINT
  5
148B87
  8
DOTS
 10
3500.0
 20
-3579.999999999998181
 30
0.0
1001
ACDBBLOCKREPETAG
1070
     1
1071
      186
1005
148B87
  0
LINE
  5
148B88
  8
OBJECT
 10
3524.1029330933001802
 20
-3218.8069471237117796
 30
0.0
 11
3520.6596569999978783
 21
-3207.5546219999951063
 31
0.0
1001
ACDBBLOCKREPETAG
1070
     1
1071
      300
1005
148B88
  0
LINE
  5
148B89
  8
OBJECT
 10
3486.7927499013749184
 20
-3193.2255337420770047
 30
0.0
 11
3520.6596569999978783
 21
-3207.5546219999951063
 31
0.0
1001
ACDBBLOCKREPETAG
1070
     1
1071
      302
1005
148B89
  0
ARC
  5
148B8A
  8
OBJECT
 10
3482.8961697619020015
 20
-3202.4351299990530606
 30
0.0
 40
10.0
 50
67.0667782929126304
 51
154.0147343702919045
1001
ACDBBLOCKREPETAG
1070
     1
1071
      303
1005
148B8A
  0
ARC
  5
148B8B
  8
OBJECT
 10
3486.14883903812688
 20
-3200.5538625672879789
 30
0.0
 40
7.0
 50
67.0667782929126304
 51
154.0147337749625081
1001
ACDBBLOCKREPETAG
1070
     1
1071
      304
1005
148B8B
  0
LINE
  5
148B8C
  8
OBJECT
 10
3469.4199755553031537
 20
-3218.8988850081791497
 30
0.0
 11
3479.8564918232368655
 21
-3197.4868825335638576
 31
0.0
1001
ACDBBLOCKREPETAG
1070
     1
1071
      341
1005
148B8C
  0
LINE
  5
148B8D
  8
OBJECT
 10
3465.2972169006088734
 20
-3215.7181390188238765
 30
0.0
 11
3473.9071022665079909
 21
-3198.0537300443038475
 31
0.0
1001
ACDBBLOCKREPETAG
1070
     1
1071
      342
1005
148B8D
  0
ARC
  5
148B8E
  8
OBJECT
 10
3476.579695307314978
 20
-3182.1289369828400595
 30
0.0
 40
60.0311132460326178
 50
314.0702013041880036
 51
322.3393610609062989
1001
ACDBBLOCKREPETAG
1070
     1
1071
      343
1005
148B8E
  0
CIRCLE
  5
148B8F
  8
OBJECT
 10
3500.0
 20
-3174.9999999999949978
 30
0.0
 40
53.5
1001
ACDBBLOCKREPETAG
1070
     1
1071
      344
1005
148B8F
  0
POINT
  5
148B90
  8
DOTS
 10
3500.0
 20
-3174.9999999999949978
 30
0.0
 50
270.0
1001
ACDBBLOCKREPETAG
1070
     1
1071
      362
1005
148B90
  0
LINE
  5
148B91
  8
CENTER
 10
3580.0
 20
-3174.9999999999949978
 30
0.0
 11
3405.0
 21
-3174.9999999999949978
 31
0.0
1001
ACDBBLOCKREPETAG
1070
     1
1071
       14
1005
148B91
  0
LINE
  5
148B92
  8
CENTER
 10
3500.0
 20
-3269.9999999999959073
 30
0.0
 11
3500.0
 21
-3079.9999999999959073
 31
0.0
1001
ACDBBLOCKREPETAG
1070
     1
1071
       15
1005
148B92
  0
CIRCLE
  5
148B93
  8
OBJECT
 10
3500.0
 20
-3174.9999999999949978
 30
0.0
 40
70.0
1001
ACDBBLOCKREPETAG
1070
     1
1071
       16
1005
148B93
  0
CIRCLE
  5
148B94
  8
OBJECT
 10
3500.0
 20
-3174.9999999999949978
 30
0.0
 40
77.0
1001
ACDBBLOCKREPETAG
1070
     1
1071
       17
1005
148B94
  0
ARC
  5
148B95
  8
OBJECT
 10
3500.0
 20
-3174.9999999999949978
 30
0.0
 40
80.0
 50
50.8050325738621282
 51
309.1949674261379073
1001
ACDBBLOCKREPETAG
1070
     1
1071
       18
1005
148B95
  0
LINE
  5
148B96
  8
OBJECT
 10
3545.6618002273239654
 20
-3112.9999999999959073
 30
0.0
 11
3580.0
 21
-3112.9999999999959073
 31
0.0
1001
ACDBBLOCKREPETAG
1070
     1
1071
       19
1005
148B96
  0
LINE
  5
148B97
  8
OBJECT
 10
3545.6618002273239654
 20
-3236.9999999999959073
 30
0.0
 11
3580.0
 21
-3236.9999999999959073
 31
0.0
1001
ACDBBLOCKREPETAG
1070
     1
1071
       20
1005
148B97
  0
ARC
  5
148B98
  8
OBJECT
 10
3500.0
 20
-3174.9999999999949978
 30
0.0
 40
50.0
 50
298.8199429999996255
 51
228.5237695596252934
1001
ACDBBLOCKREPETAG
1070
     1
1071
       48
1005
148B98
  0
LINE
  5
148B9B
  8
CENTER
 10
3709.9999999999990905
 20
-3527.9999999999968168
 30
0.0
 11
3570.0
 21
-3527.9999999999968168
 31
0.0
1001
ACDBBLOCKREPETAG
1070
     1
1071
      226
1005
148B9B
  0
LINE
  5
148B9C
  8
OBJECT
 10
3603.3393944403542264
 20
-3569.0
 30
0.0
 11
3586.0
 21
-3569.0
 31
0.0
1001
ACDBBLOCKREPETAG
1070
     1
1071
      227
1005
148B9C
  0
LINE
  5
148B9D
  8
OBJECT
 10
3603.3393944403542264
 20
-3486.999999999998181
 30
0.0
 11
3586.0000000000040927
 21
-3486.999999999998181
 31
0.0
1001
ACDBBLOCKREPETAG
1070
     1
1071
      228
1005
148B9D
  0
LINE
  5
148B9E
  8
OBJECT
 10
3583.0
 20
-3458.999999999998181
 30
0.0
 11
3580.0
 21
-3458.999999999998181
 31
0.0
1001
ACDBBLOCKREPETAG
1070
     1
1071
      229
1005
148B9E
  0
LINE
  5
148B9F
  8
OBJECT
 10
3580.0
 20
-3582.999999999998181
 30
0.0
 11
3583.0
 21
-3582.999999999998181
 31
0.0
1001
ACDBBLOCKREPETAG
1070
     1
1071
      230
1005
148B9F
  0
ARC
  5
148BA0
  8
OBJECT
 10
3583.0
 20
-3461.999999999998181
 30
0.0
 40
3.0
 50
0.0
 51
90.0
1001
ACDBBLOCKREPETAG
1070
     1
1071
      231
1005
148BA0
  0
ARC
  5
148BA1
  8
OBJECT
 10
3583.0
 20
-3579.999999999998181
 30
0.0
 40
3.0
 50
270.0
 51
0.0
1001
ACDBBLOCKREPETAG
1070
     1
1071
      232
1005
148BA1
  0
LINE
  5
148BA2
  8
OBJECT
 10
3586.0
 20
-3579.999999999998181
 30
0.0
 11
3586.0
 21
-3538.4403065089081792
 31
0.0
1001
ACDBBLOCKREPETAG
1070
     1
1071
      233
1005
148BA2
  0
LINE
  5
148BA3
  8
OBJECT
 10
3586.0
 20
-3517.5596934910868185
 30
0.0
 11
3586.0
 21
-3461.999999999998181
 31
0.0
1001
ACDBBLOCKREPETAG
1070
     1
1071
      234
1005
148BA3
  0
CIRCLE
  5
148BA4
  8
OBJECT
 10
3640.0
 20
-3527.9999999999968168
 30
0.0
 40
35.5
1001
ACDBBLOCKREPETAG
1070
     1
1071
      236
1005
148BA4
  0
CIRCLE
  5
148BA5
  8
OBJECT
 10
3640.0
 20
-3527.9999999999968168
 30
0.0
 40
47.0
1001
ACDBBLOCKREPETAG
1070
     1
1071
      237
1005
148BA5
  0
ARC
  5
148BA6
  8
OBJECT
 10
3640.0
 20
-3527.9999999999968168
 30
0.0
 40
55.0
 50
289.0112652601135892
 51
250.9887347398864108
1001
ACDBBLOCKREPETAG
1070
     1
1071
      238
1005
148BA6
  0
LINE
  5
148BA7
  8
OBJECT
 10
3622.0835271328319322
 20
-3579.999999999998181
 30
0.0
 11
3657.9164728671680678
 21
-3579.999999999998181
 31
0.0
1001
ACDBBLOCKREPETAG
1070
     1
1071
      239
1005
148BA7
  0
LINE
  5
148BA8
  8
CENTER
 10
3640.0
 20
-3594.9999999999968168
 30
0.0
 11
3640.0
 21
-3457.999999999998181
 31
0.0
1001
ACDBBLOCKREPETAG
1070
     1
1071
      240
1005
148BA8
  0
LINE
  5
148BA9
  8
OBJECT
 10
3695.0
 20
-3267.9999999999959073
 30
0.0
 11
3695.0
 21
-3274.9999999999959073
 31
0.0
1001
ACDBBLOCKREPETAG
1070
     1
1071
      215
1005
148BA9
  0
LINE
  5
148BAA
  8
OBJECT
 10
3695.0
 20
-3274.9999999999959073
 30
0.0
 11
3584.9999999999990905
 21
-3274.9999999999959073
 31
0.0
1001
ACDBBLOCKREPETAG
1070
     1
1071
      216
1005
148BAA
  0
LINE
  5
148BAB
  8
OBJECT
 10
3584.9999999999990905
 20
-3274.9999999999959073
 30
0.0
 11
3584.9999999999990905
 21
-3267.9999999999959073
 31
0.0
1001
ACDBBLOCKREPETAG
1070
     1
1071
      217
1005
148BAB
  0
LINE
  5
148BAC
  8
OBJECT
 10
3584.9999999999990905
 20
-3267.9999999999959073
 30
0.0
 11
3695.0
 21
-3267.9999999999959073
 31
0.0
1001
ACDBBLOCKREPETAG
1070
     1
1071
      218
1005
148BAC
  0
LINE
  5
148BAD
  8
CENTER
 10
3683.2871066422990225
 20
-3174.9999999999949978
 30
0.0
 11
3580.0
 21
-3174.9999999999949978
 31
0.0
1001
ACDBBLOCKREPETAG
1070
     1
1071
      219
1005
148BAD
  0
LINE
  5
148BAE
  8
OBJECT
 10
3592.5000000000009095
 20
-3215.9999999999931788
 30
0.0
 11
3586.0
 21
-3216.0
 31
0.0
1001
ACDBBLOCKREPETAG
1070
     1
1071
      220
1005
148BAE
  0
LINE
  5
148BAF
  8
OBJECT
 10
3595.0
 20
-3133.9999999999949978
 30
0.0
 11
3586.0
 21
-3133.9999999999949978
 31
0.0
1001
ACDBBLOCKREPETAG
1070
     1
1071
      221
1005
148BAF
  0
LINE
  5
148BB0
  8
OBJECT
 10
3692.0
 20
-3267.9999999999959073
 30
0.0
 11
3692.0
 21
-3231.9999999999959073
 31
0.0
1001
ACDBBLOCKREPETAG
1070
     1
1071
      222
1005
148BB0
  0
LINE
  5
148BB1
  8
OBJECT
 10
3692.0
 20
-3231.9999999999959073
 30
0.0
 11
3588.0
 21
-3231.9999999999959073
 31
0.0
1001
ACDBBLOCKREPETAG
1070
     1
1071
      223
1005
148BB1
  0
LINE
  5
148BB2
  8
OBJECT
 10
3588.0
 20
-3231.9999999999959073
 30
0.0
 11
3588.0
 21
-3267.9999999999959073
 31
0.0
1001
ACDBBLOCKREPETAG
1070
     1
1071
      224
1005
148BB2
  0
LINE
  5
148BB3
  8
OBJECT
 10
3687.5
 20
-3227.9999999999959073
 30
0.0
 11
3687.5
 21
-3214.9999999999959073
 31
0.0
1001
ACDBBLOCKREPETAG
1070
     1
1071
      225
1005
148BB3
  0
LINE
  5
148BB4
  8
OBJECT
 10
3592.5000000000009095
 20
-3214.9999999999959073
 30
0.0
 11
3592.5000000000009095
 21
-3227.9999999999959073
 31
0.0
1001
ACDBBLOCKREPETAG
1070
     1
1071
      226
1005
148BB4
  0
LINE
  5
148BB5
  8
OBJECT
 10
3592.5000000000009095
 20
-3227.9999999999959073
 30
0.0
 11
3687.5
 21
-3227.9999999999959073
 31
0.0
1001
ACDBBLOCKREPETAG
1070
     1
1071
      227
1005
148BB5
  0
LINE
  5
148BB6
  8
OBJECT
 10
3692.0
 20
-3231.9999999999959073
 30
0.0
 11
3687.5
 21
-3227.9999999999959073
 31
0.0
1001
ACDBBLOCKREPETAG
1070
     1
1071
      228
1005
148BB6
  0
LINE
  5
148BB7
  8
OBJECT
 10
3588.0
 20
-3231.9999999999959073
 30
0.0
 11
3592.5000000000009095
 21
-3227.9999999999959073
 31
0.0
1001
ACDBBLOCKREPETAG
1070
     1
1071
      229
1005
148BB7
  0
LINE
  5
148BB8
  8
OBJECT
 10
3583.0
 20
-3112.9999999999959073
 30
0.0
 11
3580.0
 21
-3112.9999999999959073
 31
0.0
1001
ACDBBLOCKREPETAG
1070
     1
1071
      230
1005
148BB8
  0
ARC
  5
148BB9
  8
OBJECT
 10
3583.0
 20
-3115.9999999999959073
 30
0.0
 40
3.0
 50
0.0
 51
90.0
1001
ACDBBLOCKREPETAG
1070
     1
1071
      231
1005
148BB9
  0
LINE
  5
148BBA
  8
OBJECT
 10
3580.0
 20
-3236.9999999999959073
 30
0.0
 11
3588.0
 21
-3236.9999999999959073
 31
0.0
1001
ACDBBLOCKREPETAG
1070
     1
1071
      232
1005
148BBA
  0
ARC
  5
148BBB
  8
OBJECT
 10
3583.0
 20
-3233.9999999999949978
 30
0.0
 40
3.0
 50
270.0
 51
0.0
1001
ACDBBLOCKREPETAG
1070
     1
1071
      233
1005
148BBB
  0
LINE
  5
148BBC
  8
OBJECT
 10
3586.0
 20
-3233.9999999999949978
 30
0.0
 11
3586.0
 21
-3115.9999999999959073
 31
0.0
1001
ACDBBLOCKREPETAG
1070
     1
1071
      234
1005
148BBC
  0
LINE
  5
148BBD
  8
HIDDEN
 10
3677.9999999999990905
 20
-3222.9999999999949978
 30
0.0
 11
3602.0
 21
-3222.9999999999949978
 31
0.0
1001
ACDBBLOCKREPETAG
1070
     1
1071
      235
1005
148BBD
  0
LINE
  5
148BBE
  8
OBJECT
 10
3592.4999545930149907
 20
-3214.9999956055939947
 30
0.0
 11
3687.4999545930149907
 21
-3214.9999956055939947
 31
0.0
1001
ACDBBLOCKREPETAG
1070
     1
1071
      237
1005
148BBE
  0
LINE
  5
148BBF
  8
CENTER
 10
3640.0
 20
-3289.9999999999959073
 30
0.0
 11
3640.0
 21
-3131.7128933576959753
 31
0.0
1001
ACDBBLOCKREPETAG
1070
     1
1071
      238
1005
148BBF
  0
ARC
  5
148BC0
  8
CENTER
 10
3595.0
 20
-3219.9999999999949978
 30
0.0
 40
45.0
 50
0.0
 51
90.0
1001
ACDBBLOCKREPETAG
1070
     1
1071
      239
1005
148BC0
  0
ARC
  5
148BC1
  8
OBJECT
 10
3595.0
 20
-3219.9999999999949978
 30
0.0
 40
86.0
 50
3.3330324265515121
 51
90.0
1001
ACDBBLOCKREPETAG
1070
     1
1071
      240
1005
148BC1
  0
TEXT
  5
148BC2
  8
SLIM
 10
1822.25
 20
-3697.5
 30
0.0
 40
35.0
  1
エルボ枝50左回り（L1）
 41
0.75
  0
LINE
  5
148BC3
  8
OBJECT
 10
1923.0
 20
-3395.9999999999968168
 30
0.0
 11
1923.0
 21
-3374.9999999999968168
 31
0.0
1001
ACDBBLOCKREPETAG
1070
     1
1071
        0
1005
148BC3
  0
LINE
  5
148BC4
  8
OBJECT
 10
1923.0
 20
-3374.9999999999968168
 30
0.0
 11
2076.9999999999990905
 21
-3374.9999999999968168
 31
0.0
1001
ACDBBLOCKREPETAG
1070
     1
1071
        1
1005
148BC4
  0
LINE
  5
148BC5
  8
HIDDEN
 10
1942.9999999999990905
 20
-3444.999999999998181
 30
0.0
 11
2057.0
 21
-3444.999999999998181
 31
0.0
1001
ACDBBLOCKREPETAG
1070
     1
1071
        2
1005
148BC5
  0
LINE
  5
148BC6
  8
OBJECT
 10
2076.9999999999990905
 20
-3374.9999999999968168
 30
0.0
 11
2076.9999999999990905
 21
-3395.9999999999968168
 31
0.0
1001
ACDBBLOCKREPETAG
1070
     1
1071
        3
1005
148BC6
  0
LINE
  5
148BC7
  8
OBJECT
 10
2076.9999999999990905
 20
-3395.9999999999968168
 30
0.0
 11
1923.0
 21
-3395.9999999999968168
 31
0.0
1001
ACDBBLOCKREPETAG
1070
     1
1071
        4
1005
148BC7
  0
LINE
  5
148BC8
  8
CENTER
 10
2000.0
 20
-3359.999999999998181
 30
0.0
 11
2000.0
 21
-3594.9999999999968168
 31
0.0
1001
ACDBBLOCKREPETAG
1070
     1
1071
        5
1005
148BC8
  0
LINE
  5
148BC9
  8
OBJECT
 10
1925.0
 20
-3458.999999999998181
 30
0.0
 11
1925.0
 21
-3582.999999999998181
 31
0.0
1001
ACDBBLOCKREPETAG
1070
     1
1071
        6
1005
148BC9
  0
LINE
  5
148BCA
  8
OBJECT
 10
1928.0
 20
-3395.9999999999968168
 30
0.0
 11
1928.0
 21
-3458.999999999998181
 31
0.0
1001
ACDBBLOCKREPETAG
1070
     1
1071
        7
1005
148BCA
  0
LINE
  5
148BCB
  8
OBJECT
 10
2072.0
 20
-3458.999999999998181
 30
0.0
 11
2072.0
 21
-3395.9999999999968168
 31
0.0
1001
ACDBBLOCKREPETAG
1070
     1
1071
        8
1005
148BCB
  0
LINE
  5
148BCC
  8
OBJECT
 10
2074.9999999997990017
 20
-3582.9999999997771738
 30
0.0
 11
2080.0
 21
-3582.999999999998181
 31
0.0
1001
ACDBBLOCKREPETAG
1070
     1
1071
        9
1005
148BCC
  0
LINE
  5
148BCD
  8
OBJECT
 10
2080.0
 20
-3458.999999999998181
 30
0.0
 11
1925.0
 21
-3458.999999999998181
 31
0.0
1001
ACDBBLOCKREPETAG
1070
     1
1071
       10
1005
148BCD
  0
ARC
  5
148BCE
  8
OBJECT
 10
2200.6872746716721849
 20
-3574.4080994101050237
 30
0.0
 40
170.6350503965855978
 50
137.4413445918430057
 51
149.9194958133599869
1001
ACDBBLOCKREPETAG
1070
     1
1071
       15
1005
148BCE
  0
ARC
  5
148BCF
  8
OBJECT
 10
2118.8455987040501896
 20
-3530.8827266953621802
 30
0.0
 40
78.0722220217636647
 50
147.4551531037753875
 51
164.6636599771860858
1001
ACDBBLOCKREPETAG
1070
     1
1071
       16
1005
148BCF
  0
ARC
  5
148BD0
  8
OBJECT
 10
2085.7554349608722077
 20
-3520.9999999999968168
 30
0.0
 40
43.5535392688561771
 50
165.6884523008477004
 51
194.3115476991521859
1001
ACDBBLOCKREPETAG
1070
     1
1071
       17
1005
148BD0
  0
ARC
  5
148BD1
  8
OBJECT
 10
2200.6872746716721849
 20
-3467.5919005898899741
 30
0.0
 40
170.6350503965855978
 50
210.0805041866400131
 51
222.5586554081569943
1001
ACDBBLOCKREPETAG
1070
     1
1071
       18
1005
148BD1
  0
ARC
  5
148BD2
  8
OBJECT
 10
2118.8455987040501896
 20
-3511.1172733046328176
 30
0.0
 40
78.0722220217636647
 50
195.3363400228139142
 51
212.5448468962246125
1001
ACDBBLOCKREPETAG
1070
     1
1071
       19
1005
148BD2
  0
POINT
  5
148BD3
  8
DOTS
 10
2000.0
 20
-3579.999999999998181
 30
0.0
1001
ACDBBLOCKREPETAG
1070
     1
1071
      186
1005
148BD3
  0
LINE
  5
148BD4
  8
OBJECT
 10
2024.1029330933010897
 20
-3218.8069471237117796
 30
0.0
 11
2020.6596569999960593
 21
-3207.5546219999951063
 31
0.0
1001
ACDBBLOCKREPETAG
1070
     1
1071
      300
1005
148BD4
  0
LINE
  5
148BD5
  8
OBJECT
 10
1986.7927499013740089
 20
-3193.2255337420770047
 30
0.0
 11
2020.6596569999960593
 21
-3207.5546219999951063
 31
0.0
1001
ACDBBLOCKREPETAG
1070
     1
1071
      302
1005
148BD5
  0
ARC
  5
148BD6
  8
OBJECT
 10
1982.8961697618999551
 20
-3202.4351299990530606
 30
0.0
 40
10.0
 50
67.0667782929246243
 51
154.0147343702919045
1001
ACDBBLOCKREPETAG
1070
     1
1071
      303
1005
148BD6
  0
ARC
  5
148BD7
  8
OBJECT
 10
1986.1488390381271074
 20
-3200.5538625672879789
 30
0.0
 40
7.0
 50
67.0667782929246243
 51
154.0147337749625081
1001
ACDBBLOCKREPETAG
1070
     1
1071
      304
1005
148BD7
  0
LINE
  5
148BD8
  8
OBJECT
 10
1969.4199755552999704
 20
-3218.8988850081791497
 30
0.0
 11
1979.856491823235956
 21
-3197.4868825335638576
 31
0.0
1001
ACDBBLOCKREPETAG
1070
     1
1071
      341
1005
148BD8
  0
LINE
  5
148BD9
  8
OBJECT
 10
1965.2972169006079639
 20
-3215.7181390188238765
 30
0.0
 11
1973.9071022665079909
 21
-3198.0537300443038475
 31
0.0
1001
ACDBBLOCKREPETAG
1070
     1
1071
      342
1005
148BD9
  0
ARC
  5
148BDA
  8
OBJECT
 10
1976.5796953073140685
 20
-3182.1289369828400595
 30
0.0
 40
60.0311132460326178
 50
314.0702013041880036
 51
322.3393610609062989
1001
ACDBBLOCKREPETAG
1070
     1
1071
      343
1005
148BDA
  0
CIRCLE
  5
148BDB
  8
OBJECT
 10
2000.0
 20
-3174.9999999999949978
 30
0.0
 40
53.5
1001
ACDBBLOCKREPETAG
1070
     1
1071
      344
1005
148BDB
  0
POINT
  5
148BDC
  8
DOTS
 10
2000.0
 20
-3174.9999999999949978
 30
0.0
 50
270.0
1001
ACDBBLOCKREPETAG
1070
     1
1071
      362
1005
148BDC
  0
LINE
  5
148BDD
  8
CENTER
 10
2080.0
 20
-3174.9999999999949978
 30
0.0
 11
1905.0
 21
-3174.9999999999949978
 31
0.0
1001
ACDBBLOCKREPETAG
1070
     1
1071
       14
1005
148BDD
  0
LINE
  5
148BDE
  8
CENTER
 10
2000.0
 20
-3269.9999999999959073
 30
0.0
 11
2000.0
 21
-3079.9999999999959073
 31
0.0
1001
ACDBBLOCKREPETAG
1070
     1
1071
       15
1005
148BDE
  0
CIRCLE
  5
148BDF
  8
OBJECT
 10
2000.0
 20
-3174.9999999999949978
 30
0.0
 40
70.0
1001
ACDBBLOCKREPETAG
1070
     1
1071
       16
1005
148BDF
  0
CIRCLE
  5
148BE0
  8
OBJECT
 10
2000.0
 20
-3174.9999999999949978
 30
0.0
 40
77.0
1001
ACDBBLOCKREPETAG
1070
     1
1071
       17
1005
148BE0
  0
ARC
  5
148BE1
  8
OBJECT
 10
2000.0
 20
-3174.9999999999949978
 30
0.0
 40
80.0
 50
50.8050325738621282
 51
309.1949674261379073
1001
ACDBBLOCKREPETAG
1070
     1
1071
       18
1005
148BE1
  0
LINE
  5
148BE2
  8
OBJECT
 10
2045.6618002273251022
 20
-3112.9999999999959073
 30
0.0
 11
2080.0
 21
-3112.9999999999959073
 31
0.0
1001
ACDBBLOCKREPETAG
1070
     1
1071
       19
1005
148BE2
  0
LINE
  5
148BE3
  8
OBJECT
 10
2045.6618002273251022
 20
-3236.9999999999959073
 30
0.0
 11
2080.0
 21
-3236.9999999999959073
 31
0.0
1001
ACDBBLOCKREPETAG
1070
     1
1071
       20
1005
148BE3
  0
ARC
  5
148BE4
  8
OBJECT
 10
2000.0
 20
-3174.9999999999949978
 30
0.0
 40
50.0
 50
298.8199429999996255
 51
228.5237695596248955
1001
ACDBBLOCKREPETAG
1070
     1
1071
       48
1005
148BE4
  0
LINE
  5
148BE7
  8
CENTER
 10
2201.9999999999990905
 20
-3535.9999999999968168
 30
0.0
 11
2071.0
 21
-3535.9999999999968168
 31
0.0
1001
ACDBBLOCKREPETAG
1070
     1
1071
      212
1005
148BE7
  0
LINE
  5
148BE8
  8
OBJECT
 10
2083.0
 20
-3458.999999999998181
 30
0.0
 11
2080.0
 21
-3458.999999999998181
 31
0.0
1001
ACDBBLOCKREPETAG
1070
     1
1071
      213
1005
148BE8
  0
ARC
  5
148BE9
  8
OBJECT
 10
2083.0
 20
-3461.999999999998181
 30
0.0
 40
3.0
 50
0.0
 51
90.0
1001
ACDBBLOCKREPETAG
1070
     1
1071
      214
1005
148BE9
  0
LINE
  5
148BEA
  8
OBJECT
 10
2080.0
 20
-3582.999999999998181
 30
0.0
 11
2083.0
 21
-3582.999999999998181
 31
0.0
1001
ACDBBLOCKREPETAG
1070
     1
1071
      215
1005
148BEA
  0
ARC
  5
148BEB
  8
OBJECT
 10
2083.0
 20
-3579.999999999998181
 30
0.0
 40
3.0
 50
270.0
 51
0.0
1001
ACDBBLOCKREPETAG
1070
     1
1071
      216
1005
148BEB
  0
LINE
  5
148BEC
  8
OBJECT
 10
2086.0
 20
-3579.999999999998181
 30
0.0
 11
2086.0
 21
-3461.999999999998181
 31
0.0
1001
ACDBBLOCKREPETAG
1070
     1
1071
      217
1005
148BEC
  0
CIRCLE
  5
148BED
  8
OBJECT
 10
2140.0
 20
-3535.9999999999968168
 30
0.0
 40
28.0
1001
ACDBBLOCKREPETAG
1070
     1
1071
      219
1005
148BED
  0
CIRCLE
  5
148BEE
  8
OBJECT
 10
2140.0
 20
-3535.9999999999968168
 30
0.0
 40
39.0
1001
ACDBBLOCKREPETAG
1070
     1
1071
      220
1005
148BEE
  0
ARC
  5
148BEF
  8
OBJECT
 10
2140.0
 20
-3535.9999999999968168
 30
0.0
 40
47.0
 50
290.5819692114441182
 51
249.4180307885559102
1001
ACDBBLOCKREPETAG
1070
     1
1071
      221
1005
148BEF
  0
LINE
  5
148BF0
  8
OBJECT
 10
2123.4772883581417773
 20
-3579.999999999998181
 30
0.0
 11
2156.5227116418568585
 21
-3579.999999999998181
 31
0.0
1001
ACDBBLOCKREPETAG
1070
     1
1071
      222
1005
148BF0
  0
LINE
  5
148BF1
  8
OBJECT
 10
2107.034116550060844
 20
-3502.4999999999968168
 30
0.0
 11
2086.0
 21
-3502.4999999999968168
 31
0.0
1001
ACDBBLOCKREPETAG
1070
     1
1071
      223
1005
148BF1
  0
LINE
  5
148BF2
  8
OBJECT
 10
2107.034116550060844
 20
-3569.4999999999968168
 30
0.0
 11
2086.0000098589289337
 21
-3569.4999999999968168
 31
0.0
1001
ACDBBLOCKREPETAG
1070
     1
1071
      224
1005
148BF2
  0
LINE
  5
148BF3
  8
CENTER
 10
2140.0
 20
-3594.9999999999968168
 30
0.0
 11
2140.0
 21
-3473.9999999999968168
 31
0.0
1001
ACDBBLOCKREPETAG
1070
     1
1071
      225
1005
148BF3
  0
LINE
  5
148BF4
  8
OBJECT
 10
2186.9999999999968168
 20
-3267.9999999999990905
 30
0.0
 11
2186.9999999999968168
 21
-3274.9999999999990905
 31
0.0
1001
ACDBBLOCKREPETAG
1070
     1
1071
      184
1005
148BF4
  0
LINE
  5
148BF5
  8
OBJECT
 10
2186.9999999999968168
 20
-3274.9999999999990905
 30
0.0
 11
2092.9999999999959073
 21
-3274.9999999999968168
 31
0.0
1001
ACDBBLOCKREPETAG
1070
     1
1071
      185
1005
148BF5
  0
LINE
  5
148BF6
  8
OBJECT
 10
2092.9999999999959073
 20
-3274.9999999999968168
 30
0.0
 11
2092.9999999999959073
 21
-3267.9999999999968168
 31
0.0
1001
ACDBBLOCKREPETAG
1070
     1
1071
      186
1005
148BF6
  0
LINE
  5
148BF7
  8
OBJECT
 10
2092.9999999999959073
 20
-3267.9999999999968168
 30
0.0
 11
2186.9999999999968168
 21
-3267.9999999999990905
 31
0.0
1001
ACDBBLOCKREPETAG
1070
     1
1071
      187
1005
148BF7
  0
LINE
  5
148BF8
  8
CENTER
 10
2139.9999999999968168
 20
-3289.9999999999968168
 30
0.0
 11
2140.0000000000031832
 21
-3136.5504415491609507
 31
0.0
1001
ACDBBLOCKREPETAG
1070
     1
1071
      188
1005
148BF8
  0
ARC
  5
148BF9
  8
CENTER
 10
2104.0
 20
-3211.0
 30
0.0
 40
36.0
 50
0.0
 51
90.0
1001
ACDBBLOCKREPETAG
1070
     1
1071
      189
1005
148BF9
  0
LINE
  5
148BFA
  8
OBJECT
 10
2183.9999999999968168
 20
-3267.9999999999990905
 30
0.0
 11
2183.9999999999968168
 21
-3231.9999999999990905
 31
0.0
1001
ACDBBLOCKREPETAG
1070
     1
1071
      190
1005
148BFA
  0
LINE
  5
148BFB
  8
OBJECT
 10
2183.9999999999968168
 20
-3231.9999999999990905
 30
0.0
 11
2095.9999999999959073
 21
-3231.9999999999968168
 31
0.0
1001
ACDBBLOCKREPETAG
1070
     1
1071
      191
1005
148BFB
  0
LINE
  5
148BFC
  8
OBJECT
 10
2095.9999999999959073
 20
-3231.9999999999968168
 30
0.0
 11
2095.9999999999959073
 21
-3267.9999999999968168
 31
0.0
1001
ACDBBLOCKREPETAG
1070
     1
1071
      192
1005
148BFC
  0
LINE
  5
148BFD
  8
OBJECT
 10
2179.4999999999959073
 20
-3228.0
 30
0.0
 11
2179.4999999999990905
 21
-3215.0
 31
0.0
1001
ACDBBLOCKREPETAG
1070
     1
1071
      193
1005
148BFD
  0
LINE
  5
148BFE
  8
OBJECT
 10
2100.5
 20
-3214.9999999999959073
 30
0.0
 11
2100.4999999999959073
 21
-3227.9999999999968168
 31
0.0
1001
ACDBBLOCKREPETAG
1070
     1
1071
      194
1005
148BFE
  0
LINE
  5
148BFF
  8
OBJECT
 10
2100.4999999999959073
 20
-3227.9999999999968168
 30
0.0
 11
2179.4999999999959073
 21
-3228.0
 31
0.0
1001
ACDBBLOCKREPETAG
1070
     1
1071
      195
1005
148BFF
  0
LINE
  5
148C00
  8
OBJECT
 10
2183.9999999999968168
 20
-3231.9999999999990905
 30
0.0
 11
2179.4999999999959073
 21
-3228.0
 31
0.0
1001
ACDBBLOCKREPETAG
1070
     1
1071
      196
1005
148C00
  0
LINE
  5
148C01
  8
OBJECT
 10
2095.9999999999959073
 20
-3231.9999999999968168
 30
0.0
 11
2100.4999999999959073
 21
-3227.9999999999968168
 31
0.0
1001
ACDBBLOCKREPETAG
1070
     1
1071
      197
1005
148C01
  0
LINE
  5
148C02
  8
HIDDEN
 10
2169.9999999999990905
 20
-3223.0
 30
0.0
 11
2109.9999999999990905
 21
-3222.9999999999959073
 31
0.0
1001
ACDBBLOCKREPETAG
1070
     1
1071
      198
1005
148C02
  0
LINE
  5
148C03
  8
OBJECT
 10
2082.9999999999959073
 20
-3236.9999999999959073
 30
0.0
 11
2079.9999999999959073
 21
-3236.9999999999959073
 31
0.0
1001
ACDBBLOCKREPETAG
1070
     1
1071
      200
1005
148C03
  0
ARC
  5
148C04
  8
OBJECT
 10
2082.9999999999959073
 20
-3233.9999999999949978
 30
0.0
 40
3.0
 50
270.0
 51
0.0
1001
ACDBBLOCKREPETAG
1070
     1
1071
      201
1005
148C04
  0
LINE
  5
148C05
  8
OBJECT
 10
2080.0000000000031832
 20
-3112.9999999999959073
 30
0.0
 11
2083.0000000000031832
 21
-3112.9999999999959073
 31
0.0
1001
ACDBBLOCKREPETAG
1070
     1
1071
      202
1005
148C05
  0
ARC
  5
148C06
  8
OBJECT
 10
2083.0000000000031832
 20
-3115.9999999999959073
 30
0.0
 40
3.0
 50
0.0
 51
90.0
1001
ACDBBLOCKREPETAG
1070
     1
1071
      203
1005
148C06
  0
LINE
  5
148C07
  8
OBJECT
 10
2086.0000000000031832
 20
-3115.9999999999959073
 30
0.0
 11
2085.9999999999959073
 21
-3233.9999999999949978
 31
0.0
1001
ACDBBLOCKREPETAG
1070
     1
1071
      204
1005
148C07
  0
LINE
  5
148C08
  8
OBJECT
 10
2100.4999963732579999
 20
-3215.0000755213809498
 30
0.0
 11
2179.4999963732589094
 21
-3215.0000755213832235
 31
0.0
1001
ACDBBLOCKREPETAG
1070
     1
1071
      206
1005
148C08
  0
LINE
  5
148C09
  8
CENTER
 10
2178.4495584508399588
 20
-3175.0000000000031832
 30
0.0
 11
2080.0
 21
-3174.9999999999949978
 31
0.0
1001
ACDBBLOCKREPETAG
1070
     1
1071
      207
1005
148C09
  0
LINE
  5
148C0A
  8
OBJECT
 10
2095.9999999999959073
 20
-3233.9999999999959073
 30
0.0
 11
2085.9999999999959073
 21
-3234.0
 31
0.0
1001
ACDBBLOCKREPETAG
1070
     1
1071
      208
1005
148C0A
  0
LINE
  5
148C0B
  8
OBJECT
 10
2101.5
 20
-3208.5
 30
0.0
 11
2086.0
 21
-3208.4999999999959073
 31
0.0
1001
ACDBBLOCKREPETAG
1070
     1
1071
      209
1005
148C0B
  0
LINE
  5
148C0C
  8
OBJECT
 10
2104.0
 20
-3141.5
 30
0.0
 11
2086.0
 21
-3141.5
 31
0.0
1001
ACDBBLOCKREPETAG
1070
     1
1071
      210
1005
148C0C
  0
LINE
  5
148C0D
  8
OBJECT
 10
2106.5
 20
-3215.0000755213809498
 30
0.0
 11
2106.5
 21
-3213.5
 31
0.0
1001
ACDBBLOCKREPETAG
1070
     1
1071
      211
1005
148C0D
  0
ARC
  5
148C0E
  8
OBJECT
 10
2101.5
 20
-3213.5
 30
0.0
 40
5.0
 50
0.0
 51
90.0
1001
ACDBBLOCKREPETAG
1070
     1
1071
      212
1005
148C0E
  0
LINE
  5
148C0F
  8
OBJECT
 10
2173.5
 20
-3215.0000755213832235
 30
0.0
 11
2173.5
 21
-3211.0000000000040927
 31
0.0
1001
ACDBBLOCKREPETAG
1070
     1
1071
      213
1005
148C0F
  0
ARC
  5
148C10
  8
OBJECT
 10
2104.0
 20
-3211.0
 30
0.0
 40
69.5
 50
0.0
 51
90.0
1001
ACDBBLOCKREPETAG
1070
     1
1071
      214
1005
148C10
  0
LINE
  5
148C11
  8
CENTER
 10
12227.0
 20
-696.0
 30
0.0
 11
12071.0
 21
-696.0
 31
0.0
1001
ACDBBLOCKREPETAG
1070
     1
1071
      241
1005
148C11
  0
LINE
  5
148C12
  8
OBJECT
 10
12109.5648667616897001
 20
-743.0
 30
0.0
 11
12086.0
 21
-743.0
 31
0.0
1001
ACDBBLOCKREPETAG
1070
     1
1071
      242
1005
148C12
  0
LINE
  5
148C13
  8
OBJECT
 10
12109.5648667616897001
 20
-649.0
 30
0.0
 11
12086.0
 21
-649.0
 31
0.0
1001
ACDBBLOCKREPETAG
1070
     1
1071
      243
1005
148C13
  0
LINE
  5
148C14
  8
OBJECT
 10
12083.0
 20
-634.0
 30
0.0
 11
12080.0
 21
-634.0
 31
0.0
1001
ACDBBLOCKREPETAG
1070
     1
1071
      244
1005
148C14
  0
LINE
  5
148C15
  8
OBJECT
 10
12080.0
 20
-758.0
 30
0.0
 11
12083.0
 21
-758.0
 31
0.0
1001
ACDBBLOCKREPETAG
1070
     1
1071
      245
1005
148C15
  0
ARC
  5
148C16
  8
OBJECT
 10
12083.0
 20
-637.0
 30
0.0
 40
3.0
 50
0.0
 51
90.0
1001
ACDBBLOCKREPETAG
1070
     1
1071
      246
1005
148C16
  0
ARC
  5
148C17
  8
OBJECT
 10
12083.0
 20
-755.0
 30
0.0
 40
3.0
 50
270.0
 51
0.0
1001
ACDBBLOCKREPETAG
1070
     1
1071
      247
1005
148C17
  0
LINE
  5
148C18
  8
OBJECT
 10
12086.0
 20
-755.0
 30
0.0
 11
12086.0
 21
-637.0
 31
0.0
1001
ACDBBLOCKREPETAG
1070
     1
1071
      248
1005
148C18
  0
CIRCLE
  5
148C19
  8
OBJECT
 10
12150.0
 20
-696.0
 30
0.0
 40
54.0
1001
ACDBBLOCKREPETAG
1070
     1
1071
      250
1005
148C19
  0
CIRCLE
  5
148C1A
  8
OBJECT
 10
12150.0
 20
-696.0
 30
0.0
 40
41.5
1001
ACDBBLOCKREPETAG
1070
     1
1071
      251
1005
148C1A
  0
ARC
  5
148C1B
  8
OBJECT
 10
12150.0
 20
-696.0
 30
0.0
 40
62.0
 50
287.8965511292071824
 51
252.1034488707927892
1001
ACDBBLOCKREPETAG
1070
     1
1071
      252
1005
148C1B
  0
LINE
  5
148C1C
  8
CENTER
 10
12150.0
 20
-770.0
 30
0.0
 11
12150.0
 21
-619.0
 31
0.0
1001
ACDBBLOCKREPETAG
1070
     1
1071
      253
1005
148C1C
  0
LINE
  5
148C1D
  8
OBJECT
 10
12130.9474411167302605
 20
-755.0
 30
0.0
 11
12169.0525588832497306
 21
-755.0
 31
0.0
1001
ACDBBLOCKREPETAG
1070
     1
1071
      254
1005
148C1D
  0
LINE
  5
148C1E
  8
OBJECT
 10
12212.0
 20
-303.0000000000047748
 30
0.0
 11
12212.0
 21
-310.0000000000047748
 31
0.0
1001
ACDBBLOCKREPETAG
1070
     1
1071
      241
1005
148C1E
  0
LINE
  5
148C1F
  8
OBJECT
 10
12212.0
 20
-310.0000000000047748
 30
0.0
 11
12088.0
 21
-310.0000000000047748
 31
0.0
1001
ACDBBLOCKREPETAG
1070
     1
1071
      242
1005
148C1F
  0
LINE
  5
148C20
  8
OBJECT
 10
12088.0
 20
-310.0000000000047748
 30
0.0
 11
12088.0
 21
-303.0000000000047748
 31
0.0
1001
ACDBBLOCKREPETAG
1070
     1
1071
      243
1005
148C20
  0
LINE
  5
148C21
  8
OBJECT
 10
12088.0
 20
-303.0000000000047748
 30
0.0
 11
12212.0
 21
-303.0000000000047748
 31
0.0
1001
ACDBBLOCKREPETAG
1070
     1
1071
      244
1005
148C21
  0
LINE
  5
148C22
  8
CENTER
 10
12197.2436941260293679
 20
-200.0000000000084128
 30
0.0
 11
12080.0
 21
-200.0000000000048033
 31
0.0
1001
ACDBBLOCKREPETAG
1070
     1
1071
      245
1005
148C22
  0
LINE
  5
148C23
  8
OBJECT
 10
12092.5
 20
-247.0000000000084128
 30
0.0
 11
12086.0
 21
-247.0000000000084128
 31
0.0
1001
ACDBBLOCKREPETAG
1070
     1
1071
      246
1005
148C23
  0
LINE
  5
148C24
  8
OBJECT
 10
12098.0
 20
-153.0000000000084128
 30
0.0
 11
12086.0
 21
-153.0000000000048033
 31
0.0
1001
ACDBBLOCKREPETAG
1070
     1
1071
      247
1005
148C24
  0
LINE
  5
148C25
  8
OBJECT
 10
12209.0
 20
-303.0000000000047748
 30
0.0
 11
12209.0
 21
-267.0000000000047748
 31
0.0
1001
ACDBBLOCKREPETAG
1070
     1
1071
      248
1005
148C25
  0
LINE
  5
148C26
  8
OBJECT
 10
12209.0
 20
-267.0000000000047748
 30
0.0
 11
12091.0
 21
-267.0000000000047748
 31
0.0
1001
ACDBBLOCKREPETAG
1070
     1
1071
      249
1005
148C26
  0
LINE
  5
148C27
  8
OBJECT
 10
12091.0
 20
-267.0000000000047748
 30
0.0
 11
12091.0
 21
-303.0000000000047748
 31
0.0
1001
ACDBBLOCKREPETAG
1070
     1
1071
      250
1005
148C27
  0
LINE
  5
148C28
  8
OBJECT
 10
12204.5
 20
-263.0000000000047748
 30
0.0
 11
12204.5
 21
-250.0000000000048033
 31
0.0
1001
ACDBBLOCKREPETAG
1070
     1
1071
      251
1005
148C28
  0
LINE
  5
148C29
  8
OBJECT
 10
12095.5
 20
-250.0000000000048033
 30
0.0
 11
12095.5
 21
-263.0000000000047748
 31
0.0
1001
ACDBBLOCKREPETAG
1070
     1
1071
      252
1005
148C29
  0
LINE
  5
148C2A
  8
OBJECT
 10
12095.5
 20
-263.0000000000047748
 30
0.0
 11
12204.5
 21
-263.0000000000047748
 31
0.0
1001
ACDBBLOCKREPETAG
1070
     1
1071
      253
1005
148C2A
  0
LINE
  5
148C2B
  8
OBJECT
 10
12209.0
 20
-267.0000000000047748
 30
0.0
 11
12204.5
 21
-263.0000000000047748
 31
0.0
1001
ACDBBLOCKREPETAG
1070
     1
1071
      254
1005
148C2B
  0
LINE
  5
148C2C
  8
OBJECT
 10
12091.0
 20
-267.0000000000047748
 30
0.0
 11
12095.5
 21
-263.0000000000047748
 31
0.0
1001
ACDBBLOCKREPETAG
1070
     1
1071
      255
1005
148C2C
  0
LINE
  5
148C2D
  8
OBJECT
 10
12083.0
 20
-138.0000000000048033
 30
0.0
 11
12080.0
 21
-138.0000000000048033
 31
0.0
1001
ACDBBLOCKREPETAG
1070
     1
1071
      256
1005
148C2D
  0
ARC
  5
148C2E
  8
OBJECT
 10
12083.0
 20
-141.0000000000048033
 30
0.0
 40
3.0
 50
0.0
 51
90.0
1001
ACDBBLOCKREPETAG
1070
     1
1071
      257
1005
148C2E
  0
LINE
  5
148C2F
  8
OBJECT
 10
12080.0
 20
-262.0000000000047748
 30
0.0
 11
12095.5
 21
-262.0000000000047748
 31
0.0
1001
ACDBBLOCKREPETAG
1070
     1
1071
      258
1005
148C2F
  0
ARC
  5
148C30
  8
OBJECT
 10
12083.0
 20
-259.0000000000047748
 30
0.0
 40
3.0
 50
270.0
 51
0.0
1001
ACDBBLOCKREPETAG
1070
     1
1071
      259
1005
148C30
  0
LINE
  5
148C31
  8
OBJECT
 10
12086.0
 20
-259.0000000000047748
 30
0.0
 11
12086.0
 21
-141.0000000000048033
 31
0.0
1001
ACDBBLOCKREPETAG
1070
     1
1071
      260
1005
148C31
  0
LINE
  5
148C32
  8
HIDDEN
 10
12194.5
 20
-258.0000000000047748
 30
0.0
 11
12105.5
 21
-258.0000000000047748
 31
0.0
1001
ACDBBLOCKREPETAG
1070
     1
1071
      261
1005
148C32
  0
LINE
  5
148C33
  8
OBJECT
 10
12095.50002123745071
 20
-249.9999591361386138
 30
0.0
 11
12204.5000212374397961
 21
-249.9999591361386138
 31
0.0
1001
ACDBBLOCKREPETAG
1070
     1
1071
      263
1005
148C33
  0
LINE
  5
148C34
  8
CENTER
 10
12150.0
 20
-152.7563058739771975
 30
0.0
 11
12150.0
 21
-325.0000000000047748
 31
0.0
1001
ACDBBLOCKREPETAG
1070
     1
1071
      264
1005
148C34
  0
ARC
  5
148C35
  8
CENTER
 10
12098.0
 20
-252.0000000000084128
 30
0.0
 40
52.0
 50
0.0
 51
90.0
1001
ACDBBLOCKREPETAG
1070
     1
1071
      265
1005
148C35
  0
ARC
  5
148C36
  8
OBJECT
 10
12092.5
 20
-250.0000000000084128
 30
0.0
 40
3.0
 50
0.0
 51
90.0
1001
ACDBBLOCKREPETAG
1070
     1
1071
      266
1005
148C36
  0
ARC
  5
148C37
  8
OBJECT
 10
12098.0
 20
-252.0000000000084128
 30
0.0
 40
99.0
 50
1.1575928971889711
 51
90.0
1001
ACDBBLOCKREPETAG
1070
     1
1071
      267
1005
148C37
  0
LINE
  5
148C38
  8
SLIM
 10
11927.3018300565199752
 20
-155.9548403695825982
 30
0.0
 11
11955.9548403695807792
 21
-127.3018300565280043
 31
0.0
1001
GRADIENTCOLOR1ACI
1070
     5
1001
GRADIENTCOLOR2ACI
1070
     2
1001
ACAD
1010
0.0
1020
0.0
1030
0.0
1001
ACDBBLOCKREPETAG
1070
     1
1071
      442
1005
148C38
  0
LINE
  5
148C39
  8
SLIM
 10
11919.4861520708400349
 20
-172.7507744763375968
 30
0.0
 11
11938.2903089572700992
 21
-153.9466175899021891
 31
0.0
1001
GRADIENTCOLOR1ACI
1070
     5
1001
GRADIENTCOLOR2ACI
1070
     2
1001
ACAD
1010
0.0
1020
0.0
1030
0.0
1001
ACDBBLOCKREPETAG
1070
     1
1071
      443
1005
148C39
  0
LINE
  5
148C3A
  8
SLIM
 10
11953.946617589899688
 20
-138.2903089572774036
 30
0.0
 11
11972.7507744763297524
 21
-119.486152070841996
 31
0.0
1001
GRADIENTCOLOR1ACI
1070
     5
1001
GRADIENTCOLOR2ACI
1070
     2
1001
ACAD
1010
0.0
1020
0.0
1030
0.0
1001
ACDBBLOCKREPETAG
1070
     1
1071
      444
1005
148C3A
  0
LINE
  5
148C3B
  8
SLIM
 10
11916.3596679933798441
 20
-184.8575146748661098
 30
0.0
 11
11927.6959583557800215
 21
-173.5212243124618112
 31
0.0
1001
GRADIENTCOLOR1ACI
1070
     5
1001
GRADIENTCOLOR2ACI
1070
     2
1001
ACAD
1010
0.0
1020
0.0
1030
0.0
1001
ACDBBLOCKREPETAG
1070
     1
1071
      445
1005
148C3B
  0
LINE
  5
148C3C
  8
SLIM
 10
11973.5212243124606175
 20
-127.6959583557868996
 30
0.0
 11
11984.8575146748607949
 21
-116.3596679933827005
 31
0.0
1001
GRADIENTCOLOR1ACI
1070
     5
1001
GRADIENTCOLOR2ACI
1070
     2
1001
ACAD
1010
0.0
1020
0.0
1030
0.0
1001
ACDBBLOCKREPETAG
1070
     1
1071
      446
1005
148C3C
  0
LINE
  5
148C3D
  8
SLIM
 10
11915.144057589050135
 20
-195.0533812002607021
 30
0.0
 11
11924.3030216431798181
 21
-185.8944171461307064
 31
0.0
1001
GRADIENTCOLOR1ACI
1070
     5
1001
GRADIENTCOLOR2ACI
1070
     2
1001
ACAD
1010
0.0
1020
0.0
1030
0.0
1001
ACDBBLOCKREPETAG
1070
     1
1071
      447
1005
148C3D
  0
LINE
  5
148C3E
  8
SLIM
 10
11985.8944171461207588
 20
-124.3030216431871935
 30
0.0
 11
11995.0533812002504419
 21
-115.1440575890573967
 31
0.0
1001
GRADIENTCOLOR1ACI
1070
     5
1001
GRADIENTCOLOR2ACI
1070
     2
1001
ACAD
1010
0.0
1020
0.0
1030
0.0
1001
ACDBBLOCKREPETAG
1070
     1
1071
      448
1005
148C3E
  0
LINE
  5
148C3F
  8
SLIM
 10
11915.0979635574694839
 20
-204.079731352909107
 30
0.0
 11
11919.1776949103605148
 21
-200.0000000000048033
 31
0.0
1001
GRADIENTCOLOR1ACI
1070
     5
1001
GRADIENTCOLOR2ACI
1070
     2
1001
ACAD
1010
0.0
1020
0.0
1030
0.0
1001
ACDBBLOCKREPETAG
1070
     1
1071
      449
1005
148C3F
  0
LINE
  5
148C40
  8
SLIM
 10
12000.0
 20
-119.1776949103823995
 30
0.0
 11
12004.0797313529001258
 21
-115.0979635574780957
 31
0.0
1001
GRADIENTCOLOR1ACI
1070
     5
1001
GRADIENTCOLOR2ACI
1070
     2
1001
ACAD
1010
0.0
1020
0.0
1030
0.0
1001
ACDBBLOCKREPETAG
1070
     1
1071
      450
1005
148C40
  0
LINE
  5
148C41
  8
SLIM
 10
11919.1776949103605148
 20
-200.0000000000048033
 30
0.0
 11
11923.0999621611699695
 21
-196.0777327492114921
 31
0.0
1001
GRADIENTCOLOR1ACI
1070
     5
1001
GRADIENTCOLOR2ACI
1070
     2
1001
ACAD
1010
0.0
1020
0.0
1030
0.0
1001
ACDBBLOCKREPETAG
1070
     1
1071
      451
1005
148C41
  0
LINE
  5
148C42
  8
SLIM
 10
11996.0777327492105542
 20
-123.099962161175597
 30
0.0
 11
12000.0
 21
-119.1776949103823995
 31
0.0
1001
GRADIENTCOLOR1ACI
1070
     5
1001
GRADIENTCOLOR2ACI
1070
     2
1001
ACAD
1010
0.0
1020
0.0
1030
0.0
1001
ACDBBLOCKREPETAG
1070
     1
1071
      452
1005
148C42
  0
LINE
  5
148C43
  8
SLIM
 10
11915.88997262086923
 20
-212.2679784105795875
 30
0.0
 11
11923.1622307771704072
 21
-204.995720254282304
 31
0.0
1001
GRADIENTCOLOR1ACI
1070
     5
1001
GRADIENTCOLOR2ACI
1070
     2
1001
ACAD
1010
0.0
1020
0.0
1030
0.0
1001
ACDBBLOCKREPETAG
1070
     1
1071
      453
1005
148C43
  0
LINE
  5
148C44
  8
SLIM
 10
12004.9957202542791492
 20
-123.1622307771740026
 30
0.0
 11
12012.2679784105694125
 21
-115.8899726208767049
 31
0.0
1001
GRADIENTCOLOR1ACI
1070
     5
1001
GRADIENTCOLOR2ACI
1070
     2
1001
ACAD
1010
0.0
1020
0.0
1030
0.0
1001
ACDBBLOCKREPETAG
1070
     1
1071
      454
1005
148C44
  0
LINE
  5
148C45
  8
SLIM
 10
11917.338265695150767
 20
-219.799941457367197
 30
0.0
 11
11924.1101477855499979
 21
-213.0280593669693019
 31
0.0
1001
GRADIENTCOLOR1ACI
1070
     5
1001
GRADIENTCOLOR2ACI
1070
     2
1001
ACAD
1010
0.0
1020
0.0
1030
0.0
1001
ACDBBLOCKREPETAG
1070
     1
1071
      455
1005
148C45
  0
LINE
  5
148C46
  8
SLIM
 10
12013.0280593669594964
 20
-124.1101477855561939
 30
0.0
 11
12019.7999414573605463
 21
-117.3382656951582987
 31
0.0
1001
GRADIENTCOLOR1ACI
1070
     5
1001
GRADIENTCOLOR2ACI
1070
     2
1001
ACAD
1010
0.0
1020
0.0
1030
0.0
1001
ACDBBLOCKREPETAG
1070
     1
1071
      456
1005
148C46
  0
LINE
  5
148C47
  8
SLIM
 10
11919.3312594063008873
 20
-226.7872038672844894
 30
0.0
 11
11925.7443819593408989
 21
-220.3740813142505885
 31
0.0
1001
GRADIENTCOLOR1ACI
1070
     5
1001
GRADIENTCOLOR2ACI
1070
     2
1001
ACAD
1010
0.0
1020
0.0
1030
0.0
1001
ACDBBLOCKREPETAG
1070
     1
1071
      457
1005
148C47
  0
LINE
  5
148C48
  8
SLIM
 10
12020.3740813142394472
 20
-125.7443819593439969
 30
0.0
 11
12026.7872038672794588
 21
-119.331259406310096
 31
0.0
1001
GRADIENTCOLOR1ACI
1070
     5
1001
GRADIENTCOLOR2ACI
1070
     2
1001
ACAD
1010
0.0
1020
0.0
1030
0.0
1001
ACDBBLOCKREPETAG
1070
     1
1071
      458
1005
148C48
  0
LINE
  5
148C49
  8
SLIM
 10
11921.7957163186201797
 20
-233.3030030760386069
 30
0.0
 11
11927.9462473957792099
 21
-227.152471998880003
 31
0.0
1001
GRADIENTCOLOR1ACI
1070
     5
1001
GRADIENTCOLOR2ACI
1070
     2
1001
ACAD
1010
0.0
1020
0.0
1030
0.0
1001
ACDBBLOCKREPETAG
1070
     1
1071
      459
1005
148C49
  0
LINE
  5
148C4A
  8
SLIM
 10
12027.152471998870169
 20
-127.9462473957837005
 30
0.0
 11
12033.3030030760291993
 21
-121.7957163186251961
 31
0.0
1001
GRADIENTCOLOR1ACI
1070
     5
1001
GRADIENTCOLOR2ACI
1070
     2
1001
ACAD
1010
0.0
1020
0.0
1030
0.0
1001
ACDBBLOCKREPETAG
1070
     1
1071
      460
1005
148C4A
  0
LINE
  5
148C4B
  8
SLIM
 10
11924.681663531340746
 20
-239.3973119843832933
 30
0.0
 11
11930.6398768643903168
 21
-233.4390986513353141
 31
0.0
1001
GRADIENTCOLOR1ACI
1070
     5
1001
GRADIENTCOLOR2ACI
1070
     2
1001
ACAD
1010
0.0
1020
0.0
1030
0.0
1001
ACDBBLOCKREPETAG
1070
     1
1071
      461
1005
148C4B
  0
LINE
  5
148C4C
  8
SLIM
 10
12033.439098651329914
 20
-130.6398768643977064
 30
0.0
 11
12039.3973119843794848
 21
-124.6816635313495993
 31
0.0
1001
GRADIENTCOLOR1ACI
1070
     5
1001
GRADIENTCOLOR2ACI
1070
     2
1001
ACAD
1010
0.0
1020
0.0
1030
0.0
1001
ACDBBLOCKREPETAG
1070
     1
1071
      462
1005
148C4C
  0
LINE
  5
148C4D
  8
SLIM
 10
11927.9544611024193728
 20
-245.1047705343725909
 30
0.0
 11
11933.7750070149904786
 21
-239.2842246218031903
 31
0.0
1001
GRADIENTCOLOR1ACI
1070
     5
1001
GRADIENTCOLOR2ACI
1070
     2
1001
ACAD
1010
0.0
1020
0.0
1030
0.0
1001
ACDBBLOCKREPETAG
1070
     1
1071
      463
1005
148C4D
  0
LINE
  5
148C4E
  8
SLIM
 10
12039.2842246218006039
 20
-133.7750070149988915
 30
0.0
 11
12045.1047705343698908
 21
-127.9544611024295051
 31
0.0
1001
GRADIENTCOLOR1ACI
1070
     5
1001
GRADIENTCOLOR2ACI
1070
     2
1001
ACAD
1010
0.0
1020
0.0
1030
0.0
1001
ACDBBLOCKREPETAG
1070
     1
1071
      464
1005
148C4E
  0
LINE
  5
148C4F
  8
SLIM
 10
11931.5903319686603936
 20
-250.449155789201086
 30
0.0
 11
11937.3182075880595221
 21
-244.7212801698090061
 31
0.0
1001
GRADIENTCOLOR1ACI
1070
     5
1001
GRADIENTCOLOR2ACI
1070
     2
1001
ACAD
1010
0.0
1020
0.0
1030
0.0
1001
ACDBBLOCKREPETAG
1070
     1
1071
      465
1005
148C4F
  0
LINE
  5
148C50
  8
SLIM
 10
12044.7212801698005933
 20
-137.3182075880621937
 30
0.0
 11
12050.4491557891906268
 21
-131.5903319686701991
 31
0.0
1001
GRADIENTCOLOR1ACI
1070
     5
1001
GRADIENTCOLOR2ACI
1070
     2
1001
ACAD
1010
0.0
1020
0.0
1030
0.0
1001
ACDBBLOCKREPETAG
1070
     1
1071
      466
1005
148C50
  0
LINE
  5
148C51
  8
SLIM
 10
11935.5737496925194137
 20
-255.4459941864091093
 30
0.0
 11
11941.2481105415899947
 21
-249.7716333373460031
 31
0.0
1001
GRADIENTCOLOR1ACI
1070
     5
1001
GRADIENTCOLOR2ACI
1070
     2
1001
ACAD
1010
0.0
1020
0.0
1030
0.0
1001
ACDBBLOCKREPETAG
1070
     1
1071
      467
1005
148C51
  0
LINE
  5
148C52
  8
SLIM
 10
12053.0197438789200532
 20
-138.0000000000048033
 30
0.0
 11
12055.4459941864006396
 21
-135.5737496925312087
 31
0.0
1001
GRADIENTCOLOR1ACI
1070
     5
1001
GRADIENTCOLOR2ACI
1070
     2
1001
ACAD
1010
0.0
1020
0.0
1030
0.0
1001
ACDBBLOCKREPETAG
1070
     1
1071
      468
1005
148C52
  0
LINE
  5
148C53
  8
SLIM
 10
11939.8959235991405876
 20
-260.1040764008612882
 30
0.0
 11
11945.552777848630285
 21
-254.4472221513688908
 31
0.0
1001
GRADIENTCOLOR1ACI
1070
     5
1001
GRADIENTCOLOR2ACI
1070
     2
1001
ACAD
1010
0.0
1020
0.0
1030
0.0
1001
ACDBBLOCKREPETAG
1070
     1
1071
      469
1005
148C53
  0
LINE
  5
148C54
  8
SLIM
 10
11944.5540058135902655
 20
-264.4262503074780852
 30
0.0
 11
11950.2283666626608465
 21
-258.7518894584151212
 31
0.0
1001
GRADIENTCOLOR1ACI
1070
     5
1001
GRADIENTCOLOR2ACI
1070
     2
1001
ACAD
1010
0.0
1020
0.0
1030
0.0
1001
ACDBBLOCKREPETAG
1070
     1
1071
      470
1005
148C54
  0
LINE
  5
148C55
  8
SLIM
 10
11949.5508442108002782
 20
-268.409668031339379
 30
0.0
 11
11955.2787198301903118
 21
-262.6817924119474128
 31
0.0
1001
GRADIENTCOLOR1ACI
1070
     5
1001
GRADIENTCOLOR2ACI
1070
     2
1001
ACAD
1010
0.0
1020
0.0
1030
0.0
1001
ACDBBLOCKREPETAG
1070
     1
1071
      471
1005
148C55
  0
LINE
  5
148C56
  8
SLIM
 10
11954.8952294656301092
 20
-272.0455388975801156
 30
0.0
 11
11960.7157753781993961
 21
-266.2249929850107151
 31
0.0
1001
GRADIENTCOLOR1ACI
1070
     5
1001
GRADIENTCOLOR2ACI
1070
     2
1001
ACAD
1010
0.0
1020
0.0
1030
0.0
1001
ACDBBLOCKREPETAG
1070
     1
1071
      472
1005
148C56
  0
LINE
  5
148C57
  8
SLIM
 10
11960.6026880156205152
 20
-275.3183364686598793
 30
0.0
 11
11966.560901348670086
 21
-269.3601231356119001
 31
0.0
1001
GRADIENTCOLOR1ACI
1070
     5
1001
GRADIENTCOLOR2ACI
1070
     2
1001
ACAD
1010
0.0
1020
0.0
1030
0.0
1001
ACDBBLOCKREPETAG
1070
     1
1071
      473
1005
148C57
  0
LINE
  5
148C58
  8
SLIM
 10
11966.6969969239598868
 20
-278.2042836813844247
 30
0.0
 11
11972.847528001120736
 21
-272.0537526042256218
 31
0.0
1001
GRADIENTCOLOR1ACI
1070
     5
1001
GRADIENTCOLOR2ACI
1070
     2
1001
ACAD
1010
0.0
1020
0.0
1030
0.0
1001
ACDBBLOCKREPETAG
1070
     1
1071
      474
1005
148C58
  0
LINE
  5
148C59
  8
SLIM
 10
11973.2127961327205412
 20
-280.6687405936993969
 30
0.0
 11
11979.6259186857496388
 21
-274.2556180406655244
 31
0.0
1001
GRADIENTCOLOR1ACI
1070
     5
1001
GRADIENTCOLOR2ACI
1070
     2
1001
ACAD
1010
0.0
1020
0.0
1030
0.0
1001
ACDBBLOCKREPETAG
1070
     1
1071
      475
1005
148C59
  0
LINE
  5
148C5A
  8
SLIM
 10
11980.2000585426394537
 20
-282.6617343048512225
 30
0.0
 11
11986.9719406330204947
 21
-275.8898522144534127
 31
0.0
1001
GRADIENTCOLOR1ACI
1070
     5
1001
GRADIENTCOLOR2ACI
1070
     2
1001
ACAD
1010
0.0
1020
0.0
1030
0.0
1001
ACDBBLOCKREPETAG
1070
     1
1071
      476
1005
148C5A
  0
LINE
  5
148C5B
  8
SLIM
 10
11987.7320215894196735
 20
-284.1100273791328163
 30
0.0
 11
11995.0042797457208508
 21
-276.8377692228356182
 31
0.0
1001
GRADIENTCOLOR1ACI
1070
     5
1001
GRADIENTCOLOR2ACI
1070
     2
1001
ACAD
1010
0.0
1020
0.0
1030
0.0
1001
ACDBBLOCKREPETAG
1070
     1
1071
      477
1005
148C5B
  0
LINE
  5
148C5C
  8
SLIM
 10
11995.9202686470998742
 20
-284.9020364425314824
 30
0.0
 11
12000.0
 21
-280.8223050896270934
 31
0.0
1001
GRADIENTCOLOR1ACI
1070
     5
1001
GRADIENTCOLOR2ACI
1070
     2
1001
ACAD
1010
0.0
1020
0.0
1030
0.0
1001
ACDBBLOCKREPETAG
1070
     1
1071
      478
1005
148C5C
  0
LINE
  5
148C5D
  8
SLIM
 10
12000.0
 20
-280.8223050896270934
 30
0.0
 11
12003.9222672507894458
 21
-276.9000378388338959
 31
0.0
1001
GRADIENTCOLOR1ACI
1070
     5
1001
GRADIENTCOLOR2ACI
1070
     2
1001
ACAD
1010
0.0
1020
0.0
1030
0.0
1001
ACDBBLOCKREPETAG
1070
     1
1071
      479
1005
148C5D
  0
LINE
  5
148C5E
  8
SLIM
 10
12004.9466187997404631
 20
-284.8559424109521956
 30
0.0
 11
12014.1055828538701462
 21
-275.6969783568222283
 31
0.0
1001
GRADIENTCOLOR1ACI
1070
     5
1001
GRADIENTCOLOR2ACI
1070
     2
1001
ACAD
1010
0.0
1020
0.0
1030
0.0
1001
ACDBBLOCKREPETAG
1070
     1
1071
      480
1005
148C5E
  0
LINE
  5
148C5F
  8
SLIM
 10
12015.1424853251392051
 20
-283.6403320066269202
 30
0.0
 11
12026.4787756875393825
 21
-272.304041644222707
 31
0.0
1001
GRADIENTCOLOR1ACI
1070
     5
1001
GRADIENTCOLOR2ACI
1070
     2
1001
ACAD
1010
0.0
1020
0.0
1030
0.0
1001
ACDBBLOCKREPETAG
1070
     1
1071
      481
1005
148C5F
  0
LINE
  5
148C60
  8
SLIM
 10
12027.2492255236593337
 20
-280.5138479291674116
 30
0.0
 11
12045.7630734528302128
 21
-262.0000000000047748
 31
0.0
1001
GRADIENTCOLOR1ACI
1070
     5
1001
GRADIENTCOLOR2ACI
1070
     2
1001
ACAD
1010
0.0
1020
0.0
1030
0.0
1001
ACDBBLOCKREPETAG
1070
     1
1071
      482
1005
148C60
  0
LINE
  5
148C61
  8
SLIM
 10
12044.0451596304192208
 20
-272.6981699434816164
 30
0.0
 11
12054.7433295738992456
 21
-262.0000000000047748
 31
0.0
1001
GRADIENTCOLOR1ACI
1070
     5
1001
GRADIENTCOLOR2ACI
1070
     2
1001
ACAD
1010
0.0
1020
0.0
1030
0.0
1001
ACDBBLOCKREPETAG
1070
     1
1071
      483
1005
148C61
  0
LINE
  5
148C62
  8
CENTER
 10
12080.0
 20
-200.0000000000048033
 30
0.0
 11
11900.0
 21
-200.0000000000048033
 31
0.0
1001
ACDBBLOCKREPETAG
1070
     1
1071
      187
1005
148C62
  0
LINE
  5
148C63
  8
CENTER
 10
12000.0
 20
-300.0000000000047748
 30
0.0
 11
12000.0
 21
-100.0000000000047038
 31
0.0
1001
ACDBBLOCKREPETAG
1070
     1
1071
      188
1005
148C63
  0
CIRCLE
  5
148C64
  8
OBJECT
 10
12000.0
 20
-200.0000000000048033
 30
0.0
 40
70.0
1001
ACDBBLOCKREPETAG
1070
     1
1071
      189
1005
148C64
  0
CIRCLE
  5
148C65
  8
OBJECT
 10
12000.0
 20
-200.0000000000048033
 30
0.0
 40
77.0
1001
ACDBBLOCKREPETAG
1070
     1
1071
      190
1005
148C65
  0
LINE
  5
148C66
  8
OBJECT
 10
12045.6618002273207821
 20
-138.0000000000048033
 30
0.0
 11
12080.0
 21
-138.0000000000048033
 31
0.0
1001
ACDBBLOCKREPETAG
1070
     1
1071
      192
1005
148C66
  0
LINE
  5
148C67
  8
OBJECT
 10
12045.6618002273207821
 20
-262.0000000000047748
 30
0.0
 11
12080.0
 21
-262.0000000000047748
 31
0.0
1001
ACDBBLOCKREPETAG
1070
     1
1071
      193
1005
148C67
  0
ARC
  5
148C68
  8
OBJECT
 10
12000.0
 20
-200.0000000000048033
 30
0.0
 40
85.0
 50
46.8371028598531467
 51
313.1628971401468107
1001
ACDBBLOCKREPETAG
1070
     1
1071
      202
1005
148C68
  0
LINE
  5
148C69
  8
OBJECT
 10
12024.1029330932997254
 20
-243.8069471237224946
 30
0.0
 11
12020.6596569999892381
 21
-232.5546220000044002
 31
0.0
1001
ACDBBLOCKREPETAG
1070
     1
1071
      321
1005
148C69
  0
LINE
  5
148C6A
  8
OBJECT
 10
11986.7927499013603665
 20
-218.2255337420859007
 30
0.0
 11
12020.6596569999892381
 21
-232.5546220000026096
 31
0.0
1001
ACDBBLOCKREPETAG
1070
     1
1071
      323
1005
148C6A
  0
ARC
  5
148C6B
  8
OBJECT
 10
11982.8961697618997277
 20
-227.4351299990624113
 30
0.0
 40
10.0
 50
67.0667782929113656
 51
154.0147343703162903
1001
ACDBBLOCKREPETAG
1070
     1
1071
      324
1005
148C6B
  0
ARC
  5
148C6C
  8
OBJECT
 10
11986.1488390381291538
 20
-225.5538625672973012
 30
0.0
 40
7.0
 50
67.0667782929113656
 51
154.0147337749826022
1001
ACDBBLOCKREPETAG
1070
     1
1071
      325
1005
148C6C
  0
LINE
  5
148C6D
  8
OBJECT
 10
11969.4199755552999704
 20
-243.8988850081873068
 30
0.0
 11
11979.8564918232295895
 21
-222.4868825335736062
 31
0.0
1001
ACDBBLOCKREPETAG
1070
     1
1071
      353
1005
148C6D
  0
LINE
  5
148C6E
  8
OBJECT
 10
11965.2972169006006879
 20
-240.7181390188329999
 30
0.0
 11
11973.9071022665102646
 21
-223.0537300443131983
 31
0.0
1001
ACDBBLOCKREPETAG
1070
     1
1071
      354
1005
148C6E
  0
ARC
  5
148C6F
  8
OBJECT
 10
11976.579695307309521
 20
-207.1289369828494102
 30
0.0
 40
60.0311132460326178
 50
314.0702013042233034
 51
322.3393610608968061
1001
ACDBBLOCKREPETAG
1070
     1
1071
      355
1005
148C6F
  0
CIRCLE
  5
148C70
  8
OBJECT
 10
12000.0
 20
-200.0000000000048033
 30
0.0
 40
53.5
1001
ACDBBLOCKREPETAG
1070
     1
1071
      356
1005
148C70
  0
POINT
  5
148C71
  8
DOTS
 10
12000.0
 20
-200.0000000000048033
 30
0.0
 50
270.0
1001
ACDBBLOCKREPETAG
1070
     1
1071
      365
1005
148C71
  0
ARC
  5
148C72
  8
OBJECT
 10
12000.0
 20
-200.0000000000048033
 30
0.0
 40
50.0
 50
298.8199430000042867
 51
228.5237695596165111
1001
ACDBBLOCKREPETAG
1070
     1
1071
      497
1005
148C72
  0
LINE
  5
148C75
  8
CENTER
 10
6227.0
 20
-696.0
 30
0.0
 11
6071.0
 21
-696.0
 31
0.0
1001
ACDBBLOCKREPETAG
1070
     1
1071
      241
1005
148C75
  0
LINE
  5
148C76
  8
OBJECT
 10
6109.5648667616869716
 20
-743.0
 30
0.0
 11
6086.000000000001819
 21
-743.0
 31
0.0
1001
ACDBBLOCKREPETAG
1070
     1
1071
      242
1005
148C76
  0
LINE
  5
148C77
  8
OBJECT
 10
6109.5648667616869716
 20
-649.0
 30
0.0
 11
6086.000000000001819
 21
-649.0
 31
0.0
1001
ACDBBLOCKREPETAG
1070
     1
1071
      243
1005
148C77
  0
LINE
  5
148C78
  8
OBJECT
 10
6083.0
 20
-634.0
 30
0.0
 11
6080.0
 21
-634.0
 31
0.0
1001
ACDBBLOCKREPETAG
1070
     1
1071
      244
1005
148C78
  0
LINE
  5
148C79
  8
OBJECT
 10
6080.0
 20
-758.0
 30
0.0
 11
6083.0
 21
-758.0
 31
0.0
1001
ACDBBLOCKREPETAG
1070
     1
1071
      245
1005
148C79
  0
ARC
  5
148C7A
  8
OBJECT
 10
6083.0
 20
-637.0
 30
0.0
 40
3.0
 50
0.0
 51
90.0
1001
ACDBBLOCKREPETAG
1070
     1
1071
      246
1005
148C7A
  0
ARC
  5
148C7B
  8
OBJECT
 10
6083.0
 20
-755.0
 30
0.0
 40
3.0
 50
270.0
 51
0.0
1001
ACDBBLOCKREPETAG
1070
     1
1071
      247
1005
148C7B
  0
LINE
  5
148C7C
  8
OBJECT
 10
6086.0
 20
-755.0
 30
0.0
 11
6086.0
 21
-637.0
 31
0.0
1001
ACDBBLOCKREPETAG
1070
     1
1071
      248
1005
148C7C
  0
CIRCLE
  5
148C7D
  8
OBJECT
 10
6150.0
 20
-696.0
 30
0.0
 40
54.0
1001
ACDBBLOCKREPETAG
1070
     1
1071
      250
1005
148C7D
  0
CIRCLE
  5
148C7E
  8
OBJECT
 10
6150.0
 20
-696.0
 30
0.0
 40
41.5
1001
ACDBBLOCKREPETAG
1070
     1
1071
      251
1005
148C7E
  0
ARC
  5
148C7F
  8
OBJECT
 10
6150.0
 20
-696.0
 30
0.0
 40
62.0
 50
287.8965511292071824
 51
252.1034488707927892
1001
ACDBBLOCKREPETAG
1070
     1
1071
      252
1005
148C7F
  0
LINE
  5
148C80
  8
CENTER
 10
6150.0
 20
-770.0
 30
0.0
 11
6150.0
 21
-619.0
 31
0.0
1001
ACDBBLOCKREPETAG
1070
     1
1071
      253
1005
148C80
  0
LINE
  5
148C81
  8
OBJECT
 10
6130.9474411167429935
 20
-755.0
 30
0.0
 11
6169.0525588832570065
 21
-755.0
 31
0.0
1001
ACDBBLOCKREPETAG
1070
     1
1071
      254
1005
148C81
  0
LINE
  5
148C82
  8
OBJECT
 10
6212.0
 20
-303.0000000000047748
 30
0.0
 11
6212.0
 21
-310.0000000000047748
 31
0.0
1001
ACDBBLOCKREPETAG
1070
     1
1071
      241
1005
148C82
  0
LINE
  5
148C83
  8
OBJECT
 10
6212.0
 20
-310.0000000000047748
 30
0.0
 11
6088.0
 21
-310.0000000000047748
 31
0.0
1001
ACDBBLOCKREPETAG
1070
     1
1071
      242
1005
148C83
  0
LINE
  5
148C84
  8
OBJECT
 10
6088.0
 20
-310.0000000000047748
 30
0.0
 11
6088.0
 21
-303.0000000000047748
 31
0.0
1001
ACDBBLOCKREPETAG
1070
     1
1071
      243
1005
148C84
  0
LINE
  5
148C85
  8
OBJECT
 10
6088.0
 20
-303.0000000000047748
 30
0.0
 11
6212.0
 21
-303.0000000000047748
 31
0.0
1001
ACDBBLOCKREPETAG
1070
     1
1071
      244
1005
148C85
  0
LINE
  5
148C86
  8
CENTER
 10
6197.2436941260311869
 20
-200.0000000000084128
 30
0.0
 11
6080.0
 21
-200.0000000000048033
 31
0.0
1001
ACDBBLOCKREPETAG
1070
     1
1071
      245
1005
148C86
  0
LINE
  5
148C87
  8
OBJECT
 10
6092.5000000000009095
 20
-247.0000000000084128
 30
0.0
 11
6086.0
 21
-247.0000000000084128
 31
0.0
1001
ACDBBLOCKREPETAG
1070
     1
1071
      246
1005
148C87
  0
LINE
  5
148C88
  8
OBJECT
 10
6098.0
 20
-153.0000000000084128
 30
0.0
 11
6086.0
 21
-153.0000000000048033
 31
0.0
1001
ACDBBLOCKREPETAG
1070
     1
1071
      247
1005
148C88
  0
LINE
  5
148C89
  8
OBJECT
 10
6209.0
 20
-303.0000000000047748
 30
0.0
 11
6209.0
 21
-267.0000000000047748
 31
0.0
1001
ACDBBLOCKREPETAG
1070
     1
1071
      248
1005
148C89
  0
LINE
  5
148C8A
  8
OBJECT
 10
6209.0
 20
-267.0000000000047748
 30
0.0
 11
6091.0
 21
-267.0000000000047748
 31
0.0
1001
ACDBBLOCKREPETAG
1070
     1
1071
      249
1005
148C8A
  0
LINE
  5
148C8B
  8
OBJECT
 10
6091.0
 20
-267.0000000000047748
 30
0.0
 11
6091.0
 21
-303.0000000000047748
 31
0.0
1001
ACDBBLOCKREPETAG
1070
     1
1071
      250
1005
148C8B
  0
LINE
  5
148C8C
  8
OBJECT
 10
6204.5
 20
-263.0000000000047748
 30
0.0
 11
6204.5
 21
-250.0000000000048033
 31
0.0
1001
ACDBBLOCKREPETAG
1070
     1
1071
      251
1005
148C8C
  0
LINE
  5
148C8D
  8
OBJECT
 10
6095.5
 20
-250.0000000000048033
 30
0.0
 11
6095.5
 21
-263.0000000000047748
 31
0.0
1001
ACDBBLOCKREPETAG
1070
     1
1071
      252
1005
148C8D
  0
LINE
  5
148C8E
  8
OBJECT
 10
6095.5
 20
-263.0000000000047748
 30
0.0
 11
6204.5
 21
-263.0000000000047748
 31
0.0
1001
ACDBBLOCKREPETAG
1070
     1
1071
      253
1005
148C8E
  0
LINE
  5
148C8F
  8
OBJECT
 10
6209.0
 20
-267.0000000000047748
 30
0.0
 11
6204.5
 21
-263.0000000000047748
 31
0.0
1001
ACDBBLOCKREPETAG
1070
     1
1071
      254
1005
148C8F
  0
LINE
  5
148C90
  8
OBJECT
 10
6091.0
 20
-267.0000000000047748
 30
0.0
 11
6095.5
 21
-263.0000000000047748
 31
0.0
1001
ACDBBLOCKREPETAG
1070
     1
1071
      255
1005
148C90
  0
LINE
  5
148C91
  8
OBJECT
 10
6083.0
 20
-138.0000000000048033
 30
0.0
 11
6080.0
 21
-138.0000000000048033
 31
0.0
1001
ACDBBLOCKREPETAG
1070
     1
1071
      256
1005
148C91
  0
ARC
  5
148C92
  8
OBJECT
 10
6083.0
 20
-141.0000000000048033
 30
0.0
 40
3.0
 50
0.0
 51
90.0
1001
ACDBBLOCKREPETAG
1070
     1
1071
      257
1005
148C92
  0
LINE
  5
148C93
  8
OBJECT
 10
6080.0
 20
-262.0000000000047748
 30
0.0
 11
6095.5
 21
-262.0000000000047748
 31
0.0
1001
ACDBBLOCKREPETAG
1070
     1
1071
      258
1005
148C93
  0
ARC
  5
148C94
  8
OBJECT
 10
6083.0
 20
-259.0000000000047748
 30
0.0
 40
3.0
 50
270.0
 51
0.0
1001
ACDBBLOCKREPETAG
1070
     1
1071
      259
1005
148C94
  0
LINE
  5
148C95
  8
OBJECT
 10
6086.0
 20
-259.0000000000047748
 30
0.0
 11
6086.0
 21
-141.0000000000048033
 31
0.0
1001
ACDBBLOCKREPETAG
1070
     1
1071
      260
1005
148C95
  0
LINE
  5
148C96
  8
HIDDEN
 10
6194.5
 20
-258.0000000000047748
 30
0.0
 11
6105.5
 21
-258.0000000000047748
 31
0.0
1001
ACDBBLOCKREPETAG
1070
     1
1071
      261
1005
148C96
  0
LINE
  5
148C97
  8
OBJECT
 10
6095.5000212374479815
 20
-249.9999591361386138
 30
0.0
 11
6204.5000212374479815
 21
-249.9999591361386138
 31
0.0
1001
ACDBBLOCKREPETAG
1070
     1
1071
      263
1005
148C97
  0
LINE
  5
148C98
  8
CENTER
 10
6150.0
 20
-152.7563058739771975
 30
0.0
 11
6150.0
 21
-325.0000000000047748
 31
0.0
1001
ACDBBLOCKREPETAG
1070
     1
1071
      264
1005
148C98
  0
ARC
  5
148C99
  8
CENTER
 10
6098.0
 20
-252.0000000000084128
 30
0.0
 40
52.0
 50
0.0
 51
90.0
1001
ACDBBLOCKREPETAG
1070
     1
1071
      265
1005
148C99
  0
ARC
  5
148C9A
  8
OBJECT
 10
6092.5000000000009095
 20
-250.0000000000084128
 30
0.0
 40
3.0
 50
0.0
 51
90.0
1001
ACDBBLOCKREPETAG
1070
     1
1071
      266
1005
148C9A
  0
ARC
  5
148C9B
  8
OBJECT
 10
6098.0
 20
-252.0000000000084128
 30
0.0
 40
99.0
 50
1.157592897190024
 51
90.0
1001
ACDBBLOCKREPETAG
1070
     1
1071
      267
1005
148C9B
  0
LINE
  5
148C9C
  8
OBJECT
 10
6024.1029330933033634
 20
-243.8069471237224946
 30
0.0
 11
6020.6596569999956046
 21
-232.5546220000044002
 31
0.0
1001
ACDBBLOCKREPETAG
1070
     1
1071
      300
1005
148C9C
  0
LINE
  5
148C9D
  8
OBJECT
 10
5986.7927499013740089
 20
-218.2255337420859007
 30
0.0
 11
6020.6596569999956046
 21
-232.5546220000026096
 31
0.0
1001
ACDBBLOCKREPETAG
1070
     1
1071
      302
1005
148C9D
  0
ARC
  5
148C9E
  8
OBJECT
 10
5982.8961697618997277
 20
-227.4351299990624113
 30
0.0
 40
10.0
 50
67.0667782929113656
 51
154.0147343702934108
1001
ACDBBLOCKREPETAG
1070
     1
1071
      303
1005
148C9E
  0
ARC
  5
148C9F
  8
OBJECT
 10
5986.1488390381273348
 20
-225.5538625672973012
 30
0.0
 40
7.0
 50
67.0667782929113656
 51
154.0147337749826022
1001
ACDBBLOCKREPETAG
1070
     1
1071
      304
1005
148C9F
  0
LINE
  5
148CA0
  8
OBJECT
 10
5969.4199755553017894
 20
-243.8988850081873068
 30
0.0
 11
5979.8564918232368655
 21
-222.4868825335736062
 31
0.0
1001
ACDBBLOCKREPETAG
1070
     1
1071
      341
1005
148CA0
  0
LINE
  5
148CA1
  8
OBJECT
 10
5965.2972169006088734
 20
-240.7181390188329999
 30
0.0
 11
5973.9071022665093551
 21
-223.0537300443131983
 31
0.0
1001
ACDBBLOCKREPETAG
1070
     1
1071
      342
1005
148CA1
  0
ARC
  5
148CA2
  8
OBJECT
 10
5976.5796953073140685
 20
-207.1289369828494102
 30
0.0
 40
60.0311132460326178
 50
314.0702013041856731
 51
322.3393610608968061
1001
ACDBBLOCKREPETAG
1070
     1
1071
      343
1005
148CA2
  0
CIRCLE
  5
148CA3
  8
OBJECT
 10
6000.0
 20
-200.0000000000048033
 30
0.0
 40
53.5
1001
ACDBBLOCKREPETAG
1070
     1
1071
      344
1005
148CA3
  0
POINT
  5
148CA4
  8
DOTS
 10
6000.0
 20
-200.0000000000048033
 30
0.0
 50
270.0
1001
ACDBBLOCKREPETAG
1070
     1
1071
      362
1005
148CA4
  0
LINE
  5
148CA5
  8
CENTER
 10
6080.0
 20
-200.0000000000048033
 30
0.0
 11
5905.0
 21
-200.0000000000048033
 31
0.0
1001
ACDBBLOCKREPETAG
1070
     1
1071
       14
1005
148CA5
  0
LINE
  5
148CA6
  8
CENTER
 10
6000.0
 20
-295.0000000000048885
 30
0.0
 11
6000.0
 21
-105.0000000000048033
 31
0.0
1001
ACDBBLOCKREPETAG
1070
     1
1071
       15
1005
148CA6
  0
CIRCLE
  5
148CA7
  8
OBJECT
 10
6000.0
 20
-200.0000000000048033
 30
0.0
 40
70.0
1001
ACDBBLOCKREPETAG
1070
     1
1071
       16
1005
148CA7
  0
CIRCLE
  5
148CA8
  8
OBJECT
 10
6000.0
 20
-200.0000000000048033
 30
0.0
 40
77.0
1001
ACDBBLOCKREPETAG
1070
     1
1071
       17
1005
148CA8
  0
ARC
  5
148CA9
  8
OBJECT
 10
6000.0
 20
-200.0000000000048033
 30
0.0
 40
80.0
 50
50.8050325738843895
 51
309.1949674261156247
1001
ACDBBLOCKREPETAG
1070
     1
1071
       18
1005
148CA9
  0
LINE
  5
148CAA
  8
OBJECT
 10
6045.6618002273253296
 20
-138.0000000000048033
 30
0.0
 11
6080.0
 21
-138.0000000000048033
 31
0.0
1001
ACDBBLOCKREPETAG
1070
     1
1071
       19
1005
148CAA
  0
LINE
  5
148CAB
  8
OBJECT
 10
6045.6618002273253296
 20
-262.0000000000047748
 30
0.0
 11
6080.0
 21
-262.0000000000047748
 31
0.0
1001
ACDBBLOCKREPETAG
1070
     1
1071
       20
1005
148CAB
  0
ARC
  5
148CAC
  8
OBJECT
 10
6000.0
 20
-200.0000000000048033
 30
0.0
 40
50.0
 50
298.8199430000042867
 51
228.5237695596254923
1001
ACDBBLOCKREPETAG
1070
     1
1071
       48
1005
148CAC
  0
LINE
  5
148CAF
  8
CENTER
 10
10227.0
 20
-696.0
 30
0.0
 11
10071.0
 21
-696.0
 31
0.0
1001
ACDBBLOCKREPETAG
1070
     1
1071
      241
1005
148CAF
  0
LINE
  5
148CB0
  8
OBJECT
 10
10109.5648667616897001
 20
-743.0
 30
0.0
 11
10086.0
 21
-743.0
 31
0.0
1001
ACDBBLOCKREPETAG
1070
     1
1071
      242
1005
148CB0
  0
LINE
  5
148CB1
  8
OBJECT
 10
10109.5648667616897001
 20
-649.0
 30
0.0
 11
10086.0
 21
-649.0
 31
0.0
1001
ACDBBLOCKREPETAG
1070
     1
1071
      243
1005
148CB1
  0
LINE
  5
148CB2
  8
OBJECT
 10
10083.0
 20
-634.0
 30
0.0
 11
10080.0
 21
-634.0
 31
0.0
1001
ACDBBLOCKREPETAG
1070
     1
1071
      244
1005
148CB2
  0
LINE
  5
148CB3
  8
OBJECT
 10
10080.0
 20
-758.0
 30
0.0
 11
10083.0
 21
-758.0
 31
0.0
1001
ACDBBLOCKREPETAG
1070
     1
1071
      245
1005
148CB3
  0
ARC
  5
148CB4
  8
OBJECT
 10
10083.0
 20
-637.0
 30
0.0
 40
3.0
 50
0.0
 51
90.0
1001
ACDBBLOCKREPETAG
1070
     1
1071
      246
1005
148CB4
  0
ARC
  5
148CB5
  8
OBJECT
 10
10083.0
 20
-755.0
 30
0.0
 40
3.0
 50
270.0
 51
0.0
1001
ACDBBLOCKREPETAG
1070
     1
1071
      247
1005
148CB5
  0
LINE
  5
148CB6
  8
OBJECT
 10
10086.0
 20
-755.0
 30
0.0
 11
10086.0
 21
-637.0
 31
0.0
1001
ACDBBLOCKREPETAG
1070
     1
1071
      248
1005
148CB6
  0
CIRCLE
  5
148CB7
  8
OBJECT
 10
10150.0
 20
-696.0
 30
0.0
 40
54.0
1001
ACDBBLOCKREPETAG
1070
     1
1071
      250
1005
148CB7
  0
CIRCLE
  5
148CB8
  8
OBJECT
 10
10150.0
 20
-696.0
 30
0.0
 40
41.5
1001
ACDBBLOCKREPETAG
1070
     1
1071
      251
1005
148CB8
  0
ARC
  5
148CB9
  8
OBJECT
 10
10150.0
 20
-696.0
 30
0.0
 40
62.0
 50
287.8965511292071824
 51
252.1034488707927892
1001
ACDBBLOCKREPETAG
1070
     1
1071
      252
1005
148CB9
  0
LINE
  5
148CBA
  8
CENTER
 10
10150.0
 20
-770.0
 30
0.0
 11
10150.0
 21
-619.0
 31
0.0
1001
ACDBBLOCKREPETAG
1070
     1
1071
      253
1005
148CBA
  0
LINE
  5
148CBB
  8
OBJECT
 10
10130.9474411167302605
 20
-755.0
 30
0.0
 11
10169.0525588832606445
 21
-755.0
 31
0.0
1001
ACDBBLOCKREPETAG
1070
     1
1071
      254
1005
148CBB
  0
LINE
  5
148CBC
  8
OBJECT
 10
10212.0
 20
-303.0000000000047748
 30
0.0
 11
10212.0
 21
-310.0000000000047748
 31
0.0
1001
ACDBBLOCKREPETAG
1070
     1
1071
      241
1005
148CBC
  0
LINE
  5
148CBD
  8
OBJECT
 10
10212.0
 20
-310.0000000000047748
 30
0.0
 11
10088.0
 21
-310.0000000000047748
 31
0.0
1001
ACDBBLOCKREPETAG
1070
     1
1071
      242
1005
148CBD
  0
LINE
  5
148CBE
  8
OBJECT
 10
10088.0
 20
-310.0000000000047748
 30
0.0
 11
10088.0
 21
-303.0000000000047748
 31
0.0
1001
ACDBBLOCKREPETAG
1070
     1
1071
      243
1005
148CBE
  0
LINE
  5
148CBF
  8
OBJECT
 10
10088.0
 20
-303.0000000000047748
 30
0.0
 11
10212.0
 21
-303.0000000000047748
 31
0.0
1001
ACDBBLOCKREPETAG
1070
     1
1071
      244
1005
148CBF
  0
LINE
  5
148CC0
  8
CENTER
 10
10197.2436941260293679
 20
-200.0000000000084128
 30
0.0
 11
10080.0
 21
-200.0000000000048033
 31
0.0
1001
ACDBBLOCKREPETAG
1070
     1
1071
      245
1005
148CC0
  0
LINE
  5
148CC1
  8
OBJECT
 10
10092.5
 20
-247.0000000000084128
 30
0.0
 11
10086.0
 21
-247.0000000000084128
 31
0.0
1001
ACDBBLOCKREPETAG
1070
     1
1071
      246
1005
148CC1
  0
LINE
  5
148CC2
  8
OBJECT
 10
10098.0
 20
-153.0000000000084128
 30
0.0
 11
10086.0
 21
-153.0000000000048033
 31
0.0
1001
ACDBBLOCKREPETAG
1070
     1
1071
      247
1005
148CC2
  0
LINE
  5
148CC3
  8
OBJECT
 10
10209.0
 20
-303.0000000000047748
 30
0.0
 11
10209.0
 21
-267.0000000000047748
 31
0.0
1001
ACDBBLOCKREPETAG
1070
     1
1071
      248
1005
148CC3
  0
LINE
  5
148CC4
  8
OBJECT
 10
10209.0
 20
-267.0000000000047748
 30
0.0
 11
10091.0
 21
-267.0000000000047748
 31
0.0
1001
ACDBBLOCKREPETAG
1070
     1
1071
      249
1005
148CC4
  0
LINE
  5
148CC5
  8
OBJECT
 10
10091.0
 20
-267.0000000000047748
 30
0.0
 11
10091.0
 21
-303.0000000000047748
 31
0.0
1001
ACDBBLOCKREPETAG
1070
     1
1071
      250
1005
148CC5
  0
LINE
  5
148CC6
  8
OBJECT
 10
10204.5
 20
-263.0000000000047748
 30
0.0
 11
10204.5
 21
-250.0000000000048033
 31
0.0
1001
ACDBBLOCKREPETAG
1070
     1
1071
      251
1005
148CC6
  0
LINE
  5
148CC7
  8
OBJECT
 10
10095.5
 20
-250.0000000000048033
 30
0.0
 11
10095.5
 21
-263.0000000000047748
 31
0.0
1001
ACDBBLOCKREPETAG
1070
     1
1071
      252
1005
148CC7
  0
LINE
  5
148CC8
  8
OBJECT
 10
10095.5
 20
-263.0000000000047748
 30
0.0
 11
10204.5
 21
-263.0000000000047748
 31
0.0
1001
ACDBBLOCKREPETAG
1070
     1
1071
      253
1005
148CC8
  0
LINE
  5
148CC9
  8
OBJECT
 10
10209.0
 20
-267.0000000000047748
 30
0.0
 11
10204.5
 21
-263.0000000000047748
 31
0.0
1001
ACDBBLOCKREPETAG
1070
     1
1071
      254
1005
148CC9
  0
LINE
  5
148CCA
  8
OBJECT
 10
10091.0
 20
-267.0000000000047748
 30
0.0
 11
10095.5
 21
-263.0000000000047748
 31
0.0
1001
ACDBBLOCKREPETAG
1070
     1
1071
      255
1005
148CCA
  0
LINE
  5
148CCB
  8
OBJECT
 10
10083.0
 20
-138.0000000000048033
 30
0.0
 11
10080.0
 21
-138.0000000000048033
 31
0.0
1001
ACDBBLOCKREPETAG
1070
     1
1071
      256
1005
148CCB
  0
ARC
  5
148CCC
  8
OBJECT
 10
10083.0
 20
-141.0000000000048033
 30
0.0
 40
3.0
 50
0.0
 51
90.0
1001
ACDBBLOCKREPETAG
1070
     1
1071
      257
1005
148CCC
  0
LINE
  5
148CCD
  8
OBJECT
 10
10080.0
 20
-262.0000000000047748
 30
0.0
 11
10095.5
 21
-262.0000000000047748
 31
0.0
1001
ACDBBLOCKREPETAG
1070
     1
1071
      258
1005
148CCD
  0
ARC
  5
148CCE
  8
OBJECT
 10
10083.0
 20
-259.0000000000047748
 30
0.0
 40
3.0
 50
270.0
 51
0.0
1001
ACDBBLOCKREPETAG
1070
     1
1071
      259
1005
148CCE
  0
LINE
  5
148CCF
  8
OBJECT
 10
10086.0
 20
-259.0000000000047748
 30
0.0
 11
10086.0
 21
-141.0000000000048033
 31
0.0
1001
ACDBBLOCKREPETAG
1070
     1
1071
      260
1005
148CCF
  0
LINE
  5
148CD0
  8
HIDDEN
 10
10194.5
 20
-258.0000000000047748
 30
0.0
 11
10105.5
 21
-258.0000000000047748
 31
0.0
1001
ACDBBLOCKREPETAG
1070
     1
1071
      261
1005
148CD0
  0
LINE
  5
148CD1
  8
OBJECT
 10
10095.5000212374397961
 20
-249.9999591361386138
 30
0.0
 11
10204.50002123745071
 21
-249.9999591361386138
 31
0.0
1001
ACDBBLOCKREPETAG
1070
     1
1071
      263
1005
148CD1
  0
LINE
  5
148CD2
  8
CENTER
 10
10150.0
 20
-152.7563058739771975
 30
0.0
 11
10150.0
 21
-325.0000000000047748
 31
0.0
1001
ACDBBLOCKREPETAG
1070
     1
1071
      264
1005
148CD2
  0
ARC
  5
148CD3
  8
CENTER
 10
10098.0
 20
-252.0000000000084128
 30
0.0
 40
52.0
 50
0.0
 51
90.0
1001
ACDBBLOCKREPETAG
1070
     1
1071
      265
1005
148CD3
  0
ARC
  5
148CD4
  8
OBJECT
 10
10092.5
 20
-250.0000000000084128
 30
0.0
 40
3.0
 50
0.0
 51
90.0
1001
ACDBBLOCKREPETAG
1070
     1
1071
      266
1005
148CD4
  0
ARC
  5
148CD5
  8
OBJECT
 10
10098.0
 20
-252.0000000000084128
 30
0.0
 40
99.0
 50
1.1575928971889711
 51
90.0
1001
ACDBBLOCKREPETAG
1070
     1
1071
      267
1005
148CD5
  0
LINE
  5
148CD6
  8
SLIM
 10
9927.3018300565254322
 20
-155.9548403695825982
 30
0.0
 11
9955.9548403695771412
 21
-127.3018300565280043
 31
0.0
1001
GRADIENTCOLOR1ACI
1070
     5
1001
GRADIENTCOLOR2ACI
1070
     2
1001
ACAD
1010
0.0
1020
0.0
1030
0.0
1001
ACDBBLOCKREPETAG
1070
     1
1071
      442
1005
148CD6
  0
LINE
  5
148CD7
  8
SLIM
 10
9919.4861520708382159
 20
-172.7507744763375968
 30
0.0
 11
9938.2903089572719182
 21
-153.9466175899021891
 31
0.0
1001
GRADIENTCOLOR1ACI
1070
     5
1001
GRADIENTCOLOR2ACI
1070
     2
1001
ACAD
1010
0.0
1020
0.0
1030
0.0
1001
ACDBBLOCKREPETAG
1070
     1
1071
      443
1005
148CD7
  0
LINE
  5
148CD8
  8
SLIM
 10
9953.946617589899688
 20
-138.2903089572774036
 30
0.0
 11
9972.7507744763333903
 21
-119.486152070841996
 31
0.0
1001
GRADIENTCOLOR1ACI
1070
     5
1001
GRADIENTCOLOR2ACI
1070
     2
1001
ACAD
1010
0.0
1020
0.0
1030
0.0
1001
ACDBBLOCKREPETAG
1070
     1
1071
      444
1005
148CD8
  0
LINE
  5
148CD9
  8
SLIM
 10
9916.3596679933798441
 20
-184.8575146748661098
 30
0.0
 11
9927.6959583557836595
 21
-173.5212243124618112
 31
0.0
1001
GRADIENTCOLOR1ACI
1070
     5
1001
GRADIENTCOLOR2ACI
1070
     2
1001
ACAD
1010
0.0
1020
0.0
1030
0.0
1001
ACDBBLOCKREPETAG
1070
     1
1071
      445
1005
148CD9
  0
LINE
  5
148CDA
  8
SLIM
 10
9973.5212243124624365
 20
-127.6959583557868996
 30
0.0
 11
9984.8575146748644329
 21
-116.3596679933827005
 31
0.0
1001
GRADIENTCOLOR1ACI
1070
     5
1001
GRADIENTCOLOR2ACI
1070
     2
1001
ACAD
1010
0.0
1020
0.0
1030
0.0
1001
ACDBBLOCKREPETAG
1070
     1
1071
      446
1005
148CDA
  0
LINE
  5
148CDB
  8
SLIM
 10
9915.144057589055592
 20
-195.0533812002607021
 30
0.0
 11
9924.303021643183456
 21
-185.8944171461307064
 31
0.0
1001
GRADIENTCOLOR1ACI
1070
     5
1001
GRADIENTCOLOR2ACI
1070
     2
1001
ACAD
1010
0.0
1020
0.0
1030
0.0
1001
ACDBBLOCKREPETAG
1070
     1
1071
      447
1005
148CDB
  0
LINE
  5
148CDC
  8
SLIM
 10
9985.8944171461262158
 20
-124.3030216431871935
 30
0.0
 11
9995.0533812002577179
 21
-115.1440575890573967
 31
0.0
1001
GRADIENTCOLOR1ACI
1070
     5
1001
GRADIENTCOLOR2ACI
1070
     2
1001
ACAD
1010
0.0
1020
0.0
1030
0.0
1001
ACDBBLOCKREPETAG
1070
     1
1071
      448
1005
148CDC
  0
LINE
  5
148CDD
  8
SLIM
 10
9915.0979635574713029
 20
-204.079731352909107
 30
0.0
 11
9919.1776949103787047
 21
-200.0000000000048033
 31
0.0
1001
GRADIENTCOLOR1ACI
1070
     5
1001
GRADIENTCOLOR2ACI
1070
     2
1001
ACAD
1010
0.0
1020
0.0
1030
0.0
1001
ACDBBLOCKREPETAG
1070
     1
1071
      449
1005
148CDD
  0
LINE
  5
148CDE
  8
SLIM
 10
10000.0
 20
-119.1776949103823995
 30
0.0
 11
10004.0797313529001258
 21
-115.0979635574780957
 31
0.0
1001
GRADIENTCOLOR1ACI
1070
     5
1001
GRADIENTCOLOR2ACI
1070
     2
1001
ACAD
1010
0.0
1020
0.0
1030
0.0
1001
ACDBBLOCKREPETAG
1070
     1
1071
      450
1005
148CDE
  0
LINE
  5
148CDF
  8
SLIM
 10
9919.1776949103787047
 20
-200.0000000000048033
 30
0.0
 11
9923.0999621611699695
 21
-196.0777327492114921
 31
0.0
1001
GRADIENTCOLOR1ACI
1070
     5
1001
GRADIENTCOLOR2ACI
1070
     2
1001
ACAD
1010
0.0
1020
0.0
1030
0.0
1001
ACDBBLOCKREPETAG
1070
     1
1071
      451
1005
148CDF
  0
LINE
  5
148CE0
  8
SLIM
 10
9996.0777327492032782
 20
-123.099962161175597
 30
0.0
 11
10000.0
 21
-119.1776949103823995
 31
0.0
1001
GRADIENTCOLOR1ACI
1070
     5
1001
GRADIENTCOLOR2ACI
1070
     2
1001
ACAD
1010
0.0
1020
0.0
1030
0.0
1001
ACDBBLOCKREPETAG
1070
     1
1071
      452
1005
148CE0
  0
LINE
  5
148CE1
  8
SLIM
 10
9915.889972620874687
 20
-212.2679784105795875
 30
0.0
 11
9923.1622307771685882
 21
-204.995720254282304
 31
0.0
1001
GRADIENTCOLOR1ACI
1070
     5
1001
GRADIENTCOLOR2ACI
1070
     2
1001
ACAD
1010
0.0
1020
0.0
1030
0.0
1001
ACDBBLOCKREPETAG
1070
     1
1071
      453
1005
148CE1
  0
LINE
  5
148CE2
  8
SLIM
 10
10004.9957202542700543
 20
-123.1622307771740026
 30
0.0
 11
10012.2679784105603176
 21
-115.8899726208767049
 31
0.0
1001
GRADIENTCOLOR1ACI
1070
     5
1001
GRADIENTCOLOR2ACI
1070
     2
1001
ACAD
1010
0.0
1020
0.0
1030
0.0
1001
ACDBBLOCKREPETAG
1070
     1
1071
      454
1005
148CE2
  0
LINE
  5
148CE3
  8
SLIM
 10
9917.338265695154405
 20
-219.799941457367197
 30
0.0
 11
9924.1101477855536359
 21
-213.0280593669693019
 31
0.0
1001
GRADIENTCOLOR1ACI
1070
     5
1001
GRADIENTCOLOR2ACI
1070
     2
1001
ACAD
1010
0.0
1020
0.0
1030
0.0
1001
ACDBBLOCKREPETAG
1070
     1
1071
      455
1005
148CE3
  0
LINE
  5
148CE4
  8
SLIM
 10
10013.0280593669594964
 20
-124.1101477855561939
 30
0.0
 11
10019.7999414573605463
 21
-117.3382656951582987
 31
0.0
1001
GRADIENTCOLOR1ACI
1070
     5
1001
GRADIENTCOLOR2ACI
1070
     2
1001
ACAD
1010
0.0
1020
0.0
1030
0.0
1001
ACDBBLOCKREPETAG
1070
     1
1071
      456
1005
148CE4
  0
LINE
  5
148CE5
  8
SLIM
 10
9919.3312594063045253
 20
-226.7872038672844894
 30
0.0
 11
9925.7443819593408989
 21
-220.3740813142505885
 31
0.0
1001
GRADIENTCOLOR1ACI
1070
     5
1001
GRADIENTCOLOR2ACI
1070
     2
1001
ACAD
1010
0.0
1020
0.0
1030
0.0
1001
ACDBBLOCKREPETAG
1070
     1
1071
      457
1005
148CE5
  0
LINE
  5
148CE6
  8
SLIM
 10
10020.3740813142394472
 20
-125.7443819593439969
 30
0.0
 11
10026.7872038672794588
 21
-119.331259406310096
 31
0.0
1001
GRADIENTCOLOR1ACI
1070
     5
1001
GRADIENTCOLOR2ACI
1070
     2
1001
ACAD
1010
0.0
1020
0.0
1030
0.0
1001
ACDBBLOCKREPETAG
1070
     1
1071
      458
1005
148CE6
  0
LINE
  5
148CE7
  8
SLIM
 10
9921.7957163186183607
 20
-233.3030030760386069
 30
0.0
 11
9927.9462473957792099
 21
-227.152471998880003
 31
0.0
1001
GRADIENTCOLOR1ACI
1070
     5
1001
GRADIENTCOLOR2ACI
1070
     2
1001
ACAD
1010
0.0
1020
0.0
1030
0.0
1001
ACDBBLOCKREPETAG
1070
     1
1071
      459
1005
148CE7
  0
LINE
  5
148CE8
  8
SLIM
 10
10027.152471998870169
 20
-127.9462473957837005
 30
0.0
 11
10033.3030030760291993
 21
-121.7957163186251961
 31
0.0
1001
GRADIENTCOLOR1ACI
1070
     5
1001
GRADIENTCOLOR2ACI
1070
     2
1001
ACAD
1010
0.0
1020
0.0
1030
0.0
1001
ACDBBLOCKREPETAG
1070
     1
1071
      460
1005
148CE8
  0
LINE
  5
148CE9
  8
SLIM
 10
9924.681663531344384
 20
-239.3973119843832933
 30
0.0
 11
9930.6398768643921358
 21
-233.4390986513353141
 31
0.0
1001
GRADIENTCOLOR1ACI
1070
     5
1001
GRADIENTCOLOR2ACI
1070
     2
1001
ACAD
1010
0.0
1020
0.0
1030
0.0
1001
ACDBBLOCKREPETAG
1070
     1
1071
      461
1005
148CE9
  0
LINE
  5
148CEA
  8
SLIM
 10
10033.439098651329914
 20
-130.6398768643977064
 30
0.0
 11
10039.3973119843703898
 21
-124.6816635313495993
 31
0.0
1001
GRADIENTCOLOR1ACI
1070
     5
1001
GRADIENTCOLOR2ACI
1070
     2
1001
ACAD
1010
0.0
1020
0.0
1030
0.0
1001
ACDBBLOCKREPETAG
1070
     1
1071
      462
1005
148CEA
  0
LINE
  5
148CEB
  8
SLIM
 10
9927.9544611024248297
 20
-245.1047705343725909
 30
0.0
 11
9933.7750070149922976
 21
-239.2842246218031903
 31
0.0
1001
GRADIENTCOLOR1ACI
1070
     5
1001
GRADIENTCOLOR2ACI
1070
     2
1001
ACAD
1010
0.0
1020
0.0
1030
0.0
1001
ACDBBLOCKREPETAG
1070
     1
1071
      463
1005
148CEB
  0
LINE
  5
148CEC
  8
SLIM
 10
10039.2842246218006039
 20
-133.7750070149988915
 30
0.0
 11
10045.1047705343607959
 21
-127.9544611024295051
 31
0.0
1001
GRADIENTCOLOR1ACI
1070
     5
1001
GRADIENTCOLOR2ACI
1070
     2
1001
ACAD
1010
0.0
1020
0.0
1030
0.0
1001
ACDBBLOCKREPETAG
1070
     1
1071
      464
1005
148CEC
  0
LINE
  5
148CED
  8
SLIM
 10
9931.5903319686658506
 20
-250.449155789201086
 30
0.0
 11
9937.3182075880577031
 21
-244.7212801698090061
 31
0.0
1001
GRADIENTCOLOR1ACI
1070
     5
1001
GRADIENTCOLOR2ACI
1070
     2
1001
ACAD
1010
0.0
1020
0.0
1030
0.0
1001
ACDBBLOCKREPETAG
1070
     1
1071
      465
1005
148CED
  0
LINE
  5
148CEE
  8
SLIM
 10
10044.7212801698005933
 20
-137.3182075880621937
 30
0.0
 11
10050.4491557891906268
 21
-131.5903319686701991
 31
0.0
1001
GRADIENTCOLOR1ACI
1070
     5
1001
GRADIENTCOLOR2ACI
1070
     2
1001
ACAD
1010
0.0
1020
0.0
1030
0.0
1001
ACDBBLOCKREPETAG
1070
     1
1071
      466
1005
148CEE
  0
LINE
  5
148CEF
  8
SLIM
 10
9935.5737496925303276
 20
-255.4459941864091093
 30
0.0
 11
9941.2481105415972706
 21
-249.7716333373460031
 31
0.0
1001
GRADIENTCOLOR1ACI
1070
     5
1001
GRADIENTCOLOR2ACI
1070
     2
1001
ACAD
1010
0.0
1020
0.0
1030
0.0
1001
ACDBBLOCKREPETAG
1070
     1
1071
      467
1005
148CEF
  0
LINE
  5
148CF0
  8
SLIM
 10
10053.0197438789200532
 20
-138.0000000000048033
 30
0.0
 11
10055.4459941864006396
 21
-135.5737496925312087
 31
0.0
1001
GRADIENTCOLOR1ACI
1070
     5
1001
GRADIENTCOLOR2ACI
1070
     2
1001
ACAD
1010
0.0
1020
0.0
1030
0.0
1001
ACDBBLOCKREPETAG
1070
     1
1071
      468
1005
148CF0
  0
LINE
  5
148CF1
  8
SLIM
 10
9939.8959235991442256
 20
-260.1040764008612882
 30
0.0
 11
9945.55277784863938
 21
-254.4472221513688908
 31
0.0
1001
GRADIENTCOLOR1ACI
1070
     5
1001
GRADIENTCOLOR2ACI
1070
     2
1001
ACAD
1010
0.0
1020
0.0
1030
0.0
1001
ACDBBLOCKREPETAG
1070
     1
1071
      469
1005
148CF1
  0
LINE
  5
148CF2
  8
SLIM
 10
9944.5540058135957224
 20
-264.4262503074780852
 30
0.0
 11
9950.2283666626553895
 21
-258.7518894584151212
 31
0.0
1001
GRADIENTCOLOR1ACI
1070
     5
1001
GRADIENTCOLOR2ACI
1070
     2
1001
ACAD
1010
0.0
1020
0.0
1030
0.0
1001
ACDBBLOCKREPETAG
1070
     1
1071
      470
1005
148CF2
  0
LINE
  5
148CF3
  8
SLIM
 10
9949.5508442108039162
 20
-268.409668031339379
 30
0.0
 11
9955.2787198301975877
 21
-262.6817924119474128
 31
0.0
1001
GRADIENTCOLOR1ACI
1070
     5
1001
GRADIENTCOLOR2ACI
1070
     2
1001
ACAD
1010
0.0
1020
0.0
1030
0.0
1001
ACDBBLOCKREPETAG
1070
     1
1071
      471
1005
148CF3
  0
LINE
  5
148CF4
  8
SLIM
 10
9954.8952294656319282
 20
-272.0455388975801156
 30
0.0
 11
9960.7157753782012151
 21
-266.2249929850107151
 31
0.0
1001
GRADIENTCOLOR1ACI
1070
     5
1001
GRADIENTCOLOR2ACI
1070
     2
1001
ACAD
1010
0.0
1020
0.0
1030
0.0
1001
ACDBBLOCKREPETAG
1070
     1
1071
      472
1005
148CF4
  0
LINE
  5
148CF5
  8
SLIM
 10
9960.6026880156223342
 20
-275.3183364686598793
 30
0.0
 11
9966.560901348675543
 21
-269.3601231356119001
 31
0.0
1001
GRADIENTCOLOR1ACI
1070
     5
1001
GRADIENTCOLOR2ACI
1070
     2
1001
ACAD
1010
0.0
1020
0.0
1030
0.0
1001
ACDBBLOCKREPETAG
1070
     1
1071
      473
1005
148CF5
  0
LINE
  5
148CF6
  8
SLIM
 10
9966.6969969239653437
 20
-278.2042836813844247
 30
0.0
 11
9972.847528001124374
 21
-272.0537526042256218
 31
0.0
1001
GRADIENTCOLOR1ACI
1070
     5
1001
GRADIENTCOLOR2ACI
1070
     2
1001
ACAD
1010
0.0
1020
0.0
1030
0.0
1001
ACDBBLOCKREPETAG
1070
     1
1071
      474
1005
148CF6
  0
LINE
  5
148CF7
  8
SLIM
 10
9973.2127961327205412
 20
-280.6687405936993969
 30
0.0
 11
9979.6259186857587338
 21
-274.2556180406655244
 31
0.0
1001
GRADIENTCOLOR1ACI
1070
     5
1001
GRADIENTCOLOR2ACI
1070
     2
1001
ACAD
1010
0.0
1020
0.0
1030
0.0
1001
ACDBBLOCKREPETAG
1070
     1
1071
      475
1005
148CF7
  0
LINE
  5
148CF8
  8
SLIM
 10
9980.2000585426394537
 20
-282.6617343048512225
 30
0.0
 11
9986.9719406330405036
 21
-275.8898522144534127
 31
0.0
1001
GRADIENTCOLOR1ACI
1070
     5
1001
GRADIENTCOLOR2ACI
1070
     2
1001
ACAD
1010
0.0
1020
0.0
1030
0.0
1001
ACDBBLOCKREPETAG
1070
     1
1071
      476
1005
148CF8
  0
LINE
  5
148CF9
  8
SLIM
 10
9987.7320215894251305
 20
-284.1100273791328163
 30
0.0
 11
9995.0042797457226698
 21
-276.8377692228356182
 31
0.0
1001
GRADIENTCOLOR1ACI
1070
     5
1001
GRADIENTCOLOR2ACI
1070
     2
1001
ACAD
1010
0.0
1020
0.0
1030
0.0
1001
ACDBBLOCKREPETAG
1070
     1
1071
      477
1005
148CF9
  0
LINE
  5
148CFA
  8
SLIM
 10
9995.9202686470962362
 20
-284.9020364425314824
 30
0.0
 11
10000.0
 21
-280.8223050896270934
 31
0.0
1001
GRADIENTCOLOR1ACI
1070
     5
1001
GRADIENTCOLOR2ACI
1070
     2
1001
ACAD
1010
0.0
1020
0.0
1030
0.0
1001
ACDBBLOCKREPETAG
1070
     1
1071
      478
1005
148CFA
  0
LINE
  5
148CFB
  8
SLIM
 10
10000.0
 20
-280.8223050896270934
 30
0.0
 11
10003.9222672507894458
 21
-276.9000378388338959
 31
0.0
1001
GRADIENTCOLOR1ACI
1070
     5
1001
GRADIENTCOLOR2ACI
1070
     2
1001
ACAD
1010
0.0
1020
0.0
1030
0.0
1001
ACDBBLOCKREPETAG
1070
     1
1071
      479
1005
148CFB
  0
LINE
  5
148CFC
  8
SLIM
 10
10004.9466187997404631
 20
-284.8559424109521956
 30
0.0
 11
10014.1055828538701462
 21
-275.6969783568222283
 31
0.0
1001
GRADIENTCOLOR1ACI
1070
     5
1001
GRADIENTCOLOR2ACI
1070
     2
1001
ACAD
1010
0.0
1020
0.0
1030
0.0
1001
ACDBBLOCKREPETAG
1070
     1
1071
      480
1005
148CFC
  0
LINE
  5
148CFD
  8
SLIM
 10
10015.1424853251392051
 20
-283.6403320066269202
 30
0.0
 11
10026.4787756875302875
 21
-272.304041644222707
 31
0.0
1001
GRADIENTCOLOR1ACI
1070
     5
1001
GRADIENTCOLOR2ACI
1070
     2
1001
ACAD
1010
0.0
1020
0.0
1030
0.0
1001
ACDBBLOCKREPETAG
1070
     1
1071
      481
1005
148CFD
  0
LINE
  5
148CFE
  8
SLIM
 10
10027.2492255236593337
 20
-280.5138479291674116
 30
0.0
 11
10045.7630734528302128
 21
-262.0000000000047748
 31
0.0
1001
GRADIENTCOLOR1ACI
1070
     5
1001
GRADIENTCOLOR2ACI
1070
     2
1001
ACAD
1010
0.0
1020
0.0
1030
0.0
1001
ACDBBLOCKREPETAG
1070
     1
1071
      482
1005
148CFE
  0
LINE
  5
148CFF
  8
SLIM
 10
10044.0451596304192208
 20
-272.6981699434816164
 30
0.0
 11
10054.7433295738992456
 21
-262.0000000000047748
 31
0.0
1001
GRADIENTCOLOR1ACI
1070
     5
1001
GRADIENTCOLOR2ACI
1070
     2
1001
ACAD
1010
0.0
1020
0.0
1030
0.0
1001
ACDBBLOCKREPETAG
1070
     1
1071
      483
1005
148CFF
  0
LINE
  5
148D00
  8
CENTER
 10
10080.0
 20
-200.0000000000048033
 30
0.0
 11
9900.0
 21
-200.0000000000048033
 31
0.0
1001
ACDBBLOCKREPETAG
1070
     1
1071
      187
1005
148D00
  0
LINE
  5
148D01
  8
CENTER
 10
10000.0
 20
-300.0000000000047748
 30
0.0
 11
10000.0
 21
-100.0000000000047038
 31
0.0
1001
ACDBBLOCKREPETAG
1070
     1
1071
      188
1005
148D01
  0
CIRCLE
  5
148D02
  8
OBJECT
 10
10000.0
 20
-200.0000000000048033
 30
0.0
 40
70.0
1001
ACDBBLOCKREPETAG
1070
     1
1071
      189
1005
148D02
  0
CIRCLE
  5
148D03
  8
OBJECT
 10
10000.0
 20
-200.0000000000048033
 30
0.0
 40
77.0
1001
ACDBBLOCKREPETAG
1070
     1
1071
      190
1005
148D03
  0
LINE
  5
148D04
  8
OBJECT
 10
10045.6618002273207821
 20
-138.0000000000048033
 30
0.0
 11
10080.0
 21
-138.0000000000048033
 31
0.0
1001
ACDBBLOCKREPETAG
1070
     1
1071
      192
1005
148D04
  0
LINE
  5
148D05
  8
OBJECT
 10
10045.6618002273207821
 20
-262.0000000000047748
 30
0.0
 11
10080.0
 21
-262.0000000000047748
 31
0.0
1001
ACDBBLOCKREPETAG
1070
     1
1071
      193
1005
148D05
  0
ARC
  5
148D06
  8
OBJECT
 10
10000.0
 20
-200.0000000000048033
 30
0.0
 40
85.0
 50
46.8371028598531467
 51
313.1628971401468107
1001
ACDBBLOCKREPETAG
1070
     1
1071
      202
1005
148D06
  0
LINE
  5
148D07
  8
OBJECT
 10
10024.1029330932997254
 20
-243.8069471237224946
 30
0.0
 11
10020.6596569999892381
 21
-232.5546220000044002
 31
0.0
1001
ACDBBLOCKREPETAG
1070
     1
1071
      321
1005
148D07
  0
LINE
  5
148D08
  8
OBJECT
 10
9986.7927499013749184
 20
-218.2255337420859007
 30
0.0
 11
10020.6596569999892381
 21
-232.5546220000026096
 31
0.0
1001
ACDBBLOCKREPETAG
1070
     1
1071
      323
1005
148D08
  0
ARC
  5
148D09
  8
OBJECT
 10
9982.8961697618997277
 20
-227.4351299990624113
 30
0.0
 40
10.0
 50
67.0667782929113656
 51
154.0147343703162903
1001
ACDBBLOCKREPETAG
1070
     1
1071
      324
1005
148D09
  0
ARC
  5
148D0A
  8
OBJECT
 10
9986.1488390381291538
 20
-225.5538625672973012
 30
0.0
 40
7.0
 50
67.0667782929113656
 51
154.0147337749826022
1001
ACDBBLOCKREPETAG
1070
     1
1071
      325
1005
148D0A
  0
LINE
  5
148D0B
  8
OBJECT
 10
9969.4199755553017894
 20
-243.8988850081873068
 30
0.0
 11
9979.8564918232368655
 21
-222.4868825335736062
 31
0.0
1001
ACDBBLOCKREPETAG
1070
     1
1071
      353
1005
148D0B
  0
LINE
  5
148D0C
  8
OBJECT
 10
9965.2972169006097829
 20
-240.7181390188329999
 30
0.0
 11
9973.9071022665084456
 21
-223.0537300443131983
 31
0.0
1001
ACDBBLOCKREPETAG
1070
     1
1071
      354
1005
148D0C
  0
ARC
  5
148D0D
  8
OBJECT
 10
9976.579695307313159
 20
-207.1289369828494102
 30
0.0
 40
60.0311132460326178
 50
314.0702013042233034
 51
322.3393610608968061
1001
ACDBBLOCKREPETAG
1070
     1
1071
      355
1005
148D0D
  0
CIRCLE
  5
148D0E
  8
OBJECT
 10
10000.0
 20
-200.0000000000048033
 30
0.0
 40
53.5
1001
ACDBBLOCKREPETAG
1070
     1
1071
      356
1005
148D0E
  0
POINT
  5
148D0F
  8
DOTS
 10
10000.0
 20
-200.0000000000048033
 30
0.0
 50
270.0
1001
ACDBBLOCKREPETAG
1070
     1
1071
      365
1005
148D0F
  0
ARC
  5
148D10
  8
OBJECT
 10
10000.0
 20
-200.0000000000048033
 30
0.0
 40
50.0
 50
298.8199430000042867
 51
228.523769559626686
1001
ACDBBLOCKREPETAG
1070
     1
1071
      497
1005
148D10
  0
LINE
  5
148D13
  8
CENTER
 10
4227.0
 20
-696.0
 30
0.0
 11
4071.0
 21
-696.0
 31
0.0
1001
ACDBBLOCKREPETAG
1070
     1
1071
      241
1005
148D13
  0
LINE
  5
148D14
  8
OBJECT
 10
4109.5648667616869716
 20
-743.0
 30
0.0
 11
4086.0000000000031832
 21
-743.0
 31
0.0
1001
ACDBBLOCKREPETAG
1070
     1
1071
      242
1005
148D14
  0
LINE
  5
148D15
  8
OBJECT
 10
4109.5648667616869716
 20
-649.0
 30
0.0
 11
4086.0000000000031832
 21
-649.0
 31
0.0
1001
ACDBBLOCKREPETAG
1070
     1
1071
      243
1005
148D15
  0
LINE
  5
148D16
  8
OBJECT
 10
4083.0
 20
-634.0
 30
0.0
 11
4080.0
 21
-634.0
 31
0.0
1001
ACDBBLOCKREPETAG
1070
     1
1071
      244
1005
148D16
  0
LINE
  5
148D17
  8
OBJECT
 10
4080.0
 20
-758.0
 30
0.0
 11
4083.0
 21
-758.0
 31
0.0
1001
ACDBBLOCKREPETAG
1070
     1
1071
      245
1005
148D17
  0
ARC
  5
148D18
  8
OBJECT
 10
4083.0
 20
-637.0
 30
0.0
 40
3.0
 50
0.0
 51
90.0
1001
ACDBBLOCKREPETAG
1070
     1
1071
      246
1005
148D18
  0
ARC
  5
148D19
  8
OBJECT
 10
4083.0
 20
-755.0
 30
0.0
 40
3.0
 50
270.0
 51
0.0
1001
ACDBBLOCKREPETAG
1070
     1
1071
      247
1005
148D19
  0
LINE
  5
148D1A
  8
OBJECT
 10
4086.0
 20
-755.0
 30
0.0
 11
4086.0
 21
-637.0
 31
0.0
1001
ACDBBLOCKREPETAG
1070
     1
1071
      248
1005
148D1A
  0
CIRCLE
  5
148D1B
  8
OBJECT
 10
4150.0
 20
-696.0
 30
0.0
 40
54.0
1001
ACDBBLOCKREPETAG
1070
     1
1071
      250
1005
148D1B
  0
CIRCLE
  5
148D1C
  8
OBJECT
 10
4150.0
 20
-696.0
 30
0.0
 40
41.5
1001
ACDBBLOCKREPETAG
1070
     1
1071
      251
1005
148D1C
  0
ARC
  5
148D1D
  8
OBJECT
 10
4150.0
 20
-696.0
 30
0.0
 40
62.0
 50
287.8965511292071824
 51
252.1034488707927892
1001
ACDBBLOCKREPETAG
1070
     1
1071
      252
1005
148D1D
  0
LINE
  5
148D1E
  8
CENTER
 10
4150.0
 20
-770.0
 30
0.0
 11
4150.0
 21
-619.0
 31
0.0
1001
ACDBBLOCKREPETAG
1070
     1
1071
      253
1005
148D1E
  0
LINE
  5
148D1F
  8
OBJECT
 10
4130.9474411167429935
 20
-755.0
 30
0.0
 11
4169.0525588832570065
 21
-755.0
 31
0.0
1001
ACDBBLOCKREPETAG
1070
     1
1071
      254
1005
148D1F
  0
LINE
  5
148D20
  8
OBJECT
 10
4212.0
 20
-303.0000000000047748
 30
0.0
 11
4212.0
 21
-310.0000000000047748
 31
0.0
1001
ACDBBLOCKREPETAG
1070
     1
1071
      241
1005
148D20
  0
LINE
  5
148D21
  8
OBJECT
 10
4212.0
 20
-310.0000000000047748
 30
0.0
 11
4088.0
 21
-310.0000000000047748
 31
0.0
1001
ACDBBLOCKREPETAG
1070
     1
1071
      242
1005
148D21
  0
LINE
  5
148D22
  8
OBJECT
 10
4088.0
 20
-310.0000000000047748
 30
0.0
 11
4088.0
 21
-303.0000000000047748
 31
0.0
1001
ACDBBLOCKREPETAG
1070
     1
1071
      243
1005
148D22
  0
LINE
  5
148D23
  8
OBJECT
 10
4088.0
 20
-303.0000000000047748
 30
0.0
 11
4212.0
 21
-303.0000000000047748
 31
0.0
1001
ACDBBLOCKREPETAG
1070
     1
1071
      244
1005
148D23
  0
LINE
  5
148D24
  8
CENTER
 10
4197.2436941260320964
 20
-200.0000000000084128
 30
0.0
 11
4080.0
 21
-200.0000000000048033
 31
0.0
1001
ACDBBLOCKREPETAG
1070
     1
1071
      245
1005
148D24
  0
LINE
  5
148D25
  8
OBJECT
 10
4092.5
 20
-247.0000000000084128
 30
0.0
 11
4086.0
 21
-247.0000000000084128
 31
0.0
1001
ACDBBLOCKREPETAG
1070
     1
1071
      246
1005
148D25
  0
LINE
  5
148D26
  8
OBJECT
 10
4098.0
 20
-153.0000000000084128
 30
0.0
 11
4086.0
 21
-153.0000000000048033
 31
0.0
1001
ACDBBLOCKREPETAG
1070
     1
1071
      247
1005
148D26
  0
LINE
  5
148D27
  8
OBJECT
 10
4209.0
 20
-303.0000000000047748
 30
0.0
 11
4209.0
 21
-267.0000000000047748
 31
0.0
1001
ACDBBLOCKREPETAG
1070
     1
1071
      248
1005
148D27
  0
LINE
  5
148D28
  8
OBJECT
 10
4209.0
 20
-267.0000000000047748
 30
0.0
 11
4091.0
 21
-267.0000000000047748
 31
0.0
1001
ACDBBLOCKREPETAG
1070
     1
1071
      249
1005
148D28
  0
LINE
  5
148D29
  8
OBJECT
 10
4091.0
 20
-267.0000000000047748
 30
0.0
 11
4091.0
 21
-303.0000000000047748
 31
0.0
1001
ACDBBLOCKREPETAG
1070
     1
1071
      250
1005
148D29
  0
LINE
  5
148D2A
  8
OBJECT
 10
4204.5
 20
-263.0000000000047748
 30
0.0
 11
4204.5
 21
-250.0000000000048033
 31
0.0
1001
ACDBBLOCKREPETAG
1070
     1
1071
      251
1005
148D2A
  0
LINE
  5
148D2B
  8
OBJECT
 10
4095.5
 20
-250.0000000000048033
 30
0.0
 11
4095.5
 21
-263.0000000000047748
 31
0.0
1001
ACDBBLOCKREPETAG
1070
     1
1071
      252
1005
148D2B
  0
LINE
  5
148D2C
  8
OBJECT
 10
4095.5
 20
-263.0000000000047748
 30
0.0
 11
4204.5
 21
-263.0000000000047748
 31
0.0
1001
ACDBBLOCKREPETAG
1070
     1
1071
      253
1005
148D2C
  0
LINE
  5
148D2D
  8
OBJECT
 10
4209.0
 20
-267.0000000000047748
 30
0.0
 11
4204.5
 21
-263.0000000000047748
 31
0.0
1001
ACDBBLOCKREPETAG
1070
     1
1071
      254
1005
148D2D
  0
LINE
  5
148D2E
  8
OBJECT
 10
4091.0
 20
-267.0000000000047748
 30
0.0
 11
4095.5
 21
-263.0000000000047748
 31
0.0
1001
ACDBBLOCKREPETAG
1070
     1
1071
      255
1005
148D2E
  0
LINE
  5
148D2F
  8
OBJECT
 10
4083.0
 20
-138.0000000000048033
 30
0.0
 11
4080.0
 21
-138.0000000000048033
 31
0.0
1001
ACDBBLOCKREPETAG
1070
     1
1071
      256
1005
148D2F
  0
ARC
  5
148D30
  8
OBJECT
 10
4083.0
 20
-141.0000000000048033
 30
0.0
 40
3.0
 50
0.0
 51
90.0
1001
ACDBBLOCKREPETAG
1070
     1
1071
      257
1005
148D30
  0
LINE
  5
148D31
  8
OBJECT
 10
4080.0
 20
-262.0000000000047748
 30
0.0
 11
4095.5
 21
-262.0000000000047748
 31
0.0
1001
ACDBBLOCKREPETAG
1070
     1
1071
      258
1005
148D31
  0
ARC
  5
148D32
  8
OBJECT
 10
4083.0
 20
-259.0000000000047748
 30
0.0
 40
3.0
 50
270.0
 51
0.0
1001
ACDBBLOCKREPETAG
1070
     1
1071
      259
1005
148D32
  0
LINE
  5
148D33
  8
OBJECT
 10
4086.0
 20
-259.0000000000047748
 30
0.0
 11
4086.0
 21
-141.0000000000048033
 31
0.0
1001
ACDBBLOCKREPETAG
1070
     1
1071
      260
1005
148D33
  0
LINE
  5
148D34
  8
HIDDEN
 10
4194.5
 20
-258.0000000000047748
 30
0.0
 11
4105.5
 21
-258.0000000000047748
 31
0.0
1001
ACDBBLOCKREPETAG
1070
     1
1071
      261
1005
148D34
  0
LINE
  5
148D35
  8
OBJECT
 10
4095.5000212374470721
 20
-249.9999591361386138
 30
0.0
 11
4204.5000212374461626
 21
-249.9999591361386138
 31
0.0
1001
ACDBBLOCKREPETAG
1070
     1
1071
      263
1005
148D35
  0
LINE
  5
148D36
  8
CENTER
 10
4150.0
 20
-152.7563058739771975
 30
0.0
 11
4150.0
 21
-325.0000000000047748
 31
0.0
1001
ACDBBLOCKREPETAG
1070
     1
1071
      264
1005
148D36
  0
ARC
  5
148D37
  8
CENTER
 10
4098.0
 20
-252.0000000000084128
 30
0.0
 40
52.0
 50
0.0
 51
90.0
1001
ACDBBLOCKREPETAG
1070
     1
1071
      265
1005
148D37
  0
ARC
  5
148D38
  8
OBJECT
 10
4092.5
 20
-250.0000000000084128
 30
0.0
 40
3.0
 50
0.0
 51
90.0
1001
ACDBBLOCKREPETAG
1070
     1
1071
      266
1005
148D38
  0
ARC
  5
148D39
  8
OBJECT
 10
4098.0
 20
-252.0000000000084128
 30
0.0
 40
99.0
 50
1.157592897190024
 51
90.0
1001
ACDBBLOCKREPETAG
1070
     1
1071
      267
1005
148D39
  0
LINE
  5
148D3A
  8
OBJECT
 10
4024.1029330933019992
 20
-243.8069471237224946
 30
0.0
 11
4020.6596569999960593
 21
-232.5546220000044002
 31
0.0
1001
ACDBBLOCKREPETAG
1070
     1
1071
      300
1005
148D3A
  0
LINE
  5
148D3B
  8
OBJECT
 10
3986.7927499013749184
 20
-218.2255337420859007
 30
0.0
 11
4020.6596569999960593
 21
-232.5546220000026096
 31
0.0
1001
ACDBBLOCKREPETAG
1070
     1
1071
      302
1005
148D3B
  0
ARC
  5
148D3C
  8
OBJECT
 10
3982.8961697619020015
 20
-227.4351299990624113
 30
0.0
 40
10.0
 50
67.0667782929113656
 51
154.0147343702934108
1001
ACDBBLOCKREPETAG
1070
     1
1071
      303
1005
148D3C
  0
ARC
  5
148D3D
  8
OBJECT
 10
3986.1488390381277895
 20
-225.5538625672973012
 30
0.0
 40
7.0
 50
67.0667782929113656
 51
154.0147337749712051
1001
ACDBBLOCKREPETAG
1070
     1
1071
      304
1005
148D3D
  0
LINE
  5
148D3E
  8
OBJECT
 10
3969.4199755553017894
 20
-243.8988850081873068
 30
0.0
 11
3979.8564918232368655
 21
-222.4868825335736062
 31
0.0
1001
ACDBBLOCKREPETAG
1070
     1
1071
      341
1005
148D3E
  0
LINE
  5
148D3F
  8
OBJECT
 10
3965.2972169006088734
 20
-240.7181390188329999
 30
0.0
 11
3973.9071022665089004
 21
-223.0537300443131983
 31
0.0
1001
ACDBBLOCKREPETAG
1070
     1
1071
      342
1005
148D3F
  0
ARC
  5
148D40
  8
OBJECT
 10
3976.579695307314978
 20
-207.1289369828494102
 30
0.0
 40
60.0311132460326178
 50
314.0702013041856731
 51
322.3393610609126085
1001
ACDBBLOCKREPETAG
1070
     1
1071
      343
1005
148D40
  0
CIRCLE
  5
148D41
  8
OBJECT
 10
4000.0
 20
-200.0000000000048033
 30
0.0
 40
53.5
1001
ACDBBLOCKREPETAG
1070
     1
1071
      344
1005
148D41
  0
POINT
  5
148D42
  8
DOTS
 10
4000.0
 20
-200.0000000000048033
 30
0.0
 50
270.0
1001
ACDBBLOCKREPETAG
1070
     1
1071
      362
1005
148D42
  0
LINE
  5
148D43
  8
CENTER
 10
4080.0
 20
-200.0000000000048033
 30
0.0
 11
3905.0
 21
-200.0000000000048033
 31
0.0
1001
ACDBBLOCKREPETAG
1070
     1
1071
       14
1005
148D43
  0
LINE
  5
148D44
  8
CENTER
 10
4000.0
 20
-295.0000000000048885
 30
0.0
 11
4000.0
 21
-105.0000000000048033
 31
0.0
1001
ACDBBLOCKREPETAG
1070
     1
1071
       15
1005
148D44
  0
CIRCLE
  5
148D45
  8
OBJECT
 10
4000.0
 20
-200.0000000000048033
 30
0.0
 40
70.0
1001
ACDBBLOCKREPETAG
1070
     1
1071
       16
1005
148D45
  0
CIRCLE
  5
148D46
  8
OBJECT
 10
4000.0
 20
-200.0000000000048033
 30
0.0
 40
77.0
1001
ACDBBLOCKREPETAG
1070
     1
1071
       17
1005
148D46
  0
ARC
  5
148D47
  8
OBJECT
 10
4000.0
 20
-200.0000000000048033
 30
0.0
 40
80.0
 50
50.8050325738641888
 51
309.1949674261358041
1001
ACDBBLOCKREPETAG
1070
     1
1071
       18
1005
148D47
  0
LINE
  5
148D48
  8
OBJECT
 10
4045.6618002273239654
 20
-138.0000000000048033
 30
0.0
 11
4080.0
 21
-138.0000000000048033
 31
0.0
1001
ACDBBLOCKREPETAG
1070
     1
1071
       19
1005
148D48
  0
LINE
  5
148D49
  8
OBJECT
 10
4045.6618002273239654
 20
-262.0000000000047748
 30
0.0
 11
4080.0
 21
-262.0000000000047748
 31
0.0
1001
ACDBBLOCKREPETAG
1070
     1
1071
       20
1005
148D49
  0
ARC
  5
148D4A
  8
OBJECT
 10
4000.0
 20
-200.0000000000048033
 30
0.0
 40
50.0
 50
298.8199430000042867
 51
228.5237695596252081
1001
ACDBBLOCKREPETAG
1070
     1
1071
       48
1005
148D4A
  0
LINE
  5
148D4D
  8
OBJECT
 10
11923.0
 20
-571.0
 30
0.0
 11
11923.0
 21
-550.0
 31
0.0
1001
ACDBBLOCKREPETAG
1070
     1
1071
        0
1005
148D4D
  0
LINE
  5
148D4E
  8
OBJECT
 10
11923.0
 20
-550.0
 30
0.0
 11
12077.0
 21
-550.0
 31
0.0
1001
ACDBBLOCKREPETAG
1070
     1
1071
        1
1005
148D4E
  0
LINE
  5
148D4F
  8
HIDDEN
 10
11943.0
 20
-620.0
 30
0.0
 11
12057.0
 21
-620.0
 31
0.0
1001
ACDBBLOCKREPETAG
1070
     1
1071
        2
1005
148D4F
  0
LINE
  5
148D50
  8
OBJECT
 10
12077.0
 20
-550.0
 30
0.0
 11
12077.0
 21
-571.0
 31
0.0
1001
ACDBBLOCKREPETAG
1070
     1
1071
        3
1005
148D50
  0
LINE
  5
148D51
  8
OBJECT
 10
12077.0
 20
-571.0
 30
0.0
 11
11923.0
 21
-571.0
 31
0.0
1001
ACDBBLOCKREPETAG
1070
     1
1071
        4
1005
148D51
  0
LINE
  5
148D52
  8
CENTER
 10
12000.0
 20
-535.0
 30
0.0
 11
12000.0
 21
-770.0
 31
0.0
1001
ACDBBLOCKREPETAG
1070
     1
1071
        5
1005
148D52
  0
LINE
  5
148D53
  8
OBJECT
 10
11925.0
 20
-634.0
 30
0.0
 11
11925.0
 21
-758.0
 31
0.0
1001
ACDBBLOCKREPETAG
1070
     1
1071
        6
1005
148D53
  0
LINE
  5
148D54
  8
OBJECT
 10
11928.0
 20
-571.0
 30
0.0
 11
11928.0
 21
-634.0
 31
0.0
1001
ACDBBLOCKREPETAG
1070
     1
1071
        7
1005
148D54
  0
LINE
  5
148D55
  8
OBJECT
 10
12072.0
 20
-634.0
 30
0.0
 11
12072.0
 21
-571.0
 31
0.0
1001
ACDBBLOCKREPETAG
1070
     1
1071
        8
1005
148D55
  0
LINE
  5
148D56
  8
OBJECT
 10
11920.0
 20
-758.0
 30
0.0
 11
12080.0
 21
-758.0
 31
0.0
1001
ACDBBLOCKREPETAG
1070
     1
1071
        9
1005
148D56
  0
LINE
  5
148D57
  8
OBJECT
 10
12080.0
 20
-634.0
 30
0.0
 11
11925.0
 21
-634.0
 31
0.0
1001
ACDBBLOCKREPETAG
1070
     1
1071
       10
1005
148D57
  0
LINE
  5
148D58
  8
OBJECT
 10
11920.0
 20
-758.0
 30
0.0
 11
11920.0
 21
-770.0
 31
0.0
1001
ACDBBLOCKREPETAG
1070
     1
1071
       11
1005
148D58
  0
LINE
  5
148D59
  8
OBJECT
 10
11920.0
 20
-770.0
 30
0.0
 11
12080.0
 21
-770.0
 31
0.0
1001
ACDBBLOCKREPETAG
1070
     1
1071
       12
1005
148D59
  0
LINE
  5
148D5A
  8
OBJECT
 10
12080.0
 20
-770.0
 30
0.0
 11
12080.0
 21
-758.0
 31
0.0
1001
ACDBBLOCKREPETAG
1070
     1
1071
       13
1005
148D5A
  0
ARC
  5
148D5B
  8
OBJECT
 10
12200.6872746716708207
 20
-749.4080994101075248
 30
0.0
 40
170.6350503965855978
 50
137.4413445918430057
 51
149.9194958133722082
1001
ACDBBLOCKREPETAG
1070
     1
1071
       15
1005
148D5B
  0
ARC
  5
148D5C
  8
OBJECT
 10
12118.8455987040506443
 20
-705.882726695364795
 30
0.0
 40
78.0722220217636647
 50
147.4551531037963912
 51
164.6636599771728129
1001
ACDBBLOCKREPETAG
1070
     1
1071
       16
1005
148D5C
  0
ARC
  5
148D5D
  8
OBJECT
 10
12085.7554349608708435
 20
-696.0
 30
0.0
 40
43.5535392688561771
 50
165.6884523008477004
 51
194.3115476991521859
1001
ACDBBLOCKREPETAG
1070
     1
1071
       17
1005
148D5D
  0
ARC
  5
148D5E
  8
OBJECT
 10
12200.6872746716708207
 20
-642.5919005898921341
 30
0.0
 40
170.6350503965855978
 50
210.0805041866277918
 51
222.5586554081569943
1001
ACDBBLOCKREPETAG
1070
     1
1071
       18
1005
148D5E
  0
ARC
  5
148D5F
  8
OBJECT
 10
12118.8455987040506443
 20
-686.117273304635205
 30
0.0
 40
78.0722220217636647
 50
195.3363400228271018
 51
212.5448468962036088
1001
ACDBBLOCKREPETAG
1070
     1
1071
       19
1005
148D5F
  0
POINT
  5
148D60
  8
DOTS
 10
12000.0
 20
-755.0
 30
0.0
1001
ACDBBLOCKREPETAG
1070
     1
1071
      186
1005
148D60
  0
LINE
  5
148D61
  8
OBJECT
 10
9923.0
 20
-571.0
 30
0.0
 11
9923.0
 21
-550.0
 31
0.0
1001
ACDBBLOCKREPETAG
1070
     1
1071
        0
1005
148D61
  0
LINE
  5
148D62
  8
OBJECT
 10
9923.0
 20
-550.0
 30
0.0
 11
10077.0
 21
-550.0
 31
0.0
1001
ACDBBLOCKREPETAG
1070
     1
1071
        1
1005
148D62
  0
LINE
  5
148D63
  8
HIDDEN
 10
9943.0
 20
-620.0
 30
0.0
 11
10057.0
 21
-620.0
 31
0.0
1001
ACDBBLOCKREPETAG
1070
     1
1071
        2
1005
148D63
  0
LINE
  5
148D64
  8
OBJECT
 10
10077.0
 20
-550.0
 30
0.0
 11
10077.0
 21
-571.0
 31
0.0
1001
ACDBBLOCKREPETAG
1070
     1
1071
        3
1005
148D64
  0
LINE
  5
148D65
  8
OBJECT
 10
10077.0
 20
-571.0
 30
0.0
 11
9923.0
 21
-571.0
 31
0.0
1001
ACDBBLOCKREPETAG
1070
     1
1071
        4
1005
148D65
  0
LINE
  5
148D66
  8
CENTER
 10
10000.0
 20
-535.0
 30
0.0
 11
10000.0
 21
-770.0
 31
0.0
1001
ACDBBLOCKREPETAG
1070
     1
1071
        5
1005
148D66
  0
LINE
  5
148D67
  8
OBJECT
 10
9925.0
 20
-634.0
 30
0.0
 11
9925.0
 21
-758.0
 31
0.0
1001
ACDBBLOCKREPETAG
1070
     1
1071
        6
1005
148D67
  0
LINE
  5
148D68
  8
OBJECT
 10
9928.0
 20
-571.0
 30
0.0
 11
9928.0
 21
-634.0
 31
0.0
1001
ACDBBLOCKREPETAG
1070
     1
1071
        7
1005
148D68
  0
LINE
  5
148D69
  8
OBJECT
 10
10072.0
 20
-634.0
 30
0.0
 11
10072.0
 21
-571.0
 31
0.0
1001
ACDBBLOCKREPETAG
1070
     1
1071
        8
1005
148D69
  0
LINE
  5
148D6A
  8
OBJECT
 10
9920.0
 20
-758.0
 30
0.0
 11
10080.0
 21
-758.0
 31
0.0
1001
ACDBBLOCKREPETAG
1070
     1
1071
        9
1005
148D6A
  0
LINE
  5
148D6B
  8
OBJECT
 10
10080.0
 20
-634.0
 30
0.0
 11
9925.0
 21
-634.0
 31
0.0
1001
ACDBBLOCKREPETAG
1070
     1
1071
       10
1005
148D6B
  0
LINE
  5
148D6C
  8
OBJECT
 10
9920.0
 20
-758.0
 30
0.0
 11
9920.0
 21
-770.0
 31
0.0
1001
ACDBBLOCKREPETAG
1070
     1
1071
       11
1005
148D6C
  0
LINE
  5
148D6D
  8
OBJECT
 10
9920.0
 20
-770.0
 30
0.0
 11
10080.0
 21
-770.0
 31
0.0
1001
ACDBBLOCKREPETAG
1070
     1
1071
       12
1005
148D6D
  0
LINE
  5
148D6E
  8
OBJECT
 10
10080.0
 20
-770.0
 30
0.0
 11
10080.0
 21
-758.0
 31
0.0
1001
ACDBBLOCKREPETAG
1070
     1
1071
       13
1005
148D6E
  0
ARC
  5
148D6F
  8
OBJECT
 10
10200.6872746716708207
 20
-749.4080994101075248
 30
0.0
 40
170.6350503965855978
 50
137.4413445918430057
 51
149.9194958133722082
1001
ACDBBLOCKREPETAG
1070
     1
1071
       15
1005
148D6F
  0
ARC
  5
148D70
  8
OBJECT
 10
10118.8455987040506443
 20
-705.882726695364795
 30
0.0
 40
78.0722220217636647
 50
147.4551531037963912
 51
164.6636599771728129
1001
ACDBBLOCKREPETAG
1070
     1
1071
       16
1005
148D70
  0
ARC
  5
148D71
  8
OBJECT
 10
10085.7554349608708435
 20
-696.0
 30
0.0
 40
43.5535392688561771
 50
165.6884523008477004
 51
194.3115476991521859
1001
ACDBBLOCKREPETAG
1070
     1
1071
       17
1005
148D71
  0
ARC
  5
148D72
  8
OBJECT
 10
10200.6872746716708207
 20
-642.5919005898921341
 30
0.0
 40
170.6350503965855978
 50
210.0805041866277918
 51
222.5586554081569943
1001
ACDBBLOCKREPETAG
1070
     1
1071
       18
1005
148D72
  0
ARC
  5
148D73
  8
OBJECT
 10
10118.8455987040506443
 20
-686.117273304635205
 30
0.0
 40
78.0722220217636647
 50
195.3363400228271018
 51
212.5448468962036088
1001
ACDBBLOCKREPETAG
1070
     1
1071
       19
1005
148D73
  0
POINT
  5
148D74
  8
DOTS
 10
10000.0
 20
-755.0
 30
0.0
1001
ACDBBLOCKREPETAG
1070
     1
1071
      186
1005
148D74
  0
LINE
  5
148D75
  8
CENTER
 10
8227.0
 20
-696.0
 30
0.0
 11
8071.0
 21
-696.0
 31
0.0
1001
ACDBBLOCKREPETAG
1070
     1
1071
      241
1005
148D75
  0
LINE
  5
148D76
  8
OBJECT
 10
8109.5648667616878811
 20
-743.0
 30
0.0
 11
8086.0000000000027285
 21
-743.0
 31
0.0
1001
ACDBBLOCKREPETAG
1070
     1
1071
      242
1005
148D76
  0
LINE
  5
148D77
  8
OBJECT
 10
8109.5648667616878811
 20
-649.0
 30
0.0
 11
8086.0000000000027285
 21
-649.0
 31
0.0
1001
ACDBBLOCKREPETAG
1070
     1
1071
      243
1005
148D77
  0
LINE
  5
148D78
  8
OBJECT
 10
8083.0
 20
-634.0
 30
0.0
 11
8080.0
 21
-634.0
 31
0.0
1001
ACDBBLOCKREPETAG
1070
     1
1071
      244
1005
148D78
  0
LINE
  5
148D79
  8
OBJECT
 10
8080.0
 20
-758.0
 30
0.0
 11
8083.0
 21
-758.0
 31
0.0
1001
ACDBBLOCKREPETAG
1070
     1
1071
      245
1005
148D79
  0
ARC
  5
148D7A
  8
OBJECT
 10
8083.0
 20
-637.0
 30
0.0
 40
3.0
 50
0.0
 51
90.0
1001
ACDBBLOCKREPETAG
1070
     1
1071
      246
1005
148D7A
  0
ARC
  5
148D7B
  8
OBJECT
 10
8083.0
 20
-755.0
 30
0.0
 40
3.0
 50
270.0
 51
0.0
1001
ACDBBLOCKREPETAG
1070
     1
1071
      247
1005
148D7B
  0
LINE
  5
148D7C
  8
OBJECT
 10
8086.0
 20
-755.0
 30
0.0
 11
8086.0
 21
-637.0
 31
0.0
1001
ACDBBLOCKREPETAG
1070
     1
1071
      248
1005
148D7C
  0
CIRCLE
  5
148D7D
  8
OBJECT
 10
8150.0
 20
-696.0
 30
0.0
 40
54.0
1001
ACDBBLOCKREPETAG
1070
     1
1071
      250
1005
148D7D
  0
CIRCLE
  5
148D7E
  8
OBJECT
 10
8150.0
 20
-696.0
 30
0.0
 40
41.5
1001
ACDBBLOCKREPETAG
1070
     1
1071
      251
1005
148D7E
  0
ARC
  5
148D7F
  8
OBJECT
 10
8150.0
 20
-696.0
 30
0.0
 40
62.0
 50
287.8965511292071824
 51
252.1034488707927892
1001
ACDBBLOCKREPETAG
1070
     1
1071
      252
1005
148D7F
  0
LINE
  5
148D80
  8
CENTER
 10
8150.0
 20
-770.0
 30
0.0
 11
8150.0
 21
-619.0
 31
0.0
1001
ACDBBLOCKREPETAG
1070
     1
1071
      253
1005
148D80
  0
LINE
  5
148D81
  8
OBJECT
 10
8130.9474411167429935
 20
-755.0
 30
0.0
 11
8169.052558883256097
 21
-755.0
 31
0.0
1001
ACDBBLOCKREPETAG
1070
     1
1071
      254
1005
148D81
  0
LINE
  5
148D82
  8
OBJECT
 10
8212.0
 20
-303.0000000000047748
 30
0.0
 11
8212.0
 21
-310.0000000000047748
 31
0.0
1001
ACDBBLOCKREPETAG
1070
     1
1071
      241
1005
148D82
  0
LINE
  5
148D83
  8
OBJECT
 10
8212.0
 20
-310.0000000000047748
 30
0.0
 11
8088.0
 21
-310.0000000000047748
 31
0.0
1001
ACDBBLOCKREPETAG
1070
     1
1071
      242
1005
148D83
  0
LINE
  5
148D84
  8
OBJECT
 10
8088.0
 20
-310.0000000000047748
 30
0.0
 11
8088.0
 21
-303.0000000000047748
 31
0.0
1001
ACDBBLOCKREPETAG
1070
     1
1071
      243
1005
148D84
  0
LINE
  5
148D85
  8
OBJECT
 10
8088.0
 20
-303.0000000000047748
 30
0.0
 11
8212.0
 21
-303.0000000000047748
 31
0.0
1001
ACDBBLOCKREPETAG
1070
     1
1071
      244
1005
148D85
  0
LINE
  5
148D86
  8
CENTER
 10
8197.2436941260293679
 20
-200.0000000000084128
 30
0.0
 11
8080.0
 21
-200.0000000000048033
 31
0.0
1001
ACDBBLOCKREPETAG
1070
     1
1071
      245
1005
148D86
  0
LINE
  5
148D87
  8
OBJECT
 10
8092.4999999999990905
 20
-247.0000000000084128
 30
0.0
 11
8086.0
 21
-247.0000000000084128
 31
0.0
1001
ACDBBLOCKREPETAG
1070
     1
1071
      246
1005
148D87
  0
LINE
  5
148D88
  8
OBJECT
 10
8098.0
 20
-153.0000000000084128
 30
0.0
 11
8086.0
 21
-153.0000000000048033
 31
0.0
1001
ACDBBLOCKREPETAG
1070
     1
1071
      247
1005
148D88
  0
LINE
  5
148D89
  8
OBJECT
 10
8209.0
 20
-303.0000000000047748
 30
0.0
 11
8209.0
 21
-267.0000000000047748
 31
0.0
1001
ACDBBLOCKREPETAG
1070
     1
1071
      248
1005
148D89
  0
LINE
  5
148D8A
  8
OBJECT
 10
8209.0
 20
-267.0000000000047748
 30
0.0
 11
8091.0
 21
-267.0000000000047748
 31
0.0
1001
ACDBBLOCKREPETAG
1070
     1
1071
      249
1005
148D8A
  0
LINE
  5
148D8B
  8
OBJECT
 10
8091.0
 20
-267.0000000000047748
 30
0.0
 11
8091.0
 21
-303.0000000000047748
 31
0.0
1001
ACDBBLOCKREPETAG
1070
     1
1071
      250
1005
148D8B
  0
LINE
  5
148D8C
  8
OBJECT
 10
8204.500000000001819
 20
-263.0000000000047748
 30
0.0
 11
8204.500000000001819
 21
-250.0000000000048033
 31
0.0
1001
ACDBBLOCKREPETAG
1070
     1
1071
      251
1005
148D8C
  0
LINE
  5
148D8D
  8
OBJECT
 10
8095.4999999999990905
 20
-250.0000000000048033
 30
0.0
 11
8095.4999999999990905
 21
-263.0000000000047748
 31
0.0
1001
ACDBBLOCKREPETAG
1070
     1
1071
      252
1005
148D8D
  0
LINE
  5
148D8E
  8
OBJECT
 10
8095.4999999999990905
 20
-263.0000000000047748
 30
0.0
 11
8204.500000000001819
 21
-263.0000000000047748
 31
0.0
1001
ACDBBLOCKREPETAG
1070
     1
1071
      253
1005
148D8E
  0
LINE
  5
148D8F
  8
OBJECT
 10
8209.0
 20
-267.0000000000047748
 30
0.0
 11
8204.500000000001819
 21
-263.0000000000047748
 31
0.0
1001
ACDBBLOCKREPETAG
1070
     1
1071
      254
1005
148D8F
  0
LINE
  5
148D90
  8
OBJECT
 10
8091.0
 20
-267.0000000000047748
 30
0.0
 11
8095.4999999999990905
 21
-263.0000000000047748
 31
0.0
1001
ACDBBLOCKREPETAG
1070
     1
1071
      255
1005
148D90
  0
LINE
  5
148D91
  8
OBJECT
 10
8083.0
 20
-138.0000000000048033
 30
0.0
 11
8080.0
 21
-138.0000000000048033
 31
0.0
1001
ACDBBLOCKREPETAG
1070
     1
1071
      256
1005
148D91
  0
ARC
  5
148D92
  8
OBJECT
 10
8083.0
 20
-141.0000000000048033
 30
0.0
 40
3.0
 50
0.0
 51
90.0
1001
ACDBBLOCKREPETAG
1070
     1
1071
      257
1005
148D92
  0
LINE
  5
148D93
  8
OBJECT
 10
8080.0
 20
-262.0000000000047748
 30
0.0
 11
8095.4999999999990905
 21
-262.0000000000047748
 31
0.0
1001
ACDBBLOCKREPETAG
1070
     1
1071
      258
1005
148D93
  0
ARC
  5
148D94
  8
OBJECT
 10
8083.0
 20
-259.0000000000047748
 30
0.0
 40
3.0
 50
270.0
 51
0.0
1001
ACDBBLOCKREPETAG
1070
     1
1071
      259
1005
148D94
  0
LINE
  5
148D95
  8
OBJECT
 10
8086.0
 20
-259.0000000000047748
 30
0.0
 11
8086.0
 21
-141.0000000000048033
 31
0.0
1001
ACDBBLOCKREPETAG
1070
     1
1071
      260
1005
148D95
  0
LINE
  5
148D96
  8
HIDDEN
 10
8194.500000000003638
 20
-258.0000000000047748
 30
0.0
 11
8105.500000000003638
 21
-258.0000000000047748
 31
0.0
1001
ACDBBLOCKREPETAG
1070
     1
1071
      261
1005
148D96
  0
LINE
  5
148D97
  8
OBJECT
 10
8095.5000212374461626
 20
-249.9999591361386138
 30
0.0
 11
8204.50002123745071
 21
-249.9999591361386138
 31
0.0
1001
ACDBBLOCKREPETAG
1070
     1
1071
      263
1005
148D97
  0
LINE
  5
148D98
  8
CENTER
 10
8150.0
 20
-152.7563058739771975
 30
0.0
 11
8150.0
 21
-325.0000000000047748
 31
0.0
1001
ACDBBLOCKREPETAG
1070
     1
1071
      264
1005
148D98
  0
ARC
  5
148D99
  8
CENTER
 10
8098.0
 20
-252.0000000000084128
 30
0.0
 40
52.0
 50
0.0
 51
90.0
1001
ACDBBLOCKREPETAG
1070
     1
1071
      265
1005
148D99
  0
ARC
  5
148D9A
  8
OBJECT
 10
8092.4999999999990905
 20
-250.0000000000084128
 30
0.0
 40
3.0
 50
0.0
 51
90.0
1001
ACDBBLOCKREPETAG
1070
     1
1071
      266
1005
148D9A
  0
ARC
  5
148D9B
  8
OBJECT
 10
8098.0
 20
-252.0000000000084128
 30
0.0
 40
99.0
 50
1.157592897190024
 51
90.0
1001
ACDBBLOCKREPETAG
1070
     1
1071
      267
1005
148D9B
  0
LINE
  5
148D9C
  8
OBJECT
 10
7923.0
 20
-571.0
 30
0.0
 11
7923.0
 21
-550.0
 31
0.0
1001
ACDBBLOCKREPETAG
1070
     1
1071
        0
1005
148D9C
  0
LINE
  5
148D9D
  8
OBJECT
 10
7923.0
 20
-550.0
 30
0.0
 11
8077.0
 21
-550.0
 31
0.0
1001
ACDBBLOCKREPETAG
1070
     1
1071
        1
1005
148D9D
  0
LINE
  5
148D9E
  8
HIDDEN
 10
7943.0
 20
-620.0
 30
0.0
 11
8057.0
 21
-620.0
 31
0.0
1001
ACDBBLOCKREPETAG
1070
     1
1071
        2
1005
148D9E
  0
LINE
  5
148D9F
  8
OBJECT
 10
8077.0
 20
-550.0
 30
0.0
 11
8077.0
 21
-571.0
 31
0.0
1001
ACDBBLOCKREPETAG
1070
     1
1071
        3
1005
148D9F
  0
LINE
  5
148DA0
  8
OBJECT
 10
8077.0
 20
-571.0
 30
0.0
 11
7923.0
 21
-571.0
 31
0.0
1001
ACDBBLOCKREPETAG
1070
     1
1071
        4
1005
148DA0
  0
LINE
  5
148DA1
  8
CENTER
 10
8000.0
 20
-535.0
 30
0.0
 11
8000.0
 21
-770.0
 31
0.0
1001
ACDBBLOCKREPETAG
1070
     1
1071
        5
1005
148DA1
  0
LINE
  5
148DA2
  8
OBJECT
 10
7925.0
 20
-634.0
 30
0.0
 11
7925.0
 21
-758.0
 31
0.0
1001
ACDBBLOCKREPETAG
1070
     1
1071
        6
1005
148DA2
  0
LINE
  5
148DA3
  8
OBJECT
 10
7928.0
 20
-571.0
 30
0.0
 11
7928.0
 21
-634.0
 31
0.0
1001
ACDBBLOCKREPETAG
1070
     1
1071
        7
1005
148DA3
  0
LINE
  5
148DA4
  8
OBJECT
 10
8072.0
 20
-634.0
 30
0.0
 11
8072.0
 21
-571.0
 31
0.0
1001
ACDBBLOCKREPETAG
1070
     1
1071
        8
1005
148DA4
  0
LINE
  5
148DA5
  8
OBJECT
 10
7920.0
 20
-758.0
 30
0.0
 11
8080.0
 21
-758.0
 31
0.0
1001
ACDBBLOCKREPETAG
1070
     1
1071
        9
1005
148DA5
  0
LINE
  5
148DA6
  8
OBJECT
 10
8080.0
 20
-634.0
 30
0.0
 11
7925.0
 21
-634.0
 31
0.0
1001
ACDBBLOCKREPETAG
1070
     1
1071
       10
1005
148DA6
  0
LINE
  5
148DA7
  8
OBJECT
 10
7920.0
 20
-758.0
 30
0.0
 11
7920.0
 21
-770.0
 31
0.0
1001
ACDBBLOCKREPETAG
1070
     1
1071
       11
1005
148DA7
  0
LINE
  5
148DA8
  8
OBJECT
 10
7920.0
 20
-770.0
 30
0.0
 11
8080.0
 21
-770.0
 31
0.0
1001
ACDBBLOCKREPETAG
1070
     1
1071
       12
1005
148DA8
  0
LINE
  5
148DA9
  8
OBJECT
 10
8080.0
 20
-770.0
 30
0.0
 11
8080.0
 21
-758.0
 31
0.0
1001
ACDBBLOCKREPETAG
1070
     1
1071
       13
1005
148DA9
  0
ARC
  5
148DAA
  8
OBJECT
 10
8200.6872746716726397
 20
-749.4080994101075248
 30
0.0
 40
170.6350503965855978
 50
137.4413445918430057
 51
149.9194958133722082
1001
ACDBBLOCKREPETAG
1070
     1
1071
       15
1005
148DAA
  0
ARC
  5
148DAB
  8
OBJECT
 10
8118.8455987040497348
 20
-705.882726695364795
 30
0.0
 40
78.0722220217636647
 50
147.4551531037683105
 51
164.6636599771867111
1001
ACDBBLOCKREPETAG
1070
     1
1071
       16
1005
148DAB
  0
ARC
  5
148DAC
  8
OBJECT
 10
8085.7554349608708435
 20
-696.0
 30
0.0
 40
43.5535392688561771
 50
165.6884523008477004
 51
194.3115476991521859
1001
ACDBBLOCKREPETAG
1070
     1
1071
       17
1005
148DAC
  0
ARC
  5
148DAD
  8
OBJECT
 10
8200.6872746716726397
 20
-642.5919005898921341
 30
0.0
 40
170.6350503965855978
 50
210.0805041866277918
 51
222.5586554081569943
1001
ACDBBLOCKREPETAG
1070
     1
1071
       18
1005
148DAD
  0
ARC
  5
148DAE
  8
OBJECT
 10
8118.8455987040497348
 20
-686.117273304635205
 30
0.0
 40
78.0722220217636647
 50
195.3363400228132889
 51
212.5448468962316042
1001
ACDBBLOCKREPETAG
1070
     1
1071
       19
1005
148DAE
  0
POINT
  5
148DAF
  8
DOTS
 10
8000.0
 20
-755.0
 30
0.0
1001
ACDBBLOCKREPETAG
1070
     1
1071
      186
1005
148DAF
  0
LINE
  5
148DB0
  8
SLIM
 10
7927.3018300565236132
 20
-155.9548403695825982
 30
0.0
 11
7955.9548403695753223
 21
-127.3018300565280043
 31
0.0
1001
GRADIENTCOLOR1ACI
1070
     5
1001
GRADIENTCOLOR2ACI
1070
     2
1001
ACAD
1010
0.0
1020
0.0
1030
0.0
1001
ACDBBLOCKREPETAG
1070
     1
1071
      442
1005
148DB0
  0
LINE
  5
148DB1
  8
SLIM
 10
7919.4861520708373064
 20
-172.7507744763375968
 30
0.0
 11
7938.2903089572737372
 21
-153.9466175899021891
 31
0.0
1001
GRADIENTCOLOR1ACI
1070
     5
1001
GRADIENTCOLOR2ACI
1070
     2
1001
ACAD
1010
0.0
1020
0.0
1030
0.0
1001
ACDBBLOCKREPETAG
1070
     1
1071
      443
1005
148DB1
  0
LINE
  5
148DB2
  8
SLIM
 10
7953.946617589897869
 20
-138.2903089572774036
 30
0.0
 11
7972.7507744763333903
 21
-119.486152070841996
 31
0.0
1001
GRADIENTCOLOR1ACI
1070
     5
1001
GRADIENTCOLOR2ACI
1070
     2
1001
ACAD
1010
0.0
1020
0.0
1030
0.0
1001
ACDBBLOCKREPETAG
1070
     1
1071
      444
1005
148DB2
  0
LINE
  5
148DB3
  8
SLIM
 10
7916.3596679933771156
 20
-184.8575146748661098
 30
0.0
 11
7927.69595835578275
 21
-173.5212243124618112
 31
0.0
1001
GRADIENTCOLOR1ACI
1070
     5
1001
GRADIENTCOLOR2ACI
1070
     2
1001
ACAD
1010
0.0
1020
0.0
1030
0.0
1001
ACDBBLOCKREPETAG
1070
     1
1071
      445
1005
148DB3
  0
LINE
  5
148DB4
  8
SLIM
 10
7973.52122431245607
 20
-127.6959583557868996
 30
0.0
 11
7984.8575146748607949
 21
-116.3596679933827005
 31
0.0
1001
GRADIENTCOLOR1ACI
1070
     5
1001
GRADIENTCOLOR2ACI
1070
     2
1001
ACAD
1010
0.0
1020
0.0
1030
0.0
1001
ACDBBLOCKREPETAG
1070
     1
1071
      446
1005
148DB4
  0
LINE
  5
148DB5
  8
SLIM
 10
7915.1440575890528635
 20
-195.0533812002607021
 30
0.0
 11
7924.3030216431825465
 21
-185.8944171461307064
 31
0.0
1001
GRADIENTCOLOR1ACI
1070
     5
1001
GRADIENTCOLOR2ACI
1070
     2
1001
ACAD
1010
0.0
1020
0.0
1030
0.0
1001
ACDBBLOCKREPETAG
1070
     1
1071
      447
1005
148DB5
  0
LINE
  5
148DB6
  8
SLIM
 10
7985.8944171461262158
 20
-124.3030216431871935
 30
0.0
 11
7995.0533812002540799
 21
-115.1440575890573967
 31
0.0
1001
GRADIENTCOLOR1ACI
1070
     5
1001
GRADIENTCOLOR2ACI
1070
     2
1001
ACAD
1010
0.0
1020
0.0
1030
0.0
1001
ACDBBLOCKREPETAG
1070
     1
1071
      448
1005
148DB6
  0
LINE
  5
148DB7
  8
SLIM
 10
7915.0979635574731219
 20
-204.079731352909107
 30
0.0
 11
7919.1776949103768857
 21
-200.0000000000048033
 31
0.0
1001
GRADIENTCOLOR1ACI
1070
     5
1001
GRADIENTCOLOR2ACI
1070
     2
1001
ACAD
1010
0.0
1020
0.0
1030
0.0
1001
ACDBBLOCKREPETAG
1070
     1
1071
      449
1005
148DB7
  0
LINE
  5
148DB8
  8
SLIM
 10
8000.0
 20
-119.1776949103823995
 30
0.0
 11
8004.0797313529055828
 21
-115.0979635574780957
 31
0.0
1001
GRADIENTCOLOR1ACI
1070
     5
1001
GRADIENTCOLOR2ACI
1070
     2
1001
ACAD
1010
0.0
1020
0.0
1030
0.0
1001
ACDBBLOCKREPETAG
1070
     1
1071
      450
1005
148DB8
  0
LINE
  5
148DB9
  8
SLIM
 10
7919.1776949103768857
 20
-200.0000000000048033
 30
0.0
 11
7923.099962161170879
 21
-196.0777327492114921
 31
0.0
1001
GRADIENTCOLOR1ACI
1070
     5
1001
GRADIENTCOLOR2ACI
1070
     2
1001
ACAD
1010
0.0
1020
0.0
1030
0.0
1001
ACDBBLOCKREPETAG
1070
     1
1071
      451
1005
148DB9
  0
LINE
  5
148DBA
  8
SLIM
 10
7996.0777327492060067
 20
-123.099962161175597
 30
0.0
 11
8000.0
 21
-119.1776949103823995
 31
0.0
1001
GRADIENTCOLOR1ACI
1070
     5
1001
GRADIENTCOLOR2ACI
1070
     2
1001
ACAD
1010
0.0
1020
0.0
1030
0.0
1001
ACDBBLOCKREPETAG
1070
     1
1071
      452
1005
148DBA
  0
LINE
  5
148DBB
  8
SLIM
 10
7915.889972620871049
 20
-212.2679784105795875
 30
0.0
 11
7923.1622307771704072
 21
-204.995720254282304
 31
0.0
1001
GRADIENTCOLOR1ACI
1070
     5
1001
GRADIENTCOLOR2ACI
1070
     2
1001
ACAD
1010
0.0
1020
0.0
1030
0.0
1001
ACDBBLOCKREPETAG
1070
     1
1071
      453
1005
148DBB
  0
LINE
  5
148DBC
  8
SLIM
 10
8004.9957202542736923
 20
-123.1622307771740026
 30
0.0
 11
8012.2679784105748695
 21
-115.8899726208767049
 31
0.0
1001
GRADIENTCOLOR1ACI
1070
     5
1001
GRADIENTCOLOR2ACI
1070
     2
1001
ACAD
1010
0.0
1020
0.0
1030
0.0
1001
ACDBBLOCKREPETAG
1070
     1
1071
      454
1005
148DBC
  0
LINE
  5
148DBD
  8
SLIM
 10
7917.338265695152586
 20
-219.799941457367197
 30
0.0
 11
7924.1101477855518169
 21
-213.0280593669693019
 31
0.0
1001
GRADIENTCOLOR1ACI
1070
     5
1001
GRADIENTCOLOR2ACI
1070
     2
1001
ACAD
1010
0.0
1020
0.0
1030
0.0
1001
ACDBBLOCKREPETAG
1070
     1
1071
      455
1005
148DBD
  0
LINE
  5
148DBE
  8
SLIM
 10
8013.0280593669640439
 20
-124.1101477855561939
 30
0.0
 11
8019.7999414573623653
 21
-117.3382656951582987
 31
0.0
1001
GRADIENTCOLOR1ACI
1070
     5
1001
GRADIENTCOLOR2ACI
1070
     2
1001
ACAD
1010
0.0
1020
0.0
1030
0.0
1001
ACDBBLOCKREPETAG
1070
     1
1071
      456
1005
148DBE
  0
LINE
  5
148DBF
  8
SLIM
 10
7919.3312594063054348
 20
-226.7872038672844894
 30
0.0
 11
7925.7443819593418084
 21
-220.3740813142505885
 31
0.0
1001
GRADIENTCOLOR1ACI
1070
     5
1001
GRADIENTCOLOR2ACI
1070
     2
1001
ACAD
1010
0.0
1020
0.0
1030
0.0
1001
ACDBBLOCKREPETAG
1070
     1
1071
      457
1005
148DBF
  0
LINE
  5
148DC0
  8
SLIM
 10
8020.3740813142458137
 20
-125.7443819593439969
 30
0.0
 11
8026.7872038672767303
 21
-119.331259406310096
 31
0.0
1001
GRADIENTCOLOR1ACI
1070
     5
1001
GRADIENTCOLOR2ACI
1070
     2
1001
ACAD
1010
0.0
1020
0.0
1030
0.0
1001
ACDBBLOCKREPETAG
1070
     1
1071
      458
1005
148DC0
  0
LINE
  5
148DC1
  8
SLIM
 10
7921.7957163186192702
 20
-233.3030030760386069
 30
0.0
 11
7927.9462473957773909
 21
-227.152471998880003
 31
0.0
1001
GRADIENTCOLOR1ACI
1070
     5
1001
GRADIENTCOLOR2ACI
1070
     2
1001
ACAD
1010
0.0
1020
0.0
1030
0.0
1001
ACDBBLOCKREPETAG
1070
     1
1071
      459
1005
148DC1
  0
LINE
  5
148DC2
  8
SLIM
 10
8027.152471998873807
 20
-127.9462473957837005
 30
0.0
 11
8033.3030030760328373
 21
-121.7957163186251961
 31
0.0
1001
GRADIENTCOLOR1ACI
1070
     5
1001
GRADIENTCOLOR2ACI
1070
     2
1001
ACAD
1010
0.0
1020
0.0
1030
0.0
1001
ACDBBLOCKREPETAG
1070
     1
1071
      460
1005
148DC2
  0
LINE
  5
148DC3
  8
SLIM
 10
7924.6816635313452934
 20
-239.3973119843832933
 30
0.0
 11
7930.6398768643939547
 21
-233.4390986513353141
 31
0.0
1001
GRADIENTCOLOR1ACI
1070
     5
1001
GRADIENTCOLOR2ACI
1070
     2
1001
ACAD
1010
0.0
1020
0.0
1030
0.0
1001
ACDBBLOCKREPETAG
1070
     1
1071
      461
1005
148DC3
  0
LINE
  5
148DC4
  8
SLIM
 10
8033.4390986513308235
 20
-130.6398768643977064
 30
0.0
 11
8039.3973119843776658
 21
-124.6816635313495993
 31
0.0
1001
GRADIENTCOLOR1ACI
1070
     5
1001
GRADIENTCOLOR2ACI
1070
     2
1001
ACAD
1010
0.0
1020
0.0
1030
0.0
1001
ACDBBLOCKREPETAG
1070
     1
1071
      462
1005
148DC4
  0
LINE
  5
148DC5
  8
SLIM
 10
7927.9544611024266487
 20
-245.1047705343725909
 30
0.0
 11
7933.7750070149932071
 21
-239.2842246218031903
 31
0.0
1001
GRADIENTCOLOR1ACI
1070
     5
1001
GRADIENTCOLOR2ACI
1070
     2
1001
ACAD
1010
0.0
1020
0.0
1030
0.0
1001
ACDBBLOCKREPETAG
1070
     1
1071
      463
1005
148DC5
  0
LINE
  5
148DC6
  8
SLIM
 10
8039.2842246217996944
 20
-133.7750070149988915
 30
0.0
 11
8045.1047705343717098
 21
-127.9544611024295051
 31
0.0
1001
GRADIENTCOLOR1ACI
1070
     5
1001
GRADIENTCOLOR2ACI
1070
     2
1001
ACAD
1010
0.0
1020
0.0
1030
0.0
1001
ACDBBLOCKREPETAG
1070
     1
1071
      464
1005
148DC6
  0
LINE
  5
148DC7
  8
SLIM
 10
7931.5903319686649411
 20
-250.449155789201086
 30
0.0
 11
7937.3182075880558841
 21
-244.7212801698090061
 31
0.0
1001
GRADIENTCOLOR1ACI
1070
     5
1001
GRADIENTCOLOR2ACI
1070
     2
1001
ACAD
1010
0.0
1020
0.0
1030
0.0
1001
ACDBBLOCKREPETAG
1070
     1
1071
      465
1005
148DC7
  0
LINE
  5
148DC8
  8
SLIM
 10
8044.7212801698060503
 20
-137.3182075880621937
 30
0.0
 11
8050.4491557891979028
 21
-131.5903319686701991
 31
0.0
1001
GRADIENTCOLOR1ACI
1070
     5
1001
GRADIENTCOLOR2ACI
1070
     2
1001
ACAD
1010
0.0
1020
0.0
1030
0.0
1001
ACDBBLOCKREPETAG
1070
     1
1071
      466
1005
148DC8
  0
LINE
  5
148DC9
  8
SLIM
 10
7935.5737496925266896
 20
-255.4459941864091093
 30
0.0
 11
7941.2481105415899947
 21
-249.7716333373460031
 31
0.0
1001
GRADIENTCOLOR1ACI
1070
     5
1001
GRADIENTCOLOR2ACI
1070
     2
1001
ACAD
1010
0.0
1020
0.0
1030
0.0
1001
ACDBBLOCKREPETAG
1070
     1
1071
      467
1005
148DC9
  0
LINE
  5
148DCA
  8
SLIM
 10
8053.0197438789318767
 20
-138.0000000000048033
 30
0.0
 11
8055.4459941864042776
 21
-135.5737496925312087
 31
0.0
1001
GRADIENTCOLOR1ACI
1070
     5
1001
GRADIENTCOLOR2ACI
1070
     2
1001
ACAD
1010
0.0
1020
0.0
1030
0.0
1001
ACDBBLOCKREPETAG
1070
     1
1071
      468
1005
148DCA
  0
LINE
  5
148DCB
  8
SLIM
 10
7939.8959235991442256
 20
-260.1040764008612882
 30
0.0
 11
7945.552777848635742
 21
-254.4472221513688908
 31
0.0
1001
GRADIENTCOLOR1ACI
1070
     5
1001
GRADIENTCOLOR2ACI
1070
     2
1001
ACAD
1010
0.0
1020
0.0
1030
0.0
1001
ACDBBLOCKREPETAG
1070
     1
1071
      469
1005
148DCB
  0
LINE
  5
148DCC
  8
SLIM
 10
7944.5540058135957224
 20
-264.4262503074780852
 30
0.0
 11
7950.228366662656299
 21
-258.7518894584151212
 31
0.0
1001
GRADIENTCOLOR1ACI
1070
     5
1001
GRADIENTCOLOR2ACI
1070
     2
1001
ACAD
1010
0.0
1020
0.0
1030
0.0
1001
ACDBBLOCKREPETAG
1070
     1
1071
      470
1005
148DCC
  0
LINE
  5
148DCD
  8
SLIM
 10
7949.5508442108039162
 20
-268.409668031339379
 30
0.0
 11
7955.2787198301957687
 21
-262.6817924119474128
 31
0.0
1001
GRADIENTCOLOR1ACI
1070
     5
1001
GRADIENTCOLOR2ACI
1070
     2
1001
ACAD
1010
0.0
1020
0.0
1030
0.0
1001
ACDBBLOCKREPETAG
1070
     1
1071
      471
1005
148DCD
  0
LINE
  5
148DCE
  8
SLIM
 10
7954.8952294656310187
 20
-272.0455388975801156
 30
0.0
 11
7960.7157753782021246
 21
-266.2249929850107151
 31
0.0
1001
GRADIENTCOLOR1ACI
1070
     5
1001
GRADIENTCOLOR2ACI
1070
     2
1001
ACAD
1010
0.0
1020
0.0
1030
0.0
1001
ACDBBLOCKREPETAG
1070
     1
1071
      472
1005
148DCE
  0
LINE
  5
148DCF
  8
SLIM
 10
7960.6026880156223342
 20
-275.3183364686598793
 30
0.0
 11
7966.560901348668267
 21
-269.3601231356119001
 31
0.0
1001
GRADIENTCOLOR1ACI
1070
     5
1001
GRADIENTCOLOR2ACI
1070
     2
1001
ACAD
1010
0.0
1020
0.0
1030
0.0
1001
ACDBBLOCKREPETAG
1070
     1
1071
      473
1005
148DCF
  0
LINE
  5
148DD0
  8
SLIM
 10
7966.6969969239680722
 20
-278.2042836813844247
 30
0.0
 11
7972.847528001124374
 21
-272.0537526042256218
 31
0.0
1001
GRADIENTCOLOR1ACI
1070
     5
1001
GRADIENTCOLOR2ACI
1070
     2
1001
ACAD
1010
0.0
1020
0.0
1030
0.0
1001
ACDBBLOCKREPETAG
1070
     1
1071
      474
1005
148DD0
  0
LINE
  5
148DD1
  8
SLIM
 10
7973.2127961327187222
 20
-280.6687405936993969
 30
0.0
 11
7979.6259186857541863
 21
-274.2556180406655244
 31
0.0
1001
GRADIENTCOLOR1ACI
1070
     5
1001
GRADIENTCOLOR2ACI
1070
     2
1001
ACAD
1010
0.0
1020
0.0
1030
0.0
1001
ACDBBLOCKREPETAG
1070
     1
1071
      475
1005
148DD1
  0
LINE
  5
148DD2
  8
SLIM
 10
7980.2000585426394537
 20
-282.6617343048512225
 30
0.0
 11
7986.9719406330359561
 21
-275.8898522144534127
 31
0.0
1001
GRADIENTCOLOR1ACI
1070
     5
1001
GRADIENTCOLOR2ACI
1070
     2
1001
ACAD
1010
0.0
1020
0.0
1030
0.0
1001
ACDBBLOCKREPETAG
1070
     1
1071
      476
1005
148DD2
  0
LINE
  5
148DD3
  8
SLIM
 10
7987.73202158942604
 20
-284.1100273791328163
 30
0.0
 11
7995.0042797457208508
 21
-276.8377692228356182
 31
0.0
1001
GRADIENTCOLOR1ACI
1070
     5
1001
GRADIENTCOLOR2ACI
1070
     2
1001
ACAD
1010
0.0
1020
0.0
1030
0.0
1001
ACDBBLOCKREPETAG
1070
     1
1071
      477
1005
148DD3
  0
LINE
  5
148DD4
  8
SLIM
 10
7995.9202686470962362
 20
-284.9020364425314824
 30
0.0
 11
8000.0
 21
-280.8223050896270934
 31
0.0
1001
GRADIENTCOLOR1ACI
1070
     5
1001
GRADIENTCOLOR2ACI
1070
     2
1001
ACAD
1010
0.0
1020
0.0
1030
0.0
1001
ACDBBLOCKREPETAG
1070
     1
1071
      478
1005
148DD4
  0
LINE
  5
148DD5
  8
SLIM
 10
8000.0
 20
-280.8223050896270934
 30
0.0
 11
8003.9222672507930838
 21
-276.9000378388338959
 31
0.0
1001
GRADIENTCOLOR1ACI
1070
     5
1001
GRADIENTCOLOR2ACI
1070
     2
1001
ACAD
1010
0.0
1020
0.0
1030
0.0
1001
ACDBBLOCKREPETAG
1070
     1
1071
      479
1005
148DD5
  0
LINE
  5
148DD6
  8
SLIM
 10
8004.9466187997468296
 20
-284.8559424109521956
 30
0.0
 11
8014.1055828538737842
 21
-275.6969783568222283
 31
0.0
1001
GRADIENTCOLOR1ACI
1070
     5
1001
GRADIENTCOLOR2ACI
1070
     2
1001
ACAD
1010
0.0
1020
0.0
1030
0.0
1001
ACDBBLOCKREPETAG
1070
     1
1071
      480
1005
148DD6
  0
LINE
  5
148DD7
  8
SLIM
 10
8015.1424853251401146
 20
-283.6403320066269202
 30
0.0
 11
8026.4787756875412015
 21
-272.304041644222707
 31
0.0
1001
GRADIENTCOLOR1ACI
1070
     5
1001
GRADIENTCOLOR2ACI
1070
     2
1001
ACAD
1010
0.0
1020
0.0
1030
0.0
1001
ACDBBLOCKREPETAG
1070
     1
1071
      481
1005
148DD7
  0
LINE
  5
148DD8
  8
SLIM
 10
8027.2492255236657002
 20
-280.5138479291674116
 30
0.0
 11
8045.7630734528302128
 21
-262.0000000000047748
 31
0.0
1001
GRADIENTCOLOR1ACI
1070
     5
1001
GRADIENTCOLOR2ACI
1070
     2
1001
ACAD
1010
0.0
1020
0.0
1030
0.0
1001
ACDBBLOCKREPETAG
1070
     1
1071
      482
1005
148DD8
  0
LINE
  5
148DD9
  8
SLIM
 10
8044.0451596304192208
 20
-272.6981699434816164
 30
0.0
 11
8054.7433295739001551
 21
-262.0000000000047748
 31
0.0
1001
GRADIENTCOLOR1ACI
1070
     5
1001
GRADIENTCOLOR2ACI
1070
     2
1001
ACAD
1010
0.0
1020
0.0
1030
0.0
1001
ACDBBLOCKREPETAG
1070
     1
1071
      483
1005
148DD9
  0
LINE
  5
148DDA
  8
CENTER
 10
8080.0
 20
-200.0000000000048033
 30
0.0
 11
7900.0
 21
-200.0000000000048033
 31
0.0
1001
ACDBBLOCKREPETAG
1070
     1
1071
      187
1005
148DDA
  0
LINE
  5
148DDB
  8
CENTER
 10
8000.0
 20
-300.0000000000047748
 30
0.0
 11
8000.0
 21
-100.0000000000047038
 31
0.0
1001
ACDBBLOCKREPETAG
1070
     1
1071
      188
1005
148DDB
  0
CIRCLE
  5
148DDC
  8
OBJECT
 10
8000.0
 20
-200.0000000000048033
 30
0.0
 40
70.0
1001
ACDBBLOCKREPETAG
1070
     1
1071
      189
1005
148DDC
  0
CIRCLE
  5
148DDD
  8
OBJECT
 10
8000.0
 20
-200.0000000000048033
 30
0.0
 40
77.0
1001
ACDBBLOCKREPETAG
1070
     1
1071
      190
1005
148DDD
  0
LINE
  5
148DDE
  8
OBJECT
 10
8045.6618002273271486
 20
-138.0000000000048033
 30
0.0
 11
8080.0
 21
-138.0000000000048033
 31
0.0
1001
ACDBBLOCKREPETAG
1070
     1
1071
      192
1005
148DDE
  0
LINE
  5
148DDF
  8
OBJECT
 10
8045.6618002273271486
 20
-262.0000000000047748
 30
0.0
 11
8080.0
 21
-262.0000000000047748
 31
0.0
1001
ACDBBLOCKREPETAG
1070
     1
1071
      193
1005
148DDF
  0
ARC
  5
148DE0
  8
OBJECT
 10
8000.0
 20
-200.0000000000048033
 30
0.0
 40
85.0
 50
46.8371028598151184
 51
313.1628971401847821
1001
ACDBBLOCKREPETAG
1070
     1
1071
      202
1005
148DE0
  0
LINE
  5
148DE1
  8
OBJECT
 10
8024.1029330932988159
 20
-243.8069471237224946
 30
0.0
 11
8020.6596569999974236
 21
-232.5546220000044002
 31
0.0
1001
ACDBBLOCKREPETAG
1070
     1
1071
      321
1005
148DE1
  0
LINE
  5
148DE2
  8
OBJECT
 10
7986.7927499013749184
 20
-218.2255337420859007
 30
0.0
 11
8020.6596569999974236
 21
-232.5546220000026096
 31
0.0
1001
ACDBBLOCKREPETAG
1070
     1
1071
      323
1005
148DE2
  0
ARC
  5
148DE3
  8
OBJECT
 10
7982.8961697618969993
 20
-227.4351299990624113
 30
0.0
 40
10.0
 50
67.0667782929113656
 51
154.0147343702934108
1001
ACDBBLOCKREPETAG
1070
     1
1071
      324
1005
148DE3
  0
ARC
  5
148DE4
  8
OBJECT
 10
7986.1488390381264253
 20
-225.5538625672973012
 30
0.0
 40
7.0
 50
67.0667782929113656
 51
154.0147337749826022
1001
ACDBBLOCKREPETAG
1070
     1
1071
      325
1005
148DE4
  0
LINE
  5
148DE5
  8
OBJECT
 10
7969.4199755553008799
 20
-243.8988850081873068
 30
0.0
 11
7979.8564918232368655
 21
-222.4868825335736062
 31
0.0
1001
ACDBBLOCKREPETAG
1070
     1
1071
      353
1005
148DE5
  0
LINE
  5
148DE6
  8
OBJECT
 10
7965.2972169006088734
 20
-240.7181390188329999
 30
0.0
 11
7973.9071022665102646
 21
-223.0537300443131983
 31
0.0
1001
ACDBBLOCKREPETAG
1070
     1
1071
      354
1005
148DE6
  0
ARC
  5
148DE7
  8
OBJECT
 10
7976.5796953073140685
 20
-207.1289369828494102
 30
0.0
 40
60.0311132460326178
 50
314.0702013041856731
 51
322.3393610608968061
1001
ACDBBLOCKREPETAG
1070
     1
1071
      355
1005
148DE7
  0
CIRCLE
  5
148DE8
  8
OBJECT
 10
8000.0
 20
-200.0000000000048033
 30
0.0
 40
53.5
1001
ACDBBLOCKREPETAG
1070
     1
1071
      356
1005
148DE8
  0
POINT
  5
148DE9
  8
DOTS
 10
8000.0
 20
-200.0000000000048033
 30
0.0
 50
270.0
1001
ACDBBLOCKREPETAG
1070
     1
1071
      365
1005
148DE9
  0
ARC
  5
148DEA
  8
OBJECT
 10
8000.0
 20
-200.0000000000048033
 30
0.0
 40
50.0
 50
298.8199430000042867
 51
228.523769559625805
1001
ACDBBLOCKREPETAG
1070
     1
1071
      497
1005
148DEA
  0
LINE
  5
148DED
  8
OBJECT
 10
5923.0
 20
-571.0
 30
0.0
 11
5923.0
 21
-550.0
 31
0.0
1001
ACDBBLOCKREPETAG
1070
     1
1071
        0
1005
148DED
  0
LINE
  5
148DEE
  8
OBJECT
 10
5923.0
 20
-550.0
 30
0.0
 11
6077.0
 21
-550.0
 31
0.0
1001
ACDBBLOCKREPETAG
1070
     1
1071
        1
1005
148DEE
  0
LINE
  5
148DEF
  8
HIDDEN
 10
5943.0
 20
-620.0
 30
0.0
 11
6057.0
 21
-620.0
 31
0.0
1001
ACDBBLOCKREPETAG
1070
     1
1071
        2
1005
148DEF
  0
LINE
  5
148DF0
  8
OBJECT
 10
6077.0
 20
-550.0
 30
0.0
 11
6077.0
 21
-571.0
 31
0.0
1001
ACDBBLOCKREPETAG
1070
     1
1071
        3
1005
148DF0
  0
LINE
  5
148DF1
  8
OBJECT
 10
6077.0
 20
-571.0
 30
0.0
 11
5923.0
 21
-571.0
 31
0.0
1001
ACDBBLOCKREPETAG
1070
     1
1071
        4
1005
148DF1
  0
LINE
  5
148DF2
  8
CENTER
 10
6000.0
 20
-535.0
 30
0.0
 11
6000.0
 21
-770.0
 31
0.0
1001
ACDBBLOCKREPETAG
1070
     1
1071
        5
1005
148DF2
  0
LINE
  5
148DF3
  8
OBJECT
 10
5925.0
 20
-634.0
 30
0.0
 11
5925.0
 21
-758.0
 31
0.0
1001
ACDBBLOCKREPETAG
1070
     1
1071
        6
1005
148DF3
  0
LINE
  5
148DF4
  8
OBJECT
 10
5928.0
 20
-571.0
 30
0.0
 11
5928.0
 21
-634.0
 31
0.0
1001
ACDBBLOCKREPETAG
1070
     1
1071
        7
1005
148DF4
  0
LINE
  5
148DF5
  8
OBJECT
 10
6072.0
 20
-634.0
 30
0.0
 11
6072.0
 21
-571.0
 31
0.0
1001
ACDBBLOCKREPETAG
1070
     1
1071
        8
1005
148DF5
  0
LINE
  5
148DF6
  8
OBJECT
 10
5920.0
 20
-758.0
 30
0.0
 11
6080.0
 21
-758.0
 31
0.0
1001
ACDBBLOCKREPETAG
1070
     1
1071
        9
1005
148DF6
  0
LINE
  5
148DF7
  8
OBJECT
 10
6080.0
 20
-634.0
 30
0.0
 11
5925.0
 21
-634.0
 31
0.0
1001
ACDBBLOCKREPETAG
1070
     1
1071
       10
1005
148DF7
  0
LINE
  5
148DF8
  8
OBJECT
 10
5920.0
 20
-758.0
 30
0.0
 11
5920.0
 21
-770.0
 31
0.0
1001
ACDBBLOCKREPETAG
1070
     1
1071
       11
1005
148DF8
  0
LINE
  5
148DF9
  8
OBJECT
 10
5920.0
 20
-770.0
 30
0.0
 11
6080.0
 21
-770.0
 31
0.0
1001
ACDBBLOCKREPETAG
1070
     1
1071
       12
1005
148DF9
  0
LINE
  5
148DFA
  8
OBJECT
 10
6080.0
 20
-770.0
 30
0.0
 11
6080.0
 21
-758.0
 31
0.0
1001
ACDBBLOCKREPETAG
1070
     1
1071
       13
1005
148DFA
  0
ARC
  5
148DFB
  8
OBJECT
 10
6200.6872746716726397
 20
-749.4080994101075248
 30
0.0
 40
170.6350503965855978
 50
137.4413445918430057
 51
149.9194958133722082
1001
ACDBBLOCKREPETAG
1070
     1
1071
       15
1005
148DFB
  0
ARC
  5
148DFC
  8
OBJECT
 10
6118.8455987040497348
 20
-705.882726695364795
 30
0.0
 40
78.0722220217636647
 50
147.4551531037683105
 51
164.6636599771867111
1001
ACDBBLOCKREPETAG
1070
     1
1071
       16
1005
148DFC
  0
ARC
  5
148DFD
  8
OBJECT
 10
6085.7554349608726625
 20
-696.0
 30
0.0
 40
43.5535392688561771
 50
165.6884523008477004
 51
194.3115476991521859
1001
ACDBBLOCKREPETAG
1070
     1
1071
       17
1005
148DFD
  0
ARC
  5
148DFE
  8
OBJECT
 10
6200.6872746716726397
 20
-642.5919005898921341
 30
0.0
 40
170.6350503965855978
 50
210.0805041866277918
 51
222.5586554081569943
1001
ACDBBLOCKREPETAG
1070
     1
1071
       18
1005
148DFE
  0
ARC
  5
148DFF
  8
OBJECT
 10
6118.8455987040497348
 20
-686.117273304635205
 30
0.0
 40
78.0722220217636647
 50
195.3363400228132889
 51
212.5448468962316042
1001
ACDBBLOCKREPETAG
1070
     1
1071
       19
1005
148DFF
  0
POINT
  5
148E00
  8
DOTS
 10
6000.0
 20
-755.0
 30
0.0
1001
ACDBBLOCKREPETAG
1070
     1
1071
      186
1005
148E00
  0
LINE
  5
148E01
  8
OBJECT
 10
3923.0
 20
-571.0
 30
0.0
 11
3923.0
 21
-550.0
 31
0.0
1001
ACDBBLOCKREPETAG
1070
     1
1071
        0
1005
148E01
  0
LINE
  5
148E02
  8
OBJECT
 10
3923.0
 20
-550.0
 30
0.0
 11
4077.0
 21
-550.0
 31
0.0
1001
ACDBBLOCKREPETAG
1070
     1
1071
        1
1005
148E02
  0
LINE
  5
148E03
  8
HIDDEN
 10
3943.0
 20
-620.0
 30
0.0
 11
4057.0
 21
-620.0
 31
0.0
1001
ACDBBLOCKREPETAG
1070
     1
1071
        2
1005
148E03
  0
LINE
  5
148E04
  8
OBJECT
 10
4077.0
 20
-550.0
 30
0.0
 11
4077.0
 21
-571.0
 31
0.0
1001
ACDBBLOCKREPETAG
1070
     1
1071
        3
1005
148E04
  0
LINE
  5
148E05
  8
OBJECT
 10
4077.0
 20
-571.0
 30
0.0
 11
3923.0
 21
-571.0
 31
0.0
1001
ACDBBLOCKREPETAG
1070
     1
1071
        4
1005
148E05
  0
LINE
  5
148E06
  8
CENTER
 10
4000.0
 20
-535.0
 30
0.0
 11
4000.0
 21
-770.0
 31
0.0
1001
ACDBBLOCKREPETAG
1070
     1
1071
        5
1005
148E06
  0
LINE
  5
148E07
  8
OBJECT
 10
3925.0
 20
-634.0
 30
0.0
 11
3925.0
 21
-758.0
 31
0.0
1001
ACDBBLOCKREPETAG
1070
     1
1071
        6
1005
148E07
  0
LINE
  5
148E08
  8
OBJECT
 10
3928.0
 20
-571.0
 30
0.0
 11
3928.0
 21
-634.0
 31
0.0
1001
ACDBBLOCKREPETAG
1070
     1
1071
        7
1005
148E08
  0
LINE
  5
148E09
  8
OBJECT
 10
4072.0
 20
-634.0
 30
0.0
 11
4072.0
 21
-571.0
 31
0.0
1001
ACDBBLOCKREPETAG
1070
     1
1071
        8
1005
148E09
  0
LINE
  5
148E0A
  8
OBJECT
 10
3920.0
 20
-758.0
 30
0.0
 11
4080.0
 21
-758.0
 31
0.0
1001
ACDBBLOCKREPETAG
1070
     1
1071
        9
1005
148E0A
  0
LINE
  5
148E0B
  8
OBJECT
 10
4080.0
 20
-634.0
 30
0.0
 11
3925.0
 21
-634.0
 31
0.0
1001
ACDBBLOCKREPETAG
1070
     1
1071
       10
1005
148E0B
  0
LINE
  5
148E0C
  8
OBJECT
 10
3920.0
 20
-758.0
 30
0.0
 11
3920.0
 21
-770.0
 31
0.0
1001
ACDBBLOCKREPETAG
1070
     1
1071
       11
1005
148E0C
  0
LINE
  5
148E0D
  8
OBJECT
 10
3920.0
 20
-770.0
 30
0.0
 11
4080.0
 21
-770.0
 31
0.0
1001
ACDBBLOCKREPETAG
1070
     1
1071
       12
1005
148E0D
  0
LINE
  5
148E0E
  8
OBJECT
 10
4080.0
 20
-770.0
 30
0.0
 11
4080.0
 21
-758.0
 31
0.0
1001
ACDBBLOCKREPETAG
1070
     1
1071
       13
1005
148E0E
  0
ARC
  5
148E0F
  8
OBJECT
 10
4200.6872746716726397
 20
-749.4080994101075248
 30
0.0
 40
170.6350503965855978
 50
137.4413445918430057
 51
149.9194958133722082
1001
ACDBBLOCKREPETAG
1070
     1
1071
       15
1005
148E0F
  0
ARC
  5
148E10
  8
OBJECT
 10
4118.8455987040506443
 20
-705.882726695364795
 30
0.0
 40
78.0722220217636647
 50
147.4551531037683105
 51
164.6636599771798046
1001
ACDBBLOCKREPETAG
1070
     1
1071
       16
1005
148E10
  0
ARC
  5
148E11
  8
OBJECT
 10
4085.755434960869934
 20
-696.0
 30
0.0
 40
43.5535392688561771
 50
165.6884523008477004
 51
194.3115476991521859
1001
ACDBBLOCKREPETAG
1070
     1
1071
       17
1005
148E11
  0
ARC
  5
148E12
  8
OBJECT
 10
4200.6872746716726397
 20
-642.5919005898921341
 30
0.0
 40
170.6350503965855978
 50
210.0805041866277918
 51
222.5586554081569943
1001
ACDBBLOCKREPETAG
1070
     1
1071
       18
1005
148E12
  0
ARC
  5
148E13
  8
OBJECT
 10
4118.8455987040506443
 20
-686.117273304635205
 30
0.0
 40
78.0722220217636647
 50
195.3363400228201101
 51
212.5448468962316042
1001
ACDBBLOCKREPETAG
1070
     1
1071
       19
1005
148E13
  0
POINT
  5
148E14
  8
DOTS
 10
4000.0
 20
-755.0
 30
0.0
1001
ACDBBLOCKREPETAG
1070
     1
1071
      186
1005
148E14
  0
LINE
  5
148E15
  8
CENTER
 10
2227.0
 20
-696.0
 30
0.0
 11
2071.0
 21
-696.0
 31
0.0
1001
ACDBBLOCKREPETAG
1070
     1
1071
      241
1005
148E15
  0
LINE
  5
148E16
  8
OBJECT
 10
2109.5648667616878811
 20
-743.0
 30
0.0
 11
2086.0000000000040927
 21
-743.0
 31
0.0
1001
ACDBBLOCKREPETAG
1070
     1
1071
      242
1005
148E16
  0
LINE
  5
148E17
  8
OBJECT
 10
2109.5648667616878811
 20
-649.0
 30
0.0
 11
2086.0000000000040927
 21
-649.0
 31
0.0
1001
ACDBBLOCKREPETAG
1070
     1
1071
      243
1005
148E17
  0
LINE
  5
148E18
  8
OBJECT
 10
2083.0
 20
-634.0
 30
0.0
 11
2080.0
 21
-634.0
 31
0.0
1001
ACDBBLOCKREPETAG
1070
     1
1071
      244
1005
148E18
  0
LINE
  5
148E19
  8
OBJECT
 10
2080.0
 20
-758.0
 30
0.0
 11
2083.0
 21
-758.0
 31
0.0
1001
ACDBBLOCKREPETAG
1070
     1
1071
      245
1005
148E19
  0
ARC
  5
148E1A
  8
OBJECT
 10
2083.0
 20
-637.0
 30
0.0
 40
3.0
 50
0.0
 51
90.0
1001
ACDBBLOCKREPETAG
1070
     1
1071
      246
1005
148E1A
  0
ARC
  5
148E1B
  8
OBJECT
 10
2083.0
 20
-755.0
 30
0.0
 40
3.0
 50
270.0
 51
0.0
1001
ACDBBLOCKREPETAG
1070
     1
1071
      247
1005
148E1B
  0
LINE
  5
148E1C
  8
OBJECT
 10
2086.0
 20
-755.0
 30
0.0
 11
2086.0
 21
-637.0
 31
0.0
1001
ACDBBLOCKREPETAG
1070
     1
1071
      248
1005
148E1C
  0
CIRCLE
  5
148E1D
  8
OBJECT
 10
2150.0
 20
-696.0
 30
0.0
 40
54.0
1001
ACDBBLOCKREPETAG
1070
     1
1071
      250
1005
148E1D
  0
CIRCLE
  5
148E1E
  8
OBJECT
 10
2150.0
 20
-696.0
 30
0.0
 40
41.5
1001
ACDBBLOCKREPETAG
1070
     1
1071
      251
1005
148E1E
  0
ARC
  5
148E1F
  8
OBJECT
 10
2150.0
 20
-696.0
 30
0.0
 40
62.0
 50
287.8965511292071824
 51
252.1034488707927892
1001
ACDBBLOCKREPETAG
1070
     1
1071
      252
1005
148E1F
  0
LINE
  5
148E20
  8
CENTER
 10
2150.0
 20
-770.0
 30
0.0
 11
2150.0
 21
-619.0
 31
0.0
1001
ACDBBLOCKREPETAG
1070
     1
1071
      253
1005
148E20
  0
LINE
  5
148E21
  8
OBJECT
 10
2130.9474411167429935
 20
-755.0
 30
0.0
 11
2169.0525588832570065
 21
-755.0
 31
0.0
1001
ACDBBLOCKREPETAG
1070
     1
1071
      254
1005
148E21
  0
LINE
  5
148E22
  8
OBJECT
 10
268.0000000006112941
 20
-503.9999999999934062
 30
0.0
 11
275.0000000006111804
 21
-503.9999999999934062
 31
0.0
1001
ACDBBLOCKREPETAG
1070
     1
1071
      220
1005
148E22
  0
LINE
  5
148E23
  8
OBJECT
 10
275.0000000006111804
 20
-503.9999999999934062
 30
0.0
 11
275.0000000006111804
 21
-627.9999999999934062
 31
0.0
1001
ACDBBLOCKREPETAG
1070
     1
1071
      221
1005
148E23
  0
LINE
  5
148E24
  8
OBJECT
 10
275.0000000006111804
 20
-627.9999999999934062
 30
0.0
 11
268.0000000006112941
 21
-627.9999999999934062
 31
0.0
1001
ACDBBLOCKREPETAG
1070
     1
1071
      222
1005
148E24
  0
LINE
  5
148E25
  8
OBJECT
 10
268.0000000006112941
 20
-627.9999999999934062
 30
0.0
 11
268.0000000006112941
 21
-503.9999999999934062
 31
0.0
1001
ACDBBLOCKREPETAG
1070
     1
1071
      223
1005
148E25
  0
LINE
  5
148E26
  8
OBJECT
 10
212.00000000061479
 20
-623.4999999999934062
 30
0.0
 11
212.00000000061479
 21
-629.9999999999934062
 31
0.0
1001
ACDBBLOCKREPETAG
1070
     1
1071
      224
1005
148E26
  0
LINE
  5
148E27
  8
OBJECT
 10
118.0000000006148042
 20
-617.9999999999932925
 30
0.0
 11
118.0000000006111947
 21
-629.9999999999924967
 31
0.0
1001
ACDBBLOCKREPETAG
1070
     1
1071
      225
1005
148E27
  0
LINE
  5
148E28
  8
OBJECT
 10
268.0000000006112941
 20
-506.9999999999934062
 30
0.0
 11
232.0000000006112089
 21
-506.9999999999934062
 31
0.0
1001
ACDBBLOCKREPETAG
1070
     1
1071
      226
1005
148E28
  0
LINE
  5
148E29
  8
OBJECT
 10
232.0000000006112089
 20
-506.9999999999934062
 30
0.0
 11
232.0000000006112089
 21
-624.9999999999934062
 31
0.0
1001
ACDBBLOCKREPETAG
1070
     1
1071
      227
1005
148E29
  0
LINE
  5
148E2A
  8
OBJECT
 10
232.0000000006112089
 20
-624.9999999999934062
 30
0.0
 11
268.0000000006112941
 21
-624.9999999999934062
 31
0.0
1001
ACDBBLOCKREPETAG
1070
     1
1071
      228
1005
148E2A
  0
LINE
  5
148E2B
  8
OBJECT
 10
228.0000000006112089
 20
-511.4999999999934062
 30
0.0
 11
215.0000000006112089
 21
-511.4999999999934062
 31
0.0
1001
ACDBBLOCKREPETAG
1070
     1
1071
      229
1005
148E2B
  0
LINE
  5
148E2C
  8
OBJECT
 10
215.0000000006112089
 20
-620.4999999999934062
 30
0.0
 11
228.0000000006112089
 21
-620.4999999999934062
 31
0.0
1001
ACDBBLOCKREPETAG
1070
     1
1071
      230
1005
148E2C
  0
LINE
  5
148E2D
  8
OBJECT
 10
228.0000000006112089
 20
-620.4999999999934062
 30
0.0
 11
228.0000000006112089
 21
-511.4999999999934062
 31
0.0
1001
ACDBBLOCKREPETAG
1070
     1
1071
      231
1005
148E2D
  0
LINE
  5
148E2E
  8
OBJECT
 10
232.0000000006112089
 20
-506.9999999999934062
 30
0.0
 11
228.0000000006112089
 21
-511.4999999999934062
 31
0.0
1001
ACDBBLOCKREPETAG
1070
     1
1071
      232
1005
148E2E
  0
LINE
  5
148E2F
  8
OBJECT
 10
232.0000000006112089
 20
-624.9999999999934062
 30
0.0
 11
228.0000000006112089
 21
-620.4999999999934062
 31
0.0
1001
ACDBBLOCKREPETAG
1070
     1
1071
      233
1005
148E2F
  0
LINE
  5
148E30
  8
OBJECT
 10
103.0000000006111947
 20
-632.9999999999921556
 30
0.0
 11
103.0000000006111947
 21
-635.9999999999934062
 31
0.0
1001
ACDBBLOCKREPETAG
1070
     1
1071
      234
1005
148E30
  0
ARC
  5
148E31
  8
OBJECT
 10
106.0000000006111947
 20
-632.9999999999921556
 30
0.0
 40
3.0
 50
90.0
 51
180.0
1001
ACDBBLOCKREPETAG
1070
     1
1071
      235
1005
148E31
  0
LINE
  5
148E32
  8
OBJECT
 10
227.0000000006112089
 20
-635.9999999999934062
 30
0.0
 11
227.0000000006112089
 21
-620.4999999999934062
 31
0.0
1001
ACDBBLOCKREPETAG
1070
     1
1071
      236
1005
148E32
  0
ARC
  5
148E33
  8
OBJECT
 10
224.0000000006112089
 20
-632.9999999999943157
 30
0.0
 40
3.0
 50
0.0
 51
90.0
1001
ACDBBLOCKREPETAG
1070
     1
1071
      237
1005
148E33
  0
LINE
  5
148E34
  8
OBJECT
 10
224.0000000006112089
 20
-629.999999999994202
 30
0.0
 11
106.0000000006111947
 21
-629.9999999999924967
 31
0.0
1001
ACDBBLOCKREPETAG
1070
     1
1071
      238
1005
148E34
  0
LINE
  5
148E35
  8
OBJECT
 10
214.9999591367449909
 20
-620.4999787625463341
 30
0.0
 11
214.9999591367449909
 21
-511.4999787625462204
 31
0.0
1001
ACDBBLOCKREPETAG
1070
     1
1071
      240
1005
148E35
  0
ARC
  5
148E36
  8
OBJECT
 10
215.00000000061479
 20
-623.4999999999934062
 30
0.0
 40
3.0
 50
90.0
 51
180.0
1001
ACDBBLOCKREPETAG
1070
     1
1071
      241
1005
148E36
  0
ARC
  5
148E37
  8
OBJECT
 10
217.00000000061479
 20
-617.9999999999932925
 30
0.0
 40
99.0
 50
91.1575928971899856
 51
180.0
1001
ACDBBLOCKREPETAG
1070
     1
1071
      242
1005
148E37
  0
INSERT
  5
148E38
  8
OBJECT
  2
*U8
 10
0.0
 20
0.0
 30
0.0
  0
LINE
  5
148E39
  8
HIDDEN
 10
223.0000000006112089
 20
-521.4999999999934062
 30
0.0
 11
223.0000000006112089
 21
-610.4999999999931788
 31
0.0
1001
ACDBBLOCKREPETAG
1070
     1
1071
      427
1005
148E39
  0
CIRCLE
  5
148E3A
  8
OBJECT
 10
165.0000000006112089
 20
-715.9999999999934062
 30
0.0
 40
70.0
1001
ACDBBLOCKREPETAG
1070
     1
1071
       50
1005
148E3A
  0
CIRCLE
  5
148E3B
  8
OBJECT
 10
165.0000000006112089
 20
-715.9999999999934062
 30
0.0
 40
77.0
1001
ACDBBLOCKREPETAG
1070
     1
1071
       51
1005
148E3B
  0
ARC
  5
148E3C
  8
OBJECT
 10
165.0000000006112089
 20
-715.9999999999934062
 30
0.0
 40
80.0
 50
140.8050325737796982
 51
39.1949674262202521
1001
ACDBBLOCKREPETAG
1070
     1
1071
       52
1005
148E3C
  0
LINE
  5
148E3D
  8
OBJECT
 10
103.0000000006111947
 20
-670.3381997726688724
 30
0.0
 11
103.0000000006111947
 21
-635.9999999999934062
 31
0.0
1001
ACDBBLOCKREPETAG
1070
     1
1071
       53
1005
148E3D
  0
LINE
  5
148E3E
  8
OBJECT
 10
227.0000000006112089
 20
-670.3381997726688724
 30
0.0
 11
227.0000000006112089
 21
-635.9999999999934062
 31
0.0
1001
ACDBBLOCKREPETAG
1070
     1
1071
       54
1005
148E3E
  0
LINE
  5
148E3F
  8
OBJECT
 10
208.8069471243289001
 20
-691.8970669066918617
 30
0.0
 11
197.5546220006108058
 21
-695.340342999996551
 31
0.0
1001
ACDBBLOCKREPETAG
1070
     1
1071
      141
1005
148E3F
  0
LINE
  5
148E40
  8
OBJECT
 10
183.2255337426921074
 20
-729.2072500986184878
 30
0.0
 11
197.5546220006089868
 21
-695.340342999996551
 31
0.0
1001
ACDBBLOCKREPETAG
1070
     1
1071
      143
1005
148E40
  0
ARC
  5
148E41
  8
OBJECT
 10
192.4351299996687885
 20
-733.1038302380915184
 30
0.0
 40
10.0
 50
157.0667782928954921
 51
244.014734370204593
1001
ACDBBLOCKREPETAG
1070
     1
1071
      144
1005
148E41
  0
ARC
  5
148E42
  8
OBJECT
 10
190.5538625679037068
 20
-729.8511609618657303
 30
0.0
 40
7.0
 50
157.0667782928954921
 51
244.0147337750732106
1001
ACDBBLOCKREPETAG
1070
     1
1071
      145
1005
148E42
  0
LINE
  5
148E43
  8
OBJECT
 10
208.8988850087939113
 20
-746.5800244446918441
 30
0.0
 11
187.4868825341798129
 21
-736.1435081767565407
 31
0.0
1001
ACDBBLOCKREPETAG
1070
     1
1071
      154
1005
148E43
  0
LINE
  5
148E44
  8
OBJECT
 10
205.7181390194394055
 20
-750.7027830993843054
 30
0.0
 11
188.0537300449196039
 21
-742.0928977334845058
 31
0.0
1001
ACDBBLOCKREPETAG
1070
     1
1071
      155
1005
148E44
  0
ARC
  5
148E45
  8
OBJECT
 10
172.1289369834557021
 20
-739.4203046926784282
 30
0.0
 40
60.0311132460326178
 50
44.0702013041857512
 51
52.3393610609778719
1001
ACDBBLOCKREPETAG
1070
     1
1071
      156
1005
148E45
  0
CIRCLE
  5
148E46
  8
OBJECT
 10
165.0000000006112089
 20
-715.9999999999934062
 30
0.0
 40
53.5
1001
ACDBBLOCKREPETAG
1070
     1
1071
      157
1005
148E46
  0
POINT
  5
148E47
  8
DOTS
 10
165.0000000006112089
 20
-715.9999999999934062
 30
0.0
1001
ACDBBLOCKREPETAG
1070
     1
1071
      162
1005
148E47
  0
ARC
  5
148E48
  8
OBJECT
 10
165.0000000006112089
 20
-715.9999999999934062
 30
0.0
 40
50.0
 50
28.8199429999986201
 51
318.523769559625805
1001
ACDBBLOCKREPETAG
1070
     1
1071
      166
1005
148E48
  0
LINE
  5
148E4B
  8
OBJECT
 10
618.000000000691216
 20
-56.9999999999870397
 30
0.0
 11
625.000000000691216
 21
-56.9999999999870397
 31
0.0
1001
ACDBBLOCKREPETAG
1070
     1
1071
      197
1005
148E4B
  0
LINE
  5
148E4C
  8
OBJECT
 10
625.000000000691216
 20
-56.9999999999870397
 30
0.0
 11
625.000000000691216
 21
-166.9999999999870113
 31
0.0
1001
ACDBBLOCKREPETAG
1070
     1
1071
      198
1005
148E4C
  0
LINE
  5
148E4D
  8
OBJECT
 10
625.000000000691216
 20
-166.9999999999870113
 30
0.0
 11
618.000000000691216
 21
-166.9999999999870113
 31
0.0
1001
ACDBBLOCKREPETAG
1070
     1
1071
      199
1005
148E4D
  0
LINE
  5
148E4E
  8
OBJECT
 10
618.000000000691216
 20
-166.9999999999870113
 30
0.0
 11
618.000000000691216
 21
-56.9999999999870397
 31
0.0
1001
ACDBBLOCKREPETAG
1070
     1
1071
      200
1005
148E4E
  0
LINE
  5
148E4F
  8
OBJECT
 10
566.0000000006873506
 20
-159.4999999999866134
 30
0.0
 11
566.000000000694854
 21
-165.9999999999878071
 31
0.0
1001
ACDBBLOCKREPETAG
1070
     1
1071
      201
1005
148E4F
  0
LINE
  5
148E50
  8
OBJECT
 10
484.000000000691216
 20
-156.9999999999870113
 30
0.0
 11
484.000000000691216
 21
-165.9999999999866134
 31
0.0
1001
ACDBBLOCKREPETAG
1070
     1
1071
      202
1005
148E50
  0
LINE
  5
148E51
  8
OBJECT
 10
618.000000000691216
 20
-59.9999999999870468
 30
0.0
 11
582.000000000691216
 21
-59.9999999999870468
 31
0.0
1001
ACDBBLOCKREPETAG
1070
     1
1071
      203
1005
148E51
  0
LINE
  5
148E52
  8
OBJECT
 10
582.000000000691216
 20
-59.9999999999870468
 30
0.0
 11
582.000000000691216
 21
-163.9999999999870113
 31
0.0
1001
ACDBBLOCKREPETAG
1070
     1
1071
      204
1005
148E52
  0
LINE
  5
148E53
  8
OBJECT
 10
582.000000000691216
 20
-163.9999999999870113
 30
0.0
 11
618.000000000691216
 21
-163.9999999999870113
 31
0.0
1001
ACDBBLOCKREPETAG
1070
     1
1071
      205
1005
148E53
  0
LINE
  5
148E54
  8
OBJECT
 10
578.000000000691216
 20
-64.4999999999870397
 30
0.0
 11
565.000000000691216
 21
-64.4999999999870397
 31
0.0
1001
ACDBBLOCKREPETAG
1070
     1
1071
      206
1005
148E54
  0
LINE
  5
148E55
  8
OBJECT
 10
565.000000000691216
 20
-159.4999999999870113
 30
0.0
 11
578.000000000691216
 21
-159.4999999999870113
 31
0.0
1001
ACDBBLOCKREPETAG
1070
     1
1071
      207
1005
148E55
  0
LINE
  5
148E56
  8
OBJECT
 10
578.000000000691216
 20
-159.4999999999870113
 30
0.0
 11
578.000000000691216
 21
-64.4999999999870397
 31
0.0
1001
ACDBBLOCKREPETAG
1070
     1
1071
      208
1005
148E56
  0
LINE
  5
148E57
  8
OBJECT
 10
582.000000000691216
 20
-59.9999999999870468
 30
0.0
 11
578.000000000691216
 21
-64.4999999999870397
 31
0.0
1001
ACDBBLOCKREPETAG
1070
     1
1071
      209
1005
148E57
  0
LINE
  5
148E58
  8
OBJECT
 10
582.000000000691216
 20
-163.9999999999870113
 30
0.0
 11
578.000000000691216
 21
-159.4999999999870113
 31
0.0
1001
ACDBBLOCKREPETAG
1070
     1
1071
      210
1005
148E58
  0
LINE
  5
148E59
  8
OBJECT
 10
463.000000000691216
 20
-168.9999999999861018
 30
0.0
 11
463.000000000691216
 21
-171.9999999999870113
 31
0.0
1001
ACDBBLOCKREPETAG
1070
     1
1071
      211
1005
148E59
  0
ARC
  5
148E5A
  8
OBJECT
 10
466.0000000006911023
 20
-168.9999999999861018
 30
0.0
 40
3.0
 50
90.0
 51
180.0
1001
ACDBBLOCKREPETAG
1070
     1
1071
      212
1005
148E5A
  0
LINE
  5
148E5B
  8
OBJECT
 10
587.0000000006911023
 20
-171.9999999999870113
 30
0.0
 11
587.0000000006911023
 21
-163.9999999999870113
 31
0.0
1001
ACDBBLOCKREPETAG
1070
     1
1071
      213
1005
148E5B
  0
ARC
  5
148E5C
  8
OBJECT
 10
584.000000000691216
 20
-168.9999999999878071
 30
0.0
 40
3.0
 50
0.0
 51
90.0
1001
ACDBBLOCKREPETAG
1070
     1
1071
      214
1005
148E5C
  0
LINE
  5
148E5D
  8
OBJECT
 10
584.000000000691216
 20
-165.9999999999878071
 30
0.0
 11
466.0000000006911023
 21
-165.9999999999861018
 31
0.0
1001
ACDBBLOCKREPETAG
1070
     1
1071
      215
1005
148E5D
  0
LINE
  5
148E5E
  8
OBJECT
 10
564.9999956062893034
 20
-159.5000454069719922
 30
0.0
 11
564.9999956062893034
 21
-64.500045406972049
 31
0.0
1001
ACDBBLOCKREPETAG
1070
     1
1071
      217
1005
148E5E
  0
ARC
  5
148E5F
  8
OBJECT
 10
570.0000000006911023
 20
-156.9999999999870113
 30
0.0
 40
86.0
 50
93.3330324265513269
 51
180.0
1001
ACDBBLOCKREPETAG
1070
     1
1071
      218
1005
148E5F
  0
INSERT
  5
148E60
  8
OBJECT
  2
*U9
 10
0.0
 20
0.0
 30
0.0
  0
LINE
  5
148E61
  8
HIDDEN
 10
573.000000000691216
 20
-73.9999999999870397
 30
0.0
 11
573.000000000691216
 21
-149.9999999999870113
 31
0.0
1001
ACDBBLOCKREPETAG
1070
     1
1071
      424
1005
148E61
  0
CIRCLE
  5
148E62
  8
OBJECT
 10
525.000000000691216
 20
-251.9999999999870113
 30
0.0
 40
70.0
1001
ACDBBLOCKREPETAG
1070
     1
1071
       50
1005
148E62
  0
CIRCLE
  5
148E63
  8
OBJECT
 10
525.000000000691216
 20
-251.9999999999870113
 30
0.0
 40
77.0
1001
ACDBBLOCKREPETAG
1070
     1
1071
       51
1005
148E63
  0
ARC
  5
148E64
  8
OBJECT
 10
525.000000000691216
 20
-251.9999999999870113
 30
0.0
 40
80.0
 50
140.8050325737787034
 51
39.1949674262212824
1001
ACDBBLOCKREPETAG
1070
     1
1071
       52
1005
148E64
  0
LINE
  5
148E65
  8
OBJECT
 10
463.000000000691216
 20
-206.3381997726625059
 30
0.0
 11
463.000000000691216
 21
-171.9999999999870113
 31
0.0
1001
ACDBBLOCKREPETAG
1070
     1
1071
       53
1005
148E65
  0
LINE
  5
148E66
  8
OBJECT
 10
587.0000000006911023
 20
-206.3381997726625059
 30
0.0
 11
587.0000000006911023
 21
-171.9999999999870113
 31
0.0
1001
ACDBBLOCKREPETAG
1070
     1
1071
       54
1005
148E66
  0
LINE
  5
148E67
  8
OBJECT
 10
568.8069471244089073
 20
-227.89706690668541
 30
0.0
 11
557.5546220006907561
 21
-231.3403429999904972
 31
0.0
1001
ACDBBLOCKREPETAG
1070
     1
1071
      141
1005
148E67
  0
LINE
  5
148E68
  8
OBJECT
 10
543.2255337427723134
 20
-265.2072500986121213
 30
0.0
 11
557.5546220006890508
 21
-231.3403429999904972
 31
0.0
1001
ACDBBLOCKREPETAG
1070
     1
1071
      143
1005
148E68
  0
ARC
  5
148E69
  8
OBJECT
 10
552.435129999748824
 20
-269.103830238085493
 30
0.0
 40
10.0
 50
157.0667782928969984
 51
244.014734370204593
1001
ACDBBLOCKREPETAG
1070
     1
1071
      144
1005
148E69
  0
ARC
  5
148E6A
  8
OBJECT
 10
550.5538625679837423
 20
-265.8511609618597049
 30
0.0
 40
7.0
 50
157.0667782928969984
 51
244.0147337750775876
1001
ACDBBLOCKREPETAG
1070
     1
1071
      145
1005
148E6A
  0
LINE
  5
148E6B
  8
OBJECT
 10
568.89888500887389
 20
-282.5800244446854776
 30
0.0
 11
547.4868825342600758
 21
-272.1435081767501174
 31
0.0
1001
ACDBBLOCKREPETAG
1070
     1
1071
      154
1005
148E6B
  0
LINE
  5
148E6C
  8
OBJECT
 10
565.7181390195192989
 20
-286.7027830993781095
 30
0.0
 11
548.053730044999611
 21
-278.0928977334784236
 31
0.0
1001
ACDBBLOCKREPETAG
1070
     1
1071
      155
1005
148E6C
  0
ARC
  5
148E6D
  8
OBJECT
 10
532.1289369835358229
 20
-275.4203046926721186
 30
0.0
 40
60.0311132460326178
 50
44.0702013041846499
 51
52.3393610609775806
1001
ACDBBLOCKREPETAG
1070
     1
1071
      156
1005
148E6D
  0
CIRCLE
  5
148E6E
  8
OBJECT
 10
525.000000000691216
 20
-251.9999999999870113
 30
0.0
 40
53.5
1001
ACDBBLOCKREPETAG
1070
     1
1071
      157
1005
148E6E
  0
POINT
  5
148E6F
  8
DOTS
 10
525.000000000691216
 20
-251.9999999999870113
 30
0.0
1001
ACDBBLOCKREPETAG
1070
     1
1071
      162
1005
148E6F
  0
ARC
  5
148E70
  8
OBJECT
 10
525.000000000691216
 20
-251.9999999999870113
 30
0.0
 40
50.0
 50
28.8199430000001797
 51
318.5237695596256913
1001
ACDBBLOCKREPETAG
1070
     1
1071
      166
1005
148E70
  0
LINE
  5
148E73
  8
OBJECT
 10
258.0000000006111804
 20
-64.9999999999870397
 30
0.0
 11
265.0000000006111804
 21
-64.9999999999870397
 31
0.0
1001
ACDBBLOCKREPETAG
1070
     1
1071
      169
1005
148E73
  0
LINE
  5
148E74
  8
OBJECT
 10
265.0000000006111804
 20
-64.9999999999870397
 30
0.0
 11
265.0000000006111804
 21
-158.9999999999870113
 31
0.0
1001
ACDBBLOCKREPETAG
1070
     1
1071
      170
1005
148E74
  0
LINE
  5
148E75
  8
OBJECT
 10
265.0000000006111804
 20
-158.9999999999870113
 30
0.0
 11
258.0000000006111804
 21
-158.9999999999870113
 31
0.0
1001
ACDBBLOCKREPETAG
1070
     1
1071
      171
1005
148E75
  0
LINE
  5
148E76
  8
OBJECT
 10
258.0000000006111804
 20
-158.9999999999870113
 30
0.0
 11
258.0000000006111804
 21
-64.9999999999870397
 31
0.0
1001
ACDBBLOCKREPETAG
1070
     1
1071
      172
1005
148E76
  0
LINE
  5
148E77
  8
OBJECT
 10
258.0000000006111804
 20
-67.9999999999870255
 30
0.0
 11
222.0000000006112089
 21
-67.9999999999870255
 31
0.0
1001
ACDBBLOCKREPETAG
1070
     1
1071
      173
1005
148E77
  0
LINE
  5
148E78
  8
OBJECT
 10
222.0000000006112089
 20
-67.9999999999870255
 30
0.0
 11
222.0000000006112089
 21
-155.9999999999870113
 31
0.0
1001
ACDBBLOCKREPETAG
1070
     1
1071
      174
1005
148E78
  0
LINE
  5
148E79
  8
OBJECT
 10
222.0000000006112089
 20
-155.9999999999870113
 30
0.0
 11
258.0000000006111804
 21
-155.9999999999870113
 31
0.0
1001
ACDBBLOCKREPETAG
1070
     1
1071
      175
1005
148E79
  0
LINE
  5
148E7A
  8
OBJECT
 10
218.0000000006112089
 20
-72.4999999999870397
 30
0.0
 11
205.0000000006112089
 21
-72.4999999999870397
 31
0.0
1001
ACDBBLOCKREPETAG
1070
     1
1071
      176
1005
148E7A
  0
LINE
  5
148E7B
  8
OBJECT
 10
205.0000000006112089
 20
-151.4999999999870113
 30
0.0
 11
218.0000000006112089
 21
-151.4999999999870113
 31
0.0
1001
ACDBBLOCKREPETAG
1070
     1
1071
      177
1005
148E7B
  0
LINE
  5
148E7C
  8
OBJECT
 10
218.0000000006112089
 20
-151.4999999999870113
 30
0.0
 11
218.0000000006112089
 21
-72.4999999999870397
 31
0.0
1001
ACDBBLOCKREPETAG
1070
     1
1071
      178
1005
148E7C
  0
LINE
  5
148E7D
  8
OBJECT
 10
222.0000000006112089
 20
-67.9999999999870255
 30
0.0
 11
218.0000000006112089
 21
-72.4999999999870397
 31
0.0
1001
ACDBBLOCKREPETAG
1070
     1
1071
      179
1005
148E7D
  0
LINE
  5
148E7E
  8
OBJECT
 10
222.0000000006112089
 20
-155.9999999999870113
 30
0.0
 11
218.0000000006112089
 21
-151.4999999999870113
 31
0.0
1001
ACDBBLOCKREPETAG
1070
     1
1071
      180
1005
148E7E
  0
LINE
  5
148E7F
  8
OBJECT
 10
227.0000000006112089
 20
-168.9999999999870113
 30
0.0
 11
227.0000000006112089
 21
-171.9999999999870113
 31
0.0
1001
ACDBBLOCKREPETAG
1070
     1
1071
      182
1005
148E7F
  0
ARC
  5
148E80
  8
OBJECT
 10
224.0000000006112089
 20
-168.9999999999870113
 30
0.0
 40
3.0
 50
0.0
 51
90.0
1001
ACDBBLOCKREPETAG
1070
     1
1071
      183
1005
148E80
  0
LINE
  5
148E81
  8
OBJECT
 10
103.0000000006111947
 20
-171.9999999999870113
 30
0.0
 11
103.0000000006111947
 21
-168.9999999999870113
 31
0.0
1001
ACDBBLOCKREPETAG
1070
     1
1071
      184
1005
148E81
  0
ARC
  5
148E82
  8
OBJECT
 10
106.0000000006111947
 20
-168.9999999999870113
 30
0.0
 40
3.0
 50
90.0
 51
180.0
1001
ACDBBLOCKREPETAG
1070
     1
1071
      185
1005
148E82
  0
LINE
  5
148E83
  8
OBJECT
 10
106.0000000006111947
 20
-165.9999999999870113
 30
0.0
 11
224.0000000006112089
 21
-165.9999999999870113
 31
0.0
1001
ACDBBLOCKREPETAG
1070
     1
1071
      186
1005
148E83
  0
LINE
  5
148E84
  8
OBJECT
 10
205.0000755219953135
 20
-151.5000036267281018
 30
0.0
 11
205.0000755219953135
 21
-72.5000036267281303
 31
0.0
1001
ACDBBLOCKREPETAG
1070
     1
1071
      188
1005
148E84
  0
LINE
  5
148E85
  8
OBJECT
 10
224.0000000006112089
 20
-155.9999999999870113
 30
0.0
 11
224.00000000061479
 21
-165.9999999999870113
 31
0.0
1001
ACDBBLOCKREPETAG
1070
     1
1071
      189
1005
148E85
  0
LINE
  5
148E86
  8
OBJECT
 10
198.50000000061479
 20
-150.499999999986386
 30
0.0
 11
198.5000000006112089
 21
-165.9999999999870113
 31
0.0
1001
ACDBBLOCKREPETAG
1070
     1
1071
      190
1005
148E86
  0
LINE
  5
148E87
  8
OBJECT
 10
131.50000000061479
 20
-147.9999999999866134
 30
0.0
 11
131.50000000061479
 21
-165.9999999999870113
 31
0.0
1001
ACDBBLOCKREPETAG
1070
     1
1071
      191
1005
148E87
  0
LINE
  5
148E88
  8
OBJECT
 10
205.0000755219953135
 20
-145.4999999999870113
 30
0.0
 11
203.50000000061479
 21
-145.4999999999866134
 31
0.0
1001
ACDBBLOCKREPETAG
1070
     1
1071
      192
1005
148E88
  0
ARC
  5
148E89
  8
OBJECT
 10
203.50000000061479
 20
-150.499999999986386
 30
0.0
 40
5.0
 50
90.0
 51
180.0
1001
ACDBBLOCKREPETAG
1070
     1
1071
      193
1005
148E89
  0
LINE
  5
148E8A
  8
OBJECT
 10
205.0000755219953135
 20
-78.4999999999870397
 30
0.0
 11
201.00000000061479
 21
-78.499999999986585
 31
0.0
1001
ACDBBLOCKREPETAG
1070
     1
1071
      194
1005
148E8A
  0
ARC
  5
148E8B
  8
OBJECT
 10
201.00000000061479
 20
-147.9999999999866134
 30
0.0
 40
69.5
 50
90.0
 51
180.0
1001
ACDBBLOCKREPETAG
1070
     1
1071
      195
1005
148E8B
  0
INSERT
  5
148E8C
  8
OBJECT
  2
*U10
 10
0.0
 20
0.0
 30
0.0
  0
LINE
  5
148E8D
  8
HIDDEN
 10
213.0000000006112089
 20
-81.9999999999870397
 30
0.0
 11
213.0000000006112089
 21
-141.9999999999870113
 31
0.0
1001
ACDBBLOCKREPETAG
1070
     1
1071
      421
1005
148E8D
  0
CIRCLE
  5
148E8E
  8
OBJECT
 10
165.0000000006112089
 20
-251.9999999999870113
 30
0.0
 40
70.0
1001
ACDBBLOCKREPETAG
1070
     1
1071
       50
1005
148E8E
  0
CIRCLE
  5
148E8F
  8
OBJECT
 10
165.0000000006112089
 20
-251.9999999999870113
 30
0.0
 40
77.0
1001
ACDBBLOCKREPETAG
1070
     1
1071
       51
1005
148E8F
  0
ARC
  5
148E90
  8
OBJECT
 10
165.0000000006112089
 20
-251.9999999999870113
 30
0.0
 40
80.0
 50
140.8050325737796982
 51
39.1949674262202521
1001
ACDBBLOCKREPETAG
1070
     1
1071
       52
1005
148E90
  0
LINE
  5
148E91
  8
OBJECT
 10
103.0000000006111947
 20
-206.3381997726625059
 30
0.0
 11
103.0000000006111947
 21
-171.9999999999870113
 31
0.0
1001
ACDBBLOCKREPETAG
1070
     1
1071
       53
1005
148E91
  0
LINE
  5
148E92
  8
OBJECT
 10
227.0000000006112089
 20
-206.3381997726625059
 30
0.0
 11
227.0000000006112089
 21
-171.9999999999870113
 31
0.0
1001
ACDBBLOCKREPETAG
1070
     1
1071
       54
1005
148E92
  0
LINE
  5
148E93
  8
OBJECT
 10
208.8069471243289001
 20
-227.89706690668541
 30
0.0
 11
197.5546220006108058
 21
-231.3403429999904972
 31
0.0
1001
ACDBBLOCKREPETAG
1070
     1
1071
      141
1005
148E93
  0
LINE
  5
148E94
  8
OBJECT
 10
183.2255337426921074
 20
-265.2072500986121213
 30
0.0
 11
197.5546220006089868
 21
-231.3403429999904972
 31
0.0
1001
ACDBBLOCKREPETAG
1070
     1
1071
      143
1005
148E94
  0
ARC
  5
148E95
  8
OBJECT
 10
192.4351299996687885
 20
-269.103830238085493
 30
0.0
 40
10.0
 50
157.0667782928969984
 51
244.014734370204593
1001
ACDBBLOCKREPETAG
1070
     1
1071
      144
1005
148E95
  0
ARC
  5
148E96
  8
OBJECT
 10
190.5538625679037068
 20
-265.8511609618597049
 30
0.0
 40
7.0
 50
157.0667782928969984
 51
244.0147337750746033
1001
ACDBBLOCKREPETAG
1070
     1
1071
      145
1005
148E96
  0
LINE
  5
148E97
  8
OBJECT
 10
208.8988850087939113
 20
-282.5800244446854776
 30
0.0
 11
187.4868825341798129
 21
-272.1435081767501174
 31
0.0
1001
ACDBBLOCKREPETAG
1070
     1
1071
      154
1005
148E97
  0
LINE
  5
148E98
  8
OBJECT
 10
205.7181390194394055
 20
-286.7027830993781095
 30
0.0
 11
188.0537300449196039
 21
-278.0928977334784236
 31
0.0
1001
ACDBBLOCKREPETAG
1070
     1
1071
      155
1005
148E98
  0
ARC
  5
148E99
  8
OBJECT
 10
172.1289369834557021
 20
-275.4203046926721186
 30
0.0
 40
60.0311132460326178
 50
44.0702013041869165
 51
52.3393610609788382
1001
ACDBBLOCKREPETAG
1070
     1
1071
      156
1005
148E99
  0
CIRCLE
  5
148E9A
  8
OBJECT
 10
165.0000000006112089
 20
-251.9999999999870113
 30
0.0
 40
53.5
1001
ACDBBLOCKREPETAG
1070
     1
1071
      157
1005
148E9A
  0
POINT
  5
148E9B
  8
DOTS
 10
165.0000000006112089
 20
-251.9999999999870113
 30
0.0
1001
ACDBBLOCKREPETAG
1070
     1
1071
      162
1005
148E9B
  0
ARC
  5
148E9C
  8
OBJECT
 10
165.0000000006112089
 20
-251.9999999999870113
 30
0.0
 40
50.0
 50
28.8199429999986201
 51
318.5237695596256913
1001
ACDBBLOCKREPETAG
1070
     1
1071
      166
1005
148E9C
  0
POLYLINE
  5
148E9F
  8
HIDDEN
 66
     1
 10
0.0
 20
0.0
 30
0.0
 70
     1
1001
ACDBBLOCKREPETAG
1070
     1
1071
      105
1005
0
  0
VERTEX
  5
1493FE
  8
HIDDEN
 10
359.9999999998781277
 20
0.0
 30
0.0
  0
VERTEX
  5
1493FF
  8
HIDDEN
 10
719.9999999997562554
 20
0.0
 30
0.0
  0
VERTEX
  5
149400
  8
HIDDEN
 10
719.9999999997562554
 20
-463.9999999998415774
 30
0.0
  0
VERTEX
  5
149401
  8
HIDDEN
 10
359.9999999998781277
 20
-463.9999999998415774
 30
0.0
  0
SEQEND
  5
149402
  8
HIDDEN
  0
POLYLINE
  5
148EA0
  8
HIDDEN
 66
     1
 10
0.0
 20
0.0
 30
0.0
 70
     1
1001
ACDBBLOCKREPETAG
1070
     1
1071
      110
1005
0
  0
VERTEX
  5
149403
  8
HIDDEN
 10
0.0
 20
0.0
 30
0.0
  0
VERTEX
  5
149404
  8
HIDDEN
 10
359.9999999998781277
 20
0.0
 30
0.0
  0
VERTEX
  5
149405
  8
HIDDEN
 10
359.9999999998781277
 20
-463.9999999998415774
 30
0.0
  0
VERTEX
  5
149406
  8
HIDDEN
 10
0.0
 20
-463.9999999998415774
 30
0.0
  0
SEQEND
  5
149407
  8
HIDDEN
  0
POLYLINE
  5
148EA1
  8
HIDDEN
 66
     1
 10
0.0
 20
0.0
 30
0.0
 70
     1
1001
ACDBBLOCKREPETAG
1070
     1
1071
      125
1005
0
  0
VERTEX
  5
149408
  8
HIDDEN
 10
0.0
 20
-463.9999999998415774
 30
0.0
  0
VERTEX
  5
149409
  8
HIDDEN
 10
359.9999999998781277
 20
-463.9999999998415774
 30
0.0
  0
VERTEX
  5
14940A
  8
HIDDEN
 10
359.9999999998781277
 20
-927.9999999996834958
 30
0.0
  0
VERTEX
  5
14940B
  8
HIDDEN
 10
0.0
 20
-927.9999999996834958
 30
0.0
  0
SEQEND
  5
14940C
  8
HIDDEN
  0
LINE
  5
148EA2
  8
OBJECT
 10
2212.0
 20
-303.0000000000047748
 30
0.0
 11
2212.0
 21
-310.0000000000047748
 31
0.0
1001
ACDBBLOCKREPETAG
1070
     1
1071
      241
1005
148EA2
  0
LINE
  5
148EA3
  8
OBJECT
 10
2212.0
 20
-310.0000000000047748
 30
0.0
 11
2088.0
 21
-310.0000000000047748
 31
0.0
1001
ACDBBLOCKREPETAG
1070
     1
1071
      242
1005
148EA3
  0
LINE
  5
148EA4
  8
OBJECT
 10
2088.0
 20
-310.0000000000047748
 30
0.0
 11
2088.0
 21
-303.0000000000047748
 31
0.0
1001
ACDBBLOCKREPETAG
1070
     1
1071
      243
1005
148EA4
  0
LINE
  5
148EA5
  8
OBJECT
 10
2088.0
 20
-303.0000000000047748
 30
0.0
 11
2212.0
 21
-303.0000000000047748
 31
0.0
1001
ACDBBLOCKREPETAG
1070
     1
1071
      244
1005
148EA5
  0
LINE
  5
148EA6
  8
CENTER
 10
2197.2436941260311869
 20
-200.0000000000084128
 30
0.0
 11
2080.0
 21
-200.0000000000048033
 31
0.0
1001
ACDBBLOCKREPETAG
1070
     1
1071
      245
1005
148EA6
  0
LINE
  5
148EA7
  8
OBJECT
 10
2092.5
 20
-247.0000000000084128
 30
0.0
 11
2086.0
 21
-247.0000000000084128
 31
0.0
1001
ACDBBLOCKREPETAG
1070
     1
1071
      246
1005
148EA7
  0
LINE
  5
148EA8
  8
OBJECT
 10
2098.0
 20
-153.0000000000084128
 30
0.0
 11
2086.0
 21
-153.0000000000048033
 31
0.0
1001
ACDBBLOCKREPETAG
1070
     1
1071
      247
1005
148EA8
  0
LINE
  5
148EA9
  8
OBJECT
 10
2209.0
 20
-303.0000000000047748
 30
0.0
 11
2209.0
 21
-267.0000000000047748
 31
0.0
1001
ACDBBLOCKREPETAG
1070
     1
1071
      248
1005
148EA9
  0
LINE
  5
148EAA
  8
OBJECT
 10
2209.0
 20
-267.0000000000047748
 30
0.0
 11
2091.0
 21
-267.0000000000047748
 31
0.0
1001
ACDBBLOCKREPETAG
1070
     1
1071
      249
1005
148EAA
  0
LINE
  5
148EAB
  8
OBJECT
 10
2091.0
 20
-267.0000000000047748
 30
0.0
 11
2091.0
 21
-303.0000000000047748
 31
0.0
1001
ACDBBLOCKREPETAG
1070
     1
1071
      250
1005
148EAB
  0
LINE
  5
148EAC
  8
OBJECT
 10
2204.5
 20
-263.0000000000047748
 30
0.0
 11
2204.5
 21
-250.0000000000048033
 31
0.0
1001
ACDBBLOCKREPETAG
1070
     1
1071
      251
1005
148EAC
  0
LINE
  5
148EAD
  8
OBJECT
 10
2095.5
 20
-250.0000000000048033
 30
0.0
 11
2095.5
 21
-263.0000000000047748
 31
0.0
1001
ACDBBLOCKREPETAG
1070
     1
1071
      252
1005
148EAD
  0
LINE
  5
148EAE
  8
OBJECT
 10
2095.5
 20
-263.0000000000047748
 30
0.0
 11
2204.5
 21
-263.0000000000047748
 31
0.0
1001
ACDBBLOCKREPETAG
1070
     1
1071
      253
1005
148EAE
  0
LINE
  5
148EAF
  8
OBJECT
 10
2209.0
 20
-267.0000000000047748
 30
0.0
 11
2204.5
 21
-263.0000000000047748
 31
0.0
1001
ACDBBLOCKREPETAG
1070
     1
1071
      254
1005
148EAF
  0
LINE
  5
148EB0
  8
OBJECT
 10
2091.0
 20
-267.0000000000047748
 30
0.0
 11
2095.5
 21
-263.0000000000047748
 31
0.0
1001
ACDBBLOCKREPETAG
1070
     1
1071
      255
1005
148EB0
  0
LINE
  5
148EB1
  8
OBJECT
 10
2083.0
 20
-138.0000000000048033
 30
0.0
 11
2080.0
 21
-138.0000000000048033
 31
0.0
1001
ACDBBLOCKREPETAG
1070
     1
1071
      256
1005
148EB1
  0
ARC
  5
148EB2
  8
OBJECT
 10
2083.0
 20
-141.0000000000048033
 30
0.0
 40
3.0
 50
0.0
 51
90.0
1001
ACDBBLOCKREPETAG
1070
     1
1071
      257
1005
148EB2
  0
LINE
  5
148EB3
  8
OBJECT
 10
2080.0
 20
-262.0000000000047748
 30
0.0
 11
2095.5
 21
-262.0000000000047748
 31
0.0
1001
ACDBBLOCKREPETAG
1070
     1
1071
      258
1005
148EB3
  0
ARC
  5
148EB4
  8
OBJECT
 10
2083.0
 20
-259.0000000000047748
 30
0.0
 40
3.0
 50
270.0
 51
0.0
1001
ACDBBLOCKREPETAG
1070
     1
1071
      259
1005
148EB4
  0
LINE
  5
148EB5
  8
OBJECT
 10
2086.0
 20
-259.0000000000047748
 30
0.0
 11
2086.0
 21
-141.0000000000048033
 31
0.0
1001
ACDBBLOCKREPETAG
1070
     1
1071
      260
1005
148EB5
  0
LINE
  5
148EB6
  8
HIDDEN
 10
2194.5
 20
-258.0000000000047748
 30
0.0
 11
2105.5
 21
-258.0000000000047748
 31
0.0
1001
ACDBBLOCKREPETAG
1070
     1
1071
      261
1005
148EB6
  0
LINE
  5
148EB7
  8
OBJECT
 10
2095.5000212374470721
 20
-249.9999591361386138
 30
0.0
 11
2204.5000212374470721
 21
-249.9999591361386138
 31
0.0
1001
ACDBBLOCKREPETAG
1070
     1
1071
      263
1005
148EB7
  0
LINE
  5
148EB8
  8
CENTER
 10
2150.0
 20
-152.7563058739771975
 30
0.0
 11
2150.0
 21
-325.0000000000047748
 31
0.0
1001
ACDBBLOCKREPETAG
1070
     1
1071
      264
1005
148EB8
  0
ARC
  5
148EB9
  8
CENTER
 10
2098.0
 20
-252.0000000000084128
 30
0.0
 40
52.0
 50
0.0
 51
90.0
1001
ACDBBLOCKREPETAG
1070
     1
1071
      265
1005
148EB9
  0
ARC
  5
148EBA
  8
OBJECT
 10
2092.5
 20
-250.0000000000084128
 30
0.0
 40
3.0
 50
0.0
 51
90.0
1001
ACDBBLOCKREPETAG
1070
     1
1071
      266
1005
148EBA
  0
ARC
  5
148EBB
  8
OBJECT
 10
2098.0
 20
-252.0000000000084128
 30
0.0
 40
99.0
 50
1.157592897190024
 51
90.0
1001
ACDBBLOCKREPETAG
1070
     1
1071
      267
1005
148EBB
  0
LINE
  5
148EBC
  8
OBJECT
 10
1923.0
 20
-571.0
 30
0.0
 11
1923.0
 21
-550.0
 31
0.0
1001
ACDBBLOCKREPETAG
1070
     1
1071
        0
1005
148EBC
  0
LINE
  5
148EBD
  8
OBJECT
 10
1923.0
 20
-550.0
 30
0.0
 11
2077.0
 21
-550.0
 31
0.0
1001
ACDBBLOCKREPETAG
1070
     1
1071
        1
1005
148EBD
  0
LINE
  5
148EBE
  8
HIDDEN
 10
1943.0
 20
-620.0
 30
0.0
 11
2057.0
 21
-620.0
 31
0.0
1001
ACDBBLOCKREPETAG
1070
     1
1071
        2
1005
148EBE
  0
LINE
  5
148EBF
  8
OBJECT
 10
2077.0
 20
-550.0
 30
0.0
 11
2077.0
 21
-571.0
 31
0.0
1001
ACDBBLOCKREPETAG
1070
     1
1071
        3
1005
148EBF
  0
LINE
  5
148EC0
  8
OBJECT
 10
2077.0
 20
-571.0
 30
0.0
 11
1923.0
 21
-571.0
 31
0.0
1001
ACDBBLOCKREPETAG
1070
     1
1071
        4
1005
148EC0
  0
LINE
  5
148EC1
  8
CENTER
 10
2000.0
 20
-535.0
 30
0.0
 11
2000.0
 21
-770.0
 31
0.0
1001
ACDBBLOCKREPETAG
1070
     1
1071
        5
1005
148EC1
  0
LINE
  5
148EC2
  8
OBJECT
 10
1925.0
 20
-634.0
 30
0.0
 11
1925.0
 21
-758.0
 31
0.0
1001
ACDBBLOCKREPETAG
1070
     1
1071
        6
1005
148EC2
  0
LINE
  5
148EC3
  8
OBJECT
 10
1928.0
 20
-571.0
 30
0.0
 11
1928.0
 21
-634.0
 31
0.0
1001
ACDBBLOCKREPETAG
1070
     1
1071
        7
1005
148EC3
  0
LINE
  5
148EC4
  8
OBJECT
 10
2072.0
 20
-634.0
 30
0.0
 11
2072.0
 21
-571.0
 31
0.0
1001
ACDBBLOCKREPETAG
1070
     1
1071
        8
1005
148EC4
  0
LINE
  5
148EC5
  8
OBJECT
 10
1920.0
 20
-758.0
 30
0.0
 11
2080.0
 21
-758.0
 31
0.0
1001
ACDBBLOCKREPETAG
1070
     1
1071
        9
1005
148EC5
  0
LINE
  5
148EC6
  8
OBJECT
 10
2080.0
 20
-634.0
 30
0.0
 11
1925.0
 21
-634.0
 31
0.0
1001
ACDBBLOCKREPETAG
1070
     1
1071
       10
1005
148EC6
  0
LINE
  5
148EC7
  8
OBJECT
 10
1920.0
 20
-758.0
 30
0.0
 11
1920.0
 21
-770.0
 31
0.0
1001
ACDBBLOCKREPETAG
1070
     1
1071
       11
1005
148EC7
  0
LINE
  5
148EC8
  8
OBJECT
 10
1920.0
 20
-770.0
 30
0.0
 11
2080.0
 21
-770.0
 31
0.0
1001
ACDBBLOCKREPETAG
1070
     1
1071
       12
1005
148EC8
  0
LINE
  5
148EC9
  8
OBJECT
 10
2080.0
 20
-770.0
 30
0.0
 11
2080.0
 21
-758.0
 31
0.0
1001
ACDBBLOCKREPETAG
1070
     1
1071
       13
1005
148EC9
  0
ARC
  5
148ECA
  8
OBJECT
 10
2200.6872746716730944
 20
-749.4080994101075248
 30
0.0
 40
170.6350503965855978
 50
137.4413445918430057
 51
149.9194958133655007
1001
ACDBBLOCKREPETAG
1070
     1
1071
       15
1005
148ECA
  0
ARC
  5
148ECB
  8
OBJECT
 10
2118.845598704051099
 20
-705.882726695364795
 30
0.0
 40
78.0722220217636647
 50
147.4551531037753875
 51
164.6636599771798046
1001
ACDBBLOCKREPETAG
1070
     1
1071
       16
1005
148ECB
  0
ARC
  5
148ECC
  8
OBJECT
 10
2085.7554349608731172
 20
-696.0
 30
0.0
 40
43.5535392688561771
 50
165.6884523008477004
 51
194.3115476991521859
1001
ACDBBLOCKREPETAG
1070
     1
1071
       17
1005
148ECC
  0
ARC
  5
148ECD
  8
OBJECT
 10
2200.6872746716730944
 20
-642.5919005898921341
 30
0.0
 40
170.6350503965855978
 50
210.0805041866343004
 51
222.5586554081569943
1001
ACDBBLOCKREPETAG
1070
     1
1071
       18
1005
148ECD
  0
ARC
  5
148ECE
  8
OBJECT
 10
2118.845598704051099
 20
-686.117273304635205
 30
0.0
 40
78.0722220217636647
 50
195.3363400228201101
 51
212.5448468962246125
1001
ACDBBLOCKREPETAG
1070
     1
1071
       19
1005
148ECE
  0
POINT
  5
148ECF
  8
DOTS
 10
2000.0
 20
-755.0
 30
0.0
1001
ACDBBLOCKREPETAG
1070
     1
1071
      186
1005
148ECF
  0
LINE
  5
148ED0
  8
OBJECT
 10
2024.1029330933019992
 20
-243.8069471237224946
 30
0.0
 11
2020.6596569999969688
 21
-232.5546220000044002
 31
0.0
1001
ACDBBLOCKREPETAG
1070
     1
1071
      300
1005
148ED0
  0
LINE
  5
148ED1
  8
OBJECT
 10
1986.7927499013740089
 20
-218.2255337420859007
 30
0.0
 11
2020.6596569999969688
 21
-232.5546220000026096
 31
0.0
1001
ACDBBLOCKREPETAG
1070
     1
1071
      302
1005
148ED1
  0
ARC
  5
148ED2
  8
OBJECT
 10
1982.8961697618999551
 20
-227.4351299990624113
 30
0.0
 40
10.0
 50
67.0667782929233596
 51
154.0147343702934108
1001
ACDBBLOCKREPETAG
1070
     1
1071
      303
1005
148ED2
  0
ARC
  5
148ED3
  8
OBJECT
 10
1986.1488390381271074
 20
-225.5538625672973012
 30
0.0
 40
7.0
 50
67.0667782929233596
 51
154.0147337749712051
1001
ACDBBLOCKREPETAG
1070
     1
1071
      304
1005
148ED3
  0
LINE
  5
148ED4
  8
OBJECT
 10
1969.4199755552999704
 20
-243.8988850081873068
 30
0.0
 11
1979.856491823235956
 21
-222.4868825335736062
 31
0.0
1001
ACDBBLOCKREPETAG
1070
     1
1071
      341
1005
148ED4
  0
LINE
  5
148ED5
  8
OBJECT
 10
1965.2972169006079639
 20
-240.7181390188329999
 30
0.0
 11
1973.9071022665079909
 21
-223.0537300443131983
 31
0.0
1001
ACDBBLOCKREPETAG
1070
     1
1071
      342
1005
148ED5
  0
ARC
  5
148ED6
  8
OBJECT
 10
1976.579695307314978
 20
-207.1289369828494102
 30
0.0
 40
60.0311132460326178
 50
314.0702013041856731
 51
322.3393610609126085
1001
ACDBBLOCKREPETAG
1070
     1
1071
      343
1005
148ED6
  0
CIRCLE
  5
148ED7
  8
OBJECT
 10
2000.0
 20
-200.0000000000048033
 30
0.0
 40
53.5
1001
ACDBBLOCKREPETAG
1070
     1
1071
      344
1005
148ED7
  0
POINT
  5
148ED8
  8
DOTS
 10
2000.0
 20
-200.0000000000048033
 30
0.0
 50
270.0
1001
ACDBBLOCKREPETAG
1070
     1
1071
      362
1005
148ED8
  0
LINE
  5
148ED9
  8
CENTER
 10
2080.0
 20
-200.0000000000048033
 30
0.0
 11
1905.0
 21
-200.0000000000048033
 31
0.0
1001
ACDBBLOCKREPETAG
1070
     1
1071
       14
1005
148ED9
  0
LINE
  5
148EDA
  8
CENTER
 10
2000.0
 20
-295.0000000000048885
 30
0.0
 11
2000.0
 21
-105.0000000000048033
 31
0.0
1001
ACDBBLOCKREPETAG
1070
     1
1071
       15
1005
148EDA
  0
CIRCLE
  5
148EDB
  8
OBJECT
 10
2000.0
 20
-200.0000000000048033
 30
0.0
 40
70.0
1001
ACDBBLOCKREPETAG
1070
     1
1071
       16
1005
148EDB
  0
CIRCLE
  5
148EDC
  8
OBJECT
 10
2000.0
 20
-200.0000000000048033
 30
0.0
 40
77.0
1001
ACDBBLOCKREPETAG
1070
     1
1071
       17
1005
148EDC
  0
ARC
  5
148EDD
  8
OBJECT
 10
2000.0
 20
-200.0000000000048033
 30
0.0
 40
80.0
 50
50.8050325738641888
 51
309.1949674261358041
1001
ACDBBLOCKREPETAG
1070
     1
1071
       18
1005
148EDD
  0
LINE
  5
148EDE
  8
OBJECT
 10
2045.6618002273251022
 20
-138.0000000000048033
 30
0.0
 11
2080.0
 21
-138.0000000000048033
 31
0.0
1001
ACDBBLOCKREPETAG
1070
     1
1071
       19
1005
148EDE
  0
LINE
  5
148EDF
  8
OBJECT
 10
2045.6618002273251022
 20
-262.0000000000047748
 30
0.0
 11
2080.0
 21
-262.0000000000047748
 31
0.0
1001
ACDBBLOCKREPETAG
1070
     1
1071
       20
1005
148EDF
  0
ARC
  5
148EE0
  8
OBJECT
 10
2000.0
 20
-200.0000000000048033
 30
0.0
 40
50.0
 50
298.8199430000042867
 51
228.5237695596248102
1001
ACDBBLOCKREPETAG
1070
     1
1071
       48
1005
148EE0
  0
TEXT
  5
148EE3
  8
SLIM
 10
2617.1428571428559735
 20
-3189.9999999999959073
 30
0.0
 40
40.0
  1
F寸法
 41
0.75
  0
TEXT
  5
148EE4
  8
SLIM
 10
3013.2857142857160397
 20
-3189.9999999999959073
 30
0.0
 40
40.0
  1
150
 41
0.75
  0
TEXT
  5
148EE5
  8
SLIM
 10
2753.2857142857160397
 20
-3189.9999999999959073
 30
0.0
 40
40.0
  1
140
 41
0.75
  0
TEXT
  5
148EE6
  8
SLIM
 10
2883.2857142857160397
 20
-3189.9999999999959073
 30
0.0
 40
40.0
  1
140
 41
0.75
  0
TEXT
  5
148EE7
  8
SLIM
 10
2616.4285714285711038
 20
-3119.9999999999959073
 30
0.0
 40
40.0
  1
E寸法
 41
0.75
  0
TEXT
  5
148EE8
  8
SLIM
 10
3013.2857142857160397
 20
-3119.9999999999959073
 30
0.0
 40
40.0
  1
212
 41
0.75
  0
TEXT
  5
148EE9
  8
SLIM
 10
2753.2857142857160397
 20
-3119.9999999999959073
 30
0.0
 40
40.0
  1
187
 41
0.75
  0
TEXT
  5
148EEA
  8
SLIM
 10
2883.2857142857160397
 20
-3119.9999999999959073
 30
0.0
 40
40.0
  1
195
 41
0.75
  0
TEXT
  5
148EEB
  8
SLIM
 10
2615.0
 20
-3049.9999999999949978
 30
0.0
 40
40.0
  1
D寸法
 41
0.75
  0
TEXT
  5
148EEC
  8
SLIM
 10
3016.142857142856883
 20
-3049.9999999999949978
 30
0.0
 40
40.0
  1
110
 41
0.75
  0
TEXT
  5
148EED
  8
SLIM
 10
2753.2857142857160397
 20
-3049.9999999999949978
 30
0.0
 40
40.0
  1
100
 41
0.75
  0
TEXT
  5
148EEE
  8
SLIM
 10
2883.2857142857160397
 20
-3049.9999999999949978
 30
0.0
 40
40.0
  1
100
 41
0.75
  0
TEXT
  5
148EEF
  8
SLIM
 10
2615.0
 20
-2979.9999999999949978
 30
0.0
 40
40.0
  1
B寸法
 41
0.75
  0
TEXT
  5
148EF0
  8
SLIM
 10
2614.2857142857160397
 20
-2909.9999999999959073
 30
0.0
 40
40.0
  1
A寸法
 41
0.75
  0
TEXT
  5
148EF1
  8
SLIM
 10
3154.7142857142839603
 20
-2979.9999999999949978
 30
0.0
 40
40.0
  1
72
 41
0.75
  0
TEXT
  5
148EF2
  8
SLIM
 10
3025.4285714285711038
 20
-2979.9999999999949978
 30
0.0
 40
40.0
  1
59
 41
0.75
  0
TEXT
  5
148EF3
  8
SLIM
 10
2764.0
 20
-2979.9999999999949978
 30
0.0
 40
40.0
  1
44
 41
0.75
  0
TEXT
  5
148EF4
  8
SLIM
 10
2894.7142857142848698
 20
-2979.9999999999949978
 30
0.0
 40
40.0
  1
52
 41
0.75
  0
TEXT
  5
148EF5
  8
SLIM
 10
2875.0
 20
-2784.9999999999959073
 30
0.0
 40
40.0
  1
横枝管サイズ
 41
0.75
  0
TEXT
  5
148EF6
  8
SLIM
 10
3120.2857142857160397
 20
-2839.9999999999959073
 30
0.0
 40
30.0
  1
100（4）
 41
0.75
  0
TEXT
  5
148EF7
  8
SLIM
 10
2998.8571428571422075
 20
-2839.9999999999959073
 30
0.0
 40
30.0
  1
75（3）
 41
0.75
  0
TEXT
  5
148EF8
  8
SLIM
 10
2868.8571428571422075
 20
-2839.9999999999959073
 30
0.0
 40
30.0
  1
65（2）
 41
0.75
  0
TEXT
  5
148EF9
  8
SLIM
 10
2741.0
 20
-2839.9999999999959073
 30
0.0
 40
30.0
  1
50（1）
 41
0.75
  0
TEXT
  5
148EFA
  8
SLIM
 10
3143.2857142857160397
 20
-2909.9999999999959073
 30
0.0
 40
40.0
  1
150
 41
0.75
  0
TEXT
  5
148EFB
  8
SLIM
 10
3012.5714285714279868
 20
-2909.9999999999959073
 30
0.0
 40
40.0
  1
124
 41
0.75
  0
TEXT
  5
148EFC
  8
SLIM
 10
2764.0
 20
-2909.9999999999959073
 30
0.0
 40
40.0
  1
94
 41
0.75
  0
TEXT
  5
148EFD
  8
SLIM
 10
2886.142857142856883
 20
-2909.9999999999959073
 30
0.0
 40
40.0
  1
110
 41
0.75
  0
TEXT
  5
148EFE
  8
SLIM
 10
1849.9999999999990905
 20
-2712.5
 30
0.0
 40
75.0
  1
枝管サイズ毎の形状
 41
0.75
  0
TEXT
  5
148EFF
  8
SLIM
 10
0.0000035665234464
 20
24.0000045853176012
 30
0.0
 40
79.9999999999727152
  1
枝管バリエーション
 41
0.75
1001
ACDBBLOCKREPETAG
1070
     1
1071
      119
1005
11E9B0
  0
LINE
  5
148F00
  8
SLIM
 10
11914.9999999999909051
 20
-765.1974387893151288
 30
0.0
 11
11925.1974387893005769
 21
-755.0
 31
0.0
1001
ACAD
1010
0.0
1020
0.0
1030
0.0
1001
ACDBBLOCKREPETAG
1070
     1
1071
       10
1005
148F00
  0
LINE
  5
148F01
  8
SLIM
 10
11914.9999999999909051
 20
-783.1579510314518302
 30
0.0
 11
11943.1579510314404615
 21
-755.0
 31
0.0
1001
ACAD
1010
0.0
1020
0.0
1030
0.0
1001
ACDBBLOCKREPETAG
1070
     1
1071
       11
1005
148F01
  0
LINE
  5
148F02
  8
SLIM
 10
11915.0
 20
-801.1184632735885316
 30
0.0
 11
11961.1184632735803461
 21
-755.0
 31
0.0
1001
ACAD
1010
0.0
1020
0.0
1030
0.0
1001
ACDBBLOCKREPETAG
1070
     1
1071
       12
1005
148F02
  0
LINE
  5
148F03
  8
SLIM
 10
11915.0
 20
-819.0789755157259151
 30
0.0
 11
11979.0789755157202308
 21
-755.0
 31
0.0
1001
ACAD
1010
0.0
1020
0.0
1030
0.0
1001
ACDBBLOCKREPETAG
1070
     1
1071
       13
1005
148F03
  0
LINE
  5
148F04
  8
SLIM
 10
11915.0
 20
-837.0394877578627302
 30
0.0
 11
11997.0394877578601154
 21
-755.0
 31
0.0
1001
ACAD
1010
0.0
1020
0.0
1030
0.0
1001
ACDBBLOCKREPETAG
1070
     1
1071
       14
1005
148F04
  0
LINE
  5
148F05
  8
SLIM
 10
11915.2836007495407102
 20
-854.7163992504422367
 30
0.0
 11
12015.0
 21
-755.0
 31
0.0
1001
ACAD
1010
0.0
1020
0.0
1030
0.0
1001
ACDBBLOCKREPETAG
1070
     1
1071
       15
1005
148F05
  0
LINE
  5
148F06
  8
SLIM
 10
11917.4979104780395573
 20
-870.462601764097144
 30
0.0
 11
12032.9605122421398846
 21
-755.0
 31
0.0
1001
ACAD
1010
0.0
1020
0.0
1030
0.0
1001
ACDBBLOCKREPETAG
1070
     1
1071
       16
1005
148F06
  0
LINE
  5
148F07
  8
SLIM
 10
11919.7122202065202146
 20
-886.2088042777528472
 30
0.0
 11
12050.9210244842706743
 21
-755.0
 31
0.0
1001
ACAD
1010
0.0
1020
0.0
1030
0.0
1001
ACDBBLOCKREPETAG
1070
     1
1071
       17
1005
148F07
  0
LINE
  5
148F08
  8
SLIM
 10
11921.9265299350008718
 20
-901.9550067914079818
 30
0.0
 11
12068.8815367264105589
 21
-755.0
 31
0.0
1001
ACAD
1010
0.0
1020
0.0
1030
0.0
1001
ACDBBLOCKREPETAG
1070
     1
1071
       18
1005
148F08
  0
LINE
  5
148F09
  8
SLIM
 10
11924.1408396634906239
 20
-917.7012093050634576
 30
0.0
 11
12085.0000000000090949
 21
-756.8420489685461234
 31
0.0
1001
ACAD
1010
0.0
1020
0.0
1030
0.0
1001
ACDBBLOCKREPETAG
1070
     1
1071
       19
1005
148F09
  0
LINE
  5
148F0A
  8
SLIM
 10
11926.3551493919694622
 20
-933.4474118187188196
 30
0.0
 11
12085.0
 21
-774.8025612106854396
 31
0.0
1001
ACAD
1010
0.0
1020
0.0
1030
0.0
1001
ACDBBLOCKREPETAG
1070
     1
1071
       20
1005
148F0A
  0
LINE
  5
148F0B
  8
SLIM
 10
11928.5694591204501194
 20
-949.1936143323744091
 30
0.0
 11
12085.0
 21
-792.7630734528255516
 31
0.0
1001
ACAD
1010
0.0
1020
0.0
1030
0.0
1001
ACDBBLOCKREPETAG
1070
     1
1071
       21
1005
148F0B
  0
LINE
  5
148F0C
  8
SLIM
 10
11930.7837688489398715
 20
-964.9398168460295437
 30
0.0
 11
12085.0
 21
-810.7235856949650952
 31
0.0
1001
ACAD
1010
0.0
1020
0.0
1030
0.0
1001
ACDBBLOCKREPETAG
1070
     1
1071
       22
1005
148F0C
  0
LINE
  5
148F0D
  8
SLIM
 10
11932.9980785774205287
 20
-980.6860193596850195
 30
0.0
 11
12085.0
 21
-828.6840979371046387
 31
0.0
1001
ACAD
1010
0.0
1020
0.0
1030
0.0
1001
ACDBBLOCKREPETAG
1070
     1
1071
       23
1005
148F0D
  0
LINE
  5
148F0E
  8
SLIM
 10
11932.9999999999909051
 20
-998.6446101792520267
 30
0.0
 11
12085.0
 21
-846.6446101792441823
 31
0.0
1001
ACAD
1010
0.0
1020
0.0
1030
0.0
1001
ACDBBLOCKREPETAG
1070
     1
1071
       24
1005
148F0E
  0
LINE
  5
148F0F
  8
SLIM
 10
11932.9999999999909051
 20
-1016.6051224213899786
 30
0.0
 11
12083.051837154360328
 21
-866.5532852670169177
 31
0.0
1001
ACAD
1010
0.0
1020
0.0
1030
0.0
1001
ACDBBLOCKREPETAG
1070
     1
1071
       25
1005
148F0F
  0
LINE
  5
148F10
  8
SLIM
 10
11942.5656346635205409
 20
-1024.9999999999959073
 30
0.0
 11
12080.1128442420194915
 21
-887.452790421504119
 31
0.0
1001
ACAD
1010
0.0
1020
0.0
1030
0.0
1001
ACDBBLOCKREPETAG
1070
     1
1071
       26
1005
148F10
  0
LINE
  5
148F11
  8
SLIM
 10
11960.5261469056604255
 20
-1024.9999999999970441
 30
0.0
 11
12077.1738513296695601
 21
-908.3522955759915476
 31
0.0
1001
ACAD
1010
0.0
1020
0.0
1030
0.0
1001
ACDBBLOCKREPETAG
1070
     1
1071
       27
1005
148F11
  0
LINE
  5
148F12
  8
SLIM
 10
11978.4866591478003102
 20
-1024.9999999999970441
 30
0.0
 11
12074.2348584173196286
 21
-929.2518007304787488
 31
0.0
1001
ACAD
1010
0.0
1020
0.0
1030
0.0
1001
ACDBBLOCKREPETAG
1070
     1
1071
       28
1005
148F12
  0
LINE
  5
148F13
  8
SLIM
 10
11996.4471713899401948
 20
-1024.9999999999979536
 30
0.0
 11
12071.2958655049696972
 21
-950.1513058849659501
 31
0.0
1001
ACAD
1010
0.0
1020
0.0
1030
0.0
1001
ACDBBLOCKREPETAG
1070
     1
1071
       29
1005
148F13
  0
LINE
  5
148F14
  8
SLIM
 10
12014.4076836320800794
 20
-1024.9999999999979536
 30
0.0
 11
12068.3568725926197658
 21
-971.0508110394536061
 31
0.0
1001
ACAD
1010
0.0
1020
0.0
1030
0.0
1001
ACDBBLOCKREPETAG
1070
     1
1071
       30
1005
148F14
  0
LINE
  5
148F15
  8
SLIM
 10
12032.3681958742108691
 20
-1024.9999999999990905
 30
0.0
 11
12067.0000000000090949
 21
-990.3681958742015468
 31
0.0
1001
ACAD
1010
0.0
1020
0.0
1030
0.0
1001
ACDBBLOCKREPETAG
1070
     1
1071
       31
1005
148F15
  0
LINE
  5
148F16
  8
SLIM
 10
12050.3287081163507537
 20
-1024.9999999999990905
 30
0.0
 11
12067.0000000000090949
 21
-1008.3287081163399534
 31
0.0
1001
ACAD
1010
0.0
1020
0.0
1030
0.0
1001
ACDBBLOCKREPETAG
1070
     1
1071
       32
1005
148F16
  0
LINE
  5
148F17
  8
OBJECT
 10
11932.9999999999909051
 20
-1024.9999999999959073
 30
0.0
 11
12067.0000000000090949
 21
-1025.0
 31
0.0
1001
ACDBBLOCKREPETAG
1070
     1
1071
        1
1005
148F17
  0
LINE
  5
148F18
  8
OBJECT
 10
11914.9999999999909051
 20
-755.0
 30
0.0
 11
11915.0
 21
-852.69968280914145
 31
0.0
1001
ACDBBLOCKREPETAG
1070
     1
1071
        2
1005
148F18
  0
LINE
  5
148F19
  8
OBJECT
 10
12085.0000000000090949
 20
-755.0
 30
0.0
 11
12085.0
 21
-852.6996828091721454
 31
0.0
1001
ACDBBLOCKREPETAG
1070
     1
1071
        3
1005
148F19
  0
LINE
  5
148F1A
  8
OBJECT
 10
11915.0
 20
-852.69968280914145
 30
0.0
 11
11932.9999999999909051
 21
-980.699682809081537
 31
0.0
1001
ACDBBLOCKREPETAG
1070
     1
1071
        4
1005
148F1A
  0
LINE
  5
148F1B
  8
OBJECT
 10
12067.0000000000090949
 20
-980.6996828091287171
 30
0.0
 11
12085.0
 21
-852.6996828091721454
 31
0.0
1001
ACDBBLOCKREPETAG
1070
     1
1071
        5
1005
148F1B
  0
LINE
  5
148F1C
  8
OBJECT
 10
12085.0000000000090949
 20
-755.0
 30
0.0
 11
11914.9999999999909051
 21
-755.0
 31
0.0
1001
ACDBBLOCKREPETAG
1070
     1
1071
        6
1005
148F1C
  0
LINE
  5
148F1D
  8
OBJECT
 10
11932.9999999999909051
 20
-980.699682809081537
 30
0.0
 11
11932.9999999999909051
 21
-1024.9999999999959073
 31
0.0
1001
ACDBBLOCKREPETAG
1070
     1
1071
        8
1005
148F1D
  0
LINE
  5
148F1E
  8
OBJECT
 10
12067.0000000000090949
 20
-980.6996828091287171
 30
0.0
 11
12067.0000000000090949
 21
-1025.0
 31
0.0
1001
ACDBBLOCKREPETAG
1070
     1
1071
        9
1005
148F1E
  0
LINE
  5
148F1F
  8
SLIM
 10
9914.999999999992724
 20
-765.1974387893151288
 30
0.0
 11
9925.1974387893096718
 21
-755.0
 31
0.0
1001
ACAD
1010
0.0
1020
0.0
1030
0.0
1001
ACDBBLOCKREPETAG
1070
     1
1071
       10
1005
148F1F
  0
LINE
  5
148F20
  8
SLIM
 10
9914.999999999994543
 20
-783.1579510314518302
 30
0.0
 11
9943.1579510314440995
 21
-755.0
 31
0.0
1001
ACAD
1010
0.0
1020
0.0
1030
0.0
1001
ACDBBLOCKREPETAG
1070
     1
1071
       11
1005
148F20
  0
LINE
  5
148F21
  8
SLIM
 10
9914.999999999998181
 20
-801.1184632735885316
 30
0.0
 11
9961.1184632735858031
 21
-755.0
 31
0.0
1001
ACAD
1010
0.0
1020
0.0
1030
0.0
1001
ACDBBLOCKREPETAG
1070
     1
1071
       12
1005
148F21
  0
LINE
  5
148F22
  8
SLIM
 10
9914.999999999998181
 20
-819.0789755157259151
 30
0.0
 11
9979.0789755157256877
 21
-755.0
 31
0.0
1001
ACAD
1010
0.0
1020
0.0
1030
0.0
1001
ACDBBLOCKREPETAG
1070
     1
1071
       13
1005
148F22
  0
LINE
  5
148F23
  8
SLIM
 10
9914.999999999998181
 20
-837.0394877578627302
 30
0.0
 11
9997.0394877578637534
 21
-755.0
 31
0.0
1001
ACAD
1010
0.0
1020
0.0
1030
0.0
1001
ACDBBLOCKREPETAG
1070
     1
1071
       14
1005
148F23
  0
LINE
  5
148F24
  8
SLIM
 10
9915.2836007495607191
 20
-854.7163992504422367
 30
0.0
 11
10015.0
 21
-755.0
 31
0.0
1001
ACAD
1010
0.0
1020
0.0
1030
0.0
1001
ACDBBLOCKREPETAG
1070
     1
1071
       15
1005
148F24
  0
LINE
  5
148F25
  8
SLIM
 10
9917.4979104780413763
 20
-870.462601764097144
 30
0.0
 11
10032.9605122421398846
 21
-755.0
 31
0.0
1001
ACAD
1010
0.0
1020
0.0
1030
0.0
1001
ACDBBLOCKREPETAG
1070
     1
1071
       16
1005
148F25
  0
LINE
  5
148F26
  8
SLIM
 10
9919.7122202065293095
 20
-886.2088042777528472
 30
0.0
 11
10050.9210244842706743
 21
-755.0
 31
0.0
1001
ACAD
1010
0.0
1020
0.0
1030
0.0
1001
ACDBBLOCKREPETAG
1070
     1
1071
       17
1005
148F26
  0
LINE
  5
148F27
  8
SLIM
 10
9921.9265299350081477
 20
-901.9550067914079818
 30
0.0
 11
10068.8815367264105589
 21
-755.0
 31
0.0
1001
ACAD
1010
0.0
1020
0.0
1030
0.0
1001
ACDBBLOCKREPETAG
1070
     1
1071
       18
1005
148F27
  0
LINE
  5
148F28
  8
SLIM
 10
9924.1408396634906239
 20
-917.7012093050634576
 30
0.0
 11
10085.0000000000090949
 21
-756.8420489685461234
 31
0.0
1001
ACAD
1010
0.0
1020
0.0
1030
0.0
1001
ACDBBLOCKREPETAG
1070
     1
1071
       19
1005
148F28
  0
LINE
  5
148F29
  8
SLIM
 10
9926.3551493919731001
 20
-933.4474118187188196
 30
0.0
 11
10085.0
 21
-774.8025612106854396
 31
0.0
1001
ACAD
1010
0.0
1020
0.0
1030
0.0
1001
ACDBBLOCKREPETAG
1070
     1
1071
       20
1005
148F29
  0
LINE
  5
148F2A
  8
SLIM
 10
9928.5694591204555763
 20
-949.1936143323744091
 30
0.0
 11
10085.0
 21
-792.7630734528255516
 31
0.0
1001
ACAD
1010
0.0
1020
0.0
1030
0.0
1001
ACDBBLOCKREPETAG
1070
     1
1071
       21
1005
148F2A
  0
LINE
  5
148F2B
  8
SLIM
 10
9930.7837688489416905
 20
-964.9398168460295437
 30
0.0
 11
10085.0
 21
-810.7235856949650952
 31
0.0
1001
ACAD
1010
0.0
1020
0.0
1030
0.0
1001
ACDBBLOCKREPETAG
1070
     1
1071
       22
1005
148F2B
  0
LINE
  5
148F2C
  8
SLIM
 10
9932.9980785774205287
 20
-980.6860193596850195
 30
0.0
 11
10085.0
 21
-828.6840979371046387
 31
0.0
1001
ACAD
1010
0.0
1020
0.0
1030
0.0
1001
ACDBBLOCKREPETAG
1070
     1
1071
       23
1005
148F2C
  0
LINE
  5
148F2D
  8
SLIM
 10
9932.999999999992724
 20
-998.6446101792520267
 30
0.0
 11
10085.0
 21
-846.6446101792441823
 31
0.0
1001
ACAD
1010
0.0
1020
0.0
1030
0.0
1001
ACDBBLOCKREPETAG
1070
     1
1071
       24
1005
148F2D
  0
LINE
  5
148F2E
  8
SLIM
 10
9932.999999999992724
 20
-1016.6051224213899786
 30
0.0
 11
10083.051837154360328
 21
-866.5532852670169177
 31
0.0
1001
ACAD
1010
0.0
1020
0.0
1030
0.0
1001
ACDBBLOCKREPETAG
1070
     1
1071
       25
1005
148F2E
  0
LINE
  5
148F2F
  8
SLIM
 10
9942.5656346635241789
 20
-1024.9999999999959073
 30
0.0
 11
10080.1128442420103966
 21
-887.452790421504119
 31
0.0
1001
ACAD
1010
0.0
1020
0.0
1030
0.0
1001
ACDBBLOCKREPETAG
1070
     1
1071
       26
1005
148F2F
  0
LINE
  5
148F30
  8
SLIM
 10
9960.5261469056640635
 20
-1024.9999999999970441
 30
0.0
 11
10077.1738513296695601
 21
-908.3522955759915476
 31
0.0
1001
ACAD
1010
0.0
1020
0.0
1030
0.0
1001
ACDBBLOCKREPETAG
1070
     1
1071
       27
1005
148F30
  0
LINE
  5
148F31
  8
SLIM
 10
9978.4866591478003102
 20
-1024.9999999999970441
 30
0.0
 11
10074.2348584173196286
 21
-929.2518007304787488
 31
0.0
1001
ACAD
1010
0.0
1020
0.0
1030
0.0
1001
ACDBBLOCKREPETAG
1070
     1
1071
       28
1005
148F31
  0
LINE
  5
148F32
  8
SLIM
 10
9996.4471713899383758
 20
-1024.9999999999979536
 30
0.0
 11
10071.2958655049696972
 21
-950.1513058849659501
 31
0.0
1001
ACAD
1010
0.0
1020
0.0
1030
0.0
1001
ACDBBLOCKREPETAG
1070
     1
1071
       29
1005
148F32
  0
LINE
  5
148F33
  8
SLIM
 10
10014.4076836320600705
 20
-1024.9999999999979536
 30
0.0
 11
10068.3568725926197658
 21
-971.0508110394536061
 31
0.0
1001
ACAD
1010
0.0
1020
0.0
1030
0.0
1001
ACDBBLOCKREPETAG
1070
     1
1071
       30
1005
148F33
  0
LINE
  5
148F34
  8
SLIM
 10
10032.3681958742108691
 20
-1024.9999999999990905
 30
0.0
 11
10067.0000000000090949
 21
-990.3681958742015468
 31
0.0
1001
ACAD
1010
0.0
1020
0.0
1030
0.0
1001
ACDBBLOCKREPETAG
1070
     1
1071
       31
1005
148F34
  0
LINE
  5
148F35
  8
SLIM
 10
10050.3287081163507537
 20
-1024.9999999999990905
 30
0.0
 11
10067.0000000000090949
 21
-1008.3287081163399534
 31
0.0
1001
ACAD
1010
0.0
1020
0.0
1030
0.0
1001
ACDBBLOCKREPETAG
1070
     1
1071
       32
1005
148F35
  0
LINE
  5
148F36
  8
OBJECT
 10
9932.999999999992724
 20
-1024.9999999999959073
 30
0.0
 11
10067.0000000000090949
 21
-1025.0
 31
0.0
1001
ACDBBLOCKREPETAG
1070
     1
1071
        1
1005
148F36
  0
LINE
  5
148F37
  8
OBJECT
 10
9914.999999999992724
 20
-755.0
 30
0.0
 11
9915.0
 21
-852.69968280914145
 31
0.0
1001
ACDBBLOCKREPETAG
1070
     1
1071
        2
1005
148F37
  0
LINE
  5
148F38
  8
OBJECT
 10
10085.0000000000090949
 20
-755.0
 30
0.0
 11
10085.0
 21
-852.6996828091721454
 31
0.0
1001
ACDBBLOCKREPETAG
1070
     1
1071
        3
1005
148F38
  0
LINE
  5
148F39
  8
OBJECT
 10
9915.0
 20
-852.69968280914145
 30
0.0
 11
9932.999999999992724
 21
-980.699682809081537
 31
0.0
1001
ACDBBLOCKREPETAG
1070
     1
1071
        4
1005
148F39
  0
LINE
  5
148F3A
  8
OBJECT
 10
10067.0000000000090949
 20
-980.6996828091287171
 30
0.0
 11
10085.0
 21
-852.6996828091721454
 31
0.0
1001
ACDBBLOCKREPETAG
1070
     1
1071
        5
1005
148F3A
  0
LINE
  5
148F3B
  8
OBJECT
 10
10085.0000000000090949
 20
-755.0
 30
0.0
 11
9914.999999999992724
 21
-755.0
 31
0.0
1001
ACDBBLOCKREPETAG
1070
     1
1071
        6
1005
148F3B
  0
LINE
  5
148F3C
  8
OBJECT
 10
9932.999999999992724
 20
-980.699682809081537
 30
0.0
 11
9932.999999999992724
 21
-1024.9999999999959073
 31
0.0
1001
ACDBBLOCKREPETAG
1070
     1
1071
        8
1005
148F3C
  0
LINE
  5
148F3D
  8
OBJECT
 10
10067.0000000000090949
 20
-980.6996828091287171
 30
0.0
 11
10067.0000000000090949
 21
-1025.0
 31
0.0
1001
ACDBBLOCKREPETAG
1070
     1
1071
        9
1005
148F3D
  0
LINE
  5
148F3E
  8
SLIM
 10
7914.9999999999909051
 20
-765.1974387893151288
 30
0.0
 11
7925.1974387893096718
 21
-755.0
 31
0.0
1001
ACAD
1010
0.0
1020
0.0
1030
0.0
1001
ACDBBLOCKREPETAG
1070
     1
1071
       12
1005
148F3E
  0
LINE
  5
148F3F
  8
SLIM
 10
7914.999999999998181
 20
-783.1579510314518302
 30
0.0
 11
7943.1579510314459185
 21
-755.0
 31
0.0
1001
ACAD
1010
0.0
1020
0.0
1030
0.0
1001
ACDBBLOCKREPETAG
1070
     1
1071
       13
1005
148F3F
  0
LINE
  5
148F40
  8
SLIM
 10
7914.9999999999990905
 20
-801.1184632735885316
 30
0.0
 11
7961.1184632735839841
 21
-755.0
 31
0.0
1001
ACAD
1010
0.0
1020
0.0
1030
0.0
1001
ACDBBLOCKREPETAG
1070
     1
1071
       14
1005
148F40
  0
LINE
  5
148F41
  8
SLIM
 10
7914.999999999998181
 20
-819.0789755157259151
 30
0.0
 11
7979.0789755157229592
 21
-755.0
 31
0.0
1001
ACAD
1010
0.0
1020
0.0
1030
0.0
1001
ACDBBLOCKREPETAG
1070
     1
1071
       15
1005
148F41
  0
LINE
  5
148F42
  8
SLIM
 10
7914.9999999999990905
 20
-837.0394877578627302
 30
0.0
 11
7997.0394877578628439
 21
-755.0
 31
0.0
1001
ACAD
1010
0.0
1020
0.0
1030
0.0
1001
ACDBBLOCKREPETAG
1070
     1
1071
       16
1005
148F42
  0
LINE
  5
148F43
  8
SLIM
 10
7915.2836007495579906
 20
-854.7163992504422367
 30
0.0
 11
8015.0
 21
-755.0
 31
0.0
1001
ACAD
1010
0.0
1020
0.0
1030
0.0
1001
ACDBBLOCKREPETAG
1070
     1
1071
       17
1005
148F43
  0
LINE
  5
148F44
  8
SLIM
 10
7917.4979104780422858
 20
-870.462601764097144
 30
0.0
 11
8032.9605122421389751
 21
-755.0
 31
0.0
1001
ACAD
1010
0.0
1020
0.0
1030
0.0
1001
ACDBBLOCKREPETAG
1070
     1
1071
       18
1005
148F44
  0
LINE
  5
148F45
  8
SLIM
 10
7919.7122202065256715
 20
-886.2088042777527335
 30
0.0
 11
8050.9210244842779503
 21
-755.0
 31
0.0
1001
ACAD
1010
0.0
1020
0.0
1030
0.0
1001
ACDBBLOCKREPETAG
1070
     1
1071
       19
1005
148F45
  0
LINE
  5
148F46
  8
SLIM
 10
7921.9265299350072382
 20
-901.9550067914076408
 30
0.0
 11
8068.8815367264132874
 21
-755.0
 31
0.0
1001
ACAD
1010
0.0
1020
0.0
1030
0.0
1001
ACDBBLOCKREPETAG
1070
     1
1071
       20
1005
148F46
  0
LINE
  5
148F47
  8
SLIM
 10
7924.1408396634878955
 20
-917.7012093050633439
 30
0.0
 11
8085.0000000000063665
 21
-756.8420489685461234
 31
0.0
1001
ACAD
1010
0.0
1020
0.0
1030
0.0
1001
ACDBBLOCKREPETAG
1070
     1
1071
       21
1005
148F47
  0
LINE
  5
148F48
  8
SLIM
 10
7926.3551493919731001
 20
-933.4474118187183649
 30
0.0
 11
8085.0000000000063665
 21
-774.8025612106854396
 31
0.0
1001
ACAD
1010
0.0
1020
0.0
1030
0.0
1001
ACDBBLOCKREPETAG
1070
     1
1071
       22
1005
148F48
  0
LINE
  5
148F49
  8
SLIM
 10
7928.5694591204537574
 20
-949.1936143323734996
 30
0.0
 11
8085.0000000000063665
 21
-792.7630734528255516
 31
0.0
1001
ACAD
1010
0.0
1020
0.0
1030
0.0
1001
ACDBBLOCKREPETAG
1070
     1
1071
       23
1005
148F49
  0
LINE
  5
148F4A
  8
SLIM
 10
7930.783768848940781
 20
-964.9398168460287479
 30
0.0
 11
8085.000000000001819
 21
-810.7235856949650952
 31
0.0
1001
ACAD
1010
0.0
1020
0.0
1030
0.0
1001
ACDBBLOCKREPETAG
1070
     1
1071
       24
1005
148F4A
  0
LINE
  5
148F4B
  8
SLIM
 10
7932.9980785774241667
 20
-980.6860193596842237
 30
0.0
 11
8085.000000000001819
 21
-828.6840979371046387
 31
0.0
1001
ACAD
1010
0.0
1020
0.0
1030
0.0
1001
ACDBBLOCKREPETAG
1070
     1
1071
       25
1005
148F4B
  0
LINE
  5
148F4C
  8
SLIM
 10
7943.0
 20
-988.6446101792444097
 30
0.0
 11
7946.6446101792453192
 21
-984.9999999999980673
 31
0.0
1001
ACAD
1010
0.0
1020
0.0
1030
0.0
1001
ACDBBLOCKREPETAG
1070
     1
1071
       26
1005
148F4C
  0
LINE
  5
148F4D
  8
SLIM
 10
7946.6446101792453192
 20
-984.9999999999980673
 30
0.0
 11
8085.0
 21
-846.6446101792441823
 31
0.0
1001
ACAD
1010
0.0
1020
0.0
1030
0.0
1001
ACDBBLOCKREPETAG
1070
     1
1071
       27
1005
148F4D
  0
LINE
  5
148F4E
  8
SLIM
 10
7944.6051224213861133
 20
-1004.9999999999979536
 30
0.0
 11
7964.6051224213861133
 21
-984.9999999999980673
 31
0.0
1001
ACAD
1010
0.0
1020
0.0
1030
0.0
1001
ACDBBLOCKREPETAG
1070
     1
1071
       28
1005
148F4E
  0
LINE
  5
148F4F
  8
SLIM
 10
7964.6051224213861133
 20
-984.9999999999980673
 30
0.0
 11
8083.051837154363966
 21
-866.5532852670175998
 31
0.0
1001
ACAD
1010
0.0
1020
0.0
1030
0.0
1001
ACDBBLOCKREPETAG
1070
     1
1071
       29
1005
148F4F
  0
LINE
  5
148F50
  8
SLIM
 10
7962.5656346635241789
 20
-1004.9999999999979536
 30
0.0
 11
7982.5656346635214504
 21
-984.9999999999980673
 31
0.0
1001
ACAD
1010
0.0
1020
0.0
1030
0.0
1001
ACDBBLOCKREPETAG
1070
     1
1071
       30
1005
148F50
  0
LINE
  5
148F51
  8
SLIM
 10
7982.5656346635214504
 20
-984.9999999999980673
 30
0.0
 11
8080.1128442420158535
 21
-887.4527904215054832
 31
0.0
1001
ACAD
1010
0.0
1020
0.0
1030
0.0
1001
ACDBBLOCKREPETAG
1070
     1
1071
       31
1005
148F51
  0
LINE
  5
148F52
  8
SLIM
 10
7980.526146905663154
 20
-1004.9999999999979536
 30
0.0
 11
8000.526146905661335
 21
-984.9999999999980673
 31
0.0
1001
ACAD
1010
0.0
1020
0.0
1030
0.0
1001
ACDBBLOCKREPETAG
1070
     1
1071
       32
1005
148F52
  0
LINE
  5
148F53
  8
SLIM
 10
8000.526146905661335
 20
-984.9999999999980673
 30
0.0
 11
8077.1738513296659221
 21
-908.3522955759934803
 31
0.0
1001
ACAD
1010
0.0
1020
0.0
1030
0.0
1001
ACDBBLOCKREPETAG
1070
     1
1071
       33
1005
148F53
  0
LINE
  5
148F54
  8
SLIM
 10
7998.4866591478003102
 20
-1004.9999999999979536
 30
0.0
 11
8018.4866591478003102
 21
-984.9999999999980673
 31
0.0
1001
ACAD
1010
0.0
1020
0.0
1030
0.0
1001
ACDBBLOCKREPETAG
1070
     1
1071
       34
1005
148F54
  0
LINE
  5
148F55
  8
SLIM
 10
8018.4866591478003102
 20
-984.9999999999980673
 30
0.0
 11
8074.2348584173178097
 21
-929.2518007304814773
 31
0.0
1001
ACAD
1010
0.0
1020
0.0
1030
0.0
1001
ACDBBLOCKREPETAG
1070
     1
1071
       35
1005
148F55
  0
LINE
  5
148F56
  8
SLIM
 10
8016.4471713899392853
 20
-1004.9999999999979536
 30
0.0
 11
8036.4471713899392853
 21
-984.9999999999980673
 31
0.0
1001
ACAD
1010
0.0
1020
0.0
1030
0.0
1001
ACDBBLOCKREPETAG
1070
     1
1071
       36
1005
148F56
  0
LINE
  5
148F57
  8
SLIM
 10
8036.4471713899392853
 20
-984.9999999999980673
 30
0.0
 11
8071.2958655049660592
 21
-950.1513058849693607
 31
0.0
1001
ACAD
1010
0.0
1020
0.0
1030
0.0
1001
ACDBBLOCKREPETAG
1070
     1
1071
       37
1005
148F57
  0
LINE
  5
148F58
  8
SLIM
 10
8034.4076836320782604
 20
-1004.9999999999979536
 30
0.0
 11
8054.4076836320764414
 21
-984.9999999999980673
 31
0.0
1001
ACAD
1010
0.0
1020
0.0
1030
0.0
1001
ACDBBLOCKREPETAG
1070
     1
1071
       38
1005
148F58
  0
LINE
  5
148F59
  8
SLIM
 10
8054.4076836320764414
 20
-984.9999999999980673
 30
0.0
 11
8068.3568725926197658
 21
-971.0508110394576988
 31
0.0
1001
ACAD
1010
0.0
1020
0.0
1030
0.0
1001
ACDBBLOCKREPETAG
1070
     1
1071
       39
1005
148F59
  0
LINE
  5
148F5A
  8
SLIM
 10
8052.3681958742135976
 20
-1004.9999999999979536
 30
0.0
 11
8057.0
 21
-1000.3681958742130291
 31
0.0
1001
ACAD
1010
0.0
1020
0.0
1030
0.0
1001
ACDBBLOCKREPETAG
1070
     1
1071
       40
1005
148F5A
  0
LINE
  5
148F5B
  8
OBJECT
 10
7943.0
 20
-1004.9999999999979536
 30
0.0
 11
8057.0
 21
-1004.9999999999979536
 31
0.0
1001
ACDBBLOCKREPETAG
1070
     1
1071
        1
1005
148F5B
  0
LINE
  5
148F5C
  8
OBJECT
 10
7933.6047321049663879
 20
-984.9999999999980673
 30
0.0
 11
8066.3952678950390691
 21
-984.9999999999980673
 31
0.0
1001
ACDBBLOCKREPETAG
1070
     1
1071
        2
1005
148F5C
  0
LINE
  5
148F5D
  8
OBJECT
 10
7943.0
 20
-1004.9999999999979536
 30
0.0
 11
7943.0
 21
-984.9999999999980673
 31
0.0
1001
ACDBBLOCKREPETAG
1070
     1
1071
        3
1005
148F5D
  0
LINE
  5
148F5E
  8
OBJECT
 10
8057.0
 20
-1004.9999999999979536
 30
0.0
 11
8057.0
 21
-984.9999999999980673
 31
0.0
1001
ACDBBLOCKREPETAG
1070
     1
1071
        4
1005
148F5E
  0
LINE
  5
148F5F
  8
OBJECT
 10
7914.9999999999909051
 20
-755.0
 30
0.0
 11
7915.0
 21
-852.69968280914145
 31
0.0
1001
ACDBBLOCKREPETAG
1070
     1
1071
        5
1005
148F5F
  0
LINE
  5
148F60
  8
OBJECT
 10
8085.0000000000063665
 20
-755.0
 30
0.0
 11
8085.0
 21
-852.6996828091721454
 31
0.0
1001
ACDBBLOCKREPETAG
1070
     1
1071
        6
1005
148F60
  0
LINE
  5
148F61
  8
OBJECT
 10
7915.0
 20
-852.69968280914145
 30
0.0
 11
7933.6047321049663879
 21
-984.9999999999980673
 31
0.0
1001
ACDBBLOCKREPETAG
1070
     1
1071
        7
1005
148F61
  0
LINE
  5
148F62
  8
OBJECT
 10
8066.3952678950390691
 20
-984.9999999999980673
 30
0.0
 11
8085.0
 21
-852.6996828091721454
 31
0.0
1001
ACDBBLOCKREPETAG
1070
     1
1071
        8
1005
148F62
  0
LINE
  5
148F63
  8
OBJECT
 10
8085.0000000000063665
 20
-755.0
 30
0.0
 11
7914.9999999999909051
 21
-755.0
 31
0.0
1001
ACDBBLOCKREPETAG
1070
     1
1071
        9
1005
148F63
  0
TEXT
  5
148F64
  8
SLIM
 10
1837.75
 20
282.5000000000001137
 30
0.0
 40
35.0
  1
（枝管サイズ毎に寸法が異なります。管底の位置は全サイズで同じです）
 41
0.75
  0
TEXT
  5
148F65
  8
SLIM
 10
1850.0
 20
532.5
 30
0.0
 40
75.0
  1
側面図の代表機種
 41
0.75
  0
TEXT
  5
148F66
  8
SLIM
 10
1850.0
 20
369.9999999999998863
 30
0.0
 40
100.0
  1
4SL-JL3
 41
0.75
  0
TEXT
  5
148F67
  8
SLIM
 10
0.0
 20
670.0
 30
0.0
 40
100.0
  1
4SL-JLX-S
 41
0.75
  0
TEXT
  5
148F68
  8
SLIM
 10
0.0
 20
520.0
 30
0.0
 40
100.0
  1
4SL-JLX-W
 41
0.75
  0
LINE
  5
148F69
  8
OBJECT
 10
12085.9999999999909051
 20
-1103.9999999999990905
 30
0.0
 11
12085.9999999999909051
 21
-1113.9999999999990905
 31
0.0
1001
ACDBBLOCKREPETAG
1070
     1
1071
      121
1005
148F69
  0
LINE
  5
148F6A
  8
OBJECT
 10
12069.9999999999909051
 20
-1103.9999999999990905
 30
0.0
 11
12069.9999999999909051
 21
-1113.9999999999990905
 31
0.0
1001
ACDBBLOCKREPETAG
1070
     1
1071
      122
1005
148F6A
  0
LINE
  5
148F6B
  8
OBJECT
 10
12085.9999999999909051
 20
-1113.9999999999990905
 30
0.0
 11
12069.9999999999909051
 21
-1113.9999999999990905
 31
0.0
1001
ACDBBLOCKREPETAG
1070
     1
1071
      123
1005
148F6B
  0
LINE
  5
148F6C
  8
OBJECT
 10
12090.0
 20
-1064.9999999999959073
 30
0.0
 11
11924.0
 21
-1064.9999999999959073
 31
0.0
1001
ACDBBLOCKREPETAG
1070
     1
1071
      124
1005
148F6C
  0
LINE
  5
148F6D
  8
OBJECT
 10
12090.0
 20
-1079.9999999999990905
 30
0.0
 11
12090.0
 21
-1064.9999999999959073
 31
0.0
1001
ACDBBLOCKREPETAG
1070
     1
1071
      125
1005
148F6D
  0
LINE
  5
148F6E
  8
OBJECT
 10
11924.0
 20
-1079.9999999999990905
 30
0.0
 11
12090.0
 21
-1079.9999999999990905
 31
0.0
1001
ACDBBLOCKREPETAG
1070
     1
1071
      126
1005
148F6E
  0
LINE
  5
148F6F
  8
OBJECT
 10
12067.4999999999799911
 20
-1079.9999999999990905
 30
0.0
 11
12067.4999999999799911
 21
-1089.9999999999990905
 31
0.0
1001
ACDBBLOCKREPETAG
1070
     1
1071
      127
1005
148F6F
  0
LINE
  5
148F70
  8
OBJECT
 10
12072.9999999999909051
 20
-1089.9999999999990905
 30
0.0
 11
12072.9999999999909051
 21
-1079.9999999999990905
 31
0.0
1001
ACDBBLOCKREPETAG
1070
     1
1071
      128
1005
148F70
  0
LINE
  5
148F71
  8
OBJECT
 10
12082.9999999999909051
 20
-1089.9999999999990905
 30
0.0
 11
12082.9999999999909051
 21
-1079.9999999999990905
 31
0.0
1001
ACDBBLOCKREPETAG
1070
     1
1071
      129
1005
148F71
  0
LINE
  5
148F72
  8
OBJECT
 10
11924.0
 20
-1089.9999999999990905
 30
0.0
 11
11924.0
 21
-1103.9999999999959073
 31
0.0
1001
ACDBBLOCKREPETAG
1070
     1
1071
      130
1005
148F72
  0
LINE
  5
148F73
  8
OBJECT
 10
12090.0
 20
-1089.9999999999990905
 30
0.0
 11
12090.0
 21
-1103.9999999999959073
 31
0.0
1001
ACDBBLOCKREPETAG
1070
     1
1071
      131
1005
148F73
  0
LINE
  5
148F74
  8
OBJECT
 10
11924.0
 20
-1103.9999999999959073
 30
0.0
 11
12090.0
 21
-1103.9999999999959073
 31
0.0
1001
ACDBBLOCKREPETAG
1070
     1
1071
      132
1005
148F74
  0
LINE
  5
148F75
  8
OBJECT
 10
11924.0
 20
-1089.9999999999990905
 30
0.0
 11
12090.0
 21
-1089.9999999999990905
 31
0.0
1001
ACDBBLOCKREPETAG
1070
     1
1071
      133
1005
148F75
  0
LINE
  5
148F76
  8
OBJECT
 10
11932.4999999999799911
 20
-1079.9999999999990905
 30
0.0
 11
11932.4999999999799911
 21
-1089.9999999999990905
 31
0.0
1001
ACDBBLOCKREPETAG
1070
     1
1071
      134
1005
148F76
  0
LINE
  5
148F77
  8
OBJECT
 10
11934.0
 20
-1028.9999999999959073
 30
0.0
 11
12065.9999999999909051
 21
-1028.9999999999959073
 31
0.0
1001
ACDBBLOCKREPETAG
1070
     1
1071
      135
1005
148F77
  0
LINE
  5
148F78
  8
OBJECT
 10
11924.0
 20
-1079.9999999999990905
 30
0.0
 11
11924.0
 21
-1064.9999999999959073
 31
0.0
1001
ACDBBLOCKREPETAG
1070
     1
1071
      136
1005
148F78
  0
LINE
  5
148F79
  8
HIDDEN
 10
11943.0
 20
-1039.9999999999990905
 30
0.0
 11
12057.0
 21
-1039.9999999999990905
 31
0.0
1001
ACDBBLOCKREPETAG
1070
     1
1071
      137
1005
148F79
  0
LINE
  5
148F7A
  8
OBJECT
 10
12086.9999999999909051
 20
-1063.2000000000000455
 30
0.0
 11
12086.9999999999909051
 21
-1064.9999999999990905
 31
0.0
1001
ACDBBLOCKREPETAG
1070
     1
1071
      138
1005
148F7A
  0
LINE
  5
148F7B
  8
OBJECT
 10
12068.9999999999909051
 20
-1063.2000000000000455
 30
0.0
 11
12068.9999999999909051
 21
-1064.9999999999990905
 31
0.0
1001
ACDBBLOCKREPETAG
1070
     1
1071
      139
1005
148F7B
  0
LINE
  5
148F7C
  8
OBJECT
 10
12072.2499999999909051
 20
-1053.4999999999990905
 30
0.0
 11
12083.7499999999909051
 21
-1053.4999999999990905
 31
0.0
1001
ACDBBLOCKREPETAG
1070
     1
1071
      140
1005
148F7C
  0
LINE
  5
148F7D
  8
OBJECT
 10
12072.2499999999909051
 20
-1053.4999999999990905
 30
0.0
 11
12072.2499999999909051
 21
-1063.2000000000000455
 31
0.0
1001
ACDBBLOCKREPETAG
1070
     1
1071
      141
1005
148F7D
  0
LINE
  5
148F7E
  8
OBJECT
 10
12083.7499999999909051
 20
-1053.4999999999990905
 30
0.0
 11
12083.7499999999909051
 21
-1063.2000000000000455
 31
0.0
1001
ACDBBLOCKREPETAG
1070
     1
1071
      142
1005
148F7E
  0
LINE
  5
148F7F
  8
OBJECT
 10
11931.9999999999799911
 20
-1144.9999999999990905
 30
0.0
 11
12067.9999999999799911
 21
-1144.9999999999990905
 31
0.0
1001
ACDBBLOCKREPETAG
1070
     1
1071
      143
1005
148F7F
  0
LINE
  5
148F80
  8
OBJECT
 10
11931.9999999999799911
 20
-1144.9999999999990905
 30
0.0
 11
11931.9999999999799911
 21
-1103.9999999999990905
 31
0.0
1001
ACDBBLOCKREPETAG
1070
     1
1071
      144
1005
148F80
  0
LINE
  5
148F81
  8
OBJECT
 10
12067.9999999999799911
 20
-1144.9999999999990905
 30
0.0
 11
12067.9999999999799911
 21
-1103.9999999999990905
 31
0.0
1001
ACDBBLOCKREPETAG
1070
     1
1071
      145
1005
148F81
  0
LINE
  5
148F82
  8
OBJECT
 10
12086.9999999999909051
 20
-1063.2000000000000455
 30
0.0
 11
12068.9999999999909051
 21
-1063.2000000000000455
 31
0.0
1001
ACDBBLOCKREPETAG
1070
     1
1071
      146
1005
148F82
  0
LINE
  5
148F83
  8
CENTER
 10
12000.0
 20
-769.9999999999994316
 30
0.0
 11
12000.0
 21
-1159.9999999999990905
 31
0.0
1001
ACDBBLOCKREPETAG
1070
     1
1071
      147
1005
148F83
  0
LINE
  5
148F84
  8
OBJECT
 10
11925.0
 20
-769.9999999999994316
 30
0.0
 11
11925.0
 21
-851.9999999999957936
 31
0.0
1001
ACDBBLOCKREPETAG
1070
     1
1071
      148
1005
148F84
  0
LINE
  5
148F85
  8
OBJECT
 10
12075.0
 20
-769.9999999999994316
 30
0.0
 11
12075.0
 21
-851.9999999999922693
 31
0.0
1001
ACDBBLOCKREPETAG
1070
     1
1071
      149
1005
148F85
  0
LINE
  5
148F86
  8
OBJECT
 10
11925.0
 20
-851.9999999999957936
 30
0.0
 11
12075.0
 21
-851.9999999999922693
 31
0.0
1001
ACDBBLOCKREPETAG
1070
     1
1071
      150
1005
148F86
  0
LINE
  5
148F87
  8
OBJECT
 10
11943.0
 20
-1028.9999999999959073
 30
0.0
 11
11943.0
 21
-979.9999999999920419
 31
0.0
1001
ACDBBLOCKREPETAG
1070
     1
1071
      151
1005
148F87
  0
LINE
  5
148F88
  8
OBJECT
 10
12057.0
 20
-979.9999999999920419
 30
0.0
 11
11943.0
 21
-979.9999999999920419
 31
0.0
1001
ACDBBLOCKREPETAG
1070
     1
1071
      152
1005
148F88
  0
LINE
  5
148F89
  8
OBJECT
 10
12057.0
 20
-979.9999999999920419
 30
0.0
 11
12057.0
 21
-1028.9999999999959073
 31
0.0
1001
ACDBBLOCKREPETAG
1070
     1
1071
      153
1005
148F89
  0
LINE
  5
148F8A
  8
OBJECT
 10
11925.0
 20
-851.9999999999957936
 30
0.0
 11
11943.0
 21
-979.9999999999920419
 31
0.0
1001
ACDBBLOCKREPETAG
1070
     1
1071
      154
1005
148F8A
  0
LINE
  5
148F8B
  8
OBJECT
 10
12057.0
 20
-979.9999999999920419
 30
0.0
 11
12075.0
 21
-851.9999999999922693
 31
0.0
1001
ACDBBLOCKREPETAG
1070
     1
1071
      155
1005
148F8B
  0
LINE
  5
148F8C
  8
OBJECT
 10
11934.0
 20
-1064.9999999999959073
 30
0.0
 11
11934.0
 21
-1028.9999999999959073
 31
0.0
1001
ACDBBLOCKREPETAG
1070
     1
1071
      156
1005
148F8C
  0
LINE
  5
148F8D
  8
OBJECT
 10
12066.0
 20
-1064.9999999999959073
 30
0.0
 11
12065.9999999999909051
 21
-1028.9999999999959073
 31
0.0
1001
ACDBBLOCKREPETAG
1070
     1
1071
      157
1005
148F8D
  0
LINE
  5
148F8E
  8
OBJECT
 10
11954.75
 20
-1054.6999999999929969
 30
0.0
 11
11967.25
 21
-1054.6999999999929969
 31
0.0
1001
ACDBBLOCKREPETAG
1070
     1
1071
      158
1005
148F8E
  0
LINE
  5
148F8F
  8
OBJECT
 10
11946.0
 20
-1064.9999999999959073
 30
0.0
 11
11946.0
 21
-1062.6999999999959527
 31
0.0
1001
ACDBBLOCKREPETAG
1070
     1
1071
      159
1005
148F8F
  0
LINE
  5
148F90
  8
OBJECT
 10
11976.0
 20
-1064.9999999999959073
 30
0.0
 11
11976.0
 21
-1062.6999999999959527
 31
0.0
1001
ACDBBLOCKREPETAG
1070
     1
1071
      160
1005
148F90
  0
LINE
  5
148F91
  8
OBJECT
 10
11954.75
 20
-1054.6999999999929969
 30
0.0
 11
11954.75
 21
-1062.6999999999959527
 31
0.0
1001
ACDBBLOCKREPETAG
1070
     1
1071
      161
1005
148F91
  0
LINE
  5
148F92
  8
OBJECT
 10
11967.25
 20
-1054.6999999999929969
 30
0.0
 11
11967.25
 21
-1062.6999999999959527
 31
0.0
1001
ACDBBLOCKREPETAG
1070
     1
1071
      162
1005
148F92
  0
LINE
  5
148F93
  8
OBJECT
 10
11946.0
 20
-1062.6999999999959527
 30
0.0
 11
11976.0
 21
-1062.6999999999959527
 31
0.0
1001
ACDBBLOCKREPETAG
1070
     1
1071
      163
1005
148F93
  0
LINE
  5
148F94
  8
OBJECT
 10
11953.0
 20
-1103.9999999999959073
 30
0.0
 11
11953.0
 21
-1113.9999999999959073
 31
0.0
1001
ACDBBLOCKREPETAG
1070
     1
1071
      164
1005
148F94
  0
LINE
  5
148F95
  8
OBJECT
 10
11969.0
 20
-1103.9999999999959073
 30
0.0
 11
11969.0
 21
-1113.9999999999959073
 31
0.0
1001
ACDBBLOCKREPETAG
1070
     1
1071
      165
1005
148F95
  0
LINE
  5
148F96
  8
OBJECT
 10
11953.0
 20
-1113.9999999999959073
 30
0.0
 11
11969.0
 21
-1113.9999999999959073
 31
0.0
1001
ACDBBLOCKREPETAG
1070
     1
1071
      166
1005
148F96
  0
LINE
  5
148F97
  8
OBJECT
 10
11966.0
 20
-1089.9999999999959073
 30
0.0
 11
11966.0
 21
-1079.9999999999959073
 31
0.0
1001
ACDBBLOCKREPETAG
1070
     1
1071
      167
1005
148F97
  0
LINE
  5
148F98
  8
OBJECT
 10
11956.0
 20
-1089.9999999999959073
 30
0.0
 11
11956.0
 21
-1079.9999999999959073
 31
0.0
1001
ACDBBLOCKREPETAG
1070
     1
1071
      168
1005
148F98
  0
LINE
  5
148F99
  8
OBJECT
 10
10090.0
 20
-1064.9999999999959073
 30
0.0
 11
9924.0
 21
-1064.9999999999959073
 31
0.0
1001
ACDBBLOCKREPETAG
1070
     1
1071
       12
1005
148F99
  0
LINE
  5
148F9A
  8
OBJECT
 10
10066.0
 20
-1028.9999999999959073
 30
0.0
 11
9934.0
 21
-1028.9999999999959073
 31
0.0
1001
ACDBBLOCKREPETAG
1070
     1
1071
       13
1005
148F9A
  0
LINE
  5
148F9B
  8
OBJECT
 10
10090.0
 20
-1080.0
 30
0.0
 11
10090.0
 21
-1064.9999999999959073
 31
0.0
1001
ACDBBLOCKREPETAG
1070
     1
1071
       14
1005
148F9B
  0
LINE
  5
148F9C
  8
OBJECT
 10
9924.0
 20
-1080.0
 30
0.0
 11
10090.0
 21
-1080.0
 31
0.0
1001
ACDBBLOCKREPETAG
1070
     1
1071
       15
1005
148F9C
  0
LINE
  5
148F9D
  8
OBJECT
 10
10067.4999999999799911
 20
-1080.0
 30
0.0
 11
10067.4999999999799911
 21
-1090.0
 31
0.0
1001
ACDBBLOCKREPETAG
1070
     1
1071
       16
1005
148F9D
  0
LINE
  5
148F9E
  8
OBJECT
 10
9924.0
 20
-1090.0
 30
0.0
 11
9924.0
 21
-1103.9999999999959073
 31
0.0
1001
ACDBBLOCKREPETAG
1070
     1
1071
       17
1005
148F9E
  0
LINE
  5
148F9F
  8
OBJECT
 10
10090.0
 20
-1090.0
 30
0.0
 11
10090.0
 21
-1103.9999999999959073
 31
0.0
1001
ACDBBLOCKREPETAG
1070
     1
1071
       18
1005
148F9F
  0
LINE
  5
148FA0
  8
OBJECT
 10
9924.0
 20
-1103.9999999999959073
 30
0.0
 11
10090.0
 21
-1103.9999999999959073
 31
0.0
1001
ACDBBLOCKREPETAG
1070
     1
1071
       19
1005
148FA0
  0
LINE
  5
148FA1
  8
OBJECT
 10
9924.0
 20
-1090.0
 30
0.0
 11
10090.0
 21
-1090.0
 31
0.0
1001
ACDBBLOCKREPETAG
1070
     1
1071
       20
1005
148FA1
  0
LINE
  5
148FA2
  8
OBJECT
 10
9932.4999999999836291
 20
-1080.0
 30
0.0
 11
9932.4999999999836291
 21
-1090.0
 31
0.0
1001
ACDBBLOCKREPETAG
1070
     1
1071
       21
1005
148FA2
  0
LINE
  5
148FA3
  8
OBJECT
 10
9924.0
 20
-1080.0
 30
0.0
 11
9924.0
 21
-1064.9999999999959073
 31
0.0
1001
ACDBBLOCKREPETAG
1070
     1
1071
       22
1005
148FA3
  0
LINE
  5
148FA4
  8
HIDDEN
 10
9943.0
 20
-1040.0
 30
0.0
 11
10057.0
 21
-1040.0
 31
0.0
1001
ACDBBLOCKREPETAG
1070
     1
1071
       23
1005
148FA4
  0
LINE
  5
148FA5
  8
CENTER
 10
10000.0
 20
-770.0
 30
0.0
 11
10000.0
 21
-1118.9999999999959073
 31
0.0
1001
ACDBBLOCKREPETAG
1070
     1
1071
       24
1005
148FA5
  0
LINE
  5
148FA6
  8
OBJECT
 10
9925.0
 20
-770.0
 30
0.0
 11
9925.0
 21
-851.999999999996362
 31
0.0
1001
ACDBBLOCKREPETAG
1070
     1
1071
       25
1005
148FA6
  0
LINE
  5
148FA7
  8
OBJECT
 10
10075.0
 20
-770.0
 30
0.0
 11
10075.0
 21
-851.9999999999926104
 31
0.0
1001
ACDBBLOCKREPETAG
1070
     1
1071
       26
1005
148FA7
  0
LINE
  5
148FA8
  8
OBJECT
 10
9925.0
 20
-851.999999999996362
 30
0.0
 11
10075.0
 21
-851.9999999999926104
 31
0.0
1001
ACDBBLOCKREPETAG
1070
     1
1071
       27
1005
148FA8
  0
LINE
  5
148FA9
  8
OBJECT
 10
10057.0
 20
-1028.9999999999959073
 30
0.0
 11
10057.0
 21
-979.999999999992724
 31
0.0
1001
ACDBBLOCKREPETAG
1070
     1
1071
       28
1005
148FA9
  0
LINE
  5
148FAA
  8
OBJECT
 10
9943.0
 20
-1028.9999999999959073
 30
0.0
 11
9943.0
 21
-979.999999999992724
 31
0.0
1001
ACDBBLOCKREPETAG
1070
     1
1071
       29
1005
148FAA
  0
LINE
  5
148FAB
  8
OBJECT
 10
10057.0
 20
-979.999999999992724
 30
0.0
 11
9943.0
 21
-979.999999999992724
 31
0.0
1001
ACDBBLOCKREPETAG
1070
     1
1071
       30
1005
148FAB
  0
LINE
  5
148FAC
  8
OBJECT
 10
9925.0
 20
-851.999999999996362
 30
0.0
 11
9943.0
 21
-979.999999999992724
 31
0.0
1001
ACDBBLOCKREPETAG
1070
     1
1071
       31
1005
148FAC
  0
LINE
  5
148FAD
  8
OBJECT
 10
10057.0
 20
-979.999999999992724
 30
0.0
 11
10075.0
 21
-851.9999999999926104
 31
0.0
1001
ACDBBLOCKREPETAG
1070
     1
1071
       32
1005
148FAD
  0
LINE
  5
148FAE
  8
OBJECT
 10
9934.0
 20
-1028.9999999999959073
 30
0.0
 11
9934.0
 21
-1064.9999999999959073
 31
0.0
1001
ACDBBLOCKREPETAG
1070
     1
1071
       33
1005
148FAE
  0
LINE
  5
148FAF
  8
OBJECT
 10
10066.0
 20
-1028.9999999999959073
 30
0.0
 11
10066.0
 21
-1064.9999999999959073
 31
0.0
1001
ACDBBLOCKREPETAG
1070
     1
1071
       34
1005
148FAF
  0
LINE
  5
148FB0
  8
OBJECT
 10
10082.9999999999909051
 20
-1089.9999999999959073
 30
0.0
 11
10082.9999999999909051
 21
-1079.9999999999959073
 31
0.0
1001
ACDBBLOCKREPETAG
1070
     1
1071
       35
1005
148FB0
  0
LINE
  5
148FB1
  8
OBJECT
 10
10072.9999999999909051
 20
-1089.9999999999959073
 30
0.0
 11
10072.9999999999909051
 21
-1079.9999999999959073
 31
0.0
1001
ACDBBLOCKREPETAG
1070
     1
1071
       36
1005
148FB1
  0
LINE
  5
148FB2
  8
OBJECT
 10
10068.9999999999799911
 20
-1059.9999999999959073
 30
0.0
 11
10068.9999999999799911
 21
-1064.9999999999959073
 31
0.0
1001
ACDBBLOCKREPETAG
1070
     1
1071
       37
1005
148FB2
  0
LINE
  5
148FB3
  8
OBJECT
 10
10087.0
 20
-1059.9999999999959073
 30
0.0
 11
10087.0
 21
-1064.9999999999959073
 31
0.0
1001
ACDBBLOCKREPETAG
1070
     1
1071
       38
1005
148FB3
  0
LINE
  5
148FB4
  8
OBJECT
 10
10087.0
 20
-1059.9999999999959073
 30
0.0
 11
10068.9999999999799911
 21
-1059.9999999999959073
 31
0.0
1001
ACDBBLOCKREPETAG
1070
     1
1071
       39
1005
148FB4
  0
LINE
  5
148FB5
  8
OBJECT
 10
10073.0
 20
-1111.9999999999959073
 30
0.0
 11
10073.0
 21
-1114.9999999999959073
 31
0.0
1001
ACDBBLOCKREPETAG
1070
     1
1071
       40
1005
148FB5
  0
LINE
  5
148FB6
  8
OBJECT
 10
10073.0
 20
-1114.9999999999959073
 30
0.0
 11
10083.0
 21
-1114.9999999999959073
 31
0.0
1001
ACDBBLOCKREPETAG
1070
     1
1071
       41
1005
148FB6
  0
LINE
  5
148FB7
  8
OBJECT
 10
10083.0
 20
-1114.9999999999959073
 30
0.0
 11
10083.0
 21
-1111.9999999999959073
 31
0.0
1001
ACDBBLOCKREPETAG
1070
     1
1071
       43
1005
148FB7
  0
LINE
  5
148FB8
  8
OBJECT
 10
9968.5
 20
-1059.9999999999959073
 30
0.0
 11
9951.9999999999909051
 21
-1059.9999999999959073
 31
0.0
1001
ACDBBLOCKREPETAG
1070
     1
1071
       48
1005
148FB8
  0
LINE
  5
148FB9
  8
OBJECT
 10
9976.0
 20
-1064.9999999999959073
 30
0.0
 11
9976.0
 21
-1062.9999999999959073
 31
0.0
1001
ACDBBLOCKREPETAG
1070
     1
1071
       49
1005
148FB9
  0
LINE
  5
148FBA
  8
OBJECT
 10
9966.0
 20
-1089.9999999999959073
 30
0.0
 11
9966.0
 21
-1079.9999999999959073
 31
0.0
1001
ACDBBLOCKREPETAG
1070
     1
1071
       50
1005
148FBA
  0
LINE
  5
148FBB
  8
OBJECT
 10
9956.0
 20
-1089.9999999999959073
 30
0.0
 11
9956.0
 21
-1079.9999999999959073
 31
0.0
1001
ACDBBLOCKREPETAG
1070
     1
1071
       51
1005
148FBB
  0
LINE
  5
148FBC
  8
OBJECT
 10
9951.9999999999909051
 20
-1059.9999999999959073
 30
0.0
 11
9951.9999999999909051
 21
-1064.9999999999959073
 31
0.0
1001
ACDBBLOCKREPETAG
1070
     1
1071
       52
1005
148FBC
  0
LINE
  5
148FBD
  8
OBJECT
 10
9956.0
 20
-1111.9999999999959073
 30
0.0
 11
9956.0
 21
-1114.9999999999959073
 31
0.0
1001
ACDBBLOCKREPETAG
1070
     1
1071
       53
1005
148FBD
  0
LINE
  5
148FBE
  8
OBJECT
 10
9956.0
 20
-1114.9999999999959073
 30
0.0
 11
9966.0
 21
-1114.9999999999959073
 31
0.0
1001
ACDBBLOCKREPETAG
1070
     1
1071
       54
1005
148FBE
  0
LINE
  5
148FBF
  8
OBJECT
 10
9951.1850454237774102
 20
-1111.9999999999959073
 30
0.0
 11
9970.8149545762171329
 21
-1111.9999999999959073
 31
0.0
1001
ACDBBLOCKREPETAG
1070
     1
1071
       55
1005
148FBF
  0
LINE
  5
148FC0
  8
OBJECT
 10
9966.0
 20
-1114.9999999999959073
 30
0.0
 11
9966.0
 21
-1111.9999999999959073
 31
0.0
1001
ACDBBLOCKREPETAG
1070
     1
1071
       56
1005
148FC0
  0
LINE
  5
148FC1
  8
OBJECT
 10
9976.0
 20
-1062.9999999999959073
 30
0.0
 11
9968.5
 21
-1059.9999999999959073
 31
0.0
1001
ACDBBLOCKREPETAG
1070
     1
1071
       57
1005
148FC1
  0
LINE
  5
148FC2
  8
OBJECT
 10
9951.1850454237774102
 20
-1103.9999999999959073
 30
0.0
 11
9951.1850454237774102
 21
-1111.9999999999959073
 31
0.0
1001
ACDBBLOCKREPETAG
1070
     1
1071
      630
1005
148FC2
  0
LINE
  5
148FC3
  8
OBJECT
 10
9956.0925227118896146
 20
-1103.9999999999959073
 30
0.0
 11
9956.0925227118896146
 21
-1111.9999999999959073
 31
0.0
1001
ACDBBLOCKREPETAG
1070
     1
1071
      631
1005
148FC3
  0
LINE
  5
148FC4
  8
OBJECT
 10
9965.9074772881122044
 20
-1103.9999999999959073
 30
0.0
 11
9965.9074772881122044
 21
-1111.9999999999959073
 31
0.0
1001
ACDBBLOCKREPETAG
1070
     1
1071
      632
1005
148FC4
  0
LINE
  5
148FC5
  8
OBJECT
 10
9970.8149545762244088
 20
-1103.9999999999959073
 30
0.0
 11
9970.8149545762244088
 21
-1111.9999999999959073
 31
0.0
1001
ACDBBLOCKREPETAG
1070
     1
1071
      633
1005
148FC5
  0
LINE
  5
148FC6
  8
OBJECT
 10
10068.1850454237701342
 20
-1111.9999999999959073
 30
0.0
 11
10087.8149545762207708
 21
-1111.9999999999959073
 31
0.0
1001
ACDBBLOCKREPETAG
1070
     1
1071
      634
1005
148FC6
  0
LINE
  5
148FC7
  8
OBJECT
 10
10068.1850454237701342
 20
-1103.9999999999959073
 30
0.0
 11
10068.1850454237701342
 21
-1111.9999999999959073
 31
0.0
1001
ACDBBLOCKREPETAG
1070
     1
1071
      635
1005
148FC7
  0
LINE
  5
148FC8
  8
OBJECT
 10
10073.0925227118896146
 20
-1103.9999999999959073
 30
0.0
 11
10073.0925227118896146
 21
-1111.9999999999959073
 31
0.0
1001
ACDBBLOCKREPETAG
1070
     1
1071
      636
1005
148FC8
  0
LINE
  5
148FC9
  8
OBJECT
 10
10082.9074772881103854
 20
-1103.9999999999959073
 30
0.0
 11
10082.9074772881103854
 21
-1111.9999999999959073
 31
0.0
1001
ACDBBLOCKREPETAG
1070
     1
1071
      637
1005
148FC9
  0
LINE
  5
148FCA
  8
OBJECT
 10
10087.8149545762207708
 20
-1103.9999999999959073
 30
0.0
 11
10087.8149545762207708
 21
-1111.9999999999959073
 31
0.0
1001
ACDBBLOCKREPETAG
1070
     1
1071
      638
1005
148FCA
  0
LINE
  5
148FCB
  8
OBJECT
 10
7943.0
 20
-1079.9999999999959073
 30
0.0
 11
8057.0
 21
-1079.9999999999959073
 31
0.0
1001
ACDBBLOCKREPETAG
1070
     1
1071
        0
1005
148FCB
  0
LINE
  5
148FCC
  8
OBJECT
 10
7943.0
 20
-1079.9999999999959073
 30
0.0
 11
7943.0
 21
-979.9999999999961346
 31
0.0
1001
ACDBBLOCKREPETAG
1070
     1
1071
        1
1005
148FCC
  0
LINE
  5
148FCD
  8
OBJECT
 10
8057.0
 20
-1079.9999999999959073
 30
0.0
 11
8057.0
 21
-979.9999999999961346
 31
0.0
1001
ACDBBLOCKREPETAG
1070
     1
1071
        2
1005
148FCD
  0
LINE
  5
148FCE
  8
OBJECT
 10
7943.0
 20
-979.9999999999961346
 30
0.0
 11
8057.0
 21
-979.9999999999961346
 31
0.0
1001
ACDBBLOCKREPETAG
1070
     1
1071
        3
1005
148FCE
  0
LINE
  5
148FCF
  8
HIDDEN
 10
7950.0
 20
-979.9999999999961346
 30
0.0
 11
7950.0
 21
-1079.9999999999959073
 31
0.0
1001
ACDBBLOCKREPETAG
1070
     1
1071
        4
1005
148FCF
  0
LINE
  5
148FD0
  8
HIDDEN
 10
8050.0
 20
-979.9999999999961346
 30
0.0
 11
8050.0
 21
-1079.9999999999959073
 31
0.0
1001
ACDBBLOCKREPETAG
1070
     1
1071
        5
1005
148FD0
  0
LINE
  5
148FD1
  8
CENTER
 10
8000.0
 20
-770.0
 30
0.0
 11
8000.0
 21
-1094.9999999999959073
 31
0.0
1001
ACDBBLOCKREPETAG
1070
     1
1071
        6
1005
148FD1
  0
LINE
  5
148FD2
  8
OBJECT
 10
7925.0
 20
-770.0
 30
0.0
 11
7925.0
 21
-851.999999999996362
 31
0.0
1001
ACDBBLOCKREPETAG
1070
     1
1071
        7
1005
148FD2
  0
LINE
  5
148FD3
  8
OBJECT
 10
8075.0
 20
-770.0
 30
0.0
 11
8075.0
 21
-851.999999999996362
 31
0.0
1001
ACDBBLOCKREPETAG
1070
     1
1071
        8
1005
148FD3
  0
LINE
  5
148FD4
  8
OBJECT
 10
7925.0
 20
-851.999999999996362
 30
0.0
 11
8075.0
 21
-851.999999999996362
 31
0.0
1001
ACDBBLOCKREPETAG
1070
     1
1071
        9
1005
148FD4
  0
LINE
  5
148FD5
  8
OBJECT
 10
7925.0
 20
-851.999999999996362
 30
0.0
 11
7943.0
 21
-979.9999999999961346
 31
0.0
1001
ACDBBLOCKREPETAG
1070
     1
1071
       10
1005
148FD5
  0
LINE
  5
148FD6
  8
OBJECT
 10
8057.0
 20
-979.9999999999961346
 30
0.0
 11
8075.0
 21
-851.999999999996362
 31
0.0
1001
ACDBBLOCKREPETAG
1070
     1
1071
       11
1005
148FD6
  0
LINE
  5
148FD7
  8
OBJECT
 10
6085.9999999999918145
 20
-1103.9999999999990905
 30
0.0
 11
6085.9999999999918145
 21
-1113.9999999999990905
 31
0.0
1001
ACDBBLOCKREPETAG
1070
     1
1071
      121
1005
148FD7
  0
LINE
  5
148FD8
  8
OBJECT
 10
6069.9999999999918145
 20
-1103.9999999999990905
 30
0.0
 11
6069.9999999999918145
 21
-1113.9999999999990905
 31
0.0
1001
ACDBBLOCKREPETAG
1070
     1
1071
      122
1005
148FD8
  0
LINE
  5
148FD9
  8
OBJECT
 10
6085.9999999999918145
 20
-1113.9999999999990905
 30
0.0
 11
6069.9999999999918145
 21
-1113.9999999999990905
 31
0.0
1001
ACDBBLOCKREPETAG
1070
     1
1071
      123
1005
148FD9
  0
LINE
  5
148FDA
  8
OBJECT
 10
6090.0
 20
-1064.9999999999959073
 30
0.0
 11
5924.0
 21
-1064.9999999999959073
 31
0.0
1001
ACDBBLOCKREPETAG
1070
     1
1071
      124
1005
148FDA
  0
LINE
  5
148FDB
  8
OBJECT
 10
6090.0
 20
-1079.9999999999990905
 30
0.0
 11
6090.0
 21
-1064.9999999999959073
 31
0.0
1001
ACDBBLOCKREPETAG
1070
     1
1071
      125
1005
148FDB
  0
LINE
  5
148FDC
  8
OBJECT
 10
5924.0
 20
-1079.9999999999990905
 30
0.0
 11
6090.0
 21
-1079.9999999999990905
 31
0.0
1001
ACDBBLOCKREPETAG
1070
     1
1071
      126
1005
148FDC
  0
LINE
  5
148FDD
  8
OBJECT
 10
6067.4999999999854481
 20
-1079.9999999999990905
 30
0.0
 11
6067.4999999999854481
 21
-1089.9999999999990905
 31
0.0
1001
ACDBBLOCKREPETAG
1070
     1
1071
      127
1005
148FDD
  0
LINE
  5
148FDE
  8
OBJECT
 10
6072.9999999999918145
 20
-1089.9999999999990905
 30
0.0
 11
6072.9999999999918145
 21
-1079.9999999999990905
 31
0.0
1001
ACDBBLOCKREPETAG
1070
     1
1071
      128
1005
148FDE
  0
LINE
  5
148FDF
  8
OBJECT
 10
6082.9999999999918145
 20
-1089.9999999999990905
 30
0.0
 11
6082.9999999999918145
 21
-1079.9999999999990905
 31
0.0
1001
ACDBBLOCKREPETAG
1070
     1
1071
      129
1005
148FDF
  0
LINE
  5
148FE0
  8
OBJECT
 10
5924.0
 20
-1089.9999999999990905
 30
0.0
 11
5924.0
 21
-1103.9999999999959073
 31
0.0
1001
ACDBBLOCKREPETAG
1070
     1
1071
      130
1005
148FE0
  0
LINE
  5
148FE1
  8
OBJECT
 10
6090.0
 20
-1089.9999999999990905
 30
0.0
 11
6090.0
 21
-1103.9999999999959073
 31
0.0
1001
ACDBBLOCKREPETAG
1070
     1
1071
      131
1005
148FE1
  0
LINE
  5
148FE2
  8
OBJECT
 10
5924.0
 20
-1103.9999999999959073
 30
0.0
 11
6090.0
 21
-1103.9999999999959073
 31
0.0
1001
ACDBBLOCKREPETAG
1070
     1
1071
      132
1005
148FE2
  0
LINE
  5
148FE3
  8
OBJECT
 10
5924.0
 20
-1089.9999999999990905
 30
0.0
 11
6090.0
 21
-1089.9999999999990905
 31
0.0
1001
ACDBBLOCKREPETAG
1070
     1
1071
      133
1005
148FE3
  0
LINE
  5
148FE4
  8
OBJECT
 10
5932.4999999999854481
 20
-1079.9999999999990905
 30
0.0
 11
5932.4999999999854481
 21
-1089.9999999999990905
 31
0.0
1001
ACDBBLOCKREPETAG
1070
     1
1071
      134
1005
148FE4
  0
LINE
  5
148FE5
  8
OBJECT
 10
5934.0
 20
-1028.9999999999959073
 30
0.0
 11
6065.9999999999909051
 21
-1028.9999999999959073
 31
0.0
1001
ACDBBLOCKREPETAG
1070
     1
1071
      135
1005
148FE5
  0
LINE
  5
148FE6
  8
OBJECT
 10
5924.0
 20
-1079.9999999999990905
 30
0.0
 11
5924.0
 21
-1064.9999999999959073
 31
0.0
1001
ACDBBLOCKREPETAG
1070
     1
1071
      136
1005
148FE6
  0
LINE
  5
148FE7
  8
HIDDEN
 10
5943.0
 20
-1039.9999999999990905
 30
0.0
 11
6057.0
 21
-1039.9999999999990905
 31
0.0
1001
ACDBBLOCKREPETAG
1070
     1
1071
      137
1005
148FE7
  0
LINE
  5
148FE8
  8
OBJECT
 10
6086.9999999999918145
 20
-1063.2000000000000455
 30
0.0
 11
6086.9999999999918145
 21
-1064.9999999999990905
 31
0.0
1001
ACDBBLOCKREPETAG
1070
     1
1071
      138
1005
148FE8
  0
LINE
  5
148FE9
  8
OBJECT
 10
6068.9999999999909051
 20
-1063.2000000000000455
 30
0.0
 11
6068.9999999999909051
 21
-1064.9999999999990905
 31
0.0
1001
ACDBBLOCKREPETAG
1070
     1
1071
      139
1005
148FE9
  0
LINE
  5
148FEA
  8
OBJECT
 10
6072.2499999999918145
 20
-1053.4999999999990905
 30
0.0
 11
6083.7499999999918145
 21
-1053.4999999999990905
 31
0.0
1001
ACDBBLOCKREPETAG
1070
     1
1071
      140
1005
148FEA
  0
LINE
  5
148FEB
  8
OBJECT
 10
6072.2499999999918145
 20
-1053.4999999999990905
 30
0.0
 11
6072.2499999999918145
 21
-1063.2000000000000455
 31
0.0
1001
ACDBBLOCKREPETAG
1070
     1
1071
      141
1005
148FEB
  0
LINE
  5
148FEC
  8
OBJECT
 10
6083.7499999999918145
 20
-1053.4999999999990905
 30
0.0
 11
6083.7499999999918145
 21
-1063.2000000000000455
 31
0.0
1001
ACDBBLOCKREPETAG
1070
     1
1071
      142
1005
148FEC
  0
LINE
  5
148FED
  8
OBJECT
 10
5931.9999999999863576
 20
-1144.9999999999990905
 30
0.0
 11
6067.9999999999863576
 21
-1144.9999999999990905
 31
0.0
1001
ACDBBLOCKREPETAG
1070
     1
1071
      143
1005
148FED
  0
LINE
  5
148FEE
  8
OBJECT
 10
5931.9999999999863576
 20
-1144.9999999999990905
 30
0.0
 11
5931.9999999999863576
 21
-1103.9999999999990905
 31
0.0
1001
ACDBBLOCKREPETAG
1070
     1
1071
      144
1005
148FEE
  0
LINE
  5
148FEF
  8
OBJECT
 10
6067.9999999999863576
 20
-1144.9999999999990905
 30
0.0
 11
6067.9999999999863576
 21
-1103.9999999999990905
 31
0.0
1001
ACDBBLOCKREPETAG
1070
     1
1071
      145
1005
148FEF
  0
LINE
  5
148FF0
  8
OBJECT
 10
6086.9999999999918145
 20
-1063.2000000000000455
 30
0.0
 11
6068.9999999999909051
 21
-1063.2000000000000455
 31
0.0
1001
ACDBBLOCKREPETAG
1070
     1
1071
      146
1005
148FF0
  0
LINE
  5
148FF1
  8
CENTER
 10
6000.0
 20
-769.9999999999994316
 30
0.0
 11
6000.0
 21
-1159.9999999999990905
 31
0.0
1001
ACDBBLOCKREPETAG
1070
     1
1071
      147
1005
148FF1
  0
LINE
  5
148FF2
  8
OBJECT
 10
5925.0
 20
-769.9999999999994316
 30
0.0
 11
5925.0
 21
-851.9999999999957936
 31
0.0
1001
ACDBBLOCKREPETAG
1070
     1
1071
      148
1005
148FF2
  0
LINE
  5
148FF3
  8
OBJECT
 10
6075.0
 20
-769.9999999999994316
 30
0.0
 11
6075.0
 21
-851.9999999999922693
 31
0.0
1001
ACDBBLOCKREPETAG
1070
     1
1071
      149
1005
148FF3
  0
LINE
  5
148FF4
  8
OBJECT
 10
5925.0
 20
-851.9999999999957936
 30
0.0
 11
6075.0
 21
-851.9999999999922693
 31
0.0
1001
ACDBBLOCKREPETAG
1070
     1
1071
      150
1005
148FF4
  0
LINE
  5
148FF5
  8
OBJECT
 10
5943.0
 20
-1028.9999999999959073
 30
0.0
 11
5943.0
 21
-979.9999999999920419
 31
0.0
1001
ACDBBLOCKREPETAG
1070
     1
1071
      151
1005
148FF5
  0
LINE
  5
148FF6
  8
OBJECT
 10
6057.0
 20
-979.9999999999920419
 30
0.0
 11
5943.0
 21
-979.9999999999920419
 31
0.0
1001
ACDBBLOCKREPETAG
1070
     1
1071
      152
1005
148FF6
  0
LINE
  5
148FF7
  8
OBJECT
 10
6057.0
 20
-979.9999999999920419
 30
0.0
 11
6057.0
 21
-1028.9999999999959073
 31
0.0
1001
ACDBBLOCKREPETAG
1070
     1
1071
      153
1005
148FF7
  0
LINE
  5
148FF8
  8
OBJECT
 10
5925.0
 20
-851.9999999999957936
 30
0.0
 11
5943.0
 21
-979.9999999999920419
 31
0.0
1001
ACDBBLOCKREPETAG
1070
     1
1071
      154
1005
148FF8
  0
LINE
  5
148FF9
  8
OBJECT
 10
6057.0
 20
-979.9999999999920419
 30
0.0
 11
6075.0
 21
-851.9999999999922693
 31
0.0
1001
ACDBBLOCKREPETAG
1070
     1
1071
      155
1005
148FF9
  0
LINE
  5
148FFA
  8
OBJECT
 10
5934.0
 20
-1064.9999999999959073
 30
0.0
 11
5934.0
 21
-1028.9999999999959073
 31
0.0
1001
ACDBBLOCKREPETAG
1070
     1
1071
      156
1005
148FFA
  0
LINE
  5
148FFB
  8
OBJECT
 10
6066.0
 20
-1064.9999999999959073
 30
0.0
 11
6065.9999999999909051
 21
-1028.9999999999959073
 31
0.0
1001
ACDBBLOCKREPETAG
1070
     1
1071
      157
1005
148FFB
  0
LINE
  5
148FFC
  8
OBJECT
 10
5954.75
 20
-1054.6999999999929969
 30
0.0
 11
5967.2499999999990905
 21
-1054.6999999999929969
 31
0.0
1001
ACDBBLOCKREPETAG
1070
     1
1071
      158
1005
148FFC
  0
LINE
  5
148FFD
  8
OBJECT
 10
5946.0
 20
-1064.9999999999959073
 30
0.0
 11
5946.0
 21
-1062.6999999999959527
 31
0.0
1001
ACDBBLOCKREPETAG
1070
     1
1071
      159
1005
148FFD
  0
LINE
  5
148FFE
  8
OBJECT
 10
5976.0
 20
-1064.9999999999959073
 30
0.0
 11
5976.0
 21
-1062.6999999999959527
 31
0.0
1001
ACDBBLOCKREPETAG
1070
     1
1071
      160
1005
148FFE
  0
LINE
  5
148FFF
  8
OBJECT
 10
5954.75
 20
-1054.6999999999929969
 30
0.0
 11
5954.75
 21
-1062.6999999999959527
 31
0.0
1001
ACDBBLOCKREPETAG
1070
     1
1071
      161
1005
148FFF
  0
LINE
  5
149000
  8
OBJECT
 10
5967.2499999999990905
 20
-1054.6999999999929969
 30
0.0
 11
5967.2499999999990905
 21
-1062.6999999999959527
 31
0.0
1001
ACDBBLOCKREPETAG
1070
     1
1071
      162
1005
149000
  0
LINE
  5
149001
  8
OBJECT
 10
5946.0
 20
-1062.6999999999959527
 30
0.0
 11
5976.0
 21
-1062.6999999999959527
 31
0.0
1001
ACDBBLOCKREPETAG
1070
     1
1071
      163
1005
149001
  0
LINE
  5
149002
  8
OBJECT
 10
5953.0
 20
-1103.9999999999959073
 30
0.0
 11
5953.0
 21
-1113.9999999999959073
 31
0.0
1001
ACDBBLOCKREPETAG
1070
     1
1071
      164
1005
149002
  0
LINE
  5
149003
  8
OBJECT
 10
5969.0
 20
-1103.9999999999959073
 30
0.0
 11
5969.0
 21
-1113.9999999999959073
 31
0.0
1001
ACDBBLOCKREPETAG
1070
     1
1071
      165
1005
149003
  0
LINE
  5
149004
  8
OBJECT
 10
5953.0
 20
-1113.9999999999959073
 30
0.0
 11
5969.0
 21
-1113.9999999999959073
 31
0.0
1001
ACDBBLOCKREPETAG
1070
     1
1071
      166
1005
149004
  0
LINE
  5
149005
  8
OBJECT
 10
5966.0
 20
-1089.9999999999959073
 30
0.0
 11
5966.0
 21
-1079.9999999999959073
 31
0.0
1001
ACDBBLOCKREPETAG
1070
     1
1071
      167
1005
149005
  0
LINE
  5
149006
  8
OBJECT
 10
5956.0
 20
-1089.9999999999959073
 30
0.0
 11
5956.0
 21
-1079.9999999999959073
 31
0.0
1001
ACDBBLOCKREPETAG
1070
     1
1071
      168
1005
149006
  0
LINE
  5
149007
  8
OBJECT
 10
4090.0
 20
-1064.9999999999959073
 30
0.0
 11
3924.0
 21
-1064.9999999999959073
 31
0.0
1001
ACDBBLOCKREPETAG
1070
     1
1071
       12
1005
149007
  0
LINE
  5
149008
  8
OBJECT
 10
4066.0
 20
-1028.9999999999959073
 30
0.0
 11
3934.0
 21
-1028.9999999999959073
 31
0.0
1001
ACDBBLOCKREPETAG
1070
     1
1071
       13
1005
149008
  0
LINE
  5
149009
  8
OBJECT
 10
4090.0
 20
-1080.0
 30
0.0
 11
4090.0
 21
-1064.9999999999959073
 31
0.0
1001
ACDBBLOCKREPETAG
1070
     1
1071
       14
1005
149009
  0
LINE
  5
14900A
  8
OBJECT
 10
3924.0
 20
-1080.0
 30
0.0
 11
4090.0
 21
-1080.0
 31
0.0
1001
ACDBBLOCKREPETAG
1070
     1
1071
       15
1005
14900A
  0
LINE
  5
14900B
  8
OBJECT
 10
4067.4999999999840838
 20
-1080.0
 30
0.0
 11
4067.4999999999840838
 21
-1090.0
 31
0.0
1001
ACDBBLOCKREPETAG
1070
     1
1071
       16
1005
14900B
  0
LINE
  5
14900C
  8
OBJECT
 10
3924.0
 20
-1090.0
 30
0.0
 11
3924.0
 21
-1103.9999999999959073
 31
0.0
1001
ACDBBLOCKREPETAG
1070
     1
1071
       17
1005
14900C
  0
LINE
  5
14900D
  8
OBJECT
 10
4090.0
 20
-1090.0
 30
0.0
 11
4090.0
 21
-1103.9999999999959073
 31
0.0
1001
ACDBBLOCKREPETAG
1070
     1
1071
       18
1005
14900D
  0
LINE
  5
14900E
  8
OBJECT
 10
3924.0
 20
-1103.9999999999959073
 30
0.0
 11
4090.0
 21
-1103.9999999999959073
 31
0.0
1001
ACDBBLOCKREPETAG
1070
     1
1071
       19
1005
14900E
  0
LINE
  5
14900F
  8
OBJECT
 10
3924.0
 20
-1090.0
 30
0.0
 11
4090.0
 21
-1090.0
 31
0.0
1001
ACDBBLOCKREPETAG
1070
     1
1071
       20
1005
14900F
  0
LINE
  5
149010
  8
OBJECT
 10
3932.4999999999849933
 20
-1080.0
 30
0.0
 11
3932.4999999999849933
 21
-1090.0
 31
0.0
1001
ACDBBLOCKREPETAG
1070
     1
1071
       21
1005
149010
  0
LINE
  5
149011
  8
OBJECT
 10
3924.0
 20
-1080.0
 30
0.0
 11
3924.0
 21
-1064.9999999999959073
 31
0.0
1001
ACDBBLOCKREPETAG
1070
     1
1071
       22
1005
149011
  0
LINE
  5
149012
  8
HIDDEN
 10
3943.0
 20
-1040.0
 30
0.0
 11
4057.0
 21
-1040.0
 31
0.0
1001
ACDBBLOCKREPETAG
1070
     1
1071
       23
1005
149012
  0
LINE
  5
149013
  8
CENTER
 10
4000.0
 20
-770.0
 30
0.0
 11
4000.0
 21
-1118.9999999999959073
 31
0.0
1001
ACDBBLOCKREPETAG
1070
     1
1071
       24
1005
149013
  0
LINE
  5
149014
  8
OBJECT
 10
3925.0
 20
-770.0
 30
0.0
 11
3925.0
 21
-851.999999999996362
 31
0.0
1001
ACDBBLOCKREPETAG
1070
     1
1071
       25
1005
149014
  0
LINE
  5
149015
  8
OBJECT
 10
4075.0
 20
-770.0
 30
0.0
 11
4075.0
 21
-851.9999999999926104
 31
0.0
1001
ACDBBLOCKREPETAG
1070
     1
1071
       26
1005
149015
  0
LINE
  5
149016
  8
OBJECT
 10
3925.0
 20
-851.999999999996362
 30
0.0
 11
4075.0
 21
-851.9999999999926104
 31
0.0
1001
ACDBBLOCKREPETAG
1070
     1
1071
       27
1005
149016
  0
LINE
  5
149017
  8
OBJECT
 10
4057.0
 20
-1028.9999999999959073
 30
0.0
 11
4057.0
 21
-979.999999999992724
 31
0.0
1001
ACDBBLOCKREPETAG
1070
     1
1071
       28
1005
149017
  0
LINE
  5
149018
  8
OBJECT
 10
3943.0
 20
-1028.9999999999959073
 30
0.0
 11
3943.0
 21
-979.999999999992724
 31
0.0
1001
ACDBBLOCKREPETAG
1070
     1
1071
       29
1005
149018
  0
LINE
  5
149019
  8
OBJECT
 10
4057.0
 20
-979.999999999992724
 30
0.0
 11
3943.0
 21
-979.999999999992724
 31
0.0
1001
ACDBBLOCKREPETAG
1070
     1
1071
       30
1005
149019
  0
LINE
  5
14901A
  8
OBJECT
 10
3925.0
 20
-851.999999999996362
 30
0.0
 11
3943.0
 21
-979.999999999992724
 31
0.0
1001
ACDBBLOCKREPETAG
1070
     1
1071
       31
1005
14901A
  0
LINE
  5
14901B
  8
OBJECT
 10
4057.0
 20
-979.999999999992724
 30
0.0
 11
4075.0
 21
-851.9999999999926104
 31
0.0
1001
ACDBBLOCKREPETAG
1070
     1
1071
       32
1005
14901B
  0
LINE
  5
14901C
  8
OBJECT
 10
3934.0
 20
-1028.9999999999959073
 30
0.0
 11
3934.0
 21
-1064.9999999999959073
 31
0.0
1001
ACDBBLOCKREPETAG
1070
     1
1071
       33
1005
14901C
  0
LINE
  5
14901D
  8
OBJECT
 10
4066.0
 20
-1028.9999999999959073
 30
0.0
 11
4066.0
 21
-1064.9999999999959073
 31
0.0
1001
ACDBBLOCKREPETAG
1070
     1
1071
       34
1005
14901D
  0
LINE
  5
14901E
  8
OBJECT
 10
4082.9999999999931788
 20
-1089.9999999999959073
 30
0.0
 11
4082.9999999999931788
 21
-1079.9999999999959073
 31
0.0
1001
ACDBBLOCKREPETAG
1070
     1
1071
       35
1005
14901E
  0
LINE
  5
14901F
  8
OBJECT
 10
4072.9999999999918145
 20
-1089.9999999999959073
 30
0.0
 11
4072.9999999999918145
 21
-1079.9999999999959073
 31
0.0
1001
ACDBBLOCKREPETAG
1070
     1
1071
       36
1005
14901F
  0
LINE
  5
149020
  8
OBJECT
 10
4068.9999999999840838
 20
-1059.9999999999959073
 30
0.0
 11
4068.9999999999840838
 21
-1064.9999999999959073
 31
0.0
1001
ACDBBLOCKREPETAG
1070
     1
1071
       37
1005
149020
  0
LINE
  5
149021
  8
OBJECT
 10
4087.0
 20
-1059.9999999999959073
 30
0.0
 11
4087.0
 21
-1064.9999999999959073
 31
0.0
1001
ACDBBLOCKREPETAG
1070
     1
1071
       38
1005
149021
  0
LINE
  5
149022
  8
OBJECT
 10
4087.0
 20
-1059.9999999999959073
 30
0.0
 11
4068.9999999999840838
 21
-1059.9999999999959073
 31
0.0
1001
ACDBBLOCKREPETAG
1070
     1
1071
       39
1005
149022
  0
LINE
  5
149023
  8
OBJECT
 10
4073.0
 20
-1111.9999999999959073
 30
0.0
 11
4073.0
 21
-1114.9999999999959073
 31
0.0
1001
ACDBBLOCKREPETAG
1070
     1
1071
       40
1005
149023
  0
LINE
  5
149024
  8
OBJECT
 10
4073.0
 20
-1114.9999999999959073
 30
0.0
 11
4083.0
 21
-1114.9999999999959073
 31
0.0
1001
ACDBBLOCKREPETAG
1070
     1
1071
       41
1005
149024
  0
LINE
  5
149025
  8
OBJECT
 10
4083.0
 20
-1114.9999999999959073
 30
0.0
 11
4083.0
 21
-1111.9999999999959073
 31
0.0
1001
ACDBBLOCKREPETAG
1070
     1
1071
       43
1005
149025
  0
LINE
  5
149026
  8
OBJECT
 10
3968.5
 20
-1059.9999999999959073
 30
0.0
 11
3951.9999999999931788
 21
-1059.9999999999959073
 31
0.0
1001
ACDBBLOCKREPETAG
1070
     1
1071
       48
1005
149026
  0
LINE
  5
149027
  8
OBJECT
 10
3976.0
 20
-1064.9999999999959073
 30
0.0
 11
3976.0
 21
-1062.9999999999959073
 31
0.0
1001
ACDBBLOCKREPETAG
1070
     1
1071
       49
1005
149027
  0
LINE
  5
149028
  8
OBJECT
 10
3966.0
 20
-1089.9999999999959073
 30
0.0
 11
3966.0
 21
-1079.9999999999959073
 31
0.0
1001
ACDBBLOCKREPETAG
1070
     1
1071
       50
1005
149028
  0
LINE
  5
149029
  8
OBJECT
 10
3956.0
 20
-1089.9999999999959073
 30
0.0
 11
3956.0
 21
-1079.9999999999959073
 31
0.0
1001
ACDBBLOCKREPETAG
1070
     1
1071
       51
1005
149029
  0
LINE
  5
14902A
  8
OBJECT
 10
3951.9999999999931788
 20
-1059.9999999999959073
 30
0.0
 11
3951.9999999999931788
 21
-1064.9999999999959073
 31
0.0
1001
ACDBBLOCKREPETAG
1070
     1
1071
       52
1005
14902A
  0
LINE
  5
14902B
  8
OBJECT
 10
3956.0
 20
-1111.9999999999959073
 30
0.0
 11
3956.0
 21
-1114.9999999999959073
 31
0.0
1001
ACDBBLOCKREPETAG
1070
     1
1071
       53
1005
14902B
  0
LINE
  5
14902C
  8
OBJECT
 10
3956.0
 20
-1114.9999999999959073
 30
0.0
 11
3966.0
 21
-1114.9999999999959073
 31
0.0
1001
ACDBBLOCKREPETAG
1070
     1
1071
       54
1005
14902C
  0
LINE
  5
14902D
  8
OBJECT
 10
3951.1850454237719532
 20
-1111.9999999999959073
 30
0.0
 11
3970.8149545762212256
 21
-1111.9999999999959073
 31
0.0
1001
ACDBBLOCKREPETAG
1070
     1
1071
       55
1005
14902D
  0
LINE
  5
14902E
  8
OBJECT
 10
3966.0
 20
-1114.9999999999959073
 30
0.0
 11
3966.0
 21
-1111.9999999999959073
 31
0.0
1001
ACDBBLOCKREPETAG
1070
     1
1071
       56
1005
14902E
  0
LINE
  5
14902F
  8
OBJECT
 10
3976.0
 20
-1062.9999999999959073
 30
0.0
 11
3968.5
 21
-1059.9999999999959073
 31
0.0
1001
ACDBBLOCKREPETAG
1070
     1
1071
       57
1005
14902F
  0
LINE
  5
149030
  8
OBJECT
 10
3951.1850454237769554
 20
-1103.9999999999959073
 30
0.0
 11
3951.1850454237769554
 21
-1111.9999999999959073
 31
0.0
1001
ACDBBLOCKREPETAG
1070
     1
1071
      630
1005
149030
  0
LINE
  5
149031
  8
OBJECT
 10
3956.0925227118891598
 20
-1103.9999999999959073
 30
0.0
 11
3956.0925227118891598
 21
-1111.9999999999959073
 31
0.0
1001
ACDBBLOCKREPETAG
1070
     1
1071
      631
1005
149031
  0
LINE
  5
149032
  8
OBJECT
 10
3965.9074772881122044
 20
-1103.9999999999959073
 30
0.0
 11
3965.9074772881122044
 21
-1111.9999999999959073
 31
0.0
1001
ACDBBLOCKREPETAG
1070
     1
1071
      632
1005
149032
  0
LINE
  5
149033
  8
OBJECT
 10
3970.8149545762230446
 20
-1103.9999999999959073
 30
0.0
 11
3970.8149545762230446
 21
-1111.9999999999959073
 31
0.0
1001
ACDBBLOCKREPETAG
1070
     1
1071
      633
1005
149033
  0
LINE
  5
149034
  8
OBJECT
 10
4068.1850454237719532
 20
-1111.9999999999959073
 30
0.0
 11
4087.8149545762198613
 21
-1111.9999999999959073
 31
0.0
1001
ACDBBLOCKREPETAG
1070
     1
1071
      634
1005
149034
  0
LINE
  5
149035
  8
OBJECT
 10
4068.1850454237769554
 20
-1103.9999999999959073
 30
0.0
 11
4068.1850454237769554
 21
-1111.9999999999959073
 31
0.0
1001
ACDBBLOCKREPETAG
1070
     1
1071
      635
1005
149035
  0
LINE
  5
149036
  8
OBJECT
 10
4073.0925227118868861
 20
-1103.9999999999959073
 30
0.0
 11
4073.0925227118868861
 21
-1111.9999999999959073
 31
0.0
1001
ACDBBLOCKREPETAG
1070
     1
1071
      636
1005
149036
  0
LINE
  5
149037
  8
OBJECT
 10
4082.9074772881122044
 20
-1103.9999999999959073
 30
0.0
 11
4082.9074772881122044
 21
-1111.9999999999959073
 31
0.0
1001
ACDBBLOCKREPETAG
1070
     1
1071
      637
1005
149037
  0
LINE
  5
149038
  8
OBJECT
 10
4087.8149545762230446
 20
-1103.9999999999959073
 30
0.0
 11
4087.8149545762230446
 21
-1111.9999999999959073
 31
0.0
1001
ACDBBLOCKREPETAG
1070
     1
1071
      638
1005
149038
  0
LINE
  5
149039
  8
CENTER
 10
11909.0
 20
-1353.9999999999959073
 30
0.0
 11
12105.0
 21
-1353.9999999999959073
 31
0.0
1001
ACDBBLOCKREPETAG
1070
     1
1071
       10
1005
149039
  0
LINE
  5
14903A
  8
CENTER
 10
12000.0
 20
-1262.7253355707800893
 30
0.0
 11
12000.0
 21
-1445.2746644292130895
 31
0.0
1001
ACDBBLOCKREPETAG
1070
     1
1071
       11
1005
14903A
  0
CIRCLE
  5
14903B
  8
OBJECT
 10
12000.0
 20
-1353.9999999999959073
 30
0.0
 40
50.0
1001
ACDBBLOCKREPETAG
1070
     1
1071
       12
1005
14903B
  0
CIRCLE
  5
14903C
  8
OBJECT
 10
12000.0
 20
-1353.9999999999959073
 30
0.0
 40
60.0
1001
ACDBBLOCKREPETAG
1070
     1
1071
       13
1005
14903C
  0
CIRCLE
  5
14903D
  8
OBJECT
 10
12000.0
 20
-1353.9999999999959073
 30
0.0
 40
68.0
1001
ACDBBLOCKREPETAG
1070
     1
1071
       14
1005
14903D
  0
ARC
  5
14903E
  8
OBJECT
 10
12077.5
 20
-1353.9999999999959073
 30
0.0
 40
12.0
 50
272.105426272216107
 51
87.8945737277838788
1001
ACDBBLOCKREPETAG
1070
     1
1071
       15
1005
14903E
  0
ARC
  5
14903F
  8
OBJECT
 10
12078.4919354838602885
 20
-1327.0182271895250778
 30
0.0
 40
15.0
 50
198.9705187796525081
 51
267.8945737277837225
1001
ACDBBLOCKREPETAG
1070
     1
1071
       16
1005
14903F
  0
ARC
  5
149040
  8
OBJECT
 10
12078.4919354838602885
 20
-1380.9817728104640082
 30
0.0
 40
15.0
 50
92.1054262722161354
 51
161.0294812203472077
1001
ACDBBLOCKREPETAG
1070
     1
1071
       17
1005
149040
  0
CIRCLE
  5
149041
  8
SLIM
 10
12078.0
 20
-1353.9999999999959073
 30
0.0
 40
8.0
1001
ACDBBLOCKREPETAG
1070
     1
1071
       18
1005
149041
  0
POLYLINE
  5
149042
  8
SLIM
 66
     1
 10
0.0
 20
0.0
 30
0.0
 70
     1
1001
ACDBBLOCKREPETAG
1070
     1
1071
       19
1005
149042
  0
VERTEX
  5
14940D
  8
SLIM
 10
12075.6905989232200227
 20
-1349.9999999999959073
 30
0.0
  0
VERTEX
  5
14940E
  8
SLIM
 10
12073.3811978464800632
 20
-1353.9999999999959073
 30
0.0
  0
VERTEX
  5
14940F
  8
SLIM
 10
12075.6905989232200227
 20
-1357.9999999999959073
 30
0.0
  0
VERTEX
  5
149410
  8
SLIM
 10
12080.3094010767508735
 20
-1357.9999999999959073
 30
0.0
  0
VERTEX
  5
149411
  8
SLIM
 10
12082.6188021535108419
 20
-1353.9999999999959073
 30
0.0
  0
VERTEX
  5
149412
  8
SLIM
 10
12080.3094010767508735
 20
-1349.9999999999959073
 30
0.0
  0
SEQEND
  5
149413
  8
SLIM
  0
ARC
  5
149043
  8
OBJECT
 10
11961.25
 20
-1286.883031206700025
 30
0.0
 40
12.0
 50
32.1054262721301882
 51
207.8945737276831949
1001
ACDBBLOCKREPETAG
1070
     1
1071
       20
1005
149043
  0
ARC
  5
149044
  8
OBJECT
 10
11937.3871315650503675
 20
-1299.5148762839889969
 30
0.0
 40
15.0
 50
318.970518779447616
 51
27.8945737276831096
1001
ACDBBLOCKREPETAG
1070
     1
1071
       21
1005
149044
  0
ARC
  5
149045
  8
OBJECT
 10
11984.1209329510693351
 20
-1272.5331034735170306
 30
0.0
 40
15.0
 50
212.1054262721301882
 51
281.0294812204406867
1001
ACDBBLOCKREPETAG
1070
     1
1071
       22
1005
149045
  0
CIRCLE
  5
149046
  8
SLIM
 10
11961.0
 20
-1286.4500185048088952
 30
0.0
 40
7.9999999999999982
1001
ACDBBLOCKREPETAG
1070
     1
1071
       23
1005
149046
  0
POLYLINE
  5
149047
  8
SLIM
 66
     1
 10
0.0
 20
0.0
 30
0.0
 70
     1
1001
ACDBBLOCKREPETAG
1070
     1
1071
       24
1005
149047
  0
VERTEX
  5
149414
  8
SLIM
 10
11958.6905989232400316
 20
-1290.4500185048088952
 30
0.0
  0
VERTEX
  5
149415
  8
SLIM
 10
11963.3094010767508735
 20
-1290.4500185048088952
 30
0.0
  0
VERTEX
  5
149416
  8
SLIM
 10
11965.6188021535108419
 20
-1286.4500185048088952
 30
0.0
  0
VERTEX
  5
149417
  8
SLIM
 10
11963.3094010767508735
 20
-1282.4500185048088952
 30
0.0
  0
VERTEX
  5
149418
  8
SLIM
 10
11958.6905989232400316
 20
-1282.4500185048088952
 30
0.0
  0
VERTEX
  5
149419
  8
SLIM
 10
11956.3811978464800632
 20
-1286.4500185048088952
 30
0.0
  0
SEQEND
  5
14941A
  8
SLIM
  0
ARC
  5
149048
  8
OBJECT
 10
11961.25
 20
-1421.1169687932890611
 30
0.0
 40
12.0
 50
152.1054262723168904
 51
327.8945737278697266
1001
ACDBBLOCKREPETAG
1070
     1
1071
       25
1005
149048
  0
ARC
  5
149049
  8
OBJECT
 10
11984.1209329510693351
 20
-1435.4668965264720555
 30
0.0
 40
15.0
 50
78.9705187795592281
 51
147.8945737278698118
1001
ACDBBLOCKREPETAG
1070
     1
1071
       26
1005
149049
  0
ARC
  5
14904A
  8
OBJECT
 10
11937.3871315650503675
 20
-1408.4851237160039545
 30
0.0
 40
15.0
 50
332.1054262723168904
 51
41.0294812205524124
1001
ACDBBLOCKREPETAG
1070
     1
1071
       27
1005
14904A
  0
CIRCLE
  5
14904B
  8
SLIM
 10
11961.0
 20
-1421.5499814951829194
 30
0.0
 40
8.0
1001
ACDBBLOCKREPETAG
1070
     1
1071
       28
1005
14904B
  0
POLYLINE
  5
14904C
  8
SLIM
 66
     1
 10
0.0
 20
0.0
 30
0.0
 70
     1
1001
ACDBBLOCKREPETAG
1070
     1
1071
       29
1005
14904C
  0
VERTEX
  5
14941B
  8
SLIM
 10
11965.6188021535108419
 20
-1421.5499814951799635
 30
0.0
  0
VERTEX
  5
14941C
  8
SLIM
 10
11963.3094010767508735
 20
-1417.5499814951829194
 30
0.0
  0
VERTEX
  5
14941D
  8
SLIM
 10
11958.6905989232400316
 20
-1417.5499814951799635
 30
0.0
  0
VERTEX
  5
14941E
  8
SLIM
 10
11956.3811978464800632
 20
-1421.5499814951829194
 30
0.0
  0
VERTEX
  5
14941F
  8
SLIM
 10
11958.6905989232200227
 20
-1425.5499814951799635
 30
0.0
  0
VERTEX
  5
149420
  8
SLIM
 10
11963.3094010767508735
 20
-1425.5499814951829194
 30
0.0
  0
SEQEND
  5
149421
  8
SLIM
  0
ARC
  5
14904D
  8
OBJECT
 10
12000.0
 20
-1353.9999999999959073
 30
0.0
 40
76.0
 50
34.8638379541718493
 51
85.1361620457329451
1001
ACDBBLOCKREPETAG
1070
     1
1071
       42
1005
14904D
  0
ARC
  5
14904E
  8
OBJECT
 10
12000.0
 20
-1353.9999999999959073
 30
0.0
 40
76.0
 50
154.8638379543093038
 51
205.1361620456904973
1001
ACDBBLOCKREPETAG
1070
     1
1071
       43
1005
14904E
  0
ARC
  5
14904F
  8
OBJECT
 10
12000.0
 20
-1353.9999999999959073
 30
0.0
 40
76.0
 50
274.863837954267126
 51
325.1361620458280868
1001
ACDBBLOCKREPETAG
1070
     1
1071
       44
1005
14904F
  0
ARC
  5
149050
  8
OBJECT
 10
12078.0
 20
-1353.9999999999959073
 30
0.0
 40
12.0
 50
325.1361620458280868
 51
34.8638379541718493
1001
ACDBBLOCKREPETAG
1070
     1
1071
       45
1005
149050
  0
LINE
  5
149051
  8
OBJECT
 10
12087.8461538461597229
 20
-1347.1404625201339513
 30
0.0
 11
12062.3589743590491707
 21
-1310.556262627535034
 31
0.0
1001
ACDBBLOCKREPETAG
1070
     1
1071
       46
1005
149051
  0
LINE
  5
149052
  8
OBJECT
 10
12087.8461538461706368
 20
-1360.8595374798569537
 30
0.0
 11
12062.3589743590491707
 21
-1397.4437373724590543
 31
0.0
1001
ACDBBLOCKREPETAG
1070
     1
1071
       47
1005
149052
  0
ARC
  5
149053
  8
OBJECT
 10
11961.0
 20
-1286.4500185048109415
 30
0.0
 40
12.0
 50
85.136162045942811
 51
154.8638379541000063
1001
ACDBBLOCKREPETAG
1070
     1
1071
       48
1005
149053
  0
LINE
  5
149054
  8
OBJECT
 10
11950.1363893611396634
 20
-1281.3527678843900048
 30
0.0
 11
11931.1971326205803052
 21
-1321.7174127373471038
 31
0.0
1001
ACDBBLOCKREPETAG
1070
     1
1071
       49
1005
149054
  0
LINE
  5
149055
  8
OBJECT
 10
11962.0174567926806048
 20
-1274.4932304045260025
 30
0.0
 11
12006.443893020370524
 21
-1278.2736753648860031
 31
0.0
1001
ACDBBLOCKREPETAG
1070
     1
1071
       50
1005
149055
  0
ARC
  5
149056
  8
OBJECT
 10
11961.0
 20
-1421.5499814951811004
 30
0.0
 40
12.0
 50
205.1361620458999084
 51
274.8638379540572032
1001
ACDBBLOCKREPETAG
1070
     1
1071
       51
1005
149056
  0
LINE
  5
149057
  8
OBJECT
 10
11962.0174567926896998
 20
-1433.506769595463993
 30
0.0
 11
12006.4438930203596101
 21
-1429.7263246351069483
 31
0.0
1001
ACDBBLOCKREPETAG
1070
     1
1071
       52
1005
149057
  0
LINE
  5
149058
  8
OBJECT
 10
11950.1363893611396634
 20
-1426.6472321156049929
 30
0.0
 11
11931.1971326205803052
 21
-1386.2825872626428918
 31
0.0
1001
ACDBBLOCKREPETAG
1070
     1
1071
       53
1005
149058
  0
LINE
  5
149059
  8
CENTER
 10
9909.0
 20
-1353.9999999999959073
 30
0.0
 11
10105.0
 21
-1353.9999999999959073
 31
0.0
1001
ACDBBLOCKREPETAG
1070
     1
1071
        0
1005
149059
  0
LINE
  5
14905A
  8
CENTER
 10
10000.0
 20
-1262.7253355707800893
 30
0.0
 11
10000.0
 21
-1445.2746644292130895
 31
0.0
1001
ACDBBLOCKREPETAG
1070
     1
1071
        1
1005
14905A
  0
CIRCLE
  5
14905B
  8
OBJECT
 10
10000.0
 20
-1353.9999999999959073
 30
0.0
 40
50.0
1001
ACDBBLOCKREPETAG
1070
     1
1071
        2
1005
14905B
  0
CIRCLE
  5
14905C
  8
OBJECT
 10
10000.0
 20
-1353.9999999999959073
 30
0.0
 40
62.0
1001
ACDBBLOCKREPETAG
1070
     1
1071
        3
1005
14905C
  0
CIRCLE
  5
14905D
  8
SLIM
 10
10078.0
 20
-1353.9999999999959073
 30
0.0
 40
5.0
1001
ACDBBLOCKREPETAG
1070
     1
1071
        4
1005
14905D
  0
POLYLINE
  5
14905E
  8
SLIM
 66
     1
 10
0.0
 20
0.0
 30
0.0
 70
     1
1001
ACDBBLOCKREPETAG
1070
     1
1071
        5
1005
14905E
  0
VERTEX
  5
149422
  8
SLIM
 10
10073.0925227118805196
 20
-1345.4999999999959073
 30
0.0
  0
VERTEX
  5
149423
  8
SLIM
 10
10068.1850454237701342
 20
-1353.9999999999959073
 30
0.0
  0
VERTEX
  5
149424
  8
SLIM
 10
10073.0925227118805196
 20
-1362.4999999999959073
 30
0.0
  0
VERTEX
  5
149425
  8
SLIM
 10
10082.9074772880994715
 20
-1362.4999999999959073
 30
0.0
  0
VERTEX
  5
149426
  8
SLIM
 10
10087.8149545762207708
 20
-1353.9999999999959073
 30
0.0
  0
VERTEX
  5
149427
  8
SLIM
 10
10082.9074772880994715
 20
-1345.4999999999959073
 30
0.0
  0
SEQEND
  5
149428
  8
SLIM
  0
CIRCLE
  5
14905F
  8
SLIM
 10
9961.0
 20
-1286.4500185048088952
 30
0.0
 40
4.9999999999999991
1001
ACDBBLOCKREPETAG
1070
     1
1071
        6
1005
14905F
  0
POLYLINE
  5
149060
  8
SLIM
 66
     1
 10
0.0
 20
0.0
 30
0.0
 70
     1
1001
ACDBBLOCKREPETAG
1070
     1
1071
        7
1005
149060
  0
VERTEX
  5
149429
  8
SLIM
 10
9956.0925227118859766
 20
-1294.9500185048088952
 30
0.0
  0
VERTEX
  5
14942A
  8
SLIM
 10
9965.9074772881140234
 20
-1294.9500185048088952
 30
0.0
  0
VERTEX
  5
14942B
  8
SLIM
 10
9970.8149545762171329
 20
-1286.4500185048088952
 30
0.0
  0
VERTEX
  5
14942C
  8
SLIM
 10
9965.9074772881140234
 20
-1277.9500185048088952
 30
0.0
  0
VERTEX
  5
14942D
  8
SLIM
 10
9956.0925227118859766
 20
-1277.9500185048088952
 30
0.0
  0
VERTEX
  5
14942E
  8
SLIM
 10
9951.1850454237774102
 20
-1286.4500185048088952
 30
0.0
  0
SEQEND
  5
14942F
  8
SLIM
  0
CIRCLE
  5
149061
  8
SLIM
 10
9961.0
 20
-1421.5499814951829194
 30
0.0
 40
5.0
1001
ACDBBLOCKREPETAG
1070
     1
1071
        8
1005
149061
  0
POLYLINE
  5
149062
  8
SLIM
 66
     1
 10
0.0
 20
0.0
 30
0.0
 70
     1
1001
ACDBBLOCKREPETAG
1070
     1
1071
        9
1005
149062
  0
VERTEX
  5
149430
  8
SLIM
 10
9970.8149545762171329
 20
-1421.5499814951829194
 30
0.0
  0
VERTEX
  5
149431
  8
SLIM
 10
9965.9074772881049284
 20
-1413.0499814951799635
 30
0.0
  0
VERTEX
  5
149432
  8
SLIM
 10
9956.0925227118859766
 20
-1413.0499814951829194
 30
0.0
  0
VERTEX
  5
149433
  8
SLIM
 10
9951.1850454237774102
 20
-1421.5499814951799635
 30
0.0
  0
VERTEX
  5
149434
  8
SLIM
 10
9956.0925227118859766
 20
-1430.0499814951829194
 30
0.0
  0
VERTEX
  5
149435
  8
SLIM
 10
9965.9074772881140234
 20
-1430.0499814951799635
 30
0.0
  0
SEQEND
  5
149436
  8
SLIM
  0
ARC
  5
149063
  8
OBJECT
 10
10000.0
 20
-1353.9999999999959073
 30
0.0
 40
76.0
 50
34.8638379541718493
 51
85.1361620457329451
1001
ACDBBLOCKREPETAG
1070
     1
1071
       30
1005
149063
  0
ARC
  5
149064
  8
OBJECT
 10
10000.0
 20
-1353.9999999999959073
 30
0.0
 40
76.0
 50
154.8638379543093038
 51
205.1361620456904973
1001
ACDBBLOCKREPETAG
1070
     1
1071
       31
1005
149064
  0
ARC
  5
149065
  8
OBJECT
 10
10000.0
 20
-1353.9999999999959073
 30
0.0
 40
76.0
 50
274.863837954267126
 51
325.1361620458280868
1001
ACDBBLOCKREPETAG
1070
     1
1071
       32
1005
149065
  0
ARC
  5
149066
  8
OBJECT
 10
10078.0
 20
-1353.9999999999959073
 30
0.0
 40
12.0
 50
325.1361620458280868
 51
34.8638379541718493
1001
ACDBBLOCKREPETAG
1070
     1
1071
       33
1005
149066
  0
LINE
  5
149067
  8
OBJECT
 10
10087.8461538461597229
 20
-1347.1404625201339513
 30
0.0
 11
10062.3589743590400758
 21
-1310.556262627535034
 31
0.0
1001
ACDBBLOCKREPETAG
1070
     1
1071
       34
1005
149067
  0
LINE
  5
149068
  8
OBJECT
 10
10087.8461538461706368
 20
-1360.8595374798569537
 30
0.0
 11
10062.3589743590400758
 21
-1397.4437373724590543
 31
0.0
1001
ACDBBLOCKREPETAG
1070
     1
1071
       35
1005
149068
  0
ARC
  5
149069
  8
OBJECT
 10
9961.0
 20
-1286.4500185048109415
 30
0.0
 40
12.0
 50
85.136162045942811
 51
154.8638379541000063
1001
ACDBBLOCKREPETAG
1070
     1
1071
       36
1005
149069
  0
LINE
  5
14906A
  8
OBJECT
 10
9950.1363893611433014
 20
-1281.3527678843900048
 30
0.0
 11
9931.1971326205894002
 21
-1321.7174127373471038
 31
0.0
1001
ACDBBLOCKREPETAG
1070
     1
1071
       37
1005
14906A
  0
LINE
  5
14906B
  8
OBJECT
 10
9962.0174567926842428
 20
-1274.4932304045260025
 30
0.0
 11
10006.4438930203596101
 21
-1278.2736753648860031
 31
0.0
1001
ACDBBLOCKREPETAG
1070
     1
1071
       38
1005
14906B
  0
ARC
  5
14906C
  8
OBJECT
 10
9961.0
 20
-1421.5499814951811004
 30
0.0
 40
12.0
 50
205.1361620458999084
 51
274.8638379540572032
1001
ACDBBLOCKREPETAG
1070
     1
1071
       39
1005
14906C
  0
LINE
  5
14906D
  8
OBJECT
 10
9962.0174567926896998
 20
-1433.506769595463993
 30
0.0
 11
10006.4438930203596101
 21
-1429.7263246351069483
 31
0.0
1001
ACDBBLOCKREPETAG
1070
     1
1071
       40
1005
14906D
  0
LINE
  5
14906E
  8
OBJECT
 10
9950.1363893611433014
 20
-1426.6472321156049929
 30
0.0
 11
9931.1971326205821242
 21
-1386.2825872626428918
 31
0.0
1001
ACDBBLOCKREPETAG
1070
     1
1071
       41
1005
14906E
  0
LINE
  5
14906F
  8
CENTER
 10
5909.0
 20
-1394.9999999999990905
 30
0.0
 11
6105.0
 21
-1394.9999999999990905
 31
0.0
1001
ACDBBLOCKREPETAG
1070
     1
1071
       10
1005
14906F
  0
LINE
  5
149070
  8
CENTER
 10
6000.0
 20
-1303.7253355707830451
 30
0.0
 11
6000.0
 21
-1486.2746644292160454
 31
0.0
1001
ACDBBLOCKREPETAG
1070
     1
1071
       11
1005
149070
  0
CIRCLE
  5
149071
  8
OBJECT
 10
6000.0
 20
-1394.9999999999990905
 30
0.0
 40
50.0
1001
ACDBBLOCKREPETAG
1070
     1
1071
       12
1005
149071
  0
CIRCLE
  5
149072
  8
OBJECT
 10
6000.0
 20
-1394.9999999999990905
 30
0.0
 40
60.0
1001
ACDBBLOCKREPETAG
1070
     1
1071
       13
1005
149072
  0
CIRCLE
  5
149073
  8
OBJECT
 10
6000.0
 20
-1394.9999999999990905
 30
0.0
 40
68.0
1001
ACDBBLOCKREPETAG
1070
     1
1071
       14
1005
149073
  0
ARC
  5
149074
  8
OBJECT
 10
6077.5
 20
-1394.9999999999990905
 30
0.0
 40
12.0
 50
272.105426272216107
 51
87.8945737277838788
1001
ACDBBLOCKREPETAG
1070
     1
1071
       15
1005
149074
  0
ARC
  5
149075
  8
OBJECT
 10
6078.4919354838639265
 20
-1368.0182271895280337
 30
0.0
 40
15.0
 50
198.9705187796355972
 51
267.8945737277837225
1001
ACDBBLOCKREPETAG
1070
     1
1071
       16
1005
149075
  0
ARC
  5
149076
  8
OBJECT
 10
6078.4919354838639265
 20
-1421.9817728104669641
 30
0.0
 40
15.0
 50
92.1054262722161354
 51
161.0294812203642891
1001
ACDBBLOCKREPETAG
1070
     1
1071
       17
1005
149076
  0
CIRCLE
  5
149077
  8
SLIM
 10
6078.0
 20
-1394.9999999999990905
 30
0.0
 40
8.0
1001
ACDBBLOCKREPETAG
1070
     1
1071
       18
1005
149077
  0
POLYLINE
  5
149078
  8
SLIM
 66
     1
 10
0.0
 20
0.0
 30
0.0
 70
     1
1001
ACDBBLOCKREPETAG
1070
     1
1071
       19
1005
149078
  0
VERTEX
  5
149437
  8
SLIM
 10
6075.6905989232327556
 20
-1391.0
 30
0.0
  0
VERTEX
  5
149438
  8
SLIM
 10
6073.3811978464800632
 20
-1394.9999999999990905
 30
0.0
  0
VERTEX
  5
149439
  8
SLIM
 10
6075.6905989232327556
 20
-1398.9999999999990905
 30
0.0
  0
VERTEX
  5
14943A
  8
SLIM
 10
6080.3094010767526925
 20
-1398.9999999999990905
 30
0.0
  0
VERTEX
  5
14943B
  8
SLIM
 10
6082.6188021535126609
 20
-1394.9999999999990905
 30
0.0
  0
VERTEX
  5
14943C
  8
SLIM
 10
6080.3094010767526925
 20
-1391.0
 30
0.0
  0
SEQEND
  5
14943D
  8
SLIM
  0
ARC
  5
149079
  8
OBJECT
 10
5961.25
 20
-1327.8830312067029809
 30
0.0
 40
12.0
 50
32.105426272157878
 51
207.8945737277074102
1001
ACDBBLOCKREPETAG
1070
     1
1071
       20
1005
149079
  0
ARC
  5
14907A
  8
OBJECT
 10
5937.387131565054915
 20
-1340.5148762839919527
 30
0.0
 40
15.0
 50
318.970518779447616
 51
27.8945737277074883
1001
ACDBBLOCKREPETAG
1070
     1
1071
       21
1005
14907A
  0
ARC
  5
14907B
  8
OBJECT
 10
5984.1209329510684256
 20
-1313.5331034735199864
 30
0.0
 40
15.0
 50
212.1054262721578993
 51
281.0294812204406867
1001
ACDBBLOCKREPETAG
1070
     1
1071
       22
1005
14907B
  0
CIRCLE
  5
14907C
  8
SLIM
 10
5961.0
 20
-1327.4500185048120784
 30
0.0
 40
7.9999999999999982
1001
ACDBBLOCKREPETAG
1070
     1
1071
       23
1005
14907C
  0
POLYLINE
  5
14907D
  8
SLIM
 66
     1
 10
0.0
 20
0.0
 30
0.0
 70
     1
1001
ACDBBLOCKREPETAG
1070
     1
1071
       24
1005
14907D
  0
VERTEX
  5
14943E
  8
SLIM
 10
5958.6905989232391221
 20
-1331.4500185048120784
 30
0.0
  0
VERTEX
  5
14943F
  8
SLIM
 10
5963.309401076751783
 20
-1331.4500185048120784
 30
0.0
  0
VERTEX
  5
149440
  8
SLIM
 10
5965.6188021535126609
 20
-1327.4500185048120784
 30
0.0
  0
VERTEX
  5
149441
  8
SLIM
 10
5963.309401076751783
 20
-1323.4500185048120784
 30
0.0
  0
VERTEX
  5
149442
  8
SLIM
 10
5958.6905989232391221
 20
-1323.4500185048120784
 30
0.0
  0
VERTEX
  5
149443
  8
SLIM
 10
5956.3811978464791537
 20
-1327.4500185048120784
 30
0.0
  0
SEQEND
  5
149444
  8
SLIM
  0
ARC
  5
14907E
  8
OBJECT
 10
5961.25
 20
-1462.1169687932920169
 30
0.0
 40
12.0
 50
152.1054262722925046
 51
327.894573727841987
1001
ACDBBLOCKREPETAG
1070
     1
1071
       25
1005
14907E
  0
ARC
  5
14907F
  8
OBJECT
 10
5984.1209329510684256
 20
-1476.4668965264750113
 30
0.0
 40
15.0
 50
78.9705187795592281
 51
147.8945737278421007
1001
ACDBBLOCKREPETAG
1070
     1
1071
       26
1005
14907F
  0
ARC
  5
149080
  8
OBJECT
 10
5937.387131565054915
 20
-1449.4851237160060009
 30
0.0
 40
15.0
 50
332.1054262722923909
 51
41.0294812205524124
1001
ACDBBLOCKREPETAG
1070
     1
1071
       27
1005
149080
  0
CIRCLE
  5
149081
  8
SLIM
 10
5961.0
 20
-1462.5499814951870121
 30
0.0
 40
8.0
1001
ACDBBLOCKREPETAG
1070
     1
1071
       28
1005
149081
  0
POLYLINE
  5
149082
  8
SLIM
 66
     1
 10
0.0
 20
0.0
 30
0.0
 70
     1
1001
ACDBBLOCKREPETAG
1070
     1
1071
       29
1005
149082
  0
VERTEX
  5
149445
  8
SLIM
 10
5965.6188021535126609
 20
-1462.5499814951829194
 30
0.0
  0
VERTEX
  5
149446
  8
SLIM
 10
5963.309401076751783
 20
-1458.5499814951870121
 30
0.0
  0
VERTEX
  5
149447
  8
SLIM
 10
5958.6905989232391221
 20
-1458.5499814951829194
 30
0.0
  0
VERTEX
  5
149448
  8
SLIM
 10
5956.3811978464791537
 20
-1462.5499814951870121
 30
0.0
  0
VERTEX
  5
149449
  8
SLIM
 10
5958.6905989232327556
 20
-1466.5499814951829194
 30
0.0
  0
VERTEX
  5
14944A
  8
SLIM
 10
5963.309401076751783
 20
-1466.5499814951870121
 30
0.0
  0
SEQEND
  5
14944B
  8
SLIM
  0
ARC
  5
149083
  8
OBJECT
 10
6000.0
 20
-1394.9999999999990905
 30
0.0
 40
76.0
 50
34.8638379541420704
 51
85.1361620457329451
1001
ACDBBLOCKREPETAG
1070
     1
1071
       42
1005
149083
  0
ARC
  5
149084
  8
OBJECT
 10
6000.0
 20
-1394.9999999999990905
 30
0.0
 40
76.0
 50
154.8638379543093038
 51
205.1361620456904973
1001
ACDBBLOCKREPETAG
1070
     1
1071
       43
1005
149084
  0
ARC
  5
149085
  8
OBJECT
 10
6000.0
 20
-1394.9999999999990905
 30
0.0
 40
76.0
 50
274.863837954267126
 51
325.1361620458579864
1001
ACDBBLOCKREPETAG
1070
     1
1071
       44
1005
149085
  0
ARC
  5
149086
  8
OBJECT
 10
6078.0
 20
-1394.9999999999990905
 30
0.0
 40
12.0
 50
325.1361620458579864
 51
34.8638379541420704
1001
ACDBBLOCKREPETAG
1070
     1
1071
       45
1005
149086
  0
LINE
  5
149087
  8
OBJECT
 10
6087.8461538461688178
 20
-1388.1404625201359977
 30
0.0
 11
6062.3589743590509897
 21
-1351.5562626275379898
 31
0.0
1001
ACDBBLOCKREPETAG
1070
     1
1071
       46
1005
149087
  0
LINE
  5
149088
  8
OBJECT
 10
6087.8461538461706368
 20
-1401.8595374798599096
 30
0.0
 11
6062.3589743590509897
 21
-1438.4437373724629197
 31
0.0
1001
ACDBBLOCKREPETAG
1070
     1
1071
       47
1005
149088
  0
ARC
  5
149089
  8
OBJECT
 10
5961.0
 20
-1327.4500185048129879
 30
0.0
 40
12.0
 50
85.136162045942811
 51
154.8638379541000063
1001
ACDBBLOCKREPETAG
1070
     1
1071
       48
1005
149089
  0
LINE
  5
14908A
  8
OBJECT
 10
5950.1363893611442109
 20
-1322.3527678843940976
 30
0.0
 11
5931.1971326205848527
 21
-1362.7174127373500596
 31
0.0
1001
ACDBBLOCKREPETAG
1070
     1
1071
       49
1005
14908A
  0
LINE
  5
14908B
  8
OBJECT
 10
5962.0174567926833333
 20
-1315.4932304045300953
 30
0.0
 11
6006.443893020366886
 21
-1319.2736753648889589
 31
0.0
1001
ACDBBLOCKREPETAG
1070
     1
1071
       50
1005
14908B
  0
ARC
  5
14908C
  8
OBJECT
 10
5961.0
 20
-1462.5499814951840563
 30
0.0
 40
12.0
 50
205.1361620458999084
 51
274.8638379540572032
1001
ACDBBLOCKREPETAG
1070
     1
1071
       51
1005
14908C
  0
LINE
  5
14908D
  8
OBJECT
 10
5962.0174567926887903
 20
-1474.5067695954669489
 30
0.0
 11
6006.4438930203650671
 21
-1470.7263246351099042
 31
0.0
1001
ACDBBLOCKREPETAG
1070
     1
1071
       52
1005
14908D
  0
LINE
  5
14908E
  8
OBJECT
 10
5950.1363893611442109
 20
-1467.6472321156079488
 30
0.0
 11
5931.1971326205839432
 21
-1427.2825872626469845
 31
0.0
1001
ACDBBLOCKREPETAG
1070
     1
1071
       53
1005
14908E
  0
LINE
  5
14908F
  8
CENTER
 10
3909.0
 20
-1353.9999999999959073
 30
0.0
 11
4105.0
 21
-1353.9999999999959073
 31
0.0
1001
ACDBBLOCKREPETAG
1070
     1
1071
        0
1005
14908F
  0
LINE
  5
149090
  8
CENTER
 10
4000.0
 20
-1262.7253355707800893
 30
0.0
 11
4000.0
 21
-1445.2746644292130895
 31
0.0
1001
ACDBBLOCKREPETAG
1070
     1
1071
        1
1005
149090
  0
CIRCLE
  5
149091
  8
OBJECT
 10
4000.0
 20
-1353.9999999999959073
 30
0.0
 40
50.0
1001
ACDBBLOCKREPETAG
1070
     1
1071
        2
1005
149091
  0
CIRCLE
  5
149092
  8
OBJECT
 10
4000.0
 20
-1353.9999999999959073
 30
0.0
 40
62.0
1001
ACDBBLOCKREPETAG
1070
     1
1071
        3
1005
149092
  0
CIRCLE
  5
149093
  8
SLIM
 10
4078.0
 20
-1353.9999999999959073
 30
0.0
 40
5.0
1001
ACDBBLOCKREPETAG
1070
     1
1071
        4
1005
149093
  0
POLYLINE
  5
149094
  8
SLIM
 66
     1
 10
0.0
 20
0.0
 30
0.0
 70
     1
1001
ACDBBLOCKREPETAG
1070
     1
1071
        5
1005
149094
  0
VERTEX
  5
14944C
  8
SLIM
 10
4073.0925227118841576
 20
-1345.4999999999959073
 30
0.0
  0
VERTEX
  5
14944D
  8
SLIM
 10
4068.1850454237719532
 20
-1353.9999999999959073
 30
0.0
  0
VERTEX
  5
14944E
  8
SLIM
 10
4073.0925227118841576
 20
-1362.4999999999959073
 30
0.0
  0
VERTEX
  5
14944F
  8
SLIM
 10
4082.9074772881072022
 20
-1362.4999999999959073
 30
0.0
  0
VERTEX
  5
149450
  8
SLIM
 10
4087.8149545762198613
 20
-1353.9999999999959073
 30
0.0
  0
VERTEX
  5
149451
  8
SLIM
 10
4082.9074772881072022
 20
-1345.4999999999959073
 30
0.0
  0
SEQEND
  5
149452
  8
SLIM
  0
CIRCLE
  5
149095
  8
SLIM
 10
3961.0
 20
-1286.4500185048088952
 30
0.0
 40
4.9999999999999991
1001
ACDBBLOCKREPETAG
1070
     1
1071
        6
1005
149095
  0
POLYLINE
  5
149096
  8
SLIM
 66
     1
 10
0.0
 20
0.0
 30
0.0
 70
     1
1001
ACDBBLOCKREPETAG
1070
     1
1071
        7
1005
149096
  0
VERTEX
  5
149453
  8
SLIM
 10
3956.0925227118859766
 20
-1294.9500185048088952
 30
0.0
  0
VERTEX
  5
149454
  8
SLIM
 10
3965.9074772881149329
 20
-1294.9500185048088952
 30
0.0
  0
VERTEX
  5
149455
  8
SLIM
 10
3970.8149545762212256
 20
-1286.4500185048088952
 30
0.0
  0
VERTEX
  5
149456
  8
SLIM
 10
3965.9074772881149329
 20
-1277.9500185048088952
 30
0.0
  0
VERTEX
  5
149457
  8
SLIM
 10
3956.0925227118859766
 20
-1277.9500185048088952
 30
0.0
  0
VERTEX
  5
149458
  8
SLIM
 10
3951.1850454237719532
 20
-1286.4500185048088952
 30
0.0
  0
SEQEND
  5
149459
  8
SLIM
  0
CIRCLE
  5
149097
  8
SLIM
 10
3961.0
 20
-1421.5499814951829194
 30
0.0
 40
5.0
1001
ACDBBLOCKREPETAG
1070
     1
1071
        8
1005
149097
  0
POLYLINE
  5
149098
  8
SLIM
 66
     1
 10
0.0
 20
0.0
 30
0.0
 70
     1
1001
ACDBBLOCKREPETAG
1070
     1
1071
        9
1005
149098
  0
VERTEX
  5
14945A
  8
SLIM
 10
3970.8149545762212256
 20
-1421.5499814951829194
 30
0.0
  0
VERTEX
  5
14945B
  8
SLIM
 10
3965.9074772881072022
 20
-1413.0499814951799635
 30
0.0
  0
VERTEX
  5
14945C
  8
SLIM
 10
3956.0925227118859766
 20
-1413.0499814951829194
 30
0.0
  0
VERTEX
  5
14945D
  8
SLIM
 10
3951.1850454237719532
 20
-1421.5499814951799635
 30
0.0
  0
VERTEX
  5
14945E
  8
SLIM
 10
3956.0925227118859766
 20
-1430.0499814951829194
 30
0.0
  0
VERTEX
  5
14945F
  8
SLIM
 10
3965.9074772881149329
 20
-1430.0499814951799635
 30
0.0
  0
SEQEND
  5
149460
  8
SLIM
  0
ARC
  5
149099
  8
OBJECT
 10
4000.0
 20
-1353.9999999999959073
 30
0.0
 40
76.0
 50
34.8638379541420704
 51
85.1361620457329451
1001
ACDBBLOCKREPETAG
1070
     1
1071
       30
1005
149099
  0
ARC
  5
14909A
  8
OBJECT
 10
4000.0
 20
-1353.9999999999959073
 30
0.0
 40
76.0
 50
154.8638379543093038
 51
205.1361620456904973
1001
ACDBBLOCKREPETAG
1070
     1
1071
       31
1005
14909A
  0
ARC
  5
14909B
  8
OBJECT
 10
4000.0
 20
-1353.9999999999959073
 30
0.0
 40
76.0
 50
274.863837954267126
 51
325.1361620458579864
1001
ACDBBLOCKREPETAG
1070
     1
1071
       32
1005
14909B
  0
ARC
  5
14909C
  8
OBJECT
 10
4078.0
 20
-1353.9999999999959073
 30
0.0
 40
12.0
 50
325.1361620458579864
 51
34.8638379541420704
1001
ACDBBLOCKREPETAG
1070
     1
1071
       33
1005
14909C
  0
LINE
  5
14909D
  8
OBJECT
 10
4087.8461538461669988
 20
-1347.1404625201339513
 30
0.0
 11
4062.3589743590491707
 21
-1310.556262627535034
 31
0.0
1001
ACDBBLOCKREPETAG
1070
     1
1071
       34
1005
14909D
  0
LINE
  5
14909E
  8
OBJECT
 10
4087.8461538461710916
 20
-1360.8595374798569537
 30
0.0
 11
4062.3589743590491707
 21
-1397.4437373724590543
 31
0.0
1001
ACDBBLOCKREPETAG
1070
     1
1071
       35
1005
14909E
  0
ARC
  5
14909F
  8
OBJECT
 10
3961.0
 20
-1286.4500185048109415
 30
0.0
 40
12.0
 50
85.136162045942811
 51
154.8638379541110908
1001
ACDBBLOCKREPETAG
1070
     1
1071
       36
1005
14909F
  0
LINE
  5
1490A0
  8
OBJECT
 10
3950.1363893611469393
 20
-1281.3527678843900048
 30
0.0
 11
3931.1971326205862169
 21
-1321.7174127373471038
 31
0.0
1001
ACDBBLOCKREPETAG
1070
     1
1071
       37
1005
1490A0
  0
LINE
  5
1490A1
  8
OBJECT
 10
3962.0174567926851523
 20
-1274.4932304045260025
 30
0.0
 11
4006.4438930203677955
 21
-1278.2736753648860031
 31
0.0
1001
ACDBBLOCKREPETAG
1070
     1
1071
       38
1005
1490A1
  0
ARC
  5
1490A2
  8
OBJECT
 10
3961.0
 20
-1421.5499814951811004
 30
0.0
 40
12.0
 50
205.1361620458889092
 51
274.8638379540572032
1001
ACDBBLOCKREPETAG
1070
     1
1071
       39
1005
1490A2
  0
LINE
  5
1490A3
  8
OBJECT
 10
3962.0174567926878808
 20
-1433.506769595463993
 30
0.0
 11
4006.4438930203650671
 21
-1429.7263246351069483
 31
0.0
1001
ACDBBLOCKREPETAG
1070
     1
1071
       40
1005
1490A3
  0
LINE
  5
1490A4
  8
OBJECT
 10
3950.1363893611469393
 20
-1426.6472321156049929
 30
0.0
 11
3931.1971326205821242
 21
-1386.2825872626428918
 31
0.0
1001
ACDBBLOCKREPETAG
1070
     1
1071
       41
1005
1490A4
  0
LINE
  5
1490A5
  8
OBJECT
 10
1943.0
 20
-1079.9999999999959073
 30
0.0
 11
2057.0
 21
-1079.9999999999959073
 31
0.0
1001
ACDBBLOCKREPETAG
1070
     1
1071
        0
1005
1490A5
  0
LINE
  5
1490A6
  8
OBJECT
 10
1943.0
 20
-1079.9999999999959073
 30
0.0
 11
1943.0
 21
-979.9999999999961346
 31
0.0
1001
ACDBBLOCKREPETAG
1070
     1
1071
        1
1005
1490A6
  0
LINE
  5
1490A7
  8
OBJECT
 10
2057.0
 20
-1079.9999999999959073
 30
0.0
 11
2057.0
 21
-979.9999999999961346
 31
0.0
1001
ACDBBLOCKREPETAG
1070
     1
1071
        2
1005
1490A7
  0
LINE
  5
1490A8
  8
OBJECT
 10
1943.0
 20
-979.9999999999961346
 30
0.0
 11
2057.0
 21
-979.9999999999961346
 31
0.0
1001
ACDBBLOCKREPETAG
1070
     1
1071
        3
1005
1490A8
  0
LINE
  5
1490A9
  8
HIDDEN
 10
1950.0
 20
-979.9999999999961346
 30
0.0
 11
1950.0
 21
-1079.9999999999959073
 31
0.0
1001
ACDBBLOCKREPETAG
1070
     1
1071
        4
1005
1490A9
  0
LINE
  5
1490AA
  8
HIDDEN
 10
2050.0
 20
-979.9999999999961346
 30
0.0
 11
2050.0
 21
-1079.9999999999959073
 31
0.0
1001
ACDBBLOCKREPETAG
1070
     1
1071
        5
1005
1490AA
  0
LINE
  5
1490AB
  8
CENTER
 10
2000.0
 20
-770.0
 30
0.0
 11
2000.0
 21
-1094.9999999999959073
 31
0.0
1001
ACDBBLOCKREPETAG
1070
     1
1071
        6
1005
1490AB
  0
LINE
  5
1490AC
  8
OBJECT
 10
1925.0
 20
-770.0
 30
0.0
 11
1925.0
 21
-851.999999999996362
 31
0.0
1001
ACDBBLOCKREPETAG
1070
     1
1071
        7
1005
1490AC
  0
LINE
  5
1490AD
  8
OBJECT
 10
2075.0
 20
-770.0
 30
0.0
 11
2075.0
 21
-851.999999999996362
 31
0.0
1001
ACDBBLOCKREPETAG
1070
     1
1071
        8
1005
1490AD
  0
LINE
  5
1490AE
  8
OBJECT
 10
1925.0
 20
-851.999999999996362
 30
0.0
 11
2075.0
 21
-851.999999999996362
 31
0.0
1001
ACDBBLOCKREPETAG
1070
     1
1071
        9
1005
1490AE
  0
LINE
  5
1490AF
  8
OBJECT
 10
1925.0
 20
-851.999999999996362
 30
0.0
 11
1943.0
 21
-979.9999999999961346
 31
0.0
1001
ACDBBLOCKREPETAG
1070
     1
1071
       10
1005
1490AF
  0
LINE
  5
1490B0
  8
OBJECT
 10
2057.0
 20
-979.9999999999961346
 30
0.0
 11
2075.0
 21
-851.999999999996362
 31
0.0
1001
ACDBBLOCKREPETAG
1070
     1
1071
       11
1005
1490B0
  0
TEXT
  5
1490B1
  8
SLIM
 10
3853.75
 20
-1621.4999999999959073
 30
0.0
 40
35.0
  1
両受けスタイル（W）
 41
0.75
  0
TEXT
  5
1490B3
  8
SLIM
 10
5598.8999999999996362
 20
-1767.0658887209619934
 30
0.0
 40
28.0
  1
国土交通大臣認定・（一財）日本消防設備安全センター性能評定取得品
 41
0.75
  0
TEXT
  5
1490B4
  8
SLIM
 10
5631.1000000000003638
 20
-1813.7325553876289632
 30
0.0
 40
28.0
  1
注）ご採用にあたり、認定書及び評定書の内容をご確認ください。
 41
0.75
  0
TEXT
  5
1490B5
  8
SLIM
 10
11824.6000000000003638
 20
-1677.9999999999959073
 30
0.0
 40
28.0
  1
※ 最大対応スラブ厚　260
 41
0.75
  0
TEXT
  5
1490B6
  8
SLIM
 10
11598.8999999999996362
 20
-1771.3333333333300743
 30
0.0
 40
28.0
  1
国土交通大臣認定・（一財）日本消防設備安全センター性能評定取得品
 41
0.75
  0
TEXT
  5
1490B7
  8
SLIM
 10
11631.1000000000003638
 20
-1817.9999999999970441
 30
0.0
 40
28.0
  1
注）ご採用にあたり、認定書及び評定書の内容をご確認ください。
 41
0.75
  0
TEXT
  5
1490B8
  8
SLIM
 10
9824.6000000000003638
 20
-1677.9999999999959073
 30
0.0
 40
28.0
  1
※ 最大対応スラブ厚　260
 41
0.75
  0
TEXT
  5
1490B9
  8
SLIM
 10
9598.8999999999996362
 20
-1771.3333333333300743
 30
0.0
 40
28.0
  1
国土交通大臣認定・（一財）日本消防設備安全センター性能評定取得品
 41
0.75
  0
TEXT
  5
1490BA
  8
SLIM
 10
9631.1000000000003638
 20
-1817.9999999999970441
 30
0.0
 40
28.0
  1
注）ご採用にあたり、認定書及び評定書の内容をご確認ください。
 41
0.75
  0
TEXT
  5
1490BB
  8
SLIM
 10
7771.3999999999978172
 20
-1410.6666666666649235
 30
0.0
 40
28.0
  1
※ 最大対応スラブ厚　220
 41
0.75
  0
TEXT
  5
1490BD
  8
SLIM
 10
7598.8999999999987267
 20
-1501.4056357820670655
 30
0.0
 40
28.0
  1
国土交通大臣認定・（一財）日本消防設備安全センター性能評定取得品
 41
0.75
  0
TEXT
  5
1490BE
  8
SLIM
 10
7631.1000000000003638
 20
-1548.0723024487340354
 30
0.0
 40
28.0
  1
注）ご採用にあたり、認定書及び評定書の内容をご確認ください。
 41
0.75
  0
TEXT
  5
1490BF
  8
SLIM
 10
9739.125000000001819
 20
-1621.4999999999959073
 30
0.0
 40
35.0
  1
両受けスタイル（W）＋シンドカット
 41
0.75
  0
TEXT
  5
1490C0
  8
SLIM
 10
11743.5
 20
-1621.4999999999959073
 30
0.0
 40
35.0
  1
カンペイ君（WKP）＋シンドカット
 41
0.75
  0
TEXT
  5
1490C1
  8
SLIM
 10
7741.625
 20
-1347.4999999999979536
 30
0.0
 40
35.0
  1
片受けスタイル（S）＋シンドカット
 41
0.75
  0
TEXT
  5
1490C2
  8
SLIM
 10
5858.1250000000009095
 20
-1662.4999999999990905
 30
0.0
 40
35.0
  1
カンペイ君（WKP）
 41
0.75
  0
TEXT
  5
1490C3
  8
SLIM
 10
1856.25
 20
-1347.4999999999979536
 30
0.0
 40
35.0
  1
片受けスタイル（S）
 41
0.75
  0
TEXT
  5
1490C4
  8
SLIM
 10
0.0
 20
369.9999999999998863
 30
0.0
 40
100.0
  1
4SL-JLX-WKP
 41
0.75
  0
VIEWPORT
  5
F6BA7
 67
     1
  8
0
 10
173.9657252236004865
 20
101.8328354358671959
 30
0.0
 40
391.2732773398352037
 41
222.1965796813965142
 68
     1
 69
     1
1001
ACAD
1000
MVIEW
1002
{
1070
    16
1010
0.0
1020
0.0
1030
0.0
1010
0.0
1020
0.0
1030
1.0
1040
0.0
1040
222.1965796813965142
1040
173.9657252236004865
1040
101.8328354358671959
1040
50.0
1040
0.0
1040
0.0
1070
     0
1070
     0
1070
     1
1070
     1
1070
     0
1070
     0
1070
     0
1070
     0
1040
0.0
1040
0.0
1040
0.0
1040
10.0
1040
10.0
1040
10.0
1040
10.0
1070
     0
1002
{
1002
}
1002
}
  0
VIEWPORT
  5
F6BA9
 67
     1
  8
OBJECT
 10
145.3303314447402954
 20
101.8328338861465028
 30
0.0
 40
232.5285303115844044
 41
162.9325342178343021
 68
     2
 69
     2
1001
ACAD
1000
MVIEW
1002
{
1070
    16
1010
0.0
1020
0.0
1030
0.0
1010
0.0
1020
0.0
1030
1.0
1040
0.0
1040
25942.5590440314699663
1040
2377.6044570773769919
1040
-7591.5176687056618903
1040
50.0
1040
0.0
1040
0.0
1070
     0
1070
   600
1070
     1
1070
     1
1070
     0
1070
     0
1070
     0
1070
     0
1040
0.0
1040
0.0
1040
0.0
1040
1.0
1040
1.0
1040
0.0
1040
0.0
1070
     0
1002
{
1002
}
1002
}
  0
ENDSEC
  0
EOF
