  0
SECTION
  2
HEADER
  9
$ACADVER
  1
AC1009
  9
$INSBASE
 10
0.0
 20
0.0
 30
0.0
  9
$EXTMIN
 10
0.0
 20
-3697.4999999999991
 30
0.0
  9
$EXTMAX
 10
12399.70000000001
 20
770.0
 30
0.0
  9
$LIMMIN
 10
0.0
 20
0.0
  9
$LIMMAX
 10
210.0
 20
297.0
  9
$ORTHOMODE
 70
     0
  9
$REGENMODE
 70
     1
  9
$FILLMODE
 70
     1
  9
$QTEXTMODE
 70
     0
  9
$MIRRTEXT
 70
     0
  9
$DRAGMODE
 70
     2
  9
$LTSCALE
 40
1.0
  9
$OSMODE
 70
   109
  9
$ATTMODE
 70
     1
  9
$TEXTSIZE
 40
81.786370573614533
  9
$TRACEWID
 40
0.05
  9
$TEXTSTYLE
  7
STANDARD
  9
$CLAYER
  8
OBJECT
  9
$CELTYPE
  6
BYLAYER
  9
$CECOLOR
 62
   256
  9
$DIMSCALE
 40
10.0
  9
$DIMASZ
 40
2.0
  9
$DIMEXO
 40
1.0
  9
$DIMDLI
 40
10.0
  9
$DIMRND
 40
0.0
  9
$DIMDLE
 40
0.0
  9
$DIMEXE
 40
1.0
  9
$DIMTP
 40
0.0
  9
$DIMTM
 40
0.0
  9
$DIMTXT
 40
3.2000000000000002
  9
$DIMCEN
 40
0.0
  9
$DIMTSZ
 40
0.0
  9
$DIMTOL
 70
     0
  9
$DIMLIM
 70
     0
  9
$DIMTIH
 70
     0
  9
$DIMTOH
 70
     0
  9
$DIMSE1
 70
     0
  9
$DIMSE2
 70
     0
  9
$DIMTAD
 70
     1
  9
$DIMZIN
 70
     8
  9
$DIMBLK
  1
OPEN30
  9
$DIMASO
 70
     1
  9
$DIMSHO
 70
     1
  9
$DIMPOST
  1

  9
$DIMAPOST
  1

  9
$DIMALT
 70
     0
  9
$DIMALTD
 70
     2
  9
$DIMALTF
 40
25.399999999999999
  9
$DIMLFAC
 40
1.0
  9
$DIMTOFL
 70
     1
  9
$DIMTVP
 40
0.0
  9
$DIMTIX
 70
     0
  9
$DIMSOXD
 70
     0
  9
$DIMSAH
 70
     0
  9
$DIMBLK1
  1

  9
$DIMBLK2
  1

  9
$DIMSTYLE
  2
S10
  9
$DIMCLRD
 70
   256
  9
$DIMCLRE
 70
   256
  9
$DIMCLRT
 70
   256
  9
$DIMTFAC
 40
1.0
  9
$DIMGAP
 40
0.9
  9
$LUNITS
 70
     2
  9
$LUPREC
 70
     2
  9
$SKETCHINC
 40
0.1
  9
$FILLETRAD
 40
0.0
  9
$AUNITS
 70
     0
  9
$AUPREC
 70
     2
  9
$MENU
  1
ACAD
  9
$ELEVATION
 40
0.0
  9
$PELEVATION
 40
0.0
  9
$THICKNESS
 40
0.0
  9
$LIMCHECK
 70
     0
  9
$BLIPMODE
 70
     0
  9
$CHAMFERA
 40
2.0
  9
$CHAMFERB
 40
2.0
  9
$SKPOLY
 70
     0
  9
$TDCREATE
 40
2453095.4929404748
  9
$TDUPDATE
 40
2457262.5828201268
  9
$TDINDWG
 40
18.6308639005
  9
$TDUSRTIMER
 40
18.6308629977
  9
$USRTIMER
 70
     1
  9
$ANGBASE
 50
0.0
  9
$ANGDIR
 70
     0
  9
$PDMODE
 70
    35
  9
$PDSIZE
 40
2.0
  9
$PLINEWID
 40
0.0
  9
$COORDS
 70
     1
  9
$SPLFRAME
 70
     0
  9
$SPLINETYPE
 70
     6
  9
$SPLINESEGS
 70
     8
  9
$ATTDIA
 70
     0
  9
$ATTREQ
 70
     1
  9
$HANDLING
 70
     1
  9
$HANDSEED
  5
146AC7
  9
$SURFTAB1
 70
     6
  9
$SURFTAB2
 70
     6
  9
$SURFTYPE
 70
     6
  9
$SURFU
 70
     6
  9
$SURFV
 70
     6
  9
$UCSNAME
  2

  9
$UCSORG
 10
0.0
 20
0.0
 30
0.0
  9
$UCSXDIR
 10
1.0
 20
0.0
 30
0.0
  9
$UCSYDIR
 10
0.0
 20
1.0
 30
0.0
  9
$PUCSNAME
  2

  9
$PUCSORG
 10
0.0
 20
0.0
 30
0.0
  9
$PUCSXDIR
 10
1.0
 20
0.0
 30
0.0
  9
$PUCSYDIR
 10
0.0
 20
1.0
 30
0.0
  9
$USERI1
 70
     0
  9
$USERI2
 70
     0
  9
$USERI3
 70
     0
  9
$USERI4
 70
     0
  9
$USERI5
 70
     0
  9
$USERR1
 40
0.0
  9
$USERR2
 40
0.0
  9
$USERR3
 40
0.0
  9
$USERR4
 40
0.0
  9
$USERR5
 40
0.0
  9
$WORLDVIEW
 70
     1
  9
$SHADEDGE
 70
     3
  9
$SHADEDIF
 70
    70
  9
$TILEMODE
 70
     1
  9
$MAXACTVP
 70
    64
  9
$PLIMCHECK
 70
     0
  9
$PEXTMIN
 10
29.066066288948051
 20
20.366566777229309
 30
0.0
  9
$PEXTMAX
 10
261.5945966005325
 20
183.29910099506381
 30
0.0
  9
$PLIMMIN
 10
-3.17498779296875
 20
-3.1749999523162842
  9
$PLIMMAX
 10
293.83566284179687
 20
206.8406708240509
  9
$UNITMODE
 70
     0
  9
$VISRETAIN
 70
     1
  9
$PLINEGEN
 70
     0
  9
$PSLTSCALE
 70
     1
  0
ENDSEC
  0
SECTION
  2
TABLES
  0
TABLE
  2
VPORT
 70
     1
  0
VPORT
  2
*ACTIVE
 70
     0
 10
0.0
 20
0.0
 11
1.0
 21
1.0
 12
5170.3713792917179
 22
-1854.1644161209761
 13
0.0
 23
0.0
 14
1.0
 24
1.0
 15
0.0
 25
0.0
 16
0.0
 26
0.0
 36
1.0
 17
0.0
 27
0.0
 37
0.0
 40
9801.6640776753957
 41
1.6494178525226391
 42
50.0
 43
0.0
 44
0.0
 50
0.0
 51
0.0
 71
     0
 72
   600
 73
     1
 74
     1
 75
     0
 76
     0
 77
     0
 78
     0
  0
ENDTAB
  0
TABLE
  2
LTYPE
 70
     4
  0
LTYPE
  2
CONTINUOUS
 70
     0
  3
Solid line
 72
    65
 73
     0
 40
0.0
  0
LTYPE
  2
PHANTOM2
 70
     0
  3
___ _ _ ___ _ _ ___ _ _ ___ _ _
 72
    65
 73
     6
 40
1.25
 49
0.625
 49
-0.125
 49
0.125
 49
-0.125
 49
0.125
 49
-0.125
  0
LTYPE
  2
ACAD_ISO08W100
 70
     0
  3
ISO long-dash short-dash ____ __ ____ __ ____ _
 72
    65
 73
     4
 40
36.0
 49
24.0
 49
-3.0
 49
6.0
 49
-3.0
  0
LTYPE
  2
ACAD_ISO02W100
 70
     0
  3
ISO dash __ __ __ __ __ __ __ __ __ __ __ __ __
 72
    65
 73
     2
 40
15.0
 49
12.0
 49
-3.0
  0
ENDTAB
  0
TABLE
  2
LAYER
 70
     8
  0
LAYER
  2
0
 70
     0
 62
     7
  6
CONTINUOUS
  0
LAYER
  2
OBJECT
 70
     0
 62
     4
  6
CONTINUOUS
  0
LAYER
  2
DEFPOINTS
 70
     0
 62
     7
  6
CONTINUOUS
  0
LAYER
  2
DIM
 70
     0
 62
     7
  6
CONTINUOUS
  0
LAYER
  2
HIDDEN
 70
     0
 62
     2
  6
ACAD_ISO02W100
  0
LAYER
  2
CENTER
 70
     0
 62
     2
  6
ACAD_ISO08W100
  0
LAYER
  2
DOTS
 70
     0
 62
     1
  6
CONTINUOUS
  0
LAYER
  2
SLIM
 70
     0
 62
     2
  6
CONTINUOUS
  0
ENDTAB
  0
TABLE
  2
STYLE
 70
     2
  0
STYLE
  2
STANDARD
 70
     0
 40
0.0
 41
0.75
 50
0.0
 71
     0
 42
81.786370573614533
  3
simplex.shx
  4
bigfont.shx
  0
ENDTAB
  0
TABLE
  2
VIEW
 70
     0
  0
ENDTAB
  0
TABLE
  2
UCS
 70
     0
  0
ENDTAB
  0
TABLE
  2
APPID
 70
    19
  0
APPID
  2
ACAD
 70
     0
  0
APPID
  2
ACADANNOTATIVE
 70
     0
  0
APPID
  2
ACAD_PSEXT
 70
     0
  0
APPID
  2
ACAD_EXEMPT_FROM_CAD_STANDARDS
 70
     0
  0
APPID
  2
ACAECLAYERSTANDARD
 70
     0
  0
APPID
  2
ACAUTHENVIRON
 70
     0
  0
APPID
  2
ACDBDYNAMICBLOCKTRUENAME
 70
     0
  0
APPID
  2
ACDBDYNAMICBLOCKGUID
 70
     0
  0
APPID
  2
ACDBBLOCKREPETAG
 70
     0
  0
APPID
  2
ACDBBLOCKREPBTAG
 70
     0
  0
APPID
  2
ACAD_NAV_VCDISPLAY
 70
     0
  0
APPID
  2
ACAD_DSTYLE_DIMRADIAL_EXTENSION
 70
     0
  0
APPID
  2
ACAD_DSTYLE_DIMJAG
 70
     0
  0
APPID
  2
ACAD_DSTYLE_DIMTALN
 70
     0
  0
APPID
  2
ACADANNOPO
 70
     0
  0
APPID
  2
GRADIENTCOLOR1ACI
 70
     0
  0
APPID
  2
GRADIENTCOLOR2ACI
 70
     0
  0
APPID
  2
ACADANNOMONITORALERTICONDI
 70
     0
  0
APPID
  2
ACAD_MLEADERVER
 70
     0
  0
ENDTAB
  0
TABLE
  2
DIMSTYLE
 70
     3
  0
DIMSTYLE
  2
STANDARD
 70
     0
  3

  4

  5

  6

  7

 40
1.0
 41
0.18
 42
0.0625
 43
0.38
 44
0.18
 45
0.0
 46
0.0
 47
0.0
 48
0.0
140
0.18
141
0.09
142
0.0
143
25.399999999999999
144
1.0
145
0.0
146
1.0
147
0.09
 71
     0
 72
     0
 73
     1
 74
     1
 75
     0
 76
     0
 77
     0
 78
     0
170
     0
171
     2
172
     0
173
     0
174
     0
175
     0
176
     0
177
     0
178
     0
  0
DIMSTYLE
  2
S10
 70
     0
  3

  4

  5

  6

  7

 40
10.0
 41
2.0
 42
1.0
 43
10.0
 44
1.0
 45
0.0
 46
0.0
 47
0.0
 48
0.0
140
3.2000000000000002
141
0.0
142
0.0
143
25.399999999999999
144
1.0
145
0.0
146
1.0
147
0.9
 71
     0
 72
     0
 73
     0
 74
     0
 75
     0
 76
     0
 77
     1
 78
     8
170
     0
171
     2
172
     1
173
     0
174
     0
175
     0
176
   256
177
   256
178
   256
  0
ENDTAB
  0
ENDSEC
  0
SECTION
  2
BLOCKS
  0
BLOCK
  8
0
  2
$MODEL_SPACE
 70
     0
 10
0.0
 20
0.0
 30
0.0
  3
$MODEL_SPACE
  1

  0
ENDBLK
  5
14678B
  8
0
  0
BLOCK
 67
     1
  8
0
  2
$PAPER_SPACE
 70
     0
 10
0.0
 20
0.0
 30
0.0
  3
$PAPER_SPACE
  1

  0
ENDBLK
  5
146787
 67
     1
  8
0
  0
BLOCK
  8
0
  2
_OPEN30
 70
     0
 10
0.0
 20
0.0
 30
0.0
  3
_OPEN30
  1

  0
LINE
  5
202
  8
0
  6
BYBLOCK
 62
     0
 10
-1.0
 20
0.26794919
 30
0.0
 11
0.0
 21
0.0
 31
0.0
  0
LINE
  5
203
  8
0
  6
BYBLOCK
 62
     0
 10
0.0
 20
0.0
 30
0.0
 11
-1.0
 21
-0.26794919
 31
0.0
  0
LINE
  5
204
  8
0
  6
BYBLOCK
 62
     0
 10
0.0
 20
0.0
 30
0.0
 11
-1.0
 21
0.0
 31
0.0
  0
ENDBLK
  5
206
  8
0
  0
BLOCK
  8
0
  2
*U292
 70
     1
 10
0.0
 20
0.0
 30
0.0
  3
*U292
  1

  0
TEXT
  5
146698
  8
SLIM
 10
123.0000000006111
 20
-599.42857142856485
 30
0.0
 40
26.0
  1
75R
 50
90.0
  0
ENDBLK
  5
14669A
  8
0
  0
BLOCK
  8
0
  2
*U293
 70
     1
 10
0.0
 20
0.0
 30
0.0
  3
*U293
  1

  0
TEXT
  5
14669C
  8
SLIM
 10
493.00000000069122
 20
-145.4285714285584
 30
0.0
 40
26.0
  1
65R
 50
90.0
  0
ENDBLK
  5
14669E
  8
0
  0
BLOCK
  8
0
  2
*U294
 70
     1
 10
0.0
 20
0.0
 30
0.0
  3
*U294
  1

  0
TEXT
  5
1466A0
  8
SLIM
 10
133.00000000061121
 20
-145.4285714285584
 30
0.0
 40
26.0
  1
50R
 50
90.0
  0
ENDBLK
  5
1466A2
  8
0
  0
BLOCK
  8
0
  2
*U295
 70
     1
 10
0.0
 20
0.0
 30
0.0
  3
*U295
  1

  0
TEXT
  5
1466B3
  8
DIM
 10
2086.071428571428
 20
-2892.3165746124059
 30
0.0
 40
32.0
  1
E
 41
0.75
  0
ENDBLK
  5
1466B5
  8
0
  0
BLOCK
  8
0
  2
*U296
 70
     1
 10
0.0
 20
0.0
 30
0.0
  3
*U296
  1

  0
TEXT
  5
1466B7
  8
DIM
 10
2062.571428571428
 20
-2958.1223535003292
 30
0.0
 40
32.0
  1
F
 41
0.75
  0
ENDBLK
  5
1466B9
  8
0
  0
BLOCK
  8
0
  2
*U297
 70
     1
 10
0.0
 20
0.0
 30
0.0
  3
*U297
  1

  0
TEXT
  5
1466BB
  8
DIM
 10
2253.6903592692688
 20
-3132.9999999999932
 30
0.0
 40
32.0
  1
D
 50
90.0
 41
0.75
  0
ENDBLK
  5
1466BD
  8
0
  0
BLOCK
  8
0
  2
*U298
 70
     1
 10
0.0
 20
0.0
 30
0.0
  3
*U298
  1

  0
TEXT
  5
1466BF
  8
DIM
 10
2243.6360868796769
 20
-3565.999999999995
 30
0.0
 40
32.0
  1
B
 50
90.0
 41
0.75
  0
ENDBLK
  5
1466C1
  8
0
  0
BLOCK
  8
0
  2
*U299
 70
     1
 10
0.0
 20
0.0
 30
0.0
  3
*U299
  1

  0
TEXT
  5
1466C3
  8
DIM
 10
2144.8571428571431
 20
-3028.4747578501879
 30
0.0
 40
32.0
  1
A
 41
0.75
  0
ENDBLK
  5
1466C5
  8
0
  0
ENDSEC
  0
SECTION
  2
ENTITIES
  0
LINE
  5
13A2FF
  8
SLIM
 10
2600.0
 20
-2734.9999999999959
 30
0.0
 11
2600.0
 21
-3204.9999999999959
 31
0.0
  0
LINE
  5
13A300
  8
SLIM
 10
2724.0
 20
-2734.9999999999959
 30
0.0
 11
2724.0
 21
-3204.9999999999959
 31
0.0
  0
LINE
  5
13A301
  8
SLIM
 10
2854.0
 20
-2794.9999999999959
 30
0.0
 11
2854.0
 21
-3204.9999999999959
 31
0.0
  0
LINE
  5
13A302
  8
SLIM
 10
2984.0
 20
-2794.9999999999959
 30
0.0
 11
2984.0
 21
-3204.9999999999959
 31
0.0
  0
LINE
  5
13A303
  8
SLIM
 10
3114.0
 20
-3204.9999999999959
 30
0.0
 11
3114.0
 21
-2794.9999999999959
 31
0.0
  0
LINE
  5
13A304
  8
SLIM
 10
3244.0
 20
-3204.9999999999959
 30
0.0
 11
3244.0
 21
-2734.9999999999959
 31
0.0
  0
LINE
  5
13A305
  8
SLIM
 10
3244.0
 20
-2734.9999999999959
 30
0.0
 11
2600.0
 21
-2734.9999999999959
 31
0.0
  0
LINE
  5
13A306
  8
SLIM
 10
3244.0
 20
-2794.9999999999959
 30
0.0
 11
2724.0
 21
-2794.9999999999959
 31
0.0
  0
LINE
  5
13A307
  8
SLIM
 10
3244.0
 20
-2854.999999999995
 30
0.0
 11
2600.0
 21
-2854.999999999995
 31
0.0
  0
LINE
  5
13A308
  8
SLIM
 10
3244.0
 20
-2924.999999999995
 30
0.0
 11
2600.0
 21
-2924.999999999995
 31
0.0
  0
LINE
  5
13A30A
  8
SLIM
 10
3244.0
 20
-2994.9999999999959
 30
0.0
 11
2600.0
 21
-2994.9999999999959
 31
0.0
  0
LINE
  5
13A31F
  8
SLIM
 10
2724.0
 20
-2854.999999999995
 30
0.0
 11
2599.9999722746579
 21
-2734.9999839527259
 31
0.0
  0
LINE
  5
13A320
  8
SLIM
 10
3244.0
 20
-3064.9999999999959
 30
0.0
 11
2600.0
 21
-3064.9999999999959
 31
0.0
  0
LINE
  5
13A325
  8
SLIM
 10
3244.0
 20
-3134.9999999999959
 30
0.0
 11
2600.0
 21
-3134.9999999999959
 31
0.0
  0
LINE
  5
13A32A
  8
SLIM
 10
3244.0
 20
-3204.9999999999959
 30
0.0
 11
2600.0
 21
-3204.9999999999959
 31
0.0
  0
LINE
  5
13A32F
  8
SLIM
 10
3244.0
 20
-3064.9999999999959
 30
0.0
 11
3114.0
 21
-2994.9999999999959
 31
0.0
  0
LINE
  5
13A330
  8
SLIM
 10
3244.0
 20
-3134.9999999999959
 30
0.0
 11
3114.0
 21
-3064.9999999999959
 31
0.0
  0
LINE
  5
13A331
  8
SLIM
 10
3244.0
 20
-3204.9999999999959
 30
0.0
 11
3114.0
 21
-3134.9999999999959
 31
0.0
  0
LINE
  5
13A34E
  8
OBJECT
 10
2877.0
 20
-3395.9999999999968
 30
0.0
 11
2877.0
 21
-3374.9999999999959
 31
0.0
1001
ACDBBLOCKREPETAG
1070
     1
1071
        0
1005
13A34E
  0
LINE
  5
13A34F
  8
OBJECT
 10
2877.0
 20
-3374.9999999999959
 30
0.0
 11
2723.0
 21
-3374.9999999999959
 31
0.0
1001
ACDBBLOCKREPETAG
1070
     1
1071
        1
1005
13A34F
  0
LINE
  5
13A350
  8
HIDDEN
 10
2857.0
 20
-3444.9999999999968
 30
0.0
 11
2743.0
 21
-3444.9999999999968
 31
0.0
1001
ACDBBLOCKREPETAG
1070
     1
1071
        2
1005
13A350
  0
LINE
  5
13A351
  8
OBJECT
 10
2723.0
 20
-3374.9999999999959
 30
0.0
 11
2723.0
 21
-3395.9999999999968
 31
0.0
1001
ACDBBLOCKREPETAG
1070
     1
1071
        3
1005
13A351
  0
LINE
  5
13A352
  8
OBJECT
 10
2723.0
 20
-3395.9999999999968
 30
0.0
 11
2877.0
 21
-3395.9999999999968
 31
0.0
1001
ACDBBLOCKREPETAG
1070
     1
1071
        4
1005
13A352
  0
LINE
  5
13A353
  8
CENTER
 10
2800.0
 20
-3359.9999999999968
 30
0.0
 11
2800.0
 21
-3594.9999999999968
 31
0.0
1001
ACDBBLOCKREPETAG
1070
     1
1071
        5
1005
13A353
  0
LINE
  5
13A354
  8
OBJECT
 10
2875.0
 20
-3458.9999999999968
 30
0.0
 11
2875.0
 21
-3582.9999999999968
 31
0.0
1001
ACDBBLOCKREPETAG
1070
     1
1071
        6
1005
13A354
  0
LINE
  5
13A355
  8
OBJECT
 10
2872.0
 20
-3395.9999999999968
 30
0.0
 11
2872.0
 21
-3458.9999999999968
 31
0.0
1001
ACDBBLOCKREPETAG
1070
     1
1071
        7
1005
13A355
  0
LINE
  5
13A356
  8
OBJECT
 10
2728.0
 20
-3458.9999999999968
 30
0.0
 11
2728.0
 21
-3395.9999999999968
 31
0.0
1001
ACDBBLOCKREPETAG
1070
     1
1071
        8
1005
13A356
  0
LINE
  5
13A357
  8
OBJECT
 10
2725.0000000002001
 20
-3582.9999999997749
 30
0.0
 11
2720.0
 21
-3582.9999999999968
 31
0.0
1001
ACDBBLOCKREPETAG
1070
     1
1071
        9
1005
13A357
  0
LINE
  5
13A358
  8
OBJECT
 10
2720.0
 20
-3458.9999999999968
 30
0.0
 11
2875.0
 21
-3458.9999999999968
 31
0.0
1001
ACDBBLOCKREPETAG
1070
     1
1071
       10
1005
13A358
  0
ARC
  5
13A359
  8
OBJECT
 10
2599.3127253283269
 20
-3574.4080994101041
 30
0.0
 40
170.6350503965856
 50
30.080504186640059
 51
42.558655408156817
1001
ACDBBLOCKREPETAG
1070
     1
1071
       15
1005
13A359
  0
ARC
  5
13A35A
  8
OBJECT
 10
2681.1544012959489
 20
-3530.8827266953631
 30
0.0
 40
78.072222021763665
 50
15.336340022811919
 51
32.544846896196411
1001
ACDBBLOCKREPETAG
1070
     1
1071
       16
1005
13A35A
  0
ARC
  5
13A35B
  8
OBJECT
 10
2714.2445650391269
 20
-3520.9999999999968
 30
0.0
 40
43.55353926885617
 50
345.6884523008485
 51
14.31154769915158
1001
ACDBBLOCKREPETAG
1070
     1
1071
       17
1005
13A35B
  0
ARC
  5
13A35C
  8
OBJECT
 10
2599.3127253283269
 20
-3467.5919005898882
 30
0.0
 40
170.6350503965856
 50
317.44134459184318
 51
329.9194958133599
1001
ACDBBLOCKREPETAG
1070
     1
1071
       18
1005
13A35C
  0
ARC
  5
13A35D
  8
OBJECT
 10
2681.1544012959489
 20
-3511.1172733046319
 30
0.0
 40
78.072222021763665
 50
327.45515310380358
 51
344.66365997718799
1001
ACDBBLOCKREPETAG
1070
     1
1071
       19
1005
13A35D
  0
POINT
  5
13A35E
  8
DOTS
 10
2800.0
 20
-3579.9999999999959
 30
0.0
 50
180.0
1001
ACDBBLOCKREPETAG
1070
     1
1071
      186
1005
13A35E
  0
LINE
  5
13A360
  8
OBJECT
 10
1825.0
 20
-3579.9999999999959
 30
0.0
 11
5975.0
 21
-3579.9999999999959
 31
0.0
  0
LINE
  5
13A37D
  8
OBJECT
 10
4377.0
 20
-3395.9999999999968
 30
0.0
 11
4377.0
 21
-3374.9999999999959
 31
0.0
1001
ACDBBLOCKREPETAG
1070
     1
1071
        0
1005
13A34E
  0
LINE
  5
13A37E
  8
OBJECT
 10
4377.0
 20
-3374.9999999999959
 30
0.0
 11
4223.0
 21
-3374.9999999999959
 31
0.0
1001
ACDBBLOCKREPETAG
1070
     1
1071
        1
1005
13A34F
  0
LINE
  5
13A37F
  8
HIDDEN
 10
4357.0
 20
-3444.9999999999968
 30
0.0
 11
4243.0
 21
-3444.9999999999968
 31
0.0
1001
ACDBBLOCKREPETAG
1070
     1
1071
        2
1005
13A350
  0
LINE
  5
13A380
  8
OBJECT
 10
4223.0
 20
-3374.9999999999959
 30
0.0
 11
4223.0
 21
-3395.9999999999968
 31
0.0
1001
ACDBBLOCKREPETAG
1070
     1
1071
        3
1005
13A351
  0
LINE
  5
13A381
  8
OBJECT
 10
4223.0
 20
-3395.9999999999968
 30
0.0
 11
4377.0
 21
-3395.9999999999968
 31
0.0
1001
ACDBBLOCKREPETAG
1070
     1
1071
        4
1005
13A352
  0
LINE
  5
13A382
  8
CENTER
 10
4300.0
 20
-3359.9999999999968
 30
0.0
 11
4300.0
 21
-3594.9999999999968
 31
0.0
1001
ACDBBLOCKREPETAG
1070
     1
1071
        5
1005
13A353
  0
LINE
  5
13A383
  8
OBJECT
 10
4375.0
 20
-3458.9999999999968
 30
0.0
 11
4375.0
 21
-3582.9999999999968
 31
0.0
1001
ACDBBLOCKREPETAG
1070
     1
1071
        6
1005
13A354
  0
LINE
  5
13A384
  8
OBJECT
 10
4372.0
 20
-3395.9999999999968
 30
0.0
 11
4372.0
 21
-3458.9999999999968
 31
0.0
1001
ACDBBLOCKREPETAG
1070
     1
1071
        7
1005
13A355
  0
LINE
  5
13A385
  8
OBJECT
 10
4228.0
 20
-3458.9999999999968
 30
0.0
 11
4228.0
 21
-3395.9999999999968
 31
0.0
1001
ACDBBLOCKREPETAG
1070
     1
1071
        8
1005
13A356
  0
LINE
  5
13A386
  8
OBJECT
 10
4225.0000000002001
 20
-3582.9999999997749
 30
0.0
 11
4220.0
 21
-3582.9999999999968
 31
0.0
1001
ACDBBLOCKREPETAG
1070
     1
1071
        9
1005
13A357
  0
LINE
  5
13A387
  8
OBJECT
 10
4220.0
 20
-3458.9999999999968
 30
0.0
 11
4375.0
 21
-3458.9999999999968
 31
0.0
1001
ACDBBLOCKREPETAG
1070
     1
1071
       10
1005
13A358
  0
ARC
  5
13A388
  8
OBJECT
 10
4099.3127253283283
 20
-3574.4080994101041
 30
0.0
 40
170.6350503965856
 50
30.080504186640059
 51
42.558655408156817
1001
ACDBBLOCKREPETAG
1070
     1
1071
       15
1005
13A359
  0
ARC
  5
13A389
  8
OBJECT
 10
4181.1544012959494
 20
-3530.8827266953631
 30
0.0
 40
78.072222021763665
 50
15.336340022811919
 51
32.544846896196411
1001
ACDBBLOCKREPETAG
1070
     1
1071
       16
1005
13A35A
  0
ARC
  5
13A38A
  8
OBJECT
 10
4214.2445650391273
 20
-3520.9999999999968
 30
0.0
 40
43.55353926885617
 50
345.6884523008485
 51
14.31154769915158
1001
ACDBBLOCKREPETAG
1070
     1
1071
       17
1005
13A35B
  0
ARC
  5
13A38B
  8
OBJECT
 10
4099.3127253283283
 20
-3467.5919005898882
 30
0.0
 40
170.6350503965856
 50
317.44134459184318
 51
329.9194958133599
1001
ACDBBLOCKREPETAG
1070
     1
1071
       18
1005
13A35C
  0
ARC
  5
13A38C
  8
OBJECT
 10
4181.1544012959494
 20
-3511.1172733046319
 30
0.0
 40
78.072222021763665
 50
327.45515310380358
 51
344.66365997718799
1001
ACDBBLOCKREPETAG
1070
     1
1071
       19
1005
13A35D
  0
POINT
  5
13A38D
  8
DOTS
 10
4300.0
 20
-3579.9999999999959
 30
0.0
 50
180.0
1001
ACDBBLOCKREPETAG
1070
     1
1071
      186
1005
13A35E
  0
LINE
  5
13A3B2
  8
OBJECT
 10
5877.0
 20
-3395.9999999999968
 30
0.0
 11
5877.0
 21
-3374.9999999999959
 31
0.0
1001
ACDBBLOCKREPETAG
1070
     1
1071
        0
1005
13A34E
  0
LINE
  5
13A3B3
  8
OBJECT
 10
5877.0
 20
-3374.9999999999959
 30
0.0
 11
5723.0
 21
-3374.9999999999959
 31
0.0
1001
ACDBBLOCKREPETAG
1070
     1
1071
        1
1005
13A34F
  0
LINE
  5
13A3B4
  8
HIDDEN
 10
5857.0
 20
-3444.9999999999968
 30
0.0
 11
5743.0
 21
-3444.9999999999968
 31
0.0
1001
ACDBBLOCKREPETAG
1070
     1
1071
        2
1005
13A350
  0
LINE
  5
13A3B5
  8
OBJECT
 10
5723.0
 20
-3374.9999999999959
 30
0.0
 11
5723.0
 21
-3395.9999999999968
 31
0.0
1001
ACDBBLOCKREPETAG
1070
     1
1071
        3
1005
13A351
  0
LINE
  5
13A3B6
  8
OBJECT
 10
5723.0
 20
-3395.9999999999968
 30
0.0
 11
5877.0
 21
-3395.9999999999968
 31
0.0
1001
ACDBBLOCKREPETAG
1070
     1
1071
        4
1005
13A352
  0
LINE
  5
13A3B7
  8
CENTER
 10
5800.0
 20
-3359.9999999999968
 30
0.0
 11
5800.0
 21
-3594.9999999999968
 31
0.0
1001
ACDBBLOCKREPETAG
1070
     1
1071
        5
1005
13A353
  0
LINE
  5
13A3B8
  8
OBJECT
 10
5875.0
 20
-3458.9999999999968
 30
0.0
 11
5875.0
 21
-3582.9999999999968
 31
0.0
1001
ACDBBLOCKREPETAG
1070
     1
1071
        6
1005
13A354
  0
LINE
  5
13A3B9
  8
OBJECT
 10
5872.0
 20
-3395.9999999999968
 30
0.0
 11
5872.0
 21
-3458.9999999999968
 31
0.0
1001
ACDBBLOCKREPETAG
1070
     1
1071
        7
1005
13A355
  0
LINE
  5
13A3BA
  8
OBJECT
 10
5728.0
 20
-3458.9999999999968
 30
0.0
 11
5728.0
 21
-3395.9999999999968
 31
0.0
1001
ACDBBLOCKREPETAG
1070
     1
1071
        8
1005
13A356
  0
LINE
  5
13A3BB
  8
OBJECT
 10
5725.0000000002001
 20
-3582.9999999997749
 30
0.0
 11
5720.0
 21
-3582.9999999999968
 31
0.0
1001
ACDBBLOCKREPETAG
1070
     1
1071
        9
1005
13A357
  0
LINE
  5
13A3BC
  8
OBJECT
 10
5720.0
 20
-3458.9999999999968
 30
0.0
 11
5875.0
 21
-3458.9999999999968
 31
0.0
1001
ACDBBLOCKREPETAG
1070
     1
1071
       10
1005
13A358
  0
ARC
  5
13A3BD
  8
OBJECT
 10
5599.3127253283283
 20
-3574.4080994101041
 30
0.0
 40
170.6350503965856
 50
30.080504186640059
 51
42.558655408156817
1001
ACDBBLOCKREPETAG
1070
     1
1071
       15
1005
13A359
  0
ARC
  5
13A3BE
  8
OBJECT
 10
5681.1544012959484
 20
-3530.8827266953631
 30
0.0
 40
78.072222021763665
 50
15.336340022811919
 51
32.544846896196411
1001
ACDBBLOCKREPETAG
1070
     1
1071
       16
1005
13A35A
  0
ARC
  5
13A3BF
  8
OBJECT
 10
5714.2445650391273
 20
-3520.9999999999968
 30
0.0
 40
43.55353926885617
 50
345.6884523008485
 51
14.31154769915158
1001
ACDBBLOCKREPETAG
1070
     1
1071
       17
1005
13A35B
  0
ARC
  5
13A3C0
  8
OBJECT
 10
5599.3127253283283
 20
-3467.5919005898882
 30
0.0
 40
170.6350503965856
 50
317.44134459184318
 51
329.9194958133599
1001
ACDBBLOCKREPETAG
1070
     1
1071
       18
1005
13A35C
  0
ARC
  5
13A3C1
  8
OBJECT
 10
5681.1544012959484
 20
-3511.1172733046319
 30
0.0
 40
78.072222021763665
 50
327.45515310380358
 51
344.66365997718799
1001
ACDBBLOCKREPETAG
1070
     1
1071
       19
1005
13A35D
  0
POINT
  5
13A3C2
  8
DOTS
 10
5800.0
 20
-3579.9999999999959
 30
0.0
 50
180.0
1001
ACDBBLOCKREPETAG
1070
     1
1071
      186
1005
13A35E
  0
ARC
  5
13A3D2
  8
OBJECT
 10
2400.0
 20
-3520.9999999999968
 30
0.0
 40
62.0
 50
26.25661040972242
 51
308.53221085462093
1001
ACDBBLOCKREPETAG
1070
     1
1071
      170
1005
13A3D2
  0
LINE
  5
13A3D3
  8
CENTER
 10
2515.0
 20
-3535.9999999999959
 30
0.0
 11
2351.4999963633609
 21
-3535.9999999999959
 31
0.0
1001
ACDBBLOCKREPETAG
1070
     1
1071
      171
1005
13A3D3
  0
LINE
  5
13A3D4
  8
OBJECT
 10
2493.0
 20
-3488.9999999999968
 30
0.0
 11
2500.0
 21
-3488.9999999999968
 31
0.0
1001
ACDBBLOCKREPETAG
1070
     1
1071
      172
1005
13A3D4
  0
LINE
  5
13A3D5
  8
OBJECT
 10
2500.0
 20
-3488.9999999999968
 30
0.0
 11
2500.0
 21
-3579.9999999999959
 31
0.0
1001
ACDBBLOCKREPETAG
1070
     1
1071
      173
1005
13A3D5
  0
LINE
  5
13A3D6
  8
OBJECT
 10
2493.0
 20
-3579.9999999999959
 30
0.0
 11
2493.0
 21
-3488.9999999999968
 31
0.0
1001
ACDBBLOCKREPETAG
1070
     1
1071
      175
1005
13A3D6
  0
LINE
  5
13A3D7
  8
OBJECT
 10
2493.0
 20
-3491.9999999999968
 30
0.0
 11
2457.0
 21
-3491.9999999999968
 31
0.0
1001
ACDBBLOCKREPETAG
1070
     1
1071
      176
1005
13A3D7
  0
LINE
  5
13A3D8
  8
OBJECT
 10
2457.0
 20
-3491.9999999999968
 30
0.0
 11
2457.0
 21
-3579.9999999999959
 31
0.0
1001
ACDBBLOCKREPETAG
1070
     1
1071
      177
1005
13A3D8
  0
LINE
  5
13A3D9
  8
OBJECT
 10
2453.0
 20
-3496.4999999999968
 30
0.0
 11
2440.0
 21
-3496.4999999999968
 31
0.0
1001
ACDBBLOCKREPETAG
1070
     1
1071
      178
1005
13A3D9
  0
LINE
  5
13A3DA
  8
OBJECT
 10
2457.0
 20
-3579.9999999999959
 30
0.0
 11
2500.0
 21
-3579.9999999999959
 31
0.0
1001
ACDBBLOCKREPETAG
1070
     1
1071
      179
1005
13A3DA
  0
LINE
  5
13A3DB
  8
OBJECT
 10
2440.0
 20
-3575.4999999999968
 30
0.0
 11
2453.0
 21
-3575.4999999999968
 31
0.0
1001
ACDBBLOCKREPETAG
1070
     1
1071
      180
1005
13A3DB
  0
LINE
  5
13A3DC
  8
OBJECT
 10
2453.0
 20
-3575.4999999999968
 30
0.0
 11
2453.0
 21
-3496.4999999999968
 31
0.0
1001
ACDBBLOCKREPETAG
1070
     1
1071
      181
1005
13A3DC
  0
LINE
  5
13A3DD
  8
OBJECT
 10
2457.0
 20
-3491.9999999999968
 30
0.0
 11
2453.0
 21
-3496.4999999999968
 31
0.0
1001
ACDBBLOCKREPETAG
1070
     1
1071
      182
1005
13A3DD
  0
LINE
  5
13A3DE
  8
HIDDEN
 10
2448.0
 20
-3505.9999999999968
 30
0.0
 11
2448.0
 21
-3565.9999999999959
 31
0.0
1001
ACDBBLOCKREPETAG
1070
     1
1071
      183
1005
13A3DE
  0
LINE
  5
13A3DF
  8
OBJECT
 10
2457.0
 20
-3579.9999999999959
 30
0.0
 11
2453.0
 21
-3575.4999999999968
 31
0.0
1001
ACDBBLOCKREPETAG
1070
     1
1071
      184
1005
13A3DF
  0
LINE
  5
13A3E0
  8
OBJECT
 10
2439.9999643839842
 20
-3502.4999999999959
 30
0.0
 11
2399.99999636336
 21
-3502.4999999999959
 31
0.0
1001
ACDBBLOCKREPETAG
1070
     1
1071
      185
1005
13A3E0
  0
LINE
  5
13A3E1
  8
OBJECT
 10
2439.9999643839842
 20
-3575.500000470583
 30
0.0
 11
2439.9999643839842
 21
-3496.5000004705848
 31
0.0
1001
ACDBBLOCKREPETAG
1070
     1
1071
      186
1005
13A3E1
  0
LINE
  5
13A3E2
  8
OBJECT
 10
2439.9999643839842
 20
-3569.4999999999968
 30
0.0
 11
2399.99999636336
 21
-3569.4999999999968
 31
0.0
1001
ACDBBLOCKREPETAG
1070
     1
1071
      187
1005
13A3E2
  0
ARC
  5
13A3E3
  8
OBJECT
 10
2399.99999636336
 20
-3535.9999999999959
 30
0.0
 40
33.5
 50
90.0
 51
270.0
1001
ACDBBLOCKREPETAG
1070
     1
1071
      188
1005
13A3E3
  0
LINE
  5
13A3E4
  8
OBJECT
 10
2323.0
 20
-3395.9999999999968
 30
0.0
 11
2323.0
 21
-3374.9999999999959
 31
0.0
1001
ACDBBLOCKREPETAG
1070
     1
1071
       20
1005
13A3E4
  0
LINE
  5
13A3E5
  8
OBJECT
 10
2323.0
 20
-3374.9999999999959
 30
0.0
 11
2477.0
 21
-3374.9999999999959
 31
0.0
1001
ACDBBLOCKREPETAG
1070
     1
1071
       21
1005
13A3E5
  0
LINE
  5
13A3E6
  8
HIDDEN
 10
2343.0
 20
-3444.9999999999968
 30
0.0
 11
2457.0
 21
-3444.9999999999968
 31
0.0
1001
ACDBBLOCKREPETAG
1070
     1
1071
       22
1005
13A3E6
  0
LINE
  5
13A3E7
  8
OBJECT
 10
2477.0
 20
-3374.9999999999959
 30
0.0
 11
2477.0
 21
-3395.9999999999968
 31
0.0
1001
ACDBBLOCKREPETAG
1070
     1
1071
       23
1005
13A3E7
  0
LINE
  5
13A3E8
  8
OBJECT
 10
2477.0
 20
-3395.9999999999968
 30
0.0
 11
2323.0
 21
-3395.9999999999968
 31
0.0
1001
ACDBBLOCKREPETAG
1070
     1
1071
       24
1005
13A3E8
  0
LINE
  5
13A3E9
  8
CENTER
 10
2400.0
 20
-3359.9999999999968
 30
0.0
 11
2400.0
 21
-3594.9999999999968
 31
0.0
1001
ACDBBLOCKREPETAG
1070
     1
1071
       25
1005
13A3E9
  0
LINE
  5
13A3EA
  8
OBJECT
 10
2325.0
 20
-3458.9999999999968
 30
0.0
 11
2325.0
 21
-3582.9999999999968
 31
0.0
1001
ACDBBLOCKREPETAG
1070
     1
1071
       26
1005
13A3EA
  0
LINE
  5
13A3EB
  8
OBJECT
 10
2328.0
 20
-3395.9999999999968
 30
0.0
 11
2328.0
 21
-3458.9999999999968
 31
0.0
1001
ACDBBLOCKREPETAG
1070
     1
1071
       27
1005
13A3EB
  0
LINE
  5
13A3EC
  8
OBJECT
 10
2472.0
 20
-3458.9999999999968
 30
0.0
 11
2472.0
 21
-3395.9999999999968
 31
0.0
1001
ACDBBLOCKREPETAG
1070
     1
1071
       28
1005
13A3EC
  0
LINE
  5
13A3ED
  8
OBJECT
 10
2475.0
 20
-3458.9999999999968
 30
0.0
 11
2325.0
 21
-3458.9999999999968
 31
0.0
1001
ACDBBLOCKREPETAG
1070
     1
1071
       30
1005
13A3ED
  0
LINE
  5
13A3EE
  8
OBJECT
 10
2475.0
 20
-3458.9999999999968
 30
0.0
 11
2475.0
 21
-3491.9999999999968
 31
0.0
1001
ACDBBLOCKREPETAG
1070
     1
1071
       34
1005
13A3EE
  0
LINE
  5
13A3EF
  8
OBJECT
 10
2475.0
 20
-3579.9999999999959
 30
0.0
 11
2475.0
 21
-3582.9999999999968
 31
0.0
1001
ACDBBLOCKREPETAG
1070
     1
1071
       34
1005
13A3EE
  0
POINT
  5
13A3F0
  8
DOTS
 10
2400.0
 20
-3579.9999999999959
 30
0.0
1001
ACDBBLOCKREPETAG
1070
     1
1071
      187
1005
13A3F0
  0
ARC
  5
13A3F1
  8
OBJECT
 10
3900.0
 20
-3520.9999999999968
 30
0.0
 40
62.0
 50
40.785257713808782
 51
309.26802600181918
1001
ACDBBLOCKREPETAG
1070
     1
1071
      189
1005
13A3F1
  0
LINE
  5
13A3F2
  8
CENTER
 10
4015.0
 20
-3527.9999999999968
 30
0.0
 11
3844.0
 21
-3527.9999999999968
 31
0.0
1001
ACDBBLOCKREPETAG
1070
     1
1071
      190
1005
13A3F2
  0
LINE
  5
13A3F3
  8
OBJECT
 10
3993.0
 20
-3472.9999999999959
 30
0.0
 11
4000.0
 21
-3472.9999999999959
 31
0.0
1001
ACDBBLOCKREPETAG
1070
     1
1071
      192
1005
13A3F3
  0
LINE
  5
13A3F4
  8
OBJECT
 10
4000.0
 20
-3472.9999999999959
 30
0.0
 11
4000.0
 21
-3579.9999999999959
 31
0.0
1001
ACDBBLOCKREPETAG
1070
     1
1071
      193
1005
13A3F4
  0
LINE
  5
13A3F5
  8
OBJECT
 10
3993.0
 20
-3579.9999999999959
 30
0.0
 11
3993.0
 21
-3472.9999999999959
 31
0.0
1001
ACDBBLOCKREPETAG
1070
     1
1071
      194
1005
13A3F5
  0
LINE
  5
13A3F6
  8
OBJECT
 10
3993.0
 20
-3475.9999999999959
 30
0.0
 11
3957.0
 21
-3475.9999999999959
 31
0.0
1001
ACDBBLOCKREPETAG
1070
     1
1071
      195
1005
13A3F6
  0
LINE
  5
13A3F7
  8
OBJECT
 10
3957.0
 20
-3475.9999999999959
 30
0.0
 11
3957.0
 21
-3579.9999999999959
 31
0.0
1001
ACDBBLOCKREPETAG
1070
     1
1071
      196
1005
13A3F7
  0
LINE
  5
13A3F8
  8
OBJECT
 10
3957.0
 20
-3579.9999999999959
 30
0.0
 11
4000.0
 21
-3579.9999999999959
 31
0.0
1001
ACDBBLOCKREPETAG
1070
     1
1071
      197
1005
13A3F8
  0
LINE
  5
13A3F9
  8
OBJECT
 10
3953.0
 20
-3480.4999999999968
 30
0.0
 11
3940.0
 21
-3480.4999999999968
 31
0.0
1001
ACDBBLOCKREPETAG
1070
     1
1071
      198
1005
13A3F9
  0
LINE
  5
13A3FA
  8
OBJECT
 10
3940.0
 20
-3575.4999999999968
 30
0.0
 11
3953.0
 21
-3575.4999999999968
 31
0.0
1001
ACDBBLOCKREPETAG
1070
     1
1071
      199
1005
13A3FA
  0
LINE
  5
13A3FB
  8
OBJECT
 10
3953.0
 20
-3575.4999999999968
 30
0.0
 11
3953.0
 21
-3480.4999999999968
 31
0.0
1001
ACDBBLOCKREPETAG
1070
     1
1071
      200
1005
13A3FB
  0
LINE
  5
13A3FC
  8
OBJECT
 10
3957.0
 20
-3475.9999999999959
 30
0.0
 11
3953.0
 21
-3480.4999999999968
 31
0.0
1001
ACDBBLOCKREPETAG
1070
     1
1071
      201
1005
13A3FC
  0
LINE
  5
13A3FD
  8
OBJECT
 10
3957.0
 20
-3579.9999999999959
 30
0.0
 11
3953.0
 21
-3575.4999999999968
 31
0.0
1001
ACDBBLOCKREPETAG
1070
     1
1071
      202
1005
13A3FD
  0
LINE
  5
13A3FE
  8
HIDDEN
 10
3948.0
 20
-3489.9999999999968
 30
0.0
 11
3948.0
 21
-3565.9999999999959
 31
0.0
1001
ACDBBLOCKREPETAG
1070
     1
1071
      203
1005
13A3FE
  0
LINE
  5
13A3FF
  8
OBJECT
 10
3940.0000531940932
 20
-3568.9999999999959
 30
0.0
 11
3900.0
 21
-3568.9999999999959
 31
0.0
1001
ACDBBLOCKREPETAG
1070
     1
1071
      204
1005
13A3FF
  0
LINE
  5
13A400
  8
OBJECT
 10
3940.0000531940968
 20
-3486.9999999999959
 30
0.0
 11
3900.0
 21
-3486.9999999999959
 31
0.0
1001
ACDBBLOCKREPETAG
1070
     1
1071
      205
1005
13A400
  0
LINE
  5
13A401
  8
OBJECT
 10
3940.0000531940968
 20
-3575.4999991052468
 30
0.0
 11
3940.0000531940968
 21
-3480.4999991052459
 31
0.0
1001
ACDBBLOCKREPETAG
1070
     1
1071
      206
1005
13A401
  0
ARC
  5
13A402
  8
OBJECT
 10
3900.0
 20
-3527.9999999999968
 30
0.0
 40
41.000000000000909
 50
90.0
 51
270.0
1001
ACDBBLOCKREPETAG
1070
     1
1071
      207
1005
13A402
  0
LINE
  5
13A403
  8
OBJECT
 10
3823.0
 20
-3395.9999999999968
 30
0.0
 11
3823.0
 21
-3374.9999999999959
 31
0.0
1001
ACDBBLOCKREPETAG
1070
     1
1071
       20
1005
13A403
  0
LINE
  5
13A404
  8
OBJECT
 10
3823.0
 20
-3374.9999999999959
 30
0.0
 11
3977.0
 21
-3374.9999999999959
 31
0.0
1001
ACDBBLOCKREPETAG
1070
     1
1071
       21
1005
13A404
  0
LINE
  5
13A405
  8
HIDDEN
 10
3843.0
 20
-3444.9999999999968
 30
0.0
 11
3957.0
 21
-3444.9999999999968
 31
0.0
1001
ACDBBLOCKREPETAG
1070
     1
1071
       22
1005
13A405
  0
LINE
  5
13A406
  8
OBJECT
 10
3977.0
 20
-3374.9999999999959
 30
0.0
 11
3977.0
 21
-3395.9999999999968
 31
0.0
1001
ACDBBLOCKREPETAG
1070
     1
1071
       23
1005
13A406
  0
LINE
  5
13A407
  8
OBJECT
 10
3977.0
 20
-3395.9999999999968
 30
0.0
 11
3823.0
 21
-3395.9999999999968
 31
0.0
1001
ACDBBLOCKREPETAG
1070
     1
1071
       24
1005
13A407
  0
LINE
  5
13A408
  8
CENTER
 10
3900.0
 20
-3359.9999999999968
 30
0.0
 11
3900.0
 21
-3594.9999999999968
 31
0.0
1001
ACDBBLOCKREPETAG
1070
     1
1071
       25
1005
13A408
  0
LINE
  5
13A409
  8
OBJECT
 10
3825.0
 20
-3458.9999999999968
 30
0.0
 11
3825.0
 21
-3582.9999999999968
 31
0.0
1001
ACDBBLOCKREPETAG
1070
     1
1071
       26
1005
13A409
  0
LINE
  5
13A40A
  8
OBJECT
 10
3828.0
 20
-3395.9999999999968
 30
0.0
 11
3828.0
 21
-3458.9999999999968
 31
0.0
1001
ACDBBLOCKREPETAG
1070
     1
1071
       27
1005
13A40A
  0
LINE
  5
13A40B
  8
OBJECT
 10
3972.0
 20
-3458.9999999999968
 30
0.0
 11
3972.0
 21
-3395.9999999999968
 31
0.0
1001
ACDBBLOCKREPETAG
1070
     1
1071
       28
1005
13A40B
  0
LINE
  5
13A40C
  8
OBJECT
 10
3975.0
 20
-3458.9999999999968
 30
0.0
 11
3825.0
 21
-3458.9999999999968
 31
0.0
1001
ACDBBLOCKREPETAG
1070
     1
1071
       30
1005
13A40C
  0
LINE
  5
13A40D
  8
OBJECT
 10
3975.0
 20
-3458.9999999999968
 30
0.0
 11
3975.0
 21
-3475.9999999999959
 31
0.0
1001
ACDBBLOCKREPETAG
1070
     1
1071
       34
1005
13A40D
  0
LINE
  5
13A40E
  8
OBJECT
 10
3975.0
 20
-3579.9999999999959
 30
0.0
 11
3975.0
 21
-3582.9999999999968
 31
0.0
1001
ACDBBLOCKREPETAG
1070
     1
1071
       34
1005
13A40D
  0
POINT
  5
13A40F
  8
DOTS
 10
3900.0
 20
-3579.9999999999959
 30
0.0
1001
ACDBBLOCKREPETAG
1070
     1
1071
      187
1005
13A40F
  0
LINE
  5
13A410
  8
OBJECT
 10
5510.0
 20
-3458.9999999999968
 30
0.0
 11
5510.0
 21
-3579.9999999999959
 31
0.0
1001
ACDBBLOCKREPETAG
1070
     1
1071
      208
1005
13A410
  0
LINE
  5
13A411
  8
OBJECT
 10
5503.0
 20
-3458.9999999999968
 30
0.0
 11
5510.0
 21
-3458.9999999999968
 31
0.0
1001
ACDBBLOCKREPETAG
1070
     1
1071
      209
1005
13A411
  0
LINE
  5
13A412
  8
OBJECT
 10
5503.0
 20
-3579.9999999999959
 30
0.0
 11
5503.0
 21
-3458.9999999999968
 31
0.0
1001
ACDBBLOCKREPETAG
1070
     1
1071
      210
1005
13A412
  0
LINE
  5
13A413
  8
OBJECT
 10
5503.0
 20
-3461.9999999999959
 30
0.0
 11
5467.0
 21
-3461.9999999999959
 31
0.0
1001
ACDBBLOCKREPETAG
1070
     1
1071
      211
1005
13A413
  0
LINE
  5
13A414
  8
OBJECT
 10
5467.0
 20
-3579.9999999999959
 30
0.0
 11
5510.0
 21
-3579.9999999999959
 31
0.0
1001
ACDBBLOCKREPETAG
1070
     1
1071
      212
1005
13A414
  0
LINE
  5
13A415
  8
OBJECT
 10
5467.0
 20
-3461.9999999999959
 30
0.0
 11
5467.0
 21
-3579.9999999999959
 31
0.0
1001
ACDBBLOCKREPETAG
1070
     1
1071
      213
1005
13A415
  0
LINE
  5
13A416
  8
OBJECT
 10
5463.0
 20
-3466.4999999999959
 30
0.0
 11
5450.0
 21
-3466.4999999999959
 31
0.0
1001
ACDBBLOCKREPETAG
1070
     1
1071
      214
1005
13A416
  0
LINE
  5
13A417
  8
OBJECT
 10
5450.0
 20
-3575.4999999999968
 30
0.0
 11
5463.0
 21
-3575.4999999999968
 31
0.0
1001
ACDBBLOCKREPETAG
1070
     1
1071
      215
1005
13A417
  0
LINE
  5
13A418
  8
OBJECT
 10
5463.0
 20
-3575.4999999999968
 30
0.0
 11
5463.0
 21
-3466.4999999999959
 31
0.0
1001
ACDBBLOCKREPETAG
1070
     1
1071
      216
1005
13A418
  0
LINE
  5
13A419
  8
OBJECT
 10
5467.0
 20
-3461.9999999999959
 30
0.0
 11
5463.0
 21
-3466.4999999999959
 31
0.0
1001
ACDBBLOCKREPETAG
1070
     1
1071
      217
1005
13A419
  0
LINE
  5
13A41A
  8
HIDDEN
 10
5458.0
 20
-3476.4999999999968
 30
0.0
 11
5458.0
 21
-3565.4999999999968
 31
0.0
1001
ACDBBLOCKREPETAG
1070
     1
1071
      218
1005
13A41A
  0
LINE
  5
13A41B
  8
OBJECT
 10
5467.0
 20
-3579.9999999999959
 30
0.0
 11
5463.0
 21
-3575.4999999999968
 31
0.0
1001
ACDBBLOCKREPETAG
1070
     1
1071
      219
1005
13A41B
  0
LINE
  5
13A41C
  8
CENTER
 10
5323.0
 20
-3520.9999999999968
 30
0.0
 11
5525.0
 21
-3520.9999999999968
 31
0.0
1001
ACDBBLOCKREPETAG
1070
     1
1071
      220
1005
13A41C
  0
LINE
  5
13A41D
  8
OBJECT
 10
5450.00006076516
 20
-3567.9999999999959
 30
0.0
 11
5400.0
 21
-3567.9999999999959
 31
0.0
1001
ACDBBLOCKREPETAG
1070
     1
1071
      221
1005
13A41D
  0
LINE
  5
13A41E
  8
OBJECT
 10
5450.00006076516
 20
-3473.9999999999968
 30
0.0
 11
5400.0
 21
-3473.9999999999968
 31
0.0
1001
ACDBBLOCKREPETAG
1070
     1
1071
      222
1005
13A41E
  0
LINE
  5
13A41F
  8
OBJECT
 10
5450.00006076516
 20
-3575.4999867281581
 30
0.0
 11
5450.00006076516
 21
-3466.499986728159
 31
0.0
1001
ACDBBLOCKREPETAG
1070
     1
1071
      223
1005
13A41F
  0
ARC
  5
13A420
  8
OBJECT
 10
5400.0
 20
-3520.9999999999968
 30
0.0
 40
62.0
 50
49.29386573222807
 51
310.70613426777197
1001
ACDBBLOCKREPETAG
1070
     1
1071
      224
1005
13A420
  0
ARC
  5
13A421
  8
OBJECT
 10
5400.0
 20
-3520.9999999999968
 30
0.0
 40
47.0
 50
90.0
 51
270.0
1001
ACDBBLOCKREPETAG
1070
     1
1071
      225
1005
13A421
  0
LINE
  5
13A422
  8
OBJECT
 10
5323.0
 20
-3395.9999999999968
 30
0.0
 11
5323.0
 21
-3374.9999999999959
 31
0.0
1001
ACDBBLOCKREPETAG
1070
     1
1071
       20
1005
13A422
  0
LINE
  5
13A423
  8
OBJECT
 10
5323.0
 20
-3374.9999999999959
 30
0.0
 11
5477.0
 21
-3374.9999999999959
 31
0.0
1001
ACDBBLOCKREPETAG
1070
     1
1071
       21
1005
13A423
  0
LINE
  5
13A424
  8
HIDDEN
 10
5343.0
 20
-3444.9999999999968
 30
0.0
 11
5457.0
 21
-3444.9999999999968
 31
0.0
1001
ACDBBLOCKREPETAG
1070
     1
1071
       22
1005
13A424
  0
LINE
  5
13A425
  8
OBJECT
 10
5477.0
 20
-3374.9999999999959
 30
0.0
 11
5477.0
 21
-3395.9999999999968
 31
0.0
1001
ACDBBLOCKREPETAG
1070
     1
1071
       23
1005
13A425
  0
LINE
  5
13A426
  8
OBJECT
 10
5477.0
 20
-3395.9999999999968
 30
0.0
 11
5323.0
 21
-3395.9999999999968
 31
0.0
1001
ACDBBLOCKREPETAG
1070
     1
1071
       24
1005
13A426
  0
LINE
  5
13A427
  8
CENTER
 10
5400.0
 20
-3359.9999999999968
 30
0.0
 11
5400.0
 21
-3594.9999999999968
 31
0.0
1001
ACDBBLOCKREPETAG
1070
     1
1071
       25
1005
13A427
  0
LINE
  5
13A428
  8
OBJECT
 10
5325.0
 20
-3458.9999999999968
 30
0.0
 11
5325.0
 21
-3582.9999999999968
 31
0.0
1001
ACDBBLOCKREPETAG
1070
     1
1071
       26
1005
13A428
  0
LINE
  5
13A429
  8
OBJECT
 10
5328.0
 20
-3395.9999999999968
 30
0.0
 11
5328.0
 21
-3458.9999999999968
 31
0.0
1001
ACDBBLOCKREPETAG
1070
     1
1071
       27
1005
13A429
  0
LINE
  5
13A42A
  8
OBJECT
 10
5472.0
 20
-3458.9999999999968
 30
0.0
 11
5472.0
 21
-3395.9999999999968
 31
0.0
1001
ACDBBLOCKREPETAG
1070
     1
1071
       28
1005
13A42A
  0
LINE
  5
13A42B
  8
OBJECT
 10
5475.0
 20
-3458.9999999999968
 30
0.0
 11
5325.0
 21
-3458.9999999999968
 31
0.0
1001
ACDBBLOCKREPETAG
1070
     1
1071
       30
1005
13A42B
  0
LINE
  5
13A42C
  8
OBJECT
 10
5475.0
 20
-3458.9999999999968
 30
0.0
 11
5475.0
 21
-3461.9999999999959
 31
0.0
1001
ACDBBLOCKREPETAG
1070
     1
1071
       34
1005
13A42C
  0
LINE
  5
13A42D
  8
OBJECT
 10
5475.0
 20
-3579.9999999999959
 30
0.0
 11
5475.0
 21
-3582.9999999999968
 31
0.0
1001
ACDBBLOCKREPETAG
1070
     1
1071
       34
1005
13A42C
  0
POINT
  5
13A42E
  8
DOTS
 10
5400.0
 20
-3579.9999999999959
 30
0.0
1001
ACDBBLOCKREPETAG
1070
     1
1071
      187
1005
13A42E
  0
TEXT
  5
13F2E7
  8
SLIM
 10
136.28571428572161
 20
-908.0
 30
0.0
 40
48.0
  1
JR3
 41
0.75
 72
     4
 11
180.0000000000073
 21
-884.0
 31
0.0
  0
TEXT
  5
13F2EB
  8
SLIM
 10
496.2857142857215
 20
-444.0
 30
0.0
 40
48.0
  1
JR2
 41
0.75
 72
     4
 11
540.00000000000728
 21
-420.0
 31
0.0
  0
TEXT
  5
13F2EC
  8
SLIM
 10
144.0000000000073
 20
-444.0
 30
0.0
 40
48.0
  1
JR1
 41
0.75
 72
     4
 11
180.0000000000073
 21
-420.0
 31
0.0
  0
LINE
  5
145A25
  8
CENTER
 10
12227.0
 20
-696.0
 30
0.0
 11
12071.0
 21
-696.0
 31
0.0
1001
ACDBBLOCKREPETAG
1070
     1
1071
      287
1005
145A25
  0
LINE
  5
145A26
  8
OBJECT
 10
12150.0
 20
-743.0
 30
0.0
 11
12086.0
 21
-743.0
 31
0.0
1001
ACDBBLOCKREPETAG
1070
     1
1071
      288
1005
145A26
  0
LINE
  5
145A27
  8
OBJECT
 10
12083.0
 20
-634.0
 30
0.0
 11
12080.0
 21
-634.0
 31
0.0
1001
ACDBBLOCKREPETAG
1070
     1
1071
      289
1005
145A27
  0
LINE
  5
145A28
  8
OBJECT
 10
12150.0
 20
-649.0
 30
0.0
 11
12086.0
 21
-649.0
 31
0.0
1001
ACDBBLOCKREPETAG
1070
     1
1071
      290
1005
145A28
  0
ARC
  5
145A29
  8
OBJECT
 10
12083.0
 20
-637.0
 30
0.0
 40
3.0
 50
0.0
 51
90.0
1001
ACDBBLOCKREPETAG
1070
     1
1071
      291
1005
145A29
  0
LINE
  5
145A2A
  8
OBJECT
 10
12080.0
 20
-758.0
 30
0.0
 11
12083.0
 21
-758.0
 31
0.0
1001
ACDBBLOCKREPETAG
1070
     1
1071
      292
1005
145A2A
  0
ARC
  5
145A2B
  8
OBJECT
 10
12083.0
 20
-755.0
 30
0.0
 40
3.0
 50
270.0
 51
0.0
1001
ACDBBLOCKREPETAG
1070
     1
1071
      293
1005
145A2B
  0
LINE
  5
145A2C
  8
OBJECT
 10
12086.0
 20
-755.0
 30
0.0
 11
12086.0
 21
-637.0
 31
0.0
1001
ACDBBLOCKREPETAG
1070
     1
1071
      294
1005
145A2C
  0
ARC
  5
145A2D
  8
OBJECT
 10
12150.0
 20
-696.0
 30
0.0
 40
62.0
 50
229.293865732211
 51
252.10344887079279
1001
ACDBBLOCKREPETAG
1070
     1
1071
      296
1005
145A2D
  0
ARC
  5
145A2E
  8
OBJECT
 10
12150.0
 20
-696.0
 30
0.0
 40
62.0
 50
287.89655112920718
 51
130.70613426778891
1001
ACDBBLOCKREPETAG
1070
     1
1071
      297
1005
145A2E
  0
LINE
  5
145A2F
  8
OBJECT
 10
12130.947441116739
 20
-755.0
 30
0.0
 11
12169.05255888325
 21
-755.0
 31
0.0
1001
ACDBBLOCKREPETAG
1070
     1
1071
      298
1005
145A2F
  0
LINE
  5
145A30
  8
CENTER
 10
12150.0
 20
-770.0
 30
0.0
 11
12150.0
 21
-619.0
 31
0.0
1001
ACDBBLOCKREPETAG
1070
     1
1071
      299
1005
145A30
  0
ARC
  5
145A31
  8
OBJECT
 10
12150.0
 20
-696.0
 30
0.0
 40
54.5
 50
239.58547089840889
 51
120.414529101591
1001
ACDBBLOCKREPETAG
1070
     1
1071
      300
1005
145A31
  0
ARC
  5
145A32
  8
OBJECT
 10
12150.0
 20
-696.0
 30
0.0
 40
47.0
 50
270.0
 51
90.0
1001
ACDBBLOCKREPETAG
1070
     1
1071
      301
1005
145A32
  0
ARC
  5
145A33
  8
OBJECT
 10
12150.0
 20
-696.0
 30
0.0
 40
59.0
 50
232.80760582085091
 51
127.19239417914901
1001
ACDBBLOCKREPETAG
1070
     1
1071
      302
1005
145A33
  0
LINE
  5
145A34
  8
OBJECT
 10
12212.0
 20
-97.000000000004775
 30
0.0
 11
12212.0
 21
-90.000000000004775
 31
0.0
1001
ACDBBLOCKREPETAG
1070
     1
1071
      325
1005
145A34
  0
LINE
  5
145A35
  8
OBJECT
 10
12212.0
 20
-90.000000000004775
 30
0.0
 11
12088.0
 21
-90.000000000004775
 31
0.0
1001
ACDBBLOCKREPETAG
1070
     1
1071
      326
1005
145A35
  0
LINE
  5
145A36
  8
OBJECT
 10
12088.0
 20
-90.000000000004775
 30
0.0
 11
12088.0
 21
-97.000000000004775
 31
0.0
1001
ACDBBLOCKREPETAG
1070
     1
1071
      327
1005
145A36
  0
LINE
  5
145A37
  8
OBJECT
 10
12088.0
 20
-97.000000000004775
 30
0.0
 11
12212.0
 21
-97.000000000004775
 31
0.0
1001
ACDBBLOCKREPETAG
1070
     1
1071
      328
1005
145A37
  0
LINE
  5
145A38
  8
CENTER
 10
12197.24369412602
 20
-200.00000000000111
 30
0.0
 11
12080.0
 21
-200.0000000000048
 31
0.0
1001
ACDBBLOCKREPETAG
1070
     1
1071
      329
1005
145A38
  0
LINE
  5
145A39
  8
OBJECT
 10
12092.5
 20
-153.00000000000111
 30
0.0
 11
12086.0
 21
-153.00000000000111
 31
0.0
1001
ACDBBLOCKREPETAG
1070
     1
1071
      330
1005
145A39
  0
LINE
  5
145A3A
  8
OBJECT
 10
12098.0
 20
-247.00000000000111
 30
0.0
 11
12086.0
 21
-247.0000000000048
 31
0.0
1001
ACDBBLOCKREPETAG
1070
     1
1071
      331
1005
145A3A
  0
LINE
  5
145A3B
  8
OBJECT
 10
12209.0
 20
-97.000000000004775
 30
0.0
 11
12209.0
 21
-133.0000000000048
 31
0.0
1001
ACDBBLOCKREPETAG
1070
     1
1071
      332
1005
145A3B
  0
LINE
  5
145A3C
  8
OBJECT
 10
12209.0
 20
-133.0000000000048
 30
0.0
 11
12091.0
 21
-133.0000000000048
 31
0.0
1001
ACDBBLOCKREPETAG
1070
     1
1071
      333
1005
145A3C
  0
LINE
  5
145A3D
  8
OBJECT
 10
12091.0
 20
-133.0000000000048
 30
0.0
 11
12091.0
 21
-97.000000000004775
 31
0.0
1001
ACDBBLOCKREPETAG
1070
     1
1071
      334
1005
145A3D
  0
LINE
  5
145A3E
  8
OBJECT
 10
12204.5
 20
-137.0000000000048
 30
0.0
 11
12204.5
 21
-150.00000000000469
 31
0.0
1001
ACDBBLOCKREPETAG
1070
     1
1071
      335
1005
145A3E
  0
LINE
  5
145A3F
  8
OBJECT
 10
12095.5
 20
-150.00000000000469
 30
0.0
 11
12095.5
 21
-137.0000000000048
 31
0.0
1001
ACDBBLOCKREPETAG
1070
     1
1071
      336
1005
145A3F
  0
LINE
  5
145A40
  8
OBJECT
 10
12095.5
 20
-137.0000000000048
 30
0.0
 11
12204.5
 21
-137.0000000000048
 31
0.0
1001
ACDBBLOCKREPETAG
1070
     1
1071
      337
1005
145A40
  0
LINE
  5
145A41
  8
OBJECT
 10
12209.0
 20
-133.0000000000048
 30
0.0
 11
12204.5
 21
-137.0000000000048
 31
0.0
1001
ACDBBLOCKREPETAG
1070
     1
1071
      338
1005
145A41
  0
LINE
  5
145A42
  8
OBJECT
 10
12091.0
 20
-133.0000000000048
 30
0.0
 11
12095.5
 21
-137.0000000000048
 31
0.0
1001
ACDBBLOCKREPETAG
1070
     1
1071
      339
1005
145A42
  0
LINE
  5
145A43
  8
OBJECT
 10
12083.0
 20
-262.00000000000477
 30
0.0
 11
12080.0
 21
-262.00000000000477
 31
0.0
1001
ACDBBLOCKREPETAG
1070
     1
1071
      340
1005
145A43
  0
ARC
  5
145A44
  8
OBJECT
 10
12083.0
 20
-259.00000000000477
 30
0.0
 40
3.0
 50
270.0
 51
0.0
1001
ACDBBLOCKREPETAG
1070
     1
1071
      341
1005
145A44
  0
LINE
  5
145A45
  8
OBJECT
 10
12080.0
 20
-138.0000000000048
 30
0.0
 11
12095.5
 21
-138.0000000000048
 31
0.0
1001
ACDBBLOCKREPETAG
1070
     1
1071
      342
1005
145A45
  0
ARC
  5
145A46
  8
OBJECT
 10
12083.0
 20
-141.0000000000048
 30
0.0
 40
3.0
 50
0.0
 51
90.0
1001
ACDBBLOCKREPETAG
1070
     1
1071
      343
1005
145A46
  0
LINE
  5
145A47
  8
OBJECT
 10
12086.0
 20
-141.0000000000048
 30
0.0
 11
12086.0
 21
-259.00000000000477
 31
0.0
1001
ACDBBLOCKREPETAG
1070
     1
1071
      344
1005
145A47
  0
LINE
  5
145A48
  8
HIDDEN
 10
12194.5
 20
-142.00000000000469
 30
0.0
 11
12105.5
 21
-142.00000000000469
 31
0.0
1001
ACDBBLOCKREPETAG
1070
     1
1071
      345
1005
145A48
  0
LINE
  5
145A49
  8
OBJECT
 10
12095.500021237451
 20
-150.00004086387091
 30
0.0
 11
12204.50002123744
 21
-150.00004086387091
 31
0.0
1001
ACDBBLOCKREPETAG
1070
     1
1071
      347
1005
145A49
  0
LINE
  5
145A4A
  8
CENTER
 10
12150.0
 20
-247.2436941260323
 30
0.0
 11
12150.0
 21
-75.000000000004775
 31
0.0
1001
ACDBBLOCKREPETAG
1070
     1
1071
      348
1005
145A4A
  0
ARC
  5
145A4B
  8
CENTER
 10
12098.0
 20
-148.00000000000111
 30
0.0
 40
52.0
 50
270.0
 51
0.0
1001
ACDBBLOCKREPETAG
1070
     1
1071
      349
1005
145A4B
  0
ARC
  5
145A4C
  8
OBJECT
 10
12092.5
 20
-150.00000000000111
 30
0.0
 40
3.0
 50
270.0
 51
0.0
1001
ACDBBLOCKREPETAG
1070
     1
1071
      350
1005
145A4C
  0
ARC
  5
145A4D
  8
OBJECT
 10
12098.0
 20
-148.00000000000111
 30
0.0
 40
99.0
 50
270.0
 51
358.84240710281102
1001
ACDBBLOCKREPETAG
1070
     1
1071
      351
1005
145A4D
  0
LINE
  5
145A4E
  8
OBJECT
 10
11923.0
 20
-571.0
 30
0.0
 11
11923.0
 21
-550.0
 31
0.0
1001
ACDBBLOCKREPETAG
1070
     1
1071
        0
1005
145A4E
  0
LINE
  5
145A4F
  8
OBJECT
 10
11923.0
 20
-550.0
 30
0.0
 11
12077.0
 21
-550.0
 31
0.0
1001
ACDBBLOCKREPETAG
1070
     1
1071
        1
1005
145A4F
  0
LINE
  5
145A50
  8
HIDDEN
 10
11943.0
 20
-620.0
 30
0.0
 11
12057.0
 21
-620.0
 31
0.0
1001
ACDBBLOCKREPETAG
1070
     1
1071
        2
1005
145A50
  0
LINE
  5
145A51
  8
OBJECT
 10
12077.0
 20
-550.0
 30
0.0
 11
12077.0
 21
-571.0
 31
0.0
1001
ACDBBLOCKREPETAG
1070
     1
1071
        3
1005
145A51
  0
LINE
  5
145A52
  8
OBJECT
 10
12077.0
 20
-571.0
 30
0.0
 11
11923.0
 21
-571.0
 31
0.0
1001
ACDBBLOCKREPETAG
1070
     1
1071
        4
1005
145A52
  0
LINE
  5
145A53
  8
CENTER
 10
12000.0
 20
-535.0
 30
0.0
 11
12000.0
 21
-770.0
 31
0.0
1001
ACDBBLOCKREPETAG
1070
     1
1071
        5
1005
145A53
  0
LINE
  5
145A54
  8
OBJECT
 10
11925.0
 20
-634.0
 30
0.0
 11
11925.0
 21
-758.0
 31
0.0
1001
ACDBBLOCKREPETAG
1070
     1
1071
        6
1005
145A54
  0
LINE
  5
145A55
  8
OBJECT
 10
11928.0
 20
-571.0
 30
0.0
 11
11928.0
 21
-634.0
 31
0.0
1001
ACDBBLOCKREPETAG
1070
     1
1071
        7
1005
145A55
  0
LINE
  5
145A56
  8
OBJECT
 10
12072.0
 20
-634.0
 30
0.0
 11
12072.0
 21
-571.0
 31
0.0
1001
ACDBBLOCKREPETAG
1070
     1
1071
        8
1005
145A56
  0
LINE
  5
145A57
  8
OBJECT
 10
11920.0
 20
-758.0
 30
0.0
 11
12080.0
 21
-758.0
 31
0.0
1001
ACDBBLOCKREPETAG
1070
     1
1071
        9
1005
145A57
  0
LINE
  5
145A58
  8
OBJECT
 10
12080.0
 20
-634.0
 30
0.0
 11
11925.0
 21
-634.0
 31
0.0
1001
ACDBBLOCKREPETAG
1070
     1
1071
       10
1005
145A58
  0
LINE
  5
145A59
  8
OBJECT
 10
11920.0
 20
-758.0
 30
0.0
 11
11920.0
 21
-770.0
 31
0.0
1001
ACDBBLOCKREPETAG
1070
     1
1071
       11
1005
145A59
  0
LINE
  5
145A5A
  8
OBJECT
 10
11920.0
 20
-770.0
 30
0.0
 11
12080.0
 21
-770.0
 31
0.0
1001
ACDBBLOCKREPETAG
1070
     1
1071
       12
1005
145A5A
  0
LINE
  5
145A5B
  8
OBJECT
 10
12080.0
 20
-770.0
 30
0.0
 11
12080.0
 21
-758.0
 31
0.0
1001
ACDBBLOCKREPETAG
1070
     1
1071
       13
1005
145A5B
  0
ARC
  5
145A5C
  8
OBJECT
 10
12200.687274671671
 20
-749.40809941010752
 30
0.0
 40
170.6350503965856
 50
137.44134459184301
 51
149.91949581337221
1001
ACDBBLOCKREPETAG
1070
     1
1071
       15
1005
145A5C
  0
ARC
  5
145A5D
  8
OBJECT
 10
12118.845598704051
 20
-705.88272669536479
 30
0.0
 40
78.072222021763665
 50
147.45515310379639
 51
164.6636599771729
1001
ACDBBLOCKREPETAG
1070
     1
1071
       16
1005
145A5D
  0
ARC
  5
145A5E
  8
OBJECT
 10
12085.755434960871
 20
-696.0
 30
0.0
 40
43.55353926885617
 50
165.6884523008477
 51
194.3115476991523
1001
ACDBBLOCKREPETAG
1070
     1
1071
       17
1005
145A5E
  0
ARC
  5
145A5F
  8
OBJECT
 10
12200.687274671671
 20
-642.59190058989225
 30
0.0
 40
170.6350503965856
 50
210.08050418662771
 51
222.55865540815699
1001
ACDBBLOCKREPETAG
1070
     1
1071
       18
1005
145A5F
  0
ARC
  5
145A60
  8
OBJECT
 10
12118.845598704051
 20
-686.11727330463521
 30
0.0
 40
78.072222021763665
 50
195.3363400228271
 51
212.54484689620361
1001
ACDBBLOCKREPETAG
1070
     1
1071
       19
1005
145A60
  0
POINT
  5
145A61
  8
DOTS
 10
12000.0
 20
-755.0
 30
0.0
1001
ACDBBLOCKREPETAG
1070
     1
1071
      186
1005
145A61
  0
ARC
  5
145A62
  8
OBJECT
 10
12000.0
 20
-200.0000000000048
 30
0.0
 40
50.0
 50
298.81994300000417
 51
228.52376955964741
1001
ACDBBLOCKREPETAG
1070
     1
1071
      185
1005
145A62
  0
LINE
  5
145A63
  8
SLIM
 10
11927.30183005652
 20
-155.9548403695826
 30
0.0
 11
11955.954840369581
 21
-127.301830056528
 31
0.0
1001
GRADIENTCOLOR1ACI
1070
     5
1001
GRADIENTCOLOR2ACI
1070
     2
1001
ACAD
1010
0.0
1020
0.0
1030
0.0
1001
ACDBBLOCKREPETAG
1070
     1
1071
      442
1005
145A63
  0
LINE
  5
145A64
  8
SLIM
 10
11919.48615207084
 20
-172.7507744763376
 30
0.0
 11
11938.29030895727
 21
-153.94661758990219
 31
0.0
1001
GRADIENTCOLOR1ACI
1070
     5
1001
GRADIENTCOLOR2ACI
1070
     2
1001
ACAD
1010
0.0
1020
0.0
1030
0.0
1001
ACDBBLOCKREPETAG
1070
     1
1071
      443
1005
145A64
  0
LINE
  5
145A65
  8
SLIM
 10
11953.9466175899
 20
-138.2903089572774
 30
0.0
 11
11972.75077447633
 21
-119.4861520708421
 31
0.0
1001
GRADIENTCOLOR1ACI
1070
     5
1001
GRADIENTCOLOR2ACI
1070
     2
1001
ACAD
1010
0.0
1020
0.0
1030
0.0
1001
ACDBBLOCKREPETAG
1070
     1
1071
      444
1005
145A65
  0
LINE
  5
145A66
  8
SLIM
 10
11916.35966799338
 20
-184.85751467486611
 30
0.0
 11
11927.69595835578
 21
-173.5212243124619
 31
0.0
1001
GRADIENTCOLOR1ACI
1070
     5
1001
GRADIENTCOLOR2ACI
1070
     2
1001
ACAD
1010
0.0
1020
0.0
1030
0.0
1001
ACDBBLOCKREPETAG
1070
     1
1071
      445
1005
145A66
  0
LINE
  5
145A67
  8
SLIM
 10
11973.521224312461
 20
-127.6959583557869
 30
0.0
 11
11984.857514674861
 21
-116.3596679933827
 31
0.0
1001
GRADIENTCOLOR1ACI
1070
     5
1001
GRADIENTCOLOR2ACI
1070
     2
1001
ACAD
1010
0.0
1020
0.0
1030
0.0
1001
ACDBBLOCKREPETAG
1070
     1
1071
      446
1005
145A67
  0
LINE
  5
145A68
  8
SLIM
 10
11915.14405758905
 20
-195.0533812002607
 30
0.0
 11
11924.30302164318
 21
-185.89441714613071
 31
0.0
1001
GRADIENTCOLOR1ACI
1070
     5
1001
GRADIENTCOLOR2ACI
1070
     2
1001
ACAD
1010
0.0
1020
0.0
1030
0.0
1001
ACDBBLOCKREPETAG
1070
     1
1071
      447
1005
145A68
  0
LINE
  5
145A69
  8
SLIM
 10
11985.894417146121
 20
-124.30302164318719
 30
0.0
 11
11995.05338120025
 21
-115.1440575890574
 31
0.0
1001
GRADIENTCOLOR1ACI
1070
     5
1001
GRADIENTCOLOR2ACI
1070
     2
1001
ACAD
1010
0.0
1020
0.0
1030
0.0
1001
ACDBBLOCKREPETAG
1070
     1
1071
      448
1005
145A69
  0
LINE
  5
145A6A
  8
SLIM
 10
11915.097963557469
 20
-204.07973135290911
 30
0.0
 11
11919.17769491037
 21
-200.0000000000048
 31
0.0
1001
GRADIENTCOLOR1ACI
1070
     5
1001
GRADIENTCOLOR2ACI
1070
     2
1001
ACAD
1010
0.0
1020
0.0
1030
0.0
1001
ACDBBLOCKREPETAG
1070
     1
1071
      449
1005
145A6A
  0
LINE
  5
145A6B
  8
SLIM
 10
12000.0
 20
-119.1776949103824
 30
0.0
 11
12004.0797313529
 21
-115.0979635574781
 31
0.0
1001
GRADIENTCOLOR1ACI
1070
     5
1001
GRADIENTCOLOR2ACI
1070
     2
1001
ACAD
1010
0.0
1020
0.0
1030
0.0
1001
ACDBBLOCKREPETAG
1070
     1
1071
      450
1005
145A6B
  0
LINE
  5
145A6C
  8
SLIM
 10
11919.17769491037
 20
-200.0000000000048
 30
0.0
 11
11923.09996216117
 21
-196.07773274921149
 31
0.0
1001
GRADIENTCOLOR1ACI
1070
     5
1001
GRADIENTCOLOR2ACI
1070
     2
1001
ACAD
1010
0.0
1020
0.0
1030
0.0
1001
ACDBBLOCKREPETAG
1070
     1
1071
      451
1005
145A6C
  0
LINE
  5
145A6D
  8
SLIM
 10
11996.077732749211
 20
-123.0999621611756
 30
0.0
 11
12000.0
 21
-119.1776949103824
 31
0.0
1001
GRADIENTCOLOR1ACI
1070
     5
1001
GRADIENTCOLOR2ACI
1070
     2
1001
ACAD
1010
0.0
1020
0.0
1030
0.0
1001
ACDBBLOCKREPETAG
1070
     1
1071
      452
1005
145A6D
  0
LINE
  5
145A6E
  8
SLIM
 10
11915.889972620869
 20
-212.26797841057959
 30
0.0
 11
11923.16223077717
 21
-204.9957202542823
 31
0.0
1001
GRADIENTCOLOR1ACI
1070
     5
1001
GRADIENTCOLOR2ACI
1070
     2
1001
ACAD
1010
0.0
1020
0.0
1030
0.0
1001
ACDBBLOCKREPETAG
1070
     1
1071
      453
1005
145A6E
  0
LINE
  5
145A6F
  8
SLIM
 10
12004.995720254279
 20
-123.162230777174
 30
0.0
 11
12012.267978410569
 21
-115.8899726208767
 31
0.0
1001
GRADIENTCOLOR1ACI
1070
     5
1001
GRADIENTCOLOR2ACI
1070
     2
1001
ACAD
1010
0.0
1020
0.0
1030
0.0
1001
ACDBBLOCKREPETAG
1070
     1
1071
      454
1005
145A6F
  0
LINE
  5
145A70
  8
SLIM
 10
11917.338265695151
 20
-219.7999414573672
 30
0.0
 11
11924.11014778555
 21
-213.0280593669693
 31
0.0
1001
GRADIENTCOLOR1ACI
1070
     5
1001
GRADIENTCOLOR2ACI
1070
     2
1001
ACAD
1010
0.0
1020
0.0
1030
0.0
1001
ACDBBLOCKREPETAG
1070
     1
1071
      455
1005
145A70
  0
LINE
  5
145A71
  8
SLIM
 10
12013.028059366959
 20
-124.11014778555619
 30
0.0
 11
12019.799941457361
 21
-117.3382656951583
 31
0.0
1001
GRADIENTCOLOR1ACI
1070
     5
1001
GRADIENTCOLOR2ACI
1070
     2
1001
ACAD
1010
0.0
1020
0.0
1030
0.0
1001
ACDBBLOCKREPETAG
1070
     1
1071
      456
1005
145A71
  0
LINE
  5
145A72
  8
SLIM
 10
11919.331259406301
 20
-226.78720386728449
 30
0.0
 11
11925.744381959341
 21
-220.37408131425059
 31
0.0
1001
GRADIENTCOLOR1ACI
1070
     5
1001
GRADIENTCOLOR2ACI
1070
     2
1001
ACAD
1010
0.0
1020
0.0
1030
0.0
1001
ACDBBLOCKREPETAG
1070
     1
1071
      457
1005
145A72
  0
LINE
  5
145A73
  8
SLIM
 10
12020.374081314239
 20
-125.7443819593441
 30
0.0
 11
12026.787203867279
 21
-119.3312594063101
 31
0.0
1001
GRADIENTCOLOR1ACI
1070
     5
1001
GRADIENTCOLOR2ACI
1070
     2
1001
ACAD
1010
0.0
1020
0.0
1030
0.0
1001
ACDBBLOCKREPETAG
1070
     1
1071
      458
1005
145A73
  0
LINE
  5
145A74
  8
SLIM
 10
11921.79571631862
 20
-233.30300307603861
 30
0.0
 11
11927.946247395779
 21
-227.15247199888
 31
0.0
1001
GRADIENTCOLOR1ACI
1070
     5
1001
GRADIENTCOLOR2ACI
1070
     2
1001
ACAD
1010
0.0
1020
0.0
1030
0.0
1001
ACDBBLOCKREPETAG
1070
     1
1071
      459
1005
145A74
  0
LINE
  5
145A75
  8
SLIM
 10
12027.15247199887
 20
-127.9462473957837
 30
0.0
 11
12033.303003076029
 21
-121.7957163186252
 31
0.0
1001
GRADIENTCOLOR1ACI
1070
     5
1001
GRADIENTCOLOR2ACI
1070
     2
1001
ACAD
1010
0.0
1020
0.0
1030
0.0
1001
ACDBBLOCKREPETAG
1070
     1
1071
      460
1005
145A75
  0
LINE
  5
145A76
  8
SLIM
 10
11924.681663531341
 20
-239.39731198438321
 30
0.0
 11
11930.63987686439
 21
-233.43909865133531
 31
0.0
1001
GRADIENTCOLOR1ACI
1070
     5
1001
GRADIENTCOLOR2ACI
1070
     2
1001
ACAD
1010
0.0
1020
0.0
1030
0.0
1001
ACDBBLOCKREPETAG
1070
     1
1071
      461
1005
145A76
  0
LINE
  5
145A77
  8
SLIM
 10
12033.43909865133
 20
-130.63987686439771
 30
0.0
 11
12039.397311984379
 21
-124.6816635313496
 31
0.0
1001
GRADIENTCOLOR1ACI
1070
     5
1001
GRADIENTCOLOR2ACI
1070
     2
1001
ACAD
1010
0.0
1020
0.0
1030
0.0
1001
ACDBBLOCKREPETAG
1070
     1
1071
      462
1005
145A77
  0
LINE
  5
145A78
  8
SLIM
 10
11927.954461102419
 20
-245.10477053437259
 30
0.0
 11
11933.77500701499
 21
-239.28422462180319
 31
0.0
1001
GRADIENTCOLOR1ACI
1070
     5
1001
GRADIENTCOLOR2ACI
1070
     2
1001
ACAD
1010
0.0
1020
0.0
1030
0.0
1001
ACDBBLOCKREPETAG
1070
     1
1071
      463
1005
145A78
  0
LINE
  5
145A79
  8
SLIM
 10
12039.284224621801
 20
-133.77500701499881
 30
0.0
 11
12045.10477053437
 21
-127.95446110242951
 31
0.0
1001
GRADIENTCOLOR1ACI
1070
     5
1001
GRADIENTCOLOR2ACI
1070
     2
1001
ACAD
1010
0.0
1020
0.0
1030
0.0
1001
ACDBBLOCKREPETAG
1070
     1
1071
      464
1005
145A79
  0
LINE
  5
145A7A
  8
SLIM
 10
11931.59033196866
 20
-250.44915578920109
 30
0.0
 11
11937.31820758806
 21
-244.72128016980901
 31
0.0
1001
GRADIENTCOLOR1ACI
1070
     5
1001
GRADIENTCOLOR2ACI
1070
     2
1001
ACAD
1010
0.0
1020
0.0
1030
0.0
1001
ACDBBLOCKREPETAG
1070
     1
1071
      465
1005
145A7A
  0
LINE
  5
145A7B
  8
SLIM
 10
12044.721280169801
 20
-137.31820758806219
 30
0.0
 11
12050.449155789191
 21
-131.5903319686702
 31
0.0
1001
GRADIENTCOLOR1ACI
1070
     5
1001
GRADIENTCOLOR2ACI
1070
     2
1001
ACAD
1010
0.0
1020
0.0
1030
0.0
1001
ACDBBLOCKREPETAG
1070
     1
1071
      466
1005
145A7B
  0
LINE
  5
145A7C
  8
SLIM
 10
11935.573749692519
 20
-255.44599418640911
 30
0.0
 11
11941.24811054159
 21
-249.771633337346
 31
0.0
1001
GRADIENTCOLOR1ACI
1070
     5
1001
GRADIENTCOLOR2ACI
1070
     2
1001
ACAD
1010
0.0
1020
0.0
1030
0.0
1001
ACDBBLOCKREPETAG
1070
     1
1071
      467
1005
145A7C
  0
LINE
  5
145A7D
  8
SLIM
 10
12053.01974387892
 20
-138.0000000000048
 30
0.0
 11
12055.445994186401
 21
-135.57374969253129
 31
0.0
1001
GRADIENTCOLOR1ACI
1070
     5
1001
GRADIENTCOLOR2ACI
1070
     2
1001
ACAD
1010
0.0
1020
0.0
1030
0.0
1001
ACDBBLOCKREPETAG
1070
     1
1071
      468
1005
145A7D
  0
LINE
  5
145A7E
  8
SLIM
 10
11939.895923599141
 20
-260.10407640086129
 30
0.0
 11
11945.55277784863
 21
-254.44722215136889
 31
0.0
1001
GRADIENTCOLOR1ACI
1070
     5
1001
GRADIENTCOLOR2ACI
1070
     2
1001
ACAD
1010
0.0
1020
0.0
1030
0.0
1001
ACDBBLOCKREPETAG
1070
     1
1071
      469
1005
145A7E
  0
LINE
  5
145A7F
  8
SLIM
 10
11944.55400581359
 20
-264.4262503074782
 30
0.0
 11
11950.228366662661
 21
-258.75188945841512
 31
0.0
1001
GRADIENTCOLOR1ACI
1070
     5
1001
GRADIENTCOLOR2ACI
1070
     2
1001
ACAD
1010
0.0
1020
0.0
1030
0.0
1001
ACDBBLOCKREPETAG
1070
     1
1071
      470
1005
145A7F
  0
LINE
  5
145A80
  8
SLIM
 10
11949.5508442108
 20
-268.40966803133938
 30
0.0
 11
11955.27871983019
 21
-262.68179241194741
 31
0.0
1001
GRADIENTCOLOR1ACI
1070
     5
1001
GRADIENTCOLOR2ACI
1070
     2
1001
ACAD
1010
0.0
1020
0.0
1030
0.0
1001
ACDBBLOCKREPETAG
1070
     1
1071
      471
1005
145A80
  0
LINE
  5
145A81
  8
SLIM
 10
11954.89522946563
 20
-272.04553889758012
 30
0.0
 11
11960.715775378199
 21
-266.22499298501072
 31
0.0
1001
GRADIENTCOLOR1ACI
1070
     5
1001
GRADIENTCOLOR2ACI
1070
     2
1001
ACAD
1010
0.0
1020
0.0
1030
0.0
1001
ACDBBLOCKREPETAG
1070
     1
1071
      472
1005
145A81
  0
LINE
  5
145A82
  8
SLIM
 10
11960.602688015621
 20
-275.31833646865988
 30
0.0
 11
11966.56090134867
 21
-269.3601231356119
 31
0.0
1001
GRADIENTCOLOR1ACI
1070
     5
1001
GRADIENTCOLOR2ACI
1070
     2
1001
ACAD
1010
0.0
1020
0.0
1030
0.0
1001
ACDBBLOCKREPETAG
1070
     1
1071
      473
1005
145A82
  0
LINE
  5
145A83
  8
SLIM
 10
11966.69699692396
 20
-278.20428368138442
 30
0.0
 11
11972.847528001121
 21
-272.05375260422579
 31
0.0
1001
GRADIENTCOLOR1ACI
1070
     5
1001
GRADIENTCOLOR2ACI
1070
     2
1001
ACAD
1010
0.0
1020
0.0
1030
0.0
1001
ACDBBLOCKREPETAG
1070
     1
1071
      474
1005
145A83
  0
LINE
  5
145A84
  8
SLIM
 10
11973.212796132721
 20
-280.6687405936994
 30
0.0
 11
11979.62591868575
 21
-274.25561804066552
 31
0.0
1001
GRADIENTCOLOR1ACI
1070
     5
1001
GRADIENTCOLOR2ACI
1070
     2
1001
ACAD
1010
0.0
1020
0.0
1030
0.0
1001
ACDBBLOCKREPETAG
1070
     1
1071
      475
1005
145A84
  0
LINE
  5
145A85
  8
SLIM
 10
11980.200058542639
 20
-282.66173430485111
 30
0.0
 11
11986.97194063303
 21
-275.88985221445341
 31
0.0
1001
GRADIENTCOLOR1ACI
1070
     5
1001
GRADIENTCOLOR2ACI
1070
     2
1001
ACAD
1010
0.0
1020
0.0
1030
0.0
1001
ACDBBLOCKREPETAG
1070
     1
1071
      476
1005
145A85
  0
LINE
  5
145A86
  8
SLIM
 10
11987.73202158942
 20
-284.11002737913282
 30
0.0
 11
11995.004279745721
 21
-276.83776922283562
 31
0.0
1001
GRADIENTCOLOR1ACI
1070
     5
1001
GRADIENTCOLOR2ACI
1070
     2
1001
ACAD
1010
0.0
1020
0.0
1030
0.0
1001
ACDBBLOCKREPETAG
1070
     1
1071
      477
1005
145A86
  0
LINE
  5
145A87
  8
SLIM
 10
11995.9202686471
 20
-284.90203644253148
 30
0.0
 11
12000.0
 21
-280.82230508962709
 31
0.0
1001
GRADIENTCOLOR1ACI
1070
     5
1001
GRADIENTCOLOR2ACI
1070
     2
1001
ACAD
1010
0.0
1020
0.0
1030
0.0
1001
ACDBBLOCKREPETAG
1070
     1
1071
      478
1005
145A87
  0
LINE
  5
145A88
  8
SLIM
 10
12000.0
 20
-280.82230508962709
 30
0.0
 11
12003.922267250789
 21
-276.9000378388339
 31
0.0
1001
GRADIENTCOLOR1ACI
1070
     5
1001
GRADIENTCOLOR2ACI
1070
     2
1001
ACAD
1010
0.0
1020
0.0
1030
0.0
1001
ACDBBLOCKREPETAG
1070
     1
1071
      479
1005
145A88
  0
LINE
  5
145A89
  8
SLIM
 10
12004.94661879974
 20
-284.8559424109522
 30
0.0
 11
12014.10558285387
 21
-275.69697835682223
 31
0.0
1001
GRADIENTCOLOR1ACI
1070
     5
1001
GRADIENTCOLOR2ACI
1070
     2
1001
ACAD
1010
0.0
1020
0.0
1030
0.0
1001
ACDBBLOCKREPETAG
1070
     1
1071
      480
1005
145A89
  0
LINE
  5
145A8A
  8
SLIM
 10
12015.142485325139
 20
-283.64033200662692
 30
0.0
 11
12026.478775687539
 21
-272.30404164422271
 31
0.0
1001
GRADIENTCOLOR1ACI
1070
     5
1001
GRADIENTCOLOR2ACI
1070
     2
1001
ACAD
1010
0.0
1020
0.0
1030
0.0
1001
ACDBBLOCKREPETAG
1070
     1
1071
      481
1005
145A8A
  0
LINE
  5
145A8B
  8
SLIM
 10
12027.249225523659
 20
-280.51384792916741
 30
0.0
 11
12045.76307345283
 21
-262.00000000000477
 31
0.0
1001
GRADIENTCOLOR1ACI
1070
     5
1001
GRADIENTCOLOR2ACI
1070
     2
1001
ACAD
1010
0.0
1020
0.0
1030
0.0
1001
ACDBBLOCKREPETAG
1070
     1
1071
      482
1005
145A8B
  0
LINE
  5
145A8C
  8
SLIM
 10
12044.045159630419
 20
-272.6981699434815
 30
0.0
 11
12054.743329573899
 21
-262.00000000000477
 31
0.0
1001
GRADIENTCOLOR1ACI
1070
     5
1001
GRADIENTCOLOR2ACI
1070
     2
1001
ACAD
1010
0.0
1020
0.0
1030
0.0
1001
ACDBBLOCKREPETAG
1070
     1
1071
      483
1005
145A8C
  0
LINE
  5
145A8D
  8
CENTER
 10
12080.0
 20
-200.0000000000048
 30
0.0
 11
11900.0
 21
-200.0000000000048
 31
0.0
1001
ACDBBLOCKREPETAG
1070
     1
1071
      187
1005
145A8D
  0
LINE
  5
145A8E
  8
CENTER
 10
12000.0
 20
-300.00000000000477
 30
0.0
 11
12000.0
 21
-100.0000000000047
 31
0.0
1001
ACDBBLOCKREPETAG
1070
     1
1071
      188
1005
145A8E
  0
CIRCLE
  5
145A8F
  8
OBJECT
 10
12000.0
 20
-200.0000000000048
 30
0.0
 40
70.0
1001
ACDBBLOCKREPETAG
1070
     1
1071
      189
1005
145A8F
  0
CIRCLE
  5
145A90
  8
OBJECT
 10
12000.0
 20
-200.0000000000048
 30
0.0
 40
77.0
1001
ACDBBLOCKREPETAG
1070
     1
1071
      190
1005
145A90
  0
LINE
  5
145A91
  8
OBJECT
 10
12045.661800227321
 20
-138.0000000000048
 30
0.0
 11
12080.0
 21
-138.0000000000048
 31
0.0
1001
ACDBBLOCKREPETAG
1070
     1
1071
      192
1005
145A91
  0
LINE
  5
145A92
  8
OBJECT
 10
12045.661800227321
 20
-262.00000000000477
 30
0.0
 11
12080.0
 21
-262.00000000000477
 31
0.0
1001
ACDBBLOCKREPETAG
1070
     1
1071
      193
1005
145A92
  0
ARC
  5
145A93
  8
OBJECT
 10
12000.0
 20
-200.0000000000048
 30
0.0
 40
85.0
 50
46.837102859853147
 51
313.16289714014681
1001
ACDBBLOCKREPETAG
1070
     1
1071
      202
1005
145A93
  0
LINE
  5
145A94
  8
OBJECT
 10
12024.1029330933
 20
-243.80694712372249
 30
0.0
 11
12020.659656999989
 21
-232.5546220000044
 31
0.0
1001
ACDBBLOCKREPETAG
1070
     1
1071
      321
1005
145A94
  0
LINE
  5
145A95
  8
OBJECT
 10
11986.79274990136
 20
-218.2255337420859
 30
0.0
 11
12020.659656999989
 21
-232.55462200000261
 31
0.0
1001
ACDBBLOCKREPETAG
1070
     1
1071
      323
1005
145A95
  0
ARC
  5
145A96
  8
OBJECT
 10
11982.8961697619
 20
-227.43512999906241
 30
0.0
 40
10.0
 50
67.066778292911366
 51
154.01473437031629
1001
ACDBBLOCKREPETAG
1070
     1
1071
      324
1005
145A96
  0
ARC
  5
145A97
  8
OBJECT
 10
11986.148839038129
 20
-225.5538625672973
 30
0.0
 40
7.0
 50
67.066778292911366
 51
154.0147337749826
1001
ACDBBLOCKREPETAG
1070
     1
1071
      325
1005
145A97
  0
LINE
  5
145A98
  8
OBJECT
 10
11969.4199755553
 20
-243.89888500818731
 30
0.0
 11
11979.85649182323
 21
-222.48688253357361
 31
0.0
1001
ACDBBLOCKREPETAG
1070
     1
1071
      353
1005
145A98
  0
LINE
  5
145A99
  8
OBJECT
 10
11965.29721690061
 20
-240.718139018833
 30
0.0
 11
11973.90710226651
 21
-223.0537300443132
 31
0.0
1001
ACDBBLOCKREPETAG
1070
     1
1071
      354
1005
145A99
  0
ARC
  5
145A9A
  8
OBJECT
 10
11976.57969530731
 20
-207.12893698284941
 30
0.0
 40
60.031113246032611
 50
314.07020130422319
 51
322.33936106089681
1001
ACDBBLOCKREPETAG
1070
     1
1071
      355
1005
145A9A
  0
CIRCLE
  5
145A9B
  8
OBJECT
 10
12000.0
 20
-200.0000000000048
 30
0.0
 40
53.5
1001
ACDBBLOCKREPETAG
1070
     1
1071
      356
1005
145A9B
  0
POINT
  5
145A9C
  8
DOTS
 10
12000.0
 20
-200.0000000000048
 30
0.0
 50
270.0
1001
ACDBBLOCKREPETAG
1070
     1
1071
      365
1005
145A9C
  0
LINE
  5
145A9D
  8
CENTER
 10
10227.0
 20
-696.0
 30
0.0
 11
10071.0
 21
-696.0
 31
0.0
1001
ACDBBLOCKREPETAG
1070
     1
1071
      287
1005
145A9D
  0
LINE
  5
145A9E
  8
OBJECT
 10
10150.0
 20
-743.0
 30
0.0
 11
10086.0
 21
-743.0
 31
0.0
1001
ACDBBLOCKREPETAG
1070
     1
1071
      288
1005
145A9E
  0
LINE
  5
145A9F
  8
OBJECT
 10
10083.0
 20
-634.0
 30
0.0
 11
10080.0
 21
-634.0
 31
0.0
1001
ACDBBLOCKREPETAG
1070
     1
1071
      289
1005
145A9F
  0
LINE
  5
145AA0
  8
OBJECT
 10
10150.0
 20
-649.0
 30
0.0
 11
10086.0
 21
-649.0
 31
0.0
1001
ACDBBLOCKREPETAG
1070
     1
1071
      290
1005
145AA0
  0
ARC
  5
145AA1
  8
OBJECT
 10
10083.0
 20
-637.0
 30
0.0
 40
3.0
 50
0.0
 51
90.0
1001
ACDBBLOCKREPETAG
1070
     1
1071
      291
1005
145AA1
  0
LINE
  5
145AA2
  8
OBJECT
 10
10080.0
 20
-758.0
 30
0.0
 11
10083.0
 21
-758.0
 31
0.0
1001
ACDBBLOCKREPETAG
1070
     1
1071
      292
1005
145AA2
  0
ARC
  5
145AA3
  8
OBJECT
 10
10083.0
 20
-755.0
 30
0.0
 40
3.0
 50
270.0
 51
0.0
1001
ACDBBLOCKREPETAG
1070
     1
1071
      293
1005
145AA3
  0
LINE
  5
145AA4
  8
OBJECT
 10
10086.0
 20
-755.0
 30
0.0
 11
10086.0
 21
-637.0
 31
0.0
1001
ACDBBLOCKREPETAG
1070
     1
1071
      294
1005
145AA4
  0
ARC
  5
145AA5
  8
OBJECT
 10
10150.0
 20
-696.0
 30
0.0
 40
62.0
 50
229.293865732211
 51
252.10344887079279
1001
ACDBBLOCKREPETAG
1070
     1
1071
      296
1005
145AA5
  0
ARC
  5
145AA6
  8
OBJECT
 10
10150.0
 20
-696.0
 30
0.0
 40
62.0
 50
287.89655112920718
 51
130.70613426778891
1001
ACDBBLOCKREPETAG
1070
     1
1071
      297
1005
145AA6
  0
LINE
  5
145AA7
  8
OBJECT
 10
10130.947441116739
 20
-755.0
 30
0.0
 11
10169.052558883261
 21
-755.0
 31
0.0
1001
ACDBBLOCKREPETAG
1070
     1
1071
      298
1005
145AA7
  0
LINE
  5
145AA8
  8
CENTER
 10
10150.0
 20
-770.0
 30
0.0
 11
10150.0
 21
-619.0
 31
0.0
1001
ACDBBLOCKREPETAG
1070
     1
1071
      299
1005
145AA8
  0
ARC
  5
145AA9
  8
OBJECT
 10
10150.0
 20
-696.0
 30
0.0
 40
54.5
 50
239.58547089840889
 51
120.414529101591
1001
ACDBBLOCKREPETAG
1070
     1
1071
      300
1005
145AA9
  0
ARC
  5
145AAA
  8
OBJECT
 10
10150.0
 20
-696.0
 30
0.0
 40
47.0
 50
270.0
 51
90.0
1001
ACDBBLOCKREPETAG
1070
     1
1071
      301
1005
145AAA
  0
ARC
  5
145AAB
  8
OBJECT
 10
10150.0
 20
-696.0
 30
0.0
 40
59.0
 50
232.80760582085091
 51
127.19239417914901
1001
ACDBBLOCKREPETAG
1070
     1
1071
      302
1005
145AAB
  0
LINE
  5
145AAC
  8
OBJECT
 10
10212.0
 20
-97.000000000004775
 30
0.0
 11
10212.0
 21
-90.000000000004775
 31
0.0
1001
ACDBBLOCKREPETAG
1070
     1
1071
      325
1005
145AAC
  0
LINE
  5
145AAD
  8
OBJECT
 10
10212.0
 20
-90.000000000004775
 30
0.0
 11
10088.0
 21
-90.000000000004775
 31
0.0
1001
ACDBBLOCKREPETAG
1070
     1
1071
      326
1005
145AAD
  0
LINE
  5
145AAE
  8
OBJECT
 10
10088.0
 20
-90.000000000004775
 30
0.0
 11
10088.0
 21
-97.000000000004775
 31
0.0
1001
ACDBBLOCKREPETAG
1070
     1
1071
      327
1005
145AAE
  0
LINE
  5
145AAF
  8
OBJECT
 10
10088.0
 20
-97.000000000004775
 30
0.0
 11
10212.0
 21
-97.000000000004775
 31
0.0
1001
ACDBBLOCKREPETAG
1070
     1
1071
      328
1005
145AAF
  0
LINE
  5
145AB0
  8
CENTER
 10
10197.243694126029
 20
-200.00000000000111
 30
0.0
 11
10080.0
 21
-200.0000000000048
 31
0.0
1001
ACDBBLOCKREPETAG
1070
     1
1071
      329
1005
145AB0
  0
LINE
  5
145AB1
  8
OBJECT
 10
10092.5
 20
-153.00000000000111
 30
0.0
 11
10086.0
 21
-153.00000000000111
 31
0.0
1001
ACDBBLOCKREPETAG
1070
     1
1071
      330
1005
145AB1
  0
LINE
  5
145AB2
  8
OBJECT
 10
10098.0
 20
-247.00000000000111
 30
0.0
 11
10086.0
 21
-247.0000000000048
 31
0.0
1001
ACDBBLOCKREPETAG
1070
     1
1071
      331
1005
145AB2
  0
LINE
  5
145AB3
  8
OBJECT
 10
10209.0
 20
-97.000000000004775
 30
0.0
 11
10209.0
 21
-133.0000000000048
 31
0.0
1001
ACDBBLOCKREPETAG
1070
     1
1071
      332
1005
145AB3
  0
LINE
  5
145AB4
  8
OBJECT
 10
10209.0
 20
-133.0000000000048
 30
0.0
 11
10091.0
 21
-133.0000000000048
 31
0.0
1001
ACDBBLOCKREPETAG
1070
     1
1071
      333
1005
145AB4
  0
LINE
  5
145AB5
  8
OBJECT
 10
10091.0
 20
-133.0000000000048
 30
0.0
 11
10091.0
 21
-97.000000000004775
 31
0.0
1001
ACDBBLOCKREPETAG
1070
     1
1071
      334
1005
145AB5
  0
LINE
  5
145AB6
  8
OBJECT
 10
10204.5
 20
-137.0000000000048
 30
0.0
 11
10204.5
 21
-150.00000000000469
 31
0.0
1001
ACDBBLOCKREPETAG
1070
     1
1071
      335
1005
145AB6
  0
LINE
  5
145AB7
  8
OBJECT
 10
10095.5
 20
-150.00000000000469
 30
0.0
 11
10095.5
 21
-137.0000000000048
 31
0.0
1001
ACDBBLOCKREPETAG
1070
     1
1071
      336
1005
145AB7
  0
LINE
  5
145AB8
  8
OBJECT
 10
10095.5
 20
-137.0000000000048
 30
0.0
 11
10204.5
 21
-137.0000000000048
 31
0.0
1001
ACDBBLOCKREPETAG
1070
     1
1071
      337
1005
145AB8
  0
LINE
  5
145AB9
  8
OBJECT
 10
10209.0
 20
-133.0000000000048
 30
0.0
 11
10204.5
 21
-137.0000000000048
 31
0.0
1001
ACDBBLOCKREPETAG
1070
     1
1071
      338
1005
145AB9
  0
LINE
  5
145ABA
  8
OBJECT
 10
10091.0
 20
-133.0000000000048
 30
0.0
 11
10095.5
 21
-137.0000000000048
 31
0.0
1001
ACDBBLOCKREPETAG
1070
     1
1071
      339
1005
145ABA
  0
LINE
  5
145ABB
  8
OBJECT
 10
10083.0
 20
-262.00000000000477
 30
0.0
 11
10080.0
 21
-262.00000000000477
 31
0.0
1001
ACDBBLOCKREPETAG
1070
     1
1071
      340
1005
145ABB
  0
ARC
  5
145ABC
  8
OBJECT
 10
10083.0
 20
-259.00000000000477
 30
0.0
 40
3.0
 50
270.0
 51
0.0
1001
ACDBBLOCKREPETAG
1070
     1
1071
      341
1005
145ABC
  0
LINE
  5
145ABD
  8
OBJECT
 10
10080.0
 20
-138.0000000000048
 30
0.0
 11
10095.5
 21
-138.0000000000048
 31
0.0
1001
ACDBBLOCKREPETAG
1070
     1
1071
      342
1005
145ABD
  0
ARC
  5
145ABE
  8
OBJECT
 10
10083.0
 20
-141.0000000000048
 30
0.0
 40
3.0
 50
0.0
 51
90.0
1001
ACDBBLOCKREPETAG
1070
     1
1071
      343
1005
145ABE
  0
LINE
  5
145ABF
  8
OBJECT
 10
10086.0
 20
-141.0000000000048
 30
0.0
 11
10086.0
 21
-259.00000000000477
 31
0.0
1001
ACDBBLOCKREPETAG
1070
     1
1071
      344
1005
145ABF
  0
LINE
  5
145AC0
  8
HIDDEN
 10
10194.5
 20
-142.00000000000469
 30
0.0
 11
10105.5
 21
-142.00000000000469
 31
0.0
1001
ACDBBLOCKREPETAG
1070
     1
1071
      345
1005
145AC0
  0
LINE
  5
145AC1
  8
OBJECT
 10
10095.50002123744
 20
-150.00004086387091
 30
0.0
 11
10204.500021237451
 21
-150.00004086387091
 31
0.0
1001
ACDBBLOCKREPETAG
1070
     1
1071
      347
1005
145AC1
  0
LINE
  5
145AC2
  8
CENTER
 10
10150.0
 20
-247.2436941260323
 30
0.0
 11
10150.0
 21
-75.000000000004775
 31
0.0
1001
ACDBBLOCKREPETAG
1070
     1
1071
      348
1005
145AC2
  0
ARC
  5
145AC3
  8
CENTER
 10
10098.0
 20
-148.00000000000111
 30
0.0
 40
52.0
 50
270.0
 51
0.0
1001
ACDBBLOCKREPETAG
1070
     1
1071
      349
1005
145AC3
  0
ARC
  5
145AC4
  8
OBJECT
 10
10092.5
 20
-150.00000000000111
 30
0.0
 40
3.0
 50
270.0
 51
0.0
1001
ACDBBLOCKREPETAG
1070
     1
1071
      350
1005
145AC4
  0
ARC
  5
145AC5
  8
OBJECT
 10
10098.0
 20
-148.00000000000111
 30
0.0
 40
99.0
 50
270.0
 51
358.84240710281102
1001
ACDBBLOCKREPETAG
1070
     1
1071
      351
1005
145AC5
  0
LINE
  5
145AC6
  8
OBJECT
 10
9923.0
 20
-571.0
 30
0.0
 11
9923.0
 21
-550.0
 31
0.0
1001
ACDBBLOCKREPETAG
1070
     1
1071
        0
1005
145AC6
  0
LINE
  5
145AC7
  8
OBJECT
 10
9923.0
 20
-550.0
 30
0.0
 11
10077.0
 21
-550.0
 31
0.0
1001
ACDBBLOCKREPETAG
1070
     1
1071
        1
1005
145AC7
  0
LINE
  5
145AC8
  8
HIDDEN
 10
9943.0
 20
-620.0
 30
0.0
 11
10057.0
 21
-620.0
 31
0.0
1001
ACDBBLOCKREPETAG
1070
     1
1071
        2
1005
145AC8
  0
LINE
  5
145AC9
  8
OBJECT
 10
10077.0
 20
-550.0
 30
0.0
 11
10077.0
 21
-571.0
 31
0.0
1001
ACDBBLOCKREPETAG
1070
     1
1071
        3
1005
145AC9
  0
LINE
  5
145ACA
  8
OBJECT
 10
10077.0
 20
-571.0
 30
0.0
 11
9923.0
 21
-571.0
 31
0.0
1001
ACDBBLOCKREPETAG
1070
     1
1071
        4
1005
145ACA
  0
LINE
  5
145ACB
  8
CENTER
 10
10000.0
 20
-535.0
 30
0.0
 11
10000.0
 21
-770.0
 31
0.0
1001
ACDBBLOCKREPETAG
1070
     1
1071
        5
1005
145ACB
  0
LINE
  5
145ACC
  8
OBJECT
 10
9925.0
 20
-634.0
 30
0.0
 11
9925.0
 21
-758.0
 31
0.0
1001
ACDBBLOCKREPETAG
1070
     1
1071
        6
1005
145ACC
  0
LINE
  5
145ACD
  8
OBJECT
 10
9928.0
 20
-571.0
 30
0.0
 11
9928.0
 21
-634.0
 31
0.0
1001
ACDBBLOCKREPETAG
1070
     1
1071
        7
1005
145ACD
  0
LINE
  5
145ACE
  8
OBJECT
 10
10072.0
 20
-634.0
 30
0.0
 11
10072.0
 21
-571.0
 31
0.0
1001
ACDBBLOCKREPETAG
1070
     1
1071
        8
1005
145ACE
  0
LINE
  5
145ACF
  8
OBJECT
 10
9920.0
 20
-758.0
 30
0.0
 11
10080.0
 21
-758.0
 31
0.0
1001
ACDBBLOCKREPETAG
1070
     1
1071
        9
1005
145ACF
  0
LINE
  5
145AD0
  8
OBJECT
 10
10080.0
 20
-634.0
 30
0.0
 11
9925.0
 21
-634.0
 31
0.0
1001
ACDBBLOCKREPETAG
1070
     1
1071
       10
1005
145AD0
  0
LINE
  5
145AD1
  8
OBJECT
 10
9920.0
 20
-758.0
 30
0.0
 11
9920.0
 21
-770.0
 31
0.0
1001
ACDBBLOCKREPETAG
1070
     1
1071
       11
1005
145AD1
  0
LINE
  5
145AD2
  8
OBJECT
 10
9920.0
 20
-770.0
 30
0.0
 11
10080.0
 21
-770.0
 31
0.0
1001
ACDBBLOCKREPETAG
1070
     1
1071
       12
1005
145AD2
  0
LINE
  5
145AD3
  8
OBJECT
 10
10080.0
 20
-770.0
 30
0.0
 11
10080.0
 21
-758.0
 31
0.0
1001
ACDBBLOCKREPETAG
1070
     1
1071
       13
1005
145AD3
  0
ARC
  5
145AD4
  8
OBJECT
 10
10200.687274671671
 20
-749.40809941010752
 30
0.0
 40
170.6350503965856
 50
137.44134459184301
 51
149.91949581337221
1001
ACDBBLOCKREPETAG
1070
     1
1071
       15
1005
145AD4
  0
ARC
  5
145AD5
  8
OBJECT
 10
10118.845598704051
 20
-705.88272669536479
 30
0.0
 40
78.072222021763665
 50
147.45515310379639
 51
164.6636599771729
1001
ACDBBLOCKREPETAG
1070
     1
1071
       16
1005
145AD5
  0
ARC
  5
145AD6
  8
OBJECT
 10
10085.755434960871
 20
-696.0
 30
0.0
 40
43.55353926885617
 50
165.6884523008477
 51
194.3115476991523
1001
ACDBBLOCKREPETAG
1070
     1
1071
       17
1005
145AD6
  0
ARC
  5
145AD7
  8
OBJECT
 10
10200.687274671671
 20
-642.59190058989225
 30
0.0
 40
170.6350503965856
 50
210.08050418662771
 51
222.55865540815699
1001
ACDBBLOCKREPETAG
1070
     1
1071
       18
1005
145AD7
  0
ARC
  5
145AD8
  8
OBJECT
 10
10118.845598704051
 20
-686.11727330463521
 30
0.0
 40
78.072222021763665
 50
195.3363400228271
 51
212.54484689620361
1001
ACDBBLOCKREPETAG
1070
     1
1071
       19
1005
145AD8
  0
POINT
  5
145AD9
  8
DOTS
 10
10000.0
 20
-755.0
 30
0.0
1001
ACDBBLOCKREPETAG
1070
     1
1071
      186
1005
145AD9
  0
ARC
  5
145ADA
  8
OBJECT
 10
10000.0
 20
-200.0000000000048
 30
0.0
 40
50.0
 50
298.81994300000417
 51
228.52376955964741
1001
ACDBBLOCKREPETAG
1070
     1
1071
      185
1005
145ADA
  0
LINE
  5
145ADB
  8
SLIM
 10
9927.3018300565236
 20
-155.9548403695826
 30
0.0
 11
9955.9548403695771
 21
-127.301830056528
 31
0.0
1001
GRADIENTCOLOR1ACI
1070
     5
1001
GRADIENTCOLOR2ACI
1070
     2
1001
ACAD
1010
0.0
1020
0.0
1030
0.0
1001
ACDBBLOCKREPETAG
1070
     1
1071
      442
1005
145ADB
  0
LINE
  5
145ADC
  8
SLIM
 10
9919.4861520708382
 20
-172.7507744763376
 30
0.0
 11
9938.2903089572737
 21
-153.94661758990219
 31
0.0
1001
GRADIENTCOLOR1ACI
1070
     5
1001
GRADIENTCOLOR2ACI
1070
     2
1001
ACAD
1010
0.0
1020
0.0
1030
0.0
1001
ACDBBLOCKREPETAG
1070
     1
1071
      443
1005
145ADC
  0
LINE
  5
145ADD
  8
SLIM
 10
9953.9466175898997
 20
-138.2903089572774
 30
0.0
 11
9972.7507744763316
 21
-119.4861520708421
 31
0.0
1001
GRADIENTCOLOR1ACI
1070
     5
1001
GRADIENTCOLOR2ACI
1070
     2
1001
ACAD
1010
0.0
1020
0.0
1030
0.0
1001
ACDBBLOCKREPETAG
1070
     1
1071
      444
1005
145ADD
  0
LINE
  5
145ADE
  8
SLIM
 10
9916.3596679933817
 20
-184.85751467486611
 30
0.0
 11
9927.6959583557837
 21
-173.5212243124619
 31
0.0
1001
GRADIENTCOLOR1ACI
1070
     5
1001
GRADIENTCOLOR2ACI
1070
     2
1001
ACAD
1010
0.0
1020
0.0
1030
0.0
1001
ACDBBLOCKREPETAG
1070
     1
1071
      445
1005
145ADE
  0
LINE
  5
145ADF
  8
SLIM
 10
9973.5212243124606
 20
-127.6959583557869
 30
0.0
 11
9984.8575146748644
 21
-116.3596679933827
 31
0.0
1001
GRADIENTCOLOR1ACI
1070
     5
1001
GRADIENTCOLOR2ACI
1070
     2
1001
ACAD
1010
0.0
1020
0.0
1030
0.0
1001
ACDBBLOCKREPETAG
1070
     1
1071
      446
1005
145ADF
  0
LINE
  5
145AE0
  8
SLIM
 10
9915.1440575890538
 20
-195.0533812002607
 30
0.0
 11
9924.3030216431835
 21
-185.89441714613071
 31
0.0
1001
GRADIENTCOLOR1ACI
1070
     5
1001
GRADIENTCOLOR2ACI
1070
     2
1001
ACAD
1010
0.0
1020
0.0
1030
0.0
1001
ACDBBLOCKREPETAG
1070
     1
1071
      447
1005
145AE0
  0
LINE
  5
145AE1
  8
SLIM
 10
9985.8944171461262
 20
-124.30302164318719
 30
0.0
 11
9995.0533812002577
 21
-115.1440575890574
 31
0.0
1001
GRADIENTCOLOR1ACI
1070
     5
1001
GRADIENTCOLOR2ACI
1070
     2
1001
ACAD
1010
0.0
1020
0.0
1030
0.0
1001
ACDBBLOCKREPETAG
1070
     1
1071
      448
1005
145AE1
  0
LINE
  5
145AE2
  8
SLIM
 10
9915.0979635574713
 20
-204.07973135290911
 30
0.0
 11
9919.1776949103787
 21
-200.0000000000048
 31
0.0
1001
GRADIENTCOLOR1ACI
1070
     5
1001
GRADIENTCOLOR2ACI
1070
     2
1001
ACAD
1010
0.0
1020
0.0
1030
0.0
1001
ACDBBLOCKREPETAG
1070
     1
1071
      449
1005
145AE2
  0
LINE
  5
145AE3
  8
SLIM
 10
10000.0
 20
-119.1776949103824
 30
0.0
 11
10004.0797313529
 21
-115.0979635574781
 31
0.0
1001
GRADIENTCOLOR1ACI
1070
     5
1001
GRADIENTCOLOR2ACI
1070
     2
1001
ACAD
1010
0.0
1020
0.0
1030
0.0
1001
ACDBBLOCKREPETAG
1070
     1
1071
      450
1005
145AE3
  0
LINE
  5
145AE4
  8
SLIM
 10
9919.1776949103787
 20
-200.0000000000048
 30
0.0
 11
9923.09996216117
 21
-196.07773274921149
 31
0.0
1001
GRADIENTCOLOR1ACI
1070
     5
1001
GRADIENTCOLOR2ACI
1070
     2
1001
ACAD
1010
0.0
1020
0.0
1030
0.0
1001
ACDBBLOCKREPETAG
1070
     1
1071
      451
1005
145AE4
  0
LINE
  5
145AE5
  8
SLIM
 10
9996.0777327492033
 20
-123.0999621611756
 30
0.0
 11
10000.0
 21
-119.1776949103824
 31
0.0
1001
GRADIENTCOLOR1ACI
1070
     5
1001
GRADIENTCOLOR2ACI
1070
     2
1001
ACAD
1010
0.0
1020
0.0
1030
0.0
1001
ACDBBLOCKREPETAG
1070
     1
1071
      452
1005
145AE5
  0
LINE
  5
145AE6
  8
SLIM
 10
9915.8899726208747
 20
-212.26797841057959
 30
0.0
 11
9923.1622307771686
 21
-204.9957202542823
 31
0.0
1001
GRADIENTCOLOR1ACI
1070
     5
1001
GRADIENTCOLOR2ACI
1070
     2
1001
ACAD
1010
0.0
1020
0.0
1030
0.0
1001
ACDBBLOCKREPETAG
1070
     1
1071
      453
1005
145AE6
  0
LINE
  5
145AE7
  8
SLIM
 10
10004.99572025427
 20
-123.162230777174
 30
0.0
 11
10012.26797841056
 21
-115.8899726208767
 31
0.0
1001
GRADIENTCOLOR1ACI
1070
     5
1001
GRADIENTCOLOR2ACI
1070
     2
1001
ACAD
1010
0.0
1020
0.0
1030
0.0
1001
ACDBBLOCKREPETAG
1070
     1
1071
      454
1005
145AE7
  0
LINE
  5
145AE8
  8
SLIM
 10
9917.3382656951544
 20
-219.7999414573672
 30
0.0
 11
9924.1101477855536
 21
-213.0280593669693
 31
0.0
1001
GRADIENTCOLOR1ACI
1070
     5
1001
GRADIENTCOLOR2ACI
1070
     2
1001
ACAD
1010
0.0
1020
0.0
1030
0.0
1001
ACDBBLOCKREPETAG
1070
     1
1071
      455
1005
145AE8
  0
LINE
  5
145AE9
  8
SLIM
 10
10013.028059366959
 20
-124.11014778555619
 30
0.0
 11
10019.799941457361
 21
-117.3382656951583
 31
0.0
1001
GRADIENTCOLOR1ACI
1070
     5
1001
GRADIENTCOLOR2ACI
1070
     2
1001
ACAD
1010
0.0
1020
0.0
1030
0.0
1001
ACDBBLOCKREPETAG
1070
     1
1071
      456
1005
145AE9
  0
LINE
  5
145AEA
  8
SLIM
 10
9919.3312594063045
 20
-226.78720386728449
 30
0.0
 11
9925.7443819593445
 21
-220.37408131425059
 31
0.0
1001
GRADIENTCOLOR1ACI
1070
     5
1001
GRADIENTCOLOR2ACI
1070
     2
1001
ACAD
1010
0.0
1020
0.0
1030
0.0
1001
ACDBBLOCKREPETAG
1070
     1
1071
      457
1005
145AEA
  0
LINE
  5
145AEB
  8
SLIM
 10
10020.374081314239
 20
-125.7443819593441
 30
0.0
 11
10026.787203867279
 21
-119.3312594063101
 31
0.0
1001
GRADIENTCOLOR1ACI
1070
     5
1001
GRADIENTCOLOR2ACI
1070
     2
1001
ACAD
1010
0.0
1020
0.0
1030
0.0
1001
ACDBBLOCKREPETAG
1070
     1
1071
      458
1005
145AEB
  0
LINE
  5
145AEC
  8
SLIM
 10
9921.7957163186184
 20
-233.30300307603861
 30
0.0
 11
9927.9462473957792
 21
-227.15247199888
 31
0.0
1001
GRADIENTCOLOR1ACI
1070
     5
1001
GRADIENTCOLOR2ACI
1070
     2
1001
ACAD
1010
0.0
1020
0.0
1030
0.0
1001
ACDBBLOCKREPETAG
1070
     1
1071
      459
1005
145AEC
  0
LINE
  5
145AED
  8
SLIM
 10
10027.15247199887
 20
-127.9462473957837
 30
0.0
 11
10033.303003076029
 21
-121.7957163186252
 31
0.0
1001
GRADIENTCOLOR1ACI
1070
     5
1001
GRADIENTCOLOR2ACI
1070
     2
1001
ACAD
1010
0.0
1020
0.0
1030
0.0
1001
ACDBBLOCKREPETAG
1070
     1
1071
      460
1005
145AED
  0
LINE
  5
145AEE
  8
SLIM
 10
9924.6816635313444
 20
-239.39731198438321
 30
0.0
 11
9930.6398768643921
 21
-233.43909865133531
 31
0.0
1001
GRADIENTCOLOR1ACI
1070
     5
1001
GRADIENTCOLOR2ACI
1070
     2
1001
ACAD
1010
0.0
1020
0.0
1030
0.0
1001
ACDBBLOCKREPETAG
1070
     1
1071
      461
1005
145AEE
  0
LINE
  5
145AEF
  8
SLIM
 10
10033.43909865133
 20
-130.63987686439771
 30
0.0
 11
10039.39731198437
 21
-124.6816635313496
 31
0.0
1001
GRADIENTCOLOR1ACI
1070
     5
1001
GRADIENTCOLOR2ACI
1070
     2
1001
ACAD
1010
0.0
1020
0.0
1030
0.0
1001
ACDBBLOCKREPETAG
1070
     1
1071
      462
1005
145AEF
  0
LINE
  5
145AF0
  8
SLIM
 10
9927.9544611024248
 20
-245.10477053437259
 30
0.0
 11
9933.7750070149923
 21
-239.28422462180319
 31
0.0
1001
GRADIENTCOLOR1ACI
1070
     5
1001
GRADIENTCOLOR2ACI
1070
     2
1001
ACAD
1010
0.0
1020
0.0
1030
0.0
1001
ACDBBLOCKREPETAG
1070
     1
1071
      463
1005
145AF0
  0
LINE
  5
145AF1
  8
SLIM
 10
10039.284224621801
 20
-133.77500701499881
 30
0.0
 11
10045.104770534361
 21
-127.95446110242951
 31
0.0
1001
GRADIENTCOLOR1ACI
1070
     5
1001
GRADIENTCOLOR2ACI
1070
     2
1001
ACAD
1010
0.0
1020
0.0
1030
0.0
1001
ACDBBLOCKREPETAG
1070
     1
1071
      464
1005
145AF1
  0
LINE
  5
145AF2
  8
SLIM
 10
9931.5903319686659
 20
-250.44915578920109
 30
0.0
 11
9937.3182075880559
 21
-244.72128016980901
 31
0.0
1001
GRADIENTCOLOR1ACI
1070
     5
1001
GRADIENTCOLOR2ACI
1070
     2
1001
ACAD
1010
0.0
1020
0.0
1030
0.0
1001
ACDBBLOCKREPETAG
1070
     1
1071
      465
1005
145AF2
  0
LINE
  5
145AF3
  8
SLIM
 10
10044.721280169801
 20
-137.31820758806219
 30
0.0
 11
10050.449155789191
 21
-131.5903319686702
 31
0.0
1001
GRADIENTCOLOR1ACI
1070
     5
1001
GRADIENTCOLOR2ACI
1070
     2
1001
ACAD
1010
0.0
1020
0.0
1030
0.0
1001
ACDBBLOCKREPETAG
1070
     1
1071
      466
1005
145AF3
  0
LINE
  5
145AF4
  8
SLIM
 10
9935.5737496925303
 20
-255.44599418640911
 30
0.0
 11
9941.2481105415936
 21
-249.771633337346
 31
0.0
1001
GRADIENTCOLOR1ACI
1070
     5
1001
GRADIENTCOLOR2ACI
1070
     2
1001
ACAD
1010
0.0
1020
0.0
1030
0.0
1001
ACDBBLOCKREPETAG
1070
     1
1071
      467
1005
145AF4
  0
LINE
  5
145AF5
  8
SLIM
 10
10053.019743878929
 20
-138.0000000000048
 30
0.0
 11
10055.445994186401
 21
-135.57374969253129
 31
0.0
1001
GRADIENTCOLOR1ACI
1070
     5
1001
GRADIENTCOLOR2ACI
1070
     2
1001
ACAD
1010
0.0
1020
0.0
1030
0.0
1001
ACDBBLOCKREPETAG
1070
     1
1071
      468
1005
145AF5
  0
LINE
  5
145AF6
  8
SLIM
 10
9939.8959235991442
 20
-260.10407640086129
 30
0.0
 11
9945.5527778486357
 21
-254.44722215136889
 31
0.0
1001
GRADIENTCOLOR1ACI
1070
     5
1001
GRADIENTCOLOR2ACI
1070
     2
1001
ACAD
1010
0.0
1020
0.0
1030
0.0
1001
ACDBBLOCKREPETAG
1070
     1
1071
      469
1005
145AF6
  0
LINE
  5
145AF7
  8
SLIM
 10
9944.5540058135957
 20
-264.4262503074782
 30
0.0
 11
9950.2283666626608
 21
-258.75188945841512
 31
0.0
1001
GRADIENTCOLOR1ACI
1070
     5
1001
GRADIENTCOLOR2ACI
1070
     2
1001
ACAD
1010
0.0
1020
0.0
1030
0.0
1001
ACDBBLOCKREPETAG
1070
     1
1071
      470
1005
145AF7
  0
LINE
  5
145AF8
  8
SLIM
 10
9949.5508442108039
 20
-268.40966803133938
 30
0.0
 11
9955.2787198301976
 21
-262.68179241194741
 31
0.0
1001
GRADIENTCOLOR1ACI
1070
     5
1001
GRADIENTCOLOR2ACI
1070
     2
1001
ACAD
1010
0.0
1020
0.0
1030
0.0
1001
ACDBBLOCKREPETAG
1070
     1
1071
      471
1005
145AF8
  0
LINE
  5
145AF9
  8
SLIM
 10
9954.8952294656337
 20
-272.04553889758012
 30
0.0
 11
9960.7157753781994
 21
-266.22499298501072
 31
0.0
1001
GRADIENTCOLOR1ACI
1070
     5
1001
GRADIENTCOLOR2ACI
1070
     2
1001
ACAD
1010
0.0
1020
0.0
1030
0.0
1001
ACDBBLOCKREPETAG
1070
     1
1071
      472
1005
145AF9
  0
LINE
  5
145AFA
  8
SLIM
 10
9960.6026880156223
 20
-275.31833646865988
 30
0.0
 11
9966.5609013486755
 21
-269.3601231356119
 31
0.0
1001
GRADIENTCOLOR1ACI
1070
     5
1001
GRADIENTCOLOR2ACI
1070
     2
1001
ACAD
1010
0.0
1020
0.0
1030
0.0
1001
ACDBBLOCKREPETAG
1070
     1
1071
      473
1005
145AFA
  0
LINE
  5
145AFB
  8
SLIM
 10
9966.6969969239635
 20
-278.20428368138442
 30
0.0
 11
9972.8475280011244
 21
-272.05375260422579
 31
0.0
1001
GRADIENTCOLOR1ACI
1070
     5
1001
GRADIENTCOLOR2ACI
1070
     2
1001
ACAD
1010
0.0
1020
0.0
1030
0.0
1001
ACDBBLOCKREPETAG
1070
     1
1071
      474
1005
145AFB
  0
LINE
  5
145AFC
  8
SLIM
 10
9973.2127961327205
 20
-280.6687405936994
 30
0.0
 11
9979.6259186857551
 21
-274.25561804066552
 31
0.0
1001
GRADIENTCOLOR1ACI
1070
     5
1001
GRADIENTCOLOR2ACI
1070
     2
1001
ACAD
1010
0.0
1020
0.0
1030
0.0
1001
ACDBBLOCKREPETAG
1070
     1
1071
      475
1005
145AFC
  0
LINE
  5
145AFD
  8
SLIM
 10
9980.2000585426413
 20
-282.66173430485111
 30
0.0
 11
9986.971940633035
 21
-275.88985221445341
 31
0.0
1001
GRADIENTCOLOR1ACI
1070
     5
1001
GRADIENTCOLOR2ACI
1070
     2
1001
ACAD
1010
0.0
1020
0.0
1030
0.0
1001
ACDBBLOCKREPETAG
1070
     1
1071
      476
1005
145AFD
  0
LINE
  5
145AFE
  8
SLIM
 10
9987.7320215894215
 20
-284.11002737913282
 30
0.0
 11
9995.0042797457209
 21
-276.83776922283562
 31
0.0
1001
GRADIENTCOLOR1ACI
1070
     5
1001
GRADIENTCOLOR2ACI
1070
     2
1001
ACAD
1010
0.0
1020
0.0
1030
0.0
1001
ACDBBLOCKREPETAG
1070
     1
1071
      477
1005
145AFE
  0
LINE
  5
145AFF
  8
SLIM
 10
9995.9202686470962
 20
-284.90203644253148
 30
0.0
 11
10000.0
 21
-280.82230508962709
 31
0.0
1001
GRADIENTCOLOR1ACI
1070
     5
1001
GRADIENTCOLOR2ACI
1070
     2
1001
ACAD
1010
0.0
1020
0.0
1030
0.0
1001
ACDBBLOCKREPETAG
1070
     1
1071
      478
1005
145AFF
  0
LINE
  5
145B00
  8
SLIM
 10
10000.0
 20
-280.82230508962709
 30
0.0
 11
10003.922267250789
 21
-276.9000378388339
 31
0.0
1001
GRADIENTCOLOR1ACI
1070
     5
1001
GRADIENTCOLOR2ACI
1070
     2
1001
ACAD
1010
0.0
1020
0.0
1030
0.0
1001
ACDBBLOCKREPETAG
1070
     1
1071
      479
1005
145B00
  0
LINE
  5
145B01
  8
SLIM
 10
10004.94661879974
 20
-284.8559424109522
 30
0.0
 11
10014.10558285387
 21
-275.69697835682223
 31
0.0
1001
GRADIENTCOLOR1ACI
1070
     5
1001
GRADIENTCOLOR2ACI
1070
     2
1001
ACAD
1010
0.0
1020
0.0
1030
0.0
1001
ACDBBLOCKREPETAG
1070
     1
1071
      480
1005
145B01
  0
LINE
  5
145B02
  8
SLIM
 10
10015.142485325139
 20
-283.64033200662692
 30
0.0
 11
10026.478775687539
 21
-272.30404164422271
 31
0.0
1001
GRADIENTCOLOR1ACI
1070
     5
1001
GRADIENTCOLOR2ACI
1070
     2
1001
ACAD
1010
0.0
1020
0.0
1030
0.0
1001
ACDBBLOCKREPETAG
1070
     1
1071
      481
1005
145B02
  0
LINE
  5
145B03
  8
SLIM
 10
10027.249225523659
 20
-280.51384792916741
 30
0.0
 11
10045.76307345283
 21
-262.00000000000477
 31
0.0
1001
GRADIENTCOLOR1ACI
1070
     5
1001
GRADIENTCOLOR2ACI
1070
     2
1001
ACAD
1010
0.0
1020
0.0
1030
0.0
1001
ACDBBLOCKREPETAG
1070
     1
1071
      482
1005
145B03
  0
LINE
  5
145B04
  8
SLIM
 10
10044.045159630419
 20
-272.6981699434815
 30
0.0
 11
10054.743329573899
 21
-262.00000000000477
 31
0.0
1001
GRADIENTCOLOR1ACI
1070
     5
1001
GRADIENTCOLOR2ACI
1070
     2
1001
ACAD
1010
0.0
1020
0.0
1030
0.0
1001
ACDBBLOCKREPETAG
1070
     1
1071
      483
1005
145B04
  0
LINE
  5
145B05
  8
CENTER
 10
10080.0
 20
-200.0000000000048
 30
0.0
 11
9900.0
 21
-200.0000000000048
 31
0.0
1001
ACDBBLOCKREPETAG
1070
     1
1071
      187
1005
145B05
  0
LINE
  5
145B06
  8
CENTER
 10
10000.0
 20
-300.00000000000477
 30
0.0
 11
10000.0
 21
-100.0000000000047
 31
0.0
1001
ACDBBLOCKREPETAG
1070
     1
1071
      188
1005
145B06
  0
CIRCLE
  5
145B07
  8
OBJECT
 10
10000.0
 20
-200.0000000000048
 30
0.0
 40
70.0
1001
ACDBBLOCKREPETAG
1070
     1
1071
      189
1005
145B07
  0
CIRCLE
  5
145B08
  8
OBJECT
 10
10000.0
 20
-200.0000000000048
 30
0.0
 40
77.0
1001
ACDBBLOCKREPETAG
1070
     1
1071
      190
1005
145B08
  0
LINE
  5
145B09
  8
OBJECT
 10
10045.661800227321
 20
-138.0000000000048
 30
0.0
 11
10080.0
 21
-138.0000000000048
 31
0.0
1001
ACDBBLOCKREPETAG
1070
     1
1071
      192
1005
145B09
  0
LINE
  5
145B0A
  8
OBJECT
 10
10045.661800227321
 20
-262.00000000000477
 30
0.0
 11
10080.0
 21
-262.00000000000477
 31
0.0
1001
ACDBBLOCKREPETAG
1070
     1
1071
      193
1005
145B0A
  0
ARC
  5
145B0B
  8
OBJECT
 10
10000.0
 20
-200.0000000000048
 30
0.0
 40
85.0
 50
46.837102859853147
 51
313.16289714014681
1001
ACDBBLOCKREPETAG
1070
     1
1071
      202
1005
145B0B
  0
LINE
  5
145B0C
  8
OBJECT
 10
10024.1029330933
 20
-243.80694712372249
 30
0.0
 11
10020.659656999989
 21
-232.5546220000044
 31
0.0
1001
ACDBBLOCKREPETAG
1070
     1
1071
      321
1005
145B0C
  0
LINE
  5
145B0D
  8
OBJECT
 10
9986.7927499013749
 20
-218.2255337420859
 30
0.0
 11
10020.659656999989
 21
-232.55462200000261
 31
0.0
1001
ACDBBLOCKREPETAG
1070
     1
1071
      323
1005
145B0D
  0
ARC
  5
145B0E
  8
OBJECT
 10
9982.8961697618997
 20
-227.43512999906241
 30
0.0
 40
10.0
 50
67.066778292911366
 51
154.01473437031629
1001
ACDBBLOCKREPETAG
1070
     1
1071
      324
1005
145B0E
  0
ARC
  5
145B0F
  8
OBJECT
 10
9986.1488390381292
 20
-225.5538625672973
 30
0.0
 40
7.0
 50
67.066778292911366
 51
154.0147337749826
1001
ACDBBLOCKREPETAG
1070
     1
1071
      325
1005
145B0F
  0
LINE
  5
145B10
  8
OBJECT
 10
9969.4199755553
 20
-243.89888500818731
 30
0.0
 11
9979.8564918232369
 21
-222.48688253357361
 31
0.0
1001
ACDBBLOCKREPETAG
1070
     1
1071
      353
1005
145B10
  0
LINE
  5
145B11
  8
OBJECT
 10
9965.2972169006098
 20
-240.718139018833
 30
0.0
 11
9973.9071022665084
 21
-223.0537300443132
 31
0.0
1001
ACDBBLOCKREPETAG
1070
     1
1071
      354
1005
145B11
  0
ARC
  5
145B12
  8
OBJECT
 10
9976.5796953073132
 20
-207.12893698284941
 30
0.0
 40
60.031113246032611
 50
314.07020130422319
 51
322.33936106089681
1001
ACDBBLOCKREPETAG
1070
     1
1071
      355
1005
145B12
  0
CIRCLE
  5
145B13
  8
OBJECT
 10
10000.0
 20
-200.0000000000048
 30
0.0
 40
53.5
1001
ACDBBLOCKREPETAG
1070
     1
1071
      356
1005
145B13
  0
POINT
  5
145B14
  8
DOTS
 10
10000.0
 20
-200.0000000000048
 30
0.0
 50
270.0
1001
ACDBBLOCKREPETAG
1070
     1
1071
      365
1005
145B14
  0
LINE
  5
145B15
  8
CENTER
 10
8227.0
 20
-696.0
 30
0.0
 11
8071.0
 21
-696.0
 31
0.0
1001
ACDBBLOCKREPETAG
1070
     1
1071
      287
1005
145B15
  0
LINE
  5
145B16
  8
OBJECT
 10
8150.0
 20
-743.0
 30
0.0
 11
8086.0000000000027
 21
-743.0
 31
0.0
1001
ACDBBLOCKREPETAG
1070
     1
1071
      288
1005
145B16
  0
LINE
  5
145B17
  8
OBJECT
 10
8083.0
 20
-634.0
 30
0.0
 11
8080.0
 21
-634.0
 31
0.0
1001
ACDBBLOCKREPETAG
1070
     1
1071
      289
1005
145B17
  0
LINE
  5
145B18
  8
OBJECT
 10
8150.0
 20
-649.0
 30
0.0
 11
8086.0000000000027
 21
-649.0
 31
0.0
1001
ACDBBLOCKREPETAG
1070
     1
1071
      290
1005
145B18
  0
ARC
  5
145B19
  8
OBJECT
 10
8083.0
 20
-637.0
 30
0.0
 40
3.0
 50
0.0
 51
90.0
1001
ACDBBLOCKREPETAG
1070
     1
1071
      291
1005
145B19
  0
LINE
  5
145B1A
  8
OBJECT
 10
8080.0
 20
-758.0
 30
0.0
 11
8083.0
 21
-758.0
 31
0.0
1001
ACDBBLOCKREPETAG
1070
     1
1071
      292
1005
145B1A
  0
ARC
  5
145B1B
  8
OBJECT
 10
8083.0
 20
-755.0
 30
0.0
 40
3.0
 50
270.0
 51
0.0
1001
ACDBBLOCKREPETAG
1070
     1
1071
      293
1005
145B1B
  0
LINE
  5
145B1C
  8
OBJECT
 10
8086.0
 20
-755.0
 30
0.0
 11
8086.0
 21
-637.0
 31
0.0
1001
ACDBBLOCKREPETAG
1070
     1
1071
      294
1005
145B1C
  0
ARC
  5
145B1D
  8
OBJECT
 10
8150.0
 20
-696.0
 30
0.0
 40
62.0
 50
229.293865732211
 51
252.10344887079279
1001
ACDBBLOCKREPETAG
1070
     1
1071
      296
1005
145B1D
  0
ARC
  5
145B1E
  8
OBJECT
 10
8150.0
 20
-696.0
 30
0.0
 40
62.0
 50
287.89655112920718
 51
130.70613426778891
1001
ACDBBLOCKREPETAG
1070
     1
1071
      297
1005
145B1E
  0
LINE
  5
145B1F
  8
OBJECT
 10
8130.947441116743
 20
-755.0
 30
0.0
 11
8169.0525588832561
 21
-755.0
 31
0.0
1001
ACDBBLOCKREPETAG
1070
     1
1071
      298
1005
145B1F
  0
LINE
  5
145B20
  8
CENTER
 10
8150.0
 20
-770.0
 30
0.0
 11
8150.0
 21
-619.0
 31
0.0
1001
ACDBBLOCKREPETAG
1070
     1
1071
      299
1005
145B20
  0
ARC
  5
145B21
  8
OBJECT
 10
8150.0
 20
-696.0
 30
0.0
 40
54.5
 50
239.58547089840889
 51
120.414529101591
1001
ACDBBLOCKREPETAG
1070
     1
1071
      300
1005
145B21
  0
ARC
  5
145B22
  8
OBJECT
 10
8150.0
 20
-696.0
 30
0.0
 40
47.0
 50
270.0
 51
90.0
1001
ACDBBLOCKREPETAG
1070
     1
1071
      301
1005
145B22
  0
ARC
  5
145B23
  8
OBJECT
 10
8150.0
 20
-696.0
 30
0.0
 40
59.0
 50
232.80760582085091
 51
127.19239417914901
1001
ACDBBLOCKREPETAG
1070
     1
1071
      302
1005
145B23
  0
LINE
  5
145B24
  8
OBJECT
 10
8212.0
 20
-97.000000000004775
 30
0.0
 11
8212.0
 21
-90.000000000004775
 31
0.0
1001
ACDBBLOCKREPETAG
1070
     1
1071
      325
1005
145B24
  0
LINE
  5
145B25
  8
OBJECT
 10
8212.0
 20
-90.000000000004775
 30
0.0
 11
8088.0
 21
-90.000000000004775
 31
0.0
1001
ACDBBLOCKREPETAG
1070
     1
1071
      326
1005
145B25
  0
LINE
  5
145B26
  8
OBJECT
 10
8088.0
 20
-90.000000000004775
 30
0.0
 11
8088.0
 21
-97.000000000004775
 31
0.0
1001
ACDBBLOCKREPETAG
1070
     1
1071
      327
1005
145B26
  0
LINE
  5
145B27
  8
OBJECT
 10
8088.0
 20
-97.000000000004775
 30
0.0
 11
8212.0
 21
-97.000000000004775
 31
0.0
1001
ACDBBLOCKREPETAG
1070
     1
1071
      328
1005
145B27
  0
LINE
  5
145B28
  8
CENTER
 10
8197.2436941260294
 20
-200.00000000000111
 30
0.0
 11
8080.0
 21
-200.0000000000048
 31
0.0
1001
ACDBBLOCKREPETAG
1070
     1
1071
      329
1005
145B28
  0
LINE
  5
145B29
  8
OBJECT
 10
8092.4999999999973
 20
-153.00000000000111
 30
0.0
 11
8086.0
 21
-153.00000000000111
 31
0.0
1001
ACDBBLOCKREPETAG
1070
     1
1071
      330
1005
145B29
  0
LINE
  5
145B2A
  8
OBJECT
 10
8098.0
 20
-247.00000000000111
 30
0.0
 11
8086.0
 21
-247.0000000000048
 31
0.0
1001
ACDBBLOCKREPETAG
1070
     1
1071
      331
1005
145B2A
  0
LINE
  5
145B2B
  8
OBJECT
 10
8209.0
 20
-97.000000000004775
 30
0.0
 11
8209.0
 21
-133.0000000000048
 31
0.0
1001
ACDBBLOCKREPETAG
1070
     1
1071
      332
1005
145B2B
  0
LINE
  5
145B2C
  8
OBJECT
 10
8209.0
 20
-133.0000000000048
 30
0.0
 11
8091.0
 21
-133.0000000000048
 31
0.0
1001
ACDBBLOCKREPETAG
1070
     1
1071
      333
1005
145B2C
  0
LINE
  5
145B2D
  8
OBJECT
 10
8091.0
 20
-133.0000000000048
 30
0.0
 11
8091.0
 21
-97.000000000004775
 31
0.0
1001
ACDBBLOCKREPETAG
1070
     1
1071
      334
1005
145B2D
  0
LINE
  5
145B2E
  8
OBJECT
 10
8204.5000000000018
 20
-137.0000000000048
 30
0.0
 11
8204.5000000000018
 21
-150.00000000000469
 31
0.0
1001
ACDBBLOCKREPETAG
1070
     1
1071
      335
1005
145B2E
  0
LINE
  5
145B2F
  8
OBJECT
 10
8095.4999999999973
 20
-150.00000000000469
 30
0.0
 11
8095.4999999999973
 21
-137.0000000000048
 31
0.0
1001
ACDBBLOCKREPETAG
1070
     1
1071
      336
1005
145B2F
  0
LINE
  5
145B30
  8
OBJECT
 10
8095.4999999999973
 20
-137.0000000000048
 30
0.0
 11
8204.5000000000018
 21
-137.0000000000048
 31
0.0
1001
ACDBBLOCKREPETAG
1070
     1
1071
      337
1005
145B30
  0
LINE
  5
145B31
  8
OBJECT
 10
8209.0
 20
-133.0000000000048
 30
0.0
 11
8204.5000000000018
 21
-137.0000000000048
 31
0.0
1001
ACDBBLOCKREPETAG
1070
     1
1071
      338
1005
145B31
  0
LINE
  5
145B32
  8
OBJECT
 10
8091.0
 20
-133.0000000000048
 30
0.0
 11
8095.4999999999973
 21
-137.0000000000048
 31
0.0
1001
ACDBBLOCKREPETAG
1070
     1
1071
      339
1005
145B32
  0
LINE
  5
145B33
  8
OBJECT
 10
8083.0
 20
-262.00000000000477
 30
0.0
 11
8080.0
 21
-262.00000000000477
 31
0.0
1001
ACDBBLOCKREPETAG
1070
     1
1071
      340
1005
145B33
  0
ARC
  5
145B34
  8
OBJECT
 10
8083.0
 20
-259.00000000000477
 30
0.0
 40
3.0
 50
270.0
 51
0.0
1001
ACDBBLOCKREPETAG
1070
     1
1071
      341
1005
145B34
  0
LINE
  5
145B35
  8
OBJECT
 10
8080.0
 20
-138.0000000000048
 30
0.0
 11
8095.4999999999973
 21
-138.0000000000048
 31
0.0
1001
ACDBBLOCKREPETAG
1070
     1
1071
      342
1005
145B35
  0
ARC
  5
145B36
  8
OBJECT
 10
8083.0
 20
-141.0000000000048
 30
0.0
 40
3.0
 50
0.0
 51
90.0
1001
ACDBBLOCKREPETAG
1070
     1
1071
      343
1005
145B36
  0
LINE
  5
145B37
  8
OBJECT
 10
8086.0
 20
-141.0000000000048
 30
0.0
 11
8086.0
 21
-259.00000000000477
 31
0.0
1001
ACDBBLOCKREPETAG
1070
     1
1071
      344
1005
145B37
  0
LINE
  5
145B38
  8
HIDDEN
 10
8194.5000000000036
 20
-142.00000000000469
 30
0.0
 11
8105.5000000000036
 21
-142.00000000000469
 31
0.0
1001
ACDBBLOCKREPETAG
1070
     1
1071
      345
1005
145B38
  0
LINE
  5
145B39
  8
OBJECT
 10
8095.5000212374462
 20
-150.00004086387091
 30
0.0
 11
8204.5000212374507
 21
-150.00004086387091
 31
0.0
1001
ACDBBLOCKREPETAG
1070
     1
1071
      347
1005
145B39
  0
LINE
  5
145B3A
  8
CENTER
 10
8150.0
 20
-247.2436941260323
 30
0.0
 11
8150.0
 21
-75.000000000004775
 31
0.0
1001
ACDBBLOCKREPETAG
1070
     1
1071
      348
1005
145B3A
  0
ARC
  5
145B3B
  8
CENTER
 10
8098.0
 20
-148.00000000000111
 30
0.0
 40
52.0
 50
270.0
 51
0.0
1001
ACDBBLOCKREPETAG
1070
     1
1071
      349
1005
145B3B
  0
ARC
  5
145B3C
  8
OBJECT
 10
8092.4999999999973
 20
-150.00000000000111
 30
0.0
 40
3.0
 50
270.0
 51
0.0
1001
ACDBBLOCKREPETAG
1070
     1
1071
      350
1005
145B3C
  0
ARC
  5
145B3D
  8
OBJECT
 10
8098.0
 20
-148.00000000000111
 30
0.0
 40
99.0
 50
270.0
 51
358.84240710281
1001
ACDBBLOCKREPETAG
1070
     1
1071
      351
1005
145B3D
  0
LINE
  5
145B3E
  8
OBJECT
 10
7923.0
 20
-571.0
 30
0.0
 11
7923.0
 21
-550.0
 31
0.0
1001
ACDBBLOCKREPETAG
1070
     1
1071
        0
1005
145B3E
  0
LINE
  5
145B3F
  8
OBJECT
 10
7923.0
 20
-550.0
 30
0.0
 11
8077.0
 21
-550.0
 31
0.0
1001
ACDBBLOCKREPETAG
1070
     1
1071
        1
1005
145B3F
  0
LINE
  5
145B40
  8
HIDDEN
 10
7943.0
 20
-620.0
 30
0.0
 11
8057.0
 21
-620.0
 31
0.0
1001
ACDBBLOCKREPETAG
1070
     1
1071
        2
1005
145B40
  0
LINE
  5
145B41
  8
OBJECT
 10
8077.0
 20
-550.0
 30
0.0
 11
8077.0
 21
-571.0
 31
0.0
1001
ACDBBLOCKREPETAG
1070
     1
1071
        3
1005
145B41
  0
LINE
  5
145B42
  8
OBJECT
 10
8077.0
 20
-571.0
 30
0.0
 11
7923.0
 21
-571.0
 31
0.0
1001
ACDBBLOCKREPETAG
1070
     1
1071
        4
1005
145B42
  0
LINE
  5
145B43
  8
CENTER
 10
8000.0
 20
-535.0
 30
0.0
 11
8000.0
 21
-770.0
 31
0.0
1001
ACDBBLOCKREPETAG
1070
     1
1071
        5
1005
145B43
  0
LINE
  5
145B44
  8
OBJECT
 10
7925.0
 20
-634.0
 30
0.0
 11
7925.0
 21
-758.0
 31
0.0
1001
ACDBBLOCKREPETAG
1070
     1
1071
        6
1005
145B44
  0
LINE
  5
145B45
  8
OBJECT
 10
7928.0
 20
-571.0
 30
0.0
 11
7928.0
 21
-634.0
 31
0.0
1001
ACDBBLOCKREPETAG
1070
     1
1071
        7
1005
145B45
  0
LINE
  5
145B46
  8
OBJECT
 10
8072.0
 20
-634.0
 30
0.0
 11
8072.0
 21
-571.0
 31
0.0
1001
ACDBBLOCKREPETAG
1070
     1
1071
        8
1005
145B46
  0
LINE
  5
145B47
  8
OBJECT
 10
7920.0
 20
-758.0
 30
0.0
 11
8080.0
 21
-758.0
 31
0.0
1001
ACDBBLOCKREPETAG
1070
     1
1071
        9
1005
145B47
  0
LINE
  5
145B48
  8
OBJECT
 10
8080.0
 20
-634.0
 30
0.0
 11
7925.0
 21
-634.0
 31
0.0
1001
ACDBBLOCKREPETAG
1070
     1
1071
       10
1005
145B48
  0
LINE
  5
145B49
  8
OBJECT
 10
7920.0
 20
-758.0
 30
0.0
 11
7920.0
 21
-770.0
 31
0.0
1001
ACDBBLOCKREPETAG
1070
     1
1071
       11
1005
145B49
  0
LINE
  5
145B4A
  8
OBJECT
 10
7920.0
 20
-770.0
 30
0.0
 11
8080.0
 21
-770.0
 31
0.0
1001
ACDBBLOCKREPETAG
1070
     1
1071
       12
1005
145B4A
  0
LINE
  5
145B4B
  8
OBJECT
 10
8080.0
 20
-770.0
 30
0.0
 11
8080.0
 21
-758.0
 31
0.0
1001
ACDBBLOCKREPETAG
1070
     1
1071
       13
1005
145B4B
  0
ARC
  5
145B4C
  8
OBJECT
 10
8200.6872746716726
 20
-749.40809941010752
 30
0.0
 40
170.6350503965856
 50
137.44134459184301
 51
149.91949581337221
1001
ACDBBLOCKREPETAG
1070
     1
1071
       15
1005
145B4C
  0
ARC
  5
145B4D
  8
OBJECT
 10
8118.8455987040506
 20
-705.88272669536479
 30
0.0
 40
78.072222021763665
 50
147.4551531037684
 51
164.66365997718671
1001
ACDBBLOCKREPETAG
1070
     1
1071
       16
1005
145B4D
  0
ARC
  5
145B4E
  8
OBJECT
 10
8085.7554349608708
 20
-696.0
 30
0.0
 40
43.55353926885617
 50
165.6884523008477
 51
194.3115476991523
1001
ACDBBLOCKREPETAG
1070
     1
1071
       17
1005
145B4E
  0
ARC
  5
145B4F
  8
OBJECT
 10
8200.6872746716726
 20
-642.59190058989225
 30
0.0
 40
170.6350503965856
 50
210.08050418662771
 51
222.55865540815699
1001
ACDBBLOCKREPETAG
1070
     1
1071
       18
1005
145B4F
  0
ARC
  5
145B50
  8
OBJECT
 10
8118.8455987040506
 20
-686.11727330463521
 30
0.0
 40
78.072222021763665
 50
195.3363400228132
 51
212.5448468962316
1001
ACDBBLOCKREPETAG
1070
     1
1071
       19
1005
145B50
  0
POINT
  5
145B51
  8
DOTS
 10
8000.0
 20
-755.0
 30
0.0
1001
ACDBBLOCKREPETAG
1070
     1
1071
      186
1005
145B51
  0
ARC
  5
145B52
  8
OBJECT
 10
8000.0
 20
-200.0000000000048
 30
0.0
 40
50.0
 50
298.81994300000417
 51
228.52376955964741
1001
ACDBBLOCKREPETAG
1070
     1
1071
      185
1005
145B52
  0
LINE
  5
145B53
  8
SLIM
 10
7927.3018300565236
 20
-155.9548403695826
 30
0.0
 11
7955.9548403695781
 21
-127.301830056528
 31
0.0
1001
GRADIENTCOLOR1ACI
1070
     5
1001
GRADIENTCOLOR2ACI
1070
     2
1001
ACAD
1010
0.0
1020
0.0
1030
0.0
1001
ACDBBLOCKREPETAG
1070
     1
1071
      442
1005
145B53
  0
LINE
  5
145B54
  8
SLIM
 10
7919.4861520708373
 20
-172.7507744763376
 30
0.0
 11
7938.2903089572737
 21
-153.94661758990219
 31
0.0
1001
GRADIENTCOLOR1ACI
1070
     5
1001
GRADIENTCOLOR2ACI
1070
     2
1001
ACAD
1010
0.0
1020
0.0
1030
0.0
1001
ACDBBLOCKREPETAG
1070
     1
1071
      443
1005
145B54
  0
LINE
  5
145B55
  8
SLIM
 10
7953.9466175898988
 20
-138.2903089572774
 30
0.0
 11
7972.7507744763334
 21
-119.4861520708421
 31
0.0
1001
GRADIENTCOLOR1ACI
1070
     5
1001
GRADIENTCOLOR2ACI
1070
     2
1001
ACAD
1010
0.0
1020
0.0
1030
0.0
1001
ACDBBLOCKREPETAG
1070
     1
1071
      444
1005
145B55
  0
LINE
  5
145B56
  8
SLIM
 10
7916.3596679933771
 20
-184.85751467486611
 30
0.0
 11
7927.6959583557828
 21
-173.5212243124619
 31
0.0
1001
GRADIENTCOLOR1ACI
1070
     5
1001
GRADIENTCOLOR2ACI
1070
     2
1001
ACAD
1010
0.0
1020
0.0
1030
0.0
1001
ACDBBLOCKREPETAG
1070
     1
1071
      445
1005
145B56
  0
LINE
  5
145B57
  8
SLIM
 10
7973.5212243124561
 20
-127.6959583557869
 30
0.0
 11
7984.8575146748608
 21
-116.3596679933827
 31
0.0
1001
GRADIENTCOLOR1ACI
1070
     5
1001
GRADIENTCOLOR2ACI
1070
     2
1001
ACAD
1010
0.0
1020
0.0
1030
0.0
1001
ACDBBLOCKREPETAG
1070
     1
1071
      446
1005
145B57
  0
LINE
  5
145B58
  8
SLIM
 10
7915.1440575890529
 20
-195.0533812002607
 30
0.0
 11
7924.3030216431825
 21
-185.89441714613071
 31
0.0
1001
GRADIENTCOLOR1ACI
1070
     5
1001
GRADIENTCOLOR2ACI
1070
     2
1001
ACAD
1010
0.0
1020
0.0
1030
0.0
1001
ACDBBLOCKREPETAG
1070
     1
1071
      447
1005
145B58
  0
LINE
  5
145B59
  8
SLIM
 10
7985.8944171461262
 20
-124.30302164318719
 30
0.0
 11
7995.0533812002559
 21
-115.1440575890574
 31
0.0
1001
GRADIENTCOLOR1ACI
1070
     5
1001
GRADIENTCOLOR2ACI
1070
     2
1001
ACAD
1010
0.0
1020
0.0
1030
0.0
1001
ACDBBLOCKREPETAG
1070
     1
1071
      448
1005
145B59
  0
LINE
  5
145B5A
  8
SLIM
 10
7915.097963557474
 20
-204.07973135290911
 30
0.0
 11
7919.1776949103778
 21
-200.0000000000048
 31
0.0
1001
GRADIENTCOLOR1ACI
1070
     5
1001
GRADIENTCOLOR2ACI
1070
     2
1001
ACAD
1010
0.0
1020
0.0
1030
0.0
1001
ACDBBLOCKREPETAG
1070
     1
1071
      449
1005
145B5A
  0
LINE
  5
145B5B
  8
SLIM
 10
8000.0
 20
-119.1776949103824
 30
0.0
 11
8004.0797313529074
 21
-115.0979635574781
 31
0.0
1001
GRADIENTCOLOR1ACI
1070
     5
1001
GRADIENTCOLOR2ACI
1070
     2
1001
ACAD
1010
0.0
1020
0.0
1030
0.0
1001
ACDBBLOCKREPETAG
1070
     1
1071
      450
1005
145B5B
  0
LINE
  5
145B5C
  8
SLIM
 10
7919.1776949103778
 20
-200.0000000000048
 30
0.0
 11
7923.0999621611709
 21
-196.07773274921149
 31
0.0
1001
GRADIENTCOLOR1ACI
1070
     5
1001
GRADIENTCOLOR2ACI
1070
     2
1001
ACAD
1010
0.0
1020
0.0
1030
0.0
1001
ACDBBLOCKREPETAG
1070
     1
1071
      451
1005
145B5C
  0
LINE
  5
145B5D
  8
SLIM
 10
7996.077732749206
 20
-123.0999621611756
 30
0.0
 11
8000.0
 21
-119.1776949103824
 31
0.0
1001
GRADIENTCOLOR1ACI
1070
     5
1001
GRADIENTCOLOR2ACI
1070
     2
1001
ACAD
1010
0.0
1020
0.0
1030
0.0
1001
ACDBBLOCKREPETAG
1070
     1
1071
      452
1005
145B5D
  0
LINE
  5
145B5E
  8
SLIM
 10
7915.889972620871
 20
-212.26797841057959
 30
0.0
 11
7923.1622307771704
 21
-204.9957202542823
 31
0.0
1001
GRADIENTCOLOR1ACI
1070
     5
1001
GRADIENTCOLOR2ACI
1070
     2
1001
ACAD
1010
0.0
1020
0.0
1030
0.0
1001
ACDBBLOCKREPETAG
1070
     1
1071
      453
1005
145B5E
  0
LINE
  5
145B5F
  8
SLIM
 10
8004.9957202542737
 20
-123.162230777174
 30
0.0
 11
8012.2679784105749
 21
-115.8899726208767
 31
0.0
1001
GRADIENTCOLOR1ACI
1070
     5
1001
GRADIENTCOLOR2ACI
1070
     2
1001
ACAD
1010
0.0
1020
0.0
1030
0.0
1001
ACDBBLOCKREPETAG
1070
     1
1071
      454
1005
145B5F
  0
LINE
  5
145B60
  8
SLIM
 10
7917.3382656951526
 20
-219.7999414573672
 30
0.0
 11
7924.1101477855518
 21
-213.0280593669693
 31
0.0
1001
GRADIENTCOLOR1ACI
1070
     5
1001
GRADIENTCOLOR2ACI
1070
     2
1001
ACAD
1010
0.0
1020
0.0
1030
0.0
1001
ACDBBLOCKREPETAG
1070
     1
1071
      455
1005
145B60
  0
LINE
  5
145B61
  8
SLIM
 10
8013.028059366964
 20
-124.11014778555619
 30
0.0
 11
8019.7999414573624
 21
-117.3382656951583
 31
0.0
1001
GRADIENTCOLOR1ACI
1070
     5
1001
GRADIENTCOLOR2ACI
1070
     2
1001
ACAD
1010
0.0
1020
0.0
1030
0.0
1001
ACDBBLOCKREPETAG
1070
     1
1071
      456
1005
145B61
  0
LINE
  5
145B62
  8
SLIM
 10
7919.3312594063054
 20
-226.78720386728449
 30
0.0
 11
7925.74438195934
 21
-220.37408131425059
 31
0.0
1001
GRADIENTCOLOR1ACI
1070
     5
1001
GRADIENTCOLOR2ACI
1070
     2
1001
ACAD
1010
0.0
1020
0.0
1030
0.0
1001
ACDBBLOCKREPETAG
1070
     1
1071
      457
1005
145B62
  0
LINE
  5
145B63
  8
SLIM
 10
8020.3740813142458
 20
-125.7443819593441
 30
0.0
 11
8026.7872038672767
 21
-119.3312594063101
 31
0.0
1001
GRADIENTCOLOR1ACI
1070
     5
1001
GRADIENTCOLOR2ACI
1070
     2
1001
ACAD
1010
0.0
1020
0.0
1030
0.0
1001
ACDBBLOCKREPETAG
1070
     1
1071
      458
1005
145B63
  0
LINE
  5
145B64
  8
SLIM
 10
7921.7957163186193
 20
-233.30300307603861
 30
0.0
 11
7927.9462473957792
 21
-227.15247199888
 31
0.0
1001
GRADIENTCOLOR1ACI
1070
     5
1001
GRADIENTCOLOR2ACI
1070
     2
1001
ACAD
1010
0.0
1020
0.0
1030
0.0
1001
ACDBBLOCKREPETAG
1070
     1
1071
      459
1005
145B64
  0
LINE
  5
145B65
  8
SLIM
 10
8027.1524719988738
 20
-127.9462473957837
 30
0.0
 11
8033.3030030760328
 21
-121.7957163186252
 31
0.0
1001
GRADIENTCOLOR1ACI
1070
     5
1001
GRADIENTCOLOR2ACI
1070
     2
1001
ACAD
1010
0.0
1020
0.0
1030
0.0
1001
ACDBBLOCKREPETAG
1070
     1
1071
      460
1005
145B65
  0
LINE
  5
145B66
  8
SLIM
 10
7924.6816635313462
 20
-239.39731198438321
 30
0.0
 11
7930.639876864393
 21
-233.43909865133531
 31
0.0
1001
GRADIENTCOLOR1ACI
1070
     5
1001
GRADIENTCOLOR2ACI
1070
     2
1001
ACAD
1010
0.0
1020
0.0
1030
0.0
1001
ACDBBLOCKREPETAG
1070
     1
1071
      461
1005
145B66
  0
LINE
  5
145B67
  8
SLIM
 10
8033.4390986513308
 20
-130.63987686439771
 30
0.0
 11
8039.3973119843777
 21
-124.6816635313496
 31
0.0
1001
GRADIENTCOLOR1ACI
1070
     5
1001
GRADIENTCOLOR2ACI
1070
     2
1001
ACAD
1010
0.0
1020
0.0
1030
0.0
1001
ACDBBLOCKREPETAG
1070
     1
1071
      462
1005
145B67
  0
LINE
  5
145B68
  8
SLIM
 10
7927.9544611024266
 20
-245.10477053437259
 30
0.0
 11
7933.7750070149932
 21
-239.28422462180319
 31
0.0
1001
GRADIENTCOLOR1ACI
1070
     5
1001
GRADIENTCOLOR2ACI
1070
     2
1001
ACAD
1010
0.0
1020
0.0
1030
0.0
1001
ACDBBLOCKREPETAG
1070
     1
1071
      463
1005
145B68
  0
LINE
  5
145B69
  8
SLIM
 10
8039.2842246217979
 20
-133.77500701499881
 30
0.0
 11
8045.1047705343699
 21
-127.95446110242951
 31
0.0
1001
GRADIENTCOLOR1ACI
1070
     5
1001
GRADIENTCOLOR2ACI
1070
     2
1001
ACAD
1010
0.0
1020
0.0
1030
0.0
1001
ACDBBLOCKREPETAG
1070
     1
1071
      464
1005
145B69
  0
LINE
  5
145B6A
  8
SLIM
 10
7931.5903319686649
 20
-250.44915578920109
 30
0.0
 11
7937.3182075880577
 21
-244.72128016980901
 31
0.0
1001
GRADIENTCOLOR1ACI
1070
     5
1001
GRADIENTCOLOR2ACI
1070
     2
1001
ACAD
1010
0.0
1020
0.0
1030
0.0
1001
ACDBBLOCKREPETAG
1070
     1
1071
      465
1005
145B6A
  0
LINE
  5
145B6B
  8
SLIM
 10
8044.7212801698061
 20
-137.31820758806219
 30
0.0
 11
8050.449155789197
 21
-131.5903319686702
 31
0.0
1001
GRADIENTCOLOR1ACI
1070
     5
1001
GRADIENTCOLOR2ACI
1070
     2
1001
ACAD
1010
0.0
1020
0.0
1030
0.0
1001
ACDBBLOCKREPETAG
1070
     1
1071
      466
1005
145B6B
  0
LINE
  5
145B6C
  8
SLIM
 10
7935.5737496925258
 20
-255.44599418640911
 30
0.0
 11
7941.24811054159
 21
-249.771633337346
 31
0.0
1001
GRADIENTCOLOR1ACI
1070
     5
1001
GRADIENTCOLOR2ACI
1070
     2
1001
ACAD
1010
0.0
1020
0.0
1030
0.0
1001
ACDBBLOCKREPETAG
1070
     1
1071
      467
1005
145B6C
  0
LINE
  5
145B6D
  8
SLIM
 10
8053.0197438789319
 20
-138.0000000000048
 30
0.0
 11
8055.4459941864034
 21
-135.57374969253129
 31
0.0
1001
GRADIENTCOLOR1ACI
1070
     5
1001
GRADIENTCOLOR2ACI
1070
     2
1001
ACAD
1010
0.0
1020
0.0
1030
0.0
1001
ACDBBLOCKREPETAG
1070
     1
1071
      468
1005
145B6D
  0
LINE
  5
145B6E
  8
SLIM
 10
7939.8959235991442
 20
-260.10407640086129
 30
0.0
 11
7945.5527778486357
 21
-254.44722215136889
 31
0.0
1001
GRADIENTCOLOR1ACI
1070
     5
1001
GRADIENTCOLOR2ACI
1070
     2
1001
ACAD
1010
0.0
1020
0.0
1030
0.0
1001
ACDBBLOCKREPETAG
1070
     1
1071
      469
1005
145B6E
  0
LINE
  5
145B6F
  8
SLIM
 10
7944.5540058135948
 20
-264.4262503074782
 30
0.0
 11
7950.2283666626608
 21
-258.75188945841512
 31
0.0
1001
GRADIENTCOLOR1ACI
1070
     5
1001
GRADIENTCOLOR2ACI
1070
     2
1001
ACAD
1010
0.0
1020
0.0
1030
0.0
1001
ACDBBLOCKREPETAG
1070
     1
1071
      470
1005
145B6F
  0
LINE
  5
145B70
  8
SLIM
 10
7949.5508442108039
 20
-268.40966803133938
 30
0.0
 11
7955.2787198301958
 21
-262.68179241194741
 31
0.0
1001
GRADIENTCOLOR1ACI
1070
     5
1001
GRADIENTCOLOR2ACI
1070
     2
1001
ACAD
1010
0.0
1020
0.0
1030
0.0
1001
ACDBBLOCKREPETAG
1070
     1
1071
      471
1005
145B70
  0
LINE
  5
145B71
  8
SLIM
 10
7954.895229465631
 20
-272.04553889758012
 30
0.0
 11
7960.7157753782021
 21
-266.22499298501072
 31
0.0
1001
GRADIENTCOLOR1ACI
1070
     5
1001
GRADIENTCOLOR2ACI
1070
     2
1001
ACAD
1010
0.0
1020
0.0
1030
0.0
1001
ACDBBLOCKREPETAG
1070
     1
1071
      472
1005
145B71
  0
LINE
  5
145B72
  8
SLIM
 10
7960.6026880156223
 20
-275.31833646865988
 30
0.0
 11
7966.5609013486683
 21
-269.3601231356119
 31
0.0
1001
GRADIENTCOLOR1ACI
1070
     5
1001
GRADIENTCOLOR2ACI
1070
     2
1001
ACAD
1010
0.0
1020
0.0
1030
0.0
1001
ACDBBLOCKREPETAG
1070
     1
1071
      473
1005
145B72
  0
LINE
  5
145B73
  8
SLIM
 10
7966.6969969239663
 20
-278.20428368138442
 30
0.0
 11
7972.8475280011244
 21
-272.05375260422579
 31
0.0
1001
GRADIENTCOLOR1ACI
1070
     5
1001
GRADIENTCOLOR2ACI
1070
     2
1001
ACAD
1010
0.0
1020
0.0
1030
0.0
1001
ACDBBLOCKREPETAG
1070
     1
1071
      474
1005
145B73
  0
LINE
  5
145B74
  8
SLIM
 10
7973.2127961327187
 20
-280.6687405936994
 30
0.0
 11
7979.6259186857542
 21
-274.25561804066552
 31
0.0
1001
GRADIENTCOLOR1ACI
1070
     5
1001
GRADIENTCOLOR2ACI
1070
     2
1001
ACAD
1010
0.0
1020
0.0
1030
0.0
1001
ACDBBLOCKREPETAG
1070
     1
1071
      475
1005
145B74
  0
LINE
  5
145B75
  8
SLIM
 10
7980.2000585426395
 20
-282.66173430485111
 30
0.0
 11
7986.971940633035
 21
-275.88985221445341
 31
0.0
1001
GRADIENTCOLOR1ACI
1070
     5
1001
GRADIENTCOLOR2ACI
1070
     2
1001
ACAD
1010
0.0
1020
0.0
1030
0.0
1001
ACDBBLOCKREPETAG
1070
     1
1071
      476
1005
145B75
  0
LINE
  5
145B76
  8
SLIM
 10
7987.732021589426
 20
-284.11002737913282
 30
0.0
 11
7995.0042797457209
 21
-276.83776922283562
 31
0.0
1001
GRADIENTCOLOR1ACI
1070
     5
1001
GRADIENTCOLOR2ACI
1070
     2
1001
ACAD
1010
0.0
1020
0.0
1030
0.0
1001
ACDBBLOCKREPETAG
1070
     1
1071
      477
1005
145B76
  0
LINE
  5
145B77
  8
SLIM
 10
7995.9202686470962
 20
-284.90203644253148
 30
0.0
 11
8000.0
 21
-280.82230508962709
 31
0.0
1001
GRADIENTCOLOR1ACI
1070
     5
1001
GRADIENTCOLOR2ACI
1070
     2
1001
ACAD
1010
0.0
1020
0.0
1030
0.0
1001
ACDBBLOCKREPETAG
1070
     1
1071
      478
1005
145B77
  0
LINE
  5
145B78
  8
SLIM
 10
8000.0
 20
-280.82230508962709
 30
0.0
 11
8003.9222672507931
 21
-276.9000378388339
 31
0.0
1001
GRADIENTCOLOR1ACI
1070
     5
1001
GRADIENTCOLOR2ACI
1070
     2
1001
ACAD
1010
0.0
1020
0.0
1030
0.0
1001
ACDBBLOCKREPETAG
1070
     1
1071
      479
1005
145B78
  0
LINE
  5
145B79
  8
SLIM
 10
8004.9466187997441
 20
-284.8559424109522
 30
0.0
 11
8014.1055828538756
 21
-275.69697835682223
 31
0.0
1001
GRADIENTCOLOR1ACI
1070
     5
1001
GRADIENTCOLOR2ACI
1070
     2
1001
ACAD
1010
0.0
1020
0.0
1030
0.0
1001
ACDBBLOCKREPETAG
1070
     1
1071
      480
1005
145B79
  0
LINE
  5
145B7A
  8
SLIM
 10
8015.1424853251401
 20
-283.64033200662692
 30
0.0
 11
8026.478775687543
 21
-272.30404164422271
 31
0.0
1001
GRADIENTCOLOR1ACI
1070
     5
1001
GRADIENTCOLOR2ACI
1070
     2
1001
ACAD
1010
0.0
1020
0.0
1030
0.0
1001
ACDBBLOCKREPETAG
1070
     1
1071
      481
1005
145B7A
  0
LINE
  5
145B7B
  8
SLIM
 10
8027.2492255236657
 20
-280.51384792916741
 30
0.0
 11
8045.7630734528302
 21
-262.00000000000477
 31
0.0
1001
GRADIENTCOLOR1ACI
1070
     5
1001
GRADIENTCOLOR2ACI
1070
     2
1001
ACAD
1010
0.0
1020
0.0
1030
0.0
1001
ACDBBLOCKREPETAG
1070
     1
1071
      482
1005
145B7B
  0
LINE
  5
145B7C
  8
SLIM
 10
8044.045159630421
 20
-272.6981699434815
 30
0.0
 11
8054.7433295739002
 21
-262.00000000000477
 31
0.0
1001
GRADIENTCOLOR1ACI
1070
     5
1001
GRADIENTCOLOR2ACI
1070
     2
1001
ACAD
1010
0.0
1020
0.0
1030
0.0
1001
ACDBBLOCKREPETAG
1070
     1
1071
      483
1005
145B7C
  0
LINE
  5
145B7D
  8
CENTER
 10
8080.0
 20
-200.0000000000048
 30
0.0
 11
7900.0
 21
-200.0000000000048
 31
0.0
1001
ACDBBLOCKREPETAG
1070
     1
1071
      187
1005
145B7D
  0
LINE
  5
145B7E
  8
CENTER
 10
8000.0
 20
-300.00000000000477
 30
0.0
 11
8000.0
 21
-100.0000000000047
 31
0.0
1001
ACDBBLOCKREPETAG
1070
     1
1071
      188
1005
145B7E
  0
CIRCLE
  5
145B7F
  8
OBJECT
 10
8000.0
 20
-200.0000000000048
 30
0.0
 40
70.0
1001
ACDBBLOCKREPETAG
1070
     1
1071
      189
1005
145B7F
  0
CIRCLE
  5
145B80
  8
OBJECT
 10
8000.0
 20
-200.0000000000048
 30
0.0
 40
77.0
1001
ACDBBLOCKREPETAG
1070
     1
1071
      190
1005
145B80
  0
LINE
  5
145B81
  8
OBJECT
 10
8045.6618002273271
 20
-138.0000000000048
 30
0.0
 11
8080.0
 21
-138.0000000000048
 31
0.0
1001
ACDBBLOCKREPETAG
1070
     1
1071
      192
1005
145B81
  0
LINE
  5
145B82
  8
OBJECT
 10
8045.6618002273271
 20
-262.00000000000477
 30
0.0
 11
8080.0
 21
-262.00000000000477
 31
0.0
1001
ACDBBLOCKREPETAG
1070
     1
1071
      193
1005
145B82
  0
ARC
  5
145B83
  8
OBJECT
 10
8000.0
 20
-200.0000000000048
 30
0.0
 40
85.0
 50
46.83710285981514
 51
313.16289714018478
1001
ACDBBLOCKREPETAG
1070
     1
1071
      202
1005
145B83
  0
LINE
  5
145B84
  8
OBJECT
 10
8024.1029330933006
 20
-243.80694712372249
 30
0.0
 11
8020.6596569999974
 21
-232.5546220000044
 31
0.0
1001
ACDBBLOCKREPETAG
1070
     1
1071
      321
1005
145B84
  0
LINE
  5
145B85
  8
OBJECT
 10
7986.7927499013749
 20
-218.2255337420859
 30
0.0
 11
8020.6596569999974
 21
-232.55462200000261
 31
0.0
1001
ACDBBLOCKREPETAG
1070
     1
1071
      323
1005
145B85
  0
ARC
  5
145B86
  8
OBJECT
 10
7982.8961697618997
 20
-227.43512999906241
 30
0.0
 40
10.0
 50
67.066778292911366
 51
154.0147343702935
1001
ACDBBLOCKREPETAG
1070
     1
1071
      324
1005
145B86
  0
ARC
  5
145B87
  8
OBJECT
 10
7986.1488390381273
 20
-225.5538625672973
 30
0.0
 40
7.0
 50
67.066778292911366
 51
154.0147337749826
1001
ACDBBLOCKREPETAG
1070
     1
1071
      325
1005
145B87
  0
LINE
  5
145B88
  8
OBJECT
 10
7969.4199755553009
 20
-243.89888500818731
 30
0.0
 11
7979.8564918232369
 21
-222.48688253357361
 31
0.0
1001
ACDBBLOCKREPETAG
1070
     1
1071
      353
1005
145B88
  0
LINE
  5
145B89
  8
OBJECT
 10
7965.2972169006098
 20
-240.718139018833
 30
0.0
 11
7973.9071022665084
 21
-223.0537300443132
 31
0.0
1001
ACDBBLOCKREPETAG
1070
     1
1071
      354
1005
145B89
  0
ARC
  5
145B8A
  8
OBJECT
 10
7976.5796953073141
 20
-207.12893698284941
 30
0.0
 40
60.031113246032611
 50
314.07020130418567
 51
322.33936106089681
1001
ACDBBLOCKREPETAG
1070
     1
1071
      355
1005
145B8A
  0
CIRCLE
  5
145B8B
  8
OBJECT
 10
8000.0
 20
-200.0000000000048
 30
0.0
 40
53.5
1001
ACDBBLOCKREPETAG
1070
     1
1071
      356
1005
145B8B
  0
POINT
  5
145B8C
  8
DOTS
 10
8000.0
 20
-200.0000000000048
 30
0.0
 50
270.0
1001
ACDBBLOCKREPETAG
1070
     1
1071
      365
1005
145B8C
  0
LINE
  5
145B8D
  8
CENTER
 10
6227.0
 20
-696.0
 30
0.0
 11
6071.0
 21
-696.0
 31
0.0
1001
ACDBBLOCKREPETAG
1070
     1
1071
      287
1005
145B8D
  0
LINE
  5
145B8E
  8
OBJECT
 10
6150.0
 20
-743.0
 30
0.0
 11
6086.0000000000018
 21
-743.0
 31
0.0
1001
ACDBBLOCKREPETAG
1070
     1
1071
      288
1005
145B8E
  0
LINE
  5
145B8F
  8
OBJECT
 10
6083.0
 20
-634.0
 30
0.0
 11
6080.0
 21
-634.0
 31
0.0
1001
ACDBBLOCKREPETAG
1070
     1
1071
      289
1005
145B8F
  0
LINE
  5
145B90
  8
OBJECT
 10
6150.0
 20
-649.0
 30
0.0
 11
6086.0000000000018
 21
-649.0
 31
0.0
1001
ACDBBLOCKREPETAG
1070
     1
1071
      290
1005
145B90
  0
ARC
  5
145B91
  8
OBJECT
 10
6083.0
 20
-637.0
 30
0.0
 40
3.0
 50
0.0
 51
90.0
1001
ACDBBLOCKREPETAG
1070
     1
1071
      291
1005
145B91
  0
LINE
  5
145B92
  8
OBJECT
 10
6080.0
 20
-758.0
 30
0.0
 11
6083.0
 21
-758.0
 31
0.0
1001
ACDBBLOCKREPETAG
1070
     1
1071
      292
1005
145B92
  0
ARC
  5
145B93
  8
OBJECT
 10
6083.0
 20
-755.0
 30
0.0
 40
3.0
 50
270.0
 51
0.0
1001
ACDBBLOCKREPETAG
1070
     1
1071
      293
1005
145B93
  0
LINE
  5
145B94
  8
OBJECT
 10
6086.0
 20
-755.0
 30
0.0
 11
6086.0
 21
-637.0
 31
0.0
1001
ACDBBLOCKREPETAG
1070
     1
1071
      294
1005
145B94
  0
ARC
  5
145B95
  8
OBJECT
 10
6150.0
 20
-696.0
 30
0.0
 40
62.0
 50
229.293865732211
 51
252.10344887079279
1001
ACDBBLOCKREPETAG
1070
     1
1071
      296
1005
145B95
  0
ARC
  5
145B96
  8
OBJECT
 10
6150.0
 20
-696.0
 30
0.0
 40
62.0
 50
287.89655112920718
 51
130.70613426778891
1001
ACDBBLOCKREPETAG
1070
     1
1071
      297
1005
145B96
  0
LINE
  5
145B97
  8
OBJECT
 10
6130.947441116743
 20
-755.0
 30
0.0
 11
6169.052558883257
 21
-755.0
 31
0.0
1001
ACDBBLOCKREPETAG
1070
     1
1071
      298
1005
145B97
  0
LINE
  5
145B98
  8
CENTER
 10
6150.0
 20
-770.0
 30
0.0
 11
6150.0
 21
-619.0
 31
0.0
1001
ACDBBLOCKREPETAG
1070
     1
1071
      299
1005
145B98
  0
ARC
  5
145B99
  8
OBJECT
 10
6150.0
 20
-696.0
 30
0.0
 40
54.5
 50
239.58547089840889
 51
120.414529101591
1001
ACDBBLOCKREPETAG
1070
     1
1071
      300
1005
145B99
  0
ARC
  5
145B9A
  8
OBJECT
 10
6150.0
 20
-696.0
 30
0.0
 40
47.0
 50
270.0
 51
90.0
1001
ACDBBLOCKREPETAG
1070
     1
1071
      301
1005
145B9A
  0
ARC
  5
145B9B
  8
OBJECT
 10
6150.0
 20
-696.0
 30
0.0
 40
59.0
 50
232.80760582085091
 51
127.19239417914901
1001
ACDBBLOCKREPETAG
1070
     1
1071
      302
1005
145B9B
  0
LINE
  5
145B9C
  8
OBJECT
 10
6212.0
 20
-97.000000000004775
 30
0.0
 11
6212.0
 21
-90.000000000004775
 31
0.0
1001
ACDBBLOCKREPETAG
1070
     1
1071
      325
1005
145B9C
  0
LINE
  5
145B9D
  8
OBJECT
 10
6212.0
 20
-90.000000000004775
 30
0.0
 11
6088.0
 21
-90.000000000004775
 31
0.0
1001
ACDBBLOCKREPETAG
1070
     1
1071
      326
1005
145B9D
  0
LINE
  5
145B9E
  8
OBJECT
 10
6088.0
 20
-90.000000000004775
 30
0.0
 11
6088.0
 21
-97.000000000004775
 31
0.0
1001
ACDBBLOCKREPETAG
1070
     1
1071
      327
1005
145B9E
  0
LINE
  5
145B9F
  8
OBJECT
 10
6088.0
 20
-97.000000000004775
 30
0.0
 11
6212.0
 21
-97.000000000004775
 31
0.0
1001
ACDBBLOCKREPETAG
1070
     1
1071
      328
1005
145B9F
  0
LINE
  5
145BA0
  8
CENTER
 10
6197.2436941260312
 20
-200.00000000000111
 30
0.0
 11
6080.0
 21
-200.0000000000048
 31
0.0
1001
ACDBBLOCKREPETAG
1070
     1
1071
      329
1005
145BA0
  0
LINE
  5
145BA1
  8
OBJECT
 10
6092.5000000000009
 20
-153.00000000000111
 30
0.0
 11
6086.0
 21
-153.00000000000111
 31
0.0
1001
ACDBBLOCKREPETAG
1070
     1
1071
      330
1005
145BA1
  0
LINE
  5
145BA2
  8
OBJECT
 10
6098.0
 20
-247.00000000000111
 30
0.0
 11
6086.0
 21
-247.0000000000048
 31
0.0
1001
ACDBBLOCKREPETAG
1070
     1
1071
      331
1005
145BA2
  0
LINE
  5
145BA3
  8
OBJECT
 10
6209.0
 20
-97.000000000004775
 30
0.0
 11
6209.0
 21
-133.0000000000048
 31
0.0
1001
ACDBBLOCKREPETAG
1070
     1
1071
      332
1005
145BA3
  0
LINE
  5
145BA4
  8
OBJECT
 10
6209.0
 20
-133.0000000000048
 30
0.0
 11
6091.0
 21
-133.0000000000048
 31
0.0
1001
ACDBBLOCKREPETAG
1070
     1
1071
      333
1005
145BA4
  0
LINE
  5
145BA5
  8
OBJECT
 10
6091.0
 20
-133.0000000000048
 30
0.0
 11
6091.0
 21
-97.000000000004775
 31
0.0
1001
ACDBBLOCKREPETAG
1070
     1
1071
      334
1005
145BA5
  0
LINE
  5
145BA6
  8
OBJECT
 10
6204.5
 20
-137.0000000000048
 30
0.0
 11
6204.5
 21
-150.00000000000469
 31
0.0
1001
ACDBBLOCKREPETAG
1070
     1
1071
      335
1005
145BA6
  0
LINE
  5
145BA7
  8
OBJECT
 10
6095.5
 20
-150.00000000000469
 30
0.0
 11
6095.5
 21
-137.0000000000048
 31
0.0
1001
ACDBBLOCKREPETAG
1070
     1
1071
      336
1005
145BA7
  0
LINE
  5
145BA8
  8
OBJECT
 10
6095.5
 20
-137.0000000000048
 30
0.0
 11
6204.5
 21
-137.0000000000048
 31
0.0
1001
ACDBBLOCKREPETAG
1070
     1
1071
      337
1005
145BA8
  0
LINE
  5
145BA9
  8
OBJECT
 10
6209.0
 20
-133.0000000000048
 30
0.0
 11
6204.5
 21
-137.0000000000048
 31
0.0
1001
ACDBBLOCKREPETAG
1070
     1
1071
      338
1005
145BA9
  0
LINE
  5
145BAA
  8
OBJECT
 10
6091.0
 20
-133.0000000000048
 30
0.0
 11
6095.5
 21
-137.0000000000048
 31
0.0
1001
ACDBBLOCKREPETAG
1070
     1
1071
      339
1005
145BAA
  0
LINE
  5
145BAB
  8
OBJECT
 10
6083.0
 20
-262.00000000000477
 30
0.0
 11
6080.0
 21
-262.00000000000477
 31
0.0
1001
ACDBBLOCKREPETAG
1070
     1
1071
      340
1005
145BAB
  0
ARC
  5
145BAC
  8
OBJECT
 10
6083.0
 20
-259.00000000000477
 30
0.0
 40
3.0
 50
270.0
 51
0.0
1001
ACDBBLOCKREPETAG
1070
     1
1071
      341
1005
145BAC
  0
LINE
  5
145BAD
  8
OBJECT
 10
6080.0
 20
-138.0000000000048
 30
0.0
 11
6095.5
 21
-138.0000000000048
 31
0.0
1001
ACDBBLOCKREPETAG
1070
     1
1071
      342
1005
145BAD
  0
ARC
  5
145BAE
  8
OBJECT
 10
6083.0
 20
-141.0000000000048
 30
0.0
 40
3.0
 50
0.0
 51
90.0
1001
ACDBBLOCKREPETAG
1070
     1
1071
      343
1005
145BAE
  0
LINE
  5
145BAF
  8
OBJECT
 10
6086.0
 20
-141.0000000000048
 30
0.0
 11
6086.0
 21
-259.00000000000477
 31
0.0
1001
ACDBBLOCKREPETAG
1070
     1
1071
      344
1005
145BAF
  0
LINE
  5
145BB0
  8
HIDDEN
 10
6194.5
 20
-142.00000000000469
 30
0.0
 11
6105.5
 21
-142.00000000000469
 31
0.0
1001
ACDBBLOCKREPETAG
1070
     1
1071
      345
1005
145BB0
  0
LINE
  5
145BB1
  8
OBJECT
 10
6095.5000212374471
 20
-150.00004086387091
 30
0.0
 11
6204.5000212374471
 21
-150.00004086387091
 31
0.0
1001
ACDBBLOCKREPETAG
1070
     1
1071
      347
1005
145BB1
  0
LINE
  5
145BB2
  8
CENTER
 10
6150.0
 20
-247.2436941260323
 30
0.0
 11
6150.0
 21
-75.000000000004775
 31
0.0
1001
ACDBBLOCKREPETAG
1070
     1
1071
      348
1005
145BB2
  0
ARC
  5
145BB3
  8
CENTER
 10
6098.0
 20
-148.00000000000111
 30
0.0
 40
52.0
 50
270.0
 51
0.0
1001
ACDBBLOCKREPETAG
1070
     1
1071
      349
1005
145BB3
  0
ARC
  5
145BB4
  8
OBJECT
 10
6092.5000000000009
 20
-150.00000000000111
 30
0.0
 40
3.0
 50
270.0
 51
0.0
1001
ACDBBLOCKREPETAG
1070
     1
1071
      350
1005
145BB4
  0
ARC
  5
145BB5
  8
OBJECT
 10
6098.0
 20
-148.00000000000111
 30
0.0
 40
99.0
 50
270.0
 51
358.84240710281
1001
ACDBBLOCKREPETAG
1070
     1
1071
      351
1005
145BB5
  0
LINE
  5
145BB6
  8
OBJECT
 10
5923.0
 20
-571.0
 30
0.0
 11
5923.0
 21
-550.0
 31
0.0
1001
ACDBBLOCKREPETAG
1070
     1
1071
        0
1005
145BB6
  0
LINE
  5
145BB7
  8
OBJECT
 10
5923.0
 20
-550.0
 30
0.0
 11
6077.0
 21
-550.0
 31
0.0
1001
ACDBBLOCKREPETAG
1070
     1
1071
        1
1005
145BB7
  0
LINE
  5
145BB8
  8
HIDDEN
 10
5943.0
 20
-620.0
 30
0.0
 11
6057.0
 21
-620.0
 31
0.0
1001
ACDBBLOCKREPETAG
1070
     1
1071
        2
1005
145BB8
  0
LINE
  5
145BB9
  8
OBJECT
 10
6077.0
 20
-550.0
 30
0.0
 11
6077.0
 21
-571.0
 31
0.0
1001
ACDBBLOCKREPETAG
1070
     1
1071
        3
1005
145BB9
  0
LINE
  5
145BBA
  8
OBJECT
 10
6077.0
 20
-571.0
 30
0.0
 11
5923.0
 21
-571.0
 31
0.0
1001
ACDBBLOCKREPETAG
1070
     1
1071
        4
1005
145BBA
  0
LINE
  5
145BBB
  8
CENTER
 10
6000.0
 20
-535.0
 30
0.0
 11
6000.0
 21
-770.0
 31
0.0
1001
ACDBBLOCKREPETAG
1070
     1
1071
        5
1005
145BBB
  0
LINE
  5
145BBC
  8
OBJECT
 10
5925.0
 20
-634.0
 30
0.0
 11
5925.0
 21
-758.0
 31
0.0
1001
ACDBBLOCKREPETAG
1070
     1
1071
        6
1005
145BBC
  0
LINE
  5
145BBD
  8
OBJECT
 10
5928.0
 20
-571.0
 30
0.0
 11
5928.0
 21
-634.0
 31
0.0
1001
ACDBBLOCKREPETAG
1070
     1
1071
        7
1005
145BBD
  0
LINE
  5
145BBE
  8
OBJECT
 10
6072.0
 20
-634.0
 30
0.0
 11
6072.0
 21
-571.0
 31
0.0
1001
ACDBBLOCKREPETAG
1070
     1
1071
        8
1005
145BBE
  0
LINE
  5
145BBF
  8
OBJECT
 10
5920.0
 20
-758.0
 30
0.0
 11
6080.0
 21
-758.0
 31
0.0
1001
ACDBBLOCKREPETAG
1070
     1
1071
        9
1005
145BBF
  0
LINE
  5
145BC0
  8
OBJECT
 10
6080.0
 20
-634.0
 30
0.0
 11
5925.0
 21
-634.0
 31
0.0
1001
ACDBBLOCKREPETAG
1070
     1
1071
       10
1005
145BC0
  0
LINE
  5
145BC1
  8
OBJECT
 10
5920.0
 20
-758.0
 30
0.0
 11
5920.0
 21
-770.0
 31
0.0
1001
ACDBBLOCKREPETAG
1070
     1
1071
       11
1005
145BC1
  0
LINE
  5
145BC2
  8
OBJECT
 10
5920.0
 20
-770.0
 30
0.0
 11
6080.0
 21
-770.0
 31
0.0
1001
ACDBBLOCKREPETAG
1070
     1
1071
       12
1005
145BC2
  0
LINE
  5
145BC3
  8
OBJECT
 10
6080.0
 20
-770.0
 30
0.0
 11
6080.0
 21
-758.0
 31
0.0
1001
ACDBBLOCKREPETAG
1070
     1
1071
       13
1005
145BC3
  0
ARC
  5
145BC4
  8
OBJECT
 10
6200.6872746716735
 20
-749.40809941010752
 30
0.0
 40
170.6350503965856
 50
137.44134459184301
 51
149.91949581337221
1001
ACDBBLOCKREPETAG
1070
     1
1071
       15
1005
145BC4
  0
ARC
  5
145BC5
  8
OBJECT
 10
6118.8455987040506
 20
-705.88272669536479
 30
0.0
 40
78.072222021763665
 50
147.4551531037684
 51
164.66365997718671
1001
ACDBBLOCKREPETAG
1070
     1
1071
       16
1005
145BC5
  0
ARC
  5
145BC6
  8
OBJECT
 10
6085.7554349608727
 20
-696.0
 30
0.0
 40
43.55353926885617
 50
165.6884523008477
 51
194.3115476991523
1001
ACDBBLOCKREPETAG
1070
     1
1071
       17
1005
145BC6
  0
ARC
  5
145BC7
  8
OBJECT
 10
6200.6872746716735
 20
-642.59190058989225
 30
0.0
 40
170.6350503965856
 50
210.08050418662771
 51
222.55865540815699
1001
ACDBBLOCKREPETAG
1070
     1
1071
       18
1005
145BC7
  0
ARC
  5
145BC8
  8
OBJECT
 10
6118.8455987040506
 20
-686.11727330463521
 30
0.0
 40
78.072222021763665
 50
195.3363400228132
 51
212.5448468962316
1001
ACDBBLOCKREPETAG
1070
     1
1071
       19
1005
145BC8
  0
POINT
  5
145BC9
  8
DOTS
 10
6000.0
 20
-755.0
 30
0.0
1001
ACDBBLOCKREPETAG
1070
     1
1071
      186
1005
145BC9
  0
LINE
  5
145BCA
  8
OBJECT
 10
6024.1029330933034
 20
-243.80694712372249
 30
0.0
 11
6020.6596569999956
 21
-232.5546220000044
 31
0.0
1001
ACDBBLOCKREPETAG
1070
     1
1071
      300
1005
145BCA
  0
LINE
  5
145BCB
  8
OBJECT
 10
5986.7927499013749
 20
-218.2255337420859
 30
0.0
 11
6020.6596569999956
 21
-232.55462200000261
 31
0.0
1001
ACDBBLOCKREPETAG
1070
     1
1071
      302
1005
145BCB
  0
ARC
  5
145BCC
  8
OBJECT
 10
5982.8961697618997
 20
-227.43512999906241
 30
0.0
 40
10.0
 50
67.066778292911366
 51
154.0147343702935
1001
ACDBBLOCKREPETAG
1070
     1
1071
      303
1005
145BCC
  0
ARC
  5
145BCD
  8
OBJECT
 10
5986.1488390381273
 20
-225.5538625672973
 30
0.0
 40
7.0
 50
67.066778292911366
 51
154.0147337749826
1001
ACDBBLOCKREPETAG
1070
     1
1071
      304
1005
145BCD
  0
LINE
  5
145BCE
  8
OBJECT
 10
5969.4199755553018
 20
-243.89888500818731
 30
0.0
 11
5979.8564918232369
 21
-222.48688253357361
 31
0.0
1001
ACDBBLOCKREPETAG
1070
     1
1071
      341
1005
145BCE
  0
LINE
  5
145BCF
  8
OBJECT
 10
5965.2972169006089
 20
-240.718139018833
 30
0.0
 11
5973.9071022665084
 21
-223.0537300443132
 31
0.0
1001
ACDBBLOCKREPETAG
1070
     1
1071
      342
1005
145BCF
  0
ARC
  5
145BD0
  8
OBJECT
 10
5976.5796953073141
 20
-207.12893698284941
 30
0.0
 40
60.031113246032611
 50
314.07020130418567
 51
322.33936106089681
1001
ACDBBLOCKREPETAG
1070
     1
1071
      343
1005
145BD0
  0
CIRCLE
  5
145BD1
  8
OBJECT
 10
6000.0
 20
-200.0000000000048
 30
0.0
 40
53.5
1001
ACDBBLOCKREPETAG
1070
     1
1071
      344
1005
145BD1
  0
POINT
  5
145BD2
  8
DOTS
 10
6000.0
 20
-200.0000000000048
 30
0.0
 50
270.0
1001
ACDBBLOCKREPETAG
1070
     1
1071
      362
1005
145BD2
  0
ARC
  5
145BD3
  8
OBJECT
 10
6000.0
 20
-200.0000000000048
 30
0.0
 40
50.0
 50
298.81994300000417
 51
228.52376955965491
1001
ACDBBLOCKREPETAG
1070
     1
1071
        7
1005
145BD3
  0
LINE
  5
145BD4
  8
CENTER
 10
6080.0
 20
-200.0000000000048
 30
0.0
 11
5905.0
 21
-200.0000000000048
 31
0.0
1001
ACDBBLOCKREPETAG
1070
     1
1071
       14
1005
145BD4
  0
LINE
  5
145BD5
  8
CENTER
 10
6000.0
 20
-295.00000000000489
 30
0.0
 11
6000.0
 21
-105.0000000000048
 31
0.0
1001
ACDBBLOCKREPETAG
1070
     1
1071
       15
1005
145BD5
  0
CIRCLE
  5
145BD6
  8
OBJECT
 10
6000.0
 20
-200.0000000000048
 30
0.0
 40
70.0
1001
ACDBBLOCKREPETAG
1070
     1
1071
       16
1005
145BD6
  0
CIRCLE
  5
145BD7
  8
OBJECT
 10
6000.0
 20
-200.0000000000048
 30
0.0
 40
77.0
1001
ACDBBLOCKREPETAG
1070
     1
1071
       17
1005
145BD7
  0
ARC
  5
145BD8
  8
OBJECT
 10
6000.0
 20
-200.0000000000048
 30
0.0
 40
80.0
 50
50.80503257388439
 51
309.19496742611562
1001
ACDBBLOCKREPETAG
1070
     1
1071
       18
1005
145BD8
  0
LINE
  5
145BD9
  8
OBJECT
 10
6045.6618002273253
 20
-138.0000000000048
 30
0.0
 11
6080.0
 21
-138.0000000000048
 31
0.0
1001
ACDBBLOCKREPETAG
1070
     1
1071
       19
1005
145BD9
  0
LINE
  5
145BDA
  8
OBJECT
 10
6045.6618002273253
 20
-262.00000000000477
 30
0.0
 11
6080.0
 21
-262.00000000000477
 31
0.0
1001
ACDBBLOCKREPETAG
1070
     1
1071
       20
1005
145BDA
  0
LINE
  5
145BDB
  8
CENTER
 10
4227.0
 20
-696.0
 30
0.0
 11
4071.0
 21
-696.0
 31
0.0
1001
ACDBBLOCKREPETAG
1070
     1
1071
      287
1005
145BDB
  0
LINE
  5
145BDC
  8
OBJECT
 10
4150.0
 20
-743.0
 30
0.0
 11
4086.0000000000032
 21
-743.0
 31
0.0
1001
ACDBBLOCKREPETAG
1070
     1
1071
      288
1005
145BDC
  0
LINE
  5
145BDD
  8
OBJECT
 10
4083.0
 20
-634.0
 30
0.0
 11
4080.0
 21
-634.0
 31
0.0
1001
ACDBBLOCKREPETAG
1070
     1
1071
      289
1005
145BDD
  0
LINE
  5
145BDE
  8
OBJECT
 10
4150.0
 20
-649.0
 30
0.0
 11
4086.0000000000032
 21
-649.0
 31
0.0
1001
ACDBBLOCKREPETAG
1070
     1
1071
      290
1005
145BDE
  0
ARC
  5
145BDF
  8
OBJECT
 10
4083.0
 20
-637.0
 30
0.0
 40
3.0
 50
0.0
 51
90.0
1001
ACDBBLOCKREPETAG
1070
     1
1071
      291
1005
145BDF
  0
LINE
  5
145BE0
  8
OBJECT
 10
4080.0
 20
-758.0
 30
0.0
 11
4083.0
 21
-758.0
 31
0.0
1001
ACDBBLOCKREPETAG
1070
     1
1071
      292
1005
145BE0
  0
ARC
  5
145BE1
  8
OBJECT
 10
4083.0
 20
-755.0
 30
0.0
 40
3.0
 50
270.0
 51
0.0
1001
ACDBBLOCKREPETAG
1070
     1
1071
      293
1005
145BE1
  0
LINE
  5
145BE2
  8
OBJECT
 10
4086.0
 20
-755.0
 30
0.0
 11
4086.0
 21
-637.0
 31
0.0
1001
ACDBBLOCKREPETAG
1070
     1
1071
      294
1005
145BE2
  0
ARC
  5
145BE3
  8
OBJECT
 10
4150.0
 20
-696.0
 30
0.0
 40
62.0
 50
229.293865732211
 51
252.10344887079279
1001
ACDBBLOCKREPETAG
1070
     1
1071
      296
1005
145BE3
  0
ARC
  5
145BE4
  8
OBJECT
 10
4150.0
 20
-696.0
 30
0.0
 40
62.0
 50
287.89655112920718
 51
130.70613426778891
1001
ACDBBLOCKREPETAG
1070
     1
1071
      297
1005
145BE4
  0
LINE
  5
145BE5
  8
OBJECT
 10
4130.947441116743
 20
-755.0
 30
0.0
 11
4169.052558883257
 21
-755.0
 31
0.0
1001
ACDBBLOCKREPETAG
1070
     1
1071
      298
1005
145BE5
  0
LINE
  5
145BE6
  8
CENTER
 10
4150.0
 20
-770.0
 30
0.0
 11
4150.0
 21
-619.0
 31
0.0
1001
ACDBBLOCKREPETAG
1070
     1
1071
      299
1005
145BE6
  0
ARC
  5
145BE7
  8
OBJECT
 10
4150.0
 20
-696.0
 30
0.0
 40
54.5
 50
239.58547089840889
 51
120.414529101591
1001
ACDBBLOCKREPETAG
1070
     1
1071
      300
1005
145BE7
  0
ARC
  5
145BE8
  8
OBJECT
 10
4150.0
 20
-696.0
 30
0.0
 40
47.0
 50
270.0
 51
90.0
1001
ACDBBLOCKREPETAG
1070
     1
1071
      301
1005
145BE8
  0
ARC
  5
145BE9
  8
OBJECT
 10
4150.0
 20
-696.0
 30
0.0
 40
59.0
 50
232.80760582087169
 51
127.1923941791283
1001
ACDBBLOCKREPETAG
1070
     1
1071
      302
1005
145BE9
  0
LINE
  5
145BEA
  8
OBJECT
 10
4212.0
 20
-97.000000000004775
 30
0.0
 11
4212.0
 21
-90.000000000004775
 31
0.0
1001
ACDBBLOCKREPETAG
1070
     1
1071
      325
1005
145BEA
  0
LINE
  5
145BEB
  8
OBJECT
 10
4212.0
 20
-90.000000000004775
 30
0.0
 11
4088.0
 21
-90.000000000004775
 31
0.0
1001
ACDBBLOCKREPETAG
1070
     1
1071
      326
1005
145BEB
  0
LINE
  5
145BEC
  8
OBJECT
 10
4088.0
 20
-90.000000000004775
 30
0.0
 11
4088.0
 21
-97.000000000004775
 31
0.0
1001
ACDBBLOCKREPETAG
1070
     1
1071
      327
1005
145BEC
  0
LINE
  5
145BED
  8
OBJECT
 10
4088.0
 20
-97.000000000004775
 30
0.0
 11
4212.0
 21
-97.000000000004775
 31
0.0
1001
ACDBBLOCKREPETAG
1070
     1
1071
      328
1005
145BED
  0
LINE
  5
145BEE
  8
CENTER
 10
4197.2436941260312
 20
-200.00000000000111
 30
0.0
 11
4080.0
 21
-200.0000000000048
 31
0.0
1001
ACDBBLOCKREPETAG
1070
     1
1071
      329
1005
145BEE
  0
LINE
  5
145BEF
  8
OBJECT
 10
4092.5
 20
-153.00000000000111
 30
0.0
 11
4086.0
 21
-153.00000000000111
 31
0.0
1001
ACDBBLOCKREPETAG
1070
     1
1071
      330
1005
145BEF
  0
LINE
  5
145BF0
  8
OBJECT
 10
4098.0
 20
-247.00000000000111
 30
0.0
 11
4086.0
 21
-247.0000000000048
 31
0.0
1001
ACDBBLOCKREPETAG
1070
     1
1071
      331
1005
145BF0
  0
LINE
  5
145BF1
  8
OBJECT
 10
4209.0
 20
-97.000000000004775
 30
0.0
 11
4209.0
 21
-133.0000000000048
 31
0.0
1001
ACDBBLOCKREPETAG
1070
     1
1071
      332
1005
145BF1
  0
LINE
  5
145BF2
  8
OBJECT
 10
4209.0
 20
-133.0000000000048
 30
0.0
 11
4091.0
 21
-133.0000000000048
 31
0.0
1001
ACDBBLOCKREPETAG
1070
     1
1071
      333
1005
145BF2
  0
LINE
  5
145BF3
  8
OBJECT
 10
4091.0
 20
-133.0000000000048
 30
0.0
 11
4091.0
 21
-97.000000000004775
 31
0.0
1001
ACDBBLOCKREPETAG
1070
     1
1071
      334
1005
145BF3
  0
LINE
  5
145BF4
  8
OBJECT
 10
4204.5
 20
-137.0000000000048
 30
0.0
 11
4204.5
 21
-150.00000000000469
 31
0.0
1001
ACDBBLOCKREPETAG
1070
     1
1071
      335
1005
145BF4
  0
LINE
  5
145BF5
  8
OBJECT
 10
4095.5
 20
-150.00000000000469
 30
0.0
 11
4095.5
 21
-137.0000000000048
 31
0.0
1001
ACDBBLOCKREPETAG
1070
     1
1071
      336
1005
145BF5
  0
LINE
  5
145BF6
  8
OBJECT
 10
4095.5
 20
-137.0000000000048
 30
0.0
 11
4204.5
 21
-137.0000000000048
 31
0.0
1001
ACDBBLOCKREPETAG
1070
     1
1071
      337
1005
145BF6
  0
LINE
  5
145BF7
  8
OBJECT
 10
4209.0
 20
-133.0000000000048
 30
0.0
 11
4204.5
 21
-137.0000000000048
 31
0.0
1001
ACDBBLOCKREPETAG
1070
     1
1071
      338
1005
145BF7
  0
LINE
  5
145BF8
  8
OBJECT
 10
4091.0
 20
-133.0000000000048
 30
0.0
 11
4095.5
 21
-137.0000000000048
 31
0.0
1001
ACDBBLOCKREPETAG
1070
     1
1071
      339
1005
145BF8
  0
LINE
  5
145BF9
  8
OBJECT
 10
4083.0
 20
-262.00000000000477
 30
0.0
 11
4080.0
 21
-262.00000000000477
 31
0.0
1001
ACDBBLOCKREPETAG
1070
     1
1071
      340
1005
145BF9
  0
ARC
  5
145BFA
  8
OBJECT
 10
4083.0
 20
-259.00000000000477
 30
0.0
 40
3.0
 50
270.0
 51
0.0
1001
ACDBBLOCKREPETAG
1070
     1
1071
      341
1005
145BFA
  0
LINE
  5
145BFB
  8
OBJECT
 10
4080.0
 20
-138.0000000000048
 30
0.0
 11
4095.5
 21
-138.0000000000048
 31
0.0
1001
ACDBBLOCKREPETAG
1070
     1
1071
      342
1005
145BFB
  0
ARC
  5
145BFC
  8
OBJECT
 10
4083.0
 20
-141.0000000000048
 30
0.0
 40
3.0
 50
0.0
 51
90.0
1001
ACDBBLOCKREPETAG
1070
     1
1071
      343
1005
145BFC
  0
LINE
  5
145BFD
  8
OBJECT
 10
4086.0
 20
-141.0000000000048
 30
0.0
 11
4086.0
 21
-259.00000000000477
 31
0.0
1001
ACDBBLOCKREPETAG
1070
     1
1071
      344
1005
145BFD
  0
LINE
  5
145BFE
  8
HIDDEN
 10
4194.5
 20
-142.00000000000469
 30
0.0
 11
4105.5
 21
-142.00000000000469
 31
0.0
1001
ACDBBLOCKREPETAG
1070
     1
1071
      345
1005
145BFE
  0
LINE
  5
145BFF
  8
OBJECT
 10
4095.5000212374471
 20
-150.00004086387091
 30
0.0
 11
4204.5000212374453
 21
-150.00004086387091
 31
0.0
1001
ACDBBLOCKREPETAG
1070
     1
1071
      347
1005
145BFF
  0
LINE
  5
145C00
  8
CENTER
 10
4150.0
 20
-247.2436941260323
 30
0.0
 11
4150.0
 21
-75.000000000004775
 31
0.0
1001
ACDBBLOCKREPETAG
1070
     1
1071
      348
1005
145C00
  0
ARC
  5
145C01
  8
CENTER
 10
4098.0
 20
-148.00000000000111
 30
0.0
 40
52.0
 50
270.0
 51
0.0
1001
ACDBBLOCKREPETAG
1070
     1
1071
      349
1005
145C01
  0
ARC
  5
145C02
  8
OBJECT
 10
4092.5
 20
-150.00000000000111
 30
0.0
 40
3.0
 50
270.0
 51
0.0
1001
ACDBBLOCKREPETAG
1070
     1
1071
      350
1005
145C02
  0
ARC
  5
145C03
  8
OBJECT
 10
4098.0
 20
-148.00000000000111
 30
0.0
 40
99.0
 50
270.0
 51
358.84240710281
1001
ACDBBLOCKREPETAG
1070
     1
1071
      351
1005
145C03
  0
LINE
  5
145C04
  8
OBJECT
 10
3923.0
 20
-571.0
 30
0.0
 11
3923.0
 21
-550.0
 31
0.0
1001
ACDBBLOCKREPETAG
1070
     1
1071
        0
1005
145C04
  0
LINE
  5
145C05
  8
OBJECT
 10
3923.0
 20
-550.0
 30
0.0
 11
4077.0
 21
-550.0
 31
0.0
1001
ACDBBLOCKREPETAG
1070
     1
1071
        1
1005
145C05
  0
LINE
  5
145C06
  8
HIDDEN
 10
3943.0
 20
-620.0
 30
0.0
 11
4057.0
 21
-620.0
 31
0.0
1001
ACDBBLOCKREPETAG
1070
     1
1071
        2
1005
145C06
  0
LINE
  5
145C07
  8
OBJECT
 10
4077.0
 20
-550.0
 30
0.0
 11
4077.0
 21
-571.0
 31
0.0
1001
ACDBBLOCKREPETAG
1070
     1
1071
        3
1005
145C07
  0
LINE
  5
145C08
  8
OBJECT
 10
4077.0
 20
-571.0
 30
0.0
 11
3923.0
 21
-571.0
 31
0.0
1001
ACDBBLOCKREPETAG
1070
     1
1071
        4
1005
145C08
  0
LINE
  5
145C09
  8
CENTER
 10
4000.0
 20
-535.0
 30
0.0
 11
4000.0
 21
-770.0
 31
0.0
1001
ACDBBLOCKREPETAG
1070
     1
1071
        5
1005
145C09
  0
LINE
  5
145C0A
  8
OBJECT
 10
3925.0
 20
-634.0
 30
0.0
 11
3925.0
 21
-758.0
 31
0.0
1001
ACDBBLOCKREPETAG
1070
     1
1071
        6
1005
145C0A
  0
LINE
  5
145C0B
  8
OBJECT
 10
3928.0
 20
-571.0
 30
0.0
 11
3928.0
 21
-634.0
 31
0.0
1001
ACDBBLOCKREPETAG
1070
     1
1071
        7
1005
145C0B
  0
LINE
  5
145C0C
  8
OBJECT
 10
4072.0
 20
-634.0
 30
0.0
 11
4072.0
 21
-571.0
 31
0.0
1001
ACDBBLOCKREPETAG
1070
     1
1071
        8
1005
145C0C
  0
LINE
  5
145C0D
  8
OBJECT
 10
3920.0
 20
-758.0
 30
0.0
 11
4080.0
 21
-758.0
 31
0.0
1001
ACDBBLOCKREPETAG
1070
     1
1071
        9
1005
145C0D
  0
LINE
  5
145C0E
  8
OBJECT
 10
4080.0
 20
-634.0
 30
0.0
 11
3925.0
 21
-634.0
 31
0.0
1001
ACDBBLOCKREPETAG
1070
     1
1071
       10
1005
145C0E
  0
LINE
  5
145C0F
  8
OBJECT
 10
3920.0
 20
-758.0
 30
0.0
 11
3920.0
 21
-770.0
 31
0.0
1001
ACDBBLOCKREPETAG
1070
     1
1071
       11
1005
145C0F
  0
LINE
  5
145C10
  8
OBJECT
 10
3920.0
 20
-770.0
 30
0.0
 11
4080.0
 21
-770.0
 31
0.0
1001
ACDBBLOCKREPETAG
1070
     1
1071
       12
1005
145C10
  0
LINE
  5
145C11
  8
OBJECT
 10
4080.0
 20
-770.0
 30
0.0
 11
4080.0
 21
-758.0
 31
0.0
1001
ACDBBLOCKREPETAG
1070
     1
1071
       13
1005
145C11
  0
ARC
  5
145C12
  8
OBJECT
 10
4200.6872746716726
 20
-749.40809941010752
 30
0.0
 40
170.6350503965856
 50
137.44134459184301
 51
149.91949581337221
1001
ACDBBLOCKREPETAG
1070
     1
1071
       15
1005
145C12
  0
ARC
  5
145C13
  8
OBJECT
 10
4118.8455987040506
 20
-705.88272669536479
 30
0.0
 40
78.072222021763665
 50
147.4551531037684
 51
164.6636599771798
1001
ACDBBLOCKREPETAG
1070
     1
1071
       16
1005
145C13
  0
ARC
  5
145C14
  8
OBJECT
 10
4085.7554349608722
 20
-696.0
 30
0.0
 40
43.55353926885617
 50
165.6884523008477
 51
194.3115476991523
1001
ACDBBLOCKREPETAG
1070
     1
1071
       17
1005
145C14
  0
ARC
  5
145C15
  8
OBJECT
 10
4200.6872746716726
 20
-642.59190058989225
 30
0.0
 40
170.6350503965856
 50
210.08050418662771
 51
222.55865540815699
1001
ACDBBLOCKREPETAG
1070
     1
1071
       18
1005
145C15
  0
ARC
  5
145C16
  8
OBJECT
 10
4118.8455987040506
 20
-686.11727330463521
 30
0.0
 40
78.072222021763665
 50
195.3363400228202
 51
212.5448468962316
1001
ACDBBLOCKREPETAG
1070
     1
1071
       19
1005
145C16
  0
POINT
  5
145C17
  8
DOTS
 10
4000.0
 20
-755.0
 30
0.0
1001
ACDBBLOCKREPETAG
1070
     1
1071
      186
1005
145C17
  0
LINE
  5
145C18
  8
OBJECT
 10
4024.102933093302
 20
-243.80694712372249
 30
0.0
 11
4020.6596569999951
 21
-232.5546220000044
 31
0.0
1001
ACDBBLOCKREPETAG
1070
     1
1071
      300
1005
145C18
  0
LINE
  5
145C19
  8
OBJECT
 10
3986.7927499013749
 20
-218.2255337420859
 30
0.0
 11
4020.6596569999951
 21
-232.55462200000261
 31
0.0
1001
ACDBBLOCKREPETAG
1070
     1
1071
      302
1005
145C19
  0
ARC
  5
145C1A
  8
OBJECT
 10
3982.896169761902
 20
-227.43512999906241
 30
0.0
 40
10.0
 50
67.066778292911366
 51
154.0147343702935
1001
ACDBBLOCKREPETAG
1070
     1
1071
      303
1005
145C1A
  0
ARC
  5
145C1B
  8
OBJECT
 10
3986.1488390381278
 20
-225.5538625672973
 30
0.0
 40
7.0
 50
67.066778292911366
 51
154.01473377497121
1001
ACDBBLOCKREPETAG
1070
     1
1071
      304
1005
145C1B
  0
LINE
  5
145C1C
  8
OBJECT
 10
3969.4199755553018
 20
-243.89888500818731
 30
0.0
 11
3979.8564918232369
 21
-222.48688253357361
 31
0.0
1001
ACDBBLOCKREPETAG
1070
     1
1071
      341
1005
145C1C
  0
LINE
  5
145C1D
  8
OBJECT
 10
3965.2972169006089
 20
-240.718139018833
 30
0.0
 11
3973.9071022665089
 21
-223.0537300443132
 31
0.0
1001
ACDBBLOCKREPETAG
1070
     1
1071
      342
1005
145C1D
  0
ARC
  5
145C1E
  8
OBJECT
 10
3976.579695307315
 20
-207.12893698284941
 30
0.0
 40
60.031113246032611
 50
314.07020130418567
 51
322.33936106091278
1001
ACDBBLOCKREPETAG
1070
     1
1071
      343
1005
145C1E
  0
CIRCLE
  5
145C1F
  8
OBJECT
 10
4000.0
 20
-200.0000000000048
 30
0.0
 40
53.5
1001
ACDBBLOCKREPETAG
1070
     1
1071
      344
1005
145C1F
  0
POINT
  5
145C20
  8
DOTS
 10
4000.0
 20
-200.0000000000048
 30
0.0
 50
270.0
1001
ACDBBLOCKREPETAG
1070
     1
1071
      362
1005
145C20
  0
ARC
  5
145C21
  8
OBJECT
 10
4000.0
 20
-200.0000000000048
 30
0.0
 40
50.0
 50
298.81994300000417
 51
228.52376955967449
1001
ACDBBLOCKREPETAG
1070
     1
1071
        7
1005
145C21
  0
LINE
  5
145C22
  8
CENTER
 10
4080.0
 20
-200.0000000000048
 30
0.0
 11
3905.0
 21
-200.0000000000048
 31
0.0
1001
ACDBBLOCKREPETAG
1070
     1
1071
       14
1005
145C22
  0
LINE
  5
145C23
  8
CENTER
 10
4000.0
 20
-295.00000000000489
 30
0.0
 11
4000.0
 21
-105.0000000000048
 31
0.0
1001
ACDBBLOCKREPETAG
1070
     1
1071
       15
1005
145C23
  0
CIRCLE
  5
145C24
  8
OBJECT
 10
4000.0
 20
-200.0000000000048
 30
0.0
 40
70.0
1001
ACDBBLOCKREPETAG
1070
     1
1071
       16
1005
145C24
  0
CIRCLE
  5
145C25
  8
OBJECT
 10
4000.0
 20
-200.0000000000048
 30
0.0
 40
77.0
1001
ACDBBLOCKREPETAG
1070
     1
1071
       17
1005
145C25
  0
ARC
  5
145C26
  8
OBJECT
 10
4000.0
 20
-200.0000000000048
 30
0.0
 40
80.0
 50
50.805032573864182
 51
309.1949674261358
1001
ACDBBLOCKREPETAG
1070
     1
1071
       18
1005
145C26
  0
LINE
  5
145C27
  8
OBJECT
 10
4045.661800227324
 20
-138.0000000000048
 30
0.0
 11
4080.0
 21
-138.0000000000048
 31
0.0
1001
ACDBBLOCKREPETAG
1070
     1
1071
       19
1005
145C27
  0
LINE
  5
145C28
  8
OBJECT
 10
4045.661800227324
 20
-262.00000000000477
 30
0.0
 11
4080.0
 21
-262.00000000000477
 31
0.0
1001
ACDBBLOCKREPETAG
1070
     1
1071
       20
1005
145C28
  0
LINE
  5
145C29
  8
CENTER
 10
2227.0
 20
-696.0
 30
0.0
 11
2071.0
 21
-696.0
 31
0.0
1001
ACDBBLOCKREPETAG
1070
     1
1071
      287
1005
145C29
  0
LINE
  5
145C2A
  8
OBJECT
 10
2150.0
 20
-743.0
 30
0.0
 11
2086.0000000000041
 21
-743.0
 31
0.0
1001
ACDBBLOCKREPETAG
1070
     1
1071
      288
1005
145C2A
  0
LINE
  5
145C2B
  8
OBJECT
 10
2083.0
 20
-634.0
 30
0.0
 11
2080.0
 21
-634.0
 31
0.0
1001
ACDBBLOCKREPETAG
1070
     1
1071
      289
1005
145C2B
  0
LINE
  5
145C2C
  8
OBJECT
 10
2150.0
 20
-649.0
 30
0.0
 11
2086.0000000000041
 21
-649.0
 31
0.0
1001
ACDBBLOCKREPETAG
1070
     1
1071
      290
1005
145C2C
  0
ARC
  5
145C2D
  8
OBJECT
 10
2083.0
 20
-637.0
 30
0.0
 40
3.0
 50
0.0
 51
90.0
1001
ACDBBLOCKREPETAG
1070
     1
1071
      291
1005
145C2D
  0
LINE
  5
145C2E
  8
OBJECT
 10
2080.0
 20
-758.0
 30
0.0
 11
2083.0
 21
-758.0
 31
0.0
1001
ACDBBLOCKREPETAG
1070
     1
1071
      292
1005
145C2E
  0
ARC
  5
145C2F
  8
OBJECT
 10
2083.0
 20
-755.0
 30
0.0
 40
3.0
 50
270.0
 51
0.0
1001
ACDBBLOCKREPETAG
1070
     1
1071
      293
1005
145C2F
  0
LINE
  5
145C30
  8
OBJECT
 10
2086.0
 20
-755.0
 30
0.0
 11
2086.0
 21
-637.0
 31
0.0
1001
ACDBBLOCKREPETAG
1070
     1
1071
      294
1005
145C30
  0
ARC
  5
145C31
  8
OBJECT
 10
2150.0
 20
-696.0
 30
0.0
 40
62.0
 50
229.293865732211
 51
252.10344887079279
1001
ACDBBLOCKREPETAG
1070
     1
1071
      296
1005
145C31
  0
ARC
  5
145C32
  8
OBJECT
 10
2150.0
 20
-696.0
 30
0.0
 40
62.0
 50
287.89655112920718
 51
130.70613426778891
1001
ACDBBLOCKREPETAG
1070
     1
1071
      297
1005
145C32
  0
LINE
  5
145C33
  8
OBJECT
 10
2130.947441116743
 20
-755.0
 30
0.0
 11
2169.052558883257
 21
-755.0
 31
0.0
1001
ACDBBLOCKREPETAG
1070
     1
1071
      298
1005
145C33
  0
LINE
  5
145C34
  8
CENTER
 10
2150.0
 20
-770.0
 30
0.0
 11
2150.0
 21
-619.0
 31
0.0
1001
ACDBBLOCKREPETAG
1070
     1
1071
      299
1005
145C34
  0
ARC
  5
145C35
  8
OBJECT
 10
2150.0
 20
-696.0
 30
0.0
 40
54.5
 50
239.58547089840889
 51
120.414529101591
1001
ACDBBLOCKREPETAG
1070
     1
1071
      300
1005
145C35
  0
ARC
  5
145C36
  8
OBJECT
 10
2150.0
 20
-696.0
 30
0.0
 40
47.0
 50
270.0
 51
90.0
1001
ACDBBLOCKREPETAG
1070
     1
1071
      301
1005
145C36
  0
ARC
  5
145C37
  8
OBJECT
 10
2150.0
 20
-696.0
 30
0.0
 40
59.0
 50
232.80760582087169
 51
127.1923941791283
1001
ACDBBLOCKREPETAG
1070
     1
1071
      302
1005
145C37
  0
LINE
  5
145C38
  8
OBJECT
 10
92.000000000611195
 20
-503.99999999999341
 30
0.0
 11
85.000000000611195
 21
-503.99999999999341
 31
0.0
1001
ACDBBLOCKREPETAG
1070
     1
1071
      295
1005
145C38
  0
LINE
  5
145C39
  8
OBJECT
 10
85.000000000611195
 20
-503.99999999999341
 30
0.0
 11
85.000000000611195
 21
-627.99999999999352
 31
0.0
1001
ACDBBLOCKREPETAG
1070
     1
1071
      296
1005
145C39
  0
LINE
  5
145C3A
  8
OBJECT
 10
85.000000000611195
 20
-627.99999999999352
 30
0.0
 11
92.000000000611195
 21
-627.99999999999352
 31
0.0
1001
ACDBBLOCKREPETAG
1070
     1
1071
      297
1005
145C3A
  0
LINE
  5
145C3B
  8
OBJECT
 10
92.000000000611195
 20
-627.99999999999352
 30
0.0
 11
92.000000000611195
 21
-503.99999999999341
 31
0.0
1001
ACDBBLOCKREPETAG
1070
     1
1071
      298
1005
145C3B
  0
LINE
  5
145C3C
  8
OBJECT
 10
148.00000000060751
 20
-623.49999999999352
 30
0.0
 11
148.00000000060751
 21
-629.99999999999341
 31
0.0
1001
ACDBBLOCKREPETAG
1070
     1
1071
      299
1005
145C3C
  0
LINE
  5
145C3D
  8
OBJECT
 10
242.00000000060751
 20
-617.99999999999329
 30
0.0
 11
242.00000000061121
 21
-629.9999999999925
 31
0.0
1001
ACDBBLOCKREPETAG
1070
     1
1071
      300
1005
145C3D
  0
LINE
  5
145C3E
  8
OBJECT
 10
92.000000000611195
 20
-506.99999999999341
 30
0.0
 11
128.00000000061121
 21
-506.99999999999341
 31
0.0
1001
ACDBBLOCKREPETAG
1070
     1
1071
      301
1005
145C3E
  0
LINE
  5
145C3F
  8
OBJECT
 10
128.00000000061121
 20
-506.99999999999341
 30
0.0
 11
128.00000000061121
 21
-624.99999999999352
 31
0.0
1001
ACDBBLOCKREPETAG
1070
     1
1071
      302
1005
145C3F
  0
LINE
  5
145C40
  8
OBJECT
 10
128.00000000061121
 20
-624.99999999999352
 30
0.0
 11
92.000000000611195
 21
-624.99999999999352
 31
0.0
1001
ACDBBLOCKREPETAG
1070
     1
1071
      303
1005
145C40
  0
LINE
  5
145C41
  8
OBJECT
 10
132.00000000061121
 20
-511.49999999999341
 30
0.0
 11
145.0000000006111
 21
-511.49999999999341
 31
0.0
1001
ACDBBLOCKREPETAG
1070
     1
1071
      304
1005
145C41
  0
LINE
  5
145C42
  8
OBJECT
 10
145.0000000006111
 20
-620.49999999999352
 30
0.0
 11
132.00000000061121
 21
-620.49999999999352
 31
0.0
1001
ACDBBLOCKREPETAG
1070
     1
1071
      305
1005
145C42
  0
LINE
  5
145C43
  8
OBJECT
 10
132.00000000061121
 20
-620.49999999999352
 30
0.0
 11
132.00000000061121
 21
-511.49999999999341
 31
0.0
1001
ACDBBLOCKREPETAG
1070
     1
1071
      306
1005
145C43
  0
LINE
  5
145C44
  8
OBJECT
 10
128.00000000061121
 20
-506.99999999999341
 30
0.0
 11
132.00000000061121
 21
-511.49999999999341
 31
0.0
1001
ACDBBLOCKREPETAG
1070
     1
1071
      307
1005
145C44
  0
LINE
  5
145C45
  8
OBJECT
 10
128.00000000061121
 20
-624.99999999999352
 30
0.0
 11
132.00000000061121
 21
-620.49999999999352
 31
0.0
1001
ACDBBLOCKREPETAG
1070
     1
1071
      308
1005
145C45
  0
LINE
  5
145C46
  8
OBJECT
 10
257.00000000061118
 20
-632.9999999999925
 30
0.0
 11
257.00000000061118
 21
-635.99999999999352
 31
0.0
1001
ACDBBLOCKREPETAG
1070
     1
1071
      309
1005
145C46
  0
ARC
  5
145C47
  8
OBJECT
 10
254.00000000061121
 20
-632.9999999999925
 30
0.0
 40
3.0
 50
0.0
 51
90.0
1001
ACDBBLOCKREPETAG
1070
     1
1071
      310
1005
145C47
  0
LINE
  5
145C48
  8
OBJECT
 10
133.00000000061121
 20
-635.99999999999352
 30
0.0
 11
133.00000000061121
 21
-620.49999999999352
 31
0.0
1001
ACDBBLOCKREPETAG
1070
     1
1071
      311
1005
145C48
  0
ARC
  5
145C49
  8
OBJECT
 10
136.00000000061121
 20
-632.99999999999432
 30
0.0
 40
3.0
 50
90.0
 51
180.0
1001
ACDBBLOCKREPETAG
1070
     1
1071
      312
1005
145C49
  0
LINE
  5
145C4A
  8
OBJECT
 10
136.00000000061121
 20
-629.9999999999942
 30
0.0
 11
254.00000000061121
 21
-629.9999999999925
 31
0.0
1001
ACDBBLOCKREPETAG
1070
     1
1071
      313
1005
145C4A
  0
LINE
  5
145C4B
  8
OBJECT
 10
145.00004086447731
 20
-620.49997876254633
 30
0.0
 11
145.00004086447731
 21
-511.49997876254628
 31
0.0
1001
ACDBBLOCKREPETAG
1070
     1
1071
      315
1005
145C4B
  0
ARC
  5
145C4C
  8
OBJECT
 10
145.00000000060751
 20
-623.49999999999352
 30
0.0
 40
3.0
 50
0.0
 51
90.0
1001
ACDBBLOCKREPETAG
1070
     1
1071
      316
1005
145C4C
  0
ARC
  5
145C4D
  8
OBJECT
 10
143.00000000060751
 20
-617.99999999999329
 30
0.0
 40
99.0
 50
0.0
 51
88.842407102809943
1001
ACDBBLOCKREPETAG
1070
     1
1071
      317
1005
145C4D
  0
INSERT
  5
145C4E
  8
OBJECT
  2
*U292
 10
0.0
 20
0.0
 30
0.0
  0
LINE
  5
145C4F
  8
HIDDEN
 10
137.00000000061121
 20
-610.49999999999318
 30
0.0
 11
137.00000000061121
 21
-521.49999999999341
 31
0.0
1001
ACDBBLOCKREPETAG
1070
     1
1071
      428
1005
145C4F
  0
ARC
  5
145C50
  8
OBJECT
 10
195.00000000061121
 20
-715.99999999999341
 30
0.0
 40
50.0
 50
28.819943000140022
 51
318.52376955951968
1001
ACDBBLOCKREPETAG
1070
     1
1071
       49
1005
145C50
  0
CIRCLE
  5
145C51
  8
OBJECT
 10
195.00000000061121
 20
-715.99999999999341
 30
0.0
 40
70.0
1001
ACDBBLOCKREPETAG
1070
     1
1071
       50
1005
145C51
  0
CIRCLE
  5
145C52
  8
OBJECT
 10
195.00000000061121
 20
-715.99999999999341
 30
0.0
 40
77.0
1001
ACDBBLOCKREPETAG
1070
     1
1071
       51
1005
145C52
  0
ARC
  5
145C53
  8
OBJECT
 10
195.00000000061121
 20
-715.99999999999341
 30
0.0
 40
80.0
 50
140.80503257377961
 51
39.194967426220252
1001
ACDBBLOCKREPETAG
1070
     1
1071
       52
1005
145C53
  0
LINE
  5
145C54
  8
OBJECT
 10
133.00000000061121
 20
-670.33819977266887
 30
0.0
 11
133.00000000061121
 21
-635.99999999999352
 31
0.0
1001
ACDBBLOCKREPETAG
1070
     1
1071
       53
1005
145C54
  0
LINE
  5
145C55
  8
OBJECT
 10
257.00000000061118
 20
-670.33819977266887
 30
0.0
 11
257.00000000061118
 21
-635.99999999999352
 31
0.0
1001
ACDBBLOCKREPETAG
1070
     1
1071
       54
1005
145C55
  0
LINE
  5
145C56
  8
OBJECT
 10
238.8069471243289
 20
-691.89706690669186
 30
0.0
 11
227.55462200061081
 21
-695.34034299999666
 31
0.0
1001
ACDBBLOCKREPETAG
1070
     1
1071
      141
1005
145C56
  0
LINE
  5
145C57
  8
OBJECT
 10
213.22553374269231
 20
-729.20725009861849
 30
0.0
 11
227.55462200060899
 21
-695.34034299999666
 31
0.0
1001
ACDBBLOCKREPETAG
1070
     1
1071
      143
1005
145C57
  0
ARC
  5
145C58
  8
OBJECT
 10
222.43512999966879
 20
-733.10383023809163
 30
0.0
 40
10.0
 50
157.06677829289541
 51
244.01473437020459
1001
ACDBBLOCKREPETAG
1070
     1
1071
      144
1005
145C58
  0
ARC
  5
145C59
  8
OBJECT
 10
220.55386256790371
 20
-729.85116096186584
 30
0.0
 40
7.0
 50
157.06677829289541
 51
244.01473377507321
1001
ACDBBLOCKREPETAG
1070
     1
1071
      145
1005
145C59
  0
LINE
  5
145C5A
  8
OBJECT
 10
238.89888500879391
 20
-746.58002444469184
 30
0.0
 11
217.48688253418001
 21
-736.14350817675643
 31
0.0
1001
ACDBBLOCKREPETAG
1070
     1
1071
      154
1005
145C5A
  0
LINE
  5
145C5B
  8
OBJECT
 10
235.71813901943941
 20
-750.70278309938431
 30
0.0
 11
218.0537300449196
 21
-742.09289773348485
 31
0.0
1001
ACDBBLOCKREPETAG
1070
     1
1071
      155
1005
145C5B
  0
ARC
  5
145C5C
  8
OBJECT
 10
202.1289369834557
 20
-739.42030469267843
 30
0.0
 40
60.031113246032611
 50
44.070201304185751
 51
52.339361060977858
1001
ACDBBLOCKREPETAG
1070
     1
1071
      156
1005
145C5C
  0
CIRCLE
  5
145C5D
  8
OBJECT
 10
195.00000000061121
 20
-715.99999999999341
 30
0.0
 40
53.5
1001
ACDBBLOCKREPETAG
1070
     1
1071
      157
1005
145C5D
  0
POINT
  5
145C5E
  8
DOTS
 10
195.00000000061121
 20
-715.99999999999341
 30
0.0
1001
ACDBBLOCKREPETAG
1070
     1
1071
      162
1005
145C5E
  0
LINE
  5
145C5F
  8
OBJECT
 10
462.0000000006911
 20
-56.99999999998704
 30
0.0
 11
455.00000000069122
 21
-56.99999999998704
 31
0.0
1001
ACDBBLOCKREPETAG
1070
     1
1071
      272
1005
145C5F
  0
LINE
  5
145C60
  8
OBJECT
 10
455.00000000069122
 20
-56.99999999998704
 30
0.0
 11
455.00000000069122
 21
-166.99999999998701
 31
0.0
1001
ACDBBLOCKREPETAG
1070
     1
1071
      273
1005
145C60
  0
LINE
  5
145C61
  8
OBJECT
 10
455.00000000069122
 20
-166.99999999998701
 30
0.0
 11
462.0000000006911
 21
-166.99999999998701
 31
0.0
1001
ACDBBLOCKREPETAG
1070
     1
1071
      274
1005
145C61
  0
LINE
  5
145C62
  8
OBJECT
 10
462.0000000006911
 20
-166.99999999998701
 30
0.0
 11
462.0000000006911
 21
-56.99999999998704
 31
0.0
1001
ACDBBLOCKREPETAG
1070
     1
1071
      275
1005
145C62
  0
LINE
  5
145C63
  8
OBJECT
 10
514.00000000069485
 20
-159.49999999998701
 30
0.0
 11
514.00000000068746
 21
-165.99999999998781
 31
0.0
1001
ACDBBLOCKREPETAG
1070
     1
1071
      276
1005
145C63
  0
LINE
  5
145C64
  8
OBJECT
 10
596.00000000069122
 20
-156.99999999998701
 30
0.0
 11
596.00000000069122
 21
-165.99999999998701
 31
0.0
1001
ACDBBLOCKREPETAG
1070
     1
1071
      277
1005
145C64
  0
LINE
  5
145C65
  8
OBJECT
 10
462.0000000006911
 20
-59.99999999998704
 30
0.0
 11
498.00000000069122
 21
-59.99999999998704
 31
0.0
1001
ACDBBLOCKREPETAG
1070
     1
1071
      278
1005
145C65
  0
LINE
  5
145C66
  8
OBJECT
 10
498.00000000069122
 20
-59.99999999998704
 30
0.0
 11
498.00000000069122
 21
-163.99999999998701
 31
0.0
1001
ACDBBLOCKREPETAG
1070
     1
1071
      279
1005
145C66
  0
LINE
  5
145C67
  8
OBJECT
 10
498.00000000069122
 20
-163.99999999998701
 30
0.0
 11
462.0000000006911
 21
-163.99999999998701
 31
0.0
1001
ACDBBLOCKREPETAG
1070
     1
1071
      280
1005
145C67
  0
LINE
  5
145C68
  8
OBJECT
 10
502.00000000069122
 20
-64.49999999998704
 30
0.0
 11
515.00000000069122
 21
-64.49999999998704
 31
0.0
1001
ACDBBLOCKREPETAG
1070
     1
1071
      281
1005
145C68
  0
LINE
  5
145C69
  8
OBJECT
 10
515.00000000069122
 20
-159.49999999998701
 30
0.0
 11
502.00000000069122
 21
-159.49999999998701
 31
0.0
1001
ACDBBLOCKREPETAG
1070
     1
1071
      282
1005
145C69
  0
LINE
  5
145C6A
  8
OBJECT
 10
502.00000000069122
 20
-159.49999999998701
 30
0.0
 11
502.00000000069122
 21
-64.49999999998704
 31
0.0
1001
ACDBBLOCKREPETAG
1070
     1
1071
      283
1005
145C6A
  0
LINE
  5
145C6B
  8
OBJECT
 10
498.00000000069122
 20
-59.99999999998704
 30
0.0
 11
502.00000000069122
 21
-64.49999999998704
 31
0.0
1001
ACDBBLOCKREPETAG
1070
     1
1071
      284
1005
145C6B
  0
LINE
  5
145C6C
  8
OBJECT
 10
498.00000000069122
 20
-163.99999999998701
 30
0.0
 11
502.00000000069122
 21
-159.49999999998701
 31
0.0
1001
ACDBBLOCKREPETAG
1070
     1
1071
      285
1005
145C6C
  0
LINE
  5
145C6D
  8
OBJECT
 10
617.00000000069122
 20
-168.9999999999861
 30
0.0
 11
617.00000000069122
 21
-171.99999999998701
 31
0.0
1001
ACDBBLOCKREPETAG
1070
     1
1071
      286
1005
145C6D
  0
ARC
  5
145C6E
  8
OBJECT
 10
614.00000000069122
 20
-168.9999999999861
 30
0.0
 40
3.0
 50
0.0
 51
90.0
1001
ACDBBLOCKREPETAG
1070
     1
1071
      287
1005
145C6E
  0
LINE
  5
145C6F
  8
OBJECT
 10
493.00000000069122
 20
-171.99999999998701
 30
0.0
 11
493.00000000069122
 21
-163.99999999998701
 31
0.0
1001
ACDBBLOCKREPETAG
1070
     1
1071
      288
1005
145C6F
  0
ARC
  5
145C70
  8
OBJECT
 10
496.00000000069122
 20
-168.99999999998781
 30
0.0
 40
3.0
 50
90.0
 51
180.0
1001
ACDBBLOCKREPETAG
1070
     1
1071
      289
1005
145C70
  0
LINE
  5
145C71
  8
OBJECT
 10
496.00000000069122
 20
-165.99999999998781
 30
0.0
 11
614.00000000069122
 21
-165.9999999999861
 31
0.0
1001
ACDBBLOCKREPETAG
1070
     1
1071
      290
1005
145C71
  0
LINE
  5
145C72
  8
OBJECT
 10
515.00000439509313
 20
-159.50004540697199
 30
0.0
 11
515.00000439509313
 21
-64.500045406972049
 31
0.0
1001
ACDBBLOCKREPETAG
1070
     1
1071
      292
1005
145C72
  0
ARC
  5
145C73
  8
OBJECT
 10
510.00000000069122
 20
-156.99999999998701
 30
0.0
 40
86.0
 50
0.0
 51
86.666967573448673
1001
ACDBBLOCKREPETAG
1070
     1
1071
      293
1005
145C73
  0
INSERT
  5
145C74
  8
OBJECT
  2
*U293
 10
0.0
 20
0.0
 30
0.0
  0
LINE
  5
145C75
  8
HIDDEN
 10
507.00000000069122
 20
-149.99999999998701
 30
0.0
 11
507.00000000069122
 21
-73.999999999987054
 31
0.0
1001
ACDBBLOCKREPETAG
1070
     1
1071
      425
1005
145C75
  0
ARC
  5
145C76
  8
OBJECT
 10
555.00000000069122
 20
-251.99999999998701
 30
0.0
 40
50.0
 50
28.819943000140022
 51
318.52376955951871
1001
ACDBBLOCKREPETAG
1070
     1
1071
       49
1005
145C76
  0
CIRCLE
  5
145C77
  8
OBJECT
 10
555.00000000069122
 20
-251.99999999998701
 30
0.0
 40
70.0
1001
ACDBBLOCKREPETAG
1070
     1
1071
       50
1005
145C77
  0
CIRCLE
  5
145C78
  8
OBJECT
 10
555.00000000069122
 20
-251.99999999998701
 30
0.0
 40
77.0
1001
ACDBBLOCKREPETAG
1070
     1
1071
       51
1005
145C78
  0
ARC
  5
145C79
  8
OBJECT
 10
555.00000000069122
 20
-251.99999999998701
 30
0.0
 40
80.0
 50
140.8050325737787
 51
39.194967426221282
1001
ACDBBLOCKREPETAG
1070
     1
1071
       52
1005
145C79
  0
LINE
  5
145C7A
  8
OBJECT
 10
493.00000000069122
 20
-206.33819977266251
 30
0.0
 11
493.00000000069122
 21
-171.99999999998701
 31
0.0
1001
ACDBBLOCKREPETAG
1070
     1
1071
       53
1005
145C7A
  0
LINE
  5
145C7B
  8
OBJECT
 10
617.00000000069122
 20
-206.33819977266251
 30
0.0
 11
617.00000000069122
 21
-171.99999999998701
 31
0.0
1001
ACDBBLOCKREPETAG
1070
     1
1071
       54
1005
145C7B
  0
LINE
  5
145C7C
  8
OBJECT
 10
598.80694712440891
 20
-227.8970669066855
 30
0.0
 11
587.55462200069076
 21
-231.3403429999905
 31
0.0
1001
ACDBBLOCKREPETAG
1070
     1
1071
      141
1005
145C7C
  0
LINE
  5
145C7D
  8
OBJECT
 10
573.22553374277231
 20
-265.20725009861212
 30
0.0
 11
587.55462200068905
 21
-231.3403429999905
 31
0.0
1001
ACDBBLOCKREPETAG
1070
     1
1071
      143
1005
145C7D
  0
ARC
  5
145C7E
  8
OBJECT
 10
582.43512999974871
 20
-269.10383023808549
 30
0.0
 40
10.0
 50
157.066778292897
 51
244.01473437020459
1001
ACDBBLOCKREPETAG
1070
     1
1071
      144
1005
145C7E
  0
ARC
  5
145C7F
  8
OBJECT
 10
580.55386256798363
 20
-265.8511609618597
 30
0.0
 40
7.0
 50
157.066778292897
 51
244.01473377507759
1001
ACDBBLOCKREPETAG
1070
     1
1071
      145
1005
145C7F
  0
LINE
  5
145C80
  8
OBJECT
 10
598.89888500887378
 20
-282.58002444468548
 30
0.0
 11
577.48688253426008
 21
-272.14350817675012
 31
0.0
1001
ACDBBLOCKREPETAG
1070
     1
1071
      154
1005
145C80
  0
LINE
  5
145C81
  8
OBJECT
 10
595.71813901951919
 20
-286.70278309937811
 30
0.0
 11
578.05373004499961
 21
-278.09289773347848
 31
0.0
1001
ACDBBLOCKREPETAG
1070
     1
1071
      155
1005
145C81
  0
ARC
  5
145C82
  8
OBJECT
 10
562.12893698353582
 20
-275.42030469267212
 30
0.0
 40
60.031113246032611
 50
44.07020130418465
 51
52.339361060977581
1001
ACDBBLOCKREPETAG
1070
     1
1071
      156
1005
145C82
  0
CIRCLE
  5
145C83
  8
OBJECT
 10
555.00000000069122
 20
-251.99999999998701
 30
0.0
 40
53.5
1001
ACDBBLOCKREPETAG
1070
     1
1071
      157
1005
145C83
  0
POINT
  5
145C84
  8
DOTS
 10
555.00000000069122
 20
-251.99999999998701
 30
0.0
1001
ACDBBLOCKREPETAG
1070
     1
1071
      162
1005
145C84
  0
LINE
  5
145C85
  8
OBJECT
 10
102.00000000061119
 20
-64.99999999998704
 30
0.0
 11
95.000000000611195
 21
-64.99999999998704
 31
0.0
1001
ACDBBLOCKREPETAG
1070
     1
1071
      244
1005
145C85
  0
LINE
  5
145C86
  8
OBJECT
 10
95.000000000611195
 20
-64.99999999998704
 30
0.0
 11
95.000000000611195
 21
-158.99999999998701
 31
0.0
1001
ACDBBLOCKREPETAG
1070
     1
1071
      245
1005
145C86
  0
LINE
  5
145C87
  8
OBJECT
 10
95.000000000611195
 20
-158.99999999998701
 30
0.0
 11
102.00000000061119
 21
-158.99999999998701
 31
0.0
1001
ACDBBLOCKREPETAG
1070
     1
1071
      246
1005
145C87
  0
LINE
  5
145C88
  8
OBJECT
 10
102.00000000061119
 20
-158.99999999998701
 30
0.0
 11
102.00000000061119
 21
-64.99999999998704
 31
0.0
1001
ACDBBLOCKREPETAG
1070
     1
1071
      247
1005
145C88
  0
LINE
  5
145C89
  8
OBJECT
 10
102.00000000061119
 20
-67.999999999987025
 30
0.0
 11
138.00000000061121
 21
-67.999999999987025
 31
0.0
1001
ACDBBLOCKREPETAG
1070
     1
1071
      248
1005
145C89
  0
LINE
  5
145C8A
  8
OBJECT
 10
138.00000000061121
 20
-67.999999999987025
 30
0.0
 11
138.00000000061121
 21
-155.99999999998701
 31
0.0
1001
ACDBBLOCKREPETAG
1070
     1
1071
      249
1005
145C8A
  0
LINE
  5
145C8B
  8
OBJECT
 10
138.00000000061121
 20
-155.99999999998701
 30
0.0
 11
102.00000000061119
 21
-155.99999999998701
 31
0.0
1001
ACDBBLOCKREPETAG
1070
     1
1071
      250
1005
145C8B
  0
LINE
  5
145C8C
  8
OBJECT
 10
142.00000000061121
 20
-72.499999999987054
 30
0.0
 11
155.00000000061121
 21
-72.499999999987054
 31
0.0
1001
ACDBBLOCKREPETAG
1070
     1
1071
      251
1005
145C8C
  0
LINE
  5
145C8D
  8
OBJECT
 10
155.00000000061121
 20
-151.49999999998701
 30
0.0
 11
142.00000000061121
 21
-151.49999999998701
 31
0.0
1001
ACDBBLOCKREPETAG
1070
     1
1071
      252
1005
145C8D
  0
LINE
  5
145C8E
  8
OBJECT
 10
142.00000000061121
 20
-151.49999999998701
 30
0.0
 11
142.00000000061121
 21
-72.499999999987054
 31
0.0
1001
ACDBBLOCKREPETAG
1070
     1
1071
      253
1005
145C8E
  0
LINE
  5
145C8F
  8
OBJECT
 10
138.00000000061121
 20
-67.999999999987025
 30
0.0
 11
142.00000000061121
 21
-72.499999999987054
 31
0.0
1001
ACDBBLOCKREPETAG
1070
     1
1071
      254
1005
145C8F
  0
LINE
  5
145C90
  8
OBJECT
 10
138.00000000061121
 20
-155.99999999998701
 30
0.0
 11
142.00000000061121
 21
-151.49999999998701
 31
0.0
1001
ACDBBLOCKREPETAG
1070
     1
1071
      255
1005
145C90
  0
LINE
  5
145C91
  8
OBJECT
 10
133.00000000061121
 20
-168.99999999998701
 30
0.0
 11
133.00000000061121
 21
-171.99999999998701
 31
0.0
1001
ACDBBLOCKREPETAG
1070
     1
1071
      257
1005
145C91
  0
ARC
  5
145C92
  8
OBJECT
 10
136.00000000061121
 20
-168.99999999998701
 30
0.0
 40
3.0
 50
90.0
 51
180.0
1001
ACDBBLOCKREPETAG
1070
     1
1071
      258
1005
145C92
  0
LINE
  5
145C93
  8
OBJECT
 10
257.00000000061118
 20
-171.99999999998701
 30
0.0
 11
257.00000000061118
 21
-168.99999999998701
 31
0.0
1001
ACDBBLOCKREPETAG
1070
     1
1071
      259
1005
145C93
  0
ARC
  5
145C94
  8
OBJECT
 10
254.00000000061121
 20
-168.99999999998701
 30
0.0
 40
3.0
 50
0.0
 51
90.0
1001
ACDBBLOCKREPETAG
1070
     1
1071
      260
1005
145C94
  0
LINE
  5
145C95
  8
OBJECT
 10
254.00000000061121
 20
-165.99999999998701
 30
0.0
 11
136.00000000061121
 21
-165.99999999998701
 31
0.0
1001
ACDBBLOCKREPETAG
1070
     1
1071
      261
1005
145C95
  0
LINE
  5
145C96
  8
OBJECT
 10
154.99992447922699
 20
-151.5000036267281
 30
0.0
 11
154.99992447922699
 21
-72.50000362672813
 31
0.0
1001
ACDBBLOCKREPETAG
1070
     1
1071
      263
1005
145C96
  0
LINE
  5
145C97
  8
OBJECT
 10
136.00000000061121
 20
-155.99999999998701
 30
0.0
 11
136.00000000060751
 21
-165.99999999998701
 31
0.0
1001
ACDBBLOCKREPETAG
1070
     1
1071
      264
1005
145C97
  0
LINE
  5
145C98
  8
OBJECT
 10
161.50000000060751
 20
-150.4999999999865
 30
0.0
 11
161.5000000006111
 21
-165.99999999998701
 31
0.0
1001
ACDBBLOCKREPETAG
1070
     1
1071
      265
1005
145C98
  0
LINE
  5
145C99
  8
OBJECT
 10
228.50000000060751
 20
-147.99999999998661
 30
0.0
 11
228.50000000060751
 21
-165.99999999998701
 31
0.0
1001
ACDBBLOCKREPETAG
1070
     1
1071
      266
1005
145C99
  0
LINE
  5
145C9A
  8
OBJECT
 10
154.99992447922699
 20
-145.49999999998701
 30
0.0
 11
156.50000000060751
 21
-145.49999999998661
 31
0.0
1001
ACDBBLOCKREPETAG
1070
     1
1071
      267
1005
145C9A
  0
ARC
  5
145C9B
  8
OBJECT
 10
156.50000000060751
 20
-150.4999999999865
 30
0.0
 40
5.0
 50
0.0
 51
90.0
1001
ACDBBLOCKREPETAG
1070
     1
1071
      268
1005
145C9B
  0
LINE
  5
145C9C
  8
OBJECT
 10
154.99992447922699
 20
-78.499999999987054
 30
0.0
 11
159.00000000060751
 21
-78.499999999986585
 31
0.0
1001
ACDBBLOCKREPETAG
1070
     1
1071
      269
1005
145C9C
  0
ARC
  5
145C9D
  8
OBJECT
 10
159.00000000060751
 20
-147.99999999998661
 30
0.0
 40
69.5
 50
0.0
 51
90.0
1001
ACDBBLOCKREPETAG
1070
     1
1071
      270
1005
145C9D
  0
INSERT
  5
145C9E
  8
OBJECT
  2
*U294
 10
0.0
 20
0.0
 30
0.0
  0
LINE
  5
145C9F
  8
HIDDEN
 10
147.00000000061121
 20
-141.99999999998701
 30
0.0
 11
147.00000000061121
 21
-81.999999999987054
 31
0.0
1001
ACDBBLOCKREPETAG
1070
     1
1071
      422
1005
145C9F
  0
ARC
  5
145CA0
  8
OBJECT
 10
195.00000000061121
 20
-251.99999999998701
 30
0.0
 40
50.0
 50
28.819943000140022
 51
318.52376955951968
1001
ACDBBLOCKREPETAG
1070
     1
1071
       49
1005
145CA0
  0
CIRCLE
  5
145CA1
  8
OBJECT
 10
195.00000000061121
 20
-251.99999999998701
 30
0.0
 40
70.0
1001
ACDBBLOCKREPETAG
1070
     1
1071
       50
1005
145CA1
  0
CIRCLE
  5
145CA2
  8
OBJECT
 10
195.00000000061121
 20
-251.99999999998701
 30
0.0
 40
77.0
1001
ACDBBLOCKREPETAG
1070
     1
1071
       51
1005
145CA2
  0
ARC
  5
145CA3
  8
OBJECT
 10
195.00000000061121
 20
-251.99999999998701
 30
0.0
 40
80.0
 50
140.80503257377961
 51
39.194967426220252
1001
ACDBBLOCKREPETAG
1070
     1
1071
       52
1005
145CA3
  0
LINE
  5
145CA4
  8
OBJECT
 10
133.00000000061121
 20
-206.33819977266251
 30
0.0
 11
133.00000000061121
 21
-171.99999999998701
 31
0.0
1001
ACDBBLOCKREPETAG
1070
     1
1071
       53
1005
145CA4
  0
LINE
  5
145CA5
  8
OBJECT
 10
257.00000000061118
 20
-206.33819977266251
 30
0.0
 11
257.00000000061118
 21
-171.99999999998701
 31
0.0
1001
ACDBBLOCKREPETAG
1070
     1
1071
       54
1005
145CA5
  0
LINE
  5
145CA6
  8
OBJECT
 10
238.8069471243289
 20
-227.8970669066855
 30
0.0
 11
227.55462200061081
 21
-231.3403429999905
 31
0.0
1001
ACDBBLOCKREPETAG
1070
     1
1071
      141
1005
145CA6
  0
LINE
  5
145CA7
  8
OBJECT
 10
213.22553374269231
 20
-265.20725009861212
 30
0.0
 11
227.55462200060899
 21
-231.3403429999905
 31
0.0
1001
ACDBBLOCKREPETAG
1070
     1
1071
      143
1005
145CA7
  0
ARC
  5
145CA8
  8
OBJECT
 10
222.43512999966879
 20
-269.10383023808549
 30
0.0
 40
10.0
 50
157.066778292897
 51
244.01473437020459
1001
ACDBBLOCKREPETAG
1070
     1
1071
      144
1005
145CA8
  0
ARC
  5
145CA9
  8
OBJECT
 10
220.55386256790371
 20
-265.8511609618597
 30
0.0
 40
7.0
 50
157.066778292897
 51
244.0147337750746
1001
ACDBBLOCKREPETAG
1070
     1
1071
      145
1005
145CA9
  0
LINE
  5
145CAA
  8
OBJECT
 10
238.89888500879391
 20
-282.58002444468548
 30
0.0
 11
217.48688253418001
 21
-272.14350817675012
 31
0.0
1001
ACDBBLOCKREPETAG
1070
     1
1071
      154
1005
145CAA
  0
LINE
  5
145CAB
  8
OBJECT
 10
235.71813901943941
 20
-286.70278309937811
 30
0.0
 11
218.0537300449196
 21
-278.09289773347848
 31
0.0
1001
ACDBBLOCKREPETAG
1070
     1
1071
      155
1005
145CAB
  0
ARC
  5
145CAC
  8
OBJECT
 10
202.1289369834557
 20
-275.42030469267212
 30
0.0
 40
60.031113246032611
 50
44.070201304186917
 51
52.339361060978852
1001
ACDBBLOCKREPETAG
1070
     1
1071
      156
1005
145CAC
  0
CIRCLE
  5
145CAD
  8
OBJECT
 10
195.00000000061121
 20
-251.99999999998701
 30
0.0
 40
53.5
1001
ACDBBLOCKREPETAG
1070
     1
1071
      157
1005
145CAD
  0
POINT
  5
145CAE
  8
DOTS
 10
195.00000000061121
 20
-251.99999999998701
 30
0.0
1001
ACDBBLOCKREPETAG
1070
     1
1071
      162
1005
145CAE
  0
POLYLINE
  5
145CAF
  8
HIDDEN
 66
     1
 10
0.0
 20
0.0
 30
0.0
 70
     1
1001
ACDBBLOCKREPETAG
1070
     1
1071
      105
1005
0
  0
VERTEX
  5
146A28
  8
HIDDEN
 10
359.99999999987818
 20
0.0
 30
0.0
  0
VERTEX
  5
146A29
  8
HIDDEN
 10
719.99999999975626
 20
0.0
 30
0.0
  0
VERTEX
  5
146A2A
  8
HIDDEN
 10
719.99999999975626
 20
-463.99999999984158
 30
0.0
  0
VERTEX
  5
146A2B
  8
HIDDEN
 10
359.99999999987818
 20
-463.99999999984158
 30
0.0
  0
SEQEND
  5
146A2C
  8
HIDDEN
  0
POLYLINE
  5
145CB0
  8
HIDDEN
 66
     1
 10
0.0
 20
0.0
 30
0.0
 70
     1
1001
ACDBBLOCKREPETAG
1070
     1
1071
      110
1005
0
  0
VERTEX
  5
146A2D
  8
HIDDEN
 10
0.0
 20
0.0
 30
0.0
  0
VERTEX
  5
146A2E
  8
HIDDEN
 10
359.99999999987818
 20
0.0
 30
0.0
  0
VERTEX
  5
146A2F
  8
HIDDEN
 10
359.99999999987818
 20
-463.99999999984158
 30
0.0
  0
VERTEX
  5
146A30
  8
HIDDEN
 10
0.0
 20
-463.99999999984158
 30
0.0
  0
SEQEND
  5
146A31
  8
HIDDEN
  0
POLYLINE
  5
145CB1
  8
HIDDEN
 66
     1
 10
0.0
 20
0.0
 30
0.0
 70
     1
1001
ACDBBLOCKREPETAG
1070
     1
1071
      125
1005
0
  0
VERTEX
  5
146A32
  8
HIDDEN
 10
0.0
 20
-463.99999999984158
 30
0.0
  0
VERTEX
  5
146A33
  8
HIDDEN
 10
359.99999999987818
 20
-463.99999999984158
 30
0.0
  0
VERTEX
  5
146A34
  8
HIDDEN
 10
359.99999999987818
 20
-927.99999999968372
 30
0.0
  0
VERTEX
  5
146A35
  8
HIDDEN
 10
0.0
 20
-927.99999999968372
 30
0.0
  0
SEQEND
  5
146A36
  8
HIDDEN
  0
LINE
  5
145CB2
  8
OBJECT
 10
2212.0
 20
-97.000000000004775
 30
0.0
 11
2212.0
 21
-90.000000000004775
 31
0.0
1001
ACDBBLOCKREPETAG
1070
     1
1071
      325
1005
145CB2
  0
LINE
  5
145CB3
  8
OBJECT
 10
2212.0
 20
-90.000000000004775
 30
0.0
 11
2088.0
 21
-90.000000000004775
 31
0.0
1001
ACDBBLOCKREPETAG
1070
     1
1071
      326
1005
145CB3
  0
LINE
  5
145CB4
  8
OBJECT
 10
2088.0
 20
-90.000000000004775
 30
0.0
 11
2088.0
 21
-97.000000000004775
 31
0.0
1001
ACDBBLOCKREPETAG
1070
     1
1071
      327
1005
145CB4
  0
LINE
  5
145CB5
  8
OBJECT
 10
2088.0
 20
-97.000000000004775
 30
0.0
 11
2212.0
 21
-97.000000000004775
 31
0.0
1001
ACDBBLOCKREPETAG
1070
     1
1071
      328
1005
145CB5
  0
LINE
  5
145CB6
  8
CENTER
 10
2197.2436941260312
 20
-200.00000000000111
 30
0.0
 11
2080.0
 21
-200.0000000000048
 31
0.0
1001
ACDBBLOCKREPETAG
1070
     1
1071
      329
1005
145CB6
  0
LINE
  5
145CB7
  8
OBJECT
 10
2092.5
 20
-153.00000000000111
 30
0.0
 11
2086.0
 21
-153.00000000000111
 31
0.0
1001
ACDBBLOCKREPETAG
1070
     1
1071
      330
1005
145CB7
  0
LINE
  5
145CB8
  8
OBJECT
 10
2098.0
 20
-247.00000000000111
 30
0.0
 11
2086.0
 21
-247.0000000000048
 31
0.0
1001
ACDBBLOCKREPETAG
1070
     1
1071
      331
1005
145CB8
  0
LINE
  5
145CB9
  8
OBJECT
 10
2209.0
 20
-97.000000000004775
 30
0.0
 11
2209.0
 21
-133.0000000000048
 31
0.0
1001
ACDBBLOCKREPETAG
1070
     1
1071
      332
1005
145CB9
  0
LINE
  5
145CBA
  8
OBJECT
 10
2209.0
 20
-133.0000000000048
 30
0.0
 11
2091.0
 21
-133.0000000000048
 31
0.0
1001
ACDBBLOCKREPETAG
1070
     1
1071
      333
1005
145CBA
  0
LINE
  5
145CBB
  8
OBJECT
 10
2091.0
 20
-133.0000000000048
 30
0.0
 11
2091.0
 21
-97.000000000004775
 31
0.0
1001
ACDBBLOCKREPETAG
1070
     1
1071
      334
1005
145CBB
  0
LINE
  5
145CBC
  8
OBJECT
 10
2204.5
 20
-137.0000000000048
 30
0.0
 11
2204.5
 21
-150.00000000000469
 31
0.0
1001
ACDBBLOCKREPETAG
1070
     1
1071
      335
1005
145CBC
  0
LINE
  5
145CBD
  8
OBJECT
 10
2095.5
 20
-150.00000000000469
 30
0.0
 11
2095.5
 21
-137.0000000000048
 31
0.0
1001
ACDBBLOCKREPETAG
1070
     1
1071
      336
1005
145CBD
  0
LINE
  5
145CBE
  8
OBJECT
 10
2095.5
 20
-137.0000000000048
 30
0.0
 11
2204.5
 21
-137.0000000000048
 31
0.0
1001
ACDBBLOCKREPETAG
1070
     1
1071
      337
1005
145CBE
  0
LINE
  5
145CBF
  8
OBJECT
 10
2209.0
 20
-133.0000000000048
 30
0.0
 11
2204.5
 21
-137.0000000000048
 31
0.0
1001
ACDBBLOCKREPETAG
1070
     1
1071
      338
1005
145CBF
  0
LINE
  5
145CC0
  8
OBJECT
 10
2091.0
 20
-133.0000000000048
 30
0.0
 11
2095.5
 21
-137.0000000000048
 31
0.0
1001
ACDBBLOCKREPETAG
1070
     1
1071
      339
1005
145CC0
  0
LINE
  5
145CC1
  8
OBJECT
 10
2083.0
 20
-262.00000000000477
 30
0.0
 11
2080.0
 21
-262.00000000000477
 31
0.0
1001
ACDBBLOCKREPETAG
1070
     1
1071
      340
1005
145CC1
  0
ARC
  5
145CC2
  8
OBJECT
 10
2083.0
 20
-259.00000000000477
 30
0.0
 40
3.0
 50
270.0
 51
0.0
1001
ACDBBLOCKREPETAG
1070
     1
1071
      341
1005
145CC2
  0
LINE
  5
145CC3
  8
OBJECT
 10
2080.0
 20
-138.0000000000048
 30
0.0
 11
2095.5
 21
-138.0000000000048
 31
0.0
1001
ACDBBLOCKREPETAG
1070
     1
1071
      342
1005
145CC3
  0
ARC
  5
145CC4
  8
OBJECT
 10
2083.0
 20
-141.0000000000048
 30
0.0
 40
3.0
 50
0.0
 51
90.0
1001
ACDBBLOCKREPETAG
1070
     1
1071
      343
1005
145CC4
  0
LINE
  5
145CC5
  8
OBJECT
 10
2086.0
 20
-141.0000000000048
 30
0.0
 11
2086.0
 21
-259.00000000000477
 31
0.0
1001
ACDBBLOCKREPETAG
1070
     1
1071
      344
1005
145CC5
  0
LINE
  5
145CC6
  8
HIDDEN
 10
2194.5
 20
-142.00000000000469
 30
0.0
 11
2105.5
 21
-142.00000000000469
 31
0.0
1001
ACDBBLOCKREPETAG
1070
     1
1071
      345
1005
145CC6
  0
LINE
  5
145CC7
  8
OBJECT
 10
2095.5000212374471
 20
-150.00004086387091
 30
0.0
 11
2204.5000212374471
 21
-150.00004086387091
 31
0.0
1001
ACDBBLOCKREPETAG
1070
     1
1071
      347
1005
145CC7
  0
LINE
  5
145CC8
  8
CENTER
 10
2150.0
 20
-247.2436941260323
 30
0.0
 11
2150.0
 21
-75.000000000004775
 31
0.0
1001
ACDBBLOCKREPETAG
1070
     1
1071
      348
1005
145CC8
  0
ARC
  5
145CC9
  8
CENTER
 10
2098.0
 20
-148.00000000000111
 30
0.0
 40
52.0
 50
270.0
 51
0.0
1001
ACDBBLOCKREPETAG
1070
     1
1071
      349
1005
145CC9
  0
ARC
  5
145CCA
  8
OBJECT
 10
2092.5
 20
-150.00000000000111
 30
0.0
 40
3.0
 50
270.0
 51
0.0
1001
ACDBBLOCKREPETAG
1070
     1
1071
      350
1005
145CCA
  0
ARC
  5
145CCB
  8
OBJECT
 10
2098.0
 20
-148.00000000000111
 30
0.0
 40
99.0
 50
270.0
 51
358.84240710281
1001
ACDBBLOCKREPETAG
1070
     1
1071
      351
1005
145CCB
  0
LINE
  5
145CCC
  8
OBJECT
 10
1923.0
 20
-571.0
 30
0.0
 11
1923.0
 21
-550.0
 31
0.0
1001
ACDBBLOCKREPETAG
1070
     1
1071
        0
1005
145CCC
  0
LINE
  5
145CCD
  8
OBJECT
 10
1923.0
 20
-550.0
 30
0.0
 11
2077.0
 21
-550.0
 31
0.0
1001
ACDBBLOCKREPETAG
1070
     1
1071
        1
1005
145CCD
  0
LINE
  5
145CCE
  8
HIDDEN
 10
1943.0
 20
-620.0
 30
0.0
 11
2057.0
 21
-620.0
 31
0.0
1001
ACDBBLOCKREPETAG
1070
     1
1071
        2
1005
145CCE
  0
LINE
  5
145CCF
  8
OBJECT
 10
2077.0
 20
-550.0
 30
0.0
 11
2077.0
 21
-571.0
 31
0.0
1001
ACDBBLOCKREPETAG
1070
     1
1071
        3
1005
145CCF
  0
LINE
  5
145CD0
  8
OBJECT
 10
2077.0
 20
-571.0
 30
0.0
 11
1923.0
 21
-571.0
 31
0.0
1001
ACDBBLOCKREPETAG
1070
     1
1071
        4
1005
145CD0
  0
LINE
  5
145CD1
  8
CENTER
 10
2000.0
 20
-535.0
 30
0.0
 11
2000.0
 21
-770.0
 31
0.0
1001
ACDBBLOCKREPETAG
1070
     1
1071
        5
1005
145CD1
  0
LINE
  5
145CD2
  8
OBJECT
 10
1925.0
 20
-634.0
 30
0.0
 11
1925.0
 21
-758.0
 31
0.0
1001
ACDBBLOCKREPETAG
1070
     1
1071
        6
1005
145CD2
  0
LINE
  5
145CD3
  8
OBJECT
 10
1928.0
 20
-571.0
 30
0.0
 11
1928.0
 21
-634.0
 31
0.0
1001
ACDBBLOCKREPETAG
1070
     1
1071
        7
1005
145CD3
  0
LINE
  5
145CD4
  8
OBJECT
 10
2072.0
 20
-634.0
 30
0.0
 11
2072.0
 21
-571.0
 31
0.0
1001
ACDBBLOCKREPETAG
1070
     1
1071
        8
1005
145CD4
  0
LINE
  5
145CD5
  8
OBJECT
 10
1920.0
 20
-758.0
 30
0.0
 11
2080.0
 21
-758.0
 31
0.0
1001
ACDBBLOCKREPETAG
1070
     1
1071
        9
1005
145CD5
  0
LINE
  5
145CD6
  8
OBJECT
 10
2080.0
 20
-634.0
 30
0.0
 11
1925.0
 21
-634.0
 31
0.0
1001
ACDBBLOCKREPETAG
1070
     1
1071
       10
1005
145CD6
  0
LINE
  5
145CD7
  8
OBJECT
 10
1920.0
 20
-758.0
 30
0.0
 11
1920.0
 21
-770.0
 31
0.0
1001
ACDBBLOCKREPETAG
1070
     1
1071
       11
1005
145CD7
  0
LINE
  5
145CD8
  8
OBJECT
 10
1920.0
 20
-770.0
 30
0.0
 11
2080.0
 21
-770.0
 31
0.0
1001
ACDBBLOCKREPETAG
1070
     1
1071
       12
1005
145CD8
  0
LINE
  5
145CD9
  8
OBJECT
 10
2080.0
 20
-770.0
 30
0.0
 11
2080.0
 21
-758.0
 31
0.0
1001
ACDBBLOCKREPETAG
1070
     1
1071
       13
1005
145CD9
  0
ARC
  5
145CDA
  8
OBJECT
 10
2200.6872746716731
 20
-749.40809941010752
 30
0.0
 40
170.6350503965856
 50
137.44134459184301
 51
149.91949581336559
1001
ACDBBLOCKREPETAG
1070
     1
1071
       15
1005
145CDA
  0
ARC
  5
145CDB
  8
OBJECT
 10
2118.8455987040511
 20
-705.88272669536479
 30
0.0
 40
78.072222021763665
 50
147.45515310377539
 51
164.6636599771798
1001
ACDBBLOCKREPETAG
1070
     1
1071
       16
1005
145CDB
  0
ARC
  5
145CDC
  8
OBJECT
 10
2085.7554349608731
 20
-696.0
 30
0.0
 40
43.55353926885617
 50
165.6884523008477
 51
194.3115476991523
1001
ACDBBLOCKREPETAG
1070
     1
1071
       17
1005
145CDC
  0
ARC
  5
145CDD
  8
OBJECT
 10
2200.6872746716731
 20
-642.59190058989225
 30
0.0
 40
170.6350503965856
 50
210.0805041866343
 51
222.55865540815699
1001
ACDBBLOCKREPETAG
1070
     1
1071
       18
1005
145CDD
  0
ARC
  5
145CDE
  8
OBJECT
 10
2118.8455987040511
 20
-686.11727330463521
 30
0.0
 40
78.072222021763665
 50
195.3363400228202
 51
212.54484689622461
1001
ACDBBLOCKREPETAG
1070
     1
1071
       19
1005
145CDE
  0
POINT
  5
145CDF
  8
DOTS
 10
2000.0
 20
-755.0
 30
0.0
1001
ACDBBLOCKREPETAG
1070
     1
1071
      186
1005
145CDF
  0
LINE
  5
145CE0
  8
OBJECT
 10
2024.102933093302
 20
-243.80694712372249
 30
0.0
 11
2020.659656999997
 21
-232.5546220000044
 31
0.0
1001
ACDBBLOCKREPETAG
1070
     1
1071
      300
1005
145CE0
  0
LINE
  5
145CE1
  8
OBJECT
 10
1986.7927499013749
 20
-218.2255337420859
 30
0.0
 11
2020.659656999997
 21
-232.55462200000261
 31
0.0
1001
ACDBBLOCKREPETAG
1070
     1
1071
      302
1005
145CE1
  0
ARC
  5
145CE2
  8
OBJECT
 10
1982.8961697619
 20
-227.43512999906241
 30
0.0
 40
10.0
 50
67.066778292923374
 51
154.0147343702935
1001
ACDBBLOCKREPETAG
1070
     1
1071
      303
1005
145CE2
  0
ARC
  5
145CE3
  8
OBJECT
 10
1986.1488390381271
 20
-225.5538625672973
 30
0.0
 40
7.0
 50
67.066778292923374
 51
154.01473377497121
1001
ACDBBLOCKREPETAG
1070
     1
1071
      304
1005
145CE3
  0
LINE
  5
145CE4
  8
OBJECT
 10
1969.4199755553
 20
-243.89888500818731
 30
0.0
 11
1979.856491823236
 21
-222.48688253357361
 31
0.0
1001
ACDBBLOCKREPETAG
1070
     1
1071
      341
1005
145CE4
  0
LINE
  5
145CE5
  8
OBJECT
 10
1965.2972169006091
 20
-240.718139018833
 30
0.0
 11
1973.907102266508
 21
-223.0537300443132
 31
0.0
1001
ACDBBLOCKREPETAG
1070
     1
1071
      342
1005
145CE5
  0
ARC
  5
145CE6
  8
OBJECT
 10
1976.579695307315
 20
-207.12893698284941
 30
0.0
 40
60.031113246032611
 50
314.07020130418567
 51
322.33936106091278
1001
ACDBBLOCKREPETAG
1070
     1
1071
      343
1005
145CE6
  0
CIRCLE
  5
145CE7
  8
OBJECT
 10
2000.0
 20
-200.0000000000048
 30
0.0
 40
53.5
1001
ACDBBLOCKREPETAG
1070
     1
1071
      344
1005
145CE7
  0
POINT
  5
145CE8
  8
DOTS
 10
2000.0
 20
-200.0000000000048
 30
0.0
 50
270.0
1001
ACDBBLOCKREPETAG
1070
     1
1071
      362
1005
145CE8
  0
ARC
  5
145CE9
  8
OBJECT
 10
2000.0
 20
-200.0000000000048
 30
0.0
 40
50.0
 50
298.81994300000417
 51
228.52376955967449
1001
ACDBBLOCKREPETAG
1070
     1
1071
        7
1005
145CE9
  0
LINE
  5
145CEA
  8
CENTER
 10
2080.0
 20
-200.0000000000048
 30
0.0
 11
1905.0
 21
-200.0000000000048
 31
0.0
1001
ACDBBLOCKREPETAG
1070
     1
1071
       14
1005
145CEA
  0
LINE
  5
145CEB
  8
CENTER
 10
2000.0
 20
-295.00000000000489
 30
0.0
 11
2000.0
 21
-105.0000000000048
 31
0.0
1001
ACDBBLOCKREPETAG
1070
     1
1071
       15
1005
145CEB
  0
CIRCLE
  5
145CEC
  8
OBJECT
 10
2000.0
 20
-200.0000000000048
 30
0.0
 40
70.0
1001
ACDBBLOCKREPETAG
1070
     1
1071
       16
1005
145CEC
  0
CIRCLE
  5
145CED
  8
OBJECT
 10
2000.0
 20
-200.0000000000048
 30
0.0
 40
77.0
1001
ACDBBLOCKREPETAG
1070
     1
1071
       17
1005
145CED
  0
ARC
  5
145CEE
  8
OBJECT
 10
2000.0
 20
-200.0000000000048
 30
0.0
 40
80.0
 50
50.805032573864182
 51
309.1949674261358
1001
ACDBBLOCKREPETAG
1070
     1
1071
       18
1005
145CEE
  0
LINE
  5
145CEF
  8
OBJECT
 10
2045.6618002273251
 20
-138.0000000000048
 30
0.0
 11
2080.0
 21
-138.0000000000048
 31
0.0
1001
ACDBBLOCKREPETAG
1070
     1
1071
       19
1005
145CEF
  0
LINE
  5
145CF0
  8
OBJECT
 10
2045.6618002273251
 20
-262.00000000000477
 30
0.0
 11
2080.0
 21
-262.00000000000477
 31
0.0
1001
ACDBBLOCKREPETAG
1070
     1
1071
       20
1005
145CF0
  0
LINE
  5
145CF1
  8
DIM
 10
2000.0
 20
-3069.9999999999959
 30
0.0
 11
2000.0
 21
-2891.316574612405
 31
0.0
  0
LINE
  5
145CF2
  8
DIM
 10
2187.0
 20
-3064.9999999999959
 30
0.0
 11
2187.0
 21
-2891.316574612405
 31
0.0
  0
LINE
  5
145CF3
  8
DIM
 10
2020.0
 20
-2901.3165746124059
 30
0.0
 11
2166.9999999999991
 21
-2901.3165746124059
 31
0.0
  0
INSERT
  5
145CF4
  8
DIM
  2
_OPEN30
 10
2000.0
 20
-2901.3165746124059
 30
0.0
 41
20.0
 42
20.0
 43
20.0
 50
180.0
  0
INSERT
  5
145CF5
  8
DIM
  2
_OPEN30
 10
2187.0
 20
-2901.3165746124059
 30
0.0
 41
20.0
 42
20.0
 43
20.0
  0
INSERT
  5
145CF6
  8
OBJECT
  2
*U295
 10
0.0
 20
0.0
 30
0.0
  0
LINE
  5
145CF7
  8
DIM
 10
2000.0
 20
-3069.9999999999959
 30
0.0
 11
2000.0
 21
-2957.1223535003292
 31
0.0
  0
LINE
  5
145CF8
  8
DIM
 10
2140.0
 20
-3049.999999999995
 30
0.0
 11
2140.0
 21
-2957.1223535003292
 31
0.0
  0
LINE
  5
145CF9
  8
DIM
 10
2020.0
 20
-2967.1223535003292
 30
0.0
 11
2120.0
 21
-2967.1223535003292
 31
0.0
  0
INSERT
  5
145CFA
  8
DIM
  2
_OPEN30
 10
2000.0
 20
-2967.1223535003292
 30
0.0
 41
20.0
 42
20.0
 43
20.0
 50
180.0
  0
INSERT
  5
145CFB
  8
DIM
  2
_OPEN30
 10
2140.0
 20
-2967.1223535003292
 30
0.0
 41
20.0
 42
20.0
 43
20.0
  0
INSERT
  5
145CFC
  8
OBJECT
  2
*U296
 10
0.0
 20
0.0
 30
0.0
  0
LINE
  5
145CFD
  8
DIM
 10
2188.44955845084
 20
-3174.9999999999918
 30
0.0
 11
2272.6903592692679
 21
-3174.9999999999918
 31
0.0
  0
LINE
  5
145CFE
  8
DIM
 10
2197.0
 20
-3074.9999999999959
 30
0.0
 11
2272.6903592692679
 21
-3074.9999999999959
 31
0.0
  0
LINE
  5
145CFF
  8
DIM
 10
2262.6903592692688
 20
-3154.9999999999918
 30
0.0
 11
2262.6903592692688
 21
-3094.9999999999959
 31
0.0
  0
INSERT
  5
145D00
  8
DIM
  2
_OPEN30
 10
2262.6903592692688
 20
-3174.9999999999918
 30
0.0
 41
20.0
 42
20.0
 43
20.0
 50
270.0
  0
INSERT
  5
145D01
  8
DIM
  2
_OPEN30
 10
2262.6903592692688
 20
-3074.9999999999959
 30
0.0
 41
20.0
 42
20.0
 43
20.0
 50
90.0
  0
INSERT
  5
145D02
  8
OBJECT
  2
*U297
 10
0.0
 20
0.0
 30
0.0
  0
LINE
  5
145D03
  8
DIM
 10
2212.0
 20
-3535.9999999999959
 30
0.0
 11
2262.636086879676
 21
-3535.9999999999959
 31
0.0
  0
LINE
  5
145D04
  8
DIM
 10
2166.5227116418569
 20
-3579.9999999999959
 30
0.0
 11
2262.636086879676
 21
-3579.9999999999959
 31
0.0
  0
LINE
  5
145D05
  8
DIM
 10
2252.636086879676
 20
-3515.9999999999959
 30
0.0
 11
2252.636086879676
 21
-3495.9999999999959
 31
0.0
  0
LINE
  5
145D06
  8
DIM
 10
2252.636086879676
 20
-3599.9999999999959
 30
0.0
 11
2252.636086879676
 21
-3619.9999999999959
 31
0.0
  0
LINE
  5
145D07
  8
DIM
 10
2252.636086879676
 20
-3535.9999999999959
 30
0.0
 11
2252.636086879676
 21
-3579.9999999999959
 31
0.0
  0
INSERT
  5
145D08
  8
DIM
  2
_OPEN30
 10
2252.636086879676
 20
-3535.9999999999959
 30
0.0
 41
20.0
 42
20.0
 43
20.0
 50
270.0
  0
INSERT
  5
145D09
  8
DIM
  2
_OPEN30
 10
2252.636086879676
 20
-3579.9999999999959
 30
0.0
 41
20.0
 42
20.0
 43
20.0
 50
90.0
  0
INSERT
  5
145D0A
  8
OBJECT
  2
*U298
 10
0.0
 20
0.0
 30
0.0
  0
LINE
  5
145D0B
  8
DIM
 10
2092.9999999999991
 20
-3064.9999999999959
 30
0.0
 11
2092.9999999999991
 21
-3027.4747578501879
 31
0.0
  0
LINE
  5
145D0C
  8
DIM
 10
2187.0
 20
-3064.9999999999959
 30
0.0
 11
2187.0
 21
-3027.4747578501879
 31
0.0
  0
LINE
  5
145D0D
  8
DIM
 10
2112.9999999999991
 20
-3037.474757850187
 30
0.0
 11
2166.9999999999991
 21
-3037.474757850187
 31
0.0
  0
INSERT
  5
145D0E
  8
DIM
  2
_OPEN30
 10
2092.9999999999991
 20
-3037.474757850187
 30
0.0
 41
20.0
 42
20.0
 43
20.0
 50
180.0
  0
INSERT
  5
145D0F
  8
DIM
  2
_OPEN30
 10
2187.0
 20
-3037.474757850187
 30
0.0
 41
20.0
 42
20.0
 43
20.0
  0
INSERT
  5
145D10
  8
OBJECT
  2
*U299
 10
0.0
 20
0.0
 30
0.0
  0
LINE
  5
145D11
  8
CENTER
 10
2598.0
 20
-3535.9999999999959
 30
0.0
 11
2729.0
 21
-3535.9999999999959
 31
0.0
1001
ACDBBLOCKREPETAG
1070
     1
1071
      212
1005
145D11
  0
LINE
  5
145D12
  8
OBJECT
 10
2717.0
 20
-3458.9999999999968
 30
0.0
 11
2720.0
 21
-3458.9999999999968
 31
0.0
1001
ACDBBLOCKREPETAG
1070
     1
1071
      213
1005
145D12
  0
ARC
  5
145D13
  8
OBJECT
 10
2717.0
 20
-3461.9999999999959
 30
0.0
 40
3.0
 50
90.0
 51
180.0
1001
ACDBBLOCKREPETAG
1070
     1
1071
      214
1005
145D13
  0
LINE
  5
145D14
  8
OBJECT
 10
2720.0
 20
-3582.9999999999968
 30
0.0
 11
2717.0
 21
-3582.9999999999968
 31
0.0
1001
ACDBBLOCKREPETAG
1070
     1
1071
      215
1005
145D14
  0
ARC
  5
145D15
  8
OBJECT
 10
2717.0
 20
-3579.9999999999959
 30
0.0
 40
3.0
 50
180.0
 51
270.0
1001
ACDBBLOCKREPETAG
1070
     1
1071
      216
1005
145D15
  0
LINE
  5
145D16
  8
OBJECT
 10
2714.0
 20
-3579.9999999999959
 30
0.0
 11
2714.0
 21
-3461.9999999999959
 31
0.0
1001
ACDBBLOCKREPETAG
1070
     1
1071
      217
1005
145D16
  0
CIRCLE
  5
145D17
  8
OBJECT
 10
2660.0
 20
-3535.9999999999959
 30
0.0
 40
28.0
1001
ACDBBLOCKREPETAG
1070
     1
1071
      219
1005
145D17
  0
CIRCLE
  5
145D18
  8
OBJECT
 10
2660.0
 20
-3535.9999999999959
 30
0.0
 40
39.0
1001
ACDBBLOCKREPETAG
1070
     1
1071
      220
1005
145D18
  0
ARC
  5
145D19
  8
OBJECT
 10
2660.0
 20
-3535.9999999999959
 30
0.0
 40
47.0
 50
290.58196921144412
 51
249.41803078855591
1001
ACDBBLOCKREPETAG
1070
     1
1071
      221
1005
145D19
  0
LINE
  5
145D1A
  8
OBJECT
 10
2676.5227116418569
 20
-3579.9999999999959
 30
0.0
 11
2643.4772883581431
 21
-3579.9999999999959
 31
0.0
1001
ACDBBLOCKREPETAG
1070
     1
1071
      222
1005
145D1A
  0
LINE
  5
145D1B
  8
OBJECT
 10
2692.9658834499392
 20
-3502.4999999999959
 30
0.0
 11
2714.0
 21
-3502.4999999999959
 31
0.0
1001
ACDBBLOCKREPETAG
1070
     1
1071
      223
1005
145D1B
  0
LINE
  5
145D1C
  8
OBJECT
 10
2692.9658834499392
 20
-3569.4999999999968
 30
0.0
 11
2713.9999901410711
 21
-3569.4999999999968
 31
0.0
1001
ACDBBLOCKREPETAG
1070
     1
1071
      224
1005
145D1C
  0
LINE
  5
145D1D
  8
CENTER
 10
2660.0
 20
-3594.9999999999968
 30
0.0
 11
2660.0
 21
-3473.9999999999968
 31
0.0
1001
ACDBBLOCKREPETAG
1070
     1
1071
      225
1005
145D1D
  0
LINE
  5
145D1E
  8
CENTER
 10
5573.0
 20
-3520.9999999999968
 30
0.0
 11
5729.0
 21
-3520.9999999999968
 31
0.0
1001
ACDBBLOCKREPETAG
1070
     1
1071
      241
1005
145D1E
  0
LINE
  5
145D1F
  8
OBJECT
 10
5690.4351332383121
 20
-3567.9999999999959
 30
0.0
 11
5713.9999999999973
 21
-3567.9999999999959
 31
0.0
1001
ACDBBLOCKREPETAG
1070
     1
1071
      242
1005
145D1F
  0
LINE
  5
145D20
  8
OBJECT
 10
5690.4351332383121
 20
-3473.9999999999968
 30
0.0
 11
5713.9999999999973
 21
-3473.9999999999968
 31
0.0
1001
ACDBBLOCKREPETAG
1070
     1
1071
      243
1005
145D20
  0
LINE
  5
145D21
  8
OBJECT
 10
5717.0
 20
-3458.9999999999968
 30
0.0
 11
5720.0
 21
-3458.9999999999968
 31
0.0
1001
ACDBBLOCKREPETAG
1070
     1
1071
      244
1005
145D21
  0
LINE
  5
145D22
  8
OBJECT
 10
5720.0
 20
-3582.9999999999968
 30
0.0
 11
5717.0
 21
-3582.9999999999968
 31
0.0
1001
ACDBBLOCKREPETAG
1070
     1
1071
      245
1005
145D22
  0
ARC
  5
145D23
  8
OBJECT
 10
5717.0
 20
-3461.9999999999959
 30
0.0
 40
3.0
 50
90.0
 51
180.0
1001
ACDBBLOCKREPETAG
1070
     1
1071
      246
1005
145D23
  0
ARC
  5
145D24
  8
OBJECT
 10
5717.0
 20
-3579.9999999999959
 30
0.0
 40
3.0
 50
180.0
 51
270.0
1001
ACDBBLOCKREPETAG
1070
     1
1071
      247
1005
145D24
  0
LINE
  5
145D25
  8
OBJECT
 10
5714.0
 20
-3579.9999999999959
 30
0.0
 11
5714.0
 21
-3461.9999999999959
 31
0.0
1001
ACDBBLOCKREPETAG
1070
     1
1071
      248
1005
145D25
  0
CIRCLE
  5
145D26
  8
OBJECT
 10
5650.0
 20
-3520.9999999999968
 30
0.0
 40
54.0
1001
ACDBBLOCKREPETAG
1070
     1
1071
      250
1005
145D26
  0
CIRCLE
  5
145D27
  8
OBJECT
 10
5650.0
 20
-3520.9999999999968
 30
0.0
 40
41.5
1001
ACDBBLOCKREPETAG
1070
     1
1071
      251
1005
145D27
  0
ARC
  5
145D28
  8
OBJECT
 10
5650.0
 20
-3520.9999999999968
 30
0.0
 40
62.0
 50
287.8965511292032
 51
252.1034488707968
1001
ACDBBLOCKREPETAG
1070
     1
1071
      252
1005
145D28
  0
LINE
  5
145D29
  8
CENTER
 10
5650.0
 20
-3594.9999999999968
 30
0.0
 11
5650.0
 21
-3443.9999999999959
 31
0.0
1001
ACDBBLOCKREPETAG
1070
     1
1071
      253
1005
145D29
  0
LINE
  5
145D2A
  8
OBJECT
 10
5669.052558883257
 20
-3579.9999999999959
 30
0.0
 11
5630.947441116743
 21
-3579.9999999999959
 31
0.0
1001
ACDBBLOCKREPETAG
1070
     1
1071
      254
1005
145D2A
  0
TEXT
  5
145D2B
  8
SLIM
 10
4817.25
 20
-3697.4999999999968
 30
0.0
 40
35.0
  1
エルボ枝75右回り（R3）
 41
0.75
  0
LINE
  5
145D2C
  8
OBJECT
 10
4923.0
 20
-3395.9999999999968
 30
0.0
 11
4923.0
 21
-3374.9999999999959
 31
0.0
1001
ACDBBLOCKREPETAG
1070
     1
1071
        0
1005
145D2C
  0
LINE
  5
145D2D
  8
OBJECT
 10
4923.0
 20
-3374.9999999999959
 30
0.0
 11
5077.0
 21
-3374.9999999999959
 31
0.0
1001
ACDBBLOCKREPETAG
1070
     1
1071
        1
1005
145D2D
  0
LINE
  5
145D2E
  8
HIDDEN
 10
4943.0
 20
-3444.9999999999968
 30
0.0
 11
5057.0
 21
-3444.9999999999968
 31
0.0
1001
ACDBBLOCKREPETAG
1070
     1
1071
        2
1005
145D2E
  0
LINE
  5
145D2F
  8
OBJECT
 10
5077.0
 20
-3374.9999999999959
 30
0.0
 11
5077.0
 21
-3395.9999999999968
 31
0.0
1001
ACDBBLOCKREPETAG
1070
     1
1071
        3
1005
145D2F
  0
LINE
  5
145D30
  8
OBJECT
 10
5077.0
 20
-3395.9999999999968
 30
0.0
 11
4923.0
 21
-3395.9999999999968
 31
0.0
1001
ACDBBLOCKREPETAG
1070
     1
1071
        4
1005
145D30
  0
LINE
  5
145D31
  8
CENTER
 10
5000.0
 20
-3359.9999999999968
 30
0.0
 11
5000.0
 21
-3594.9999999999968
 31
0.0
1001
ACDBBLOCKREPETAG
1070
     1
1071
        5
1005
145D31
  0
LINE
  5
145D32
  8
OBJECT
 10
4925.0
 20
-3458.9999999999968
 30
0.0
 11
4925.0
 21
-3582.9999999999968
 31
0.0
1001
ACDBBLOCKREPETAG
1070
     1
1071
        6
1005
145D32
  0
LINE
  5
145D33
  8
OBJECT
 10
4928.0
 20
-3395.9999999999968
 30
0.0
 11
4928.0
 21
-3458.9999999999968
 31
0.0
1001
ACDBBLOCKREPETAG
1070
     1
1071
        7
1005
145D33
  0
LINE
  5
145D34
  8
OBJECT
 10
5072.0
 20
-3458.9999999999968
 30
0.0
 11
5072.0
 21
-3395.9999999999968
 31
0.0
1001
ACDBBLOCKREPETAG
1070
     1
1071
        8
1005
145D34
  0
LINE
  5
145D35
  8
OBJECT
 10
5074.9999999997999
 20
-3582.9999999997758
 30
0.0
 11
5080.0
 21
-3582.9999999999968
 31
0.0
1001
ACDBBLOCKREPETAG
1070
     1
1071
        9
1005
145D35
  0
LINE
  5
145D36
  8
OBJECT
 10
5080.0
 20
-3458.9999999999968
 30
0.0
 11
4925.0
 21
-3458.9999999999968
 31
0.0
1001
ACDBBLOCKREPETAG
1070
     1
1071
       10
1005
145D36
  0
ARC
  5
145D37
  8
OBJECT
 10
5200.6872746716726
 20
-3574.4080994101041
 30
0.0
 40
170.6350503965856
 50
137.44134459184301
 51
149.9194958133665
1001
ACDBBLOCKREPETAG
1070
     1
1071
       15
1005
145D37
  0
ARC
  5
145D38
  8
OBJECT
 10
5118.8455987040506
 20
-3530.8827266953631
 30
0.0
 40
78.072222021763665
 50
147.4551531037684
 51
164.66365997719291
1001
ACDBBLOCKREPETAG
1070
     1
1071
       16
1005
145D38
  0
ARC
  5
145D39
  8
OBJECT
 10
5085.7554349608727
 20
-3520.9999999999968
 30
0.0
 40
43.55353926885617
 50
165.6884523008477
 51
194.3115476991523
1001
ACDBBLOCKREPETAG
1070
     1
1071
       17
1005
145D39
  0
ARC
  5
145D3A
  8
OBJECT
 10
5200.6872746716726
 20
-3467.5919005898882
 30
0.0
 40
170.6350503965856
 50
210.0805041866335
 51
222.55865540815699
1001
ACDBBLOCKREPETAG
1070
     1
1071
       18
1005
145D3A
  0
ARC
  5
145D3B
  8
OBJECT
 10
5118.8455987040506
 20
-3511.1172733046319
 30
0.0
 40
78.072222021763665
 50
195.33634002280701
 51
212.5448468962316
1001
ACDBBLOCKREPETAG
1070
     1
1071
       19
1005
145D3B
  0
POINT
  5
145D3C
  8
DOTS
 10
5000.0
 20
-3579.9999999999959
 30
0.0
1001
ACDBBLOCKREPETAG
1070
     1
1071
      186
1005
145D3C
  0
LINE
  5
145D3D
  8
OBJECT
 10
5024.1029330933034
 20
-3218.8069471237131
 30
0.0
 11
5020.6596569999947
 21
-3207.5546219999951
 31
0.0
1001
ACDBBLOCKREPETAG
1070
     1
1071
      300
1005
145D3D
  0
LINE
  5
145D3E
  8
OBJECT
 10
4986.7927499013749
 20
-3193.225533742077
 30
0.0
 11
5020.6596569999947
 21
-3207.5546219999951
 31
0.0
1001
ACDBBLOCKREPETAG
1070
     1
1071
      302
1005
145D3E
  0
ARC
  5
145D3F
  8
OBJECT
 10
4982.8961697619006
 20
-3202.4351299990531
 30
0.0
 40
10.0
 50
67.06677829291263
 51
154.01473437029199
1001
ACDBBLOCKREPETAG
1070
     1
1071
      303
1005
145D3F
  0
ARC
  5
145D40
  8
OBJECT
 10
4986.1488390381273
 20
-3200.553862567288
 30
0.0
 40
7.0
 50
67.06677829291263
 51
154.01473377497379
1001
ACDBBLOCKREPETAG
1070
     1
1071
      304
1005
145D40
  0
LINE
  5
145D41
  8
OBJECT
 10
4969.4199755553018
 20
-3218.8988850081791
 30
0.0
 11
4979.8564918232369
 21
-3197.4868825335639
 31
0.0
1001
ACDBBLOCKREPETAG
1070
     1
1071
      341
1005
145D41
  0
LINE
  5
145D42
  8
OBJECT
 10
4965.2972169006089
 20
-3215.7181390188239
 30
0.0
 11
4973.9071022665084
 21
-3198.0537300443038
 31
0.0
1001
ACDBBLOCKREPETAG
1070
     1
1071
      342
1005
145D42
  0
ARC
  5
145D43
  8
OBJECT
 10
4976.5796953073141
 20
-3182.1289369828401
 30
0.0
 40
60.031113246032611
 50
314.070201304188
 51
322.33936106089038
1001
ACDBBLOCKREPETAG
1070
     1
1071
      343
1005
145D43
  0
CIRCLE
  5
145D44
  8
OBJECT
 10
5000.0
 20
-3174.999999999995
 30
0.0
 40
53.5
1001
ACDBBLOCKREPETAG
1070
     1
1071
      344
1005
145D44
  0
POINT
  5
145D45
  8
DOTS
 10
5000.0
 20
-3174.999999999995
 30
0.0
 50
270.0
1001
ACDBBLOCKREPETAG
1070
     1
1071
      362
1005
145D45
  0
ARC
  5
145D46
  8
OBJECT
 10
5000.0
 20
-3174.999999999995
 30
0.0
 40
50.0
 50
298.81994299999963
 51
228.52376955965599
1001
ACDBBLOCKREPETAG
1070
     1
1071
        7
1005
145D46
  0
LINE
  5
145D47
  8
CENTER
 10
5080.0
 20
-3174.999999999995
 30
0.0
 11
4905.0
 21
-3174.999999999995
 31
0.0
1001
ACDBBLOCKREPETAG
1070
     1
1071
       14
1005
145D47
  0
LINE
  5
145D48
  8
CENTER
 10
5000.0
 20
-3269.9999999999959
 30
0.0
 11
5000.0
 21
-3079.9999999999959
 31
0.0
1001
ACDBBLOCKREPETAG
1070
     1
1071
       15
1005
145D48
  0
CIRCLE
  5
145D49
  8
OBJECT
 10
5000.0
 20
-3174.999999999995
 30
0.0
 40
70.0
1001
ACDBBLOCKREPETAG
1070
     1
1071
       16
1005
145D49
  0
CIRCLE
  5
145D4A
  8
OBJECT
 10
5000.0
 20
-3174.999999999995
 30
0.0
 40
77.0
1001
ACDBBLOCKREPETAG
1070
     1
1071
       17
1005
145D4A
  0
ARC
  5
145D4B
  8
OBJECT
 10
5000.0
 20
-3174.999999999995
 30
0.0
 40
80.0
 50
50.805032573882329
 51
309.19496742611773
1001
ACDBBLOCKREPETAG
1070
     1
1071
       18
1005
145D4B
  0
LINE
  5
145D4C
  8
OBJECT
 10
5045.6618002273253
 20
-3112.9999999999959
 30
0.0
 11
5080.0
 21
-3112.9999999999959
 31
0.0
1001
ACDBBLOCKREPETAG
1070
     1
1071
       19
1005
145D4C
  0
LINE
  5
145D4D
  8
OBJECT
 10
5045.6618002273253
 20
-3236.9999999999959
 30
0.0
 11
5080.0
 21
-3236.9999999999959
 31
0.0
1001
ACDBBLOCKREPETAG
1070
     1
1071
       20
1005
145D4D
  0
LINE
  5
145D4E
  8
CENTER
 10
5227.0
 20
-3520.9999999999968
 30
0.0
 11
5071.0
 21
-3520.9999999999968
 31
0.0
1001
ACDBBLOCKREPETAG
1070
     1
1071
      287
1005
145D4E
  0
LINE
  5
145D4F
  8
OBJECT
 10
5150.0
 20
-3567.9999999999959
 30
0.0
 11
5086.0000000000018
 21
-3567.9999999999959
 31
0.0
1001
ACDBBLOCKREPETAG
1070
     1
1071
      288
1005
145D4F
  0
LINE
  5
145D50
  8
OBJECT
 10
5083.0
 20
-3458.9999999999968
 30
0.0
 11
5080.0
 21
-3458.9999999999968
 31
0.0
1001
ACDBBLOCKREPETAG
1070
     1
1071
      289
1005
145D50
  0
LINE
  5
145D51
  8
OBJECT
 10
5150.0
 20
-3473.9999999999968
 30
0.0
 11
5086.0000000000018
 21
-3473.9999999999968
 31
0.0
1001
ACDBBLOCKREPETAG
1070
     1
1071
      290
1005
145D51
  0
ARC
  5
145D52
  8
OBJECT
 10
5083.0
 20
-3461.9999999999959
 30
0.0
 40
3.0
 50
0.0
 51
90.0
1001
ACDBBLOCKREPETAG
1070
     1
1071
      291
1005
145D52
  0
LINE
  5
145D53
  8
OBJECT
 10
5080.0
 20
-3582.9999999999968
 30
0.0
 11
5083.0
 21
-3582.9999999999968
 31
0.0
1001
ACDBBLOCKREPETAG
1070
     1
1071
      292
1005
145D53
  0
ARC
  5
145D54
  8
OBJECT
 10
5083.0
 20
-3579.9999999999959
 30
0.0
 40
3.0
 50
270.0
 51
0.0
1001
ACDBBLOCKREPETAG
1070
     1
1071
      293
1005
145D54
  0
LINE
  5
145D55
  8
OBJECT
 10
5086.0
 20
-3579.9999999999959
 30
0.0
 11
5086.0
 21
-3461.9999999999959
 31
0.0
1001
ACDBBLOCKREPETAG
1070
     1
1071
      294
1005
145D55
  0
ARC
  5
145D56
  8
OBJECT
 10
5150.0
 20
-3520.9999999999968
 30
0.0
 40
62.0
 50
229.29386573221529
 51
252.1034488707968
1001
ACDBBLOCKREPETAG
1070
     1
1071
      296
1005
145D56
  0
ARC
  5
145D57
  8
OBJECT
 10
5150.0
 20
-3520.9999999999968
 30
0.0
 40
62.0
 50
287.8965511292032
 51
130.70613426778471
1001
ACDBBLOCKREPETAG
1070
     1
1071
      297
1005
145D57
  0
LINE
  5
145D58
  8
OBJECT
 10
5130.947441116743
 20
-3579.9999999999959
 30
0.0
 11
5169.052558883257
 21
-3579.9999999999959
 31
0.0
1001
ACDBBLOCKREPETAG
1070
     1
1071
      298
1005
145D58
  0
LINE
  5
145D59
  8
CENTER
 10
5150.0
 20
-3594.9999999999968
 30
0.0
 11
5150.0
 21
-3443.9999999999959
 31
0.0
1001
ACDBBLOCKREPETAG
1070
     1
1071
      299
1005
145D59
  0
ARC
  5
145D5A
  8
OBJECT
 10
5150.0
 20
-3520.9999999999968
 30
0.0
 40
54.5
 50
239.58547089841221
 51
120.4145291015878
1001
ACDBBLOCKREPETAG
1070
     1
1071
      300
1005
145D5A
  0
ARC
  5
145D5B
  8
OBJECT
 10
5150.0
 20
-3520.9999999999968
 30
0.0
 40
47.0
 50
270.0
 51
90.0
1001
ACDBBLOCKREPETAG
1070
     1
1071
      301
1005
145D5B
  0
ARC
  5
145D5C
  8
OBJECT
 10
5150.0
 20
-3520.9999999999968
 30
0.0
 40
59.0
 50
232.80760582084301
 51
127.19239417915691
1001
ACDBBLOCKREPETAG
1070
     1
1071
      302
1005
145D5C
  0
LINE
  5
145D5D
  8
OBJECT
 10
5212.0
 20
-3071.9999999999959
 30
0.0
 11
5212.0
 21
-3064.9999999999959
 31
0.0
1001
ACDBBLOCKREPETAG
1070
     1
1071
      325
1005
145D5D
  0
LINE
  5
145D5E
  8
OBJECT
 10
5212.0
 20
-3064.9999999999959
 30
0.0
 11
5088.0
 21
-3064.9999999999959
 31
0.0
1001
ACDBBLOCKREPETAG
1070
     1
1071
      326
1005
145D5E
  0
LINE
  5
145D5F
  8
OBJECT
 10
5088.0
 20
-3064.9999999999959
 30
0.0
 11
5088.0
 21
-3071.9999999999959
 31
0.0
1001
ACDBBLOCKREPETAG
1070
     1
1071
      327
1005
145D5F
  0
LINE
  5
145D60
  8
OBJECT
 10
5088.0
 20
-3071.9999999999959
 30
0.0
 11
5212.0
 21
-3071.9999999999959
 31
0.0
1001
ACDBBLOCKREPETAG
1070
     1
1071
      328
1005
145D60
  0
LINE
  5
145D61
  8
CENTER
 10
5197.2436941260312
 20
-3174.9999999999918
 30
0.0
 11
5080.0
 21
-3174.999999999995
 31
0.0
1001
ACDBBLOCKREPETAG
1070
     1
1071
      329
1005
145D61
  0
LINE
  5
145D62
  8
OBJECT
 10
5092.5000000000009
 20
-3127.9999999999932
 30
0.0
 11
5086.0
 21
-3127.9999999999932
 31
0.0
1001
ACDBBLOCKREPETAG
1070
     1
1071
      330
1005
145D62
  0
LINE
  5
145D63
  8
OBJECT
 10
5098.0
 20
-3221.9999999999918
 30
0.0
 11
5086.0
 21
-3221.9999999999959
 31
0.0
1001
ACDBBLOCKREPETAG
1070
     1
1071
      331
1005
145D63
  0
LINE
  5
145D64
  8
OBJECT
 10
5209.0
 20
-3071.9999999999959
 30
0.0
 11
5209.0
 21
-3107.9999999999959
 31
0.0
1001
ACDBBLOCKREPETAG
1070
     1
1071
      332
1005
145D64
  0
LINE
  5
145D65
  8
OBJECT
 10
5209.0
 20
-3107.9999999999959
 30
0.0
 11
5091.0
 21
-3107.9999999999959
 31
0.0
1001
ACDBBLOCKREPETAG
1070
     1
1071
      333
1005
145D65
  0
LINE
  5
145D66
  8
OBJECT
 10
5091.0
 20
-3107.9999999999959
 30
0.0
 11
5091.0
 21
-3071.9999999999959
 31
0.0
1001
ACDBBLOCKREPETAG
1070
     1
1071
      334
1005
145D66
  0
LINE
  5
145D67
  8
OBJECT
 10
5204.5
 20
-3111.9999999999959
 30
0.0
 11
5204.5
 21
-3124.9999999999959
 31
0.0
1001
ACDBBLOCKREPETAG
1070
     1
1071
      335
1005
145D67
  0
LINE
  5
145D68
  8
OBJECT
 10
5095.5
 20
-3124.9999999999959
 30
0.0
 11
5095.5
 21
-3111.9999999999959
 31
0.0
1001
ACDBBLOCKREPETAG
1070
     1
1071
      336
1005
145D68
  0
LINE
  5
145D69
  8
OBJECT
 10
5095.5
 20
-3111.9999999999959
 30
0.0
 11
5204.5
 21
-3111.9999999999959
 31
0.0
1001
ACDBBLOCKREPETAG
1070
     1
1071
      337
1005
145D69
  0
LINE
  5
145D6A
  8
OBJECT
 10
5209.0
 20
-3107.9999999999959
 30
0.0
 11
5204.5
 21
-3111.9999999999959
 31
0.0
1001
ACDBBLOCKREPETAG
1070
     1
1071
      338
1005
145D6A
  0
LINE
  5
145D6B
  8
OBJECT
 10
5091.0
 20
-3107.9999999999959
 30
0.0
 11
5095.5
 21
-3111.9999999999959
 31
0.0
1001
ACDBBLOCKREPETAG
1070
     1
1071
      339
1005
145D6B
  0
LINE
  5
145D6C
  8
OBJECT
 10
5083.0
 20
-3236.9999999999959
 30
0.0
 11
5080.0
 21
-3236.9999999999959
 31
0.0
1001
ACDBBLOCKREPETAG
1070
     1
1071
      340
1005
145D6C
  0
ARC
  5
145D6D
  8
OBJECT
 10
5083.0
 20
-3233.999999999995
 30
0.0
 40
3.0
 50
270.0
 51
0.0
1001
ACDBBLOCKREPETAG
1070
     1
1071
      341
1005
145D6D
  0
LINE
  5
145D6E
  8
OBJECT
 10
5080.0
 20
-3112.9999999999959
 30
0.0
 11
5095.5
 21
-3112.9999999999959
 31
0.0
1001
ACDBBLOCKREPETAG
1070
     1
1071
      342
1005
145D6E
  0
ARC
  5
145D6F
  8
OBJECT
 10
5083.0
 20
-3115.9999999999959
 30
0.0
 40
3.0
 50
0.0
 51
90.0
1001
ACDBBLOCKREPETAG
1070
     1
1071
      343
1005
145D6F
  0
LINE
  5
145D70
  8
OBJECT
 10
5086.0
 20
-3115.9999999999959
 30
0.0
 11
5086.0
 21
-3233.999999999995
 31
0.0
1001
ACDBBLOCKREPETAG
1070
     1
1071
      344
1005
145D70
  0
LINE
  5
145D71
  8
HIDDEN
 10
5194.5
 20
-3116.999999999995
 30
0.0
 11
5105.5
 21
-3116.999999999995
 31
0.0
1001
ACDBBLOCKREPETAG
1070
     1
1071
      345
1005
145D71
  0
LINE
  5
145D72
  8
OBJECT
 10
5095.5000212374471
 20
-3125.000040863863
 30
0.0
 11
5204.5000212374471
 21
-3125.000040863863
 31
0.0
1001
ACDBBLOCKREPETAG
1070
     1
1071
      347
1005
145D72
  0
LINE
  5
145D73
  8
CENTER
 10
5150.0
 20
-3222.243694126023
 30
0.0
 11
5150.0
 21
-3049.999999999995
 31
0.0
1001
ACDBBLOCKREPETAG
1070
     1
1071
      348
1005
145D73
  0
ARC
  5
145D74
  8
CENTER
 10
5098.0
 20
-3122.9999999999918
 30
0.0
 40
52.0
 50
270.0
 51
0.0
1001
ACDBBLOCKREPETAG
1070
     1
1071
      349
1005
145D74
  0
ARC
  5
145D75
  8
OBJECT
 10
5092.5000000000009
 20
-3124.9999999999918
 30
0.0
 40
3.0
 50
270.0
 51
0.0
1001
ACDBBLOCKREPETAG
1070
     1
1071
      350
1005
145D75
  0
ARC
  5
145D76
  8
OBJECT
 10
5098.0
 20
-3122.9999999999918
 30
0.0
 40
99.0
 50
270.0
 51
358.84240710281
1001
ACDBBLOCKREPETAG
1070
     1
1071
      351
1005
145D76
  0
LINE
  5
145D77
  8
CENTER
 10
4090.0
 20
-3527.9999999999968
 30
0.0
 11
4230.0
 21
-3527.9999999999968
 31
0.0
1001
ACDBBLOCKREPETAG
1070
     1
1071
      226
1005
145D77
  0
LINE
  5
145D78
  8
OBJECT
 10
4196.6606055596449
 20
-3568.9999999999959
 30
0.0
 11
4214.0
 21
-3568.9999999999959
 31
0.0
1001
ACDBBLOCKREPETAG
1070
     1
1071
      227
1005
145D78
  0
LINE
  5
145D79
  8
OBJECT
 10
4196.6606055596449
 20
-3486.9999999999959
 30
0.0
 11
4213.9999999999973
 21
-3486.9999999999959
 31
0.0
1001
ACDBBLOCKREPETAG
1070
     1
1071
      228
1005
145D79
  0
LINE
  5
145D7A
  8
OBJECT
 10
4217.0
 20
-3458.9999999999968
 30
0.0
 11
4220.0
 21
-3458.9999999999968
 31
0.0
1001
ACDBBLOCKREPETAG
1070
     1
1071
      229
1005
145D7A
  0
LINE
  5
145D7B
  8
OBJECT
 10
4220.0
 20
-3582.9999999999968
 30
0.0
 11
4217.0
 21
-3582.9999999999968
 31
0.0
1001
ACDBBLOCKREPETAG
1070
     1
1071
      230
1005
145D7B
  0
ARC
  5
145D7C
  8
OBJECT
 10
4217.0
 20
-3461.9999999999959
 30
0.0
 40
3.0
 50
90.0
 51
180.0
1001
ACDBBLOCKREPETAG
1070
     1
1071
      231
1005
145D7C
  0
ARC
  5
145D7D
  8
OBJECT
 10
4217.0
 20
-3579.9999999999959
 30
0.0
 40
3.0
 50
180.0
 51
270.0
1001
ACDBBLOCKREPETAG
1070
     1
1071
      232
1005
145D7D
  0
LINE
  5
145D7E
  8
OBJECT
 10
4214.0
 20
-3579.9999999999959
 30
0.0
 11
4214.0
 21
-3538.4403065089068
 31
0.0
1001
ACDBBLOCKREPETAG
1070
     1
1071
      233
1005
145D7E
  0
LINE
  5
145D7F
  8
OBJECT
 10
4214.0
 20
-3517.5596934910868
 30
0.0
 11
4214.0
 21
-3461.9999999999959
 31
0.0
1001
ACDBBLOCKREPETAG
1070
     1
1071
      234
1005
145D7F
  0
CIRCLE
  5
145D80
  8
OBJECT
 10
4160.0
 20
-3527.9999999999968
 30
0.0
 40
35.5
1001
ACDBBLOCKREPETAG
1070
     1
1071
      236
1005
145D80
  0
CIRCLE
  5
145D81
  8
OBJECT
 10
4160.0
 20
-3527.9999999999968
 30
0.0
 40
47.0
1001
ACDBBLOCKREPETAG
1070
     1
1071
      237
1005
145D81
  0
ARC
  5
145D82
  8
OBJECT
 10
4160.0
 20
-3527.9999999999968
 30
0.0
 40
55.0
 50
289.01126526011359
 51
250.98873473988641
1001
ACDBBLOCKREPETAG
1070
     1
1071
      238
1005
145D82
  0
LINE
  5
145D83
  8
OBJECT
 10
4177.9164728671658
 20
-3579.9999999999959
 30
0.0
 11
4142.0835271328324
 21
-3579.9999999999959
 31
0.0
1001
ACDBBLOCKREPETAG
1070
     1
1071
      239
1005
145D83
  0
LINE
  5
145D84
  8
CENTER
 10
4160.0
 20
-3594.9999999999968
 30
0.0
 11
4160.0
 21
-3457.9999999999968
 31
0.0
1001
ACDBBLOCKREPETAG
1070
     1
1071
      240
1005
145D84
  0
TEXT
  5
145D85
  8
SLIM
 10
3317.25
 20
-3697.4999999999968
 30
0.0
 40
35.0
  1
エルボ枝65右回り（R2）
 41
0.75
  0
LINE
  5
145D86
  8
OBJECT
 10
3423.0
 20
-3395.9999999999968
 30
0.0
 11
3423.0
 21
-3374.9999999999959
 31
0.0
1001
ACDBBLOCKREPETAG
1070
     1
1071
        0
1005
145D86
  0
LINE
  5
145D87
  8
OBJECT
 10
3423.0
 20
-3374.9999999999959
 30
0.0
 11
3577.0
 21
-3374.9999999999959
 31
0.0
1001
ACDBBLOCKREPETAG
1070
     1
1071
        1
1005
145D87
  0
LINE
  5
145D88
  8
HIDDEN
 10
3443.0
 20
-3444.9999999999968
 30
0.0
 11
3556.9999999999991
 21
-3444.9999999999968
 31
0.0
1001
ACDBBLOCKREPETAG
1070
     1
1071
        2
1005
145D88
  0
LINE
  5
145D89
  8
OBJECT
 10
3577.0
 20
-3374.9999999999959
 30
0.0
 11
3577.0
 21
-3395.9999999999968
 31
0.0
1001
ACDBBLOCKREPETAG
1070
     1
1071
        3
1005
145D89
  0
LINE
  5
145D8A
  8
OBJECT
 10
3577.0
 20
-3395.9999999999968
 30
0.0
 11
3423.0
 21
-3395.9999999999968
 31
0.0
1001
ACDBBLOCKREPETAG
1070
     1
1071
        4
1005
145D8A
  0
LINE
  5
145D8B
  8
CENTER
 10
3500.0
 20
-3359.9999999999968
 30
0.0
 11
3500.0
 21
-3594.9999999999968
 31
0.0
1001
ACDBBLOCKREPETAG
1070
     1
1071
        5
1005
145D8B
  0
LINE
  5
145D8C
  8
OBJECT
 10
3424.9999999999991
 20
-3458.9999999999968
 30
0.0
 11
3424.9999999999991
 21
-3582.9999999999968
 31
0.0
1001
ACDBBLOCKREPETAG
1070
     1
1071
        6
1005
145D8C
  0
LINE
  5
145D8D
  8
OBJECT
 10
3427.9999999999991
 20
-3395.9999999999968
 30
0.0
 11
3427.9999999999991
 21
-3458.9999999999968
 31
0.0
1001
ACDBBLOCKREPETAG
1070
     1
1071
        7
1005
145D8D
  0
LINE
  5
145D8E
  8
OBJECT
 10
3572.0
 20
-3458.9999999999968
 30
0.0
 11
3572.0
 21
-3395.9999999999968
 31
0.0
1001
ACDBBLOCKREPETAG
1070
     1
1071
        8
1005
145D8E
  0
LINE
  5
145D8F
  8
OBJECT
 10
3574.999999999799
 20
-3582.9999999997758
 30
0.0
 11
3580.0
 21
-3582.9999999999968
 31
0.0
1001
ACDBBLOCKREPETAG
1070
     1
1071
        9
1005
145D8F
  0
LINE
  5
145D90
  8
OBJECT
 10
3580.0
 20
-3458.9999999999968
 30
0.0
 11
3424.9999999999991
 21
-3458.9999999999968
 31
0.0
1001
ACDBBLOCKREPETAG
1070
     1
1071
       10
1005
145D90
  0
ARC
  5
145D91
  8
OBJECT
 10
3700.6872746716722
 20
-3574.4080994101041
 30
0.0
 40
170.6350503965856
 50
137.44134459184301
 51
149.9194958133665
1001
ACDBBLOCKREPETAG
1070
     1
1071
       15
1005
145D91
  0
ARC
  5
145D92
  8
OBJECT
 10
3618.8455987040511
 20
-3530.8827266953631
 30
0.0
 40
78.072222021763665
 50
147.4551531037684
 51
164.663659977186
1001
ACDBBLOCKREPETAG
1070
     1
1071
       16
1005
145D92
  0
ARC
  5
145D93
  8
OBJECT
 10
3585.7554349608731
 20
-3520.9999999999968
 30
0.0
 40
43.55353926885617
 50
165.6884523008477
 51
194.3115476991523
1001
ACDBBLOCKREPETAG
1070
     1
1071
       17
1005
145D93
  0
ARC
  5
145D94
  8
OBJECT
 10
3700.6872746716722
 20
-3467.5919005898882
 30
0.0
 40
170.6350503965856
 50
210.0805041866335
 51
222.55865540815699
1001
ACDBBLOCKREPETAG
1070
     1
1071
       18
1005
145D94
  0
ARC
  5
145D95
  8
OBJECT
 10
3618.8455987040511
 20
-3511.1172733046319
 30
0.0
 40
78.072222021763665
 50
195.33634002281391
 51
212.5448468962316
1001
ACDBBLOCKREPETAG
1070
     1
1071
       19
1005
145D95
  0
POINT
  5
145D96
  8
DOTS
 10
3500.0
 20
-3579.9999999999959
 30
0.0
1001
ACDBBLOCKREPETAG
1070
     1
1071
      186
1005
145D96
  0
LINE
  5
145D97
  8
OBJECT
 10
3524.1029330933011
 20
-3218.8069471237131
 30
0.0
 11
3520.6596569999961
 21
-3207.5546219999951
 31
0.0
1001
ACDBBLOCKREPETAG
1070
     1
1071
      300
1005
145D97
  0
LINE
  5
145D98
  8
OBJECT
 10
3486.7927499013749
 20
-3193.225533742077
 30
0.0
 11
3520.6596569999961
 21
-3207.5546219999951
 31
0.0
1001
ACDBBLOCKREPETAG
1070
     1
1071
      302
1005
145D98
  0
ARC
  5
145D99
  8
OBJECT
 10
3482.896169761902
 20
-3202.4351299990531
 30
0.0
 40
10.0
 50
67.06677829291263
 51
154.01473437029199
1001
ACDBBLOCKREPETAG
1070
     1
1071
      303
1005
145D99
  0
ARC
  5
145D9A
  8
OBJECT
 10
3486.1488390381269
 20
-3200.553862567288
 30
0.0
 40
7.0
 50
67.06677829291263
 51
154.01473377496239
1001
ACDBBLOCKREPETAG
1070
     1
1071
      304
1005
145D9A
  0
LINE
  5
145D9B
  8
OBJECT
 10
3469.4199755553009
 20
-3218.8988850081791
 30
0.0
 11
3479.8564918232369
 21
-3197.4868825335639
 31
0.0
1001
ACDBBLOCKREPETAG
1070
     1
1071
      341
1005
145D9B
  0
LINE
  5
145D9C
  8
OBJECT
 10
3465.2972169006089
 20
-3215.7181390188239
 30
0.0
 11
3473.907102266508
 21
-3198.0537300443038
 31
0.0
1001
ACDBBLOCKREPETAG
1070
     1
1071
      342
1005
145D9C
  0
ARC
  5
145D9D
  8
OBJECT
 10
3476.579695307315
 20
-3182.1289369828401
 30
0.0
 40
60.031113246032611
 50
314.070201304188
 51
322.3393610609063
1001
ACDBBLOCKREPETAG
1070
     1
1071
      343
1005
145D9D
  0
CIRCLE
  5
145D9E
  8
OBJECT
 10
3500.0
 20
-3174.999999999995
 30
0.0
 40
53.5
1001
ACDBBLOCKREPETAG
1070
     1
1071
      344
1005
145D9E
  0
POINT
  5
145D9F
  8
DOTS
 10
3500.0
 20
-3174.999999999995
 30
0.0
 50
270.0
1001
ACDBBLOCKREPETAG
1070
     1
1071
      362
1005
145D9F
  0
ARC
  5
145DA0
  8
OBJECT
 10
3500.0
 20
-3174.999999999995
 30
0.0
 40
50.0
 50
298.81994299999963
 51
228.52376955967549
1001
ACDBBLOCKREPETAG
1070
     1
1071
        7
1005
145DA0
  0
LINE
  5
145DA1
  8
CENTER
 10
3580.0
 20
-3174.999999999995
 30
0.0
 11
3405.0
 21
-3174.999999999995
 31
0.0
1001
ACDBBLOCKREPETAG
1070
     1
1071
       14
1005
145DA1
  0
LINE
  5
145DA2
  8
CENTER
 10
3500.0
 20
-3269.9999999999959
 30
0.0
 11
3500.0
 21
-3079.9999999999959
 31
0.0
1001
ACDBBLOCKREPETAG
1070
     1
1071
       15
1005
145DA2
  0
CIRCLE
  5
145DA3
  8
OBJECT
 10
3500.0
 20
-3174.999999999995
 30
0.0
 40
70.0
1001
ACDBBLOCKREPETAG
1070
     1
1071
       16
1005
145DA3
  0
CIRCLE
  5
145DA4
  8
OBJECT
 10
3500.0
 20
-3174.999999999995
 30
0.0
 40
77.0
1001
ACDBBLOCKREPETAG
1070
     1
1071
       17
1005
145DA4
  0
ARC
  5
145DA5
  8
OBJECT
 10
3500.0
 20
-3174.999999999995
 30
0.0
 40
80.0
 50
50.805032573862128
 51
309.19496742613791
1001
ACDBBLOCKREPETAG
1070
     1
1071
       18
1005
145DA5
  0
LINE
  5
145DA6
  8
OBJECT
 10
3545.6618002273249
 20
-3112.9999999999959
 30
0.0
 11
3580.0
 21
-3112.9999999999959
 31
0.0
1001
ACDBBLOCKREPETAG
1070
     1
1071
       19
1005
145DA6
  0
LINE
  5
145DA7
  8
OBJECT
 10
3545.6618002273249
 20
-3236.9999999999959
 30
0.0
 11
3580.0
 21
-3236.9999999999959
 31
0.0
1001
ACDBBLOCKREPETAG
1070
     1
1071
       20
1005
145DA7
  0
LINE
  5
145DA8
  8
CENTER
 10
3709.9999999999991
 20
-3527.9999999999968
 30
0.0
 11
3570.0
 21
-3527.9999999999968
 31
0.0
1001
ACDBBLOCKREPETAG
1070
     1
1071
      271
1005
145DA8
  0
LINE
  5
145DA9
  8
OBJECT
 10
3640.0
 20
-3568.9999999999959
 30
0.0
 11
3586.0
 21
-3568.9999999999959
 31
0.0
1001
ACDBBLOCKREPETAG
1070
     1
1071
      272
1005
145DA9
  0
LINE
  5
145DAA
  8
OBJECT
 10
3640.0
 20
-3486.9999999999959
 30
0.0
 11
3586.0000000000041
 21
-3486.9999999999959
 31
0.0
1001
ACDBBLOCKREPETAG
1070
     1
1071
      273
1005
145DAA
  0
LINE
  5
145DAB
  8
OBJECT
 10
3583.0
 20
-3458.9999999999968
 30
0.0
 11
3580.0
 21
-3458.9999999999968
 31
0.0
1001
ACDBBLOCKREPETAG
1070
     1
1071
      274
1005
145DAB
  0
ARC
  5
145DAC
  8
OBJECT
 10
3583.0
 20
-3461.9999999999959
 30
0.0
 40
3.0
 50
0.0
 51
90.0
1001
ACDBBLOCKREPETAG
1070
     1
1071
      275
1005
145DAC
  0
LINE
  5
145DAD
  8
OBJECT
 10
3580.0
 20
-3582.9999999999968
 30
0.0
 11
3583.0
 21
-3582.9999999999968
 31
0.0
1001
ACDBBLOCKREPETAG
1070
     1
1071
      276
1005
145DAD
  0
ARC
  5
145DAE
  8
OBJECT
 10
3583.0
 20
-3579.9999999999959
 30
0.0
 40
3.0
 50
270.0
 51
0.0
1001
ACDBBLOCKREPETAG
1070
     1
1071
      277
1005
145DAE
  0
LINE
  5
145DAF
  8
OBJECT
 10
3586.0
 20
-3579.9999999999959
 30
0.0
 11
3586.0
 21
-3461.9999999999959
 31
0.0
1001
ACDBBLOCKREPETAG
1070
     1
1071
      278
1005
145DAF
  0
ARC
  5
145DB0
  8
OBJECT
 10
3640.0
 20
-3527.9999999999968
 30
0.0
 40
55.0
 50
228.1981558069912
 51
250.98873473988641
1001
ACDBBLOCKREPETAG
1070
     1
1071
      280
1005
145DB0
  0
LINE
  5
145DB1
  8
OBJECT
 10
3622.0835271328319
 20
-3579.9999999999959
 30
0.0
 11
3657.9164728671672
 21
-3579.9999999999959
 31
0.0
1001
ACDBBLOCKREPETAG
1070
     1
1071
      281
1005
145DB1
  0
ARC
  5
145DB2
  8
OBJECT
 10
3640.0
 20
-3527.9999999999968
 30
0.0
 40
55.0
 50
289.01126526011359
 51
131.80184419298931
1001
ACDBBLOCKREPETAG
1070
     1
1071
      282
1005
145DB2
  0
LINE
  5
145DB3
  8
CENTER
 10
3640.0
 20
-3594.9999999999968
 30
0.0
 11
3640.0
 21
-3457.9999999999968
 31
0.0
1001
ACDBBLOCKREPETAG
1070
     1
1071
      283
1005
145DB3
  0
ARC
  5
145DB4
  8
OBJECT
 10
3640.0
 20
-3527.9999999999968
 30
0.0
 40
52.0
 50
232.04197141925991
 51
127.95802858074001
1001
ACDBBLOCKREPETAG
1070
     1
1071
      284
1005
145DB4
  0
ARC
  5
145DB5
  8
OBJECT
 10
3640.0
 20
-3527.9999999999968
 30
0.0
 40
47.5
 50
239.67302190325361
 51
120.3269780967464
1001
ACDBBLOCKREPETAG
1070
     1
1071
      285
1005
145DB5
  0
ARC
  5
145DB6
  8
OBJECT
 10
3640.0
 20
-3527.9999999999968
 30
0.0
 40
40.999999999999091
 50
270.0
 51
90.0
1001
ACDBBLOCKREPETAG
1070
     1
1071
      286
1005
145DB6
  0
LINE
  5
145DB7
  8
OBJECT
 10
3695.0
 20
-3081.999999999995
 30
0.0
 11
3695.0
 21
-3074.9999999999959
 31
0.0
1001
ACDBBLOCKREPETAG
1070
     1
1071
      299
1005
145DB7
  0
LINE
  5
145DB8
  8
OBJECT
 10
3695.0
 20
-3074.9999999999959
 30
0.0
 11
3584.9999999999991
 21
-3074.9999999999959
 31
0.0
1001
ACDBBLOCKREPETAG
1070
     1
1071
      300
1005
145DB8
  0
LINE
  5
145DB9
  8
OBJECT
 10
3584.9999999999991
 20
-3074.9999999999959
 30
0.0
 11
3584.9999999999991
 21
-3081.999999999995
 31
0.0
1001
ACDBBLOCKREPETAG
1070
     1
1071
      301
1005
145DB9
  0
LINE
  5
145DBA
  8
OBJECT
 10
3584.9999999999991
 20
-3081.999999999995
 30
0.0
 11
3695.0
 21
-3081.999999999995
 31
0.0
1001
ACDBBLOCKREPETAG
1070
     1
1071
      302
1005
145DBA
  0
LINE
  5
145DBB
  8
CENTER
 10
3683.287106642299
 20
-3174.999999999995
 30
0.0
 11
3580.0
 21
-3174.999999999995
 31
0.0
1001
ACDBBLOCKREPETAG
1070
     1
1071
      303
1005
145DBB
  0
LINE
  5
145DBC
  8
OBJECT
 10
3592.5000000000009
 20
-3133.9999999999991
 30
0.0
 11
3586.0
 21
-3133.9999999999918
 31
0.0
1001
ACDBBLOCKREPETAG
1070
     1
1071
      304
1005
145DBC
  0
LINE
  5
145DBD
  8
OBJECT
 10
3595.0
 20
-3215.9999999999959
 30
0.0
 11
3586.0
 21
-3215.9999999999959
 31
0.0
1001
ACDBBLOCKREPETAG
1070
     1
1071
      305
1005
145DBD
  0
LINE
  5
145DBE
  8
OBJECT
 10
3692.0
 20
-3081.999999999995
 30
0.0
 11
3692.0
 21
-3117.999999999995
 31
0.0
1001
ACDBBLOCKREPETAG
1070
     1
1071
      306
1005
145DBE
  0
LINE
  5
145DBF
  8
OBJECT
 10
3692.0
 20
-3117.999999999995
 30
0.0
 11
3588.0
 21
-3117.999999999995
 31
0.0
1001
ACDBBLOCKREPETAG
1070
     1
1071
      307
1005
145DBF
  0
LINE
  5
145DC0
  8
OBJECT
 10
3588.0
 20
-3117.999999999995
 30
0.0
 11
3588.0
 21
-3081.999999999995
 31
0.0
1001
ACDBBLOCKREPETAG
1070
     1
1071
      308
1005
145DC0
  0
LINE
  5
145DC1
  8
OBJECT
 10
3687.5
 20
-3121.9999999999959
 30
0.0
 11
3687.5
 21
-3134.9999999999959
 31
0.0
1001
ACDBBLOCKREPETAG
1070
     1
1071
      309
1005
145DC1
  0
LINE
  5
145DC2
  8
OBJECT
 10
3592.5000000000009
 20
-3134.9999999999959
 30
0.0
 11
3592.5000000000009
 21
-3121.9999999999959
 31
0.0
1001
ACDBBLOCKREPETAG
1070
     1
1071
      310
1005
145DC2
  0
LINE
  5
145DC3
  8
OBJECT
 10
3592.5000000000009
 20
-3121.9999999999959
 30
0.0
 11
3687.5
 21
-3121.9999999999959
 31
0.0
1001
ACDBBLOCKREPETAG
1070
     1
1071
      311
1005
145DC3
  0
LINE
  5
145DC4
  8
OBJECT
 10
3692.0
 20
-3117.999999999995
 30
0.0
 11
3687.5
 21
-3121.9999999999959
 31
0.0
1001
ACDBBLOCKREPETAG
1070
     1
1071
      312
1005
145DC4
  0
LINE
  5
145DC5
  8
OBJECT
 10
3588.0
 20
-3117.999999999995
 30
0.0
 11
3592.5000000000009
 21
-3121.9999999999959
 31
0.0
1001
ACDBBLOCKREPETAG
1070
     1
1071
      313
1005
145DC5
  0
LINE
  5
145DC6
  8
OBJECT
 10
3583.0
 20
-3236.9999999999959
 30
0.0
 11
3580.0
 21
-3236.9999999999959
 31
0.0
1001
ACDBBLOCKREPETAG
1070
     1
1071
      314
1005
145DC6
  0
ARC
  5
145DC7
  8
OBJECT
 10
3583.0
 20
-3233.999999999995
 30
0.0
 40
3.0
 50
270.0
 51
0.0
1001
ACDBBLOCKREPETAG
1070
     1
1071
      315
1005
145DC7
  0
LINE
  5
145DC8
  8
OBJECT
 10
3580.0
 20
-3112.9999999999959
 30
0.0
 11
3588.0
 21
-3112.9999999999959
 31
0.0
1001
ACDBBLOCKREPETAG
1070
     1
1071
      316
1005
145DC8
  0
ARC
  5
145DC9
  8
OBJECT
 10
3583.0
 20
-3115.9999999999959
 30
0.0
 40
3.0
 50
0.0
 51
90.0
1001
ACDBBLOCKREPETAG
1070
     1
1071
      317
1005
145DC9
  0
LINE
  5
145DCA
  8
OBJECT
 10
3586.0
 20
-3115.9999999999959
 30
0.0
 11
3586.0
 21
-3233.999999999995
 31
0.0
1001
ACDBBLOCKREPETAG
1070
     1
1071
      318
1005
145DCA
  0
LINE
  5
145DCB
  8
HIDDEN
 10
3677.9999999999991
 20
-3126.9999999999959
 30
0.0
 11
3602.0
 21
-3126.9999999999959
 31
0.0
1001
ACDBBLOCKREPETAG
1070
     1
1071
      319
1005
145DCB
  0
LINE
  5
145DCC
  8
OBJECT
 10
3592.499954593015
 20
-3135.0000043943969
 30
0.0
 11
3687.499954593015
 21
-3135.0000043943969
 31
0.0
1001
ACDBBLOCKREPETAG
1070
     1
1071
      321
1005
145DCC
  0
LINE
  5
145DCD
  8
CENTER
 10
3640.0
 20
-3059.9999999999959
 30
0.0
 11
3640.0
 21
-3218.2871066422949
 31
0.0
1001
ACDBBLOCKREPETAG
1070
     1
1071
      322
1005
145DCD
  0
ARC
  5
145DCE
  8
CENTER
 10
3595.0
 20
-3129.999999999995
 30
0.0
 40
45.0
 50
270.0
 51
0.0
1001
ACDBBLOCKREPETAG
1070
     1
1071
      323
1005
145DCE
  0
ARC
  5
145DCF
  8
OBJECT
 10
3595.0
 20
-3129.999999999995
 30
0.0
 40
86.0
 50
270.0
 51
356.6669675734484
1001
ACDBBLOCKREPETAG
1070
     1
1071
      324
1005
145DCF
  0
TEXT
  5
145DD0
  8
SLIM
 10
1819.7499999999991
 20
-3697.4999999999968
 30
0.0
 40
35.0
  1
エルボ枝50右回り（R1）
 41
0.75
  0
LINE
  5
145DD1
  8
OBJECT
 10
1923.0
 20
-3395.9999999999968
 30
0.0
 11
1923.0
 21
-3374.9999999999959
 31
0.0
1001
ACDBBLOCKREPETAG
1070
     1
1071
        0
1005
145DD1
  0
LINE
  5
145DD2
  8
OBJECT
 10
1923.0
 20
-3374.9999999999959
 30
0.0
 11
2076.9999999999991
 21
-3374.9999999999959
 31
0.0
1001
ACDBBLOCKREPETAG
1070
     1
1071
        1
1005
145DD2
  0
LINE
  5
145DD3
  8
HIDDEN
 10
1942.9999999999991
 20
-3444.9999999999968
 30
0.0
 11
2057.0
 21
-3444.9999999999968
 31
0.0
1001
ACDBBLOCKREPETAG
1070
     1
1071
        2
1005
145DD3
  0
LINE
  5
145DD4
  8
OBJECT
 10
2076.9999999999991
 20
-3374.9999999999959
 30
0.0
 11
2076.9999999999991
 21
-3395.9999999999968
 31
0.0
1001
ACDBBLOCKREPETAG
1070
     1
1071
        3
1005
145DD4
  0
LINE
  5
145DD5
  8
OBJECT
 10
2076.9999999999991
 20
-3395.9999999999968
 30
0.0
 11
1923.0
 21
-3395.9999999999968
 31
0.0
1001
ACDBBLOCKREPETAG
1070
     1
1071
        4
1005
145DD5
  0
LINE
  5
145DD6
  8
CENTER
 10
2000.0
 20
-3359.9999999999968
 30
0.0
 11
2000.0
 21
-3594.9999999999968
 31
0.0
1001
ACDBBLOCKREPETAG
1070
     1
1071
        5
1005
145DD6
  0
LINE
  5
145DD7
  8
OBJECT
 10
1925.0
 20
-3458.9999999999968
 30
0.0
 11
1925.0
 21
-3582.9999999999968
 31
0.0
1001
ACDBBLOCKREPETAG
1070
     1
1071
        6
1005
145DD7
  0
LINE
  5
145DD8
  8
OBJECT
 10
1928.0
 20
-3395.9999999999968
 30
0.0
 11
1928.0
 21
-3458.9999999999968
 31
0.0
1001
ACDBBLOCKREPETAG
1070
     1
1071
        7
1005
145DD8
  0
LINE
  5
145DD9
  8
OBJECT
 10
2072.0
 20
-3458.9999999999968
 30
0.0
 11
2072.0
 21
-3395.9999999999968
 31
0.0
1001
ACDBBLOCKREPETAG
1070
     1
1071
        8
1005
145DD9
  0
LINE
  5
145DDA
  8
OBJECT
 10
2074.999999999799
 20
-3582.9999999997758
 30
0.0
 11
2080.0
 21
-3582.9999999999968
 31
0.0
1001
ACDBBLOCKREPETAG
1070
     1
1071
        9
1005
145DDA
  0
LINE
  5
145DDB
  8
OBJECT
 10
2080.0
 20
-3458.9999999999968
 30
0.0
 11
1925.0
 21
-3458.9999999999968
 31
0.0
1001
ACDBBLOCKREPETAG
1070
     1
1071
       10
1005
145DDB
  0
ARC
  5
145DDC
  8
OBJECT
 10
2200.6872746716722
 20
-3574.4080994101041
 30
0.0
 40
170.6350503965856
 50
137.44134459184301
 51
149.91949581335999
1001
ACDBBLOCKREPETAG
1070
     1
1071
       15
1005
145DDC
  0
ARC
  5
145DDD
  8
OBJECT
 10
2118.8455987040511
 20
-3530.8827266953631
 30
0.0
 40
78.072222021763665
 50
147.45515310377539
 51
164.663659977186
1001
ACDBBLOCKREPETAG
1070
     1
1071
       16
1005
145DDD
  0
ARC
  5
145DDE
  8
OBJECT
 10
2085.7554349608722
 20
-3520.9999999999968
 30
0.0
 40
43.55353926885617
 50
165.6884523008477
 51
194.3115476991523
1001
ACDBBLOCKREPETAG
1070
     1
1071
       17
1005
145DDE
  0
ARC
  5
145DDF
  8
OBJECT
 10
2200.6872746716722
 20
-3467.5919005898882
 30
0.0
 40
170.6350503965856
 50
210.08050418664001
 51
222.55865540815699
1001
ACDBBLOCKREPETAG
1070
     1
1071
       18
1005
145DDF
  0
ARC
  5
145DE0
  8
OBJECT
 10
2118.8455987040511
 20
-3511.1172733046319
 30
0.0
 40
78.072222021763665
 50
195.33634002281391
 51
212.54484689622461
1001
ACDBBLOCKREPETAG
1070
     1
1071
       19
1005
145DE0
  0
POINT
  5
145DE1
  8
DOTS
 10
2000.0
 20
-3579.9999999999959
 30
0.0
1001
ACDBBLOCKREPETAG
1070
     1
1071
      186
1005
145DE1
  0
LINE
  5
145DE2
  8
OBJECT
 10
2024.1029330933011
 20
-3218.8069471237131
 30
0.0
 11
2020.6596569999961
 21
-3207.5546219999951
 31
0.0
1001
ACDBBLOCKREPETAG
1070
     1
1071
      300
1005
145DE2
  0
LINE
  5
145DE3
  8
OBJECT
 10
1986.792749901374
 20
-3193.225533742077
 30
0.0
 11
2020.6596569999961
 21
-3207.5546219999951
 31
0.0
1001
ACDBBLOCKREPETAG
1070
     1
1071
      302
1005
145DE3
  0
ARC
  5
145DE4
  8
OBJECT
 10
1982.8961697619
 20
-3202.4351299990531
 30
0.0
 40
10.0
 50
67.066778292924639
 51
154.01473437029199
1001
ACDBBLOCKREPETAG
1070
     1
1071
      303
1005
145DE4
  0
ARC
  5
145DE5
  8
OBJECT
 10
1986.1488390381271
 20
-3200.553862567288
 30
0.0
 40
7.0
 50
67.066778292924639
 51
154.01473377496239
1001
ACDBBLOCKREPETAG
1070
     1
1071
      304
1005
145DE5
  0
LINE
  5
145DE6
  8
OBJECT
 10
1969.4199755553
 20
-3218.8988850081791
 30
0.0
 11
1979.856491823236
 21
-3197.4868825335639
 31
0.0
1001
ACDBBLOCKREPETAG
1070
     1
1071
      341
1005
145DE6
  0
LINE
  5
145DE7
  8
OBJECT
 10
1965.297216900608
 20
-3215.7181390188239
 30
0.0
 11
1973.907102266508
 21
-3198.0537300443038
 31
0.0
1001
ACDBBLOCKREPETAG
1070
     1
1071
      342
1005
145DE7
  0
ARC
  5
145DE8
  8
OBJECT
 10
1976.5796953073141
 20
-3182.1289369828401
 30
0.0
 40
60.031113246032611
 50
314.070201304188
 51
322.3393610609063
1001
ACDBBLOCKREPETAG
1070
     1
1071
      343
1005
145DE8
  0
CIRCLE
  5
145DE9
  8
OBJECT
 10
2000.0
 20
-3174.999999999995
 30
0.0
 40
53.5
1001
ACDBBLOCKREPETAG
1070
     1
1071
      344
1005
145DE9
  0
POINT
  5
145DEA
  8
DOTS
 10
2000.0
 20
-3174.999999999995
 30
0.0
 50
270.0
1001
ACDBBLOCKREPETAG
1070
     1
1071
      362
1005
145DEA
  0
ARC
  5
145DEB
  8
OBJECT
 10
2000.0
 20
-3174.999999999995
 30
0.0
 40
50.0
 50
298.81994299999963
 51
228.52376955967549
1001
ACDBBLOCKREPETAG
1070
     1
1071
        7
1005
145DEB
  0
LINE
  5
145DEC
  8
CENTER
 10
2080.0
 20
-3174.999999999995
 30
0.0
 11
1905.0
 21
-3174.999999999995
 31
0.0
1001
ACDBBLOCKREPETAG
1070
     1
1071
       14
1005
145DEC
  0
LINE
  5
145DED
  8
CENTER
 10
2000.0
 20
-3269.9999999999959
 30
0.0
 11
2000.0
 21
-3079.9999999999959
 31
0.0
1001
ACDBBLOCKREPETAG
1070
     1
1071
       15
1005
145DED
  0
CIRCLE
  5
145DEE
  8
OBJECT
 10
2000.0
 20
-3174.999999999995
 30
0.0
 40
70.0
1001
ACDBBLOCKREPETAG
1070
     1
1071
       16
1005
145DEE
  0
CIRCLE
  5
145DEF
  8
OBJECT
 10
2000.0
 20
-3174.999999999995
 30
0.0
 40
77.0
1001
ACDBBLOCKREPETAG
1070
     1
1071
       17
1005
145DEF
  0
ARC
  5
145DF0
  8
OBJECT
 10
2000.0
 20
-3174.999999999995
 30
0.0
 40
80.0
 50
50.805032573862128
 51
309.19496742613791
1001
ACDBBLOCKREPETAG
1070
     1
1071
       18
1005
145DF0
  0
LINE
  5
145DF1
  8
OBJECT
 10
2045.661800227324
 20
-3112.9999999999959
 30
0.0
 11
2080.0
 21
-3112.9999999999959
 31
0.0
1001
ACDBBLOCKREPETAG
1070
     1
1071
       19
1005
145DF1
  0
LINE
  5
145DF2
  8
OBJECT
 10
2045.661800227324
 20
-3236.9999999999959
 30
0.0
 11
2080.0
 21
-3236.9999999999959
 31
0.0
1001
ACDBBLOCKREPETAG
1070
     1
1071
       20
1005
145DF2
  0
LINE
  5
145DF3
  8
CENTER
 10
2201.9999999999991
 20
-3535.9999999999959
 30
0.0
 11
2071.0
 21
-3535.9999999999959
 31
0.0
1001
ACDBBLOCKREPETAG
1070
     1
1071
      255
1005
145DF3
  0
LINE
  5
145DF4
  8
OBJECT
 10
2083.0
 20
-3458.9999999999968
 30
0.0
 11
2080.0
 21
-3458.9999999999968
 31
0.0
1001
ACDBBLOCKREPETAG
1070
     1
1071
      256
1005
145DF4
  0
LINE
  5
145DF5
  8
OBJECT
 10
2080.0
 20
-3582.9999999999968
 30
0.0
 11
2083.0
 21
-3582.9999999999968
 31
0.0
1001
ACDBBLOCKREPETAG
1070
     1
1071
      257
1005
145DF5
  0
ARC
  5
145DF6
  8
OBJECT
 10
2083.0
 20
-3461.9999999999959
 30
0.0
 40
3.0
 50
0.0
 51
90.0
1001
ACDBBLOCKREPETAG
1070
     1
1071
      258
1005
145DF6
  0
ARC
  5
145DF7
  8
OBJECT
 10
2083.0
 20
-3579.9999999999959
 30
0.0
 40
3.0
 50
270.0
 51
0.0
1001
ACDBBLOCKREPETAG
1070
     1
1071
      259
1005
145DF7
  0
LINE
  5
145DF8
  8
OBJECT
 10
2086.0
 20
-3579.9999999999959
 30
0.0
 11
2086.0
 21
-3461.9999999999959
 31
0.0
1001
ACDBBLOCKREPETAG
1070
     1
1071
      260
1005
145DF8
  0
ARC
  5
145DF9
  8
OBJECT
 10
2140.0
 20
-3535.9999999999959
 30
0.0
 40
47.0
 50
225.4604091749145
 51
249.41803078833331
1001
ACDBBLOCKREPETAG
1070
     1
1071
      262
1005
145DF9
  0
ARC
  5
145DFA
  8
OBJECT
 10
2140.0
 20
-3535.9999999999959
 30
0.0
 40
47.0
 50
290.58196921166677
 51
134.5395908250855
1001
ACDBBLOCKREPETAG
1070
     1
1071
      263
1005
145DFA
  0
LINE
  5
145DFB
  8
OBJECT
 10
2123.4772883581418
 20
-3579.9999999999959
 30
0.0
 11
2156.5227116418569
 21
-3579.9999999999959
 31
0.0
1001
ACDBBLOCKREPETAG
1070
     1
1071
      264
1005
145DFB
  0
LINE
  5
145DFC
  8
OBJECT
 10
2140.0
 20
-3569.4999999999968
 30
0.0
 11
2086.0000098589289
 21
-3569.4999999999968
 31
0.0
1001
ACDBBLOCKREPETAG
1070
     1
1071
      265
1005
145DFC
  0
LINE
  5
145DFD
  8
OBJECT
 10
2140.0
 20
-3502.4999999999959
 30
0.0
 11
2086.0
 21
-3502.4999999999959
 31
0.0
1001
ACDBBLOCKREPETAG
1070
     1
1071
      266
1005
145DFD
  0
LINE
  5
145DFE
  8
CENTER
 10
2140.0
 20
-3594.9999999999968
 30
0.0
 11
2140.0
 21
-3473.9999999999968
 31
0.0
1001
ACDBBLOCKREPETAG
1070
     1
1071
      267
1005
145DFE
  0
ARC
  5
145DFF
  8
OBJECT
 10
2140.0
 20
-3535.9999999999959
 30
0.0
 40
44.0
 50
229.5845609786216
 51
130.4154390213784
1001
ACDBBLOCKREPETAG
1070
     1
1071
      268
1005
145DFF
  0
ARC
  5
145E00
  8
OBJECT
 10
2140.0
 20
-3535.9999999999959
 30
0.0
 40
39.5
 50
238.0057492569876
 51
121.9942507430124
1001
ACDBBLOCKREPETAG
1070
     1
1071
      269
1005
145E00
  0
ARC
  5
145E01
  8
OBJECT
 10
2140.0
 20
-3535.9999999999959
 30
0.0
 40
33.5
 50
270.0
 51
90.0
1001
ACDBBLOCKREPETAG
1070
     1
1071
      270
1005
145E01
  0
LINE
  5
145E02
  8
OBJECT
 10
2187.0
 20
-3081.999999999995
 30
0.0
 11
2187.0
 21
-3074.9999999999959
 31
0.0
1001
ACDBBLOCKREPETAG
1070
     1
1071
      268
1005
145E02
  0
LINE
  5
145E03
  8
OBJECT
 10
2187.0
 20
-3074.9999999999959
 30
0.0
 11
2092.9999999999991
 21
-3074.9999999999959
 31
0.0
1001
ACDBBLOCKREPETAG
1070
     1
1071
      269
1005
145E03
  0
LINE
  5
145E04
  8
OBJECT
 10
2092.9999999999991
 20
-3074.9999999999959
 30
0.0
 11
2092.9999999999991
 21
-3081.999999999995
 31
0.0
1001
ACDBBLOCKREPETAG
1070
     1
1071
      270
1005
145E04
  0
LINE
  5
145E05
  8
OBJECT
 10
2092.9999999999991
 20
-3081.999999999995
 30
0.0
 11
2187.0
 21
-3081.999999999995
 31
0.0
1001
ACDBBLOCKREPETAG
1070
     1
1071
      271
1005
145E05
  0
LINE
  5
145E06
  8
CENTER
 10
2140.0
 20
-3059.9999999999959
 30
0.0
 11
2140.0
 21
-3213.4495584508318
 31
0.0
1001
ACDBBLOCKREPETAG
1070
     1
1071
      272
1005
145E06
  0
ARC
  5
145E07
  8
CENTER
 10
2104.0
 20
-3138.9999999999918
 30
0.0
 40
36.0
 50
270.0
 51
0.0
1001
ACDBBLOCKREPETAG
1070
     1
1071
      273
1005
145E07
  0
LINE
  5
145E08
  8
OBJECT
 10
2184.0
 20
-3081.999999999995
 30
0.0
 11
2184.0
 21
-3117.999999999995
 31
0.0
1001
ACDBBLOCKREPETAG
1070
     1
1071
      274
1005
145E08
  0
LINE
  5
145E09
  8
OBJECT
 10
2184.0
 20
-3117.999999999995
 30
0.0
 11
2096.0
 21
-3117.999999999995
 31
0.0
1001
ACDBBLOCKREPETAG
1070
     1
1071
      275
1005
145E09
  0
LINE
  5
145E0A
  8
OBJECT
 10
2096.0
 20
-3117.999999999995
 30
0.0
 11
2096.0
 21
-3081.999999999995
 31
0.0
1001
ACDBBLOCKREPETAG
1070
     1
1071
      276
1005
145E0A
  0
LINE
  5
145E0B
  8
OBJECT
 10
2179.4999999999991
 20
-3121.9999999999959
 30
0.0
 11
2179.4999999999991
 21
-3134.9999999999959
 31
0.0
1001
ACDBBLOCKREPETAG
1070
     1
1071
      277
1005
145E0B
  0
LINE
  5
145E0C
  8
OBJECT
 10
2100.5
 20
-3134.9999999999959
 30
0.0
 11
2100.5
 21
-3121.9999999999959
 31
0.0
1001
ACDBBLOCKREPETAG
1070
     1
1071
      278
1005
145E0C
  0
LINE
  5
145E0D
  8
OBJECT
 10
2100.5
 20
-3121.9999999999959
 30
0.0
 11
2179.4999999999991
 21
-3121.9999999999959
 31
0.0
1001
ACDBBLOCKREPETAG
1070
     1
1071
      279
1005
145E0D
  0
LINE
  5
145E0E
  8
OBJECT
 10
2184.0
 20
-3117.999999999995
 30
0.0
 11
2179.4999999999991
 21
-3121.9999999999959
 31
0.0
1001
ACDBBLOCKREPETAG
1070
     1
1071
      280
1005
145E0E
  0
LINE
  5
145E0F
  8
OBJECT
 10
2096.0
 20
-3117.999999999995
 30
0.0
 11
2100.5
 21
-3121.9999999999959
 31
0.0
1001
ACDBBLOCKREPETAG
1070
     1
1071
      281
1005
145E0F
  0
LINE
  5
145E10
  8
HIDDEN
 10
2169.9999999999991
 20
-3126.9999999999959
 30
0.0
 11
2109.9999999999991
 21
-3126.9999999999959
 31
0.0
1001
ACDBBLOCKREPETAG
1070
     1
1071
      282
1005
145E10
  0
LINE
  5
145E11
  8
OBJECT
 10
2083.0
 20
-3112.9999999999959
 30
0.0
 11
2080.0
 21
-3112.9999999999959
 31
0.0
1001
ACDBBLOCKREPETAG
1070
     1
1071
      284
1005
145E11
  0
ARC
  5
145E12
  8
OBJECT
 10
2083.0
 20
-3115.9999999999959
 30
0.0
 40
3.0
 50
0.0
 51
90.0
1001
ACDBBLOCKREPETAG
1070
     1
1071
      285
1005
145E12
  0
LINE
  5
145E13
  8
OBJECT
 10
2080.0
 20
-3236.9999999999959
 30
0.0
 11
2083.0
 21
-3236.9999999999959
 31
0.0
1001
ACDBBLOCKREPETAG
1070
     1
1071
      286
1005
145E13
  0
ARC
  5
145E14
  8
OBJECT
 10
2083.0
 20
-3233.999999999995
 30
0.0
 40
3.0
 50
270.0
 51
0.0
1001
ACDBBLOCKREPETAG
1070
     1
1071
      287
1005
145E14
  0
LINE
  5
145E15
  8
OBJECT
 10
2086.0
 20
-3233.999999999995
 30
0.0
 11
2086.0
 21
-3115.9999999999959
 31
0.0
1001
ACDBBLOCKREPETAG
1070
     1
1071
      288
1005
145E15
  0
LINE
  5
145E16
  8
OBJECT
 10
2100.499996373258
 20
-3134.9999244786109
 30
0.0
 11
2179.4999963732589
 21
-3134.9999244786109
 31
0.0
1001
ACDBBLOCKREPETAG
1070
     1
1071
      290
1005
145E16
  0
LINE
  5
145E17
  8
CENTER
 10
2178.44955845084
 20
-3174.9999999999918
 30
0.0
 11
2080.0
 21
-3174.999999999995
 31
0.0
1001
ACDBBLOCKREPETAG
1070
     1
1071
      291
1005
145E17
  0
LINE
  5
145E18
  8
OBJECT
 10
2096.0
 20
-3115.9999999999959
 30
0.0
 11
2086.0
 21
-3115.9999999999918
 31
0.0
1001
ACDBBLOCKREPETAG
1070
     1
1071
      292
1005
145E18
  0
LINE
  5
145E19
  8
OBJECT
 10
2101.5
 20
-3141.4999999999932
 30
0.0
 11
2086.0
 21
-3141.4999999999959
 31
0.0
1001
ACDBBLOCKREPETAG
1070
     1
1071
      293
1005
145E19
  0
LINE
  5
145E1A
  8
OBJECT
 10
2104.0
 20
-3208.4999999999918
 30
0.0
 11
2086.0
 21
-3208.4999999999918
 31
0.0
1001
ACDBBLOCKREPETAG
1070
     1
1071
      294
1005
145E1A
  0
LINE
  5
145E1B
  8
OBJECT
 10
2106.5
 20
-3134.9999244786109
 30
0.0
 11
2106.5
 21
-3136.4999999999932
 31
0.0
1001
ACDBBLOCKREPETAG
1070
     1
1071
      295
1005
145E1B
  0
ARC
  5
145E1C
  8
OBJECT
 10
2101.5
 20
-3136.4999999999932
 30
0.0
 40
5.0
 50
270.0
 51
0.0
1001
ACDBBLOCKREPETAG
1070
     1
1071
      296
1005
145E1C
  0
LINE
  5
145E1D
  8
OBJECT
 10
2173.5
 20
-3134.9999244786109
 30
0.0
 11
2173.5
 21
-3138.9999999999918
 31
0.0
1001
ACDBBLOCKREPETAG
1070
     1
1071
      297
1005
145E1D
  0
ARC
  5
145E1E
  8
OBJECT
 10
2104.0
 20
-3138.9999999999918
 30
0.0
 40
69.5
 50
270.0
 51
0.0
1001
ACDBBLOCKREPETAG
1070
     1
1071
      298
1005
145E1E
  0
TEXT
  5
145E1F
  8
SLIM
 10
2617.142857142856
 20
-3189.9999999999959
 30
0.0
 40
40.0
  1
F寸法
 41
0.75
  0
TEXT
  5
145E20
  8
SLIM
 10
3013.2857142857151
 20
-3189.9999999999959
 30
0.0
 40
40.0
  1
150
 41
0.75
  0
TEXT
  5
145E21
  8
SLIM
 10
2753.2857142857151
 20
-3189.9999999999959
 30
0.0
 40
40.0
  1
140
 41
0.75
  0
TEXT
  5
145E22
  8
SLIM
 10
2883.2857142857151
 20
-3189.9999999999959
 30
0.0
 40
40.0
  1
140
 41
0.75
  0
TEXT
  5
145E23
  8
SLIM
 10
2616.4285714285711
 20
-3119.9999999999959
 30
0.0
 40
40.0
  1
E寸法
 41
0.75
  0
TEXT
  5
145E24
  8
SLIM
 10
3013.2857142857151
 20
-3119.9999999999959
 30
0.0
 40
40.0
  1
212
 41
0.75
  0
TEXT
  5
145E25
  8
SLIM
 10
2753.2857142857151
 20
-3119.9999999999959
 30
0.0
 40
40.0
  1
187
 41
0.75
  0
TEXT
  5
145E26
  8
SLIM
 10
2883.2857142857151
 20
-3119.9999999999959
 30
0.0
 40
40.0
  1
195
 41
0.75
  0
TEXT
  5
145E27
  8
SLIM
 10
2615.0
 20
-3049.999999999995
 30
0.0
 40
40.0
  1
D寸法
 41
0.75
  0
TEXT
  5
145E28
  8
SLIM
 10
3016.1428571428569
 20
-3049.999999999995
 30
0.0
 40
40.0
  1
110
 41
0.75
  0
TEXT
  5
145E29
  8
SLIM
 10
2753.2857142857151
 20
-3049.999999999995
 30
0.0
 40
40.0
  1
100
 41
0.75
  0
TEXT
  5
145E2A
  8
SLIM
 10
2883.2857142857151
 20
-3049.999999999995
 30
0.0
 40
40.0
  1
100
 41
0.75
  0
TEXT
  5
145E2B
  8
SLIM
 10
2615.0
 20
-2979.999999999995
 30
0.0
 40
40.0
  1
B寸法
 41
0.75
  0
TEXT
  5
145E2C
  8
SLIM
 10
2614.2857142857142
 20
-2909.9999999999959
 30
0.0
 40
40.0
  1
A寸法
 41
0.75
  0
TEXT
  5
145E2D
  8
SLIM
 10
3154.7142857142858
 20
-2979.999999999995
 30
0.0
 40
40.0
  1
72
 41
0.75
  0
TEXT
  5
145E2E
  8
SLIM
 10
3025.4285714285711
 20
-2979.999999999995
 30
0.0
 40
40.0
  1
59
 41
0.75
  0
TEXT
  5
145E2F
  8
SLIM
 10
2764.0
 20
-2979.999999999995
 30
0.0
 40
40.0
  1
44
 41
0.75
  0
TEXT
  5
145E30
  8
SLIM
 10
2894.7142857142858
 20
-2979.999999999995
 30
0.0
 40
40.0
  1
52
 41
0.75
  0
TEXT
  5
145E31
  8
SLIM
 10
2875.0
 20
-2784.9999999999959
 30
0.0
 40
40.0
  1
横枝管サイズ
 41
0.75
  0
TEXT
  5
145E32
  8
SLIM
 10
3120.2857142857151
 20
-2839.9999999999959
 30
0.0
 40
30.0
  1
100（4）
 41
0.75
  0
TEXT
  5
145E33
  8
SLIM
 10
2998.8571428571422
 20
-2839.9999999999959
 30
0.0
 40
30.0
  1
75（3）
 41
0.75
  0
TEXT
  5
145E34
  8
SLIM
 10
2868.8571428571422
 20
-2839.9999999999959
 30
0.0
 40
30.0
  1
65（2）
 41
0.75
  0
TEXT
  5
145E35
  8
SLIM
 10
2741.0
 20
-2839.9999999999959
 30
0.0
 40
30.0
  1
50（1）
 41
0.75
  0
TEXT
  5
145E36
  8
SLIM
 10
3143.2857142857151
 20
-2909.9999999999959
 30
0.0
 40
40.0
  1
150
 41
0.75
  0
TEXT
  5
145E37
  8
SLIM
 10
3012.571428571428
 20
-2909.9999999999959
 30
0.0
 40
40.0
  1
124
 41
0.75
  0
TEXT
  5
145E38
  8
SLIM
 10
2764.0
 20
-2909.9999999999959
 30
0.0
 40
40.0
  1
94
 41
0.75
  0
TEXT
  5
145E39
  8
SLIM
 10
2886.1428571428569
 20
-2909.9999999999959
 30
0.0
 40
40.0
  1
110
 41
0.75
  0
TEXT
  5
145E3A
  8
SLIM
 10
1849.9999999999991
 20
-2712.5
 30
0.0
 40
75.0
  1
枝管サイズ毎の形状
 41
0.75
  0
TEXT
  5
145E3B
  8
SLIM
 10
0.0000035665234464
 20
24.000004585317601
 30
0.0
 40
79.999999999972701
  1
枝管バリエーション
 41
0.75
1001
ACDBBLOCKREPETAG
1070
     1
1071
      119
1005
11E9B0
  0
LINE
  5
145E3C
  8
SLIM
 10
11914.999999999991
 20
-765.19743878931502
 30
0.0
 11
11925.197438789301
 21
-755.0
 31
0.0
1001
ACAD
1010
0.0
1020
0.0
1030
0.0
1001
ACDBBLOCKREPETAG
1070
     1
1071
       10
1005
145E3C
  0
LINE
  5
145E3D
  8
SLIM
 10
11914.999999999991
 20
-783.15795103145183
 30
0.0
 11
11943.15795103144
 21
-755.0
 31
0.0
1001
ACAD
1010
0.0
1020
0.0
1030
0.0
1001
ACDBBLOCKREPETAG
1070
     1
1071
       11
1005
145E3D
  0
LINE
  5
145E3E
  8
SLIM
 10
11915.0
 20
-801.11846327358853
 30
0.0
 11
11961.11846327358
 21
-755.0
 31
0.0
1001
ACAD
1010
0.0
1020
0.0
1030
0.0
1001
ACDBBLOCKREPETAG
1070
     1
1071
       12
1005
145E3E
  0
LINE
  5
145E3F
  8
SLIM
 10
11915.0
 20
-819.07897551572592
 30
0.0
 11
11979.07897551572
 21
-755.0
 31
0.0
1001
ACAD
1010
0.0
1020
0.0
1030
0.0
1001
ACDBBLOCKREPETAG
1070
     1
1071
       13
1005
145E3F
  0
LINE
  5
145E40
  8
SLIM
 10
11915.0
 20
-837.03948775786273
 30
0.0
 11
11997.03948775786
 21
-755.0
 31
0.0
1001
ACAD
1010
0.0
1020
0.0
1030
0.0
1001
ACDBBLOCKREPETAG
1070
     1
1071
       14
1005
145E40
  0
LINE
  5
145E41
  8
SLIM
 10
11915.28360074955
 20
-854.71639925044224
 30
0.0
 11
12015.0
 21
-755.0
 31
0.0
1001
ACAD
1010
0.0
1020
0.0
1030
0.0
1001
ACDBBLOCKREPETAG
1070
     1
1071
       15
1005
145E41
  0
LINE
  5
145E42
  8
SLIM
 10
11917.49791047804
 20
-870.46260176409714
 30
0.0
 11
12032.96051224214
 21
-755.0
 31
0.0
1001
ACAD
1010
0.0
1020
0.0
1030
0.0
1001
ACDBBLOCKREPETAG
1070
     1
1071
       16
1005
145E42
  0
LINE
  5
145E43
  8
SLIM
 10
11919.71222020652
 20
-886.20880427775273
 30
0.0
 11
12050.921024484271
 21
-755.0
 31
0.0
1001
ACAD
1010
0.0
1020
0.0
1030
0.0
1001
ACDBBLOCKREPETAG
1070
     1
1071
       17
1005
145E43
  0
LINE
  5
145E44
  8
SLIM
 10
11921.926529935001
 20
-901.95500679140798
 30
0.0
 11
12068.881536726411
 21
-755.0
 31
0.0
1001
ACAD
1010
0.0
1020
0.0
1030
0.0
1001
ACDBBLOCKREPETAG
1070
     1
1071
       18
1005
145E44
  0
LINE
  5
145E45
  8
SLIM
 10
11924.140839663491
 20
-917.70120930506334
 30
0.0
 11
12085.000000000009
 21
-756.84204896854612
 31
0.0
1001
ACAD
1010
0.0
1020
0.0
1030
0.0
1001
ACDBBLOCKREPETAG
1070
     1
1071
       19
1005
145E45
  0
LINE
  5
145E46
  8
SLIM
 10
11926.35514939196
 20
-933.44741181871859
 30
0.0
 11
12085.0
 21
-774.80256121068555
 31
0.0
1001
ACAD
1010
0.0
1020
0.0
1030
0.0
1001
ACDBBLOCKREPETAG
1070
     1
1071
       20
1005
145E46
  0
LINE
  5
145E47
  8
SLIM
 10
11928.56945912045
 20
-949.19361433237441
 30
0.0
 11
12085.0
 21
-792.76307345282544
 31
0.0
1001
ACAD
1010
0.0
1020
0.0
1030
0.0
1001
ACDBBLOCKREPETAG
1070
     1
1071
       21
1005
145E47
  0
LINE
  5
145E48
  8
SLIM
 10
11930.78376884894
 20
-964.93981684602954
 30
0.0
 11
12085.0
 21
-810.7235856949651
 31
0.0
1001
ACAD
1010
0.0
1020
0.0
1030
0.0
1001
ACDBBLOCKREPETAG
1070
     1
1071
       22
1005
145E48
  0
LINE
  5
145E49
  8
SLIM
 10
11932.998078577421
 20
-980.68601935968502
 30
0.0
 11
12085.0
 21
-828.68409793710464
 31
0.0
1001
ACAD
1010
0.0
1020
0.0
1030
0.0
1001
ACDBBLOCKREPETAG
1070
     1
1071
       23
1005
145E49
  0
LINE
  5
145E4A
  8
SLIM
 10
11932.999999999991
 20
-998.64461017925203
 30
0.0
 11
12085.0
 21
-846.64461017924395
 31
0.0
1001
ACAD
1010
0.0
1020
0.0
1030
0.0
1001
ACDBBLOCKREPETAG
1070
     1
1071
       24
1005
145E4A
  0
LINE
  5
145E4B
  8
SLIM
 10
11932.999999999991
 20
-1016.60512242139
 30
0.0
 11
12083.05183715436
 21
-866.55328526701692
 31
0.0
1001
ACAD
1010
0.0
1020
0.0
1030
0.0
1001
ACDBBLOCKREPETAG
1070
     1
1071
       25
1005
145E4B
  0
LINE
  5
145E4C
  8
SLIM
 10
11942.565634663521
 20
-1024.9999999999959
 30
0.0
 11
12080.112844242019
 21
-887.45279042150412
 31
0.0
1001
ACAD
1010
0.0
1020
0.0
1030
0.0
1001
ACDBBLOCKREPETAG
1070
     1
1071
       26
1005
145E4C
  0
LINE
  5
145E4D
  8
SLIM
 10
11960.52614690566
 20
-1024.999999999997
 30
0.0
 11
12077.17385132967
 21
-908.35229557599155
 31
0.0
1001
ACAD
1010
0.0
1020
0.0
1030
0.0
1001
ACDBBLOCKREPETAG
1070
     1
1071
       27
1005
145E4D
  0
LINE
  5
145E4E
  8
SLIM
 10
11978.4866591478
 20
-1024.999999999997
 30
0.0
 11
12074.23485841732
 21
-929.25180073047886
 31
0.0
1001
ACAD
1010
0.0
1020
0.0
1030
0.0
1001
ACDBBLOCKREPETAG
1070
     1
1071
       28
1005
145E4E
  0
LINE
  5
145E4F
  8
SLIM
 10
11996.44717138994
 20
-1024.999999999998
 30
0.0
 11
12071.29586550497
 21
-950.15130588496618
 31
0.0
1001
ACAD
1010
0.0
1020
0.0
1030
0.0
1001
ACDBBLOCKREPETAG
1070
     1
1071
       29
1005
145E4F
  0
LINE
  5
145E50
  8
SLIM
 10
12014.40768363208
 20
-1024.999999999998
 30
0.0
 11
12068.35687259262
 21
-971.05081103945361
 31
0.0
1001
ACAD
1010
0.0
1020
0.0
1030
0.0
1001
ACDBBLOCKREPETAG
1070
     1
1071
       30
1005
145E50
  0
LINE
  5
145E51
  8
SLIM
 10
12032.368195874211
 20
-1024.9999999999991
 30
0.0
 11
12067.0
 21
-990.36819587420166
 31
0.0
1001
ACAD
1010
0.0
1020
0.0
1030
0.0
1001
ACDBBLOCKREPETAG
1070
     1
1071
       31
1005
145E51
  0
LINE
  5
145E52
  8
SLIM
 10
12050.328708116351
 20
-1024.9999999999991
 30
0.0
 11
12067.0
 21
-1008.32870811634
 31
0.0
1001
ACAD
1010
0.0
1020
0.0
1030
0.0
1001
ACDBBLOCKREPETAG
1070
     1
1071
       32
1005
145E52
  0
LINE
  5
145E53
  8
OBJECT
 10
11932.999999999991
 20
-1024.9999999999959
 30
0.0
 11
12067.0
 21
-1025.0
 31
0.0
1001
ACDBBLOCKREPETAG
1070
     1
1071
        1
1005
145E53
  0
LINE
  5
145E54
  8
OBJECT
 10
11914.999999999991
 20
-755.0
 30
0.0
 11
11915.0
 21
-852.69968280914156
 31
0.0
1001
ACDBBLOCKREPETAG
1070
     1
1071
        2
1005
145E54
  0
LINE
  5
145E55
  8
OBJECT
 10
12085.000000000009
 20
-755.0
 30
0.0
 11
12085.0
 21
-852.69968280917203
 31
0.0
1001
ACDBBLOCKREPETAG
1070
     1
1071
        3
1005
145E55
  0
LINE
  5
145E56
  8
OBJECT
 10
11915.0
 20
-852.69968280914156
 30
0.0
 11
11932.999999999991
 21
-980.69968280908154
 31
0.0
1001
ACDBBLOCKREPETAG
1070
     1
1071
        4
1005
145E56
  0
LINE
  5
145E57
  8
OBJECT
 10
12067.0
 20
-980.69968280912872
 30
0.0
 11
12085.0
 21
-852.69968280917203
 31
0.0
1001
ACDBBLOCKREPETAG
1070
     1
1071
        5
1005
145E57
  0
LINE
  5
145E58
  8
OBJECT
 10
12085.000000000009
 20
-755.0
 30
0.0
 11
11914.999999999991
 21
-755.0
 31
0.0
1001
ACDBBLOCKREPETAG
1070
     1
1071
        6
1005
145E58
  0
LINE
  5
145E59
  8
OBJECT
 10
11932.999999999991
 20
-980.69968280908154
 30
0.0
 11
11932.999999999991
 21
-1024.9999999999959
 31
0.0
1001
ACDBBLOCKREPETAG
1070
     1
1071
        8
1005
145E59
  0
LINE
  5
145E5A
  8
OBJECT
 10
12067.0
 20
-980.69968280912872
 30
0.0
 11
12067.0
 21
-1025.0
 31
0.0
1001
ACDBBLOCKREPETAG
1070
     1
1071
        9
1005
145E5A
  0
LINE
  5
145E5B
  8
SLIM
 10
9914.9999999999927
 20
-765.19743878931502
 30
0.0
 11
9925.1974387893097
 21
-755.0
 31
0.0
1001
ACAD
1010
0.0
1020
0.0
1030
0.0
1001
ACDBBLOCKREPETAG
1070
     1
1071
       10
1005
145E5B
  0
LINE
  5
145E5C
  8
SLIM
 10
9914.9999999999945
 20
-783.15795103145183
 30
0.0
 11
9943.1579510314441
 21
-755.0
 31
0.0
1001
ACAD
1010
0.0
1020
0.0
1030
0.0
1001
ACDBBLOCKREPETAG
1070
     1
1071
       11
1005
145E5C
  0
LINE
  5
145E5D
  8
SLIM
 10
9914.9999999999964
 20
-801.11846327358853
 30
0.0
 11
9961.1184632735858
 21
-755.0
 31
0.0
1001
ACAD
1010
0.0
1020
0.0
1030
0.0
1001
ACDBBLOCKREPETAG
1070
     1
1071
       12
1005
145E5D
  0
LINE
  5
145E5E
  8
SLIM
 10
9914.9999999999982
 20
-819.07897551572592
 30
0.0
 11
9979.0789755157257
 21
-755.0
 31
0.0
1001
ACAD
1010
0.0
1020
0.0
1030
0.0
1001
ACDBBLOCKREPETAG
1070
     1
1071
       13
1005
145E5E
  0
LINE
  5
145E5F
  8
SLIM
 10
9914.9999999999982
 20
-837.03948775786273
 30
0.0
 11
9997.0394877578656
 21
-755.0
 31
0.0
1001
ACAD
1010
0.0
1020
0.0
1030
0.0
1001
ACDBBLOCKREPETAG
1070
     1
1071
       14
1005
145E5F
  0
LINE
  5
145E60
  8
SLIM
 10
9915.2836007495607
 20
-854.71639925044224
 30
0.0
 11
10015.0
 21
-755.0
 31
0.0
1001
ACAD
1010
0.0
1020
0.0
1030
0.0
1001
ACDBBLOCKREPETAG
1070
     1
1071
       15
1005
145E60
  0
LINE
  5
145E61
  8
SLIM
 10
9917.4979104780396
 20
-870.46260176409714
 30
0.0
 11
10032.96051224214
 21
-755.0
 31
0.0
1001
ACAD
1010
0.0
1020
0.0
1030
0.0
1001
ACDBBLOCKREPETAG
1070
     1
1071
       16
1005
145E61
  0
LINE
  5
145E62
  8
SLIM
 10
9919.7122202065257
 20
-886.20880427775273
 30
0.0
 11
10050.921024484271
 21
-755.0
 31
0.0
1001
ACAD
1010
0.0
1020
0.0
1030
0.0
1001
ACDBBLOCKREPETAG
1070
     1
1071
       17
1005
145E62
  0
LINE
  5
145E63
  8
SLIM
 10
9921.9265299350063
 20
-901.95500679140798
 30
0.0
 11
10068.881536726411
 21
-755.0
 31
0.0
1001
ACAD
1010
0.0
1020
0.0
1030
0.0
1001
ACDBBLOCKREPETAG
1070
     1
1071
       18
1005
145E63
  0
LINE
  5
145E64
  8
SLIM
 10
9924.1408396634924
 20
-917.70120930506334
 30
0.0
 11
10085.000000000009
 21
-756.84204896854612
 31
0.0
1001
ACAD
1010
0.0
1020
0.0
1030
0.0
1001
ACDBBLOCKREPETAG
1070
     1
1071
       19
1005
145E64
  0
LINE
  5
145E65
  8
SLIM
 10
9926.3551493919731
 20
-933.44741181871859
 30
0.0
 11
10085.0
 21
-774.80256121068555
 31
0.0
1001
ACAD
1010
0.0
1020
0.0
1030
0.0
1001
ACDBBLOCKREPETAG
1070
     1
1071
       20
1005
145E65
  0
LINE
  5
145E66
  8
SLIM
 10
9928.5694591204574
 20
-949.19361433237441
 30
0.0
 11
10085.0
 21
-792.76307345282544
 31
0.0
1001
ACAD
1010
0.0
1020
0.0
1030
0.0
1001
ACDBBLOCKREPETAG
1070
     1
1071
       21
1005
145E66
  0
LINE
  5
145E67
  8
SLIM
 10
9930.7837688489417
 20
-964.93981684602954
 30
0.0
 11
10085.0
 21
-810.7235856949651
 31
0.0
1001
ACAD
1010
0.0
1020
0.0
1030
0.0
1001
ACDBBLOCKREPETAG
1070
     1
1071
       22
1005
145E67
  0
LINE
  5
145E68
  8
SLIM
 10
9932.9980785774187
 20
-980.68601935968502
 30
0.0
 11
10085.0
 21
-828.68409793710464
 31
0.0
1001
ACAD
1010
0.0
1020
0.0
1030
0.0
1001
ACDBBLOCKREPETAG
1070
     1
1071
       23
1005
145E68
  0
LINE
  5
145E69
  8
SLIM
 10
9932.9999999999927
 20
-998.64461017925203
 30
0.0
 11
10085.0
 21
-846.64461017924395
 31
0.0
1001
ACAD
1010
0.0
1020
0.0
1030
0.0
1001
ACDBBLOCKREPETAG
1070
     1
1071
       24
1005
145E69
  0
LINE
  5
145E6A
  8
SLIM
 10
9932.9999999999927
 20
-1016.60512242139
 30
0.0
 11
10083.05183715436
 21
-866.55328526701692
 31
0.0
1001
ACAD
1010
0.0
1020
0.0
1030
0.0
1001
ACDBBLOCKREPETAG
1070
     1
1071
       25
1005
145E6A
  0
LINE
  5
145E6B
  8
SLIM
 10
9942.5656346635242
 20
-1024.9999999999959
 30
0.0
 11
10080.11284424201
 21
-887.45279042150412
 31
0.0
1001
ACAD
1010
0.0
1020
0.0
1030
0.0
1001
ACDBBLOCKREPETAG
1070
     1
1071
       26
1005
145E6B
  0
LINE
  5
145E6C
  8
SLIM
 10
9960.5261469056641
 20
-1024.999999999997
 30
0.0
 11
10077.17385132967
 21
-908.35229557599155
 31
0.0
1001
ACAD
1010
0.0
1020
0.0
1030
0.0
1001
ACDBBLOCKREPETAG
1070
     1
1071
       27
1005
145E6C
  0
LINE
  5
145E6D
  8
SLIM
 10
9978.4866591478003
 20
-1024.999999999997
 30
0.0
 11
10074.23485841732
 21
-929.25180073047886
 31
0.0
1001
ACAD
1010
0.0
1020
0.0
1030
0.0
1001
ACDBBLOCKREPETAG
1070
     1
1071
       28
1005
145E6D
  0
LINE
  5
145E6E
  8
SLIM
 10
9996.4471713899384
 20
-1024.999999999998
 30
0.0
 11
10071.29586550497
 21
-950.15130588496618
 31
0.0
1001
ACAD
1010
0.0
1020
0.0
1030
0.0
1001
ACDBBLOCKREPETAG
1070
     1
1071
       29
1005
145E6E
  0
LINE
  5
145E6F
  8
SLIM
 10
10014.40768363206
 20
-1024.999999999998
 30
0.0
 11
10068.35687259262
 21
-971.05081103945361
 31
0.0
1001
ACAD
1010
0.0
1020
0.0
1030
0.0
1001
ACDBBLOCKREPETAG
1070
     1
1071
       30
1005
145E6F
  0
LINE
  5
145E70
  8
SLIM
 10
10032.368195874211
 20
-1024.9999999999991
 30
0.0
 11
10067.000000000009
 21
-990.36819587420166
 31
0.0
1001
ACAD
1010
0.0
1020
0.0
1030
0.0
1001
ACDBBLOCKREPETAG
1070
     1
1071
       31
1005
145E70
  0
LINE
  5
145E71
  8
SLIM
 10
10050.328708116351
 20
-1024.9999999999991
 30
0.0
 11
10067.000000000009
 21
-1008.32870811634
 31
0.0
1001
ACAD
1010
0.0
1020
0.0
1030
0.0
1001
ACDBBLOCKREPETAG
1070
     1
1071
       32
1005
145E71
  0
LINE
  5
145E72
  8
OBJECT
 10
9932.9999999999927
 20
-1024.9999999999959
 30
0.0
 11
10067.000000000009
 21
-1025.0
 31
0.0
1001
ACDBBLOCKREPETAG
1070
     1
1071
        1
1005
145E72
  0
LINE
  5
145E73
  8
OBJECT
 10
9914.9999999999927
 20
-755.0
 30
0.0
 11
9915.0
 21
-852.69968280914156
 31
0.0
1001
ACDBBLOCKREPETAG
1070
     1
1071
        2
1005
145E73
  0
LINE
  5
145E74
  8
OBJECT
 10
10085.000000000009
 20
-755.0
 30
0.0
 11
10085.0
 21
-852.69968280917203
 31
0.0
1001
ACDBBLOCKREPETAG
1070
     1
1071
        3
1005
145E74
  0
LINE
  5
145E75
  8
OBJECT
 10
9915.0
 20
-852.69968280914156
 30
0.0
 11
9932.9999999999927
 21
-980.69968280908154
 31
0.0
1001
ACDBBLOCKREPETAG
1070
     1
1071
        4
1005
145E75
  0
LINE
  5
145E76
  8
OBJECT
 10
10067.000000000009
 20
-980.69968280912872
 30
0.0
 11
10085.0
 21
-852.69968280917203
 31
0.0
1001
ACDBBLOCKREPETAG
1070
     1
1071
        5
1005
145E76
  0
LINE
  5
145E77
  8
OBJECT
 10
10085.000000000009
 20
-755.0
 30
0.0
 11
9914.9999999999927
 21
-755.0
 31
0.0
1001
ACDBBLOCKREPETAG
1070
     1
1071
        6
1005
145E77
  0
LINE
  5
145E78
  8
OBJECT
 10
9932.9999999999927
 20
-980.69968280908154
 30
0.0
 11
9932.9999999999927
 21
-1024.9999999999959
 31
0.0
1001
ACDBBLOCKREPETAG
1070
     1
1071
        8
1005
145E78
  0
LINE
  5
145E79
  8
OBJECT
 10
10067.000000000009
 20
-980.69968280912872
 30
0.0
 11
10067.000000000009
 21
-1025.0
 31
0.0
1001
ACDBBLOCKREPETAG
1070
     1
1071
        9
1005
145E79
  0
LINE
  5
145E7A
  8
SLIM
 10
7914.9999999999918
 20
-765.19743878931502
 30
0.0
 11
7925.1974387893079
 21
-755.0
 31
0.0
1001
ACAD
1010
0.0
1020
0.0
1030
0.0
1001
ACDBBLOCKREPETAG
1070
     1
1071
       12
1005
145E7A
  0
LINE
  5
145E7B
  8
SLIM
 10
7914.9999999999964
 20
-783.15795103145183
 30
0.0
 11
7943.1579510314459
 21
-755.0
 31
0.0
1001
ACAD
1010
0.0
1020
0.0
1030
0.0
1001
ACDBBLOCKREPETAG
1070
     1
1071
       13
1005
145E7B
  0
LINE
  5
145E7C
  8
SLIM
 10
7914.9999999999982
 20
-801.11846327358853
 30
0.0
 11
7961.1184632735867
 21
-755.0
 31
0.0
1001
ACAD
1010
0.0
1020
0.0
1030
0.0
1001
ACDBBLOCKREPETAG
1070
     1
1071
       14
1005
145E7C
  0
LINE
  5
145E7D
  8
SLIM
 10
7914.9999999999982
 20
-819.07897551572592
 30
0.0
 11
7979.078975515723
 21
-755.0
 31
0.0
1001
ACAD
1010
0.0
1020
0.0
1030
0.0
1001
ACDBBLOCKREPETAG
1070
     1
1071
       15
1005
145E7D
  0
LINE
  5
145E7E
  8
SLIM
 10
7914.9999999999982
 20
-837.03948775786273
 30
0.0
 11
7997.0394877578628
 21
-755.0
 31
0.0
1001
ACAD
1010
0.0
1020
0.0
1030
0.0
1001
ACDBBLOCKREPETAG
1070
     1
1071
       16
1005
145E7E
  0
LINE
  5
145E7F
  8
SLIM
 10
7915.283600749558
 20
-854.71639925044224
 30
0.0
 11
8015.0
 21
-755.0
 31
0.0
1001
ACAD
1010
0.0
1020
0.0
1030
0.0
1001
ACDBBLOCKREPETAG
1070
     1
1071
       17
1005
145E7F
  0
LINE
  5
145E80
  8
SLIM
 10
7917.4979104780423
 20
-870.46260176409714
 30
0.0
 11
8032.960512242139
 21
-755.0
 31
0.0
1001
ACAD
1010
0.0
1020
0.0
1030
0.0
1001
ACDBBLOCKREPETAG
1070
     1
1071
       18
1005
145E80
  0
LINE
  5
145E81
  8
SLIM
 10
7919.7122202065239
 20
-886.20880427775273
 30
0.0
 11
8050.9210244842798
 21
-755.0
 31
0.0
1001
ACAD
1010
0.0
1020
0.0
1030
0.0
1001
ACDBBLOCKREPETAG
1070
     1
1071
       19
1005
145E81
  0
LINE
  5
145E82
  8
SLIM
 10
7921.9265299350072
 20
-901.95500679140764
 30
0.0
 11
8068.8815367264133
 21
-755.0
 31
0.0
1001
ACAD
1010
0.0
1020
0.0
1030
0.0
1001
ACDBBLOCKREPETAG
1070
     1
1071
       20
1005
145E82
  0
LINE
  5
145E83
  8
SLIM
 10
7924.1408396634897
 20
-917.70120930506334
 30
0.0
 11
8085.0000000000064
 21
-756.84204896854612
 31
0.0
1001
ACAD
1010
0.0
1020
0.0
1030
0.0
1001
ACDBBLOCKREPETAG
1070
     1
1071
       21
1005
145E83
  0
LINE
  5
145E84
  8
SLIM
 10
7926.3551493919731
 20
-933.44741181871836
 30
0.0
 11
8085.0000000000064
 21
-774.80256121068555
 31
0.0
1001
ACAD
1010
0.0
1020
0.0
1030
0.0
1001
ACDBBLOCKREPETAG
1070
     1
1071
       22
1005
145E84
  0
LINE
  5
145E85
  8
SLIM
 10
7928.5694591204538
 20
-949.1936143323735
 30
0.0
 11
8085.0000000000064
 21
-792.76307345282532
 31
0.0
1001
ACAD
1010
0.0
1020
0.0
1030
0.0
1001
ACDBBLOCKREPETAG
1070
     1
1071
       23
1005
145E85
  0
LINE
  5
145E86
  8
SLIM
 10
7930.783768848939
 20
-964.93981684602875
 30
0.0
 11
8085.0000000000018
 21
-810.7235856949651
 31
0.0
1001
ACAD
1010
0.0
1020
0.0
1030
0.0
1001
ACDBBLOCKREPETAG
1070
     1
1071
       24
1005
145E86
  0
LINE
  5
145E87
  8
SLIM
 10
7932.9980785774214
 20
-980.68601935968422
 30
0.0
 11
8085.0000000000018
 21
-828.68409793710464
 31
0.0
1001
ACAD
1010
0.0
1020
0.0
1030
0.0
1001
ACDBBLOCKREPETAG
1070
     1
1071
       25
1005
145E87
  0
LINE
  5
145E88
  8
SLIM
 10
7943.0
 20
-988.64461017924452
 30
0.0
 11
7946.6446101792453
 21
-984.99999999999807
 31
0.0
1001
ACAD
1010
0.0
1020
0.0
1030
0.0
1001
ACDBBLOCKREPETAG
1070
     1
1071
       26
1005
145E88
  0
LINE
  5
145E89
  8
SLIM
 10
7946.6446101792453
 20
-984.99999999999807
 30
0.0
 11
8085.0
 21
-846.64461017924395
 31
0.0
1001
ACAD
1010
0.0
1020
0.0
1030
0.0
1001
ACDBBLOCKREPETAG
1070
     1
1071
       27
1005
145E89
  0
LINE
  5
145E8A
  8
SLIM
 10
7944.6051224213861
 20
-1004.999999999998
 30
0.0
 11
7964.6051224213852
 21
-984.99999999999807
 31
0.0
1001
ACAD
1010
0.0
1020
0.0
1030
0.0
1001
ACDBBLOCKREPETAG
1070
     1
1071
       28
1005
145E8A
  0
LINE
  5
145E8B
  8
SLIM
 10
7964.6051224213852
 20
-984.99999999999807
 30
0.0
 11
8083.051837154364
 21
-866.5532852670176
 31
0.0
1001
ACAD
1010
0.0
1020
0.0
1030
0.0
1001
ACDBBLOCKREPETAG
1070
     1
1071
       29
1005
145E8B
  0
LINE
  5
145E8C
  8
SLIM
 10
7962.5656346635242
 20
-1004.999999999998
 30
0.0
 11
7982.5656346635215
 21
-984.99999999999807
 31
0.0
1001
ACAD
1010
0.0
1020
0.0
1030
0.0
1001
ACDBBLOCKREPETAG
1070
     1
1071
       30
1005
145E8C
  0
LINE
  5
145E8D
  8
SLIM
 10
7982.5656346635215
 20
-984.99999999999807
 30
0.0
 11
8080.1128442420159
 21
-887.45279042150548
 31
0.0
1001
ACAD
1010
0.0
1020
0.0
1030
0.0
1001
ACDBBLOCKREPETAG
1070
     1
1071
       31
1005
145E8D
  0
LINE
  5
145E8E
  8
SLIM
 10
7980.5261469056622
 20
-1004.999999999998
 30
0.0
 11
8000.5261469056613
 21
-984.99999999999807
 31
0.0
1001
ACAD
1010
0.0
1020
0.0
1030
0.0
1001
ACDBBLOCKREPETAG
1070
     1
1071
       32
1005
145E8E
  0
LINE
  5
145E8F
  8
SLIM
 10
8000.5261469056613
 20
-984.99999999999807
 30
0.0
 11
8077.1738513296659
 21
-908.35229557599371
 31
0.0
1001
ACAD
1010
0.0
1020
0.0
1030
0.0
1001
ACDBBLOCKREPETAG
1070
     1
1071
       33
1005
145E8F
  0
LINE
  5
145E90
  8
SLIM
 10
7998.4866591478003
 20
-1004.999999999998
 30
0.0
 11
8018.4866591478003
 21
-984.99999999999807
 31
0.0
1001
ACAD
1010
0.0
1020
0.0
1030
0.0
1001
ACDBBLOCKREPETAG
1070
     1
1071
       34
1005
145E90
  0
LINE
  5
145E91
  8
SLIM
 10
8018.4866591478003
 20
-984.99999999999807
 30
0.0
 11
8074.234858417316
 21
-929.25180073048148
 31
0.0
1001
ACAD
1010
0.0
1020
0.0
1030
0.0
1001
ACDBBLOCKREPETAG
1070
     1
1071
       35
1005
145E91
  0
LINE
  5
145E92
  8
SLIM
 10
8016.4471713899393
 20
-1004.999999999998
 30
0.0
 11
8036.4471713899393
 21
-984.99999999999807
 31
0.0
1001
ACAD
1010
0.0
1020
0.0
1030
0.0
1001
ACDBBLOCKREPETAG
1070
     1
1071
       36
1005
145E92
  0
LINE
  5
145E93
  8
SLIM
 10
8036.4471713899393
 20
-984.99999999999807
 30
0.0
 11
8071.2958655049679
 21
-950.15130588496947
 31
0.0
1001
ACAD
1010
0.0
1020
0.0
1030
0.0
1001
ACDBBLOCKREPETAG
1070
     1
1071
       37
1005
145E93
  0
LINE
  5
145E94
  8
SLIM
 10
8034.4076836320774
 20
-1004.999999999998
 30
0.0
 11
8054.4076836320764
 21
-984.99999999999807
 31
0.0
1001
ACAD
1010
0.0
1020
0.0
1030
0.0
1001
ACDBBLOCKREPETAG
1070
     1
1071
       38
1005
145E94
  0
LINE
  5
145E95
  8
SLIM
 10
8054.4076836320764
 20
-984.99999999999807
 30
0.0
 11
8068.3568725926198
 21
-971.05081103945759
 31
0.0
1001
ACAD
1010
0.0
1020
0.0
1030
0.0
1001
ACDBBLOCKREPETAG
1070
     1
1071
       39
1005
145E95
  0
LINE
  5
145E96
  8
SLIM
 10
8052.3681958742136
 20
-1004.999999999998
 30
0.0
 11
8057.0
 21
-1000.368195874213
 31
0.0
1001
ACAD
1010
0.0
1020
0.0
1030
0.0
1001
ACDBBLOCKREPETAG
1070
     1
1071
       40
1005
145E96
  0
LINE
  5
145E97
  8
OBJECT
 10
7943.0
 20
-1004.999999999998
 30
0.0
 11
8057.0
 21
-1004.999999999998
 31
0.0
1001
ACDBBLOCKREPETAG
1070
     1
1071
        1
1005
145E97
  0
LINE
  5
145E98
  8
OBJECT
 10
7933.6047321049664
 20
-984.99999999999807
 30
0.0
 11
8066.3952678950427
 21
-984.99999999999807
 31
0.0
1001
ACDBBLOCKREPETAG
1070
     1
1071
        2
1005
145E98
  0
LINE
  5
145E99
  8
OBJECT
 10
7943.0
 20
-1004.999999999998
 30
0.0
 11
7943.0
 21
-984.99999999999807
 31
0.0
1001
ACDBBLOCKREPETAG
1070
     1
1071
        3
1005
145E99
  0
LINE
  5
145E9A
  8
OBJECT
 10
8057.0
 20
-1004.999999999998
 30
0.0
 11
8057.0
 21
-984.99999999999807
 31
0.0
1001
ACDBBLOCKREPETAG
1070
     1
1071
        4
1005
145E9A
  0
LINE
  5
145E9B
  8
OBJECT
 10
7914.9999999999918
 20
-755.0
 30
0.0
 11
7915.0
 21
-852.69968280914156
 31
0.0
1001
ACDBBLOCKREPETAG
1070
     1
1071
        5
1005
145E9B
  0
LINE
  5
145E9C
  8
OBJECT
 10
8085.0000000000064
 20
-755.0
 30
0.0
 11
8085.0
 21
-852.69968280917203
 31
0.0
1001
ACDBBLOCKREPETAG
1070
     1
1071
        6
1005
145E9C
  0
LINE
  5
145E9D
  8
OBJECT
 10
7915.0
 20
-852.69968280914156
 30
0.0
 11
7933.6047321049664
 21
-984.99999999999807
 31
0.0
1001
ACDBBLOCKREPETAG
1070
     1
1071
        7
1005
145E9D
  0
LINE
  5
145E9E
  8
OBJECT
 10
8066.3952678950427
 20
-984.99999999999807
 30
0.0
 11
8085.0
 21
-852.69968280917203
 31
0.0
1001
ACDBBLOCKREPETAG
1070
     1
1071
        8
1005
145E9E
  0
LINE
  5
145E9F
  8
OBJECT
 10
8085.0000000000064
 20
-755.0
 30
0.0
 11
7914.9999999999918
 21
-755.0
 31
0.0
1001
ACDBBLOCKREPETAG
1070
     1
1071
        9
1005
145E9F
  0
TEXT
  5
145EA0
  8
SLIM
 10
1837.75
 20
282.50000000000011
 30
0.0
 40
35.0
  1
（枝管サイズ毎に寸法が異なります。管底の位置は全サイズで同じです）
 41
0.75
  0
TEXT
  5
145EA1
  8
SLIM
 10
1850.0
 20
532.5
 30
0.0
 40
75.0
  1
側面図の代表機種
 41
0.75
  0
TEXT
  5
145EA2
  8
SLIM
 10
1850.0
 20
369.99999999999989
 30
0.0
 40
100.0
  1
4SL-JR3
 41
0.75
  0
TEXT
  5
145EA3
  8
SLIM
 10
0.0
 20
670.0
 30
0.0
 40
100.0
  1
4SL-JRX-S
 41
0.75
  0
TEXT
  5
145EA4
  8
SLIM
 10
0.0
 20
520.0
 30
0.0
 40
100.0
  1
4SL-JRX-W
 41
0.75
  0
LINE
  5
145EA5
  8
OBJECT
 10
12085.999999999991
 20
-1103.9999999999991
 30
0.0
 11
12085.999999999991
 21
-1113.9999999999991
 31
0.0
1001
ACDBBLOCKREPETAG
1070
     1
1071
      121
1005
145EA5
  0
LINE
  5
145EA6
  8
OBJECT
 10
12069.999999999991
 20
-1103.9999999999991
 30
0.0
 11
12069.999999999991
 21
-1113.9999999999991
 31
0.0
1001
ACDBBLOCKREPETAG
1070
     1
1071
      122
1005
145EA6
  0
LINE
  5
145EA7
  8
OBJECT
 10
12085.999999999991
 20
-1113.9999999999991
 30
0.0
 11
12069.999999999991
 21
-1113.9999999999991
 31
0.0
1001
ACDBBLOCKREPETAG
1070
     1
1071
      123
1005
145EA7
  0
LINE
  5
145EA8
  8
OBJECT
 10
12090.0
 20
-1064.9999999999959
 30
0.0
 11
11924.0
 21
-1064.9999999999959
 31
0.0
1001
ACDBBLOCKREPETAG
1070
     1
1071
      124
1005
145EA8
  0
LINE
  5
145EA9
  8
OBJECT
 10
12090.0
 20
-1079.9999999999991
 30
0.0
 11
12090.0
 21
-1064.9999999999959
 31
0.0
1001
ACDBBLOCKREPETAG
1070
     1
1071
      125
1005
145EA9
  0
LINE
  5
145EAA
  8
OBJECT
 10
11924.0
 20
-1079.9999999999991
 30
0.0
 11
12090.0
 21
-1079.9999999999991
 31
0.0
1001
ACDBBLOCKREPETAG
1070
     1
1071
      126
1005
145EAA
  0
LINE
  5
145EAB
  8
OBJECT
 10
12067.49999999998
 20
-1079.9999999999991
 30
0.0
 11
12067.49999999998
 21
-1089.9999999999991
 31
0.0
1001
ACDBBLOCKREPETAG
1070
     1
1071
      127
1005
145EAB
  0
LINE
  5
145EAC
  8
OBJECT
 10
12072.999999999991
 20
-1089.9999999999991
 30
0.0
 11
12072.999999999991
 21
-1079.9999999999991
 31
0.0
1001
ACDBBLOCKREPETAG
1070
     1
1071
      128
1005
145EAC
  0
LINE
  5
145EAD
  8
OBJECT
 10
12082.999999999991
 20
-1089.9999999999991
 30
0.0
 11
12082.999999999991
 21
-1079.9999999999991
 31
0.0
1001
ACDBBLOCKREPETAG
1070
     1
1071
      129
1005
145EAD
  0
LINE
  5
145EAE
  8
OBJECT
 10
11924.0
 20
-1089.9999999999991
 30
0.0
 11
11924.0
 21
-1103.9999999999959
 31
0.0
1001
ACDBBLOCKREPETAG
1070
     1
1071
      130
1005
145EAE
  0
LINE
  5
145EAF
  8
OBJECT
 10
12090.0
 20
-1089.9999999999991
 30
0.0
 11
12090.0
 21
-1103.9999999999959
 31
0.0
1001
ACDBBLOCKREPETAG
1070
     1
1071
      131
1005
145EAF
  0
LINE
  5
145EB0
  8
OBJECT
 10
11924.0
 20
-1103.9999999999959
 30
0.0
 11
12090.0
 21
-1103.9999999999959
 31
0.0
1001
ACDBBLOCKREPETAG
1070
     1
1071
      132
1005
145EB0
  0
LINE
  5
145EB1
  8
OBJECT
 10
11924.0
 20
-1089.9999999999991
 30
0.0
 11
12090.0
 21
-1089.9999999999991
 31
0.0
1001
ACDBBLOCKREPETAG
1070
     1
1071
      133
1005
145EB1
  0
LINE
  5
145EB2
  8
OBJECT
 10
11932.49999999998
 20
-1079.9999999999991
 30
0.0
 11
11932.49999999998
 21
-1089.9999999999991
 31
0.0
1001
ACDBBLOCKREPETAG
1070
     1
1071
      134
1005
145EB2
  0
LINE
  5
145EB3
  8
OBJECT
 10
11934.0
 20
-1028.9999999999959
 30
0.0
 11
12065.999999999991
 21
-1028.9999999999959
 31
0.0
1001
ACDBBLOCKREPETAG
1070
     1
1071
      135
1005
145EB3
  0
LINE
  5
145EB4
  8
OBJECT
 10
11924.0
 20
-1079.9999999999991
 30
0.0
 11
11924.0
 21
-1064.9999999999959
 31
0.0
1001
ACDBBLOCKREPETAG
1070
     1
1071
      136
1005
145EB4
  0
LINE
  5
145EB5
  8
HIDDEN
 10
11943.0
 20
-1039.9999999999991
 30
0.0
 11
12057.0
 21
-1039.9999999999991
 31
0.0
1001
ACDBBLOCKREPETAG
1070
     1
1071
      137
1005
145EB5
  0
LINE
  5
145EB6
  8
OBJECT
 10
12086.999999999991
 20
-1063.2
 30
0.0
 11
12086.999999999991
 21
-1064.9999999999991
 31
0.0
1001
ACDBBLOCKREPETAG
1070
     1
1071
      138
1005
145EB6
  0
LINE
  5
145EB7
  8
OBJECT
 10
12068.999999999991
 20
-1063.2
 30
0.0
 11
12068.999999999991
 21
-1064.9999999999991
 31
0.0
1001
ACDBBLOCKREPETAG
1070
     1
1071
      139
1005
145EB7
  0
LINE
  5
145EB8
  8
OBJECT
 10
12072.249999999991
 20
-1053.4999999999991
 30
0.0
 11
12083.749999999991
 21
-1053.4999999999991
 31
0.0
1001
ACDBBLOCKREPETAG
1070
     1
1071
      140
1005
145EB8
  0
LINE
  5
145EB9
  8
OBJECT
 10
12072.249999999991
 20
-1053.4999999999991
 30
0.0
 11
12072.249999999991
 21
-1063.2
 31
0.0
1001
ACDBBLOCKREPETAG
1070
     1
1071
      141
1005
145EB9
  0
LINE
  5
145EBA
  8
OBJECT
 10
12083.749999999991
 20
-1053.4999999999991
 30
0.0
 11
12083.749999999991
 21
-1063.2
 31
0.0
1001
ACDBBLOCKREPETAG
1070
     1
1071
      142
1005
145EBA
  0
LINE
  5
145EBB
  8
OBJECT
 10
11931.99999999998
 20
-1144.9999999999991
 30
0.0
 11
12067.99999999998
 21
-1144.9999999999991
 31
0.0
1001
ACDBBLOCKREPETAG
1070
     1
1071
      143
1005
145EBB
  0
LINE
  5
145EBC
  8
OBJECT
 10
11931.99999999998
 20
-1144.9999999999991
 30
0.0
 11
11931.99999999998
 21
-1103.9999999999991
 31
0.0
1001
ACDBBLOCKREPETAG
1070
     1
1071
      144
1005
145EBC
  0
LINE
  5
145EBD
  8
OBJECT
 10
12067.99999999998
 20
-1144.9999999999991
 30
0.0
 11
12067.99999999998
 21
-1103.9999999999991
 31
0.0
1001
ACDBBLOCKREPETAG
1070
     1
1071
      145
1005
145EBD
  0
LINE
  5
145EBE
  8
OBJECT
 10
12086.999999999991
 20
-1063.2
 30
0.0
 11
12068.999999999991
 21
-1063.2
 31
0.0
1001
ACDBBLOCKREPETAG
1070
     1
1071
      146
1005
145EBE
  0
LINE
  5
145EBF
  8
CENTER
 10
12000.0
 20
-769.99999999999955
 30
0.0
 11
12000.0
 21
-1159.9999999999991
 31
0.0
1001
ACDBBLOCKREPETAG
1070
     1
1071
      147
1005
145EBF
  0
LINE
  5
145EC0
  8
OBJECT
 10
11925.0
 20
-769.99999999999955
 30
0.0
 11
11925.0
 21
-851.99999999999579
 31
0.0
1001
ACDBBLOCKREPETAG
1070
     1
1071
      148
1005
145EC0
  0
LINE
  5
145EC1
  8
OBJECT
 10
12075.0
 20
-769.99999999999955
 30
0.0
 11
12075.0
 21
-851.99999999999216
 31
0.0
1001
ACDBBLOCKREPETAG
1070
     1
1071
      149
1005
145EC1
  0
LINE
  5
145EC2
  8
OBJECT
 10
11925.0
 20
-851.99999999999579
 30
0.0
 11
12075.0
 21
-851.99999999999216
 31
0.0
1001
ACDBBLOCKREPETAG
1070
     1
1071
      150
1005
145EC2
  0
LINE
  5
145EC3
  8
OBJECT
 10
11943.0
 20
-1028.9999999999959
 30
0.0
 11
11943.0
 21
-979.99999999999204
 31
0.0
1001
ACDBBLOCKREPETAG
1070
     1
1071
      151
1005
145EC3
  0
LINE
  5
145EC4
  8
OBJECT
 10
12057.0
 20
-979.99999999999204
 30
0.0
 11
11943.0
 21
-979.99999999999204
 31
0.0
1001
ACDBBLOCKREPETAG
1070
     1
1071
      152
1005
145EC4
  0
LINE
  5
145EC5
  8
OBJECT
 10
12057.0
 20
-979.99999999999204
 30
0.0
 11
12057.0
 21
-1028.9999999999959
 31
0.0
1001
ACDBBLOCKREPETAG
1070
     1
1071
      153
1005
145EC5
  0
LINE
  5
145EC6
  8
OBJECT
 10
11925.0
 20
-851.99999999999579
 30
0.0
 11
11943.0
 21
-979.99999999999204
 31
0.0
1001
ACDBBLOCKREPETAG
1070
     1
1071
      154
1005
145EC6
  0
LINE
  5
145EC7
  8
OBJECT
 10
12057.0
 20
-979.99999999999204
 30
0.0
 11
12075.0
 21
-851.99999999999216
 31
0.0
1001
ACDBBLOCKREPETAG
1070
     1
1071
      155
1005
145EC7
  0
LINE
  5
145EC8
  8
OBJECT
 10
11934.0
 20
-1064.9999999999959
 30
0.0
 11
11934.0
 21
-1028.9999999999959
 31
0.0
1001
ACDBBLOCKREPETAG
1070
     1
1071
      156
1005
145EC8
  0
LINE
  5
145EC9
  8
OBJECT
 10
12066.0
 20
-1064.9999999999959
 30
0.0
 11
12065.999999999991
 21
-1028.9999999999959
 31
0.0
1001
ACDBBLOCKREPETAG
1070
     1
1071
      157
1005
145EC9
  0
LINE
  5
145ECA
  8
OBJECT
 10
11954.75
 20
-1054.699999999993
 30
0.0
 11
11967.25
 21
-1054.699999999993
 31
0.0
1001
ACDBBLOCKREPETAG
1070
     1
1071
      158
1005
145ECA
  0
LINE
  5
145ECB
  8
OBJECT
 10
11946.0
 20
-1064.9999999999959
 30
0.0
 11
11946.0
 21
-1062.699999999996
 31
0.0
1001
ACDBBLOCKREPETAG
1070
     1
1071
      159
1005
145ECB
  0
LINE
  5
145ECC
  8
OBJECT
 10
11976.0
 20
-1064.9999999999959
 30
0.0
 11
11976.0
 21
-1062.699999999996
 31
0.0
1001
ACDBBLOCKREPETAG
1070
     1
1071
      160
1005
145ECC
  0
LINE
  5
145ECD
  8
OBJECT
 10
11954.75
 20
-1054.699999999993
 30
0.0
 11
11954.75
 21
-1062.699999999996
 31
0.0
1001
ACDBBLOCKREPETAG
1070
     1
1071
      161
1005
145ECD
  0
LINE
  5
145ECE
  8
OBJECT
 10
11967.25
 20
-1054.699999999993
 30
0.0
 11
11967.25
 21
-1062.699999999996
 31
0.0
1001
ACDBBLOCKREPETAG
1070
     1
1071
      162
1005
145ECE
  0
LINE
  5
145ECF
  8
OBJECT
 10
11946.0
 20
-1062.699999999996
 30
0.0
 11
11976.0
 21
-1062.699999999996
 31
0.0
1001
ACDBBLOCKREPETAG
1070
     1
1071
      163
1005
145ECF
  0
LINE
  5
145ED0
  8
OBJECT
 10
11953.0
 20
-1103.9999999999959
 30
0.0
 11
11953.0
 21
-1113.9999999999959
 31
0.0
1001
ACDBBLOCKREPETAG
1070
     1
1071
      164
1005
145ED0
  0
LINE
  5
145ED1
  8
OBJECT
 10
11969.0
 20
-1103.9999999999959
 30
0.0
 11
11969.0
 21
-1113.9999999999959
 31
0.0
1001
ACDBBLOCKREPETAG
1070
     1
1071
      165
1005
145ED1
  0
LINE
  5
145ED2
  8
OBJECT
 10
11953.0
 20
-1113.9999999999959
 30
0.0
 11
11969.0
 21
-1113.9999999999959
 31
0.0
1001
ACDBBLOCKREPETAG
1070
     1
1071
      166
1005
145ED2
  0
LINE
  5
145ED3
  8
OBJECT
 10
11966.0
 20
-1089.9999999999959
 30
0.0
 11
11966.0
 21
-1079.9999999999959
 31
0.0
1001
ACDBBLOCKREPETAG
1070
     1
1071
      167
1005
145ED3
  0
LINE
  5
145ED4
  8
OBJECT
 10
11956.0
 20
-1089.9999999999959
 30
0.0
 11
11956.0
 21
-1079.9999999999959
 31
0.0
1001
ACDBBLOCKREPETAG
1070
     1
1071
      168
1005
145ED4
  0
LINE
  5
145ED5
  8
OBJECT
 10
10090.0
 20
-1064.9999999999959
 30
0.0
 11
9924.0
 21
-1064.9999999999959
 31
0.0
1001
ACDBBLOCKREPETAG
1070
     1
1071
       12
1005
145ED5
  0
LINE
  5
145ED6
  8
OBJECT
 10
10066.0
 20
-1028.9999999999959
 30
0.0
 11
9934.0
 21
-1028.9999999999959
 31
0.0
1001
ACDBBLOCKREPETAG
1070
     1
1071
       13
1005
145ED6
  0
LINE
  5
145ED7
  8
OBJECT
 10
10090.0
 20
-1080.0
 30
0.0
 11
10090.0
 21
-1064.9999999999959
 31
0.0
1001
ACDBBLOCKREPETAG
1070
     1
1071
       14
1005
145ED7
  0
LINE
  5
145ED8
  8
OBJECT
 10
9924.0
 20
-1080.0
 30
0.0
 11
10090.0
 21
-1080.0
 31
0.0
1001
ACDBBLOCKREPETAG
1070
     1
1071
       15
1005
145ED8
  0
LINE
  5
145ED9
  8
OBJECT
 10
10067.49999999998
 20
-1080.0
 30
0.0
 11
10067.49999999998
 21
-1090.0
 31
0.0
1001
ACDBBLOCKREPETAG
1070
     1
1071
       16
1005
145ED9
  0
LINE
  5
145EDA
  8
OBJECT
 10
9924.0
 20
-1090.0
 30
0.0
 11
9924.0
 21
-1103.9999999999959
 31
0.0
1001
ACDBBLOCKREPETAG
1070
     1
1071
       17
1005
145EDA
  0
LINE
  5
145EDB
  8
OBJECT
 10
10090.0
 20
-1090.0
 30
0.0
 11
10090.0
 21
-1103.9999999999959
 31
0.0
1001
ACDBBLOCKREPETAG
1070
     1
1071
       18
1005
145EDB
  0
LINE
  5
145EDC
  8
OBJECT
 10
9924.0
 20
-1103.9999999999959
 30
0.0
 11
10090.0
 21
-1103.9999999999959
 31
0.0
1001
ACDBBLOCKREPETAG
1070
     1
1071
       19
1005
145EDC
  0
LINE
  5
145EDD
  8
OBJECT
 10
9924.0
 20
-1090.0
 30
0.0
 11
10090.0
 21
-1090.0
 31
0.0
1001
ACDBBLOCKREPETAG
1070
     1
1071
       20
1005
145EDD
  0
LINE
  5
145EDE
  8
OBJECT
 10
9932.4999999999836
 20
-1080.0
 30
0.0
 11
9932.4999999999836
 21
-1090.0
 31
0.0
1001
ACDBBLOCKREPETAG
1070
     1
1071
       21
1005
145EDE
  0
LINE
  5
145EDF
  8
OBJECT
 10
9924.0
 20
-1080.0
 30
0.0
 11
9924.0
 21
-1064.9999999999959
 31
0.0
1001
ACDBBLOCKREPETAG
1070
     1
1071
       22
1005
145EDF
  0
LINE
  5
145EE0
  8
HIDDEN
 10
9943.0
 20
-1040.0
 30
0.0
 11
10057.0
 21
-1040.0
 31
0.0
1001
ACDBBLOCKREPETAG
1070
     1
1071
       23
1005
145EE0
  0
LINE
  5
145EE1
  8
CENTER
 10
10000.0
 20
-770.0
 30
0.0
 11
10000.0
 21
-1118.9999999999959
 31
0.0
1001
ACDBBLOCKREPETAG
1070
     1
1071
       24
1005
145EE1
  0
LINE
  5
145EE2
  8
OBJECT
 10
9925.0
 20
-770.0
 30
0.0
 11
9925.0
 21
-851.99999999999636
 31
0.0
1001
ACDBBLOCKREPETAG
1070
     1
1071
       25
1005
145EE2
  0
LINE
  5
145EE3
  8
OBJECT
 10
10075.0
 20
-770.0
 30
0.0
 11
10075.0
 21
-851.99999999999261
 31
0.0
1001
ACDBBLOCKREPETAG
1070
     1
1071
       26
1005
145EE3
  0
LINE
  5
145EE4
  8
OBJECT
 10
9925.0
 20
-851.99999999999636
 30
0.0
 11
10075.0
 21
-851.99999999999261
 31
0.0
1001
ACDBBLOCKREPETAG
1070
     1
1071
       27
1005
145EE4
  0
LINE
  5
145EE5
  8
OBJECT
 10
10057.0
 20
-1028.9999999999959
 30
0.0
 11
10057.0
 21
-979.99999999999272
 31
0.0
1001
ACDBBLOCKREPETAG
1070
     1
1071
       28
1005
145EE5
  0
LINE
  5
145EE6
  8
OBJECT
 10
9943.0
 20
-1028.9999999999959
 30
0.0
 11
9943.0
 21
-979.99999999999272
 31
0.0
1001
ACDBBLOCKREPETAG
1070
     1
1071
       29
1005
145EE6
  0
LINE
  5
145EE7
  8
OBJECT
 10
10057.0
 20
-979.99999999999272
 30
0.0
 11
9943.0
 21
-979.99999999999272
 31
0.0
1001
ACDBBLOCKREPETAG
1070
     1
1071
       30
1005
145EE7
  0
LINE
  5
145EE8
  8
OBJECT
 10
9925.0
 20
-851.99999999999636
 30
0.0
 11
9943.0
 21
-979.99999999999272
 31
0.0
1001
ACDBBLOCKREPETAG
1070
     1
1071
       31
1005
145EE8
  0
LINE
  5
145EE9
  8
OBJECT
 10
10057.0
 20
-979.99999999999272
 30
0.0
 11
10075.0
 21
-851.99999999999261
 31
0.0
1001
ACDBBLOCKREPETAG
1070
     1
1071
       32
1005
145EE9
  0
LINE
  5
145EEA
  8
OBJECT
 10
9934.0
 20
-1028.9999999999959
 30
0.0
 11
9934.0
 21
-1064.9999999999959
 31
0.0
1001
ACDBBLOCKREPETAG
1070
     1
1071
       33
1005
145EEA
  0
LINE
  5
145EEB
  8
OBJECT
 10
10066.0
 20
-1028.9999999999959
 30
0.0
 11
10066.0
 21
-1064.9999999999959
 31
0.0
1001
ACDBBLOCKREPETAG
1070
     1
1071
       34
1005
145EEB
  0
LINE
  5
145EEC
  8
OBJECT
 10
10082.999999999991
 20
-1089.9999999999959
 30
0.0
 11
10082.999999999991
 21
-1079.9999999999959
 31
0.0
1001
ACDBBLOCKREPETAG
1070
     1
1071
       35
1005
145EEC
  0
LINE
  5
145EED
  8
OBJECT
 10
10072.999999999991
 20
-1089.9999999999959
 30
0.0
 11
10072.999999999991
 21
-1079.9999999999959
 31
0.0
1001
ACDBBLOCKREPETAG
1070
     1
1071
       36
1005
145EED
  0
LINE
  5
145EEE
  8
OBJECT
 10
10068.99999999998
 20
-1059.9999999999959
 30
0.0
 11
10068.99999999998
 21
-1064.9999999999959
 31
0.0
1001
ACDBBLOCKREPETAG
1070
     1
1071
       37
1005
145EEE
  0
LINE
  5
145EEF
  8
OBJECT
 10
10087.0
 20
-1059.9999999999959
 30
0.0
 11
10087.0
 21
-1064.9999999999959
 31
0.0
1001
ACDBBLOCKREPETAG
1070
     1
1071
       38
1005
145EEF
  0
LINE
  5
145EF0
  8
OBJECT
 10
10087.0
 20
-1059.9999999999959
 30
0.0
 11
10068.99999999998
 21
-1059.9999999999959
 31
0.0
1001
ACDBBLOCKREPETAG
1070
     1
1071
       39
1005
145EF0
  0
LINE
  5
145EF1
  8
OBJECT
 10
10073.0
 20
-1111.9999999999959
 30
0.0
 11
10073.0
 21
-1114.9999999999959
 31
0.0
1001
ACDBBLOCKREPETAG
1070
     1
1071
       40
1005
145EF1
  0
LINE
  5
145EF2
  8
OBJECT
 10
10073.0
 20
-1114.9999999999959
 30
0.0
 11
10083.0
 21
-1114.9999999999959
 31
0.0
1001
ACDBBLOCKREPETAG
1070
     1
1071
       41
1005
145EF2
  0
LINE
  5
145EF3
  8
OBJECT
 10
10083.0
 20
-1114.9999999999959
 30
0.0
 11
10083.0
 21
-1111.9999999999959
 31
0.0
1001
ACDBBLOCKREPETAG
1070
     1
1071
       43
1005
145EF3
  0
LINE
  5
145EF4
  8
OBJECT
 10
9968.5
 20
-1059.9999999999959
 30
0.0
 11
9951.9999999999909
 21
-1059.9999999999959
 31
0.0
1001
ACDBBLOCKREPETAG
1070
     1
1071
       48
1005
145EF4
  0
LINE
  5
145EF5
  8
OBJECT
 10
9976.0
 20
-1064.9999999999959
 30
0.0
 11
9976.0
 21
-1062.9999999999959
 31
0.0
1001
ACDBBLOCKREPETAG
1070
     1
1071
       49
1005
145EF5
  0
LINE
  5
145EF6
  8
OBJECT
 10
9966.0
 20
-1089.9999999999959
 30
0.0
 11
9966.0
 21
-1079.9999999999959
 31
0.0
1001
ACDBBLOCKREPETAG
1070
     1
1071
       50
1005
145EF6
  0
LINE
  5
145EF7
  8
OBJECT
 10
9956.0
 20
-1089.9999999999959
 30
0.0
 11
9956.0
 21
-1079.9999999999959
 31
0.0
1001
ACDBBLOCKREPETAG
1070
     1
1071
       51
1005
145EF7
  0
LINE
  5
145EF8
  8
OBJECT
 10
9951.9999999999909
 20
-1059.9999999999959
 30
0.0
 11
9951.9999999999909
 21
-1064.9999999999959
 31
0.0
1001
ACDBBLOCKREPETAG
1070
     1
1071
       52
1005
145EF8
  0
LINE
  5
145EF9
  8
OBJECT
 10
9956.0
 20
-1111.9999999999959
 30
0.0
 11
9956.0
 21
-1114.9999999999959
 31
0.0
1001
ACDBBLOCKREPETAG
1070
     1
1071
       53
1005
145EF9
  0
LINE
  5
145EFA
  8
OBJECT
 10
9956.0
 20
-1114.9999999999959
 30
0.0
 11
9966.0
 21
-1114.9999999999959
 31
0.0
1001
ACDBBLOCKREPETAG
1070
     1
1071
       54
1005
145EFA
  0
LINE
  5
145EFB
  8
OBJECT
 10
9951.185045423772
 20
-1111.9999999999959
 30
0.0
 11
9970.814954576219
 21
-1111.9999999999959
 31
0.0
1001
ACDBBLOCKREPETAG
1070
     1
1071
       55
1005
145EFB
  0
LINE
  5
145EFC
  8
OBJECT
 10
9966.0
 20
-1114.9999999999959
 30
0.0
 11
9966.0
 21
-1111.9999999999959
 31
0.0
1001
ACDBBLOCKREPETAG
1070
     1
1071
       56
1005
145EFC
  0
LINE
  5
145EFD
  8
OBJECT
 10
9976.0
 20
-1062.9999999999959
 30
0.0
 11
9968.5
 21
-1059.9999999999959
 31
0.0
1001
ACDBBLOCKREPETAG
1070
     1
1071
       57
1005
145EFD
  0
LINE
  5
145EFE
  8
OBJECT
 10
9951.1850454237774
 20
-1103.9999999999959
 30
0.0
 11
9951.1850454237774
 21
-1111.9999999999959
 31
0.0
1001
ACDBBLOCKREPETAG
1070
     1
1071
      630
1005
145EFE
  0
LINE
  5
145EFF
  8
OBJECT
 10
9956.0925227118896
 20
-1103.9999999999959
 30
0.0
 11
9956.0925227118896
 21
-1111.9999999999959
 31
0.0
1001
ACDBBLOCKREPETAG
1070
     1
1071
      631
1005
145EFF
  0
LINE
  5
145F00
  8
OBJECT
 10
9965.9074772881122
 20
-1103.9999999999959
 30
0.0
 11
9965.9074772881122
 21
-1111.9999999999959
 31
0.0
1001
ACDBBLOCKREPETAG
1070
     1
1071
      632
1005
145F00
  0
LINE
  5
145F01
  8
OBJECT
 10
9970.8149545762244
 20
-1103.9999999999959
 30
0.0
 11
9970.8149545762244
 21
-1111.9999999999959
 31
0.0
1001
ACDBBLOCKREPETAG
1070
     1
1071
      633
1005
145F01
  0
LINE
  5
145F02
  8
OBJECT
 10
10068.18504542377
 20
-1111.9999999999959
 30
0.0
 11
10087.814954576221
 21
-1111.9999999999959
 31
0.0
1001
ACDBBLOCKREPETAG
1070
     1
1071
      634
1005
145F02
  0
LINE
  5
145F03
  8
OBJECT
 10
10068.18504542377
 20
-1103.9999999999959
 30
0.0
 11
10068.18504542377
 21
-1111.9999999999959
 31
0.0
1001
ACDBBLOCKREPETAG
1070
     1
1071
      635
1005
145F03
  0
LINE
  5
145F04
  8
OBJECT
 10
10073.09252271189
 20
-1103.9999999999959
 30
0.0
 11
10073.09252271189
 21
-1111.9999999999959
 31
0.0
1001
ACDBBLOCKREPETAG
1070
     1
1071
      636
1005
145F04
  0
LINE
  5
145F05
  8
OBJECT
 10
10082.90747728811
 20
-1103.9999999999959
 30
0.0
 11
10082.90747728811
 21
-1111.9999999999959
 31
0.0
1001
ACDBBLOCKREPETAG
1070
     1
1071
      637
1005
145F05
  0
LINE
  5
145F06
  8
OBJECT
 10
10087.814954576221
 20
-1103.9999999999959
 30
0.0
 11
10087.814954576221
 21
-1111.9999999999959
 31
0.0
1001
ACDBBLOCKREPETAG
1070
     1
1071
      638
1005
145F06
  0
LINE
  5
145F07
  8
OBJECT
 10
7943.0
 20
-1079.9999999999959
 30
0.0
 11
8057.0
 21
-1079.9999999999959
 31
0.0
1001
ACDBBLOCKREPETAG
1070
     1
1071
        0
1005
145F07
  0
LINE
  5
145F08
  8
OBJECT
 10
7943.0
 20
-1079.9999999999959
 30
0.0
 11
7943.0
 21
-979.99999999999613
 31
0.0
1001
ACDBBLOCKREPETAG
1070
     1
1071
        1
1005
145F08
  0
LINE
  5
145F09
  8
OBJECT
 10
8057.0
 20
-1079.9999999999959
 30
0.0
 11
8057.0
 21
-979.99999999999613
 31
0.0
1001
ACDBBLOCKREPETAG
1070
     1
1071
        2
1005
145F09
  0
LINE
  5
145F0A
  8
OBJECT
 10
7943.0
 20
-979.99999999999613
 30
0.0
 11
8057.0
 21
-979.99999999999613
 31
0.0
1001
ACDBBLOCKREPETAG
1070
     1
1071
        3
1005
145F0A
  0
LINE
  5
145F0B
  8
HIDDEN
 10
7950.0
 20
-979.99999999999613
 30
0.0
 11
7950.0
 21
-1079.9999999999959
 31
0.0
1001
ACDBBLOCKREPETAG
1070
     1
1071
        4
1005
145F0B
  0
LINE
  5
145F0C
  8
HIDDEN
 10
8050.0
 20
-979.99999999999613
 30
0.0
 11
8050.0
 21
-1079.9999999999959
 31
0.0
1001
ACDBBLOCKREPETAG
1070
     1
1071
        5
1005
145F0C
  0
LINE
  5
145F0D
  8
CENTER
 10
8000.0
 20
-770.0
 30
0.0
 11
8000.0
 21
-1094.9999999999959
 31
0.0
1001
ACDBBLOCKREPETAG
1070
     1
1071
        6
1005
145F0D
  0
LINE
  5
145F0E
  8
OBJECT
 10
7925.0
 20
-770.0
 30
0.0
 11
7925.0
 21
-851.99999999999636
 31
0.0
1001
ACDBBLOCKREPETAG
1070
     1
1071
        7
1005
145F0E
  0
LINE
  5
145F0F
  8
OBJECT
 10
8075.0
 20
-770.0
 30
0.0
 11
8075.0
 21
-851.99999999999636
 31
0.0
1001
ACDBBLOCKREPETAG
1070
     1
1071
        8
1005
145F0F
  0
LINE
  5
145F10
  8
OBJECT
 10
7925.0
 20
-851.99999999999636
 30
0.0
 11
8075.0
 21
-851.99999999999636
 31
0.0
1001
ACDBBLOCKREPETAG
1070
     1
1071
        9
1005
145F10
  0
LINE
  5
145F11
  8
OBJECT
 10
7925.0
 20
-851.99999999999636
 30
0.0
 11
7943.0
 21
-979.99999999999613
 31
0.0
1001
ACDBBLOCKREPETAG
1070
     1
1071
       10
1005
145F11
  0
LINE
  5
145F12
  8
OBJECT
 10
8057.0
 20
-979.99999999999613
 30
0.0
 11
8075.0
 21
-851.99999999999636
 31
0.0
1001
ACDBBLOCKREPETAG
1070
     1
1071
       11
1005
145F12
  0
LINE
  5
145F13
  8
OBJECT
 10
6085.9999999999927
 20
-1103.9999999999991
 30
0.0
 11
6085.9999999999927
 21
-1113.9999999999991
 31
0.0
1001
ACDBBLOCKREPETAG
1070
     1
1071
      121
1005
145F13
  0
LINE
  5
145F14
  8
OBJECT
 10
6069.9999999999927
 20
-1103.9999999999991
 30
0.0
 11
6069.9999999999927
 21
-1113.9999999999991
 31
0.0
1001
ACDBBLOCKREPETAG
1070
     1
1071
      122
1005
145F14
  0
LINE
  5
145F15
  8
OBJECT
 10
6085.9999999999927
 20
-1113.9999999999991
 30
0.0
 11
6069.9999999999927
 21
-1113.9999999999991
 31
0.0
1001
ACDBBLOCKREPETAG
1070
     1
1071
      123
1005
145F15
  0
LINE
  5
145F16
  8
OBJECT
 10
6090.0
 20
-1064.9999999999959
 30
0.0
 11
5924.0
 21
-1064.9999999999959
 31
0.0
1001
ACDBBLOCKREPETAG
1070
     1
1071
      124
1005
145F16
  0
LINE
  5
145F17
  8
OBJECT
 10
6090.0
 20
-1079.9999999999991
 30
0.0
 11
6090.0
 21
-1064.9999999999959
 31
0.0
1001
ACDBBLOCKREPETAG
1070
     1
1071
      125
1005
145F17
  0
LINE
  5
145F18
  8
OBJECT
 10
5924.0
 20
-1079.9999999999991
 30
0.0
 11
6090.0
 21
-1079.9999999999991
 31
0.0
1001
ACDBBLOCKREPETAG
1070
     1
1071
      126
1005
145F18
  0
LINE
  5
145F19
  8
OBJECT
 10
6067.4999999999864
 20
-1079.9999999999991
 30
0.0
 11
6067.4999999999864
 21
-1089.9999999999991
 31
0.0
1001
ACDBBLOCKREPETAG
1070
     1
1071
      127
1005
145F19
  0
LINE
  5
145F1A
  8
OBJECT
 10
6072.9999999999927
 20
-1089.9999999999991
 30
0.0
 11
6072.9999999999927
 21
-1079.9999999999991
 31
0.0
1001
ACDBBLOCKREPETAG
1070
     1
1071
      128
1005
145F1A
  0
LINE
  5
145F1B
  8
OBJECT
 10
6082.9999999999927
 20
-1089.9999999999991
 30
0.0
 11
6082.9999999999927
 21
-1079.9999999999991
 31
0.0
1001
ACDBBLOCKREPETAG
1070
     1
1071
      129
1005
145F1B
  0
LINE
  5
145F1C
  8
OBJECT
 10
5924.0
 20
-1089.9999999999991
 30
0.0
 11
5924.0
 21
-1103.9999999999959
 31
0.0
1001
ACDBBLOCKREPETAG
1070
     1
1071
      130
1005
145F1C
  0
LINE
  5
145F1D
  8
OBJECT
 10
6090.0
 20
-1089.9999999999991
 30
0.0
 11
6090.0
 21
-1103.9999999999959
 31
0.0
1001
ACDBBLOCKREPETAG
1070
     1
1071
      131
1005
145F1D
  0
LINE
  5
145F1E
  8
OBJECT
 10
5924.0
 20
-1103.9999999999959
 30
0.0
 11
6090.0
 21
-1103.9999999999959
 31
0.0
1001
ACDBBLOCKREPETAG
1070
     1
1071
      132
1005
145F1E
  0
LINE
  5
145F1F
  8
OBJECT
 10
5924.0
 20
-1089.9999999999991
 30
0.0
 11
6090.0
 21
-1089.9999999999991
 31
0.0
1001
ACDBBLOCKREPETAG
1070
     1
1071
      133
1005
145F1F
  0
LINE
  5
145F20
  8
OBJECT
 10
5932.4999999999864
 20
-1079.9999999999991
 30
0.0
 11
5932.4999999999864
 21
-1089.9999999999991
 31
0.0
1001
ACDBBLOCKREPETAG
1070
     1
1071
      134
1005
145F20
  0
LINE
  5
145F21
  8
OBJECT
 10
5934.0
 20
-1028.9999999999959
 30
0.0
 11
6065.9999999999909
 21
-1028.9999999999959
 31
0.0
1001
ACDBBLOCKREPETAG
1070
     1
1071
      135
1005
145F21
  0
LINE
  5
145F22
  8
OBJECT
 10
5924.0
 20
-1079.9999999999991
 30
0.0
 11
5924.0
 21
-1064.9999999999959
 31
0.0
1001
ACDBBLOCKREPETAG
1070
     1
1071
      136
1005
145F22
  0
LINE
  5
145F23
  8
HIDDEN
 10
5943.0
 20
-1039.9999999999991
 30
0.0
 11
6057.0
 21
-1039.9999999999991
 31
0.0
1001
ACDBBLOCKREPETAG
1070
     1
1071
      137
1005
145F23
  0
LINE
  5
145F24
  8
OBJECT
 10
6086.9999999999918
 20
-1063.2
 30
0.0
 11
6086.9999999999918
 21
-1064.9999999999991
 31
0.0
1001
ACDBBLOCKREPETAG
1070
     1
1071
      138
1005
145F24
  0
LINE
  5
145F25
  8
OBJECT
 10
6068.9999999999909
 20
-1063.2
 30
0.0
 11
6068.9999999999909
 21
-1064.9999999999991
 31
0.0
1001
ACDBBLOCKREPETAG
1070
     1
1071
      139
1005
145F25
  0
LINE
  5
145F26
  8
OBJECT
 10
6072.2499999999927
 20
-1053.4999999999991
 30
0.0
 11
6083.7499999999927
 21
-1053.4999999999991
 31
0.0
1001
ACDBBLOCKREPETAG
1070
     1
1071
      140
1005
145F26
  0
LINE
  5
145F27
  8
OBJECT
 10
6072.2499999999927
 20
-1053.4999999999991
 30
0.0
 11
6072.2499999999927
 21
-1063.2
 31
0.0
1001
ACDBBLOCKREPETAG
1070
     1
1071
      141
1005
145F27
  0
LINE
  5
145F28
  8
OBJECT
 10
6083.7499999999927
 20
-1053.4999999999991
 30
0.0
 11
6083.7499999999927
 21
-1063.2
 31
0.0
1001
ACDBBLOCKREPETAG
1070
     1
1071
      142
1005
145F28
  0
LINE
  5
145F29
  8
OBJECT
 10
5931.9999999999873
 20
-1144.9999999999991
 30
0.0
 11
6067.9999999999873
 21
-1144.9999999999991
 31
0.0
1001
ACDBBLOCKREPETAG
1070
     1
1071
      143
1005
145F29
  0
LINE
  5
145F2A
  8
OBJECT
 10
5931.9999999999873
 20
-1144.9999999999991
 30
0.0
 11
5931.9999999999873
 21
-1103.9999999999991
 31
0.0
1001
ACDBBLOCKREPETAG
1070
     1
1071
      144
1005
145F2A
  0
LINE
  5
145F2B
  8
OBJECT
 10
6067.9999999999873
 20
-1144.9999999999991
 30
0.0
 11
6067.9999999999873
 21
-1103.9999999999991
 31
0.0
1001
ACDBBLOCKREPETAG
1070
     1
1071
      145
1005
145F2B
  0
LINE
  5
145F2C
  8
OBJECT
 10
6086.9999999999918
 20
-1063.2
 30
0.0
 11
6068.9999999999909
 21
-1063.2
 31
0.0
1001
ACDBBLOCKREPETAG
1070
     1
1071
      146
1005
145F2C
  0
LINE
  5
145F2D
  8
CENTER
 10
6000.0
 20
-769.99999999999955
 30
0.0
 11
6000.0
 21
-1159.9999999999991
 31
0.0
1001
ACDBBLOCKREPETAG
1070
     1
1071
      147
1005
145F2D
  0
LINE
  5
145F2E
  8
OBJECT
 10
5925.0
 20
-769.99999999999955
 30
0.0
 11
5925.0
 21
-851.99999999999579
 31
0.0
1001
ACDBBLOCKREPETAG
1070
     1
1071
      148
1005
145F2E
  0
LINE
  5
145F2F
  8
OBJECT
 10
6075.0
 20
-769.99999999999955
 30
0.0
 11
6075.0
 21
-851.99999999999216
 31
0.0
1001
ACDBBLOCKREPETAG
1070
     1
1071
      149
1005
145F2F
  0
LINE
  5
145F30
  8
OBJECT
 10
5925.0
 20
-851.99999999999579
 30
0.0
 11
6075.0
 21
-851.99999999999216
 31
0.0
1001
ACDBBLOCKREPETAG
1070
     1
1071
      150
1005
145F30
  0
LINE
  5
145F31
  8
OBJECT
 10
5943.0
 20
-1028.9999999999959
 30
0.0
 11
5943.0
 21
-979.99999999999204
 31
0.0
1001
ACDBBLOCKREPETAG
1070
     1
1071
      151
1005
145F31
  0
LINE
  5
145F32
  8
OBJECT
 10
6057.0
 20
-979.99999999999204
 30
0.0
 11
5943.0
 21
-979.99999999999204
 31
0.0
1001
ACDBBLOCKREPETAG
1070
     1
1071
      152
1005
145F32
  0
LINE
  5
145F33
  8
OBJECT
 10
6057.0
 20
-979.99999999999204
 30
0.0
 11
6057.0
 21
-1028.9999999999959
 31
0.0
1001
ACDBBLOCKREPETAG
1070
     1
1071
      153
1005
145F33
  0
LINE
  5
145F34
  8
OBJECT
 10
5925.0
 20
-851.99999999999579
 30
0.0
 11
5943.0
 21
-979.99999999999204
 31
0.0
1001
ACDBBLOCKREPETAG
1070
     1
1071
      154
1005
145F34
  0
LINE
  5
145F35
  8
OBJECT
 10
6057.0
 20
-979.99999999999204
 30
0.0
 11
6075.0
 21
-851.99999999999216
 31
0.0
1001
ACDBBLOCKREPETAG
1070
     1
1071
      155
1005
145F35
  0
LINE
  5
145F36
  8
OBJECT
 10
5934.0
 20
-1064.9999999999959
 30
0.0
 11
5934.0
 21
-1028.9999999999959
 31
0.0
1001
ACDBBLOCKREPETAG
1070
     1
1071
      156
1005
145F36
  0
LINE
  5
145F37
  8
OBJECT
 10
6066.0
 20
-1064.9999999999959
 30
0.0
 11
6065.9999999999909
 21
-1028.9999999999959
 31
0.0
1001
ACDBBLOCKREPETAG
1070
     1
1071
      157
1005
145F37
  0
LINE
  5
145F38
  8
OBJECT
 10
5954.75
 20
-1054.699999999993
 30
0.0
 11
5967.2499999999991
 21
-1054.699999999993
 31
0.0
1001
ACDBBLOCKREPETAG
1070
     1
1071
      158
1005
145F38
  0
LINE
  5
145F39
  8
OBJECT
 10
5946.0
 20
-1064.9999999999959
 30
0.0
 11
5946.0
 21
-1062.699999999996
 31
0.0
1001
ACDBBLOCKREPETAG
1070
     1
1071
      159
1005
145F39
  0
LINE
  5
145F3A
  8
OBJECT
 10
5976.0
 20
-1064.9999999999959
 30
0.0
 11
5976.0
 21
-1062.699999999996
 31
0.0
1001
ACDBBLOCKREPETAG
1070
     1
1071
      160
1005
145F3A
  0
LINE
  5
145F3B
  8
OBJECT
 10
5954.75
 20
-1054.699999999993
 30
0.0
 11
5954.75
 21
-1062.699999999996
 31
0.0
1001
ACDBBLOCKREPETAG
1070
     1
1071
      161
1005
145F3B
  0
LINE
  5
145F3C
  8
OBJECT
 10
5967.2499999999991
 20
-1054.699999999993
 30
0.0
 11
5967.2499999999991
 21
-1062.699999999996
 31
0.0
1001
ACDBBLOCKREPETAG
1070
     1
1071
      162
1005
145F3C
  0
LINE
  5
145F3D
  8
OBJECT
 10
5946.0
 20
-1062.699999999996
 30
0.0
 11
5976.0
 21
-1062.699999999996
 31
0.0
1001
ACDBBLOCKREPETAG
1070
     1
1071
      163
1005
145F3D
  0
LINE
  5
145F3E
  8
OBJECT
 10
5953.0
 20
-1103.9999999999959
 30
0.0
 11
5953.0
 21
-1113.9999999999959
 31
0.0
1001
ACDBBLOCKREPETAG
1070
     1
1071
      164
1005
145F3E
  0
LINE
  5
145F3F
  8
OBJECT
 10
5969.0
 20
-1103.9999999999959
 30
0.0
 11
5969.0
 21
-1113.9999999999959
 31
0.0
1001
ACDBBLOCKREPETAG
1070
     1
1071
      165
1005
145F3F
  0
LINE
  5
145F40
  8
OBJECT
 10
5953.0
 20
-1113.9999999999959
 30
0.0
 11
5969.0
 21
-1113.9999999999959
 31
0.0
1001
ACDBBLOCKREPETAG
1070
     1
1071
      166
1005
145F40
  0
LINE
  5
145F41
  8
OBJECT
 10
5966.0
 20
-1089.9999999999959
 30
0.0
 11
5966.0
 21
-1079.9999999999959
 31
0.0
1001
ACDBBLOCKREPETAG
1070
     1
1071
      167
1005
145F41
  0
LINE
  5
145F42
  8
OBJECT
 10
5956.0
 20
-1089.9999999999959
 30
0.0
 11
5956.0
 21
-1079.9999999999959
 31
0.0
1001
ACDBBLOCKREPETAG
1070
     1
1071
      168
1005
145F42
  0
LINE
  5
145F43
  8
OBJECT
 10
4090.0
 20
-1064.9999999999959
 30
0.0
 11
3924.0
 21
-1064.9999999999959
 31
0.0
1001
ACDBBLOCKREPETAG
1070
     1
1071
       12
1005
145F43
  0
LINE
  5
145F44
  8
OBJECT
 10
4066.0
 20
-1028.9999999999959
 30
0.0
 11
3934.0
 21
-1028.9999999999959
 31
0.0
1001
ACDBBLOCKREPETAG
1070
     1
1071
       13
1005
145F44
  0
LINE
  5
145F45
  8
OBJECT
 10
4090.0
 20
-1080.0
 30
0.0
 11
4090.0
 21
-1064.9999999999959
 31
0.0
1001
ACDBBLOCKREPETAG
1070
     1
1071
       14
1005
145F45
  0
LINE
  5
145F46
  8
OBJECT
 10
3924.0
 20
-1080.0
 30
0.0
 11
4090.0
 21
-1080.0
 31
0.0
1001
ACDBBLOCKREPETAG
1070
     1
1071
       15
1005
145F46
  0
LINE
  5
145F47
  8
OBJECT
 10
4067.4999999999841
 20
-1080.0
 30
0.0
 11
4067.4999999999841
 21
-1090.0
 31
0.0
1001
ACDBBLOCKREPETAG
1070
     1
1071
       16
1005
145F47
  0
LINE
  5
145F48
  8
OBJECT
 10
3924.0
 20
-1090.0
 30
0.0
 11
3924.0
 21
-1103.9999999999959
 31
0.0
1001
ACDBBLOCKREPETAG
1070
     1
1071
       17
1005
145F48
  0
LINE
  5
145F49
  8
OBJECT
 10
4090.0
 20
-1090.0
 30
0.0
 11
4090.0
 21
-1103.9999999999959
 31
0.0
1001
ACDBBLOCKREPETAG
1070
     1
1071
       18
1005
145F49
  0
LINE
  5
145F4A
  8
OBJECT
 10
3924.0
 20
-1103.9999999999959
 30
0.0
 11
4090.0
 21
-1103.9999999999959
 31
0.0
1001
ACDBBLOCKREPETAG
1070
     1
1071
       19
1005
145F4A
  0
LINE
  5
145F4B
  8
OBJECT
 10
3924.0
 20
-1090.0
 30
0.0
 11
4090.0
 21
-1090.0
 31
0.0
1001
ACDBBLOCKREPETAG
1070
     1
1071
       20
1005
145F4B
  0
LINE
  5
145F4C
  8
OBJECT
 10
3932.499999999985
 20
-1080.0
 30
0.0
 11
3932.499999999985
 21
-1090.0
 31
0.0
1001
ACDBBLOCKREPETAG
1070
     1
1071
       21
1005
145F4C
  0
LINE
  5
145F4D
  8
OBJECT
 10
3924.0
 20
-1080.0
 30
0.0
 11
3924.0
 21
-1064.9999999999959
 31
0.0
1001
ACDBBLOCKREPETAG
1070
     1
1071
       22
1005
145F4D
  0
LINE
  5
145F4E
  8
HIDDEN
 10
3943.0
 20
-1040.0
 30
0.0
 11
4057.0
 21
-1040.0
 31
0.0
1001
ACDBBLOCKREPETAG
1070
     1
1071
       23
1005
145F4E
  0
LINE
  5
145F4F
  8
CENTER
 10
4000.0
 20
-770.0
 30
0.0
 11
4000.0
 21
-1118.9999999999959
 31
0.0
1001
ACDBBLOCKREPETAG
1070
     1
1071
       24
1005
145F4F
  0
LINE
  5
145F50
  8
OBJECT
 10
3925.0
 20
-770.0
 30
0.0
 11
3925.0
 21
-851.99999999999636
 31
0.0
1001
ACDBBLOCKREPETAG
1070
     1
1071
       25
1005
145F50
  0
LINE
  5
145F51
  8
OBJECT
 10
4075.0
 20
-770.0
 30
0.0
 11
4075.0
 21
-851.99999999999261
 31
0.0
1001
ACDBBLOCKREPETAG
1070
     1
1071
       26
1005
145F51
  0
LINE
  5
145F52
  8
OBJECT
 10
3925.0
 20
-851.99999999999636
 30
0.0
 11
4075.0
 21
-851.99999999999261
 31
0.0
1001
ACDBBLOCKREPETAG
1070
     1
1071
       27
1005
145F52
  0
LINE
  5
145F53
  8
OBJECT
 10
4057.0
 20
-1028.9999999999959
 30
0.0
 11
4057.0
 21
-979.99999999999272
 31
0.0
1001
ACDBBLOCKREPETAG
1070
     1
1071
       28
1005
145F53
  0
LINE
  5
145F54
  8
OBJECT
 10
3943.0
 20
-1028.9999999999959
 30
0.0
 11
3943.0
 21
-979.99999999999272
 31
0.0
1001
ACDBBLOCKREPETAG
1070
     1
1071
       29
1005
145F54
  0
LINE
  5
145F55
  8
OBJECT
 10
4057.0
 20
-979.99999999999272
 30
0.0
 11
3943.0
 21
-979.99999999999272
 31
0.0
1001
ACDBBLOCKREPETAG
1070
     1
1071
       30
1005
145F55
  0
LINE
  5
145F56
  8
OBJECT
 10
3925.0
 20
-851.99999999999636
 30
0.0
 11
3943.0
 21
-979.99999999999272
 31
0.0
1001
ACDBBLOCKREPETAG
1070
     1
1071
       31
1005
145F56
  0
LINE
  5
145F57
  8
OBJECT
 10
4057.0
 20
-979.99999999999272
 30
0.0
 11
4075.0
 21
-851.99999999999261
 31
0.0
1001
ACDBBLOCKREPETAG
1070
     1
1071
       32
1005
145F57
  0
LINE
  5
145F58
  8
OBJECT
 10
3934.0
 20
-1028.9999999999959
 30
0.0
 11
3934.0
 21
-1064.9999999999959
 31
0.0
1001
ACDBBLOCKREPETAG
1070
     1
1071
       33
1005
145F58
  0
LINE
  5
145F59
  8
OBJECT
 10
4066.0
 20
-1028.9999999999959
 30
0.0
 11
4066.0
 21
-1064.9999999999959
 31
0.0
1001
ACDBBLOCKREPETAG
1070
     1
1071
       34
1005
145F59
  0
LINE
  5
145F5A
  8
OBJECT
 10
4082.9999999999932
 20
-1089.9999999999959
 30
0.0
 11
4082.9999999999932
 21
-1079.9999999999959
 31
0.0
1001
ACDBBLOCKREPETAG
1070
     1
1071
       35
1005
145F5A
  0
LINE
  5
145F5B
  8
OBJECT
 10
4072.9999999999918
 20
-1089.9999999999959
 30
0.0
 11
4072.9999999999918
 21
-1079.9999999999959
 31
0.0
1001
ACDBBLOCKREPETAG
1070
     1
1071
       36
1005
145F5B
  0
LINE
  5
145F5C
  8
OBJECT
 10
4068.9999999999841
 20
-1059.9999999999959
 30
0.0
 11
4068.9999999999841
 21
-1064.9999999999959
 31
0.0
1001
ACDBBLOCKREPETAG
1070
     1
1071
       37
1005
145F5C
  0
LINE
  5
145F5D
  8
OBJECT
 10
4087.0
 20
-1059.9999999999959
 30
0.0
 11
4087.0
 21
-1064.9999999999959
 31
0.0
1001
ACDBBLOCKREPETAG
1070
     1
1071
       38
1005
145F5D
  0
LINE
  5
145F5E
  8
OBJECT
 10
4087.0
 20
-1059.9999999999959
 30
0.0
 11
4068.9999999999841
 21
-1059.9999999999959
 31
0.0
1001
ACDBBLOCKREPETAG
1070
     1
1071
       39
1005
145F5E
  0
LINE
  5
145F5F
  8
OBJECT
 10
4073.0
 20
-1111.9999999999959
 30
0.0
 11
4073.0
 21
-1114.9999999999959
 31
0.0
1001
ACDBBLOCKREPETAG
1070
     1
1071
       40
1005
145F5F
  0
LINE
  5
145F60
  8
OBJECT
 10
4073.0
 20
-1114.9999999999959
 30
0.0
 11
4083.0
 21
-1114.9999999999959
 31
0.0
1001
ACDBBLOCKREPETAG
1070
     1
1071
       41
1005
145F60
  0
LINE
  5
145F61
  8
OBJECT
 10
4083.0
 20
-1114.9999999999959
 30
0.0
 11
4083.0
 21
-1111.9999999999959
 31
0.0
1001
ACDBBLOCKREPETAG
1070
     1
1071
       43
1005
145F61
  0
LINE
  5
145F62
  8
OBJECT
 10
3968.5
 20
-1059.9999999999959
 30
0.0
 11
3951.9999999999932
 21
-1059.9999999999959
 31
0.0
1001
ACDBBLOCKREPETAG
1070
     1
1071
       48
1005
145F62
  0
LINE
  5
145F63
  8
OBJECT
 10
3976.0
 20
-1064.9999999999959
 30
0.0
 11
3976.0
 21
-1062.9999999999959
 31
0.0
1001
ACDBBLOCKREPETAG
1070
     1
1071
       49
1005
145F63
  0
LINE
  5
145F64
  8
OBJECT
 10
3966.0
 20
-1089.9999999999959
 30
0.0
 11
3966.0
 21
-1079.9999999999959
 31
0.0
1001
ACDBBLOCKREPETAG
1070
     1
1071
       50
1005
145F64
  0
LINE
  5
145F65
  8
OBJECT
 10
3956.0
 20
-1089.9999999999959
 30
0.0
 11
3956.0
 21
-1079.9999999999959
 31
0.0
1001
ACDBBLOCKREPETAG
1070
     1
1071
       51
1005
145F65
  0
LINE
  5
145F66
  8
OBJECT
 10
3951.9999999999932
 20
-1059.9999999999959
 30
0.0
 11
3951.9999999999932
 21
-1064.9999999999959
 31
0.0
1001
ACDBBLOCKREPETAG
1070
     1
1071
       52
1005
145F66
  0
LINE
  5
145F67
  8
OBJECT
 10
3956.0
 20
-1111.9999999999959
 30
0.0
 11
3956.0
 21
-1114.9999999999959
 31
0.0
1001
ACDBBLOCKREPETAG
1070
     1
1071
       53
1005
145F67
  0
LINE
  5
145F68
  8
OBJECT
 10
3956.0
 20
-1114.9999999999959
 30
0.0
 11
3966.0
 21
-1114.9999999999959
 31
0.0
1001
ACDBBLOCKREPETAG
1070
     1
1071
       54
1005
145F68
  0
LINE
  5
145F69
  8
OBJECT
 10
3951.185045423772
 20
-1111.9999999999959
 30
0.0
 11
3970.8149545762212
 21
-1111.9999999999959
 31
0.0
1001
ACDBBLOCKREPETAG
1070
     1
1071
       55
1005
145F69
  0
LINE
  5
145F6A
  8
OBJECT
 10
3966.0
 20
-1114.9999999999959
 30
0.0
 11
3966.0
 21
-1111.9999999999959
 31
0.0
1001
ACDBBLOCKREPETAG
1070
     1
1071
       56
1005
145F6A
  0
LINE
  5
145F6B
  8
OBJECT
 10
3976.0
 20
-1062.9999999999959
 30
0.0
 11
3968.5
 21
-1059.9999999999959
 31
0.0
1001
ACDBBLOCKREPETAG
1070
     1
1071
       57
1005
145F6B
  0
LINE
  5
145F6C
  8
OBJECT
 10
3951.185045423777
 20
-1103.9999999999959
 30
0.0
 11
3951.185045423777
 21
-1111.9999999999959
 31
0.0
1001
ACDBBLOCKREPETAG
1070
     1
1071
      630
1005
145F6C
  0
LINE
  5
145F6D
  8
OBJECT
 10
3956.0925227118901
 20
-1103.9999999999959
 30
0.0
 11
3956.0925227118901
 21
-1111.9999999999959
 31
0.0
1001
ACDBBLOCKREPETAG
1070
     1
1071
      631
1005
145F6D
  0
LINE
  5
145F6E
  8
OBJECT
 10
3965.9074772881122
 20
-1103.9999999999959
 30
0.0
 11
3965.9074772881122
 21
-1111.9999999999959
 31
0.0
1001
ACDBBLOCKREPETAG
1070
     1
1071
      632
1005
145F6E
  0
LINE
  5
145F6F
  8
OBJECT
 10
3970.814954576223
 20
-1103.9999999999959
 30
0.0
 11
3970.814954576223
 21
-1111.9999999999959
 31
0.0
1001
ACDBBLOCKREPETAG
1070
     1
1071
      633
1005
145F6F
  0
LINE
  5
145F70
  8
OBJECT
 10
4068.185045423772
 20
-1111.9999999999959
 30
0.0
 11
4087.8149545762199
 21
-1111.9999999999959
 31
0.0
1001
ACDBBLOCKREPETAG
1070
     1
1071
      634
1005
145F70
  0
LINE
  5
145F71
  8
OBJECT
 10
4068.185045423777
 20
-1103.9999999999959
 30
0.0
 11
4068.185045423777
 21
-1111.9999999999959
 31
0.0
1001
ACDBBLOCKREPETAG
1070
     1
1071
      635
1005
145F71
  0
LINE
  5
145F72
  8
OBJECT
 10
4073.0925227118869
 20
-1103.9999999999959
 30
0.0
 11
4073.0925227118869
 21
-1111.9999999999959
 31
0.0
1001
ACDBBLOCKREPETAG
1070
     1
1071
      636
1005
145F72
  0
LINE
  5
145F73
  8
OBJECT
 10
4082.9074772881122
 20
-1103.9999999999959
 30
0.0
 11
4082.9074772881122
 21
-1111.9999999999959
 31
0.0
1001
ACDBBLOCKREPETAG
1070
     1
1071
      637
1005
145F73
  0
LINE
  5
145F74
  8
OBJECT
 10
4087.814954576223
 20
-1103.9999999999959
 30
0.0
 11
4087.814954576223
 21
-1111.9999999999959
 31
0.0
1001
ACDBBLOCKREPETAG
1070
     1
1071
      638
1005
145F74
  0
LINE
  5
145F75
  8
CENTER
 10
11909.0
 20
-1353.9999999999959
 30
0.0
 11
12105.0
 21
-1353.9999999999959
 31
0.0
1001
ACDBBLOCKREPETAG
1070
     1
1071
       10
1005
145F75
  0
LINE
  5
145F76
  8
CENTER
 10
12000.0
 20
-1262.7253355707801
 30
0.0
 11
12000.0
 21
-1445.2746644292131
 31
0.0
1001
ACDBBLOCKREPETAG
1070
     1
1071
       11
1005
145F76
  0
CIRCLE
  5
145F77
  8
OBJECT
 10
12000.0
 20
-1353.9999999999959
 30
0.0
 40
50.0
1001
ACDBBLOCKREPETAG
1070
     1
1071
       12
1005
145F77
  0
CIRCLE
  5
145F78
  8
OBJECT
 10
12000.0
 20
-1353.9999999999959
 30
0.0
 40
60.0
1001
ACDBBLOCKREPETAG
1070
     1
1071
       13
1005
145F78
  0
CIRCLE
  5
145F79
  8
OBJECT
 10
12000.0
 20
-1353.9999999999959
 30
0.0
 40
68.0
1001
ACDBBLOCKREPETAG
1070
     1
1071
       14
1005
145F79
  0
ARC
  5
145F7A
  8
OBJECT
 10
12077.5
 20
-1353.9999999999959
 30
0.0
 40
12.0
 50
272.10542627221611
 51
87.894573727783893
1001
ACDBBLOCKREPETAG
1070
     1
1071
       15
1005
145F7A
  0
ARC
  5
145F7B
  8
OBJECT
 10
12078.49193548386
 20
-1327.0182271895251
 30
0.0
 40
15.0
 50
198.97051877965251
 51
267.89457372778372
1001
ACDBBLOCKREPETAG
1070
     1
1071
       16
1005
145F7B
  0
ARC
  5
145F7C
  8
OBJECT
 10
12078.49193548386
 20
-1380.981772810464
 30
0.0
 40
15.0
 50
92.105426272216135
 51
161.02948122034729
1001
ACDBBLOCKREPETAG
1070
     1
1071
       17
1005
145F7C
  0
CIRCLE
  5
145F7D
  8
SLIM
 10
12078.0
 20
-1353.9999999999959
 30
0.0
 40
8.0
1001
ACDBBLOCKREPETAG
1070
     1
1071
       18
1005
145F7D
  0
POLYLINE
  5
145F7E
  8
SLIM
 66
     1
 10
0.0
 20
0.0
 30
0.0
 70
     1
1001
ACDBBLOCKREPETAG
1070
     1
1071
       19
1005
145F7E
  0
VERTEX
  5
146A37
  8
SLIM
 10
12075.69059892322
 20
-1349.9999999999959
 30
0.0
  0
VERTEX
  5
146A38
  8
SLIM
 10
12073.38119784648
 20
-1353.9999999999959
 30
0.0
  0
VERTEX
  5
146A39
  8
SLIM
 10
12075.69059892322
 20
-1357.9999999999959
 30
0.0
  0
VERTEX
  5
146A3A
  8
SLIM
 10
12080.309401076751
 20
-1357.9999999999959
 30
0.0
  0
VERTEX
  5
146A3B
  8
SLIM
 10
12082.618802153511
 20
-1353.9999999999959
 30
0.0
  0
VERTEX
  5
146A3C
  8
SLIM
 10
12080.309401076751
 20
-1349.9999999999959
 30
0.0
  0
SEQEND
  5
146A3D
  8
SLIM
  0
ARC
  5
145F7F
  8
OBJECT
 10
11961.25
 20
-1286.8830312067
 30
0.0
 40
12.0
 50
32.105426272130188
 51
207.89457372768319
1001
ACDBBLOCKREPETAG
1070
     1
1071
       20
1005
145F7F
  0
ARC
  5
145F80
  8
OBJECT
 10
11937.38713156505
 20
-1299.514876283989
 30
0.0
 40
15.0
 50
318.97051877944762
 51
27.89457372768311
1001
ACDBBLOCKREPETAG
1070
     1
1071
       21
1005
145F80
  0
ARC
  5
145F81
  8
OBJECT
 10
11984.120932951069
 20
-1272.533103473517
 30
0.0
 40
15.0
 50
212.10542627213019
 51
281.02948122044069
1001
ACDBBLOCKREPETAG
1070
     1
1071
       22
1005
145F81
  0
CIRCLE
  5
145F82
  8
SLIM
 10
11961.0
 20
-1286.4500185048089
 30
0.0
 40
7.9999999999999982
1001
ACDBBLOCKREPETAG
1070
     1
1071
       23
1005
145F82
  0
POLYLINE
  5
145F83
  8
SLIM
 66
     1
 10
0.0
 20
0.0
 30
0.0
 70
     1
1001
ACDBBLOCKREPETAG
1070
     1
1071
       24
1005
145F83
  0
VERTEX
  5
146A3E
  8
SLIM
 10
11958.69059892324
 20
-1290.4500185048089
 30
0.0
  0
VERTEX
  5
146A3F
  8
SLIM
 10
11963.309401076751
 20
-1290.4500185048089
 30
0.0
  0
VERTEX
  5
146A40
  8
SLIM
 10
11965.618802153511
 20
-1286.4500185048089
 30
0.0
  0
VERTEX
  5
146A41
  8
SLIM
 10
11963.309401076751
 20
-1282.4500185048089
 30
0.0
  0
VERTEX
  5
146A42
  8
SLIM
 10
11958.69059892324
 20
-1282.4500185048089
 30
0.0
  0
VERTEX
  5
146A43
  8
SLIM
 10
11956.38119784648
 20
-1286.4500185048089
 30
0.0
  0
SEQEND
  5
146A44
  8
SLIM
  0
ARC
  5
145F84
  8
OBJECT
 10
11961.25
 20
-1421.1169687932891
 30
0.0
 40
12.0
 50
152.10542627231681
 51
327.89457372786978
1001
ACDBBLOCKREPETAG
1070
     1
1071
       25
1005
145F84
  0
ARC
  5
145F85
  8
OBJECT
 10
11984.120932951069
 20
-1435.4668965264721
 30
0.0
 40
15.0
 50
78.970518779559228
 51
147.89457372786981
1001
ACDBBLOCKREPETAG
1070
     1
1071
       26
1005
145F85
  0
ARC
  5
145F86
  8
OBJECT
 10
11937.38713156505
 20
-1408.485123716004
 30
0.0
 40
15.0
 50
332.10542627231678
 51
41.029481220552412
1001
ACDBBLOCKREPETAG
1070
     1
1071
       27
1005
145F86
  0
CIRCLE
  5
145F87
  8
SLIM
 10
11961.0
 20
-1421.549981495182
 30
0.0
 40
8.0
1001
ACDBBLOCKREPETAG
1070
     1
1071
       28
1005
145F87
  0
POLYLINE
  5
145F88
  8
SLIM
 66
     1
 10
0.0
 20
0.0
 30
0.0
 70
     1
1001
ACDBBLOCKREPETAG
1070
     1
1071
       29
1005
145F88
  0
VERTEX
  5
146A45
  8
SLIM
 10
11965.618802153511
 20
-1421.54998149518
 30
0.0
  0
VERTEX
  5
146A46
  8
SLIM
 10
11963.309401076751
 20
-1417.5499814951829
 30
0.0
  0
VERTEX
  5
146A47
  8
SLIM
 10
11958.69059892324
 20
-1417.54998149518
 30
0.0
  0
VERTEX
  5
146A48
  8
SLIM
 10
11956.38119784648
 20
-1421.549981495182
 30
0.0
  0
VERTEX
  5
146A49
  8
SLIM
 10
11958.69059892322
 20
-1425.54998149518
 30
0.0
  0
VERTEX
  5
146A4A
  8
SLIM
 10
11963.309401076751
 20
-1425.5499814951829
 30
0.0
  0
SEQEND
  5
146A4B
  8
SLIM
  0
ARC
  5
145F89
  8
OBJECT
 10
12000.0
 20
-1353.9999999999959
 30
0.0
 40
76.0
 50
34.863837954171863
 51
85.136162045732945
1001
ACDBBLOCKREPETAG
1070
     1
1071
       42
1005
145F89
  0
ARC
  5
145F8A
  8
OBJECT
 10
12000.0
 20
-1353.9999999999959
 30
0.0
 40
76.0
 50
154.86383795430939
 51
205.1361620456905
1001
ACDBBLOCKREPETAG
1070
     1
1071
       43
1005
145F8A
  0
ARC
  5
145F8B
  8
OBJECT
 10
12000.0
 20
-1353.9999999999959
 30
0.0
 40
76.0
 50
274.86383795426718
 51
325.13616204582797
1001
ACDBBLOCKREPETAG
1070
     1
1071
       44
1005
145F8B
  0
ARC
  5
145F8C
  8
OBJECT
 10
12078.0
 20
-1353.9999999999959
 30
0.0
 40
12.0
 50
325.13616204582797
 51
34.863837954171863
1001
ACDBBLOCKREPETAG
1070
     1
1071
       45
1005
145F8C
  0
LINE
  5
145F8D
  8
OBJECT
 10
12087.84615384616
 20
-1347.140462520134
 30
0.0
 11
12062.358974359049
 21
-1310.556262627535
 31
0.0
1001
ACDBBLOCKREPETAG
1070
     1
1071
       46
1005
145F8D
  0
LINE
  5
145F8E
  8
OBJECT
 10
12087.846153846171
 20
-1360.859537479857
 30
0.0
 11
12062.358974359049
 21
-1397.4437373724591
 31
0.0
1001
ACDBBLOCKREPETAG
1070
     1
1071
       47
1005
145F8E
  0
ARC
  5
145F8F
  8
OBJECT
 10
11961.0
 20
-1286.4500185048109
 30
0.0
 40
12.0
 50
85.136162045942811
 51
154.86383795410001
1001
ACDBBLOCKREPETAG
1070
     1
1071
       48
1005
145F8F
  0
LINE
  5
145F90
  8
OBJECT
 10
11950.13638936114
 20
-1281.35276788439
 30
0.0
 11
11931.19713262058
 21
-1321.7174127373471
 31
0.0
1001
ACDBBLOCKREPETAG
1070
     1
1071
       49
1005
145F90
  0
LINE
  5
145F91
  8
OBJECT
 10
11962.017456792681
 20
-1274.4932304045269
 30
0.0
 11
12006.443893020371
 21
-1278.273675364886
 31
0.0
1001
ACDBBLOCKREPETAG
1070
     1
1071
       50
1005
145F91
  0
ARC
  5
145F92
  8
OBJECT
 10
11961.0
 20
-1421.5499814951811
 30
0.0
 40
12.0
 50
205.13616204589991
 51
274.8638379540572
1001
ACDBBLOCKREPETAG
1070
     1
1071
       51
1005
145F92
  0
LINE
  5
145F93
  8
OBJECT
 10
11962.01745679269
 20
-1433.506769595464
 30
0.0
 11
12006.44389302036
 21
-1429.7263246351069
 31
0.0
1001
ACDBBLOCKREPETAG
1070
     1
1071
       52
1005
145F93
  0
LINE
  5
145F94
  8
OBJECT
 10
11950.13638936114
 20
-1426.647232115605
 30
0.0
 11
11931.19713262058
 21
-1386.2825872626429
 31
0.0
1001
ACDBBLOCKREPETAG
1070
     1
1071
       53
1005
145F94
  0
LINE
  5
145F95
  8
CENTER
 10
9909.0
 20
-1353.9999999999959
 30
0.0
 11
10105.0
 21
-1353.9999999999959
 31
0.0
1001
ACDBBLOCKREPETAG
1070
     1
1071
        0
1005
145F95
  0
LINE
  5
145F96
  8
CENTER
 10
10000.0
 20
-1262.7253355707801
 30
0.0
 11
10000.0
 21
-1445.2746644292131
 31
0.0
1001
ACDBBLOCKREPETAG
1070
     1
1071
        1
1005
145F96
  0
CIRCLE
  5
145F97
  8
OBJECT
 10
10000.0
 20
-1353.9999999999959
 30
0.0
 40
50.0
1001
ACDBBLOCKREPETAG
1070
     1
1071
        2
1005
145F97
  0
CIRCLE
  5
145F98
  8
OBJECT
 10
10000.0
 20
-1353.9999999999959
 30
0.0
 40
62.0
1001
ACDBBLOCKREPETAG
1070
     1
1071
        3
1005
145F98
  0
CIRCLE
  5
145F99
  8
SLIM
 10
10078.0
 20
-1353.9999999999959
 30
0.0
 40
5.0
1001
ACDBBLOCKREPETAG
1070
     1
1071
        4
1005
145F99
  0
POLYLINE
  5
145F9A
  8
SLIM
 66
     1
 10
0.0
 20
0.0
 30
0.0
 70
     1
1001
ACDBBLOCKREPETAG
1070
     1
1071
        5
1005
145F9A
  0
VERTEX
  5
146A4C
  8
SLIM
 10
10073.092522711881
 20
-1345.4999999999959
 30
0.0
  0
VERTEX
  5
146A4D
  8
SLIM
 10
10068.18504542377
 20
-1353.9999999999959
 30
0.0
  0
VERTEX
  5
146A4E
  8
SLIM
 10
10073.092522711881
 20
-1362.4999999999959
 30
0.0
  0
VERTEX
  5
146A4F
  8
SLIM
 10
10082.907477288099
 20
-1362.4999999999959
 30
0.0
  0
VERTEX
  5
146A50
  8
SLIM
 10
10087.814954576221
 20
-1353.9999999999959
 30
0.0
  0
VERTEX
  5
146A51
  8
SLIM
 10
10082.907477288099
 20
-1345.4999999999959
 30
0.0
  0
SEQEND
  5
146A52
  8
SLIM
  0
CIRCLE
  5
145F9B
  8
SLIM
 10
9961.0
 20
-1286.4500185048089
 30
0.0
 40
4.9999999999999991
1001
ACDBBLOCKREPETAG
1070
     1
1071
        6
1005
145F9B
  0
POLYLINE
  5
145F9C
  8
SLIM
 66
     1
 10
0.0
 20
0.0
 30
0.0
 70
     1
1001
ACDBBLOCKREPETAG
1070
     1
1071
        7
1005
145F9C
  0
VERTEX
  5
146A53
  8
SLIM
 10
9956.092522711886
 20
-1294.9500185048089
 30
0.0
  0
VERTEX
  5
146A54
  8
SLIM
 10
9965.907477288114
 20
-1294.9500185048089
 30
0.0
  0
VERTEX
  5
146A55
  8
SLIM
 10
9970.814954576219
 20
-1286.4500185048089
 30
0.0
  0
VERTEX
  5
146A56
  8
SLIM
 10
9965.907477288114
 20
-1277.9500185048089
 30
0.0
  0
VERTEX
  5
146A57
  8
SLIM
 10
9956.092522711886
 20
-1277.9500185048089
 30
0.0
  0
VERTEX
  5
146A58
  8
SLIM
 10
9951.185045423772
 20
-1286.4500185048089
 30
0.0
  0
SEQEND
  5
146A59
  8
SLIM
  0
CIRCLE
  5
145F9D
  8
SLIM
 10
9961.0
 20
-1421.549981495182
 30
0.0
 40
5.0
1001
ACDBBLOCKREPETAG
1070
     1
1071
        8
1005
145F9D
  0
POLYLINE
  5
145F9E
  8
SLIM
 66
     1
 10
0.0
 20
0.0
 30
0.0
 70
     1
1001
ACDBBLOCKREPETAG
1070
     1
1071
        9
1005
145F9E
  0
VERTEX
  5
146A5A
  8
SLIM
 10
9970.814954576219
 20
-1421.549981495182
 30
0.0
  0
VERTEX
  5
146A5B
  8
SLIM
 10
9965.9074772881049
 20
-1413.04998149518
 30
0.0
  0
VERTEX
  5
146A5C
  8
SLIM
 10
9956.092522711886
 20
-1413.0499814951829
 30
0.0
  0
VERTEX
  5
146A5D
  8
SLIM
 10
9951.185045423772
 20
-1421.54998149518
 30
0.0
  0
VERTEX
  5
146A5E
  8
SLIM
 10
9956.092522711886
 20
-1430.0499814951829
 30
0.0
  0
VERTEX
  5
146A5F
  8
SLIM
 10
9965.907477288114
 20
-1430.04998149518
 30
0.0
  0
SEQEND
  5
146A60
  8
SLIM
  0
ARC
  5
145F9F
  8
OBJECT
 10
10000.0
 20
-1353.9999999999959
 30
0.0
 40
76.0
 50
34.863837954171863
 51
85.136162045732945
1001
ACDBBLOCKREPETAG
1070
     1
1071
       30
1005
145F9F
  0
ARC
  5
145FA0
  8
OBJECT
 10
10000.0
 20
-1353.9999999999959
 30
0.0
 40
76.0
 50
154.86383795430939
 51
205.1361620456905
1001
ACDBBLOCKREPETAG
1070
     1
1071
       31
1005
145FA0
  0
ARC
  5
145FA1
  8
OBJECT
 10
10000.0
 20
-1353.9999999999959
 30
0.0
 40
76.0
 50
274.86383795426718
 51
325.13616204582797
1001
ACDBBLOCKREPETAG
1070
     1
1071
       32
1005
145FA1
  0
ARC
  5
145FA2
  8
OBJECT
 10
10078.0
 20
-1353.9999999999959
 30
0.0
 40
12.0
 50
325.13616204582797
 51
34.863837954171863
1001
ACDBBLOCKREPETAG
1070
     1
1071
       33
1005
145FA2
  0
LINE
  5
145FA3
  8
OBJECT
 10
10087.84615384616
 20
-1347.140462520134
 30
0.0
 11
10062.35897435904
 21
-1310.556262627535
 31
0.0
1001
ACDBBLOCKREPETAG
1070
     1
1071
       34
1005
145FA3
  0
LINE
  5
145FA4
  8
OBJECT
 10
10087.846153846171
 20
-1360.859537479857
 30
0.0
 11
10062.35897435904
 21
-1397.4437373724591
 31
0.0
1001
ACDBBLOCKREPETAG
1070
     1
1071
       35
1005
145FA4
  0
ARC
  5
145FA5
  8
OBJECT
 10
9961.0
 20
-1286.4500185048109
 30
0.0
 40
12.0
 50
85.136162045942811
 51
154.86383795410001
1001
ACDBBLOCKREPETAG
1070
     1
1071
       36
1005
145FA5
  0
LINE
  5
145FA6
  8
OBJECT
 10
9950.1363893611433
 20
-1281.35276788439
 30
0.0
 11
9931.1971326205894
 21
-1321.7174127373471
 31
0.0
1001
ACDBBLOCKREPETAG
1070
     1
1071
       37
1005
145FA6
  0
LINE
  5
145FA7
  8
OBJECT
 10
9962.0174567926842
 20
-1274.4932304045269
 30
0.0
 11
10006.443893020371
 21
-1278.273675364886
 31
0.0
1001
ACDBBLOCKREPETAG
1070
     1
1071
       38
1005
145FA7
  0
ARC
  5
145FA8
  8
OBJECT
 10
9961.0
 20
-1421.5499814951811
 30
0.0
 40
12.0
 50
205.13616204589991
 51
274.8638379540572
1001
ACDBBLOCKREPETAG
1070
     1
1071
       39
1005
145FA8
  0
LINE
  5
145FA9
  8
OBJECT
 10
9962.0174567926897
 20
-1433.506769595464
 30
0.0
 11
10006.44389302036
 21
-1429.7263246351069
 31
0.0
1001
ACDBBLOCKREPETAG
1070
     1
1071
       40
1005
145FA9
  0
LINE
  5
145FAA
  8
OBJECT
 10
9950.1363893611433
 20
-1426.647232115605
 30
0.0
 11
9931.1971326205821
 21
-1386.2825872626429
 31
0.0
1001
ACDBBLOCKREPETAG
1070
     1
1071
       41
1005
145FAA
  0
LINE
  5
145FAB
  8
CENTER
 10
5909.0
 20
-1394.9999999999991
 30
0.0
 11
6105.0
 21
-1394.9999999999991
 31
0.0
1001
ACDBBLOCKREPETAG
1070
     1
1071
       10
1005
145FAB
  0
LINE
  5
145FAC
  8
CENTER
 10
6000.0
 20
-1303.725335570783
 30
0.0
 11
6000.0
 21
-1486.274664429216
 31
0.0
1001
ACDBBLOCKREPETAG
1070
     1
1071
       11
1005
145FAC
  0
CIRCLE
  5
145FAD
  8
OBJECT
 10
6000.0
 20
-1394.9999999999991
 30
0.0
 40
50.0
1001
ACDBBLOCKREPETAG
1070
     1
1071
       12
1005
145FAD
  0
CIRCLE
  5
145FAE
  8
OBJECT
 10
6000.0
 20
-1394.9999999999991
 30
0.0
 40
60.0
1001
ACDBBLOCKREPETAG
1070
     1
1071
       13
1005
145FAE
  0
CIRCLE
  5
145FAF
  8
OBJECT
 10
6000.0
 20
-1394.9999999999991
 30
0.0
 40
68.0
1001
ACDBBLOCKREPETAG
1070
     1
1071
       14
1005
145FAF
  0
ARC
  5
145FB0
  8
OBJECT
 10
6077.5
 20
-1394.9999999999991
 30
0.0
 40
12.0
 50
272.10542627221611
 51
87.894573727783893
1001
ACDBBLOCKREPETAG
1070
     1
1071
       15
1005
145FB0
  0
ARC
  5
145FB1
  8
OBJECT
 10
6078.4919354838639
 20
-1368.018227189528
 30
0.0
 40
15.0
 50
198.9705187796356
 51
267.89457372778372
1001
ACDBBLOCKREPETAG
1070
     1
1071
       16
1005
145FB1
  0
ARC
  5
145FB2
  8
OBJECT
 10
6078.4919354838639
 20
-1421.981772810467
 30
0.0
 40
15.0
 50
92.105426272216135
 51
161.02948122036429
1001
ACDBBLOCKREPETAG
1070
     1
1071
       17
1005
145FB2
  0
CIRCLE
  5
145FB3
  8
SLIM
 10
6078.0
 20
-1394.9999999999991
 30
0.0
 40
8.0
1001
ACDBBLOCKREPETAG
1070
     1
1071
       18
1005
145FB3
  0
POLYLINE
  5
145FB4
  8
SLIM
 66
     1
 10
0.0
 20
0.0
 30
0.0
 70
     1
1001
ACDBBLOCKREPETAG
1070
     1
1071
       19
1005
145FB4
  0
VERTEX
  5
146A61
  8
SLIM
 10
6075.6905989232328
 20
-1391.0
 30
0.0
  0
VERTEX
  5
146A62
  8
SLIM
 10
6073.3811978464801
 20
-1394.9999999999991
 30
0.0
  0
VERTEX
  5
146A63
  8
SLIM
 10
6075.6905989232328
 20
-1398.9999999999991
 30
0.0
  0
VERTEX
  5
146A64
  8
SLIM
 10
6080.3094010767527
 20
-1398.9999999999991
 30
0.0
  0
VERTEX
  5
146A65
  8
SLIM
 10
6082.6188021535136
 20
-1394.9999999999991
 30
0.0
  0
VERTEX
  5
146A66
  8
SLIM
 10
6080.3094010767527
 20
-1391.0
 30
0.0
  0
SEQEND
  5
146A67
  8
SLIM
  0
ARC
  5
145FB5
  8
OBJECT
 10
5961.25
 20
-1327.883031206703
 30
0.0
 40
12.0
 50
32.105426272157878
 51
207.89457372770741
1001
ACDBBLOCKREPETAG
1070
     1
1071
       20
1005
145FB5
  0
ARC
  5
145FB6
  8
OBJECT
 10
5937.387131565054
 20
-1340.514876283992
 30
0.0
 40
15.0
 50
318.97051877944762
 51
27.894573727707481
1001
ACDBBLOCKREPETAG
1070
     1
1071
       21
1005
145FB6
  0
ARC
  5
145FB7
  8
OBJECT
 10
5984.1209329510702
 20
-1313.53310347352
 30
0.0
 40
15.0
 50
212.1054262721579
 51
281.02948122044069
1001
ACDBBLOCKREPETAG
1070
     1
1071
       22
1005
145FB7
  0
CIRCLE
  5
145FB8
  8
SLIM
 10
5961.0
 20
-1327.4500185048121
 30
0.0
 40
7.9999999999999982
1001
ACDBBLOCKREPETAG
1070
     1
1071
       23
1005
145FB8
  0
POLYLINE
  5
145FB9
  8
SLIM
 66
     1
 10
0.0
 20
0.0
 30
0.0
 70
     1
1001
ACDBBLOCKREPETAG
1070
     1
1071
       24
1005
145FB9
  0
VERTEX
  5
146A68
  8
SLIM
 10
5958.69059892324
 20
-1331.4500185048121
 30
0.0
  0
VERTEX
  5
146A69
  8
SLIM
 10
5963.3094010767518
 20
-1331.4500185048121
 30
0.0
  0
VERTEX
  5
146A6A
  8
SLIM
 10
5965.6188021535136
 20
-1327.4500185048121
 30
0.0
  0
VERTEX
  5
146A6B
  8
SLIM
 10
5963.3094010767518
 20
-1323.4500185048121
 30
0.0
  0
VERTEX
  5
146A6C
  8
SLIM
 10
5958.69059892324
 20
-1323.4500185048121
 30
0.0
  0
VERTEX
  5
146A6D
  8
SLIM
 10
5956.3811978464792
 20
-1327.4500185048121
 30
0.0
  0
SEQEND
  5
146A6E
  8
SLIM
  0
ARC
  5
145FBA
  8
OBJECT
 10
5961.25
 20
-1462.116968793292
 30
0.0
 40
12.0
 50
152.1054262722925
 51
327.89457372784221
1001
ACDBBLOCKREPETAG
1070
     1
1071
       25
1005
145FBA
  0
ARC
  5
145FBB
  8
OBJECT
 10
5984.1209329510702
 20
-1476.466896526475
 30
0.0
 40
15.0
 50
78.970518779559228
 51
147.8945737278421
1001
ACDBBLOCKREPETAG
1070
     1
1071
       26
1005
145FBB
  0
ARC
  5
145FBC
  8
OBJECT
 10
5937.387131565054
 20
-1449.485123716006
 30
0.0
 40
15.0
 50
332.1054262722925
 51
41.029481220552412
1001
ACDBBLOCKREPETAG
1070
     1
1071
       27
1005
145FBC
  0
CIRCLE
  5
145FBD
  8
SLIM
 10
5961.0
 20
-1462.549981495187
 30
0.0
 40
8.0
1001
ACDBBLOCKREPETAG
1070
     1
1071
       28
1005
145FBD
  0
POLYLINE
  5
145FBE
  8
SLIM
 66
     1
 10
0.0
 20
0.0
 30
0.0
 70
     1
1001
ACDBBLOCKREPETAG
1070
     1
1071
       29
1005
145FBE
  0
VERTEX
  5
146A6F
  8
SLIM
 10
5965.6188021535136
 20
-1462.5499814951829
 30
0.0
  0
VERTEX
  5
146A70
  8
SLIM
 10
5963.3094010767518
 20
-1458.549981495187
 30
0.0
  0
VERTEX
  5
146A71
  8
SLIM
 10
5958.69059892324
 20
-1458.5499814951829
 30
0.0
  0
VERTEX
  5
146A72
  8
SLIM
 10
5956.3811978464792
 20
-1462.549981495187
 30
0.0
  0
VERTEX
  5
146A73
  8
SLIM
 10
5958.6905989232328
 20
-1466.5499814951829
 30
0.0
  0
VERTEX
  5
146A74
  8
SLIM
 10
5963.3094010767518
 20
-1466.549981495187
 30
0.0
  0
SEQEND
  5
146A75
  8
SLIM
  0
ARC
  5
145FBF
  8
OBJECT
 10
6000.0
 20
-1394.9999999999991
 30
0.0
 40
76.0
 50
34.863837954142063
 51
85.136162045732945
1001
ACDBBLOCKREPETAG
1070
     1
1071
       42
1005
145FBF
  0
ARC
  5
145FC0
  8
OBJECT
 10
6000.0
 20
-1394.9999999999991
 30
0.0
 40
76.0
 50
154.86383795430939
 51
205.1361620456905
1001
ACDBBLOCKREPETAG
1070
     1
1071
       43
1005
145FC0
  0
ARC
  5
145FC1
  8
OBJECT
 10
6000.0
 20
-1394.9999999999991
 30
0.0
 40
76.0
 50
274.86383795426718
 51
325.13616204585799
1001
ACDBBLOCKREPETAG
1070
     1
1071
       44
1005
145FC1
  0
ARC
  5
145FC2
  8
OBJECT
 10
6078.0
 20
-1394.9999999999991
 30
0.0
 40
12.0
 50
325.13616204585799
 51
34.863837954142063
1001
ACDBBLOCKREPETAG
1070
     1
1071
       45
1005
145FC2
  0
LINE
  5
145FC3
  8
OBJECT
 10
6087.846153846167
 20
-1388.140462520136
 30
0.0
 11
6062.3589743590501
 21
-1351.556262627538
 31
0.0
1001
ACDBBLOCKREPETAG
1070
     1
1071
       46
1005
145FC3
  0
LINE
  5
145FC4
  8
OBJECT
 10
6087.8461538461697
 20
-1401.8595374798599
 30
0.0
 11
6062.3589743590501
 21
-1438.4437373724629
 31
0.0
1001
ACDBBLOCKREPETAG
1070
     1
1071
       47
1005
145FC4
  0
ARC
  5
145FC5
  8
OBJECT
 10
5961.0
 20
-1327.4500185048139
 30
0.0
 40
12.0
 50
85.136162045942811
 51
154.86383795410001
1001
ACDBBLOCKREPETAG
1070
     1
1071
       48
1005
145FC5
  0
LINE
  5
145FC6
  8
OBJECT
 10
5950.1363893611451
 20
-1322.3527678843941
 30
0.0
 11
5931.1971326205849
 21
-1362.7174127373501
 31
0.0
1001
ACDBBLOCKREPETAG
1070
     1
1071
       49
1005
145FC6
  0
LINE
  5
145FC7
  8
OBJECT
 10
5962.0174567926842
 20
-1315.4932304045301
 30
0.0
 11
6006.4438930203669
 21
-1319.273675364889
 31
0.0
1001
ACDBBLOCKREPETAG
1070
     1
1071
       50
1005
145FC7
  0
ARC
  5
145FC8
  8
OBJECT
 10
5961.0
 20
-1462.549981495185
 30
0.0
 40
12.0
 50
205.13616204589991
 51
274.8638379540572
1001
ACDBBLOCKREPETAG
1070
     1
1071
       51
1005
145FC8
  0
LINE
  5
145FC9
  8
OBJECT
 10
5962.0174567926879
 20
-1474.5067695954669
 30
0.0
 11
6006.4438930203651
 21
-1470.7263246351099
 31
0.0
1001
ACDBBLOCKREPETAG
1070
     1
1071
       52
1005
145FC9
  0
LINE
  5
145FCA
  8
OBJECT
 10
5950.1363893611451
 20
-1467.6472321156079
 30
0.0
 11
5931.1971326205821
 21
-1427.282587262647
 31
0.0
1001
ACDBBLOCKREPETAG
1070
     1
1071
       53
1005
145FCA
  0
LINE
  5
145FCB
  8
CENTER
 10
3909.0
 20
-1353.9999999999959
 30
0.0
 11
4105.0
 21
-1353.9999999999959
 31
0.0
1001
ACDBBLOCKREPETAG
1070
     1
1071
        0
1005
145FCB
  0
LINE
  5
145FCC
  8
CENTER
 10
4000.0
 20
-1262.7253355707801
 30
0.0
 11
4000.0
 21
-1445.2746644292131
 31
0.0
1001
ACDBBLOCKREPETAG
1070
     1
1071
        1
1005
145FCC
  0
CIRCLE
  5
145FCD
  8
OBJECT
 10
4000.0
 20
-1353.9999999999959
 30
0.0
 40
50.0
1001
ACDBBLOCKREPETAG
1070
     1
1071
        2
1005
145FCD
  0
CIRCLE
  5
145FCE
  8
OBJECT
 10
4000.0
 20
-1353.9999999999959
 30
0.0
 40
62.0
1001
ACDBBLOCKREPETAG
1070
     1
1071
        3
1005
145FCE
  0
CIRCLE
  5
145FCF
  8
SLIM
 10
4078.0
 20
-1353.9999999999959
 30
0.0
 40
5.0
1001
ACDBBLOCKREPETAG
1070
     1
1071
        4
1005
145FCF
  0
POLYLINE
  5
145FD0
  8
SLIM
 66
     1
 10
0.0
 20
0.0
 30
0.0
 70
     1
1001
ACDBBLOCKREPETAG
1070
     1
1071
        5
1005
145FD0
  0
VERTEX
  5
146A76
  8
SLIM
 10
4073.092522711886
 20
-1345.4999999999959
 30
0.0
  0
VERTEX
  5
146A77
  8
SLIM
 10
4068.185045423772
 20
-1353.9999999999959
 30
0.0
  0
VERTEX
  5
146A78
  8
SLIM
 10
4073.092522711886
 20
-1362.4999999999959
 30
0.0
  0
VERTEX
  5
146A79
  8
SLIM
 10
4082.9074772881072
 20
-1362.4999999999959
 30
0.0
  0
VERTEX
  5
146A7A
  8
SLIM
 10
4087.8149545762199
 20
-1353.9999999999959
 30
0.0
  0
VERTEX
  5
146A7B
  8
SLIM
 10
4082.9074772881072
 20
-1345.4999999999959
 30
0.0
  0
SEQEND
  5
146A7C
  8
SLIM
  0
CIRCLE
  5
145FD1
  8
SLIM
 10
3961.0
 20
-1286.4500185048089
 30
0.0
 40
4.9999999999999991
1001
ACDBBLOCKREPETAG
1070
     1
1071
        6
1005
145FD1
  0
POLYLINE
  5
145FD2
  8
SLIM
 66
     1
 10
0.0
 20
0.0
 30
0.0
 70
     1
1001
ACDBBLOCKREPETAG
1070
     1
1071
        7
1005
145FD2
  0
VERTEX
  5
146A7D
  8
SLIM
 10
3956.092522711886
 20
-1294.9500185048089
 30
0.0
  0
VERTEX
  5
146A7E
  8
SLIM
 10
3965.907477288114
 20
-1294.9500185048089
 30
0.0
  0
VERTEX
  5
146A7F
  8
SLIM
 10
3970.8149545762212
 20
-1286.4500185048089
 30
0.0
  0
VERTEX
  5
146A80
  8
SLIM
 10
3965.907477288114
 20
-1277.9500185048089
 30
0.0
  0
VERTEX
  5
146A81
  8
SLIM
 10
3956.092522711886
 20
-1277.9500185048089
 30
0.0
  0
VERTEX
  5
146A82
  8
SLIM
 10
3951.185045423772
 20
-1286.4500185048089
 30
0.0
  0
SEQEND
  5
146A83
  8
SLIM
  0
CIRCLE
  5
145FD3
  8
SLIM
 10
3961.0
 20
-1421.549981495182
 30
0.0
 40
5.0
1001
ACDBBLOCKREPETAG
1070
     1
1071
        8
1005
145FD3
  0
POLYLINE
  5
145FD4
  8
SLIM
 66
     1
 10
0.0
 20
0.0
 30
0.0
 70
     1
1001
ACDBBLOCKREPETAG
1070
     1
1071
        9
1005
145FD4
  0
VERTEX
  5
146A84
  8
SLIM
 10
3970.8149545762212
 20
-1421.549981495182
 30
0.0
  0
VERTEX
  5
146A85
  8
SLIM
 10
3965.9074772881072
 20
-1413.04998149518
 30
0.0
  0
VERTEX
  5
146A86
  8
SLIM
 10
3956.092522711886
 20
-1413.0499814951829
 30
0.0
  0
VERTEX
  5
146A87
  8
SLIM
 10
3951.185045423772
 20
-1421.54998149518
 30
0.0
  0
VERTEX
  5
146A88
  8
SLIM
 10
3956.092522711886
 20
-1430.0499814951829
 30
0.0
  0
VERTEX
  5
146A89
  8
SLIM
 10
3965.907477288114
 20
-1430.04998149518
 30
0.0
  0
SEQEND
  5
146A8A
  8
SLIM
  0
ARC
  5
145FD5
  8
OBJECT
 10
4000.0
 20
-1353.9999999999959
 30
0.0
 40
76.0
 50
34.863837954142063
 51
85.136162045732945
1001
ACDBBLOCKREPETAG
1070
     1
1071
       30
1005
145FD5
  0
ARC
  5
145FD6
  8
OBJECT
 10
4000.0
 20
-1353.9999999999959
 30
0.0
 40
76.0
 50
154.86383795430939
 51
205.1361620456905
1001
ACDBBLOCKREPETAG
1070
     1
1071
       31
1005
145FD6
  0
ARC
  5
145FD7
  8
OBJECT
 10
4000.0
 20
-1353.9999999999959
 30
0.0
 40
76.0
 50
274.86383795426718
 51
325.13616204585799
1001
ACDBBLOCKREPETAG
1070
     1
1071
       32
1005
145FD7
  0
ARC
  5
145FD8
  8
OBJECT
 10
4078.0
 20
-1353.9999999999959
 30
0.0
 40
12.0
 50
325.13616204585799
 51
34.863837954142063
1001
ACDBBLOCKREPETAG
1070
     1
1071
       33
1005
145FD8
  0
LINE
  5
145FD9
  8
OBJECT
 10
4087.846153846167
 20
-1347.140462520134
 30
0.0
 11
4062.3589743590492
 21
-1310.556262627535
 31
0.0
1001
ACDBBLOCKREPETAG
1070
     1
1071
       34
1005
145FD9
  0
LINE
  5
145FDA
  8
OBJECT
 10
4087.8461538461711
 20
-1360.859537479857
 30
0.0
 11
4062.3589743590492
 21
-1397.4437373724591
 31
0.0
1001
ACDBBLOCKREPETAG
1070
     1
1071
       35
1005
145FDA
  0
ARC
  5
145FDB
  8
OBJECT
 10
3961.0
 20
-1286.4500185048109
 30
0.0
 40
12.0
 50
85.136162045942811
 51
154.86383795411109
1001
ACDBBLOCKREPETAG
1070
     1
1071
       36
1005
145FDB
  0
LINE
  5
145FDC
  8
OBJECT
 10
3950.136389361146
 20
-1281.35276788439
 30
0.0
 11
3931.1971326205862
 21
-1321.7174127373471
 31
0.0
1001
ACDBBLOCKREPETAG
1070
     1
1071
       37
1005
145FDC
  0
LINE
  5
145FDD
  8
OBJECT
 10
3962.0174567926852
 20
-1274.4932304045269
 30
0.0
 11
4006.4438930203678
 21
-1278.273675364886
 31
0.0
1001
ACDBBLOCKREPETAG
1070
     1
1071
       38
1005
145FDD
  0
ARC
  5
145FDE
  8
OBJECT
 10
3961.0
 20
-1421.5499814951811
 30
0.0
 40
12.0
 50
205.13616204588891
 51
274.8638379540572
1001
ACDBBLOCKREPETAG
1070
     1
1071
       39
1005
145FDE
  0
LINE
  5
145FDF
  8
OBJECT
 10
3962.0174567926879
 20
-1433.506769595464
 30
0.0
 11
4006.4438930203651
 21
-1429.7263246351069
 31
0.0
1001
ACDBBLOCKREPETAG
1070
     1
1071
       40
1005
145FDF
  0
LINE
  5
145FE0
  8
OBJECT
 10
3950.136389361146
 20
-1426.647232115605
 30
0.0
 11
3931.1971326205821
 21
-1386.2825872626429
 31
0.0
1001
ACDBBLOCKREPETAG
1070
     1
1071
       41
1005
145FE0
  0
LINE
  5
145FE1
  8
OBJECT
 10
1943.0
 20
-1079.9999999999959
 30
0.0
 11
2057.0
 21
-1079.9999999999959
 31
0.0
1001
ACDBBLOCKREPETAG
1070
     1
1071
        0
1005
145FE1
  0
LINE
  5
145FE2
  8
OBJECT
 10
1943.0
 20
-1079.9999999999959
 30
0.0
 11
1943.0
 21
-979.99999999999613
 31
0.0
1001
ACDBBLOCKREPETAG
1070
     1
1071
        1
1005
145FE2
  0
LINE
  5
145FE3
  8
OBJECT
 10
2057.0
 20
-1079.9999999999959
 30
0.0
 11
2057.0
 21
-979.99999999999613
 31
0.0
1001
ACDBBLOCKREPETAG
1070
     1
1071
        2
1005
145FE3
  0
LINE
  5
145FE4
  8
OBJECT
 10
1943.0
 20
-979.99999999999613
 30
0.0
 11
2057.0
 21
-979.99999999999613
 31
0.0
1001
ACDBBLOCKREPETAG
1070
     1
1071
        3
1005
145FE4
  0
LINE
  5
145FE5
  8
HIDDEN
 10
1950.0
 20
-979.99999999999613
 30
0.0
 11
1950.0
 21
-1079.9999999999959
 31
0.0
1001
ACDBBLOCKREPETAG
1070
     1
1071
        4
1005
145FE5
  0
LINE
  5
145FE6
  8
HIDDEN
 10
2050.0
 20
-979.99999999999613
 30
0.0
 11
2050.0
 21
-1079.9999999999959
 31
0.0
1001
ACDBBLOCKREPETAG
1070
     1
1071
        5
1005
145FE6
  0
LINE
  5
145FE7
  8
CENTER
 10
2000.0
 20
-770.0
 30
0.0
 11
2000.0
 21
-1094.9999999999959
 31
0.0
1001
ACDBBLOCKREPETAG
1070
     1
1071
        6
1005
145FE7
  0
LINE
  5
145FE8
  8
OBJECT
 10
1925.0
 20
-770.0
 30
0.0
 11
1925.0
 21
-851.99999999999636
 31
0.0
1001
ACDBBLOCKREPETAG
1070
     1
1071
        7
1005
145FE8
  0
LINE
  5
145FE9
  8
OBJECT
 10
2075.0
 20
-770.0
 30
0.0
 11
2075.0
 21
-851.99999999999636
 31
0.0
1001
ACDBBLOCKREPETAG
1070
     1
1071
        8
1005
145FE9
  0
LINE
  5
145FEA
  8
OBJECT
 10
1925.0
 20
-851.99999999999636
 30
0.0
 11
2075.0
 21
-851.99999999999636
 31
0.0
1001
ACDBBLOCKREPETAG
1070
     1
1071
        9
1005
145FEA
  0
LINE
  5
145FEB
  8
OBJECT
 10
1925.0
 20
-851.99999999999636
 30
0.0
 11
1943.0
 21
-979.99999999999613
 31
0.0
1001
ACDBBLOCKREPETAG
1070
     1
1071
       10
1005
145FEB
  0
LINE
  5
145FEC
  8
OBJECT
 10
2057.0
 20
-979.99999999999613
 30
0.0
 11
2075.0
 21
-851.99999999999636
 31
0.0
1001
ACDBBLOCKREPETAG
1070
     1
1071
       11
1005
145FEC
  0
TEXT
  5
145FED
  8
SLIM
 10
3853.75
 20
-1621.4999999999959
 30
0.0
 40
35.0
  1
両受けスタイル（W）
 41
0.75
  0
TEXT
  5
145FEE
  8
SLIM
 10
5811.8000000000002
 20
-1718.9999999999991
 30
0.0
 40
28.0
  1
※ 対応スラブ厚　150mm以上
 41
0.75
  0
TEXT
  5
145FEF
  8
SLIM
 10
5598.8999999999996
 20
-1812.333333333333
 30
0.0
 40
28.0
  1
国土交通大臣認定・（一財）日本消防設備安全センター性能評定取得品
 41
0.75
  0
TEXT
  5
145FF0
  8
SLIM
 10
5631.1000000000004
 20
-1859.0
 30
0.0
 40
28.0
  1
注）ご採用にあたり、認定書及び評定書の内容をご確認ください。
 41
0.75
  0
TEXT
  5
145FF1
  8
SLIM
 10
11824.6
 20
-1677.9999999999959
 30
0.0
 40
28.0
  1
※ 対応スラブ厚　150～260
 41
0.75
  0
TEXT
  5
145FF2
  8
SLIM
 10
11598.9
 20
-1771.3333333333301
 30
0.0
 40
28.0
  1
国土交通大臣認定・（一財）日本消防設備安全センター性能評定取得品
 41
0.75
  0
TEXT
  5
145FF3
  8
SLIM
 10
11631.1
 20
-1817.999999999997
 30
0.0
 40
28.0
  1
注）ご採用にあたり、認定書及び評定書の内容をご確認ください。
 41
0.75
  0
TEXT
  5
145FF4
  8
SLIM
 10
9824.6000000000004
 20
-1677.9999999999959
 30
0.0
 40
28.0
  1
※ 対応スラブ厚　180～260
 41
0.75
  0
TEXT
  5
145FF5
  8
SLIM
 10
9598.8999999999996
 20
-1771.3333333333301
 30
0.0
 40
28.0
  1
国土交通大臣認定・（一財）日本消防設備安全センター性能評定取得品
 41
0.75
  0
TEXT
  5
145FF6
  8
SLIM
 10
9631.1000000000004
 20
-1817.999999999997
 30
0.0
 40
28.0
  1
注）ご採用にあたり、認定書及び評定書の内容をご確認ください。
 41
0.75
  0
TEXT
  5
145FF7
  8
SLIM
 10
7771.3999999999987
 20
-1410.6666666666649
 30
0.0
 40
28.0
  1
※ 対応スラブ厚　180｛150｝～220
 41
0.75
  0
TEXT
  5
145FF8
  8
SLIM
 10
7733.2999999999975
 20
-1457.333333333331
 30
0.0
 40
28.0
  1
｛｝内はカンペイ立て管との組み合わせの場合
 41
0.75
  0
TEXT
  5
145FF9
  8
SLIM
 10
7598.8999999999969
 20
-1550.6666666666649
 30
0.0
 40
28.0
  1
国土交通大臣認定・（一財）日本消防設備安全センター性能評定取得品
 41
0.75
  0
TEXT
  5
145FFA
  8
SLIM
 10
7631.1000000000004
 20
-1597.3333333333319
 30
0.0
 40
28.0
  1
注）ご採用にあたり、認定書及び評定書の内容をご確認ください。
 41
0.75
  0
TEXT
  5
145FFB
  8
SLIM
 10
9739.1250000000018
 20
-1621.4999999999959
 30
0.0
 40
35.0
  1
両受けスタイル（W）＋シンドカット
 41
0.75
  0
TEXT
  5
145FFC
  8
SLIM
 10
11743.5
 20
-1621.4999999999959
 30
0.0
 40
35.0
  1
カンペイ君（WKP）＋シンドカット
 41
0.75
  0
TEXT
  5
145FFD
  8
SLIM
 10
7741.625
 20
-1347.499999999998
 30
0.0
 40
35.0
  1
片受けスタイル（S）＋シンドカット
 41
0.75
  0
TEXT
  5
145FFE
  8
SLIM
 10
5858.1250000000009
 20
-1662.4999999999991
 30
0.0
 40
35.0
  1
カンペイ君（WKP）
 41
0.75
  0
TEXT
  5
145FFF
  8
SLIM
 10
1856.25
 20
-1347.499999999998
 30
0.0
 40
35.0
  1
片受けスタイル（S）
 41
0.75
  0
TEXT
  5
146000
  8
SLIM
 10
0.0
 20
370.0
 30
0.0
 40
100.0
  1
4SL-JRX-WKP
 41
0.75
  0
VIEWPORT
  5
F6BA7
 67
     1
  8
0
 10
173.9657252236004
 20
101.8328354358673
 30
0.0
 40
391.2732773398352
 41
222.19657968139651
 68
     1
 69
     1
1001
ACAD
1000
MVIEW
1002
{
1070
    16
1010
0.0
1020
0.0
1030
0.0
1010
0.0
1020
0.0
1030
1.0
1040
0.0
1040
222.19657968139651
1040
173.9657252236004
1040
101.8328354358673
1040
50.0
1040
0.0
1040
0.0
1070
     0
1070
     0
1070
     1
1070
     1
1070
     0
1070
     0
1070
     0
1070
     0
1040
0.0
1040
0.0
1040
0.0
1040
10.0
1040
10.0
1040
10.0
1040
10.0
1070
     0
1002
{
1002
}
1002
}
  0
VIEWPORT
  5
F6BA9
 67
     1
  8
OBJECT
 10
145.3303314447403
 20
101.8328338861465
 30
0.0
 40
232.5285303115844
 41
162.93253421783439
 68
     2
 69
     2
1001
ACAD
1000
MVIEW
1002
{
1070
    16
1010
0.0
1020
0.0
1030
0.0
1010
0.0
1020
0.0
1030
1.0
1040
0.0
1040
25942.55904403147
1040
2377.604457077377
1040
-7591.5176687056619
1040
50.0
1040
0.0
1040
0.0
1070
     0
1070
   600
1070
     1
1070
     1
1070
     0
1070
     0
1070
     0
1070
     0
1040
0.0
1040
0.0
1040
0.0
1040
1.0
1040
1.0
1040
0.0
1040
0.0
1070
     0
1002
{
1002
}
1002
}
  0
ENDSEC
  0
EOF
