  0
SECTION
  2
HEADER
  9
$ACADVER
  1
AC1009
  9
$INSBASE
 10
0.0
 20
0.0
 30
0.0
  9
$EXTMIN
 10
0.0
 20
-1758.9999999999991
 30
0.0
  9
$EXTMAX
 10
12399.70000000001
 20
770.0
 30
0.0
  9
$LIMMIN
 10
0.0
 20
0.0
  9
$LIMMAX
 10
210.0
 20
297.0
  9
$ORTHOMODE
 70
     0
  9
$REGENMODE
 70
     1
  9
$FILLMODE
 70
     1
  9
$QTEXTMODE
 70
     0
  9
$MIRRTEXT
 70
     0
  9
$DRAGMODE
 70
     2
  9
$LTSCALE
 40
1.0
  9
$OSMODE
 70
   109
  9
$ATTMODE
 70
     1
  9
$TEXTSIZE
 40
4.0
  9
$TRACEWID
 40
0.05
  9
$TEXTSTYLE
  7
STANDARD
  9
$CLAYER
  8
OBJECT
  9
$CELTYPE
  6
BYLAYER
  9
$CECOLOR
 62
   256
  9
$DIMSCALE
 40
10.0
  9
$DIMASZ
 40
2.0
  9
$DIMEXO
 40
1.0
  9
$DIMDLI
 40
10.0
  9
$DIMRND
 40
0.0
  9
$DIMDLE
 40
0.0
  9
$DIMEXE
 40
1.0
  9
$DIMTP
 40
0.0
  9
$DIMTM
 40
0.0
  9
$DIMTXT
 40
3.2000000000000002
  9
$DIMCEN
 40
0.0
  9
$DIMTSZ
 40
0.0
  9
$DIMTOL
 70
     0
  9
$DIMLIM
 70
     0
  9
$DIMTIH
 70
     0
  9
$DIMTOH
 70
     0
  9
$DIMSE1
 70
     0
  9
$DIMSE2
 70
     0
  9
$DIMTAD
 70
     1
  9
$DIMZIN
 70
     8
  9
$DIMBLK
  1
OPEN30
  9
$DIMASO
 70
     1
  9
$DIMSHO
 70
     1
  9
$DIMPOST
  1

  9
$DIMAPOST
  1

  9
$DIMALT
 70
     0
  9
$DIMALTD
 70
     2
  9
$DIMALTF
 40
25.399999999999999
  9
$DIMLFAC
 40
1.0
  9
$DIMTOFL
 70
     1
  9
$DIMTVP
 40
0.0
  9
$DIMTIX
 70
     0
  9
$DIMSOXD
 70
     0
  9
$DIMSAH
 70
     0
  9
$DIMBLK1
  1

  9
$DIMBLK2
  1

  9
$DIMSTYLE
  2
S10
  9
$DIMCLRD
 70
   256
  9
$DIMCLRE
 70
   256
  9
$DIMCLRT
 70
   256
  9
$DIMTFAC
 40
1.0
  9
$DIMGAP
 40
0.9
  9
$LUNITS
 70
     2
  9
$LUPREC
 70
     2
  9
$SKETCHINC
 40
0.1
  9
$FILLETRAD
 40
0.0
  9
$AUNITS
 70
     0
  9
$AUPREC
 70
     2
  9
$MENU
  1
ACAD
  9
$ELEVATION
 40
0.0
  9
$PELEVATION
 40
0.0
  9
$THICKNESS
 40
0.0
  9
$LIMCHECK
 70
     0
  9
$BLIPMODE
 70
     0
  9
$CHAMFERA
 40
2.0
  9
$CHAMFERB
 40
2.0
  9
$SKPOLY
 70
     0
  9
$TDCREATE
 40
2453095.4929404748
  9
$TDUPDATE
 40
2457275.5781626268
  9
$TDINDWG
 40
18.380213738399998
  9
$TDUSRTIMER
 40
18.380213020799999
  9
$USRTIMER
 70
     1
  9
$ANGBASE
 50
0.0
  9
$ANGDIR
 70
     0
  9
$PDMODE
 70
    35
  9
$PDSIZE
 40
2.0
  9
$PLINEWID
 40
0.0
  9
$COORDS
 70
     1
  9
$SPLFRAME
 70
     0
  9
$SPLINETYPE
 70
     6
  9
$SPLINESEGS
 70
     8
  9
$ATTDIA
 70
     0
  9
$ATTREQ
 70
     1
  9
$HANDLING
 70
     1
  9
$HANDSEED
  5
1225B8
  9
$SURFTAB1
 70
     6
  9
$SURFTAB2
 70
     6
  9
$SURFTYPE
 70
     6
  9
$SURFU
 70
     6
  9
$SURFV
 70
     6
  9
$UCSNAME
  2

  9
$UCSORG
 10
0.0
 20
0.0
 30
0.0
  9
$UCSXDIR
 10
1.0
 20
0.0
 30
0.0
  9
$UCSYDIR
 10
0.0
 20
1.0
 30
0.0
  9
$PUCSNAME
  2

  9
$PUCSORG
 10
0.0
 20
0.0
 30
0.0
  9
$PUCSXDIR
 10
1.0
 20
0.0
 30
0.0
  9
$PUCSYDIR
 10
0.0
 20
1.0
 30
0.0
  9
$USERI1
 70
     0
  9
$USERI2
 70
     0
  9
$USERI3
 70
     0
  9
$USERI4
 70
     0
  9
$USERI5
 70
     0
  9
$USERR1
 40
0.0
  9
$USERR2
 40
0.0
  9
$USERR3
 40
0.0
  9
$USERR4
 40
0.0
  9
$USERR5
 40
0.0
  9
$WORLDVIEW
 70
     1
  9
$SHADEDGE
 70
     3
  9
$SHADEDIF
 70
    70
  9
$TILEMODE
 70
     1
  9
$MAXACTVP
 70
    64
  9
$PLIMCHECK
 70
     0
  9
$PEXTMIN
 10
29.066066288948051
 20
20.366566777229309
 30
0.0
  9
$PEXTMAX
 10
261.5945966005325
 20
183.29910099506381
 30
0.0
  9
$PLIMMIN
 10
-3.17498779296875
 20
-3.1749999523162842
  9
$PLIMMAX
 10
293.83566284179687
 20
206.8406708240509
  9
$UNITMODE
 70
     0
  9
$VISRETAIN
 70
     1
  9
$PLINEGEN
 70
     0
  9
$PSLTSCALE
 70
     1
  0
ENDSEC
  0
SECTION
  2
TABLES
  0
TABLE
  2
VPORT
 70
     1
  0
VPORT
  2
*ACTIVE
 70
     0
 10
0.0
 20
0.0
 11
1.0
 21
1.0
 12
4749.6536222169489
 22
-1981.6419312159851
 13
0.0
 23
0.0
 14
1.0
 24
1.0
 15
0.0
 25
0.0
 16
0.0
 26
0.0
 36
1.0
 17
0.0
 27
0.0
 37
0.0
 40
6535.0492679583103
 41
1.6494178525226391
 42
50.0
 43
0.0
 44
0.0
 50
0.0
 51
0.0
 71
     0
 72
   600
 73
     1
 74
     1
 75
     0
 76
     0
 77
     0
 78
     0
  0
ENDTAB
  0
TABLE
  2
LTYPE
 70
     4
  0
LTYPE
  2
CONTINUOUS
 70
     0
  3
Solid line
 72
    65
 73
     0
 40
0.0
  0
LTYPE
  2
PHANTOM2
 70
     0
  3
___ _ _ ___ _ _ ___ _ _ ___ _ _
 72
    65
 73
     6
 40
1.25
 49
0.625
 49
-0.125
 49
0.125
 49
-0.125
 49
0.125
 49
-0.125
  0
LTYPE
  2
ACAD_ISO08W100
 70
     0
  3
ISO long-dash short-dash ____ __ ____ __ ____ _
 72
    65
 73
     4
 40
36.0
 49
24.0
 49
-3.0
 49
6.0
 49
-3.0
  0
LTYPE
  2
ACAD_ISO02W100
 70
     0
  3
ISO dash __ __ __ __ __ __ __ __ __ __ __ __ __
 72
    65
 73
     2
 40
15.0
 49
12.0
 49
-3.0
  0
ENDTAB
  0
TABLE
  2
LAYER
 70
     7
  0
LAYER
  2
0
 70
     0
 62
     7
  6
CONTINUOUS
  0
LAYER
  2
OBJECT
 70
     0
 62
     4
  6
CONTINUOUS
  0
LAYER
  2
DEFPOINTS
 70
     0
 62
     7
  6
CONTINUOUS
  0
LAYER
  2
HIDDEN
 70
     0
 62
     2
  6
ACAD_ISO02W100
  0
LAYER
  2
CENTER
 70
     0
 62
     2
  6
ACAD_ISO08W100
  0
LAYER
  2
DOTS
 70
     0
 62
     1
  6
CONTINUOUS
  0
LAYER
  2
SLIM
 70
     0
 62
     2
  6
CONTINUOUS
  0
ENDTAB
  0
TABLE
  2
STYLE
 70
     2
  0
STYLE
  2
STANDARD
 70
     0
 40
0.0
 41
0.75
 50
0.0
 71
     0
 42
4.0
  3
simplex.shx
  4
bigfont.shx
  0
ENDTAB
  0
TABLE
  2
VIEW
 70
     0
  0
ENDTAB
  0
TABLE
  2
UCS
 70
     0
  0
ENDTAB
  0
TABLE
  2
APPID
 70
    18
  0
APPID
  2
ACAD
 70
     0
  0
APPID
  2
ACADANNOTATIVE
 70
     0
  0
APPID
  2
ACAD_PSEXT
 70
     0
  0
APPID
  2
ACAD_EXEMPT_FROM_CAD_STANDARDS
 70
     0
  0
APPID
  2
ACAECLAYERSTANDARD
 70
     0
  0
APPID
  2
ACAUTHENVIRON
 70
     0
  0
APPID
  2
ACDBDYNAMICBLOCKTRUENAME
 70
     0
  0
APPID
  2
ACDBDYNAMICBLOCKGUID
 70
     0
  0
APPID
  2
ACDBBLOCKREPETAG
 70
     0
  0
APPID
  2
ACDBBLOCKREPBTAG
 70
     0
  0
APPID
  2
ACAD_NAV_VCDISPLAY
 70
     0
  0
APPID
  2
ACAD_DSTYLE_DIMRADIAL_EXTENSION
 70
     0
  0
APPID
  2
ACAD_DSTYLE_DIMJAG
 70
     0
  0
APPID
  2
ACAD_DSTYLE_DIMTALN
 70
     0
  0
APPID
  2
ACADANNOPO
 70
     0
  0
APPID
  2
GRADIENTCOLOR1ACI
 70
     0
  0
APPID
  2
GRADIENTCOLOR2ACI
 70
     0
  0
APPID
  2
ACAD_MLEADERVER
 70
     0
  0
ENDTAB
  0
TABLE
  2
DIMSTYLE
 70
     3
  0
DIMSTYLE
  2
STANDARD
 70
     0
  3

  4

  5

  6

  7

 40
1.0
 41
0.18
 42
0.0625
 43
0.38
 44
0.18
 45
0.0
 46
0.0
 47
0.0
 48
0.0
140
0.18
141
0.09
142
0.0
143
25.399999999999999
144
1.0
145
0.0
146
1.0
147
0.09
 71
     0
 72
     0
 73
     1
 74
     1
 75
     0
 76
     0
 77
     0
 78
     0
170
     0
171
     2
172
     0
173
     0
174
     0
175
     0
176
     0
177
     0
178
     0
  0
DIMSTYLE
  2
S10
 70
     0
  3

  4

  5

  6

  7

 40
10.0
 41
2.0
 42
1.0
 43
10.0
 44
1.0
 45
0.0
 46
0.0
 47
0.0
 48
0.0
140
3.2000000000000002
141
0.0
142
0.0
143
25.399999999999999
144
1.0
145
0.0
146
1.0
147
0.9
 71
     0
 72
     0
 73
     0
 74
     0
 75
     0
 76
     0
 77
     1
 78
     8
170
     0
171
     2
172
     1
173
     0
174
     0
175
     0
176
   256
177
   256
178
   256
  0
ENDTAB
  0
ENDSEC
  0
SECTION
  2
BLOCKS
  0
BLOCK
  8
0
  2
$MODEL_SPACE
 70
     0
 10
0.0
 20
0.0
 30
0.0
  3
$MODEL_SPACE
  1

  0
ENDBLK
  5
1224E1
  8
0
  0
BLOCK
 67
     1
  8
0
  2
$PAPER_SPACE
 70
     0
 10
0.0
 20
0.0
 30
0.0
  3
$PAPER_SPACE
  1

  0
ENDBLK
  5
1224DD
 67
     1
  8
0
  0
BLOCK
  8
0
  2
_OPEN30
 70
     0
 10
0.0
 20
0.0
 30
0.0
  3
_OPEN30
  1

  0
LINE
  5
202
  8
0
  6
BYBLOCK
 62
     0
 10
-1.0
 20
0.26794919
 30
0.0
 11
0.0
 21
0.0
 31
0.0
  0
LINE
  5
203
  8
0
  6
BYBLOCK
 62
     0
 10
0.0
 20
0.0
 30
0.0
 11
-1.0
 21
-0.26794919
 31
0.0
  0
LINE
  5
204
  8
0
  6
BYBLOCK
 62
     0
 10
0.0
 20
0.0
 30
0.0
 11
-1.0
 21
0.0
 31
0.0
  0
ENDBLK
  5
206
  8
0
  0
ENDSEC
  0
SECTION
  2
ENTITIES
  0
LINE
  5
121F91
  8
OBJECT
 10
11923.0
 20
-470.99999999999937
 30
0.0
 11
11923.0
 21
-449.99999999999937
 31
0.0
1001
ACDBBLOCKREPETAG
1070
     1
1071
        0
1005
121F91
  0
LINE
  5
121F92
  8
OBJECT
 10
11923.0
 20
-449.99999999999937
 30
0.0
 11
12077.0
 21
-449.99999999999937
 31
0.0
1001
ACDBBLOCKREPETAG
1070
     1
1071
        1
1005
121F92
  0
LINE
  5
121F93
  8
HIDDEN
 10
11943.0
 20
-519.99999999999955
 30
0.0
 11
12057.0
 21
-519.99999999999955
 31
0.0
1001
ACDBBLOCKREPETAG
1070
     1
1071
        2
1005
121F93
  0
LINE
  5
121F94
  8
OBJECT
 10
12077.0
 20
-449.99999999999937
 30
0.0
 11
12077.0
 21
-470.99999999999937
 31
0.0
1001
ACDBBLOCKREPETAG
1070
     1
1071
        3
1005
121F94
  0
LINE
  5
121F95
  8
OBJECT
 10
12077.0
 20
-470.99999999999937
 30
0.0
 11
11923.0
 21
-470.99999999999937
 31
0.0
1001
ACDBBLOCKREPETAG
1070
     1
1071
        4
1005
121F95
  0
LINE
  5
121F96
  8
CENTER
 10
12000.0
 20
-434.99999999999949
 30
0.0
 11
12000.0
 21
-669.99999999999955
 31
0.0
1001
ACDBBLOCKREPETAG
1070
     1
1071
        5
1005
121F96
  0
LINE
  5
121F97
  8
OBJECT
 10
11925.0
 20
-533.99999999999955
 30
0.0
 11
11925.0
 21
-657.99999999999955
 31
0.0
1001
ACDBBLOCKREPETAG
1070
     1
1071
        6
1005
121F97
  0
LINE
  5
121F98
  8
OBJECT
 10
11928.0
 20
-470.99999999999937
 30
0.0
 11
11928.0
 21
-533.99999999999955
 31
0.0
1001
ACDBBLOCKREPETAG
1070
     1
1071
        7
1005
121F98
  0
LINE
  5
121F99
  8
OBJECT
 10
12072.0
 20
-533.99999999999955
 30
0.0
 11
12072.0
 21
-470.99999999999937
 31
0.0
1001
ACDBBLOCKREPETAG
1070
     1
1071
        8
1005
121F99
  0
LINE
  5
121F9A
  8
OBJECT
 10
11920.0
 20
-657.99999999999955
 30
0.0
 11
12080.0
 21
-657.99999999999955
 31
0.0
1001
ACDBBLOCKREPETAG
1070
     1
1071
        9
1005
121F9A
  0
LINE
  5
121F9B
  8
OBJECT
 10
12080.0
 20
-533.99999999999955
 30
0.0
 11
11925.0
 21
-533.99999999999955
 31
0.0
1001
ACDBBLOCKREPETAG
1070
     1
1071
       10
1005
121F9B
  0
LINE
  5
121F9C
  8
OBJECT
 10
11920.0
 20
-657.99999999999955
 30
0.0
 11
11920.0
 21
-669.99999999999955
 31
0.0
1001
ACDBBLOCKREPETAG
1070
     1
1071
       11
1005
121F9C
  0
LINE
  5
121F9D
  8
OBJECT
 10
11920.0
 20
-669.99999999999955
 30
0.0
 11
12080.0
 21
-669.99999999999955
 31
0.0
1001
ACDBBLOCKREPETAG
1070
     1
1071
       12
1005
121F9D
  0
LINE
  5
121F9E
  8
OBJECT
 10
12080.0
 20
-669.99999999999955
 30
0.0
 11
12080.0
 21
-657.99999999999955
 31
0.0
1001
ACDBBLOCKREPETAG
1070
     1
1071
       13
1005
121F9E
  0
ARC
  5
121F9F
  8
OBJECT
 10
12200.687274671671
 20
-649.40809941010718
 30
0.0
 40
170.6350503965856
 50
137.44134459184301
 51
149.91949581337221
1001
ACDBBLOCKREPETAG
1070
     1
1071
       15
1005
121F9F
  0
ARC
  5
121FA0
  8
OBJECT
 10
12118.845598704051
 20
-605.88272669536445
 30
0.0
 40
78.072222021763665
 50
147.45515310379639
 51
164.6636599771729
1001
ACDBBLOCKREPETAG
1070
     1
1071
       16
1005
121FA0
  0
ARC
  5
121FA1
  8
OBJECT
 10
12085.755434960871
 20
-595.99999999999955
 30
0.0
 40
43.55353926885617
 50
165.6884523008477
 51
194.3115476991523
1001
ACDBBLOCKREPETAG
1070
     1
1071
       17
1005
121FA1
  0
ARC
  5
121FA2
  8
OBJECT
 10
12200.687274671671
 20
-542.59190058989179
 30
0.0
 40
170.6350503965856
 50
210.08050418662771
 51
222.55865540815699
1001
ACDBBLOCKREPETAG
1070
     1
1071
       18
1005
121FA2
  0
ARC
  5
121FA3
  8
OBJECT
 10
12118.845598704051
 20
-586.11727330463452
 30
0.0
 40
78.072222021763665
 50
195.3363400228271
 51
212.54484689620361
1001
ACDBBLOCKREPETAG
1070
     1
1071
       19
1005
121FA3
  0
POINT
  5
121FA4
  8
DOTS
 10
12000.0
 20
-654.99999999999966
 30
0.0
1001
ACDBBLOCKREPETAG
1070
     1
1071
      186
1005
121FA4
  0
ARC
  5
121FA5
  8
OBJECT
 10
12000.0
 20
-199.99999999999909
 30
0.0
 40
50.0
 50
298.81994300000417
 51
228.52376955964741
1001
ACDBBLOCKREPETAG
1070
     1
1071
      185
1005
121FA5
  0
LINE
  5
121FA6
  8
SLIM
 10
11927.30183005652
 20
-155.95484036957691
 30
0.0
 11
11955.954840369581
 21
-127.30183005652231
 31
0.0
1001
GRADIENTCOLOR1ACI
1070
     5
1001
GRADIENTCOLOR2ACI
1070
     2
1001
ACAD
1010
0.0
1020
0.0
1030
0.0
1001
ACDBBLOCKREPETAG
1070
     1
1071
      442
1005
121FA6
  0
LINE
  5
121FA7
  8
SLIM
 10
11919.48615207084
 20
-172.75077447633191
 30
0.0
 11
11938.29030895727
 21
-153.94661758989659
 31
0.0
1001
GRADIENTCOLOR1ACI
1070
     5
1001
GRADIENTCOLOR2ACI
1070
     2
1001
ACAD
1010
0.0
1020
0.0
1030
0.0
1001
ACDBBLOCKREPETAG
1070
     1
1071
      443
1005
121FA7
  0
LINE
  5
121FA8
  8
SLIM
 10
11953.9466175899
 20
-138.29030895727169
 30
0.0
 11
11972.75077447633
 21
-119.4861520708364
 31
0.0
1001
GRADIENTCOLOR1ACI
1070
     5
1001
GRADIENTCOLOR2ACI
1070
     2
1001
ACAD
1010
0.0
1020
0.0
1030
0.0
1001
ACDBBLOCKREPETAG
1070
     1
1071
      444
1005
121FA8
  0
LINE
  5
121FA9
  8
SLIM
 10
11916.35966799338
 20
-184.8575146748604
 30
0.0
 11
11927.69595835578
 21
-173.5212243124561
 31
0.0
1001
GRADIENTCOLOR1ACI
1070
     5
1001
GRADIENTCOLOR2ACI
1070
     2
1001
ACAD
1010
0.0
1020
0.0
1030
0.0
1001
ACDBBLOCKREPETAG
1070
     1
1071
      445
1005
121FA9
  0
LINE
  5
121FAA
  8
SLIM
 10
11973.521224312461
 20
-127.6959583557812
 30
0.0
 11
11984.857514674861
 21
-116.359667993377
 31
0.0
1001
GRADIENTCOLOR1ACI
1070
     5
1001
GRADIENTCOLOR2ACI
1070
     2
1001
ACAD
1010
0.0
1020
0.0
1030
0.0
1001
ACDBBLOCKREPETAG
1070
     1
1071
      446
1005
121FAA
  0
LINE
  5
121FAB
  8
SLIM
 10
11915.14405758905
 20
-195.0533812002549
 30
0.0
 11
11924.30302164318
 21
-185.89441714612491
 31
0.0
1001
GRADIENTCOLOR1ACI
1070
     5
1001
GRADIENTCOLOR2ACI
1070
     2
1001
ACAD
1010
0.0
1020
0.0
1030
0.0
1001
ACDBBLOCKREPETAG
1070
     1
1071
      447
1005
121FAB
  0
LINE
  5
121FAC
  8
SLIM
 10
11985.894417146121
 20
-124.30302164318159
 30
0.0
 11
11995.05338120025
 21
-115.1440575890517
 31
0.0
1001
GRADIENTCOLOR1ACI
1070
     5
1001
GRADIENTCOLOR2ACI
1070
     2
1001
ACAD
1010
0.0
1020
0.0
1030
0.0
1001
ACDBBLOCKREPETAG
1070
     1
1071
      448
1005
121FAC
  0
LINE
  5
121FAD
  8
SLIM
 10
11915.097963557469
 20
-204.07973135290339
 30
0.0
 11
11919.17769491037
 21
-199.99999999999909
 31
0.0
1001
GRADIENTCOLOR1ACI
1070
     5
1001
GRADIENTCOLOR2ACI
1070
     2
1001
ACAD
1010
0.0
1020
0.0
1030
0.0
1001
ACDBBLOCKREPETAG
1070
     1
1071
      449
1005
121FAD
  0
LINE
  5
121FAE
  8
SLIM
 10
12000.0
 20
-119.1776949103767
 30
0.0
 11
12004.0797313529
 21
-115.0979635574724
 31
0.0
1001
GRADIENTCOLOR1ACI
1070
     5
1001
GRADIENTCOLOR2ACI
1070
     2
1001
ACAD
1010
0.0
1020
0.0
1030
0.0
1001
ACDBBLOCKREPETAG
1070
     1
1071
      450
1005
121FAE
  0
LINE
  5
121FAF
  8
SLIM
 10
11919.17769491037
 20
-199.99999999999909
 30
0.0
 11
11923.09996216117
 21
-196.07773274920581
 31
0.0
1001
GRADIENTCOLOR1ACI
1070
     5
1001
GRADIENTCOLOR2ACI
1070
     2
1001
ACAD
1010
0.0
1020
0.0
1030
0.0
1001
ACDBBLOCKREPETAG
1070
     1
1071
      451
1005
121FAF
  0
LINE
  5
121FB0
  8
SLIM
 10
11996.077732749211
 20
-123.0999621611699
 30
0.0
 11
12000.0
 21
-119.1776949103767
 31
0.0
1001
GRADIENTCOLOR1ACI
1070
     5
1001
GRADIENTCOLOR2ACI
1070
     2
1001
ACAD
1010
0.0
1020
0.0
1030
0.0
1001
ACDBBLOCKREPETAG
1070
     1
1071
      452
1005
121FB0
  0
LINE
  5
121FB1
  8
SLIM
 10
11915.889972620869
 20
-212.26797841057399
 30
0.0
 11
11923.16223077717
 21
-204.9957202542767
 31
0.0
1001
GRADIENTCOLOR1ACI
1070
     5
1001
GRADIENTCOLOR2ACI
1070
     2
1001
ACAD
1010
0.0
1020
0.0
1030
0.0
1001
ACDBBLOCKREPETAG
1070
     1
1071
      453
1005
121FB1
  0
LINE
  5
121FB2
  8
SLIM
 10
12004.995720254279
 20
-123.1622307771683
 30
0.0
 11
12012.267978410569
 21
-115.88997262087101
 31
0.0
1001
GRADIENTCOLOR1ACI
1070
     5
1001
GRADIENTCOLOR2ACI
1070
     2
1001
ACAD
1010
0.0
1020
0.0
1030
0.0
1001
ACDBBLOCKREPETAG
1070
     1
1071
      454
1005
121FB2
  0
LINE
  5
121FB3
  8
SLIM
 10
11917.338265695151
 20
-219.79994145736151
 30
0.0
 11
11924.11014778555
 21
-213.02805936696359
 31
0.0
1001
GRADIENTCOLOR1ACI
1070
     5
1001
GRADIENTCOLOR2ACI
1070
     2
1001
ACAD
1010
0.0
1020
0.0
1030
0.0
1001
ACDBBLOCKREPETAG
1070
     1
1071
      455
1005
121FB3
  0
LINE
  5
121FB4
  8
SLIM
 10
12013.028059366959
 20
-124.1101477855505
 30
0.0
 11
12019.799941457361
 21
-117.3382656951526
 31
0.0
1001
GRADIENTCOLOR1ACI
1070
     5
1001
GRADIENTCOLOR2ACI
1070
     2
1001
ACAD
1010
0.0
1020
0.0
1030
0.0
1001
ACDBBLOCKREPETAG
1070
     1
1071
      456
1005
121FB4
  0
LINE
  5
121FB5
  8
SLIM
 10
11919.331259406301
 20
-226.78720386727881
 30
0.0
 11
11925.744381959341
 21
-220.3740813142449
 31
0.0
1001
GRADIENTCOLOR1ACI
1070
     5
1001
GRADIENTCOLOR2ACI
1070
     2
1001
ACAD
1010
0.0
1020
0.0
1030
0.0
1001
ACDBBLOCKREPETAG
1070
     1
1071
      457
1005
121FB5
  0
LINE
  5
121FB6
  8
SLIM
 10
12020.374081314239
 20
-125.7443819593384
 30
0.0
 11
12026.787203867279
 21
-119.3312594063044
 31
0.0
1001
GRADIENTCOLOR1ACI
1070
     5
1001
GRADIENTCOLOR2ACI
1070
     2
1001
ACAD
1010
0.0
1020
0.0
1030
0.0
1001
ACDBBLOCKREPETAG
1070
     1
1071
      458
1005
121FB6
  0
LINE
  5
121FB7
  8
SLIM
 10
11921.79571631862
 20
-233.30300307603289
 30
0.0
 11
11927.946247395779
 21
-227.1524719988744
 31
0.0
1001
GRADIENTCOLOR1ACI
1070
     5
1001
GRADIENTCOLOR2ACI
1070
     2
1001
ACAD
1010
0.0
1020
0.0
1030
0.0
1001
ACDBBLOCKREPETAG
1070
     1
1071
      459
1005
121FB7
  0
LINE
  5
121FB8
  8
SLIM
 10
12027.15247199887
 20
-127.946247395778
 30
0.0
 11
12033.303003076029
 21
-121.7957163186195
 31
0.0
1001
GRADIENTCOLOR1ACI
1070
     5
1001
GRADIENTCOLOR2ACI
1070
     2
1001
ACAD
1010
0.0
1020
0.0
1030
0.0
1001
ACDBBLOCKREPETAG
1070
     1
1071
      460
1005
121FB8
  0
LINE
  5
121FB9
  8
SLIM
 10
11924.681663531341
 20
-239.39731198437769
 30
0.0
 11
11930.63987686439
 21
-233.4390986513296
 31
0.0
1001
GRADIENTCOLOR1ACI
1070
     5
1001
GRADIENTCOLOR2ACI
1070
     2
1001
ACAD
1010
0.0
1020
0.0
1030
0.0
1001
ACDBBLOCKREPETAG
1070
     1
1071
      461
1005
121FB9
  0
LINE
  5
121FBA
  8
SLIM
 10
12033.43909865133
 20
-130.63987686439199
 30
0.0
 11
12039.397311984379
 21
-124.6816635313439
 31
0.0
1001
GRADIENTCOLOR1ACI
1070
     5
1001
GRADIENTCOLOR2ACI
1070
     2
1001
ACAD
1010
0.0
1020
0.0
1030
0.0
1001
ACDBBLOCKREPETAG
1070
     1
1071
      462
1005
121FBA
  0
LINE
  5
121FBB
  8
SLIM
 10
11927.954461102419
 20
-245.10477053436691
 30
0.0
 11
11933.77500701499
 21
-239.28422462179751
 31
0.0
1001
GRADIENTCOLOR1ACI
1070
     5
1001
GRADIENTCOLOR2ACI
1070
     2
1001
ACAD
1010
0.0
1020
0.0
1030
0.0
1001
ACDBBLOCKREPETAG
1070
     1
1071
      463
1005
121FBB
  0
LINE
  5
121FBC
  8
SLIM
 10
12039.284224621801
 20
-133.77500701499321
 30
0.0
 11
12045.10477053437
 21
-127.95446110242381
 31
0.0
1001
GRADIENTCOLOR1ACI
1070
     5
1001
GRADIENTCOLOR2ACI
1070
     2
1001
ACAD
1010
0.0
1020
0.0
1030
0.0
1001
ACDBBLOCKREPETAG
1070
     1
1071
      464
1005
121FBC
  0
LINE
  5
121FBD
  8
SLIM
 10
11931.59033196866
 20
-250.4491557891954
 30
0.0
 11
11937.31820758806
 21
-244.72128016980341
 31
0.0
1001
GRADIENTCOLOR1ACI
1070
     5
1001
GRADIENTCOLOR2ACI
1070
     2
1001
ACAD
1010
0.0
1020
0.0
1030
0.0
1001
ACDBBLOCKREPETAG
1070
     1
1071
      465
1005
121FBD
  0
LINE
  5
121FBE
  8
SLIM
 10
12044.721280169801
 20
-137.31820758805651
 30
0.0
 11
12050.449155789191
 21
-131.59033196866449
 31
0.0
1001
GRADIENTCOLOR1ACI
1070
     5
1001
GRADIENTCOLOR2ACI
1070
     2
1001
ACAD
1010
0.0
1020
0.0
1030
0.0
1001
ACDBBLOCKREPETAG
1070
     1
1071
      466
1005
121FBE
  0
LINE
  5
121FBF
  8
SLIM
 10
11935.573749692519
 20
-255.4459941864034
 30
0.0
 11
11941.24811054159
 21
-249.77163333734029
 31
0.0
1001
GRADIENTCOLOR1ACI
1070
     5
1001
GRADIENTCOLOR2ACI
1070
     2
1001
ACAD
1010
0.0
1020
0.0
1030
0.0
1001
ACDBBLOCKREPETAG
1070
     1
1071
      467
1005
121FBF
  0
LINE
  5
121FC0
  8
SLIM
 10
12053.01974387892
 20
-137.99999999999909
 30
0.0
 11
12055.445994186401
 21
-135.57374969252561
 31
0.0
1001
GRADIENTCOLOR1ACI
1070
     5
1001
GRADIENTCOLOR2ACI
1070
     2
1001
ACAD
1010
0.0
1020
0.0
1030
0.0
1001
ACDBBLOCKREPETAG
1070
     1
1071
      468
1005
121FC0
  0
LINE
  5
121FC1
  8
SLIM
 10
11939.895923599141
 20
-260.10407640085572
 30
0.0
 11
11945.55277784863
 21
-254.44722215136329
 31
0.0
1001
GRADIENTCOLOR1ACI
1070
     5
1001
GRADIENTCOLOR2ACI
1070
     2
1001
ACAD
1010
0.0
1020
0.0
1030
0.0
1001
ACDBBLOCKREPETAG
1070
     1
1071
      469
1005
121FC1
  0
LINE
  5
121FC2
  8
SLIM
 10
11944.55400581359
 20
-264.4262503074724
 30
0.0
 11
11950.228366662661
 21
-258.75188945840949
 31
0.0
1001
GRADIENTCOLOR1ACI
1070
     5
1001
GRADIENTCOLOR2ACI
1070
     2
1001
ACAD
1010
0.0
1020
0.0
1030
0.0
1001
ACDBBLOCKREPETAG
1070
     1
1071
      470
1005
121FC2
  0
LINE
  5
121FC3
  8
SLIM
 10
11949.5508442108
 20
-268.40966803133369
 30
0.0
 11
11955.27871983019
 21
-262.68179241194167
 31
0.0
1001
GRADIENTCOLOR1ACI
1070
     5
1001
GRADIENTCOLOR2ACI
1070
     2
1001
ACAD
1010
0.0
1020
0.0
1030
0.0
1001
ACDBBLOCKREPETAG
1070
     1
1071
      471
1005
121FC3
  0
LINE
  5
121FC4
  8
SLIM
 10
11954.89522946563
 20
-272.04553889757437
 30
0.0
 11
11960.715775378199
 21
-266.22499298500497
 31
0.0
1001
GRADIENTCOLOR1ACI
1070
     5
1001
GRADIENTCOLOR2ACI
1070
     2
1001
ACAD
1010
0.0
1020
0.0
1030
0.0
1001
ACDBBLOCKREPETAG
1070
     1
1071
      472
1005
121FC4
  0
LINE
  5
121FC5
  8
SLIM
 10
11960.602688015621
 20
-275.31833646865431
 30
0.0
 11
11966.56090134867
 21
-269.36012313560622
 31
0.0
1001
GRADIENTCOLOR1ACI
1070
     5
1001
GRADIENTCOLOR2ACI
1070
     2
1001
ACAD
1010
0.0
1020
0.0
1030
0.0
1001
ACDBBLOCKREPETAG
1070
     1
1071
      473
1005
121FC5
  0
LINE
  5
121FC6
  8
SLIM
 10
11966.69699692396
 20
-278.20428368137868
 30
0.0
 11
11972.847528001121
 21
-272.05375260422022
 31
0.0
1001
GRADIENTCOLOR1ACI
1070
     5
1001
GRADIENTCOLOR2ACI
1070
     2
1001
ACAD
1010
0.0
1020
0.0
1030
0.0
1001
ACDBBLOCKREPETAG
1070
     1
1071
      474
1005
121FC6
  0
LINE
  5
121FC7
  8
SLIM
 10
11973.212796132721
 20
-280.66874059369371
 30
0.0
 11
11979.62591868575
 21
-274.25561804065973
 31
0.0
1001
GRADIENTCOLOR1ACI
1070
     5
1001
GRADIENTCOLOR2ACI
1070
     2
1001
ACAD
1010
0.0
1020
0.0
1030
0.0
1001
ACDBBLOCKREPETAG
1070
     1
1071
      475
1005
121FC7
  0
LINE
  5
121FC8
  8
SLIM
 10
11980.200058542639
 20
-282.6617343048456
 30
0.0
 11
11986.97194063303
 21
-275.88985221444773
 31
0.0
1001
GRADIENTCOLOR1ACI
1070
     5
1001
GRADIENTCOLOR2ACI
1070
     2
1001
ACAD
1010
0.0
1020
0.0
1030
0.0
1001
ACDBBLOCKREPETAG
1070
     1
1071
      476
1005
121FC8
  0
LINE
  5
121FC9
  8
SLIM
 10
11987.73202158942
 20
-284.11002737912702
 30
0.0
 11
11995.004279745721
 21
-276.83776922282988
 31
0.0
1001
GRADIENTCOLOR1ACI
1070
     5
1001
GRADIENTCOLOR2ACI
1070
     2
1001
ACAD
1010
0.0
1020
0.0
1030
0.0
1001
ACDBBLOCKREPETAG
1070
     1
1071
      477
1005
121FC9
  0
LINE
  5
121FCA
  8
SLIM
 10
11995.9202686471
 20
-284.9020364425258
 30
0.0
 11
12000.0
 21
-280.82230508962152
 31
0.0
1001
GRADIENTCOLOR1ACI
1070
     5
1001
GRADIENTCOLOR2ACI
1070
     2
1001
ACAD
1010
0.0
1020
0.0
1030
0.0
1001
ACDBBLOCKREPETAG
1070
     1
1071
      478
1005
121FCA
  0
LINE
  5
121FCB
  8
SLIM
 10
12000.0
 20
-280.82230508962152
 30
0.0
 11
12003.922267250789
 21
-276.90003783882821
 31
0.0
1001
GRADIENTCOLOR1ACI
1070
     5
1001
GRADIENTCOLOR2ACI
1070
     2
1001
ACAD
1010
0.0
1020
0.0
1030
0.0
1001
ACDBBLOCKREPETAG
1070
     1
1071
      479
1005
121FCB
  0
LINE
  5
121FCC
  8
SLIM
 10
12004.94661879974
 20
-284.85594241094651
 30
0.0
 11
12014.10558285387
 21
-275.6969783568166
 31
0.0
1001
GRADIENTCOLOR1ACI
1070
     5
1001
GRADIENTCOLOR2ACI
1070
     2
1001
ACAD
1010
0.0
1020
0.0
1030
0.0
1001
ACDBBLOCKREPETAG
1070
     1
1071
      480
1005
121FCC
  0
LINE
  5
121FCD
  8
SLIM
 10
12015.142485325139
 20
-283.64033200662118
 30
0.0
 11
12026.478775687539
 21
-272.30404164421702
 31
0.0
1001
GRADIENTCOLOR1ACI
1070
     5
1001
GRADIENTCOLOR2ACI
1070
     2
1001
ACAD
1010
0.0
1020
0.0
1030
0.0
1001
ACDBBLOCKREPETAG
1070
     1
1071
      481
1005
121FCD
  0
LINE
  5
121FCE
  8
SLIM
 10
12027.249225523659
 20
-280.51384792916173
 30
0.0
 11
12045.76307345283
 21
-261.99999999999909
 31
0.0
1001
GRADIENTCOLOR1ACI
1070
     5
1001
GRADIENTCOLOR2ACI
1070
     2
1001
ACAD
1010
0.0
1020
0.0
1030
0.0
1001
ACDBBLOCKREPETAG
1070
     1
1071
      482
1005
121FCE
  0
LINE
  5
121FCF
  8
SLIM
 10
12044.045159630419
 20
-272.69816994347582
 30
0.0
 11
12054.743329573899
 21
-261.99999999999909
 31
0.0
1001
GRADIENTCOLOR1ACI
1070
     5
1001
GRADIENTCOLOR2ACI
1070
     2
1001
ACAD
1010
0.0
1020
0.0
1030
0.0
1001
ACDBBLOCKREPETAG
1070
     1
1071
      483
1005
121FCF
  0
LINE
  5
121FD0
  8
CENTER
 10
12080.0
 20
-199.99999999999909
 30
0.0
 11
11900.0
 21
-199.99999999999909
 31
0.0
1001
ACDBBLOCKREPETAG
1070
     1
1071
      187
1005
121FD0
  0
LINE
  5
121FD1
  8
CENTER
 10
12000.0
 20
-299.99999999999898
 30
0.0
 11
12000.0
 21
-99.999999999999091
 31
0.0
1001
ACDBBLOCKREPETAG
1070
     1
1071
      188
1005
121FD1
  0
CIRCLE
  5
121FD2
  8
OBJECT
 10
12000.0
 20
-199.99999999999909
 30
0.0
 40
70.0
1001
ACDBBLOCKREPETAG
1070
     1
1071
      189
1005
121FD2
  0
CIRCLE
  5
121FD3
  8
OBJECT
 10
12000.0
 20
-199.99999999999909
 30
0.0
 40
77.0
1001
ACDBBLOCKREPETAG
1070
     1
1071
      190
1005
121FD3
  0
LINE
  5
121FD4
  8
OBJECT
 10
12045.661800227321
 20
-137.99999999999909
 30
0.0
 11
12080.0
 21
-137.99999999999909
 31
0.0
1001
ACDBBLOCKREPETAG
1070
     1
1071
      192
1005
121FD4
  0
LINE
  5
121FD5
  8
OBJECT
 10
12045.661800227321
 20
-261.99999999999909
 30
0.0
 11
12080.0
 21
-261.99999999999909
 31
0.0
1001
ACDBBLOCKREPETAG
1070
     1
1071
      193
1005
121FD5
  0
ARC
  5
121FD6
  8
OBJECT
 10
12000.0
 20
-199.99999999999909
 30
0.0
 40
85.0
 50
46.837102859853147
 51
313.16289714014681
1001
ACDBBLOCKREPETAG
1070
     1
1071
      202
1005
121FD6
  0
LINE
  5
121FD7
  8
OBJECT
 10
12024.1029330933
 20
-243.80694712371681
 30
0.0
 11
12020.659656999989
 21
-232.55462199999889
 31
0.0
1001
ACDBBLOCKREPETAG
1070
     1
1071
      321
1005
121FD7
  0
LINE
  5
121FD8
  8
OBJECT
 10
11986.79274990136
 20
-218.22553374208019
 30
0.0
 11
12020.659656999989
 21
-232.5546219999969
 31
0.0
1001
ACDBBLOCKREPETAG
1070
     1
1071
      323
1005
121FD8
  0
ARC
  5
121FD9
  8
OBJECT
 10
11982.8961697619
 20
-227.4351299990567
 30
0.0
 40
10.0
 50
67.066778292911366
 51
154.01473437031629
1001
ACDBBLOCKREPETAG
1070
     1
1071
      324
1005
121FD9
  0
ARC
  5
121FDA
  8
OBJECT
 10
11986.148839038129
 20
-225.55386256729159
 30
0.0
 40
7.0
 50
67.066778292911366
 51
154.0147337749826
1001
ACDBBLOCKREPETAG
1070
     1
1071
      325
1005
121FDA
  0
LINE
  5
121FDB
  8
OBJECT
 10
11969.4199755553
 20
-243.89888500818171
 30
0.0
 11
11979.85649182323
 21
-222.48688253356801
 31
0.0
1001
ACDBBLOCKREPETAG
1070
     1
1071
      353
1005
121FDB
  0
LINE
  5
121FDC
  8
OBJECT
 10
11965.29721690061
 20
-240.71813901882729
 30
0.0
 11
11973.90710226651
 21
-223.05373004430751
 31
0.0
1001
ACDBBLOCKREPETAG
1070
     1
1071
      354
1005
121FDC
  0
ARC
  5
121FDD
  8
OBJECT
 10
11976.57969530731
 20
-207.1289369828437
 30
0.0
 40
60.031113246032611
 50
314.07020130422319
 51
322.33936106089681
1001
ACDBBLOCKREPETAG
1070
     1
1071
      355
1005
121FDD
  0
CIRCLE
  5
121FDE
  8
OBJECT
 10
12000.0
 20
-199.99999999999909
 30
0.0
 40
53.5
1001
ACDBBLOCKREPETAG
1070
     1
1071
      356
1005
121FDE
  0
POINT
  5
121FDF
  8
DOTS
 10
12000.0
 20
-199.99999999999909
 30
0.0
 50
270.0
1001
ACDBBLOCKREPETAG
1070
     1
1071
      365
1005
121FDF
  0
LINE
  5
121FE0
  8
OBJECT
 10
12202.99999999998
 20
-483.0000000000008
 30
0.0
 11
12209.99999999998
 21
-483.0000000000008
 31
0.0
1001
ACDBBLOCKREPETAG
1070
     1
1071
       83
1005
121FE0
  0
LINE
  5
121FE1
  8
OBJECT
 10
12209.99999999998
 20
-483.0000000000008
 30
0.0
 11
12209.99999999998
 21
-607.0000000000008
 31
0.0
1001
ACDBBLOCKREPETAG
1070
     1
1071
       84
1005
121FE1
  0
LINE
  5
121FE2
  8
OBJECT
 10
12085.99999999998
 20
-553.3502637757274
 30
0.0
 11
12085.99999999998
 21
-655.00000000000068
 31
0.0
1001
ACDBBLOCKREPETAG
1070
     1
1071
       85
1005
121FE2
  0
LINE
  5
121FE3
  8
OBJECT
 10
12209.99999999998
 20
-607.0000000000008
 30
0.0
 11
12202.99999999998
 21
-607.0000000000008
 31
0.0
1001
ACDBBLOCKREPETAG
1070
     1
1071
       86
1005
121FE3
  0
LINE
  5
121FE4
  8
OBJECT
 10
12202.99999999998
 20
-607.0000000000008
 30
0.0
 11
12202.99999999998
 21
-483.0000000000008
 31
0.0
1001
ACDBBLOCKREPETAG
1070
     1
1071
       87
1005
121FE4
  0
LINE
  5
121FE5
  8
CENTER
 10
12134.99999999998
 20
-545.0000000000008
 30
0.0
 11
12224.99999999998
 21
-545.0000000000008
 31
0.0
1001
ACDBBLOCKREPETAG
1070
     1
1071
       88
1005
121FE5
  0
LINE
  5
121FE6
  8
OBJECT
 10
12079.99999999998
 20
-658.0
 30
0.0
 11
12082.99999999998
 21
-658.0000000000008
 31
0.0
1001
ACDBBLOCKREPETAG
1070
     1
1071
       89
1005
121FE6
  0
ARC
  5
121FE7
  8
OBJECT
 10
12082.99999999998
 20
-655.00000000000068
 30
0.0
 40
3.0
 50
270.0
 51
0.0
1001
ACDBBLOCKREPETAG
1070
     1
1071
       90
1005
121FE7
  0
LINE
  5
121FE8
  8
OBJECT
 10
12202.99999999998
 20
-486.0000000000008
 30
0.0
 11
12166.99999999998
 21
-486.0000000000008
 31
0.0
1001
ACDBBLOCKREPETAG
1070
     1
1071
       91
1005
121FE8
  0
LINE
  5
121FE9
  8
OBJECT
 10
12166.99999999998
 20
-486.0000000000008
 30
0.0
 11
12166.99999999998
 21
-604.0000000000008
 31
0.0
1001
ACDBBLOCKREPETAG
1070
     1
1071
       92
1005
121FE9
  0
LINE
  5
121FEA
  8
OBJECT
 10
12162.99999999998
 20
-490.5000000000008
 30
0.0
 11
12162.99999999998
 21
-599.5000000000008
 31
0.0
1001
ACDBBLOCKREPETAG
1070
     1
1071
       93
1005
121FEA
  0
LINE
  5
121FEB
  8
OBJECT
 10
12162.99999999998
 20
-490.5000000000008
 30
0.0
 11
12149.99999999998
 21
-490.5000000000008
 31
0.0
1001
ACDBBLOCKREPETAG
1070
     1
1071
       94
1005
121FEB
  0
LINE
  5
121FEC
  8
OBJECT
 10
12166.99999999998
 20
-604.0000000000008
 30
0.0
 11
12202.99999999998
 21
-604.0000000000008
 31
0.0
1001
ACDBBLOCKREPETAG
1070
     1
1071
       95
1005
121FEC
  0
LINE
  5
121FED
  8
OBJECT
 10
12166.99999999998
 20
-486.0000000000008
 30
0.0
 11
12162.99999999998
 21
-490.5000000000008
 31
0.0
1001
ACDBBLOCKREPETAG
1070
     1
1071
       96
1005
121FED
  0
LINE
  5
121FEE
  8
OBJECT
 10
12149.99999999998
 20
-490.5000000000008
 30
0.0
 11
12149.99999999998
 21
-575.74491827928784
 31
0.0
1001
ACDBBLOCKREPETAG
1070
     1
1071
       97
1005
121FEE
  0
ARC
  5
121FEF
  8
OBJECT
 10
12152.799999999979
 20
-585.00000000000068
 30
0.0
 40
85.0
 50
91.887731891831123
 51
143.1301023540934
1001
ACDBBLOCKREPETAG
1070
     1
1071
       98
1005
121FEF
  0
LINE
  5
121FF0
  8
HIDDEN
 10
12157.99999999998
 20
-500.5000000000008
 30
0.0
 11
12157.99999999998
 21
-589.5000000000008
 31
0.0
1001
ACDBBLOCKREPETAG
1070
     1
1071
      100
1005
121FF0
  0
LINE
  5
121FF1
  8
OBJECT
 10
12085.99999999998
 20
-651.07945073181781
 30
0.0
 11
12156.631319921031
 21
-599.5000000000008
 31
0.0
1001
ACDBBLOCKREPETAG
1070
     1
1071
      101
1005
121FF1
  0
LINE
  5
121FF2
  8
OBJECT
 10
12079.99999999998
 20
-534.0
 30
0.0
 11
12084.799999999979
 21
-534.0
 31
0.0
1001
ACDBBLOCKREPETAG
1070
     1
1071
      102
1005
121FF2
  0
LINE
  5
121FF3
  8
OBJECT
 10
12085.99999999998
 20
-553.35026377573001
 30
0.0
 11
12084.799999999979
 21
-534.0
 31
0.0
1001
ACDBBLOCKREPETAG
1070
     1
1071
      103
1005
121FF3
  0
LINE
  5
121FF4
  8
OBJECT
 10
12162.99999999998
 20
-599.5000000000008
 30
0.0
 11
12156.631319921031
 21
-599.5000000000008
 31
0.0
1001
ACDBBLOCKREPETAG
1070
     1
1071
      104
1005
121FF4
  0
LINE
  5
121FF5
  8
OBJECT
 10
12166.99999999998
 20
-604.0000000000008
 30
0.0
 11
12162.99999999998
 21
-599.5000000000008
 31
0.0
1001
ACDBBLOCKREPETAG
1070
     1
1071
      105
1005
121FF5
  0
LINE
  5
121FF6
  8
OBJECT
 10
12202.99999999998
 20
-137.99999999999909
 30
0.0
 11
12209.99999999998
 21
-137.99999999999909
 31
0.0
1001
ACDBBLOCKREPETAG
1070
     1
1071
       85
1005
121FF6
  0
LINE
  5
121FF7
  8
OBJECT
 10
12209.99999999998
 20
-137.99999999999909
 30
0.0
 11
12209.99999999998
 21
-261.99999999999909
 31
0.0
1001
ACDBBLOCKREPETAG
1070
     1
1071
       86
1005
121FF7
  0
LINE
  5
121FF8
  8
OBJECT
 10
12209.99999999998
 20
-261.99999999999909
 30
0.0
 11
12202.99999999998
 21
-261.99999999999909
 31
0.0
1001
ACDBBLOCKREPETAG
1070
     1
1071
       87
1005
121FF8
  0
LINE
  5
121FF9
  8
OBJECT
 10
12202.99999999998
 20
-261.99999999999909
 30
0.0
 11
12202.99999999998
 21
-137.99999999999909
 31
0.0
1001
ACDBBLOCKREPETAG
1070
     1
1071
       88
1005
121FF9
  0
LINE
  5
121FFA
  8
CENTER
 10
12224.99999999998
 20
-199.99999999999909
 30
0.0
 11
12080.0
 21
-199.99999999999909
 31
0.0
1001
ACDBBLOCKREPETAG
1070
     1
1071
       89
1005
121FFA
  0
LINE
  5
121FFB
  8
OBJECT
 10
12149.999974964179
 20
-245.0000000000027
 30
0.0
 11
12086.0
 21
-244.99999999999909
 31
0.0
1001
ACDBBLOCKREPETAG
1070
     1
1071
       90
1005
121FFB
  0
LINE
  5
121FFC
  8
OBJECT
 10
12149.999974964179
 20
-154.99999999999909
 30
0.0
 11
12086.0
 21
-154.99999999999909
 31
0.0
1001
ACDBBLOCKREPETAG
1070
     1
1071
       91
1005
121FFC
  0
LINE
  5
121FFD
  8
OBJECT
 10
12202.99999999998
 20
-140.99999999999909
 30
0.0
 11
12166.99999999998
 21
-140.99999999999909
 31
0.0
1001
ACDBBLOCKREPETAG
1070
     1
1071
       92
1005
121FFD
  0
LINE
  5
121FFE
  8
OBJECT
 10
12166.99999999998
 20
-140.99999999999909
 30
0.0
 11
12166.99999999998
 21
-258.99999999999909
 31
0.0
1001
ACDBBLOCKREPETAG
1070
     1
1071
       93
1005
121FFE
  0
LINE
  5
121FFF
  8
OBJECT
 10
12166.99999999998
 20
-258.99999999999909
 30
0.0
 11
12202.99999999998
 21
-258.99999999999909
 31
0.0
1001
ACDBBLOCKREPETAG
1070
     1
1071
       94
1005
121FFF
  0
LINE
  5
122000
  8
OBJECT
 10
12162.99999999998
 20
-145.49999999999909
 30
0.0
 11
12149.99999999998
 21
-145.49999999999909
 31
0.0
1001
ACDBBLOCKREPETAG
1070
     1
1071
       95
1005
122000
  0
LINE
  5
122001
  8
OBJECT
 10
12149.99999999998
 20
-254.49999999999909
 30
0.0
 11
12162.99999999998
 21
-254.49999999999909
 31
0.0
1001
ACDBBLOCKREPETAG
1070
     1
1071
       96
1005
122001
  0
LINE
  5
122002
  8
OBJECT
 10
12162.99999999998
 20
-254.49999999999909
 30
0.0
 11
12162.99999999998
 21
-145.49999999999909
 31
0.0
1001
ACDBBLOCKREPETAG
1070
     1
1071
       97
1005
122002
  0
LINE
  5
122003
  8
OBJECT
 10
12166.99999999998
 20
-140.99999999999909
 30
0.0
 11
12162.99999999998
 21
-145.49999999999909
 31
0.0
1001
ACDBBLOCKREPETAG
1070
     1
1071
       98
1005
122003
  0
LINE
  5
122004
  8
OBJECT
 10
12166.99999999998
 20
-258.99999999999909
 30
0.0
 11
12162.99999999998
 21
-254.49999999999909
 31
0.0
1001
ACDBBLOCKREPETAG
1070
     1
1071
       99
1005
122004
  0
LINE
  5
122005
  8
OBJECT
 10
12083.0
 20
-137.99999999999909
 30
0.0
 11
12080.0
 21
-137.99999999999909
 31
0.0
1001
ACDBBLOCKREPETAG
1070
     1
1071
      100
1005
122005
  0
ARC
  5
122006
  8
OBJECT
 10
12083.0
 20
-140.99999999999909
 30
0.0
 40
3.0
 50
0.0
 51
90.0
1001
ACDBBLOCKREPETAG
1070
     1
1071
      101
1005
122006
  0
LINE
  5
122007
  8
OBJECT
 10
12080.0
 20
-261.99999999999909
 30
0.0
 11
12083.0
 21
-261.99999999999909
 31
0.0
1001
ACDBBLOCKREPETAG
1070
     1
1071
      102
1005
122007
  0
ARC
  5
122008
  8
OBJECT
 10
12083.0
 20
-258.99999999999909
 30
0.0
 40
3.0
 50
270.0
 51
0.0
1001
ACDBBLOCKREPETAG
1070
     1
1071
      103
1005
122008
  0
LINE
  5
122009
  8
OBJECT
 10
12086.0
 20
-258.99999999999909
 30
0.0
 11
12086.0
 21
-210.3227903203578
 31
0.0
1001
ACDBBLOCKREPETAG
1070
     1
1071
      104
1005
122009
  0
LINE
  5
12200A
  8
OBJECT
 10
12086.0
 20
-189.6772096796403
 30
0.0
 11
12086.0
 21
-140.99999999999909
 31
0.0
1001
ACDBBLOCKREPETAG
1070
     1
1071
      105
1005
12200A
  0
LINE
  5
12200B
  8
HIDDEN
 10
12157.99999999998
 20
-155.49999999999909
 30
0.0
 11
12157.99999999998
 21
-244.49999999999909
 31
0.0
1001
ACDBBLOCKREPETAG
1070
     1
1071
      106
1005
12200B
  0
LINE
  5
12200C
  8
OBJECT
 10
12149.999974964179
 20
-254.4999509238105
 30
0.0
 11
12149.999974964179
 21
-145.4999509238105
 31
0.0
1001
ACDBBLOCKREPETAG
1070
     1
1071
      108
1005
12200C
  0
ARC
  5
12200D
  8
OBJECT
 10
12129.800000000019
 20
-199.99999999999909
 30
0.0
 40
45.000000000000547
 50
90.0
 51
270.0
1001
ACDBBLOCKREPETAG
1070
     1
1071
      109
1005
12200D
  0
LINE
  5
12200E
  8
OBJECT
 10
9923.0
 20
-470.99999999999937
 30
0.0
 11
9923.0
 21
-449.99999999999937
 31
0.0
1001
ACDBBLOCKREPETAG
1070
     1
1071
        0
1005
12200E
  0
LINE
  5
12200F
  8
OBJECT
 10
9923.0
 20
-449.99999999999937
 30
0.0
 11
10077.0
 21
-449.99999999999937
 31
0.0
1001
ACDBBLOCKREPETAG
1070
     1
1071
        1
1005
12200F
  0
LINE
  5
122010
  8
HIDDEN
 10
9943.0
 20
-519.99999999999955
 30
0.0
 11
10057.0
 21
-519.99999999999955
 31
0.0
1001
ACDBBLOCKREPETAG
1070
     1
1071
        2
1005
122010
  0
LINE
  5
122011
  8
OBJECT
 10
10077.0
 20
-449.99999999999937
 30
0.0
 11
10077.0
 21
-470.99999999999937
 31
0.0
1001
ACDBBLOCKREPETAG
1070
     1
1071
        3
1005
122011
  0
LINE
  5
122012
  8
OBJECT
 10
10077.0
 20
-470.99999999999937
 30
0.0
 11
9923.0
 21
-470.99999999999937
 31
0.0
1001
ACDBBLOCKREPETAG
1070
     1
1071
        4
1005
122012
  0
LINE
  5
122013
  8
CENTER
 10
10000.0
 20
-434.99999999999949
 30
0.0
 11
10000.0
 21
-669.99999999999955
 31
0.0
1001
ACDBBLOCKREPETAG
1070
     1
1071
        5
1005
122013
  0
LINE
  5
122014
  8
OBJECT
 10
9925.0
 20
-533.99999999999955
 30
0.0
 11
9925.0
 21
-657.99999999999955
 31
0.0
1001
ACDBBLOCKREPETAG
1070
     1
1071
        6
1005
122014
  0
LINE
  5
122015
  8
OBJECT
 10
9928.0
 20
-470.99999999999937
 30
0.0
 11
9928.0
 21
-533.99999999999955
 31
0.0
1001
ACDBBLOCKREPETAG
1070
     1
1071
        7
1005
122015
  0
LINE
  5
122016
  8
OBJECT
 10
10072.0
 20
-533.99999999999955
 30
0.0
 11
10072.0
 21
-470.99999999999937
 31
0.0
1001
ACDBBLOCKREPETAG
1070
     1
1071
        8
1005
122016
  0
LINE
  5
122017
  8
OBJECT
 10
9920.0
 20
-657.99999999999955
 30
0.0
 11
10080.0
 21
-657.99999999999955
 31
0.0
1001
ACDBBLOCKREPETAG
1070
     1
1071
        9
1005
122017
  0
LINE
  5
122018
  8
OBJECT
 10
10080.0
 20
-533.99999999999955
 30
0.0
 11
9925.0
 21
-533.99999999999955
 31
0.0
1001
ACDBBLOCKREPETAG
1070
     1
1071
       10
1005
122018
  0
LINE
  5
122019
  8
OBJECT
 10
9920.0
 20
-657.99999999999955
 30
0.0
 11
9920.0
 21
-669.99999999999955
 31
0.0
1001
ACDBBLOCKREPETAG
1070
     1
1071
       11
1005
122019
  0
LINE
  5
12201A
  8
OBJECT
 10
9920.0
 20
-669.99999999999955
 30
0.0
 11
10080.0
 21
-669.99999999999955
 31
0.0
1001
ACDBBLOCKREPETAG
1070
     1
1071
       12
1005
12201A
  0
LINE
  5
12201B
  8
OBJECT
 10
10080.0
 20
-669.99999999999955
 30
0.0
 11
10080.0
 21
-657.99999999999955
 31
0.0
1001
ACDBBLOCKREPETAG
1070
     1
1071
       13
1005
12201B
  0
ARC
  5
12201C
  8
OBJECT
 10
10200.687274671671
 20
-649.40809941010718
 30
0.0
 40
170.6350503965856
 50
137.44134459184301
 51
149.91949581337221
1001
ACDBBLOCKREPETAG
1070
     1
1071
       15
1005
12201C
  0
ARC
  5
12201D
  8
OBJECT
 10
10118.845598704051
 20
-605.88272669536445
 30
0.0
 40
78.072222021763665
 50
147.45515310379639
 51
164.6636599771729
1001
ACDBBLOCKREPETAG
1070
     1
1071
       16
1005
12201D
  0
ARC
  5
12201E
  8
OBJECT
 10
10085.755434960871
 20
-595.99999999999955
 30
0.0
 40
43.55353926885617
 50
165.6884523008477
 51
194.3115476991523
1001
ACDBBLOCKREPETAG
1070
     1
1071
       17
1005
12201E
  0
ARC
  5
12201F
  8
OBJECT
 10
10200.687274671671
 20
-542.59190058989179
 30
0.0
 40
170.6350503965856
 50
210.08050418662771
 51
222.55865540815699
1001
ACDBBLOCKREPETAG
1070
     1
1071
       18
1005
12201F
  0
ARC
  5
122020
  8
OBJECT
 10
10118.845598704051
 20
-586.11727330463452
 30
0.0
 40
78.072222021763665
 50
195.3363400228271
 51
212.54484689620361
1001
ACDBBLOCKREPETAG
1070
     1
1071
       19
1005
122020
  0
POINT
  5
122021
  8
DOTS
 10
10000.0
 20
-654.99999999999966
 30
0.0
1001
ACDBBLOCKREPETAG
1070
     1
1071
      186
1005
122021
  0
ARC
  5
122022
  8
OBJECT
 10
10000.0
 20
-199.99999999999909
 30
0.0
 40
50.0
 50
298.81994300000417
 51
228.52376955964741
1001
ACDBBLOCKREPETAG
1070
     1
1071
      185
1005
122022
  0
LINE
  5
122023
  8
SLIM
 10
9927.3018300565236
 20
-155.95484036957691
 30
0.0
 11
9955.9548403695771
 21
-127.30183005652231
 31
0.0
1001
GRADIENTCOLOR1ACI
1070
     5
1001
GRADIENTCOLOR2ACI
1070
     2
1001
ACAD
1010
0.0
1020
0.0
1030
0.0
1001
ACDBBLOCKREPETAG
1070
     1
1071
      442
1005
122023
  0
LINE
  5
122024
  8
SLIM
 10
9919.4861520708382
 20
-172.75077447633191
 30
0.0
 11
9938.2903089572737
 21
-153.94661758989659
 31
0.0
1001
GRADIENTCOLOR1ACI
1070
     5
1001
GRADIENTCOLOR2ACI
1070
     2
1001
ACAD
1010
0.0
1020
0.0
1030
0.0
1001
ACDBBLOCKREPETAG
1070
     1
1071
      443
1005
122024
  0
LINE
  5
122025
  8
SLIM
 10
9953.9466175898997
 20
-138.29030895727169
 30
0.0
 11
9972.7507744763316
 21
-119.4861520708364
 31
0.0
1001
GRADIENTCOLOR1ACI
1070
     5
1001
GRADIENTCOLOR2ACI
1070
     2
1001
ACAD
1010
0.0
1020
0.0
1030
0.0
1001
ACDBBLOCKREPETAG
1070
     1
1071
      444
1005
122025
  0
LINE
  5
122026
  8
SLIM
 10
9916.3596679933817
 20
-184.8575146748604
 30
0.0
 11
9927.6959583557837
 21
-173.5212243124561
 31
0.0
1001
GRADIENTCOLOR1ACI
1070
     5
1001
GRADIENTCOLOR2ACI
1070
     2
1001
ACAD
1010
0.0
1020
0.0
1030
0.0
1001
ACDBBLOCKREPETAG
1070
     1
1071
      445
1005
122026
  0
LINE
  5
122027
  8
SLIM
 10
9973.5212243124606
 20
-127.6959583557812
 30
0.0
 11
9984.8575146748644
 21
-116.359667993377
 31
0.0
1001
GRADIENTCOLOR1ACI
1070
     5
1001
GRADIENTCOLOR2ACI
1070
     2
1001
ACAD
1010
0.0
1020
0.0
1030
0.0
1001
ACDBBLOCKREPETAG
1070
     1
1071
      446
1005
122027
  0
LINE
  5
122028
  8
SLIM
 10
9915.1440575890538
 20
-195.0533812002549
 30
0.0
 11
9924.3030216431835
 21
-185.89441714612491
 31
0.0
1001
GRADIENTCOLOR1ACI
1070
     5
1001
GRADIENTCOLOR2ACI
1070
     2
1001
ACAD
1010
0.0
1020
0.0
1030
0.0
1001
ACDBBLOCKREPETAG
1070
     1
1071
      447
1005
122028
  0
LINE
  5
122029
  8
SLIM
 10
9985.8944171461262
 20
-124.30302164318159
 30
0.0
 11
9995.0533812002577
 21
-115.1440575890517
 31
0.0
1001
GRADIENTCOLOR1ACI
1070
     5
1001
GRADIENTCOLOR2ACI
1070
     2
1001
ACAD
1010
0.0
1020
0.0
1030
0.0
1001
ACDBBLOCKREPETAG
1070
     1
1071
      448
1005
122029
  0
LINE
  5
12202A
  8
SLIM
 10
9915.0979635574713
 20
-204.07973135290339
 30
0.0
 11
9919.1776949103787
 21
-199.99999999999909
 31
0.0
1001
GRADIENTCOLOR1ACI
1070
     5
1001
GRADIENTCOLOR2ACI
1070
     2
1001
ACAD
1010
0.0
1020
0.0
1030
0.0
1001
ACDBBLOCKREPETAG
1070
     1
1071
      449
1005
12202A
  0
LINE
  5
12202B
  8
SLIM
 10
10000.0
 20
-119.1776949103767
 30
0.0
 11
10004.0797313529
 21
-115.0979635574724
 31
0.0
1001
GRADIENTCOLOR1ACI
1070
     5
1001
GRADIENTCOLOR2ACI
1070
     2
1001
ACAD
1010
0.0
1020
0.0
1030
0.0
1001
ACDBBLOCKREPETAG
1070
     1
1071
      450
1005
12202B
  0
LINE
  5
12202C
  8
SLIM
 10
9919.1776949103787
 20
-199.99999999999909
 30
0.0
 11
9923.09996216117
 21
-196.07773274920581
 31
0.0
1001
GRADIENTCOLOR1ACI
1070
     5
1001
GRADIENTCOLOR2ACI
1070
     2
1001
ACAD
1010
0.0
1020
0.0
1030
0.0
1001
ACDBBLOCKREPETAG
1070
     1
1071
      451
1005
12202C
  0
LINE
  5
12202D
  8
SLIM
 10
9996.0777327492033
 20
-123.0999621611699
 30
0.0
 11
10000.0
 21
-119.1776949103767
 31
0.0
1001
GRADIENTCOLOR1ACI
1070
     5
1001
GRADIENTCOLOR2ACI
1070
     2
1001
ACAD
1010
0.0
1020
0.0
1030
0.0
1001
ACDBBLOCKREPETAG
1070
     1
1071
      452
1005
12202D
  0
LINE
  5
12202E
  8
SLIM
 10
9915.8899726208747
 20
-212.26797841057399
 30
0.0
 11
9923.1622307771686
 21
-204.9957202542767
 31
0.0
1001
GRADIENTCOLOR1ACI
1070
     5
1001
GRADIENTCOLOR2ACI
1070
     2
1001
ACAD
1010
0.0
1020
0.0
1030
0.0
1001
ACDBBLOCKREPETAG
1070
     1
1071
      453
1005
12202E
  0
LINE
  5
12202F
  8
SLIM
 10
10004.99572025427
 20
-123.1622307771683
 30
0.0
 11
10012.26797841056
 21
-115.88997262087101
 31
0.0
1001
GRADIENTCOLOR1ACI
1070
     5
1001
GRADIENTCOLOR2ACI
1070
     2
1001
ACAD
1010
0.0
1020
0.0
1030
0.0
1001
ACDBBLOCKREPETAG
1070
     1
1071
      454
1005
12202F
  0
LINE
  5
122030
  8
SLIM
 10
9917.3382656951544
 20
-219.79994145736151
 30
0.0
 11
9924.1101477855536
 21
-213.02805936696359
 31
0.0
1001
GRADIENTCOLOR1ACI
1070
     5
1001
GRADIENTCOLOR2ACI
1070
     2
1001
ACAD
1010
0.0
1020
0.0
1030
0.0
1001
ACDBBLOCKREPETAG
1070
     1
1071
      455
1005
122030
  0
LINE
  5
122031
  8
SLIM
 10
10013.028059366959
 20
-124.1101477855505
 30
0.0
 11
10019.799941457361
 21
-117.3382656951526
 31
0.0
1001
GRADIENTCOLOR1ACI
1070
     5
1001
GRADIENTCOLOR2ACI
1070
     2
1001
ACAD
1010
0.0
1020
0.0
1030
0.0
1001
ACDBBLOCKREPETAG
1070
     1
1071
      456
1005
122031
  0
LINE
  5
122032
  8
SLIM
 10
9919.3312594063045
 20
-226.78720386727881
 30
0.0
 11
9925.7443819593445
 21
-220.3740813142449
 31
0.0
1001
GRADIENTCOLOR1ACI
1070
     5
1001
GRADIENTCOLOR2ACI
1070
     2
1001
ACAD
1010
0.0
1020
0.0
1030
0.0
1001
ACDBBLOCKREPETAG
1070
     1
1071
      457
1005
122032
  0
LINE
  5
122033
  8
SLIM
 10
10020.374081314239
 20
-125.7443819593384
 30
0.0
 11
10026.787203867279
 21
-119.3312594063044
 31
0.0
1001
GRADIENTCOLOR1ACI
1070
     5
1001
GRADIENTCOLOR2ACI
1070
     2
1001
ACAD
1010
0.0
1020
0.0
1030
0.0
1001
ACDBBLOCKREPETAG
1070
     1
1071
      458
1005
122033
  0
LINE
  5
122034
  8
SLIM
 10
9921.7957163186184
 20
-233.30300307603289
 30
0.0
 11
9927.9462473957792
 21
-227.1524719988744
 31
0.0
1001
GRADIENTCOLOR1ACI
1070
     5
1001
GRADIENTCOLOR2ACI
1070
     2
1001
ACAD
1010
0.0
1020
0.0
1030
0.0
1001
ACDBBLOCKREPETAG
1070
     1
1071
      459
1005
122034
  0
LINE
  5
122035
  8
SLIM
 10
10027.15247199887
 20
-127.946247395778
 30
0.0
 11
10033.303003076029
 21
-121.7957163186195
 31
0.0
1001
GRADIENTCOLOR1ACI
1070
     5
1001
GRADIENTCOLOR2ACI
1070
     2
1001
ACAD
1010
0.0
1020
0.0
1030
0.0
1001
ACDBBLOCKREPETAG
1070
     1
1071
      460
1005
122035
  0
LINE
  5
122036
  8
SLIM
 10
9924.6816635313444
 20
-239.39731198437769
 30
0.0
 11
9930.6398768643921
 21
-233.4390986513296
 31
0.0
1001
GRADIENTCOLOR1ACI
1070
     5
1001
GRADIENTCOLOR2ACI
1070
     2
1001
ACAD
1010
0.0
1020
0.0
1030
0.0
1001
ACDBBLOCKREPETAG
1070
     1
1071
      461
1005
122036
  0
LINE
  5
122037
  8
SLIM
 10
10033.43909865133
 20
-130.63987686439199
 30
0.0
 11
10039.39731198437
 21
-124.6816635313439
 31
0.0
1001
GRADIENTCOLOR1ACI
1070
     5
1001
GRADIENTCOLOR2ACI
1070
     2
1001
ACAD
1010
0.0
1020
0.0
1030
0.0
1001
ACDBBLOCKREPETAG
1070
     1
1071
      462
1005
122037
  0
LINE
  5
122038
  8
SLIM
 10
9927.9544611024248
 20
-245.10477053436691
 30
0.0
 11
9933.7750070149923
 21
-239.28422462179751
 31
0.0
1001
GRADIENTCOLOR1ACI
1070
     5
1001
GRADIENTCOLOR2ACI
1070
     2
1001
ACAD
1010
0.0
1020
0.0
1030
0.0
1001
ACDBBLOCKREPETAG
1070
     1
1071
      463
1005
122038
  0
LINE
  5
122039
  8
SLIM
 10
10039.284224621801
 20
-133.77500701499321
 30
0.0
 11
10045.104770534361
 21
-127.95446110242381
 31
0.0
1001
GRADIENTCOLOR1ACI
1070
     5
1001
GRADIENTCOLOR2ACI
1070
     2
1001
ACAD
1010
0.0
1020
0.0
1030
0.0
1001
ACDBBLOCKREPETAG
1070
     1
1071
      464
1005
122039
  0
LINE
  5
12203A
  8
SLIM
 10
9931.5903319686659
 20
-250.4491557891954
 30
0.0
 11
9937.3182075880559
 21
-244.72128016980341
 31
0.0
1001
GRADIENTCOLOR1ACI
1070
     5
1001
GRADIENTCOLOR2ACI
1070
     2
1001
ACAD
1010
0.0
1020
0.0
1030
0.0
1001
ACDBBLOCKREPETAG
1070
     1
1071
      465
1005
12203A
  0
LINE
  5
12203B
  8
SLIM
 10
10044.721280169801
 20
-137.31820758805651
 30
0.0
 11
10050.449155789191
 21
-131.59033196866449
 31
0.0
1001
GRADIENTCOLOR1ACI
1070
     5
1001
GRADIENTCOLOR2ACI
1070
     2
1001
ACAD
1010
0.0
1020
0.0
1030
0.0
1001
ACDBBLOCKREPETAG
1070
     1
1071
      466
1005
12203B
  0
LINE
  5
12203C
  8
SLIM
 10
9935.5737496925303
 20
-255.4459941864034
 30
0.0
 11
9941.2481105415936
 21
-249.77163333734029
 31
0.0
1001
GRADIENTCOLOR1ACI
1070
     5
1001
GRADIENTCOLOR2ACI
1070
     2
1001
ACAD
1010
0.0
1020
0.0
1030
0.0
1001
ACDBBLOCKREPETAG
1070
     1
1071
      467
1005
12203C
  0
LINE
  5
12203D
  8
SLIM
 10
10053.019743878929
 20
-137.99999999999909
 30
0.0
 11
10055.445994186401
 21
-135.57374969252561
 31
0.0
1001
GRADIENTCOLOR1ACI
1070
     5
1001
GRADIENTCOLOR2ACI
1070
     2
1001
ACAD
1010
0.0
1020
0.0
1030
0.0
1001
ACDBBLOCKREPETAG
1070
     1
1071
      468
1005
12203D
  0
LINE
  5
12203E
  8
SLIM
 10
9939.8959235991442
 20
-260.10407640085572
 30
0.0
 11
9945.5527778486357
 21
-254.44722215136329
 31
0.0
1001
GRADIENTCOLOR1ACI
1070
     5
1001
GRADIENTCOLOR2ACI
1070
     2
1001
ACAD
1010
0.0
1020
0.0
1030
0.0
1001
ACDBBLOCKREPETAG
1070
     1
1071
      469
1005
12203E
  0
LINE
  5
12203F
  8
SLIM
 10
9944.5540058135957
 20
-264.4262503074724
 30
0.0
 11
9950.2283666626608
 21
-258.75188945840949
 31
0.0
1001
GRADIENTCOLOR1ACI
1070
     5
1001
GRADIENTCOLOR2ACI
1070
     2
1001
ACAD
1010
0.0
1020
0.0
1030
0.0
1001
ACDBBLOCKREPETAG
1070
     1
1071
      470
1005
12203F
  0
LINE
  5
122040
  8
SLIM
 10
9949.5508442108039
 20
-268.40966803133369
 30
0.0
 11
9955.2787198301976
 21
-262.68179241194167
 31
0.0
1001
GRADIENTCOLOR1ACI
1070
     5
1001
GRADIENTCOLOR2ACI
1070
     2
1001
ACAD
1010
0.0
1020
0.0
1030
0.0
1001
ACDBBLOCKREPETAG
1070
     1
1071
      471
1005
122040
  0
LINE
  5
122041
  8
SLIM
 10
9954.8952294656337
 20
-272.04553889757437
 30
0.0
 11
9960.7157753781994
 21
-266.22499298500497
 31
0.0
1001
GRADIENTCOLOR1ACI
1070
     5
1001
GRADIENTCOLOR2ACI
1070
     2
1001
ACAD
1010
0.0
1020
0.0
1030
0.0
1001
ACDBBLOCKREPETAG
1070
     1
1071
      472
1005
122041
  0
LINE
  5
122042
  8
SLIM
 10
9960.6026880156223
 20
-275.31833646865431
 30
0.0
 11
9966.5609013486755
 21
-269.36012313560622
 31
0.0
1001
GRADIENTCOLOR1ACI
1070
     5
1001
GRADIENTCOLOR2ACI
1070
     2
1001
ACAD
1010
0.0
1020
0.0
1030
0.0
1001
ACDBBLOCKREPETAG
1070
     1
1071
      473
1005
122042
  0
LINE
  5
122043
  8
SLIM
 10
9966.6969969239635
 20
-278.20428368137868
 30
0.0
 11
9972.8475280011244
 21
-272.05375260422022
 31
0.0
1001
GRADIENTCOLOR1ACI
1070
     5
1001
GRADIENTCOLOR2ACI
1070
     2
1001
ACAD
1010
0.0
1020
0.0
1030
0.0
1001
ACDBBLOCKREPETAG
1070
     1
1071
      474
1005
122043
  0
LINE
  5
122044
  8
SLIM
 10
9973.2127961327205
 20
-280.66874059369371
 30
0.0
 11
9979.6259186857551
 21
-274.25561804065973
 31
0.0
1001
GRADIENTCOLOR1ACI
1070
     5
1001
GRADIENTCOLOR2ACI
1070
     2
1001
ACAD
1010
0.0
1020
0.0
1030
0.0
1001
ACDBBLOCKREPETAG
1070
     1
1071
      475
1005
122044
  0
LINE
  5
122045
  8
SLIM
 10
9980.2000585426413
 20
-282.6617343048456
 30
0.0
 11
9986.971940633035
 21
-275.88985221444773
 31
0.0
1001
GRADIENTCOLOR1ACI
1070
     5
1001
GRADIENTCOLOR2ACI
1070
     2
1001
ACAD
1010
0.0
1020
0.0
1030
0.0
1001
ACDBBLOCKREPETAG
1070
     1
1071
      476
1005
122045
  0
LINE
  5
122046
  8
SLIM
 10
9987.7320215894215
 20
-284.11002737912702
 30
0.0
 11
9995.0042797457209
 21
-276.83776922282988
 31
0.0
1001
GRADIENTCOLOR1ACI
1070
     5
1001
GRADIENTCOLOR2ACI
1070
     2
1001
ACAD
1010
0.0
1020
0.0
1030
0.0
1001
ACDBBLOCKREPETAG
1070
     1
1071
      477
1005
122046
  0
LINE
  5
122047
  8
SLIM
 10
9995.9202686470962
 20
-284.9020364425258
 30
0.0
 11
10000.0
 21
-280.82230508962152
 31
0.0
1001
GRADIENTCOLOR1ACI
1070
     5
1001
GRADIENTCOLOR2ACI
1070
     2
1001
ACAD
1010
0.0
1020
0.0
1030
0.0
1001
ACDBBLOCKREPETAG
1070
     1
1071
      478
1005
122047
  0
LINE
  5
122048
  8
SLIM
 10
10000.0
 20
-280.82230508962152
 30
0.0
 11
10003.922267250789
 21
-276.90003783882821
 31
0.0
1001
GRADIENTCOLOR1ACI
1070
     5
1001
GRADIENTCOLOR2ACI
1070
     2
1001
ACAD
1010
0.0
1020
0.0
1030
0.0
1001
ACDBBLOCKREPETAG
1070
     1
1071
      479
1005
122048
  0
LINE
  5
122049
  8
SLIM
 10
10004.94661879974
 20
-284.85594241094651
 30
0.0
 11
10014.10558285387
 21
-275.6969783568166
 31
0.0
1001
GRADIENTCOLOR1ACI
1070
     5
1001
GRADIENTCOLOR2ACI
1070
     2
1001
ACAD
1010
0.0
1020
0.0
1030
0.0
1001
ACDBBLOCKREPETAG
1070
     1
1071
      480
1005
122049
  0
LINE
  5
12204A
  8
SLIM
 10
10015.142485325139
 20
-283.64033200662118
 30
0.0
 11
10026.478775687539
 21
-272.30404164421702
 31
0.0
1001
GRADIENTCOLOR1ACI
1070
     5
1001
GRADIENTCOLOR2ACI
1070
     2
1001
ACAD
1010
0.0
1020
0.0
1030
0.0
1001
ACDBBLOCKREPETAG
1070
     1
1071
      481
1005
12204A
  0
LINE
  5
12204B
  8
SLIM
 10
10027.249225523659
 20
-280.51384792916173
 30
0.0
 11
10045.76307345283
 21
-261.99999999999909
 31
0.0
1001
GRADIENTCOLOR1ACI
1070
     5
1001
GRADIENTCOLOR2ACI
1070
     2
1001
ACAD
1010
0.0
1020
0.0
1030
0.0
1001
ACDBBLOCKREPETAG
1070
     1
1071
      482
1005
12204B
  0
LINE
  5
12204C
  8
SLIM
 10
10044.045159630419
 20
-272.69816994347582
 30
0.0
 11
10054.743329573899
 21
-261.99999999999909
 31
0.0
1001
GRADIENTCOLOR1ACI
1070
     5
1001
GRADIENTCOLOR2ACI
1070
     2
1001
ACAD
1010
0.0
1020
0.0
1030
0.0
1001
ACDBBLOCKREPETAG
1070
     1
1071
      483
1005
12204C
  0
LINE
  5
12204D
  8
CENTER
 10
10080.0
 20
-199.99999999999909
 30
0.0
 11
9900.0
 21
-199.99999999999909
 31
0.0
1001
ACDBBLOCKREPETAG
1070
     1
1071
      187
1005
12204D
  0
LINE
  5
12204E
  8
CENTER
 10
10000.0
 20
-299.99999999999898
 30
0.0
 11
10000.0
 21
-99.999999999999091
 31
0.0
1001
ACDBBLOCKREPETAG
1070
     1
1071
      188
1005
12204E
  0
CIRCLE
  5
12204F
  8
OBJECT
 10
10000.0
 20
-199.99999999999909
 30
0.0
 40
70.0
1001
ACDBBLOCKREPETAG
1070
     1
1071
      189
1005
12204F
  0
CIRCLE
  5
122050
  8
OBJECT
 10
10000.0
 20
-199.99999999999909
 30
0.0
 40
77.0
1001
ACDBBLOCKREPETAG
1070
     1
1071
      190
1005
122050
  0
LINE
  5
122051
  8
OBJECT
 10
10045.661800227321
 20
-137.99999999999909
 30
0.0
 11
10080.0
 21
-137.99999999999909
 31
0.0
1001
ACDBBLOCKREPETAG
1070
     1
1071
      192
1005
122051
  0
LINE
  5
122052
  8
OBJECT
 10
10045.661800227321
 20
-261.99999999999909
 30
0.0
 11
10080.0
 21
-261.99999999999909
 31
0.0
1001
ACDBBLOCKREPETAG
1070
     1
1071
      193
1005
122052
  0
ARC
  5
122053
  8
OBJECT
 10
10000.0
 20
-199.99999999999909
 30
0.0
 40
85.0
 50
46.837102859853147
 51
313.16289714014681
1001
ACDBBLOCKREPETAG
1070
     1
1071
      202
1005
122053
  0
LINE
  5
122054
  8
OBJECT
 10
10024.1029330933
 20
-243.80694712371681
 30
0.0
 11
10020.659656999989
 21
-232.55462199999889
 31
0.0
1001
ACDBBLOCKREPETAG
1070
     1
1071
      321
1005
122054
  0
LINE
  5
122055
  8
OBJECT
 10
9986.7927499013749
 20
-218.22553374208019
 30
0.0
 11
10020.659656999989
 21
-232.5546219999969
 31
0.0
1001
ACDBBLOCKREPETAG
1070
     1
1071
      323
1005
122055
  0
ARC
  5
122056
  8
OBJECT
 10
9982.8961697618997
 20
-227.4351299990567
 30
0.0
 40
10.0
 50
67.066778292911366
 51
154.01473437031629
1001
ACDBBLOCKREPETAG
1070
     1
1071
      324
1005
122056
  0
ARC
  5
122057
  8
OBJECT
 10
9986.1488390381292
 20
-225.55386256729159
 30
0.0
 40
7.0
 50
67.066778292911366
 51
154.0147337749826
1001
ACDBBLOCKREPETAG
1070
     1
1071
      325
1005
122057
  0
LINE
  5
122058
  8
OBJECT
 10
9969.4199755553
 20
-243.89888500818171
 30
0.0
 11
9979.8564918232369
 21
-222.48688253356801
 31
0.0
1001
ACDBBLOCKREPETAG
1070
     1
1071
      353
1005
122058
  0
LINE
  5
122059
  8
OBJECT
 10
9965.2972169006098
 20
-240.71813901882729
 30
0.0
 11
9973.9071022665084
 21
-223.05373004430751
 31
0.0
1001
ACDBBLOCKREPETAG
1070
     1
1071
      354
1005
122059
  0
ARC
  5
12205A
  8
OBJECT
 10
9976.5796953073132
 20
-207.1289369828437
 30
0.0
 40
60.031113246032611
 50
314.07020130422319
 51
322.33936106089681
1001
ACDBBLOCKREPETAG
1070
     1
1071
      355
1005
12205A
  0
CIRCLE
  5
12205B
  8
OBJECT
 10
10000.0
 20
-199.99999999999909
 30
0.0
 40
53.5
1001
ACDBBLOCKREPETAG
1070
     1
1071
      356
1005
12205B
  0
POINT
  5
12205C
  8
DOTS
 10
10000.0
 20
-199.99999999999909
 30
0.0
 50
270.0
1001
ACDBBLOCKREPETAG
1070
     1
1071
      365
1005
12205C
  0
LINE
  5
12205D
  8
OBJECT
 10
10202.99999999998
 20
-483.0000000000008
 30
0.0
 11
10209.99999999998
 21
-483.0000000000008
 31
0.0
1001
ACDBBLOCKREPETAG
1070
     1
1071
       83
1005
12205D
  0
LINE
  5
12205E
  8
OBJECT
 10
10209.99999999998
 20
-483.0000000000008
 30
0.0
 11
10209.99999999998
 21
-607.0000000000008
 31
0.0
1001
ACDBBLOCKREPETAG
1070
     1
1071
       84
1005
12205E
  0
LINE
  5
12205F
  8
OBJECT
 10
10085.99999999998
 20
-553.3502637757274
 30
0.0
 11
10085.99999999998
 21
-655.00000000000068
 31
0.0
1001
ACDBBLOCKREPETAG
1070
     1
1071
       85
1005
12205F
  0
LINE
  5
122060
  8
OBJECT
 10
10209.99999999998
 20
-607.0000000000008
 30
0.0
 11
10202.99999999998
 21
-607.0000000000008
 31
0.0
1001
ACDBBLOCKREPETAG
1070
     1
1071
       86
1005
122060
  0
LINE
  5
122061
  8
OBJECT
 10
10202.99999999998
 20
-607.0000000000008
 30
0.0
 11
10202.99999999998
 21
-483.0000000000008
 31
0.0
1001
ACDBBLOCKREPETAG
1070
     1
1071
       87
1005
122061
  0
LINE
  5
122062
  8
CENTER
 10
10134.99999999998
 20
-545.0000000000008
 30
0.0
 11
10224.99999999998
 21
-545.0000000000008
 31
0.0
1001
ACDBBLOCKREPETAG
1070
     1
1071
       88
1005
122062
  0
LINE
  5
122063
  8
OBJECT
 10
10079.99999999998
 20
-658.0
 30
0.0
 11
10082.99999999998
 21
-658.0000000000008
 31
0.0
1001
ACDBBLOCKREPETAG
1070
     1
1071
       89
1005
122063
  0
ARC
  5
122064
  8
OBJECT
 10
10082.99999999998
 20
-655.00000000000068
 30
0.0
 40
3.0
 50
270.0
 51
0.0
1001
ACDBBLOCKREPETAG
1070
     1
1071
       90
1005
122064
  0
LINE
  5
122065
  8
OBJECT
 10
10202.99999999998
 20
-486.0000000000008
 30
0.0
 11
10166.99999999998
 21
-486.0000000000008
 31
0.0
1001
ACDBBLOCKREPETAG
1070
     1
1071
       91
1005
122065
  0
LINE
  5
122066
  8
OBJECT
 10
10166.99999999998
 20
-486.0000000000008
 30
0.0
 11
10166.99999999998
 21
-604.0000000000008
 31
0.0
1001
ACDBBLOCKREPETAG
1070
     1
1071
       92
1005
122066
  0
LINE
  5
122067
  8
OBJECT
 10
10162.99999999998
 20
-490.5000000000008
 30
0.0
 11
10162.99999999998
 21
-599.5000000000008
 31
0.0
1001
ACDBBLOCKREPETAG
1070
     1
1071
       93
1005
122067
  0
LINE
  5
122068
  8
OBJECT
 10
10162.99999999998
 20
-490.5000000000008
 30
0.0
 11
10149.99999999998
 21
-490.5000000000008
 31
0.0
1001
ACDBBLOCKREPETAG
1070
     1
1071
       94
1005
122068
  0
LINE
  5
122069
  8
OBJECT
 10
10166.99999999998
 20
-604.0000000000008
 30
0.0
 11
10202.99999999998
 21
-604.0000000000008
 31
0.0
1001
ACDBBLOCKREPETAG
1070
     1
1071
       95
1005
122069
  0
LINE
  5
12206A
  8
OBJECT
 10
10166.99999999998
 20
-486.0000000000008
 30
0.0
 11
10162.99999999998
 21
-490.5000000000008
 31
0.0
1001
ACDBBLOCKREPETAG
1070
     1
1071
       96
1005
12206A
  0
LINE
  5
12206B
  8
OBJECT
 10
10149.99999999998
 20
-490.5000000000008
 30
0.0
 11
10149.99999999998
 21
-575.74491827928784
 31
0.0
1001
ACDBBLOCKREPETAG
1070
     1
1071
       97
1005
12206B
  0
ARC
  5
12206C
  8
OBJECT
 10
10152.799999999979
 20
-585.00000000000068
 30
0.0
 40
85.0
 50
91.887731891831123
 51
143.1301023540934
1001
ACDBBLOCKREPETAG
1070
     1
1071
       98
1005
12206C
  0
LINE
  5
12206D
  8
HIDDEN
 10
10157.99999999998
 20
-500.5000000000008
 30
0.0
 11
10157.99999999998
 21
-589.5000000000008
 31
0.0
1001
ACDBBLOCKREPETAG
1070
     1
1071
      100
1005
12206D
  0
LINE
  5
12206E
  8
OBJECT
 10
10085.99999999998
 20
-651.07945073181781
 30
0.0
 11
10156.631319921031
 21
-599.5000000000008
 31
0.0
1001
ACDBBLOCKREPETAG
1070
     1
1071
      101
1005
12206E
  0
LINE
  5
12206F
  8
OBJECT
 10
10079.99999999998
 20
-534.0
 30
0.0
 11
10084.799999999979
 21
-534.0
 31
0.0
1001
ACDBBLOCKREPETAG
1070
     1
1071
      102
1005
12206F
  0
LINE
  5
122070
  8
OBJECT
 10
10085.99999999998
 20
-553.35026377573001
 30
0.0
 11
10084.799999999979
 21
-534.0
 31
0.0
1001
ACDBBLOCKREPETAG
1070
     1
1071
      103
1005
122070
  0
LINE
  5
122071
  8
OBJECT
 10
10162.99999999998
 20
-599.5000000000008
 30
0.0
 11
10156.631319921031
 21
-599.5000000000008
 31
0.0
1001
ACDBBLOCKREPETAG
1070
     1
1071
      104
1005
122071
  0
LINE
  5
122072
  8
OBJECT
 10
10166.99999999998
 20
-604.0000000000008
 30
0.0
 11
10162.99999999998
 21
-599.5000000000008
 31
0.0
1001
ACDBBLOCKREPETAG
1070
     1
1071
      105
1005
122072
  0
LINE
  5
122073
  8
OBJECT
 10
10202.99999999998
 20
-137.99999999999909
 30
0.0
 11
10209.99999999998
 21
-137.99999999999909
 31
0.0
1001
ACDBBLOCKREPETAG
1070
     1
1071
       85
1005
122073
  0
LINE
  5
122074
  8
OBJECT
 10
10209.99999999998
 20
-137.99999999999909
 30
0.0
 11
10209.99999999998
 21
-261.99999999999909
 31
0.0
1001
ACDBBLOCKREPETAG
1070
     1
1071
       86
1005
122074
  0
LINE
  5
122075
  8
OBJECT
 10
10209.99999999998
 20
-261.99999999999909
 30
0.0
 11
10202.99999999998
 21
-261.99999999999909
 31
0.0
1001
ACDBBLOCKREPETAG
1070
     1
1071
       87
1005
122075
  0
LINE
  5
122076
  8
OBJECT
 10
10202.99999999998
 20
-261.99999999999909
 30
0.0
 11
10202.99999999998
 21
-137.99999999999909
 31
0.0
1001
ACDBBLOCKREPETAG
1070
     1
1071
       88
1005
122076
  0
LINE
  5
122077
  8
CENTER
 10
10224.99999999998
 20
-199.99999999999909
 30
0.0
 11
10080.0
 21
-199.99999999999909
 31
0.0
1001
ACDBBLOCKREPETAG
1070
     1
1071
       89
1005
122077
  0
LINE
  5
122078
  8
OBJECT
 10
10149.99997496419
 20
-245.0000000000027
 30
0.0
 11
10086.0
 21
-244.99999999999909
 31
0.0
1001
ACDBBLOCKREPETAG
1070
     1
1071
       90
1005
122078
  0
LINE
  5
122079
  8
OBJECT
 10
10149.99997496419
 20
-154.99999999999909
 30
0.0
 11
10086.0
 21
-154.99999999999909
 31
0.0
1001
ACDBBLOCKREPETAG
1070
     1
1071
       91
1005
122079
  0
LINE
  5
12207A
  8
OBJECT
 10
10202.99999999998
 20
-140.99999999999909
 30
0.0
 11
10166.99999999998
 21
-140.99999999999909
 31
0.0
1001
ACDBBLOCKREPETAG
1070
     1
1071
       92
1005
12207A
  0
LINE
  5
12207B
  8
OBJECT
 10
10166.99999999998
 20
-140.99999999999909
 30
0.0
 11
10166.99999999998
 21
-258.99999999999909
 31
0.0
1001
ACDBBLOCKREPETAG
1070
     1
1071
       93
1005
12207B
  0
LINE
  5
12207C
  8
OBJECT
 10
10166.99999999998
 20
-258.99999999999909
 30
0.0
 11
10202.99999999998
 21
-258.99999999999909
 31
0.0
1001
ACDBBLOCKREPETAG
1070
     1
1071
       94
1005
12207C
  0
LINE
  5
12207D
  8
OBJECT
 10
10162.99999999998
 20
-145.49999999999909
 30
0.0
 11
10149.99999999998
 21
-145.49999999999909
 31
0.0
1001
ACDBBLOCKREPETAG
1070
     1
1071
       95
1005
12207D
  0
LINE
  5
12207E
  8
OBJECT
 10
10149.99999999998
 20
-254.49999999999909
 30
0.0
 11
10162.99999999998
 21
-254.49999999999909
 31
0.0
1001
ACDBBLOCKREPETAG
1070
     1
1071
       96
1005
12207E
  0
LINE
  5
12207F
  8
OBJECT
 10
10162.99999999998
 20
-254.49999999999909
 30
0.0
 11
10162.99999999998
 21
-145.49999999999909
 31
0.0
1001
ACDBBLOCKREPETAG
1070
     1
1071
       97
1005
12207F
  0
LINE
  5
122080
  8
OBJECT
 10
10166.99999999998
 20
-140.99999999999909
 30
0.0
 11
10162.99999999998
 21
-145.49999999999909
 31
0.0
1001
ACDBBLOCKREPETAG
1070
     1
1071
       98
1005
122080
  0
LINE
  5
122081
  8
OBJECT
 10
10166.99999999998
 20
-258.99999999999909
 30
0.0
 11
10162.99999999998
 21
-254.49999999999909
 31
0.0
1001
ACDBBLOCKREPETAG
1070
     1
1071
       99
1005
122081
  0
LINE
  5
122082
  8
OBJECT
 10
10083.0
 20
-137.99999999999909
 30
0.0
 11
10080.0
 21
-137.99999999999909
 31
0.0
1001
ACDBBLOCKREPETAG
1070
     1
1071
      100
1005
122082
  0
ARC
  5
122083
  8
OBJECT
 10
10083.0
 20
-140.99999999999909
 30
0.0
 40
3.0
 50
0.0
 51
90.0
1001
ACDBBLOCKREPETAG
1070
     1
1071
      101
1005
122083
  0
LINE
  5
122084
  8
OBJECT
 10
10080.0
 20
-261.99999999999909
 30
0.0
 11
10083.0
 21
-261.99999999999909
 31
0.0
1001
ACDBBLOCKREPETAG
1070
     1
1071
      102
1005
122084
  0
ARC
  5
122085
  8
OBJECT
 10
10083.0
 20
-258.99999999999909
 30
0.0
 40
3.0
 50
270.0
 51
0.0
1001
ACDBBLOCKREPETAG
1070
     1
1071
      103
1005
122085
  0
LINE
  5
122086
  8
OBJECT
 10
10086.0
 20
-258.99999999999909
 30
0.0
 11
10086.0
 21
-210.3227903203578
 31
0.0
1001
ACDBBLOCKREPETAG
1070
     1
1071
      104
1005
122086
  0
LINE
  5
122087
  8
OBJECT
 10
10086.0
 20
-189.6772096796403
 30
0.0
 11
10086.0
 21
-140.99999999999909
 31
0.0
1001
ACDBBLOCKREPETAG
1070
     1
1071
      105
1005
122087
  0
LINE
  5
122088
  8
HIDDEN
 10
10157.99999999998
 20
-155.49999999999909
 30
0.0
 11
10157.99999999998
 21
-244.49999999999909
 31
0.0
1001
ACDBBLOCKREPETAG
1070
     1
1071
      106
1005
122088
  0
LINE
  5
122089
  8
OBJECT
 10
10149.99997496419
 20
-254.4999509238105
 30
0.0
 11
10149.99997496419
 21
-145.4999509238105
 31
0.0
1001
ACDBBLOCKREPETAG
1070
     1
1071
      108
1005
122089
  0
ARC
  5
12208A
  8
OBJECT
 10
10129.800000000019
 20
-199.99999999999909
 30
0.0
 40
45.000000000000547
 50
90.0
 51
270.0
1001
ACDBBLOCKREPETAG
1070
     1
1071
      109
1005
12208A
  0
LINE
  5
12208B
  8
OBJECT
 10
7923.0
 20
-470.99999999999937
 30
0.0
 11
7923.0
 21
-449.99999999999937
 31
0.0
1001
ACDBBLOCKREPETAG
1070
     1
1071
        0
1005
12208B
  0
LINE
  5
12208C
  8
OBJECT
 10
7923.0
 20
-449.99999999999937
 30
0.0
 11
8077.0
 21
-449.99999999999937
 31
0.0
1001
ACDBBLOCKREPETAG
1070
     1
1071
        1
1005
12208C
  0
LINE
  5
12208D
  8
HIDDEN
 10
7943.0
 20
-519.99999999999955
 30
0.0
 11
8057.0
 21
-519.99999999999955
 31
0.0
1001
ACDBBLOCKREPETAG
1070
     1
1071
        2
1005
12208D
  0
LINE
  5
12208E
  8
OBJECT
 10
8077.0
 20
-449.99999999999937
 30
0.0
 11
8077.0
 21
-470.99999999999937
 31
0.0
1001
ACDBBLOCKREPETAG
1070
     1
1071
        3
1005
12208E
  0
LINE
  5
12208F
  8
OBJECT
 10
8077.0
 20
-470.99999999999937
 30
0.0
 11
7923.0
 21
-470.99999999999937
 31
0.0
1001
ACDBBLOCKREPETAG
1070
     1
1071
        4
1005
12208F
  0
LINE
  5
122090
  8
CENTER
 10
8000.0
 20
-434.99999999999949
 30
0.0
 11
8000.0
 21
-669.99999999999955
 31
0.0
1001
ACDBBLOCKREPETAG
1070
     1
1071
        5
1005
122090
  0
LINE
  5
122091
  8
OBJECT
 10
7925.0
 20
-533.99999999999955
 30
0.0
 11
7925.0
 21
-657.99999999999955
 31
0.0
1001
ACDBBLOCKREPETAG
1070
     1
1071
        6
1005
122091
  0
LINE
  5
122092
  8
OBJECT
 10
7928.0
 20
-470.99999999999937
 30
0.0
 11
7928.0
 21
-533.99999999999955
 31
0.0
1001
ACDBBLOCKREPETAG
1070
     1
1071
        7
1005
122092
  0
LINE
  5
122093
  8
OBJECT
 10
8072.0
 20
-533.99999999999955
 30
0.0
 11
8072.0
 21
-470.99999999999937
 31
0.0
1001
ACDBBLOCKREPETAG
1070
     1
1071
        8
1005
122093
  0
LINE
  5
122094
  8
OBJECT
 10
7920.0
 20
-657.99999999999955
 30
0.0
 11
8080.0
 21
-657.99999999999955
 31
0.0
1001
ACDBBLOCKREPETAG
1070
     1
1071
        9
1005
122094
  0
LINE
  5
122095
  8
OBJECT
 10
8080.0
 20
-533.99999999999955
 30
0.0
 11
7925.0
 21
-533.99999999999955
 31
0.0
1001
ACDBBLOCKREPETAG
1070
     1
1071
       10
1005
122095
  0
LINE
  5
122096
  8
OBJECT
 10
7920.0
 20
-657.99999999999955
 30
0.0
 11
7920.0
 21
-669.99999999999955
 31
0.0
1001
ACDBBLOCKREPETAG
1070
     1
1071
       11
1005
122096
  0
LINE
  5
122097
  8
OBJECT
 10
7920.0
 20
-669.99999999999955
 30
0.0
 11
8080.0
 21
-669.99999999999955
 31
0.0
1001
ACDBBLOCKREPETAG
1070
     1
1071
       12
1005
122097
  0
LINE
  5
122098
  8
OBJECT
 10
8080.0
 20
-669.99999999999955
 30
0.0
 11
8080.0
 21
-657.99999999999955
 31
0.0
1001
ACDBBLOCKREPETAG
1070
     1
1071
       13
1005
122098
  0
ARC
  5
122099
  8
OBJECT
 10
8200.6872746716726
 20
-649.40809941010718
 30
0.0
 40
170.6350503965856
 50
137.44134459184301
 51
149.91949581337221
1001
ACDBBLOCKREPETAG
1070
     1
1071
       15
1005
122099
  0
ARC
  5
12209A
  8
OBJECT
 10
8118.8455987040506
 20
-605.88272669536445
 30
0.0
 40
78.072222021763665
 50
147.4551531037684
 51
164.66365997718671
1001
ACDBBLOCKREPETAG
1070
     1
1071
       16
1005
12209A
  0
ARC
  5
12209B
  8
OBJECT
 10
8085.7554349608708
 20
-595.99999999999955
 30
0.0
 40
43.55353926885617
 50
165.6884523008477
 51
194.3115476991523
1001
ACDBBLOCKREPETAG
1070
     1
1071
       17
1005
12209B
  0
ARC
  5
12209C
  8
OBJECT
 10
8200.6872746716726
 20
-542.59190058989179
 30
0.0
 40
170.6350503965856
 50
210.08050418662771
 51
222.55865540815699
1001
ACDBBLOCKREPETAG
1070
     1
1071
       18
1005
12209C
  0
ARC
  5
12209D
  8
OBJECT
 10
8118.8455987040506
 20
-586.11727330463452
 30
0.0
 40
78.072222021763665
 50
195.3363400228132
 51
212.5448468962316
1001
ACDBBLOCKREPETAG
1070
     1
1071
       19
1005
12209D
  0
POINT
  5
12209E
  8
DOTS
 10
8000.0
 20
-654.99999999999966
 30
0.0
1001
ACDBBLOCKREPETAG
1070
     1
1071
      186
1005
12209E
  0
ARC
  5
12209F
  8
OBJECT
 10
8000.0
 20
-199.99999999999909
 30
0.0
 40
50.0
 50
298.81994300000417
 51
228.52376955964741
1001
ACDBBLOCKREPETAG
1070
     1
1071
      185
1005
12209F
  0
LINE
  5
1220A0
  8
SLIM
 10
7927.3018300565236
 20
-155.95484036957691
 30
0.0
 11
7955.9548403695781
 21
-127.30183005652231
 31
0.0
1001
GRADIENTCOLOR1ACI
1070
     5
1001
GRADIENTCOLOR2ACI
1070
     2
1001
ACAD
1010
0.0
1020
0.0
1030
0.0
1001
ACDBBLOCKREPETAG
1070
     1
1071
      442
1005
1220A0
  0
LINE
  5
1220A1
  8
SLIM
 10
7919.4861520708373
 20
-172.75077447633191
 30
0.0
 11
7938.2903089572737
 21
-153.94661758989659
 31
0.0
1001
GRADIENTCOLOR1ACI
1070
     5
1001
GRADIENTCOLOR2ACI
1070
     2
1001
ACAD
1010
0.0
1020
0.0
1030
0.0
1001
ACDBBLOCKREPETAG
1070
     1
1071
      443
1005
1220A1
  0
LINE
  5
1220A2
  8
SLIM
 10
7953.9466175898988
 20
-138.29030895727169
 30
0.0
 11
7972.7507744763334
 21
-119.4861520708364
 31
0.0
1001
GRADIENTCOLOR1ACI
1070
     5
1001
GRADIENTCOLOR2ACI
1070
     2
1001
ACAD
1010
0.0
1020
0.0
1030
0.0
1001
ACDBBLOCKREPETAG
1070
     1
1071
      444
1005
1220A2
  0
LINE
  5
1220A3
  8
SLIM
 10
7916.3596679933771
 20
-184.8575146748604
 30
0.0
 11
7927.6959583557828
 21
-173.5212243124561
 31
0.0
1001
GRADIENTCOLOR1ACI
1070
     5
1001
GRADIENTCOLOR2ACI
1070
     2
1001
ACAD
1010
0.0
1020
0.0
1030
0.0
1001
ACDBBLOCKREPETAG
1070
     1
1071
      445
1005
1220A3
  0
LINE
  5
1220A4
  8
SLIM
 10
7973.5212243124561
 20
-127.6959583557812
 30
0.0
 11
7984.8575146748608
 21
-116.359667993377
 31
0.0
1001
GRADIENTCOLOR1ACI
1070
     5
1001
GRADIENTCOLOR2ACI
1070
     2
1001
ACAD
1010
0.0
1020
0.0
1030
0.0
1001
ACDBBLOCKREPETAG
1070
     1
1071
      446
1005
1220A4
  0
LINE
  5
1220A5
  8
SLIM
 10
7915.1440575890529
 20
-195.0533812002549
 30
0.0
 11
7924.3030216431825
 21
-185.89441714612491
 31
0.0
1001
GRADIENTCOLOR1ACI
1070
     5
1001
GRADIENTCOLOR2ACI
1070
     2
1001
ACAD
1010
0.0
1020
0.0
1030
0.0
1001
ACDBBLOCKREPETAG
1070
     1
1071
      447
1005
1220A5
  0
LINE
  5
1220A6
  8
SLIM
 10
7985.8944171461262
 20
-124.30302164318159
 30
0.0
 11
7995.0533812002559
 21
-115.1440575890517
 31
0.0
1001
GRADIENTCOLOR1ACI
1070
     5
1001
GRADIENTCOLOR2ACI
1070
     2
1001
ACAD
1010
0.0
1020
0.0
1030
0.0
1001
ACDBBLOCKREPETAG
1070
     1
1071
      448
1005
1220A6
  0
LINE
  5
1220A7
  8
SLIM
 10
7915.097963557474
 20
-204.07973135290339
 30
0.0
 11
7919.1776949103778
 21
-199.99999999999909
 31
0.0
1001
GRADIENTCOLOR1ACI
1070
     5
1001
GRADIENTCOLOR2ACI
1070
     2
1001
ACAD
1010
0.0
1020
0.0
1030
0.0
1001
ACDBBLOCKREPETAG
1070
     1
1071
      449
1005
1220A7
  0
LINE
  5
1220A8
  8
SLIM
 10
8000.0
 20
-119.1776949103767
 30
0.0
 11
8004.0797313529074
 21
-115.0979635574724
 31
0.0
1001
GRADIENTCOLOR1ACI
1070
     5
1001
GRADIENTCOLOR2ACI
1070
     2
1001
ACAD
1010
0.0
1020
0.0
1030
0.0
1001
ACDBBLOCKREPETAG
1070
     1
1071
      450
1005
1220A8
  0
LINE
  5
1220A9
  8
SLIM
 10
7919.1776949103778
 20
-199.99999999999909
 30
0.0
 11
7923.0999621611709
 21
-196.07773274920581
 31
0.0
1001
GRADIENTCOLOR1ACI
1070
     5
1001
GRADIENTCOLOR2ACI
1070
     2
1001
ACAD
1010
0.0
1020
0.0
1030
0.0
1001
ACDBBLOCKREPETAG
1070
     1
1071
      451
1005
1220A9
  0
LINE
  5
1220AA
  8
SLIM
 10
7996.077732749206
 20
-123.0999621611699
 30
0.0
 11
8000.0
 21
-119.1776949103767
 31
0.0
1001
GRADIENTCOLOR1ACI
1070
     5
1001
GRADIENTCOLOR2ACI
1070
     2
1001
ACAD
1010
0.0
1020
0.0
1030
0.0
1001
ACDBBLOCKREPETAG
1070
     1
1071
      452
1005
1220AA
  0
LINE
  5
1220AB
  8
SLIM
 10
7915.889972620871
 20
-212.26797841057399
 30
0.0
 11
7923.1622307771704
 21
-204.9957202542767
 31
0.0
1001
GRADIENTCOLOR1ACI
1070
     5
1001
GRADIENTCOLOR2ACI
1070
     2
1001
ACAD
1010
0.0
1020
0.0
1030
0.0
1001
ACDBBLOCKREPETAG
1070
     1
1071
      453
1005
1220AB
  0
LINE
  5
1220AC
  8
SLIM
 10
8004.9957202542737
 20
-123.1622307771683
 30
0.0
 11
8012.2679784105749
 21
-115.88997262087101
 31
0.0
1001
GRADIENTCOLOR1ACI
1070
     5
1001
GRADIENTCOLOR2ACI
1070
     2
1001
ACAD
1010
0.0
1020
0.0
1030
0.0
1001
ACDBBLOCKREPETAG
1070
     1
1071
      454
1005
1220AC
  0
LINE
  5
1220AD
  8
SLIM
 10
7917.3382656951526
 20
-219.79994145736151
 30
0.0
 11
7924.1101477855518
 21
-213.02805936696359
 31
0.0
1001
GRADIENTCOLOR1ACI
1070
     5
1001
GRADIENTCOLOR2ACI
1070
     2
1001
ACAD
1010
0.0
1020
0.0
1030
0.0
1001
ACDBBLOCKREPETAG
1070
     1
1071
      455
1005
1220AD
  0
LINE
  5
1220AE
  8
SLIM
 10
8013.028059366964
 20
-124.1101477855505
 30
0.0
 11
8019.7999414573624
 21
-117.3382656951526
 31
0.0
1001
GRADIENTCOLOR1ACI
1070
     5
1001
GRADIENTCOLOR2ACI
1070
     2
1001
ACAD
1010
0.0
1020
0.0
1030
0.0
1001
ACDBBLOCKREPETAG
1070
     1
1071
      456
1005
1220AE
  0
LINE
  5
1220AF
  8
SLIM
 10
7919.3312594063054
 20
-226.78720386727881
 30
0.0
 11
7925.74438195934
 21
-220.3740813142449
 31
0.0
1001
GRADIENTCOLOR1ACI
1070
     5
1001
GRADIENTCOLOR2ACI
1070
     2
1001
ACAD
1010
0.0
1020
0.0
1030
0.0
1001
ACDBBLOCKREPETAG
1070
     1
1071
      457
1005
1220AF
  0
LINE
  5
1220B0
  8
SLIM
 10
8020.3740813142458
 20
-125.7443819593384
 30
0.0
 11
8026.7872038672767
 21
-119.3312594063044
 31
0.0
1001
GRADIENTCOLOR1ACI
1070
     5
1001
GRADIENTCOLOR2ACI
1070
     2
1001
ACAD
1010
0.0
1020
0.0
1030
0.0
1001
ACDBBLOCKREPETAG
1070
     1
1071
      458
1005
1220B0
  0
LINE
  5
1220B1
  8
SLIM
 10
7921.7957163186193
 20
-233.30300307603289
 30
0.0
 11
7927.9462473957792
 21
-227.1524719988744
 31
0.0
1001
GRADIENTCOLOR1ACI
1070
     5
1001
GRADIENTCOLOR2ACI
1070
     2
1001
ACAD
1010
0.0
1020
0.0
1030
0.0
1001
ACDBBLOCKREPETAG
1070
     1
1071
      459
1005
1220B1
  0
LINE
  5
1220B2
  8
SLIM
 10
8027.1524719988738
 20
-127.946247395778
 30
0.0
 11
8033.3030030760328
 21
-121.7957163186195
 31
0.0
1001
GRADIENTCOLOR1ACI
1070
     5
1001
GRADIENTCOLOR2ACI
1070
     2
1001
ACAD
1010
0.0
1020
0.0
1030
0.0
1001
ACDBBLOCKREPETAG
1070
     1
1071
      460
1005
1220B2
  0
LINE
  5
1220B3
  8
SLIM
 10
7924.6816635313462
 20
-239.39731198437769
 30
0.0
 11
7930.639876864393
 21
-233.4390986513296
 31
0.0
1001
GRADIENTCOLOR1ACI
1070
     5
1001
GRADIENTCOLOR2ACI
1070
     2
1001
ACAD
1010
0.0
1020
0.0
1030
0.0
1001
ACDBBLOCKREPETAG
1070
     1
1071
      461
1005
1220B3
  0
LINE
  5
1220B4
  8
SLIM
 10
8033.4390986513308
 20
-130.63987686439199
 30
0.0
 11
8039.3973119843777
 21
-124.6816635313439
 31
0.0
1001
GRADIENTCOLOR1ACI
1070
     5
1001
GRADIENTCOLOR2ACI
1070
     2
1001
ACAD
1010
0.0
1020
0.0
1030
0.0
1001
ACDBBLOCKREPETAG
1070
     1
1071
      462
1005
1220B4
  0
LINE
  5
1220B5
  8
SLIM
 10
7927.9544611024266
 20
-245.10477053436691
 30
0.0
 11
7933.7750070149932
 21
-239.28422462179751
 31
0.0
1001
GRADIENTCOLOR1ACI
1070
     5
1001
GRADIENTCOLOR2ACI
1070
     2
1001
ACAD
1010
0.0
1020
0.0
1030
0.0
1001
ACDBBLOCKREPETAG
1070
     1
1071
      463
1005
1220B5
  0
LINE
  5
1220B6
  8
SLIM
 10
8039.2842246217979
 20
-133.77500701499321
 30
0.0
 11
8045.1047705343699
 21
-127.95446110242381
 31
0.0
1001
GRADIENTCOLOR1ACI
1070
     5
1001
GRADIENTCOLOR2ACI
1070
     2
1001
ACAD
1010
0.0
1020
0.0
1030
0.0
1001
ACDBBLOCKREPETAG
1070
     1
1071
      464
1005
1220B6
  0
LINE
  5
1220B7
  8
SLIM
 10
7931.5903319686649
 20
-250.4491557891954
 30
0.0
 11
7937.3182075880577
 21
-244.72128016980341
 31
0.0
1001
GRADIENTCOLOR1ACI
1070
     5
1001
GRADIENTCOLOR2ACI
1070
     2
1001
ACAD
1010
0.0
1020
0.0
1030
0.0
1001
ACDBBLOCKREPETAG
1070
     1
1071
      465
1005
1220B7
  0
LINE
  5
1220B8
  8
SLIM
 10
8044.7212801698061
 20
-137.31820758805651
 30
0.0
 11
8050.449155789197
 21
-131.59033196866449
 31
0.0
1001
GRADIENTCOLOR1ACI
1070
     5
1001
GRADIENTCOLOR2ACI
1070
     2
1001
ACAD
1010
0.0
1020
0.0
1030
0.0
1001
ACDBBLOCKREPETAG
1070
     1
1071
      466
1005
1220B8
  0
LINE
  5
1220B9
  8
SLIM
 10
7935.5737496925258
 20
-255.4459941864034
 30
0.0
 11
7941.24811054159
 21
-249.77163333734029
 31
0.0
1001
GRADIENTCOLOR1ACI
1070
     5
1001
GRADIENTCOLOR2ACI
1070
     2
1001
ACAD
1010
0.0
1020
0.0
1030
0.0
1001
ACDBBLOCKREPETAG
1070
     1
1071
      467
1005
1220B9
  0
LINE
  5
1220BA
  8
SLIM
 10
8053.0197438789319
 20
-137.99999999999909
 30
0.0
 11
8055.4459941864034
 21
-135.57374969252561
 31
0.0
1001
GRADIENTCOLOR1ACI
1070
     5
1001
GRADIENTCOLOR2ACI
1070
     2
1001
ACAD
1010
0.0
1020
0.0
1030
0.0
1001
ACDBBLOCKREPETAG
1070
     1
1071
      468
1005
1220BA
  0
LINE
  5
1220BB
  8
SLIM
 10
7939.8959235991442
 20
-260.10407640085572
 30
0.0
 11
7945.5527778486357
 21
-254.44722215136329
 31
0.0
1001
GRADIENTCOLOR1ACI
1070
     5
1001
GRADIENTCOLOR2ACI
1070
     2
1001
ACAD
1010
0.0
1020
0.0
1030
0.0
1001
ACDBBLOCKREPETAG
1070
     1
1071
      469
1005
1220BB
  0
LINE
  5
1220BC
  8
SLIM
 10
7944.5540058135948
 20
-264.4262503074724
 30
0.0
 11
7950.2283666626608
 21
-258.75188945840949
 31
0.0
1001
GRADIENTCOLOR1ACI
1070
     5
1001
GRADIENTCOLOR2ACI
1070
     2
1001
ACAD
1010
0.0
1020
0.0
1030
0.0
1001
ACDBBLOCKREPETAG
1070
     1
1071
      470
1005
1220BC
  0
LINE
  5
1220BD
  8
SLIM
 10
7949.5508442108039
 20
-268.40966803133369
 30
0.0
 11
7955.2787198301958
 21
-262.68179241194167
 31
0.0
1001
GRADIENTCOLOR1ACI
1070
     5
1001
GRADIENTCOLOR2ACI
1070
     2
1001
ACAD
1010
0.0
1020
0.0
1030
0.0
1001
ACDBBLOCKREPETAG
1070
     1
1071
      471
1005
1220BD
  0
LINE
  5
1220BE
  8
SLIM
 10
7954.895229465631
 20
-272.04553889757437
 30
0.0
 11
7960.7157753782021
 21
-266.22499298500497
 31
0.0
1001
GRADIENTCOLOR1ACI
1070
     5
1001
GRADIENTCOLOR2ACI
1070
     2
1001
ACAD
1010
0.0
1020
0.0
1030
0.0
1001
ACDBBLOCKREPETAG
1070
     1
1071
      472
1005
1220BE
  0
LINE
  5
1220BF
  8
SLIM
 10
7960.6026880156223
 20
-275.31833646865431
 30
0.0
 11
7966.5609013486683
 21
-269.36012313560622
 31
0.0
1001
GRADIENTCOLOR1ACI
1070
     5
1001
GRADIENTCOLOR2ACI
1070
     2
1001
ACAD
1010
0.0
1020
0.0
1030
0.0
1001
ACDBBLOCKREPETAG
1070
     1
1071
      473
1005
1220BF
  0
LINE
  5
1220C0
  8
SLIM
 10
7966.6969969239663
 20
-278.20428368137868
 30
0.0
 11
7972.8475280011244
 21
-272.05375260422022
 31
0.0
1001
GRADIENTCOLOR1ACI
1070
     5
1001
GRADIENTCOLOR2ACI
1070
     2
1001
ACAD
1010
0.0
1020
0.0
1030
0.0
1001
ACDBBLOCKREPETAG
1070
     1
1071
      474
1005
1220C0
  0
LINE
  5
1220C1
  8
SLIM
 10
7973.2127961327187
 20
-280.66874059369371
 30
0.0
 11
7979.6259186857542
 21
-274.25561804065973
 31
0.0
1001
GRADIENTCOLOR1ACI
1070
     5
1001
GRADIENTCOLOR2ACI
1070
     2
1001
ACAD
1010
0.0
1020
0.0
1030
0.0
1001
ACDBBLOCKREPETAG
1070
     1
1071
      475
1005
1220C1
  0
LINE
  5
1220C2
  8
SLIM
 10
7980.2000585426395
 20
-282.6617343048456
 30
0.0
 11
7986.971940633035
 21
-275.88985221444773
 31
0.0
1001
GRADIENTCOLOR1ACI
1070
     5
1001
GRADIENTCOLOR2ACI
1070
     2
1001
ACAD
1010
0.0
1020
0.0
1030
0.0
1001
ACDBBLOCKREPETAG
1070
     1
1071
      476
1005
1220C2
  0
LINE
  5
1220C3
  8
SLIM
 10
7987.732021589426
 20
-284.11002737912702
 30
0.0
 11
7995.0042797457209
 21
-276.83776922282988
 31
0.0
1001
GRADIENTCOLOR1ACI
1070
     5
1001
GRADIENTCOLOR2ACI
1070
     2
1001
ACAD
1010
0.0
1020
0.0
1030
0.0
1001
ACDBBLOCKREPETAG
1070
     1
1071
      477
1005
1220C3
  0
LINE
  5
1220C4
  8
SLIM
 10
7995.9202686470962
 20
-284.9020364425258
 30
0.0
 11
8000.0
 21
-280.82230508962152
 31
0.0
1001
GRADIENTCOLOR1ACI
1070
     5
1001
GRADIENTCOLOR2ACI
1070
     2
1001
ACAD
1010
0.0
1020
0.0
1030
0.0
1001
ACDBBLOCKREPETAG
1070
     1
1071
      478
1005
1220C4
  0
LINE
  5
1220C5
  8
SLIM
 10
8000.0
 20
-280.82230508962152
 30
0.0
 11
8003.9222672507931
 21
-276.90003783882821
 31
0.0
1001
GRADIENTCOLOR1ACI
1070
     5
1001
GRADIENTCOLOR2ACI
1070
     2
1001
ACAD
1010
0.0
1020
0.0
1030
0.0
1001
ACDBBLOCKREPETAG
1070
     1
1071
      479
1005
1220C5
  0
LINE
  5
1220C6
  8
SLIM
 10
8004.9466187997441
 20
-284.85594241094651
 30
0.0
 11
8014.1055828538756
 21
-275.6969783568166
 31
0.0
1001
GRADIENTCOLOR1ACI
1070
     5
1001
GRADIENTCOLOR2ACI
1070
     2
1001
ACAD
1010
0.0
1020
0.0
1030
0.0
1001
ACDBBLOCKREPETAG
1070
     1
1071
      480
1005
1220C6
  0
LINE
  5
1220C7
  8
SLIM
 10
8015.1424853251401
 20
-283.64033200662118
 30
0.0
 11
8026.478775687543
 21
-272.30404164421702
 31
0.0
1001
GRADIENTCOLOR1ACI
1070
     5
1001
GRADIENTCOLOR2ACI
1070
     2
1001
ACAD
1010
0.0
1020
0.0
1030
0.0
1001
ACDBBLOCKREPETAG
1070
     1
1071
      481
1005
1220C7
  0
LINE
  5
1220C8
  8
SLIM
 10
8027.2492255236657
 20
-280.51384792916173
 30
0.0
 11
8045.7630734528302
 21
-261.99999999999909
 31
0.0
1001
GRADIENTCOLOR1ACI
1070
     5
1001
GRADIENTCOLOR2ACI
1070
     2
1001
ACAD
1010
0.0
1020
0.0
1030
0.0
1001
ACDBBLOCKREPETAG
1070
     1
1071
      482
1005
1220C8
  0
LINE
  5
1220C9
  8
SLIM
 10
8044.045159630421
 20
-272.69816994347582
 30
0.0
 11
8054.7433295739002
 21
-261.99999999999909
 31
0.0
1001
GRADIENTCOLOR1ACI
1070
     5
1001
GRADIENTCOLOR2ACI
1070
     2
1001
ACAD
1010
0.0
1020
0.0
1030
0.0
1001
ACDBBLOCKREPETAG
1070
     1
1071
      483
1005
1220C9
  0
LINE
  5
1220CA
  8
CENTER
 10
8080.0
 20
-199.99999999999909
 30
0.0
 11
7900.0
 21
-199.99999999999909
 31
0.0
1001
ACDBBLOCKREPETAG
1070
     1
1071
      187
1005
1220CA
  0
LINE
  5
1220CB
  8
CENTER
 10
8000.0
 20
-299.99999999999898
 30
0.0
 11
8000.0
 21
-99.999999999999091
 31
0.0
1001
ACDBBLOCKREPETAG
1070
     1
1071
      188
1005
1220CB
  0
CIRCLE
  5
1220CC
  8
OBJECT
 10
8000.0
 20
-199.99999999999909
 30
0.0
 40
70.0
1001
ACDBBLOCKREPETAG
1070
     1
1071
      189
1005
1220CC
  0
CIRCLE
  5
1220CD
  8
OBJECT
 10
8000.0
 20
-199.99999999999909
 30
0.0
 40
77.0
1001
ACDBBLOCKREPETAG
1070
     1
1071
      190
1005
1220CD
  0
LINE
  5
1220CE
  8
OBJECT
 10
8045.6618002273271
 20
-137.99999999999909
 30
0.0
 11
8080.0
 21
-137.99999999999909
 31
0.0
1001
ACDBBLOCKREPETAG
1070
     1
1071
      192
1005
1220CE
  0
LINE
  5
1220CF
  8
OBJECT
 10
8045.6618002273271
 20
-261.99999999999909
 30
0.0
 11
8080.0
 21
-261.99999999999909
 31
0.0
1001
ACDBBLOCKREPETAG
1070
     1
1071
      193
1005
1220CF
  0
ARC
  5
1220D0
  8
OBJECT
 10
8000.0
 20
-199.99999999999909
 30
0.0
 40
85.0
 50
46.83710285981514
 51
313.16289714018478
1001
ACDBBLOCKREPETAG
1070
     1
1071
      202
1005
1220D0
  0
LINE
  5
1220D1
  8
OBJECT
 10
8024.1029330933006
 20
-243.80694712371681
 30
0.0
 11
8020.6596569999974
 21
-232.55462199999889
 31
0.0
1001
ACDBBLOCKREPETAG
1070
     1
1071
      321
1005
1220D1
  0
LINE
  5
1220D2
  8
OBJECT
 10
7986.7927499013749
 20
-218.22553374208019
 30
0.0
 11
8020.6596569999974
 21
-232.5546219999969
 31
0.0
1001
ACDBBLOCKREPETAG
1070
     1
1071
      323
1005
1220D2
  0
ARC
  5
1220D3
  8
OBJECT
 10
7982.8961697618997
 20
-227.4351299990567
 30
0.0
 40
10.0
 50
67.066778292911366
 51
154.0147343702935
1001
ACDBBLOCKREPETAG
1070
     1
1071
      324
1005
1220D3
  0
ARC
  5
1220D4
  8
OBJECT
 10
7986.1488390381273
 20
-225.55386256729159
 30
0.0
 40
7.0
 50
67.066778292911366
 51
154.0147337749826
1001
ACDBBLOCKREPETAG
1070
     1
1071
      325
1005
1220D4
  0
LINE
  5
1220D5
  8
OBJECT
 10
7969.4199755553009
 20
-243.89888500818171
 30
0.0
 11
7979.8564918232369
 21
-222.48688253356801
 31
0.0
1001
ACDBBLOCKREPETAG
1070
     1
1071
      353
1005
1220D5
  0
LINE
  5
1220D6
  8
OBJECT
 10
7965.2972169006098
 20
-240.71813901882729
 30
0.0
 11
7973.9071022665084
 21
-223.05373004430751
 31
0.0
1001
ACDBBLOCKREPETAG
1070
     1
1071
      354
1005
1220D6
  0
ARC
  5
1220D7
  8
OBJECT
 10
7976.5796953073141
 20
-207.1289369828437
 30
0.0
 40
60.031113246032611
 50
314.07020130418567
 51
322.33936106089681
1001
ACDBBLOCKREPETAG
1070
     1
1071
      355
1005
1220D7
  0
CIRCLE
  5
1220D8
  8
OBJECT
 10
8000.0
 20
-199.99999999999909
 30
0.0
 40
53.5
1001
ACDBBLOCKREPETAG
1070
     1
1071
      356
1005
1220D8
  0
POINT
  5
1220D9
  8
DOTS
 10
8000.0
 20
-199.99999999999909
 30
0.0
 50
270.0
1001
ACDBBLOCKREPETAG
1070
     1
1071
      365
1005
1220D9
  0
LINE
  5
1220DA
  8
OBJECT
 10
8202.9999999999854
 20
-483.0000000000008
 30
0.0
 11
8209.9999999999836
 21
-483.0000000000008
 31
0.0
1001
ACDBBLOCKREPETAG
1070
     1
1071
       83
1005
1220DA
  0
LINE
  5
1220DB
  8
OBJECT
 10
8209.9999999999836
 20
-483.0000000000008
 30
0.0
 11
8209.9999999999836
 21
-607.0000000000008
 31
0.0
1001
ACDBBLOCKREPETAG
1070
     1
1071
       84
1005
1220DB
  0
LINE
  5
1220DC
  8
OBJECT
 10
8085.9999999999873
 20
-553.3502637757274
 30
0.0
 11
8085.9999999999873
 21
-655.00000000000068
 31
0.0
1001
ACDBBLOCKREPETAG
1070
     1
1071
       85
1005
1220DC
  0
LINE
  5
1220DD
  8
OBJECT
 10
8209.9999999999836
 20
-607.0000000000008
 30
0.0
 11
8202.9999999999854
 21
-607.0000000000008
 31
0.0
1001
ACDBBLOCKREPETAG
1070
     1
1071
       86
1005
1220DD
  0
LINE
  5
1220DE
  8
OBJECT
 10
8202.9999999999854
 20
-607.0000000000008
 30
0.0
 11
8202.9999999999854
 21
-483.0000000000008
 31
0.0
1001
ACDBBLOCKREPETAG
1070
     1
1071
       87
1005
1220DE
  0
LINE
  5
1220DF
  8
CENTER
 10
8134.9999999999873
 20
-545.0000000000008
 30
0.0
 11
8224.9999999999873
 21
-545.0000000000008
 31
0.0
1001
ACDBBLOCKREPETAG
1070
     1
1071
       88
1005
1220DF
  0
LINE
  5
1220E0
  8
OBJECT
 10
8079.9999999999818
 20
-658.0
 30
0.0
 11
8082.9999999999873
 21
-658.0000000000008
 31
0.0
1001
ACDBBLOCKREPETAG
1070
     1
1071
       89
1005
1220E0
  0
ARC
  5
1220E1
  8
OBJECT
 10
8082.9999999999873
 20
-655.00000000000068
 30
0.0
 40
3.0
 50
270.0
 51
0.0
1001
ACDBBLOCKREPETAG
1070
     1
1071
       90
1005
1220E1
  0
LINE
  5
1220E2
  8
OBJECT
 10
8202.9999999999854
 20
-486.0000000000008
 30
0.0
 11
8166.9999999999854
 21
-486.0000000000008
 31
0.0
1001
ACDBBLOCKREPETAG
1070
     1
1071
       91
1005
1220E2
  0
LINE
  5
1220E3
  8
OBJECT
 10
8166.9999999999854
 20
-486.0000000000008
 30
0.0
 11
8166.9999999999854
 21
-604.0000000000008
 31
0.0
1001
ACDBBLOCKREPETAG
1070
     1
1071
       92
1005
1220E3
  0
LINE
  5
1220E4
  8
OBJECT
 10
8162.9999999999873
 20
-490.5000000000008
 30
0.0
 11
8162.9999999999873
 21
-599.5000000000008
 31
0.0
1001
ACDBBLOCKREPETAG
1070
     1
1071
       93
1005
1220E4
  0
LINE
  5
1220E5
  8
OBJECT
 10
8162.9999999999873
 20
-490.5000000000008
 30
0.0
 11
8149.9999999999873
 21
-490.5000000000008
 31
0.0
1001
ACDBBLOCKREPETAG
1070
     1
1071
       94
1005
1220E5
  0
LINE
  5
1220E6
  8
OBJECT
 10
8166.9999999999854
 20
-604.0000000000008
 30
0.0
 11
8202.9999999999854
 21
-604.0000000000008
 31
0.0
1001
ACDBBLOCKREPETAG
1070
     1
1071
       95
1005
1220E6
  0
LINE
  5
1220E7
  8
OBJECT
 10
8166.9999999999854
 20
-486.0000000000008
 30
0.0
 11
8162.9999999999873
 21
-490.5000000000008
 31
0.0
1001
ACDBBLOCKREPETAG
1070
     1
1071
       96
1005
1220E7
  0
LINE
  5
1220E8
  8
OBJECT
 10
8149.9999999999873
 20
-490.5000000000008
 30
0.0
 11
8149.9999999999873
 21
-575.74491827928784
 31
0.0
1001
ACDBBLOCKREPETAG
1070
     1
1071
       97
1005
1220E8
  0
ARC
  5
1220E9
  8
OBJECT
 10
8152.7999999999829
 20
-585.00000000000068
 30
0.0
 40
85.0
 50
91.887731891831123
 51
143.1301023540934
1001
ACDBBLOCKREPETAG
1070
     1
1071
       98
1005
1220E9
  0
LINE
  5
1220EA
  8
HIDDEN
 10
8157.9999999999873
 20
-500.5000000000008
 30
0.0
 11
8157.9999999999873
 21
-589.5000000000008
 31
0.0
1001
ACDBBLOCKREPETAG
1070
     1
1071
      100
1005
1220EA
  0
LINE
  5
1220EB
  8
OBJECT
 10
8085.9999999999873
 20
-651.07945073181781
 30
0.0
 11
8156.6313199210299
 21
-599.5000000000008
 31
0.0
1001
ACDBBLOCKREPETAG
1070
     1
1071
      101
1005
1220EB
  0
LINE
  5
1220EC
  8
OBJECT
 10
8079.9999999999818
 20
-534.0
 30
0.0
 11
8084.7999999999847
 21
-534.0
 31
0.0
1001
ACDBBLOCKREPETAG
1070
     1
1071
      102
1005
1220EC
  0
LINE
  5
1220ED
  8
OBJECT
 10
8085.9999999999873
 20
-553.35026377573001
 30
0.0
 11
8084.7999999999847
 21
-534.0
 31
0.0
1001
ACDBBLOCKREPETAG
1070
     1
1071
      103
1005
1220ED
  0
LINE
  5
1220EE
  8
OBJECT
 10
8162.9999999999873
 20
-599.5000000000008
 30
0.0
 11
8156.6313199210299
 21
-599.5000000000008
 31
0.0
1001
ACDBBLOCKREPETAG
1070
     1
1071
      104
1005
1220EE
  0
LINE
  5
1220EF
  8
OBJECT
 10
8166.9999999999854
 20
-604.0000000000008
 30
0.0
 11
8162.9999999999873
 21
-599.5000000000008
 31
0.0
1001
ACDBBLOCKREPETAG
1070
     1
1071
      105
1005
1220EF
  0
LINE
  5
1220F0
  8
OBJECT
 10
8202.9999999999854
 20
-137.99999999999909
 30
0.0
 11
8209.9999999999836
 21
-137.99999999999909
 31
0.0
1001
ACDBBLOCKREPETAG
1070
     1
1071
       85
1005
1220F0
  0
LINE
  5
1220F1
  8
OBJECT
 10
8209.9999999999836
 20
-137.99999999999909
 30
0.0
 11
8209.9999999999836
 21
-261.99999999999909
 31
0.0
1001
ACDBBLOCKREPETAG
1070
     1
1071
       86
1005
1220F1
  0
LINE
  5
1220F2
  8
OBJECT
 10
8209.9999999999836
 20
-261.99999999999909
 30
0.0
 11
8202.9999999999854
 21
-261.99999999999909
 31
0.0
1001
ACDBBLOCKREPETAG
1070
     1
1071
       87
1005
1220F2
  0
LINE
  5
1220F3
  8
OBJECT
 10
8202.9999999999854
 20
-261.99999999999909
 30
0.0
 11
8202.9999999999854
 21
-137.99999999999909
 31
0.0
1001
ACDBBLOCKREPETAG
1070
     1
1071
       88
1005
1220F3
  0
LINE
  5
1220F4
  8
CENTER
 10
8224.9999999999873
 20
-199.99999999999909
 30
0.0
 11
8080.0
 21
-199.99999999999909
 31
0.0
1001
ACDBBLOCKREPETAG
1070
     1
1071
       89
1005
1220F4
  0
LINE
  5
1220F5
  8
OBJECT
 10
8149.9999749641856
 20
-245.0000000000027
 30
0.0
 11
8086.0
 21
-244.99999999999909
 31
0.0
1001
ACDBBLOCKREPETAG
1070
     1
1071
       90
1005
1220F5
  0
LINE
  5
1220F6
  8
OBJECT
 10
8149.9999749641856
 20
-154.99999999999909
 30
0.0
 11
8086.0
 21
-154.99999999999909
 31
0.0
1001
ACDBBLOCKREPETAG
1070
     1
1071
       91
1005
1220F6
  0
LINE
  5
1220F7
  8
OBJECT
 10
8202.9999999999854
 20
-140.99999999999909
 30
0.0
 11
8166.9999999999854
 21
-140.99999999999909
 31
0.0
1001
ACDBBLOCKREPETAG
1070
     1
1071
       92
1005
1220F7
  0
LINE
  5
1220F8
  8
OBJECT
 10
8166.9999999999854
 20
-140.99999999999909
 30
0.0
 11
8166.9999999999854
 21
-258.99999999999909
 31
0.0
1001
ACDBBLOCKREPETAG
1070
     1
1071
       93
1005
1220F8
  0
LINE
  5
1220F9
  8
OBJECT
 10
8166.9999999999854
 20
-258.99999999999909
 30
0.0
 11
8202.9999999999854
 21
-258.99999999999909
 31
0.0
1001
ACDBBLOCKREPETAG
1070
     1
1071
       94
1005
1220F9
  0
LINE
  5
1220FA
  8
OBJECT
 10
8162.9999999999873
 20
-145.49999999999909
 30
0.0
 11
8149.9999999999873
 21
-145.49999999999909
 31
0.0
1001
ACDBBLOCKREPETAG
1070
     1
1071
       95
1005
1220FA
  0
LINE
  5
1220FB
  8
OBJECT
 10
8149.9999999999873
 20
-254.49999999999909
 30
0.0
 11
8162.9999999999873
 21
-254.49999999999909
 31
0.0
1001
ACDBBLOCKREPETAG
1070
     1
1071
       96
1005
1220FB
  0
LINE
  5
1220FC
  8
OBJECT
 10
8162.9999999999873
 20
-254.49999999999909
 30
0.0
 11
8162.9999999999873
 21
-145.49999999999909
 31
0.0
1001
ACDBBLOCKREPETAG
1070
     1
1071
       97
1005
1220FC
  0
LINE
  5
1220FD
  8
OBJECT
 10
8166.9999999999854
 20
-140.99999999999909
 30
0.0
 11
8162.9999999999873
 21
-145.49999999999909
 31
0.0
1001
ACDBBLOCKREPETAG
1070
     1
1071
       98
1005
1220FD
  0
LINE
  5
1220FE
  8
OBJECT
 10
8166.9999999999854
 20
-258.99999999999909
 30
0.0
 11
8162.9999999999873
 21
-254.49999999999909
 31
0.0
1001
ACDBBLOCKREPETAG
1070
     1
1071
       99
1005
1220FE
  0
LINE
  5
1220FF
  8
OBJECT
 10
8083.0
 20
-137.99999999999909
 30
0.0
 11
8080.0
 21
-137.99999999999909
 31
0.0
1001
ACDBBLOCKREPETAG
1070
     1
1071
      100
1005
1220FF
  0
ARC
  5
122100
  8
OBJECT
 10
8083.0
 20
-140.99999999999909
 30
0.0
 40
3.0
 50
0.0
 51
90.0
1001
ACDBBLOCKREPETAG
1070
     1
1071
      101
1005
122100
  0
LINE
  5
122101
  8
OBJECT
 10
8080.0
 20
-261.99999999999909
 30
0.0
 11
8083.0
 21
-261.99999999999909
 31
0.0
1001
ACDBBLOCKREPETAG
1070
     1
1071
      102
1005
122101
  0
ARC
  5
122102
  8
OBJECT
 10
8083.0
 20
-258.99999999999909
 30
0.0
 40
3.0
 50
270.0
 51
0.0
1001
ACDBBLOCKREPETAG
1070
     1
1071
      103
1005
122102
  0
LINE
  5
122103
  8
OBJECT
 10
8086.0
 20
-258.99999999999909
 30
0.0
 11
8086.0
 21
-210.3227903203578
 31
0.0
1001
ACDBBLOCKREPETAG
1070
     1
1071
      104
1005
122103
  0
LINE
  5
122104
  8
OBJECT
 10
8086.0
 20
-189.6772096796403
 30
0.0
 11
8086.0
 21
-140.99999999999909
 31
0.0
1001
ACDBBLOCKREPETAG
1070
     1
1071
      105
1005
122104
  0
LINE
  5
122105
  8
HIDDEN
 10
8157.9999999999873
 20
-155.49999999999909
 30
0.0
 11
8157.9999999999873
 21
-244.49999999999909
 31
0.0
1001
ACDBBLOCKREPETAG
1070
     1
1071
      106
1005
122105
  0
LINE
  5
122106
  8
OBJECT
 10
8149.9999749641856
 20
-254.4999509238105
 30
0.0
 11
8149.9999749641856
 21
-145.4999509238105
 31
0.0
1001
ACDBBLOCKREPETAG
1070
     1
1071
      108
1005
122106
  0
ARC
  5
122107
  8
OBJECT
 10
8129.800000000022
 20
-199.99999999999909
 30
0.0
 40
45.000000000000547
 50
90.0
 51
270.0
1001
ACDBBLOCKREPETAG
1070
     1
1071
      109
1005
122107
  0
LINE
  5
122108
  8
OBJECT
 10
5923.0
 20
-470.99999999999937
 30
0.0
 11
5923.0
 21
-449.99999999999937
 31
0.0
1001
ACDBBLOCKREPETAG
1070
     1
1071
        0
1005
122108
  0
LINE
  5
122109
  8
OBJECT
 10
5923.0
 20
-449.99999999999937
 30
0.0
 11
6077.0
 21
-449.99999999999937
 31
0.0
1001
ACDBBLOCKREPETAG
1070
     1
1071
        1
1005
122109
  0
LINE
  5
12210A
  8
HIDDEN
 10
5943.0
 20
-519.99999999999955
 30
0.0
 11
6057.0
 21
-519.99999999999955
 31
0.0
1001
ACDBBLOCKREPETAG
1070
     1
1071
        2
1005
12210A
  0
LINE
  5
12210B
  8
OBJECT
 10
6077.0
 20
-449.99999999999937
 30
0.0
 11
6077.0
 21
-470.99999999999937
 31
0.0
1001
ACDBBLOCKREPETAG
1070
     1
1071
        3
1005
12210B
  0
LINE
  5
12210C
  8
OBJECT
 10
6077.0
 20
-470.99999999999937
 30
0.0
 11
5923.0
 21
-470.99999999999937
 31
0.0
1001
ACDBBLOCKREPETAG
1070
     1
1071
        4
1005
12210C
  0
LINE
  5
12210D
  8
CENTER
 10
6000.0
 20
-434.99999999999949
 30
0.0
 11
6000.0
 21
-669.99999999999955
 31
0.0
1001
ACDBBLOCKREPETAG
1070
     1
1071
        5
1005
12210D
  0
LINE
  5
12210E
  8
OBJECT
 10
5925.0
 20
-533.99999999999955
 30
0.0
 11
5925.0
 21
-657.99999999999955
 31
0.0
1001
ACDBBLOCKREPETAG
1070
     1
1071
        6
1005
12210E
  0
LINE
  5
12210F
  8
OBJECT
 10
5928.0
 20
-470.99999999999937
 30
0.0
 11
5928.0
 21
-533.99999999999955
 31
0.0
1001
ACDBBLOCKREPETAG
1070
     1
1071
        7
1005
12210F
  0
LINE
  5
122110
  8
OBJECT
 10
6072.0
 20
-533.99999999999955
 30
0.0
 11
6072.0
 21
-470.99999999999937
 31
0.0
1001
ACDBBLOCKREPETAG
1070
     1
1071
        8
1005
122110
  0
LINE
  5
122111
  8
OBJECT
 10
5920.0
 20
-657.99999999999955
 30
0.0
 11
6080.0
 21
-657.99999999999955
 31
0.0
1001
ACDBBLOCKREPETAG
1070
     1
1071
        9
1005
122111
  0
LINE
  5
122112
  8
OBJECT
 10
6080.0
 20
-533.99999999999955
 30
0.0
 11
5925.0
 21
-533.99999999999955
 31
0.0
1001
ACDBBLOCKREPETAG
1070
     1
1071
       10
1005
122112
  0
LINE
  5
122113
  8
OBJECT
 10
5920.0
 20
-657.99999999999955
 30
0.0
 11
5920.0
 21
-669.99999999999955
 31
0.0
1001
ACDBBLOCKREPETAG
1070
     1
1071
       11
1005
122113
  0
LINE
  5
122114
  8
OBJECT
 10
5920.0
 20
-669.99999999999955
 30
0.0
 11
6080.0
 21
-669.99999999999955
 31
0.0
1001
ACDBBLOCKREPETAG
1070
     1
1071
       12
1005
122114
  0
LINE
  5
122115
  8
OBJECT
 10
6080.0
 20
-669.99999999999955
 30
0.0
 11
6080.0
 21
-657.99999999999955
 31
0.0
1001
ACDBBLOCKREPETAG
1070
     1
1071
       13
1005
122115
  0
ARC
  5
122116
  8
OBJECT
 10
6200.6872746716735
 20
-649.40809941010718
 30
0.0
 40
170.6350503965856
 50
137.44134459184301
 51
149.91949581337221
1001
ACDBBLOCKREPETAG
1070
     1
1071
       15
1005
122116
  0
ARC
  5
122117
  8
OBJECT
 10
6118.8455987040506
 20
-605.88272669536445
 30
0.0
 40
78.072222021763665
 50
147.4551531037684
 51
164.66365997718671
1001
ACDBBLOCKREPETAG
1070
     1
1071
       16
1005
122117
  0
ARC
  5
122118
  8
OBJECT
 10
6085.7554349608727
 20
-595.99999999999955
 30
0.0
 40
43.55353926885617
 50
165.6884523008477
 51
194.3115476991523
1001
ACDBBLOCKREPETAG
1070
     1
1071
       17
1005
122118
  0
ARC
  5
122119
  8
OBJECT
 10
6200.6872746716735
 20
-542.59190058989179
 30
0.0
 40
170.6350503965856
 50
210.08050418662771
 51
222.55865540815699
1001
ACDBBLOCKREPETAG
1070
     1
1071
       18
1005
122119
  0
ARC
  5
12211A
  8
OBJECT
 10
6118.8455987040506
 20
-586.11727330463452
 30
0.0
 40
78.072222021763665
 50
195.3363400228132
 51
212.5448468962316
1001
ACDBBLOCKREPETAG
1070
     1
1071
       19
1005
12211A
  0
POINT
  5
12211B
  8
DOTS
 10
6000.0
 20
-654.99999999999966
 30
0.0
1001
ACDBBLOCKREPETAG
1070
     1
1071
      186
1005
12211B
  0
LINE
  5
12211C
  8
OBJECT
 10
6024.1029330933034
 20
-243.80694712371681
 30
0.0
 11
6020.6596569999956
 21
-232.55462199999889
 31
0.0
1001
ACDBBLOCKREPETAG
1070
     1
1071
      300
1005
12211C
  0
LINE
  5
12211D
  8
OBJECT
 10
5986.7927499013749
 20
-218.22553374208019
 30
0.0
 11
6020.6596569999956
 21
-232.5546219999969
 31
0.0
1001
ACDBBLOCKREPETAG
1070
     1
1071
      302
1005
12211D
  0
ARC
  5
12211E
  8
OBJECT
 10
5982.8961697618997
 20
-227.4351299990567
 30
0.0
 40
10.0
 50
67.066778292911366
 51
154.0147343702935
1001
ACDBBLOCKREPETAG
1070
     1
1071
      303
1005
12211E
  0
ARC
  5
12211F
  8
OBJECT
 10
5986.1488390381273
 20
-225.55386256729159
 30
0.0
 40
7.0
 50
67.066778292911366
 51
154.0147337749826
1001
ACDBBLOCKREPETAG
1070
     1
1071
      304
1005
12211F
  0
LINE
  5
122120
  8
OBJECT
 10
5969.4199755553018
 20
-243.89888500818171
 30
0.0
 11
5979.8564918232369
 21
-222.48688253356801
 31
0.0
1001
ACDBBLOCKREPETAG
1070
     1
1071
      341
1005
122120
  0
LINE
  5
122121
  8
OBJECT
 10
5965.2972169006089
 20
-240.71813901882729
 30
0.0
 11
5973.9071022665084
 21
-223.05373004430751
 31
0.0
1001
ACDBBLOCKREPETAG
1070
     1
1071
      342
1005
122121
  0
ARC
  5
122122
  8
OBJECT
 10
5976.5796953073141
 20
-207.1289369828437
 30
0.0
 40
60.031113246032611
 50
314.07020130418567
 51
322.33936106089681
1001
ACDBBLOCKREPETAG
1070
     1
1071
      343
1005
122122
  0
CIRCLE
  5
122123
  8
OBJECT
 10
6000.0
 20
-199.99999999999909
 30
0.0
 40
53.5
1001
ACDBBLOCKREPETAG
1070
     1
1071
      344
1005
122123
  0
POINT
  5
122124
  8
DOTS
 10
6000.0
 20
-199.99999999999909
 30
0.0
 50
270.0
1001
ACDBBLOCKREPETAG
1070
     1
1071
      362
1005
122124
  0
ARC
  5
122125
  8
OBJECT
 10
6000.0
 20
-199.99999999999909
 30
0.0
 40
50.0
 50
298.81994300000417
 51
228.52376955965491
1001
ACDBBLOCKREPETAG
1070
     1
1071
        7
1005
122125
  0
LINE
  5
122126
  8
CENTER
 10
6080.0
 20
-199.99999999999909
 30
0.0
 11
5905.0
 21
-199.99999999999909
 31
0.0
1001
ACDBBLOCKREPETAG
1070
     1
1071
       14
1005
122126
  0
LINE
  5
122127
  8
CENTER
 10
6000.0
 20
-294.99999999999898
 30
0.0
 11
6000.0
 21
-104.9999999999991
 31
0.0
1001
ACDBBLOCKREPETAG
1070
     1
1071
       15
1005
122127
  0
CIRCLE
  5
122128
  8
OBJECT
 10
6000.0
 20
-199.99999999999909
 30
0.0
 40
70.0
1001
ACDBBLOCKREPETAG
1070
     1
1071
       16
1005
122128
  0
CIRCLE
  5
122129
  8
OBJECT
 10
6000.0
 20
-199.99999999999909
 30
0.0
 40
77.0
1001
ACDBBLOCKREPETAG
1070
     1
1071
       17
1005
122129
  0
ARC
  5
12212A
  8
OBJECT
 10
6000.0
 20
-199.99999999999909
 30
0.0
 40
80.0
 50
50.80503257388439
 51
309.19496742611562
1001
ACDBBLOCKREPETAG
1070
     1
1071
       18
1005
12212A
  0
LINE
  5
12212B
  8
OBJECT
 10
6045.6618002273253
 20
-137.99999999999909
 30
0.0
 11
6080.0
 21
-137.99999999999909
 31
0.0
1001
ACDBBLOCKREPETAG
1070
     1
1071
       19
1005
12212B
  0
LINE
  5
12212C
  8
OBJECT
 10
6045.6618002273253
 20
-261.99999999999909
 30
0.0
 11
6080.0
 21
-261.99999999999909
 31
0.0
1001
ACDBBLOCKREPETAG
1070
     1
1071
       20
1005
12212C
  0
LINE
  5
12212D
  8
OBJECT
 10
6202.9999999999864
 20
-483.0000000000008
 30
0.0
 11
6209.9999999999864
 21
-483.0000000000008
 31
0.0
1001
ACDBBLOCKREPETAG
1070
     1
1071
       83
1005
12212D
  0
LINE
  5
12212E
  8
OBJECT
 10
6209.9999999999864
 20
-483.0000000000008
 30
0.0
 11
6209.9999999999864
 21
-607.0000000000008
 31
0.0
1001
ACDBBLOCKREPETAG
1070
     1
1071
       84
1005
12212E
  0
LINE
  5
12212F
  8
OBJECT
 10
6085.9999999999864
 20
-553.3502637757274
 30
0.0
 11
6085.9999999999864
 21
-655.00000000000068
 31
0.0
1001
ACDBBLOCKREPETAG
1070
     1
1071
       85
1005
12212F
  0
LINE
  5
122130
  8
OBJECT
 10
6209.9999999999864
 20
-607.0000000000008
 30
0.0
 11
6202.9999999999864
 21
-607.0000000000008
 31
0.0
1001
ACDBBLOCKREPETAG
1070
     1
1071
       86
1005
122130
  0
LINE
  5
122131
  8
OBJECT
 10
6202.9999999999864
 20
-607.0000000000008
 30
0.0
 11
6202.9999999999864
 21
-483.0000000000008
 31
0.0
1001
ACDBBLOCKREPETAG
1070
     1
1071
       87
1005
122131
  0
LINE
  5
122132
  8
CENTER
 10
6134.9999999999873
 20
-545.0000000000008
 30
0.0
 11
6224.9999999999873
 21
-545.0000000000008
 31
0.0
1001
ACDBBLOCKREPETAG
1070
     1
1071
       88
1005
122132
  0
LINE
  5
122133
  8
OBJECT
 10
6079.9999999999818
 20
-658.0
 30
0.0
 11
6082.9999999999864
 21
-658.0000000000008
 31
0.0
1001
ACDBBLOCKREPETAG
1070
     1
1071
       89
1005
122133
  0
ARC
  5
122134
  8
OBJECT
 10
6082.9999999999864
 20
-655.00000000000068
 30
0.0
 40
3.0
 50
270.0
 51
0.0
1001
ACDBBLOCKREPETAG
1070
     1
1071
       90
1005
122134
  0
LINE
  5
122135
  8
OBJECT
 10
6202.9999999999864
 20
-486.0000000000008
 30
0.0
 11
6166.9999999999873
 21
-486.0000000000008
 31
0.0
1001
ACDBBLOCKREPETAG
1070
     1
1071
       91
1005
122135
  0
LINE
  5
122136
  8
OBJECT
 10
6166.9999999999873
 20
-486.0000000000008
 30
0.0
 11
6166.9999999999873
 21
-604.0000000000008
 31
0.0
1001
ACDBBLOCKREPETAG
1070
     1
1071
       92
1005
122136
  0
LINE
  5
122137
  8
OBJECT
 10
6162.9999999999864
 20
-490.5000000000008
 30
0.0
 11
6162.9999999999864
 21
-599.5000000000008
 31
0.0
1001
ACDBBLOCKREPETAG
1070
     1
1071
       93
1005
122137
  0
LINE
  5
122138
  8
OBJECT
 10
6162.9999999999864
 20
-490.5000000000008
 30
0.0
 11
6149.9999999999873
 21
-490.5000000000008
 31
0.0
1001
ACDBBLOCKREPETAG
1070
     1
1071
       94
1005
122138
  0
LINE
  5
122139
  8
OBJECT
 10
6166.9999999999873
 20
-604.0000000000008
 30
0.0
 11
6202.9999999999864
 21
-604.0000000000008
 31
0.0
1001
ACDBBLOCKREPETAG
1070
     1
1071
       95
1005
122139
  0
LINE
  5
12213A
  8
OBJECT
 10
6166.9999999999873
 20
-486.0000000000008
 30
0.0
 11
6162.9999999999864
 21
-490.5000000000008
 31
0.0
1001
ACDBBLOCKREPETAG
1070
     1
1071
       96
1005
12213A
  0
LINE
  5
12213B
  8
OBJECT
 10
6149.9999999999873
 20
-490.5000000000008
 30
0.0
 11
6149.9999999999873
 21
-575.74491827928784
 31
0.0
1001
ACDBBLOCKREPETAG
1070
     1
1071
       97
1005
12213B
  0
ARC
  5
12213C
  8
OBJECT
 10
6152.7999999999838
 20
-585.00000000000068
 30
0.0
 40
85.0
 50
91.887731891831123
 51
143.1301023540934
1001
ACDBBLOCKREPETAG
1070
     1
1071
       98
1005
12213C
  0
LINE
  5
12213D
  8
HIDDEN
 10
6157.9999999999873
 20
-500.5000000000008
 30
0.0
 11
6157.9999999999873
 21
-589.5000000000008
 31
0.0
1001
ACDBBLOCKREPETAG
1070
     1
1071
      100
1005
12213D
  0
LINE
  5
12213E
  8
OBJECT
 10
6085.9999999999864
 20
-651.07945073181781
 30
0.0
 11
6156.6313199210299
 21
-599.5000000000008
 31
0.0
1001
ACDBBLOCKREPETAG
1070
     1
1071
      101
1005
12213E
  0
LINE
  5
12213F
  8
OBJECT
 10
6079.9999999999818
 20
-534.0
 30
0.0
 11
6084.7999999999856
 21
-534.0
 31
0.0
1001
ACDBBLOCKREPETAG
1070
     1
1071
      102
1005
12213F
  0
LINE
  5
122140
  8
OBJECT
 10
6085.9999999999864
 20
-553.35026377573001
 30
0.0
 11
6084.7999999999856
 21
-534.0
 31
0.0
1001
ACDBBLOCKREPETAG
1070
     1
1071
      103
1005
122140
  0
LINE
  5
122141
  8
OBJECT
 10
6162.9999999999864
 20
-599.5000000000008
 30
0.0
 11
6156.6313199210299
 21
-599.5000000000008
 31
0.0
1001
ACDBBLOCKREPETAG
1070
     1
1071
      104
1005
122141
  0
LINE
  5
122142
  8
OBJECT
 10
6166.9999999999873
 20
-604.0000000000008
 30
0.0
 11
6162.9999999999864
 21
-599.5000000000008
 31
0.0
1001
ACDBBLOCKREPETAG
1070
     1
1071
      105
1005
122142
  0
LINE
  5
122143
  8
OBJECT
 10
6202.9999999999864
 20
-137.99999999999909
 30
0.0
 11
6209.9999999999864
 21
-137.99999999999909
 31
0.0
1001
ACDBBLOCKREPETAG
1070
     1
1071
       85
1005
122143
  0
LINE
  5
122144
  8
OBJECT
 10
6209.9999999999864
 20
-137.99999999999909
 30
0.0
 11
6209.9999999999864
 21
-261.99999999999909
 31
0.0
1001
ACDBBLOCKREPETAG
1070
     1
1071
       86
1005
122144
  0
LINE
  5
122145
  8
OBJECT
 10
6209.9999999999864
 20
-261.99999999999909
 30
0.0
 11
6202.9999999999864
 21
-261.99999999999909
 31
0.0
1001
ACDBBLOCKREPETAG
1070
     1
1071
       87
1005
122145
  0
LINE
  5
122146
  8
OBJECT
 10
6202.9999999999864
 20
-261.99999999999909
 30
0.0
 11
6202.9999999999864
 21
-137.99999999999909
 31
0.0
1001
ACDBBLOCKREPETAG
1070
     1
1071
       88
1005
122146
  0
LINE
  5
122147
  8
CENTER
 10
6224.9999999999873
 20
-199.99999999999909
 30
0.0
 11
6080.0
 21
-199.99999999999909
 31
0.0
1001
ACDBBLOCKREPETAG
1070
     1
1071
       89
1005
122147
  0
LINE
  5
122148
  8
OBJECT
 10
6149.9999749641856
 20
-245.0000000000027
 30
0.0
 11
6086.0
 21
-244.99999999999909
 31
0.0
1001
ACDBBLOCKREPETAG
1070
     1
1071
       90
1005
122148
  0
LINE
  5
122149
  8
OBJECT
 10
6149.9999749641856
 20
-154.99999999999909
 30
0.0
 11
6086.0
 21
-154.99999999999909
 31
0.0
1001
ACDBBLOCKREPETAG
1070
     1
1071
       91
1005
122149
  0
LINE
  5
12214A
  8
OBJECT
 10
6202.9999999999864
 20
-140.99999999999909
 30
0.0
 11
6166.9999999999873
 21
-140.99999999999909
 31
0.0
1001
ACDBBLOCKREPETAG
1070
     1
1071
       92
1005
12214A
  0
LINE
  5
12214B
  8
OBJECT
 10
6166.9999999999873
 20
-140.99999999999909
 30
0.0
 11
6166.9999999999873
 21
-258.99999999999909
 31
0.0
1001
ACDBBLOCKREPETAG
1070
     1
1071
       93
1005
12214B
  0
LINE
  5
12214C
  8
OBJECT
 10
6166.9999999999873
 20
-258.99999999999909
 30
0.0
 11
6202.9999999999864
 21
-258.99999999999909
 31
0.0
1001
ACDBBLOCKREPETAG
1070
     1
1071
       94
1005
12214C
  0
LINE
  5
12214D
  8
OBJECT
 10
6162.9999999999864
 20
-145.49999999999909
 30
0.0
 11
6149.9999999999873
 21
-145.49999999999909
 31
0.0
1001
ACDBBLOCKREPETAG
1070
     1
1071
       95
1005
12214D
  0
LINE
  5
12214E
  8
OBJECT
 10
6149.9999999999873
 20
-254.49999999999909
 30
0.0
 11
6162.9999999999864
 21
-254.49999999999909
 31
0.0
1001
ACDBBLOCKREPETAG
1070
     1
1071
       96
1005
12214E
  0
LINE
  5
12214F
  8
OBJECT
 10
6162.9999999999864
 20
-254.49999999999909
 30
0.0
 11
6162.9999999999864
 21
-145.49999999999909
 31
0.0
1001
ACDBBLOCKREPETAG
1070
     1
1071
       97
1005
12214F
  0
LINE
  5
122150
  8
OBJECT
 10
6166.9999999999873
 20
-140.99999999999909
 30
0.0
 11
6162.9999999999864
 21
-145.49999999999909
 31
0.0
1001
ACDBBLOCKREPETAG
1070
     1
1071
       98
1005
122150
  0
LINE
  5
122151
  8
OBJECT
 10
6166.9999999999873
 20
-258.99999999999909
 30
0.0
 11
6162.9999999999864
 21
-254.49999999999909
 31
0.0
1001
ACDBBLOCKREPETAG
1070
     1
1071
       99
1005
122151
  0
LINE
  5
122152
  8
OBJECT
 10
6083.0
 20
-137.99999999999909
 30
0.0
 11
6080.0
 21
-137.99999999999909
 31
0.0
1001
ACDBBLOCKREPETAG
1070
     1
1071
      100
1005
122152
  0
ARC
  5
122153
  8
OBJECT
 10
6083.0
 20
-140.99999999999909
 30
0.0
 40
3.0
 50
0.0
 51
90.0
1001
ACDBBLOCKREPETAG
1070
     1
1071
      101
1005
122153
  0
LINE
  5
122154
  8
OBJECT
 10
6080.0
 20
-261.99999999999909
 30
0.0
 11
6083.0
 21
-261.99999999999909
 31
0.0
1001
ACDBBLOCKREPETAG
1070
     1
1071
      102
1005
122154
  0
ARC
  5
122155
  8
OBJECT
 10
6083.0
 20
-258.99999999999909
 30
0.0
 40
3.0
 50
270.0
 51
0.0
1001
ACDBBLOCKREPETAG
1070
     1
1071
      103
1005
122155
  0
LINE
  5
122156
  8
OBJECT
 10
6086.0
 20
-258.99999999999909
 30
0.0
 11
6086.0
 21
-210.3227903203578
 31
0.0
1001
ACDBBLOCKREPETAG
1070
     1
1071
      104
1005
122156
  0
LINE
  5
122157
  8
OBJECT
 10
6086.0
 20
-189.6772096796403
 30
0.0
 11
6086.0
 21
-140.99999999999909
 31
0.0
1001
ACDBBLOCKREPETAG
1070
     1
1071
      105
1005
122157
  0
LINE
  5
122158
  8
HIDDEN
 10
6157.9999999999873
 20
-155.49999999999909
 30
0.0
 11
6157.9999999999873
 21
-244.49999999999909
 31
0.0
1001
ACDBBLOCKREPETAG
1070
     1
1071
      106
1005
122158
  0
LINE
  5
122159
  8
OBJECT
 10
6149.9999749641856
 20
-254.4999509238105
 30
0.0
 11
6149.9999749641856
 21
-145.4999509238105
 31
0.0
1001
ACDBBLOCKREPETAG
1070
     1
1071
      108
1005
122159
  0
ARC
  5
12215A
  8
OBJECT
 10
6129.8000000000247
 20
-199.99999999999909
 30
0.0
 40
45.000000000000547
 50
90.0
 51
270.0
1001
ACDBBLOCKREPETAG
1070
     1
1071
      109
1005
12215A
  0
LINE
  5
12215B
  8
OBJECT
 10
3923.0
 20
-470.99999999999937
 30
0.0
 11
3923.0
 21
-449.99999999999937
 31
0.0
1001
ACDBBLOCKREPETAG
1070
     1
1071
        0
1005
12215B
  0
LINE
  5
12215C
  8
OBJECT
 10
3923.0
 20
-449.99999999999937
 30
0.0
 11
4077.0
 21
-449.99999999999937
 31
0.0
1001
ACDBBLOCKREPETAG
1070
     1
1071
        1
1005
12215C
  0
LINE
  5
12215D
  8
HIDDEN
 10
3943.0
 20
-519.99999999999955
 30
0.0
 11
4057.0
 21
-519.99999999999955
 31
0.0
1001
ACDBBLOCKREPETAG
1070
     1
1071
        2
1005
12215D
  0
LINE
  5
12215E
  8
OBJECT
 10
4077.0
 20
-449.99999999999937
 30
0.0
 11
4077.0
 21
-470.99999999999937
 31
0.0
1001
ACDBBLOCKREPETAG
1070
     1
1071
        3
1005
12215E
  0
LINE
  5
12215F
  8
OBJECT
 10
4077.0
 20
-470.99999999999937
 30
0.0
 11
3923.0
 21
-470.99999999999937
 31
0.0
1001
ACDBBLOCKREPETAG
1070
     1
1071
        4
1005
12215F
  0
LINE
  5
122160
  8
CENTER
 10
4000.0
 20
-434.99999999999949
 30
0.0
 11
4000.0
 21
-669.99999999999955
 31
0.0
1001
ACDBBLOCKREPETAG
1070
     1
1071
        5
1005
122160
  0
LINE
  5
122161
  8
OBJECT
 10
3925.0
 20
-533.99999999999955
 30
0.0
 11
3925.0
 21
-657.99999999999955
 31
0.0
1001
ACDBBLOCKREPETAG
1070
     1
1071
        6
1005
122161
  0
LINE
  5
122162
  8
OBJECT
 10
3928.0
 20
-470.99999999999937
 30
0.0
 11
3928.0
 21
-533.99999999999955
 31
0.0
1001
ACDBBLOCKREPETAG
1070
     1
1071
        7
1005
122162
  0
LINE
  5
122163
  8
OBJECT
 10
4072.0
 20
-533.99999999999955
 30
0.0
 11
4072.0
 21
-470.99999999999937
 31
0.0
1001
ACDBBLOCKREPETAG
1070
     1
1071
        8
1005
122163
  0
LINE
  5
122164
  8
OBJECT
 10
3920.0
 20
-657.99999999999955
 30
0.0
 11
4080.0
 21
-657.99999999999955
 31
0.0
1001
ACDBBLOCKREPETAG
1070
     1
1071
        9
1005
122164
  0
LINE
  5
122165
  8
OBJECT
 10
4080.0
 20
-533.99999999999955
 30
0.0
 11
3925.0
 21
-533.99999999999955
 31
0.0
1001
ACDBBLOCKREPETAG
1070
     1
1071
       10
1005
122165
  0
LINE
  5
122166
  8
OBJECT
 10
3920.0
 20
-657.99999999999955
 30
0.0
 11
3920.0
 21
-669.99999999999955
 31
0.0
1001
ACDBBLOCKREPETAG
1070
     1
1071
       11
1005
122166
  0
LINE
  5
122167
  8
OBJECT
 10
3920.0
 20
-669.99999999999955
 30
0.0
 11
4080.0
 21
-669.99999999999955
 31
0.0
1001
ACDBBLOCKREPETAG
1070
     1
1071
       12
1005
122167
  0
LINE
  5
122168
  8
OBJECT
 10
4080.0
 20
-669.99999999999955
 30
0.0
 11
4080.0
 21
-657.99999999999955
 31
0.0
1001
ACDBBLOCKREPETAG
1070
     1
1071
       13
1005
122168
  0
ARC
  5
122169
  8
OBJECT
 10
4200.6872746716726
 20
-649.40809941010718
 30
0.0
 40
170.6350503965856
 50
137.44134459184301
 51
149.91949581337221
1001
ACDBBLOCKREPETAG
1070
     1
1071
       15
1005
122169
  0
ARC
  5
12216A
  8
OBJECT
 10
4118.8455987040506
 20
-605.88272669536445
 30
0.0
 40
78.072222021763665
 50
147.4551531037684
 51
164.6636599771798
1001
ACDBBLOCKREPETAG
1070
     1
1071
       16
1005
12216A
  0
ARC
  5
12216B
  8
OBJECT
 10
4085.7554349608722
 20
-595.99999999999955
 30
0.0
 40
43.55353926885617
 50
165.6884523008477
 51
194.3115476991523
1001
ACDBBLOCKREPETAG
1070
     1
1071
       17
1005
12216B
  0
ARC
  5
12216C
  8
OBJECT
 10
4200.6872746716726
 20
-542.59190058989179
 30
0.0
 40
170.6350503965856
 50
210.08050418662771
 51
222.55865540815699
1001
ACDBBLOCKREPETAG
1070
     1
1071
       18
1005
12216C
  0
ARC
  5
12216D
  8
OBJECT
 10
4118.8455987040506
 20
-586.11727330463452
 30
0.0
 40
78.072222021763665
 50
195.3363400228202
 51
212.5448468962316
1001
ACDBBLOCKREPETAG
1070
     1
1071
       19
1005
12216D
  0
POINT
  5
12216E
  8
DOTS
 10
4000.0
 20
-654.99999999999966
 30
0.0
1001
ACDBBLOCKREPETAG
1070
     1
1071
      186
1005
12216E
  0
LINE
  5
12216F
  8
OBJECT
 10
4024.102933093302
 20
-243.80694712371681
 30
0.0
 11
4020.6596569999951
 21
-232.55462199999889
 31
0.0
1001
ACDBBLOCKREPETAG
1070
     1
1071
      300
1005
12216F
  0
LINE
  5
122170
  8
OBJECT
 10
3986.7927499013749
 20
-218.22553374208019
 30
0.0
 11
4020.6596569999951
 21
-232.5546219999969
 31
0.0
1001
ACDBBLOCKREPETAG
1070
     1
1071
      302
1005
122170
  0
ARC
  5
122171
  8
OBJECT
 10
3982.896169761902
 20
-227.4351299990567
 30
0.0
 40
10.0
 50
67.066778292911366
 51
154.0147343702935
1001
ACDBBLOCKREPETAG
1070
     1
1071
      303
1005
122171
  0
ARC
  5
122172
  8
OBJECT
 10
3986.1488390381278
 20
-225.55386256729159
 30
0.0
 40
7.0
 50
67.066778292911366
 51
154.01473377497121
1001
ACDBBLOCKREPETAG
1070
     1
1071
      304
1005
122172
  0
LINE
  5
122173
  8
OBJECT
 10
3969.4199755553018
 20
-243.89888500818171
 30
0.0
 11
3979.8564918232369
 21
-222.48688253356801
 31
0.0
1001
ACDBBLOCKREPETAG
1070
     1
1071
      341
1005
122173
  0
LINE
  5
122174
  8
OBJECT
 10
3965.2972169006089
 20
-240.71813901882729
 30
0.0
 11
3973.9071022665089
 21
-223.05373004430751
 31
0.0
1001
ACDBBLOCKREPETAG
1070
     1
1071
      342
1005
122174
  0
ARC
  5
122175
  8
OBJECT
 10
3976.579695307315
 20
-207.1289369828437
 30
0.0
 40
60.031113246032611
 50
314.07020130418567
 51
322.33936106091278
1001
ACDBBLOCKREPETAG
1070
     1
1071
      343
1005
122175
  0
CIRCLE
  5
122176
  8
OBJECT
 10
4000.0
 20
-199.99999999999909
 30
0.0
 40
53.5
1001
ACDBBLOCKREPETAG
1070
     1
1071
      344
1005
122176
  0
POINT
  5
122177
  8
DOTS
 10
4000.0
 20
-199.99999999999909
 30
0.0
 50
270.0
1001
ACDBBLOCKREPETAG
1070
     1
1071
      362
1005
122177
  0
ARC
  5
122178
  8
OBJECT
 10
4000.0
 20
-199.99999999999909
 30
0.0
 40
50.0
 50
298.81994300000417
 51
228.52376955967449
1001
ACDBBLOCKREPETAG
1070
     1
1071
        7
1005
122178
  0
LINE
  5
122179
  8
CENTER
 10
4080.0
 20
-199.99999999999909
 30
0.0
 11
3905.0
 21
-199.99999999999909
 31
0.0
1001
ACDBBLOCKREPETAG
1070
     1
1071
       14
1005
122179
  0
LINE
  5
12217A
  8
CENTER
 10
4000.0
 20
-294.99999999999898
 30
0.0
 11
4000.0
 21
-104.9999999999991
 31
0.0
1001
ACDBBLOCKREPETAG
1070
     1
1071
       15
1005
12217A
  0
CIRCLE
  5
12217B
  8
OBJECT
 10
4000.0
 20
-199.99999999999909
 30
0.0
 40
70.0
1001
ACDBBLOCKREPETAG
1070
     1
1071
       16
1005
12217B
  0
CIRCLE
  5
12217C
  8
OBJECT
 10
4000.0
 20
-199.99999999999909
 30
0.0
 40
77.0
1001
ACDBBLOCKREPETAG
1070
     1
1071
       17
1005
12217C
  0
ARC
  5
12217D
  8
OBJECT
 10
4000.0
 20
-199.99999999999909
 30
0.0
 40
80.0
 50
50.805032573864182
 51
309.1949674261358
1001
ACDBBLOCKREPETAG
1070
     1
1071
       18
1005
12217D
  0
LINE
  5
12217E
  8
OBJECT
 10
4045.661800227324
 20
-137.99999999999909
 30
0.0
 11
4080.0
 21
-137.99999999999909
 31
0.0
1001
ACDBBLOCKREPETAG
1070
     1
1071
       19
1005
12217E
  0
LINE
  5
12217F
  8
OBJECT
 10
4045.661800227324
 20
-261.99999999999909
 30
0.0
 11
4080.0
 21
-261.99999999999909
 31
0.0
1001
ACDBBLOCKREPETAG
1070
     1
1071
       20
1005
12217F
  0
LINE
  5
122180
  8
OBJECT
 10
4202.9999999999854
 20
-483.0000000000008
 30
0.0
 11
4209.9999999999854
 21
-483.0000000000008
 31
0.0
1001
ACDBBLOCKREPETAG
1070
     1
1071
       83
1005
122180
  0
LINE
  5
122181
  8
OBJECT
 10
4209.9999999999854
 20
-483.0000000000008
 30
0.0
 11
4209.9999999999854
 21
-607.0000000000008
 31
0.0
1001
ACDBBLOCKREPETAG
1070
     1
1071
       84
1005
122181
  0
LINE
  5
122182
  8
OBJECT
 10
4085.9999999999859
 20
-553.3502637757274
 30
0.0
 11
4085.9999999999859
 21
-655.00000000000068
 31
0.0
1001
ACDBBLOCKREPETAG
1070
     1
1071
       85
1005
122182
  0
LINE
  5
122183
  8
OBJECT
 10
4209.9999999999854
 20
-607.0000000000008
 30
0.0
 11
4202.9999999999854
 21
-607.0000000000008
 31
0.0
1001
ACDBBLOCKREPETAG
1070
     1
1071
       86
1005
122183
  0
LINE
  5
122184
  8
OBJECT
 10
4202.9999999999854
 20
-607.0000000000008
 30
0.0
 11
4202.9999999999854
 21
-483.0000000000008
 31
0.0
1001
ACDBBLOCKREPETAG
1070
     1
1071
       87
1005
122184
  0
LINE
  5
122185
  8
CENTER
 10
4134.9999999999854
 20
-545.0000000000008
 30
0.0
 11
4224.9999999999864
 21
-545.0000000000008
 31
0.0
1001
ACDBBLOCKREPETAG
1070
     1
1071
       88
1005
122185
  0
LINE
  5
122186
  8
OBJECT
 10
4079.9999999999818
 20
-658.0
 30
0.0
 11
4082.999999999985
 21
-658.0000000000008
 31
0.0
1001
ACDBBLOCKREPETAG
1070
     1
1071
       89
1005
122186
  0
ARC
  5
122187
  8
OBJECT
 10
4082.999999999985
 20
-655.00000000000068
 30
0.0
 40
3.0
 50
270.0
 51
0.0
1001
ACDBBLOCKREPETAG
1070
     1
1071
       90
1005
122187
  0
LINE
  5
122188
  8
OBJECT
 10
4202.9999999999854
 20
-486.0000000000008
 30
0.0
 11
4166.9999999999854
 21
-486.0000000000008
 31
0.0
1001
ACDBBLOCKREPETAG
1070
     1
1071
       91
1005
122188
  0
LINE
  5
122189
  8
OBJECT
 10
4166.9999999999854
 20
-486.0000000000008
 30
0.0
 11
4166.9999999999854
 21
-604.0000000000008
 31
0.0
1001
ACDBBLOCKREPETAG
1070
     1
1071
       92
1005
122189
  0
LINE
  5
12218A
  8
OBJECT
 10
4162.9999999999854
 20
-490.5000000000008
 30
0.0
 11
4162.9999999999854
 21
-599.5000000000008
 31
0.0
1001
ACDBBLOCKREPETAG
1070
     1
1071
       93
1005
12218A
  0
LINE
  5
12218B
  8
OBJECT
 10
4162.9999999999854
 20
-490.5000000000008
 30
0.0
 11
4149.9999999999864
 21
-490.5000000000008
 31
0.0
1001
ACDBBLOCKREPETAG
1070
     1
1071
       94
1005
12218B
  0
LINE
  5
12218C
  8
OBJECT
 10
4166.9999999999854
 20
-604.0000000000008
 30
0.0
 11
4202.9999999999854
 21
-604.0000000000008
 31
0.0
1001
ACDBBLOCKREPETAG
1070
     1
1071
       95
1005
12218C
  0
LINE
  5
12218D
  8
OBJECT
 10
4166.9999999999854
 20
-486.0000000000008
 30
0.0
 11
4162.9999999999854
 21
-490.5000000000008
 31
0.0
1001
ACDBBLOCKREPETAG
1070
     1
1071
       96
1005
12218D
  0
LINE
  5
12218E
  8
OBJECT
 10
4149.9999999999864
 20
-490.5000000000008
 30
0.0
 11
4149.9999999999864
 21
-575.74491827928784
 31
0.0
1001
ACDBBLOCKREPETAG
1070
     1
1071
       97
1005
12218E
  0
ARC
  5
12218F
  8
OBJECT
 10
4152.7999999999838
 20
-585.00000000000068
 30
0.0
 40
85.0
 50
91.887731891831123
 51
143.1301023540934
1001
ACDBBLOCKREPETAG
1070
     1
1071
       98
1005
12218F
  0
LINE
  5
122190
  8
HIDDEN
 10
4157.9999999999864
 20
-500.5000000000008
 30
0.0
 11
4157.9999999999864
 21
-589.5000000000008
 31
0.0
1001
ACDBBLOCKREPETAG
1070
     1
1071
      100
1005
122190
  0
LINE
  5
122191
  8
OBJECT
 10
4085.9999999999859
 20
-651.07945073181781
 30
0.0
 11
4156.6313199210299
 21
-599.5000000000008
 31
0.0
1001
ACDBBLOCKREPETAG
1070
     1
1071
      101
1005
122191
  0
LINE
  5
122192
  8
OBJECT
 10
4079.9999999999818
 20
-534.0
 30
0.0
 11
4084.7999999999852
 21
-534.0
 31
0.0
1001
ACDBBLOCKREPETAG
1070
     1
1071
      102
1005
122192
  0
LINE
  5
122193
  8
OBJECT
 10
4085.9999999999859
 20
-553.35026377573001
 30
0.0
 11
4084.7999999999852
 21
-534.0
 31
0.0
1001
ACDBBLOCKREPETAG
1070
     1
1071
      103
1005
122193
  0
LINE
  5
122194
  8
OBJECT
 10
4162.9999999999854
 20
-599.5000000000008
 30
0.0
 11
4156.6313199210299
 21
-599.5000000000008
 31
0.0
1001
ACDBBLOCKREPETAG
1070
     1
1071
      104
1005
122194
  0
LINE
  5
122195
  8
OBJECT
 10
4166.9999999999854
 20
-604.0000000000008
 30
0.0
 11
4162.9999999999854
 21
-599.5000000000008
 31
0.0
1001
ACDBBLOCKREPETAG
1070
     1
1071
      105
1005
122195
  0
LINE
  5
122196
  8
OBJECT
 10
4202.9999999999854
 20
-137.99999999999909
 30
0.0
 11
4209.9999999999854
 21
-137.99999999999909
 31
0.0
1001
ACDBBLOCKREPETAG
1070
     1
1071
       85
1005
122196
  0
LINE
  5
122197
  8
OBJECT
 10
4209.9999999999854
 20
-137.99999999999909
 30
0.0
 11
4209.9999999999854
 21
-261.99999999999909
 31
0.0
1001
ACDBBLOCKREPETAG
1070
     1
1071
       86
1005
122197
  0
LINE
  5
122198
  8
OBJECT
 10
4209.9999999999854
 20
-261.99999999999909
 30
0.0
 11
4202.9999999999854
 21
-261.99999999999909
 31
0.0
1001
ACDBBLOCKREPETAG
1070
     1
1071
       87
1005
122198
  0
LINE
  5
122199
  8
OBJECT
 10
4202.9999999999854
 20
-261.99999999999909
 30
0.0
 11
4202.9999999999854
 21
-137.99999999999909
 31
0.0
1001
ACDBBLOCKREPETAG
1070
     1
1071
       88
1005
122199
  0
LINE
  5
12219A
  8
CENTER
 10
4224.9999999999864
 20
-199.99999999999909
 30
0.0
 11
4080.0
 21
-199.99999999999909
 31
0.0
1001
ACDBBLOCKREPETAG
1070
     1
1071
       89
1005
12219A
  0
LINE
  5
12219B
  8
OBJECT
 10
4149.9999749641856
 20
-245.0000000000027
 30
0.0
 11
4086.0
 21
-244.99999999999909
 31
0.0
1001
ACDBBLOCKREPETAG
1070
     1
1071
       90
1005
12219B
  0
LINE
  5
12219C
  8
OBJECT
 10
4149.9999749641856
 20
-154.99999999999909
 30
0.0
 11
4086.0
 21
-154.99999999999909
 31
0.0
1001
ACDBBLOCKREPETAG
1070
     1
1071
       91
1005
12219C
  0
LINE
  5
12219D
  8
OBJECT
 10
4202.9999999999854
 20
-140.99999999999909
 30
0.0
 11
4166.9999999999854
 21
-140.99999999999909
 31
0.0
1001
ACDBBLOCKREPETAG
1070
     1
1071
       92
1005
12219D
  0
LINE
  5
12219E
  8
OBJECT
 10
4166.9999999999854
 20
-140.99999999999909
 30
0.0
 11
4166.9999999999854
 21
-258.99999999999909
 31
0.0
1001
ACDBBLOCKREPETAG
1070
     1
1071
       93
1005
12219E
  0
LINE
  5
12219F
  8
OBJECT
 10
4166.9999999999854
 20
-258.99999999999909
 30
0.0
 11
4202.9999999999854
 21
-258.99999999999909
 31
0.0
1001
ACDBBLOCKREPETAG
1070
     1
1071
       94
1005
12219F
  0
LINE
  5
1221A0
  8
OBJECT
 10
4162.9999999999854
 20
-145.49999999999909
 30
0.0
 11
4149.9999999999864
 21
-145.49999999999909
 31
0.0
1001
ACDBBLOCKREPETAG
1070
     1
1071
       95
1005
1221A0
  0
LINE
  5
1221A1
  8
OBJECT
 10
4149.9999999999864
 20
-254.49999999999909
 30
0.0
 11
4162.9999999999854
 21
-254.49999999999909
 31
0.0
1001
ACDBBLOCKREPETAG
1070
     1
1071
       96
1005
1221A1
  0
LINE
  5
1221A2
  8
OBJECT
 10
4162.9999999999854
 20
-254.49999999999909
 30
0.0
 11
4162.9999999999854
 21
-145.49999999999909
 31
0.0
1001
ACDBBLOCKREPETAG
1070
     1
1071
       97
1005
1221A2
  0
LINE
  5
1221A3
  8
OBJECT
 10
4166.9999999999854
 20
-140.99999999999909
 30
0.0
 11
4162.9999999999854
 21
-145.49999999999909
 31
0.0
1001
ACDBBLOCKREPETAG
1070
     1
1071
       98
1005
1221A3
  0
LINE
  5
1221A4
  8
OBJECT
 10
4166.9999999999854
 20
-258.99999999999909
 30
0.0
 11
4162.9999999999854
 21
-254.49999999999909
 31
0.0
1001
ACDBBLOCKREPETAG
1070
     1
1071
       99
1005
1221A4
  0
LINE
  5
1221A5
  8
OBJECT
 10
4083.0
 20
-137.99999999999909
 30
0.0
 11
4080.0
 21
-137.99999999999909
 31
0.0
1001
ACDBBLOCKREPETAG
1070
     1
1071
      100
1005
1221A5
  0
ARC
  5
1221A6
  8
OBJECT
 10
4083.0
 20
-140.99999999999909
 30
0.0
 40
3.0
 50
0.0
 51
90.0
1001
ACDBBLOCKREPETAG
1070
     1
1071
      101
1005
1221A6
  0
LINE
  5
1221A7
  8
OBJECT
 10
4080.0
 20
-261.99999999999909
 30
0.0
 11
4083.0
 21
-261.99999999999909
 31
0.0
1001
ACDBBLOCKREPETAG
1070
     1
1071
      102
1005
1221A7
  0
ARC
  5
1221A8
  8
OBJECT
 10
4083.0
 20
-258.99999999999909
 30
0.0
 40
3.0
 50
270.0
 51
0.0
1001
ACDBBLOCKREPETAG
1070
     1
1071
      103
1005
1221A8
  0
LINE
  5
1221A9
  8
OBJECT
 10
4086.0
 20
-258.99999999999909
 30
0.0
 11
4086.0
 21
-210.3227903203578
 31
0.0
1001
ACDBBLOCKREPETAG
1070
     1
1071
      104
1005
1221A9
  0
LINE
  5
1221AA
  8
OBJECT
 10
4086.0
 20
-189.6772096796403
 30
0.0
 11
4086.0
 21
-140.99999999999909
 31
0.0
1001
ACDBBLOCKREPETAG
1070
     1
1071
      105
1005
1221AA
  0
LINE
  5
1221AB
  8
HIDDEN
 10
4157.9999999999864
 20
-155.49999999999909
 30
0.0
 11
4157.9999999999864
 21
-244.49999999999909
 31
0.0
1001
ACDBBLOCKREPETAG
1070
     1
1071
      106
1005
1221AB
  0
LINE
  5
1221AC
  8
OBJECT
 10
4149.9999749641856
 20
-254.4999509238105
 30
0.0
 11
4149.9999749641856
 21
-145.4999509238105
 31
0.0
1001
ACDBBLOCKREPETAG
1070
     1
1071
      108
1005
1221AC
  0
ARC
  5
1221AD
  8
OBJECT
 10
4129.8000000000247
 20
-199.99999999999909
 30
0.0
 40
45.000000000000547
 50
90.0
 51
270.0
1001
ACDBBLOCKREPETAG
1070
     1
1071
      109
1005
1221AD
  0
LINE
  5
1221AE
  8
OBJECT
 10
1923.0
 20
-470.99999999999937
 30
0.0
 11
1923.0
 21
-449.99999999999937
 31
0.0
1001
ACDBBLOCKREPETAG
1070
     1
1071
        0
1005
1221AE
  0
LINE
  5
1221AF
  8
OBJECT
 10
1923.0
 20
-449.99999999999937
 30
0.0
 11
2077.0
 21
-449.99999999999937
 31
0.0
1001
ACDBBLOCKREPETAG
1070
     1
1071
        1
1005
1221AF
  0
LINE
  5
1221B0
  8
HIDDEN
 10
1943.0
 20
-519.99999999999955
 30
0.0
 11
2057.0
 21
-519.99999999999955
 31
0.0
1001
ACDBBLOCKREPETAG
1070
     1
1071
        2
1005
1221B0
  0
LINE
  5
1221B1
  8
OBJECT
 10
2077.0
 20
-449.99999999999937
 30
0.0
 11
2077.0
 21
-470.99999999999937
 31
0.0
1001
ACDBBLOCKREPETAG
1070
     1
1071
        3
1005
1221B1
  0
LINE
  5
1221B2
  8
OBJECT
 10
2077.0
 20
-470.99999999999937
 30
0.0
 11
1923.0
 21
-470.99999999999937
 31
0.0
1001
ACDBBLOCKREPETAG
1070
     1
1071
        4
1005
1221B2
  0
LINE
  5
1221B3
  8
CENTER
 10
2000.0
 20
-434.99999999999949
 30
0.0
 11
2000.0
 21
-669.99999999999955
 31
0.0
1001
ACDBBLOCKREPETAG
1070
     1
1071
        5
1005
1221B3
  0
LINE
  5
1221B4
  8
OBJECT
 10
1925.0
 20
-533.99999999999955
 30
0.0
 11
1925.0
 21
-657.99999999999955
 31
0.0
1001
ACDBBLOCKREPETAG
1070
     1
1071
        6
1005
1221B4
  0
LINE
  5
1221B5
  8
OBJECT
 10
1928.0
 20
-470.99999999999937
 30
0.0
 11
1928.0
 21
-533.99999999999955
 31
0.0
1001
ACDBBLOCKREPETAG
1070
     1
1071
        7
1005
1221B5
  0
LINE
  5
1221B6
  8
OBJECT
 10
2072.0
 20
-533.99999999999955
 30
0.0
 11
2072.0
 21
-470.99999999999937
 31
0.0
1001
ACDBBLOCKREPETAG
1070
     1
1071
        8
1005
1221B6
  0
LINE
  5
1221B7
  8
OBJECT
 10
1920.0
 20
-657.99999999999955
 30
0.0
 11
2080.0
 21
-657.99999999999955
 31
0.0
1001
ACDBBLOCKREPETAG
1070
     1
1071
        9
1005
1221B7
  0
LINE
  5
1221B8
  8
OBJECT
 10
2080.0
 20
-533.99999999999955
 30
0.0
 11
1925.0
 21
-533.99999999999955
 31
0.0
1001
ACDBBLOCKREPETAG
1070
     1
1071
       10
1005
1221B8
  0
LINE
  5
1221B9
  8
OBJECT
 10
1920.0
 20
-657.99999999999955
 30
0.0
 11
1920.0
 21
-669.99999999999955
 31
0.0
1001
ACDBBLOCKREPETAG
1070
     1
1071
       11
1005
1221B9
  0
LINE
  5
1221BA
  8
OBJECT
 10
1920.0
 20
-669.99999999999955
 30
0.0
 11
2080.0
 21
-669.99999999999955
 31
0.0
1001
ACDBBLOCKREPETAG
1070
     1
1071
       12
1005
1221BA
  0
LINE
  5
1221BB
  8
OBJECT
 10
2080.0
 20
-669.99999999999955
 30
0.0
 11
2080.0
 21
-657.99999999999955
 31
0.0
1001
ACDBBLOCKREPETAG
1070
     1
1071
       13
1005
1221BB
  0
ARC
  5
1221BC
  8
OBJECT
 10
2200.6872746716731
 20
-649.40809941010718
 30
0.0
 40
170.6350503965856
 50
137.44134459184301
 51
149.91949581336559
1001
ACDBBLOCKREPETAG
1070
     1
1071
       15
1005
1221BC
  0
ARC
  5
1221BD
  8
OBJECT
 10
2118.8455987040511
 20
-605.88272669536445
 30
0.0
 40
78.072222021763665
 50
147.45515310377539
 51
164.6636599771798
1001
ACDBBLOCKREPETAG
1070
     1
1071
       16
1005
1221BD
  0
ARC
  5
1221BE
  8
OBJECT
 10
2085.7554349608731
 20
-595.99999999999955
 30
0.0
 40
43.55353926885617
 50
165.6884523008477
 51
194.3115476991523
1001
ACDBBLOCKREPETAG
1070
     1
1071
       17
1005
1221BE
  0
ARC
  5
1221BF
  8
OBJECT
 10
2200.6872746716731
 20
-542.59190058989179
 30
0.0
 40
170.6350503965856
 50
210.0805041866343
 51
222.55865540815699
1001
ACDBBLOCKREPETAG
1070
     1
1071
       18
1005
1221BF
  0
ARC
  5
1221C0
  8
OBJECT
 10
2118.8455987040511
 20
-586.11727330463452
 30
0.0
 40
78.072222021763665
 50
195.3363400228202
 51
212.54484689622461
1001
ACDBBLOCKREPETAG
1070
     1
1071
       19
1005
1221C0
  0
POINT
  5
1221C1
  8
DOTS
 10
2000.0
 20
-654.99999999999966
 30
0.0
1001
ACDBBLOCKREPETAG
1070
     1
1071
      186
1005
1221C1
  0
LINE
  5
1221C2
  8
SLIM
 10
11914.999999999991
 20
-665.19743878931502
 30
0.0
 11
11925.197438789301
 21
-655.0
 31
0.0
1001
ACAD
1010
0.0
1020
0.0
1030
0.0
1001
ACDBBLOCKREPETAG
1070
     1
1071
       10
1005
1221C2
  0
LINE
  5
1221C3
  8
SLIM
 10
11914.999999999991
 20
-683.15795103145194
 30
0.0
 11
11943.15795103144
 21
-655.0
 31
0.0
1001
ACAD
1010
0.0
1020
0.0
1030
0.0
1001
ACDBBLOCKREPETAG
1070
     1
1071
       11
1005
1221C3
  0
LINE
  5
1221C4
  8
SLIM
 10
11915.0
 20
-701.11846327358865
 30
0.0
 11
11961.11846327358
 21
-655.0
 31
0.0
1001
ACAD
1010
0.0
1020
0.0
1030
0.0
1001
ACDBBLOCKREPETAG
1070
     1
1071
       12
1005
1221C4
  0
LINE
  5
1221C5
  8
SLIM
 10
11915.0
 20
-719.07897551572592
 30
0.0
 11
11979.07897551572
 21
-655.0
 31
0.0
1001
ACAD
1010
0.0
1020
0.0
1030
0.0
1001
ACDBBLOCKREPETAG
1070
     1
1071
       13
1005
1221C5
  0
LINE
  5
1221C6
  8
SLIM
 10
11915.0
 20
-737.03948775786273
 30
0.0
 11
11997.03948775786
 21
-655.0
 31
0.0
1001
ACAD
1010
0.0
1020
0.0
1030
0.0
1001
ACDBBLOCKREPETAG
1070
     1
1071
       14
1005
1221C6
  0
LINE
  5
1221C7
  8
SLIM
 10
11915.28360074955
 20
-754.7163992504419
 30
0.0
 11
12015.0
 21
-655.0
 31
0.0
1001
ACAD
1010
0.0
1020
0.0
1030
0.0
1001
ACDBBLOCKREPETAG
1070
     1
1071
       15
1005
1221C7
  0
LINE
  5
1221C8
  8
SLIM
 10
11917.49791047804
 20
-770.46260176409714
 30
0.0
 11
12032.96051224214
 21
-655.0
 31
0.0
1001
ACAD
1010
0.0
1020
0.0
1030
0.0
1001
ACDBBLOCKREPETAG
1070
     1
1071
       16
1005
1221C8
  0
LINE
  5
1221C9
  8
SLIM
 10
11919.71222020652
 20
-786.20880427775273
 30
0.0
 11
12050.921024484271
 21
-655.0
 31
0.0
1001
ACAD
1010
0.0
1020
0.0
1030
0.0
1001
ACDBBLOCKREPETAG
1070
     1
1071
       17
1005
1221C9
  0
LINE
  5
1221CA
  8
SLIM
 10
11921.926529935001
 20
-801.95500679140798
 30
0.0
 11
12068.881536726411
 21
-655.0
 31
0.0
1001
ACAD
1010
0.0
1020
0.0
1030
0.0
1001
ACDBBLOCKREPETAG
1070
     1
1071
       18
1005
1221CA
  0
LINE
  5
1221CB
  8
SLIM
 10
11924.140839663491
 20
-817.70120930506334
 30
0.0
 11
12085.000000000009
 21
-656.84204896854612
 31
0.0
1001
ACAD
1010
0.0
1020
0.0
1030
0.0
1001
ACDBBLOCKREPETAG
1070
     1
1071
       19
1005
1221CB
  0
LINE
  5
1221CC
  8
SLIM
 10
11926.35514939196
 20
-833.44741181871882
 30
0.0
 11
12085.0
 21
-674.80256121068555
 31
0.0
1001
ACAD
1010
0.0
1020
0.0
1030
0.0
1001
ACDBBLOCKREPETAG
1070
     1
1071
       20
1005
1221CC
  0
LINE
  5
1221CD
  8
SLIM
 10
11928.56945912045
 20
-849.1936143323743
 30
0.0
 11
12085.0
 21
-692.76307345282544
 31
0.0
1001
ACAD
1010
0.0
1020
0.0
1030
0.0
1001
ACDBBLOCKREPETAG
1070
     1
1071
       21
1005
1221CD
  0
LINE
  5
1221CE
  8
SLIM
 10
11930.78376884894
 20
-864.93981684602954
 30
0.0
 11
12085.0
 21
-710.72358569496498
 31
0.0
1001
ACAD
1010
0.0
1020
0.0
1030
0.0
1001
ACDBBLOCKREPETAG
1070
     1
1071
       22
1005
1221CE
  0
LINE
  5
1221CF
  8
SLIM
 10
11932.998078577421
 20
-880.68601935968502
 30
0.0
 11
12085.0
 21
-728.68409793710464
 31
0.0
1001
ACAD
1010
0.0
1020
0.0
1030
0.0
1001
ACDBBLOCKREPETAG
1070
     1
1071
       23
1005
1221CF
  0
LINE
  5
1221D0
  8
SLIM
 10
11932.999999999991
 20
-898.64461017925203
 30
0.0
 11
12085.0
 21
-746.64461017924418
 31
0.0
1001
ACAD
1010
0.0
1020
0.0
1030
0.0
1001
ACDBBLOCKREPETAG
1070
     1
1071
       24
1005
1221D0
  0
LINE
  5
1221D1
  8
SLIM
 10
11932.999999999991
 20
-916.60512242139032
 30
0.0
 11
12083.05183715436
 21
-766.5532852670168
 31
0.0
1001
ACAD
1010
0.0
1020
0.0
1030
0.0
1001
ACDBBLOCKREPETAG
1070
     1
1071
       25
1005
1221D1
  0
LINE
  5
1221D2
  8
SLIM
 10
11942.565634663521
 20
-924.99999999999682
 30
0.0
 11
12080.112844242019
 21
-787.45279042150401
 31
0.0
1001
ACAD
1010
0.0
1020
0.0
1030
0.0
1001
ACDBBLOCKREPETAG
1070
     1
1071
       26
1005
1221D2
  0
LINE
  5
1221D3
  8
SLIM
 10
11960.52614690566
 20
-924.99999999999693
 30
0.0
 11
12077.17385132967
 21
-808.35229557599155
 31
0.0
1001
ACAD
1010
0.0
1020
0.0
1030
0.0
1001
ACDBBLOCKREPETAG
1070
     1
1071
       27
1005
1221D3
  0
LINE
  5
1221D4
  8
SLIM
 10
11978.4866591478
 20
-924.99999999999761
 30
0.0
 11
12074.23485841732
 21
-829.25180073047886
 31
0.0
1001
ACAD
1010
0.0
1020
0.0
1030
0.0
1001
ACDBBLOCKREPETAG
1070
     1
1071
       28
1005
1221D4
  0
LINE
  5
1221D5
  8
SLIM
 10
11996.44717138994
 20
-924.99999999999818
 30
0.0
 11
12071.29586550497
 21
-850.15130588496584
 31
0.0
1001
ACAD
1010
0.0
1020
0.0
1030
0.0
1001
ACDBBLOCKREPETAG
1070
     1
1071
       29
1005
1221D5
  0
LINE
  5
1221D6
  8
SLIM
 10
12014.40768363208
 20
-924.99999999999841
 30
0.0
 11
12068.35687259262
 21
-871.05081103945361
 31
0.0
1001
ACAD
1010
0.0
1020
0.0
1030
0.0
1001
ACDBBLOCKREPETAG
1070
     1
1071
       30
1005
1221D6
  0
LINE
  5
1221D7
  8
SLIM
 10
12032.368195874211
 20
-924.9999999999992
 30
0.0
 11
12067.0
 21
-890.36819587420166
 31
0.0
1001
ACAD
1010
0.0
1020
0.0
1030
0.0
1001
ACDBBLOCKREPETAG
1070
     1
1071
       31
1005
1221D7
  0
LINE
  5
1221D8
  8
SLIM
 10
12050.328708116351
 20
-924.99999999999955
 30
0.0
 11
12067.0
 21
-908.32870811634029
 31
0.0
1001
ACAD
1010
0.0
1020
0.0
1030
0.0
1001
ACDBBLOCKREPETAG
1070
     1
1071
       32
1005
1221D8
  0
LINE
  5
1221D9
  8
OBJECT
 10
11932.999999999991
 20
-924.99999999999636
 30
0.0
 11
12067.0
 21
-925.0
 31
0.0
1001
ACDBBLOCKREPETAG
1070
     1
1071
        1
1005
1221D9
  0
LINE
  5
1221DA
  8
OBJECT
 10
11914.999999999991
 20
-655.0
 30
0.0
 11
11915.0
 21
-752.69968280914145
 31
0.0
1001
ACDBBLOCKREPETAG
1070
     1
1071
        2
1005
1221DA
  0
LINE
  5
1221DB
  8
OBJECT
 10
12085.000000000009
 20
-655.0
 30
0.0
 11
12085.0
 21
-752.69968280917203
 31
0.0
1001
ACDBBLOCKREPETAG
1070
     1
1071
        3
1005
1221DB
  0
LINE
  5
1221DC
  8
OBJECT
 10
11915.0
 20
-752.69968280914145
 30
0.0
 11
11932.999999999991
 21
-880.69968280908154
 31
0.0
1001
ACDBBLOCKREPETAG
1070
     1
1071
        4
1005
1221DC
  0
LINE
  5
1221DD
  8
OBJECT
 10
12067.0
 20
-880.6996828091286
 30
0.0
 11
12085.0
 21
-752.69968280917203
 31
0.0
1001
ACDBBLOCKREPETAG
1070
     1
1071
        5
1005
1221DD
  0
LINE
  5
1221DE
  8
OBJECT
 10
12085.000000000009
 20
-655.0
 30
0.0
 11
11914.999999999991
 21
-655.0
 31
0.0
1001
ACDBBLOCKREPETAG
1070
     1
1071
        6
1005
1221DE
  0
LINE
  5
1221DF
  8
OBJECT
 10
11932.999999999991
 20
-880.69968280908154
 30
0.0
 11
11932.999999999991
 21
-924.99999999999636
 31
0.0
1001
ACDBBLOCKREPETAG
1070
     1
1071
        8
1005
1221DF
  0
LINE
  5
1221E0
  8
OBJECT
 10
12067.0
 20
-880.6996828091286
 30
0.0
 11
12067.0
 21
-925.0
 31
0.0
1001
ACDBBLOCKREPETAG
1070
     1
1071
        9
1005
1221E0
  0
LINE
  5
1221E1
  8
SLIM
 10
9914.9999999999927
 20
-665.19743878931445
 30
0.0
 11
9925.1974387893097
 21
-654.99999999999966
 31
0.0
1001
ACAD
1010
0.0
1020
0.0
1030
0.0
1001
ACDBBLOCKREPETAG
1070
     1
1071
       10
1005
1221E1
  0
LINE
  5
1221E2
  8
SLIM
 10
9914.9999999999945
 20
-683.15795103145126
 30
0.0
 11
9943.1579510314441
 21
-654.99999999999966
 31
0.0
1001
ACAD
1010
0.0
1020
0.0
1030
0.0
1001
ACDBBLOCKREPETAG
1070
     1
1071
       11
1005
1221E2
  0
LINE
  5
1221E3
  8
SLIM
 10
9914.9999999999964
 20
-701.11846327358842
 30
0.0
 11
9961.1184632735858
 21
-654.99999999999966
 31
0.0
1001
ACAD
1010
0.0
1020
0.0
1030
0.0
1001
ACDBBLOCKREPETAG
1070
     1
1071
       12
1005
1221E3
  0
LINE
  5
1221E4
  8
SLIM
 10
9914.9999999999982
 20
-719.07897551572535
 30
0.0
 11
9979.0789755157257
 21
-654.99999999999966
 31
0.0
1001
ACAD
1010
0.0
1020
0.0
1030
0.0
1001
ACDBBLOCKREPETAG
1070
     1
1071
       13
1005
1221E4
  0
LINE
  5
1221E5
  8
SLIM
 10
9914.9999999999982
 20
-737.03948775786239
 30
0.0
 11
9997.0394877578656
 21
-654.99999999999966
 31
0.0
1001
ACAD
1010
0.0
1020
0.0
1030
0.0
1001
ACDBBLOCKREPETAG
1070
     1
1071
       14
1005
1221E5
  0
LINE
  5
1221E6
  8
SLIM
 10
9915.2836007495607
 20
-754.71639925044144
 30
0.0
 11
10015.0
 21
-654.99999999999966
 31
0.0
1001
ACAD
1010
0.0
1020
0.0
1030
0.0
1001
ACDBBLOCKREPETAG
1070
     1
1071
       15
1005
1221E6
  0
LINE
  5
1221E7
  8
SLIM
 10
9917.4979104780396
 20
-770.46260176409703
 30
0.0
 11
10032.96051224214
 21
-654.99999999999966
 31
0.0
1001
ACAD
1010
0.0
1020
0.0
1030
0.0
1001
ACDBBLOCKREPETAG
1070
     1
1071
       16
1005
1221E7
  0
LINE
  5
1221E8
  8
SLIM
 10
9919.7122202065257
 20
-786.20880427775228
 30
0.0
 11
10050.921024484271
 21
-654.99999999999966
 31
0.0
1001
ACAD
1010
0.0
1020
0.0
1030
0.0
1001
ACDBBLOCKREPETAG
1070
     1
1071
       17
1005
1221E8
  0
LINE
  5
1221E9
  8
SLIM
 10
9921.9265299350063
 20
-801.95500679140764
 30
0.0
 11
10068.881536726411
 21
-654.99999999999966
 31
0.0
1001
ACAD
1010
0.0
1020
0.0
1030
0.0
1001
ACDBBLOCKREPETAG
1070
     1
1071
       18
1005
1221E9
  0
LINE
  5
1221EA
  8
SLIM
 10
9924.1408396634924
 20
-817.70120930506289
 30
0.0
 11
10085.000000000009
 21
-656.84204896854555
 31
0.0
1001
ACAD
1010
0.0
1020
0.0
1030
0.0
1001
ACDBBLOCKREPETAG
1070
     1
1071
       19
1005
1221EA
  0
LINE
  5
1221EB
  8
SLIM
 10
9926.3551493919731
 20
-833.44741181871825
 30
0.0
 11
10085.0
 21
-674.80256121068533
 31
0.0
1001
ACAD
1010
0.0
1020
0.0
1030
0.0
1001
ACDBBLOCKREPETAG
1070
     1
1071
       20
1005
1221EB
  0
LINE
  5
1221EC
  8
SLIM
 10
9928.5694591204574
 20
-849.19361433237373
 30
0.0
 11
10085.0
 21
-692.76307345282498
 31
0.0
1001
ACAD
1010
0.0
1020
0.0
1030
0.0
1001
ACDBBLOCKREPETAG
1070
     1
1071
       21
1005
1221EC
  0
LINE
  5
1221ED
  8
SLIM
 10
9930.7837688489417
 20
-864.9398168460292
 30
0.0
 11
10085.0
 21
-710.7235856949643
 31
0.0
1001
ACAD
1010
0.0
1020
0.0
1030
0.0
1001
ACDBBLOCKREPETAG
1070
     1
1071
       22
1005
1221ED
  0
LINE
  5
1221EE
  8
SLIM
 10
9932.9980785774187
 20
-880.68601935968445
 30
0.0
 11
10085.0
 21
-728.68409793710396
 31
0.0
1001
ACAD
1010
0.0
1020
0.0
1030
0.0
1001
ACDBBLOCKREPETAG
1070
     1
1071
       23
1005
1221EE
  0
LINE
  5
1221EF
  8
SLIM
 10
9932.9999999999927
 20
-898.64461017925157
 30
0.0
 11
10085.0
 21
-746.64461017924395
 31
0.0
1001
ACAD
1010
0.0
1020
0.0
1030
0.0
1001
ACDBBLOCKREPETAG
1070
     1
1071
       24
1005
1221EF
  0
LINE
  5
1221F0
  8
SLIM
 10
9932.9999999999927
 20
-916.60512242138964
 30
0.0
 11
10083.05183715436
 21
-766.55328526701635
 31
0.0
1001
ACAD
1010
0.0
1020
0.0
1030
0.0
1001
ACDBBLOCKREPETAG
1070
     1
1071
       25
1005
1221F0
  0
LINE
  5
1221F1
  8
SLIM
 10
9942.5656346635242
 20
-924.99999999999602
 30
0.0
 11
10080.11284424201
 21
-787.45279042150355
 31
0.0
1001
ACAD
1010
0.0
1020
0.0
1030
0.0
1001
ACDBBLOCKREPETAG
1070
     1
1071
       26
1005
1221F1
  0
LINE
  5
1221F2
  8
SLIM
 10
9960.5261469056641
 20
-924.99999999999682
 30
0.0
 11
10077.17385132967
 21
-808.35229557599098
 31
0.0
1001
ACAD
1010
0.0
1020
0.0
1030
0.0
1001
ACDBBLOCKREPETAG
1070
     1
1071
       27
1005
1221F2
  0
LINE
  5
1221F3
  8
SLIM
 10
9978.4866591478003
 20
-924.99999999999693
 30
0.0
 11
10074.23485841732
 21
-829.25180073047829
 31
0.0
1001
ACAD
1010
0.0
1020
0.0
1030
0.0
1001
ACDBBLOCKREPETAG
1070
     1
1071
       28
1005
1221F3
  0
LINE
  5
1221F4
  8
SLIM
 10
9996.4471713899384
 20
-924.99999999999761
 30
0.0
 11
10071.29586550497
 21
-850.15130588496561
 31
0.0
1001
ACAD
1010
0.0
1020
0.0
1030
0.0
1001
ACDBBLOCKREPETAG
1070
     1
1071
       29
1005
1221F4
  0
LINE
  5
1221F5
  8
SLIM
 10
10014.40768363206
 20
-924.99999999999818
 30
0.0
 11
10068.35687259262
 21
-871.05081103945292
 31
0.0
1001
ACAD
1010
0.0
1020
0.0
1030
0.0
1001
ACDBBLOCKREPETAG
1070
     1
1071
       30
1005
1221F5
  0
LINE
  5
1221F6
  8
SLIM
 10
10032.368195874211
 20
-924.99999999999841
 30
0.0
 11
10067.000000000009
 21
-890.36819587420155
 31
0.0
1001
ACAD
1010
0.0
1020
0.0
1030
0.0
1001
ACDBBLOCKREPETAG
1070
     1
1071
       31
1005
1221F6
  0
LINE
  5
1221F7
  8
SLIM
 10
10050.328708116351
 20
-924.9999999999992
 30
0.0
 11
10067.000000000009
 21
-908.32870811633984
 31
0.0
1001
ACAD
1010
0.0
1020
0.0
1030
0.0
1001
ACDBBLOCKREPETAG
1070
     1
1071
       32
1005
1221F7
  0
LINE
  5
1221F8
  8
OBJECT
 10
9932.9999999999927
 20
-924.99999999999602
 30
0.0
 11
10067.000000000009
 21
-924.99999999999955
 31
0.0
1001
ACDBBLOCKREPETAG
1070
     1
1071
        1
1005
1221F8
  0
LINE
  5
1221F9
  8
OBJECT
 10
9914.9999999999927
 20
-654.99999999999966
 30
0.0
 11
9915.0
 21
-752.69968280914088
 31
0.0
1001
ACDBBLOCKREPETAG
1070
     1
1071
        2
1005
1221F9
  0
LINE
  5
1221FA
  8
OBJECT
 10
10085.000000000009
 20
-654.99999999999966
 30
0.0
 11
10085.0
 21
-752.69968280917192
 31
0.0
1001
ACDBBLOCKREPETAG
1070
     1
1071
        3
1005
1221FA
  0
LINE
  5
1221FB
  8
OBJECT
 10
9915.0
 20
-752.69968280914088
 30
0.0
 11
9932.9999999999927
 21
-880.69968280908085
 31
0.0
1001
ACDBBLOCKREPETAG
1070
     1
1071
        4
1005
1221FB
  0
LINE
  5
1221FC
  8
OBJECT
 10
10067.000000000009
 20
-880.69968280912815
 30
0.0
 11
10085.0
 21
-752.69968280917192
 31
0.0
1001
ACDBBLOCKREPETAG
1070
     1
1071
        5
1005
1221FC
  0
LINE
  5
1221FD
  8
OBJECT
 10
10085.000000000009
 20
-654.99999999999966
 30
0.0
 11
9914.9999999999927
 21
-654.99999999999966
 31
0.0
1001
ACDBBLOCKREPETAG
1070
     1
1071
        6
1005
1221FD
  0
LINE
  5
1221FE
  8
OBJECT
 10
9932.9999999999927
 20
-880.69968280908085
 30
0.0
 11
9932.9999999999927
 21
-924.99999999999602
 31
0.0
1001
ACDBBLOCKREPETAG
1070
     1
1071
        8
1005
1221FE
  0
LINE
  5
1221FF
  8
OBJECT
 10
10067.000000000009
 20
-880.69968280912815
 30
0.0
 11
10067.000000000009
 21
-924.99999999999955
 31
0.0
1001
ACDBBLOCKREPETAG
1070
     1
1071
        9
1005
1221FF
  0
LINE
  5
122200
  8
SLIM
 10
7914.9999999999918
 20
-665.19743878931502
 30
0.0
 11
7925.1974387893079
 21
-655.0
 31
0.0
1001
ACAD
1010
0.0
1020
0.0
1030
0.0
1001
ACDBBLOCKREPETAG
1070
     1
1071
       12
1005
122200
  0
LINE
  5
122201
  8
SLIM
 10
7914.9999999999964
 20
-683.15795103145194
 30
0.0
 11
7943.1579510314459
 21
-655.0
 31
0.0
1001
ACAD
1010
0.0
1020
0.0
1030
0.0
1001
ACDBBLOCKREPETAG
1070
     1
1071
       13
1005
122201
  0
LINE
  5
122202
  8
SLIM
 10
7914.9999999999982
 20
-701.11846327358865
 30
0.0
 11
7961.1184632735867
 21
-655.0
 31
0.0
1001
ACAD
1010
0.0
1020
0.0
1030
0.0
1001
ACDBBLOCKREPETAG
1070
     1
1071
       14
1005
122202
  0
LINE
  5
122203
  8
SLIM
 10
7914.9999999999982
 20
-719.07897551572592
 30
0.0
 11
7979.078975515723
 21
-655.0
 31
0.0
1001
ACAD
1010
0.0
1020
0.0
1030
0.0
1001
ACDBBLOCKREPETAG
1070
     1
1071
       15
1005
122203
  0
LINE
  5
122204
  8
SLIM
 10
7914.9999999999982
 20
-737.03948775786273
 30
0.0
 11
7997.0394877578628
 21
-655.0
 31
0.0
1001
ACAD
1010
0.0
1020
0.0
1030
0.0
1001
ACDBBLOCKREPETAG
1070
     1
1071
       16
1005
122204
  0
LINE
  5
122205
  8
SLIM
 10
7915.283600749558
 20
-754.7163992504419
 30
0.0
 11
8015.0
 21
-655.0
 31
0.0
1001
ACAD
1010
0.0
1020
0.0
1030
0.0
1001
ACDBBLOCKREPETAG
1070
     1
1071
       17
1005
122205
  0
LINE
  5
122206
  8
SLIM
 10
7917.4979104780423
 20
-770.46260176409714
 30
0.0
 11
8032.960512242139
 21
-655.0
 31
0.0
1001
ACAD
1010
0.0
1020
0.0
1030
0.0
1001
ACDBBLOCKREPETAG
1070
     1
1071
       18
1005
122206
  0
LINE
  5
122207
  8
SLIM
 10
7919.7122202065239
 20
-786.20880427775273
 30
0.0
 11
8050.9210244842798
 21
-655.0
 31
0.0
1001
ACAD
1010
0.0
1020
0.0
1030
0.0
1001
ACDBBLOCKREPETAG
1070
     1
1071
       19
1005
122207
  0
LINE
  5
122208
  8
SLIM
 10
7921.9265299350072
 20
-801.95500679140764
 30
0.0
 11
8068.8815367264133
 21
-655.0
 31
0.0
1001
ACAD
1010
0.0
1020
0.0
1030
0.0
1001
ACDBBLOCKREPETAG
1070
     1
1071
       20
1005
122208
  0
LINE
  5
122209
  8
SLIM
 10
7924.1408396634897
 20
-817.70120930506289
 30
0.0
 11
8085.0000000000064
 21
-656.84204896854612
 31
0.0
1001
ACAD
1010
0.0
1020
0.0
1030
0.0
1001
ACDBBLOCKREPETAG
1070
     1
1071
       21
1005
122209
  0
LINE
  5
12220A
  8
SLIM
 10
7926.3551493919731
 20
-833.44741181871825
 30
0.0
 11
8085.0000000000064
 21
-674.80256121068555
 31
0.0
1001
ACAD
1010
0.0
1020
0.0
1030
0.0
1001
ACDBBLOCKREPETAG
1070
     1
1071
       22
1005
12220A
  0
LINE
  5
12220B
  8
SLIM
 10
7928.5694591204538
 20
-849.19361433237373
 30
0.0
 11
8085.0000000000064
 21
-692.76307345282532
 31
0.0
1001
ACAD
1010
0.0
1020
0.0
1030
0.0
1001
ACDBBLOCKREPETAG
1070
     1
1071
       23
1005
12220B
  0
LINE
  5
12220C
  8
SLIM
 10
7930.783768848939
 20
-864.93981684602898
 30
0.0
 11
8085.0000000000018
 21
-710.72358569496498
 31
0.0
1001
ACAD
1010
0.0
1020
0.0
1030
0.0
1001
ACDBBLOCKREPETAG
1070
     1
1071
       24
1005
12220C
  0
LINE
  5
12220D
  8
SLIM
 10
7932.9980785774214
 20
-880.68601935968422
 30
0.0
 11
8085.0000000000018
 21
-728.68409793710464
 31
0.0
1001
ACAD
1010
0.0
1020
0.0
1030
0.0
1001
ACDBBLOCKREPETAG
1070
     1
1071
       25
1005
12220D
  0
LINE
  5
12220E
  8
SLIM
 10
7943.0
 20
-888.64461017924452
 30
0.0
 11
7946.6446101792453
 21
-884.99999999999807
 31
0.0
1001
ACAD
1010
0.0
1020
0.0
1030
0.0
1001
ACDBBLOCKREPETAG
1070
     1
1071
       26
1005
12220E
  0
LINE
  5
12220F
  8
SLIM
 10
7946.6446101792453
 20
-884.99999999999807
 30
0.0
 11
8085.0
 21
-746.64461017924418
 31
0.0
1001
ACAD
1010
0.0
1020
0.0
1030
0.0
1001
ACDBBLOCKREPETAG
1070
     1
1071
       27
1005
12220F
  0
LINE
  5
122210
  8
SLIM
 10
7944.6051224213861
 20
-904.99999999999807
 30
0.0
 11
7964.6051224213852
 21
-884.99999999999807
 31
0.0
1001
ACAD
1010
0.0
1020
0.0
1030
0.0
1001
ACDBBLOCKREPETAG
1070
     1
1071
       28
1005
122210
  0
LINE
  5
122211
  8
SLIM
 10
7964.6051224213852
 20
-884.99999999999807
 30
0.0
 11
8083.051837154364
 21
-766.5532852670176
 31
0.0
1001
ACAD
1010
0.0
1020
0.0
1030
0.0
1001
ACDBBLOCKREPETAG
1070
     1
1071
       29
1005
122211
  0
LINE
  5
122212
  8
SLIM
 10
7962.5656346635242
 20
-904.99999999999807
 30
0.0
 11
7982.5656346635215
 21
-884.99999999999807
 31
0.0
1001
ACAD
1010
0.0
1020
0.0
1030
0.0
1001
ACDBBLOCKREPETAG
1070
     1
1071
       30
1005
122212
  0
LINE
  5
122213
  8
SLIM
 10
7982.5656346635215
 20
-884.99999999999807
 30
0.0
 11
8080.1128442420159
 21
-787.4527904215056
 31
0.0
1001
ACAD
1010
0.0
1020
0.0
1030
0.0
1001
ACDBBLOCKREPETAG
1070
     1
1071
       31
1005
122213
  0
LINE
  5
122214
  8
SLIM
 10
7980.5261469056622
 20
-904.99999999999807
 30
0.0
 11
8000.5261469056613
 21
-884.99999999999807
 31
0.0
1001
ACAD
1010
0.0
1020
0.0
1030
0.0
1001
ACDBBLOCKREPETAG
1070
     1
1071
       32
1005
122214
  0
LINE
  5
122215
  8
SLIM
 10
8000.5261469056613
 20
-884.99999999999807
 30
0.0
 11
8077.1738513296659
 21
-808.35229557599371
 31
0.0
1001
ACAD
1010
0.0
1020
0.0
1030
0.0
1001
ACDBBLOCKREPETAG
1070
     1
1071
       33
1005
122215
  0
LINE
  5
122216
  8
SLIM
 10
7998.4866591478003
 20
-904.99999999999807
 30
0.0
 11
8018.4866591478003
 21
-884.99999999999807
 31
0.0
1001
ACAD
1010
0.0
1020
0.0
1030
0.0
1001
ACDBBLOCKREPETAG
1070
     1
1071
       34
1005
122216
  0
LINE
  5
122217
  8
SLIM
 10
8018.4866591478003
 20
-884.99999999999807
 30
0.0
 11
8074.234858417316
 21
-829.25180073048148
 31
0.0
1001
ACAD
1010
0.0
1020
0.0
1030
0.0
1001
ACDBBLOCKREPETAG
1070
     1
1071
       35
1005
122217
  0
LINE
  5
122218
  8
SLIM
 10
8016.4471713899393
 20
-904.99999999999807
 30
0.0
 11
8036.4471713899393
 21
-884.99999999999807
 31
0.0
1001
ACAD
1010
0.0
1020
0.0
1030
0.0
1001
ACDBBLOCKREPETAG
1070
     1
1071
       36
1005
122218
  0
LINE
  5
122219
  8
SLIM
 10
8036.4471713899393
 20
-884.99999999999807
 30
0.0
 11
8071.2958655049679
 21
-850.1513058849697
 31
0.0
1001
ACAD
1010
0.0
1020
0.0
1030
0.0
1001
ACDBBLOCKREPETAG
1070
     1
1071
       37
1005
122219
  0
LINE
  5
12221A
  8
SLIM
 10
8034.4076836320774
 20
-904.99999999999807
 30
0.0
 11
8054.4076836320764
 21
-884.99999999999807
 31
0.0
1001
ACAD
1010
0.0
1020
0.0
1030
0.0
1001
ACDBBLOCKREPETAG
1070
     1
1071
       38
1005
12221A
  0
LINE
  5
12221B
  8
SLIM
 10
8054.4076836320764
 20
-884.99999999999807
 30
0.0
 11
8068.3568725926198
 21
-871.0508110394577
 31
0.0
1001
ACAD
1010
0.0
1020
0.0
1030
0.0
1001
ACDBBLOCKREPETAG
1070
     1
1071
       39
1005
12221B
  0
LINE
  5
12221C
  8
SLIM
 10
8052.3681958742136
 20
-904.99999999999807
 30
0.0
 11
8057.0
 21
-900.36819587421292
 31
0.0
1001
ACAD
1010
0.0
1020
0.0
1030
0.0
1001
ACDBBLOCKREPETAG
1070
     1
1071
       40
1005
12221C
  0
LINE
  5
12221D
  8
OBJECT
 10
7943.0
 20
-904.99999999999807
 30
0.0
 11
8057.0
 21
-904.99999999999807
 31
0.0
1001
ACDBBLOCKREPETAG
1070
     1
1071
        1
1005
12221D
  0
LINE
  5
12221E
  8
OBJECT
 10
7933.6047321049664
 20
-884.99999999999807
 30
0.0
 11
8066.3952678950427
 21
-884.99999999999807
 31
0.0
1001
ACDBBLOCKREPETAG
1070
     1
1071
        2
1005
12221E
  0
LINE
  5
12221F
  8
OBJECT
 10
7943.0
 20
-904.99999999999807
 30
0.0
 11
7943.0
 21
-884.99999999999807
 31
0.0
1001
ACDBBLOCKREPETAG
1070
     1
1071
        3
1005
12221F
  0
LINE
  5
122220
  8
OBJECT
 10
8057.0
 20
-904.99999999999807
 30
0.0
 11
8057.0
 21
-884.99999999999807
 31
0.0
1001
ACDBBLOCKREPETAG
1070
     1
1071
        4
1005
122220
  0
LINE
  5
122221
  8
OBJECT
 10
7914.9999999999918
 20
-655.0
 30
0.0
 11
7915.0
 21
-752.69968280914145
 31
0.0
1001
ACDBBLOCKREPETAG
1070
     1
1071
        5
1005
122221
  0
LINE
  5
122222
  8
OBJECT
 10
8085.0000000000064
 20
-655.0
 30
0.0
 11
8085.0
 21
-752.69968280917203
 31
0.0
1001
ACDBBLOCKREPETAG
1070
     1
1071
        6
1005
122222
  0
LINE
  5
122223
  8
OBJECT
 10
7915.0
 20
-752.69968280914145
 30
0.0
 11
7933.6047321049664
 21
-884.99999999999807
 31
0.0
1001
ACDBBLOCKREPETAG
1070
     1
1071
        7
1005
122223
  0
LINE
  5
122224
  8
OBJECT
 10
8066.3952678950427
 20
-884.99999999999807
 30
0.0
 11
8085.0
 21
-752.69968280917203
 31
0.0
1001
ACDBBLOCKREPETAG
1070
     1
1071
        8
1005
122224
  0
LINE
  5
122225
  8
OBJECT
 10
8085.0000000000064
 20
-655.0
 30
0.0
 11
7914.9999999999918
 21
-655.0
 31
0.0
1001
ACDBBLOCKREPETAG
1070
     1
1071
        9
1005
122225
  0
LINE
  5
122226
  8
OBJECT
 10
2024.102933093302
 20
-243.80694712371681
 30
0.0
 11
2020.659656999997
 21
-232.55462199999889
 31
0.0
1001
ACDBBLOCKREPETAG
1070
     1
1071
      300
1005
122226
  0
LINE
  5
122227
  8
OBJECT
 10
1986.7927499013749
 20
-218.22553374208019
 30
0.0
 11
2020.659656999997
 21
-232.5546219999969
 31
0.0
1001
ACDBBLOCKREPETAG
1070
     1
1071
      302
1005
122227
  0
ARC
  5
122228
  8
OBJECT
 10
1982.8961697619
 20
-227.4351299990567
 30
0.0
 40
10.0
 50
67.066778292923374
 51
154.0147343702935
1001
ACDBBLOCKREPETAG
1070
     1
1071
      303
1005
122228
  0
ARC
  5
122229
  8
OBJECT
 10
1986.1488390381271
 20
-225.55386256729159
 30
0.0
 40
7.0
 50
67.066778292923374
 51
154.01473377497121
1001
ACDBBLOCKREPETAG
1070
     1
1071
      304
1005
122229
  0
LINE
  5
12222A
  8
OBJECT
 10
1969.4199755553
 20
-243.89888500818171
 30
0.0
 11
1979.856491823236
 21
-222.48688253356801
 31
0.0
1001
ACDBBLOCKREPETAG
1070
     1
1071
      341
1005
12222A
  0
LINE
  5
12222B
  8
OBJECT
 10
1965.2972169006091
 20
-240.71813901882729
 30
0.0
 11
1973.907102266508
 21
-223.05373004430751
 31
0.0
1001
ACDBBLOCKREPETAG
1070
     1
1071
      342
1005
12222B
  0
ARC
  5
12222C
  8
OBJECT
 10
1976.579695307315
 20
-207.1289369828437
 30
0.0
 40
60.031113246032611
 50
314.07020130418567
 51
322.33936106091278
1001
ACDBBLOCKREPETAG
1070
     1
1071
      343
1005
12222C
  0
CIRCLE
  5
12222D
  8
OBJECT
 10
2000.0
 20
-199.99999999999909
 30
0.0
 40
53.5
1001
ACDBBLOCKREPETAG
1070
     1
1071
      344
1005
12222D
  0
POINT
  5
12222E
  8
DOTS
 10
2000.0
 20
-199.99999999999909
 30
0.0
 50
270.0
1001
ACDBBLOCKREPETAG
1070
     1
1071
      362
1005
12222E
  0
ARC
  5
12222F
  8
OBJECT
 10
2000.0
 20
-199.99999999999909
 30
0.0
 40
50.0
 50
298.81994300000417
 51
228.52376955967449
1001
ACDBBLOCKREPETAG
1070
     1
1071
        7
1005
12222F
  0
LINE
  5
122230
  8
CENTER
 10
2080.0
 20
-199.99999999999909
 30
0.0
 11
1905.0
 21
-199.99999999999909
 31
0.0
1001
ACDBBLOCKREPETAG
1070
     1
1071
       14
1005
122230
  0
LINE
  5
122231
  8
CENTER
 10
2000.0
 20
-294.99999999999898
 30
0.0
 11
2000.0
 21
-104.9999999999991
 31
0.0
1001
ACDBBLOCKREPETAG
1070
     1
1071
       15
1005
122231
  0
CIRCLE
  5
122232
  8
OBJECT
 10
2000.0
 20
-199.99999999999909
 30
0.0
 40
70.0
1001
ACDBBLOCKREPETAG
1070
     1
1071
       16
1005
122232
  0
CIRCLE
  5
122233
  8
OBJECT
 10
2000.0
 20
-199.99999999999909
 30
0.0
 40
77.0
1001
ACDBBLOCKREPETAG
1070
     1
1071
       17
1005
122233
  0
ARC
  5
122234
  8
OBJECT
 10
2000.0
 20
-199.99999999999909
 30
0.0
 40
80.0
 50
50.805032573864182
 51
309.1949674261358
1001
ACDBBLOCKREPETAG
1070
     1
1071
       18
1005
122234
  0
LINE
  5
122235
  8
OBJECT
 10
2045.6618002273251
 20
-137.99999999999909
 30
0.0
 11
2080.0
 21
-137.99999999999909
 31
0.0
1001
ACDBBLOCKREPETAG
1070
     1
1071
       19
1005
122235
  0
LINE
  5
122236
  8
OBJECT
 10
2045.6618002273251
 20
-261.99999999999909
 30
0.0
 11
2080.0
 21
-261.99999999999909
 31
0.0
1001
ACDBBLOCKREPETAG
1070
     1
1071
       20
1005
122236
  0
LINE
  5
122237
  8
OBJECT
 10
12085.999999999991
 20
-1003.999999999999
 30
0.0
 11
12085.999999999991
 21
-1013.999999999999
 31
0.0
1001
ACDBBLOCKREPETAG
1070
     1
1071
      121
1005
122237
  0
LINE
  5
122238
  8
OBJECT
 10
12069.999999999991
 20
-1003.999999999999
 30
0.0
 11
12069.999999999991
 21
-1013.999999999999
 31
0.0
1001
ACDBBLOCKREPETAG
1070
     1
1071
      122
1005
122238
  0
LINE
  5
122239
  8
OBJECT
 10
12085.999999999991
 20
-1013.999999999999
 30
0.0
 11
12069.999999999991
 21
-1013.999999999999
 31
0.0
1001
ACDBBLOCKREPETAG
1070
     1
1071
      123
1005
122239
  0
LINE
  5
12223A
  8
OBJECT
 10
12090.0
 20
-964.99999999999613
 30
0.0
 11
11924.0
 21
-964.99999999999613
 31
0.0
1001
ACDBBLOCKREPETAG
1070
     1
1071
      124
1005
12223A
  0
LINE
  5
12223B
  8
OBJECT
 10
12090.0
 20
-979.99999999999966
 30
0.0
 11
12090.0
 21
-964.99999999999613
 31
0.0
1001
ACDBBLOCKREPETAG
1070
     1
1071
      125
1005
12223B
  0
LINE
  5
12223C
  8
OBJECT
 10
11924.0
 20
-979.99999999999966
 30
0.0
 11
12090.0
 21
-979.99999999999966
 31
0.0
1001
ACDBBLOCKREPETAG
1070
     1
1071
      126
1005
12223C
  0
LINE
  5
12223D
  8
OBJECT
 10
12067.49999999998
 20
-979.99999999999966
 30
0.0
 11
12067.49999999998
 21
-989.99999999999955
 31
0.0
1001
ACDBBLOCKREPETAG
1070
     1
1071
      127
1005
12223D
  0
LINE
  5
12223E
  8
OBJECT
 10
12072.999999999991
 20
-989.99999999999955
 30
0.0
 11
12072.999999999991
 21
-979.99999999999966
 31
0.0
1001
ACDBBLOCKREPETAG
1070
     1
1071
      128
1005
12223E
  0
LINE
  5
12223F
  8
OBJECT
 10
12082.999999999991
 20
-989.99999999999955
 30
0.0
 11
12082.999999999991
 21
-979.99999999999966
 31
0.0
1001
ACDBBLOCKREPETAG
1070
     1
1071
      129
1005
12223F
  0
LINE
  5
122240
  8
OBJECT
 10
11924.0
 20
-989.99999999999955
 30
0.0
 11
11924.0
 21
-1003.999999999996
 31
0.0
1001
ACDBBLOCKREPETAG
1070
     1
1071
      130
1005
122240
  0
LINE
  5
122241
  8
OBJECT
 10
12090.0
 20
-989.99999999999955
 30
0.0
 11
12090.0
 21
-1003.999999999996
 31
0.0
1001
ACDBBLOCKREPETAG
1070
     1
1071
      131
1005
122241
  0
LINE
  5
122242
  8
OBJECT
 10
11924.0
 20
-1003.999999999996
 30
0.0
 11
12090.0
 21
-1003.999999999996
 31
0.0
1001
ACDBBLOCKREPETAG
1070
     1
1071
      132
1005
122242
  0
LINE
  5
122243
  8
OBJECT
 10
11924.0
 20
-989.99999999999955
 30
0.0
 11
12090.0
 21
-989.99999999999955
 31
0.0
1001
ACDBBLOCKREPETAG
1070
     1
1071
      133
1005
122243
  0
LINE
  5
122244
  8
OBJECT
 10
11932.49999999998
 20
-979.99999999999966
 30
0.0
 11
11932.49999999998
 21
-989.99999999999955
 31
0.0
1001
ACDBBLOCKREPETAG
1070
     1
1071
      134
1005
122244
  0
LINE
  5
122245
  8
OBJECT
 10
11934.0
 20
-928.99999999999602
 30
0.0
 11
12065.999999999991
 21
-928.99999999999602
 31
0.0
1001
ACDBBLOCKREPETAG
1070
     1
1071
      135
1005
122245
  0
LINE
  5
122246
  8
OBJECT
 10
11924.0
 20
-979.99999999999966
 30
0.0
 11
11924.0
 21
-964.99999999999613
 31
0.0
1001
ACDBBLOCKREPETAG
1070
     1
1071
      136
1005
122246
  0
LINE
  5
122247
  8
HIDDEN
 10
11943.0
 20
-939.99999999999955
 30
0.0
 11
12057.0
 21
-939.99999999999955
 31
0.0
1001
ACDBBLOCKREPETAG
1070
     1
1071
      137
1005
122247
  0
LINE
  5
122248
  8
OBJECT
 10
12086.999999999991
 20
-963.20000000000005
 30
0.0
 11
12086.999999999991
 21
-964.99999999999955
 31
0.0
1001
ACDBBLOCKREPETAG
1070
     1
1071
      138
1005
122248
  0
LINE
  5
122249
  8
OBJECT
 10
12068.999999999991
 20
-963.20000000000005
 30
0.0
 11
12068.999999999991
 21
-964.99999999999955
 31
0.0
1001
ACDBBLOCKREPETAG
1070
     1
1071
      139
1005
122249
  0
LINE
  5
12224A
  8
OBJECT
 10
12072.249999999991
 20
-953.49999999999943
 30
0.0
 11
12083.749999999991
 21
-953.49999999999943
 31
0.0
1001
ACDBBLOCKREPETAG
1070
     1
1071
      140
1005
12224A
  0
LINE
  5
12224B
  8
OBJECT
 10
12072.249999999991
 20
-953.49999999999943
 30
0.0
 11
12072.249999999991
 21
-963.20000000000005
 31
0.0
1001
ACDBBLOCKREPETAG
1070
     1
1071
      141
1005
12224B
  0
LINE
  5
12224C
  8
OBJECT
 10
12083.749999999991
 20
-953.49999999999943
 30
0.0
 11
12083.749999999991
 21
-963.20000000000005
 31
0.0
1001
ACDBBLOCKREPETAG
1070
     1
1071
      142
1005
12224C
  0
LINE
  5
12224D
  8
OBJECT
 10
11931.99999999998
 20
-1044.9999999999991
 30
0.0
 11
12067.99999999998
 21
-1044.9999999999991
 31
0.0
1001
ACDBBLOCKREPETAG
1070
     1
1071
      143
1005
12224D
  0
LINE
  5
12224E
  8
OBJECT
 10
11931.99999999998
 20
-1044.9999999999991
 30
0.0
 11
11931.99999999998
 21
-1003.999999999999
 31
0.0
1001
ACDBBLOCKREPETAG
1070
     1
1071
      144
1005
12224E
  0
LINE
  5
12224F
  8
OBJECT
 10
12067.99999999998
 20
-1044.9999999999991
 30
0.0
 11
12067.99999999998
 21
-1003.999999999999
 31
0.0
1001
ACDBBLOCKREPETAG
1070
     1
1071
      145
1005
12224F
  0
LINE
  5
122250
  8
OBJECT
 10
12086.999999999991
 20
-963.20000000000005
 30
0.0
 11
12068.999999999991
 21
-963.20000000000005
 31
0.0
1001
ACDBBLOCKREPETAG
1070
     1
1071
      146
1005
122250
  0
LINE
  5
122251
  8
CENTER
 10
12000.0
 20
-669.99999999999955
 30
0.0
 11
12000.0
 21
-1059.9999999999991
 31
0.0
1001
ACDBBLOCKREPETAG
1070
     1
1071
      147
1005
122251
  0
LINE
  5
122252
  8
OBJECT
 10
11925.0
 20
-669.99999999999955
 30
0.0
 11
11925.0
 21
-751.99999999999591
 31
0.0
1001
ACDBBLOCKREPETAG
1070
     1
1071
      148
1005
122252
  0
LINE
  5
122253
  8
OBJECT
 10
12075.0
 20
-669.99999999999955
 30
0.0
 11
12075.0
 21
-751.99999999999204
 31
0.0
1001
ACDBBLOCKREPETAG
1070
     1
1071
      149
1005
122253
  0
LINE
  5
122254
  8
OBJECT
 10
11925.0
 20
-751.99999999999591
 30
0.0
 11
12075.0
 21
-751.99999999999204
 31
0.0
1001
ACDBBLOCKREPETAG
1070
     1
1071
      150
1005
122254
  0
LINE
  5
122255
  8
OBJECT
 10
11943.0
 20
-928.99999999999602
 30
0.0
 11
11943.0
 21
-879.99999999999204
 31
0.0
1001
ACDBBLOCKREPETAG
1070
     1
1071
      151
1005
122255
  0
LINE
  5
122256
  8
OBJECT
 10
12057.0
 20
-879.99999999999204
 30
0.0
 11
11943.0
 21
-879.99999999999204
 31
0.0
1001
ACDBBLOCKREPETAG
1070
     1
1071
      152
1005
122256
  0
LINE
  5
122257
  8
OBJECT
 10
12057.0
 20
-879.99999999999204
 30
0.0
 11
12057.0
 21
-928.99999999999602
 31
0.0
1001
ACDBBLOCKREPETAG
1070
     1
1071
      153
1005
122257
  0
LINE
  5
122258
  8
OBJECT
 10
11925.0
 20
-751.99999999999591
 30
0.0
 11
11943.0
 21
-879.99999999999204
 31
0.0
1001
ACDBBLOCKREPETAG
1070
     1
1071
      154
1005
122258
  0
LINE
  5
122259
  8
OBJECT
 10
12057.0
 20
-879.99999999999204
 30
0.0
 11
12075.0
 21
-751.99999999999204
 31
0.0
1001
ACDBBLOCKREPETAG
1070
     1
1071
      155
1005
122259
  0
LINE
  5
12225A
  8
OBJECT
 10
11934.0
 20
-964.99999999999613
 30
0.0
 11
11934.0
 21
-928.99999999999602
 31
0.0
1001
ACDBBLOCKREPETAG
1070
     1
1071
      156
1005
12225A
  0
LINE
  5
12225B
  8
OBJECT
 10
12066.0
 20
-964.99999999999613
 30
0.0
 11
12065.999999999991
 21
-928.99999999999602
 31
0.0
1001
ACDBBLOCKREPETAG
1070
     1
1071
      157
1005
12225B
  0
LINE
  5
12225C
  8
OBJECT
 10
11954.75
 20
-954.69999999999288
 30
0.0
 11
11967.25
 21
-954.69999999999288
 31
0.0
1001
ACDBBLOCKREPETAG
1070
     1
1071
      158
1005
12225C
  0
LINE
  5
12225D
  8
OBJECT
 10
11946.0
 20
-964.99999999999613
 30
0.0
 11
11946.0
 21
-962.69999999999663
 31
0.0
1001
ACDBBLOCKREPETAG
1070
     1
1071
      159
1005
12225D
  0
LINE
  5
12225E
  8
OBJECT
 10
11976.0
 20
-964.99999999999613
 30
0.0
 11
11976.0
 21
-962.69999999999663
 31
0.0
1001
ACDBBLOCKREPETAG
1070
     1
1071
      160
1005
12225E
  0
LINE
  5
12225F
  8
OBJECT
 10
11954.75
 20
-954.69999999999288
 30
0.0
 11
11954.75
 21
-962.69999999999663
 31
0.0
1001
ACDBBLOCKREPETAG
1070
     1
1071
      161
1005
12225F
  0
LINE
  5
122260
  8
OBJECT
 10
11967.25
 20
-954.69999999999288
 30
0.0
 11
11967.25
 21
-962.69999999999663
 31
0.0
1001
ACDBBLOCKREPETAG
1070
     1
1071
      162
1005
122260
  0
LINE
  5
122261
  8
OBJECT
 10
11946.0
 20
-962.69999999999663
 30
0.0
 11
11976.0
 21
-962.69999999999663
 31
0.0
1001
ACDBBLOCKREPETAG
1070
     1
1071
      163
1005
122261
  0
LINE
  5
122262
  8
OBJECT
 10
11953.0
 20
-1003.999999999996
 30
0.0
 11
11953.0
 21
-1013.999999999996
 31
0.0
1001
ACDBBLOCKREPETAG
1070
     1
1071
      164
1005
122262
  0
LINE
  5
122263
  8
OBJECT
 10
11969.0
 20
-1003.999999999996
 30
0.0
 11
11969.0
 21
-1013.999999999996
 31
0.0
1001
ACDBBLOCKREPETAG
1070
     1
1071
      165
1005
122263
  0
LINE
  5
122264
  8
OBJECT
 10
11953.0
 20
-1013.999999999996
 30
0.0
 11
11969.0
 21
-1013.999999999996
 31
0.0
1001
ACDBBLOCKREPETAG
1070
     1
1071
      166
1005
122264
  0
LINE
  5
122265
  8
OBJECT
 10
11966.0
 20
-989.99999999999613
 30
0.0
 11
11966.0
 21
-979.99999999999591
 31
0.0
1001
ACDBBLOCKREPETAG
1070
     1
1071
      167
1005
122265
  0
LINE
  5
122266
  8
OBJECT
 10
11956.0
 20
-989.99999999999613
 30
0.0
 11
11956.0
 21
-979.99999999999591
 31
0.0
1001
ACDBBLOCKREPETAG
1070
     1
1071
      168
1005
122266
  0
LINE
  5
122267
  8
OBJECT
 10
10090.0
 20
-964.99999999999613
 30
0.0
 11
9924.0
 21
-964.99999999999613
 31
0.0
1001
ACDBBLOCKREPETAG
1070
     1
1071
       12
1005
122267
  0
LINE
  5
122268
  8
OBJECT
 10
10066.0
 20
-928.99999999999602
 30
0.0
 11
9934.0
 21
-928.99999999999602
 31
0.0
1001
ACDBBLOCKREPETAG
1070
     1
1071
       13
1005
122268
  0
LINE
  5
122269
  8
OBJECT
 10
10090.0
 20
-979.99999999999966
 30
0.0
 11
10090.0
 21
-964.99999999999613
 31
0.0
1001
ACDBBLOCKREPETAG
1070
     1
1071
       14
1005
122269
  0
LINE
  5
12226A
  8
OBJECT
 10
9924.0
 20
-979.99999999999966
 30
0.0
 11
10090.0
 21
-979.99999999999966
 31
0.0
1001
ACDBBLOCKREPETAG
1070
     1
1071
       15
1005
12226A
  0
LINE
  5
12226B
  8
OBJECT
 10
10067.49999999998
 20
-979.99999999999966
 30
0.0
 11
10067.49999999998
 21
-989.99999999999955
 31
0.0
1001
ACDBBLOCKREPETAG
1070
     1
1071
       16
1005
12226B
  0
LINE
  5
12226C
  8
OBJECT
 10
9924.0
 20
-989.99999999999955
 30
0.0
 11
9924.0
 21
-1003.999999999996
 31
0.0
1001
ACDBBLOCKREPETAG
1070
     1
1071
       17
1005
12226C
  0
LINE
  5
12226D
  8
OBJECT
 10
10090.0
 20
-989.99999999999955
 30
0.0
 11
10090.0
 21
-1003.999999999996
 31
0.0
1001
ACDBBLOCKREPETAG
1070
     1
1071
       18
1005
12226D
  0
LINE
  5
12226E
  8
OBJECT
 10
9924.0
 20
-1003.999999999996
 30
0.0
 11
10090.0
 21
-1003.999999999996
 31
0.0
1001
ACDBBLOCKREPETAG
1070
     1
1071
       19
1005
12226E
  0
LINE
  5
12226F
  8
OBJECT
 10
9924.0
 20
-989.99999999999955
 30
0.0
 11
10090.0
 21
-989.99999999999955
 31
0.0
1001
ACDBBLOCKREPETAG
1070
     1
1071
       20
1005
12226F
  0
LINE
  5
122270
  8
OBJECT
 10
9932.4999999999836
 20
-979.99999999999966
 30
0.0
 11
9932.4999999999836
 21
-989.99999999999955
 31
0.0
1001
ACDBBLOCKREPETAG
1070
     1
1071
       21
1005
122270
  0
LINE
  5
122271
  8
OBJECT
 10
9924.0
 20
-979.99999999999966
 30
0.0
 11
9924.0
 21
-964.99999999999613
 31
0.0
1001
ACDBBLOCKREPETAG
1070
     1
1071
       22
1005
122271
  0
LINE
  5
122272
  8
HIDDEN
 10
9943.0
 20
-939.99999999999955
 30
0.0
 11
10057.0
 21
-939.99999999999955
 31
0.0
1001
ACDBBLOCKREPETAG
1070
     1
1071
       23
1005
122272
  0
LINE
  5
122273
  8
CENTER
 10
10000.0
 20
-669.99999999999955
 30
0.0
 11
10000.0
 21
-1018.999999999996
 31
0.0
1001
ACDBBLOCKREPETAG
1070
     1
1071
       24
1005
122273
  0
LINE
  5
122274
  8
OBJECT
 10
9925.0
 20
-669.99999999999955
 30
0.0
 11
9925.0
 21
-751.99999999999591
 31
0.0
1001
ACDBBLOCKREPETAG
1070
     1
1071
       25
1005
122274
  0
LINE
  5
122275
  8
OBJECT
 10
10075.0
 20
-669.99999999999955
 30
0.0
 11
10075.0
 21
-751.99999999999204
 31
0.0
1001
ACDBBLOCKREPETAG
1070
     1
1071
       26
1005
122275
  0
LINE
  5
122276
  8
OBJECT
 10
9925.0
 20
-751.99999999999591
 30
0.0
 11
10075.0
 21
-751.99999999999204
 31
0.0
1001
ACDBBLOCKREPETAG
1070
     1
1071
       27
1005
122276
  0
LINE
  5
122277
  8
OBJECT
 10
10057.0
 20
-928.99999999999602
 30
0.0
 11
10057.0
 21
-879.99999999999204
 31
0.0
1001
ACDBBLOCKREPETAG
1070
     1
1071
       28
1005
122277
  0
LINE
  5
122278
  8
OBJECT
 10
9943.0
 20
-928.99999999999602
 30
0.0
 11
9943.0
 21
-879.99999999999204
 31
0.0
1001
ACDBBLOCKREPETAG
1070
     1
1071
       29
1005
122278
  0
LINE
  5
122279
  8
OBJECT
 10
10057.0
 20
-879.99999999999204
 30
0.0
 11
9943.0
 21
-879.99999999999204
 31
0.0
1001
ACDBBLOCKREPETAG
1070
     1
1071
       30
1005
122279
  0
LINE
  5
12227A
  8
OBJECT
 10
9925.0
 20
-751.99999999999591
 30
0.0
 11
9943.0
 21
-879.99999999999204
 31
0.0
1001
ACDBBLOCKREPETAG
1070
     1
1071
       31
1005
12227A
  0
LINE
  5
12227B
  8
OBJECT
 10
10057.0
 20
-879.99999999999204
 30
0.0
 11
10075.0
 21
-751.99999999999204
 31
0.0
1001
ACDBBLOCKREPETAG
1070
     1
1071
       32
1005
12227B
  0
LINE
  5
12227C
  8
OBJECT
 10
9934.0
 20
-928.99999999999602
 30
0.0
 11
9934.0
 21
-964.99999999999613
 31
0.0
1001
ACDBBLOCKREPETAG
1070
     1
1071
       33
1005
12227C
  0
LINE
  5
12227D
  8
OBJECT
 10
10066.0
 20
-928.99999999999602
 30
0.0
 11
10066.0
 21
-964.99999999999613
 31
0.0
1001
ACDBBLOCKREPETAG
1070
     1
1071
       34
1005
12227D
  0
LINE
  5
12227E
  8
OBJECT
 10
10082.999999999991
 20
-989.99999999999613
 30
0.0
 11
10082.999999999991
 21
-979.99999999999591
 31
0.0
1001
ACDBBLOCKREPETAG
1070
     1
1071
       35
1005
12227E
  0
LINE
  5
12227F
  8
OBJECT
 10
10072.999999999991
 20
-989.99999999999613
 30
0.0
 11
10072.999999999991
 21
-979.99999999999591
 31
0.0
1001
ACDBBLOCKREPETAG
1070
     1
1071
       36
1005
12227F
  0
LINE
  5
122280
  8
OBJECT
 10
10068.99999999998
 20
-959.99999999999545
 30
0.0
 11
10068.99999999998
 21
-964.99999999999613
 31
0.0
1001
ACDBBLOCKREPETAG
1070
     1
1071
       37
1005
122280
  0
LINE
  5
122281
  8
OBJECT
 10
10087.0
 20
-959.99999999999545
 30
0.0
 11
10087.0
 21
-964.99999999999613
 31
0.0
1001
ACDBBLOCKREPETAG
1070
     1
1071
       38
1005
122281
  0
LINE
  5
122282
  8
OBJECT
 10
10087.0
 20
-959.99999999999545
 30
0.0
 11
10068.99999999998
 21
-959.99999999999545
 31
0.0
1001
ACDBBLOCKREPETAG
1070
     1
1071
       39
1005
122282
  0
LINE
  5
122283
  8
OBJECT
 10
10073.0
 20
-1011.999999999996
 30
0.0
 11
10073.0
 21
-1014.999999999996
 31
0.0
1001
ACDBBLOCKREPETAG
1070
     1
1071
       40
1005
122283
  0
LINE
  5
122284
  8
OBJECT
 10
10073.0
 20
-1014.999999999996
 30
0.0
 11
10083.0
 21
-1014.999999999996
 31
0.0
1001
ACDBBLOCKREPETAG
1070
     1
1071
       41
1005
122284
  0
LINE
  5
122285
  8
OBJECT
 10
10083.0
 20
-1014.999999999996
 30
0.0
 11
10083.0
 21
-1011.999999999996
 31
0.0
1001
ACDBBLOCKREPETAG
1070
     1
1071
       43
1005
122285
  0
LINE
  5
122286
  8
OBJECT
 10
9968.5
 20
-959.99999999999545
 30
0.0
 11
9951.9999999999909
 21
-959.99999999999545
 31
0.0
1001
ACDBBLOCKREPETAG
1070
     1
1071
       48
1005
122286
  0
LINE
  5
122287
  8
OBJECT
 10
9976.0
 20
-964.99999999999613
 30
0.0
 11
9976.0
 21
-962.99999999999591
 31
0.0
1001
ACDBBLOCKREPETAG
1070
     1
1071
       49
1005
122287
  0
LINE
  5
122288
  8
OBJECT
 10
9966.0
 20
-989.99999999999613
 30
0.0
 11
9966.0
 21
-979.99999999999591
 31
0.0
1001
ACDBBLOCKREPETAG
1070
     1
1071
       50
1005
122288
  0
LINE
  5
122289
  8
OBJECT
 10
9956.0
 20
-989.99999999999613
 30
0.0
 11
9956.0
 21
-979.99999999999591
 31
0.0
1001
ACDBBLOCKREPETAG
1070
     1
1071
       51
1005
122289
  0
LINE
  5
12228A
  8
OBJECT
 10
9951.9999999999909
 20
-959.99999999999545
 30
0.0
 11
9951.9999999999909
 21
-964.99999999999613
 31
0.0
1001
ACDBBLOCKREPETAG
1070
     1
1071
       52
1005
12228A
  0
LINE
  5
12228B
  8
OBJECT
 10
9956.0
 20
-1011.999999999996
 30
0.0
 11
9956.0
 21
-1014.999999999996
 31
0.0
1001
ACDBBLOCKREPETAG
1070
     1
1071
       53
1005
12228B
  0
LINE
  5
12228C
  8
OBJECT
 10
9956.0
 20
-1014.999999999996
 30
0.0
 11
9966.0
 21
-1014.999999999996
 31
0.0
1001
ACDBBLOCKREPETAG
1070
     1
1071
       54
1005
12228C
  0
LINE
  5
12228D
  8
OBJECT
 10
9951.185045423772
 20
-1011.999999999996
 30
0.0
 11
9970.814954576219
 21
-1011.999999999996
 31
0.0
1001
ACDBBLOCKREPETAG
1070
     1
1071
       55
1005
12228D
  0
LINE
  5
12228E
  8
OBJECT
 10
9966.0
 20
-1014.999999999996
 30
0.0
 11
9966.0
 21
-1011.999999999996
 31
0.0
1001
ACDBBLOCKREPETAG
1070
     1
1071
       56
1005
12228E
  0
LINE
  5
12228F
  8
OBJECT
 10
9976.0
 20
-962.99999999999591
 30
0.0
 11
9968.5
 21
-959.99999999999545
 31
0.0
1001
ACDBBLOCKREPETAG
1070
     1
1071
       57
1005
12228F
  0
LINE
  5
122290
  8
OBJECT
 10
9951.1850454237774
 20
-1003.999999999996
 30
0.0
 11
9951.1850454237774
 21
-1011.999999999996
 31
0.0
1001
ACDBBLOCKREPETAG
1070
     1
1071
      630
1005
122290
  0
LINE
  5
122291
  8
OBJECT
 10
9956.0925227118896
 20
-1003.999999999996
 30
0.0
 11
9956.0925227118896
 21
-1011.999999999996
 31
0.0
1001
ACDBBLOCKREPETAG
1070
     1
1071
      631
1005
122291
  0
LINE
  5
122292
  8
OBJECT
 10
9965.9074772881122
 20
-1003.999999999996
 30
0.0
 11
9965.9074772881122
 21
-1011.999999999996
 31
0.0
1001
ACDBBLOCKREPETAG
1070
     1
1071
      632
1005
122292
  0
LINE
  5
122293
  8
OBJECT
 10
9970.8149545762244
 20
-1003.999999999996
 30
0.0
 11
9970.8149545762244
 21
-1011.999999999996
 31
0.0
1001
ACDBBLOCKREPETAG
1070
     1
1071
      633
1005
122293
  0
LINE
  5
122294
  8
OBJECT
 10
10068.18504542377
 20
-1011.999999999996
 30
0.0
 11
10087.814954576221
 21
-1011.999999999996
 31
0.0
1001
ACDBBLOCKREPETAG
1070
     1
1071
      634
1005
122294
  0
LINE
  5
122295
  8
OBJECT
 10
10068.18504542377
 20
-1003.999999999996
 30
0.0
 11
10068.18504542377
 21
-1011.999999999996
 31
0.0
1001
ACDBBLOCKREPETAG
1070
     1
1071
      635
1005
122295
  0
LINE
  5
122296
  8
OBJECT
 10
10073.09252271189
 20
-1003.999999999996
 30
0.0
 11
10073.09252271189
 21
-1011.999999999996
 31
0.0
1001
ACDBBLOCKREPETAG
1070
     1
1071
      636
1005
122296
  0
LINE
  5
122297
  8
OBJECT
 10
10082.90747728811
 20
-1003.999999999996
 30
0.0
 11
10082.90747728811
 21
-1011.999999999996
 31
0.0
1001
ACDBBLOCKREPETAG
1070
     1
1071
      637
1005
122297
  0
LINE
  5
122298
  8
OBJECT
 10
10087.814954576221
 20
-1003.999999999996
 30
0.0
 11
10087.814954576221
 21
-1011.999999999996
 31
0.0
1001
ACDBBLOCKREPETAG
1070
     1
1071
      638
1005
122298
  0
LINE
  5
122299
  8
OBJECT
 10
7943.0
 20
-979.99999999999591
 30
0.0
 11
8057.0
 21
-979.99999999999591
 31
0.0
1001
ACDBBLOCKREPETAG
1070
     1
1071
        0
1005
122299
  0
LINE
  5
12229A
  8
OBJECT
 10
7943.0
 20
-979.99999999999591
 30
0.0
 11
7943.0
 21
-879.99999999999591
 31
0.0
1001
ACDBBLOCKREPETAG
1070
     1
1071
        1
1005
12229A
  0
LINE
  5
12229B
  8
OBJECT
 10
8057.0
 20
-979.99999999999591
 30
0.0
 11
8057.0
 21
-879.99999999999591
 31
0.0
1001
ACDBBLOCKREPETAG
1070
     1
1071
        2
1005
12229B
  0
LINE
  5
12229C
  8
OBJECT
 10
7943.0
 20
-879.99999999999591
 30
0.0
 11
8057.0
 21
-879.99999999999591
 31
0.0
1001
ACDBBLOCKREPETAG
1070
     1
1071
        3
1005
12229C
  0
LINE
  5
12229D
  8
HIDDEN
 10
7950.0
 20
-879.99999999999591
 30
0.0
 11
7950.0
 21
-979.99999999999591
 31
0.0
1001
ACDBBLOCKREPETAG
1070
     1
1071
        4
1005
12229D
  0
LINE
  5
12229E
  8
HIDDEN
 10
8050.0
 20
-879.99999999999591
 30
0.0
 11
8050.0
 21
-979.99999999999591
 31
0.0
1001
ACDBBLOCKREPETAG
1070
     1
1071
        5
1005
12229E
  0
LINE
  5
12229F
  8
CENTER
 10
8000.0
 20
-669.99999999999955
 30
0.0
 11
8000.0
 21
-994.99999999999557
 31
0.0
1001
ACDBBLOCKREPETAG
1070
     1
1071
        6
1005
12229F
  0
LINE
  5
1222A0
  8
OBJECT
 10
7925.0
 20
-669.99999999999955
 30
0.0
 11
7925.0
 21
-751.99999999999591
 31
0.0
1001
ACDBBLOCKREPETAG
1070
     1
1071
        7
1005
1222A0
  0
LINE
  5
1222A1
  8
OBJECT
 10
8075.0
 20
-669.99999999999955
 30
0.0
 11
8075.0
 21
-751.99999999999591
 31
0.0
1001
ACDBBLOCKREPETAG
1070
     1
1071
        8
1005
1222A1
  0
LINE
  5
1222A2
  8
OBJECT
 10
7925.0
 20
-751.99999999999591
 30
0.0
 11
8075.0
 21
-751.99999999999591
 31
0.0
1001
ACDBBLOCKREPETAG
1070
     1
1071
        9
1005
1222A2
  0
LINE
  5
1222A3
  8
OBJECT
 10
7925.0
 20
-751.99999999999591
 30
0.0
 11
7943.0
 21
-879.99999999999591
 31
0.0
1001
ACDBBLOCKREPETAG
1070
     1
1071
       10
1005
1222A3
  0
LINE
  5
1222A4
  8
OBJECT
 10
8057.0
 20
-879.99999999999591
 30
0.0
 11
8075.0
 21
-751.99999999999591
 31
0.0
1001
ACDBBLOCKREPETAG
1070
     1
1071
       11
1005
1222A4
  0
LINE
  5
1222A5
  8
OBJECT
 10
6085.9999999999927
 20
-1003.999999999999
 30
0.0
 11
6085.9999999999927
 21
-1013.999999999999
 31
0.0
1001
ACDBBLOCKREPETAG
1070
     1
1071
      121
1005
1222A5
  0
LINE
  5
1222A6
  8
OBJECT
 10
6069.9999999999927
 20
-1003.999999999999
 30
0.0
 11
6069.9999999999927
 21
-1013.999999999999
 31
0.0
1001
ACDBBLOCKREPETAG
1070
     1
1071
      122
1005
1222A6
  0
LINE
  5
1222A7
  8
OBJECT
 10
6085.9999999999927
 20
-1013.999999999999
 30
0.0
 11
6069.9999999999927
 21
-1013.999999999999
 31
0.0
1001
ACDBBLOCKREPETAG
1070
     1
1071
      123
1005
1222A7
  0
LINE
  5
1222A8
  8
OBJECT
 10
6090.0
 20
-964.99999999999613
 30
0.0
 11
5924.0
 21
-964.99999999999613
 31
0.0
1001
ACDBBLOCKREPETAG
1070
     1
1071
      124
1005
1222A8
  0
LINE
  5
1222A9
  8
OBJECT
 10
6090.0
 20
-979.99999999999966
 30
0.0
 11
6090.0
 21
-964.99999999999613
 31
0.0
1001
ACDBBLOCKREPETAG
1070
     1
1071
      125
1005
1222A9
  0
LINE
  5
1222AA
  8
OBJECT
 10
5924.0
 20
-979.99999999999966
 30
0.0
 11
6090.0
 21
-979.99999999999966
 31
0.0
1001
ACDBBLOCKREPETAG
1070
     1
1071
      126
1005
1222AA
  0
LINE
  5
1222AB
  8
OBJECT
 10
6067.4999999999864
 20
-979.99999999999966
 30
0.0
 11
6067.4999999999864
 21
-989.99999999999955
 31
0.0
1001
ACDBBLOCKREPETAG
1070
     1
1071
      127
1005
1222AB
  0
LINE
  5
1222AC
  8
OBJECT
 10
6072.9999999999927
 20
-989.99999999999955
 30
0.0
 11
6072.9999999999927
 21
-979.99999999999966
 31
0.0
1001
ACDBBLOCKREPETAG
1070
     1
1071
      128
1005
1222AC
  0
LINE
  5
1222AD
  8
OBJECT
 10
6082.9999999999927
 20
-989.99999999999955
 30
0.0
 11
6082.9999999999927
 21
-979.99999999999966
 31
0.0
1001
ACDBBLOCKREPETAG
1070
     1
1071
      129
1005
1222AD
  0
LINE
  5
1222AE
  8
OBJECT
 10
5924.0
 20
-989.99999999999955
 30
0.0
 11
5924.0
 21
-1003.999999999996
 31
0.0
1001
ACDBBLOCKREPETAG
1070
     1
1071
      130
1005
1222AE
  0
LINE
  5
1222AF
  8
OBJECT
 10
6090.0
 20
-989.99999999999955
 30
0.0
 11
6090.0
 21
-1003.999999999996
 31
0.0
1001
ACDBBLOCKREPETAG
1070
     1
1071
      131
1005
1222AF
  0
LINE
  5
1222B0
  8
OBJECT
 10
5924.0
 20
-1003.999999999996
 30
0.0
 11
6090.0
 21
-1003.999999999996
 31
0.0
1001
ACDBBLOCKREPETAG
1070
     1
1071
      132
1005
1222B0
  0
LINE
  5
1222B1
  8
OBJECT
 10
5924.0
 20
-989.99999999999955
 30
0.0
 11
6090.0
 21
-989.99999999999955
 31
0.0
1001
ACDBBLOCKREPETAG
1070
     1
1071
      133
1005
1222B1
  0
LINE
  5
1222B2
  8
OBJECT
 10
5932.4999999999864
 20
-979.99999999999966
 30
0.0
 11
5932.4999999999864
 21
-989.99999999999955
 31
0.0
1001
ACDBBLOCKREPETAG
1070
     1
1071
      134
1005
1222B2
  0
LINE
  5
1222B3
  8
OBJECT
 10
5934.0
 20
-928.99999999999602
 30
0.0
 11
6065.9999999999909
 21
-928.99999999999602
 31
0.0
1001
ACDBBLOCKREPETAG
1070
     1
1071
      135
1005
1222B3
  0
LINE
  5
1222B4
  8
OBJECT
 10
5924.0
 20
-979.99999999999966
 30
0.0
 11
5924.0
 21
-964.99999999999613
 31
0.0
1001
ACDBBLOCKREPETAG
1070
     1
1071
      136
1005
1222B4
  0
LINE
  5
1222B5
  8
HIDDEN
 10
5943.0
 20
-939.99999999999955
 30
0.0
 11
6057.0
 21
-939.99999999999955
 31
0.0
1001
ACDBBLOCKREPETAG
1070
     1
1071
      137
1005
1222B5
  0
LINE
  5
1222B6
  8
OBJECT
 10
6086.9999999999918
 20
-963.20000000000005
 30
0.0
 11
6086.9999999999918
 21
-964.99999999999955
 31
0.0
1001
ACDBBLOCKREPETAG
1070
     1
1071
      138
1005
1222B6
  0
LINE
  5
1222B7
  8
OBJECT
 10
6068.9999999999909
 20
-963.20000000000005
 30
0.0
 11
6068.9999999999909
 21
-964.99999999999955
 31
0.0
1001
ACDBBLOCKREPETAG
1070
     1
1071
      139
1005
1222B7
  0
LINE
  5
1222B8
  8
OBJECT
 10
6072.2499999999927
 20
-953.49999999999943
 30
0.0
 11
6083.7499999999927
 21
-953.49999999999943
 31
0.0
1001
ACDBBLOCKREPETAG
1070
     1
1071
      140
1005
1222B8
  0
LINE
  5
1222B9
  8
OBJECT
 10
6072.2499999999927
 20
-953.49999999999943
 30
0.0
 11
6072.2499999999927
 21
-963.20000000000005
 31
0.0
1001
ACDBBLOCKREPETAG
1070
     1
1071
      141
1005
1222B9
  0
LINE
  5
1222BA
  8
OBJECT
 10
6083.7499999999927
 20
-953.49999999999943
 30
0.0
 11
6083.7499999999927
 21
-963.20000000000005
 31
0.0
1001
ACDBBLOCKREPETAG
1070
     1
1071
      142
1005
1222BA
  0
LINE
  5
1222BB
  8
OBJECT
 10
5931.9999999999873
 20
-1044.9999999999991
 30
0.0
 11
6067.9999999999873
 21
-1044.9999999999991
 31
0.0
1001
ACDBBLOCKREPETAG
1070
     1
1071
      143
1005
1222BB
  0
LINE
  5
1222BC
  8
OBJECT
 10
5931.9999999999873
 20
-1044.9999999999991
 30
0.0
 11
5931.9999999999873
 21
-1003.999999999999
 31
0.0
1001
ACDBBLOCKREPETAG
1070
     1
1071
      144
1005
1222BC
  0
LINE
  5
1222BD
  8
OBJECT
 10
6067.9999999999873
 20
-1044.9999999999991
 30
0.0
 11
6067.9999999999873
 21
-1003.999999999999
 31
0.0
1001
ACDBBLOCKREPETAG
1070
     1
1071
      145
1005
1222BD
  0
LINE
  5
1222BE
  8
OBJECT
 10
6086.9999999999918
 20
-963.20000000000005
 30
0.0
 11
6068.9999999999909
 21
-963.20000000000005
 31
0.0
1001
ACDBBLOCKREPETAG
1070
     1
1071
      146
1005
1222BE
  0
LINE
  5
1222BF
  8
CENTER
 10
6000.0
 20
-669.99999999999955
 30
0.0
 11
6000.0
 21
-1059.9999999999991
 31
0.0
1001
ACDBBLOCKREPETAG
1070
     1
1071
      147
1005
1222BF
  0
LINE
  5
1222C0
  8
OBJECT
 10
5925.0
 20
-669.99999999999955
 30
0.0
 11
5925.0
 21
-751.99999999999591
 31
0.0
1001
ACDBBLOCKREPETAG
1070
     1
1071
      148
1005
1222C0
  0
LINE
  5
1222C1
  8
OBJECT
 10
6075.0
 20
-669.99999999999955
 30
0.0
 11
6075.0
 21
-751.99999999999204
 31
0.0
1001
ACDBBLOCKREPETAG
1070
     1
1071
      149
1005
1222C1
  0
LINE
  5
1222C2
  8
OBJECT
 10
5925.0
 20
-751.99999999999591
 30
0.0
 11
6075.0
 21
-751.99999999999204
 31
0.0
1001
ACDBBLOCKREPETAG
1070
     1
1071
      150
1005
1222C2
  0
LINE
  5
1222C3
  8
OBJECT
 10
5943.0
 20
-928.99999999999602
 30
0.0
 11
5943.0
 21
-879.99999999999204
 31
0.0
1001
ACDBBLOCKREPETAG
1070
     1
1071
      151
1005
1222C3
  0
LINE
  5
1222C4
  8
OBJECT
 10
6057.0
 20
-879.99999999999204
 30
0.0
 11
5943.0
 21
-879.99999999999204
 31
0.0
1001
ACDBBLOCKREPETAG
1070
     1
1071
      152
1005
1222C4
  0
LINE
  5
1222C5
  8
OBJECT
 10
6057.0
 20
-879.99999999999204
 30
0.0
 11
6057.0
 21
-928.99999999999602
 31
0.0
1001
ACDBBLOCKREPETAG
1070
     1
1071
      153
1005
1222C5
  0
LINE
  5
1222C6
  8
OBJECT
 10
5925.0
 20
-751.99999999999591
 30
0.0
 11
5943.0
 21
-879.99999999999204
 31
0.0
1001
ACDBBLOCKREPETAG
1070
     1
1071
      154
1005
1222C6
  0
LINE
  5
1222C7
  8
OBJECT
 10
6057.0
 20
-879.99999999999204
 30
0.0
 11
6075.0
 21
-751.99999999999204
 31
0.0
1001
ACDBBLOCKREPETAG
1070
     1
1071
      155
1005
1222C7
  0
LINE
  5
1222C8
  8
OBJECT
 10
5934.0
 20
-964.99999999999613
 30
0.0
 11
5934.0
 21
-928.99999999999602
 31
0.0
1001
ACDBBLOCKREPETAG
1070
     1
1071
      156
1005
1222C8
  0
LINE
  5
1222C9
  8
OBJECT
 10
6066.0
 20
-964.99999999999613
 30
0.0
 11
6065.9999999999909
 21
-928.99999999999602
 31
0.0
1001
ACDBBLOCKREPETAG
1070
     1
1071
      157
1005
1222C9
  0
LINE
  5
1222CA
  8
OBJECT
 10
5954.75
 20
-954.69999999999288
 30
0.0
 11
5967.2499999999991
 21
-954.69999999999288
 31
0.0
1001
ACDBBLOCKREPETAG
1070
     1
1071
      158
1005
1222CA
  0
LINE
  5
1222CB
  8
OBJECT
 10
5946.0
 20
-964.99999999999613
 30
0.0
 11
5946.0
 21
-962.69999999999663
 31
0.0
1001
ACDBBLOCKREPETAG
1070
     1
1071
      159
1005
1222CB
  0
LINE
  5
1222CC
  8
OBJECT
 10
5976.0
 20
-964.99999999999613
 30
0.0
 11
5976.0
 21
-962.69999999999663
 31
0.0
1001
ACDBBLOCKREPETAG
1070
     1
1071
      160
1005
1222CC
  0
LINE
  5
1222CD
  8
OBJECT
 10
5954.75
 20
-954.69999999999288
 30
0.0
 11
5954.75
 21
-962.69999999999663
 31
0.0
1001
ACDBBLOCKREPETAG
1070
     1
1071
      161
1005
1222CD
  0
LINE
  5
1222CE
  8
OBJECT
 10
5967.2499999999991
 20
-954.69999999999288
 30
0.0
 11
5967.2499999999991
 21
-962.69999999999663
 31
0.0
1001
ACDBBLOCKREPETAG
1070
     1
1071
      162
1005
1222CE
  0
LINE
  5
1222CF
  8
OBJECT
 10
5946.0
 20
-962.69999999999663
 30
0.0
 11
5976.0
 21
-962.69999999999663
 31
0.0
1001
ACDBBLOCKREPETAG
1070
     1
1071
      163
1005
1222CF
  0
LINE
  5
1222D0
  8
OBJECT
 10
5953.0
 20
-1003.999999999996
 30
0.0
 11
5953.0
 21
-1013.999999999996
 31
0.0
1001
ACDBBLOCKREPETAG
1070
     1
1071
      164
1005
1222D0
  0
LINE
  5
1222D1
  8
OBJECT
 10
5969.0
 20
-1003.999999999996
 30
0.0
 11
5969.0
 21
-1013.999999999996
 31
0.0
1001
ACDBBLOCKREPETAG
1070
     1
1071
      165
1005
1222D1
  0
LINE
  5
1222D2
  8
OBJECT
 10
5953.0
 20
-1013.999999999996
 30
0.0
 11
5969.0
 21
-1013.999999999996
 31
0.0
1001
ACDBBLOCKREPETAG
1070
     1
1071
      166
1005
1222D2
  0
LINE
  5
1222D3
  8
OBJECT
 10
5966.0
 20
-989.99999999999613
 30
0.0
 11
5966.0
 21
-979.99999999999591
 31
0.0
1001
ACDBBLOCKREPETAG
1070
     1
1071
      167
1005
1222D3
  0
LINE
  5
1222D4
  8
OBJECT
 10
5956.0
 20
-989.99999999999613
 30
0.0
 11
5956.0
 21
-979.99999999999591
 31
0.0
1001
ACDBBLOCKREPETAG
1070
     1
1071
      168
1005
1222D4
  0
LINE
  5
1222D5
  8
OBJECT
 10
4090.0
 20
-964.99999999999613
 30
0.0
 11
3924.0
 21
-964.99999999999613
 31
0.0
1001
ACDBBLOCKREPETAG
1070
     1
1071
       12
1005
1222D5
  0
LINE
  5
1222D6
  8
OBJECT
 10
4066.0
 20
-928.99999999999602
 30
0.0
 11
3934.0
 21
-928.99999999999602
 31
0.0
1001
ACDBBLOCKREPETAG
1070
     1
1071
       13
1005
1222D6
  0
LINE
  5
1222D7
  8
OBJECT
 10
4090.0
 20
-979.99999999999966
 30
0.0
 11
4090.0
 21
-964.99999999999613
 31
0.0
1001
ACDBBLOCKREPETAG
1070
     1
1071
       14
1005
1222D7
  0
LINE
  5
1222D8
  8
OBJECT
 10
3924.0
 20
-979.99999999999966
 30
0.0
 11
4090.0
 21
-979.99999999999966
 31
0.0
1001
ACDBBLOCKREPETAG
1070
     1
1071
       15
1005
1222D8
  0
LINE
  5
1222D9
  8
OBJECT
 10
4067.4999999999841
 20
-979.99999999999966
 30
0.0
 11
4067.4999999999841
 21
-989.99999999999955
 31
0.0
1001
ACDBBLOCKREPETAG
1070
     1
1071
       16
1005
1222D9
  0
LINE
  5
1222DA
  8
OBJECT
 10
3924.0
 20
-989.99999999999955
 30
0.0
 11
3924.0
 21
-1003.999999999996
 31
0.0
1001
ACDBBLOCKREPETAG
1070
     1
1071
       17
1005
1222DA
  0
LINE
  5
1222DB
  8
OBJECT
 10
4090.0
 20
-989.99999999999955
 30
0.0
 11
4090.0
 21
-1003.999999999996
 31
0.0
1001
ACDBBLOCKREPETAG
1070
     1
1071
       18
1005
1222DB
  0
LINE
  5
1222DC
  8
OBJECT
 10
3924.0
 20
-1003.999999999996
 30
0.0
 11
4090.0
 21
-1003.999999999996
 31
0.0
1001
ACDBBLOCKREPETAG
1070
     1
1071
       19
1005
1222DC
  0
LINE
  5
1222DD
  8
OBJECT
 10
3924.0
 20
-989.99999999999955
 30
0.0
 11
4090.0
 21
-989.99999999999955
 31
0.0
1001
ACDBBLOCKREPETAG
1070
     1
1071
       20
1005
1222DD
  0
LINE
  5
1222DE
  8
OBJECT
 10
3932.499999999985
 20
-979.99999999999966
 30
0.0
 11
3932.499999999985
 21
-989.99999999999955
 31
0.0
1001
ACDBBLOCKREPETAG
1070
     1
1071
       21
1005
1222DE
  0
LINE
  5
1222DF
  8
OBJECT
 10
3924.0
 20
-979.99999999999966
 30
0.0
 11
3924.0
 21
-964.99999999999613
 31
0.0
1001
ACDBBLOCKREPETAG
1070
     1
1071
       22
1005
1222DF
  0
LINE
  5
1222E0
  8
HIDDEN
 10
3943.0
 20
-939.99999999999955
 30
0.0
 11
4057.0
 21
-939.99999999999955
 31
0.0
1001
ACDBBLOCKREPETAG
1070
     1
1071
       23
1005
1222E0
  0
LINE
  5
1222E1
  8
CENTER
 10
4000.0
 20
-669.99999999999955
 30
0.0
 11
4000.0
 21
-1018.999999999996
 31
0.0
1001
ACDBBLOCKREPETAG
1070
     1
1071
       24
1005
1222E1
  0
LINE
  5
1222E2
  8
OBJECT
 10
3925.0
 20
-669.99999999999955
 30
0.0
 11
3925.0
 21
-751.99999999999591
 31
0.0
1001
ACDBBLOCKREPETAG
1070
     1
1071
       25
1005
1222E2
  0
LINE
  5
1222E3
  8
OBJECT
 10
4075.0
 20
-669.99999999999955
 30
0.0
 11
4075.0
 21
-751.99999999999204
 31
0.0
1001
ACDBBLOCKREPETAG
1070
     1
1071
       26
1005
1222E3
  0
LINE
  5
1222E4
  8
OBJECT
 10
3925.0
 20
-751.99999999999591
 30
0.0
 11
4075.0
 21
-751.99999999999204
 31
0.0
1001
ACDBBLOCKREPETAG
1070
     1
1071
       27
1005
1222E4
  0
LINE
  5
1222E5
  8
OBJECT
 10
4057.0
 20
-928.99999999999602
 30
0.0
 11
4057.0
 21
-879.99999999999204
 31
0.0
1001
ACDBBLOCKREPETAG
1070
     1
1071
       28
1005
1222E5
  0
LINE
  5
1222E6
  8
OBJECT
 10
3943.0
 20
-928.99999999999602
 30
0.0
 11
3943.0
 21
-879.99999999999204
 31
0.0
1001
ACDBBLOCKREPETAG
1070
     1
1071
       29
1005
1222E6
  0
LINE
  5
1222E7
  8
OBJECT
 10
4057.0
 20
-879.99999999999204
 30
0.0
 11
3943.0
 21
-879.99999999999204
 31
0.0
1001
ACDBBLOCKREPETAG
1070
     1
1071
       30
1005
1222E7
  0
LINE
  5
1222E8
  8
OBJECT
 10
3925.0
 20
-751.99999999999591
 30
0.0
 11
3943.0
 21
-879.99999999999204
 31
0.0
1001
ACDBBLOCKREPETAG
1070
     1
1071
       31
1005
1222E8
  0
LINE
  5
1222E9
  8
OBJECT
 10
4057.0
 20
-879.99999999999204
 30
0.0
 11
4075.0
 21
-751.99999999999204
 31
0.0
1001
ACDBBLOCKREPETAG
1070
     1
1071
       32
1005
1222E9
  0
LINE
  5
1222EA
  8
OBJECT
 10
3934.0
 20
-928.99999999999602
 30
0.0
 11
3934.0
 21
-964.99999999999613
 31
0.0
1001
ACDBBLOCKREPETAG
1070
     1
1071
       33
1005
1222EA
  0
LINE
  5
1222EB
  8
OBJECT
 10
4066.0
 20
-928.99999999999602
 30
0.0
 11
4066.0
 21
-964.99999999999613
 31
0.0
1001
ACDBBLOCKREPETAG
1070
     1
1071
       34
1005
1222EB
  0
LINE
  5
1222EC
  8
OBJECT
 10
4082.9999999999932
 20
-989.99999999999613
 30
0.0
 11
4082.9999999999932
 21
-979.99999999999591
 31
0.0
1001
ACDBBLOCKREPETAG
1070
     1
1071
       35
1005
1222EC
  0
LINE
  5
1222ED
  8
OBJECT
 10
4072.9999999999918
 20
-989.99999999999613
 30
0.0
 11
4072.9999999999918
 21
-979.99999999999591
 31
0.0
1001
ACDBBLOCKREPETAG
1070
     1
1071
       36
1005
1222ED
  0
LINE
  5
1222EE
  8
OBJECT
 10
4068.9999999999841
 20
-959.99999999999545
 30
0.0
 11
4068.9999999999841
 21
-964.99999999999613
 31
0.0
1001
ACDBBLOCKREPETAG
1070
     1
1071
       37
1005
1222EE
  0
LINE
  5
1222EF
  8
OBJECT
 10
4087.0
 20
-959.99999999999545
 30
0.0
 11
4087.0
 21
-964.99999999999613
 31
0.0
1001
ACDBBLOCKREPETAG
1070
     1
1071
       38
1005
1222EF
  0
LINE
  5
1222F0
  8
OBJECT
 10
4087.0
 20
-959.99999999999545
 30
0.0
 11
4068.9999999999841
 21
-959.99999999999545
 31
0.0
1001
ACDBBLOCKREPETAG
1070
     1
1071
       39
1005
1222F0
  0
LINE
  5
1222F1
  8
OBJECT
 10
4073.0
 20
-1011.999999999996
 30
0.0
 11
4073.0
 21
-1014.999999999996
 31
0.0
1001
ACDBBLOCKREPETAG
1070
     1
1071
       40
1005
1222F1
  0
LINE
  5
1222F2
  8
OBJECT
 10
4073.0
 20
-1014.999999999996
 30
0.0
 11
4083.0
 21
-1014.999999999996
 31
0.0
1001
ACDBBLOCKREPETAG
1070
     1
1071
       41
1005
1222F2
  0
LINE
  5
1222F3
  8
OBJECT
 10
4083.0
 20
-1014.999999999996
 30
0.0
 11
4083.0
 21
-1011.999999999996
 31
0.0
1001
ACDBBLOCKREPETAG
1070
     1
1071
       43
1005
1222F3
  0
LINE
  5
1222F4
  8
OBJECT
 10
3968.5
 20
-959.99999999999545
 30
0.0
 11
3951.9999999999932
 21
-959.99999999999545
 31
0.0
1001
ACDBBLOCKREPETAG
1070
     1
1071
       48
1005
1222F4
  0
LINE
  5
1222F5
  8
OBJECT
 10
3976.0
 20
-964.99999999999613
 30
0.0
 11
3976.0
 21
-962.99999999999591
 31
0.0
1001
ACDBBLOCKREPETAG
1070
     1
1071
       49
1005
1222F5
  0
LINE
  5
1222F6
  8
OBJECT
 10
3966.0
 20
-989.99999999999613
 30
0.0
 11
3966.0
 21
-979.99999999999591
 31
0.0
1001
ACDBBLOCKREPETAG
1070
     1
1071
       50
1005
1222F6
  0
LINE
  5
1222F7
  8
OBJECT
 10
3956.0
 20
-989.99999999999613
 30
0.0
 11
3956.0
 21
-979.99999999999591
 31
0.0
1001
ACDBBLOCKREPETAG
1070
     1
1071
       51
1005
1222F7
  0
LINE
  5
1222F8
  8
OBJECT
 10
3951.9999999999932
 20
-959.99999999999545
 30
0.0
 11
3951.9999999999932
 21
-964.99999999999613
 31
0.0
1001
ACDBBLOCKREPETAG
1070
     1
1071
       52
1005
1222F8
  0
LINE
  5
1222F9
  8
OBJECT
 10
3956.0
 20
-1011.999999999996
 30
0.0
 11
3956.0
 21
-1014.999999999996
 31
0.0
1001
ACDBBLOCKREPETAG
1070
     1
1071
       53
1005
1222F9
  0
LINE
  5
1222FA
  8
OBJECT
 10
3956.0
 20
-1014.999999999996
 30
0.0
 11
3966.0
 21
-1014.999999999996
 31
0.0
1001
ACDBBLOCKREPETAG
1070
     1
1071
       54
1005
1222FA
  0
LINE
  5
1222FB
  8
OBJECT
 10
3951.185045423772
 20
-1011.999999999996
 30
0.0
 11
3970.8149545762212
 21
-1011.999999999996
 31
0.0
1001
ACDBBLOCKREPETAG
1070
     1
1071
       55
1005
1222FB
  0
LINE
  5
1222FC
  8
OBJECT
 10
3966.0
 20
-1014.999999999996
 30
0.0
 11
3966.0
 21
-1011.999999999996
 31
0.0
1001
ACDBBLOCKREPETAG
1070
     1
1071
       56
1005
1222FC
  0
LINE
  5
1222FD
  8
OBJECT
 10
3976.0
 20
-962.99999999999591
 30
0.0
 11
3968.5
 21
-959.99999999999545
 31
0.0
1001
ACDBBLOCKREPETAG
1070
     1
1071
       57
1005
1222FD
  0
LINE
  5
1222FE
  8
OBJECT
 10
3951.185045423777
 20
-1003.999999999996
 30
0.0
 11
3951.185045423777
 21
-1011.999999999996
 31
0.0
1001
ACDBBLOCKREPETAG
1070
     1
1071
      630
1005
1222FE
  0
LINE
  5
1222FF
  8
OBJECT
 10
3956.0925227118901
 20
-1003.999999999996
 30
0.0
 11
3956.0925227118901
 21
-1011.999999999996
 31
0.0
1001
ACDBBLOCKREPETAG
1070
     1
1071
      631
1005
1222FF
  0
LINE
  5
122300
  8
OBJECT
 10
3965.9074772881122
 20
-1003.999999999996
 30
0.0
 11
3965.9074772881122
 21
-1011.999999999996
 31
0.0
1001
ACDBBLOCKREPETAG
1070
     1
1071
      632
1005
122300
  0
LINE
  5
122301
  8
OBJECT
 10
3970.814954576223
 20
-1003.999999999996
 30
0.0
 11
3970.814954576223
 21
-1011.999999999996
 31
0.0
1001
ACDBBLOCKREPETAG
1070
     1
1071
      633
1005
122301
  0
LINE
  5
122302
  8
OBJECT
 10
4068.185045423772
 20
-1011.999999999996
 30
0.0
 11
4087.8149545762199
 21
-1011.999999999996
 31
0.0
1001
ACDBBLOCKREPETAG
1070
     1
1071
      634
1005
122302
  0
LINE
  5
122303
  8
OBJECT
 10
4068.185045423777
 20
-1003.999999999996
 30
0.0
 11
4068.185045423777
 21
-1011.999999999996
 31
0.0
1001
ACDBBLOCKREPETAG
1070
     1
1071
      635
1005
122303
  0
LINE
  5
122304
  8
OBJECT
 10
4073.0925227118869
 20
-1003.999999999996
 30
0.0
 11
4073.0925227118869
 21
-1011.999999999996
 31
0.0
1001
ACDBBLOCKREPETAG
1070
     1
1071
      636
1005
122304
  0
LINE
  5
122305
  8
OBJECT
 10
4082.9074772881122
 20
-1003.999999999996
 30
0.0
 11
4082.9074772881122
 21
-1011.999999999996
 31
0.0
1001
ACDBBLOCKREPETAG
1070
     1
1071
      637
1005
122305
  0
LINE
  5
122306
  8
OBJECT
 10
4087.814954576223
 20
-1003.999999999996
 30
0.0
 11
4087.814954576223
 21
-1011.999999999996
 31
0.0
1001
ACDBBLOCKREPETAG
1070
     1
1071
      638
1005
122306
  0
LINE
  5
122307
  8
OBJECT
 10
1943.0
 20
-979.99999999999591
 30
0.0
 11
2057.0
 21
-979.99999999999591
 31
0.0
1001
ACDBBLOCKREPETAG
1070
     1
1071
        0
1005
122307
  0
LINE
  5
122308
  8
OBJECT
 10
1943.0
 20
-979.99999999999591
 30
0.0
 11
1943.0
 21
-879.99999999999591
 31
0.0
1001
ACDBBLOCKREPETAG
1070
     1
1071
        1
1005
122308
  0
LINE
  5
122309
  8
OBJECT
 10
2057.0
 20
-979.99999999999591
 30
0.0
 11
2057.0
 21
-879.99999999999591
 31
0.0
1001
ACDBBLOCKREPETAG
1070
     1
1071
        2
1005
122309
  0
LINE
  5
12230A
  8
OBJECT
 10
1943.0
 20
-879.99999999999591
 30
0.0
 11
2057.0
 21
-879.99999999999591
 31
0.0
1001
ACDBBLOCKREPETAG
1070
     1
1071
        3
1005
12230A
  0
LINE
  5
12230B
  8
HIDDEN
 10
1950.0
 20
-879.99999999999591
 30
0.0
 11
1950.0
 21
-979.99999999999591
 31
0.0
1001
ACDBBLOCKREPETAG
1070
     1
1071
        4
1005
12230B
  0
LINE
  5
12230C
  8
HIDDEN
 10
2050.0
 20
-879.99999999999591
 30
0.0
 11
2050.0
 21
-979.99999999999591
 31
0.0
1001
ACDBBLOCKREPETAG
1070
     1
1071
        5
1005
12230C
  0
LINE
  5
12230D
  8
CENTER
 10
2000.0
 20
-669.99999999999955
 30
0.0
 11
2000.0
 21
-994.99999999999557
 31
0.0
1001
ACDBBLOCKREPETAG
1070
     1
1071
        6
1005
12230D
  0
LINE
  5
12230E
  8
OBJECT
 10
1925.0
 20
-669.99999999999955
 30
0.0
 11
1925.0
 21
-751.99999999999591
 31
0.0
1001
ACDBBLOCKREPETAG
1070
     1
1071
        7
1005
12230E
  0
LINE
  5
12230F
  8
OBJECT
 10
2075.0
 20
-669.99999999999955
 30
0.0
 11
2075.0
 21
-751.99999999999591
 31
0.0
1001
ACDBBLOCKREPETAG
1070
     1
1071
        8
1005
12230F
  0
LINE
  5
122310
  8
OBJECT
 10
1925.0
 20
-751.99999999999591
 30
0.0
 11
2075.0
 21
-751.99999999999591
 31
0.0
1001
ACDBBLOCKREPETAG
1070
     1
1071
        9
1005
122310
  0
LINE
  5
122311
  8
OBJECT
 10
1925.0
 20
-751.99999999999591
 30
0.0
 11
1943.0
 21
-879.99999999999591
 31
0.0
1001
ACDBBLOCKREPETAG
1070
     1
1071
       10
1005
122311
  0
LINE
  5
122312
  8
OBJECT
 10
2057.0
 20
-879.99999999999591
 30
0.0
 11
2075.0
 21
-751.99999999999591
 31
0.0
1001
ACDBBLOCKREPETAG
1070
     1
1071
       11
1005
122312
  0
LINE
  5
122313
  8
OBJECT
 10
2202.9999999999859
 20
-483.0000000000008
 30
0.0
 11
2209.9999999999859
 21
-483.0000000000008
 31
0.0
1001
ACDBBLOCKREPETAG
1070
     1
1071
       83
1005
122313
  0
LINE
  5
122314
  8
OBJECT
 10
2209.9999999999859
 20
-483.0000000000008
 30
0.0
 11
2209.9999999999859
 21
-607.0000000000008
 31
0.0
1001
ACDBBLOCKREPETAG
1070
     1
1071
       84
1005
122314
  0
LINE
  5
122315
  8
OBJECT
 10
2085.9999999999859
 20
-553.3502637757274
 30
0.0
 11
2085.9999999999859
 21
-655.00000000000068
 31
0.0
1001
ACDBBLOCKREPETAG
1070
     1
1071
       85
1005
122315
  0
LINE
  5
122316
  8
OBJECT
 10
2209.9999999999859
 20
-607.0000000000008
 30
0.0
 11
2202.9999999999859
 21
-607.0000000000008
 31
0.0
1001
ACDBBLOCKREPETAG
1070
     1
1071
       86
1005
122316
  0
LINE
  5
122317
  8
OBJECT
 10
2202.9999999999859
 20
-607.0000000000008
 30
0.0
 11
2202.9999999999859
 21
-483.0000000000008
 31
0.0
1001
ACDBBLOCKREPETAG
1070
     1
1071
       87
1005
122317
  0
LINE
  5
122318
  8
CENTER
 10
2134.9999999999859
 20
-545.0000000000008
 30
0.0
 11
2224.999999999985
 21
-545.0000000000008
 31
0.0
1001
ACDBBLOCKREPETAG
1070
     1
1071
       88
1005
122318
  0
LINE
  5
122319
  8
OBJECT
 10
2079.9999999999809
 20
-658.0
 30
0.0
 11
2082.999999999985
 21
-658.0000000000008
 31
0.0
1001
ACDBBLOCKREPETAG
1070
     1
1071
       89
1005
122319
  0
ARC
  5
12231A
  8
OBJECT
 10
2082.999999999985
 20
-655.00000000000068
 30
0.0
 40
3.0
 50
270.0
 51
0.0
1001
ACDBBLOCKREPETAG
1070
     1
1071
       90
1005
12231A
  0
LINE
  5
12231B
  8
OBJECT
 10
2202.9999999999859
 20
-486.0000000000008
 30
0.0
 11
2166.9999999999859
 21
-486.0000000000008
 31
0.0
1001
ACDBBLOCKREPETAG
1070
     1
1071
       91
1005
12231B
  0
LINE
  5
12231C
  8
OBJECT
 10
2166.9999999999859
 20
-486.0000000000008
 30
0.0
 11
2166.9999999999859
 21
-604.0000000000008
 31
0.0
1001
ACDBBLOCKREPETAG
1070
     1
1071
       92
1005
12231C
  0
LINE
  5
12231D
  8
OBJECT
 10
2162.9999999999859
 20
-490.5000000000008
 30
0.0
 11
2162.9999999999859
 21
-599.5000000000008
 31
0.0
1001
ACDBBLOCKREPETAG
1070
     1
1071
       93
1005
12231D
  0
LINE
  5
12231E
  8
OBJECT
 10
2162.9999999999859
 20
-490.5000000000008
 30
0.0
 11
2149.9999999999859
 21
-490.5000000000008
 31
0.0
1001
ACDBBLOCKREPETAG
1070
     1
1071
       94
1005
12231E
  0
LINE
  5
12231F
  8
OBJECT
 10
2166.9999999999859
 20
-604.0000000000008
 30
0.0
 11
2202.9999999999859
 21
-604.0000000000008
 31
0.0
1001
ACDBBLOCKREPETAG
1070
     1
1071
       95
1005
12231F
  0
LINE
  5
122320
  8
OBJECT
 10
2166.9999999999859
 20
-486.0000000000008
 30
0.0
 11
2162.9999999999859
 21
-490.5000000000008
 31
0.0
1001
ACDBBLOCKREPETAG
1070
     1
1071
       96
1005
122320
  0
LINE
  5
122321
  8
OBJECT
 10
2149.9999999999859
 20
-490.5000000000008
 30
0.0
 11
2149.9999999999859
 21
-575.74491827928784
 31
0.0
1001
ACDBBLOCKREPETAG
1070
     1
1071
       97
1005
122321
  0
ARC
  5
122322
  8
OBJECT
 10
2152.7999999999838
 20
-585.00000000000068
 30
0.0
 40
85.0
 50
91.887731891831123
 51
143.1301023540934
1001
ACDBBLOCKREPETAG
1070
     1
1071
       98
1005
122322
  0
LINE
  5
122323
  8
HIDDEN
 10
2157.9999999999859
 20
-500.5000000000008
 30
0.0
 11
2157.9999999999859
 21
-589.5000000000008
 31
0.0
1001
ACDBBLOCKREPETAG
1070
     1
1071
      100
1005
122323
  0
LINE
  5
122324
  8
OBJECT
 10
2085.9999999999859
 20
-651.07945073181781
 30
0.0
 11
2156.6313199210308
 21
-599.5000000000008
 31
0.0
1001
ACDBBLOCKREPETAG
1070
     1
1071
      101
1005
122324
  0
LINE
  5
122325
  8
OBJECT
 10
2079.9999999999809
 20
-534.0
 30
0.0
 11
2084.7999999999852
 21
-534.0
 31
0.0
1001
ACDBBLOCKREPETAG
1070
     1
1071
      102
1005
122325
  0
LINE
  5
122326
  8
OBJECT
 10
2085.9999999999859
 20
-553.35026377573001
 30
0.0
 11
2084.7999999999852
 21
-534.0
 31
0.0
1001
ACDBBLOCKREPETAG
1070
     1
1071
      103
1005
122326
  0
LINE
  5
122327
  8
OBJECT
 10
2162.9999999999859
 20
-599.5000000000008
 30
0.0
 11
2156.6313199210308
 21
-599.5000000000008
 31
0.0
1001
ACDBBLOCKREPETAG
1070
     1
1071
      104
1005
122327
  0
LINE
  5
122328
  8
OBJECT
 10
2166.9999999999859
 20
-604.0000000000008
 30
0.0
 11
2162.9999999999859
 21
-599.5000000000008
 31
0.0
1001
ACDBBLOCKREPETAG
1070
     1
1071
      105
1005
122328
  0
LINE
  5
122329
  8
OBJECT
 10
2202.9999999999859
 20
-137.99999999999909
 30
0.0
 11
2209.9999999999859
 21
-137.99999999999909
 31
0.0
1001
ACDBBLOCKREPETAG
1070
     1
1071
       85
1005
122329
  0
LINE
  5
12232A
  8
OBJECT
 10
2209.9999999999859
 20
-137.99999999999909
 30
0.0
 11
2209.9999999999859
 21
-261.99999999999909
 31
0.0
1001
ACDBBLOCKREPETAG
1070
     1
1071
       86
1005
12232A
  0
LINE
  5
12232B
  8
OBJECT
 10
2209.9999999999859
 20
-261.99999999999909
 30
0.0
 11
2202.9999999999859
 21
-261.99999999999909
 31
0.0
1001
ACDBBLOCKREPETAG
1070
     1
1071
       87
1005
12232B
  0
LINE
  5
12232C
  8
OBJECT
 10
2202.9999999999859
 20
-261.99999999999909
 30
0.0
 11
2202.9999999999859
 21
-137.99999999999909
 31
0.0
1001
ACDBBLOCKREPETAG
1070
     1
1071
       88
1005
12232C
  0
LINE
  5
12232D
  8
CENTER
 10
2224.999999999985
 20
-199.99999999999909
 30
0.0
 11
2080.0
 21
-199.99999999999909
 31
0.0
1001
ACDBBLOCKREPETAG
1070
     1
1071
       89
1005
12232D
  0
LINE
  5
12232E
  8
OBJECT
 10
2149.9999749641861
 20
-245.0000000000027
 30
0.0
 11
2086.0
 21
-244.99999999999909
 31
0.0
1001
ACDBBLOCKREPETAG
1070
     1
1071
       90
1005
12232E
  0
LINE
  5
12232F
  8
OBJECT
 10
2149.9999749641861
 20
-154.99999999999909
 30
0.0
 11
2086.0
 21
-154.99999999999909
 31
0.0
1001
ACDBBLOCKREPETAG
1070
     1
1071
       91
1005
12232F
  0
LINE
  5
122330
  8
OBJECT
 10
2202.9999999999859
 20
-140.99999999999909
 30
0.0
 11
2166.9999999999859
 21
-140.99999999999909
 31
0.0
1001
ACDBBLOCKREPETAG
1070
     1
1071
       92
1005
122330
  0
LINE
  5
122331
  8
OBJECT
 10
2166.9999999999859
 20
-140.99999999999909
 30
0.0
 11
2166.9999999999859
 21
-258.99999999999909
 31
0.0
1001
ACDBBLOCKREPETAG
1070
     1
1071
       93
1005
122331
  0
LINE
  5
122332
  8
OBJECT
 10
2166.9999999999859
 20
-258.99999999999909
 30
0.0
 11
2202.9999999999859
 21
-258.99999999999909
 31
0.0
1001
ACDBBLOCKREPETAG
1070
     1
1071
       94
1005
122332
  0
LINE
  5
122333
  8
OBJECT
 10
2162.9999999999859
 20
-145.49999999999909
 30
0.0
 11
2149.9999999999859
 21
-145.49999999999909
 31
0.0
1001
ACDBBLOCKREPETAG
1070
     1
1071
       95
1005
122333
  0
LINE
  5
122334
  8
OBJECT
 10
2149.9999999999859
 20
-254.49999999999909
 30
0.0
 11
2162.9999999999859
 21
-254.49999999999909
 31
0.0
1001
ACDBBLOCKREPETAG
1070
     1
1071
       96
1005
122334
  0
LINE
  5
122335
  8
OBJECT
 10
2162.9999999999859
 20
-254.49999999999909
 30
0.0
 11
2162.9999999999859
 21
-145.49999999999909
 31
0.0
1001
ACDBBLOCKREPETAG
1070
     1
1071
       97
1005
122335
  0
LINE
  5
122336
  8
OBJECT
 10
2166.9999999999859
 20
-140.99999999999909
 30
0.0
 11
2162.9999999999859
 21
-145.49999999999909
 31
0.0
1001
ACDBBLOCKREPETAG
1070
     1
1071
       98
1005
122336
  0
LINE
  5
122337
  8
OBJECT
 10
2166.9999999999859
 20
-258.99999999999909
 30
0.0
 11
2162.9999999999859
 21
-254.49999999999909
 31
0.0
1001
ACDBBLOCKREPETAG
1070
     1
1071
       99
1005
122337
  0
LINE
  5
122338
  8
OBJECT
 10
2083.0
 20
-137.99999999999909
 30
0.0
 11
2080.0
 21
-137.99999999999909
 31
0.0
1001
ACDBBLOCKREPETAG
1070
     1
1071
      100
1005
122338
  0
ARC
  5
122339
  8
OBJECT
 10
2083.0
 20
-140.99999999999909
 30
0.0
 40
3.0
 50
0.0
 51
90.0
1001
ACDBBLOCKREPETAG
1070
     1
1071
      101
1005
122339
  0
LINE
  5
12233A
  8
OBJECT
 10
2080.0
 20
-261.99999999999909
 30
0.0
 11
2083.0
 21
-261.99999999999909
 31
0.0
1001
ACDBBLOCKREPETAG
1070
     1
1071
      102
1005
12233A
  0
ARC
  5
12233B
  8
OBJECT
 10
2083.0
 20
-258.99999999999909
 30
0.0
 40
3.0
 50
270.0
 51
0.0
1001
ACDBBLOCKREPETAG
1070
     1
1071
      103
1005
12233B
  0
LINE
  5
12233C
  8
OBJECT
 10
2086.0
 20
-258.99999999999909
 30
0.0
 11
2086.0
 21
-210.3227903203578
 31
0.0
1001
ACDBBLOCKREPETAG
1070
     1
1071
      104
1005
12233C
  0
LINE
  5
12233D
  8
OBJECT
 10
2086.0
 20
-189.6772096796403
 30
0.0
 11
2086.0
 21
-140.99999999999909
 31
0.0
1001
ACDBBLOCKREPETAG
1070
     1
1071
      105
1005
12233D
  0
LINE
  5
12233E
  8
HIDDEN
 10
2157.9999999999859
 20
-155.49999999999909
 30
0.0
 11
2157.9999999999859
 21
-244.49999999999909
 31
0.0
1001
ACDBBLOCKREPETAG
1070
     1
1071
      106
1005
12233E
  0
LINE
  5
12233F
  8
OBJECT
 10
2149.9999749641861
 20
-254.4999509238105
 30
0.0
 11
2149.9999749641861
 21
-145.4999509238105
 31
0.0
1001
ACDBBLOCKREPETAG
1070
     1
1071
      108
1005
12233F
  0
ARC
  5
122340
  8
OBJECT
 10
2129.8000000000252
 20
-199.99999999999909
 30
0.0
 40
45.000000000000547
 50
90.0
 51
270.0
1001
ACDBBLOCKREPETAG
1070
     1
1071
      109
1005
122340
  0
TEXT
  5
122341
  8
SLIM
 10
0.0
 20
670.0
 30
0.0
 40
100.0
  1
4SL-Z6-P110-S
 41
0.75
  0
TEXT
  5
122342
  8
SLIM
 10
0.0
 20
520.0
 30
0.0
 40
100.0
  1
4SL-Z6-P110-W
 41
0.75
  0
LINE
  5
122343
  8
CENTER
 10
11909.0
 20
-1253.9999999999959
 30
0.0
 11
12105.0
 21
-1253.9999999999959
 31
0.0
1001
ACDBBLOCKREPETAG
1070
     1
1071
       10
1005
122343
  0
LINE
  5
122344
  8
CENTER
 10
12000.0
 20
-1162.725335570779
 30
0.0
 11
12000.0
 21
-1345.274664429212
 31
0.0
1001
ACDBBLOCKREPETAG
1070
     1
1071
       11
1005
122344
  0
CIRCLE
  5
122345
  8
OBJECT
 10
12000.0
 20
-1253.9999999999959
 30
0.0
 40
50.0
1001
ACDBBLOCKREPETAG
1070
     1
1071
       12
1005
122345
  0
CIRCLE
  5
122346
  8
OBJECT
 10
12000.0
 20
-1253.9999999999959
 30
0.0
 40
60.0
1001
ACDBBLOCKREPETAG
1070
     1
1071
       13
1005
122346
  0
CIRCLE
  5
122347
  8
OBJECT
 10
12000.0
 20
-1253.9999999999959
 30
0.0
 40
68.0
1001
ACDBBLOCKREPETAG
1070
     1
1071
       14
1005
122347
  0
ARC
  5
122348
  8
OBJECT
 10
12077.5
 20
-1253.9999999999959
 30
0.0
 40
12.0
 50
272.10542627221611
 51
87.894573727783893
1001
ACDBBLOCKREPETAG
1070
     1
1071
       15
1005
122348
  0
ARC
  5
122349
  8
OBJECT
 10
12078.49193548386
 20
-1227.0182271895239
 30
0.0
 40
15.0
 50
198.97051877965251
 51
267.89457372778372
1001
ACDBBLOCKREPETAG
1070
     1
1071
       16
1005
122349
  0
ARC
  5
12234A
  8
OBJECT
 10
12078.49193548386
 20
-1280.981772810464
 30
0.0
 40
15.0
 50
92.105426272216135
 51
161.02948122034729
1001
ACDBBLOCKREPETAG
1070
     1
1071
       17
1005
12234A
  0
CIRCLE
  5
12234B
  8
SLIM
 10
12078.0
 20
-1253.9999999999959
 30
0.0
 40
8.0
1001
ACDBBLOCKREPETAG
1070
     1
1071
       18
1005
12234B
  0
POLYLINE
  5
12234C
  8
SLIM
 66
     1
 10
0.0
 20
0.0
 30
0.0
 70
     1
1001
ACDBBLOCKREPETAG
1070
     1
1071
       19
1005
12234C
  0
VERTEX
  5
122528
  8
SLIM
 10
12075.69059892322
 20
-1249.9999999999959
 30
0.0
  0
VERTEX
  5
122529
  8
SLIM
 10
12073.38119784648
 20
-1253.9999999999959
 30
0.0
  0
VERTEX
  5
12252A
  8
SLIM
 10
12075.69059892322
 20
-1257.9999999999959
 30
0.0
  0
VERTEX
  5
12252B
  8
SLIM
 10
12080.309401076751
 20
-1257.9999999999959
 30
0.0
  0
VERTEX
  5
12252C
  8
SLIM
 10
12082.618802153511
 20
-1253.9999999999959
 30
0.0
  0
VERTEX
  5
12252D
  8
SLIM
 10
12080.309401076751
 20
-1249.9999999999959
 30
0.0
  0
SEQEND
  5
12252E
  8
SLIM
  0
ARC
  5
12234D
  8
OBJECT
 10
11961.25
 20
-1186.8830312067
 30
0.0
 40
12.0
 50
32.105426272130188
 51
207.89457372768319
1001
ACDBBLOCKREPETAG
1070
     1
1071
       20
1005
12234D
  0
ARC
  5
12234E
  8
OBJECT
 10
11937.38713156505
 20
-1199.5148762839881
 30
0.0
 40
15.0
 50
318.97051877944762
 51
27.89457372768311
1001
ACDBBLOCKREPETAG
1070
     1
1071
       21
1005
12234E
  0
ARC
  5
12234F
  8
OBJECT
 10
11984.120932951069
 20
-1172.533103473517
 30
0.0
 40
15.0
 50
212.10542627213019
 51
281.02948122044069
1001
ACDBBLOCKREPETAG
1070
     1
1071
       22
1005
12234F
  0
CIRCLE
  5
122350
  8
SLIM
 10
11961.0
 20
-1186.4500185048089
 30
0.0
 40
7.9999999999999982
1001
ACDBBLOCKREPETAG
1070
     1
1071
       23
1005
122350
  0
POLYLINE
  5
122351
  8
SLIM
 66
     1
 10
0.0
 20
0.0
 30
0.0
 70
     1
1001
ACDBBLOCKREPETAG
1070
     1
1071
       24
1005
122351
  0
VERTEX
  5
12252F
  8
SLIM
 10
11958.69059892324
 20
-1190.4500185048089
 30
0.0
  0
VERTEX
  5
122530
  8
SLIM
 10
11963.309401076751
 20
-1190.4500185048089
 30
0.0
  0
VERTEX
  5
122531
  8
SLIM
 10
11965.618802153511
 20
-1186.4500185048089
 30
0.0
  0
VERTEX
  5
122532
  8
SLIM
 10
11963.309401076751
 20
-1182.4500185048089
 30
0.0
  0
VERTEX
  5
122533
  8
SLIM
 10
11958.69059892324
 20
-1182.4500185048089
 30
0.0
  0
VERTEX
  5
122534
  8
SLIM
 10
11956.38119784648
 20
-1186.4500185048089
 30
0.0
  0
SEQEND
  5
122535
  8
SLIM
  0
ARC
  5
122352
  8
OBJECT
 10
11961.25
 20
-1321.1169687932879
 30
0.0
 40
12.0
 50
152.10542627231681
 51
327.89457372786978
1001
ACDBBLOCKREPETAG
1070
     1
1071
       25
1005
122352
  0
ARC
  5
122353
  8
OBJECT
 10
11984.120932951069
 20
-1335.4668965264709
 30
0.0
 40
15.0
 50
78.970518779559228
 51
147.89457372786981
1001
ACDBBLOCKREPETAG
1070
     1
1071
       26
1005
122353
  0
ARC
  5
122354
  8
OBJECT
 10
11937.38713156505
 20
-1308.485123716003
 30
0.0
 40
15.0
 50
332.10542627231678
 51
41.029481220552412
1001
ACDBBLOCKREPETAG
1070
     1
1071
       27
1005
122354
  0
CIRCLE
  5
122355
  8
SLIM
 10
11961.0
 20
-1321.549981495182
 30
0.0
 40
8.0
1001
ACDBBLOCKREPETAG
1070
     1
1071
       28
1005
122355
  0
POLYLINE
  5
122356
  8
SLIM
 66
     1
 10
0.0
 20
0.0
 30
0.0
 70
     1
1001
ACDBBLOCKREPETAG
1070
     1
1071
       29
1005
122356
  0
VERTEX
  5
122536
  8
SLIM
 10
11965.618802153511
 20
-1321.5499814951791
 30
0.0
  0
VERTEX
  5
122537
  8
SLIM
 10
11963.309401076751
 20
-1317.549981495182
 30
0.0
  0
VERTEX
  5
122538
  8
SLIM
 10
11958.69059892324
 20
-1317.5499814951791
 30
0.0
  0
VERTEX
  5
122539
  8
SLIM
 10
11956.38119784648
 20
-1321.549981495182
 30
0.0
  0
VERTEX
  5
12253A
  8
SLIM
 10
11958.69059892322
 20
-1325.5499814951791
 30
0.0
  0
VERTEX
  5
12253B
  8
SLIM
 10
11963.309401076751
 20
-1325.549981495182
 30
0.0
  0
SEQEND
  5
12253C
  8
SLIM
  0
ARC
  5
122357
  8
OBJECT
 10
12000.0
 20
-1253.9999999999959
 30
0.0
 40
76.0
 50
34.863837954171863
 51
85.136162045732945
1001
ACDBBLOCKREPETAG
1070
     1
1071
       42
1005
122357
  0
ARC
  5
122358
  8
OBJECT
 10
12000.0
 20
-1253.9999999999959
 30
0.0
 40
76.0
 50
154.86383795430939
 51
205.1361620456905
1001
ACDBBLOCKREPETAG
1070
     1
1071
       43
1005
122358
  0
ARC
  5
122359
  8
OBJECT
 10
12000.0
 20
-1253.9999999999959
 30
0.0
 40
76.0
 50
274.86383795426718
 51
325.13616204582797
1001
ACDBBLOCKREPETAG
1070
     1
1071
       44
1005
122359
  0
ARC
  5
12235A
  8
OBJECT
 10
12078.0
 20
-1253.9999999999959
 30
0.0
 40
12.0
 50
325.13616204582797
 51
34.863837954171863
1001
ACDBBLOCKREPETAG
1070
     1
1071
       45
1005
12235A
  0
LINE
  5
12235B
  8
OBJECT
 10
12087.84615384616
 20
-1247.140462520133
 30
0.0
 11
12062.358974359049
 21
-1210.5562626275339
 31
0.0
1001
ACDBBLOCKREPETAG
1070
     1
1071
       46
1005
12235B
  0
LINE
  5
12235C
  8
OBJECT
 10
12087.846153846171
 20
-1260.859537479856
 30
0.0
 11
12062.358974359049
 21
-1297.4437373724591
 31
0.0
1001
ACDBBLOCKREPETAG
1070
     1
1071
       47
1005
12235C
  0
ARC
  5
12235D
  8
OBJECT
 10
11961.0
 20
-1186.45001850481
 30
0.0
 40
12.0
 50
85.136162045942811
 51
154.86383795410001
1001
ACDBBLOCKREPETAG
1070
     1
1071
       48
1005
12235D
  0
LINE
  5
12235E
  8
OBJECT
 10
11950.13638936114
 20
-1181.3527678843909
 30
0.0
 11
11931.19713262058
 21
-1221.7174127373471
 31
0.0
1001
ACDBBLOCKREPETAG
1070
     1
1071
       49
1005
12235E
  0
LINE
  5
12235F
  8
OBJECT
 10
11962.017456792681
 20
-1174.493230404526
 30
0.0
 11
12006.443893020371
 21
-1178.2736753648851
 31
0.0
1001
ACDBBLOCKREPETAG
1070
     1
1071
       50
1005
12235F
  0
ARC
  5
122360
  8
OBJECT
 10
11961.0
 20
-1321.5499814951811
 30
0.0
 40
12.0
 50
205.13616204589991
 51
274.8638379540572
1001
ACDBBLOCKREPETAG
1070
     1
1071
       51
1005
122360
  0
LINE
  5
122361
  8
OBJECT
 10
11962.01745679269
 20
-1333.5067695954631
 30
0.0
 11
12006.44389302036
 21
-1329.726324635106
 31
0.0
1001
ACDBBLOCKREPETAG
1070
     1
1071
       52
1005
122361
  0
LINE
  5
122362
  8
OBJECT
 10
11950.13638936114
 20
-1326.647232115605
 30
0.0
 11
11931.19713262058
 21
-1286.2825872626429
 31
0.0
1001
ACDBBLOCKREPETAG
1070
     1
1071
       53
1005
122362
  0
LINE
  5
122363
  8
CENTER
 10
9909.0
 20
-1253.9999999999959
 30
0.0
 11
10105.0
 21
-1253.9999999999959
 31
0.0
1001
ACDBBLOCKREPETAG
1070
     1
1071
        0
1005
122363
  0
LINE
  5
122364
  8
CENTER
 10
10000.0
 20
-1162.725335570779
 30
0.0
 11
10000.0
 21
-1345.274664429212
 31
0.0
1001
ACDBBLOCKREPETAG
1070
     1
1071
        1
1005
122364
  0
CIRCLE
  5
122365
  8
OBJECT
 10
10000.0
 20
-1253.9999999999959
 30
0.0
 40
50.0
1001
ACDBBLOCKREPETAG
1070
     1
1071
        2
1005
122365
  0
CIRCLE
  5
122366
  8
OBJECT
 10
10000.0
 20
-1253.9999999999959
 30
0.0
 40
62.0
1001
ACDBBLOCKREPETAG
1070
     1
1071
        3
1005
122366
  0
CIRCLE
  5
122367
  8
SLIM
 10
10078.0
 20
-1253.9999999999959
 30
0.0
 40
5.0
1001
ACDBBLOCKREPETAG
1070
     1
1071
        4
1005
122367
  0
POLYLINE
  5
122368
  8
SLIM
 66
     1
 10
0.0
 20
0.0
 30
0.0
 70
     1
1001
ACDBBLOCKREPETAG
1070
     1
1071
        5
1005
122368
  0
VERTEX
  5
12253D
  8
SLIM
 10
10073.092522711881
 20
-1245.4999999999959
 30
0.0
  0
VERTEX
  5
12253E
  8
SLIM
 10
10068.18504542377
 20
-1253.9999999999959
 30
0.0
  0
VERTEX
  5
12253F
  8
SLIM
 10
10073.092522711881
 20
-1262.4999999999959
 30
0.0
  0
VERTEX
  5
122540
  8
SLIM
 10
10082.907477288099
 20
-1262.4999999999959
 30
0.0
  0
VERTEX
  5
122541
  8
SLIM
 10
10087.814954576221
 20
-1253.9999999999959
 30
0.0
  0
VERTEX
  5
122542
  8
SLIM
 10
10082.907477288099
 20
-1245.4999999999959
 30
0.0
  0
SEQEND
  5
122543
  8
SLIM
  0
CIRCLE
  5
122369
  8
SLIM
 10
9961.0
 20
-1186.4500185048089
 30
0.0
 40
4.9999999999999991
1001
ACDBBLOCKREPETAG
1070
     1
1071
        6
1005
122369
  0
POLYLINE
  5
12236A
  8
SLIM
 66
     1
 10
0.0
 20
0.0
 30
0.0
 70
     1
1001
ACDBBLOCKREPETAG
1070
     1
1071
        7
1005
12236A
  0
VERTEX
  5
122544
  8
SLIM
 10
9956.092522711886
 20
-1194.950018504808
 30
0.0
  0
VERTEX
  5
122545
  8
SLIM
 10
9965.907477288114
 20
-1194.950018504808
 30
0.0
  0
VERTEX
  5
122546
  8
SLIM
 10
9970.814954576219
 20
-1186.4500185048089
 30
0.0
  0
VERTEX
  5
122547
  8
SLIM
 10
9965.907477288114
 20
-1177.9500185048089
 30
0.0
  0
VERTEX
  5
122548
  8
SLIM
 10
9956.092522711886
 20
-1177.9500185048089
 30
0.0
  0
VERTEX
  5
122549
  8
SLIM
 10
9951.185045423772
 20
-1186.4500185048089
 30
0.0
  0
SEQEND
  5
12254A
  8
SLIM
  0
CIRCLE
  5
12236B
  8
SLIM
 10
9961.0
 20
-1321.549981495182
 30
0.0
 40
5.0
1001
ACDBBLOCKREPETAG
1070
     1
1071
        8
1005
12236B
  0
POLYLINE
  5
12236C
  8
SLIM
 66
     1
 10
0.0
 20
0.0
 30
0.0
 70
     1
1001
ACDBBLOCKREPETAG
1070
     1
1071
        9
1005
12236C
  0
VERTEX
  5
12254B
  8
SLIM
 10
9970.814954576219
 20
-1321.549981495182
 30
0.0
  0
VERTEX
  5
12254C
  8
SLIM
 10
9965.9074772881049
 20
-1313.0499814951791
 30
0.0
  0
VERTEX
  5
12254D
  8
SLIM
 10
9956.092522711886
 20
-1313.0499814951829
 30
0.0
  0
VERTEX
  5
12254E
  8
SLIM
 10
9951.185045423772
 20
-1321.5499814951791
 30
0.0
  0
VERTEX
  5
12254F
  8
SLIM
 10
9956.092522711886
 20
-1330.049981495182
 30
0.0
  0
VERTEX
  5
122550
  8
SLIM
 10
9965.907477288114
 20
-1330.0499814951791
 30
0.0
  0
SEQEND
  5
122551
  8
SLIM
  0
ARC
  5
12236D
  8
OBJECT
 10
10000.0
 20
-1253.9999999999959
 30
0.0
 40
76.0
 50
34.863837954171863
 51
85.136162045732945
1001
ACDBBLOCKREPETAG
1070
     1
1071
       30
1005
12236D
  0
ARC
  5
12236E
  8
OBJECT
 10
10000.0
 20
-1253.9999999999959
 30
0.0
 40
76.0
 50
154.86383795430939
 51
205.1361620456905
1001
ACDBBLOCKREPETAG
1070
     1
1071
       31
1005
12236E
  0
ARC
  5
12236F
  8
OBJECT
 10
10000.0
 20
-1253.9999999999959
 30
0.0
 40
76.0
 50
274.86383795426718
 51
325.13616204582797
1001
ACDBBLOCKREPETAG
1070
     1
1071
       32
1005
12236F
  0
ARC
  5
122370
  8
OBJECT
 10
10078.0
 20
-1253.9999999999959
 30
0.0
 40
12.0
 50
325.13616204582797
 51
34.863837954171863
1001
ACDBBLOCKREPETAG
1070
     1
1071
       33
1005
122370
  0
LINE
  5
122371
  8
OBJECT
 10
10087.84615384616
 20
-1247.140462520133
 30
0.0
 11
10062.35897435904
 21
-1210.5562626275339
 31
0.0
1001
ACDBBLOCKREPETAG
1070
     1
1071
       34
1005
122371
  0
LINE
  5
122372
  8
OBJECT
 10
10087.846153846171
 20
-1260.859537479856
 30
0.0
 11
10062.35897435904
 21
-1297.4437373724591
 31
0.0
1001
ACDBBLOCKREPETAG
1070
     1
1071
       35
1005
122372
  0
ARC
  5
122373
  8
OBJECT
 10
9961.0
 20
-1186.45001850481
 30
0.0
 40
12.0
 50
85.136162045942811
 51
154.86383795410001
1001
ACDBBLOCKREPETAG
1070
     1
1071
       36
1005
122373
  0
LINE
  5
122374
  8
OBJECT
 10
9950.1363893611433
 20
-1181.3527678843909
 30
0.0
 11
9931.1971326205894
 21
-1221.7174127373471
 31
0.0
1001
ACDBBLOCKREPETAG
1070
     1
1071
       37
1005
122374
  0
LINE
  5
122375
  8
OBJECT
 10
9962.0174567926842
 20
-1174.493230404526
 30
0.0
 11
10006.443893020371
 21
-1178.2736753648851
 31
0.0
1001
ACDBBLOCKREPETAG
1070
     1
1071
       38
1005
122375
  0
ARC
  5
122376
  8
OBJECT
 10
9961.0
 20
-1321.5499814951811
 30
0.0
 40
12.0
 50
205.13616204589991
 51
274.8638379540572
1001
ACDBBLOCKREPETAG
1070
     1
1071
       39
1005
122376
  0
LINE
  5
122377
  8
OBJECT
 10
9962.0174567926897
 20
-1333.5067695954631
 30
0.0
 11
10006.44389302036
 21
-1329.726324635106
 31
0.0
1001
ACDBBLOCKREPETAG
1070
     1
1071
       40
1005
122377
  0
LINE
  5
122378
  8
OBJECT
 10
9950.1363893611433
 20
-1326.647232115605
 30
0.0
 11
9931.1971326205821
 21
-1286.2825872626429
 31
0.0
1001
ACDBBLOCKREPETAG
1070
     1
1071
       41
1005
122378
  0
LINE
  5
122379
  8
CENTER
 10
5909.0
 20
-1294.9999999999991
 30
0.0
 11
6105.0
 21
-1294.9999999999991
 31
0.0
1001
ACDBBLOCKREPETAG
1070
     1
1071
       10
1005
122379
  0
LINE
  5
12237A
  8
CENTER
 10
6000.0
 20
-1203.7253355707819
 30
0.0
 11
6000.0
 21
-1386.274664429216
 31
0.0
1001
ACDBBLOCKREPETAG
1070
     1
1071
       11
1005
12237A
  0
CIRCLE
  5
12237B
  8
OBJECT
 10
6000.0
 20
-1294.9999999999991
 30
0.0
 40
50.0
1001
ACDBBLOCKREPETAG
1070
     1
1071
       12
1005
12237B
  0
CIRCLE
  5
12237C
  8
OBJECT
 10
6000.0
 20
-1294.9999999999991
 30
0.0
 40
60.0
1001
ACDBBLOCKREPETAG
1070
     1
1071
       13
1005
12237C
  0
CIRCLE
  5
12237D
  8
OBJECT
 10
6000.0
 20
-1294.9999999999991
 30
0.0
 40
68.0
1001
ACDBBLOCKREPETAG
1070
     1
1071
       14
1005
12237D
  0
ARC
  5
12237E
  8
OBJECT
 10
6077.5
 20
-1294.9999999999991
 30
0.0
 40
12.0
 50
272.10542627221611
 51
87.894573727783893
1001
ACDBBLOCKREPETAG
1070
     1
1071
       15
1005
12237E
  0
ARC
  5
12237F
  8
OBJECT
 10
6078.4919354838639
 20
-1268.0182271895269
 30
0.0
 40
15.0
 50
198.9705187796356
 51
267.89457372778372
1001
ACDBBLOCKREPETAG
1070
     1
1071
       16
1005
12237F
  0
ARC
  5
122380
  8
OBJECT
 10
6078.4919354838639
 20
-1321.981772810467
 30
0.0
 40
15.0
 50
92.105426272216135
 51
161.02948122036429
1001
ACDBBLOCKREPETAG
1070
     1
1071
       17
1005
122380
  0
CIRCLE
  5
122381
  8
SLIM
 10
6078.0
 20
-1294.9999999999991
 30
0.0
 40
8.0
1001
ACDBBLOCKREPETAG
1070
     1
1071
       18
1005
122381
  0
POLYLINE
  5
122382
  8
SLIM
 66
     1
 10
0.0
 20
0.0
 30
0.0
 70
     1
1001
ACDBBLOCKREPETAG
1070
     1
1071
       19
1005
122382
  0
VERTEX
  5
122552
  8
SLIM
 10
6075.6905989232328
 20
-1290.9999999999991
 30
0.0
  0
VERTEX
  5
122553
  8
SLIM
 10
6073.3811978464801
 20
-1294.9999999999991
 30
0.0
  0
VERTEX
  5
122554
  8
SLIM
 10
6075.6905989232328
 20
-1298.9999999999991
 30
0.0
  0
VERTEX
  5
122555
  8
SLIM
 10
6080.3094010767527
 20
-1298.9999999999991
 30
0.0
  0
VERTEX
  5
122556
  8
SLIM
 10
6082.6188021535136
 20
-1294.9999999999991
 30
0.0
  0
VERTEX
  5
122557
  8
SLIM
 10
6080.3094010767527
 20
-1290.9999999999991
 30
0.0
  0
SEQEND
  5
122558
  8
SLIM
  0
ARC
  5
122383
  8
OBJECT
 10
5961.25
 20
-1227.883031206703
 30
0.0
 40
12.0
 50
32.105426272157878
 51
207.89457372770741
1001
ACDBBLOCKREPETAG
1070
     1
1071
       20
1005
122383
  0
ARC
  5
122384
  8
OBJECT
 10
5937.387131565054
 20
-1240.514876283992
 30
0.0
 40
15.0
 50
318.97051877944762
 51
27.894573727707481
1001
ACDBBLOCKREPETAG
1070
     1
1071
       21
1005
122384
  0
ARC
  5
122385
  8
OBJECT
 10
5984.1209329510702
 20
-1213.53310347352
 30
0.0
 40
15.0
 50
212.1054262721579
 51
281.02948122044069
1001
ACDBBLOCKREPETAG
1070
     1
1071
       22
1005
122385
  0
CIRCLE
  5
122386
  8
SLIM
 10
5961.0
 20
-1227.4500185048121
 30
0.0
 40
7.9999999999999982
1001
ACDBBLOCKREPETAG
1070
     1
1071
       23
1005
122386
  0
POLYLINE
  5
122387
  8
SLIM
 66
     1
 10
0.0
 20
0.0
 30
0.0
 70
     1
1001
ACDBBLOCKREPETAG
1070
     1
1071
       24
1005
122387
  0
VERTEX
  5
122559
  8
SLIM
 10
5958.69059892324
 20
-1231.4500185048121
 30
0.0
  0
VERTEX
  5
12255A
  8
SLIM
 10
5963.3094010767518
 20
-1231.4500185048121
 30
0.0
  0
VERTEX
  5
12255B
  8
SLIM
 10
5965.6188021535136
 20
-1227.4500185048121
 30
0.0
  0
VERTEX
  5
12255C
  8
SLIM
 10
5963.3094010767518
 20
-1223.4500185048121
 30
0.0
  0
VERTEX
  5
12255D
  8
SLIM
 10
5958.69059892324
 20
-1223.4500185048121
 30
0.0
  0
VERTEX
  5
12255E
  8
SLIM
 10
5956.3811978464792
 20
-1227.4500185048121
 30
0.0
  0
SEQEND
  5
12255F
  8
SLIM
  0
ARC
  5
122388
  8
OBJECT
 10
5961.25
 20
-1362.1169687932911
 30
0.0
 40
12.0
 50
152.1054262722925
 51
327.89457372784221
1001
ACDBBLOCKREPETAG
1070
     1
1071
       25
1005
122388
  0
ARC
  5
122389
  8
OBJECT
 10
5984.1209329510702
 20
-1376.466896526475
 30
0.0
 40
15.0
 50
78.970518779559228
 51
147.8945737278421
1001
ACDBBLOCKREPETAG
1070
     1
1071
       26
1005
122389
  0
ARC
  5
12238A
  8
OBJECT
 10
5937.387131565054
 20
-1349.485123716006
 30
0.0
 40
15.0
 50
332.1054262722925
 51
41.029481220552412
1001
ACDBBLOCKREPETAG
1070
     1
1071
       27
1005
12238A
  0
CIRCLE
  5
12238B
  8
SLIM
 10
5961.0
 20
-1362.5499814951861
 30
0.0
 40
8.0
1001
ACDBBLOCKREPETAG
1070
     1
1071
       28
1005
12238B
  0
POLYLINE
  5
12238C
  8
SLIM
 66
     1
 10
0.0
 20
0.0
 30
0.0
 70
     1
1001
ACDBBLOCKREPETAG
1070
     1
1071
       29
1005
12238C
  0
VERTEX
  5
122560
  8
SLIM
 10
5965.6188021535136
 20
-1362.549981495182
 30
0.0
  0
VERTEX
  5
122561
  8
SLIM
 10
5963.3094010767518
 20
-1358.5499814951861
 30
0.0
  0
VERTEX
  5
122562
  8
SLIM
 10
5958.69059892324
 20
-1358.5499814951829
 30
0.0
  0
VERTEX
  5
122563
  8
SLIM
 10
5956.3811978464792
 20
-1362.5499814951861
 30
0.0
  0
VERTEX
  5
122564
  8
SLIM
 10
5958.6905989232328
 20
-1366.5499814951829
 30
0.0
  0
VERTEX
  5
122565
  8
SLIM
 10
5963.3094010767518
 20
-1366.5499814951861
 30
0.0
  0
SEQEND
  5
122566
  8
SLIM
  0
ARC
  5
12238D
  8
OBJECT
 10
6000.0
 20
-1294.9999999999991
 30
0.0
 40
76.0
 50
34.863837954142063
 51
85.136162045732945
1001
ACDBBLOCKREPETAG
1070
     1
1071
       42
1005
12238D
  0
ARC
  5
12238E
  8
OBJECT
 10
6000.0
 20
-1294.9999999999991
 30
0.0
 40
76.0
 50
154.86383795430939
 51
205.1361620456905
1001
ACDBBLOCKREPETAG
1070
     1
1071
       43
1005
12238E
  0
ARC
  5
12238F
  8
OBJECT
 10
6000.0
 20
-1294.9999999999991
 30
0.0
 40
76.0
 50
274.86383795426718
 51
325.13616204585799
1001
ACDBBLOCKREPETAG
1070
     1
1071
       44
1005
12238F
  0
ARC
  5
122390
  8
OBJECT
 10
6078.0
 20
-1294.9999999999991
 30
0.0
 40
12.0
 50
325.13616204585799
 51
34.863837954142063
1001
ACDBBLOCKREPETAG
1070
     1
1071
       45
1005
122390
  0
LINE
  5
122391
  8
OBJECT
 10
6087.846153846167
 20
-1288.1404625201369
 30
0.0
 11
6062.3589743590501
 21
-1251.556262627538
 31
0.0
1001
ACDBBLOCKREPETAG
1070
     1
1071
       46
1005
122391
  0
LINE
  5
122392
  8
OBJECT
 10
6087.8461538461697
 20
-1301.8595374798599
 30
0.0
 11
6062.3589743590501
 21
-1338.443737372462
 31
0.0
1001
ACDBBLOCKREPETAG
1070
     1
1071
       47
1005
122392
  0
ARC
  5
122393
  8
OBJECT
 10
5961.0
 20
-1227.4500185048139
 30
0.0
 40
12.0
 50
85.136162045942811
 51
154.86383795410001
1001
ACDBBLOCKREPETAG
1070
     1
1071
       48
1005
122393
  0
LINE
  5
122394
  8
OBJECT
 10
5950.1363893611451
 20
-1222.3527678843941
 30
0.0
 11
5931.1971326205849
 21
-1262.7174127373501
 31
0.0
1001
ACDBBLOCKREPETAG
1070
     1
1071
       49
1005
122394
  0
LINE
  5
122395
  8
OBJECT
 10
5962.0174567926842
 20
-1215.493230404529
 30
0.0
 11
6006.4438930203669
 21
-1219.273675364888
 31
0.0
1001
ACDBBLOCKREPETAG
1070
     1
1071
       50
1005
122395
  0
ARC
  5
122396
  8
OBJECT
 10
5961.0
 20
-1362.5499814951841
 30
0.0
 40
12.0
 50
205.13616204589991
 51
274.8638379540572
1001
ACDBBLOCKREPETAG
1070
     1
1071
       51
1005
122396
  0
LINE
  5
122397
  8
OBJECT
 10
5962.0174567926879
 20
-1374.506769595466
 30
0.0
 11
6006.4438930203651
 21
-1370.726324635109
 31
0.0
1001
ACDBBLOCKREPETAG
1070
     1
1071
       52
1005
122397
  0
LINE
  5
122398
  8
OBJECT
 10
5950.1363893611451
 20
-1367.6472321156079
 30
0.0
 11
5931.1971326205821
 21
-1327.2825872626461
 31
0.0
1001
ACDBBLOCKREPETAG
1070
     1
1071
       53
1005
122398
  0
LINE
  5
122399
  8
CENTER
 10
3909.0
 20
-1253.9999999999959
 30
0.0
 11
4105.0
 21
-1253.9999999999959
 31
0.0
1001
ACDBBLOCKREPETAG
1070
     1
1071
        0
1005
122399
  0
LINE
  5
12239A
  8
CENTER
 10
4000.0
 20
-1162.725335570779
 30
0.0
 11
4000.0
 21
-1345.274664429212
 31
0.0
1001
ACDBBLOCKREPETAG
1070
     1
1071
        1
1005
12239A
  0
CIRCLE
  5
12239B
  8
OBJECT
 10
4000.0
 20
-1253.9999999999959
 30
0.0
 40
50.0
1001
ACDBBLOCKREPETAG
1070
     1
1071
        2
1005
12239B
  0
CIRCLE
  5
12239C
  8
OBJECT
 10
4000.0
 20
-1253.9999999999959
 30
0.0
 40
62.0
1001
ACDBBLOCKREPETAG
1070
     1
1071
        3
1005
12239C
  0
CIRCLE
  5
12239D
  8
SLIM
 10
4078.0
 20
-1253.9999999999959
 30
0.0
 40
5.0
1001
ACDBBLOCKREPETAG
1070
     1
1071
        4
1005
12239D
  0
POLYLINE
  5
12239E
  8
SLIM
 66
     1
 10
0.0
 20
0.0
 30
0.0
 70
     1
1001
ACDBBLOCKREPETAG
1070
     1
1071
        5
1005
12239E
  0
VERTEX
  5
122567
  8
SLIM
 10
4073.092522711886
 20
-1245.4999999999959
 30
0.0
  0
VERTEX
  5
122568
  8
SLIM
 10
4068.185045423772
 20
-1253.9999999999959
 30
0.0
  0
VERTEX
  5
122569
  8
SLIM
 10
4073.092522711886
 20
-1262.4999999999959
 30
0.0
  0
VERTEX
  5
12256A
  8
SLIM
 10
4082.9074772881072
 20
-1262.4999999999959
 30
0.0
  0
VERTEX
  5
12256B
  8
SLIM
 10
4087.8149545762199
 20
-1253.9999999999959
 30
0.0
  0
VERTEX
  5
12256C
  8
SLIM
 10
4082.9074772881072
 20
-1245.4999999999959
 30
0.0
  0
SEQEND
  5
12256D
  8
SLIM
  0
CIRCLE
  5
12239F
  8
SLIM
 10
3961.0
 20
-1186.4500185048089
 30
0.0
 40
4.9999999999999991
1001
ACDBBLOCKREPETAG
1070
     1
1071
        6
1005
12239F
  0
POLYLINE
  5
1223A0
  8
SLIM
 66
     1
 10
0.0
 20
0.0
 30
0.0
 70
     1
1001
ACDBBLOCKREPETAG
1070
     1
1071
        7
1005
1223A0
  0
VERTEX
  5
12256E
  8
SLIM
 10
3956.092522711886
 20
-1194.950018504808
 30
0.0
  0
VERTEX
  5
12256F
  8
SLIM
 10
3965.907477288114
 20
-1194.950018504808
 30
0.0
  0
VERTEX
  5
122570
  8
SLIM
 10
3970.8149545762212
 20
-1186.4500185048089
 30
0.0
  0
VERTEX
  5
122571
  8
SLIM
 10
3965.907477288114
 20
-1177.9500185048089
 30
0.0
  0
VERTEX
  5
122572
  8
SLIM
 10
3956.092522711886
 20
-1177.9500185048089
 30
0.0
  0
VERTEX
  5
122573
  8
SLIM
 10
3951.185045423772
 20
-1186.4500185048089
 30
0.0
  0
SEQEND
  5
122574
  8
SLIM
  0
CIRCLE
  5
1223A1
  8
SLIM
 10
3961.0
 20
-1321.549981495182
 30
0.0
 40
5.0
1001
ACDBBLOCKREPETAG
1070
     1
1071
        8
1005
1223A1
  0
POLYLINE
  5
1223A2
  8
SLIM
 66
     1
 10
0.0
 20
0.0
 30
0.0
 70
     1
1001
ACDBBLOCKREPETAG
1070
     1
1071
        9
1005
1223A2
  0
VERTEX
  5
122575
  8
SLIM
 10
3970.8149545762212
 20
-1321.549981495182
 30
0.0
  0
VERTEX
  5
122576
  8
SLIM
 10
3965.9074772881072
 20
-1313.0499814951791
 30
0.0
  0
VERTEX
  5
122577
  8
SLIM
 10
3956.092522711886
 20
-1313.0499814951829
 30
0.0
  0
VERTEX
  5
122578
  8
SLIM
 10
3951.185045423772
 20
-1321.5499814951791
 30
0.0
  0
VERTEX
  5
122579
  8
SLIM
 10
3956.092522711886
 20
-1330.049981495182
 30
0.0
  0
VERTEX
  5
12257A
  8
SLIM
 10
3965.907477288114
 20
-1330.0499814951791
 30
0.0
  0
SEQEND
  5
12257B
  8
SLIM
  0
ARC
  5
1223A3
  8
OBJECT
 10
4000.0
 20
-1253.9999999999959
 30
0.0
 40
76.0
 50
34.863837954142063
 51
85.136162045732945
1001
ACDBBLOCKREPETAG
1070
     1
1071
       30
1005
1223A3
  0
ARC
  5
1223A4
  8
OBJECT
 10
4000.0
 20
-1253.9999999999959
 30
0.0
 40
76.0
 50
154.86383795430939
 51
205.1361620456905
1001
ACDBBLOCKREPETAG
1070
     1
1071
       31
1005
1223A4
  0
ARC
  5
1223A5
  8
OBJECT
 10
4000.0
 20
-1253.9999999999959
 30
0.0
 40
76.0
 50
274.86383795426718
 51
325.13616204585799
1001
ACDBBLOCKREPETAG
1070
     1
1071
       32
1005
1223A5
  0
ARC
  5
1223A6
  8
OBJECT
 10
4078.0
 20
-1253.9999999999959
 30
0.0
 40
12.0
 50
325.13616204585799
 51
34.863837954142063
1001
ACDBBLOCKREPETAG
1070
     1
1071
       33
1005
1223A6
  0
LINE
  5
1223A7
  8
OBJECT
 10
4087.846153846167
 20
-1247.140462520133
 30
0.0
 11
4062.3589743590492
 21
-1210.5562626275339
 31
0.0
1001
ACDBBLOCKREPETAG
1070
     1
1071
       34
1005
1223A7
  0
LINE
  5
1223A8
  8
OBJECT
 10
4087.8461538461711
 20
-1260.859537479856
 30
0.0
 11
4062.3589743590492
 21
-1297.4437373724591
 31
0.0
1001
ACDBBLOCKREPETAG
1070
     1
1071
       35
1005
1223A8
  0
ARC
  5
1223A9
  8
OBJECT
 10
3961.0
 20
-1186.45001850481
 30
0.0
 40
12.0
 50
85.136162045942811
 51
154.86383795411109
1001
ACDBBLOCKREPETAG
1070
     1
1071
       36
1005
1223A9
  0
LINE
  5
1223AA
  8
OBJECT
 10
3950.136389361146
 20
-1181.3527678843909
 30
0.0
 11
3931.1971326205862
 21
-1221.7174127373471
 31
0.0
1001
ACDBBLOCKREPETAG
1070
     1
1071
       37
1005
1223AA
  0
LINE
  5
1223AB
  8
OBJECT
 10
3962.0174567926852
 20
-1174.493230404526
 30
0.0
 11
4006.4438930203678
 21
-1178.2736753648851
 31
0.0
1001
ACDBBLOCKREPETAG
1070
     1
1071
       38
1005
1223AB
  0
ARC
  5
1223AC
  8
OBJECT
 10
3961.0
 20
-1321.5499814951811
 30
0.0
 40
12.0
 50
205.13616204588891
 51
274.8638379540572
1001
ACDBBLOCKREPETAG
1070
     1
1071
       39
1005
1223AC
  0
LINE
  5
1223AD
  8
OBJECT
 10
3962.0174567926879
 20
-1333.5067695954631
 30
0.0
 11
4006.4438930203651
 21
-1329.726324635106
 31
0.0
1001
ACDBBLOCKREPETAG
1070
     1
1071
       40
1005
1223AD
  0
LINE
  5
1223AE
  8
OBJECT
 10
3950.136389361146
 20
-1326.647232115605
 30
0.0
 11
3931.1971326205821
 21
-1286.2825872626429
 31
0.0
1001
ACDBBLOCKREPETAG
1070
     1
1071
       41
1005
1223AE
  0
TEXT
  5
1223AF
  8
SLIM
 10
3853.75
 20
-1521.4999999999959
 30
0.0
 40
35.0
  1
両受けスタイル（W）
 41
0.75
  0
TEXT
  5
1223B0
  8
SLIM
 10
5811.8000000000002
 20
-1618.9999999999991
 30
0.0
 40
28.0
  1
※ 対応スラブ厚　150mm以上
 41
0.75
  0
TEXT
  5
1223B1
  8
SLIM
 10
5598.8999999999996
 20
-1712.333333333333
 30
0.0
 40
28.0
  1
国土交通大臣認定・（一財）日本消防設備安全センター性能評定取得品
 41
0.75
  0
TEXT
  5
1223B2
  8
SLIM
 10
5631.1000000000004
 20
-1758.9999999999991
 30
0.0
 40
28.0
  1
注）ご採用にあたり、認定書及び評定書の内容をご確認ください。
 41
0.75
  0
TEXT
  5
1223B3
  8
SLIM
 10
11824.6
 20
-1577.9999999999959
 30
0.0
 40
28.0
  1
※ 対応スラブ厚　150～260
 41
0.75
  0
TEXT
  5
1223B4
  8
SLIM
 10
11598.9
 20
-1671.3333333333289
 30
0.0
 40
28.0
  1
国土交通大臣認定・（一財）日本消防設備安全センター性能評定取得品
 41
0.75
  0
TEXT
  5
1223B5
  8
SLIM
 10
11631.1
 20
-1717.9999999999959
 30
0.0
 40
28.0
  1
注）ご採用にあたり、認定書及び評定書の内容をご確認ください。
 41
0.75
  0
TEXT
  5
1223B6
  8
SLIM
 10
9824.6000000000004
 20
-1577.9999999999959
 30
0.0
 40
28.0
  1
※ 対応スラブ厚　180～260
 41
0.75
  0
TEXT
  5
1223B7
  8
SLIM
 10
9598.8999999999996
 20
-1671.3333333333289
 30
0.0
 40
28.0
  1
国土交通大臣認定・（一財）日本消防設備安全センター性能評定取得品
 41
0.75
  0
TEXT
  5
1223B8
  8
SLIM
 10
9631.1000000000004
 20
-1717.9999999999959
 30
0.0
 40
28.0
  1
注）ご採用にあたり、認定書及び評定書の内容をご確認ください。
 41
0.75
  0
TEXT
  5
1223B9
  8
SLIM
 10
7771.3999999999987
 20
-1310.666666666664
 30
0.0
 40
28.0
  1
※ 対応スラブ厚　180｛150｝～220
 41
0.75
  0
TEXT
  5
1223BA
  8
SLIM
 10
7733.2999999999975
 20
-1357.333333333331
 30
0.0
 40
28.0
  1
｛｝内はカンペイ立て管との組み合わせの場合
 41
0.75
  0
TEXT
  5
1223BB
  8
SLIM
 10
7598.8999999999969
 20
-1450.666666666664
 30
0.0
 40
28.0
  1
国土交通大臣認定・（一財）日本消防設備安全センター性能評定取得品
 41
0.75
  0
TEXT
  5
1223BC
  8
SLIM
 10
7631.1000000000004
 20
-1497.333333333331
 30
0.0
 40
28.0
  1
注）ご採用にあたり、認定書及び評定書の内容をご確認ください。
 41
0.75
  0
TEXT
  5
1223BD
  8
SLIM
 10
9739.1250000000018
 20
-1521.4999999999959
 30
0.0
 40
35.0
  1
両受けスタイル（W）＋シンドカット
 41
0.75
  0
TEXT
  5
1223BE
  8
SLIM
 10
11743.5
 20
-1521.4999999999959
 30
0.0
 40
35.0
  1
カンペイ君（WKP）＋シンドカット
 41
0.75
  0
TEXT
  5
1223BF
  8
SLIM
 10
7741.625
 20
-1247.499999999998
 30
0.0
 40
35.0
  1
片受けスタイル（S）＋シンドカット
 41
0.75
  0
TEXT
  5
1223C0
  8
SLIM
 10
5858.1250000000009
 20
-1562.4999999999991
 30
0.0
 40
35.0
  1
カンペイ君（WKP）
 41
0.75
  0
TEXT
  5
1223C1
  8
SLIM
 10
1856.25
 20
-1247.499999999998
 30
0.0
 40
35.0
  1
片受けスタイル（S）
 41
0.75
  0
TEXT
  5
1223C2
  8
SLIM
 10
0.0
 20
369.99999999999989
 30
0.0
 40
100.0
  1
4SL-Z6-P110-WKP
 41
0.75
  0
VIEWPORT
  5
F6BA7
 67
     1
  8
0
 10
145.33033752441401
 20
101.8328354358673
 30
0.0
 40
334.0025019414623
 41
222.19657968139651
 68
     1
 69
     1
1001
ACAD
1000
MVIEW
1002
{
1070
    16
1010
0.0
1020
0.0
1030
0.0
1010
0.0
1020
0.0
1030
1.0
1040
0.0
1040
222.19657968139651
1040
145.33033752441401
1040
101.8328354358673
1040
50.0
1040
0.0
1040
0.0
1070
     0
1070
     0
1070
     1
1070
     1
1070
     0
1070
     0
1070
     0
1070
     0
1040
0.0
1040
0.0
1040
0.0
1040
10.0
1040
10.0
1040
10.0
1040
10.0
1070
     0
1002
{
1002
}
1002
}
  0
VIEWPORT
  5
F6BA9
 67
     1
  8
OBJECT
 10
145.3303314447403
 20
101.8328338861465
 30
0.0
 40
232.5285303115844
 41
162.93253421783439
 68
     2
 69
     2
1001
ACAD
1000
MVIEW
1002
{
1070
    16
1010
0.0
1020
0.0
1030
0.0
1010
0.0
1020
0.0
1030
1.0
1040
0.0
1040
25942.55904403147
1040
2377.604457077377
1040
-7591.5176687056619
1040
50.0
1040
0.0
1040
0.0
1070
     0
1070
   600
1070
     1
1070
     1
1070
     0
1070
     0
1070
     0
1070
     0
1040
0.0
1040
0.0
1040
0.0
1040
1.0
1040
1.0
1040
0.0
1040
0.0
1070
     0
1002
{
1002
}
1002
}
  0
ENDSEC
  0
EOF
