  0
SECTION
  2
HEADER
  9
$ACADVER
  1
AC1009
  9
$INSBASE
 10
0.0
 20
0.0
 30
0.0
  9
$EXTMIN
 10
0.0
 20
-1859.0
 30
0.0
  9
$EXTMAX
 10
12399.70000000001
 20
770.0
 30
0.0
  9
$LIMMIN
 10
0.0
 20
0.0
  9
$LIMMAX
 10
210.0
 20
297.0
  9
$ORTHOMODE
 70
     0
  9
$REGENMODE
 70
     1
  9
$FILLMODE
 70
     1
  9
$QTEXTMODE
 70
     0
  9
$MIRRTEXT
 70
     0
  9
$DRAGMODE
 70
     2
  9
$LTSCALE
 40
1.0
  9
$OSMODE
 70
   125
  9
$ATTMODE
 70
     1
  9
$TEXTSIZE
 40
4.0
  9
$TRACEWID
 40
0.05
  9
$TEXTSTYLE
  7
STANDARD
  9
$CLAYER
  8
OBJECT
  9
$CELTYPE
  6
BYLAYER
  9
$CECOLOR
 62
   256
  9
$DIMSCALE
 40
10.0
  9
$DIMASZ
 40
2.0
  9
$DIMEXO
 40
1.0
  9
$DIMDLI
 40
10.0
  9
$DIMRND
 40
0.0
  9
$DIMDLE
 40
0.0
  9
$DIMEXE
 40
1.0
  9
$DIMTP
 40
0.0
  9
$DIMTM
 40
0.0
  9
$DIMTXT
 40
3.2000000000000002
  9
$DIMCEN
 40
0.0
  9
$DIMTSZ
 40
0.0
  9
$DIMTOL
 70
     0
  9
$DIMLIM
 70
     0
  9
$DIMTIH
 70
     0
  9
$DIMTOH
 70
     0
  9
$DIMSE1
 70
     0
  9
$DIMSE2
 70
     0
  9
$DIMTAD
 70
     1
  9
$DIMZIN
 70
     8
  9
$DIMBLK
  1
OPEN30
  9
$DIMASO
 70
     1
  9
$DIMSHO
 70
     1
  9
$DIMPOST
  1

  9
$DIMAPOST
  1

  9
$DIMALT
 70
     0
  9
$DIMALTD
 70
     2
  9
$DIMALTF
 40
25.399999999999999
  9
$DIMLFAC
 40
1.0
  9
$DIMTOFL
 70
     1
  9
$DIMTVP
 40
0.0
  9
$DIMTIX
 70
     0
  9
$DIMSOXD
 70
     0
  9
$DIMSAH
 70
     0
  9
$DIMBLK1
  1

  9
$DIMBLK2
  1

  9
$DIMSTYLE
  2
S10
  9
$DIMCLRD
 70
   256
  9
$DIMCLRE
 70
   256
  9
$DIMCLRT
 70
   256
  9
$DIMTFAC
 40
1.0
  9
$DIMGAP
 40
0.9
  9
$LUNITS
 70
     2
  9
$LUPREC
 70
     2
  9
$SKETCHINC
 40
0.1
  9
$FILLETRAD
 40
0.0
  9
$AUNITS
 70
     0
  9
$AUPREC
 70
     2
  9
$MENU
  1
ACAD
  9
$ELEVATION
 40
0.0
  9
$PELEVATION
 40
0.0
  9
$THICKNESS
 40
0.0
  9
$LIMCHECK
 70
     0
  9
$BLIPMODE
 70
     0
  9
$CHAMFERA
 40
2.0
  9
$CHAMFERB
 40
2.0
  9
$SKPOLY
 70
     0
  9
$TDCREATE
 40
2453095.4929404748
  9
$TDUPDATE
 40
2457303.4427366899
  9
$TDINDWG
 40
18.500031088
  9
$TDUSRTIMER
 40
18.500030370400001
  9
$USRTIMER
 70
     1
  9
$ANGBASE
 50
0.0
  9
$ANGDIR
 70
     0
  9
$PDMODE
 70
    35
  9
$PDSIZE
 40
2.0
  9
$PLINEWID
 40
0.0
  9
$COORDS
 70
     1
  9
$SPLFRAME
 70
     0
  9
$SPLINETYPE
 70
     6
  9
$SPLINESEGS
 70
     8
  9
$ATTDIA
 70
     1
  9
$ATTREQ
 70
     1
  9
$HANDLING
 70
     1
  9
$HANDSEED
  5
12C0CD
  9
$SURFTAB1
 70
     6
  9
$SURFTAB2
 70
     6
  9
$SURFTYPE
 70
     6
  9
$SURFU
 70
     6
  9
$SURFV
 70
     6
  9
$UCSNAME
  2

  9
$UCSORG
 10
0.0
 20
0.0
 30
0.0
  9
$UCSXDIR
 10
1.0
 20
0.0
 30
0.0
  9
$UCSYDIR
 10
0.0
 20
1.0
 30
0.0
  9
$PUCSNAME
  2

  9
$PUCSORG
 10
0.0
 20
0.0
 30
0.0
  9
$PUCSXDIR
 10
1.0
 20
0.0
 30
0.0
  9
$PUCSYDIR
 10
0.0
 20
1.0
 30
0.0
  9
$USERI1
 70
     0
  9
$USERI2
 70
     0
  9
$USERI3
 70
     0
  9
$USERI4
 70
     0
  9
$USERI5
 70
     0
  9
$USERR1
 40
0.0
  9
$USERR2
 40
0.0
  9
$USERR3
 40
0.0
  9
$USERR4
 40
0.0
  9
$USERR5
 40
0.0
  9
$WORLDVIEW
 70
     1
  9
$SHADEDGE
 70
     3
  9
$SHADEDIF
 70
    70
  9
$TILEMODE
 70
     1
  9
$MAXACTVP
 70
    64
  9
$PLIMCHECK
 70
     0
  9
$PEXTMIN
 10
29.066066288948051
 20
20.366566777229309
 30
0.0
  9
$PEXTMAX
 10
261.5945966005325
 20
183.29910099506381
 30
0.0
  9
$PLIMMIN
 10
-3.17498779296875
 20
-3.1749999523162842
  9
$PLIMMAX
 10
293.83566284179687
 20
206.8406708240509
  9
$UNITMODE
 70
     0
  9
$VISRETAIN
 70
     1
  9
$PLINEGEN
 70
     0
  9
$PSLTSCALE
 70
     1
  0
ENDSEC
  0
SECTION
  2
TABLES
  0
TABLE
  2
VPORT
 70
     1
  0
VPORT
  2
*ACTIVE
 70
     0
 10
0.0
 20
0.0
 11
1.0
 21
1.0
 12
6532.2698869811202
 22
-971.7193034111433
 13
0.0
 23
0.0
 14
1.0
 24
1.0
 15
0.0
 25
0.0
 16
0.0
 26
0.0
 36
1.0
 17
0.0
 27
0.0
 37
0.0
 40
8566.1270319623927
 41
1.70911528150134
 42
50.0
 43
0.0
 44
0.0
 50
0.0
 51
0.0
 71
     0
 72
   600
 73
     1
 74
     1
 75
     0
 76
     0
 77
     0
 78
     0
  0
ENDTAB
  0
TABLE
  2
LTYPE
 70
     3
  0
LTYPE
  2
CONTINUOUS
 70
     0
  3
Solid line
 72
    65
 73
     0
 40
0.0
  0
LTYPE
  2
ACAD_ISO08W100
 70
     0
  3
ISO long-dash short-dash ____ __ ____ __ ____ _
 72
    65
 73
     4
 40
36.0
 49
24.0
 49
-3.0
 49
6.0
 49
-3.0
  0
LTYPE
  2
ACAD_ISO02W100
 70
     0
  3
ISO dash __ __ __ __ __ __ __ __ __ __ __ __ __
 72
    65
 73
     2
 40
15.0
 49
12.0
 49
-3.0
  0
ENDTAB
  0
TABLE
  2
LAYER
 70
     7
  0
LAYER
  2
0
 70
     0
 62
     7
  6
CONTINUOUS
  0
LAYER
  2
OBJECT
 70
     0
 62
     4
  6
CONTINUOUS
  0
LAYER
  2
DEFPOINTS
 70
     0
 62
     7
  6
CONTINUOUS
  0
LAYER
  2
HIDDEN
 70
     0
 62
     2
  6
ACAD_ISO02W100
  0
LAYER
  2
CENTER
 70
     0
 62
     2
  6
ACAD_ISO08W100
  0
LAYER
  2
DOTS
 70
     0
 62
     1
  6
CONTINUOUS
  0
LAYER
  2
SLIM
 70
     0
 62
     2
  6
CONTINUOUS
  0
ENDTAB
  0
TABLE
  2
STYLE
 70
     2
  0
STYLE
  2
STANDARD
 70
     0
 40
0.0
 41
0.75
 50
0.0
 71
     0
 42
4.0
  3
simplex.shx
  4
bigfont.shx
  0
ENDTAB
  0
TABLE
  2
VIEW
 70
     0
  0
ENDTAB
  0
TABLE
  2
UCS
 70
     0
  0
ENDTAB
  0
TABLE
  2
APPID
 70
    18
  0
APPID
  2
ACAD
 70
     0
  0
APPID
  2
ACADANNOTATIVE
 70
     0
  0
APPID
  2
ACAD_PSEXT
 70
     0
  0
APPID
  2
ACAD_EXEMPT_FROM_CAD_STANDARDS
 70
     0
  0
APPID
  2
ACAECLAYERSTANDARD
 70
     0
  0
APPID
  2
ACAUTHENVIRON
 70
     0
  0
APPID
  2
ACDBDYNAMICBLOCKTRUENAME
 70
     0
  0
APPID
  2
ACDBDYNAMICBLOCKGUID
 70
     0
  0
APPID
  2
ACDBBLOCKREPETAG
 70
     0
  0
APPID
  2
ACDBBLOCKREPBTAG
 70
     0
  0
APPID
  2
ACAD_NAV_VCDISPLAY
 70
     0
  0
APPID
  2
ACAD_DSTYLE_DIMRADIAL_EXTENSION
 70
     0
  0
APPID
  2
ACAD_DSTYLE_DIMJAG
 70
     0
  0
APPID
  2
ACAD_DSTYLE_DIMTALN
 70
     0
  0
APPID
  2
ACADANNOPO
 70
     0
  0
APPID
  2
GRADIENTCOLOR1ACI
 70
     0
  0
APPID
  2
GRADIENTCOLOR2ACI
 70
     0
  0
APPID
  2
ACAD_MLEADERVER
 70
     0
  0
ENDTAB
  0
TABLE
  2
DIMSTYLE
 70
     3
  0
DIMSTYLE
  2
STANDARD
 70
     0
  3

  4

  5

  6

  7

 40
1.0
 41
0.18
 42
0.0625
 43
0.38
 44
0.18
 45
0.0
 46
0.0
 47
0.0
 48
0.0
140
0.18
141
0.09
142
0.0
143
25.399999999999999
144
1.0
145
0.0
146
1.0
147
0.09
 71
     0
 72
     0
 73
     1
 74
     1
 75
     0
 76
     0
 77
     0
 78
     0
170
     0
171
     2
172
     0
173
     0
174
     0
175
     0
176
     0
177
     0
178
     0
  0
DIMSTYLE
  2
S10
 70
     0
  3

  4

  5

  6

  7

 40
10.0
 41
2.0
 42
1.0
 43
10.0
 44
1.0
 45
0.0
 46
0.0
 47
0.0
 48
0.0
140
3.2000000000000002
141
0.0
142
0.0
143
25.399999999999999
144
1.0
145
0.0
146
1.0
147
0.9
 71
     0
 72
     0
 73
     0
 74
     0
 75
     0
 76
     0
 77
     1
 78
     8
170
     0
171
     2
172
     1
173
     0
174
     0
175
     0
176
   256
177
   256
178
   256
  0
ENDTAB
  0
ENDSEC
  0
SECTION
  2
BLOCKS
  0
BLOCK
  8
0
  2
$MODEL_SPACE
 70
     0
 10
0.0
 20
0.0
 30
0.0
  3
$MODEL_SPACE
  1

  0
ENDBLK
  5
12BFF2
  8
0
  0
BLOCK
 67
     1
  8
0
  2
$PAPER_SPACE
 70
     0
 10
0.0
 20
0.0
 30
0.0
  3
$PAPER_SPACE
  1

  0
ENDBLK
  5
12BFEE
 67
     1
  8
0
  0
BLOCK
  8
0
  2
_OPEN30
 70
     0
 10
0.0
 20
0.0
 30
0.0
  3
_OPEN30
  1

  0
LINE
  5
202
  8
0
  6
BYBLOCK
 62
     0
 10
-1.0
 20
0.26794919
 30
0.0
 11
0.0
 21
0.0
 31
0.0
  0
LINE
  5
203
  8
0
  6
BYBLOCK
 62
     0
 10
0.0
 20
0.0
 30
0.0
 11
-1.0
 21
-0.26794919
 31
0.0
  0
LINE
  5
204
  8
0
  6
BYBLOCK
 62
     0
 10
0.0
 20
0.0
 30
0.0
 11
-1.0
 21
0.0
 31
0.0
  0
ENDBLK
  5
206
  8
0
  0
ENDSEC
  0
SECTION
  2
ENTITIES
  0
LINE
  5
12B9A1
  8
OBJECT
 10
11923.0
 20
-570.99999999999432
 30
0.0
 11
11923.0
 21
-549.99999999999432
 31
0.0
1001
ACDBBLOCKREPETAG
1070
     1
1071
       36
1005
12B9A1
  0
LINE
  5
12B9A2
  8
OBJECT
 10
11923.0
 20
-549.99999999999432
 30
0.0
 11
12077.0
 21
-549.99999999999432
 31
0.0
1001
ACDBBLOCKREPETAG
1070
     1
1071
       37
1005
12B9A2
  0
LINE
  5
12B9A3
  8
HIDDEN
 10
11943.0
 20
-619.99999999999432
 30
0.0
 11
12057.0
 21
-619.99999999999432
 31
0.0
1001
ACDBBLOCKREPETAG
1070
     1
1071
       38
1005
12B9A3
  0
LINE
  5
12B9A4
  8
OBJECT
 10
12077.0
 20
-549.99999999999432
 30
0.0
 11
12077.0
 21
-570.99999999999432
 31
0.0
1001
ACDBBLOCKREPETAG
1070
     1
1071
       39
1005
12B9A4
  0
LINE
  5
12B9A5
  8
OBJECT
 10
12077.0
 20
-570.99999999999432
 30
0.0
 11
11923.0
 21
-570.99999999999432
 31
0.0
1001
ACDBBLOCKREPETAG
1070
     1
1071
       40
1005
12B9A5
  0
LINE
  5
12B9A6
  8
CENTER
 10
12000.0
 20
-534.99999999999432
 30
0.0
 11
12000.0
 21
-769.9999999999942
 31
0.0
1001
ACDBBLOCKREPETAG
1070
     1
1071
       41
1005
12B9A6
  0
LINE
  5
12B9A7
  8
OBJECT
 10
11928.0
 20
-570.99999999999432
 30
0.0
 11
11928.0
 21
-633.99999999999432
 31
0.0
1001
ACDBBLOCKREPETAG
1070
     1
1071
       42
1005
12B9A7
  0
LINE
  5
12B9A8
  8
OBJECT
 10
12072.0
 20
-633.99999999999432
 30
0.0
 11
12072.0
 21
-570.99999999999432
 31
0.0
1001
ACDBBLOCKREPETAG
1070
     1
1071
       43
1005
12B9A8
  0
LINE
  5
12B9A9
  8
OBJECT
 10
11920.0
 20
-757.9999999999942
 30
0.0
 11
12080.0
 21
-757.9999999999942
 31
0.0
1001
ACDBBLOCKREPETAG
1070
     1
1071
       44
1005
12B9A9
  0
LINE
  5
12B9AA
  8
OBJECT
 10
12080.0
 20
-633.99999999999432
 30
0.0
 11
11920.0
 21
-633.99999999999432
 31
0.0
1001
ACDBBLOCKREPETAG
1070
     1
1071
       45
1005
12B9AA
  0
LINE
  5
12B9AB
  8
OBJECT
 10
11920.0
 20
-757.9999999999942
 30
0.0
 11
11920.0
 21
-769.9999999999942
 31
0.0
1001
ACDBBLOCKREPETAG
1070
     1
1071
       46
1005
12B9AB
  0
LINE
  5
12B9AC
  8
OBJECT
 10
11920.0
 20
-769.9999999999942
 30
0.0
 11
12080.0
 21
-769.9999999999942
 31
0.0
1001
ACDBBLOCKREPETAG
1070
     1
1071
       47
1005
12B9AC
  0
LINE
  5
12B9AD
  8
OBJECT
 10
12080.0
 20
-769.9999999999942
 30
0.0
 11
12080.0
 21
-757.9999999999942
 31
0.0
1001
ACDBBLOCKREPETAG
1070
     1
1071
       48
1005
12B9AD
  0
ARC
  5
12B9AE
  8
OBJECT
 10
12200.687274671671
 20
-749.40809941010195
 30
0.0
 40
170.6350503965856
 50
137.44134459184301
 51
149.91949581337221
1001
ACDBBLOCKREPETAG
1070
     1
1071
       52
1005
12B9AE
  0
ARC
  5
12B9AF
  8
OBJECT
 10
12200.687274671671
 20
-642.59190058988645
 30
0.0
 40
170.6350503965856
 50
210.08050418662771
 51
222.55865540815699
1001
ACDBBLOCKREPETAG
1070
     1
1071
       53
1005
12B9AF
  0
ARC
  5
12B9B0
  8
OBJECT
 10
11799.312725328329
 20
-749.40809941010195
 30
0.0
 40
170.6350503965856
 50
30.080504186787142
 51
42.558655408456282
1001
ACDBBLOCKREPETAG
1070
     1
1071
       54
1005
12B9B0
  0
ARC
  5
12B9B1
  8
OBJECT
 10
11799.312725328329
 20
-642.59190058988645
 30
0.0
 40
170.6350503965856
 50
317.44134459154373
 51
329.9194958132129
1001
ACDBBLOCKREPETAG
1070
     1
1071
       55
1005
12B9B1
  0
POINT
  5
12B9B2
  8
DOTS
 10
12000.0
 20
-754.9999999999942
 30
0.0
1001
ACDBBLOCKREPETAG
1070
     1
1071
      184
1005
12B9B2
  0
LINE
  5
12B9B3
  8
SLIM
 10
11945.256670426101
 20
-137.99999999999909
 30
0.0
 11
11955.954840369581
 21
-127.30183005652231
 31
0.0
1001
GRADIENTCOLOR1ACI
1070
     5
1001
GRADIENTCOLOR2ACI
1070
     2
1001
ACAD
1010
0.0
1020
0.0
1030
0.0
1001
ACDBBLOCKREPETAG
1070
     1
1071
      428
1005
12B9B3
  0
LINE
  5
12B9B4
  8
SLIM
 10
11954.23692654717
 20
-137.99999999999909
 30
0.0
 11
11972.75077447633
 21
-119.4861520708364
 31
0.0
1001
GRADIENTCOLOR1ACI
1070
     5
1001
GRADIENTCOLOR2ACI
1070
     2
1001
ACAD
1010
0.0
1020
0.0
1030
0.0
1001
ACDBBLOCKREPETAG
1070
     1
1071
      429
1005
12B9B4
  0
LINE
  5
12B9B5
  8
SLIM
 10
11973.521224312461
 20
-127.6959583557812
 30
0.0
 11
11984.857514674861
 21
-116.359667993377
 31
0.0
1001
GRADIENTCOLOR1ACI
1070
     5
1001
GRADIENTCOLOR2ACI
1070
     2
1001
ACAD
1010
0.0
1020
0.0
1030
0.0
1001
ACDBBLOCKREPETAG
1070
     1
1071
      430
1005
12B9B5
  0
LINE
  5
12B9B6
  8
SLIM
 10
11985.894417146121
 20
-124.30302164318159
 30
0.0
 11
11995.05338120025
 21
-115.1440575890517
 31
0.0
1001
GRADIENTCOLOR1ACI
1070
     5
1001
GRADIENTCOLOR2ACI
1070
     2
1001
ACAD
1010
0.0
1020
0.0
1030
0.0
1001
ACDBBLOCKREPETAG
1070
     1
1071
      431
1005
12B9B6
  0
LINE
  5
12B9B7
  8
SLIM
 10
11996.077732749211
 20
-123.0999621611699
 30
0.0
 11
12000.0
 21
-119.1776949103767
 31
0.0
1001
GRADIENTCOLOR1ACI
1070
     5
1001
GRADIENTCOLOR2ACI
1070
     2
1001
ACAD
1010
0.0
1020
0.0
1030
0.0
1001
ACDBBLOCKREPETAG
1070
     1
1071
      432
1005
12B9B7
  0
LINE
  5
12B9B8
  8
SLIM
 10
12000.0
 20
-119.1776949103767
 30
0.0
 11
12004.0797313529
 21
-115.0979635574724
 31
0.0
1001
GRADIENTCOLOR1ACI
1070
     5
1001
GRADIENTCOLOR2ACI
1070
     2
1001
ACAD
1010
0.0
1020
0.0
1030
0.0
1001
ACDBBLOCKREPETAG
1070
     1
1071
      433
1005
12B9B8
  0
LINE
  5
12B9B9
  8
SLIM
 10
12004.995720254279
 20
-123.1622307771683
 30
0.0
 11
12012.267978410569
 21
-115.88997262087101
 31
0.0
1001
GRADIENTCOLOR1ACI
1070
     5
1001
GRADIENTCOLOR2ACI
1070
     2
1001
ACAD
1010
0.0
1020
0.0
1030
0.0
1001
ACDBBLOCKREPETAG
1070
     1
1071
      434
1005
12B9B9
  0
LINE
  5
12B9BA
  8
SLIM
 10
12013.028059366959
 20
-124.1101477855505
 30
0.0
 11
12019.799941457361
 21
-117.3382656951526
 31
0.0
1001
GRADIENTCOLOR1ACI
1070
     5
1001
GRADIENTCOLOR2ACI
1070
     2
1001
ACAD
1010
0.0
1020
0.0
1030
0.0
1001
ACDBBLOCKREPETAG
1070
     1
1071
      435
1005
12B9BA
  0
LINE
  5
12B9BB
  8
SLIM
 10
12020.374081314239
 20
-125.7443819593383
 30
0.0
 11
12026.787203867279
 21
-119.3312594063044
 31
0.0
1001
GRADIENTCOLOR1ACI
1070
     5
1001
GRADIENTCOLOR2ACI
1070
     2
1001
ACAD
1010
0.0
1020
0.0
1030
0.0
1001
ACDBBLOCKREPETAG
1070
     1
1071
      436
1005
12B9BB
  0
LINE
  5
12B9BC
  8
SLIM
 10
12027.15247199887
 20
-127.946247395778
 30
0.0
 11
12033.303003076029
 21
-121.7957163186195
 31
0.0
1001
GRADIENTCOLOR1ACI
1070
     5
1001
GRADIENTCOLOR2ACI
1070
     2
1001
ACAD
1010
0.0
1020
0.0
1030
0.0
1001
ACDBBLOCKREPETAG
1070
     1
1071
      437
1005
12B9BC
  0
LINE
  5
12B9BD
  8
SLIM
 10
12033.43909865133
 20
-130.63987686439191
 30
0.0
 11
12039.397311984379
 21
-124.6816635313439
 31
0.0
1001
GRADIENTCOLOR1ACI
1070
     5
1001
GRADIENTCOLOR2ACI
1070
     2
1001
ACAD
1010
0.0
1020
0.0
1030
0.0
1001
ACDBBLOCKREPETAG
1070
     1
1071
      438
1005
12B9BD
  0
LINE
  5
12B9BE
  8
SLIM
 10
12039.284224621801
 20
-133.77500701499321
 30
0.0
 11
12045.10477053437
 21
-127.95446110242381
 31
0.0
1001
GRADIENTCOLOR1ACI
1070
     5
1001
GRADIENTCOLOR2ACI
1070
     2
1001
ACAD
1010
0.0
1020
0.0
1030
0.0
1001
ACDBBLOCKREPETAG
1070
     1
1071
      439
1005
12B9BE
  0
LINE
  5
12B9BF
  8
SLIM
 10
12044.721280169801
 20
-137.31820758805651
 30
0.0
 11
12050.449155789191
 21
-131.59033196866449
 31
0.0
1001
GRADIENTCOLOR1ACI
1070
     5
1001
GRADIENTCOLOR2ACI
1070
     2
1001
ACAD
1010
0.0
1020
0.0
1030
0.0
1001
ACDBBLOCKREPETAG
1070
     1
1071
      440
1005
12B9BF
  0
LINE
  5
12B9C0
  8
SLIM
 10
12053.01974387892
 20
-137.99999999999909
 30
0.0
 11
12055.445994186401
 21
-135.57374969252561
 31
0.0
1001
GRADIENTCOLOR1ACI
1070
     5
1001
GRADIENTCOLOR2ACI
1070
     2
1001
ACAD
1010
0.0
1020
0.0
1030
0.0
1001
ACDBBLOCKREPETAG
1070
     1
1071
      441
1005
12B9C0
  0
LINE
  5
12B9C1
  8
CENTER
 10
12000.0
 20
-279.99999999999909
 30
0.0
 11
12000.0
 21
-99.999999999999091
 31
0.0
1001
ACDBBLOCKREPETAG
1070
     1
1071
      160
1005
12B9C1
  0
CIRCLE
  5
12B9C2
  8
OBJECT
 10
12000.0
 20
-199.99999999999909
 30
0.0
 40
70.0
1001
ACDBBLOCKREPETAG
1070
     1
1071
      161
1005
12B9C2
  0
CIRCLE
  5
12B9C3
  8
OBJECT
 10
12000.0
 20
-199.99999999999909
 30
0.0
 40
77.0
1001
ACDBBLOCKREPETAG
1070
     1
1071
      162
1005
12B9C3
  0
LINE
  5
12B9C4
  8
OBJECT
 10
12045.661800227321
 20
-137.99999999999909
 30
0.0
 11
12080.0
 21
-137.99999999999909
 31
0.0
1001
ACDBBLOCKREPETAG
1070
     1
1071
      164
1005
12B9C4
  0
LINE
  5
12B9C5
  8
OBJECT
 10
12062.0
 20
-261.99999999999909
 30
0.0
 11
12080.0
 21
-261.99999999999909
 31
0.0
1001
ACDBBLOCKREPETAG
1070
     1
1071
      165
1005
12B9C5
  0
LINE
  5
12B9C6
  8
OBJECT
 10
12062.0
 20
-261.99999999999909
 30
0.0
 11
12062.0
 21
-279.99999999999909
 31
0.0
1001
ACDBBLOCKREPETAG
1070
     1
1071
      167
1005
12B9C6
  0
LINE
  5
12B9C7
  8
OBJECT
 10
11938.0
 20
-261.99999999999909
 30
0.0
 11
11938.0
 21
-279.99999999999909
 31
0.0
1001
ACDBBLOCKREPETAG
1070
     1
1071
      168
1005
12B9C7
  0
LINE
  5
12B9C8
  8
OBJECT
 10
11938.0
 20
-261.99999999999909
 30
0.0
 11
11920.0
 21
-261.99999999999909
 31
0.0
1001
ACDBBLOCKREPETAG
1070
     1
1071
      170
1005
12B9C8
  0
LINE
  5
12B9C9
  8
OBJECT
 10
11954.33819977267
 20
-137.99999999999909
 30
0.0
 11
11920.0
 21
-137.99999999999909
 31
0.0
1001
ACDBBLOCKREPETAG
1070
     1
1071
      171
1005
12B9C9
  0
LINE
  5
12B9CA
  8
OBJECT
 10
11945.55277784863
 20
-254.44722215136329
 30
0.0
 11
11938.0
 21
-261.99999999999909
 31
0.0
1001
ACDBBLOCKREPETAG
1070
     1
1071
      180
1005
12B9CA
  0
LINE
  5
12B9CB
  8
OBJECT
 10
12054.447222151361
 20
-254.44722215136329
 30
0.0
 11
12062.0
 21
-261.99999999999909
 31
0.0
1001
ACDBBLOCKREPETAG
1070
     1
1071
      181
1005
12B9CB
  0
ARC
  5
12B9CC
  8
OBJECT
 10
12000.0
 20
-199.99999999999909
 30
0.0
 40
85.0
 50
46.837102859844251
 51
133.16289714015571
1001
ACDBBLOCKREPETAG
1070
     1
1071
      183
1005
12B9CC
  0
LINE
  5
12B9CD
  8
OBJECT
 10
12024.1029330933
 20
-243.80694712371681
 30
0.0
 11
12020.659656999989
 21
-232.55462199999889
 31
0.0
1001
ACDBBLOCKREPETAG
1070
     1
1071
      314
1005
12B9CD
  0
LINE
  5
12B9CE
  8
OBJECT
 10
11986.79274990136
 20
-218.22553374208019
 30
0.0
 11
12020.659656999989
 21
-232.5546219999969
 31
0.0
1001
ACDBBLOCKREPETAG
1070
     1
1071
      316
1005
12B9CE
  0
ARC
  5
12B9CF
  8
OBJECT
 10
11982.8961697619
 20
-227.4351299990567
 30
0.0
 40
10.0
 50
67.066778292911366
 51
154.01473437031629
1001
ACDBBLOCKREPETAG
1070
     1
1071
      317
1005
12B9CF
  0
ARC
  5
12B9D0
  8
OBJECT
 10
11986.148839038129
 20
-225.55386256729159
 30
0.0
 40
7.0
 50
67.066778292911366
 51
154.0147337749826
1001
ACDBBLOCKREPETAG
1070
     1
1071
      318
1005
12B9D0
  0
LINE
  5
12B9D1
  8
OBJECT
 10
11969.4199755553
 20
-243.89888500818171
 30
0.0
 11
11979.85649182323
 21
-222.48688253356801
 31
0.0
1001
ACDBBLOCKREPETAG
1070
     1
1071
      349
1005
12B9D1
  0
LINE
  5
12B9D2
  8
OBJECT
 10
11965.29721690061
 20
-240.71813901882729
 30
0.0
 11
11973.90710226651
 21
-223.05373004430751
 31
0.0
1001
ACDBBLOCKREPETAG
1070
     1
1071
      350
1005
12B9D2
  0
ARC
  5
12B9D3
  8
OBJECT
 10
11976.57969530731
 20
-207.1289369828437
 30
0.0
 40
60.031113246032611
 50
314.07020130422319
 51
322.33936106089681
1001
ACDBBLOCKREPETAG
1070
     1
1071
      351
1005
12B9D3
  0
CIRCLE
  5
12B9D4
  8
OBJECT
 10
12000.0
 20
-199.99999999999909
 30
0.0
 40
53.5
1001
ACDBBLOCKREPETAG
1070
     1
1071
      352
1005
12B9D4
  0
POINT
  5
12B9D5
  8
DOTS
 10
12000.0
 20
-199.99999999999909
 30
0.0
 50
270.0
1001
ACDBBLOCKREPETAG
1070
     1
1071
      364
1005
12B9D5
  0
ARC
  5
12B9D6
  8
OBJECT
 10
12000.0
 20
-199.99999999999909
 30
0.0
 40
50.0
 50
298.81994300000417
 51
228.5237695596397
1001
ACDBBLOCKREPETAG
1070
     1
1071
      157
1005
12B9D6
  0
LINE
  5
12B9D7
  8
CENTER
 10
12080.0
 20
-199.99999999999909
 30
0.0
 11
11920.0
 21
-199.99999999999909
 31
0.0
1001
ACDBBLOCKREPETAG
1070
     1
1071
      158
1005
12B9D7
  0
LINE
  5
12B9D8
  8
OBJECT
 10
11797.000000000009
 20
-261.99999999999909
 30
0.0
 11
11790.0
 21
-261.99999999999909
 31
0.0
1001
ACDBBLOCKREPETAG
1070
     1
1071
       85
1005
12B9D8
  0
LINE
  5
12B9D9
  8
OBJECT
 10
11790.0
 20
-261.99999999999909
 30
0.0
 11
11790.0
 21
-137.99999999999909
 31
0.0
1001
ACDBBLOCKREPETAG
1070
     1
1071
       86
1005
12B9D9
  0
LINE
  5
12B9DA
  8
OBJECT
 10
11790.0
 20
-137.99999999999909
 30
0.0
 11
11797.000000000009
 21
-137.99999999999909
 31
0.0
1001
ACDBBLOCKREPETAG
1070
     1
1071
       87
1005
12B9DA
  0
LINE
  5
12B9DB
  8
OBJECT
 10
11797.000000000009
 20
-137.99999999999909
 30
0.0
 11
11797.000000000009
 21
-261.99999999999909
 31
0.0
1001
ACDBBLOCKREPETAG
1070
     1
1071
       88
1005
12B9DB
  0
LINE
  5
12B9DC
  8
CENTER
 10
11775.000000000009
 20
-199.99999999999909
 30
0.0
 11
11920.0
 21
-199.99999999999909
 31
0.0
1001
ACDBBLOCKREPETAG
1070
     1
1071
       89
1005
12B9DC
  0
LINE
  5
12B9DD
  8
OBJECT
 10
11850.00002503581
 20
-154.9999999999954
 30
0.0
 11
11914.0
 21
-154.99999999999909
 31
0.0
1001
ACDBBLOCKREPETAG
1070
     1
1071
       90
1005
12B9DD
  0
LINE
  5
12B9DE
  8
OBJECT
 10
11850.00002503581
 20
-244.99999999999909
 30
0.0
 11
11914.0
 21
-244.99999999999909
 31
0.0
1001
ACDBBLOCKREPETAG
1070
     1
1071
       91
1005
12B9DE
  0
LINE
  5
12B9DF
  8
OBJECT
 10
11797.000000000009
 20
-258.99999999999909
 30
0.0
 11
11833.0
 21
-258.99999999999909
 31
0.0
1001
ACDBBLOCKREPETAG
1070
     1
1071
       92
1005
12B9DF
  0
LINE
  5
12B9E0
  8
OBJECT
 10
11833.0
 20
-258.99999999999909
 30
0.0
 11
11833.0
 21
-140.99999999999909
 31
0.0
1001
ACDBBLOCKREPETAG
1070
     1
1071
       93
1005
12B9E0
  0
LINE
  5
12B9E1
  8
OBJECT
 10
11833.0
 20
-140.99999999999909
 30
0.0
 11
11797.000000000009
 21
-140.99999999999909
 31
0.0
1001
ACDBBLOCKREPETAG
1070
     1
1071
       94
1005
12B9E1
  0
LINE
  5
12B9E2
  8
OBJECT
 10
11837.000000000009
 20
-254.49999999999909
 30
0.0
 11
11850.0
 21
-254.49999999999909
 31
0.0
1001
ACDBBLOCKREPETAG
1070
     1
1071
       95
1005
12B9E2
  0
LINE
  5
12B9E3
  8
OBJECT
 10
11850.0
 20
-145.49999999999909
 30
0.0
 11
11837.000000000009
 21
-145.49999999999909
 31
0.0
1001
ACDBBLOCKREPETAG
1070
     1
1071
       96
1005
12B9E3
  0
LINE
  5
12B9E4
  8
OBJECT
 10
11837.000000000009
 20
-145.49999999999909
 30
0.0
 11
11837.000000000009
 21
-254.49999999999909
 31
0.0
1001
ACDBBLOCKREPETAG
1070
     1
1071
       97
1005
12B9E4
  0
LINE
  5
12B9E5
  8
OBJECT
 10
11833.0
 20
-258.99999999999909
 30
0.0
 11
11837.000000000009
 21
-254.49999999999909
 31
0.0
1001
ACDBBLOCKREPETAG
1070
     1
1071
       98
1005
12B9E5
  0
LINE
  5
12B9E6
  8
OBJECT
 10
11833.0
 20
-140.99999999999909
 30
0.0
 11
11837.000000000009
 21
-145.49999999999909
 31
0.0
1001
ACDBBLOCKREPETAG
1070
     1
1071
       99
1005
12B9E6
  0
LINE
  5
12B9E7
  8
OBJECT
 10
11917.0
 20
-261.99999999999909
 30
0.0
 11
11920.0
 21
-261.99999999999909
 31
0.0
1001
ACDBBLOCKREPETAG
1070
     1
1071
      100
1005
12B9E7
  0
ARC
  5
12B9E8
  8
OBJECT
 10
11917.0
 20
-258.99999999999909
 30
0.0
 40
3.0
 50
180.0
 51
270.0
1001
ACDBBLOCKREPETAG
1070
     1
1071
      101
1005
12B9E8
  0
LINE
  5
12B9E9
  8
OBJECT
 10
11920.0
 20
-137.99999999999909
 30
0.0
 11
11917.0
 21
-137.99999999999909
 31
0.0
1001
ACDBBLOCKREPETAG
1070
     1
1071
      102
1005
12B9E9
  0
ARC
  5
12B9EA
  8
OBJECT
 10
11917.0
 20
-140.99999999999909
 30
0.0
 40
3.0
 50
90.0
 51
180.0
1001
ACDBBLOCKREPETAG
1070
     1
1071
      103
1005
12B9EA
  0
LINE
  5
12B9EB
  8
OBJECT
 10
11914.0
 20
-140.99999999999909
 30
0.0
 11
11914.0
 21
-189.6772096796403
 31
0.0
1001
ACDBBLOCKREPETAG
1070
     1
1071
      104
1005
12B9EB
  0
LINE
  5
12B9EC
  8
OBJECT
 10
11914.0
 20
-210.3227903203578
 30
0.0
 11
11914.0
 21
-258.99999999999909
 31
0.0
1001
ACDBBLOCKREPETAG
1070
     1
1071
      105
1005
12B9EC
  0
LINE
  5
12B9ED
  8
HIDDEN
 10
11842.000000000009
 20
-244.49999999999909
 30
0.0
 11
11842.000000000009
 21
-155.49999999999909
 31
0.0
1001
ACDBBLOCKREPETAG
1070
     1
1071
      106
1005
12B9ED
  0
LINE
  5
12B9EE
  8
OBJECT
 10
11850.00002503581
 20
-145.50004907618759
 30
0.0
 11
11850.00002503581
 21
-254.50004907618771
 31
0.0
1001
ACDBBLOCKREPETAG
1070
     1
1071
      108
1005
12B9EE
  0
ARC
  5
12B9EF
  8
OBJECT
 10
11870.19999999997
 20
-199.99999999999909
 30
0.0
 40
45.000000000000547
 50
270.0
 51
90.0
1001
ACDBBLOCKREPETAG
1070
     1
1071
      109
1005
12B9EF
  0
LINE
  5
12B9F0
  8
CENTER
 10
12000.0
 20
-300.99999999999898
 30
0.0
 11
12000.0
 21
-279.99999999999909
 31
0.0
1001
ACDBBLOCKREPETAG
1070
     1
1071
        0
1005
12B9F0
  0
LINE
  5
12B9F1
  8
OBJECT
 10
12062.0
 20
-283.0
 30
0.0
 11
12062.0
 21
-279.99999999999909
 31
0.0
1001
ACDBBLOCKREPETAG
1070
     1
1071
        1
1005
12B9F1
  0
ARC
  5
12B9F2
  8
OBJECT
 10
12059.0
 20
-283.0
 30
0.0
 40
3.0
 50
270.0
 51
0.0
1001
ACDBBLOCKREPETAG
1070
     1
1071
        2
1005
12B9F2
  0
LINE
  5
12B9F3
  8
OBJECT
 10
11938.0
 20
-279.99999999999909
 30
0.0
 11
11938.0
 21
-282.99999999999818
 31
0.0
1001
ACDBBLOCKREPETAG
1070
     1
1071
        3
1005
12B9F3
  0
ARC
  5
12B9F4
  8
OBJECT
 10
11941.0
 20
-282.99999999999818
 30
0.0
 40
3.0
 50
180.0
 51
270.0
1001
ACDBBLOCKREPETAG
1070
     1
1071
        4
1005
12B9F4
  0
LINE
  5
12B9F5
  8
OBJECT
 10
11941.0
 20
-285.99999999999818
 30
0.0
 11
12059.0
 21
-286.0
 31
0.0
1001
ACDBBLOCKREPETAG
1070
     1
1071
        5
1005
12B9F5
  0
LINE
  5
12B9F6
  8
OBJECT
 10
12202.99999999998
 20
-137.99999999999909
 30
0.0
 11
12209.99999999998
 21
-137.99999999999909
 31
0.0
1001
ACDBBLOCKREPETAG
1070
     1
1071
       85
1005
12B9F6
  0
LINE
  5
12B9F7
  8
OBJECT
 10
12209.99999999998
 20
-137.99999999999909
 30
0.0
 11
12209.99999999998
 21
-261.99999999999909
 31
0.0
1001
ACDBBLOCKREPETAG
1070
     1
1071
       86
1005
12B9F7
  0
LINE
  5
12B9F8
  8
OBJECT
 10
12209.99999999998
 20
-261.99999999999909
 30
0.0
 11
12202.99999999998
 21
-261.99999999999909
 31
0.0
1001
ACDBBLOCKREPETAG
1070
     1
1071
       87
1005
12B9F8
  0
LINE
  5
12B9F9
  8
OBJECT
 10
12202.99999999998
 20
-261.99999999999909
 30
0.0
 11
12202.99999999998
 21
-137.99999999999909
 31
0.0
1001
ACDBBLOCKREPETAG
1070
     1
1071
       88
1005
12B9F9
  0
LINE
  5
12B9FA
  8
CENTER
 10
12224.99999999998
 20
-199.99999999999909
 30
0.0
 11
12080.0
 21
-199.99999999999909
 31
0.0
1001
ACDBBLOCKREPETAG
1070
     1
1071
       89
1005
12B9FA
  0
LINE
  5
12B9FB
  8
OBJECT
 10
12149.999974964179
 20
-245.0000000000027
 30
0.0
 11
12086.0
 21
-244.99999999999909
 31
0.0
1001
ACDBBLOCKREPETAG
1070
     1
1071
       90
1005
12B9FB
  0
LINE
  5
12B9FC
  8
OBJECT
 10
12149.999974964179
 20
-154.99999999999909
 30
0.0
 11
12086.0
 21
-154.99999999999909
 31
0.0
1001
ACDBBLOCKREPETAG
1070
     1
1071
       91
1005
12B9FC
  0
LINE
  5
12B9FD
  8
OBJECT
 10
12202.99999999998
 20
-140.99999999999909
 30
0.0
 11
12166.99999999998
 21
-140.99999999999909
 31
0.0
1001
ACDBBLOCKREPETAG
1070
     1
1071
       92
1005
12B9FD
  0
LINE
  5
12B9FE
  8
OBJECT
 10
12166.99999999998
 20
-140.99999999999909
 30
0.0
 11
12166.99999999998
 21
-258.99999999999909
 31
0.0
1001
ACDBBLOCKREPETAG
1070
     1
1071
       93
1005
12B9FE
  0
LINE
  5
12B9FF
  8
OBJECT
 10
12166.99999999998
 20
-258.99999999999909
 30
0.0
 11
12202.99999999998
 21
-258.99999999999909
 31
0.0
1001
ACDBBLOCKREPETAG
1070
     1
1071
       94
1005
12B9FF
  0
LINE
  5
12BA00
  8
OBJECT
 10
12162.99999999998
 20
-145.49999999999909
 30
0.0
 11
12149.99999999998
 21
-145.49999999999909
 31
0.0
1001
ACDBBLOCKREPETAG
1070
     1
1071
       95
1005
12BA00
  0
LINE
  5
12BA01
  8
OBJECT
 10
12149.99999999998
 20
-254.49999999999909
 30
0.0
 11
12162.99999999998
 21
-254.49999999999909
 31
0.0
1001
ACDBBLOCKREPETAG
1070
     1
1071
       96
1005
12BA01
  0
LINE
  5
12BA02
  8
OBJECT
 10
12162.99999999998
 20
-254.49999999999909
 30
0.0
 11
12162.99999999998
 21
-145.49999999999909
 31
0.0
1001
ACDBBLOCKREPETAG
1070
     1
1071
       97
1005
12BA02
  0
LINE
  5
12BA03
  8
OBJECT
 10
12166.99999999998
 20
-140.99999999999909
 30
0.0
 11
12162.99999999998
 21
-145.49999999999909
 31
0.0
1001
ACDBBLOCKREPETAG
1070
     1
1071
       98
1005
12BA03
  0
LINE
  5
12BA04
  8
OBJECT
 10
12166.99999999998
 20
-258.99999999999909
 30
0.0
 11
12162.99999999998
 21
-254.49999999999909
 31
0.0
1001
ACDBBLOCKREPETAG
1070
     1
1071
       99
1005
12BA04
  0
LINE
  5
12BA05
  8
OBJECT
 10
12083.0
 20
-137.99999999999909
 30
0.0
 11
12080.0
 21
-137.99999999999909
 31
0.0
1001
ACDBBLOCKREPETAG
1070
     1
1071
      100
1005
12BA05
  0
ARC
  5
12BA06
  8
OBJECT
 10
12083.0
 20
-140.99999999999909
 30
0.0
 40
3.0
 50
0.0
 51
90.0
1001
ACDBBLOCKREPETAG
1070
     1
1071
      101
1005
12BA06
  0
LINE
  5
12BA07
  8
OBJECT
 10
12080.0
 20
-261.99999999999909
 30
0.0
 11
12083.0
 21
-261.99999999999909
 31
0.0
1001
ACDBBLOCKREPETAG
1070
     1
1071
      102
1005
12BA07
  0
ARC
  5
12BA08
  8
OBJECT
 10
12083.0
 20
-258.99999999999909
 30
0.0
 40
3.0
 50
270.0
 51
0.0
1001
ACDBBLOCKREPETAG
1070
     1
1071
      103
1005
12BA08
  0
LINE
  5
12BA09
  8
OBJECT
 10
12086.0
 20
-258.99999999999909
 30
0.0
 11
12086.0
 21
-210.3227903203578
 31
0.0
1001
ACDBBLOCKREPETAG
1070
     1
1071
      104
1005
12BA09
  0
LINE
  5
12BA0A
  8
OBJECT
 10
12086.0
 20
-189.6772096796403
 30
0.0
 11
12086.0
 21
-140.99999999999909
 31
0.0
1001
ACDBBLOCKREPETAG
1070
     1
1071
      105
1005
12BA0A
  0
LINE
  5
12BA0B
  8
HIDDEN
 10
12157.99999999998
 20
-155.49999999999909
 30
0.0
 11
12157.99999999998
 21
-244.49999999999909
 31
0.0
1001
ACDBBLOCKREPETAG
1070
     1
1071
      106
1005
12BA0B
  0
LINE
  5
12BA0C
  8
OBJECT
 10
12149.999974964179
 20
-254.4999509238105
 30
0.0
 11
12149.999974964179
 21
-145.4999509238105
 31
0.0
1001
ACDBBLOCKREPETAG
1070
     1
1071
      108
1005
12BA0C
  0
ARC
  5
12BA0D
  8
OBJECT
 10
12129.800000000019
 20
-199.99999999999909
 30
0.0
 40
45.000000000000547
 50
90.0
 51
270.0
1001
ACDBBLOCKREPETAG
1070
     1
1071
      109
1005
12BA0D
  0
LINE
  5
12BA0E
  8
OBJECT
 10
11797.000000000009
 20
-583.0
 30
0.0
 11
11790.0
 21
-583.0
 31
0.0
1001
ACDBBLOCKREPETAG
1070
     1
1071
       83
1005
12BA0E
  0
LINE
  5
12BA0F
  8
OBJECT
 10
11790.0
 20
-583.0
 30
0.0
 11
11790.0
 21
-707.0
 31
0.0
1001
ACDBBLOCKREPETAG
1070
     1
1071
       84
1005
12BA0F
  0
LINE
  5
12BA10
  8
OBJECT
 10
11914.0
 20
-653.3502637757274
 30
0.0
 11
11914.0
 21
-755.00000000000102
 31
0.0
1001
ACDBBLOCKREPETAG
1070
     1
1071
       85
1005
12BA10
  0
LINE
  5
12BA11
  8
OBJECT
 10
11790.0
 20
-707.0
 30
0.0
 11
11797.000000000009
 21
-707.0
 31
0.0
1001
ACDBBLOCKREPETAG
1070
     1
1071
       86
1005
12BA11
  0
LINE
  5
12BA12
  8
OBJECT
 10
11797.000000000009
 20
-707.0
 30
0.0
 11
11797.000000000009
 21
-583.0
 31
0.0
1001
ACDBBLOCKREPETAG
1070
     1
1071
       87
1005
12BA12
  0
LINE
  5
12BA13
  8
CENTER
 10
11865.0
 20
-645.0000000000008
 30
0.0
 11
11775.000000000009
 21
-645.0
 31
0.0
1001
ACDBBLOCKREPETAG
1070
     1
1071
       88
1005
12BA13
  0
LINE
  5
12BA14
  8
OBJECT
 10
11920.00000000002
 20
-758.0
 30
0.0
 11
11917.000000000009
 21
-758.0000000000008
 31
0.0
1001
ACDBBLOCKREPETAG
1070
     1
1071
       89
1005
12BA14
  0
ARC
  5
12BA15
  8
OBJECT
 10
11917.000000000009
 20
-755.00000000000102
 30
0.0
 40
3.0
 50
180.0
 51
270.0
1001
ACDBBLOCKREPETAG
1070
     1
1071
       90
1005
12BA15
  0
LINE
  5
12BA16
  8
OBJECT
 10
11797.000000000009
 20
-586.0
 30
0.0
 11
11833.0
 21
-586.0000000000008
 31
0.0
1001
ACDBBLOCKREPETAG
1070
     1
1071
       91
1005
12BA16
  0
LINE
  5
12BA17
  8
OBJECT
 10
11833.0
 20
-586.0000000000008
 30
0.0
 11
11833.0
 21
-704.0000000000008
 31
0.0
1001
ACDBBLOCKREPETAG
1070
     1
1071
       92
1005
12BA17
  0
LINE
  5
12BA18
  8
OBJECT
 10
11837.000000000009
 20
-590.5000000000008
 30
0.0
 11
11837.000000000009
 21
-699.5000000000008
 31
0.0
1001
ACDBBLOCKREPETAG
1070
     1
1071
       93
1005
12BA18
  0
LINE
  5
12BA19
  8
OBJECT
 10
11837.000000000009
 20
-590.5000000000008
 30
0.0
 11
11850.0
 21
-590.5000000000008
 31
0.0
1001
ACDBBLOCKREPETAG
1070
     1
1071
       94
1005
12BA19
  0
LINE
  5
12BA1A
  8
OBJECT
 10
11833.0
 20
-704.0000000000008
 30
0.0
 11
11797.000000000009
 21
-704.0
 31
0.0
1001
ACDBBLOCKREPETAG
1070
     1
1071
       95
1005
12BA1A
  0
LINE
  5
12BA1B
  8
OBJECT
 10
11833.0
 20
-586.0000000000008
 30
0.0
 11
11837.000000000009
 21
-590.5000000000008
 31
0.0
1001
ACDBBLOCKREPETAG
1070
     1
1071
       96
1005
12BA1B
  0
LINE
  5
12BA1C
  8
OBJECT
 10
11850.0
 20
-590.5000000000008
 30
0.0
 11
11850.0
 21
-675.74491827928784
 31
0.0
1001
ACDBBLOCKREPETAG
1070
     1
1071
       97
1005
12BA1C
  0
ARC
  5
12BA1D
  8
OBJECT
 10
11847.20000000001
 20
-685.0000000000008
 30
0.0
 40
85.0
 50
36.869897645906562
 51
88.112268108168848
1001
ACDBBLOCKREPETAG
1070
     1
1071
       98
1005
12BA1D
  0
LINE
  5
12BA1E
  8
HIDDEN
 10
11842.000000000009
 20
-600.50000000000068
 30
0.0
 11
11842.000000000009
 21
-689.50000000000091
 31
0.0
1001
ACDBBLOCKREPETAG
1070
     1
1071
      100
1005
12BA1E
  0
LINE
  5
12BA1F
  8
OBJECT
 10
11914.0
 20
-751.07945073181781
 30
0.0
 11
11843.36868007896
 21
-699.5000000000008
 31
0.0
1001
ACDBBLOCKREPETAG
1070
     1
1071
      101
1005
12BA1F
  0
LINE
  5
12BA20
  8
OBJECT
 10
11920.00000000002
 20
-634.0
 30
0.0
 11
11915.20000000001
 21
-634.0
 31
0.0
1001
ACDBBLOCKREPETAG
1070
     1
1071
      102
1005
12BA20
  0
LINE
  5
12BA21
  8
OBJECT
 10
11914.0
 20
-653.35026377573013
 30
0.0
 11
11915.20000000001
 21
-634.0
 31
0.0
1001
ACDBBLOCKREPETAG
1070
     1
1071
      103
1005
12BA21
  0
LINE
  5
12BA22
  8
OBJECT
 10
11837.000000000009
 20
-699.5000000000008
 30
0.0
 11
11843.36868007896
 21
-699.5000000000008
 31
0.0
1001
ACDBBLOCKREPETAG
1070
     1
1071
      104
1005
12BA22
  0
LINE
  5
12BA23
  8
OBJECT
 10
11833.0
 20
-704.0000000000008
 30
0.0
 11
11837.000000000009
 21
-699.5000000000008
 31
0.0
1001
ACDBBLOCKREPETAG
1070
     1
1071
      105
1005
12BA23
  0
CIRCLE
  5
12BA24
  8
OBJECT
 10
12000.0
 20
-696.0
 30
0.0
 40
62.0
1001
ACDBBLOCKREPETAG
1070
     1
1071
        0
1005
12BA24
  0
LINE
  5
12BA25
  8
OBJECT
 10
12202.99999999998
 20
-583.0000000000008
 30
0.0
 11
12209.99999999998
 21
-583.0000000000008
 31
0.0
1001
ACDBBLOCKREPETAG
1070
     1
1071
       83
1005
12BA25
  0
LINE
  5
12BA26
  8
OBJECT
 10
12209.99999999998
 20
-583.0000000000008
 30
0.0
 11
12209.99999999998
 21
-707.00000000000091
 31
0.0
1001
ACDBBLOCKREPETAG
1070
     1
1071
       84
1005
12BA26
  0
LINE
  5
12BA27
  8
OBJECT
 10
12085.99999999998
 20
-653.3502637757274
 30
0.0
 11
12085.99999999998
 21
-755.00000000000102
 31
0.0
1001
ACDBBLOCKREPETAG
1070
     1
1071
       85
1005
12BA27
  0
LINE
  5
12BA28
  8
OBJECT
 10
12209.99999999998
 20
-707.00000000000091
 30
0.0
 11
12202.99999999998
 21
-707.00000000000091
 31
0.0
1001
ACDBBLOCKREPETAG
1070
     1
1071
       86
1005
12BA28
  0
LINE
  5
12BA29
  8
OBJECT
 10
12202.99999999998
 20
-707.00000000000091
 30
0.0
 11
12202.99999999998
 21
-583.0000000000008
 31
0.0
1001
ACDBBLOCKREPETAG
1070
     1
1071
       87
1005
12BA29
  0
LINE
  5
12BA2A
  8
CENTER
 10
12134.99999999998
 20
-645.0000000000008
 30
0.0
 11
12224.99999999998
 21
-645.0000000000008
 31
0.0
1001
ACDBBLOCKREPETAG
1070
     1
1071
       88
1005
12BA2A
  0
LINE
  5
12BA2B
  8
OBJECT
 10
12079.99999999998
 20
-758.0
 30
0.0
 11
12082.99999999998
 21
-758.0000000000008
 31
0.0
1001
ACDBBLOCKREPETAG
1070
     1
1071
       89
1005
12BA2B
  0
ARC
  5
12BA2C
  8
OBJECT
 10
12082.99999999998
 20
-755.00000000000102
 30
0.0
 40
3.0
 50
270.0
 51
0.0
1001
ACDBBLOCKREPETAG
1070
     1
1071
       90
1005
12BA2C
  0
LINE
  5
12BA2D
  8
OBJECT
 10
12202.99999999998
 20
-586.0000000000008
 30
0.0
 11
12166.99999999998
 21
-586.0000000000008
 31
0.0
1001
ACDBBLOCKREPETAG
1070
     1
1071
       91
1005
12BA2D
  0
LINE
  5
12BA2E
  8
OBJECT
 10
12166.99999999998
 20
-586.0000000000008
 30
0.0
 11
12166.99999999998
 21
-704.0000000000008
 31
0.0
1001
ACDBBLOCKREPETAG
1070
     1
1071
       92
1005
12BA2E
  0
LINE
  5
12BA2F
  8
OBJECT
 10
12162.99999999998
 20
-590.5000000000008
 30
0.0
 11
12162.99999999998
 21
-699.5000000000008
 31
0.0
1001
ACDBBLOCKREPETAG
1070
     1
1071
       93
1005
12BA2F
  0
LINE
  5
12BA30
  8
OBJECT
 10
12162.99999999998
 20
-590.5000000000008
 30
0.0
 11
12149.99999999998
 21
-590.5000000000008
 31
0.0
1001
ACDBBLOCKREPETAG
1070
     1
1071
       94
1005
12BA30
  0
LINE
  5
12BA31
  8
OBJECT
 10
12166.99999999998
 20
-704.0000000000008
 30
0.0
 11
12202.99999999998
 21
-704.0000000000008
 31
0.0
1001
ACDBBLOCKREPETAG
1070
     1
1071
       95
1005
12BA31
  0
LINE
  5
12BA32
  8
OBJECT
 10
12166.99999999998
 20
-586.0000000000008
 30
0.0
 11
12162.99999999998
 21
-590.5000000000008
 31
0.0
1001
ACDBBLOCKREPETAG
1070
     1
1071
       96
1005
12BA32
  0
LINE
  5
12BA33
  8
OBJECT
 10
12149.99999999998
 20
-590.5000000000008
 30
0.0
 11
12149.99999999998
 21
-675.74491827928784
 31
0.0
1001
ACDBBLOCKREPETAG
1070
     1
1071
       97
1005
12BA33
  0
ARC
  5
12BA34
  8
OBJECT
 10
12152.799999999979
 20
-685.0000000000008
 30
0.0
 40
85.0
 50
91.887731891831123
 51
143.1301023540934
1001
ACDBBLOCKREPETAG
1070
     1
1071
       98
1005
12BA34
  0
LINE
  5
12BA35
  8
HIDDEN
 10
12157.99999999998
 20
-600.50000000000068
 30
0.0
 11
12157.99999999998
 21
-689.50000000000091
 31
0.0
1001
ACDBBLOCKREPETAG
1070
     1
1071
      100
1005
12BA35
  0
LINE
  5
12BA36
  8
OBJECT
 10
12085.99999999998
 20
-751.07945073181781
 30
0.0
 11
12156.631319921031
 21
-699.5000000000008
 31
0.0
1001
ACDBBLOCKREPETAG
1070
     1
1071
      101
1005
12BA36
  0
LINE
  5
12BA37
  8
OBJECT
 10
12079.99999999998
 20
-634.0
 30
0.0
 11
12084.799999999979
 21
-634.0
 31
0.0
1001
ACDBBLOCKREPETAG
1070
     1
1071
      102
1005
12BA37
  0
LINE
  5
12BA38
  8
OBJECT
 10
12085.99999999998
 20
-653.35026377573013
 30
0.0
 11
12084.799999999979
 21
-634.0
 31
0.0
1001
ACDBBLOCKREPETAG
1070
     1
1071
      103
1005
12BA38
  0
LINE
  5
12BA39
  8
OBJECT
 10
12162.99999999998
 20
-699.5000000000008
 30
0.0
 11
12156.631319921031
 21
-699.5000000000008
 31
0.0
1001
ACDBBLOCKREPETAG
1070
     1
1071
      104
1005
12BA39
  0
LINE
  5
12BA3A
  8
OBJECT
 10
12166.99999999998
 20
-704.0000000000008
 30
0.0
 11
12162.99999999998
 21
-699.5000000000008
 31
0.0
1001
ACDBBLOCKREPETAG
1070
     1
1071
      105
1005
12BA3A
  0
LINE
  5
12BA3B
  8
OBJECT
 10
9923.0
 20
-570.99999999999432
 30
0.0
 11
9923.0
 21
-549.99999999999432
 31
0.0
1001
ACDBBLOCKREPETAG
1070
     1
1071
       36
1005
12BA3B
  0
LINE
  5
12BA3C
  8
OBJECT
 10
9923.0
 20
-549.99999999999432
 30
0.0
 11
10077.0
 21
-549.99999999999432
 31
0.0
1001
ACDBBLOCKREPETAG
1070
     1
1071
       37
1005
12BA3C
  0
LINE
  5
12BA3D
  8
HIDDEN
 10
9943.0
 20
-619.99999999999432
 30
0.0
 11
10057.0
 21
-619.99999999999432
 31
0.0
1001
ACDBBLOCKREPETAG
1070
     1
1071
       38
1005
12BA3D
  0
LINE
  5
12BA3E
  8
OBJECT
 10
10077.0
 20
-549.99999999999432
 30
0.0
 11
10077.0
 21
-570.99999999999432
 31
0.0
1001
ACDBBLOCKREPETAG
1070
     1
1071
       39
1005
12BA3E
  0
LINE
  5
12BA3F
  8
OBJECT
 10
10077.0
 20
-570.99999999999432
 30
0.0
 11
9923.0
 21
-570.99999999999432
 31
0.0
1001
ACDBBLOCKREPETAG
1070
     1
1071
       40
1005
12BA3F
  0
LINE
  5
12BA40
  8
CENTER
 10
10000.0
 20
-534.99999999999432
 30
0.0
 11
10000.0
 21
-769.9999999999942
 31
0.0
1001
ACDBBLOCKREPETAG
1070
     1
1071
       41
1005
12BA40
  0
LINE
  5
12BA41
  8
OBJECT
 10
9928.0
 20
-570.99999999999432
 30
0.0
 11
9928.0
 21
-633.99999999999432
 31
0.0
1001
ACDBBLOCKREPETAG
1070
     1
1071
       42
1005
12BA41
  0
LINE
  5
12BA42
  8
OBJECT
 10
10072.0
 20
-633.99999999999432
 30
0.0
 11
10072.0
 21
-570.99999999999432
 31
0.0
1001
ACDBBLOCKREPETAG
1070
     1
1071
       43
1005
12BA42
  0
LINE
  5
12BA43
  8
OBJECT
 10
9920.0
 20
-757.9999999999942
 30
0.0
 11
10080.0
 21
-757.9999999999942
 31
0.0
1001
ACDBBLOCKREPETAG
1070
     1
1071
       44
1005
12BA43
  0
LINE
  5
12BA44
  8
OBJECT
 10
10080.0
 20
-633.99999999999432
 30
0.0
 11
9920.0
 21
-633.99999999999432
 31
0.0
1001
ACDBBLOCKREPETAG
1070
     1
1071
       45
1005
12BA44
  0
LINE
  5
12BA45
  8
OBJECT
 10
9920.0
 20
-757.9999999999942
 30
0.0
 11
9920.0
 21
-769.9999999999942
 31
0.0
1001
ACDBBLOCKREPETAG
1070
     1
1071
       46
1005
12BA45
  0
LINE
  5
12BA46
  8
OBJECT
 10
9920.0
 20
-769.9999999999942
 30
0.0
 11
10080.0
 21
-769.9999999999942
 31
0.0
1001
ACDBBLOCKREPETAG
1070
     1
1071
       47
1005
12BA46
  0
LINE
  5
12BA47
  8
OBJECT
 10
10080.0
 20
-769.9999999999942
 30
0.0
 11
10080.0
 21
-757.9999999999942
 31
0.0
1001
ACDBBLOCKREPETAG
1070
     1
1071
       48
1005
12BA47
  0
ARC
  5
12BA48
  8
OBJECT
 10
10200.687274671671
 20
-749.40809941010195
 30
0.0
 40
170.6350503965856
 50
137.44134459184301
 51
149.91949581337221
1001
ACDBBLOCKREPETAG
1070
     1
1071
       52
1005
12BA48
  0
ARC
  5
12BA49
  8
OBJECT
 10
10200.687274671671
 20
-642.59190058988645
 30
0.0
 40
170.6350503965856
 50
210.08050418662771
 51
222.55865540815699
1001
ACDBBLOCKREPETAG
1070
     1
1071
       53
1005
12BA49
  0
ARC
  5
12BA4A
  8
OBJECT
 10
9799.3127253283274
 20
-749.40809941010195
 30
0.0
 40
170.6350503965856
 50
30.080504186787142
 51
42.558655408456282
1001
ACDBBLOCKREPETAG
1070
     1
1071
       54
1005
12BA4A
  0
ARC
  5
12BA4B
  8
OBJECT
 10
9799.3127253283274
 20
-642.59190058988645
 30
0.0
 40
170.6350503965856
 50
317.44134459154373
 51
329.9194958132129
1001
ACDBBLOCKREPETAG
1070
     1
1071
       55
1005
12BA4B
  0
POINT
  5
12BA4C
  8
DOTS
 10
10000.0
 20
-754.9999999999942
 30
0.0
1001
ACDBBLOCKREPETAG
1070
     1
1071
      184
1005
12BA4C
  0
LINE
  5
12BA4D
  8
SLIM
 10
9945.2566704261044
 20
-137.99999999999909
 30
0.0
 11
9955.9548403695771
 21
-127.30183005652231
 31
0.0
1001
GRADIENTCOLOR1ACI
1070
     5
1001
GRADIENTCOLOR2ACI
1070
     2
1001
ACAD
1010
0.0
1020
0.0
1030
0.0
1001
ACDBBLOCKREPETAG
1070
     1
1071
      428
1005
12BA4D
  0
LINE
  5
12BA4E
  8
SLIM
 10
9954.2369265471734
 20
-137.99999999999909
 30
0.0
 11
9972.7507744763316
 21
-119.4861520708364
 31
0.0
1001
GRADIENTCOLOR1ACI
1070
     5
1001
GRADIENTCOLOR2ACI
1070
     2
1001
ACAD
1010
0.0
1020
0.0
1030
0.0
1001
ACDBBLOCKREPETAG
1070
     1
1071
      429
1005
12BA4E
  0
LINE
  5
12BA4F
  8
SLIM
 10
9973.5212243124606
 20
-127.6959583557812
 30
0.0
 11
9984.8575146748644
 21
-116.359667993377
 31
0.0
1001
GRADIENTCOLOR1ACI
1070
     5
1001
GRADIENTCOLOR2ACI
1070
     2
1001
ACAD
1010
0.0
1020
0.0
1030
0.0
1001
ACDBBLOCKREPETAG
1070
     1
1071
      430
1005
12BA4F
  0
LINE
  5
12BA50
  8
SLIM
 10
9985.8944171461262
 20
-124.30302164318159
 30
0.0
 11
9995.0533812002577
 21
-115.1440575890517
 31
0.0
1001
GRADIENTCOLOR1ACI
1070
     5
1001
GRADIENTCOLOR2ACI
1070
     2
1001
ACAD
1010
0.0
1020
0.0
1030
0.0
1001
ACDBBLOCKREPETAG
1070
     1
1071
      431
1005
12BA50
  0
LINE
  5
12BA51
  8
SLIM
 10
9996.0777327492033
 20
-123.0999621611699
 30
0.0
 11
10000.0
 21
-119.1776949103767
 31
0.0
1001
GRADIENTCOLOR1ACI
1070
     5
1001
GRADIENTCOLOR2ACI
1070
     2
1001
ACAD
1010
0.0
1020
0.0
1030
0.0
1001
ACDBBLOCKREPETAG
1070
     1
1071
      432
1005
12BA51
  0
LINE
  5
12BA52
  8
SLIM
 10
10000.0
 20
-119.1776949103767
 30
0.0
 11
10004.0797313529
 21
-115.0979635574724
 31
0.0
1001
GRADIENTCOLOR1ACI
1070
     5
1001
GRADIENTCOLOR2ACI
1070
     2
1001
ACAD
1010
0.0
1020
0.0
1030
0.0
1001
ACDBBLOCKREPETAG
1070
     1
1071
      433
1005
12BA52
  0
LINE
  5
12BA53
  8
SLIM
 10
10004.99572025427
 20
-123.1622307771683
 30
0.0
 11
10012.26797841056
 21
-115.88997262087101
 31
0.0
1001
GRADIENTCOLOR1ACI
1070
     5
1001
GRADIENTCOLOR2ACI
1070
     2
1001
ACAD
1010
0.0
1020
0.0
1030
0.0
1001
ACDBBLOCKREPETAG
1070
     1
1071
      434
1005
12BA53
  0
LINE
  5
12BA54
  8
SLIM
 10
10013.028059366959
 20
-124.1101477855505
 30
0.0
 11
10019.799941457361
 21
-117.3382656951526
 31
0.0
1001
GRADIENTCOLOR1ACI
1070
     5
1001
GRADIENTCOLOR2ACI
1070
     2
1001
ACAD
1010
0.0
1020
0.0
1030
0.0
1001
ACDBBLOCKREPETAG
1070
     1
1071
      435
1005
12BA54
  0
LINE
  5
12BA55
  8
SLIM
 10
10020.374081314239
 20
-125.7443819593383
 30
0.0
 11
10026.787203867279
 21
-119.3312594063044
 31
0.0
1001
GRADIENTCOLOR1ACI
1070
     5
1001
GRADIENTCOLOR2ACI
1070
     2
1001
ACAD
1010
0.0
1020
0.0
1030
0.0
1001
ACDBBLOCKREPETAG
1070
     1
1071
      436
1005
12BA55
  0
LINE
  5
12BA56
  8
SLIM
 10
10027.15247199887
 20
-127.946247395778
 30
0.0
 11
10033.303003076029
 21
-121.7957163186195
 31
0.0
1001
GRADIENTCOLOR1ACI
1070
     5
1001
GRADIENTCOLOR2ACI
1070
     2
1001
ACAD
1010
0.0
1020
0.0
1030
0.0
1001
ACDBBLOCKREPETAG
1070
     1
1071
      437
1005
12BA56
  0
LINE
  5
12BA57
  8
SLIM
 10
10033.43909865133
 20
-130.63987686439191
 30
0.0
 11
10039.39731198437
 21
-124.6816635313439
 31
0.0
1001
GRADIENTCOLOR1ACI
1070
     5
1001
GRADIENTCOLOR2ACI
1070
     2
1001
ACAD
1010
0.0
1020
0.0
1030
0.0
1001
ACDBBLOCKREPETAG
1070
     1
1071
      438
1005
12BA57
  0
LINE
  5
12BA58
  8
SLIM
 10
10039.284224621801
 20
-133.77500701499321
 30
0.0
 11
10045.104770534361
 21
-127.95446110242381
 31
0.0
1001
GRADIENTCOLOR1ACI
1070
     5
1001
GRADIENTCOLOR2ACI
1070
     2
1001
ACAD
1010
0.0
1020
0.0
1030
0.0
1001
ACDBBLOCKREPETAG
1070
     1
1071
      439
1005
12BA58
  0
LINE
  5
12BA59
  8
SLIM
 10
10044.721280169801
 20
-137.31820758805651
 30
0.0
 11
10050.449155789191
 21
-131.59033196866449
 31
0.0
1001
GRADIENTCOLOR1ACI
1070
     5
1001
GRADIENTCOLOR2ACI
1070
     2
1001
ACAD
1010
0.0
1020
0.0
1030
0.0
1001
ACDBBLOCKREPETAG
1070
     1
1071
      440
1005
12BA59
  0
LINE
  5
12BA5A
  8
SLIM
 10
10053.019743878929
 20
-137.99999999999909
 30
0.0
 11
10055.445994186401
 21
-135.57374969252561
 31
0.0
1001
GRADIENTCOLOR1ACI
1070
     5
1001
GRADIENTCOLOR2ACI
1070
     2
1001
ACAD
1010
0.0
1020
0.0
1030
0.0
1001
ACDBBLOCKREPETAG
1070
     1
1071
      441
1005
12BA5A
  0
LINE
  5
12BA5B
  8
CENTER
 10
10000.0
 20
-279.99999999999909
 30
0.0
 11
10000.0
 21
-99.999999999999091
 31
0.0
1001
ACDBBLOCKREPETAG
1070
     1
1071
      160
1005
12BA5B
  0
CIRCLE
  5
12BA5C
  8
OBJECT
 10
10000.0
 20
-199.99999999999909
 30
0.0
 40
70.0
1001
ACDBBLOCKREPETAG
1070
     1
1071
      161
1005
12BA5C
  0
CIRCLE
  5
12BA5D
  8
OBJECT
 10
10000.0
 20
-199.99999999999909
 30
0.0
 40
77.0
1001
ACDBBLOCKREPETAG
1070
     1
1071
      162
1005
12BA5D
  0
LINE
  5
12BA5E
  8
OBJECT
 10
10045.661800227321
 20
-137.99999999999909
 30
0.0
 11
10080.0
 21
-137.99999999999909
 31
0.0
1001
ACDBBLOCKREPETAG
1070
     1
1071
      164
1005
12BA5E
  0
LINE
  5
12BA5F
  8
OBJECT
 10
10062.0
 20
-261.99999999999909
 30
0.0
 11
10080.0
 21
-261.99999999999909
 31
0.0
1001
ACDBBLOCKREPETAG
1070
     1
1071
      165
1005
12BA5F
  0
LINE
  5
12BA60
  8
OBJECT
 10
10062.0
 20
-261.99999999999909
 30
0.0
 11
10062.0
 21
-279.99999999999909
 31
0.0
1001
ACDBBLOCKREPETAG
1070
     1
1071
      167
1005
12BA60
  0
LINE
  5
12BA61
  8
OBJECT
 10
9938.0
 20
-261.99999999999909
 30
0.0
 11
9938.0
 21
-279.99999999999909
 31
0.0
1001
ACDBBLOCKREPETAG
1070
     1
1071
      168
1005
12BA61
  0
LINE
  5
12BA62
  8
OBJECT
 10
9938.0
 20
-261.99999999999909
 30
0.0
 11
9920.0
 21
-261.99999999999909
 31
0.0
1001
ACDBBLOCKREPETAG
1070
     1
1071
      170
1005
12BA62
  0
LINE
  5
12BA63
  8
OBJECT
 10
9954.3381997726756
 20
-137.99999999999909
 30
0.0
 11
9920.0
 21
-137.99999999999909
 31
0.0
1001
ACDBBLOCKREPETAG
1070
     1
1071
      171
1005
12BA63
  0
LINE
  5
12BA64
  8
OBJECT
 10
9945.5527778486357
 20
-254.44722215136329
 30
0.0
 11
9938.0
 21
-261.99999999999909
 31
0.0
1001
ACDBBLOCKREPETAG
1070
     1
1071
      180
1005
12BA64
  0
LINE
  5
12BA65
  8
OBJECT
 10
10054.447222151361
 20
-254.44722215136329
 30
0.0
 11
10062.0
 21
-261.99999999999909
 31
0.0
1001
ACDBBLOCKREPETAG
1070
     1
1071
      181
1005
12BA65
  0
ARC
  5
12BA66
  8
OBJECT
 10
10000.0
 20
-199.99999999999909
 30
0.0
 40
85.0
 50
46.837102859844251
 51
133.16289714015571
1001
ACDBBLOCKREPETAG
1070
     1
1071
      183
1005
12BA66
  0
LINE
  5
12BA67
  8
OBJECT
 10
10024.1029330933
 20
-243.80694712371681
 30
0.0
 11
10020.659656999989
 21
-232.55462199999889
 31
0.0
1001
ACDBBLOCKREPETAG
1070
     1
1071
      314
1005
12BA67
  0
LINE
  5
12BA68
  8
OBJECT
 10
9986.7927499013749
 20
-218.22553374208019
 30
0.0
 11
10020.659656999989
 21
-232.5546219999969
 31
0.0
1001
ACDBBLOCKREPETAG
1070
     1
1071
      316
1005
12BA68
  0
ARC
  5
12BA69
  8
OBJECT
 10
9982.8961697618997
 20
-227.4351299990567
 30
0.0
 40
10.0
 50
67.066778292911366
 51
154.01473437031629
1001
ACDBBLOCKREPETAG
1070
     1
1071
      317
1005
12BA69
  0
ARC
  5
12BA6A
  8
OBJECT
 10
9986.1488390381292
 20
-225.55386256729159
 30
0.0
 40
7.0
 50
67.066778292911366
 51
154.0147337749826
1001
ACDBBLOCKREPETAG
1070
     1
1071
      318
1005
12BA6A
  0
LINE
  5
12BA6B
  8
OBJECT
 10
9969.4199755553
 20
-243.89888500818171
 30
0.0
 11
9979.8564918232369
 21
-222.48688253356801
 31
0.0
1001
ACDBBLOCKREPETAG
1070
     1
1071
      349
1005
12BA6B
  0
LINE
  5
12BA6C
  8
OBJECT
 10
9965.2972169006098
 20
-240.71813901882729
 30
0.0
 11
9973.9071022665084
 21
-223.05373004430751
 31
0.0
1001
ACDBBLOCKREPETAG
1070
     1
1071
      350
1005
12BA6C
  0
ARC
  5
12BA6D
  8
OBJECT
 10
9976.5796953073132
 20
-207.1289369828437
 30
0.0
 40
60.031113246032611
 50
314.07020130422319
 51
322.33936106089681
1001
ACDBBLOCKREPETAG
1070
     1
1071
      351
1005
12BA6D
  0
CIRCLE
  5
12BA6E
  8
OBJECT
 10
10000.0
 20
-199.99999999999909
 30
0.0
 40
53.5
1001
ACDBBLOCKREPETAG
1070
     1
1071
      352
1005
12BA6E
  0
POINT
  5
12BA6F
  8
DOTS
 10
10000.0
 20
-199.99999999999909
 30
0.0
 50
270.0
1001
ACDBBLOCKREPETAG
1070
     1
1071
      364
1005
12BA6F
  0
ARC
  5
12BA70
  8
OBJECT
 10
10000.0
 20
-199.99999999999909
 30
0.0
 40
50.0
 50
298.81994300000417
 51
228.5237695596397
1001
ACDBBLOCKREPETAG
1070
     1
1071
      157
1005
12BA70
  0
LINE
  5
12BA71
  8
CENTER
 10
10080.0
 20
-199.99999999999909
 30
0.0
 11
9920.0
 21
-199.99999999999909
 31
0.0
1001
ACDBBLOCKREPETAG
1070
     1
1071
      158
1005
12BA71
  0
LINE
  5
12BA72
  8
OBJECT
 10
9797.0000000000127
 20
-261.99999999999909
 30
0.0
 11
9790.0000000000127
 21
-261.99999999999909
 31
0.0
1001
ACDBBLOCKREPETAG
1070
     1
1071
       85
1005
12BA72
  0
LINE
  5
12BA73
  8
OBJECT
 10
9790.0000000000127
 20
-261.99999999999909
 30
0.0
 11
9790.0000000000127
 21
-137.99999999999909
 31
0.0
1001
ACDBBLOCKREPETAG
1070
     1
1071
       86
1005
12BA73
  0
LINE
  5
12BA74
  8
OBJECT
 10
9790.0000000000127
 20
-137.99999999999909
 30
0.0
 11
9797.0000000000127
 21
-137.99999999999909
 31
0.0
1001
ACDBBLOCKREPETAG
1070
     1
1071
       87
1005
12BA74
  0
LINE
  5
12BA75
  8
OBJECT
 10
9797.0000000000127
 20
-137.99999999999909
 30
0.0
 11
9797.0000000000127
 21
-261.99999999999909
 31
0.0
1001
ACDBBLOCKREPETAG
1070
     1
1071
       88
1005
12BA75
  0
LINE
  5
12BA76
  8
CENTER
 10
9775.0000000000127
 20
-199.99999999999909
 30
0.0
 11
9920.0
 21
-199.99999999999909
 31
0.0
1001
ACDBBLOCKREPETAG
1070
     1
1071
       89
1005
12BA76
  0
LINE
  5
12BA77
  8
OBJECT
 10
9850.0000250358116
 20
-154.9999999999954
 30
0.0
 11
9914.0
 21
-154.99999999999909
 31
0.0
1001
ACDBBLOCKREPETAG
1070
     1
1071
       90
1005
12BA77
  0
LINE
  5
12BA78
  8
OBJECT
 10
9850.0000250358116
 20
-244.99999999999909
 30
0.0
 11
9914.0
 21
-244.99999999999909
 31
0.0
1001
ACDBBLOCKREPETAG
1070
     1
1071
       91
1005
12BA78
  0
LINE
  5
12BA79
  8
OBJECT
 10
9797.0000000000127
 20
-258.99999999999909
 30
0.0
 11
9833.0000000000164
 21
-258.99999999999909
 31
0.0
1001
ACDBBLOCKREPETAG
1070
     1
1071
       92
1005
12BA79
  0
LINE
  5
12BA7A
  8
OBJECT
 10
9833.0000000000164
 20
-258.99999999999909
 30
0.0
 11
9833.0000000000164
 21
-140.99999999999909
 31
0.0
1001
ACDBBLOCKREPETAG
1070
     1
1071
       93
1005
12BA7A
  0
LINE
  5
12BA7B
  8
OBJECT
 10
9833.0000000000164
 20
-140.99999999999909
 30
0.0
 11
9797.0000000000127
 21
-140.99999999999909
 31
0.0
1001
ACDBBLOCKREPETAG
1070
     1
1071
       94
1005
12BA7B
  0
LINE
  5
12BA7C
  8
OBJECT
 10
9837.0000000000127
 20
-254.49999999999909
 30
0.0
 11
9850.0000000000127
 21
-254.49999999999909
 31
0.0
1001
ACDBBLOCKREPETAG
1070
     1
1071
       95
1005
12BA7C
  0
LINE
  5
12BA7D
  8
OBJECT
 10
9850.0000000000127
 20
-145.49999999999909
 30
0.0
 11
9837.0000000000127
 21
-145.49999999999909
 31
0.0
1001
ACDBBLOCKREPETAG
1070
     1
1071
       96
1005
12BA7D
  0
LINE
  5
12BA7E
  8
OBJECT
 10
9837.0000000000127
 20
-145.49999999999909
 30
0.0
 11
9837.0000000000127
 21
-254.49999999999909
 31
0.0
1001
ACDBBLOCKREPETAG
1070
     1
1071
       97
1005
12BA7E
  0
LINE
  5
12BA7F
  8
OBJECT
 10
9833.0000000000164
 20
-258.99999999999909
 30
0.0
 11
9837.0000000000127
 21
-254.49999999999909
 31
0.0
1001
ACDBBLOCKREPETAG
1070
     1
1071
       98
1005
12BA7F
  0
LINE
  5
12BA80
  8
OBJECT
 10
9833.0000000000164
 20
-140.99999999999909
 30
0.0
 11
9837.0000000000127
 21
-145.49999999999909
 31
0.0
1001
ACDBBLOCKREPETAG
1070
     1
1071
       99
1005
12BA80
  0
LINE
  5
12BA81
  8
OBJECT
 10
9917.0
 20
-261.99999999999909
 30
0.0
 11
9920.0
 21
-261.99999999999909
 31
0.0
1001
ACDBBLOCKREPETAG
1070
     1
1071
      100
1005
12BA81
  0
ARC
  5
12BA82
  8
OBJECT
 10
9917.0
 20
-258.99999999999909
 30
0.0
 40
3.0
 50
180.0
 51
270.0
1001
ACDBBLOCKREPETAG
1070
     1
1071
      101
1005
12BA82
  0
LINE
  5
12BA83
  8
OBJECT
 10
9920.0
 20
-137.99999999999909
 30
0.0
 11
9917.0
 21
-137.99999999999909
 31
0.0
1001
ACDBBLOCKREPETAG
1070
     1
1071
      102
1005
12BA83
  0
ARC
  5
12BA84
  8
OBJECT
 10
9917.0
 20
-140.99999999999909
 30
0.0
 40
3.0
 50
90.0
 51
180.0
1001
ACDBBLOCKREPETAG
1070
     1
1071
      103
1005
12BA84
  0
LINE
  5
12BA85
  8
OBJECT
 10
9914.0
 20
-140.99999999999909
 30
0.0
 11
9914.0
 21
-189.6772096796403
 31
0.0
1001
ACDBBLOCKREPETAG
1070
     1
1071
      104
1005
12BA85
  0
LINE
  5
12BA86
  8
OBJECT
 10
9914.0
 20
-210.3227903203578
 30
0.0
 11
9914.0
 21
-258.99999999999909
 31
0.0
1001
ACDBBLOCKREPETAG
1070
     1
1071
      105
1005
12BA86
  0
LINE
  5
12BA87
  8
HIDDEN
 10
9842.0000000000127
 20
-244.49999999999909
 30
0.0
 11
9842.0000000000127
 21
-155.49999999999909
 31
0.0
1001
ACDBBLOCKREPETAG
1070
     1
1071
      106
1005
12BA87
  0
LINE
  5
12BA88
  8
OBJECT
 10
9850.0000250358116
 20
-145.50004907618759
 30
0.0
 11
9850.0000250358116
 21
-254.50004907618771
 31
0.0
1001
ACDBBLOCKREPETAG
1070
     1
1071
      108
1005
12BA88
  0
ARC
  5
12BA89
  8
OBJECT
 10
9870.1999999999753
 20
-199.99999999999909
 30
0.0
 40
45.000000000000547
 50
270.0
 51
90.0
1001
ACDBBLOCKREPETAG
1070
     1
1071
      109
1005
12BA89
  0
LINE
  5
12BA8A
  8
CENTER
 10
10000.0
 20
-300.99999999999898
 30
0.0
 11
10000.0
 21
-279.99999999999909
 31
0.0
1001
ACDBBLOCKREPETAG
1070
     1
1071
        0
1005
12BA8A
  0
LINE
  5
12BA8B
  8
OBJECT
 10
10062.0
 20
-283.0
 30
0.0
 11
10062.0
 21
-279.99999999999909
 31
0.0
1001
ACDBBLOCKREPETAG
1070
     1
1071
        1
1005
12BA8B
  0
ARC
  5
12BA8C
  8
OBJECT
 10
10059.0
 20
-283.0
 30
0.0
 40
3.0
 50
270.0
 51
0.0
1001
ACDBBLOCKREPETAG
1070
     1
1071
        2
1005
12BA8C
  0
LINE
  5
12BA8D
  8
OBJECT
 10
9938.0
 20
-279.99999999999909
 30
0.0
 11
9938.0
 21
-282.99999999999818
 31
0.0
1001
ACDBBLOCKREPETAG
1070
     1
1071
        3
1005
12BA8D
  0
ARC
  5
12BA8E
  8
OBJECT
 10
9941.0
 20
-282.99999999999818
 30
0.0
 40
3.0
 50
180.0
 51
270.0
1001
ACDBBLOCKREPETAG
1070
     1
1071
        4
1005
12BA8E
  0
LINE
  5
12BA8F
  8
OBJECT
 10
9941.0
 20
-285.99999999999818
 30
0.0
 11
10059.0
 21
-286.0
 31
0.0
1001
ACDBBLOCKREPETAG
1070
     1
1071
        5
1005
12BA8F
  0
LINE
  5
12BA90
  8
OBJECT
 10
10202.99999999998
 20
-137.99999999999909
 30
0.0
 11
10209.99999999998
 21
-137.99999999999909
 31
0.0
1001
ACDBBLOCKREPETAG
1070
     1
1071
       85
1005
12BA90
  0
LINE
  5
12BA91
  8
OBJECT
 10
10209.99999999998
 20
-137.99999999999909
 30
0.0
 11
10209.99999999998
 21
-261.99999999999909
 31
0.0
1001
ACDBBLOCKREPETAG
1070
     1
1071
       86
1005
12BA91
  0
LINE
  5
12BA92
  8
OBJECT
 10
10209.99999999998
 20
-261.99999999999909
 30
0.0
 11
10202.99999999998
 21
-261.99999999999909
 31
0.0
1001
ACDBBLOCKREPETAG
1070
     1
1071
       87
1005
12BA92
  0
LINE
  5
12BA93
  8
OBJECT
 10
10202.99999999998
 20
-261.99999999999909
 30
0.0
 11
10202.99999999998
 21
-137.99999999999909
 31
0.0
1001
ACDBBLOCKREPETAG
1070
     1
1071
       88
1005
12BA93
  0
LINE
  5
12BA94
  8
CENTER
 10
10224.99999999998
 20
-199.99999999999909
 30
0.0
 11
10080.0
 21
-199.99999999999909
 31
0.0
1001
ACDBBLOCKREPETAG
1070
     1
1071
       89
1005
12BA94
  0
LINE
  5
12BA95
  8
OBJECT
 10
10149.99997496419
 20
-245.0000000000027
 30
0.0
 11
10086.0
 21
-244.99999999999909
 31
0.0
1001
ACDBBLOCKREPETAG
1070
     1
1071
       90
1005
12BA95
  0
LINE
  5
12BA96
  8
OBJECT
 10
10149.99997496419
 20
-154.99999999999909
 30
0.0
 11
10086.0
 21
-154.99999999999909
 31
0.0
1001
ACDBBLOCKREPETAG
1070
     1
1071
       91
1005
12BA96
  0
LINE
  5
12BA97
  8
OBJECT
 10
10202.99999999998
 20
-140.99999999999909
 30
0.0
 11
10166.99999999998
 21
-140.99999999999909
 31
0.0
1001
ACDBBLOCKREPETAG
1070
     1
1071
       92
1005
12BA97
  0
LINE
  5
12BA98
  8
OBJECT
 10
10166.99999999998
 20
-140.99999999999909
 30
0.0
 11
10166.99999999998
 21
-258.99999999999909
 31
0.0
1001
ACDBBLOCKREPETAG
1070
     1
1071
       93
1005
12BA98
  0
LINE
  5
12BA99
  8
OBJECT
 10
10166.99999999998
 20
-258.99999999999909
 30
0.0
 11
10202.99999999998
 21
-258.99999999999909
 31
0.0
1001
ACDBBLOCKREPETAG
1070
     1
1071
       94
1005
12BA99
  0
LINE
  5
12BA9A
  8
OBJECT
 10
10162.99999999998
 20
-145.49999999999909
 30
0.0
 11
10149.99999999998
 21
-145.49999999999909
 31
0.0
1001
ACDBBLOCKREPETAG
1070
     1
1071
       95
1005
12BA9A
  0
LINE
  5
12BA9B
  8
OBJECT
 10
10149.99999999998
 20
-254.49999999999909
 30
0.0
 11
10162.99999999998
 21
-254.49999999999909
 31
0.0
1001
ACDBBLOCKREPETAG
1070
     1
1071
       96
1005
12BA9B
  0
LINE
  5
12BA9C
  8
OBJECT
 10
10162.99999999998
 20
-254.49999999999909
 30
0.0
 11
10162.99999999998
 21
-145.49999999999909
 31
0.0
1001
ACDBBLOCKREPETAG
1070
     1
1071
       97
1005
12BA9C
  0
LINE
  5
12BA9D
  8
OBJECT
 10
10166.99999999998
 20
-140.99999999999909
 30
0.0
 11
10162.99999999998
 21
-145.49999999999909
 31
0.0
1001
ACDBBLOCKREPETAG
1070
     1
1071
       98
1005
12BA9D
  0
LINE
  5
12BA9E
  8
OBJECT
 10
10166.99999999998
 20
-258.99999999999909
 30
0.0
 11
10162.99999999998
 21
-254.49999999999909
 31
0.0
1001
ACDBBLOCKREPETAG
1070
     1
1071
       99
1005
12BA9E
  0
LINE
  5
12BA9F
  8
OBJECT
 10
10083.0
 20
-137.99999999999909
 30
0.0
 11
10080.0
 21
-137.99999999999909
 31
0.0
1001
ACDBBLOCKREPETAG
1070
     1
1071
      100
1005
12BA9F
  0
ARC
  5
12BAA0
  8
OBJECT
 10
10083.0
 20
-140.99999999999909
 30
0.0
 40
3.0
 50
0.0
 51
90.0
1001
ACDBBLOCKREPETAG
1070
     1
1071
      101
1005
12BAA0
  0
LINE
  5
12BAA1
  8
OBJECT
 10
10080.0
 20
-261.99999999999909
 30
0.0
 11
10083.0
 21
-261.99999999999909
 31
0.0
1001
ACDBBLOCKREPETAG
1070
     1
1071
      102
1005
12BAA1
  0
ARC
  5
12BAA2
  8
OBJECT
 10
10083.0
 20
-258.99999999999909
 30
0.0
 40
3.0
 50
270.0
 51
0.0
1001
ACDBBLOCKREPETAG
1070
     1
1071
      103
1005
12BAA2
  0
LINE
  5
12BAA3
  8
OBJECT
 10
10086.0
 20
-258.99999999999909
 30
0.0
 11
10086.0
 21
-210.3227903203578
 31
0.0
1001
ACDBBLOCKREPETAG
1070
     1
1071
      104
1005
12BAA3
  0
LINE
  5
12BAA4
  8
OBJECT
 10
10086.0
 20
-189.6772096796403
 30
0.0
 11
10086.0
 21
-140.99999999999909
 31
0.0
1001
ACDBBLOCKREPETAG
1070
     1
1071
      105
1005
12BAA4
  0
LINE
  5
12BAA5
  8
HIDDEN
 10
10157.99999999998
 20
-155.49999999999909
 30
0.0
 11
10157.99999999998
 21
-244.49999999999909
 31
0.0
1001
ACDBBLOCKREPETAG
1070
     1
1071
      106
1005
12BAA5
  0
LINE
  5
12BAA6
  8
OBJECT
 10
10149.99997496419
 20
-254.4999509238105
 30
0.0
 11
10149.99997496419
 21
-145.4999509238105
 31
0.0
1001
ACDBBLOCKREPETAG
1070
     1
1071
      108
1005
12BAA6
  0
ARC
  5
12BAA7
  8
OBJECT
 10
10129.800000000019
 20
-199.99999999999909
 30
0.0
 40
45.000000000000547
 50
90.0
 51
270.0
1001
ACDBBLOCKREPETAG
1070
     1
1071
      109
1005
12BAA7
  0
LINE
  5
12BAA8
  8
OBJECT
 10
9797.0000000000127
 20
-583.0
 30
0.0
 11
9790.0000000000127
 21
-583.0
 31
0.0
1001
ACDBBLOCKREPETAG
1070
     1
1071
       83
1005
12BAA8
  0
LINE
  5
12BAA9
  8
OBJECT
 10
9790.0000000000127
 20
-583.0
 30
0.0
 11
9790.0000000000127
 21
-707.0
 31
0.0
1001
ACDBBLOCKREPETAG
1070
     1
1071
       84
1005
12BAA9
  0
LINE
  5
12BAAA
  8
OBJECT
 10
9914.0000000000127
 20
-653.3502637757274
 30
0.0
 11
9914.0000000000127
 21
-755.00000000000102
 31
0.0
1001
ACDBBLOCKREPETAG
1070
     1
1071
       85
1005
12BAAA
  0
LINE
  5
12BAAB
  8
OBJECT
 10
9790.0000000000127
 20
-707.0
 30
0.0
 11
9797.0000000000127
 21
-707.0
 31
0.0
1001
ACDBBLOCKREPETAG
1070
     1
1071
       86
1005
12BAAB
  0
LINE
  5
12BAAC
  8
OBJECT
 10
9797.0000000000127
 20
-707.0
 30
0.0
 11
9797.0000000000127
 21
-583.0
 31
0.0
1001
ACDBBLOCKREPETAG
1070
     1
1071
       87
1005
12BAAC
  0
LINE
  5
12BAAD
  8
CENTER
 10
9865.0000000000164
 20
-645.0000000000008
 30
0.0
 11
9775.0000000000127
 21
-645.0
 31
0.0
1001
ACDBBLOCKREPETAG
1070
     1
1071
       88
1005
12BAAD
  0
LINE
  5
12BAAE
  8
OBJECT
 10
9920.0000000000182
 20
-758.0
 30
0.0
 11
9917.0000000000146
 21
-758.0000000000008
 31
0.0
1001
ACDBBLOCKREPETAG
1070
     1
1071
       89
1005
12BAAE
  0
ARC
  5
12BAAF
  8
OBJECT
 10
9917.0000000000146
 20
-755.00000000000102
 30
0.0
 40
3.0
 50
180.0
 51
270.0
1001
ACDBBLOCKREPETAG
1070
     1
1071
       90
1005
12BAAF
  0
LINE
  5
12BAB0
  8
OBJECT
 10
9797.0000000000127
 20
-586.0
 30
0.0
 11
9833.0000000000164
 21
-586.0000000000008
 31
0.0
1001
ACDBBLOCKREPETAG
1070
     1
1071
       91
1005
12BAB0
  0
LINE
  5
12BAB1
  8
OBJECT
 10
9833.0000000000164
 20
-586.0000000000008
 30
0.0
 11
9833.0000000000164
 21
-704.0000000000008
 31
0.0
1001
ACDBBLOCKREPETAG
1070
     1
1071
       92
1005
12BAB1
  0
LINE
  5
12BAB2
  8
OBJECT
 10
9837.0000000000127
 20
-590.5000000000008
 30
0.0
 11
9837.0000000000127
 21
-699.5000000000008
 31
0.0
1001
ACDBBLOCKREPETAG
1070
     1
1071
       93
1005
12BAB2
  0
LINE
  5
12BAB3
  8
OBJECT
 10
9837.0000000000127
 20
-590.5000000000008
 30
0.0
 11
9850.0000000000127
 21
-590.5000000000008
 31
0.0
1001
ACDBBLOCKREPETAG
1070
     1
1071
       94
1005
12BAB3
  0
LINE
  5
12BAB4
  8
OBJECT
 10
9833.0000000000164
 20
-704.0000000000008
 30
0.0
 11
9797.0000000000127
 21
-704.0
 31
0.0
1001
ACDBBLOCKREPETAG
1070
     1
1071
       95
1005
12BAB4
  0
LINE
  5
12BAB5
  8
OBJECT
 10
9833.0000000000164
 20
-586.0000000000008
 30
0.0
 11
9837.0000000000127
 21
-590.5000000000008
 31
0.0
1001
ACDBBLOCKREPETAG
1070
     1
1071
       96
1005
12BAB5
  0
LINE
  5
12BAB6
  8
OBJECT
 10
9850.0000000000127
 20
-590.5000000000008
 30
0.0
 11
9850.0000000000127
 21
-675.74491827928784
 31
0.0
1001
ACDBBLOCKREPETAG
1070
     1
1071
       97
1005
12BAB6
  0
ARC
  5
12BAB7
  8
OBJECT
 10
9847.2000000000153
 20
-685.0000000000008
 30
0.0
 40
85.0
 50
36.869897645906562
 51
88.112268108168848
1001
ACDBBLOCKREPETAG
1070
     1
1071
       98
1005
12BAB7
  0
LINE
  5
12BAB8
  8
HIDDEN
 10
9842.0000000000127
 20
-600.50000000000068
 30
0.0
 11
9842.0000000000127
 21
-689.50000000000091
 31
0.0
1001
ACDBBLOCKREPETAG
1070
     1
1071
      100
1005
12BAB8
  0
LINE
  5
12BAB9
  8
OBJECT
 10
9914.0000000000127
 20
-751.07945073181781
 30
0.0
 11
9843.3686800789692
 21
-699.5000000000008
 31
0.0
1001
ACDBBLOCKREPETAG
1070
     1
1071
      101
1005
12BAB9
  0
LINE
  5
12BABA
  8
OBJECT
 10
9920.0000000000182
 20
-634.0
 30
0.0
 11
9915.2000000000153
 21
-634.0
 31
0.0
1001
ACDBBLOCKREPETAG
1070
     1
1071
      102
1005
12BABA
  0
LINE
  5
12BABB
  8
OBJECT
 10
9914.0000000000127
 20
-653.35026377573013
 30
0.0
 11
9915.2000000000153
 21
-634.0
 31
0.0
1001
ACDBBLOCKREPETAG
1070
     1
1071
      103
1005
12BABB
  0
LINE
  5
12BABC
  8
OBJECT
 10
9837.0000000000127
 20
-699.5000000000008
 30
0.0
 11
9843.3686800789692
 21
-699.5000000000008
 31
0.0
1001
ACDBBLOCKREPETAG
1070
     1
1071
      104
1005
12BABC
  0
LINE
  5
12BABD
  8
OBJECT
 10
9833.0000000000164
 20
-704.0000000000008
 30
0.0
 11
9837.0000000000127
 21
-699.5000000000008
 31
0.0
1001
ACDBBLOCKREPETAG
1070
     1
1071
      105
1005
12BABD
  0
CIRCLE
  5
12BABE
  8
OBJECT
 10
10000.0
 20
-696.0
 30
0.0
 40
62.0
1001
ACDBBLOCKREPETAG
1070
     1
1071
        0
1005
12BABE
  0
LINE
  5
12BABF
  8
OBJECT
 10
10202.99999999998
 20
-583.0000000000008
 30
0.0
 11
10209.99999999998
 21
-583.0000000000008
 31
0.0
1001
ACDBBLOCKREPETAG
1070
     1
1071
       83
1005
12BABF
  0
LINE
  5
12BAC0
  8
OBJECT
 10
10209.99999999998
 20
-583.0000000000008
 30
0.0
 11
10209.99999999998
 21
-707.00000000000091
 31
0.0
1001
ACDBBLOCKREPETAG
1070
     1
1071
       84
1005
12BAC0
  0
LINE
  5
12BAC1
  8
OBJECT
 10
10085.99999999998
 20
-653.3502637757274
 30
0.0
 11
10085.99999999998
 21
-755.00000000000102
 31
0.0
1001
ACDBBLOCKREPETAG
1070
     1
1071
       85
1005
12BAC1
  0
LINE
  5
12BAC2
  8
OBJECT
 10
10209.99999999998
 20
-707.00000000000091
 30
0.0
 11
10202.99999999998
 21
-707.00000000000091
 31
0.0
1001
ACDBBLOCKREPETAG
1070
     1
1071
       86
1005
12BAC2
  0
LINE
  5
12BAC3
  8
OBJECT
 10
10202.99999999998
 20
-707.00000000000091
 30
0.0
 11
10202.99999999998
 21
-583.0000000000008
 31
0.0
1001
ACDBBLOCKREPETAG
1070
     1
1071
       87
1005
12BAC3
  0
LINE
  5
12BAC4
  8
CENTER
 10
10134.99999999998
 20
-645.0000000000008
 30
0.0
 11
10224.99999999998
 21
-645.0000000000008
 31
0.0
1001
ACDBBLOCKREPETAG
1070
     1
1071
       88
1005
12BAC4
  0
LINE
  5
12BAC5
  8
OBJECT
 10
10079.99999999998
 20
-758.0
 30
0.0
 11
10082.99999999998
 21
-758.0000000000008
 31
0.0
1001
ACDBBLOCKREPETAG
1070
     1
1071
       89
1005
12BAC5
  0
ARC
  5
12BAC6
  8
OBJECT
 10
10082.99999999998
 20
-755.00000000000102
 30
0.0
 40
3.0
 50
270.0
 51
0.0
1001
ACDBBLOCKREPETAG
1070
     1
1071
       90
1005
12BAC6
  0
LINE
  5
12BAC7
  8
OBJECT
 10
10202.99999999998
 20
-586.0000000000008
 30
0.0
 11
10166.99999999998
 21
-586.0000000000008
 31
0.0
1001
ACDBBLOCKREPETAG
1070
     1
1071
       91
1005
12BAC7
  0
LINE
  5
12BAC8
  8
OBJECT
 10
10166.99999999998
 20
-586.0000000000008
 30
0.0
 11
10166.99999999998
 21
-704.0000000000008
 31
0.0
1001
ACDBBLOCKREPETAG
1070
     1
1071
       92
1005
12BAC8
  0
LINE
  5
12BAC9
  8
OBJECT
 10
10162.99999999998
 20
-590.5000000000008
 30
0.0
 11
10162.99999999998
 21
-699.5000000000008
 31
0.0
1001
ACDBBLOCKREPETAG
1070
     1
1071
       93
1005
12BAC9
  0
LINE
  5
12BACA
  8
OBJECT
 10
10162.99999999998
 20
-590.5000000000008
 30
0.0
 11
10149.99999999998
 21
-590.5000000000008
 31
0.0
1001
ACDBBLOCKREPETAG
1070
     1
1071
       94
1005
12BACA
  0
LINE
  5
12BACB
  8
OBJECT
 10
10166.99999999998
 20
-704.0000000000008
 30
0.0
 11
10202.99999999998
 21
-704.0000000000008
 31
0.0
1001
ACDBBLOCKREPETAG
1070
     1
1071
       95
1005
12BACB
  0
LINE
  5
12BACC
  8
OBJECT
 10
10166.99999999998
 20
-586.0000000000008
 30
0.0
 11
10162.99999999998
 21
-590.5000000000008
 31
0.0
1001
ACDBBLOCKREPETAG
1070
     1
1071
       96
1005
12BACC
  0
LINE
  5
12BACD
  8
OBJECT
 10
10149.99999999998
 20
-590.5000000000008
 30
0.0
 11
10149.99999999998
 21
-675.74491827928784
 31
0.0
1001
ACDBBLOCKREPETAG
1070
     1
1071
       97
1005
12BACD
  0
ARC
  5
12BACE
  8
OBJECT
 10
10152.799999999979
 20
-685.0000000000008
 30
0.0
 40
85.0
 50
91.887731891831123
 51
143.1301023540934
1001
ACDBBLOCKREPETAG
1070
     1
1071
       98
1005
12BACE
  0
LINE
  5
12BACF
  8
HIDDEN
 10
10157.99999999998
 20
-600.50000000000068
 30
0.0
 11
10157.99999999998
 21
-689.50000000000091
 31
0.0
1001
ACDBBLOCKREPETAG
1070
     1
1071
      100
1005
12BACF
  0
LINE
  5
12BAD0
  8
OBJECT
 10
10085.99999999998
 20
-751.07945073181781
 30
0.0
 11
10156.631319921031
 21
-699.5000000000008
 31
0.0
1001
ACDBBLOCKREPETAG
1070
     1
1071
      101
1005
12BAD0
  0
LINE
  5
12BAD1
  8
OBJECT
 10
10079.99999999998
 20
-634.0
 30
0.0
 11
10084.799999999979
 21
-634.0
 31
0.0
1001
ACDBBLOCKREPETAG
1070
     1
1071
      102
1005
12BAD1
  0
LINE
  5
12BAD2
  8
OBJECT
 10
10085.99999999998
 20
-653.35026377573013
 30
0.0
 11
10084.799999999979
 21
-634.0
 31
0.0
1001
ACDBBLOCKREPETAG
1070
     1
1071
      103
1005
12BAD2
  0
LINE
  5
12BAD3
  8
OBJECT
 10
10162.99999999998
 20
-699.5000000000008
 30
0.0
 11
10156.631319921031
 21
-699.5000000000008
 31
0.0
1001
ACDBBLOCKREPETAG
1070
     1
1071
      104
1005
12BAD3
  0
LINE
  5
12BAD4
  8
OBJECT
 10
10166.99999999998
 20
-704.0000000000008
 30
0.0
 11
10162.99999999998
 21
-699.5000000000008
 31
0.0
1001
ACDBBLOCKREPETAG
1070
     1
1071
      105
1005
12BAD4
  0
LINE
  5
12BAD5
  8
OBJECT
 10
7923.0
 20
-570.99999999999432
 30
0.0
 11
7923.0
 21
-549.99999999999432
 31
0.0
1001
ACDBBLOCKREPETAG
1070
     1
1071
       36
1005
12BAD5
  0
LINE
  5
12BAD6
  8
OBJECT
 10
7923.0
 20
-549.99999999999432
 30
0.0
 11
8077.0
 21
-549.99999999999432
 31
0.0
1001
ACDBBLOCKREPETAG
1070
     1
1071
       37
1005
12BAD6
  0
LINE
  5
12BAD7
  8
HIDDEN
 10
7943.0
 20
-619.99999999999432
 30
0.0
 11
8057.0
 21
-619.99999999999432
 31
0.0
1001
ACDBBLOCKREPETAG
1070
     1
1071
       38
1005
12BAD7
  0
LINE
  5
12BAD8
  8
OBJECT
 10
8077.0
 20
-549.99999999999432
 30
0.0
 11
8077.0
 21
-570.99999999999432
 31
0.0
1001
ACDBBLOCKREPETAG
1070
     1
1071
       39
1005
12BAD8
  0
LINE
  5
12BAD9
  8
OBJECT
 10
8077.0
 20
-570.99999999999432
 30
0.0
 11
7923.0
 21
-570.99999999999432
 31
0.0
1001
ACDBBLOCKREPETAG
1070
     1
1071
       40
1005
12BAD9
  0
LINE
  5
12BADA
  8
CENTER
 10
8000.0
 20
-534.99999999999432
 30
0.0
 11
8000.0
 21
-769.9999999999942
 31
0.0
1001
ACDBBLOCKREPETAG
1070
     1
1071
       41
1005
12BADA
  0
LINE
  5
12BADB
  8
OBJECT
 10
7928.0
 20
-570.99999999999432
 30
0.0
 11
7928.0
 21
-633.99999999999432
 31
0.0
1001
ACDBBLOCKREPETAG
1070
     1
1071
       42
1005
12BADB
  0
LINE
  5
12BADC
  8
OBJECT
 10
8072.0
 20
-633.99999999999432
 30
0.0
 11
8072.0
 21
-570.99999999999432
 31
0.0
1001
ACDBBLOCKREPETAG
1070
     1
1071
       43
1005
12BADC
  0
LINE
  5
12BADD
  8
OBJECT
 10
7920.0
 20
-757.9999999999942
 30
0.0
 11
8080.0
 21
-757.9999999999942
 31
0.0
1001
ACDBBLOCKREPETAG
1070
     1
1071
       44
1005
12BADD
  0
LINE
  5
12BADE
  8
OBJECT
 10
8080.0
 20
-633.99999999999432
 30
0.0
 11
7920.0
 21
-633.99999999999432
 31
0.0
1001
ACDBBLOCKREPETAG
1070
     1
1071
       45
1005
12BADE
  0
LINE
  5
12BADF
  8
OBJECT
 10
7920.0
 20
-757.9999999999942
 30
0.0
 11
7920.0
 21
-769.9999999999942
 31
0.0
1001
ACDBBLOCKREPETAG
1070
     1
1071
       46
1005
12BADF
  0
LINE
  5
12BAE0
  8
OBJECT
 10
7920.0
 20
-769.9999999999942
 30
0.0
 11
8080.0
 21
-769.9999999999942
 31
0.0
1001
ACDBBLOCKREPETAG
1070
     1
1071
       47
1005
12BAE0
  0
LINE
  5
12BAE1
  8
OBJECT
 10
8080.0
 20
-769.9999999999942
 30
0.0
 11
8080.0
 21
-757.9999999999942
 31
0.0
1001
ACDBBLOCKREPETAG
1070
     1
1071
       48
1005
12BAE1
  0
ARC
  5
12BAE2
  8
OBJECT
 10
8200.6872746716726
 20
-749.40809941010195
 30
0.0
 40
170.6350503965856
 50
137.44134459184301
 51
149.91949581337221
1001
ACDBBLOCKREPETAG
1070
     1
1071
       52
1005
12BAE2
  0
ARC
  5
12BAE3
  8
OBJECT
 10
8200.6872746716726
 20
-642.59190058988645
 30
0.0
 40
170.6350503965856
 50
210.08050418662771
 51
222.55865540815699
1001
ACDBBLOCKREPETAG
1070
     1
1071
       53
1005
12BAE3
  0
ARC
  5
12BAE4
  8
OBJECT
 10
7799.3127253283265
 20
-749.40809941010195
 30
0.0
 40
170.6350503965856
 50
30.080504186787142
 51
42.558655408456282
1001
ACDBBLOCKREPETAG
1070
     1
1071
       54
1005
12BAE4
  0
ARC
  5
12BAE5
  8
OBJECT
 10
7799.3127253283265
 20
-642.59190058988645
 30
0.0
 40
170.6350503965856
 50
317.44134459154373
 51
329.9194958132129
1001
ACDBBLOCKREPETAG
1070
     1
1071
       55
1005
12BAE5
  0
POINT
  5
12BAE6
  8
DOTS
 10
8000.0
 20
-754.9999999999942
 30
0.0
1001
ACDBBLOCKREPETAG
1070
     1
1071
      184
1005
12BAE6
  0
LINE
  5
12BAE7
  8
SLIM
 10
7945.2566704260989
 20
-137.99999999999909
 30
0.0
 11
7955.9548403695781
 21
-127.30183005652231
 31
0.0
1001
GRADIENTCOLOR1ACI
1070
     5
1001
GRADIENTCOLOR2ACI
1070
     2
1001
ACAD
1010
0.0
1020
0.0
1030
0.0
1001
ACDBBLOCKREPETAG
1070
     1
1071
      428
1005
12BAE7
  0
LINE
  5
12BAE8
  8
SLIM
 10
7954.2369265471707
 20
-137.99999999999909
 30
0.0
 11
7972.7507744763334
 21
-119.4861520708364
 31
0.0
1001
GRADIENTCOLOR1ACI
1070
     5
1001
GRADIENTCOLOR2ACI
1070
     2
1001
ACAD
1010
0.0
1020
0.0
1030
0.0
1001
ACDBBLOCKREPETAG
1070
     1
1071
      429
1005
12BAE8
  0
LINE
  5
12BAE9
  8
SLIM
 10
7973.5212243124561
 20
-127.6959583557812
 30
0.0
 11
7984.8575146748608
 21
-116.359667993377
 31
0.0
1001
GRADIENTCOLOR1ACI
1070
     5
1001
GRADIENTCOLOR2ACI
1070
     2
1001
ACAD
1010
0.0
1020
0.0
1030
0.0
1001
ACDBBLOCKREPETAG
1070
     1
1071
      430
1005
12BAE9
  0
LINE
  5
12BAEA
  8
SLIM
 10
7985.8944171461262
 20
-124.30302164318159
 30
0.0
 11
7995.0533812002559
 21
-115.1440575890517
 31
0.0
1001
GRADIENTCOLOR1ACI
1070
     5
1001
GRADIENTCOLOR2ACI
1070
     2
1001
ACAD
1010
0.0
1020
0.0
1030
0.0
1001
ACDBBLOCKREPETAG
1070
     1
1071
      431
1005
12BAEA
  0
LINE
  5
12BAEB
  8
SLIM
 10
7996.077732749206
 20
-123.0999621611699
 30
0.0
 11
8000.0
 21
-119.1776949103767
 31
0.0
1001
GRADIENTCOLOR1ACI
1070
     5
1001
GRADIENTCOLOR2ACI
1070
     2
1001
ACAD
1010
0.0
1020
0.0
1030
0.0
1001
ACDBBLOCKREPETAG
1070
     1
1071
      432
1005
12BAEB
  0
LINE
  5
12BAEC
  8
SLIM
 10
8000.0
 20
-119.1776949103767
 30
0.0
 11
8004.0797313529074
 21
-115.0979635574724
 31
0.0
1001
GRADIENTCOLOR1ACI
1070
     5
1001
GRADIENTCOLOR2ACI
1070
     2
1001
ACAD
1010
0.0
1020
0.0
1030
0.0
1001
ACDBBLOCKREPETAG
1070
     1
1071
      433
1005
12BAEC
  0
LINE
  5
12BAED
  8
SLIM
 10
8004.9957202542737
 20
-123.1622307771683
 30
0.0
 11
8012.2679784105749
 21
-115.88997262087101
 31
0.0
1001
GRADIENTCOLOR1ACI
1070
     5
1001
GRADIENTCOLOR2ACI
1070
     2
1001
ACAD
1010
0.0
1020
0.0
1030
0.0
1001
ACDBBLOCKREPETAG
1070
     1
1071
      434
1005
12BAED
  0
LINE
  5
12BAEE
  8
SLIM
 10
8013.028059366964
 20
-124.1101477855505
 30
0.0
 11
8019.7999414573624
 21
-117.3382656951526
 31
0.0
1001
GRADIENTCOLOR1ACI
1070
     5
1001
GRADIENTCOLOR2ACI
1070
     2
1001
ACAD
1010
0.0
1020
0.0
1030
0.0
1001
ACDBBLOCKREPETAG
1070
     1
1071
      435
1005
12BAEE
  0
LINE
  5
12BAEF
  8
SLIM
 10
8020.3740813142458
 20
-125.7443819593383
 30
0.0
 11
8026.7872038672767
 21
-119.3312594063044
 31
0.0
1001
GRADIENTCOLOR1ACI
1070
     5
1001
GRADIENTCOLOR2ACI
1070
     2
1001
ACAD
1010
0.0
1020
0.0
1030
0.0
1001
ACDBBLOCKREPETAG
1070
     1
1071
      436
1005
12BAEF
  0
LINE
  5
12BAF0
  8
SLIM
 10
8027.1524719988738
 20
-127.946247395778
 30
0.0
 11
8033.3030030760328
 21
-121.7957163186195
 31
0.0
1001
GRADIENTCOLOR1ACI
1070
     5
1001
GRADIENTCOLOR2ACI
1070
     2
1001
ACAD
1010
0.0
1020
0.0
1030
0.0
1001
ACDBBLOCKREPETAG
1070
     1
1071
      437
1005
12BAF0
  0
LINE
  5
12BAF1
  8
SLIM
 10
8033.4390986513308
 20
-130.63987686439191
 30
0.0
 11
8039.3973119843777
 21
-124.6816635313439
 31
0.0
1001
GRADIENTCOLOR1ACI
1070
     5
1001
GRADIENTCOLOR2ACI
1070
     2
1001
ACAD
1010
0.0
1020
0.0
1030
0.0
1001
ACDBBLOCKREPETAG
1070
     1
1071
      438
1005
12BAF1
  0
LINE
  5
12BAF2
  8
SLIM
 10
8039.2842246217979
 20
-133.77500701499321
 30
0.0
 11
8045.1047705343699
 21
-127.95446110242381
 31
0.0
1001
GRADIENTCOLOR1ACI
1070
     5
1001
GRADIENTCOLOR2ACI
1070
     2
1001
ACAD
1010
0.0
1020
0.0
1030
0.0
1001
ACDBBLOCKREPETAG
1070
     1
1071
      439
1005
12BAF2
  0
LINE
  5
12BAF3
  8
SLIM
 10
8044.7212801698061
 20
-137.31820758805651
 30
0.0
 11
8050.449155789197
 21
-131.59033196866449
 31
0.0
1001
GRADIENTCOLOR1ACI
1070
     5
1001
GRADIENTCOLOR2ACI
1070
     2
1001
ACAD
1010
0.0
1020
0.0
1030
0.0
1001
ACDBBLOCKREPETAG
1070
     1
1071
      440
1005
12BAF3
  0
LINE
  5
12BAF4
  8
SLIM
 10
8053.0197438789319
 20
-137.99999999999909
 30
0.0
 11
8055.4459941864034
 21
-135.57374969252561
 31
0.0
1001
GRADIENTCOLOR1ACI
1070
     5
1001
GRADIENTCOLOR2ACI
1070
     2
1001
ACAD
1010
0.0
1020
0.0
1030
0.0
1001
ACDBBLOCKREPETAG
1070
     1
1071
      441
1005
12BAF4
  0
LINE
  5
12BAF5
  8
CENTER
 10
8000.0
 20
-279.99999999999909
 30
0.0
 11
8000.0
 21
-99.999999999999091
 31
0.0
1001
ACDBBLOCKREPETAG
1070
     1
1071
      160
1005
12BAF5
  0
CIRCLE
  5
12BAF6
  8
OBJECT
 10
8000.0
 20
-199.99999999999909
 30
0.0
 40
70.0
1001
ACDBBLOCKREPETAG
1070
     1
1071
      161
1005
12BAF6
  0
CIRCLE
  5
12BAF7
  8
OBJECT
 10
8000.0
 20
-199.99999999999909
 30
0.0
 40
77.0
1001
ACDBBLOCKREPETAG
1070
     1
1071
      162
1005
12BAF7
  0
LINE
  5
12BAF8
  8
OBJECT
 10
8045.6618002273271
 20
-137.99999999999909
 30
0.0
 11
8080.0
 21
-137.99999999999909
 31
0.0
1001
ACDBBLOCKREPETAG
1070
     1
1071
      164
1005
12BAF8
  0
LINE
  5
12BAF9
  8
OBJECT
 10
8062.0
 20
-261.99999999999909
 30
0.0
 11
8080.0
 21
-261.99999999999909
 31
0.0
1001
ACDBBLOCKREPETAG
1070
     1
1071
      165
1005
12BAF9
  0
LINE
  5
12BAFA
  8
OBJECT
 10
8062.0
 20
-261.99999999999909
 30
0.0
 11
8062.0
 21
-279.99999999999909
 31
0.0
1001
ACDBBLOCKREPETAG
1070
     1
1071
      167
1005
12BAFA
  0
LINE
  5
12BAFB
  8
OBJECT
 10
7938.0
 20
-261.99999999999909
 30
0.0
 11
7938.0
 21
-279.99999999999909
 31
0.0
1001
ACDBBLOCKREPETAG
1070
     1
1071
      168
1005
12BAFB
  0
LINE
  5
12BAFC
  8
OBJECT
 10
7938.0
 20
-261.99999999999909
 30
0.0
 11
7920.0
 21
-261.99999999999909
 31
0.0
1001
ACDBBLOCKREPETAG
1070
     1
1071
      170
1005
12BAFC
  0
LINE
  5
12BAFD
  8
OBJECT
 10
7954.3381997726747
 20
-137.99999999999909
 30
0.0
 11
7920.0
 21
-137.99999999999909
 31
0.0
1001
ACDBBLOCKREPETAG
1070
     1
1071
      171
1005
12BAFD
  0
LINE
  5
12BAFE
  8
OBJECT
 10
7945.5527778486357
 20
-254.44722215136329
 30
0.0
 11
7938.0
 21
-261.99999999999909
 31
0.0
1001
ACDBBLOCKREPETAG
1070
     1
1071
      180
1005
12BAFE
  0
LINE
  5
12BAFF
  8
OBJECT
 10
8054.4472221513652
 20
-254.44722215136329
 30
0.0
 11
8062.0
 21
-261.99999999999909
 31
0.0
1001
ACDBBLOCKREPETAG
1070
     1
1071
      181
1005
12BAFF
  0
ARC
  5
12BB00
  8
OBJECT
 10
8000.0
 20
-199.99999999999909
 30
0.0
 40
85.0
 50
46.837102859806208
 51
133.16289714019371
1001
ACDBBLOCKREPETAG
1070
     1
1071
      183
1005
12BB00
  0
LINE
  5
12BB01
  8
OBJECT
 10
8024.1029330933006
 20
-243.80694712371681
 30
0.0
 11
8020.6596569999974
 21
-232.55462199999889
 31
0.0
1001
ACDBBLOCKREPETAG
1070
     1
1071
      314
1005
12BB01
  0
LINE
  5
12BB02
  8
OBJECT
 10
7986.7927499013749
 20
-218.22553374208019
 30
0.0
 11
8020.6596569999974
 21
-232.5546219999969
 31
0.0
1001
ACDBBLOCKREPETAG
1070
     1
1071
      316
1005
12BB02
  0
ARC
  5
12BB03
  8
OBJECT
 10
7982.8961697618997
 20
-227.4351299990567
 30
0.0
 40
10.0
 50
67.066778292911366
 51
154.0147343702935
1001
ACDBBLOCKREPETAG
1070
     1
1071
      317
1005
12BB03
  0
ARC
  5
12BB04
  8
OBJECT
 10
7986.1488390381273
 20
-225.55386256729159
 30
0.0
 40
7.0
 50
67.066778292911366
 51
154.0147337749826
1001
ACDBBLOCKREPETAG
1070
     1
1071
      318
1005
12BB04
  0
LINE
  5
12BB05
  8
OBJECT
 10
7969.4199755553009
 20
-243.89888500818171
 30
0.0
 11
7979.8564918232369
 21
-222.48688253356801
 31
0.0
1001
ACDBBLOCKREPETAG
1070
     1
1071
      349
1005
12BB05
  0
LINE
  5
12BB06
  8
OBJECT
 10
7965.2972169006098
 20
-240.71813901882729
 30
0.0
 11
7973.9071022665084
 21
-223.05373004430751
 31
0.0
1001
ACDBBLOCKREPETAG
1070
     1
1071
      350
1005
12BB06
  0
ARC
  5
12BB07
  8
OBJECT
 10
7976.5796953073141
 20
-207.1289369828437
 30
0.0
 40
60.031113246032611
 50
314.07020130418567
 51
322.33936106089681
1001
ACDBBLOCKREPETAG
1070
     1
1071
      351
1005
12BB07
  0
CIRCLE
  5
12BB08
  8
OBJECT
 10
8000.0
 20
-199.99999999999909
 30
0.0
 40
53.5
1001
ACDBBLOCKREPETAG
1070
     1
1071
      352
1005
12BB08
  0
POINT
  5
12BB09
  8
DOTS
 10
8000.0
 20
-199.99999999999909
 30
0.0
 50
270.0
1001
ACDBBLOCKREPETAG
1070
     1
1071
      364
1005
12BB09
  0
ARC
  5
12BB0A
  8
OBJECT
 10
8000.0
 20
-199.99999999999909
 30
0.0
 40
50.0
 50
298.81994300000417
 51
228.5237695596397
1001
ACDBBLOCKREPETAG
1070
     1
1071
      157
1005
12BB0A
  0
LINE
  5
12BB0B
  8
CENTER
 10
8080.0
 20
-199.99999999999909
 30
0.0
 11
7920.0
 21
-199.99999999999909
 31
0.0
1001
ACDBBLOCKREPETAG
1070
     1
1071
      158
1005
12BB0B
  0
LINE
  5
12BB0C
  8
OBJECT
 10
7797.0000000000136
 20
-261.99999999999909
 30
0.0
 11
7790.0000000000127
 21
-261.99999999999909
 31
0.0
1001
ACDBBLOCKREPETAG
1070
     1
1071
       85
1005
12BB0C
  0
LINE
  5
12BB0D
  8
OBJECT
 10
7790.0000000000127
 20
-261.99999999999909
 30
0.0
 11
7790.0000000000127
 21
-137.99999999999909
 31
0.0
1001
ACDBBLOCKREPETAG
1070
     1
1071
       86
1005
12BB0D
  0
LINE
  5
12BB0E
  8
OBJECT
 10
7790.0000000000127
 20
-137.99999999999909
 30
0.0
 11
7797.0000000000136
 21
-137.99999999999909
 31
0.0
1001
ACDBBLOCKREPETAG
1070
     1
1071
       87
1005
12BB0E
  0
LINE
  5
12BB0F
  8
OBJECT
 10
7797.0000000000136
 20
-137.99999999999909
 30
0.0
 11
7797.0000000000136
 21
-261.99999999999909
 31
0.0
1001
ACDBBLOCKREPETAG
1070
     1
1071
       88
1005
12BB0F
  0
LINE
  5
12BB10
  8
CENTER
 10
7775.0000000000136
 20
-199.99999999999909
 30
0.0
 11
7920.0
 21
-199.99999999999909
 31
0.0
1001
ACDBBLOCKREPETAG
1070
     1
1071
       89
1005
12BB10
  0
LINE
  5
12BB11
  8
OBJECT
 10
7850.0000250358144
 20
-154.9999999999954
 30
0.0
 11
7914.0
 21
-154.99999999999909
 31
0.0
1001
ACDBBLOCKREPETAG
1070
     1
1071
       90
1005
12BB11
  0
LINE
  5
12BB12
  8
OBJECT
 10
7850.0000250358144
 20
-244.99999999999909
 30
0.0
 11
7914.0
 21
-244.99999999999909
 31
0.0
1001
ACDBBLOCKREPETAG
1070
     1
1071
       91
1005
12BB12
  0
LINE
  5
12BB13
  8
OBJECT
 10
7797.0000000000136
 20
-258.99999999999909
 30
0.0
 11
7833.0000000000136
 21
-258.99999999999909
 31
0.0
1001
ACDBBLOCKREPETAG
1070
     1
1071
       92
1005
12BB13
  0
LINE
  5
12BB14
  8
OBJECT
 10
7833.0000000000136
 20
-258.99999999999909
 30
0.0
 11
7833.0000000000136
 21
-140.99999999999909
 31
0.0
1001
ACDBBLOCKREPETAG
1070
     1
1071
       93
1005
12BB14
  0
LINE
  5
12BB15
  8
OBJECT
 10
7833.0000000000136
 20
-140.99999999999909
 30
0.0
 11
7797.0000000000136
 21
-140.99999999999909
 31
0.0
1001
ACDBBLOCKREPETAG
1070
     1
1071
       94
1005
12BB15
  0
LINE
  5
12BB16
  8
OBJECT
 10
7837.0000000000127
 20
-254.49999999999909
 30
0.0
 11
7850.0000000000136
 21
-254.49999999999909
 31
0.0
1001
ACDBBLOCKREPETAG
1070
     1
1071
       95
1005
12BB16
  0
LINE
  5
12BB17
  8
OBJECT
 10
7850.0000000000136
 20
-145.49999999999909
 30
0.0
 11
7837.0000000000127
 21
-145.49999999999909
 31
0.0
1001
ACDBBLOCKREPETAG
1070
     1
1071
       96
1005
12BB17
  0
LINE
  5
12BB18
  8
OBJECT
 10
7837.0000000000127
 20
-145.49999999999909
 30
0.0
 11
7837.0000000000127
 21
-254.49999999999909
 31
0.0
1001
ACDBBLOCKREPETAG
1070
     1
1071
       97
1005
12BB18
  0
LINE
  5
12BB19
  8
OBJECT
 10
7833.0000000000136
 20
-258.99999999999909
 30
0.0
 11
7837.0000000000127
 21
-254.49999999999909
 31
0.0
1001
ACDBBLOCKREPETAG
1070
     1
1071
       98
1005
12BB19
  0
LINE
  5
12BB1A
  8
OBJECT
 10
7833.0000000000136
 20
-140.99999999999909
 30
0.0
 11
7837.0000000000127
 21
-145.49999999999909
 31
0.0
1001
ACDBBLOCKREPETAG
1070
     1
1071
       99
1005
12BB1A
  0
LINE
  5
12BB1B
  8
OBJECT
 10
7917.0
 20
-261.99999999999909
 30
0.0
 11
7920.0
 21
-261.99999999999909
 31
0.0
1001
ACDBBLOCKREPETAG
1070
     1
1071
      100
1005
12BB1B
  0
ARC
  5
12BB1C
  8
OBJECT
 10
7917.0
 20
-258.99999999999909
 30
0.0
 40
3.0
 50
180.0
 51
270.0
1001
ACDBBLOCKREPETAG
1070
     1
1071
      101
1005
12BB1C
  0
LINE
  5
12BB1D
  8
OBJECT
 10
7920.0
 20
-137.99999999999909
 30
0.0
 11
7917.0
 21
-137.99999999999909
 31
0.0
1001
ACDBBLOCKREPETAG
1070
     1
1071
      102
1005
12BB1D
  0
ARC
  5
12BB1E
  8
OBJECT
 10
7917.0
 20
-140.99999999999909
 30
0.0
 40
3.0
 50
90.0
 51
180.0
1001
ACDBBLOCKREPETAG
1070
     1
1071
      103
1005
12BB1E
  0
LINE
  5
12BB1F
  8
OBJECT
 10
7914.0
 20
-140.99999999999909
 30
0.0
 11
7914.0
 21
-189.6772096796403
 31
0.0
1001
ACDBBLOCKREPETAG
1070
     1
1071
      104
1005
12BB1F
  0
LINE
  5
12BB20
  8
OBJECT
 10
7914.0
 20
-210.3227903203578
 30
0.0
 11
7914.0
 21
-258.99999999999909
 31
0.0
1001
ACDBBLOCKREPETAG
1070
     1
1071
      105
1005
12BB20
  0
LINE
  5
12BB21
  8
HIDDEN
 10
7842.0000000000136
 20
-244.49999999999909
 30
0.0
 11
7842.0000000000136
 21
-155.49999999999909
 31
0.0
1001
ACDBBLOCKREPETAG
1070
     1
1071
      106
1005
12BB21
  0
LINE
  5
12BB22
  8
OBJECT
 10
7850.0000250358144
 20
-145.50004907618759
 30
0.0
 11
7850.0000250358144
 21
-254.50004907618771
 31
0.0
1001
ACDBBLOCKREPETAG
1070
     1
1071
      108
1005
12BB22
  0
ARC
  5
12BB23
  8
OBJECT
 10
7870.1999999999744
 20
-199.99999999999909
 30
0.0
 40
45.000000000000547
 50
270.0
 51
90.0
1001
ACDBBLOCKREPETAG
1070
     1
1071
      109
1005
12BB23
  0
LINE
  5
12BB24
  8
CENTER
 10
8000.0
 20
-300.99999999999898
 30
0.0
 11
8000.0
 21
-279.99999999999909
 31
0.0
1001
ACDBBLOCKREPETAG
1070
     1
1071
        0
1005
12BB24
  0
LINE
  5
12BB25
  8
OBJECT
 10
8062.0
 20
-283.0
 30
0.0
 11
8062.0
 21
-279.99999999999909
 31
0.0
1001
ACDBBLOCKREPETAG
1070
     1
1071
        1
1005
12BB25
  0
ARC
  5
12BB26
  8
OBJECT
 10
8059.0
 20
-283.0
 30
0.0
 40
3.0
 50
270.0
 51
0.0
1001
ACDBBLOCKREPETAG
1070
     1
1071
        2
1005
12BB26
  0
LINE
  5
12BB27
  8
OBJECT
 10
7938.0
 20
-279.99999999999909
 30
0.0
 11
7938.0
 21
-282.99999999999818
 31
0.0
1001
ACDBBLOCKREPETAG
1070
     1
1071
        3
1005
12BB27
  0
ARC
  5
12BB28
  8
OBJECT
 10
7941.0
 20
-282.99999999999818
 30
0.0
 40
3.0
 50
180.0
 51
270.0
1001
ACDBBLOCKREPETAG
1070
     1
1071
        4
1005
12BB28
  0
LINE
  5
12BB29
  8
OBJECT
 10
7941.0
 20
-285.99999999999818
 30
0.0
 11
8059.0
 21
-286.0
 31
0.0
1001
ACDBBLOCKREPETAG
1070
     1
1071
        5
1005
12BB29
  0
LINE
  5
12BB2A
  8
OBJECT
 10
8202.9999999999854
 20
-137.99999999999909
 30
0.0
 11
8209.9999999999836
 21
-137.99999999999909
 31
0.0
1001
ACDBBLOCKREPETAG
1070
     1
1071
       85
1005
12BB2A
  0
LINE
  5
12BB2B
  8
OBJECT
 10
8209.9999999999836
 20
-137.99999999999909
 30
0.0
 11
8209.9999999999836
 21
-261.99999999999909
 31
0.0
1001
ACDBBLOCKREPETAG
1070
     1
1071
       86
1005
12BB2B
  0
LINE
  5
12BB2C
  8
OBJECT
 10
8209.9999999999836
 20
-261.99999999999909
 30
0.0
 11
8202.9999999999854
 21
-261.99999999999909
 31
0.0
1001
ACDBBLOCKREPETAG
1070
     1
1071
       87
1005
12BB2C
  0
LINE
  5
12BB2D
  8
OBJECT
 10
8202.9999999999854
 20
-261.99999999999909
 30
0.0
 11
8202.9999999999854
 21
-137.99999999999909
 31
0.0
1001
ACDBBLOCKREPETAG
1070
     1
1071
       88
1005
12BB2D
  0
LINE
  5
12BB2E
  8
CENTER
 10
8224.9999999999873
 20
-199.99999999999909
 30
0.0
 11
8080.0
 21
-199.99999999999909
 31
0.0
1001
ACDBBLOCKREPETAG
1070
     1
1071
       89
1005
12BB2E
  0
LINE
  5
12BB2F
  8
OBJECT
 10
8149.9999749641856
 20
-245.0000000000027
 30
0.0
 11
8086.0
 21
-244.99999999999909
 31
0.0
1001
ACDBBLOCKREPETAG
1070
     1
1071
       90
1005
12BB2F
  0
LINE
  5
12BB30
  8
OBJECT
 10
8149.9999749641856
 20
-154.99999999999909
 30
0.0
 11
8086.0
 21
-154.99999999999909
 31
0.0
1001
ACDBBLOCKREPETAG
1070
     1
1071
       91
1005
12BB30
  0
LINE
  5
12BB31
  8
OBJECT
 10
8202.9999999999854
 20
-140.99999999999909
 30
0.0
 11
8166.9999999999854
 21
-140.99999999999909
 31
0.0
1001
ACDBBLOCKREPETAG
1070
     1
1071
       92
1005
12BB31
  0
LINE
  5
12BB32
  8
OBJECT
 10
8166.9999999999854
 20
-140.99999999999909
 30
0.0
 11
8166.9999999999854
 21
-258.99999999999909
 31
0.0
1001
ACDBBLOCKREPETAG
1070
     1
1071
       93
1005
12BB32
  0
LINE
  5
12BB33
  8
OBJECT
 10
8166.9999999999854
 20
-258.99999999999909
 30
0.0
 11
8202.9999999999854
 21
-258.99999999999909
 31
0.0
1001
ACDBBLOCKREPETAG
1070
     1
1071
       94
1005
12BB33
  0
LINE
  5
12BB34
  8
OBJECT
 10
8162.9999999999873
 20
-145.49999999999909
 30
0.0
 11
8149.9999999999873
 21
-145.49999999999909
 31
0.0
1001
ACDBBLOCKREPETAG
1070
     1
1071
       95
1005
12BB34
  0
LINE
  5
12BB35
  8
OBJECT
 10
8149.9999999999873
 20
-254.49999999999909
 30
0.0
 11
8162.9999999999873
 21
-254.49999999999909
 31
0.0
1001
ACDBBLOCKREPETAG
1070
     1
1071
       96
1005
12BB35
  0
LINE
  5
12BB36
  8
OBJECT
 10
8162.9999999999873
 20
-254.49999999999909
 30
0.0
 11
8162.9999999999873
 21
-145.49999999999909
 31
0.0
1001
ACDBBLOCKREPETAG
1070
     1
1071
       97
1005
12BB36
  0
LINE
  5
12BB37
  8
OBJECT
 10
8166.9999999999854
 20
-140.99999999999909
 30
0.0
 11
8162.9999999999873
 21
-145.49999999999909
 31
0.0
1001
ACDBBLOCKREPETAG
1070
     1
1071
       98
1005
12BB37
  0
LINE
  5
12BB38
  8
OBJECT
 10
8166.9999999999854
 20
-258.99999999999909
 30
0.0
 11
8162.9999999999873
 21
-254.49999999999909
 31
0.0
1001
ACDBBLOCKREPETAG
1070
     1
1071
       99
1005
12BB38
  0
LINE
  5
12BB39
  8
OBJECT
 10
8083.0
 20
-137.99999999999909
 30
0.0
 11
8080.0
 21
-137.99999999999909
 31
0.0
1001
ACDBBLOCKREPETAG
1070
     1
1071
      100
1005
12BB39
  0
ARC
  5
12BB3A
  8
OBJECT
 10
8083.0
 20
-140.99999999999909
 30
0.0
 40
3.0
 50
0.0
 51
90.0
1001
ACDBBLOCKREPETAG
1070
     1
1071
      101
1005
12BB3A
  0
LINE
  5
12BB3B
  8
OBJECT
 10
8080.0
 20
-261.99999999999909
 30
0.0
 11
8083.0
 21
-261.99999999999909
 31
0.0
1001
ACDBBLOCKREPETAG
1070
     1
1071
      102
1005
12BB3B
  0
ARC
  5
12BB3C
  8
OBJECT
 10
8083.0
 20
-258.99999999999909
 30
0.0
 40
3.0
 50
270.0
 51
0.0
1001
ACDBBLOCKREPETAG
1070
     1
1071
      103
1005
12BB3C
  0
LINE
  5
12BB3D
  8
OBJECT
 10
8086.0
 20
-258.99999999999909
 30
0.0
 11
8086.0
 21
-210.3227903203578
 31
0.0
1001
ACDBBLOCKREPETAG
1070
     1
1071
      104
1005
12BB3D
  0
LINE
  5
12BB3E
  8
OBJECT
 10
8086.0
 20
-189.6772096796403
 30
0.0
 11
8086.0
 21
-140.99999999999909
 31
0.0
1001
ACDBBLOCKREPETAG
1070
     1
1071
      105
1005
12BB3E
  0
LINE
  5
12BB3F
  8
HIDDEN
 10
8157.9999999999873
 20
-155.49999999999909
 30
0.0
 11
8157.9999999999873
 21
-244.49999999999909
 31
0.0
1001
ACDBBLOCKREPETAG
1070
     1
1071
      106
1005
12BB3F
  0
LINE
  5
12BB40
  8
OBJECT
 10
8149.9999749641856
 20
-254.4999509238105
 30
0.0
 11
8149.9999749641856
 21
-145.4999509238105
 31
0.0
1001
ACDBBLOCKREPETAG
1070
     1
1071
      108
1005
12BB40
  0
ARC
  5
12BB41
  8
OBJECT
 10
8129.800000000022
 20
-199.99999999999909
 30
0.0
 40
45.000000000000547
 50
90.0
 51
270.0
1001
ACDBBLOCKREPETAG
1070
     1
1071
      109
1005
12BB41
  0
LINE
  5
12BB42
  8
OBJECT
 10
7797.0000000000136
 20
-583.0
 30
0.0
 11
7790.0000000000127
 21
-583.0
 31
0.0
1001
ACDBBLOCKREPETAG
1070
     1
1071
       83
1005
12BB42
  0
LINE
  5
12BB43
  8
OBJECT
 10
7790.0000000000127
 20
-583.0
 30
0.0
 11
7790.0000000000127
 21
-707.0
 31
0.0
1001
ACDBBLOCKREPETAG
1070
     1
1071
       84
1005
12BB43
  0
LINE
  5
12BB44
  8
OBJECT
 10
7914.0000000000136
 20
-653.3502637757274
 30
0.0
 11
7914.0000000000136
 21
-755.00000000000102
 31
0.0
1001
ACDBBLOCKREPETAG
1070
     1
1071
       85
1005
12BB44
  0
LINE
  5
12BB45
  8
OBJECT
 10
7790.0000000000127
 20
-707.0
 30
0.0
 11
7797.0000000000136
 21
-707.0
 31
0.0
1001
ACDBBLOCKREPETAG
1070
     1
1071
       86
1005
12BB45
  0
LINE
  5
12BB46
  8
OBJECT
 10
7797.0000000000136
 20
-707.0
 30
0.0
 11
7797.0000000000136
 21
-583.0
 31
0.0
1001
ACDBBLOCKREPETAG
1070
     1
1071
       87
1005
12BB46
  0
LINE
  5
12BB47
  8
CENTER
 10
7865.0000000000127
 20
-645.0000000000008
 30
0.0
 11
7775.0000000000136
 21
-645.0
 31
0.0
1001
ACDBBLOCKREPETAG
1070
     1
1071
       88
1005
12BB47
  0
LINE
  5
12BB48
  8
OBJECT
 10
7920.0000000000191
 20
-758.0
 30
0.0
 11
7917.0000000000136
 21
-758.0000000000008
 31
0.0
1001
ACDBBLOCKREPETAG
1070
     1
1071
       89
1005
12BB48
  0
ARC
  5
12BB49
  8
OBJECT
 10
7917.0000000000136
 20
-755.00000000000102
 30
0.0
 40
3.0
 50
180.0
 51
270.0
1001
ACDBBLOCKREPETAG
1070
     1
1071
       90
1005
12BB49
  0
LINE
  5
12BB4A
  8
OBJECT
 10
7797.0000000000136
 20
-586.0
 30
0.0
 11
7833.0000000000136
 21
-586.0000000000008
 31
0.0
1001
ACDBBLOCKREPETAG
1070
     1
1071
       91
1005
12BB4A
  0
LINE
  5
12BB4B
  8
OBJECT
 10
7833.0000000000136
 20
-586.0000000000008
 30
0.0
 11
7833.0000000000136
 21
-704.0000000000008
 31
0.0
1001
ACDBBLOCKREPETAG
1070
     1
1071
       92
1005
12BB4B
  0
LINE
  5
12BB4C
  8
OBJECT
 10
7837.0000000000127
 20
-590.5000000000008
 30
0.0
 11
7837.0000000000127
 21
-699.5000000000008
 31
0.0
1001
ACDBBLOCKREPETAG
1070
     1
1071
       93
1005
12BB4C
  0
LINE
  5
12BB4D
  8
OBJECT
 10
7837.0000000000127
 20
-590.5000000000008
 30
0.0
 11
7850.0000000000136
 21
-590.5000000000008
 31
0.0
1001
ACDBBLOCKREPETAG
1070
     1
1071
       94
1005
12BB4D
  0
LINE
  5
12BB4E
  8
OBJECT
 10
7833.0000000000136
 20
-704.0000000000008
 30
0.0
 11
7797.0000000000136
 21
-704.0
 31
0.0
1001
ACDBBLOCKREPETAG
1070
     1
1071
       95
1005
12BB4E
  0
LINE
  5
12BB4F
  8
OBJECT
 10
7833.0000000000136
 20
-586.0000000000008
 30
0.0
 11
7837.0000000000127
 21
-590.5000000000008
 31
0.0
1001
ACDBBLOCKREPETAG
1070
     1
1071
       96
1005
12BB4F
  0
LINE
  5
12BB50
  8
OBJECT
 10
7850.0000000000136
 20
-590.5000000000008
 30
0.0
 11
7850.0000000000136
 21
-675.74491827928784
 31
0.0
1001
ACDBBLOCKREPETAG
1070
     1
1071
       97
1005
12BB50
  0
ARC
  5
12BB51
  8
OBJECT
 10
7847.2000000000144
 20
-685.0000000000008
 30
0.0
 40
85.0
 50
36.869897645906562
 51
88.112268108168848
1001
ACDBBLOCKREPETAG
1070
     1
1071
       98
1005
12BB51
  0
LINE
  5
12BB52
  8
HIDDEN
 10
7842.0000000000136
 20
-600.50000000000068
 30
0.0
 11
7842.0000000000136
 21
-689.50000000000091
 31
0.0
1001
ACDBBLOCKREPETAG
1070
     1
1071
      100
1005
12BB52
  0
LINE
  5
12BB53
  8
OBJECT
 10
7914.0000000000136
 20
-751.07945073181781
 30
0.0
 11
7843.3686800789701
 21
-699.5000000000008
 31
0.0
1001
ACDBBLOCKREPETAG
1070
     1
1071
      101
1005
12BB53
  0
LINE
  5
12BB54
  8
OBJECT
 10
7920.0000000000191
 20
-634.0
 30
0.0
 11
7915.2000000000162
 21
-634.0
 31
0.0
1001
ACDBBLOCKREPETAG
1070
     1
1071
      102
1005
12BB54
  0
LINE
  5
12BB55
  8
OBJECT
 10
7914.0000000000136
 20
-653.35026377573013
 30
0.0
 11
7915.2000000000162
 21
-634.0
 31
0.0
1001
ACDBBLOCKREPETAG
1070
     1
1071
      103
1005
12BB55
  0
LINE
  5
12BB56
  8
OBJECT
 10
7837.0000000000127
 20
-699.5000000000008
 30
0.0
 11
7843.3686800789701
 21
-699.5000000000008
 31
0.0
1001
ACDBBLOCKREPETAG
1070
     1
1071
      104
1005
12BB56
  0
LINE
  5
12BB57
  8
OBJECT
 10
7833.0000000000136
 20
-704.0000000000008
 30
0.0
 11
7837.0000000000127
 21
-699.5000000000008
 31
0.0
1001
ACDBBLOCKREPETAG
1070
     1
1071
      105
1005
12BB57
  0
CIRCLE
  5
12BB58
  8
OBJECT
 10
8000.0
 20
-696.0
 30
0.0
 40
62.0
1001
ACDBBLOCKREPETAG
1070
     1
1071
        0
1005
12BB58
  0
LINE
  5
12BB59
  8
OBJECT
 10
8202.9999999999854
 20
-583.0000000000008
 30
0.0
 11
8209.9999999999836
 21
-583.0000000000008
 31
0.0
1001
ACDBBLOCKREPETAG
1070
     1
1071
       83
1005
12BB59
  0
LINE
  5
12BB5A
  8
OBJECT
 10
8209.9999999999836
 20
-583.0000000000008
 30
0.0
 11
8209.9999999999836
 21
-707.00000000000091
 31
0.0
1001
ACDBBLOCKREPETAG
1070
     1
1071
       84
1005
12BB5A
  0
LINE
  5
12BB5B
  8
OBJECT
 10
8085.9999999999873
 20
-653.3502637757274
 30
0.0
 11
8085.9999999999873
 21
-755.00000000000102
 31
0.0
1001
ACDBBLOCKREPETAG
1070
     1
1071
       85
1005
12BB5B
  0
LINE
  5
12BB5C
  8
OBJECT
 10
8209.9999999999836
 20
-707.00000000000091
 30
0.0
 11
8202.9999999999854
 21
-707.00000000000091
 31
0.0
1001
ACDBBLOCKREPETAG
1070
     1
1071
       86
1005
12BB5C
  0
LINE
  5
12BB5D
  8
OBJECT
 10
8202.9999999999854
 20
-707.00000000000091
 30
0.0
 11
8202.9999999999854
 21
-583.0000000000008
 31
0.0
1001
ACDBBLOCKREPETAG
1070
     1
1071
       87
1005
12BB5D
  0
LINE
  5
12BB5E
  8
CENTER
 10
8134.9999999999873
 20
-645.0000000000008
 30
0.0
 11
8224.9999999999873
 21
-645.0000000000008
 31
0.0
1001
ACDBBLOCKREPETAG
1070
     1
1071
       88
1005
12BB5E
  0
LINE
  5
12BB5F
  8
OBJECT
 10
8079.9999999999818
 20
-758.0
 30
0.0
 11
8082.9999999999873
 21
-758.0000000000008
 31
0.0
1001
ACDBBLOCKREPETAG
1070
     1
1071
       89
1005
12BB5F
  0
ARC
  5
12BB60
  8
OBJECT
 10
8082.9999999999873
 20
-755.00000000000102
 30
0.0
 40
3.0
 50
270.0
 51
0.0
1001
ACDBBLOCKREPETAG
1070
     1
1071
       90
1005
12BB60
  0
LINE
  5
12BB61
  8
OBJECT
 10
8202.9999999999854
 20
-586.0000000000008
 30
0.0
 11
8166.9999999999854
 21
-586.0000000000008
 31
0.0
1001
ACDBBLOCKREPETAG
1070
     1
1071
       91
1005
12BB61
  0
LINE
  5
12BB62
  8
OBJECT
 10
8166.9999999999854
 20
-586.0000000000008
 30
0.0
 11
8166.9999999999854
 21
-704.0000000000008
 31
0.0
1001
ACDBBLOCKREPETAG
1070
     1
1071
       92
1005
12BB62
  0
LINE
  5
12BB63
  8
OBJECT
 10
8162.9999999999873
 20
-590.5000000000008
 30
0.0
 11
8162.9999999999873
 21
-699.5000000000008
 31
0.0
1001
ACDBBLOCKREPETAG
1070
     1
1071
       93
1005
12BB63
  0
LINE
  5
12BB64
  8
OBJECT
 10
8162.9999999999873
 20
-590.5000000000008
 30
0.0
 11
8149.9999999999873
 21
-590.5000000000008
 31
0.0
1001
ACDBBLOCKREPETAG
1070
     1
1071
       94
1005
12BB64
  0
LINE
  5
12BB65
  8
OBJECT
 10
8166.9999999999854
 20
-704.0000000000008
 30
0.0
 11
8202.9999999999854
 21
-704.0000000000008
 31
0.0
1001
ACDBBLOCKREPETAG
1070
     1
1071
       95
1005
12BB65
  0
LINE
  5
12BB66
  8
OBJECT
 10
8166.9999999999854
 20
-586.0000000000008
 30
0.0
 11
8162.9999999999873
 21
-590.5000000000008
 31
0.0
1001
ACDBBLOCKREPETAG
1070
     1
1071
       96
1005
12BB66
  0
LINE
  5
12BB67
  8
OBJECT
 10
8149.9999999999873
 20
-590.5000000000008
 30
0.0
 11
8149.9999999999873
 21
-675.74491827928784
 31
0.0
1001
ACDBBLOCKREPETAG
1070
     1
1071
       97
1005
12BB67
  0
ARC
  5
12BB68
  8
OBJECT
 10
8152.7999999999829
 20
-685.0000000000008
 30
0.0
 40
85.0
 50
91.887731891831123
 51
143.1301023540934
1001
ACDBBLOCKREPETAG
1070
     1
1071
       98
1005
12BB68
  0
LINE
  5
12BB69
  8
HIDDEN
 10
8157.9999999999873
 20
-600.50000000000068
 30
0.0
 11
8157.9999999999873
 21
-689.50000000000091
 31
0.0
1001
ACDBBLOCKREPETAG
1070
     1
1071
      100
1005
12BB69
  0
LINE
  5
12BB6A
  8
OBJECT
 10
8085.9999999999873
 20
-751.07945073181781
 30
0.0
 11
8156.6313199210299
 21
-699.5000000000008
 31
0.0
1001
ACDBBLOCKREPETAG
1070
     1
1071
      101
1005
12BB6A
  0
LINE
  5
12BB6B
  8
OBJECT
 10
8079.9999999999818
 20
-634.0
 30
0.0
 11
8084.7999999999847
 21
-634.0
 31
0.0
1001
ACDBBLOCKREPETAG
1070
     1
1071
      102
1005
12BB6B
  0
LINE
  5
12BB6C
  8
OBJECT
 10
8085.9999999999873
 20
-653.35026377573013
 30
0.0
 11
8084.7999999999847
 21
-634.0
 31
0.0
1001
ACDBBLOCKREPETAG
1070
     1
1071
      103
1005
12BB6C
  0
LINE
  5
12BB6D
  8
OBJECT
 10
8162.9999999999873
 20
-699.5000000000008
 30
0.0
 11
8156.6313199210299
 21
-699.5000000000008
 31
0.0
1001
ACDBBLOCKREPETAG
1070
     1
1071
      104
1005
12BB6D
  0
LINE
  5
12BB6E
  8
OBJECT
 10
8166.9999999999854
 20
-704.0000000000008
 30
0.0
 11
8162.9999999999873
 21
-699.5000000000008
 31
0.0
1001
ACDBBLOCKREPETAG
1070
     1
1071
      105
1005
12BB6E
  0
LINE
  5
12BB6F
  8
OBJECT
 10
5923.0
 20
-570.99999999999432
 30
0.0
 11
5923.0
 21
-549.99999999999432
 31
0.0
1001
ACDBBLOCKREPETAG
1070
     1
1071
       36
1005
12BB6F
  0
LINE
  5
12BB70
  8
OBJECT
 10
5923.0
 20
-549.99999999999432
 30
0.0
 11
6077.0
 21
-549.99999999999432
 31
0.0
1001
ACDBBLOCKREPETAG
1070
     1
1071
       37
1005
12BB70
  0
LINE
  5
12BB71
  8
HIDDEN
 10
5943.0
 20
-619.99999999999432
 30
0.0
 11
6057.0
 21
-619.99999999999432
 31
0.0
1001
ACDBBLOCKREPETAG
1070
     1
1071
       38
1005
12BB71
  0
LINE
  5
12BB72
  8
OBJECT
 10
6077.0
 20
-549.99999999999432
 30
0.0
 11
6077.0
 21
-570.99999999999432
 31
0.0
1001
ACDBBLOCKREPETAG
1070
     1
1071
       39
1005
12BB72
  0
LINE
  5
12BB73
  8
OBJECT
 10
6077.0
 20
-570.99999999999432
 30
0.0
 11
5923.0
 21
-570.99999999999432
 31
0.0
1001
ACDBBLOCKREPETAG
1070
     1
1071
       40
1005
12BB73
  0
LINE
  5
12BB74
  8
CENTER
 10
6000.0
 20
-534.99999999999432
 30
0.0
 11
6000.0
 21
-769.9999999999942
 31
0.0
1001
ACDBBLOCKREPETAG
1070
     1
1071
       41
1005
12BB74
  0
LINE
  5
12BB75
  8
OBJECT
 10
5928.0
 20
-570.99999999999432
 30
0.0
 11
5928.0
 21
-633.99999999999432
 31
0.0
1001
ACDBBLOCKREPETAG
1070
     1
1071
       42
1005
12BB75
  0
LINE
  5
12BB76
  8
OBJECT
 10
6072.0
 20
-633.99999999999432
 30
0.0
 11
6072.0
 21
-570.99999999999432
 31
0.0
1001
ACDBBLOCKREPETAG
1070
     1
1071
       43
1005
12BB76
  0
LINE
  5
12BB77
  8
OBJECT
 10
5920.0
 20
-757.9999999999942
 30
0.0
 11
6080.0
 21
-757.9999999999942
 31
0.0
1001
ACDBBLOCKREPETAG
1070
     1
1071
       44
1005
12BB77
  0
LINE
  5
12BB78
  8
OBJECT
 10
6080.0
 20
-633.99999999999432
 30
0.0
 11
5920.0
 21
-633.99999999999432
 31
0.0
1001
ACDBBLOCKREPETAG
1070
     1
1071
       45
1005
12BB78
  0
LINE
  5
12BB79
  8
OBJECT
 10
5920.0
 20
-757.9999999999942
 30
0.0
 11
5920.0
 21
-769.9999999999942
 31
0.0
1001
ACDBBLOCKREPETAG
1070
     1
1071
       46
1005
12BB79
  0
LINE
  5
12BB7A
  8
OBJECT
 10
5920.0
 20
-769.9999999999942
 30
0.0
 11
6080.0
 21
-769.9999999999942
 31
0.0
1001
ACDBBLOCKREPETAG
1070
     1
1071
       47
1005
12BB7A
  0
LINE
  5
12BB7B
  8
OBJECT
 10
6080.0
 20
-769.9999999999942
 30
0.0
 11
6080.0
 21
-757.9999999999942
 31
0.0
1001
ACDBBLOCKREPETAG
1070
     1
1071
       48
1005
12BB7B
  0
ARC
  5
12BB7C
  8
OBJECT
 10
6200.6872746716735
 20
-749.40809941010195
 30
0.0
 40
170.6350503965856
 50
137.44134459184301
 51
149.91949581337221
1001
ACDBBLOCKREPETAG
1070
     1
1071
       52
1005
12BB7C
  0
ARC
  5
12BB7D
  8
OBJECT
 10
6200.6872746716735
 20
-642.59190058988645
 30
0.0
 40
170.6350503965856
 50
210.08050418662771
 51
222.55865540815699
1001
ACDBBLOCKREPETAG
1070
     1
1071
       53
1005
12BB7D
  0
ARC
  5
12BB7E
  8
OBJECT
 10
5799.3127253283274
 20
-749.40809941010195
 30
0.0
 40
170.6350503965856
 50
30.080504186787142
 51
42.558655408456282
1001
ACDBBLOCKREPETAG
1070
     1
1071
       54
1005
12BB7E
  0
ARC
  5
12BB7F
  8
OBJECT
 10
5799.3127253283274
 20
-642.59190058988645
 30
0.0
 40
170.6350503965856
 50
317.44134459154373
 51
329.9194958132129
1001
ACDBBLOCKREPETAG
1070
     1
1071
       55
1005
12BB7F
  0
POINT
  5
12BB80
  8
DOTS
 10
6000.0
 20
-754.9999999999942
 30
0.0
1001
ACDBBLOCKREPETAG
1070
     1
1071
      184
1005
12BB80
  0
LINE
  5
12BB81
  8
OBJECT
 10
5969.4199755553018
 20
-243.89888500818171
 30
0.0
 11
5979.8564918232369
 21
-222.48688253356801
 31
0.0
1001
ACDBBLOCKREPETAG
1070
     1
1071
      305
1005
12BB81
  0
LINE
  5
12BB82
  8
OBJECT
 10
5965.2972169006089
 20
-240.71813901882729
 30
0.0
 11
5973.9071022665084
 21
-223.05373004430751
 31
0.0
1001
ACDBBLOCKREPETAG
1070
     1
1071
      306
1005
12BB82
  0
LINE
  5
12BB83
  8
OBJECT
 10
6024.1029330933034
 20
-243.80694712371681
 30
0.0
 11
6020.6596569999956
 21
-232.55462199999889
 31
0.0
1001
ACDBBLOCKREPETAG
1070
     1
1071
      307
1005
12BB83
  0
ARC
  5
12BB84
  8
OBJECT
 10
5976.5796953073141
 20
-207.1289369828437
 30
0.0
 40
60.031113246032611
 50
314.07020130418567
 51
322.33936106089681
1001
ACDBBLOCKREPETAG
1070
     1
1071
      308
1005
12BB84
  0
LINE
  5
12BB85
  8
OBJECT
 10
5986.7927499013749
 20
-218.22553374208019
 30
0.0
 11
6020.6596569999956
 21
-232.5546219999969
 31
0.0
1001
ACDBBLOCKREPETAG
1070
     1
1071
      309
1005
12BB85
  0
ARC
  5
12BB86
  8
OBJECT
 10
5982.8961697618997
 20
-227.4351299990567
 30
0.0
 40
10.0
 50
67.066778292911366
 51
154.0147343702935
1001
ACDBBLOCKREPETAG
1070
     1
1071
      310
1005
12BB86
  0
ARC
  5
12BB87
  8
OBJECT
 10
5986.1488390381273
 20
-225.55386256729159
 30
0.0
 40
7.0
 50
67.066778292911366
 51
154.0147337749826
1001
ACDBBLOCKREPETAG
1070
     1
1071
      311
1005
12BB87
  0
CIRCLE
  5
12BB88
  8
OBJECT
 10
6000.0
 20
-199.99999999999909
 30
0.0
 40
53.5
1001
ACDBBLOCKREPETAG
1070
     1
1071
      340
1005
12BB88
  0
POINT
  5
12BB89
  8
DOTS
 10
6000.0
 20
-199.99999999999909
 30
0.0
 50
270.0
1001
ACDBBLOCKREPETAG
1070
     1
1071
      153
1005
12BB89
  0
ARC
  5
12BB8A
  8
OBJECT
 10
6000.0
 20
-199.99999999999909
 30
0.0
 40
50.0
 50
298.81994300000417
 51
228.52376955965491
1001
ACDBBLOCKREPETAG
1070
     1
1071
       48
1005
12BB8A
  0
LINE
  5
12BB8B
  8
CENTER
 10
6080.0
 20
-199.99999999999909
 30
0.0
 11
5920.0
 21
-199.99999999999909
 31
0.0
1001
ACDBBLOCKREPETAG
1070
     1
1071
       49
1005
12BB8B
  0
LINE
  5
12BB8C
  8
CENTER
 10
6000.0
 20
-279.99999999999909
 30
0.0
 11
6000.0
 21
-104.9999999999991
 31
0.0
1001
ACDBBLOCKREPETAG
1070
     1
1071
       50
1005
12BB8C
  0
CIRCLE
  5
12BB8D
  8
OBJECT
 10
6000.0
 20
-199.99999999999909
 30
0.0
 40
70.0
1001
ACDBBLOCKREPETAG
1070
     1
1071
       51
1005
12BB8D
  0
CIRCLE
  5
12BB8E
  8
OBJECT
 10
6000.0
 20
-199.99999999999909
 30
0.0
 40
77.0
1001
ACDBBLOCKREPETAG
1070
     1
1071
       52
1005
12BB8E
  0
ARC
  5
12BB8F
  8
OBJECT
 10
6000.0
 20
-199.99999999999909
 30
0.0
 40
80.0
 50
50.80503257388439
 51
129.1949674261156
1001
ACDBBLOCKREPETAG
1070
     1
1071
       53
1005
12BB8F
  0
LINE
  5
12BB90
  8
OBJECT
 10
6045.6618002273253
 20
-137.99999999999909
 30
0.0
 11
6080.0
 21
-137.99999999999909
 31
0.0
1001
ACDBBLOCKREPETAG
1070
     1
1071
       54
1005
12BB90
  0
LINE
  5
12BB91
  8
OBJECT
 10
6062.0
 20
-261.99999999999909
 30
0.0
 11
6080.0
 21
-261.99999999999909
 31
0.0
1001
ACDBBLOCKREPETAG
1070
     1
1071
       55
1005
12BB91
  0
LINE
  5
12BB92
  8
OBJECT
 10
6062.0
 20
-261.99999999999909
 30
0.0
 11
6062.0
 21
-279.99999999999909
 31
0.0
1001
ACDBBLOCKREPETAG
1070
     1
1071
       57
1005
12BB92
  0
LINE
  5
12BB93
  8
OBJECT
 10
5938.0
 20
-261.99999999999909
 30
0.0
 11
5938.0
 21
-279.99999999999909
 31
0.0
1001
ACDBBLOCKREPETAG
1070
     1
1071
       58
1005
12BB93
  0
LINE
  5
12BB94
  8
OBJECT
 10
5938.0
 20
-261.99999999999909
 30
0.0
 11
5920.0
 21
-261.99999999999909
 31
0.0
1001
ACDBBLOCKREPETAG
1070
     1
1071
       60
1005
12BB94
  0
LINE
  5
12BB95
  8
OBJECT
 10
5954.3381997726738
 20
-137.99999999999909
 30
0.0
 11
5920.0
 21
-137.99999999999909
 31
0.0
1001
ACDBBLOCKREPETAG
1070
     1
1071
       61
1005
12BB95
  0
LINE
  5
12BB96
  8
OBJECT
 10
5945.5527778486367
 20
-254.44722215136329
 30
0.0
 11
5938.0
 21
-261.99999999999909
 31
0.0
1001
ACDBBLOCKREPETAG
1070
     1
1071
       42
1005
12BB96
  0
LINE
  5
12BB97
  8
OBJECT
 10
6054.4472221513633
 20
-254.44722215136329
 30
0.0
 11
6062.0
 21
-261.99999999999909
 31
0.0
1001
ACDBBLOCKREPETAG
1070
     1
1071
       43
1005
12BB97
  0
LINE
  5
12BB98
  8
OBJECT
 10
5797.0000000000136
 20
-261.99999999999909
 30
0.0
 11
5790.0000000000146
 21
-261.99999999999909
 31
0.0
1001
ACDBBLOCKREPETAG
1070
     1
1071
       85
1005
12BB98
  0
LINE
  5
12BB99
  8
OBJECT
 10
5790.0000000000146
 20
-261.99999999999909
 30
0.0
 11
5790.0000000000146
 21
-137.99999999999909
 31
0.0
1001
ACDBBLOCKREPETAG
1070
     1
1071
       86
1005
12BB99
  0
LINE
  5
12BB9A
  8
OBJECT
 10
5790.0000000000146
 20
-137.99999999999909
 30
0.0
 11
5797.0000000000136
 21
-137.99999999999909
 31
0.0
1001
ACDBBLOCKREPETAG
1070
     1
1071
       87
1005
12BB9A
  0
LINE
  5
12BB9B
  8
OBJECT
 10
5797.0000000000136
 20
-137.99999999999909
 30
0.0
 11
5797.0000000000136
 21
-261.99999999999909
 31
0.0
1001
ACDBBLOCKREPETAG
1070
     1
1071
       88
1005
12BB9B
  0
LINE
  5
12BB9C
  8
CENTER
 10
5775.0000000000146
 20
-199.99999999999909
 30
0.0
 11
5920.0
 21
-199.99999999999909
 31
0.0
1001
ACDBBLOCKREPETAG
1070
     1
1071
       89
1005
12BB9C
  0
LINE
  5
12BB9D
  8
OBJECT
 10
5850.0000250358144
 20
-154.9999999999954
 30
0.0
 11
5914.0
 21
-154.99999999999909
 31
0.0
1001
ACDBBLOCKREPETAG
1070
     1
1071
       90
1005
12BB9D
  0
LINE
  5
12BB9E
  8
OBJECT
 10
5850.0000250358144
 20
-244.99999999999909
 30
0.0
 11
5914.0
 21
-244.99999999999909
 31
0.0
1001
ACDBBLOCKREPETAG
1070
     1
1071
       91
1005
12BB9E
  0
LINE
  5
12BB9F
  8
OBJECT
 10
5797.0000000000136
 20
-258.99999999999909
 30
0.0
 11
5833.0000000000146
 21
-258.99999999999909
 31
0.0
1001
ACDBBLOCKREPETAG
1070
     1
1071
       92
1005
12BB9F
  0
LINE
  5
12BBA0
  8
OBJECT
 10
5833.0000000000146
 20
-258.99999999999909
 30
0.0
 11
5833.0000000000146
 21
-140.99999999999909
 31
0.0
1001
ACDBBLOCKREPETAG
1070
     1
1071
       93
1005
12BBA0
  0
LINE
  5
12BBA1
  8
OBJECT
 10
5833.0000000000146
 20
-140.99999999999909
 30
0.0
 11
5797.0000000000136
 21
-140.99999999999909
 31
0.0
1001
ACDBBLOCKREPETAG
1070
     1
1071
       94
1005
12BBA1
  0
LINE
  5
12BBA2
  8
OBJECT
 10
5837.0000000000127
 20
-254.49999999999909
 30
0.0
 11
5850.0000000000146
 21
-254.49999999999909
 31
0.0
1001
ACDBBLOCKREPETAG
1070
     1
1071
       95
1005
12BBA2
  0
LINE
  5
12BBA3
  8
OBJECT
 10
5850.0000000000146
 20
-145.49999999999909
 30
0.0
 11
5837.0000000000127
 21
-145.49999999999909
 31
0.0
1001
ACDBBLOCKREPETAG
1070
     1
1071
       96
1005
12BBA3
  0
LINE
  5
12BBA4
  8
OBJECT
 10
5837.0000000000127
 20
-145.49999999999909
 30
0.0
 11
5837.0000000000127
 21
-254.49999999999909
 31
0.0
1001
ACDBBLOCKREPETAG
1070
     1
1071
       97
1005
12BBA4
  0
LINE
  5
12BBA5
  8
OBJECT
 10
5833.0000000000146
 20
-258.99999999999909
 30
0.0
 11
5837.0000000000127
 21
-254.49999999999909
 31
0.0
1001
ACDBBLOCKREPETAG
1070
     1
1071
       98
1005
12BBA5
  0
LINE
  5
12BBA6
  8
OBJECT
 10
5833.0000000000146
 20
-140.99999999999909
 30
0.0
 11
5837.0000000000127
 21
-145.49999999999909
 31
0.0
1001
ACDBBLOCKREPETAG
1070
     1
1071
       99
1005
12BBA6
  0
LINE
  5
12BBA7
  8
OBJECT
 10
5917.0
 20
-261.99999999999909
 30
0.0
 11
5920.0
 21
-261.99999999999909
 31
0.0
1001
ACDBBLOCKREPETAG
1070
     1
1071
      100
1005
12BBA7
  0
ARC
  5
12BBA8
  8
OBJECT
 10
5917.0
 20
-258.99999999999909
 30
0.0
 40
3.0
 50
180.0
 51
270.0
1001
ACDBBLOCKREPETAG
1070
     1
1071
      101
1005
12BBA8
  0
LINE
  5
12BBA9
  8
OBJECT
 10
5920.0
 20
-137.99999999999909
 30
0.0
 11
5917.0
 21
-137.99999999999909
 31
0.0
1001
ACDBBLOCKREPETAG
1070
     1
1071
      102
1005
12BBA9
  0
ARC
  5
12BBAA
  8
OBJECT
 10
5917.0
 20
-140.99999999999909
 30
0.0
 40
3.0
 50
90.0
 51
180.0
1001
ACDBBLOCKREPETAG
1070
     1
1071
      103
1005
12BBAA
  0
LINE
  5
12BBAB
  8
OBJECT
 10
5914.0
 20
-140.99999999999909
 30
0.0
 11
5914.0
 21
-189.6772096796403
 31
0.0
1001
ACDBBLOCKREPETAG
1070
     1
1071
      104
1005
12BBAB
  0
LINE
  5
12BBAC
  8
OBJECT
 10
5914.0
 20
-210.3227903203578
 30
0.0
 11
5914.0
 21
-258.99999999999909
 31
0.0
1001
ACDBBLOCKREPETAG
1070
     1
1071
      105
1005
12BBAC
  0
LINE
  5
12BBAD
  8
HIDDEN
 10
5842.0000000000127
 20
-244.49999999999909
 30
0.0
 11
5842.0000000000127
 21
-155.49999999999909
 31
0.0
1001
ACDBBLOCKREPETAG
1070
     1
1071
      106
1005
12BBAD
  0
LINE
  5
12BBAE
  8
OBJECT
 10
5850.0000250358144
 20
-145.50004907618759
 30
0.0
 11
5850.0000250358144
 21
-254.50004907618771
 31
0.0
1001
ACDBBLOCKREPETAG
1070
     1
1071
      108
1005
12BBAE
  0
ARC
  5
12BBAF
  8
OBJECT
 10
5870.1999999999753
 20
-199.99999999999909
 30
0.0
 40
45.000000000000547
 50
270.0
 51
90.0
1001
ACDBBLOCKREPETAG
1070
     1
1071
      109
1005
12BBAF
  0
LINE
  5
12BBB0
  8
CENTER
 10
6000.0
 20
-300.99999999999898
 30
0.0
 11
6000.0
 21
-279.99999999999909
 31
0.0
1001
ACDBBLOCKREPETAG
1070
     1
1071
        0
1005
12BBB0
  0
LINE
  5
12BBB1
  8
OBJECT
 10
6062.0
 20
-283.0
 30
0.0
 11
6062.0
 21
-279.99999999999909
 31
0.0
1001
ACDBBLOCKREPETAG
1070
     1
1071
        1
1005
12BBB1
  0
ARC
  5
12BBB2
  8
OBJECT
 10
6059.0
 20
-283.0
 30
0.0
 40
3.0
 50
270.0
 51
0.0
1001
ACDBBLOCKREPETAG
1070
     1
1071
        2
1005
12BBB2
  0
LINE
  5
12BBB3
  8
OBJECT
 10
5938.0
 20
-279.99999999999909
 30
0.0
 11
5938.0
 21
-282.99999999999818
 31
0.0
1001
ACDBBLOCKREPETAG
1070
     1
1071
        3
1005
12BBB3
  0
ARC
  5
12BBB4
  8
OBJECT
 10
5941.0
 20
-282.99999999999818
 30
0.0
 40
3.0
 50
180.0
 51
270.0
1001
ACDBBLOCKREPETAG
1070
     1
1071
        4
1005
12BBB4
  0
LINE
  5
12BBB5
  8
OBJECT
 10
5941.0
 20
-285.99999999999818
 30
0.0
 11
6059.0
 21
-286.0
 31
0.0
1001
ACDBBLOCKREPETAG
1070
     1
1071
        5
1005
12BBB5
  0
LINE
  5
12BBB6
  8
OBJECT
 10
6202.9999999999864
 20
-137.99999999999909
 30
0.0
 11
6209.9999999999864
 21
-137.99999999999909
 31
0.0
1001
ACDBBLOCKREPETAG
1070
     1
1071
       85
1005
12BBB6
  0
LINE
  5
12BBB7
  8
OBJECT
 10
6209.9999999999864
 20
-137.99999999999909
 30
0.0
 11
6209.9999999999864
 21
-261.99999999999909
 31
0.0
1001
ACDBBLOCKREPETAG
1070
     1
1071
       86
1005
12BBB7
  0
LINE
  5
12BBB8
  8
OBJECT
 10
6209.9999999999864
 20
-261.99999999999909
 30
0.0
 11
6202.9999999999864
 21
-261.99999999999909
 31
0.0
1001
ACDBBLOCKREPETAG
1070
     1
1071
       87
1005
12BBB8
  0
LINE
  5
12BBB9
  8
OBJECT
 10
6202.9999999999864
 20
-261.99999999999909
 30
0.0
 11
6202.9999999999864
 21
-137.99999999999909
 31
0.0
1001
ACDBBLOCKREPETAG
1070
     1
1071
       88
1005
12BBB9
  0
LINE
  5
12BBBA
  8
CENTER
 10
6224.9999999999873
 20
-199.99999999999909
 30
0.0
 11
6080.0
 21
-199.99999999999909
 31
0.0
1001
ACDBBLOCKREPETAG
1070
     1
1071
       89
1005
12BBBA
  0
LINE
  5
12BBBB
  8
OBJECT
 10
6149.9999749641856
 20
-245.0000000000027
 30
0.0
 11
6086.0
 21
-244.99999999999909
 31
0.0
1001
ACDBBLOCKREPETAG
1070
     1
1071
       90
1005
12BBBB
  0
LINE
  5
12BBBC
  8
OBJECT
 10
6149.9999749641856
 20
-154.99999999999909
 30
0.0
 11
6086.0
 21
-154.99999999999909
 31
0.0
1001
ACDBBLOCKREPETAG
1070
     1
1071
       91
1005
12BBBC
  0
LINE
  5
12BBBD
  8
OBJECT
 10
6202.9999999999864
 20
-140.99999999999909
 30
0.0
 11
6166.9999999999873
 21
-140.99999999999909
 31
0.0
1001
ACDBBLOCKREPETAG
1070
     1
1071
       92
1005
12BBBD
  0
LINE
  5
12BBBE
  8
OBJECT
 10
6166.9999999999873
 20
-140.99999999999909
 30
0.0
 11
6166.9999999999873
 21
-258.99999999999909
 31
0.0
1001
ACDBBLOCKREPETAG
1070
     1
1071
       93
1005
12BBBE
  0
LINE
  5
12BBBF
  8
OBJECT
 10
6166.9999999999873
 20
-258.99999999999909
 30
0.0
 11
6202.9999999999864
 21
-258.99999999999909
 31
0.0
1001
ACDBBLOCKREPETAG
1070
     1
1071
       94
1005
12BBBF
  0
LINE
  5
12BBC0
  8
OBJECT
 10
6162.9999999999864
 20
-145.49999999999909
 30
0.0
 11
6149.9999999999873
 21
-145.49999999999909
 31
0.0
1001
ACDBBLOCKREPETAG
1070
     1
1071
       95
1005
12BBC0
  0
LINE
  5
12BBC1
  8
OBJECT
 10
6149.9999999999873
 20
-254.49999999999909
 30
0.0
 11
6162.9999999999864
 21
-254.49999999999909
 31
0.0
1001
ACDBBLOCKREPETAG
1070
     1
1071
       96
1005
12BBC1
  0
LINE
  5
12BBC2
  8
OBJECT
 10
6162.9999999999864
 20
-254.49999999999909
 30
0.0
 11
6162.9999999999864
 21
-145.49999999999909
 31
0.0
1001
ACDBBLOCKREPETAG
1070
     1
1071
       97
1005
12BBC2
  0
LINE
  5
12BBC3
  8
OBJECT
 10
6166.9999999999873
 20
-140.99999999999909
 30
0.0
 11
6162.9999999999864
 21
-145.49999999999909
 31
0.0
1001
ACDBBLOCKREPETAG
1070
     1
1071
       98
1005
12BBC3
  0
LINE
  5
12BBC4
  8
OBJECT
 10
6166.9999999999873
 20
-258.99999999999909
 30
0.0
 11
6162.9999999999864
 21
-254.49999999999909
 31
0.0
1001
ACDBBLOCKREPETAG
1070
     1
1071
       99
1005
12BBC4
  0
LINE
  5
12BBC5
  8
OBJECT
 10
6083.0
 20
-137.99999999999909
 30
0.0
 11
6080.0
 21
-137.99999999999909
 31
0.0
1001
ACDBBLOCKREPETAG
1070
     1
1071
      100
1005
12BBC5
  0
ARC
  5
12BBC6
  8
OBJECT
 10
6083.0
 20
-140.99999999999909
 30
0.0
 40
3.0
 50
0.0
 51
90.0
1001
ACDBBLOCKREPETAG
1070
     1
1071
      101
1005
12BBC6
  0
LINE
  5
12BBC7
  8
OBJECT
 10
6080.0
 20
-261.99999999999909
 30
0.0
 11
6083.0
 21
-261.99999999999909
 31
0.0
1001
ACDBBLOCKREPETAG
1070
     1
1071
      102
1005
12BBC7
  0
ARC
  5
12BBC8
  8
OBJECT
 10
6083.0
 20
-258.99999999999909
 30
0.0
 40
3.0
 50
270.0
 51
0.0
1001
ACDBBLOCKREPETAG
1070
     1
1071
      103
1005
12BBC8
  0
LINE
  5
12BBC9
  8
OBJECT
 10
6086.0
 20
-258.99999999999909
 30
0.0
 11
6086.0
 21
-210.3227903203578
 31
0.0
1001
ACDBBLOCKREPETAG
1070
     1
1071
      104
1005
12BBC9
  0
LINE
  5
12BBCA
  8
OBJECT
 10
6086.0
 20
-189.6772096796403
 30
0.0
 11
6086.0
 21
-140.99999999999909
 31
0.0
1001
ACDBBLOCKREPETAG
1070
     1
1071
      105
1005
12BBCA
  0
LINE
  5
12BBCB
  8
HIDDEN
 10
6157.9999999999873
 20
-155.49999999999909
 30
0.0
 11
6157.9999999999873
 21
-244.49999999999909
 31
0.0
1001
ACDBBLOCKREPETAG
1070
     1
1071
      106
1005
12BBCB
  0
LINE
  5
12BBCC
  8
OBJECT
 10
6149.9999749641856
 20
-254.4999509238105
 30
0.0
 11
6149.9999749641856
 21
-145.4999509238105
 31
0.0
1001
ACDBBLOCKREPETAG
1070
     1
1071
      108
1005
12BBCC
  0
ARC
  5
12BBCD
  8
OBJECT
 10
6129.8000000000247
 20
-199.99999999999909
 30
0.0
 40
45.000000000000547
 50
90.0
 51
270.0
1001
ACDBBLOCKREPETAG
1070
     1
1071
      109
1005
12BBCD
  0
LINE
  5
12BBCE
  8
OBJECT
 10
5797.0000000000136
 20
-583.0
 30
0.0
 11
5790.0000000000146
 21
-583.0
 31
0.0
1001
ACDBBLOCKREPETAG
1070
     1
1071
       83
1005
12BBCE
  0
LINE
  5
12BBCF
  8
OBJECT
 10
5790.0000000000146
 20
-583.0
 30
0.0
 11
5790.0000000000146
 21
-707.0
 31
0.0
1001
ACDBBLOCKREPETAG
1070
     1
1071
       84
1005
12BBCF
  0
LINE
  5
12BBD0
  8
OBJECT
 10
5914.0000000000146
 20
-653.3502637757274
 30
0.0
 11
5914.0000000000146
 21
-755.00000000000102
 31
0.0
1001
ACDBBLOCKREPETAG
1070
     1
1071
       85
1005
12BBD0
  0
LINE
  5
12BBD1
  8
OBJECT
 10
5790.0000000000146
 20
-707.0
 30
0.0
 11
5797.0000000000136
 21
-707.0
 31
0.0
1001
ACDBBLOCKREPETAG
1070
     1
1071
       86
1005
12BBD1
  0
LINE
  5
12BBD2
  8
OBJECT
 10
5797.0000000000136
 20
-707.0
 30
0.0
 11
5797.0000000000136
 21
-583.0
 31
0.0
1001
ACDBBLOCKREPETAG
1070
     1
1071
       87
1005
12BBD2
  0
LINE
  5
12BBD3
  8
CENTER
 10
5865.0000000000146
 20
-645.0000000000008
 30
0.0
 11
5775.0000000000146
 21
-645.0
 31
0.0
1001
ACDBBLOCKREPETAG
1070
     1
1071
       88
1005
12BBD3
  0
LINE
  5
12BBD4
  8
OBJECT
 10
5920.0000000000182
 20
-758.0
 30
0.0
 11
5917.0000000000136
 21
-758.0000000000008
 31
0.0
1001
ACDBBLOCKREPETAG
1070
     1
1071
       89
1005
12BBD4
  0
ARC
  5
12BBD5
  8
OBJECT
 10
5917.0000000000136
 20
-755.00000000000102
 30
0.0
 40
3.0
 50
180.0
 51
270.0
1001
ACDBBLOCKREPETAG
1070
     1
1071
       90
1005
12BBD5
  0
LINE
  5
12BBD6
  8
OBJECT
 10
5797.0000000000136
 20
-586.0
 30
0.0
 11
5833.0000000000146
 21
-586.0000000000008
 31
0.0
1001
ACDBBLOCKREPETAG
1070
     1
1071
       91
1005
12BBD6
  0
LINE
  5
12BBD7
  8
OBJECT
 10
5833.0000000000146
 20
-586.0000000000008
 30
0.0
 11
5833.0000000000146
 21
-704.0000000000008
 31
0.0
1001
ACDBBLOCKREPETAG
1070
     1
1071
       92
1005
12BBD7
  0
LINE
  5
12BBD8
  8
OBJECT
 10
5837.0000000000127
 20
-590.5000000000008
 30
0.0
 11
5837.0000000000127
 21
-699.5000000000008
 31
0.0
1001
ACDBBLOCKREPETAG
1070
     1
1071
       93
1005
12BBD8
  0
LINE
  5
12BBD9
  8
OBJECT
 10
5837.0000000000127
 20
-590.5000000000008
 30
0.0
 11
5850.0000000000146
 21
-590.5000000000008
 31
0.0
1001
ACDBBLOCKREPETAG
1070
     1
1071
       94
1005
12BBD9
  0
LINE
  5
12BBDA
  8
OBJECT
 10
5833.0000000000146
 20
-704.0000000000008
 30
0.0
 11
5797.0000000000136
 21
-704.0
 31
0.0
1001
ACDBBLOCKREPETAG
1070
     1
1071
       95
1005
12BBDA
  0
LINE
  5
12BBDB
  8
OBJECT
 10
5833.0000000000146
 20
-586.0000000000008
 30
0.0
 11
5837.0000000000127
 21
-590.5000000000008
 31
0.0
1001
ACDBBLOCKREPETAG
1070
     1
1071
       96
1005
12BBDB
  0
LINE
  5
12BBDC
  8
OBJECT
 10
5850.0000000000146
 20
-590.5000000000008
 30
0.0
 11
5850.0000000000146
 21
-675.74491827928784
 31
0.0
1001
ACDBBLOCKREPETAG
1070
     1
1071
       97
1005
12BBDC
  0
ARC
  5
12BBDD
  8
OBJECT
 10
5847.2000000000153
 20
-685.0000000000008
 30
0.0
 40
85.0
 50
36.869897645906562
 51
88.112268108168848
1001
ACDBBLOCKREPETAG
1070
     1
1071
       98
1005
12BBDD
  0
LINE
  5
12BBDE
  8
HIDDEN
 10
5842.0000000000127
 20
-600.50000000000068
 30
0.0
 11
5842.0000000000127
 21
-689.50000000000091
 31
0.0
1001
ACDBBLOCKREPETAG
1070
     1
1071
      100
1005
12BBDE
  0
LINE
  5
12BBDF
  8
OBJECT
 10
5914.0000000000146
 20
-751.07945073181781
 30
0.0
 11
5843.3686800789692
 21
-699.5000000000008
 31
0.0
1001
ACDBBLOCKREPETAG
1070
     1
1071
      101
1005
12BBDF
  0
LINE
  5
12BBE0
  8
OBJECT
 10
5920.0000000000182
 20
-634.0
 30
0.0
 11
5915.2000000000162
 21
-634.0
 31
0.0
1001
ACDBBLOCKREPETAG
1070
     1
1071
      102
1005
12BBE0
  0
LINE
  5
12BBE1
  8
OBJECT
 10
5914.0000000000146
 20
-653.35026377573013
 30
0.0
 11
5915.2000000000162
 21
-634.0
 31
0.0
1001
ACDBBLOCKREPETAG
1070
     1
1071
      103
1005
12BBE1
  0
LINE
  5
12BBE2
  8
OBJECT
 10
5837.0000000000127
 20
-699.5000000000008
 30
0.0
 11
5843.3686800789692
 21
-699.5000000000008
 31
0.0
1001
ACDBBLOCKREPETAG
1070
     1
1071
      104
1005
12BBE2
  0
LINE
  5
12BBE3
  8
OBJECT
 10
5833.0000000000146
 20
-704.0000000000008
 30
0.0
 11
5837.0000000000127
 21
-699.5000000000008
 31
0.0
1001
ACDBBLOCKREPETAG
1070
     1
1071
      105
1005
12BBE3
  0
CIRCLE
  5
12BBE4
  8
OBJECT
 10
6000.0
 20
-696.0
 30
0.0
 40
62.0
1001
ACDBBLOCKREPETAG
1070
     1
1071
        0
1005
12BBE4
  0
LINE
  5
12BBE5
  8
OBJECT
 10
6202.9999999999864
 20
-583.0000000000008
 30
0.0
 11
6209.9999999999864
 21
-583.0000000000008
 31
0.0
1001
ACDBBLOCKREPETAG
1070
     1
1071
       83
1005
12BBE5
  0
LINE
  5
12BBE6
  8
OBJECT
 10
6209.9999999999864
 20
-583.0000000000008
 30
0.0
 11
6209.9999999999864
 21
-707.00000000000091
 31
0.0
1001
ACDBBLOCKREPETAG
1070
     1
1071
       84
1005
12BBE6
  0
LINE
  5
12BBE7
  8
OBJECT
 10
6085.9999999999864
 20
-653.3502637757274
 30
0.0
 11
6085.9999999999864
 21
-755.00000000000102
 31
0.0
1001
ACDBBLOCKREPETAG
1070
     1
1071
       85
1005
12BBE7
  0
LINE
  5
12BBE8
  8
OBJECT
 10
6209.9999999999864
 20
-707.00000000000091
 30
0.0
 11
6202.9999999999864
 21
-707.00000000000091
 31
0.0
1001
ACDBBLOCKREPETAG
1070
     1
1071
       86
1005
12BBE8
  0
LINE
  5
12BBE9
  8
OBJECT
 10
6202.9999999999864
 20
-707.00000000000091
 30
0.0
 11
6202.9999999999864
 21
-583.0000000000008
 31
0.0
1001
ACDBBLOCKREPETAG
1070
     1
1071
       87
1005
12BBE9
  0
LINE
  5
12BBEA
  8
CENTER
 10
6134.9999999999873
 20
-645.0000000000008
 30
0.0
 11
6224.9999999999873
 21
-645.0000000000008
 31
0.0
1001
ACDBBLOCKREPETAG
1070
     1
1071
       88
1005
12BBEA
  0
LINE
  5
12BBEB
  8
OBJECT
 10
6079.9999999999818
 20
-758.0
 30
0.0
 11
6082.9999999999864
 21
-758.0000000000008
 31
0.0
1001
ACDBBLOCKREPETAG
1070
     1
1071
       89
1005
12BBEB
  0
ARC
  5
12BBEC
  8
OBJECT
 10
6082.9999999999864
 20
-755.00000000000102
 30
0.0
 40
3.0
 50
270.0
 51
0.0
1001
ACDBBLOCKREPETAG
1070
     1
1071
       90
1005
12BBEC
  0
LINE
  5
12BBED
  8
OBJECT
 10
6202.9999999999864
 20
-586.0000000000008
 30
0.0
 11
6166.9999999999873
 21
-586.0000000000008
 31
0.0
1001
ACDBBLOCKREPETAG
1070
     1
1071
       91
1005
12BBED
  0
LINE
  5
12BBEE
  8
OBJECT
 10
6166.9999999999873
 20
-586.0000000000008
 30
0.0
 11
6166.9999999999873
 21
-704.0000000000008
 31
0.0
1001
ACDBBLOCKREPETAG
1070
     1
1071
       92
1005
12BBEE
  0
LINE
  5
12BBEF
  8
OBJECT
 10
6162.9999999999864
 20
-590.5000000000008
 30
0.0
 11
6162.9999999999864
 21
-699.5000000000008
 31
0.0
1001
ACDBBLOCKREPETAG
1070
     1
1071
       93
1005
12BBEF
  0
LINE
  5
12BBF0
  8
OBJECT
 10
6162.9999999999864
 20
-590.5000000000008
 30
0.0
 11
6149.9999999999873
 21
-590.5000000000008
 31
0.0
1001
ACDBBLOCKREPETAG
1070
     1
1071
       94
1005
12BBF0
  0
LINE
  5
12BBF1
  8
OBJECT
 10
6166.9999999999873
 20
-704.0000000000008
 30
0.0
 11
6202.9999999999864
 21
-704.0000000000008
 31
0.0
1001
ACDBBLOCKREPETAG
1070
     1
1071
       95
1005
12BBF1
  0
LINE
  5
12BBF2
  8
OBJECT
 10
6166.9999999999873
 20
-586.0000000000008
 30
0.0
 11
6162.9999999999864
 21
-590.5000000000008
 31
0.0
1001
ACDBBLOCKREPETAG
1070
     1
1071
       96
1005
12BBF2
  0
LINE
  5
12BBF3
  8
OBJECT
 10
6149.9999999999873
 20
-590.5000000000008
 30
0.0
 11
6149.9999999999873
 21
-675.74491827928784
 31
0.0
1001
ACDBBLOCKREPETAG
1070
     1
1071
       97
1005
12BBF3
  0
ARC
  5
12BBF4
  8
OBJECT
 10
6152.7999999999838
 20
-685.0000000000008
 30
0.0
 40
85.0
 50
91.887731891831123
 51
143.1301023540934
1001
ACDBBLOCKREPETAG
1070
     1
1071
       98
1005
12BBF4
  0
LINE
  5
12BBF5
  8
HIDDEN
 10
6157.9999999999873
 20
-600.50000000000068
 30
0.0
 11
6157.9999999999873
 21
-689.50000000000091
 31
0.0
1001
ACDBBLOCKREPETAG
1070
     1
1071
      100
1005
12BBF5
  0
LINE
  5
12BBF6
  8
OBJECT
 10
6085.9999999999864
 20
-751.07945073181781
 30
0.0
 11
6156.6313199210299
 21
-699.5000000000008
 31
0.0
1001
ACDBBLOCKREPETAG
1070
     1
1071
      101
1005
12BBF6
  0
LINE
  5
12BBF7
  8
OBJECT
 10
6079.9999999999818
 20
-634.0
 30
0.0
 11
6084.7999999999856
 21
-634.0
 31
0.0
1001
ACDBBLOCKREPETAG
1070
     1
1071
      102
1005
12BBF7
  0
LINE
  5
12BBF8
  8
OBJECT
 10
6085.9999999999864
 20
-653.35026377573013
 30
0.0
 11
6084.7999999999856
 21
-634.0
 31
0.0
1001
ACDBBLOCKREPETAG
1070
     1
1071
      103
1005
12BBF8
  0
LINE
  5
12BBF9
  8
OBJECT
 10
6162.9999999999864
 20
-699.5000000000008
 30
0.0
 11
6156.6313199210299
 21
-699.5000000000008
 31
0.0
1001
ACDBBLOCKREPETAG
1070
     1
1071
      104
1005
12BBF9
  0
LINE
  5
12BBFA
  8
OBJECT
 10
6166.9999999999873
 20
-704.0000000000008
 30
0.0
 11
6162.9999999999864
 21
-699.5000000000008
 31
0.0
1001
ACDBBLOCKREPETAG
1070
     1
1071
      105
1005
12BBFA
  0
LINE
  5
12BBFB
  8
OBJECT
 10
3923.0
 20
-570.99999999999432
 30
0.0
 11
3923.0
 21
-549.99999999999432
 31
0.0
1001
ACDBBLOCKREPETAG
1070
     1
1071
       36
1005
12BBFB
  0
LINE
  5
12BBFC
  8
OBJECT
 10
3923.0
 20
-549.99999999999432
 30
0.0
 11
4077.0
 21
-549.99999999999432
 31
0.0
1001
ACDBBLOCKREPETAG
1070
     1
1071
       37
1005
12BBFC
  0
LINE
  5
12BBFD
  8
HIDDEN
 10
3943.0
 20
-619.99999999999432
 30
0.0
 11
4057.0
 21
-619.99999999999432
 31
0.0
1001
ACDBBLOCKREPETAG
1070
     1
1071
       38
1005
12BBFD
  0
LINE
  5
12BBFE
  8
OBJECT
 10
4077.0
 20
-549.99999999999432
 30
0.0
 11
4077.0
 21
-570.99999999999432
 31
0.0
1001
ACDBBLOCKREPETAG
1070
     1
1071
       39
1005
12BBFE
  0
LINE
  5
12BBFF
  8
OBJECT
 10
4077.0
 20
-570.99999999999432
 30
0.0
 11
3923.0
 21
-570.99999999999432
 31
0.0
1001
ACDBBLOCKREPETAG
1070
     1
1071
       40
1005
12BBFF
  0
LINE
  5
12BC00
  8
CENTER
 10
4000.0
 20
-534.99999999999432
 30
0.0
 11
4000.0
 21
-769.9999999999942
 31
0.0
1001
ACDBBLOCKREPETAG
1070
     1
1071
       41
1005
12BC00
  0
LINE
  5
12BC01
  8
OBJECT
 10
3928.0
 20
-570.99999999999432
 30
0.0
 11
3928.0
 21
-633.99999999999432
 31
0.0
1001
ACDBBLOCKREPETAG
1070
     1
1071
       42
1005
12BC01
  0
LINE
  5
12BC02
  8
OBJECT
 10
4072.0
 20
-633.99999999999432
 30
0.0
 11
4072.0
 21
-570.99999999999432
 31
0.0
1001
ACDBBLOCKREPETAG
1070
     1
1071
       43
1005
12BC02
  0
LINE
  5
12BC03
  8
OBJECT
 10
3920.0
 20
-757.9999999999942
 30
0.0
 11
4080.0
 21
-757.9999999999942
 31
0.0
1001
ACDBBLOCKREPETAG
1070
     1
1071
       44
1005
12BC03
  0
LINE
  5
12BC04
  8
OBJECT
 10
4080.0
 20
-633.99999999999432
 30
0.0
 11
3920.0
 21
-633.99999999999432
 31
0.0
1001
ACDBBLOCKREPETAG
1070
     1
1071
       45
1005
12BC04
  0
LINE
  5
12BC05
  8
OBJECT
 10
3920.0
 20
-757.9999999999942
 30
0.0
 11
3920.0
 21
-769.9999999999942
 31
0.0
1001
ACDBBLOCKREPETAG
1070
     1
1071
       46
1005
12BC05
  0
LINE
  5
12BC06
  8
OBJECT
 10
3920.0
 20
-769.9999999999942
 30
0.0
 11
4080.0
 21
-769.9999999999942
 31
0.0
1001
ACDBBLOCKREPETAG
1070
     1
1071
       47
1005
12BC06
  0
LINE
  5
12BC07
  8
OBJECT
 10
4080.0
 20
-769.9999999999942
 30
0.0
 11
4080.0
 21
-757.9999999999942
 31
0.0
1001
ACDBBLOCKREPETAG
1070
     1
1071
       48
1005
12BC07
  0
ARC
  5
12BC08
  8
OBJECT
 10
4200.6872746716726
 20
-749.40809941010195
 30
0.0
 40
170.6350503965856
 50
137.44134459184301
 51
149.91949581337221
1001
ACDBBLOCKREPETAG
1070
     1
1071
       52
1005
12BC08
  0
ARC
  5
12BC09
  8
OBJECT
 10
4200.6872746716726
 20
-642.59190058988645
 30
0.0
 40
170.6350503965856
 50
210.08050418662771
 51
222.55865540815699
1001
ACDBBLOCKREPETAG
1070
     1
1071
       53
1005
12BC09
  0
ARC
  5
12BC0A
  8
OBJECT
 10
3799.3127253283278
 20
-749.40809941010195
 30
0.0
 40
170.6350503965856
 50
30.080504186774089
 51
42.558655408456282
1001
ACDBBLOCKREPETAG
1070
     1
1071
       54
1005
12BC0A
  0
ARC
  5
12BC0B
  8
OBJECT
 10
3799.3127253283278
 20
-642.59190058988645
 30
0.0
 40
170.6350503965856
 50
317.44134459154373
 51
329.91949581322592
1001
ACDBBLOCKREPETAG
1070
     1
1071
       55
1005
12BC0B
  0
POINT
  5
12BC0C
  8
DOTS
 10
4000.0
 20
-754.9999999999942
 30
0.0
1001
ACDBBLOCKREPETAG
1070
     1
1071
      184
1005
12BC0C
  0
LINE
  5
12BC0D
  8
OBJECT
 10
3969.4199755553018
 20
-243.89888500818171
 30
0.0
 11
3979.8564918232369
 21
-222.48688253356801
 31
0.0
1001
ACDBBLOCKREPETAG
1070
     1
1071
      305
1005
12BC0D
  0
LINE
  5
12BC0E
  8
OBJECT
 10
3965.2972169006089
 20
-240.71813901882729
 30
0.0
 11
3973.9071022665089
 21
-223.05373004430751
 31
0.0
1001
ACDBBLOCKREPETAG
1070
     1
1071
      306
1005
12BC0E
  0
LINE
  5
12BC0F
  8
OBJECT
 10
4024.102933093302
 20
-243.80694712371681
 30
0.0
 11
4020.6596569999951
 21
-232.55462199999889
 31
0.0
1001
ACDBBLOCKREPETAG
1070
     1
1071
      307
1005
12BC0F
  0
ARC
  5
12BC10
  8
OBJECT
 10
3976.579695307315
 20
-207.1289369828437
 30
0.0
 40
60.031113246032611
 50
314.07020130418567
 51
322.33936106091278
1001
ACDBBLOCKREPETAG
1070
     1
1071
      308
1005
12BC10
  0
LINE
  5
12BC11
  8
OBJECT
 10
3986.7927499013749
 20
-218.22553374208019
 30
0.0
 11
4020.6596569999951
 21
-232.5546219999969
 31
0.0
1001
ACDBBLOCKREPETAG
1070
     1
1071
      309
1005
12BC11
  0
ARC
  5
12BC12
  8
OBJECT
 10
3982.896169761902
 20
-227.4351299990567
 30
0.0
 40
10.0
 50
67.066778292911366
 51
154.0147343702935
1001
ACDBBLOCKREPETAG
1070
     1
1071
      310
1005
12BC12
  0
ARC
  5
12BC13
  8
OBJECT
 10
3986.1488390381278
 20
-225.55386256729159
 30
0.0
 40
7.0
 50
67.066778292911366
 51
154.01473377497121
1001
ACDBBLOCKREPETAG
1070
     1
1071
      311
1005
12BC13
  0
CIRCLE
  5
12BC14
  8
OBJECT
 10
4000.0
 20
-199.99999999999909
 30
0.0
 40
53.5
1001
ACDBBLOCKREPETAG
1070
     1
1071
      340
1005
12BC14
  0
POINT
  5
12BC15
  8
DOTS
 10
4000.0
 20
-199.99999999999909
 30
0.0
 50
270.0
1001
ACDBBLOCKREPETAG
1070
     1
1071
      153
1005
12BC15
  0
ARC
  5
12BC16
  8
OBJECT
 10
4000.0
 20
-199.99999999999909
 30
0.0
 40
50.0
 50
298.81994300000417
 51
228.52376955967449
1001
ACDBBLOCKREPETAG
1070
     1
1071
       48
1005
12BC16
  0
LINE
  5
12BC17
  8
CENTER
 10
4080.0
 20
-199.99999999999909
 30
0.0
 11
3920.0
 21
-199.99999999999909
 31
0.0
1001
ACDBBLOCKREPETAG
1070
     1
1071
       49
1005
12BC17
  0
LINE
  5
12BC18
  8
CENTER
 10
4000.0
 20
-279.99999999999909
 30
0.0
 11
4000.0
 21
-104.9999999999991
 31
0.0
1001
ACDBBLOCKREPETAG
1070
     1
1071
       50
1005
12BC18
  0
CIRCLE
  5
12BC19
  8
OBJECT
 10
4000.0
 20
-199.99999999999909
 30
0.0
 40
70.0
1001
ACDBBLOCKREPETAG
1070
     1
1071
       51
1005
12BC19
  0
CIRCLE
  5
12BC1A
  8
OBJECT
 10
4000.0
 20
-199.99999999999909
 30
0.0
 40
77.0
1001
ACDBBLOCKREPETAG
1070
     1
1071
       52
1005
12BC1A
  0
ARC
  5
12BC1B
  8
OBJECT
 10
4000.0
 20
-199.99999999999909
 30
0.0
 40
80.0
 50
50.805032573864182
 51
129.1949674261358
1001
ACDBBLOCKREPETAG
1070
     1
1071
       53
1005
12BC1B
  0
LINE
  5
12BC1C
  8
OBJECT
 10
4045.661800227324
 20
-137.99999999999909
 30
0.0
 11
4080.0
 21
-137.99999999999909
 31
0.0
1001
ACDBBLOCKREPETAG
1070
     1
1071
       54
1005
12BC1C
  0
LINE
  5
12BC1D
  8
OBJECT
 10
4062.0
 20
-261.99999999999909
 30
0.0
 11
4080.0
 21
-261.99999999999909
 31
0.0
1001
ACDBBLOCKREPETAG
1070
     1
1071
       55
1005
12BC1D
  0
LINE
  5
12BC1E
  8
OBJECT
 10
4062.0
 20
-261.99999999999909
 30
0.0
 11
4062.0
 21
-279.99999999999909
 31
0.0
1001
ACDBBLOCKREPETAG
1070
     1
1071
       57
1005
12BC1E
  0
LINE
  5
12BC1F
  8
OBJECT
 10
3938.0
 20
-261.99999999999909
 30
0.0
 11
3938.0
 21
-279.99999999999909
 31
0.0
1001
ACDBBLOCKREPETAG
1070
     1
1071
       58
1005
12BC1F
  0
LINE
  5
12BC20
  8
OBJECT
 10
3938.0
 20
-261.99999999999909
 30
0.0
 11
3920.0
 21
-261.99999999999909
 31
0.0
1001
ACDBBLOCKREPETAG
1070
     1
1071
       60
1005
12BC20
  0
LINE
  5
12BC21
  8
OBJECT
 10
3954.338199772676
 20
-137.99999999999909
 30
0.0
 11
3920.0
 21
-137.99999999999909
 31
0.0
1001
ACDBBLOCKREPETAG
1070
     1
1071
       61
1005
12BC21
  0
LINE
  5
12BC22
  8
OBJECT
 10
3945.5527778486362
 20
-254.44722215136329
 30
0.0
 11
3938.0
 21
-261.99999999999909
 31
0.0
1001
ACDBBLOCKREPETAG
1070
     1
1071
       42
1005
12BC22
  0
LINE
  5
12BC23
  8
OBJECT
 10
4054.4472221513638
 20
-254.44722215136329
 30
0.0
 11
4062.0
 21
-261.99999999999909
 31
0.0
1001
ACDBBLOCKREPETAG
1070
     1
1071
       43
1005
12BC23
  0
LINE
  5
12BC24
  8
OBJECT
 10
3797.0000000000159
 20
-261.99999999999909
 30
0.0
 11
3790.0000000000159
 21
-261.99999999999909
 31
0.0
1001
ACDBBLOCKREPETAG
1070
     1
1071
       85
1005
12BC24
  0
LINE
  5
12BC25
  8
OBJECT
 10
3790.0000000000159
 20
-261.99999999999909
 30
0.0
 11
3790.0000000000159
 21
-137.99999999999909
 31
0.0
1001
ACDBBLOCKREPETAG
1070
     1
1071
       86
1005
12BC25
  0
LINE
  5
12BC26
  8
OBJECT
 10
3790.0000000000159
 20
-137.99999999999909
 30
0.0
 11
3797.0000000000159
 21
-137.99999999999909
 31
0.0
1001
ACDBBLOCKREPETAG
1070
     1
1071
       87
1005
12BC26
  0
LINE
  5
12BC27
  8
OBJECT
 10
3797.0000000000159
 20
-137.99999999999909
 30
0.0
 11
3797.0000000000159
 21
-261.99999999999909
 31
0.0
1001
ACDBBLOCKREPETAG
1070
     1
1071
       88
1005
12BC27
  0
LINE
  5
12BC28
  8
CENTER
 10
3775.0000000000159
 20
-199.99999999999909
 30
0.0
 11
3920.0
 21
-199.99999999999909
 31
0.0
1001
ACDBBLOCKREPETAG
1070
     1
1071
       89
1005
12BC28
  0
LINE
  5
12BC29
  8
OBJECT
 10
3850.000025035813
 20
-154.9999999999954
 30
0.0
 11
3914.0
 21
-154.99999999999909
 31
0.0
1001
ACDBBLOCKREPETAG
1070
     1
1071
       90
1005
12BC29
  0
LINE
  5
12BC2A
  8
OBJECT
 10
3850.000025035813
 20
-244.99999999999909
 30
0.0
 11
3914.0
 21
-244.99999999999909
 31
0.0
1001
ACDBBLOCKREPETAG
1070
     1
1071
       91
1005
12BC2A
  0
LINE
  5
12BC2B
  8
OBJECT
 10
3797.0000000000159
 20
-258.99999999999909
 30
0.0
 11
3833.0000000000159
 21
-258.99999999999909
 31
0.0
1001
ACDBBLOCKREPETAG
1070
     1
1071
       92
1005
12BC2B
  0
LINE
  5
12BC2C
  8
OBJECT
 10
3833.0000000000159
 20
-258.99999999999909
 30
0.0
 11
3833.0000000000159
 21
-140.99999999999909
 31
0.0
1001
ACDBBLOCKREPETAG
1070
     1
1071
       93
1005
12BC2C
  0
LINE
  5
12BC2D
  8
OBJECT
 10
3833.0000000000159
 20
-140.99999999999909
 30
0.0
 11
3797.0000000000159
 21
-140.99999999999909
 31
0.0
1001
ACDBBLOCKREPETAG
1070
     1
1071
       94
1005
12BC2D
  0
LINE
  5
12BC2E
  8
OBJECT
 10
3837.0000000000159
 20
-254.49999999999909
 30
0.0
 11
3850.000000000015
 21
-254.49999999999909
 31
0.0
1001
ACDBBLOCKREPETAG
1070
     1
1071
       95
1005
12BC2E
  0
LINE
  5
12BC2F
  8
OBJECT
 10
3850.000000000015
 20
-145.49999999999909
 30
0.0
 11
3837.0000000000159
 21
-145.49999999999909
 31
0.0
1001
ACDBBLOCKREPETAG
1070
     1
1071
       96
1005
12BC2F
  0
LINE
  5
12BC30
  8
OBJECT
 10
3837.0000000000159
 20
-145.49999999999909
 30
0.0
 11
3837.0000000000159
 21
-254.49999999999909
 31
0.0
1001
ACDBBLOCKREPETAG
1070
     1
1071
       97
1005
12BC30
  0
LINE
  5
12BC31
  8
OBJECT
 10
3833.0000000000159
 20
-258.99999999999909
 30
0.0
 11
3837.0000000000159
 21
-254.49999999999909
 31
0.0
1001
ACDBBLOCKREPETAG
1070
     1
1071
       98
1005
12BC31
  0
LINE
  5
12BC32
  8
OBJECT
 10
3833.0000000000159
 20
-140.99999999999909
 30
0.0
 11
3837.0000000000159
 21
-145.49999999999909
 31
0.0
1001
ACDBBLOCKREPETAG
1070
     1
1071
       99
1005
12BC32
  0
LINE
  5
12BC33
  8
OBJECT
 10
3917.0
 20
-261.99999999999909
 30
0.0
 11
3920.0
 21
-261.99999999999909
 31
0.0
1001
ACDBBLOCKREPETAG
1070
     1
1071
      100
1005
12BC33
  0
ARC
  5
12BC34
  8
OBJECT
 10
3917.0
 20
-258.99999999999909
 30
0.0
 40
3.0
 50
180.0
 51
270.0
1001
ACDBBLOCKREPETAG
1070
     1
1071
      101
1005
12BC34
  0
LINE
  5
12BC35
  8
OBJECT
 10
3920.0
 20
-137.99999999999909
 30
0.0
 11
3917.0
 21
-137.99999999999909
 31
0.0
1001
ACDBBLOCKREPETAG
1070
     1
1071
      102
1005
12BC35
  0
ARC
  5
12BC36
  8
OBJECT
 10
3917.0
 20
-140.99999999999909
 30
0.0
 40
3.0
 50
90.0
 51
180.0
1001
ACDBBLOCKREPETAG
1070
     1
1071
      103
1005
12BC36
  0
LINE
  5
12BC37
  8
OBJECT
 10
3914.0
 20
-140.99999999999909
 30
0.0
 11
3914.0
 21
-189.6772096796403
 31
0.0
1001
ACDBBLOCKREPETAG
1070
     1
1071
      104
1005
12BC37
  0
LINE
  5
12BC38
  8
OBJECT
 10
3914.0
 20
-210.3227903203578
 30
0.0
 11
3914.0
 21
-258.99999999999909
 31
0.0
1001
ACDBBLOCKREPETAG
1070
     1
1071
      105
1005
12BC38
  0
LINE
  5
12BC39
  8
HIDDEN
 10
3842.0000000000159
 20
-244.49999999999909
 30
0.0
 11
3842.0000000000159
 21
-155.49999999999909
 31
0.0
1001
ACDBBLOCKREPETAG
1070
     1
1071
      106
1005
12BC39
  0
LINE
  5
12BC3A
  8
OBJECT
 10
3850.000025035813
 20
-145.50004907618759
 30
0.0
 11
3850.000025035813
 21
-254.50004907618771
 31
0.0
1001
ACDBBLOCKREPETAG
1070
     1
1071
      108
1005
12BC3A
  0
ARC
  5
12BC3B
  8
OBJECT
 10
3870.1999999999771
 20
-199.99999999999909
 30
0.0
 40
45.000000000000547
 50
270.0
 51
90.0
1001
ACDBBLOCKREPETAG
1070
     1
1071
      109
1005
12BC3B
  0
LINE
  5
12BC3C
  8
CENTER
 10
4000.0
 20
-300.99999999999898
 30
0.0
 11
4000.0
 21
-279.99999999999909
 31
0.0
1001
ACDBBLOCKREPETAG
1070
     1
1071
        0
1005
12BC3C
  0
LINE
  5
12BC3D
  8
OBJECT
 10
4062.0
 20
-283.0
 30
0.0
 11
4062.0
 21
-279.99999999999909
 31
0.0
1001
ACDBBLOCKREPETAG
1070
     1
1071
        1
1005
12BC3D
  0
ARC
  5
12BC3E
  8
OBJECT
 10
4059.0
 20
-283.0
 30
0.0
 40
3.0
 50
270.0
 51
0.0
1001
ACDBBLOCKREPETAG
1070
     1
1071
        2
1005
12BC3E
  0
LINE
  5
12BC3F
  8
OBJECT
 10
3938.0
 20
-279.99999999999909
 30
0.0
 11
3938.0
 21
-282.99999999999818
 31
0.0
1001
ACDBBLOCKREPETAG
1070
     1
1071
        3
1005
12BC3F
  0
ARC
  5
12BC40
  8
OBJECT
 10
3941.0
 20
-282.99999999999818
 30
0.0
 40
3.0
 50
180.0
 51
270.0
1001
ACDBBLOCKREPETAG
1070
     1
1071
        4
1005
12BC40
  0
LINE
  5
12BC41
  8
OBJECT
 10
3941.0
 20
-285.99999999999818
 30
0.0
 11
4059.0
 21
-286.0
 31
0.0
1001
ACDBBLOCKREPETAG
1070
     1
1071
        5
1005
12BC41
  0
LINE
  5
12BC42
  8
OBJECT
 10
4202.9999999999854
 20
-137.99999999999909
 30
0.0
 11
4209.9999999999854
 21
-137.99999999999909
 31
0.0
1001
ACDBBLOCKREPETAG
1070
     1
1071
       85
1005
12BC42
  0
LINE
  5
12BC43
  8
OBJECT
 10
4209.9999999999854
 20
-137.99999999999909
 30
0.0
 11
4209.9999999999854
 21
-261.99999999999909
 31
0.0
1001
ACDBBLOCKREPETAG
1070
     1
1071
       86
1005
12BC43
  0
LINE
  5
12BC44
  8
OBJECT
 10
4209.9999999999854
 20
-261.99999999999909
 30
0.0
 11
4202.9999999999854
 21
-261.99999999999909
 31
0.0
1001
ACDBBLOCKREPETAG
1070
     1
1071
       87
1005
12BC44
  0
LINE
  5
12BC45
  8
OBJECT
 10
4202.9999999999854
 20
-261.99999999999909
 30
0.0
 11
4202.9999999999854
 21
-137.99999999999909
 31
0.0
1001
ACDBBLOCKREPETAG
1070
     1
1071
       88
1005
12BC45
  0
LINE
  5
12BC46
  8
CENTER
 10
4224.9999999999864
 20
-199.99999999999909
 30
0.0
 11
4080.0
 21
-199.99999999999909
 31
0.0
1001
ACDBBLOCKREPETAG
1070
     1
1071
       89
1005
12BC46
  0
LINE
  5
12BC47
  8
OBJECT
 10
4149.9999749641856
 20
-245.0000000000027
 30
0.0
 11
4086.0
 21
-244.99999999999909
 31
0.0
1001
ACDBBLOCKREPETAG
1070
     1
1071
       90
1005
12BC47
  0
LINE
  5
12BC48
  8
OBJECT
 10
4149.9999749641856
 20
-154.99999999999909
 30
0.0
 11
4086.0
 21
-154.99999999999909
 31
0.0
1001
ACDBBLOCKREPETAG
1070
     1
1071
       91
1005
12BC48
  0
LINE
  5
12BC49
  8
OBJECT
 10
4202.9999999999854
 20
-140.99999999999909
 30
0.0
 11
4166.9999999999854
 21
-140.99999999999909
 31
0.0
1001
ACDBBLOCKREPETAG
1070
     1
1071
       92
1005
12BC49
  0
LINE
  5
12BC4A
  8
OBJECT
 10
4166.9999999999854
 20
-140.99999999999909
 30
0.0
 11
4166.9999999999854
 21
-258.99999999999909
 31
0.0
1001
ACDBBLOCKREPETAG
1070
     1
1071
       93
1005
12BC4A
  0
LINE
  5
12BC4B
  8
OBJECT
 10
4166.9999999999854
 20
-258.99999999999909
 30
0.0
 11
4202.9999999999854
 21
-258.99999999999909
 31
0.0
1001
ACDBBLOCKREPETAG
1070
     1
1071
       94
1005
12BC4B
  0
LINE
  5
12BC4C
  8
OBJECT
 10
4162.9999999999854
 20
-145.49999999999909
 30
0.0
 11
4149.9999999999864
 21
-145.49999999999909
 31
0.0
1001
ACDBBLOCKREPETAG
1070
     1
1071
       95
1005
12BC4C
  0
LINE
  5
12BC4D
  8
OBJECT
 10
4149.9999999999864
 20
-254.49999999999909
 30
0.0
 11
4162.9999999999854
 21
-254.49999999999909
 31
0.0
1001
ACDBBLOCKREPETAG
1070
     1
1071
       96
1005
12BC4D
  0
LINE
  5
12BC4E
  8
OBJECT
 10
4162.9999999999854
 20
-254.49999999999909
 30
0.0
 11
4162.9999999999854
 21
-145.49999999999909
 31
0.0
1001
ACDBBLOCKREPETAG
1070
     1
1071
       97
1005
12BC4E
  0
LINE
  5
12BC4F
  8
OBJECT
 10
4166.9999999999854
 20
-140.99999999999909
 30
0.0
 11
4162.9999999999854
 21
-145.49999999999909
 31
0.0
1001
ACDBBLOCKREPETAG
1070
     1
1071
       98
1005
12BC4F
  0
LINE
  5
12BC50
  8
OBJECT
 10
4166.9999999999854
 20
-258.99999999999909
 30
0.0
 11
4162.9999999999854
 21
-254.49999999999909
 31
0.0
1001
ACDBBLOCKREPETAG
1070
     1
1071
       99
1005
12BC50
  0
LINE
  5
12BC51
  8
OBJECT
 10
4083.0
 20
-137.99999999999909
 30
0.0
 11
4080.0
 21
-137.99999999999909
 31
0.0
1001
ACDBBLOCKREPETAG
1070
     1
1071
      100
1005
12BC51
  0
ARC
  5
12BC52
  8
OBJECT
 10
4083.0
 20
-140.99999999999909
 30
0.0
 40
3.0
 50
0.0
 51
90.0
1001
ACDBBLOCKREPETAG
1070
     1
1071
      101
1005
12BC52
  0
LINE
  5
12BC53
  8
OBJECT
 10
4080.0
 20
-261.99999999999909
 30
0.0
 11
4083.0
 21
-261.99999999999909
 31
0.0
1001
ACDBBLOCKREPETAG
1070
     1
1071
      102
1005
12BC53
  0
ARC
  5
12BC54
  8
OBJECT
 10
4083.0
 20
-258.99999999999909
 30
0.0
 40
3.0
 50
270.0
 51
0.0
1001
ACDBBLOCKREPETAG
1070
     1
1071
      103
1005
12BC54
  0
LINE
  5
12BC55
  8
OBJECT
 10
4086.0
 20
-258.99999999999909
 30
0.0
 11
4086.0
 21
-210.3227903203578
 31
0.0
1001
ACDBBLOCKREPETAG
1070
     1
1071
      104
1005
12BC55
  0
LINE
  5
12BC56
  8
OBJECT
 10
4086.0
 20
-189.6772096796403
 30
0.0
 11
4086.0
 21
-140.99999999999909
 31
0.0
1001
ACDBBLOCKREPETAG
1070
     1
1071
      105
1005
12BC56
  0
LINE
  5
12BC57
  8
HIDDEN
 10
4157.9999999999864
 20
-155.49999999999909
 30
0.0
 11
4157.9999999999864
 21
-244.49999999999909
 31
0.0
1001
ACDBBLOCKREPETAG
1070
     1
1071
      106
1005
12BC57
  0
LINE
  5
12BC58
  8
OBJECT
 10
4149.9999749641856
 20
-254.4999509238105
 30
0.0
 11
4149.9999749641856
 21
-145.4999509238105
 31
0.0
1001
ACDBBLOCKREPETAG
1070
     1
1071
      108
1005
12BC58
  0
ARC
  5
12BC59
  8
OBJECT
 10
4129.8000000000247
 20
-199.99999999999909
 30
0.0
 40
45.000000000000547
 50
90.0
 51
270.0
1001
ACDBBLOCKREPETAG
1070
     1
1071
      109
1005
12BC59
  0
LINE
  5
12BC5A
  8
OBJECT
 10
3797.0000000000159
 20
-583.0
 30
0.0
 11
3790.0000000000159
 21
-583.0
 31
0.0
1001
ACDBBLOCKREPETAG
1070
     1
1071
       83
1005
12BC5A
  0
LINE
  5
12BC5B
  8
OBJECT
 10
3790.0000000000159
 20
-583.0
 30
0.0
 11
3790.0000000000159
 21
-707.0
 31
0.0
1001
ACDBBLOCKREPETAG
1070
     1
1071
       84
1005
12BC5B
  0
LINE
  5
12BC5C
  8
OBJECT
 10
3914.0000000000159
 20
-653.3502637757274
 30
0.0
 11
3914.0000000000159
 21
-755.00000000000102
 31
0.0
1001
ACDBBLOCKREPETAG
1070
     1
1071
       85
1005
12BC5C
  0
LINE
  5
12BC5D
  8
OBJECT
 10
3790.0000000000159
 20
-707.0
 30
0.0
 11
3797.0000000000159
 21
-707.0
 31
0.0
1001
ACDBBLOCKREPETAG
1070
     1
1071
       86
1005
12BC5D
  0
LINE
  5
12BC5E
  8
OBJECT
 10
3797.0000000000159
 20
-707.0
 30
0.0
 11
3797.0000000000159
 21
-583.0
 31
0.0
1001
ACDBBLOCKREPETAG
1070
     1
1071
       87
1005
12BC5E
  0
LINE
  5
12BC5F
  8
CENTER
 10
3865.0000000000159
 20
-645.0000000000008
 30
0.0
 11
3775.0000000000159
 21
-645.0
 31
0.0
1001
ACDBBLOCKREPETAG
1070
     1
1071
       88
1005
12BC5F
  0
LINE
  5
12BC60
  8
OBJECT
 10
3920.0000000000182
 20
-758.0
 30
0.0
 11
3917.0000000000141
 21
-758.0000000000008
 31
0.0
1001
ACDBBLOCKREPETAG
1070
     1
1071
       89
1005
12BC60
  0
ARC
  5
12BC61
  8
OBJECT
 10
3917.0000000000141
 20
-755.00000000000102
 30
0.0
 40
3.0
 50
180.0
 51
270.0
1001
ACDBBLOCKREPETAG
1070
     1
1071
       90
1005
12BC61
  0
LINE
  5
12BC62
  8
OBJECT
 10
3797.0000000000159
 20
-586.0
 30
0.0
 11
3833.0000000000159
 21
-586.0000000000008
 31
0.0
1001
ACDBBLOCKREPETAG
1070
     1
1071
       91
1005
12BC62
  0
LINE
  5
12BC63
  8
OBJECT
 10
3833.0000000000159
 20
-586.0000000000008
 30
0.0
 11
3833.0000000000159
 21
-704.0000000000008
 31
0.0
1001
ACDBBLOCKREPETAG
1070
     1
1071
       92
1005
12BC63
  0
LINE
  5
12BC64
  8
OBJECT
 10
3837.0000000000159
 20
-590.5000000000008
 30
0.0
 11
3837.0000000000159
 21
-699.5000000000008
 31
0.0
1001
ACDBBLOCKREPETAG
1070
     1
1071
       93
1005
12BC64
  0
LINE
  5
12BC65
  8
OBJECT
 10
3837.0000000000159
 20
-590.5000000000008
 30
0.0
 11
3850.000000000015
 21
-590.5000000000008
 31
0.0
1001
ACDBBLOCKREPETAG
1070
     1
1071
       94
1005
12BC65
  0
LINE
  5
12BC66
  8
OBJECT
 10
3833.0000000000159
 20
-704.0000000000008
 30
0.0
 11
3797.0000000000159
 21
-704.0
 31
0.0
1001
ACDBBLOCKREPETAG
1070
     1
1071
       95
1005
12BC66
  0
LINE
  5
12BC67
  8
OBJECT
 10
3833.0000000000159
 20
-586.0000000000008
 30
0.0
 11
3837.0000000000159
 21
-590.5000000000008
 31
0.0
1001
ACDBBLOCKREPETAG
1070
     1
1071
       96
1005
12BC67
  0
LINE
  5
12BC68
  8
OBJECT
 10
3850.000000000015
 20
-590.5000000000008
 30
0.0
 11
3850.000000000015
 21
-675.74491827928784
 31
0.0
1001
ACDBBLOCKREPETAG
1070
     1
1071
       97
1005
12BC68
  0
ARC
  5
12BC69
  8
OBJECT
 10
3847.2000000000148
 20
-685.0000000000008
 30
0.0
 40
85.0
 50
36.869897645906562
 51
88.112268108168848
1001
ACDBBLOCKREPETAG
1070
     1
1071
       98
1005
12BC69
  0
LINE
  5
12BC6A
  8
HIDDEN
 10
3842.0000000000159
 20
-600.50000000000068
 30
0.0
 11
3842.0000000000159
 21
-689.50000000000091
 31
0.0
1001
ACDBBLOCKREPETAG
1070
     1
1071
      100
1005
12BC6A
  0
LINE
  5
12BC6B
  8
OBJECT
 10
3914.0000000000159
 20
-751.07945073181781
 30
0.0
 11
3843.3686800789692
 21
-699.5000000000008
 31
0.0
1001
ACDBBLOCKREPETAG
1070
     1
1071
      101
1005
12BC6B
  0
LINE
  5
12BC6C
  8
OBJECT
 10
3920.0000000000182
 20
-634.0
 30
0.0
 11
3915.2000000000148
 21
-634.0
 31
0.0
1001
ACDBBLOCKREPETAG
1070
     1
1071
      102
1005
12BC6C
  0
LINE
  5
12BC6D
  8
OBJECT
 10
3914.0000000000159
 20
-653.35026377573013
 30
0.0
 11
3915.2000000000148
 21
-634.0
 31
0.0
1001
ACDBBLOCKREPETAG
1070
     1
1071
      103
1005
12BC6D
  0
LINE
  5
12BC6E
  8
OBJECT
 10
3837.0000000000159
 20
-699.5000000000008
 30
0.0
 11
3843.3686800789692
 21
-699.5000000000008
 31
0.0
1001
ACDBBLOCKREPETAG
1070
     1
1071
      104
1005
12BC6E
  0
LINE
  5
12BC6F
  8
OBJECT
 10
3833.0000000000159
 20
-704.0000000000008
 30
0.0
 11
3837.0000000000159
 21
-699.5000000000008
 31
0.0
1001
ACDBBLOCKREPETAG
1070
     1
1071
      105
1005
12BC6F
  0
CIRCLE
  5
12BC70
  8
OBJECT
 10
4000.0
 20
-696.0
 30
0.0
 40
62.0
1001
ACDBBLOCKREPETAG
1070
     1
1071
        0
1005
12BC70
  0
LINE
  5
12BC71
  8
OBJECT
 10
4202.9999999999854
 20
-583.0000000000008
 30
0.0
 11
4209.9999999999854
 21
-583.0000000000008
 31
0.0
1001
ACDBBLOCKREPETAG
1070
     1
1071
       83
1005
12BC71
  0
LINE
  5
12BC72
  8
OBJECT
 10
4209.9999999999854
 20
-583.0000000000008
 30
0.0
 11
4209.9999999999854
 21
-707.00000000000091
 31
0.0
1001
ACDBBLOCKREPETAG
1070
     1
1071
       84
1005
12BC72
  0
LINE
  5
12BC73
  8
OBJECT
 10
4085.9999999999859
 20
-653.3502637757274
 30
0.0
 11
4085.9999999999859
 21
-755.00000000000102
 31
0.0
1001
ACDBBLOCKREPETAG
1070
     1
1071
       85
1005
12BC73
  0
LINE
  5
12BC74
  8
OBJECT
 10
4209.9999999999854
 20
-707.00000000000091
 30
0.0
 11
4202.9999999999854
 21
-707.00000000000091
 31
0.0
1001
ACDBBLOCKREPETAG
1070
     1
1071
       86
1005
12BC74
  0
LINE
  5
12BC75
  8
OBJECT
 10
4202.9999999999854
 20
-707.00000000000091
 30
0.0
 11
4202.9999999999854
 21
-583.0000000000008
 31
0.0
1001
ACDBBLOCKREPETAG
1070
     1
1071
       87
1005
12BC75
  0
LINE
  5
12BC76
  8
CENTER
 10
4134.9999999999854
 20
-645.0000000000008
 30
0.0
 11
4224.9999999999864
 21
-645.0000000000008
 31
0.0
1001
ACDBBLOCKREPETAG
1070
     1
1071
       88
1005
12BC76
  0
LINE
  5
12BC77
  8
OBJECT
 10
4079.9999999999818
 20
-758.0
 30
0.0
 11
4082.999999999985
 21
-758.0000000000008
 31
0.0
1001
ACDBBLOCKREPETAG
1070
     1
1071
       89
1005
12BC77
  0
ARC
  5
12BC78
  8
OBJECT
 10
4082.999999999985
 20
-755.00000000000102
 30
0.0
 40
3.0
 50
270.0
 51
0.0
1001
ACDBBLOCKREPETAG
1070
     1
1071
       90
1005
12BC78
  0
LINE
  5
12BC79
  8
OBJECT
 10
4202.9999999999854
 20
-586.0000000000008
 30
0.0
 11
4166.9999999999854
 21
-586.0000000000008
 31
0.0
1001
ACDBBLOCKREPETAG
1070
     1
1071
       91
1005
12BC79
  0
LINE
  5
12BC7A
  8
OBJECT
 10
4166.9999999999854
 20
-586.0000000000008
 30
0.0
 11
4166.9999999999854
 21
-704.0000000000008
 31
0.0
1001
ACDBBLOCKREPETAG
1070
     1
1071
       92
1005
12BC7A
  0
LINE
  5
12BC7B
  8
OBJECT
 10
4162.9999999999854
 20
-590.5000000000008
 30
0.0
 11
4162.9999999999854
 21
-699.5000000000008
 31
0.0
1001
ACDBBLOCKREPETAG
1070
     1
1071
       93
1005
12BC7B
  0
LINE
  5
12BC7C
  8
OBJECT
 10
4162.9999999999854
 20
-590.5000000000008
 30
0.0
 11
4149.9999999999864
 21
-590.5000000000008
 31
0.0
1001
ACDBBLOCKREPETAG
1070
     1
1071
       94
1005
12BC7C
  0
LINE
  5
12BC7D
  8
OBJECT
 10
4166.9999999999854
 20
-704.0000000000008
 30
0.0
 11
4202.9999999999854
 21
-704.0000000000008
 31
0.0
1001
ACDBBLOCKREPETAG
1070
     1
1071
       95
1005
12BC7D
  0
LINE
  5
12BC7E
  8
OBJECT
 10
4166.9999999999854
 20
-586.0000000000008
 30
0.0
 11
4162.9999999999854
 21
-590.5000000000008
 31
0.0
1001
ACDBBLOCKREPETAG
1070
     1
1071
       96
1005
12BC7E
  0
LINE
  5
12BC7F
  8
OBJECT
 10
4149.9999999999864
 20
-590.5000000000008
 30
0.0
 11
4149.9999999999864
 21
-675.74491827928784
 31
0.0
1001
ACDBBLOCKREPETAG
1070
     1
1071
       97
1005
12BC7F
  0
ARC
  5
12BC80
  8
OBJECT
 10
4152.7999999999838
 20
-685.0000000000008
 30
0.0
 40
85.0
 50
91.887731891831123
 51
143.1301023540934
1001
ACDBBLOCKREPETAG
1070
     1
1071
       98
1005
12BC80
  0
LINE
  5
12BC81
  8
HIDDEN
 10
4157.9999999999864
 20
-600.50000000000068
 30
0.0
 11
4157.9999999999864
 21
-689.50000000000091
 31
0.0
1001
ACDBBLOCKREPETAG
1070
     1
1071
      100
1005
12BC81
  0
LINE
  5
12BC82
  8
OBJECT
 10
4085.9999999999859
 20
-751.07945073181781
 30
0.0
 11
4156.6313199210299
 21
-699.5000000000008
 31
0.0
1001
ACDBBLOCKREPETAG
1070
     1
1071
      101
1005
12BC82
  0
LINE
  5
12BC83
  8
OBJECT
 10
4079.9999999999818
 20
-634.0
 30
0.0
 11
4084.7999999999852
 21
-634.0
 31
0.0
1001
ACDBBLOCKREPETAG
1070
     1
1071
      102
1005
12BC83
  0
LINE
  5
12BC84
  8
OBJECT
 10
4085.9999999999859
 20
-653.35026377573013
 30
0.0
 11
4084.7999999999852
 21
-634.0
 31
0.0
1001
ACDBBLOCKREPETAG
1070
     1
1071
      103
1005
12BC84
  0
LINE
  5
12BC85
  8
OBJECT
 10
4162.9999999999854
 20
-699.5000000000008
 30
0.0
 11
4156.6313199210299
 21
-699.5000000000008
 31
0.0
1001
ACDBBLOCKREPETAG
1070
     1
1071
      104
1005
12BC85
  0
LINE
  5
12BC86
  8
OBJECT
 10
4166.9999999999854
 20
-704.0000000000008
 30
0.0
 11
4162.9999999999854
 21
-699.5000000000008
 31
0.0
1001
ACDBBLOCKREPETAG
1070
     1
1071
      105
1005
12BC86
  0
LINE
  5
12BC87
  8
OBJECT
 10
1923.0
 20
-570.99999999999432
 30
0.0
 11
1923.0
 21
-549.99999999999432
 31
0.0
1001
ACDBBLOCKREPETAG
1070
     1
1071
       36
1005
12BC87
  0
LINE
  5
12BC88
  8
OBJECT
 10
1923.0
 20
-549.99999999999432
 30
0.0
 11
2077.0
 21
-549.99999999999432
 31
0.0
1001
ACDBBLOCKREPETAG
1070
     1
1071
       37
1005
12BC88
  0
LINE
  5
12BC89
  8
HIDDEN
 10
1943.0
 20
-619.99999999999432
 30
0.0
 11
2057.0
 21
-619.99999999999432
 31
0.0
1001
ACDBBLOCKREPETAG
1070
     1
1071
       38
1005
12BC89
  0
LINE
  5
12BC8A
  8
OBJECT
 10
2077.0
 20
-549.99999999999432
 30
0.0
 11
2077.0
 21
-570.99999999999432
 31
0.0
1001
ACDBBLOCKREPETAG
1070
     1
1071
       39
1005
12BC8A
  0
LINE
  5
12BC8B
  8
OBJECT
 10
2077.0
 20
-570.99999999999432
 30
0.0
 11
1923.0
 21
-570.99999999999432
 31
0.0
1001
ACDBBLOCKREPETAG
1070
     1
1071
       40
1005
12BC8B
  0
LINE
  5
12BC8C
  8
CENTER
 10
2000.0
 20
-534.99999999999432
 30
0.0
 11
2000.0
 21
-769.9999999999942
 31
0.0
1001
ACDBBLOCKREPETAG
1070
     1
1071
       41
1005
12BC8C
  0
LINE
  5
12BC8D
  8
OBJECT
 10
1928.0
 20
-570.99999999999432
 30
0.0
 11
1928.0
 21
-633.99999999999432
 31
0.0
1001
ACDBBLOCKREPETAG
1070
     1
1071
       42
1005
12BC8D
  0
LINE
  5
12BC8E
  8
OBJECT
 10
2072.0
 20
-633.99999999999432
 30
0.0
 11
2072.0
 21
-570.99999999999432
 31
0.0
1001
ACDBBLOCKREPETAG
1070
     1
1071
       43
1005
12BC8E
  0
LINE
  5
12BC8F
  8
OBJECT
 10
1920.0
 20
-757.9999999999942
 30
0.0
 11
2080.0
 21
-757.9999999999942
 31
0.0
1001
ACDBBLOCKREPETAG
1070
     1
1071
       44
1005
12BC8F
  0
LINE
  5
12BC90
  8
OBJECT
 10
2080.0
 20
-633.99999999999432
 30
0.0
 11
1920.0
 21
-633.99999999999432
 31
0.0
1001
ACDBBLOCKREPETAG
1070
     1
1071
       45
1005
12BC90
  0
LINE
  5
12BC91
  8
OBJECT
 10
1920.0
 20
-757.9999999999942
 30
0.0
 11
1920.0
 21
-769.9999999999942
 31
0.0
1001
ACDBBLOCKREPETAG
1070
     1
1071
       46
1005
12BC91
  0
LINE
  5
12BC92
  8
OBJECT
 10
1920.0
 20
-769.9999999999942
 30
0.0
 11
2080.0
 21
-769.9999999999942
 31
0.0
1001
ACDBBLOCKREPETAG
1070
     1
1071
       47
1005
12BC92
  0
LINE
  5
12BC93
  8
OBJECT
 10
2080.0
 20
-769.9999999999942
 30
0.0
 11
2080.0
 21
-757.9999999999942
 31
0.0
1001
ACDBBLOCKREPETAG
1070
     1
1071
       48
1005
12BC93
  0
ARC
  5
12BC94
  8
OBJECT
 10
2200.6872746716731
 20
-749.40809941010195
 30
0.0
 40
170.6350503965856
 50
137.44134459184301
 51
149.91949581336559
1001
ACDBBLOCKREPETAG
1070
     1
1071
       52
1005
12BC94
  0
ARC
  5
12BC95
  8
OBJECT
 10
2200.6872746716731
 20
-642.59190058988645
 30
0.0
 40
170.6350503965856
 50
210.0805041866343
 51
222.55865540815699
1001
ACDBBLOCKREPETAG
1070
     1
1071
       53
1005
12BC95
  0
ARC
  5
12BC96
  8
OBJECT
 10
1799.312725328326
 20
-749.40809941010195
 30
0.0
 40
170.6350503965856
 50
30.080504186774089
 51
42.558655408447443
1001
ACDBBLOCKREPETAG
1070
     1
1071
       54
1005
12BC96
  0
ARC
  5
12BC97
  8
OBJECT
 10
1799.312725328326
 20
-642.59190058988645
 30
0.0
 40
170.6350503965856
 50
317.44134459155248
 51
329.91949581322592
1001
ACDBBLOCKREPETAG
1070
     1
1071
       55
1005
12BC97
  0
POINT
  5
12BC98
  8
DOTS
 10
2000.0
 20
-754.9999999999942
 30
0.0
1001
ACDBBLOCKREPETAG
1070
     1
1071
      184
1005
12BC98
  0
LINE
  5
12BC99
  8
OBJECT
 10
1969.4199755553
 20
-243.89888500818171
 30
0.0
 11
1979.856491823236
 21
-222.48688253356801
 31
0.0
1001
ACDBBLOCKREPETAG
1070
     1
1071
      305
1005
12BC99
  0
LINE
  5
12BC9A
  8
OBJECT
 10
1965.2972169006091
 20
-240.71813901882729
 30
0.0
 11
1973.907102266508
 21
-223.05373004430751
 31
0.0
1001
ACDBBLOCKREPETAG
1070
     1
1071
      306
1005
12BC9A
  0
LINE
  5
12BC9B
  8
OBJECT
 10
2024.102933093302
 20
-243.80694712371681
 30
0.0
 11
2020.659656999997
 21
-232.55462199999889
 31
0.0
1001
ACDBBLOCKREPETAG
1070
     1
1071
      307
1005
12BC9B
  0
ARC
  5
12BC9C
  8
OBJECT
 10
1976.579695307315
 20
-207.1289369828437
 30
0.0
 40
60.031113246032611
 50
314.07020130418567
 51
322.33936106091278
1001
ACDBBLOCKREPETAG
1070
     1
1071
      308
1005
12BC9C
  0
LINE
  5
12BC9D
  8
OBJECT
 10
1986.7927499013749
 20
-218.22553374208019
 30
0.0
 11
2020.659656999997
 21
-232.5546219999969
 31
0.0
1001
ACDBBLOCKREPETAG
1070
     1
1071
      309
1005
12BC9D
  0
ARC
  5
12BC9E
  8
OBJECT
 10
1982.8961697619
 20
-227.4351299990567
 30
0.0
 40
10.0
 50
67.066778292923374
 51
154.0147343702935
1001
ACDBBLOCKREPETAG
1070
     1
1071
      310
1005
12BC9E
  0
ARC
  5
12BC9F
  8
OBJECT
 10
1986.1488390381271
 20
-225.55386256729159
 30
0.0
 40
7.0
 50
67.066778292923374
 51
154.01473377497121
1001
ACDBBLOCKREPETAG
1070
     1
1071
      311
1005
12BC9F
  0
CIRCLE
  5
12BCA0
  8
OBJECT
 10
2000.0
 20
-199.99999999999909
 30
0.0
 40
53.5
1001
ACDBBLOCKREPETAG
1070
     1
1071
      340
1005
12BCA0
  0
POINT
  5
12BCA1
  8
DOTS
 10
2000.0
 20
-199.99999999999909
 30
0.0
 50
270.0
1001
ACDBBLOCKREPETAG
1070
     1
1071
      153
1005
12BCA1
  0
ARC
  5
12BCA2
  8
OBJECT
 10
2000.0
 20
-199.99999999999909
 30
0.0
 40
50.0
 50
298.81994300000417
 51
228.52376955967449
1001
ACDBBLOCKREPETAG
1070
     1
1071
       48
1005
12BCA2
  0
LINE
  5
12BCA3
  8
CENTER
 10
2080.0
 20
-199.99999999999909
 30
0.0
 11
1920.0
 21
-199.99999999999909
 31
0.0
1001
ACDBBLOCKREPETAG
1070
     1
1071
       49
1005
12BCA3
  0
LINE
  5
12BCA4
  8
CENTER
 10
2000.0
 20
-279.99999999999909
 30
0.0
 11
2000.0
 21
-104.9999999999991
 31
0.0
1001
ACDBBLOCKREPETAG
1070
     1
1071
       50
1005
12BCA4
  0
CIRCLE
  5
12BCA5
  8
OBJECT
 10
2000.0
 20
-199.99999999999909
 30
0.0
 40
70.0
1001
ACDBBLOCKREPETAG
1070
     1
1071
       51
1005
12BCA5
  0
CIRCLE
  5
12BCA6
  8
OBJECT
 10
2000.0
 20
-199.99999999999909
 30
0.0
 40
77.0
1001
ACDBBLOCKREPETAG
1070
     1
1071
       52
1005
12BCA6
  0
ARC
  5
12BCA7
  8
OBJECT
 10
2000.0
 20
-199.99999999999909
 30
0.0
 40
80.0
 50
50.805032573864182
 51
129.1949674261358
1001
ACDBBLOCKREPETAG
1070
     1
1071
       53
1005
12BCA7
  0
LINE
  5
12BCA8
  8
OBJECT
 10
2045.6618002273251
 20
-137.99999999999909
 30
0.0
 11
2080.0
 21
-137.99999999999909
 31
0.0
1001
ACDBBLOCKREPETAG
1070
     1
1071
       54
1005
12BCA8
  0
LINE
  5
12BCA9
  8
OBJECT
 10
2062.0
 20
-261.99999999999909
 30
0.0
 11
2080.0
 21
-261.99999999999909
 31
0.0
1001
ACDBBLOCKREPETAG
1070
     1
1071
       55
1005
12BCA9
  0
LINE
  5
12BCAA
  8
OBJECT
 10
2062.0
 20
-261.99999999999909
 30
0.0
 11
2062.0
 21
-279.99999999999909
 31
0.0
1001
ACDBBLOCKREPETAG
1070
     1
1071
       57
1005
12BCAA
  0
LINE
  5
12BCAB
  8
OBJECT
 10
1938.0
 20
-261.99999999999909
 30
0.0
 11
1938.0
 21
-279.99999999999909
 31
0.0
1001
ACDBBLOCKREPETAG
1070
     1
1071
       58
1005
12BCAB
  0
LINE
  5
12BCAC
  8
OBJECT
 10
1938.0
 20
-261.99999999999909
 30
0.0
 11
1920.0
 21
-261.99999999999909
 31
0.0
1001
ACDBBLOCKREPETAG
1070
     1
1071
       60
1005
12BCAC
  0
LINE
  5
12BCAD
  8
OBJECT
 10
1954.3381997726749
 20
-137.99999999999909
 30
0.0
 11
1920.0
 21
-137.99999999999909
 31
0.0
1001
ACDBBLOCKREPETAG
1070
     1
1071
       61
1005
12BCAD
  0
LINE
  5
12BCAE
  8
OBJECT
 10
1945.5527778486351
 20
-254.44722215136329
 30
0.0
 11
1938.0
 21
-261.99999999999909
 31
0.0
1001
ACDBBLOCKREPETAG
1070
     1
1071
       42
1005
12BCAE
  0
LINE
  5
12BCAF
  8
OBJECT
 10
2054.4472221513638
 20
-254.44722215136329
 30
0.0
 11
2062.0
 21
-261.99999999999909
 31
0.0
1001
ACDBBLOCKREPETAG
1070
     1
1071
       43
1005
12BCAF
  0
LINE
  5
12BCB0
  8
OBJECT
 10
1797.0000000000141
 20
-261.99999999999909
 30
0.0
 11
1790.0000000000141
 21
-261.99999999999909
 31
0.0
1001
ACDBBLOCKREPETAG
1070
     1
1071
       85
1005
12BCB0
  0
LINE
  5
12BCB1
  8
OBJECT
 10
1790.0000000000141
 20
-261.99999999999909
 30
0.0
 11
1790.0000000000141
 21
-137.99999999999909
 31
0.0
1001
ACDBBLOCKREPETAG
1070
     1
1071
       86
1005
12BCB1
  0
LINE
  5
12BCB2
  8
OBJECT
 10
1790.0000000000141
 20
-137.99999999999909
 30
0.0
 11
1797.0000000000141
 21
-137.99999999999909
 31
0.0
1001
ACDBBLOCKREPETAG
1070
     1
1071
       87
1005
12BCB2
  0
LINE
  5
12BCB3
  8
OBJECT
 10
1797.0000000000141
 20
-137.99999999999909
 30
0.0
 11
1797.0000000000141
 21
-261.99999999999909
 31
0.0
1001
ACDBBLOCKREPETAG
1070
     1
1071
       88
1005
12BCB3
  0
LINE
  5
12BCB4
  8
CENTER
 10
1775.0000000000141
 20
-199.99999999999909
 30
0.0
 11
1920.0
 21
-199.99999999999909
 31
0.0
1001
ACDBBLOCKREPETAG
1070
     1
1071
       89
1005
12BCB4
  0
LINE
  5
12BCB5
  8
OBJECT
 10
1850.000025035813
 20
-154.9999999999954
 30
0.0
 11
1914.0
 21
-154.99999999999909
 31
0.0
1001
ACDBBLOCKREPETAG
1070
     1
1071
       90
1005
12BCB5
  0
LINE
  5
12BCB6
  8
OBJECT
 10
1850.000025035813
 20
-244.99999999999909
 30
0.0
 11
1914.0
 21
-244.99999999999909
 31
0.0
1001
ACDBBLOCKREPETAG
1070
     1
1071
       91
1005
12BCB6
  0
LINE
  5
12BCB7
  8
OBJECT
 10
1797.0000000000141
 20
-258.99999999999909
 30
0.0
 11
1833.000000000015
 21
-258.99999999999909
 31
0.0
1001
ACDBBLOCKREPETAG
1070
     1
1071
       92
1005
12BCB7
  0
LINE
  5
12BCB8
  8
OBJECT
 10
1833.000000000015
 20
-258.99999999999909
 30
0.0
 11
1833.000000000015
 21
-140.99999999999909
 31
0.0
1001
ACDBBLOCKREPETAG
1070
     1
1071
       93
1005
12BCB8
  0
LINE
  5
12BCB9
  8
OBJECT
 10
1833.000000000015
 20
-140.99999999999909
 30
0.0
 11
1797.0000000000141
 21
-140.99999999999909
 31
0.0
1001
ACDBBLOCKREPETAG
1070
     1
1071
       94
1005
12BCB9
  0
LINE
  5
12BCBA
  8
OBJECT
 10
1837.000000000015
 20
-254.49999999999909
 30
0.0
 11
1850.0000000000141
 21
-254.49999999999909
 31
0.0
1001
ACDBBLOCKREPETAG
1070
     1
1071
       95
1005
12BCBA
  0
LINE
  5
12BCBB
  8
OBJECT
 10
1850.0000000000141
 20
-145.49999999999909
 30
0.0
 11
1837.000000000015
 21
-145.49999999999909
 31
0.0
1001
ACDBBLOCKREPETAG
1070
     1
1071
       96
1005
12BCBB
  0
LINE
  5
12BCBC
  8
OBJECT
 10
1837.000000000015
 20
-145.49999999999909
 30
0.0
 11
1837.000000000015
 21
-254.49999999999909
 31
0.0
1001
ACDBBLOCKREPETAG
1070
     1
1071
       97
1005
12BCBC
  0
LINE
  5
12BCBD
  8
OBJECT
 10
1833.000000000015
 20
-258.99999999999909
 30
0.0
 11
1837.000000000015
 21
-254.49999999999909
 31
0.0
1001
ACDBBLOCKREPETAG
1070
     1
1071
       98
1005
12BCBD
  0
LINE
  5
12BCBE
  8
OBJECT
 10
1833.000000000015
 20
-140.99999999999909
 30
0.0
 11
1837.000000000015
 21
-145.49999999999909
 31
0.0
1001
ACDBBLOCKREPETAG
1070
     1
1071
       99
1005
12BCBE
  0
LINE
  5
12BCBF
  8
OBJECT
 10
1917.0
 20
-261.99999999999909
 30
0.0
 11
1920.0
 21
-261.99999999999909
 31
0.0
1001
ACDBBLOCKREPETAG
1070
     1
1071
      100
1005
12BCBF
  0
ARC
  5
12BCC0
  8
OBJECT
 10
1917.0
 20
-258.99999999999909
 30
0.0
 40
3.0
 50
180.0
 51
270.0
1001
ACDBBLOCKREPETAG
1070
     1
1071
      101
1005
12BCC0
  0
LINE
  5
12BCC1
  8
OBJECT
 10
1920.0
 20
-137.99999999999909
 30
0.0
 11
1917.0
 21
-137.99999999999909
 31
0.0
1001
ACDBBLOCKREPETAG
1070
     1
1071
      102
1005
12BCC1
  0
ARC
  5
12BCC2
  8
OBJECT
 10
1917.0
 20
-140.99999999999909
 30
0.0
 40
3.0
 50
90.0
 51
180.0
1001
ACDBBLOCKREPETAG
1070
     1
1071
      103
1005
12BCC2
  0
LINE
  5
12BCC3
  8
OBJECT
 10
1914.0
 20
-140.99999999999909
 30
0.0
 11
1914.0
 21
-189.6772096796403
 31
0.0
1001
ACDBBLOCKREPETAG
1070
     1
1071
      104
1005
12BCC3
  0
LINE
  5
12BCC4
  8
OBJECT
 10
1914.0
 20
-210.3227903203578
 30
0.0
 11
1914.0
 21
-258.99999999999909
 31
0.0
1001
ACDBBLOCKREPETAG
1070
     1
1071
      105
1005
12BCC4
  0
LINE
  5
12BCC5
  8
HIDDEN
 10
1842.0000000000141
 20
-244.49999999999909
 30
0.0
 11
1842.0000000000141
 21
-155.49999999999909
 31
0.0
1001
ACDBBLOCKREPETAG
1070
     1
1071
      106
1005
12BCC5
  0
LINE
  5
12BCC6
  8
OBJECT
 10
1850.000025035813
 20
-145.50004907618759
 30
0.0
 11
1850.000025035813
 21
-254.50004907618771
 31
0.0
1001
ACDBBLOCKREPETAG
1070
     1
1071
      108
1005
12BCC6
  0
ARC
  5
12BCC7
  8
OBJECT
 10
1870.199999999975
 20
-199.99999999999909
 30
0.0
 40
45.000000000000547
 50
270.0
 51
90.0
1001
ACDBBLOCKREPETAG
1070
     1
1071
      109
1005
12BCC7
  0
LINE
  5
12BCC8
  8
CENTER
 10
2000.0
 20
-300.99999999999898
 30
0.0
 11
2000.0
 21
-279.99999999999909
 31
0.0
1001
ACDBBLOCKREPETAG
1070
     1
1071
        0
1005
12BCC8
  0
LINE
  5
12BCC9
  8
OBJECT
 10
2062.0
 20
-283.0
 30
0.0
 11
2062.0
 21
-279.99999999999909
 31
0.0
1001
ACDBBLOCKREPETAG
1070
     1
1071
        1
1005
12BCC9
  0
ARC
  5
12BCCA
  8
OBJECT
 10
2059.0
 20
-283.0
 30
0.0
 40
3.0
 50
270.0
 51
0.0
1001
ACDBBLOCKREPETAG
1070
     1
1071
        2
1005
12BCCA
  0
LINE
  5
12BCCB
  8
OBJECT
 10
1938.0
 20
-279.99999999999909
 30
0.0
 11
1938.0
 21
-282.99999999999818
 31
0.0
1001
ACDBBLOCKREPETAG
1070
     1
1071
        3
1005
12BCCB
  0
ARC
  5
12BCCC
  8
OBJECT
 10
1941.0
 20
-282.99999999999818
 30
0.0
 40
3.0
 50
180.0
 51
270.0
1001
ACDBBLOCKREPETAG
1070
     1
1071
        4
1005
12BCCC
  0
LINE
  5
12BCCD
  8
OBJECT
 10
1941.0
 20
-285.99999999999818
 30
0.0
 11
2059.0
 21
-286.0
 31
0.0
1001
ACDBBLOCKREPETAG
1070
     1
1071
        5
1005
12BCCD
  0
LINE
  5
12BCCE
  8
OBJECT
 10
2202.9999999999859
 20
-137.99999999999909
 30
0.0
 11
2209.9999999999859
 21
-137.99999999999909
 31
0.0
1001
ACDBBLOCKREPETAG
1070
     1
1071
       85
1005
12BCCE
  0
LINE
  5
12BCCF
  8
OBJECT
 10
2209.9999999999859
 20
-137.99999999999909
 30
0.0
 11
2209.9999999999859
 21
-261.99999999999909
 31
0.0
1001
ACDBBLOCKREPETAG
1070
     1
1071
       86
1005
12BCCF
  0
LINE
  5
12BCD0
  8
OBJECT
 10
2209.9999999999859
 20
-261.99999999999909
 30
0.0
 11
2202.9999999999859
 21
-261.99999999999909
 31
0.0
1001
ACDBBLOCKREPETAG
1070
     1
1071
       87
1005
12BCD0
  0
LINE
  5
12BCD1
  8
OBJECT
 10
2202.9999999999859
 20
-261.99999999999909
 30
0.0
 11
2202.9999999999859
 21
-137.99999999999909
 31
0.0
1001
ACDBBLOCKREPETAG
1070
     1
1071
       88
1005
12BCD1
  0
LINE
  5
12BCD2
  8
CENTER
 10
2224.999999999985
 20
-199.99999999999909
 30
0.0
 11
2080.0
 21
-199.99999999999909
 31
0.0
1001
ACDBBLOCKREPETAG
1070
     1
1071
       89
1005
12BCD2
  0
LINE
  5
12BCD3
  8
OBJECT
 10
2149.9999749641861
 20
-245.0000000000027
 30
0.0
 11
2086.0
 21
-244.99999999999909
 31
0.0
1001
ACDBBLOCKREPETAG
1070
     1
1071
       90
1005
12BCD3
  0
LINE
  5
12BCD4
  8
OBJECT
 10
2149.9999749641861
 20
-154.99999999999909
 30
0.0
 11
2086.0
 21
-154.99999999999909
 31
0.0
1001
ACDBBLOCKREPETAG
1070
     1
1071
       91
1005
12BCD4
  0
LINE
  5
12BCD5
  8
OBJECT
 10
2202.9999999999859
 20
-140.99999999999909
 30
0.0
 11
2166.9999999999859
 21
-140.99999999999909
 31
0.0
1001
ACDBBLOCKREPETAG
1070
     1
1071
       92
1005
12BCD5
  0
LINE
  5
12BCD6
  8
OBJECT
 10
2166.9999999999859
 20
-140.99999999999909
 30
0.0
 11
2166.9999999999859
 21
-258.99999999999909
 31
0.0
1001
ACDBBLOCKREPETAG
1070
     1
1071
       93
1005
12BCD6
  0
LINE
  5
12BCD7
  8
OBJECT
 10
2166.9999999999859
 20
-258.99999999999909
 30
0.0
 11
2202.9999999999859
 21
-258.99999999999909
 31
0.0
1001
ACDBBLOCKREPETAG
1070
     1
1071
       94
1005
12BCD7
  0
LINE
  5
12BCD8
  8
OBJECT
 10
2162.9999999999859
 20
-145.49999999999909
 30
0.0
 11
2149.9999999999859
 21
-145.49999999999909
 31
0.0
1001
ACDBBLOCKREPETAG
1070
     1
1071
       95
1005
12BCD8
  0
LINE
  5
12BCD9
  8
OBJECT
 10
2149.9999999999859
 20
-254.49999999999909
 30
0.0
 11
2162.9999999999859
 21
-254.49999999999909
 31
0.0
1001
ACDBBLOCKREPETAG
1070
     1
1071
       96
1005
12BCD9
  0
LINE
  5
12BCDA
  8
OBJECT
 10
2162.9999999999859
 20
-254.49999999999909
 30
0.0
 11
2162.9999999999859
 21
-145.49999999999909
 31
0.0
1001
ACDBBLOCKREPETAG
1070
     1
1071
       97
1005
12BCDA
  0
LINE
  5
12BCDB
  8
OBJECT
 10
2166.9999999999859
 20
-140.99999999999909
 30
0.0
 11
2162.9999999999859
 21
-145.49999999999909
 31
0.0
1001
ACDBBLOCKREPETAG
1070
     1
1071
       98
1005
12BCDB
  0
LINE
  5
12BCDC
  8
OBJECT
 10
2166.9999999999859
 20
-258.99999999999909
 30
0.0
 11
2162.9999999999859
 21
-254.49999999999909
 31
0.0
1001
ACDBBLOCKREPETAG
1070
     1
1071
       99
1005
12BCDC
  0
LINE
  5
12BCDD
  8
OBJECT
 10
2083.0
 20
-137.99999999999909
 30
0.0
 11
2080.0
 21
-137.99999999999909
 31
0.0
1001
ACDBBLOCKREPETAG
1070
     1
1071
      100
1005
12BCDD
  0
ARC
  5
12BCDE
  8
OBJECT
 10
2083.0
 20
-140.99999999999909
 30
0.0
 40
3.0
 50
0.0
 51
90.0
1001
ACDBBLOCKREPETAG
1070
     1
1071
      101
1005
12BCDE
  0
LINE
  5
12BCDF
  8
OBJECT
 10
2080.0
 20
-261.99999999999909
 30
0.0
 11
2083.0
 21
-261.99999999999909
 31
0.0
1001
ACDBBLOCKREPETAG
1070
     1
1071
      102
1005
12BCDF
  0
ARC
  5
12BCE0
  8
OBJECT
 10
2083.0
 20
-258.99999999999909
 30
0.0
 40
3.0
 50
270.0
 51
0.0
1001
ACDBBLOCKREPETAG
1070
     1
1071
      103
1005
12BCE0
  0
LINE
  5
12BCE1
  8
OBJECT
 10
2086.0
 20
-258.99999999999909
 30
0.0
 11
2086.0
 21
-210.3227903203578
 31
0.0
1001
ACDBBLOCKREPETAG
1070
     1
1071
      104
1005
12BCE1
  0
LINE
  5
12BCE2
  8
OBJECT
 10
2086.0
 20
-189.6772096796403
 30
0.0
 11
2086.0
 21
-140.99999999999909
 31
0.0
1001
ACDBBLOCKREPETAG
1070
     1
1071
      105
1005
12BCE2
  0
LINE
  5
12BCE3
  8
HIDDEN
 10
2157.9999999999859
 20
-155.49999999999909
 30
0.0
 11
2157.9999999999859
 21
-244.49999999999909
 31
0.0
1001
ACDBBLOCKREPETAG
1070
     1
1071
      106
1005
12BCE3
  0
LINE
  5
12BCE4
  8
OBJECT
 10
2149.9999749641861
 20
-254.4999509238105
 30
0.0
 11
2149.9999749641861
 21
-145.4999509238105
 31
0.0
1001
ACDBBLOCKREPETAG
1070
     1
1071
      108
1005
12BCE4
  0
ARC
  5
12BCE5
  8
OBJECT
 10
2129.8000000000252
 20
-199.99999999999909
 30
0.0
 40
45.000000000000547
 50
90.0
 51
270.0
1001
ACDBBLOCKREPETAG
1070
     1
1071
      109
1005
12BCE5
  0
LINE
  5
12BCE6
  8
OBJECT
 10
1797.0000000000141
 20
-583.0
 30
0.0
 11
1790.0000000000141
 21
-583.0
 31
0.0
1001
ACDBBLOCKREPETAG
1070
     1
1071
       83
1005
12BCE6
  0
LINE
  5
12BCE7
  8
OBJECT
 10
1790.0000000000141
 20
-583.0
 30
0.0
 11
1790.0000000000141
 21
-707.0
 31
0.0
1001
ACDBBLOCKREPETAG
1070
     1
1071
       84
1005
12BCE7
  0
LINE
  5
12BCE8
  8
OBJECT
 10
1914.0000000000141
 20
-653.3502637757274
 30
0.0
 11
1914.0000000000141
 21
-755.00000000000102
 31
0.0
1001
ACDBBLOCKREPETAG
1070
     1
1071
       85
1005
12BCE8
  0
LINE
  5
12BCE9
  8
OBJECT
 10
1790.0000000000141
 20
-707.0
 30
0.0
 11
1797.0000000000141
 21
-707.0
 31
0.0
1001
ACDBBLOCKREPETAG
1070
     1
1071
       86
1005
12BCE9
  0
LINE
  5
12BCEA
  8
OBJECT
 10
1797.0000000000141
 20
-707.0
 30
0.0
 11
1797.0000000000141
 21
-583.0
 31
0.0
1001
ACDBBLOCKREPETAG
1070
     1
1071
       87
1005
12BCEA
  0
LINE
  5
12BCEB
  8
CENTER
 10
1865.0000000000141
 20
-645.0000000000008
 30
0.0
 11
1775.0000000000141
 21
-645.0
 31
0.0
1001
ACDBBLOCKREPETAG
1070
     1
1071
       88
1005
12BCEB
  0
LINE
  5
12BCEC
  8
OBJECT
 10
1920.000000000018
 20
-758.0
 30
0.0
 11
1917.000000000015
 21
-758.0000000000008
 31
0.0
1001
ACDBBLOCKREPETAG
1070
     1
1071
       89
1005
12BCEC
  0
ARC
  5
12BCED
  8
OBJECT
 10
1917.000000000015
 20
-755.00000000000102
 30
0.0
 40
3.0
 50
180.0
 51
270.0
1001
ACDBBLOCKREPETAG
1070
     1
1071
       90
1005
12BCED
  0
LINE
  5
12BCEE
  8
OBJECT
 10
1797.0000000000141
 20
-586.0
 30
0.0
 11
1833.000000000015
 21
-586.0000000000008
 31
0.0
1001
ACDBBLOCKREPETAG
1070
     1
1071
       91
1005
12BCEE
  0
LINE
  5
12BCEF
  8
OBJECT
 10
1833.000000000015
 20
-586.0000000000008
 30
0.0
 11
1833.000000000015
 21
-704.0000000000008
 31
0.0
1001
ACDBBLOCKREPETAG
1070
     1
1071
       92
1005
12BCEF
  0
LINE
  5
12BCF0
  8
OBJECT
 10
1837.000000000015
 20
-590.5000000000008
 30
0.0
 11
1837.000000000015
 21
-699.5000000000008
 31
0.0
1001
ACDBBLOCKREPETAG
1070
     1
1071
       93
1005
12BCF0
  0
LINE
  5
12BCF1
  8
OBJECT
 10
1837.000000000015
 20
-590.5000000000008
 30
0.0
 11
1850.0000000000141
 21
-590.5000000000008
 31
0.0
1001
ACDBBLOCKREPETAG
1070
     1
1071
       94
1005
12BCF1
  0
LINE
  5
12BCF2
  8
OBJECT
 10
1833.000000000015
 20
-704.0000000000008
 30
0.0
 11
1797.0000000000141
 21
-704.0
 31
0.0
1001
ACDBBLOCKREPETAG
1070
     1
1071
       95
1005
12BCF2
  0
LINE
  5
12BCF3
  8
OBJECT
 10
1833.000000000015
 20
-586.0000000000008
 30
0.0
 11
1837.000000000015
 21
-590.5000000000008
 31
0.0
1001
ACDBBLOCKREPETAG
1070
     1
1071
       96
1005
12BCF3
  0
LINE
  5
12BCF4
  8
OBJECT
 10
1850.0000000000141
 20
-590.5000000000008
 30
0.0
 11
1850.0000000000141
 21
-675.74491827928784
 31
0.0
1001
ACDBBLOCKREPETAG
1070
     1
1071
       97
1005
12BCF4
  0
ARC
  5
12BCF5
  8
OBJECT
 10
1847.2000000000151
 20
-685.0000000000008
 30
0.0
 40
85.0
 50
36.869897645898732
 51
88.112268108168848
1001
ACDBBLOCKREPETAG
1070
     1
1071
       98
1005
12BCF5
  0
LINE
  5
12BCF6
  8
HIDDEN
 10
1842.0000000000141
 20
-600.50000000000068
 30
0.0
 11
1842.0000000000141
 21
-689.50000000000091
 31
0.0
1001
ACDBBLOCKREPETAG
1070
     1
1071
      100
1005
12BCF6
  0
LINE
  5
12BCF7
  8
OBJECT
 10
1914.0000000000141
 20
-751.07945073181781
 30
0.0
 11
1843.368680078969
 21
-699.5000000000008
 31
0.0
1001
ACDBBLOCKREPETAG
1070
     1
1071
      101
1005
12BCF7
  0
LINE
  5
12BCF8
  8
OBJECT
 10
1920.000000000018
 20
-634.0
 30
0.0
 11
1915.2000000000151
 21
-634.0
 31
0.0
1001
ACDBBLOCKREPETAG
1070
     1
1071
      102
1005
12BCF8
  0
LINE
  5
12BCF9
  8
OBJECT
 10
1914.0000000000141
 20
-653.35026377573013
 30
0.0
 11
1915.2000000000151
 21
-634.0
 31
0.0
1001
ACDBBLOCKREPETAG
1070
     1
1071
      103
1005
12BCF9
  0
LINE
  5
12BCFA
  8
OBJECT
 10
1837.000000000015
 20
-699.5000000000008
 30
0.0
 11
1843.368680078969
 21
-699.5000000000008
 31
0.0
1001
ACDBBLOCKREPETAG
1070
     1
1071
      104
1005
12BCFA
  0
LINE
  5
12BCFB
  8
OBJECT
 10
1833.000000000015
 20
-704.0000000000008
 30
0.0
 11
1837.000000000015
 21
-699.5000000000008
 31
0.0
1001
ACDBBLOCKREPETAG
1070
     1
1071
      105
1005
12BCFB
  0
CIRCLE
  5
12BCFC
  8
OBJECT
 10
2000.0
 20
-696.0
 30
0.0
 40
62.0
1001
ACDBBLOCKREPETAG
1070
     1
1071
        0
1005
12BCFC
  0
LINE
  5
12BCFD
  8
OBJECT
 10
2202.9999999999859
 20
-583.0000000000008
 30
0.0
 11
2209.9999999999859
 21
-583.0000000000008
 31
0.0
1001
ACDBBLOCKREPETAG
1070
     1
1071
       83
1005
12BCFD
  0
LINE
  5
12BCFE
  8
OBJECT
 10
2209.9999999999859
 20
-583.0000000000008
 30
0.0
 11
2209.9999999999859
 21
-707.00000000000091
 31
0.0
1001
ACDBBLOCKREPETAG
1070
     1
1071
       84
1005
12BCFE
  0
LINE
  5
12BCFF
  8
OBJECT
 10
2085.9999999999859
 20
-653.3502637757274
 30
0.0
 11
2085.9999999999859
 21
-755.00000000000102
 31
0.0
1001
ACDBBLOCKREPETAG
1070
     1
1071
       85
1005
12BCFF
  0
LINE
  5
12BD00
  8
OBJECT
 10
2209.9999999999859
 20
-707.00000000000091
 30
0.0
 11
2202.9999999999859
 21
-707.00000000000091
 31
0.0
1001
ACDBBLOCKREPETAG
1070
     1
1071
       86
1005
12BD00
  0
LINE
  5
12BD01
  8
OBJECT
 10
2202.9999999999859
 20
-707.00000000000091
 30
0.0
 11
2202.9999999999859
 21
-583.0000000000008
 31
0.0
1001
ACDBBLOCKREPETAG
1070
     1
1071
       87
1005
12BD01
  0
LINE
  5
12BD02
  8
CENTER
 10
2134.9999999999859
 20
-645.0000000000008
 30
0.0
 11
2224.999999999985
 21
-645.0000000000008
 31
0.0
1001
ACDBBLOCKREPETAG
1070
     1
1071
       88
1005
12BD02
  0
LINE
  5
12BD03
  8
OBJECT
 10
2079.9999999999809
 20
-758.0
 30
0.0
 11
2082.999999999985
 21
-758.0000000000008
 31
0.0
1001
ACDBBLOCKREPETAG
1070
     1
1071
       89
1005
12BD03
  0
ARC
  5
12BD04
  8
OBJECT
 10
2082.999999999985
 20
-755.00000000000102
 30
0.0
 40
3.0
 50
270.0
 51
0.0
1001
ACDBBLOCKREPETAG
1070
     1
1071
       90
1005
12BD04
  0
LINE
  5
12BD05
  8
OBJECT
 10
2202.9999999999859
 20
-586.0000000000008
 30
0.0
 11
2166.9999999999859
 21
-586.0000000000008
 31
0.0
1001
ACDBBLOCKREPETAG
1070
     1
1071
       91
1005
12BD05
  0
LINE
  5
12BD06
  8
OBJECT
 10
2166.9999999999859
 20
-586.0000000000008
 30
0.0
 11
2166.9999999999859
 21
-704.0000000000008
 31
0.0
1001
ACDBBLOCKREPETAG
1070
     1
1071
       92
1005
12BD06
  0
LINE
  5
12BD07
  8
OBJECT
 10
2162.9999999999859
 20
-590.5000000000008
 30
0.0
 11
2162.9999999999859
 21
-699.5000000000008
 31
0.0
1001
ACDBBLOCKREPETAG
1070
     1
1071
       93
1005
12BD07
  0
LINE
  5
12BD08
  8
OBJECT
 10
2162.9999999999859
 20
-590.5000000000008
 30
0.0
 11
2149.9999999999859
 21
-590.5000000000008
 31
0.0
1001
ACDBBLOCKREPETAG
1070
     1
1071
       94
1005
12BD08
  0
LINE
  5
12BD09
  8
OBJECT
 10
2166.9999999999859
 20
-704.0000000000008
 30
0.0
 11
2202.9999999999859
 21
-704.0000000000008
 31
0.0
1001
ACDBBLOCKREPETAG
1070
     1
1071
       95
1005
12BD09
  0
LINE
  5
12BD0A
  8
OBJECT
 10
2166.9999999999859
 20
-586.0000000000008
 30
0.0
 11
2162.9999999999859
 21
-590.5000000000008
 31
0.0
1001
ACDBBLOCKREPETAG
1070
     1
1071
       96
1005
12BD0A
  0
LINE
  5
12BD0B
  8
OBJECT
 10
2149.9999999999859
 20
-590.5000000000008
 30
0.0
 11
2149.9999999999859
 21
-675.74491827928784
 31
0.0
1001
ACDBBLOCKREPETAG
1070
     1
1071
       97
1005
12BD0B
  0
ARC
  5
12BD0C
  8
OBJECT
 10
2152.7999999999838
 20
-685.0000000000008
 30
0.0
 40
85.0
 50
91.887731891831123
 51
143.1301023540934
1001
ACDBBLOCKREPETAG
1070
     1
1071
       98
1005
12BD0C
  0
LINE
  5
12BD0D
  8
HIDDEN
 10
2157.9999999999859
 20
-600.50000000000068
 30
0.0
 11
2157.9999999999859
 21
-689.50000000000091
 31
0.0
1001
ACDBBLOCKREPETAG
1070
     1
1071
      100
1005
12BD0D
  0
LINE
  5
12BD0E
  8
OBJECT
 10
2085.9999999999859
 20
-751.07945073181781
 30
0.0
 11
2156.6313199210308
 21
-699.5000000000008
 31
0.0
1001
ACDBBLOCKREPETAG
1070
     1
1071
      101
1005
12BD0E
  0
LINE
  5
12BD0F
  8
OBJECT
 10
2079.9999999999809
 20
-634.0
 30
0.0
 11
2084.7999999999852
 21
-634.0
 31
0.0
1001
ACDBBLOCKREPETAG
1070
     1
1071
      102
1005
12BD0F
  0
LINE
  5
12BD10
  8
OBJECT
 10
2085.9999999999859
 20
-653.35026377573013
 30
0.0
 11
2084.7999999999852
 21
-634.0
 31
0.0
1001
ACDBBLOCKREPETAG
1070
     1
1071
      103
1005
12BD10
  0
LINE
  5
12BD11
  8
OBJECT
 10
2162.9999999999859
 20
-699.5000000000008
 30
0.0
 11
2156.6313199210308
 21
-699.5000000000008
 31
0.0
1001
ACDBBLOCKREPETAG
1070
     1
1071
      104
1005
12BD11
  0
LINE
  5
12BD12
  8
OBJECT
 10
2166.9999999999859
 20
-704.0000000000008
 30
0.0
 11
2162.9999999999859
 21
-699.5000000000008
 31
0.0
1001
ACDBBLOCKREPETAG
1070
     1
1071
      105
1005
12BD12
  0
LINE
  5
12BD13
  8
SLIM
 10
11914.999999999991
 20
-765.19743878931502
 30
0.0
 11
11925.197438789301
 21
-755.0
 31
0.0
1001
ACAD
1010
0.0
1020
0.0
1030
0.0
1001
ACDBBLOCKREPETAG
1070
     1
1071
       10
1005
12BD13
  0
LINE
  5
12BD14
  8
SLIM
 10
11914.999999999991
 20
-783.15795103145183
 30
0.0
 11
11943.15795103144
 21
-755.0
 31
0.0
1001
ACAD
1010
0.0
1020
0.0
1030
0.0
1001
ACDBBLOCKREPETAG
1070
     1
1071
       11
1005
12BD14
  0
LINE
  5
12BD15
  8
SLIM
 10
11915.0
 20
-801.11846327358853
 30
0.0
 11
11961.11846327358
 21
-755.0
 31
0.0
1001
ACAD
1010
0.0
1020
0.0
1030
0.0
1001
ACDBBLOCKREPETAG
1070
     1
1071
       12
1005
12BD15
  0
LINE
  5
12BD16
  8
SLIM
 10
11915.0
 20
-819.07897551572592
 30
0.0
 11
11979.07897551572
 21
-755.0
 31
0.0
1001
ACAD
1010
0.0
1020
0.0
1030
0.0
1001
ACDBBLOCKREPETAG
1070
     1
1071
       13
1005
12BD16
  0
LINE
  5
12BD17
  8
SLIM
 10
11915.0
 20
-837.03948775786273
 30
0.0
 11
11997.03948775786
 21
-755.0
 31
0.0
1001
ACAD
1010
0.0
1020
0.0
1030
0.0
1001
ACDBBLOCKREPETAG
1070
     1
1071
       14
1005
12BD17
  0
LINE
  5
12BD18
  8
SLIM
 10
11915.28360074955
 20
-854.71639925044224
 30
0.0
 11
12015.0
 21
-755.0
 31
0.0
1001
ACAD
1010
0.0
1020
0.0
1030
0.0
1001
ACDBBLOCKREPETAG
1070
     1
1071
       15
1005
12BD18
  0
LINE
  5
12BD19
  8
SLIM
 10
11917.49791047804
 20
-870.46260176409714
 30
0.0
 11
12032.96051224214
 21
-755.0
 31
0.0
1001
ACAD
1010
0.0
1020
0.0
1030
0.0
1001
ACDBBLOCKREPETAG
1070
     1
1071
       16
1005
12BD19
  0
LINE
  5
12BD1A
  8
SLIM
 10
11919.71222020652
 20
-886.20880427775273
 30
0.0
 11
12050.921024484271
 21
-755.0
 31
0.0
1001
ACAD
1010
0.0
1020
0.0
1030
0.0
1001
ACDBBLOCKREPETAG
1070
     1
1071
       17
1005
12BD1A
  0
LINE
  5
12BD1B
  8
SLIM
 10
11921.926529935001
 20
-901.95500679140798
 30
0.0
 11
12068.881536726411
 21
-755.0
 31
0.0
1001
ACAD
1010
0.0
1020
0.0
1030
0.0
1001
ACDBBLOCKREPETAG
1070
     1
1071
       18
1005
12BD1B
  0
LINE
  5
12BD1C
  8
SLIM
 10
11924.140839663491
 20
-917.70120930506334
 30
0.0
 11
12085.000000000009
 21
-756.84204896854612
 31
0.0
1001
ACAD
1010
0.0
1020
0.0
1030
0.0
1001
ACDBBLOCKREPETAG
1070
     1
1071
       19
1005
12BD1C
  0
LINE
  5
12BD1D
  8
SLIM
 10
11926.35514939196
 20
-933.44741181871859
 30
0.0
 11
12085.0
 21
-774.80256121068555
 31
0.0
1001
ACAD
1010
0.0
1020
0.0
1030
0.0
1001
ACDBBLOCKREPETAG
1070
     1
1071
       20
1005
12BD1D
  0
LINE
  5
12BD1E
  8
SLIM
 10
11928.56945912045
 20
-949.19361433237441
 30
0.0
 11
12085.0
 21
-792.76307345282544
 31
0.0
1001
ACAD
1010
0.0
1020
0.0
1030
0.0
1001
ACDBBLOCKREPETAG
1070
     1
1071
       21
1005
12BD1E
  0
LINE
  5
12BD1F
  8
SLIM
 10
11930.78376884894
 20
-964.93981684602954
 30
0.0
 11
12085.0
 21
-810.7235856949651
 31
0.0
1001
ACAD
1010
0.0
1020
0.0
1030
0.0
1001
ACDBBLOCKREPETAG
1070
     1
1071
       22
1005
12BD1F
  0
LINE
  5
12BD20
  8
SLIM
 10
11932.998078577421
 20
-980.68601935968502
 30
0.0
 11
12085.0
 21
-828.68409793710464
 31
0.0
1001
ACAD
1010
0.0
1020
0.0
1030
0.0
1001
ACDBBLOCKREPETAG
1070
     1
1071
       23
1005
12BD20
  0
LINE
  5
12BD21
  8
SLIM
 10
11932.999999999991
 20
-998.64461017925203
 30
0.0
 11
12085.0
 21
-846.64461017924395
 31
0.0
1001
ACAD
1010
0.0
1020
0.0
1030
0.0
1001
ACDBBLOCKREPETAG
1070
     1
1071
       24
1005
12BD21
  0
LINE
  5
12BD22
  8
SLIM
 10
11932.999999999991
 20
-1016.60512242139
 30
0.0
 11
12083.05183715436
 21
-866.55328526701692
 31
0.0
1001
ACAD
1010
0.0
1020
0.0
1030
0.0
1001
ACDBBLOCKREPETAG
1070
     1
1071
       25
1005
12BD22
  0
LINE
  5
12BD23
  8
SLIM
 10
11942.565634663521
 20
-1024.9999999999959
 30
0.0
 11
12080.112844242019
 21
-887.45279042150412
 31
0.0
1001
ACAD
1010
0.0
1020
0.0
1030
0.0
1001
ACDBBLOCKREPETAG
1070
     1
1071
       26
1005
12BD23
  0
LINE
  5
12BD24
  8
SLIM
 10
11960.52614690566
 20
-1024.999999999997
 30
0.0
 11
12077.17385132967
 21
-908.35229557599155
 31
0.0
1001
ACAD
1010
0.0
1020
0.0
1030
0.0
1001
ACDBBLOCKREPETAG
1070
     1
1071
       27
1005
12BD24
  0
LINE
  5
12BD25
  8
SLIM
 10
11978.4866591478
 20
-1024.999999999997
 30
0.0
 11
12074.23485841732
 21
-929.25180073047886
 31
0.0
1001
ACAD
1010
0.0
1020
0.0
1030
0.0
1001
ACDBBLOCKREPETAG
1070
     1
1071
       28
1005
12BD25
  0
LINE
  5
12BD26
  8
SLIM
 10
11996.44717138994
 20
-1024.999999999998
 30
0.0
 11
12071.29586550497
 21
-950.15130588496618
 31
0.0
1001
ACAD
1010
0.0
1020
0.0
1030
0.0
1001
ACDBBLOCKREPETAG
1070
     1
1071
       29
1005
12BD26
  0
LINE
  5
12BD27
  8
SLIM
 10
12014.40768363208
 20
-1024.999999999998
 30
0.0
 11
12068.35687259262
 21
-971.05081103945361
 31
0.0
1001
ACAD
1010
0.0
1020
0.0
1030
0.0
1001
ACDBBLOCKREPETAG
1070
     1
1071
       30
1005
12BD27
  0
LINE
  5
12BD28
  8
SLIM
 10
12032.368195874211
 20
-1024.9999999999991
 30
0.0
 11
12067.0
 21
-990.36819587420166
 31
0.0
1001
ACAD
1010
0.0
1020
0.0
1030
0.0
1001
ACDBBLOCKREPETAG
1070
     1
1071
       31
1005
12BD28
  0
LINE
  5
12BD29
  8
SLIM
 10
12050.328708116351
 20
-1024.9999999999991
 30
0.0
 11
12067.0
 21
-1008.32870811634
 31
0.0
1001
ACAD
1010
0.0
1020
0.0
1030
0.0
1001
ACDBBLOCKREPETAG
1070
     1
1071
       32
1005
12BD29
  0
LINE
  5
12BD2A
  8
OBJECT
 10
11932.999999999991
 20
-1024.9999999999959
 30
0.0
 11
12067.0
 21
-1025.0
 31
0.0
1001
ACDBBLOCKREPETAG
1070
     1
1071
        1
1005
12BD2A
  0
LINE
  5
12BD2B
  8
OBJECT
 10
11914.999999999991
 20
-755.0
 30
0.0
 11
11915.0
 21
-852.69968280914156
 31
0.0
1001
ACDBBLOCKREPETAG
1070
     1
1071
        2
1005
12BD2B
  0
LINE
  5
12BD2C
  8
OBJECT
 10
12085.000000000009
 20
-755.0
 30
0.0
 11
12085.0
 21
-852.69968280917203
 31
0.0
1001
ACDBBLOCKREPETAG
1070
     1
1071
        3
1005
12BD2C
  0
LINE
  5
12BD2D
  8
OBJECT
 10
11915.0
 20
-852.69968280914156
 30
0.0
 11
11932.999999999991
 21
-980.69968280908154
 31
0.0
1001
ACDBBLOCKREPETAG
1070
     1
1071
        4
1005
12BD2D
  0
LINE
  5
12BD2E
  8
OBJECT
 10
12067.0
 20
-980.69968280912872
 30
0.0
 11
12085.0
 21
-852.69968280917203
 31
0.0
1001
ACDBBLOCKREPETAG
1070
     1
1071
        5
1005
12BD2E
  0
LINE
  5
12BD2F
  8
OBJECT
 10
12085.000000000009
 20
-755.0
 30
0.0
 11
11914.999999999991
 21
-755.0
 31
0.0
1001
ACDBBLOCKREPETAG
1070
     1
1071
        6
1005
12BD2F
  0
LINE
  5
12BD30
  8
OBJECT
 10
11932.999999999991
 20
-980.69968280908154
 30
0.0
 11
11932.999999999991
 21
-1024.9999999999959
 31
0.0
1001
ACDBBLOCKREPETAG
1070
     1
1071
        8
1005
12BD30
  0
LINE
  5
12BD31
  8
OBJECT
 10
12067.0
 20
-980.69968280912872
 30
0.0
 11
12067.0
 21
-1025.0
 31
0.0
1001
ACDBBLOCKREPETAG
1070
     1
1071
        9
1005
12BD31
  0
LINE
  5
12BD32
  8
SLIM
 10
9914.9999999999927
 20
-765.19743878931502
 30
0.0
 11
9925.1974387893097
 21
-755.0
 31
0.0
1001
ACAD
1010
0.0
1020
0.0
1030
0.0
1001
ACDBBLOCKREPETAG
1070
     1
1071
       10
1005
12BD32
  0
LINE
  5
12BD33
  8
SLIM
 10
9914.9999999999945
 20
-783.15795103145183
 30
0.0
 11
9943.1579510314441
 21
-755.0
 31
0.0
1001
ACAD
1010
0.0
1020
0.0
1030
0.0
1001
ACDBBLOCKREPETAG
1070
     1
1071
       11
1005
12BD33
  0
LINE
  5
12BD34
  8
SLIM
 10
9914.9999999999964
 20
-801.11846327358853
 30
0.0
 11
9961.1184632735858
 21
-755.0
 31
0.0
1001
ACAD
1010
0.0
1020
0.0
1030
0.0
1001
ACDBBLOCKREPETAG
1070
     1
1071
       12
1005
12BD34
  0
LINE
  5
12BD35
  8
SLIM
 10
9914.9999999999982
 20
-819.07897551572592
 30
0.0
 11
9979.0789755157257
 21
-755.0
 31
0.0
1001
ACAD
1010
0.0
1020
0.0
1030
0.0
1001
ACDBBLOCKREPETAG
1070
     1
1071
       13
1005
12BD35
  0
LINE
  5
12BD36
  8
SLIM
 10
9914.9999999999982
 20
-837.03948775786273
 30
0.0
 11
9997.0394877578656
 21
-755.0
 31
0.0
1001
ACAD
1010
0.0
1020
0.0
1030
0.0
1001
ACDBBLOCKREPETAG
1070
     1
1071
       14
1005
12BD36
  0
LINE
  5
12BD37
  8
SLIM
 10
9915.2836007495607
 20
-854.71639925044224
 30
0.0
 11
10015.0
 21
-755.0
 31
0.0
1001
ACAD
1010
0.0
1020
0.0
1030
0.0
1001
ACDBBLOCKREPETAG
1070
     1
1071
       15
1005
12BD37
  0
LINE
  5
12BD38
  8
SLIM
 10
9917.4979104780396
 20
-870.46260176409714
 30
0.0
 11
10032.96051224214
 21
-755.0
 31
0.0
1001
ACAD
1010
0.0
1020
0.0
1030
0.0
1001
ACDBBLOCKREPETAG
1070
     1
1071
       16
1005
12BD38
  0
LINE
  5
12BD39
  8
SLIM
 10
9919.7122202065257
 20
-886.20880427775273
 30
0.0
 11
10050.921024484271
 21
-755.0
 31
0.0
1001
ACAD
1010
0.0
1020
0.0
1030
0.0
1001
ACDBBLOCKREPETAG
1070
     1
1071
       17
1005
12BD39
  0
LINE
  5
12BD3A
  8
SLIM
 10
9921.9265299350063
 20
-901.95500679140798
 30
0.0
 11
10068.881536726411
 21
-755.0
 31
0.0
1001
ACAD
1010
0.0
1020
0.0
1030
0.0
1001
ACDBBLOCKREPETAG
1070
     1
1071
       18
1005
12BD3A
  0
LINE
  5
12BD3B
  8
SLIM
 10
9924.1408396634924
 20
-917.70120930506334
 30
0.0
 11
10085.000000000009
 21
-756.84204896854612
 31
0.0
1001
ACAD
1010
0.0
1020
0.0
1030
0.0
1001
ACDBBLOCKREPETAG
1070
     1
1071
       19
1005
12BD3B
  0
LINE
  5
12BD3C
  8
SLIM
 10
9926.3551493919731
 20
-933.44741181871859
 30
0.0
 11
10085.0
 21
-774.80256121068555
 31
0.0
1001
ACAD
1010
0.0
1020
0.0
1030
0.0
1001
ACDBBLOCKREPETAG
1070
     1
1071
       20
1005
12BD3C
  0
LINE
  5
12BD3D
  8
SLIM
 10
9928.5694591204574
 20
-949.19361433237441
 30
0.0
 11
10085.0
 21
-792.76307345282544
 31
0.0
1001
ACAD
1010
0.0
1020
0.0
1030
0.0
1001
ACDBBLOCKREPETAG
1070
     1
1071
       21
1005
12BD3D
  0
LINE
  5
12BD3E
  8
SLIM
 10
9930.7837688489417
 20
-964.93981684602954
 30
0.0
 11
10085.0
 21
-810.7235856949651
 31
0.0
1001
ACAD
1010
0.0
1020
0.0
1030
0.0
1001
ACDBBLOCKREPETAG
1070
     1
1071
       22
1005
12BD3E
  0
LINE
  5
12BD3F
  8
SLIM
 10
9932.9980785774187
 20
-980.68601935968502
 30
0.0
 11
10085.0
 21
-828.68409793710464
 31
0.0
1001
ACAD
1010
0.0
1020
0.0
1030
0.0
1001
ACDBBLOCKREPETAG
1070
     1
1071
       23
1005
12BD3F
  0
LINE
  5
12BD40
  8
SLIM
 10
9932.9999999999927
 20
-998.64461017925203
 30
0.0
 11
10085.0
 21
-846.64461017924395
 31
0.0
1001
ACAD
1010
0.0
1020
0.0
1030
0.0
1001
ACDBBLOCKREPETAG
1070
     1
1071
       24
1005
12BD40
  0
LINE
  5
12BD41
  8
SLIM
 10
9932.9999999999927
 20
-1016.60512242139
 30
0.0
 11
10083.05183715436
 21
-866.55328526701692
 31
0.0
1001
ACAD
1010
0.0
1020
0.0
1030
0.0
1001
ACDBBLOCKREPETAG
1070
     1
1071
       25
1005
12BD41
  0
LINE
  5
12BD42
  8
SLIM
 10
9942.5656346635242
 20
-1024.9999999999959
 30
0.0
 11
10080.11284424201
 21
-887.45279042150412
 31
0.0
1001
ACAD
1010
0.0
1020
0.0
1030
0.0
1001
ACDBBLOCKREPETAG
1070
     1
1071
       26
1005
12BD42
  0
LINE
  5
12BD43
  8
SLIM
 10
9960.5261469056641
 20
-1024.999999999997
 30
0.0
 11
10077.17385132967
 21
-908.35229557599155
 31
0.0
1001
ACAD
1010
0.0
1020
0.0
1030
0.0
1001
ACDBBLOCKREPETAG
1070
     1
1071
       27
1005
12BD43
  0
LINE
  5
12BD44
  8
SLIM
 10
9978.4866591478003
 20
-1024.999999999997
 30
0.0
 11
10074.23485841732
 21
-929.25180073047886
 31
0.0
1001
ACAD
1010
0.0
1020
0.0
1030
0.0
1001
ACDBBLOCKREPETAG
1070
     1
1071
       28
1005
12BD44
  0
LINE
  5
12BD45
  8
SLIM
 10
9996.4471713899384
 20
-1024.999999999998
 30
0.0
 11
10071.29586550497
 21
-950.15130588496618
 31
0.0
1001
ACAD
1010
0.0
1020
0.0
1030
0.0
1001
ACDBBLOCKREPETAG
1070
     1
1071
       29
1005
12BD45
  0
LINE
  5
12BD46
  8
SLIM
 10
10014.40768363206
 20
-1024.999999999998
 30
0.0
 11
10068.35687259262
 21
-971.05081103945361
 31
0.0
1001
ACAD
1010
0.0
1020
0.0
1030
0.0
1001
ACDBBLOCKREPETAG
1070
     1
1071
       30
1005
12BD46
  0
LINE
  5
12BD47
  8
SLIM
 10
10032.368195874211
 20
-1024.9999999999991
 30
0.0
 11
10067.000000000009
 21
-990.36819587420166
 31
0.0
1001
ACAD
1010
0.0
1020
0.0
1030
0.0
1001
ACDBBLOCKREPETAG
1070
     1
1071
       31
1005
12BD47
  0
LINE
  5
12BD48
  8
SLIM
 10
10050.328708116351
 20
-1024.9999999999991
 30
0.0
 11
10067.000000000009
 21
-1008.32870811634
 31
0.0
1001
ACAD
1010
0.0
1020
0.0
1030
0.0
1001
ACDBBLOCKREPETAG
1070
     1
1071
       32
1005
12BD48
  0
LINE
  5
12BD49
  8
OBJECT
 10
9932.9999999999927
 20
-1024.9999999999959
 30
0.0
 11
10067.000000000009
 21
-1025.0
 31
0.0
1001
ACDBBLOCKREPETAG
1070
     1
1071
        1
1005
12BD49
  0
LINE
  5
12BD4A
  8
OBJECT
 10
9914.9999999999927
 20
-755.0
 30
0.0
 11
9915.0
 21
-852.69968280914156
 31
0.0
1001
ACDBBLOCKREPETAG
1070
     1
1071
        2
1005
12BD4A
  0
LINE
  5
12BD4B
  8
OBJECT
 10
10085.000000000009
 20
-755.0
 30
0.0
 11
10085.0
 21
-852.69968280917203
 31
0.0
1001
ACDBBLOCKREPETAG
1070
     1
1071
        3
1005
12BD4B
  0
LINE
  5
12BD4C
  8
OBJECT
 10
9915.0
 20
-852.69968280914156
 30
0.0
 11
9932.9999999999927
 21
-980.69968280908154
 31
0.0
1001
ACDBBLOCKREPETAG
1070
     1
1071
        4
1005
12BD4C
  0
LINE
  5
12BD4D
  8
OBJECT
 10
10067.000000000009
 20
-980.69968280912872
 30
0.0
 11
10085.0
 21
-852.69968280917203
 31
0.0
1001
ACDBBLOCKREPETAG
1070
     1
1071
        5
1005
12BD4D
  0
LINE
  5
12BD4E
  8
OBJECT
 10
10085.000000000009
 20
-755.0
 30
0.0
 11
9914.9999999999927
 21
-755.0
 31
0.0
1001
ACDBBLOCKREPETAG
1070
     1
1071
        6
1005
12BD4E
  0
LINE
  5
12BD4F
  8
OBJECT
 10
9932.9999999999927
 20
-980.69968280908154
 30
0.0
 11
9932.9999999999927
 21
-1024.9999999999959
 31
0.0
1001
ACDBBLOCKREPETAG
1070
     1
1071
        8
1005
12BD4F
  0
LINE
  5
12BD50
  8
OBJECT
 10
10067.000000000009
 20
-980.69968280912872
 30
0.0
 11
10067.000000000009
 21
-1025.0
 31
0.0
1001
ACDBBLOCKREPETAG
1070
     1
1071
        9
1005
12BD50
  0
LINE
  5
12BD51
  8
SLIM
 10
7914.9999999999918
 20
-765.19743878931502
 30
0.0
 11
7925.1974387893079
 21
-755.0
 31
0.0
1001
ACAD
1010
0.0
1020
0.0
1030
0.0
1001
ACDBBLOCKREPETAG
1070
     1
1071
       12
1005
12BD51
  0
LINE
  5
12BD52
  8
SLIM
 10
7914.9999999999964
 20
-783.15795103145183
 30
0.0
 11
7943.1579510314459
 21
-755.0
 31
0.0
1001
ACAD
1010
0.0
1020
0.0
1030
0.0
1001
ACDBBLOCKREPETAG
1070
     1
1071
       13
1005
12BD52
  0
LINE
  5
12BD53
  8
SLIM
 10
7914.9999999999982
 20
-801.11846327358853
 30
0.0
 11
7961.1184632735867
 21
-755.0
 31
0.0
1001
ACAD
1010
0.0
1020
0.0
1030
0.0
1001
ACDBBLOCKREPETAG
1070
     1
1071
       14
1005
12BD53
  0
LINE
  5
12BD54
  8
SLIM
 10
7914.9999999999982
 20
-819.07897551572592
 30
0.0
 11
7979.078975515723
 21
-755.0
 31
0.0
1001
ACAD
1010
0.0
1020
0.0
1030
0.0
1001
ACDBBLOCKREPETAG
1070
     1
1071
       15
1005
12BD54
  0
LINE
  5
12BD55
  8
SLIM
 10
7914.9999999999982
 20
-837.03948775786273
 30
0.0
 11
7997.0394877578628
 21
-755.0
 31
0.0
1001
ACAD
1010
0.0
1020
0.0
1030
0.0
1001
ACDBBLOCKREPETAG
1070
     1
1071
       16
1005
12BD55
  0
LINE
  5
12BD56
  8
SLIM
 10
7915.283600749558
 20
-854.71639925044224
 30
0.0
 11
8015.0
 21
-755.0
 31
0.0
1001
ACAD
1010
0.0
1020
0.0
1030
0.0
1001
ACDBBLOCKREPETAG
1070
     1
1071
       17
1005
12BD56
  0
LINE
  5
12BD57
  8
SLIM
 10
7917.4979104780423
 20
-870.46260176409714
 30
0.0
 11
8032.960512242139
 21
-755.0
 31
0.0
1001
ACAD
1010
0.0
1020
0.0
1030
0.0
1001
ACDBBLOCKREPETAG
1070
     1
1071
       18
1005
12BD57
  0
LINE
  5
12BD58
  8
SLIM
 10
7919.7122202065239
 20
-886.20880427775273
 30
0.0
 11
8050.9210244842798
 21
-755.0
 31
0.0
1001
ACAD
1010
0.0
1020
0.0
1030
0.0
1001
ACDBBLOCKREPETAG
1070
     1
1071
       19
1005
12BD58
  0
LINE
  5
12BD59
  8
SLIM
 10
7921.9265299350072
 20
-901.95500679140764
 30
0.0
 11
8068.8815367264133
 21
-755.0
 31
0.0
1001
ACAD
1010
0.0
1020
0.0
1030
0.0
1001
ACDBBLOCKREPETAG
1070
     1
1071
       20
1005
12BD59
  0
LINE
  5
12BD5A
  8
SLIM
 10
7924.1408396634897
 20
-917.70120930506334
 30
0.0
 11
8085.0000000000064
 21
-756.84204896854612
 31
0.0
1001
ACAD
1010
0.0
1020
0.0
1030
0.0
1001
ACDBBLOCKREPETAG
1070
     1
1071
       21
1005
12BD5A
  0
LINE
  5
12BD5B
  8
SLIM
 10
7926.3551493919731
 20
-933.44741181871836
 30
0.0
 11
8085.0000000000064
 21
-774.80256121068555
 31
0.0
1001
ACAD
1010
0.0
1020
0.0
1030
0.0
1001
ACDBBLOCKREPETAG
1070
     1
1071
       22
1005
12BD5B
  0
LINE
  5
12BD5C
  8
SLIM
 10
7928.5694591204538
 20
-949.1936143323735
 30
0.0
 11
8085.0000000000064
 21
-792.76307345282532
 31
0.0
1001
ACAD
1010
0.0
1020
0.0
1030
0.0
1001
ACDBBLOCKREPETAG
1070
     1
1071
       23
1005
12BD5C
  0
LINE
  5
12BD5D
  8
SLIM
 10
7930.783768848939
 20
-964.93981684602875
 30
0.0
 11
8085.0000000000018
 21
-810.7235856949651
 31
0.0
1001
ACAD
1010
0.0
1020
0.0
1030
0.0
1001
ACDBBLOCKREPETAG
1070
     1
1071
       24
1005
12BD5D
  0
LINE
  5
12BD5E
  8
SLIM
 10
7932.9980785774214
 20
-980.68601935968422
 30
0.0
 11
8085.0000000000018
 21
-828.68409793710464
 31
0.0
1001
ACAD
1010
0.0
1020
0.0
1030
0.0
1001
ACDBBLOCKREPETAG
1070
     1
1071
       25
1005
12BD5E
  0
LINE
  5
12BD5F
  8
SLIM
 10
7943.0
 20
-988.64461017924452
 30
0.0
 11
7946.6446101792453
 21
-984.99999999999807
 31
0.0
1001
ACAD
1010
0.0
1020
0.0
1030
0.0
1001
ACDBBLOCKREPETAG
1070
     1
1071
       26
1005
12BD5F
  0
LINE
  5
12BD60
  8
SLIM
 10
7946.6446101792453
 20
-984.99999999999807
 30
0.0
 11
8085.0
 21
-846.64461017924395
 31
0.0
1001
ACAD
1010
0.0
1020
0.0
1030
0.0
1001
ACDBBLOCKREPETAG
1070
     1
1071
       27
1005
12BD60
  0
LINE
  5
12BD61
  8
SLIM
 10
7944.6051224213861
 20
-1004.999999999998
 30
0.0
 11
7964.6051224213852
 21
-984.99999999999807
 31
0.0
1001
ACAD
1010
0.0
1020
0.0
1030
0.0
1001
ACDBBLOCKREPETAG
1070
     1
1071
       28
1005
12BD61
  0
LINE
  5
12BD62
  8
SLIM
 10
7964.6051224213852
 20
-984.99999999999807
 30
0.0
 11
8083.051837154364
 21
-866.5532852670176
 31
0.0
1001
ACAD
1010
0.0
1020
0.0
1030
0.0
1001
ACDBBLOCKREPETAG
1070
     1
1071
       29
1005
12BD62
  0
LINE
  5
12BD63
  8
SLIM
 10
7962.5656346635242
 20
-1004.999999999998
 30
0.0
 11
7982.5656346635215
 21
-984.99999999999807
 31
0.0
1001
ACAD
1010
0.0
1020
0.0
1030
0.0
1001
ACDBBLOCKREPETAG
1070
     1
1071
       30
1005
12BD63
  0
LINE
  5
12BD64
  8
SLIM
 10
7982.5656346635215
 20
-984.99999999999807
 30
0.0
 11
8080.1128442420159
 21
-887.45279042150548
 31
0.0
1001
ACAD
1010
0.0
1020
0.0
1030
0.0
1001
ACDBBLOCKREPETAG
1070
     1
1071
       31
1005
12BD64
  0
LINE
  5
12BD65
  8
SLIM
 10
7980.5261469056622
 20
-1004.999999999998
 30
0.0
 11
8000.5261469056613
 21
-984.99999999999807
 31
0.0
1001
ACAD
1010
0.0
1020
0.0
1030
0.0
1001
ACDBBLOCKREPETAG
1070
     1
1071
       32
1005
12BD65
  0
LINE
  5
12BD66
  8
SLIM
 10
8000.5261469056613
 20
-984.99999999999807
 30
0.0
 11
8077.1738513296659
 21
-908.35229557599371
 31
0.0
1001
ACAD
1010
0.0
1020
0.0
1030
0.0
1001
ACDBBLOCKREPETAG
1070
     1
1071
       33
1005
12BD66
  0
LINE
  5
12BD67
  8
SLIM
 10
7998.4866591478003
 20
-1004.999999999998
 30
0.0
 11
8018.4866591478003
 21
-984.99999999999807
 31
0.0
1001
ACAD
1010
0.0
1020
0.0
1030
0.0
1001
ACDBBLOCKREPETAG
1070
     1
1071
       34
1005
12BD67
  0
LINE
  5
12BD68
  8
SLIM
 10
8018.4866591478003
 20
-984.99999999999807
 30
0.0
 11
8074.234858417316
 21
-929.25180073048148
 31
0.0
1001
ACAD
1010
0.0
1020
0.0
1030
0.0
1001
ACDBBLOCKREPETAG
1070
     1
1071
       35
1005
12BD68
  0
LINE
  5
12BD69
  8
SLIM
 10
8016.4471713899393
 20
-1004.999999999998
 30
0.0
 11
8036.4471713899393
 21
-984.99999999999807
 31
0.0
1001
ACAD
1010
0.0
1020
0.0
1030
0.0
1001
ACDBBLOCKREPETAG
1070
     1
1071
       36
1005
12BD69
  0
LINE
  5
12BD6A
  8
SLIM
 10
8036.4471713899393
 20
-984.99999999999807
 30
0.0
 11
8071.2958655049679
 21
-950.15130588496947
 31
0.0
1001
ACAD
1010
0.0
1020
0.0
1030
0.0
1001
ACDBBLOCKREPETAG
1070
     1
1071
       37
1005
12BD6A
  0
LINE
  5
12BD6B
  8
SLIM
 10
8034.4076836320774
 20
-1004.999999999998
 30
0.0
 11
8054.4076836320764
 21
-984.99999999999807
 31
0.0
1001
ACAD
1010
0.0
1020
0.0
1030
0.0
1001
ACDBBLOCKREPETAG
1070
     1
1071
       38
1005
12BD6B
  0
LINE
  5
12BD6C
  8
SLIM
 10
8054.4076836320764
 20
-984.99999999999807
 30
0.0
 11
8068.3568725926198
 21
-971.05081103945759
 31
0.0
1001
ACAD
1010
0.0
1020
0.0
1030
0.0
1001
ACDBBLOCKREPETAG
1070
     1
1071
       39
1005
12BD6C
  0
LINE
  5
12BD6D
  8
SLIM
 10
8052.3681958742136
 20
-1004.999999999998
 30
0.0
 11
8057.0
 21
-1000.368195874213
 31
0.0
1001
ACAD
1010
0.0
1020
0.0
1030
0.0
1001
ACDBBLOCKREPETAG
1070
     1
1071
       40
1005
12BD6D
  0
LINE
  5
12BD6E
  8
OBJECT
 10
7943.0
 20
-1004.999999999998
 30
0.0
 11
8057.0
 21
-1004.999999999998
 31
0.0
1001
ACDBBLOCKREPETAG
1070
     1
1071
        1
1005
12BD6E
  0
LINE
  5
12BD6F
  8
OBJECT
 10
7933.6047321049664
 20
-984.99999999999807
 30
0.0
 11
8066.3952678950427
 21
-984.99999999999807
 31
0.0
1001
ACDBBLOCKREPETAG
1070
     1
1071
        2
1005
12BD6F
  0
LINE
  5
12BD70
  8
OBJECT
 10
7943.0
 20
-1004.999999999998
 30
0.0
 11
7943.0
 21
-984.99999999999807
 31
0.0
1001
ACDBBLOCKREPETAG
1070
     1
1071
        3
1005
12BD70
  0
LINE
  5
12BD71
  8
OBJECT
 10
8057.0
 20
-1004.999999999998
 30
0.0
 11
8057.0
 21
-984.99999999999807
 31
0.0
1001
ACDBBLOCKREPETAG
1070
     1
1071
        4
1005
12BD71
  0
LINE
  5
12BD72
  8
OBJECT
 10
7914.9999999999918
 20
-755.0
 30
0.0
 11
7915.0
 21
-852.69968280914156
 31
0.0
1001
ACDBBLOCKREPETAG
1070
     1
1071
        5
1005
12BD72
  0
LINE
  5
12BD73
  8
OBJECT
 10
8085.0000000000064
 20
-755.0
 30
0.0
 11
8085.0
 21
-852.69968280917203
 31
0.0
1001
ACDBBLOCKREPETAG
1070
     1
1071
        6
1005
12BD73
  0
LINE
  5
12BD74
  8
OBJECT
 10
7915.0
 20
-852.69968280914156
 30
0.0
 11
7933.6047321049664
 21
-984.99999999999807
 31
0.0
1001
ACDBBLOCKREPETAG
1070
     1
1071
        7
1005
12BD74
  0
LINE
  5
12BD75
  8
OBJECT
 10
8066.3952678950427
 20
-984.99999999999807
 30
0.0
 11
8085.0
 21
-852.69968280917203
 31
0.0
1001
ACDBBLOCKREPETAG
1070
     1
1071
        8
1005
12BD75
  0
LINE
  5
12BD76
  8
OBJECT
 10
8085.0000000000064
 20
-755.0
 30
0.0
 11
7914.9999999999918
 21
-755.0
 31
0.0
1001
ACDBBLOCKREPETAG
1070
     1
1071
        9
1005
12BD76
  0
TEXT
  5
12BD77
  8
SLIM
 10
0.0
 20
670.0
 30
0.0
 40
100.0
  1
4SL-Z606-P110-S
 41
0.75
  0
TEXT
  5
12BD78
  8
SLIM
 10
0.0
 20
520.0
 30
0.0
 40
100.0
  1
4SL-Z606-P110-W
 41
0.75
  0
LINE
  5
12BD79
  8
OBJECT
 10
12085.999999999991
 20
-1103.9999999999991
 30
0.0
 11
12085.999999999991
 21
-1113.9999999999991
 31
0.0
1001
ACDBBLOCKREPETAG
1070
     1
1071
      121
1005
12BD79
  0
LINE
  5
12BD7A
  8
OBJECT
 10
12069.999999999991
 20
-1103.9999999999991
 30
0.0
 11
12069.999999999991
 21
-1113.9999999999991
 31
0.0
1001
ACDBBLOCKREPETAG
1070
     1
1071
      122
1005
12BD7A
  0
LINE
  5
12BD7B
  8
OBJECT
 10
12085.999999999991
 20
-1113.9999999999991
 30
0.0
 11
12069.999999999991
 21
-1113.9999999999991
 31
0.0
1001
ACDBBLOCKREPETAG
1070
     1
1071
      123
1005
12BD7B
  0
LINE
  5
12BD7C
  8
OBJECT
 10
12090.0
 20
-1064.9999999999959
 30
0.0
 11
11924.0
 21
-1064.9999999999959
 31
0.0
1001
ACDBBLOCKREPETAG
1070
     1
1071
      124
1005
12BD7C
  0
LINE
  5
12BD7D
  8
OBJECT
 10
12090.0
 20
-1079.9999999999991
 30
0.0
 11
12090.0
 21
-1064.9999999999959
 31
0.0
1001
ACDBBLOCKREPETAG
1070
     1
1071
      125
1005
12BD7D
  0
LINE
  5
12BD7E
  8
OBJECT
 10
11924.0
 20
-1079.9999999999991
 30
0.0
 11
12090.0
 21
-1079.9999999999991
 31
0.0
1001
ACDBBLOCKREPETAG
1070
     1
1071
      126
1005
12BD7E
  0
LINE
  5
12BD7F
  8
OBJECT
 10
12067.49999999998
 20
-1079.9999999999991
 30
0.0
 11
12067.49999999998
 21
-1089.9999999999991
 31
0.0
1001
ACDBBLOCKREPETAG
1070
     1
1071
      127
1005
12BD7F
  0
LINE
  5
12BD80
  8
OBJECT
 10
12072.999999999991
 20
-1089.9999999999991
 30
0.0
 11
12072.999999999991
 21
-1079.9999999999991
 31
0.0
1001
ACDBBLOCKREPETAG
1070
     1
1071
      128
1005
12BD80
  0
LINE
  5
12BD81
  8
OBJECT
 10
12082.999999999991
 20
-1089.9999999999991
 30
0.0
 11
12082.999999999991
 21
-1079.9999999999991
 31
0.0
1001
ACDBBLOCKREPETAG
1070
     1
1071
      129
1005
12BD81
  0
LINE
  5
12BD82
  8
OBJECT
 10
11924.0
 20
-1089.9999999999991
 30
0.0
 11
11924.0
 21
-1103.9999999999959
 31
0.0
1001
ACDBBLOCKREPETAG
1070
     1
1071
      130
1005
12BD82
  0
LINE
  5
12BD83
  8
OBJECT
 10
12090.0
 20
-1089.9999999999991
 30
0.0
 11
12090.0
 21
-1103.9999999999959
 31
0.0
1001
ACDBBLOCKREPETAG
1070
     1
1071
      131
1005
12BD83
  0
LINE
  5
12BD84
  8
OBJECT
 10
11924.0
 20
-1103.9999999999959
 30
0.0
 11
12090.0
 21
-1103.9999999999959
 31
0.0
1001
ACDBBLOCKREPETAG
1070
     1
1071
      132
1005
12BD84
  0
LINE
  5
12BD85
  8
OBJECT
 10
11924.0
 20
-1089.9999999999991
 30
0.0
 11
12090.0
 21
-1089.9999999999991
 31
0.0
1001
ACDBBLOCKREPETAG
1070
     1
1071
      133
1005
12BD85
  0
LINE
  5
12BD86
  8
OBJECT
 10
11932.49999999998
 20
-1079.9999999999991
 30
0.0
 11
11932.49999999998
 21
-1089.9999999999991
 31
0.0
1001
ACDBBLOCKREPETAG
1070
     1
1071
      134
1005
12BD86
  0
LINE
  5
12BD87
  8
OBJECT
 10
11934.0
 20
-1028.9999999999959
 30
0.0
 11
12065.999999999991
 21
-1028.9999999999959
 31
0.0
1001
ACDBBLOCKREPETAG
1070
     1
1071
      135
1005
12BD87
  0
LINE
  5
12BD88
  8
OBJECT
 10
11924.0
 20
-1079.9999999999991
 30
0.0
 11
11924.0
 21
-1064.9999999999959
 31
0.0
1001
ACDBBLOCKREPETAG
1070
     1
1071
      136
1005
12BD88
  0
LINE
  5
12BD89
  8
HIDDEN
 10
11943.0
 20
-1039.9999999999991
 30
0.0
 11
12057.0
 21
-1039.9999999999991
 31
0.0
1001
ACDBBLOCKREPETAG
1070
     1
1071
      137
1005
12BD89
  0
LINE
  5
12BD8A
  8
OBJECT
 10
12086.999999999991
 20
-1063.2
 30
0.0
 11
12086.999999999991
 21
-1064.9999999999991
 31
0.0
1001
ACDBBLOCKREPETAG
1070
     1
1071
      138
1005
12BD8A
  0
LINE
  5
12BD8B
  8
OBJECT
 10
12068.999999999991
 20
-1063.2
 30
0.0
 11
12068.999999999991
 21
-1064.9999999999991
 31
0.0
1001
ACDBBLOCKREPETAG
1070
     1
1071
      139
1005
12BD8B
  0
LINE
  5
12BD8C
  8
OBJECT
 10
12072.249999999991
 20
-1053.4999999999991
 30
0.0
 11
12083.749999999991
 21
-1053.4999999999991
 31
0.0
1001
ACDBBLOCKREPETAG
1070
     1
1071
      140
1005
12BD8C
  0
LINE
  5
12BD8D
  8
OBJECT
 10
12072.249999999991
 20
-1053.4999999999991
 30
0.0
 11
12072.249999999991
 21
-1063.2
 31
0.0
1001
ACDBBLOCKREPETAG
1070
     1
1071
      141
1005
12BD8D
  0
LINE
  5
12BD8E
  8
OBJECT
 10
12083.749999999991
 20
-1053.4999999999991
 30
0.0
 11
12083.749999999991
 21
-1063.2
 31
0.0
1001
ACDBBLOCKREPETAG
1070
     1
1071
      142
1005
12BD8E
  0
LINE
  5
12BD8F
  8
OBJECT
 10
11931.99999999998
 20
-1144.9999999999991
 30
0.0
 11
12067.99999999998
 21
-1144.9999999999991
 31
0.0
1001
ACDBBLOCKREPETAG
1070
     1
1071
      143
1005
12BD8F
  0
LINE
  5
12BD90
  8
OBJECT
 10
11931.99999999998
 20
-1144.9999999999991
 30
0.0
 11
11931.99999999998
 21
-1103.9999999999991
 31
0.0
1001
ACDBBLOCKREPETAG
1070
     1
1071
      144
1005
12BD90
  0
LINE
  5
12BD91
  8
OBJECT
 10
12067.99999999998
 20
-1144.9999999999991
 30
0.0
 11
12067.99999999998
 21
-1103.9999999999991
 31
0.0
1001
ACDBBLOCKREPETAG
1070
     1
1071
      145
1005
12BD91
  0
LINE
  5
12BD92
  8
OBJECT
 10
12086.999999999991
 20
-1063.2
 30
0.0
 11
12068.999999999991
 21
-1063.2
 31
0.0
1001
ACDBBLOCKREPETAG
1070
     1
1071
      146
1005
12BD92
  0
LINE
  5
12BD93
  8
CENTER
 10
12000.0
 20
-769.99999999999955
 30
0.0
 11
12000.0
 21
-1159.9999999999991
 31
0.0
1001
ACDBBLOCKREPETAG
1070
     1
1071
      147
1005
12BD93
  0
LINE
  5
12BD94
  8
OBJECT
 10
11925.0
 20
-769.99999999999955
 30
0.0
 11
11925.0
 21
-851.99999999999579
 31
0.0
1001
ACDBBLOCKREPETAG
1070
     1
1071
      148
1005
12BD94
  0
LINE
  5
12BD95
  8
OBJECT
 10
12075.0
 20
-769.99999999999955
 30
0.0
 11
12075.0
 21
-851.99999999999216
 31
0.0
1001
ACDBBLOCKREPETAG
1070
     1
1071
      149
1005
12BD95
  0
LINE
  5
12BD96
  8
OBJECT
 10
11925.0
 20
-851.99999999999579
 30
0.0
 11
12075.0
 21
-851.99999999999216
 31
0.0
1001
ACDBBLOCKREPETAG
1070
     1
1071
      150
1005
12BD96
  0
LINE
  5
12BD97
  8
OBJECT
 10
11943.0
 20
-1028.9999999999959
 30
0.0
 11
11943.0
 21
-979.99999999999204
 31
0.0
1001
ACDBBLOCKREPETAG
1070
     1
1071
      151
1005
12BD97
  0
LINE
  5
12BD98
  8
OBJECT
 10
12057.0
 20
-979.99999999999204
 30
0.0
 11
11943.0
 21
-979.99999999999204
 31
0.0
1001
ACDBBLOCKREPETAG
1070
     1
1071
      152
1005
12BD98
  0
LINE
  5
12BD99
  8
OBJECT
 10
12057.0
 20
-979.99999999999204
 30
0.0
 11
12057.0
 21
-1028.9999999999959
 31
0.0
1001
ACDBBLOCKREPETAG
1070
     1
1071
      153
1005
12BD99
  0
LINE
  5
12BD9A
  8
OBJECT
 10
11925.0
 20
-851.99999999999579
 30
0.0
 11
11943.0
 21
-979.99999999999204
 31
0.0
1001
ACDBBLOCKREPETAG
1070
     1
1071
      154
1005
12BD9A
  0
LINE
  5
12BD9B
  8
OBJECT
 10
12057.0
 20
-979.99999999999204
 30
0.0
 11
12075.0
 21
-851.99999999999216
 31
0.0
1001
ACDBBLOCKREPETAG
1070
     1
1071
      155
1005
12BD9B
  0
LINE
  5
12BD9C
  8
OBJECT
 10
11934.0
 20
-1064.9999999999959
 30
0.0
 11
11934.0
 21
-1028.9999999999959
 31
0.0
1001
ACDBBLOCKREPETAG
1070
     1
1071
      156
1005
12BD9C
  0
LINE
  5
12BD9D
  8
OBJECT
 10
12066.0
 20
-1064.9999999999959
 30
0.0
 11
12065.999999999991
 21
-1028.9999999999959
 31
0.0
1001
ACDBBLOCKREPETAG
1070
     1
1071
      157
1005
12BD9D
  0
LINE
  5
12BD9E
  8
OBJECT
 10
11954.75
 20
-1054.699999999993
 30
0.0
 11
11967.25
 21
-1054.699999999993
 31
0.0
1001
ACDBBLOCKREPETAG
1070
     1
1071
      158
1005
12BD9E
  0
LINE
  5
12BD9F
  8
OBJECT
 10
11946.0
 20
-1064.9999999999959
 30
0.0
 11
11946.0
 21
-1062.699999999996
 31
0.0
1001
ACDBBLOCKREPETAG
1070
     1
1071
      159
1005
12BD9F
  0
LINE
  5
12BDA0
  8
OBJECT
 10
11976.0
 20
-1064.9999999999959
 30
0.0
 11
11976.0
 21
-1062.699999999996
 31
0.0
1001
ACDBBLOCKREPETAG
1070
     1
1071
      160
1005
12BDA0
  0
LINE
  5
12BDA1
  8
OBJECT
 10
11954.75
 20
-1054.699999999993
 30
0.0
 11
11954.75
 21
-1062.699999999996
 31
0.0
1001
ACDBBLOCKREPETAG
1070
     1
1071
      161
1005
12BDA1
  0
LINE
  5
12BDA2
  8
OBJECT
 10
11967.25
 20
-1054.699999999993
 30
0.0
 11
11967.25
 21
-1062.699999999996
 31
0.0
1001
ACDBBLOCKREPETAG
1070
     1
1071
      162
1005
12BDA2
  0
LINE
  5
12BDA3
  8
OBJECT
 10
11946.0
 20
-1062.699999999996
 30
0.0
 11
11976.0
 21
-1062.699999999996
 31
0.0
1001
ACDBBLOCKREPETAG
1070
     1
1071
      163
1005
12BDA3
  0
LINE
  5
12BDA4
  8
OBJECT
 10
11953.0
 20
-1103.9999999999959
 30
0.0
 11
11953.0
 21
-1113.9999999999959
 31
0.0
1001
ACDBBLOCKREPETAG
1070
     1
1071
      164
1005
12BDA4
  0
LINE
  5
12BDA5
  8
OBJECT
 10
11969.0
 20
-1103.9999999999959
 30
0.0
 11
11969.0
 21
-1113.9999999999959
 31
0.0
1001
ACDBBLOCKREPETAG
1070
     1
1071
      165
1005
12BDA5
  0
LINE
  5
12BDA6
  8
OBJECT
 10
11953.0
 20
-1113.9999999999959
 30
0.0
 11
11969.0
 21
-1113.9999999999959
 31
0.0
1001
ACDBBLOCKREPETAG
1070
     1
1071
      166
1005
12BDA6
  0
LINE
  5
12BDA7
  8
OBJECT
 10
11966.0
 20
-1089.9999999999959
 30
0.0
 11
11966.0
 21
-1079.9999999999959
 31
0.0
1001
ACDBBLOCKREPETAG
1070
     1
1071
      167
1005
12BDA7
  0
LINE
  5
12BDA8
  8
OBJECT
 10
11956.0
 20
-1089.9999999999959
 30
0.0
 11
11956.0
 21
-1079.9999999999959
 31
0.0
1001
ACDBBLOCKREPETAG
1070
     1
1071
      168
1005
12BDA8
  0
LINE
  5
12BDA9
  8
OBJECT
 10
10090.0
 20
-1064.9999999999959
 30
0.0
 11
9924.0
 21
-1064.9999999999959
 31
0.0
1001
ACDBBLOCKREPETAG
1070
     1
1071
       12
1005
12BDA9
  0
LINE
  5
12BDAA
  8
OBJECT
 10
10066.0
 20
-1028.9999999999959
 30
0.0
 11
9934.0
 21
-1028.9999999999959
 31
0.0
1001
ACDBBLOCKREPETAG
1070
     1
1071
       13
1005
12BDAA
  0
LINE
  5
12BDAB
  8
OBJECT
 10
10090.0
 20
-1080.0
 30
0.0
 11
10090.0
 21
-1064.9999999999959
 31
0.0
1001
ACDBBLOCKREPETAG
1070
     1
1071
       14
1005
12BDAB
  0
LINE
  5
12BDAC
  8
OBJECT
 10
9924.0
 20
-1080.0
 30
0.0
 11
10090.0
 21
-1080.0
 31
0.0
1001
ACDBBLOCKREPETAG
1070
     1
1071
       15
1005
12BDAC
  0
LINE
  5
12BDAD
  8
OBJECT
 10
10067.49999999998
 20
-1080.0
 30
0.0
 11
10067.49999999998
 21
-1090.0
 31
0.0
1001
ACDBBLOCKREPETAG
1070
     1
1071
       16
1005
12BDAD
  0
LINE
  5
12BDAE
  8
OBJECT
 10
9924.0
 20
-1090.0
 30
0.0
 11
9924.0
 21
-1103.9999999999959
 31
0.0
1001
ACDBBLOCKREPETAG
1070
     1
1071
       17
1005
12BDAE
  0
LINE
  5
12BDAF
  8
OBJECT
 10
10090.0
 20
-1090.0
 30
0.0
 11
10090.0
 21
-1103.9999999999959
 31
0.0
1001
ACDBBLOCKREPETAG
1070
     1
1071
       18
1005
12BDAF
  0
LINE
  5
12BDB0
  8
OBJECT
 10
9924.0
 20
-1103.9999999999959
 30
0.0
 11
10090.0
 21
-1103.9999999999959
 31
0.0
1001
ACDBBLOCKREPETAG
1070
     1
1071
       19
1005
12BDB0
  0
LINE
  5
12BDB1
  8
OBJECT
 10
9924.0
 20
-1090.0
 30
0.0
 11
10090.0
 21
-1090.0
 31
0.0
1001
ACDBBLOCKREPETAG
1070
     1
1071
       20
1005
12BDB1
  0
LINE
  5
12BDB2
  8
OBJECT
 10
9932.4999999999836
 20
-1080.0
 30
0.0
 11
9932.4999999999836
 21
-1090.0
 31
0.0
1001
ACDBBLOCKREPETAG
1070
     1
1071
       21
1005
12BDB2
  0
LINE
  5
12BDB3
  8
OBJECT
 10
9924.0
 20
-1080.0
 30
0.0
 11
9924.0
 21
-1064.9999999999959
 31
0.0
1001
ACDBBLOCKREPETAG
1070
     1
1071
       22
1005
12BDB3
  0
LINE
  5
12BDB4
  8
HIDDEN
 10
9943.0
 20
-1040.0
 30
0.0
 11
10057.0
 21
-1040.0
 31
0.0
1001
ACDBBLOCKREPETAG
1070
     1
1071
       23
1005
12BDB4
  0
LINE
  5
12BDB5
  8
CENTER
 10
10000.0
 20
-770.0
 30
0.0
 11
10000.0
 21
-1118.9999999999959
 31
0.0
1001
ACDBBLOCKREPETAG
1070
     1
1071
       24
1005
12BDB5
  0
LINE
  5
12BDB6
  8
OBJECT
 10
9925.0
 20
-770.0
 30
0.0
 11
9925.0
 21
-851.99999999999636
 31
0.0
1001
ACDBBLOCKREPETAG
1070
     1
1071
       25
1005
12BDB6
  0
LINE
  5
12BDB7
  8
OBJECT
 10
10075.0
 20
-770.0
 30
0.0
 11
10075.0
 21
-851.99999999999261
 31
0.0
1001
ACDBBLOCKREPETAG
1070
     1
1071
       26
1005
12BDB7
  0
LINE
  5
12BDB8
  8
OBJECT
 10
9925.0
 20
-851.99999999999636
 30
0.0
 11
10075.0
 21
-851.99999999999261
 31
0.0
1001
ACDBBLOCKREPETAG
1070
     1
1071
       27
1005
12BDB8
  0
LINE
  5
12BDB9
  8
OBJECT
 10
10057.0
 20
-1028.9999999999959
 30
0.0
 11
10057.0
 21
-979.99999999999272
 31
0.0
1001
ACDBBLOCKREPETAG
1070
     1
1071
       28
1005
12BDB9
  0
LINE
  5
12BDBA
  8
OBJECT
 10
9943.0
 20
-1028.9999999999959
 30
0.0
 11
9943.0
 21
-979.99999999999272
 31
0.0
1001
ACDBBLOCKREPETAG
1070
     1
1071
       29
1005
12BDBA
  0
LINE
  5
12BDBB
  8
OBJECT
 10
10057.0
 20
-979.99999999999272
 30
0.0
 11
9943.0
 21
-979.99999999999272
 31
0.0
1001
ACDBBLOCKREPETAG
1070
     1
1071
       30
1005
12BDBB
  0
LINE
  5
12BDBC
  8
OBJECT
 10
9925.0
 20
-851.99999999999636
 30
0.0
 11
9943.0
 21
-979.99999999999272
 31
0.0
1001
ACDBBLOCKREPETAG
1070
     1
1071
       31
1005
12BDBC
  0
LINE
  5
12BDBD
  8
OBJECT
 10
10057.0
 20
-979.99999999999272
 30
0.0
 11
10075.0
 21
-851.99999999999261
 31
0.0
1001
ACDBBLOCKREPETAG
1070
     1
1071
       32
1005
12BDBD
  0
LINE
  5
12BDBE
  8
OBJECT
 10
9934.0
 20
-1028.9999999999959
 30
0.0
 11
9934.0
 21
-1064.9999999999959
 31
0.0
1001
ACDBBLOCKREPETAG
1070
     1
1071
       33
1005
12BDBE
  0
LINE
  5
12BDBF
  8
OBJECT
 10
10066.0
 20
-1028.9999999999959
 30
0.0
 11
10066.0
 21
-1064.9999999999959
 31
0.0
1001
ACDBBLOCKREPETAG
1070
     1
1071
       34
1005
12BDBF
  0
LINE
  5
12BDC0
  8
OBJECT
 10
10082.999999999991
 20
-1089.9999999999959
 30
0.0
 11
10082.999999999991
 21
-1079.9999999999959
 31
0.0
1001
ACDBBLOCKREPETAG
1070
     1
1071
       35
1005
12BDC0
  0
LINE
  5
12BDC1
  8
OBJECT
 10
10072.999999999991
 20
-1089.9999999999959
 30
0.0
 11
10072.999999999991
 21
-1079.9999999999959
 31
0.0
1001
ACDBBLOCKREPETAG
1070
     1
1071
       36
1005
12BDC1
  0
LINE
  5
12BDC2
  8
OBJECT
 10
10068.99999999998
 20
-1059.9999999999959
 30
0.0
 11
10068.99999999998
 21
-1064.9999999999959
 31
0.0
1001
ACDBBLOCKREPETAG
1070
     1
1071
       37
1005
12BDC2
  0
LINE
  5
12BDC3
  8
OBJECT
 10
10087.0
 20
-1059.9999999999959
 30
0.0
 11
10087.0
 21
-1064.9999999999959
 31
0.0
1001
ACDBBLOCKREPETAG
1070
     1
1071
       38
1005
12BDC3
  0
LINE
  5
12BDC4
  8
OBJECT
 10
10087.0
 20
-1059.9999999999959
 30
0.0
 11
10068.99999999998
 21
-1059.9999999999959
 31
0.0
1001
ACDBBLOCKREPETAG
1070
     1
1071
       39
1005
12BDC4
  0
LINE
  5
12BDC5
  8
OBJECT
 10
10073.0
 20
-1111.9999999999959
 30
0.0
 11
10073.0
 21
-1114.9999999999959
 31
0.0
1001
ACDBBLOCKREPETAG
1070
     1
1071
       40
1005
12BDC5
  0
LINE
  5
12BDC6
  8
OBJECT
 10
10073.0
 20
-1114.9999999999959
 30
0.0
 11
10083.0
 21
-1114.9999999999959
 31
0.0
1001
ACDBBLOCKREPETAG
1070
     1
1071
       41
1005
12BDC6
  0
LINE
  5
12BDC7
  8
OBJECT
 10
10083.0
 20
-1114.9999999999959
 30
0.0
 11
10083.0
 21
-1111.9999999999959
 31
0.0
1001
ACDBBLOCKREPETAG
1070
     1
1071
       43
1005
12BDC7
  0
LINE
  5
12BDC8
  8
OBJECT
 10
9968.5
 20
-1059.9999999999959
 30
0.0
 11
9951.9999999999909
 21
-1059.9999999999959
 31
0.0
1001
ACDBBLOCKREPETAG
1070
     1
1071
       48
1005
12BDC8
  0
LINE
  5
12BDC9
  8
OBJECT
 10
9976.0
 20
-1064.9999999999959
 30
0.0
 11
9976.0
 21
-1062.9999999999959
 31
0.0
1001
ACDBBLOCKREPETAG
1070
     1
1071
       49
1005
12BDC9
  0
LINE
  5
12BDCA
  8
OBJECT
 10
9966.0
 20
-1089.9999999999959
 30
0.0
 11
9966.0
 21
-1079.9999999999959
 31
0.0
1001
ACDBBLOCKREPETAG
1070
     1
1071
       50
1005
12BDCA
  0
LINE
  5
12BDCB
  8
OBJECT
 10
9956.0
 20
-1089.9999999999959
 30
0.0
 11
9956.0
 21
-1079.9999999999959
 31
0.0
1001
ACDBBLOCKREPETAG
1070
     1
1071
       51
1005
12BDCB
  0
LINE
  5
12BDCC
  8
OBJECT
 10
9951.9999999999909
 20
-1059.9999999999959
 30
0.0
 11
9951.9999999999909
 21
-1064.9999999999959
 31
0.0
1001
ACDBBLOCKREPETAG
1070
     1
1071
       52
1005
12BDCC
  0
LINE
  5
12BDCD
  8
OBJECT
 10
9956.0
 20
-1111.9999999999959
 30
0.0
 11
9956.0
 21
-1114.9999999999959
 31
0.0
1001
ACDBBLOCKREPETAG
1070
     1
1071
       53
1005
12BDCD
  0
LINE
  5
12BDCE
  8
OBJECT
 10
9956.0
 20
-1114.9999999999959
 30
0.0
 11
9966.0
 21
-1114.9999999999959
 31
0.0
1001
ACDBBLOCKREPETAG
1070
     1
1071
       54
1005
12BDCE
  0
LINE
  5
12BDCF
  8
OBJECT
 10
9951.185045423772
 20
-1111.9999999999959
 30
0.0
 11
9970.814954576219
 21
-1111.9999999999959
 31
0.0
1001
ACDBBLOCKREPETAG
1070
     1
1071
       55
1005
12BDCF
  0
LINE
  5
12BDD0
  8
OBJECT
 10
9966.0
 20
-1114.9999999999959
 30
0.0
 11
9966.0
 21
-1111.9999999999959
 31
0.0
1001
ACDBBLOCKREPETAG
1070
     1
1071
       56
1005
12BDD0
  0
LINE
  5
12BDD1
  8
OBJECT
 10
9976.0
 20
-1062.9999999999959
 30
0.0
 11
9968.5
 21
-1059.9999999999959
 31
0.0
1001
ACDBBLOCKREPETAG
1070
     1
1071
       57
1005
12BDD1
  0
LINE
  5
12BDD2
  8
OBJECT
 10
9951.1850454237774
 20
-1103.9999999999959
 30
0.0
 11
9951.1850454237774
 21
-1111.9999999999959
 31
0.0
1001
ACDBBLOCKREPETAG
1070
     1
1071
      630
1005
12BDD2
  0
LINE
  5
12BDD3
  8
OBJECT
 10
9956.0925227118896
 20
-1103.9999999999959
 30
0.0
 11
9956.0925227118896
 21
-1111.9999999999959
 31
0.0
1001
ACDBBLOCKREPETAG
1070
     1
1071
      631
1005
12BDD3
  0
LINE
  5
12BDD4
  8
OBJECT
 10
9965.9074772881122
 20
-1103.9999999999959
 30
0.0
 11
9965.9074772881122
 21
-1111.9999999999959
 31
0.0
1001
ACDBBLOCKREPETAG
1070
     1
1071
      632
1005
12BDD4
  0
LINE
  5
12BDD5
  8
OBJECT
 10
9970.8149545762244
 20
-1103.9999999999959
 30
0.0
 11
9970.8149545762244
 21
-1111.9999999999959
 31
0.0
1001
ACDBBLOCKREPETAG
1070
     1
1071
      633
1005
12BDD5
  0
LINE
  5
12BDD6
  8
OBJECT
 10
10068.18504542377
 20
-1111.9999999999959
 30
0.0
 11
10087.814954576221
 21
-1111.9999999999959
 31
0.0
1001
ACDBBLOCKREPETAG
1070
     1
1071
      634
1005
12BDD6
  0
LINE
  5
12BDD7
  8
OBJECT
 10
10068.18504542377
 20
-1103.9999999999959
 30
0.0
 11
10068.18504542377
 21
-1111.9999999999959
 31
0.0
1001
ACDBBLOCKREPETAG
1070
     1
1071
      635
1005
12BDD7
  0
LINE
  5
12BDD8
  8
OBJECT
 10
10073.09252271189
 20
-1103.9999999999959
 30
0.0
 11
10073.09252271189
 21
-1111.9999999999959
 31
0.0
1001
ACDBBLOCKREPETAG
1070
     1
1071
      636
1005
12BDD8
  0
LINE
  5
12BDD9
  8
OBJECT
 10
10082.90747728811
 20
-1103.9999999999959
 30
0.0
 11
10082.90747728811
 21
-1111.9999999999959
 31
0.0
1001
ACDBBLOCKREPETAG
1070
     1
1071
      637
1005
12BDD9
  0
LINE
  5
12BDDA
  8
OBJECT
 10
10087.814954576221
 20
-1103.9999999999959
 30
0.0
 11
10087.814954576221
 21
-1111.9999999999959
 31
0.0
1001
ACDBBLOCKREPETAG
1070
     1
1071
      638
1005
12BDDA
  0
LINE
  5
12BDDB
  8
OBJECT
 10
7943.0
 20
-1079.9999999999959
 30
0.0
 11
8057.0
 21
-1079.9999999999959
 31
0.0
1001
ACDBBLOCKREPETAG
1070
     1
1071
        0
1005
12BDDB
  0
LINE
  5
12BDDC
  8
OBJECT
 10
7943.0
 20
-1079.9999999999959
 30
0.0
 11
7943.0
 21
-979.99999999999613
 31
0.0
1001
ACDBBLOCKREPETAG
1070
     1
1071
        1
1005
12BDDC
  0
LINE
  5
12BDDD
  8
OBJECT
 10
8057.0
 20
-1079.9999999999959
 30
0.0
 11
8057.0
 21
-979.99999999999613
 31
0.0
1001
ACDBBLOCKREPETAG
1070
     1
1071
        2
1005
12BDDD
  0
LINE
  5
12BDDE
  8
OBJECT
 10
7943.0
 20
-979.99999999999613
 30
0.0
 11
8057.0
 21
-979.99999999999613
 31
0.0
1001
ACDBBLOCKREPETAG
1070
     1
1071
        3
1005
12BDDE
  0
LINE
  5
12BDDF
  8
HIDDEN
 10
7950.0
 20
-979.99999999999613
 30
0.0
 11
7950.0
 21
-1079.9999999999959
 31
0.0
1001
ACDBBLOCKREPETAG
1070
     1
1071
        4
1005
12BDDF
  0
LINE
  5
12BDE0
  8
HIDDEN
 10
8050.0
 20
-979.99999999999613
 30
0.0
 11
8050.0
 21
-1079.9999999999959
 31
0.0
1001
ACDBBLOCKREPETAG
1070
     1
1071
        5
1005
12BDE0
  0
LINE
  5
12BDE1
  8
CENTER
 10
8000.0
 20
-770.0
 30
0.0
 11
8000.0
 21
-1094.9999999999959
 31
0.0
1001
ACDBBLOCKREPETAG
1070
     1
1071
        6
1005
12BDE1
  0
LINE
  5
12BDE2
  8
OBJECT
 10
7925.0
 20
-770.0
 30
0.0
 11
7925.0
 21
-851.99999999999636
 31
0.0
1001
ACDBBLOCKREPETAG
1070
     1
1071
        7
1005
12BDE2
  0
LINE
  5
12BDE3
  8
OBJECT
 10
8075.0
 20
-770.0
 30
0.0
 11
8075.0
 21
-851.99999999999636
 31
0.0
1001
ACDBBLOCKREPETAG
1070
     1
1071
        8
1005
12BDE3
  0
LINE
  5
12BDE4
  8
OBJECT
 10
7925.0
 20
-851.99999999999636
 30
0.0
 11
8075.0
 21
-851.99999999999636
 31
0.0
1001
ACDBBLOCKREPETAG
1070
     1
1071
        9
1005
12BDE4
  0
LINE
  5
12BDE5
  8
OBJECT
 10
7925.0
 20
-851.99999999999636
 30
0.0
 11
7943.0
 21
-979.99999999999613
 31
0.0
1001
ACDBBLOCKREPETAG
1070
     1
1071
       10
1005
12BDE5
  0
LINE
  5
12BDE6
  8
OBJECT
 10
8057.0
 20
-979.99999999999613
 30
0.0
 11
8075.0
 21
-851.99999999999636
 31
0.0
1001
ACDBBLOCKREPETAG
1070
     1
1071
       11
1005
12BDE6
  0
LINE
  5
12BDE7
  8
OBJECT
 10
6085.9999999999927
 20
-1103.9999999999991
 30
0.0
 11
6085.9999999999927
 21
-1113.9999999999991
 31
0.0
1001
ACDBBLOCKREPETAG
1070
     1
1071
      121
1005
12BDE7
  0
LINE
  5
12BDE8
  8
OBJECT
 10
6069.9999999999927
 20
-1103.9999999999991
 30
0.0
 11
6069.9999999999927
 21
-1113.9999999999991
 31
0.0
1001
ACDBBLOCKREPETAG
1070
     1
1071
      122
1005
12BDE8
  0
LINE
  5
12BDE9
  8
OBJECT
 10
6085.9999999999927
 20
-1113.9999999999991
 30
0.0
 11
6069.9999999999927
 21
-1113.9999999999991
 31
0.0
1001
ACDBBLOCKREPETAG
1070
     1
1071
      123
1005
12BDE9
  0
LINE
  5
12BDEA
  8
OBJECT
 10
6090.0
 20
-1064.9999999999959
 30
0.0
 11
5924.0
 21
-1064.9999999999959
 31
0.0
1001
ACDBBLOCKREPETAG
1070
     1
1071
      124
1005
12BDEA
  0
LINE
  5
12BDEB
  8
OBJECT
 10
6090.0
 20
-1079.9999999999991
 30
0.0
 11
6090.0
 21
-1064.9999999999959
 31
0.0
1001
ACDBBLOCKREPETAG
1070
     1
1071
      125
1005
12BDEB
  0
LINE
  5
12BDEC
  8
OBJECT
 10
5924.0
 20
-1079.9999999999991
 30
0.0
 11
6090.0
 21
-1079.9999999999991
 31
0.0
1001
ACDBBLOCKREPETAG
1070
     1
1071
      126
1005
12BDEC
  0
LINE
  5
12BDED
  8
OBJECT
 10
6067.4999999999864
 20
-1079.9999999999991
 30
0.0
 11
6067.4999999999864
 21
-1089.9999999999991
 31
0.0
1001
ACDBBLOCKREPETAG
1070
     1
1071
      127
1005
12BDED
  0
LINE
  5
12BDEE
  8
OBJECT
 10
6072.9999999999927
 20
-1089.9999999999991
 30
0.0
 11
6072.9999999999927
 21
-1079.9999999999991
 31
0.0
1001
ACDBBLOCKREPETAG
1070
     1
1071
      128
1005
12BDEE
  0
LINE
  5
12BDEF
  8
OBJECT
 10
6082.9999999999927
 20
-1089.9999999999991
 30
0.0
 11
6082.9999999999927
 21
-1079.9999999999991
 31
0.0
1001
ACDBBLOCKREPETAG
1070
     1
1071
      129
1005
12BDEF
  0
LINE
  5
12BDF0
  8
OBJECT
 10
5924.0
 20
-1089.9999999999991
 30
0.0
 11
5924.0
 21
-1103.9999999999959
 31
0.0
1001
ACDBBLOCKREPETAG
1070
     1
1071
      130
1005
12BDF0
  0
LINE
  5
12BDF1
  8
OBJECT
 10
6090.0
 20
-1089.9999999999991
 30
0.0
 11
6090.0
 21
-1103.9999999999959
 31
0.0
1001
ACDBBLOCKREPETAG
1070
     1
1071
      131
1005
12BDF1
  0
LINE
  5
12BDF2
  8
OBJECT
 10
5924.0
 20
-1103.9999999999959
 30
0.0
 11
6090.0
 21
-1103.9999999999959
 31
0.0
1001
ACDBBLOCKREPETAG
1070
     1
1071
      132
1005
12BDF2
  0
LINE
  5
12BDF3
  8
OBJECT
 10
5924.0
 20
-1089.9999999999991
 30
0.0
 11
6090.0
 21
-1089.9999999999991
 31
0.0
1001
ACDBBLOCKREPETAG
1070
     1
1071
      133
1005
12BDF3
  0
LINE
  5
12BDF4
  8
OBJECT
 10
5932.4999999999864
 20
-1079.9999999999991
 30
0.0
 11
5932.4999999999864
 21
-1089.9999999999991
 31
0.0
1001
ACDBBLOCKREPETAG
1070
     1
1071
      134
1005
12BDF4
  0
LINE
  5
12BDF5
  8
OBJECT
 10
5934.0
 20
-1028.9999999999959
 30
0.0
 11
6065.9999999999909
 21
-1028.9999999999959
 31
0.0
1001
ACDBBLOCKREPETAG
1070
     1
1071
      135
1005
12BDF5
  0
LINE
  5
12BDF6
  8
OBJECT
 10
5924.0
 20
-1079.9999999999991
 30
0.0
 11
5924.0
 21
-1064.9999999999959
 31
0.0
1001
ACDBBLOCKREPETAG
1070
     1
1071
      136
1005
12BDF6
  0
LINE
  5
12BDF7
  8
HIDDEN
 10
5943.0
 20
-1039.9999999999991
 30
0.0
 11
6057.0
 21
-1039.9999999999991
 31
0.0
1001
ACDBBLOCKREPETAG
1070
     1
1071
      137
1005
12BDF7
  0
LINE
  5
12BDF8
  8
OBJECT
 10
6086.9999999999918
 20
-1063.2
 30
0.0
 11
6086.9999999999918
 21
-1064.9999999999991
 31
0.0
1001
ACDBBLOCKREPETAG
1070
     1
1071
      138
1005
12BDF8
  0
LINE
  5
12BDF9
  8
OBJECT
 10
6068.9999999999909
 20
-1063.2
 30
0.0
 11
6068.9999999999909
 21
-1064.9999999999991
 31
0.0
1001
ACDBBLOCKREPETAG
1070
     1
1071
      139
1005
12BDF9
  0
LINE
  5
12BDFA
  8
OBJECT
 10
6072.2499999999927
 20
-1053.4999999999991
 30
0.0
 11
6083.7499999999927
 21
-1053.4999999999991
 31
0.0
1001
ACDBBLOCKREPETAG
1070
     1
1071
      140
1005
12BDFA
  0
LINE
  5
12BDFB
  8
OBJECT
 10
6072.2499999999927
 20
-1053.4999999999991
 30
0.0
 11
6072.2499999999927
 21
-1063.2
 31
0.0
1001
ACDBBLOCKREPETAG
1070
     1
1071
      141
1005
12BDFB
  0
LINE
  5
12BDFC
  8
OBJECT
 10
6083.7499999999927
 20
-1053.4999999999991
 30
0.0
 11
6083.7499999999927
 21
-1063.2
 31
0.0
1001
ACDBBLOCKREPETAG
1070
     1
1071
      142
1005
12BDFC
  0
LINE
  5
12BDFD
  8
OBJECT
 10
5931.9999999999873
 20
-1144.9999999999991
 30
0.0
 11
6067.9999999999873
 21
-1144.9999999999991
 31
0.0
1001
ACDBBLOCKREPETAG
1070
     1
1071
      143
1005
12BDFD
  0
LINE
  5
12BDFE
  8
OBJECT
 10
5931.9999999999873
 20
-1144.9999999999991
 30
0.0
 11
5931.9999999999873
 21
-1103.9999999999991
 31
0.0
1001
ACDBBLOCKREPETAG
1070
     1
1071
      144
1005
12BDFE
  0
LINE
  5
12BDFF
  8
OBJECT
 10
6067.9999999999873
 20
-1144.9999999999991
 30
0.0
 11
6067.9999999999873
 21
-1103.9999999999991
 31
0.0
1001
ACDBBLOCKREPETAG
1070
     1
1071
      145
1005
12BDFF
  0
LINE
  5
12BE00
  8
OBJECT
 10
6086.9999999999918
 20
-1063.2
 30
0.0
 11
6068.9999999999909
 21
-1063.2
 31
0.0
1001
ACDBBLOCKREPETAG
1070
     1
1071
      146
1005
12BE00
  0
LINE
  5
12BE01
  8
CENTER
 10
6000.0
 20
-769.99999999999955
 30
0.0
 11
6000.0
 21
-1159.9999999999991
 31
0.0
1001
ACDBBLOCKREPETAG
1070
     1
1071
      147
1005
12BE01
  0
LINE
  5
12BE02
  8
OBJECT
 10
5925.0
 20
-769.99999999999955
 30
0.0
 11
5925.0
 21
-851.99999999999579
 31
0.0
1001
ACDBBLOCKREPETAG
1070
     1
1071
      148
1005
12BE02
  0
LINE
  5
12BE03
  8
OBJECT
 10
6075.0
 20
-769.99999999999955
 30
0.0
 11
6075.0
 21
-851.99999999999216
 31
0.0
1001
ACDBBLOCKREPETAG
1070
     1
1071
      149
1005
12BE03
  0
LINE
  5
12BE04
  8
OBJECT
 10
5925.0
 20
-851.99999999999579
 30
0.0
 11
6075.0
 21
-851.99999999999216
 31
0.0
1001
ACDBBLOCKREPETAG
1070
     1
1071
      150
1005
12BE04
  0
LINE
  5
12BE05
  8
OBJECT
 10
5943.0
 20
-1028.9999999999959
 30
0.0
 11
5943.0
 21
-979.99999999999204
 31
0.0
1001
ACDBBLOCKREPETAG
1070
     1
1071
      151
1005
12BE05
  0
LINE
  5
12BE06
  8
OBJECT
 10
6057.0
 20
-979.99999999999204
 30
0.0
 11
5943.0
 21
-979.99999999999204
 31
0.0
1001
ACDBBLOCKREPETAG
1070
     1
1071
      152
1005
12BE06
  0
LINE
  5
12BE07
  8
OBJECT
 10
6057.0
 20
-979.99999999999204
 30
0.0
 11
6057.0
 21
-1028.9999999999959
 31
0.0
1001
ACDBBLOCKREPETAG
1070
     1
1071
      153
1005
12BE07
  0
LINE
  5
12BE08
  8
OBJECT
 10
5925.0
 20
-851.99999999999579
 30
0.0
 11
5943.0
 21
-979.99999999999204
 31
0.0
1001
ACDBBLOCKREPETAG
1070
     1
1071
      154
1005
12BE08
  0
LINE
  5
12BE09
  8
OBJECT
 10
6057.0
 20
-979.99999999999204
 30
0.0
 11
6075.0
 21
-851.99999999999216
 31
0.0
1001
ACDBBLOCKREPETAG
1070
     1
1071
      155
1005
12BE09
  0
LINE
  5
12BE0A
  8
OBJECT
 10
5934.0
 20
-1064.9999999999959
 30
0.0
 11
5934.0
 21
-1028.9999999999959
 31
0.0
1001
ACDBBLOCKREPETAG
1070
     1
1071
      156
1005
12BE0A
  0
LINE
  5
12BE0B
  8
OBJECT
 10
6066.0
 20
-1064.9999999999959
 30
0.0
 11
6065.9999999999909
 21
-1028.9999999999959
 31
0.0
1001
ACDBBLOCKREPETAG
1070
     1
1071
      157
1005
12BE0B
  0
LINE
  5
12BE0C
  8
OBJECT
 10
5954.75
 20
-1054.699999999993
 30
0.0
 11
5967.2499999999991
 21
-1054.699999999993
 31
0.0
1001
ACDBBLOCKREPETAG
1070
     1
1071
      158
1005
12BE0C
  0
LINE
  5
12BE0D
  8
OBJECT
 10
5946.0
 20
-1064.9999999999959
 30
0.0
 11
5946.0
 21
-1062.699999999996
 31
0.0
1001
ACDBBLOCKREPETAG
1070
     1
1071
      159
1005
12BE0D
  0
LINE
  5
12BE0E
  8
OBJECT
 10
5976.0
 20
-1064.9999999999959
 30
0.0
 11
5976.0
 21
-1062.699999999996
 31
0.0
1001
ACDBBLOCKREPETAG
1070
     1
1071
      160
1005
12BE0E
  0
LINE
  5
12BE0F
  8
OBJECT
 10
5954.75
 20
-1054.699999999993
 30
0.0
 11
5954.75
 21
-1062.699999999996
 31
0.0
1001
ACDBBLOCKREPETAG
1070
     1
1071
      161
1005
12BE0F
  0
LINE
  5
12BE10
  8
OBJECT
 10
5967.2499999999991
 20
-1054.699999999993
 30
0.0
 11
5967.2499999999991
 21
-1062.699999999996
 31
0.0
1001
ACDBBLOCKREPETAG
1070
     1
1071
      162
1005
12BE10
  0
LINE
  5
12BE11
  8
OBJECT
 10
5946.0
 20
-1062.699999999996
 30
0.0
 11
5976.0
 21
-1062.699999999996
 31
0.0
1001
ACDBBLOCKREPETAG
1070
     1
1071
      163
1005
12BE11
  0
LINE
  5
12BE12
  8
OBJECT
 10
5953.0
 20
-1103.9999999999959
 30
0.0
 11
5953.0
 21
-1113.9999999999959
 31
0.0
1001
ACDBBLOCKREPETAG
1070
     1
1071
      164
1005
12BE12
  0
LINE
  5
12BE13
  8
OBJECT
 10
5969.0
 20
-1103.9999999999959
 30
0.0
 11
5969.0
 21
-1113.9999999999959
 31
0.0
1001
ACDBBLOCKREPETAG
1070
     1
1071
      165
1005
12BE13
  0
LINE
  5
12BE14
  8
OBJECT
 10
5953.0
 20
-1113.9999999999959
 30
0.0
 11
5969.0
 21
-1113.9999999999959
 31
0.0
1001
ACDBBLOCKREPETAG
1070
     1
1071
      166
1005
12BE14
  0
LINE
  5
12BE15
  8
OBJECT
 10
5966.0
 20
-1089.9999999999959
 30
0.0
 11
5966.0
 21
-1079.9999999999959
 31
0.0
1001
ACDBBLOCKREPETAG
1070
     1
1071
      167
1005
12BE15
  0
LINE
  5
12BE16
  8
OBJECT
 10
5956.0
 20
-1089.9999999999959
 30
0.0
 11
5956.0
 21
-1079.9999999999959
 31
0.0
1001
ACDBBLOCKREPETAG
1070
     1
1071
      168
1005
12BE16
  0
LINE
  5
12BE17
  8
OBJECT
 10
4090.0
 20
-1064.9999999999959
 30
0.0
 11
3924.0
 21
-1064.9999999999959
 31
0.0
1001
ACDBBLOCKREPETAG
1070
     1
1071
       12
1005
12BE17
  0
LINE
  5
12BE18
  8
OBJECT
 10
4066.0
 20
-1028.9999999999959
 30
0.0
 11
3934.0
 21
-1028.9999999999959
 31
0.0
1001
ACDBBLOCKREPETAG
1070
     1
1071
       13
1005
12BE18
  0
LINE
  5
12BE19
  8
OBJECT
 10
4090.0
 20
-1080.0
 30
0.0
 11
4090.0
 21
-1064.9999999999959
 31
0.0
1001
ACDBBLOCKREPETAG
1070
     1
1071
       14
1005
12BE19
  0
LINE
  5
12BE1A
  8
OBJECT
 10
3924.0
 20
-1080.0
 30
0.0
 11
4090.0
 21
-1080.0
 31
0.0
1001
ACDBBLOCKREPETAG
1070
     1
1071
       15
1005
12BE1A
  0
LINE
  5
12BE1B
  8
OBJECT
 10
4067.4999999999841
 20
-1080.0
 30
0.0
 11
4067.4999999999841
 21
-1090.0
 31
0.0
1001
ACDBBLOCKREPETAG
1070
     1
1071
       16
1005
12BE1B
  0
LINE
  5
12BE1C
  8
OBJECT
 10
3924.0
 20
-1090.0
 30
0.0
 11
3924.0
 21
-1103.9999999999959
 31
0.0
1001
ACDBBLOCKREPETAG
1070
     1
1071
       17
1005
12BE1C
  0
LINE
  5
12BE1D
  8
OBJECT
 10
4090.0
 20
-1090.0
 30
0.0
 11
4090.0
 21
-1103.9999999999959
 31
0.0
1001
ACDBBLOCKREPETAG
1070
     1
1071
       18
1005
12BE1D
  0
LINE
  5
12BE1E
  8
OBJECT
 10
3924.0
 20
-1103.9999999999959
 30
0.0
 11
4090.0
 21
-1103.9999999999959
 31
0.0
1001
ACDBBLOCKREPETAG
1070
     1
1071
       19
1005
12BE1E
  0
LINE
  5
12BE1F
  8
OBJECT
 10
3924.0
 20
-1090.0
 30
0.0
 11
4090.0
 21
-1090.0
 31
0.0
1001
ACDBBLOCKREPETAG
1070
     1
1071
       20
1005
12BE1F
  0
LINE
  5
12BE20
  8
OBJECT
 10
3932.499999999985
 20
-1080.0
 30
0.0
 11
3932.499999999985
 21
-1090.0
 31
0.0
1001
ACDBBLOCKREPETAG
1070
     1
1071
       21
1005
12BE20
  0
LINE
  5
12BE21
  8
OBJECT
 10
3924.0
 20
-1080.0
 30
0.0
 11
3924.0
 21
-1064.9999999999959
 31
0.0
1001
ACDBBLOCKREPETAG
1070
     1
1071
       22
1005
12BE21
  0
LINE
  5
12BE22
  8
HIDDEN
 10
3943.0
 20
-1040.0
 30
0.0
 11
4057.0
 21
-1040.0
 31
0.0
1001
ACDBBLOCKREPETAG
1070
     1
1071
       23
1005
12BE22
  0
LINE
  5
12BE23
  8
CENTER
 10
4000.0
 20
-770.0
 30
0.0
 11
4000.0
 21
-1118.9999999999959
 31
0.0
1001
ACDBBLOCKREPETAG
1070
     1
1071
       24
1005
12BE23
  0
LINE
  5
12BE24
  8
OBJECT
 10
3925.0
 20
-770.0
 30
0.0
 11
3925.0
 21
-851.99999999999636
 31
0.0
1001
ACDBBLOCKREPETAG
1070
     1
1071
       25
1005
12BE24
  0
LINE
  5
12BE25
  8
OBJECT
 10
4075.0
 20
-770.0
 30
0.0
 11
4075.0
 21
-851.99999999999261
 31
0.0
1001
ACDBBLOCKREPETAG
1070
     1
1071
       26
1005
12BE25
  0
LINE
  5
12BE26
  8
OBJECT
 10
3925.0
 20
-851.99999999999636
 30
0.0
 11
4075.0
 21
-851.99999999999261
 31
0.0
1001
ACDBBLOCKREPETAG
1070
     1
1071
       27
1005
12BE26
  0
LINE
  5
12BE27
  8
OBJECT
 10
4057.0
 20
-1028.9999999999959
 30
0.0
 11
4057.0
 21
-979.99999999999272
 31
0.0
1001
ACDBBLOCKREPETAG
1070
     1
1071
       28
1005
12BE27
  0
LINE
  5
12BE28
  8
OBJECT
 10
3943.0
 20
-1028.9999999999959
 30
0.0
 11
3943.0
 21
-979.99999999999272
 31
0.0
1001
ACDBBLOCKREPETAG
1070
     1
1071
       29
1005
12BE28
  0
LINE
  5
12BE29
  8
OBJECT
 10
4057.0
 20
-979.99999999999272
 30
0.0
 11
3943.0
 21
-979.99999999999272
 31
0.0
1001
ACDBBLOCKREPETAG
1070
     1
1071
       30
1005
12BE29
  0
LINE
  5
12BE2A
  8
OBJECT
 10
3925.0
 20
-851.99999999999636
 30
0.0
 11
3943.0
 21
-979.99999999999272
 31
0.0
1001
ACDBBLOCKREPETAG
1070
     1
1071
       31
1005
12BE2A
  0
LINE
  5
12BE2B
  8
OBJECT
 10
4057.0
 20
-979.99999999999272
 30
0.0
 11
4075.0
 21
-851.99999999999261
 31
0.0
1001
ACDBBLOCKREPETAG
1070
     1
1071
       32
1005
12BE2B
  0
LINE
  5
12BE2C
  8
OBJECT
 10
3934.0
 20
-1028.9999999999959
 30
0.0
 11
3934.0
 21
-1064.9999999999959
 31
0.0
1001
ACDBBLOCKREPETAG
1070
     1
1071
       33
1005
12BE2C
  0
LINE
  5
12BE2D
  8
OBJECT
 10
4066.0
 20
-1028.9999999999959
 30
0.0
 11
4066.0
 21
-1064.9999999999959
 31
0.0
1001
ACDBBLOCKREPETAG
1070
     1
1071
       34
1005
12BE2D
  0
LINE
  5
12BE2E
  8
OBJECT
 10
4082.9999999999932
 20
-1089.9999999999959
 30
0.0
 11
4082.9999999999932
 21
-1079.9999999999959
 31
0.0
1001
ACDBBLOCKREPETAG
1070
     1
1071
       35
1005
12BE2E
  0
LINE
  5
12BE2F
  8
OBJECT
 10
4072.9999999999918
 20
-1089.9999999999959
 30
0.0
 11
4072.9999999999918
 21
-1079.9999999999959
 31
0.0
1001
ACDBBLOCKREPETAG
1070
     1
1071
       36
1005
12BE2F
  0
LINE
  5
12BE30
  8
OBJECT
 10
4068.9999999999841
 20
-1059.9999999999959
 30
0.0
 11
4068.9999999999841
 21
-1064.9999999999959
 31
0.0
1001
ACDBBLOCKREPETAG
1070
     1
1071
       37
1005
12BE30
  0
LINE
  5
12BE31
  8
OBJECT
 10
4087.0
 20
-1059.9999999999959
 30
0.0
 11
4087.0
 21
-1064.9999999999959
 31
0.0
1001
ACDBBLOCKREPETAG
1070
     1
1071
       38
1005
12BE31
  0
LINE
  5
12BE32
  8
OBJECT
 10
4087.0
 20
-1059.9999999999959
 30
0.0
 11
4068.9999999999841
 21
-1059.9999999999959
 31
0.0
1001
ACDBBLOCKREPETAG
1070
     1
1071
       39
1005
12BE32
  0
LINE
  5
12BE33
  8
OBJECT
 10
4073.0
 20
-1111.9999999999959
 30
0.0
 11
4073.0
 21
-1114.9999999999959
 31
0.0
1001
ACDBBLOCKREPETAG
1070
     1
1071
       40
1005
12BE33
  0
LINE
  5
12BE34
  8
OBJECT
 10
4073.0
 20
-1114.9999999999959
 30
0.0
 11
4083.0
 21
-1114.9999999999959
 31
0.0
1001
ACDBBLOCKREPETAG
1070
     1
1071
       41
1005
12BE34
  0
LINE
  5
12BE35
  8
OBJECT
 10
4083.0
 20
-1114.9999999999959
 30
0.0
 11
4083.0
 21
-1111.9999999999959
 31
0.0
1001
ACDBBLOCKREPETAG
1070
     1
1071
       43
1005
12BE35
  0
LINE
  5
12BE36
  8
OBJECT
 10
3968.5
 20
-1059.9999999999959
 30
0.0
 11
3951.9999999999932
 21
-1059.9999999999959
 31
0.0
1001
ACDBBLOCKREPETAG
1070
     1
1071
       48
1005
12BE36
  0
LINE
  5
12BE37
  8
OBJECT
 10
3976.0
 20
-1064.9999999999959
 30
0.0
 11
3976.0
 21
-1062.9999999999959
 31
0.0
1001
ACDBBLOCKREPETAG
1070
     1
1071
       49
1005
12BE37
  0
LINE
  5
12BE38
  8
OBJECT
 10
3966.0
 20
-1089.9999999999959
 30
0.0
 11
3966.0
 21
-1079.9999999999959
 31
0.0
1001
ACDBBLOCKREPETAG
1070
     1
1071
       50
1005
12BE38
  0
LINE
  5
12BE39
  8
OBJECT
 10
3956.0
 20
-1089.9999999999959
 30
0.0
 11
3956.0
 21
-1079.9999999999959
 31
0.0
1001
ACDBBLOCKREPETAG
1070
     1
1071
       51
1005
12BE39
  0
LINE
  5
12BE3A
  8
OBJECT
 10
3951.9999999999932
 20
-1059.9999999999959
 30
0.0
 11
3951.9999999999932
 21
-1064.9999999999959
 31
0.0
1001
ACDBBLOCKREPETAG
1070
     1
1071
       52
1005
12BE3A
  0
LINE
  5
12BE3B
  8
OBJECT
 10
3956.0
 20
-1111.9999999999959
 30
0.0
 11
3956.0
 21
-1114.9999999999959
 31
0.0
1001
ACDBBLOCKREPETAG
1070
     1
1071
       53
1005
12BE3B
  0
LINE
  5
12BE3C
  8
OBJECT
 10
3956.0
 20
-1114.9999999999959
 30
0.0
 11
3966.0
 21
-1114.9999999999959
 31
0.0
1001
ACDBBLOCKREPETAG
1070
     1
1071
       54
1005
12BE3C
  0
LINE
  5
12BE3D
  8
OBJECT
 10
3951.185045423772
 20
-1111.9999999999959
 30
0.0
 11
3970.8149545762212
 21
-1111.9999999999959
 31
0.0
1001
ACDBBLOCKREPETAG
1070
     1
1071
       55
1005
12BE3D
  0
LINE
  5
12BE3E
  8
OBJECT
 10
3966.0
 20
-1114.9999999999959
 30
0.0
 11
3966.0
 21
-1111.9999999999959
 31
0.0
1001
ACDBBLOCKREPETAG
1070
     1
1071
       56
1005
12BE3E
  0
LINE
  5
12BE3F
  8
OBJECT
 10
3976.0
 20
-1062.9999999999959
 30
0.0
 11
3968.5
 21
-1059.9999999999959
 31
0.0
1001
ACDBBLOCKREPETAG
1070
     1
1071
       57
1005
12BE3F
  0
LINE
  5
12BE40
  8
OBJECT
 10
3951.185045423777
 20
-1103.9999999999959
 30
0.0
 11
3951.185045423777
 21
-1111.9999999999959
 31
0.0
1001
ACDBBLOCKREPETAG
1070
     1
1071
      630
1005
12BE40
  0
LINE
  5
12BE41
  8
OBJECT
 10
3956.0925227118901
 20
-1103.9999999999959
 30
0.0
 11
3956.0925227118901
 21
-1111.9999999999959
 31
0.0
1001
ACDBBLOCKREPETAG
1070
     1
1071
      631
1005
12BE41
  0
LINE
  5
12BE42
  8
OBJECT
 10
3965.9074772881122
 20
-1103.9999999999959
 30
0.0
 11
3965.9074772881122
 21
-1111.9999999999959
 31
0.0
1001
ACDBBLOCKREPETAG
1070
     1
1071
      632
1005
12BE42
  0
LINE
  5
12BE43
  8
OBJECT
 10
3970.814954576223
 20
-1103.9999999999959
 30
0.0
 11
3970.814954576223
 21
-1111.9999999999959
 31
0.0
1001
ACDBBLOCKREPETAG
1070
     1
1071
      633
1005
12BE43
  0
LINE
  5
12BE44
  8
OBJECT
 10
4068.185045423772
 20
-1111.9999999999959
 30
0.0
 11
4087.8149545762199
 21
-1111.9999999999959
 31
0.0
1001
ACDBBLOCKREPETAG
1070
     1
1071
      634
1005
12BE44
  0
LINE
  5
12BE45
  8
OBJECT
 10
4068.185045423777
 20
-1103.9999999999959
 30
0.0
 11
4068.185045423777
 21
-1111.9999999999959
 31
0.0
1001
ACDBBLOCKREPETAG
1070
     1
1071
      635
1005
12BE45
  0
LINE
  5
12BE46
  8
OBJECT
 10
4073.0925227118869
 20
-1103.9999999999959
 30
0.0
 11
4073.0925227118869
 21
-1111.9999999999959
 31
0.0
1001
ACDBBLOCKREPETAG
1070
     1
1071
      636
1005
12BE46
  0
LINE
  5
12BE47
  8
OBJECT
 10
4082.9074772881122
 20
-1103.9999999999959
 30
0.0
 11
4082.9074772881122
 21
-1111.9999999999959
 31
0.0
1001
ACDBBLOCKREPETAG
1070
     1
1071
      637
1005
12BE47
  0
LINE
  5
12BE48
  8
OBJECT
 10
4087.814954576223
 20
-1103.9999999999959
 30
0.0
 11
4087.814954576223
 21
-1111.9999999999959
 31
0.0
1001
ACDBBLOCKREPETAG
1070
     1
1071
      638
1005
12BE48
  0
LINE
  5
12BE49
  8
CENTER
 10
11909.0
 20
-1353.9999999999959
 30
0.0
 11
12105.0
 21
-1353.9999999999959
 31
0.0
1001
ACDBBLOCKREPETAG
1070
     1
1071
       10
1005
12BE49
  0
LINE
  5
12BE4A
  8
CENTER
 10
12000.0
 20
-1262.7253355707801
 30
0.0
 11
12000.0
 21
-1445.2746644292131
 31
0.0
1001
ACDBBLOCKREPETAG
1070
     1
1071
       11
1005
12BE4A
  0
CIRCLE
  5
12BE4B
  8
OBJECT
 10
12000.0
 20
-1353.9999999999959
 30
0.0
 40
50.0
1001
ACDBBLOCKREPETAG
1070
     1
1071
       12
1005
12BE4B
  0
CIRCLE
  5
12BE4C
  8
OBJECT
 10
12000.0
 20
-1353.9999999999959
 30
0.0
 40
60.0
1001
ACDBBLOCKREPETAG
1070
     1
1071
       13
1005
12BE4C
  0
CIRCLE
  5
12BE4D
  8
OBJECT
 10
12000.0
 20
-1353.9999999999959
 30
0.0
 40
68.0
1001
ACDBBLOCKREPETAG
1070
     1
1071
       14
1005
12BE4D
  0
ARC
  5
12BE4E
  8
OBJECT
 10
12077.5
 20
-1353.9999999999959
 30
0.0
 40
12.0
 50
272.10542627221611
 51
87.894573727783893
1001
ACDBBLOCKREPETAG
1070
     1
1071
       15
1005
12BE4E
  0
ARC
  5
12BE4F
  8
OBJECT
 10
12078.49193548386
 20
-1327.0182271895251
 30
0.0
 40
15.0
 50
198.97051877965251
 51
267.89457372778372
1001
ACDBBLOCKREPETAG
1070
     1
1071
       16
1005
12BE4F
  0
ARC
  5
12BE50
  8
OBJECT
 10
12078.49193548386
 20
-1380.981772810464
 30
0.0
 40
15.0
 50
92.105426272216135
 51
161.02948122034729
1001
ACDBBLOCKREPETAG
1070
     1
1071
       17
1005
12BE50
  0
CIRCLE
  5
12BE51
  8
SLIM
 10
12078.0
 20
-1353.9999999999959
 30
0.0
 40
8.0
1001
ACDBBLOCKREPETAG
1070
     1
1071
       18
1005
12BE51
  0
POLYLINE
  5
12BE52
  8
SLIM
 66
     1
 10
0.0
 20
0.0
 30
0.0
 70
     1
1001
ACDBBLOCKREPETAG
1070
     1
1071
       19
1005
12BE52
  0
VERTEX
  5
12C039
  8
SLIM
 10
12075.69059892322
 20
-1349.9999999999959
 30
0.0
  0
VERTEX
  5
12C03A
  8
SLIM
 10
12073.38119784648
 20
-1353.9999999999959
 30
0.0
  0
VERTEX
  5
12C03B
  8
SLIM
 10
12075.69059892322
 20
-1357.9999999999959
 30
0.0
  0
VERTEX
  5
12C03C
  8
SLIM
 10
12080.309401076751
 20
-1357.9999999999959
 30
0.0
  0
VERTEX
  5
12C03D
  8
SLIM
 10
12082.618802153511
 20
-1353.9999999999959
 30
0.0
  0
VERTEX
  5
12C03E
  8
SLIM
 10
12080.309401076751
 20
-1349.9999999999959
 30
0.0
  0
SEQEND
  5
12C03F
  8
SLIM
  0
ARC
  5
12BE53
  8
OBJECT
 10
11961.25
 20
-1286.8830312067
 30
0.0
 40
12.0
 50
32.105426272130188
 51
207.89457372768319
1001
ACDBBLOCKREPETAG
1070
     1
1071
       20
1005
12BE53
  0
ARC
  5
12BE54
  8
OBJECT
 10
11937.38713156505
 20
-1299.514876283989
 30
0.0
 40
15.0
 50
318.97051877944762
 51
27.89457372768311
1001
ACDBBLOCKREPETAG
1070
     1
1071
       21
1005
12BE54
  0
ARC
  5
12BE55
  8
OBJECT
 10
11984.120932951069
 20
-1272.533103473517
 30
0.0
 40
15.0
 50
212.10542627213019
 51
281.02948122044069
1001
ACDBBLOCKREPETAG
1070
     1
1071
       22
1005
12BE55
  0
CIRCLE
  5
12BE56
  8
SLIM
 10
11961.0
 20
-1286.4500185048089
 30
0.0
 40
7.9999999999999982
1001
ACDBBLOCKREPETAG
1070
     1
1071
       23
1005
12BE56
  0
POLYLINE
  5
12BE57
  8
SLIM
 66
     1
 10
0.0
 20
0.0
 30
0.0
 70
     1
1001
ACDBBLOCKREPETAG
1070
     1
1071
       24
1005
12BE57
  0
VERTEX
  5
12C040
  8
SLIM
 10
11958.69059892324
 20
-1290.4500185048089
 30
0.0
  0
VERTEX
  5
12C041
  8
SLIM
 10
11963.309401076751
 20
-1290.4500185048089
 30
0.0
  0
VERTEX
  5
12C042
  8
SLIM
 10
11965.618802153511
 20
-1286.4500185048089
 30
0.0
  0
VERTEX
  5
12C043
  8
SLIM
 10
11963.309401076751
 20
-1282.4500185048089
 30
0.0
  0
VERTEX
  5
12C044
  8
SLIM
 10
11958.69059892324
 20
-1282.4500185048089
 30
0.0
  0
VERTEX
  5
12C045
  8
SLIM
 10
11956.38119784648
 20
-1286.4500185048089
 30
0.0
  0
SEQEND
  5
12C046
  8
SLIM
  0
ARC
  5
12BE58
  8
OBJECT
 10
11961.25
 20
-1421.1169687932891
 30
0.0
 40
12.0
 50
152.10542627231681
 51
327.89457372786978
1001
ACDBBLOCKREPETAG
1070
     1
1071
       25
1005
12BE58
  0
ARC
  5
12BE59
  8
OBJECT
 10
11984.120932951069
 20
-1435.4668965264721
 30
0.0
 40
15.0
 50
78.970518779559228
 51
147.89457372786981
1001
ACDBBLOCKREPETAG
1070
     1
1071
       26
1005
12BE59
  0
ARC
  5
12BE5A
  8
OBJECT
 10
11937.38713156505
 20
-1408.485123716004
 30
0.0
 40
15.0
 50
332.10542627231678
 51
41.029481220552412
1001
ACDBBLOCKREPETAG
1070
     1
1071
       27
1005
12BE5A
  0
CIRCLE
  5
12BE5B
  8
SLIM
 10
11961.0
 20
-1421.549981495182
 30
0.0
 40
8.0
1001
ACDBBLOCKREPETAG
1070
     1
1071
       28
1005
12BE5B
  0
POLYLINE
  5
12BE5C
  8
SLIM
 66
     1
 10
0.0
 20
0.0
 30
0.0
 70
     1
1001
ACDBBLOCKREPETAG
1070
     1
1071
       29
1005
12BE5C
  0
VERTEX
  5
12C047
  8
SLIM
 10
11965.618802153511
 20
-1421.54998149518
 30
0.0
  0
VERTEX
  5
12C048
  8
SLIM
 10
11963.309401076751
 20
-1417.5499814951829
 30
0.0
  0
VERTEX
  5
12C049
  8
SLIM
 10
11958.69059892324
 20
-1417.54998149518
 30
0.0
  0
VERTEX
  5
12C04A
  8
SLIM
 10
11956.38119784648
 20
-1421.549981495182
 30
0.0
  0
VERTEX
  5
12C04B
  8
SLIM
 10
11958.69059892322
 20
-1425.54998149518
 30
0.0
  0
VERTEX
  5
12C04C
  8
SLIM
 10
11963.309401076751
 20
-1425.5499814951829
 30
0.0
  0
SEQEND
  5
12C04D
  8
SLIM
  0
ARC
  5
12BE5D
  8
OBJECT
 10
12000.0
 20
-1353.9999999999959
 30
0.0
 40
76.0
 50
34.863837954171863
 51
85.136162045732945
1001
ACDBBLOCKREPETAG
1070
     1
1071
       42
1005
12BE5D
  0
ARC
  5
12BE5E
  8
OBJECT
 10
12000.0
 20
-1353.9999999999959
 30
0.0
 40
76.0
 50
154.86383795430939
 51
205.1361620456905
1001
ACDBBLOCKREPETAG
1070
     1
1071
       43
1005
12BE5E
  0
ARC
  5
12BE5F
  8
OBJECT
 10
12000.0
 20
-1353.9999999999959
 30
0.0
 40
76.0
 50
274.86383795426718
 51
325.13616204582797
1001
ACDBBLOCKREPETAG
1070
     1
1071
       44
1005
12BE5F
  0
ARC
  5
12BE60
  8
OBJECT
 10
12078.0
 20
-1353.9999999999959
 30
0.0
 40
12.0
 50
325.13616204582797
 51
34.863837954171863
1001
ACDBBLOCKREPETAG
1070
     1
1071
       45
1005
12BE60
  0
LINE
  5
12BE61
  8
OBJECT
 10
12087.84615384616
 20
-1347.140462520134
 30
0.0
 11
12062.358974359049
 21
-1310.556262627535
 31
0.0
1001
ACDBBLOCKREPETAG
1070
     1
1071
       46
1005
12BE61
  0
LINE
  5
12BE62
  8
OBJECT
 10
12087.846153846171
 20
-1360.859537479857
 30
0.0
 11
12062.358974359049
 21
-1397.4437373724591
 31
0.0
1001
ACDBBLOCKREPETAG
1070
     1
1071
       47
1005
12BE62
  0
ARC
  5
12BE63
  8
OBJECT
 10
11961.0
 20
-1286.4500185048109
 30
0.0
 40
12.0
 50
85.136162045942811
 51
154.86383795410001
1001
ACDBBLOCKREPETAG
1070
     1
1071
       48
1005
12BE63
  0
LINE
  5
12BE64
  8
OBJECT
 10
11950.13638936114
 20
-1281.35276788439
 30
0.0
 11
11931.19713262058
 21
-1321.7174127373471
 31
0.0
1001
ACDBBLOCKREPETAG
1070
     1
1071
       49
1005
12BE64
  0
LINE
  5
12BE65
  8
OBJECT
 10
11962.017456792681
 20
-1274.4932304045269
 30
0.0
 11
12006.443893020371
 21
-1278.273675364886
 31
0.0
1001
ACDBBLOCKREPETAG
1070
     1
1071
       50
1005
12BE65
  0
ARC
  5
12BE66
  8
OBJECT
 10
11961.0
 20
-1421.5499814951811
 30
0.0
 40
12.0
 50
205.13616204589991
 51
274.8638379540572
1001
ACDBBLOCKREPETAG
1070
     1
1071
       51
1005
12BE66
  0
LINE
  5
12BE67
  8
OBJECT
 10
11962.01745679269
 20
-1433.506769595464
 30
0.0
 11
12006.44389302036
 21
-1429.7263246351069
 31
0.0
1001
ACDBBLOCKREPETAG
1070
     1
1071
       52
1005
12BE67
  0
LINE
  5
12BE68
  8
OBJECT
 10
11950.13638936114
 20
-1426.647232115605
 30
0.0
 11
11931.19713262058
 21
-1386.2825872626429
 31
0.0
1001
ACDBBLOCKREPETAG
1070
     1
1071
       53
1005
12BE68
  0
LINE
  5
12BE69
  8
CENTER
 10
9909.0
 20
-1353.9999999999959
 30
0.0
 11
10105.0
 21
-1353.9999999999959
 31
0.0
1001
ACDBBLOCKREPETAG
1070
     1
1071
        0
1005
12BE69
  0
LINE
  5
12BE6A
  8
CENTER
 10
10000.0
 20
-1262.7253355707801
 30
0.0
 11
10000.0
 21
-1445.2746644292131
 31
0.0
1001
ACDBBLOCKREPETAG
1070
     1
1071
        1
1005
12BE6A
  0
CIRCLE
  5
12BE6B
  8
OBJECT
 10
10000.0
 20
-1353.9999999999959
 30
0.0
 40
50.0
1001
ACDBBLOCKREPETAG
1070
     1
1071
        2
1005
12BE6B
  0
CIRCLE
  5
12BE6C
  8
OBJECT
 10
10000.0
 20
-1353.9999999999959
 30
0.0
 40
62.0
1001
ACDBBLOCKREPETAG
1070
     1
1071
        3
1005
12BE6C
  0
CIRCLE
  5
12BE6D
  8
SLIM
 10
10078.0
 20
-1353.9999999999959
 30
0.0
 40
5.0
1001
ACDBBLOCKREPETAG
1070
     1
1071
        4
1005
12BE6D
  0
POLYLINE
  5
12BE6E
  8
SLIM
 66
     1
 10
0.0
 20
0.0
 30
0.0
 70
     1
1001
ACDBBLOCKREPETAG
1070
     1
1071
        5
1005
12BE6E
  0
VERTEX
  5
12C04E
  8
SLIM
 10
10073.092522711881
 20
-1345.4999999999959
 30
0.0
  0
VERTEX
  5
12C04F
  8
SLIM
 10
10068.18504542377
 20
-1353.9999999999959
 30
0.0
  0
VERTEX
  5
12C050
  8
SLIM
 10
10073.092522711881
 20
-1362.4999999999959
 30
0.0
  0
VERTEX
  5
12C051
  8
SLIM
 10
10082.907477288099
 20
-1362.4999999999959
 30
0.0
  0
VERTEX
  5
12C052
  8
SLIM
 10
10087.814954576221
 20
-1353.9999999999959
 30
0.0
  0
VERTEX
  5
12C053
  8
SLIM
 10
10082.907477288099
 20
-1345.4999999999959
 30
0.0
  0
SEQEND
  5
12C054
  8
SLIM
  0
CIRCLE
  5
12BE6F
  8
SLIM
 10
9961.0
 20
-1286.4500185048089
 30
0.0
 40
4.9999999999999991
1001
ACDBBLOCKREPETAG
1070
     1
1071
        6
1005
12BE6F
  0
POLYLINE
  5
12BE70
  8
SLIM
 66
     1
 10
0.0
 20
0.0
 30
0.0
 70
     1
1001
ACDBBLOCKREPETAG
1070
     1
1071
        7
1005
12BE70
  0
VERTEX
  5
12C055
  8
SLIM
 10
9956.092522711886
 20
-1294.9500185048089
 30
0.0
  0
VERTEX
  5
12C056
  8
SLIM
 10
9965.907477288114
 20
-1294.9500185048089
 30
0.0
  0
VERTEX
  5
12C057
  8
SLIM
 10
9970.814954576219
 20
-1286.4500185048089
 30
0.0
  0
VERTEX
  5
12C058
  8
SLIM
 10
9965.907477288114
 20
-1277.9500185048089
 30
0.0
  0
VERTEX
  5
12C059
  8
SLIM
 10
9956.092522711886
 20
-1277.9500185048089
 30
0.0
  0
VERTEX
  5
12C05A
  8
SLIM
 10
9951.185045423772
 20
-1286.4500185048089
 30
0.0
  0
SEQEND
  5
12C05B
  8
SLIM
  0
CIRCLE
  5
12BE71
  8
SLIM
 10
9961.0
 20
-1421.549981495182
 30
0.0
 40
5.0
1001
ACDBBLOCKREPETAG
1070
     1
1071
        8
1005
12BE71
  0
POLYLINE
  5
12BE72
  8
SLIM
 66
     1
 10
0.0
 20
0.0
 30
0.0
 70
     1
1001
ACDBBLOCKREPETAG
1070
     1
1071
        9
1005
12BE72
  0
VERTEX
  5
12C05C
  8
SLIM
 10
9970.814954576219
 20
-1421.549981495182
 30
0.0
  0
VERTEX
  5
12C05D
  8
SLIM
 10
9965.9074772881049
 20
-1413.04998149518
 30
0.0
  0
VERTEX
  5
12C05E
  8
SLIM
 10
9956.092522711886
 20
-1413.0499814951829
 30
0.0
  0
VERTEX
  5
12C05F
  8
SLIM
 10
9951.185045423772
 20
-1421.54998149518
 30
0.0
  0
VERTEX
  5
12C060
  8
SLIM
 10
9956.092522711886
 20
-1430.0499814951829
 30
0.0
  0
VERTEX
  5
12C061
  8
SLIM
 10
9965.907477288114
 20
-1430.04998149518
 30
0.0
  0
SEQEND
  5
12C062
  8
SLIM
  0
ARC
  5
12BE73
  8
OBJECT
 10
10000.0
 20
-1353.9999999999959
 30
0.0
 40
76.0
 50
34.863837954171863
 51
85.136162045732945
1001
ACDBBLOCKREPETAG
1070
     1
1071
       30
1005
12BE73
  0
ARC
  5
12BE74
  8
OBJECT
 10
10000.0
 20
-1353.9999999999959
 30
0.0
 40
76.0
 50
154.86383795430939
 51
205.1361620456905
1001
ACDBBLOCKREPETAG
1070
     1
1071
       31
1005
12BE74
  0
ARC
  5
12BE75
  8
OBJECT
 10
10000.0
 20
-1353.9999999999959
 30
0.0
 40
76.0
 50
274.86383795426718
 51
325.13616204582797
1001
ACDBBLOCKREPETAG
1070
     1
1071
       32
1005
12BE75
  0
ARC
  5
12BE76
  8
OBJECT
 10
10078.0
 20
-1353.9999999999959
 30
0.0
 40
12.0
 50
325.13616204582797
 51
34.863837954171863
1001
ACDBBLOCKREPETAG
1070
     1
1071
       33
1005
12BE76
  0
LINE
  5
12BE77
  8
OBJECT
 10
10087.84615384616
 20
-1347.140462520134
 30
0.0
 11
10062.35897435904
 21
-1310.556262627535
 31
0.0
1001
ACDBBLOCKREPETAG
1070
     1
1071
       34
1005
12BE77
  0
LINE
  5
12BE78
  8
OBJECT
 10
10087.846153846171
 20
-1360.859537479857
 30
0.0
 11
10062.35897435904
 21
-1397.4437373724591
 31
0.0
1001
ACDBBLOCKREPETAG
1070
     1
1071
       35
1005
12BE78
  0
ARC
  5
12BE79
  8
OBJECT
 10
9961.0
 20
-1286.4500185048109
 30
0.0
 40
12.0
 50
85.136162045942811
 51
154.86383795410001
1001
ACDBBLOCKREPETAG
1070
     1
1071
       36
1005
12BE79
  0
LINE
  5
12BE7A
  8
OBJECT
 10
9950.1363893611433
 20
-1281.35276788439
 30
0.0
 11
9931.1971326205894
 21
-1321.7174127373471
 31
0.0
1001
ACDBBLOCKREPETAG
1070
     1
1071
       37
1005
12BE7A
  0
LINE
  5
12BE7B
  8
OBJECT
 10
9962.0174567926842
 20
-1274.4932304045269
 30
0.0
 11
10006.443893020371
 21
-1278.273675364886
 31
0.0
1001
ACDBBLOCKREPETAG
1070
     1
1071
       38
1005
12BE7B
  0
ARC
  5
12BE7C
  8
OBJECT
 10
9961.0
 20
-1421.5499814951811
 30
0.0
 40
12.0
 50
205.13616204589991
 51
274.8638379540572
1001
ACDBBLOCKREPETAG
1070
     1
1071
       39
1005
12BE7C
  0
LINE
  5
12BE7D
  8
OBJECT
 10
9962.0174567926897
 20
-1433.506769595464
 30
0.0
 11
10006.44389302036
 21
-1429.7263246351069
 31
0.0
1001
ACDBBLOCKREPETAG
1070
     1
1071
       40
1005
12BE7D
  0
LINE
  5
12BE7E
  8
OBJECT
 10
9950.1363893611433
 20
-1426.647232115605
 30
0.0
 11
9931.1971326205821
 21
-1386.2825872626429
 31
0.0
1001
ACDBBLOCKREPETAG
1070
     1
1071
       41
1005
12BE7E
  0
LINE
  5
12BE7F
  8
CENTER
 10
5909.0
 20
-1394.9999999999991
 30
0.0
 11
6105.0
 21
-1394.9999999999991
 31
0.0
1001
ACDBBLOCKREPETAG
1070
     1
1071
       10
1005
12BE7F
  0
LINE
  5
12BE80
  8
CENTER
 10
6000.0
 20
-1303.725335570783
 30
0.0
 11
6000.0
 21
-1486.274664429216
 31
0.0
1001
ACDBBLOCKREPETAG
1070
     1
1071
       11
1005
12BE80
  0
CIRCLE
  5
12BE81
  8
OBJECT
 10
6000.0
 20
-1394.9999999999991
 30
0.0
 40
50.0
1001
ACDBBLOCKREPETAG
1070
     1
1071
       12
1005
12BE81
  0
CIRCLE
  5
12BE82
  8
OBJECT
 10
6000.0
 20
-1394.9999999999991
 30
0.0
 40
60.0
1001
ACDBBLOCKREPETAG
1070
     1
1071
       13
1005
12BE82
  0
CIRCLE
  5
12BE83
  8
OBJECT
 10
6000.0
 20
-1394.9999999999991
 30
0.0
 40
68.0
1001
ACDBBLOCKREPETAG
1070
     1
1071
       14
1005
12BE83
  0
ARC
  5
12BE84
  8
OBJECT
 10
6077.5
 20
-1394.9999999999991
 30
0.0
 40
12.0
 50
272.10542627221611
 51
87.894573727783893
1001
ACDBBLOCKREPETAG
1070
     1
1071
       15
1005
12BE84
  0
ARC
  5
12BE85
  8
OBJECT
 10
6078.4919354838639
 20
-1368.018227189528
 30
0.0
 40
15.0
 50
198.9705187796356
 51
267.89457372778372
1001
ACDBBLOCKREPETAG
1070
     1
1071
       16
1005
12BE85
  0
ARC
  5
12BE86
  8
OBJECT
 10
6078.4919354838639
 20
-1421.981772810467
 30
0.0
 40
15.0
 50
92.105426272216135
 51
161.02948122036429
1001
ACDBBLOCKREPETAG
1070
     1
1071
       17
1005
12BE86
  0
CIRCLE
  5
12BE87
  8
SLIM
 10
6078.0
 20
-1394.9999999999991
 30
0.0
 40
8.0
1001
ACDBBLOCKREPETAG
1070
     1
1071
       18
1005
12BE87
  0
POLYLINE
  5
12BE88
  8
SLIM
 66
     1
 10
0.0
 20
0.0
 30
0.0
 70
     1
1001
ACDBBLOCKREPETAG
1070
     1
1071
       19
1005
12BE88
  0
VERTEX
  5
12C063
  8
SLIM
 10
6075.6905989232328
 20
-1391.0
 30
0.0
  0
VERTEX
  5
12C064
  8
SLIM
 10
6073.3811978464801
 20
-1394.9999999999991
 30
0.0
  0
VERTEX
  5
12C065
  8
SLIM
 10
6075.6905989232328
 20
-1398.9999999999991
 30
0.0
  0
VERTEX
  5
12C066
  8
SLIM
 10
6080.3094010767527
 20
-1398.9999999999991
 30
0.0
  0
VERTEX
  5
12C067
  8
SLIM
 10
6082.6188021535136
 20
-1394.9999999999991
 30
0.0
  0
VERTEX
  5
12C068
  8
SLIM
 10
6080.3094010767527
 20
-1391.0
 30
0.0
  0
SEQEND
  5
12C069
  8
SLIM
  0
ARC
  5
12BE89
  8
OBJECT
 10
5961.25
 20
-1327.883031206703
 30
0.0
 40
12.0
 50
32.105426272157878
 51
207.89457372770741
1001
ACDBBLOCKREPETAG
1070
     1
1071
       20
1005
12BE89
  0
ARC
  5
12BE8A
  8
OBJECT
 10
5937.387131565054
 20
-1340.514876283992
 30
0.0
 40
15.0
 50
318.97051877944762
 51
27.894573727707481
1001
ACDBBLOCKREPETAG
1070
     1
1071
       21
1005
12BE8A
  0
ARC
  5
12BE8B
  8
OBJECT
 10
5984.1209329510702
 20
-1313.53310347352
 30
0.0
 40
15.0
 50
212.1054262721579
 51
281.02948122044069
1001
ACDBBLOCKREPETAG
1070
     1
1071
       22
1005
12BE8B
  0
CIRCLE
  5
12BE8C
  8
SLIM
 10
5961.0
 20
-1327.4500185048121
 30
0.0
 40
7.9999999999999982
1001
ACDBBLOCKREPETAG
1070
     1
1071
       23
1005
12BE8C
  0
POLYLINE
  5
12BE8D
  8
SLIM
 66
     1
 10
0.0
 20
0.0
 30
0.0
 70
     1
1001
ACDBBLOCKREPETAG
1070
     1
1071
       24
1005
12BE8D
  0
VERTEX
  5
12C06A
  8
SLIM
 10
5958.69059892324
 20
-1331.4500185048121
 30
0.0
  0
VERTEX
  5
12C06B
  8
SLIM
 10
5963.3094010767518
 20
-1331.4500185048121
 30
0.0
  0
VERTEX
  5
12C06C
  8
SLIM
 10
5965.6188021535136
 20
-1327.4500185048121
 30
0.0
  0
VERTEX
  5
12C06D
  8
SLIM
 10
5963.3094010767518
 20
-1323.4500185048121
 30
0.0
  0
VERTEX
  5
12C06E
  8
SLIM
 10
5958.69059892324
 20
-1323.4500185048121
 30
0.0
  0
VERTEX
  5
12C06F
  8
SLIM
 10
5956.3811978464792
 20
-1327.4500185048121
 30
0.0
  0
SEQEND
  5
12C070
  8
SLIM
  0
ARC
  5
12BE8E
  8
OBJECT
 10
5961.25
 20
-1462.116968793292
 30
0.0
 40
12.0
 50
152.1054262722925
 51
327.89457372784221
1001
ACDBBLOCKREPETAG
1070
     1
1071
       25
1005
12BE8E
  0
ARC
  5
12BE8F
  8
OBJECT
 10
5984.1209329510702
 20
-1476.466896526475
 30
0.0
 40
15.0
 50
78.970518779559228
 51
147.8945737278421
1001
ACDBBLOCKREPETAG
1070
     1
1071
       26
1005
12BE8F
  0
ARC
  5
12BE90
  8
OBJECT
 10
5937.387131565054
 20
-1449.485123716006
 30
0.0
 40
15.0
 50
332.1054262722925
 51
41.029481220552412
1001
ACDBBLOCKREPETAG
1070
     1
1071
       27
1005
12BE90
  0
CIRCLE
  5
12BE91
  8
SLIM
 10
5961.0
 20
-1462.549981495187
 30
0.0
 40
8.0
1001
ACDBBLOCKREPETAG
1070
     1
1071
       28
1005
12BE91
  0
POLYLINE
  5
12BE92
  8
SLIM
 66
     1
 10
0.0
 20
0.0
 30
0.0
 70
     1
1001
ACDBBLOCKREPETAG
1070
     1
1071
       29
1005
12BE92
  0
VERTEX
  5
12C071
  8
SLIM
 10
5965.6188021535136
 20
-1462.5499814951829
 30
0.0
  0
VERTEX
  5
12C072
  8
SLIM
 10
5963.3094010767518
 20
-1458.549981495187
 30
0.0
  0
VERTEX
  5
12C073
  8
SLIM
 10
5958.69059892324
 20
-1458.5499814951829
 30
0.0
  0
VERTEX
  5
12C074
  8
SLIM
 10
5956.3811978464792
 20
-1462.549981495187
 30
0.0
  0
VERTEX
  5
12C075
  8
SLIM
 10
5958.6905989232328
 20
-1466.5499814951829
 30
0.0
  0
VERTEX
  5
12C076
  8
SLIM
 10
5963.3094010767518
 20
-1466.549981495187
 30
0.0
  0
SEQEND
  5
12C077
  8
SLIM
  0
ARC
  5
12BE93
  8
OBJECT
 10
6000.0
 20
-1394.9999999999991
 30
0.0
 40
76.0
 50
34.863837954142063
 51
85.136162045732945
1001
ACDBBLOCKREPETAG
1070
     1
1071
       42
1005
12BE93
  0
ARC
  5
12BE94
  8
OBJECT
 10
6000.0
 20
-1394.9999999999991
 30
0.0
 40
76.0
 50
154.86383795430939
 51
205.1361620456905
1001
ACDBBLOCKREPETAG
1070
     1
1071
       43
1005
12BE94
  0
ARC
  5
12BE95
  8
OBJECT
 10
6000.0
 20
-1394.9999999999991
 30
0.0
 40
76.0
 50
274.86383795426718
 51
325.13616204585799
1001
ACDBBLOCKREPETAG
1070
     1
1071
       44
1005
12BE95
  0
ARC
  5
12BE96
  8
OBJECT
 10
6078.0
 20
-1394.9999999999991
 30
0.0
 40
12.0
 50
325.13616204585799
 51
34.863837954142063
1001
ACDBBLOCKREPETAG
1070
     1
1071
       45
1005
12BE96
  0
LINE
  5
12BE97
  8
OBJECT
 10
6087.846153846167
 20
-1388.140462520136
 30
0.0
 11
6062.3589743590501
 21
-1351.556262627538
 31
0.0
1001
ACDBBLOCKREPETAG
1070
     1
1071
       46
1005
12BE97
  0
LINE
  5
12BE98
  8
OBJECT
 10
6087.8461538461697
 20
-1401.8595374798599
 30
0.0
 11
6062.3589743590501
 21
-1438.4437373724629
 31
0.0
1001
ACDBBLOCKREPETAG
1070
     1
1071
       47
1005
12BE98
  0
ARC
  5
12BE99
  8
OBJECT
 10
5961.0
 20
-1327.4500185048139
 30
0.0
 40
12.0
 50
85.136162045942811
 51
154.86383795410001
1001
ACDBBLOCKREPETAG
1070
     1
1071
       48
1005
12BE99
  0
LINE
  5
12BE9A
  8
OBJECT
 10
5950.1363893611451
 20
-1322.3527678843941
 30
0.0
 11
5931.1971326205849
 21
-1362.7174127373501
 31
0.0
1001
ACDBBLOCKREPETAG
1070
     1
1071
       49
1005
12BE9A
  0
LINE
  5
12BE9B
  8
OBJECT
 10
5962.0174567926842
 20
-1315.4932304045301
 30
0.0
 11
6006.4438930203669
 21
-1319.273675364889
 31
0.0
1001
ACDBBLOCKREPETAG
1070
     1
1071
       50
1005
12BE9B
  0
ARC
  5
12BE9C
  8
OBJECT
 10
5961.0
 20
-1462.549981495185
 30
0.0
 40
12.0
 50
205.13616204589991
 51
274.8638379540572
1001
ACDBBLOCKREPETAG
1070
     1
1071
       51
1005
12BE9C
  0
LINE
  5
12BE9D
  8
OBJECT
 10
5962.0174567926879
 20
-1474.5067695954669
 30
0.0
 11
6006.4438930203651
 21
-1470.7263246351099
 31
0.0
1001
ACDBBLOCKREPETAG
1070
     1
1071
       52
1005
12BE9D
  0
LINE
  5
12BE9E
  8
OBJECT
 10
5950.1363893611451
 20
-1467.6472321156079
 30
0.0
 11
5931.1971326205821
 21
-1427.282587262647
 31
0.0
1001
ACDBBLOCKREPETAG
1070
     1
1071
       53
1005
12BE9E
  0
LINE
  5
12BE9F
  8
CENTER
 10
3909.0
 20
-1353.9999999999959
 30
0.0
 11
4105.0
 21
-1353.9999999999959
 31
0.0
1001
ACDBBLOCKREPETAG
1070
     1
1071
        0
1005
12BE9F
  0
LINE
  5
12BEA0
  8
CENTER
 10
4000.0
 20
-1262.7253355707801
 30
0.0
 11
4000.0
 21
-1445.2746644292131
 31
0.0
1001
ACDBBLOCKREPETAG
1070
     1
1071
        1
1005
12BEA0
  0
CIRCLE
  5
12BEA1
  8
OBJECT
 10
4000.0
 20
-1353.9999999999959
 30
0.0
 40
50.0
1001
ACDBBLOCKREPETAG
1070
     1
1071
        2
1005
12BEA1
  0
CIRCLE
  5
12BEA2
  8
OBJECT
 10
4000.0
 20
-1353.9999999999959
 30
0.0
 40
62.0
1001
ACDBBLOCKREPETAG
1070
     1
1071
        3
1005
12BEA2
  0
CIRCLE
  5
12BEA3
  8
SLIM
 10
4078.0
 20
-1353.9999999999959
 30
0.0
 40
5.0
1001
ACDBBLOCKREPETAG
1070
     1
1071
        4
1005
12BEA3
  0
POLYLINE
  5
12BEA4
  8
SLIM
 66
     1
 10
0.0
 20
0.0
 30
0.0
 70
     1
1001
ACDBBLOCKREPETAG
1070
     1
1071
        5
1005
12BEA4
  0
VERTEX
  5
12C078
  8
SLIM
 10
4073.092522711886
 20
-1345.4999999999959
 30
0.0
  0
VERTEX
  5
12C079
  8
SLIM
 10
4068.185045423772
 20
-1353.9999999999959
 30
0.0
  0
VERTEX
  5
12C07A
  8
SLIM
 10
4073.092522711886
 20
-1362.4999999999959
 30
0.0
  0
VERTEX
  5
12C07B
  8
SLIM
 10
4082.9074772881072
 20
-1362.4999999999959
 30
0.0
  0
VERTEX
  5
12C07C
  8
SLIM
 10
4087.8149545762199
 20
-1353.9999999999959
 30
0.0
  0
VERTEX
  5
12C07D
  8
SLIM
 10
4082.9074772881072
 20
-1345.4999999999959
 30
0.0
  0
SEQEND
  5
12C07E
  8
SLIM
  0
CIRCLE
  5
12BEA5
  8
SLIM
 10
3961.0
 20
-1286.4500185048089
 30
0.0
 40
4.9999999999999991
1001
ACDBBLOCKREPETAG
1070
     1
1071
        6
1005
12BEA5
  0
POLYLINE
  5
12BEA6
  8
SLIM
 66
     1
 10
0.0
 20
0.0
 30
0.0
 70
     1
1001
ACDBBLOCKREPETAG
1070
     1
1071
        7
1005
12BEA6
  0
VERTEX
  5
12C07F
  8
SLIM
 10
3956.092522711886
 20
-1294.9500185048089
 30
0.0
  0
VERTEX
  5
12C080
  8
SLIM
 10
3965.907477288114
 20
-1294.9500185048089
 30
0.0
  0
VERTEX
  5
12C081
  8
SLIM
 10
3970.8149545762212
 20
-1286.4500185048089
 30
0.0
  0
VERTEX
  5
12C082
  8
SLIM
 10
3965.907477288114
 20
-1277.9500185048089
 30
0.0
  0
VERTEX
  5
12C083
  8
SLIM
 10
3956.092522711886
 20
-1277.9500185048089
 30
0.0
  0
VERTEX
  5
12C084
  8
SLIM
 10
3951.185045423772
 20
-1286.4500185048089
 30
0.0
  0
SEQEND
  5
12C085
  8
SLIM
  0
CIRCLE
  5
12BEA7
  8
SLIM
 10
3961.0
 20
-1421.549981495182
 30
0.0
 40
5.0
1001
ACDBBLOCKREPETAG
1070
     1
1071
        8
1005
12BEA7
  0
POLYLINE
  5
12BEA8
  8
SLIM
 66
     1
 10
0.0
 20
0.0
 30
0.0
 70
     1
1001
ACDBBLOCKREPETAG
1070
     1
1071
        9
1005
12BEA8
  0
VERTEX
  5
12C086
  8
SLIM
 10
3970.8149545762212
 20
-1421.549981495182
 30
0.0
  0
VERTEX
  5
12C087
  8
SLIM
 10
3965.9074772881072
 20
-1413.04998149518
 30
0.0
  0
VERTEX
  5
12C088
  8
SLIM
 10
3956.092522711886
 20
-1413.0499814951829
 30
0.0
  0
VERTEX
  5
12C089
  8
SLIM
 10
3951.185045423772
 20
-1421.54998149518
 30
0.0
  0
VERTEX
  5
12C08A
  8
SLIM
 10
3956.092522711886
 20
-1430.0499814951829
 30
0.0
  0
VERTEX
  5
12C08B
  8
SLIM
 10
3965.907477288114
 20
-1430.04998149518
 30
0.0
  0
SEQEND
  5
12C08C
  8
SLIM
  0
ARC
  5
12BEA9
  8
OBJECT
 10
4000.0
 20
-1353.9999999999959
 30
0.0
 40
76.0
 50
34.863837954142063
 51
85.136162045732945
1001
ACDBBLOCKREPETAG
1070
     1
1071
       30
1005
12BEA9
  0
ARC
  5
12BEAA
  8
OBJECT
 10
4000.0
 20
-1353.9999999999959
 30
0.0
 40
76.0
 50
154.86383795430939
 51
205.1361620456905
1001
ACDBBLOCKREPETAG
1070
     1
1071
       31
1005
12BEAA
  0
ARC
  5
12BEAB
  8
OBJECT
 10
4000.0
 20
-1353.9999999999959
 30
0.0
 40
76.0
 50
274.86383795426718
 51
325.13616204585799
1001
ACDBBLOCKREPETAG
1070
     1
1071
       32
1005
12BEAB
  0
ARC
  5
12BEAC
  8
OBJECT
 10
4078.0
 20
-1353.9999999999959
 30
0.0
 40
12.0
 50
325.13616204585799
 51
34.863837954142063
1001
ACDBBLOCKREPETAG
1070
     1
1071
       33
1005
12BEAC
  0
LINE
  5
12BEAD
  8
OBJECT
 10
4087.846153846167
 20
-1347.140462520134
 30
0.0
 11
4062.3589743590492
 21
-1310.556262627535
 31
0.0
1001
ACDBBLOCKREPETAG
1070
     1
1071
       34
1005
12BEAD
  0
LINE
  5
12BEAE
  8
OBJECT
 10
4087.8461538461711
 20
-1360.859537479857
 30
0.0
 11
4062.3589743590492
 21
-1397.4437373724591
 31
0.0
1001
ACDBBLOCKREPETAG
1070
     1
1071
       35
1005
12BEAE
  0
ARC
  5
12BEAF
  8
OBJECT
 10
3961.0
 20
-1286.4500185048109
 30
0.0
 40
12.0
 50
85.136162045942811
 51
154.86383795411109
1001
ACDBBLOCKREPETAG
1070
     1
1071
       36
1005
12BEAF
  0
LINE
  5
12BEB0
  8
OBJECT
 10
3950.136389361146
 20
-1281.35276788439
 30
0.0
 11
3931.1971326205862
 21
-1321.7174127373471
 31
0.0
1001
ACDBBLOCKREPETAG
1070
     1
1071
       37
1005
12BEB0
  0
LINE
  5
12BEB1
  8
OBJECT
 10
3962.0174567926852
 20
-1274.4932304045269
 30
0.0
 11
4006.4438930203678
 21
-1278.273675364886
 31
0.0
1001
ACDBBLOCKREPETAG
1070
     1
1071
       38
1005
12BEB1
  0
ARC
  5
12BEB2
  8
OBJECT
 10
3961.0
 20
-1421.5499814951811
 30
0.0
 40
12.0
 50
205.13616204588891
 51
274.8638379540572
1001
ACDBBLOCKREPETAG
1070
     1
1071
       39
1005
12BEB2
  0
LINE
  5
12BEB3
  8
OBJECT
 10
3962.0174567926879
 20
-1433.506769595464
 30
0.0
 11
4006.4438930203651
 21
-1429.7263246351069
 31
0.0
1001
ACDBBLOCKREPETAG
1070
     1
1071
       40
1005
12BEB3
  0
LINE
  5
12BEB4
  8
OBJECT
 10
3950.136389361146
 20
-1426.647232115605
 30
0.0
 11
3931.1971326205821
 21
-1386.2825872626429
 31
0.0
1001
ACDBBLOCKREPETAG
1070
     1
1071
       41
1005
12BEB4
  0
LINE
  5
12BEB5
  8
OBJECT
 10
1943.0
 20
-1079.9999999999959
 30
0.0
 11
2057.0
 21
-1079.9999999999959
 31
0.0
1001
ACDBBLOCKREPETAG
1070
     1
1071
        0
1005
12BEB5
  0
LINE
  5
12BEB6
  8
OBJECT
 10
1943.0
 20
-1079.9999999999959
 30
0.0
 11
1943.0
 21
-979.99999999999613
 31
0.0
1001
ACDBBLOCKREPETAG
1070
     1
1071
        1
1005
12BEB6
  0
LINE
  5
12BEB7
  8
OBJECT
 10
2057.0
 20
-1079.9999999999959
 30
0.0
 11
2057.0
 21
-979.99999999999613
 31
0.0
1001
ACDBBLOCKREPETAG
1070
     1
1071
        2
1005
12BEB7
  0
LINE
  5
12BEB8
  8
OBJECT
 10
1943.0
 20
-979.99999999999613
 30
0.0
 11
2057.0
 21
-979.99999999999613
 31
0.0
1001
ACDBBLOCKREPETAG
1070
     1
1071
        3
1005
12BEB8
  0
LINE
  5
12BEB9
  8
HIDDEN
 10
1950.0
 20
-979.99999999999613
 30
0.0
 11
1950.0
 21
-1079.9999999999959
 31
0.0
1001
ACDBBLOCKREPETAG
1070
     1
1071
        4
1005
12BEB9
  0
LINE
  5
12BEBA
  8
HIDDEN
 10
2050.0
 20
-979.99999999999613
 30
0.0
 11
2050.0
 21
-1079.9999999999959
 31
0.0
1001
ACDBBLOCKREPETAG
1070
     1
1071
        5
1005
12BEBA
  0
LINE
  5
12BEBB
  8
CENTER
 10
2000.0
 20
-770.0
 30
0.0
 11
2000.0
 21
-1094.9999999999959
 31
0.0
1001
ACDBBLOCKREPETAG
1070
     1
1071
        6
1005
12BEBB
  0
LINE
  5
12BEBC
  8
OBJECT
 10
1925.0
 20
-770.0
 30
0.0
 11
1925.0
 21
-851.99999999999636
 31
0.0
1001
ACDBBLOCKREPETAG
1070
     1
1071
        7
1005
12BEBC
  0
LINE
  5
12BEBD
  8
OBJECT
 10
2075.0
 20
-770.0
 30
0.0
 11
2075.0
 21
-851.99999999999636
 31
0.0
1001
ACDBBLOCKREPETAG
1070
     1
1071
        8
1005
12BEBD
  0
LINE
  5
12BEBE
  8
OBJECT
 10
1925.0
 20
-851.99999999999636
 30
0.0
 11
2075.0
 21
-851.99999999999636
 31
0.0
1001
ACDBBLOCKREPETAG
1070
     1
1071
        9
1005
12BEBE
  0
LINE
  5
12BEBF
  8
OBJECT
 10
1925.0
 20
-851.99999999999636
 30
0.0
 11
1943.0
 21
-979.99999999999613
 31
0.0
1001
ACDBBLOCKREPETAG
1070
     1
1071
       10
1005
12BEBF
  0
LINE
  5
12BEC0
  8
OBJECT
 10
2057.0
 20
-979.99999999999613
 30
0.0
 11
2075.0
 21
-851.99999999999636
 31
0.0
1001
ACDBBLOCKREPETAG
1070
     1
1071
       11
1005
12BEC0
  0
TEXT
  5
12BEC1
  8
SLIM
 10
3853.75
 20
-1621.4999999999959
 30
0.0
 40
35.0
  1
両受けスタイル（W）
 41
0.75
  0
TEXT
  5
12BEC2
  8
SLIM
 10
5811.8000000000002
 20
-1718.9999999999991
 30
0.0
 40
28.0
  1
※ 対応スラブ厚　150mm以上
 41
0.75
  0
TEXT
  5
12BEC3
  8
SLIM
 10
5598.8999999999996
 20
-1812.333333333333
 30
0.0
 40
28.0
  1
国土交通大臣認定・（一財）日本消防設備安全センター性能評定取得品
 41
0.75
  0
TEXT
  5
12BEC4
  8
SLIM
 10
5631.1000000000004
 20
-1859.0
 30
0.0
 40
28.0
  1
注）ご採用にあたり、認定書及び評定書の内容をご確認ください。
 41
0.75
  0
TEXT
  5
12BEC5
  8
SLIM
 10
11824.6
 20
-1677.9999999999959
 30
0.0
 40
28.0
  1
※ 対応スラブ厚　150～260
 41
0.75
  0
TEXT
  5
12BEC6
  8
SLIM
 10
11598.9
 20
-1771.3333333333301
 30
0.0
 40
28.0
  1
国土交通大臣認定・（一財）日本消防設備安全センター性能評定取得品
 41
0.75
  0
TEXT
  5
12BEC7
  8
SLIM
 10
11631.1
 20
-1817.999999999997
 30
0.0
 40
28.0
  1
注）ご採用にあたり、認定書及び評定書の内容をご確認ください。
 41
0.75
  0
TEXT
  5
12BEC8
  8
SLIM
 10
9824.6000000000004
 20
-1677.9999999999959
 30
0.0
 40
28.0
  1
※ 対応スラブ厚　180～260
 41
0.75
  0
TEXT
  5
12BEC9
  8
SLIM
 10
9598.8999999999996
 20
-1771.3333333333301
 30
0.0
 40
28.0
  1
国土交通大臣認定・（一財）日本消防設備安全センター性能評定取得品
 41
0.75
  0
TEXT
  5
12BECA
  8
SLIM
 10
9631.1000000000004
 20
-1817.999999999997
 30
0.0
 40
28.0
  1
注）ご採用にあたり、認定書及び評定書の内容をご確認ください。
 41
0.75
  0
TEXT
  5
12BECB
  8
SLIM
 10
7771.3999999999987
 20
-1410.6666666666649
 30
0.0
 40
28.0
  1
※ 対応スラブ厚　180｛150｝～220
 41
0.75
  0
TEXT
  5
12BECC
  8
SLIM
 10
7733.2999999999975
 20
-1457.333333333331
 30
0.0
 40
28.0
  1
｛｝内はカンペイ立て管との組み合わせの場合
 41
0.75
  0
TEXT
  5
12BECD
  8
SLIM
 10
7598.8999999999969
 20
-1550.6666666666649
 30
0.0
 40
28.0
  1
国土交通大臣認定・（一財）日本消防設備安全センター性能評定取得品
 41
0.75
  0
TEXT
  5
12BECE
  8
SLIM
 10
7631.1000000000004
 20
-1597.3333333333319
 30
0.0
 40
28.0
  1
注）ご採用にあたり、認定書及び評定書の内容をご確認ください。
 41
0.75
  0
TEXT
  5
12BECF
  8
SLIM
 10
9739.1250000000018
 20
-1621.4999999999959
 30
0.0
 40
35.0
  1
両受けスタイル（W）＋シンドカット
 41
0.75
  0
TEXT
  5
12BED0
  8
SLIM
 10
11743.5
 20
-1621.4999999999959
 30
0.0
 40
35.0
  1
カンペイ君（WKP）＋シンドカット
 41
0.75
  0
TEXT
  5
12BED1
  8
SLIM
 10
7741.625
 20
-1347.499999999998
 30
0.0
 40
35.0
  1
片受けスタイル（S）＋シンドカット
 41
0.75
  0
TEXT
  5
12BED2
  8
SLIM
 10
5858.1250000000009
 20
-1662.4999999999991
 30
0.0
 40
35.0
  1
カンペイ君（WKP）
 41
0.75
  0
TEXT
  5
12BED3
  8
SLIM
 10
1856.25
 20
-1347.499999999998
 30
0.0
 40
35.0
  1
片受けスタイル（S）
 41
0.75
  0
TEXT
  5
12BED4
  8
SLIM
 10
0.0
 20
370.0
 30
0.0
 40
100.0
  1
4SL-Z606-P110-WKP
 41
0.75
  0
VIEWPORT
  5
F6BA7
 67
     1
  8
0
 10
173.9657252236004
 20
101.8328354358673
 30
0.0
 40
391.2732773398352
 41
222.19657968139651
 68
     1
 69
     1
1001
ACAD
1000
MVIEW
1002
{
1070
    16
1010
0.0
1020
0.0
1030
0.0
1010
0.0
1020
0.0
1030
1.0
1040
0.0
1040
222.19657968139651
1040
173.9657252236004
1040
101.8328354358673
1040
50.0
1040
0.0
1040
0.0
1070
     0
1070
     0
1070
     1
1070
     1
1070
     0
1070
     0
1070
     0
1070
     0
1040
0.0
1040
0.0
1040
0.0
1040
10.0
1040
10.0
1040
10.0
1040
10.0
1070
     0
1002
{
1002
}
1002
}
  0
VIEWPORT
  5
F6BA9
 67
     1
  8
OBJECT
 10
145.3303314447403
 20
101.8328338861465
 30
0.0
 40
232.5285303115844
 41
162.93253421783439
 68
     2
 69
     2
1001
ACAD
1000
MVIEW
1002
{
1070
    16
1010
0.0
1020
0.0
1030
0.0
1010
0.0
1020
0.0
1030
1.0
1040
0.0
1040
25942.55904403147
1040
2377.604457077377
1040
-7591.5176687056619
1040
50.0
1040
0.0
1040
0.0
1070
     0
1070
   600
1070
     1
1070
     1
1070
     0
1070
     0
1070
     0
1070
     0
1040
0.0
1040
0.0
1040
0.0
1040
1.0
1040
1.0
1040
0.0
1040
0.0
1070
     0
1002
{
1002
}
1002
}
  0
ENDSEC
  0
EOF
