  0
SECTION
  2
HEADER
  9
$ACADVER
  1
AC1009
  9
$INSBASE
 10
0.0
 20
0.0
 30
0.0
  9
$EXTMIN
 10
-0.0000000000002274
 20
-3982.4999999999982
 30
0.0
  9
$EXTMAX
 10
12899.70000000001
 20
770.0
 30
0.0
  9
$LIMMIN
 10
0.0
 20
0.0
  9
$LIMMAX
 10
210.0
 20
297.0
  9
$ORTHOMODE
 70
     0
  9
$REGENMODE
 70
     1
  9
$FILLMODE
 70
     1
  9
$QTEXTMODE
 70
     0
  9
$MIRRTEXT
 70
     0
  9
$DRAGMODE
 70
     2
  9
$LTSCALE
 40
1.0
  9
$OSMODE
 70
   109
  9
$ATTMODE
 70
     1
  9
$TEXTSIZE
 40
4.0
  9
$TRACEWID
 40
0.05
  9
$TEXTSTYLE
  7
STANDARD
  9
$CLAYER
  8
OBJECT
  9
$CELTYPE
  6
BYLAYER
  9
$CECOLOR
 62
   256
  9
$DIMSCALE
 40
10.0
  9
$DIMASZ
 40
2.0
  9
$DIMEXO
 40
1.0
  9
$DIMDLI
 40
10.0
  9
$DIMRND
 40
0.0
  9
$DIMDLE
 40
0.0
  9
$DIMEXE
 40
1.0
  9
$DIMTP
 40
0.0
  9
$DIMTM
 40
0.0
  9
$DIMTXT
 40
3.2000000000000002
  9
$DIMCEN
 40
0.0
  9
$DIMTSZ
 40
0.0
  9
$DIMTOL
 70
     0
  9
$DIMLIM
 70
     0
  9
$DIMTIH
 70
     0
  9
$DIMTOH
 70
     0
  9
$DIMSE1
 70
     0
  9
$DIMSE2
 70
     0
  9
$DIMTAD
 70
     1
  9
$DIMZIN
 70
     8
  9
$DIMBLK
  1
OPEN30
  9
$DIMASO
 70
     1
  9
$DIMSHO
 70
     1
  9
$DIMPOST
  1

  9
$DIMAPOST
  1

  9
$DIMALT
 70
     0
  9
$DIMALTD
 70
     2
  9
$DIMALTF
 40
25.399999999999999
  9
$DIMLFAC
 40
1.0
  9
$DIMTOFL
 70
     1
  9
$DIMTVP
 40
0.0
  9
$DIMTIX
 70
     0
  9
$DIMSOXD
 70
     0
  9
$DIMSAH
 70
     0
  9
$DIMBLK1
  1

  9
$DIMBLK2
  1

  9
$DIMSTYLE
  2
S10
  9
$DIMCLRD
 70
   256
  9
$DIMCLRE
 70
   256
  9
$DIMCLRT
 70
   256
  9
$DIMTFAC
 40
1.0
  9
$DIMGAP
 40
0.9
  9
$LUNITS
 70
     2
  9
$LUPREC
 70
     2
  9
$SKETCHINC
 40
0.1
  9
$FILLETRAD
 40
0.0
  9
$AUNITS
 70
     0
  9
$AUPREC
 70
     2
  9
$MENU
  1
ACAD
  9
$ELEVATION
 40
0.0
  9
$PELEVATION
 40
0.0
  9
$THICKNESS
 40
0.0
  9
$LIMCHECK
 70
     0
  9
$BLIPMODE
 70
     0
  9
$CHAMFERA
 40
2.0
  9
$CHAMFERB
 40
2.0
  9
$SKPOLY
 70
     0
  9
$TDCREATE
 40
2453095.4929404748
  9
$TDUPDATE
 40
2457234.5653624539
  9
$TDINDWG
 40
18.726260196799998
  9
$TDUSRTIMER
 40
18.726259479199999
  9
$USRTIMER
 70
     1
  9
$ANGBASE
 50
0.0
  9
$ANGDIR
 70
     0
  9
$PDMODE
 70
    35
  9
$PDSIZE
 40
2.0
  9
$PLINEWID
 40
0.0
  9
$COORDS
 70
     1
  9
$SPLFRAME
 70
     0
  9
$SPLINETYPE
 70
     6
  9
$SPLINESEGS
 70
     8
  9
$ATTDIA
 70
     0
  9
$ATTREQ
 70
     1
  9
$HANDLING
 70
     1
  9
$HANDSEED
  5
1273B9
  9
$SURFTAB1
 70
     6
  9
$SURFTAB2
 70
     6
  9
$SURFTYPE
 70
     6
  9
$SURFU
 70
     6
  9
$SURFV
 70
     6
  9
$UCSNAME
  2

  9
$UCSORG
 10
0.0
 20
0.0
 30
0.0
  9
$UCSXDIR
 10
1.0
 20
0.0
 30
0.0
  9
$UCSYDIR
 10
0.0
 20
1.0
 30
0.0
  9
$PUCSNAME
  2

  9
$PUCSORG
 10
0.0
 20
0.0
 30
0.0
  9
$PUCSXDIR
 10
1.0
 20
0.0
 30
0.0
  9
$PUCSYDIR
 10
0.0
 20
1.0
 30
0.0
  9
$USERI1
 70
     0
  9
$USERI2
 70
     0
  9
$USERI3
 70
     0
  9
$USERI4
 70
     0
  9
$USERI5
 70
     0
  9
$USERR1
 40
0.0
  9
$USERR2
 40
0.0
  9
$USERR3
 40
0.0
  9
$USERR4
 40
0.0
  9
$USERR5
 40
0.0
  9
$WORLDVIEW
 70
     1
  9
$SHADEDGE
 70
     3
  9
$SHADEDIF
 70
    70
  9
$TILEMODE
 70
     1
  9
$MAXACTVP
 70
    64
  9
$PLIMCHECK
 70
     0
  9
$PEXTMIN
 10
29.066066288948051
 20
20.366566777229309
 30
0.0
  9
$PEXTMAX
 10
261.5945966005325
 20
183.29910099506381
 30
0.0
  9
$PLIMMIN
 10
-3.17498779296875
 20
-3.1749999523162842
  9
$PLIMMAX
 10
293.83566284179687
 20
206.8406708240509
  9
$UNITMODE
 70
     0
  9
$VISRETAIN
 70
     1
  9
$PLINEGEN
 70
     0
  9
$PSLTSCALE
 70
     1
  0
ENDSEC
  0
SECTION
  2
TABLES
  0
TABLE
  2
VPORT
 70
     1
  0
VPORT
  2
*ACTIVE
 70
     0
 10
0.0
 20
0.0
 11
1.0
 21
1.0
 12
8371.0435068742736
 22
-3383.2157270672392
 13
0.0
 23
0.0
 14
1.0
 24
1.0
 15
0.0
 25
0.0
 16
0.0
 26
0.0
 36
1.0
 17
0.0
 27
0.0
 37
0.0
 40
16100.324979310641
 41
1.6494178525226391
 42
50.0
 43
0.0
 44
0.0
 50
0.0
 51
0.0
 71
     0
 72
   600
 73
     1
 74
     1
 75
     0
 76
     0
 77
     0
 78
     0
  0
ENDTAB
  0
TABLE
  2
LTYPE
 70
     4
  0
LTYPE
  2
CONTINUOUS
 70
     0
  3
Solid line
 72
    65
 73
     0
 40
0.0
  0
LTYPE
  2
PHANTOM2
 70
     0
  3
___ _ _ ___ _ _ ___ _ _ ___ _ _
 72
    65
 73
     6
 40
1.25
 49
0.625
 49
-0.125
 49
0.125
 49
-0.125
 49
0.125
 49
-0.125
  0
LTYPE
  2
ACAD_ISO08W100
 70
     0
  3
ISO long-dash short-dash ____ __ ____ __ ____ _
 72
    65
 73
     4
 40
36.0
 49
24.0
 49
-3.0
 49
6.0
 49
-3.0
  0
LTYPE
  2
ACAD_ISO02W100
 70
     0
  3
ISO dash __ __ __ __ __ __ __ __ __ __ __ __ __
 72
    65
 73
     2
 40
15.0
 49
12.0
 49
-3.0
  0
ENDTAB
  0
TABLE
  2
LAYER
 70
     8
  0
LAYER
  2
0
 70
     0
 62
     7
  6
CONTINUOUS
  0
LAYER
  2
OBJECT
 70
     0
 62
     4
  6
CONTINUOUS
  0
LAYER
  2
DEFPOINTS
 70
     0
 62
     7
  6
CONTINUOUS
  0
LAYER
  2
DIM
 70
     0
 62
     7
  6
CONTINUOUS
  0
LAYER
  2
HIDDEN
 70
     0
 62
     2
  6
ACAD_ISO02W100
  0
LAYER
  2
CENTER
 70
     0
 62
     2
  6
ACAD_ISO08W100
  0
LAYER
  2
DOTS
 70
     0
 62
     1
  6
CONTINUOUS
  0
LAYER
  2
SLIM
 70
     0
 62
     2
  6
CONTINUOUS
  0
ENDTAB
  0
TABLE
  2
STYLE
 70
     2
  0
STYLE
  2
STANDARD
 70
     0
 40
0.0
 41
0.75
 50
0.0
 71
     0
 42
4.0
  3
simplex.shx
  4
bigfont.shx
  0
ENDTAB
  0
TABLE
  2
VIEW
 70
     0
  0
ENDTAB
  0
TABLE
  2
UCS
 70
     0
  0
ENDTAB
  0
TABLE
  2
APPID
 70
    20
  0
APPID
  2
ACAD
 70
     0
  0
APPID
  2
ACADANNOTATIVE
 70
     0
  0
APPID
  2
ACAD_PSEXT
 70
     0
  0
APPID
  2
ACAD_EXEMPT_FROM_CAD_STANDARDS
 70
     0
  0
APPID
  2
ACAECLAYERSTANDARD
 70
     0
  0
APPID
  2
ACAUTHENVIRON
 70
     0
  0
APPID
  2
ACDBDYNAMICBLOCKTRUENAME
 70
     0
  0
APPID
  2
ACDBDYNAMICBLOCKGUID
 70
     0
  0
APPID
  2
ACDBBLOCKREPETAG
 70
     0
  0
APPID
  2
ACDBBLOCKREPBTAG
 70
     0
  0
APPID
  2
ACAD_NAV_VCDISPLAY
 70
     0
  0
APPID
  2
ACAD_DSTYLE_DIMRADIAL_EXTENSION
 70
     0
  0
APPID
  2
ACAD_DSTYLE_DIMJAG
 70
     0
  0
APPID
  2
ACAD_DSTYLE_DIMTALN
 70
     0
  0
APPID
  2
ACADANNOPO
 70
     0
  0
APPID
  2
GRADIENTCOLOR1ACI
 70
     0
  0
APPID
  2
GRADIENTCOLOR2ACI
 70
     0
  0
APPID
  2
ACADANNOMONITORALERTICONDI
 70
     0
  0
APPID
  2
CONTENTBLOCKICON
 70
     0
  0
APPID
  2
ACAD_MLEADERVER
 70
     0
  0
ENDTAB
  0
TABLE
  2
DIMSTYLE
 70
     3
  0
DIMSTYLE
  2
STANDARD
 70
     0
  3

  4

  5

  6

  7

 40
1.0
 41
0.18
 42
0.0625
 43
0.38
 44
0.18
 45
0.0
 46
0.0
 47
0.0
 48
0.0
140
0.18
141
0.09
142
0.0
143
25.399999999999999
144
1.0
145
0.0
146
1.0
147
0.09
 71
     0
 72
     0
 73
     1
 74
     1
 75
     0
 76
     0
 77
     0
 78
     0
170
     0
171
     2
172
     0
173
     0
174
     0
175
     0
176
     0
177
     0
178
     0
  0
DIMSTYLE
  2
S10
 70
     0
  3

  4

  5

  6

  7

 40
10.0
 41
2.0
 42
1.0
 43
10.0
 44
1.0
 45
0.0
 46
0.0
 47
0.0
 48
0.0
140
3.2000000000000002
141
0.0
142
0.0
143
25.399999999999999
144
1.0
145
0.0
146
1.0
147
0.9
 71
     0
 72
     0
 73
     0
 74
     0
 75
     0
 76
     0
 77
     1
 78
     8
170
     0
171
     2
172
     1
173
     0
174
     0
175
     0
176
   256
177
   256
178
   256
  0
ENDTAB
  0
ENDSEC
  0
SECTION
  2
BLOCKS
  0
BLOCK
  8
0
  2
$MODEL_SPACE
 70
     0
 10
0.0
 20
0.0
 30
0.0
  3
$MODEL_SPACE
  1

  0
ENDBLK
  5
1272A9
  8
0
  0
BLOCK
 67
     1
  8
0
  2
$PAPER_SPACE
 70
     0
 10
0.0
 20
0.0
 30
0.0
  3
$PAPER_SPACE
  1

  0
ENDBLK
  5
1272A5
 67
     1
  8
0
  0
BLOCK
  8
0
  2
_OPEN30
 70
     0
 10
0.0
 20
0.0
 30
0.0
  3
_OPEN30
  1

  0
LINE
  5
202
  8
0
  6
BYBLOCK
 62
     0
 10
-1.0
 20
0.26794919
 30
0.0
 11
0.0
 21
0.0
 31
0.0
  0
LINE
  5
203
  8
0
  6
BYBLOCK
 62
     0
 10
0.0
 20
0.0
 30
0.0
 11
-1.0
 21
-0.26794919
 31
0.0
  0
LINE
  5
204
  8
0
  6
BYBLOCK
 62
     0
 10
0.0
 20
0.0
 30
0.0
 11
-1.0
 21
0.0
 31
0.0
  0
ENDBLK
  5
206
  8
0
  0
BLOCK
  8
0
  2
*U3
 70
     1
 10
0.0
 20
0.0
 30
0.0
  3
*U3
  1

  0
TEXT
  5
127191
  8
SLIM
 10
158.95238095238801
 20
-1551.999999999998
 30
0.0
 40
26.0
  1
75
  0
ENDBLK
  5
127193
  8
0
  0
BLOCK
  8
0
  2
*U4
 70
     1
 10
0.0
 20
0.0
 30
0.0
  3
*U4
  1

  0
TEXT
  5
127195
  8
SLIM
 10
518.95238095238801
 20
-1087.999999999998
 30
0.0
 40
26.0
  1
65
  0
ENDBLK
  5
127197
  8
0
  0
BLOCK
  8
0
  2
*U5
 70
     1
 10
0.0
 20
0.0
 30
0.0
  3
*U5
  1

  0
TEXT
  5
127199
  8
SLIM
 10
158.95238095238801
 20
-1087.999999999998
 30
0.0
 40
26.0
  1
50
  0
ENDBLK
  5
12719B
  8
0
  0
BLOCK
  8
0
  2
*U6
 70
     1
 10
0.0
 20
0.0
 30
0.0
  3
*U6
  1

  0
TEXT
  5
12719D
  8
DIM
 10
12700.424581672751
 20
-864.00000000000364
 30
0.0
 40
32.0
  1
P
 50
90.0
 41
0.75
  0
ENDBLK
  5
12719F
  8
0
  0
BLOCK
  8
0
  2
*U7
 70
     1
 10
0.0
 20
0.0
 30
0.0
  3
*U7
  1

  0
TEXT
  5
1271A1
  8
DIM
 10
12293.14939336144
 20
-1325.4571428571439
 30
0.0
 40
32.0
  1
610-P（シンドカット）
 50
90.0
 41
0.75
  0
ENDBLK
  5
1271A3
  8
0
  0
BLOCK
  8
0
  2
*U8
 70
     1
 10
0.0
 20
0.0
 30
0.0
  3
*U8
  1

  0
TEXT
  5
1271A5
  8
DIM
 10
10700.424581672751
 20
-864.00000000000387
 30
0.0
 40
32.0
  1
P
 50
90.0
 41
0.75
  0
ENDBLK
  5
1271A7
  8
0
  0
BLOCK
  8
0
  2
*U9
 70
     1
 10
0.0
 20
0.0
 30
0.0
  3
*U9
  1

  0
TEXT
  5
1271A9
  8
DIM
 10
10293.14939336144
 20
-1325.4571428571451
 30
0.0
 40
32.0
  1
610-P（シンドカット）
 50
90.0
 41
0.75
  0
ENDBLK
  5
1271AB
  8
0
  0
BLOCK
  8
0
  2
*U10
 70
     1
 10
0.0
 20
0.0
 30
0.0
  3
*U10
  1

  0
TEXT
  5
1271AD
  8
DIM
 10
8700.4245816727544
 20
-864.00000000000409
 30
0.0
 40
32.0
  1
P
 50
90.0
 41
0.75
  0
ENDBLK
  5
1271AF
  8
0
  0
BLOCK
  8
0
  2
*U11
 70
     1
 10
0.0
 20
0.0
 30
0.0
  3
*U11
  1

  0
TEXT
  5
1271B1
  8
DIM
 10
6700.4245816727562
 20
-863.99999999999875
 30
0.0
 40
32.0
  1
P
 50
90.0
 41
0.75
  0
ENDBLK
  5
1271B3
  8
0
  0
BLOCK
  8
0
  2
*U12
 70
     1
 10
0.0
 20
0.0
 30
0.0
  3
*U12
  1

  0
TEXT
  5
1271B5
  8
DIM
 10
4700.4245816727562
 20
-863.99999999999955
 30
0.0
 40
32.0
  1
P
 50
90.0
 41
0.75
  0
ENDBLK
  5
1271B7
  8
0
  0
BLOCK
  8
0
  2
*U13
 70
     1
 10
0.0
 20
0.0
 30
0.0
  3
*U13
  1

  0
TEXT
  5
1271CD
  8
SLIM
 10
158.9523809524228
 20
-130.00000000017181
 30
0.0
 40
26.0
  1
75
  0
ENDBLK
  5
1271CF
  8
0
  0
BLOCK
  8
0
  2
*U14
 70
     1
 10
0.0
 20
0.0
 30
0.0
  3
*U14
  1

  0
TEXT
  5
1271D1
  8
DIM
 10
8293.1493933614402
 20
-1307.7428571428611
 30
0.0
 40
32.0
  1
570-P（シンドカット）
 50
90.0
 41
0.75
  0
ENDBLK
  5
1271D3
  8
0
  0
BLOCK
  8
0
  2
*U15
 70
     1
 10
0.0
 20
0.0
 30
0.0
  3
*U15
  1

  0
TEXT
  5
1271D5
  8
DIM
 10
2700.4245816727562
 20
-863.99999999999955
 30
0.0
 40
32.0
  1
P
 50
90.0
 41
0.75
  0
ENDBLK
  5
1271D7
  8
0
  0
BLOCK
  8
0
  2
*U16
 70
     1
 10
0.0
 20
0.0
 30
0.0
  3
*U16
  1

  0
TEXT
  5
1271D9
  8
DIM
 10
2709.479620594459
 20
-3469.1428571428528
 30
0.0
 40
32.0
  1
A
 50
90.0
 41
0.75
  0
ENDBLK
  5
1271DB
  8
0
  0
BLOCK
  8
0
  2
*U17
 70
     1
 10
0.0
 20
0.0
 30
0.0
  3
*U17
  1

  0
TEXT
  5
1271DD
  8
DIM
 10
2707.840928403733
 20
-3850.9999999999968
 30
0.0
 40
32.0
  1
B
 50
90.0
 41
0.75
  0
ENDBLK
  5
1271DF
  8
0
  0
BLOCK
  8
0
  2
*U18
 70
     1
 10
0.0
 20
0.0
 30
0.0
  3
*U18
  1

  0
TEXT
  5
1271E1
  8
DIM
 10
2561.4285714285711
 20
-3323.208121984444
 30
0.0
 40
32.0
  1
C
 41
0.75
  0
ENDBLK
  5
1271E3
  8
0
  0
ENDSEC
  0
SECTION
  2
ENTITIES
  0
LINE
  5
11273E
  8
OBJECT
 10
2325.0
 20
-3864.9999999999968
 30
0.0
 11
5075.0
 21
-3864.9999999999968
 31
0.0
  0
LINE
  5
11412B
  8
SLIM
 10
3256.0
 20
-2922.5000160472709
 30
0.0
 11
3256.0
 21
-3252.5000160472709
 31
0.0
  0
LINE
  5
11412C
  8
SLIM
 10
3380.0
 20
-2922.5000160472709
 30
0.0
 11
3380.0
 21
-3252.5000160472709
 31
0.0
  0
LINE
  5
11412D
  8
SLIM
 10
3510.0
 20
-2982.50001604727
 30
0.0
 11
3510.0
 21
-3252.5000160472709
 31
0.0
  0
LINE
  5
11412E
  8
SLIM
 10
3640.0
 20
-2982.50001604727
 30
0.0
 11
3640.0
 21
-3252.5000160472709
 31
0.0
  0
LINE
  5
11412F
  8
SLIM
 10
3770.0
 20
-3252.5000160472709
 30
0.0
 11
3770.0
 21
-2922.5000160472709
 31
0.0
  0
LINE
  5
114131
  8
SLIM
 10
3770.0
 20
-2922.5000160472709
 30
0.0
 11
3256.0
 21
-2922.5000160472709
 31
0.0
  0
LINE
  5
114132
  8
SLIM
 10
3769.9999999999991
 20
-2982.50001604727
 30
0.0
 11
3380.0
 21
-2982.50001604727
 31
0.0
  0
LINE
  5
114133
  8
SLIM
 10
3770.0
 20
-3042.5000160472709
 30
0.0
 11
3256.0
 21
-3042.5000160472709
 31
0.0
  0
LINE
  5
114134
  8
SLIM
 10
3770.0
 20
-3112.5000160472709
 30
0.0
 11
3256.0
 21
-3112.5000160472709
 31
0.0
  0
LINE
  5
114135
  8
SLIM
 10
3770.0
 20
-3182.5000160472709
 30
0.0
 11
3256.0
 21
-3182.5000160472709
 31
0.0
  0
LINE
  5
114136
  8
SLIM
 10
3770.0
 20
-3252.5000160472709
 30
0.0
 11
3256.0
 21
-3252.5000160472709
 31
0.0
  0
LINE
  5
11414B
  8
SLIM
 10
3380.0
 20
-3042.5000160472709
 30
0.0
 11
3255.9999722746579
 21
-2922.5000000000018
 31
0.0
  0
LINE
  5
1238B4
  8
CENTER
 10
2579.9999999999991
 20
-3459.9999999999968
 30
0.0
 11
2409.9999999999991
 21
-3459.9999999999968
 31
0.0
1001
ACDBBLOCKREPETAG
1070
     1
1071
       14
1005
122545
  0
LINE
  5
1238B5
  8
CENTER
 10
2500.0
 20
-3549.9999999999968
 30
0.0
 11
2500.0
 21
-3369.9999999999968
 31
0.0
1001
ACDBBLOCKREPETAG
1070
     1
1071
       15
1005
122546
  0
CIRCLE
  5
1238B6
  8
OBJECT
 10
2500.0
 20
-3459.9999999999968
 30
0.0
 40
70.0
1001
ACDBBLOCKREPETAG
1070
     1
1071
       16
1005
122547
  0
CIRCLE
  5
1238B7
  8
OBJECT
 10
2500.0
 20
-3459.9999999999968
 30
0.0
 40
75.0
1001
ACDBBLOCKREPETAG
1070
     1
1071
       17
1005
122548
  0
LINE
  5
123927
  8
CENTER
 10
2500.0
 20
-3644.9999999999991
 30
0.0
 11
2500.0
 21
-3891.9999999999991
 31
0.0
1001
ACDBBLOCKREPETAG
1070
     1
1071
       25
1005
123927
  0
LINE
  5
123928
  8
OBJECT
 10
2425.0
 20
-3659.9999999999968
 30
0.0
 11
2425.0
 21
-3879.9999999999991
 31
0.0
1001
ACDBBLOCKREPETAG
1070
     1
1071
       26
1005
123928
  0
LINE
  5
12392C
  8
OBJECT
 10
2575.0
 20
-3659.9999999999968
 30
0.0
 11
2575.0
 21
-3756.5000000000618
 31
0.0
1001
ACDBBLOCKREPETAG
1070
     1
1071
       34
1005
12392C
  0
LINE
  5
123A5C
  8
OBJECT
 10
2575.0
 20
-3862.4999999999991
 30
0.0
 11
2575.0
 21
-3879.9999999999991
 31
0.0
1001
ACDBBLOCKREPETAG
1070
     1
1071
       34
1005
12392C
  0
LINE
  5
123A5E
  8
CENTER
 10
2900.0
 20
-3644.9999999999991
 30
0.0
 11
2900.0
 21
-3891.9999999999991
 31
0.0
1001
ACDBBLOCKREPETAG
1070
     1
1071
       25
1005
123927
  0
LINE
  5
123A5F
  8
OBJECT
 10
2825.0
 20
-3659.9999999999968
 30
0.0
 11
2825.0
 21
-3879.9999999999991
 31
0.0
1001
ACDBBLOCKREPETAG
1070
     1
1071
       26
1005
123928
  0
LINE
  5
123A60
  8
OBJECT
 10
2975.0
 20
-3659.9999999999968
 30
0.0
 11
2975.0
 21
-3879.9999999999991
 31
0.0
1001
ACDBBLOCKREPETAG
1070
     1
1071
       34
1005
12392C
  0
LINE
  5
123AD2
  8
CENTER
 10
3579.9999999999991
 20
-3459.9999999999968
 30
0.0
 11
3410.0
 21
-3459.9999999999968
 31
0.0
1001
ACDBBLOCKREPETAG
1070
     1
1071
       14
1005
122545
  0
LINE
  5
123AD3
  8
CENTER
 10
3500.0
 20
-3549.9999999999968
 30
0.0
 11
3500.0
 21
-3369.9999999999968
 31
0.0
1001
ACDBBLOCKREPETAG
1070
     1
1071
       15
1005
122546
  0
CIRCLE
  5
123AD4
  8
OBJECT
 10
3500.0
 20
-3459.9999999999968
 30
0.0
 40
70.0
1001
ACDBBLOCKREPETAG
1070
     1
1071
       16
1005
122547
  0
CIRCLE
  5
123AD5
  8
OBJECT
 10
3500.0
 20
-3459.9999999999968
 30
0.0
 40
75.0
1001
ACDBBLOCKREPETAG
1070
     1
1071
       17
1005
122548
  0
LINE
  5
123ADD
  8
CENTER
 10
3500.0
 20
-3644.9999999999991
 30
0.0
 11
3500.0
 21
-3891.9999999999991
 31
0.0
1001
ACDBBLOCKREPETAG
1070
     1
1071
       25
1005
123927
  0
LINE
  5
123ADE
  8
OBJECT
 10
3424.9999999999991
 20
-3659.9999999999968
 30
0.0
 11
3424.9999999999991
 21
-3879.9999999999991
 31
0.0
1001
ACDBBLOCKREPETAG
1070
     1
1071
       26
1005
123928
  0
LINE
  5
123ADF
  8
OBJECT
 10
3574.9999999999991
 20
-3659.9999999999968
 30
0.0
 11
3574.9999999999991
 21
-3756.5000000000618
 31
0.0
1001
ACDBBLOCKREPETAG
1070
     1
1071
       34
1005
12392C
  0
LINE
  5
123AE0
  8
OBJECT
 10
3574.9999999999991
 20
-3862.4999999999991
 30
0.0
 11
3574.9999999999991
 21
-3879.9999999999991
 31
0.0
1001
ACDBBLOCKREPETAG
1070
     1
1071
       34
1005
12392C
  0
LINE
  5
123AE8
  8
CENTER
 10
3900.0
 20
-3644.9999999999991
 30
0.0
 11
3900.0
 21
-3891.9999999999991
 31
0.0
1001
ACDBBLOCKREPETAG
1070
     1
1071
       25
1005
123927
  0
LINE
  5
123AE9
  8
OBJECT
 10
3824.9999999999991
 20
-3659.9999999999968
 30
0.0
 11
3824.9999999999991
 21
-3879.9999999999991
 31
0.0
1001
ACDBBLOCKREPETAG
1070
     1
1071
       26
1005
123928
  0
LINE
  5
123AEA
  8
OBJECT
 10
3975.0
 20
-3659.9999999999968
 30
0.0
 11
3975.0
 21
-3879.9999999999991
 31
0.0
1001
ACDBBLOCKREPETAG
1070
     1
1071
       34
1005
12392C
  0
LINE
  5
123B38
  8
CENTER
 10
4579.9999999999991
 20
-3459.9999999999968
 30
0.0
 11
4409.9999999999991
 21
-3459.9999999999968
 31
0.0
1001
ACDBBLOCKREPETAG
1070
     1
1071
       14
1005
122545
  0
LINE
  5
123B39
  8
CENTER
 10
4499.9999999999991
 20
-3549.9999999999968
 30
0.0
 11
4499.9999999999991
 21
-3369.9999999999968
 31
0.0
1001
ACDBBLOCKREPETAG
1070
     1
1071
       15
1005
122546
  0
CIRCLE
  5
123B3A
  8
OBJECT
 10
4499.9999999999991
 20
-3459.9999999999968
 30
0.0
 40
70.0
1001
ACDBBLOCKREPETAG
1070
     1
1071
       16
1005
122547
  0
CIRCLE
  5
123B3B
  8
OBJECT
 10
4499.9999999999991
 20
-3459.9999999999968
 30
0.0
 40
75.0
1001
ACDBBLOCKREPETAG
1070
     1
1071
       17
1005
122548
  0
LINE
  5
123B43
  8
CENTER
 10
4500.0
 20
-3644.9999999999991
 30
0.0
 11
4500.0
 21
-3891.9999999999991
 31
0.0
1001
ACDBBLOCKREPETAG
1070
     1
1071
       25
1005
123927
  0
LINE
  5
123B44
  8
OBJECT
 10
4425.0
 20
-3659.9999999999968
 30
0.0
 11
4425.0
 21
-3879.9999999999991
 31
0.0
1001
ACDBBLOCKREPETAG
1070
     1
1071
       26
1005
123928
  0
LINE
  5
123B45
  8
OBJECT
 10
4575.0
 20
-3659.9999999999968
 30
0.0
 11
4575.0
 21
-3756.5000000000618
 31
0.0
1001
ACDBBLOCKREPETAG
1070
     1
1071
       34
1005
12392C
  0
LINE
  5
123B46
  8
OBJECT
 10
4575.0
 20
-3862.4999999999991
 30
0.0
 11
4575.0
 21
-3879.9999999999991
 31
0.0
1001
ACDBBLOCKREPETAG
1070
     1
1071
       34
1005
12392C
  0
LINE
  5
123B4E
  8
CENTER
 10
4900.0
 20
-3644.9999999999991
 30
0.0
 11
4900.0
 21
-3891.9999999999991
 31
0.0
1001
ACDBBLOCKREPETAG
1070
     1
1071
       25
1005
123927
  0
LINE
  5
123B4F
  8
OBJECT
 10
4825.0
 20
-3659.9999999999968
 30
0.0
 11
4825.0
 21
-3879.9999999999991
 31
0.0
1001
ACDBBLOCKREPETAG
1070
     1
1071
       26
1005
123928
  0
LINE
  5
123B50
  8
OBJECT
 10
4975.0
 20
-3659.9999999999968
 30
0.0
 11
4974.9999999999991
 21
-3879.9999999999991
 31
0.0
1001
ACDBBLOCKREPETAG
1070
     1
1071
       34
1005
12392C
  0
LINE
  5
12443E
  8
OBJECT
 10
8524.1029330933015
 20
-243.80694712371681
 30
0.0
 11
8520.6596569999983
 21
-232.55462199999889
 31
0.0
1001
ACDBBLOCKREPETAG
1070
     1
1071
      300
1005
12253B
  0
LINE
  5
12443F
  8
OBJECT
 10
8486.7927499013731
 20
-218.22553374208019
 30
0.0
 11
8520.6596569999983
 21
-232.5546219999969
 31
0.0
1001
ACDBBLOCKREPETAG
1070
     1
1071
      302
1005
12253C
  0
ARC
  5
124440
  8
OBJECT
 10
8482.8961697618979
 20
-227.4351299990567
 30
0.0
 40
10.0
 50
67.066778292909561
 51
154.0147343702935
1001
ACDBBLOCKREPETAG
1070
     1
1071
      303
1005
12253D
  0
ARC
  5
124441
  8
OBJECT
 10
8486.1488390381255
 20
-225.55386256729159
 30
0.0
 40
7.0
 50
67.066778292909561
 51
154.0147337749687
1001
ACDBBLOCKREPETAG
1070
     1
1071
      304
1005
12253E
  0
LINE
  5
124442
  8
OBJECT
 10
8469.4199755553018
 20
-243.89888500818171
 30
0.0
 11
8479.8564918232369
 21
-222.48688253356801
 31
0.0
1001
ACDBBLOCKREPETAG
1070
     1
1071
      341
1005
12253F
  0
LINE
  5
124443
  8
OBJECT
 10
8465.2972169006116
 20
-240.71813901882729
 30
0.0
 11
8473.9071022665084
 21
-223.05373004430751
 31
0.0
1001
ACDBBLOCKREPETAG
1070
     1
1071
      342
1005
122540
  0
ARC
  5
124444
  8
OBJECT
 10
8476.5796953073132
 20
-207.1289369828437
 30
0.0
 40
60.031113246032611
 50
314.07020130418528
 51
322.33936106091278
1001
ACDBBLOCKREPETAG
1070
     1
1071
      343
1005
122541
  0
CIRCLE
  5
124445
  8
OBJECT
 10
8500.0
 20
-199.99999999999909
 30
0.0
 40
53.5
1001
ACDBBLOCKREPETAG
1070
     1
1071
      344
1005
122542
  0
POINT
  5
124446
  8
DOTS
 10
8500.0
 20
-199.99999999999909
 30
0.0
 50
270.0
1001
ACDBBLOCKREPETAG
1070
     1
1071
      362
1005
122543
  0
ARC
  5
124447
  8
OBJECT
 10
8500.0
 20
-199.99999999999909
 30
0.0
 40
50.0
 50
298.81994300000611
 51
153.78043883603971
1001
ACDBBLOCKREPETAG
1070
     1
1071
        7
1005
122544
  0
LINE
  5
124448
  8
CENTER
 10
8580.0
 20
-199.99999999999909
 30
0.0
 11
8400.0
 21
-199.99999999999909
 31
0.0
1001
ACDBBLOCKREPETAG
1070
     1
1071
       14
1005
122545
  0
LINE
  5
124449
  8
CENTER
 10
8500.0
 20
-299.99999999999898
 30
0.0
 11
8500.0
 21
-99.999999999999091
 31
0.0
1001
ACDBBLOCKREPETAG
1070
     1
1071
       15
1005
122546
  0
CIRCLE
  5
12444A
  8
OBJECT
 10
8500.0
 20
-199.99999999999909
 30
0.0
 40
70.0
1001
ACDBBLOCKREPETAG
1070
     1
1071
       16
1005
122547
  0
CIRCLE
  5
12444B
  8
OBJECT
 10
8500.0
 20
-199.99999999999909
 30
0.0
 40
77.0
1001
ACDBBLOCKREPETAG
1070
     1
1071
       17
1005
122548
  0
ARC
  5
12444C
  8
OBJECT
 10
8500.0
 20
-199.99999999999909
 30
0.0
 40
80.0
 50
50.80503257386345
 51
309.19496742598341
1001
ACDBBLOCKREPETAG
1070
     1
1071
       18
1005
122549
  0
LINE
  5
12444E
  8
OBJECT
 10
8545.6618002273262
 20
-137.99999999999909
 30
0.0
 11
8580.0
 21
-137.99999999999909
 31
0.0
1001
ACDBBLOCKREPETAG
1070
     1
1071
       19
1005
12254A
  0
LINE
  5
12444F
  8
OBJECT
 10
8545.6618002273262
 20
-261.99999999999909
 30
0.0
 11
8580.0
 21
-261.99999999999909
 31
0.0
1001
ACDBBLOCKREPETAG
1070
     1
1071
       20
1005
12254B
  0
LINE
  5
124450
  8
OBJECT
 10
8367.0
 20
-255.0
 30
0.0
 11
8360.0
 21
-255.0
 31
0.0
1001
ACDBBLOCKREPETAG
1070
     1
1071
       20
1005
12250A
  0
LINE
  5
124451
  8
OBJECT
 10
8360.0
 20
-255.0
 30
0.0
 11
8360.0
 21
-145.0
 31
0.0
1001
ACDBBLOCKREPETAG
1070
     1
1071
       21
1005
12250B
  0
LINE
  5
124452
  8
OBJECT
 10
8360.0
 20
-145.0
 30
0.0
 11
8367.0
 21
-145.0
 31
0.0
1001
ACDBBLOCKREPETAG
1070
     1
1071
       22
1005
12250C
  0
LINE
  5
124453
  8
OBJECT
 10
8367.0
 20
-145.0
 30
0.0
 11
8367.0
 21
-255.0
 31
0.0
1001
ACDBBLOCKREPETAG
1070
     1
1071
       23
1005
12250D
  0
LINE
  5
124454
  8
CENTER
 10
8345.0
 20
-200.0
 30
0.0
 11
8420.0
 21
-200.0
 31
0.0
1001
ACDBBLOCKREPETAG
1070
     1
1071
       24
1005
12250E
  0
LINE
  5
124455
  8
OBJECT
 10
8367.0
 20
-252.0
 30
0.0
 11
8403.0
 21
-252.0
 31
0.0
1001
ACDBBLOCKREPETAG
1070
     1
1071
       25
1005
12250F
  0
LINE
  5
124456
  8
OBJECT
 10
8403.0
 20
-252.0
 30
0.0
 11
8403.0
 21
-148.0
 31
0.0
1001
ACDBBLOCKREPETAG
1070
     1
1071
       26
1005
122510
  0
LINE
  5
124457
  8
OBJECT
 10
8403.0
 20
-148.0
 30
0.0
 11
8367.0
 21
-148.0
 31
0.0
1001
ACDBBLOCKREPETAG
1070
     1
1071
       27
1005
122511
  0
LINE
  5
124458
  8
OBJECT
 10
8407.0
 20
-247.5
 30
0.0
 11
8415.4999999999982
 21
-247.5
 31
0.0
1001
ACDBBLOCKREPETAG
1070
     1
1071
       28
1005
122512
  0
LINE
  5
124459
  8
OBJECT
 10
8415.4999999999982
 20
-152.5
 30
0.0
 11
8407.0
 21
-152.5
 31
0.0
1001
ACDBBLOCKREPETAG
1070
     1
1071
       29
1005
122513
  0
LINE
  5
12445A
  8
OBJECT
 10
8407.0
 20
-152.5
 30
0.0
 11
8407.0
 21
-247.5
 31
0.0
1001
ACDBBLOCKREPETAG
1070
     1
1071
       30
1005
122514
  0
LINE
  5
12445B
  8
OBJECT
 10
8403.0
 20
-252.0
 30
0.0
 11
8407.0
 21
-247.5
 31
0.0
1001
ACDBBLOCKREPETAG
1070
     1
1071
       31
1005
122515
  0
LINE
  5
12445C
  8
OBJECT
 10
8403.0
 20
-148.0
 30
0.0
 11
8407.0
 21
-152.5
 31
0.0
1001
ACDBBLOCKREPETAG
1070
     1
1071
       32
1005
122516
  0
LINE
  5
12445D
  8
OBJECT
 10
8415.5000000000018
 20
-150.5
 30
0.0
 11
8415.4999999999982
 21
-249.5
 31
0.0
1001
ACDBBLOCKREPETAG
1070
     1
1071
       33
1005
122517
  0
LINE
  5
12445E
  8
HIDDEN
 10
8412.0
 20
-238.0
 30
0.0
 11
8412.0
 21
-162.0
 31
0.0
1001
ACDBBLOCKREPETAG
1070
     1
1071
       34
1005
122518
  0
LINE
  5
12445F
  8
OBJECT
 10
8415.4999999999982
 20
-249.5
 30
0.0
 11
8437.1529634747985
 21
-249.5
 31
0.0
1001
ACDBBLOCKREPETAG
1070
     1
1071
       35
1005
122519
  0
LINE
  5
124460
  8
OBJECT
 10
8415.5000000000018
 20
-150.5
 30
0.0
 11
8437.1529634747985
 21
-150.5
 31
0.0
1001
ACDBBLOCKREPETAG
1070
     1
1071
       36
1005
12251A
  0
ARC
  5
124461
  8
OBJECT
 10
8500.0
 20
-199.99999999999909
 30
0.0
 40
85.0
 50
46.837102859708409
 51
144.38379327149369
1001
ACDBBLOCKREPETAG
1070
     1
1071
       18
1005
122549
  0
POINT
  5
124C02
  8
DOTS
 10
2500.0
 20
-3459.9999999999968
 30
0.0
  0
POINT
  5
124C03
  8
DOTS
 10
2500.0
 20
-3864.9999999999968
 30
0.0
  0
POINT
  5
124C05
  8
DOTS
 10
3500.0
 20
-3864.9999999999968
 30
0.0
  0
POINT
  5
124C07
  8
DOTS
 10
3500.0
 20
-3459.9999999999968
 30
0.0
  0
POINT
  5
124C08
  8
DOTS
 10
4499.9999999999991
 20
-3459.9999999999968
 30
0.0
  0
POINT
  5
124C09
  8
DOTS
 10
4499.9999999999991
 20
-3864.9999999999968
 30
0.0
  0
ARC
  5
125898
  8
OBJECT
 10
8500.0
 20
-199.99999999999909
 30
0.0
 40
85.0
 50
215.61620672850799
 51
313.16289714029159
1001
ACDBBLOCKREPETAG
1070
     1
1071
       18
1005
122549
  0
LINE
  5
1258AA
  8
OBJECT
 10
8454.3220385552486
 20
-176.17579607525019
 30
0.0
 11
8453.0174047416567
 21
-174.4092645125165
 31
0.0
1001
ACDBBLOCKREPETAG
1070
     1
1071
      434
1005
1258AA
  0
ARC
  5
1258AB
  8
OBJECT
 10
8450.3000008248036
 20
-179.14618535863451
 30
0.0
 40
5.0
 50
0.0
 51
36.446922476136933
1001
ACDBBLOCKREPETAG
1070
     1
1071
      435
1005
1258AB
  0
LINE
  5
1258AC
  8
OBJECT
 10
8454.3220385553777
 20
-223.82420392469501
 30
0.0
 11
8453.0174047417386
 21
-225.5907354876407
 31
0.0
1001
ACDBBLOCKREPETAG
1070
     1
1071
      436
1005
1258AC
  0
ARC
  5
1258AD
  8
OBJECT
 10
8450.3000008248036
 20
-220.85381464148281
 30
0.0
 40
5.0
 50
323.55307752631751
 51
0.0
1001
ACDBBLOCKREPETAG
1070
     1
1071
      437
1005
1258AD
  0
LINE
  5
1258AE
  8
OBJECT
 10
8455.3000008248
 20
-220.85381464148281
 30
0.0
 11
8455.3000008248
 21
-179.14618535863451
 31
0.0
1001
ACDBBLOCKREPETAG
1070
     1
1071
      438
1005
1258AE
  0
ARC
  5
1258AF
  8
OBJECT
 10
8500.0
 20
-199.99999999999909
 30
0.0
 40
50.0
 50
206.21956116401211
 51
228.5237695596756
1001
ACDBBLOCKREPETAG
1070
     1
1071
        7
1005
122544
  0
LINE
  5
1258D1
  8
OBJECT
 10
10524.1029330933
 20
-243.80694712371681
 30
0.0
 11
10520.659656999989
 21
-232.55462199999889
 31
0.0
1001
ACDBBLOCKREPETAG
1070
     1
1071
      300
1005
12253B
  0
ARC
  5
1258D9
  8
OBJECT
 10
10482.8961697619
 20
-227.4351299990567
 30
0.0
 40
10.0
 50
67.066778292909291
 51
154.0147343702935
1001
ACDBBLOCKREPETAG
1070
     1
1071
      303
1005
12253D
  0
LINE
  5
1258DA
  8
OBJECT
 10
10486.792749901369
 20
-218.22553374208019
 30
0.0
 11
10520.659656999989
 21
-232.5546219999969
 31
0.0
1001
ACDBBLOCKREPETAG
1070
     1
1071
      302
1005
12253C
  0
ARC
  5
1258DB
  8
OBJECT
 10
10486.14883903812
 20
-225.55386256729159
 30
0.0
 40
7.0
 50
67.066778292909291
 51
154.01473377496779
1001
ACDBBLOCKREPETAG
1070
     1
1071
      304
1005
12253E
  0
LINE
  5
1258DC
  8
OBJECT
 10
10465.29721690061
 20
-240.71813901882729
 30
0.0
 11
10473.90710226651
 21
-223.05373004430751
 31
0.0
1001
ACDBBLOCKREPETAG
1070
     1
1071
      342
1005
122540
  0
LINE
  5
1258DD
  8
OBJECT
 10
10469.4199755553
 20
-243.89888500818171
 30
0.0
 11
10479.856491823241
 21
-222.48688253356801
 31
0.0
1001
ACDBBLOCKREPETAG
1070
     1
1071
      341
1005
12253F
  0
ARC
  5
1258DE
  8
OBJECT
 10
10500.0
 20
-199.99999999999909
 30
0.0
 40
50.0
 50
206.21956116401259
 51
228.52376955967571
1001
ACDBBLOCKREPETAG
1070
     1
1071
        7
1005
122544
  0
ARC
  5
1258DF
  8
OBJECT
 10
10500.0
 20
-199.99999999999909
 30
0.0
 40
50.0
 50
298.81994300000628
 51
153.7804388360407
1001
ACDBBLOCKREPETAG
1070
     1
1071
        7
1005
122544
  0
LINE
  5
1258E0
  8
CENTER
 10
10580.0
 20
-199.99999999999909
 30
0.0
 11
10400.0
 21
-199.99999999999909
 31
0.0
1001
ACDBBLOCKREPETAG
1070
     1
1071
       14
1005
122545
  0
CIRCLE
  5
1258E1
  8
OBJECT
 10
10500.0
 20
-199.99999999999909
 30
0.0
 40
53.5
1001
ACDBBLOCKREPETAG
1070
     1
1071
      344
1005
122542
  0
LINE
  5
1258E2
  8
CENTER
 10
10500.0
 20
-299.99999999999898
 30
0.0
 11
10500.0
 21
-99.999999999999091
 31
0.0
1001
ACDBBLOCKREPETAG
1070
     1
1071
       15
1005
122546
  0
ARC
  5
1258E4
  8
OBJECT
 10
10476.57969530731
 20
-207.1289369828437
 30
0.0
 40
60.031113246032611
 50
314.07020130418522
 51
322.33936106091278
1001
ACDBBLOCKREPETAG
1070
     1
1071
      343
1005
122541
  0
POINT
  5
1258E5
  8
DOTS
 10
10500.0
 20
-199.99999999999909
 30
0.0
 50
270.0
1001
ACDBBLOCKREPETAG
1070
     1
1071
      362
1005
122543
  0
CIRCLE
  5
1258E6
  8
OBJECT
 10
10500.0
 20
-199.99999999999909
 30
0.0
 40
70.0
1001
ACDBBLOCKREPETAG
1070
     1
1071
       16
1005
122547
  0
ARC
  5
1258E7
  8
OBJECT
 10
10500.0
 20
-199.99999999999909
 30
0.0
 40
80.0
 50
50.805032573863357
 51
309.1949674259846
1001
ACDBBLOCKREPETAG
1070
     1
1071
       18
1005
122549
  0
CIRCLE
  5
1258E8
  8
OBJECT
 10
10500.0
 20
-199.99999999999909
 30
0.0
 40
77.0
1001
ACDBBLOCKREPETAG
1070
     1
1071
       17
1005
122548
  0
LINE
  5
1258E9
  8
OBJECT
 10
10545.661800227321
 20
-261.99999999999909
 30
0.0
 11
10580.0
 21
-261.99999999999909
 31
0.0
1001
ACDBBLOCKREPETAG
1070
     1
1071
       20
1005
12254B
  0
LINE
  5
1258EA
  8
OBJECT
 10
10545.661800227321
 20
-137.99999999999909
 30
0.0
 11
10580.0
 21
-137.99999999999909
 31
0.0
1001
ACDBBLOCKREPETAG
1070
     1
1071
       19
1005
12254A
  0
LINE
  5
1258EB
  8
OBJECT
 10
10367.0
 20
-255.0
 30
0.0
 11
10360.0
 21
-255.0
 31
0.0
1001
ACDBBLOCKREPETAG
1070
     1
1071
       20
1005
12250A
  0
LINE
  5
1258EC
  8
OBJECT
 10
10360.0
 20
-255.0
 30
0.0
 11
10360.0
 21
-145.0
 31
0.0
1001
ACDBBLOCKREPETAG
1070
     1
1071
       21
1005
12250B
  0
LINE
  5
1258ED
  8
OBJECT
 10
10360.0
 20
-145.0
 30
0.0
 11
10367.0
 21
-145.0
 31
0.0
1001
ACDBBLOCKREPETAG
1070
     1
1071
       22
1005
12250C
  0
LINE
  5
1258EE
  8
OBJECT
 10
10367.0
 20
-145.0
 30
0.0
 11
10367.0
 21
-255.0
 31
0.0
1001
ACDBBLOCKREPETAG
1070
     1
1071
       23
1005
12250D
  0
LINE
  5
1258EF
  8
CENTER
 10
10345.0
 20
-200.0
 30
0.0
 11
10420.0
 21
-200.0
 31
0.0
1001
ACDBBLOCKREPETAG
1070
     1
1071
       24
1005
12250E
  0
LINE
  5
1258F0
  8
OBJECT
 10
10367.0
 20
-252.0
 30
0.0
 11
10403.0
 21
-252.0
 31
0.0
1001
ACDBBLOCKREPETAG
1070
     1
1071
       25
1005
12250F
  0
LINE
  5
1258F1
  8
OBJECT
 10
10403.0
 20
-252.0
 30
0.0
 11
10403.0
 21
-148.0
 31
0.0
1001
ACDBBLOCKREPETAG
1070
     1
1071
       26
1005
122510
  0
LINE
  5
1258F2
  8
OBJECT
 10
10403.0
 20
-148.0
 30
0.0
 11
10367.0
 21
-148.0
 31
0.0
1001
ACDBBLOCKREPETAG
1070
     1
1071
       27
1005
122511
  0
LINE
  5
1258F3
  8
OBJECT
 10
10407.0
 20
-247.5
 30
0.0
 11
10415.5
 21
-247.5
 31
0.0
1001
ACDBBLOCKREPETAG
1070
     1
1071
       28
1005
122512
  0
LINE
  5
1258F4
  8
OBJECT
 10
10415.5
 20
-152.5
 30
0.0
 11
10407.0
 21
-152.5
 31
0.0
1001
ACDBBLOCKREPETAG
1070
     1
1071
       29
1005
122513
  0
LINE
  5
1258F5
  8
OBJECT
 10
10407.0
 20
-152.5
 30
0.0
 11
10407.0
 21
-247.5
 31
0.0
1001
ACDBBLOCKREPETAG
1070
     1
1071
       30
1005
122514
  0
LINE
  5
1258F6
  8
OBJECT
 10
10403.0
 20
-252.0
 30
0.0
 11
10407.0
 21
-247.5
 31
0.0
1001
ACDBBLOCKREPETAG
1070
     1
1071
       31
1005
122515
  0
LINE
  5
1258F7
  8
OBJECT
 10
10403.0
 20
-148.0
 30
0.0
 11
10407.0
 21
-152.5
 31
0.0
1001
ACDBBLOCKREPETAG
1070
     1
1071
       32
1005
122516
  0
ARC
  5
1258F8
  8
OBJECT
 10
10500.0
 20
-199.99999999999909
 30
0.0
 40
85.0
 50
46.837102859712338
 51
144.3837932714905
1001
ACDBBLOCKREPETAG
1070
     1
1071
       18
1005
122549
  0
LINE
  5
1258F9
  8
OBJECT
 10
10415.5
 20
-150.5
 30
0.0
 11
10415.5
 21
-249.5
 31
0.0
1001
ACDBBLOCKREPETAG
1070
     1
1071
       33
1005
122517
  0
LINE
  5
1258FA
  8
HIDDEN
 10
10412.0
 20
-238.0
 30
0.0
 11
10412.0
 21
-162.0
 31
0.0
1001
ACDBBLOCKREPETAG
1070
     1
1071
       34
1005
122518
  0
LINE
  5
1258FB
  8
OBJECT
 10
10415.5
 20
-249.5
 30
0.0
 11
10437.1529634748
 21
-249.5
 31
0.0
1001
ACDBBLOCKREPETAG
1070
     1
1071
       35
1005
122519
  0
LINE
  5
1258FC
  8
OBJECT
 10
10415.5
 20
-150.5
 30
0.0
 11
10437.1529634748
 21
-150.5
 31
0.0
1001
ACDBBLOCKREPETAG
1070
     1
1071
       36
1005
12251A
  0
ARC
  5
1258FD
  8
OBJECT
 10
10500.0
 20
-199.99999999999909
 30
0.0
 40
85.0
 50
215.6162067285106
 51
313.16289714028773
1001
ACDBBLOCKREPETAG
1070
     1
1071
       18
1005
122549
  0
LINE
  5
1258FE
  8
OBJECT
 10
10454.32203855525
 20
-176.17579607525019
 30
0.0
 11
10453.017404741649
 21
-174.4092645125165
 31
0.0
1001
ACDBBLOCKREPETAG
1070
     1
1071
      434
1005
1258AA
  0
ARC
  5
1258FF
  8
OBJECT
 10
10450.3000008248
 20
-179.14618535863451
 30
0.0
 40
5.0
 50
0.0
 51
36.446922476137047
1001
ACDBBLOCKREPETAG
1070
     1
1071
      435
1005
1258AB
  0
LINE
  5
125900
  8
OBJECT
 10
10454.32203855537
 20
-223.82420392469501
 30
0.0
 11
10453.01740474174
 21
-225.5907354876407
 31
0.0
1001
ACDBBLOCKREPETAG
1070
     1
1071
      436
1005
1258AC
  0
ARC
  5
125901
  8
OBJECT
 10
10450.3000008248
 20
-220.85381464148281
 30
0.0
 40
5.0
 50
323.55307752631802
 51
0.0
1001
ACDBBLOCKREPETAG
1070
     1
1071
      437
1005
1258AD
  0
LINE
  5
125902
  8
OBJECT
 10
10455.3000008248
 20
-220.85381464148281
 30
0.0
 11
10455.3000008248
 21
-179.14618535863451
 31
0.0
1001
ACDBBLOCKREPETAG
1070
     1
1071
      438
1005
1258AE
  0
LINE
  5
125903
  8
OBJECT
 10
12524.1029330933
 20
-243.80694712371681
 30
0.0
 11
12520.659656999989
 21
-232.55462199999889
 31
0.0
1001
ACDBBLOCKREPETAG
1070
     1
1071
      300
1005
12253B
  0
ARC
  5
12590B
  8
OBJECT
 10
12482.8961697619
 20
-227.4351299990567
 30
0.0
 40
10.0
 50
67.066778292909291
 51
154.0147343702935
1001
ACDBBLOCKREPETAG
1070
     1
1071
      303
1005
12253D
  0
LINE
  5
12590C
  8
OBJECT
 10
12486.79274990136
 20
-218.22553374208019
 30
0.0
 11
12520.659656999989
 21
-232.5546219999969
 31
0.0
1001
ACDBBLOCKREPETAG
1070
     1
1071
      302
1005
12253C
  0
ARC
  5
12590D
  8
OBJECT
 10
12486.14883903812
 20
-225.55386256729159
 30
0.0
 40
7.0
 50
67.066778292909291
 51
154.01473377496779
1001
ACDBBLOCKREPETAG
1070
     1
1071
      304
1005
12253E
  0
LINE
  5
12590E
  8
OBJECT
 10
12465.29721690061
 20
-240.71813901882729
 30
0.0
 11
12473.90710226651
 21
-223.05373004430751
 31
0.0
1001
ACDBBLOCKREPETAG
1070
     1
1071
      342
1005
122540
  0
LINE
  5
12590F
  8
OBJECT
 10
12469.4199755553
 20
-243.89888500818171
 30
0.0
 11
12479.856491823241
 21
-222.48688253356801
 31
0.0
1001
ACDBBLOCKREPETAG
1070
     1
1071
      341
1005
12253F
  0
ARC
  5
125910
  8
OBJECT
 10
12500.0
 20
-199.99999999999909
 30
0.0
 40
50.0
 50
206.21956116400679
 51
228.52376955967571
1001
ACDBBLOCKREPETAG
1070
     1
1071
        7
1005
122544
  0
ARC
  5
125911
  8
OBJECT
 10
12500.0
 20
-199.99999999999909
 30
0.0
 40
50.0
 50
298.81994300000628
 51
153.78043883603499
1001
ACDBBLOCKREPETAG
1070
     1
1071
        7
1005
122544
  0
LINE
  5
125912
  8
CENTER
 10
12580.0
 20
-199.99999999999909
 30
0.0
 11
12400.0
 21
-199.99999999999909
 31
0.0
1001
ACDBBLOCKREPETAG
1070
     1
1071
       14
1005
122545
  0
CIRCLE
  5
125913
  8
OBJECT
 10
12500.0
 20
-199.99999999999909
 30
0.0
 40
53.5
1001
ACDBBLOCKREPETAG
1070
     1
1071
      344
1005
122542
  0
LINE
  5
125914
  8
CENTER
 10
12500.0
 20
-299.99999999999898
 30
0.0
 11
12500.0
 21
-99.999999999999091
 31
0.0
1001
ACDBBLOCKREPETAG
1070
     1
1071
       15
1005
122546
  0
ARC
  5
125916
  8
OBJECT
 10
12476.57969530731
 20
-207.1289369828437
 30
0.0
 40
60.031113246032611
 50
314.07020130418522
 51
322.33936106091278
1001
ACDBBLOCKREPETAG
1070
     1
1071
      343
1005
122541
  0
POINT
  5
125917
  8
DOTS
 10
12500.0
 20
-199.99999999999909
 30
0.0
 50
270.0
1001
ACDBBLOCKREPETAG
1070
     1
1071
      362
1005
122543
  0
CIRCLE
  5
125918
  8
OBJECT
 10
12500.0
 20
-199.99999999999909
 30
0.0
 40
70.0
1001
ACDBBLOCKREPETAG
1070
     1
1071
       16
1005
122547
  0
ARC
  5
125919
  8
OBJECT
 10
12500.0
 20
-199.99999999999909
 30
0.0
 40
80.0
 50
50.805032573863357
 51
309.19496742597448
1001
ACDBBLOCKREPETAG
1070
     1
1071
       18
1005
122549
  0
CIRCLE
  5
12591A
  8
OBJECT
 10
12500.0
 20
-199.99999999999909
 30
0.0
 40
77.0
1001
ACDBBLOCKREPETAG
1070
     1
1071
       17
1005
122548
  0
LINE
  5
12591B
  8
OBJECT
 10
12545.661800227321
 20
-261.99999999999909
 30
0.0
 11
12580.0
 21
-261.99999999999909
 31
0.0
1001
ACDBBLOCKREPETAG
1070
     1
1071
       20
1005
12254B
  0
LINE
  5
12591C
  8
OBJECT
 10
12545.661800227321
 20
-137.99999999999909
 30
0.0
 11
12580.0
 21
-137.99999999999909
 31
0.0
1001
ACDBBLOCKREPETAG
1070
     1
1071
       19
1005
12254A
  0
LINE
  5
12591D
  8
OBJECT
 10
12367.0
 20
-255.0
 30
0.0
 11
12360.0
 21
-255.0
 31
0.0
1001
ACDBBLOCKREPETAG
1070
     1
1071
       20
1005
12250A
  0
LINE
  5
12591E
  8
OBJECT
 10
12360.0
 20
-255.0
 30
0.0
 11
12360.0
 21
-145.0
 31
0.0
1001
ACDBBLOCKREPETAG
1070
     1
1071
       21
1005
12250B
  0
LINE
  5
12591F
  8
OBJECT
 10
12360.0
 20
-145.0
 30
0.0
 11
12367.0
 21
-145.0
 31
0.0
1001
ACDBBLOCKREPETAG
1070
     1
1071
       22
1005
12250C
  0
LINE
  5
125920
  8
OBJECT
 10
12367.0
 20
-145.0
 30
0.0
 11
12367.0
 21
-255.0
 31
0.0
1001
ACDBBLOCKREPETAG
1070
     1
1071
       23
1005
12250D
  0
LINE
  5
125921
  8
CENTER
 10
12345.0
 20
-200.0
 30
0.0
 11
12420.0
 21
-200.0
 31
0.0
1001
ACDBBLOCKREPETAG
1070
     1
1071
       24
1005
12250E
  0
LINE
  5
125922
  8
OBJECT
 10
12367.0
 20
-252.0
 30
0.0
 11
12403.0
 21
-252.0
 31
0.0
1001
ACDBBLOCKREPETAG
1070
     1
1071
       25
1005
12250F
  0
LINE
  5
125923
  8
OBJECT
 10
12403.0
 20
-252.0
 30
0.0
 11
12403.0
 21
-148.0
 31
0.0
1001
ACDBBLOCKREPETAG
1070
     1
1071
       26
1005
122510
  0
LINE
  5
125924
  8
OBJECT
 10
12403.0
 20
-148.0
 30
0.0
 11
12367.0
 21
-148.0
 31
0.0
1001
ACDBBLOCKREPETAG
1070
     1
1071
       27
1005
122511
  0
LINE
  5
125925
  8
OBJECT
 10
12407.0
 20
-247.5
 30
0.0
 11
12415.5
 21
-247.5
 31
0.0
1001
ACDBBLOCKREPETAG
1070
     1
1071
       28
1005
122512
  0
LINE
  5
125926
  8
OBJECT
 10
12415.5
 20
-152.5
 30
0.0
 11
12407.0
 21
-152.5
 31
0.0
1001
ACDBBLOCKREPETAG
1070
     1
1071
       29
1005
122513
  0
LINE
  5
125927
  8
OBJECT
 10
12407.0
 20
-152.5
 30
0.0
 11
12407.0
 21
-247.5
 31
0.0
1001
ACDBBLOCKREPETAG
1070
     1
1071
       30
1005
122514
  0
LINE
  5
125928
  8
OBJECT
 10
12403.0
 20
-252.0
 30
0.0
 11
12407.0
 21
-247.5
 31
0.0
1001
ACDBBLOCKREPETAG
1070
     1
1071
       31
1005
122515
  0
LINE
  5
125929
  8
OBJECT
 10
12403.0
 20
-148.0
 30
0.0
 11
12407.0
 21
-152.5
 31
0.0
1001
ACDBBLOCKREPETAG
1070
     1
1071
       32
1005
122516
  0
ARC
  5
12592A
  8
OBJECT
 10
12500.0
 20
-199.99999999999909
 30
0.0
 40
85.0
 50
46.837102859702817
 51
144.38379327149809
1001
ACDBBLOCKREPETAG
1070
     1
1071
       18
1005
122549
  0
LINE
  5
12592B
  8
OBJECT
 10
12415.5
 20
-150.5
 30
0.0
 11
12415.5
 21
-249.5
 31
0.0
1001
ACDBBLOCKREPETAG
1070
     1
1071
       33
1005
122517
  0
LINE
  5
12592C
  8
HIDDEN
 10
12412.0
 20
-238.0
 30
0.0
 11
12412.0
 21
-162.0
 31
0.0
1001
ACDBBLOCKREPETAG
1070
     1
1071
       34
1005
122518
  0
LINE
  5
12592D
  8
OBJECT
 10
12415.5
 20
-249.5
 30
0.0
 11
12437.1529634748
 21
-249.5
 31
0.0
1001
ACDBBLOCKREPETAG
1070
     1
1071
       35
1005
122519
  0
LINE
  5
12592E
  8
OBJECT
 10
12415.5
 20
-150.5
 30
0.0
 11
12437.1529634748
 21
-150.5
 31
0.0
1001
ACDBBLOCKREPETAG
1070
     1
1071
       36
1005
12251A
  0
ARC
  5
12592F
  8
OBJECT
 10
12500.0
 20
-199.99999999999909
 30
0.0
 40
85.0
 50
215.61620672850299
 51
313.1628971402971
1001
ACDBBLOCKREPETAG
1070
     1
1071
       18
1005
122549
  0
LINE
  5
125930
  8
OBJECT
 10
12454.32203855525
 20
-176.17579607525019
 30
0.0
 11
12453.017404741649
 21
-174.4092645125165
 31
0.0
1001
ACDBBLOCKREPETAG
1070
     1
1071
      434
1005
1258AA
  0
ARC
  5
125931
  8
OBJECT
 10
12450.3000008248
 20
-179.14618535863451
 30
0.0
 40
5.0
 50
0.0
 51
36.446922476137047
1001
ACDBBLOCKREPETAG
1070
     1
1071
      435
1005
1258AB
  0
LINE
  5
125932
  8
OBJECT
 10
12454.32203855537
 20
-223.82420392469501
 30
0.0
 11
12453.01740474174
 21
-225.5907354876407
 31
0.0
1001
ACDBBLOCKREPETAG
1070
     1
1071
      436
1005
1258AC
  0
ARC
  5
125933
  8
OBJECT
 10
12450.3000008248
 20
-220.85381464148281
 30
0.0
 40
5.0
 50
323.55307752631802
 51
0.0
1001
ACDBBLOCKREPETAG
1070
     1
1071
      437
1005
1258AD
  0
LINE
  5
125934
  8
OBJECT
 10
12455.3000008248
 20
-220.85381464148281
 30
0.0
 11
12455.3000008248
 21
-179.14618535863451
 31
0.0
1001
ACDBBLOCKREPETAG
1070
     1
1071
      438
1005
1258AE
  0
LINE
  5
125935
  8
OBJECT
 10
2524.1029330933011
 20
-243.8069471237157
 30
0.0
 11
2520.6596569999961
 21
-232.55462199999769
 31
0.0
1001
ACDBBLOCKREPETAG
1070
     1
1071
      300
1005
12253B
  0
ARC
  5
12593D
  8
OBJECT
 10
2482.8961697619011
 20
-227.43512999905559
 30
0.0
 40
10.0
 50
67.066778292909291
 51
154.0147343702935
1001
ACDBBLOCKREPETAG
1070
     1
1071
      303
1005
12253D
  0
LINE
  5
12593E
  8
OBJECT
 10
2486.792749901374
 20
-218.22553374207911
 30
0.0
 11
2520.6596569999961
 21
-232.5546219999957
 31
0.0
1001
ACDBBLOCKREPETAG
1070
     1
1071
      302
1005
12253C
  0
ARC
  5
12593F
  8
OBJECT
 10
2486.1488390381278
 20
-225.55386256729051
 30
0.0
 40
7.0
 50
67.066778292909291
 51
154.01473377497919
1001
ACDBBLOCKREPETAG
1070
     1
1071
      304
1005
12253E
  0
LINE
  5
125940
  8
OBJECT
 10
2465.2972169006089
 20
-240.71813901882629
 30
0.0
 11
2473.907102266508
 21
-223.05373004430641
 31
0.0
1001
ACDBBLOCKREPETAG
1070
     1
1071
      342
1005
122540
  0
LINE
  5
125941
  8
OBJECT
 10
2469.4199755553009
 20
-243.89888500818071
 30
0.0
 11
2479.856491823236
 21
-222.48688253356681
 31
0.0
1001
ACDBBLOCKREPETAG
1070
     1
1071
      341
1005
12253F
  0
ARC
  5
125942
  8
OBJECT
 10
2500.0
 20
-199.99999999999801
 30
0.0
 40
50.0
 50
206.21956116400679
 51
228.5237695596561
1001
ACDBBLOCKREPETAG
1070
     1
1071
        7
1005
122544
  0
ARC
  5
125943
  8
OBJECT
 10
2500.0
 20
-199.99999999999801
 30
0.0
 40
50.0
 50
298.81994300000628
 51
153.78043883603499
1001
ACDBBLOCKREPETAG
1070
     1
1071
        7
1005
122544
  0
LINE
  5
125944
  8
CENTER
 10
2579.9999999999991
 20
-199.99999999999801
 30
0.0
 11
2399.9999999999991
 21
-199.99999999999801
 31
0.0
1001
ACDBBLOCKREPETAG
1070
     1
1071
       14
1005
122545
  0
CIRCLE
  5
125945
  8
OBJECT
 10
2500.0
 20
-199.99999999999801
 30
0.0
 40
53.5
1001
ACDBBLOCKREPETAG
1070
     1
1071
      344
1005
122542
  0
LINE
  5
125946
  8
CENTER
 10
2500.0
 20
-294.99999999999801
 30
0.0
 11
2500.0
 21
-104.999999999998
 31
0.0
1001
ACDBBLOCKREPETAG
1070
     1
1071
       15
1005
122546
  0
ARC
  5
125948
  8
OBJECT
 10
2476.5796953073141
 20
-207.12893698284259
 30
0.0
 40
60.031113246032611
 50
314.07020130418522
 51
322.33936106089692
1001
ACDBBLOCKREPETAG
1070
     1
1071
      343
1005
122541
  0
POINT
  5
125949
  8
DOTS
 10
2500.0
 20
-199.99999999999801
 30
0.0
 50
270.0
1001
ACDBBLOCKREPETAG
1070
     1
1071
      362
1005
122543
  0
CIRCLE
  5
12594A
  8
OBJECT
 10
2500.0
 20
-199.99999999999801
 30
0.0
 40
70.0
1001
ACDBBLOCKREPETAG
1070
     1
1071
       16
1005
122547
  0
ARC
  5
12594B
  8
OBJECT
 10
2500.0
 20
-199.99999999999801
 30
0.0
 40
80.0
 50
50.805032573883572
 51
309.19496742597448
1001
ACDBBLOCKREPETAG
1070
     1
1071
       18
1005
122549
  0
CIRCLE
  5
12594C
  8
OBJECT
 10
2500.0
 20
-199.99999999999801
 30
0.0
 40
77.0
1001
ACDBBLOCKREPETAG
1070
     1
1071
       17
1005
122548
  0
LINE
  5
12594D
  8
OBJECT
 10
2545.6618002273231
 20
-261.99999999999801
 30
0.0
 11
2579.9999999999991
 21
-261.99999999999801
 31
0.0
1001
ACDBBLOCKREPETAG
1070
     1
1071
       20
1005
12254B
  0
LINE
  5
12594E
  8
OBJECT
 10
2545.6618002273231
 20
-137.99999999999801
 30
0.0
 11
2579.9999999999991
 21
-137.99999999999801
 31
0.0
1001
ACDBBLOCKREPETAG
1070
     1
1071
       19
1005
12254A
  0
LINE
  5
12594F
  8
OBJECT
 10
2366.9999999999991
 20
-254.99999999999889
 30
0.0
 11
2359.9999999999991
 21
-254.99999999999889
 31
0.0
1001
ACDBBLOCKREPETAG
1070
     1
1071
       20
1005
12250A
  0
LINE
  5
125950
  8
OBJECT
 10
2359.9999999999991
 20
-254.99999999999889
 30
0.0
 11
2359.9999999999991
 21
-144.99999999999881
 31
0.0
1001
ACDBBLOCKREPETAG
1070
     1
1071
       21
1005
12250B
  0
LINE
  5
125951
  8
OBJECT
 10
2359.9999999999991
 20
-144.99999999999881
 30
0.0
 11
2366.9999999999991
 21
-144.99999999999881
 31
0.0
1001
ACDBBLOCKREPETAG
1070
     1
1071
       22
1005
12250C
  0
LINE
  5
125952
  8
OBJECT
 10
2366.9999999999991
 20
-144.99999999999881
 30
0.0
 11
2366.9999999999991
 21
-254.99999999999889
 31
0.0
1001
ACDBBLOCKREPETAG
1070
     1
1071
       23
1005
12250D
  0
LINE
  5
125953
  8
CENTER
 10
2344.9999999999991
 20
-199.99999999999889
 30
0.0
 11
2419.9999999999991
 21
-199.99999999999889
 31
0.0
1001
ACDBBLOCKREPETAG
1070
     1
1071
       24
1005
12250E
  0
LINE
  5
125954
  8
OBJECT
 10
2366.9999999999991
 20
-251.99999999999889
 30
0.0
 11
2402.9999999999991
 21
-251.99999999999889
 31
0.0
1001
ACDBBLOCKREPETAG
1070
     1
1071
       25
1005
12250F
  0
LINE
  5
125955
  8
OBJECT
 10
2402.9999999999991
 20
-251.99999999999889
 30
0.0
 11
2402.9999999999991
 21
-147.99999999999881
 31
0.0
1001
ACDBBLOCKREPETAG
1070
     1
1071
       26
1005
122510
  0
LINE
  5
125956
  8
OBJECT
 10
2402.9999999999991
 20
-147.99999999999881
 30
0.0
 11
2366.9999999999991
 21
-147.99999999999881
 31
0.0
1001
ACDBBLOCKREPETAG
1070
     1
1071
       27
1005
122511
  0
LINE
  5
125957
  8
OBJECT
 10
2407.0
 20
-247.49999999999889
 30
0.0
 11
2415.4999999999991
 21
-247.49999999999889
 31
0.0
1001
ACDBBLOCKREPETAG
1070
     1
1071
       28
1005
122512
  0
LINE
  5
125958
  8
OBJECT
 10
2415.4999999999991
 20
-152.49999999999881
 30
0.0
 11
2407.0
 21
-152.49999999999881
 31
0.0
1001
ACDBBLOCKREPETAG
1070
     1
1071
       29
1005
122513
  0
LINE
  5
125959
  8
OBJECT
 10
2407.0
 20
-152.49999999999881
 30
0.0
 11
2407.0
 21
-247.49999999999889
 31
0.0
1001
ACDBBLOCKREPETAG
1070
     1
1071
       30
1005
122514
  0
LINE
  5
12595A
  8
OBJECT
 10
2402.9999999999991
 20
-251.99999999999889
 30
0.0
 11
2407.0
 21
-247.49999999999889
 31
0.0
1001
ACDBBLOCKREPETAG
1070
     1
1071
       31
1005
122515
  0
LINE
  5
12595B
  8
OBJECT
 10
2402.9999999999991
 20
-147.99999999999881
 30
0.0
 11
2407.0
 21
-152.49999999999881
 31
0.0
1001
ACDBBLOCKREPETAG
1070
     1
1071
       32
1005
122516
  0
LINE
  5
12595D
  8
OBJECT
 10
2415.5000000000009
 20
-150.49999999999881
 30
0.0
 11
2415.4999999999991
 21
-249.49999999999889
 31
0.0
1001
ACDBBLOCKREPETAG
1070
     1
1071
       33
1005
122517
  0
LINE
  5
12595E
  8
HIDDEN
 10
2411.9999999999991
 20
-237.99999999999889
 30
0.0
 11
2411.9999999999991
 21
-161.99999999999881
 31
0.0
1001
ACDBBLOCKREPETAG
1070
     1
1071
       34
1005
122518
  0
LINE
  5
12595F
  8
OBJECT
 10
2415.4999999999991
 20
-249.49999999999889
 30
0.0
 11
2437.1529634747981
 21
-249.49999999999889
 31
0.0
1001
ACDBBLOCKREPETAG
1070
     1
1071
       35
1005
122519
  0
LINE
  5
125960
  8
OBJECT
 10
2415.5000000000009
 20
-150.49999999999881
 30
0.0
 11
2437.1529634747981
 21
-150.49999999999881
 31
0.0
1001
ACDBBLOCKREPETAG
1070
     1
1071
       36
1005
12251A
  0
LINE
  5
125962
  8
OBJECT
 10
2454.3220385552481
 20
-176.17579607524911
 30
0.0
 11
2453.0174047416531
 21
-174.40926451251539
 31
0.0
1001
ACDBBLOCKREPETAG
1070
     1
1071
      434
1005
1258AA
  0
ARC
  5
125963
  8
OBJECT
 10
2450.3000008247991
 20
-179.1461853586334
 30
0.0
 40
5.0
 50
0.0
 51
36.446922476137047
1001
ACDBBLOCKREPETAG
1070
     1
1071
      435
1005
1258AB
  0
LINE
  5
125964
  8
OBJECT
 10
2454.322038555375
 20
-223.8242039246939
 30
0.0
 11
2453.0174047417381
 21
-225.59073548763959
 31
0.0
1001
ACDBBLOCKREPETAG
1070
     1
1071
      436
1005
1258AC
  0
ARC
  5
125965
  8
OBJECT
 10
2450.3000008247991
 20
-220.8538146414817
 30
0.0
 40
5.0
 50
323.55307752631802
 51
0.0
1001
ACDBBLOCKREPETAG
1070
     1
1071
      437
1005
1258AD
  0
LINE
  5
125966
  8
OBJECT
 10
2455.3000008247991
 20
-220.8538146414817
 30
0.0
 11
2455.3000008247991
 21
-179.1461853586334
 31
0.0
1001
ACDBBLOCKREPETAG
1070
     1
1071
      438
1005
1258AE
  0
LINE
  5
125967
  8
OBJECT
 10
4524.1029330933006
 20
-243.8069471237157
 30
0.0
 11
4520.6596569999938
 21
-232.55462199999769
 31
0.0
1001
ACDBBLOCKREPETAG
1070
     1
1071
      300
1005
12253B
  0
ARC
  5
12596F
  8
OBJECT
 10
4482.8961697618988
 20
-227.43512999905559
 30
0.0
 40
10.0
 50
67.066778292909234
 51
154.0147343702935
1001
ACDBBLOCKREPETAG
1070
     1
1071
      303
1005
12253D
  0
LINE
  5
125970
  8
OBJECT
 10
4486.792749901374
 20
-218.22553374207911
 30
0.0
 11
4520.6596569999938
 21
-232.5546219999957
 31
0.0
1001
ACDBBLOCKREPETAG
1070
     1
1071
      302
1005
12253C
  0
ARC
  5
125971
  8
OBJECT
 10
4486.1488390381273
 20
-225.55386256729051
 30
0.0
 40
7.0
 50
67.066778292909234
 51
154.01473377498201
1001
ACDBBLOCKREPETAG
1070
     1
1071
      304
1005
12253E
  0
LINE
  5
125972
  8
OBJECT
 10
4465.2972169006089
 20
-240.71813901882629
 30
0.0
 11
4473.9071022665057
 21
-223.05373004430641
 31
0.0
1001
ACDBBLOCKREPETAG
1070
     1
1071
      342
1005
122540
  0
LINE
  5
125973
  8
OBJECT
 10
4469.4199755552991
 20
-243.89888500818071
 30
0.0
 11
4479.856491823236
 21
-222.48688253356681
 31
0.0
1001
ACDBBLOCKREPETAG
1070
     1
1071
      341
1005
12253F
  0
ARC
  5
125974
  8
OBJECT
 10
4499.9999999999991
 20
-199.99999999999801
 30
0.0
 40
50.0
 50
206.21956116400821
 51
228.5237695596575
1001
ACDBBLOCKREPETAG
1070
     1
1071
        7
1005
122544
  0
ARC
  5
125975
  8
OBJECT
 10
4499.9999999999991
 20
-199.99999999999801
 30
0.0
 40
50.0
 50
298.81994300000628
 51
153.78043883603681
1001
ACDBBLOCKREPETAG
1070
     1
1071
        7
1005
122544
  0
LINE
  5
125976
  8
CENTER
 10
4579.9999999999991
 20
-199.99999999999801
 30
0.0
 11
4399.9999999999991
 21
-199.99999999999801
 31
0.0
1001
ACDBBLOCKREPETAG
1070
     1
1071
       14
1005
122545
  0
CIRCLE
  5
125977
  8
OBJECT
 10
4499.9999999999991
 20
-199.99999999999801
 30
0.0
 40
53.5
1001
ACDBBLOCKREPETAG
1070
     1
1071
      344
1005
122542
  0
LINE
  5
125978
  8
CENTER
 10
4499.9999999999991
 20
-294.99999999999801
 30
0.0
 11
4499.9999999999991
 21
-104.999999999998
 31
0.0
1001
ACDBBLOCKREPETAG
1070
     1
1071
       15
1005
122546
  0
ARC
  5
125979
  8
OBJECT
 10
4476.5796953073141
 20
-207.12893698284259
 30
0.0
 40
60.031113246032611
 50
314.07020130418522
 51
322.33936106089487
1001
ACDBBLOCKREPETAG
1070
     1
1071
      343
1005
122541
  0
POINT
  5
12597A
  8
DOTS
 10
4499.9999999999991
 20
-199.99999999999801
 30
0.0
 50
270.0
1001
ACDBBLOCKREPETAG
1070
     1
1071
      362
1005
122543
  0
CIRCLE
  5
12597B
  8
OBJECT
 10
4499.9999999999991
 20
-199.99999999999801
 30
0.0
 40
70.0
1001
ACDBBLOCKREPETAG
1070
     1
1071
       16
1005
122547
  0
ARC
  5
12597C
  8
OBJECT
 10
4499.9999999999991
 20
-199.99999999999801
 30
0.0
 40
80.0
 50
50.805032573881491
 51
309.1949674259709
1001
ACDBBLOCKREPETAG
1070
     1
1071
       18
1005
122549
  0
CIRCLE
  5
12597D
  8
OBJECT
 10
4499.9999999999991
 20
-199.99999999999801
 30
0.0
 40
77.0
1001
ACDBBLOCKREPETAG
1070
     1
1071
       17
1005
122548
  0
LINE
  5
12597E
  8
OBJECT
 10
4545.6618002273244
 20
-261.99999999999801
 30
0.0
 11
4579.9999999999991
 21
-261.99999999999801
 31
0.0
1001
ACDBBLOCKREPETAG
1070
     1
1071
       20
1005
12254B
  0
LINE
  5
12597F
  8
OBJECT
 10
4545.6618002273244
 20
-137.99999999999801
 30
0.0
 11
4579.9999999999991
 21
-137.99999999999801
 31
0.0
1001
ACDBBLOCKREPETAG
1070
     1
1071
       19
1005
12254A
  0
LINE
  5
125980
  8
OBJECT
 10
4366.9999999999991
 20
-254.99999999999889
 30
0.0
 11
4359.9999999999991
 21
-254.99999999999889
 31
0.0
1001
ACDBBLOCKREPETAG
1070
     1
1071
       20
1005
12250A
  0
LINE
  5
125981
  8
OBJECT
 10
4359.9999999999991
 20
-254.99999999999889
 30
0.0
 11
4359.9999999999991
 21
-144.99999999999881
 31
0.0
1001
ACDBBLOCKREPETAG
1070
     1
1071
       21
1005
12250B
  0
LINE
  5
125982
  8
OBJECT
 10
4359.9999999999991
 20
-144.99999999999881
 30
0.0
 11
4366.9999999999991
 21
-144.99999999999881
 31
0.0
1001
ACDBBLOCKREPETAG
1070
     1
1071
       22
1005
12250C
  0
LINE
  5
125983
  8
OBJECT
 10
4366.9999999999991
 20
-144.99999999999881
 30
0.0
 11
4366.9999999999991
 21
-254.99999999999889
 31
0.0
1001
ACDBBLOCKREPETAG
1070
     1
1071
       23
1005
12250D
  0
LINE
  5
125984
  8
CENTER
 10
4344.9999999999982
 20
-199.99999999999889
 30
0.0
 11
4419.9999999999991
 21
-199.99999999999889
 31
0.0
1001
ACDBBLOCKREPETAG
1070
     1
1071
       24
1005
12250E
  0
LINE
  5
125985
  8
OBJECT
 10
4366.9999999999991
 20
-251.99999999999889
 30
0.0
 11
4402.9999999999991
 21
-251.99999999999889
 31
0.0
1001
ACDBBLOCKREPETAG
1070
     1
1071
       25
1005
12250F
  0
LINE
  5
125986
  8
OBJECT
 10
4402.9999999999991
 20
-251.99999999999889
 30
0.0
 11
4402.9999999999991
 21
-147.99999999999881
 31
0.0
1001
ACDBBLOCKREPETAG
1070
     1
1071
       26
1005
122510
  0
LINE
  5
125987
  8
OBJECT
 10
4402.9999999999991
 20
-147.99999999999881
 30
0.0
 11
4366.9999999999991
 21
-147.99999999999881
 31
0.0
1001
ACDBBLOCKREPETAG
1070
     1
1071
       27
1005
122511
  0
LINE
  5
125988
  8
OBJECT
 10
4406.9999999999991
 20
-247.49999999999889
 30
0.0
 11
4415.4999999999991
 21
-247.49999999999889
 31
0.0
1001
ACDBBLOCKREPETAG
1070
     1
1071
       28
1005
122512
  0
LINE
  5
125989
  8
OBJECT
 10
4415.4999999999991
 20
-152.49999999999881
 30
0.0
 11
4406.9999999999991
 21
-152.49999999999881
 31
0.0
1001
ACDBBLOCKREPETAG
1070
     1
1071
       29
1005
122513
  0
LINE
  5
12598A
  8
OBJECT
 10
4406.9999999999991
 20
-152.49999999999881
 30
0.0
 11
4406.9999999999991
 21
-247.49999999999889
 31
0.0
1001
ACDBBLOCKREPETAG
1070
     1
1071
       30
1005
122514
  0
LINE
  5
12598B
  8
OBJECT
 10
4402.9999999999991
 20
-251.99999999999889
 30
0.0
 11
4406.9999999999991
 21
-247.49999999999889
 31
0.0
1001
ACDBBLOCKREPETAG
1070
     1
1071
       31
1005
122515
  0
LINE
  5
12598C
  8
OBJECT
 10
4402.9999999999991
 20
-147.99999999999881
 30
0.0
 11
4406.9999999999991
 21
-152.49999999999881
 31
0.0
1001
ACDBBLOCKREPETAG
1070
     1
1071
       32
1005
122516
  0
LINE
  5
12598D
  8
OBJECT
 10
4415.5
 20
-150.49999999999881
 30
0.0
 11
4415.4999999999991
 21
-249.49999999999889
 31
0.0
1001
ACDBBLOCKREPETAG
1070
     1
1071
       33
1005
122517
  0
LINE
  5
12598E
  8
HIDDEN
 10
4411.9999999999991
 20
-237.99999999999889
 30
0.0
 11
4411.9999999999991
 21
-161.99999999999881
 31
0.0
1001
ACDBBLOCKREPETAG
1070
     1
1071
       34
1005
122518
  0
LINE
  5
12598F
  8
OBJECT
 10
4415.4999999999991
 20
-249.49999999999889
 30
0.0
 11
4437.1529634747967
 21
-249.49999999999889
 31
0.0
1001
ACDBBLOCKREPETAG
1070
     1
1071
       35
1005
122519
  0
LINE
  5
125990
  8
OBJECT
 10
4415.5
 20
-150.49999999999881
 30
0.0
 11
4437.1529634747967
 21
-150.49999999999881
 31
0.0
1001
ACDBBLOCKREPETAG
1070
     1
1071
       36
1005
12251A
  0
LINE
  5
125991
  8
OBJECT
 10
4454.3220385552477
 20
-176.17579607524911
 30
0.0
 11
4453.0174047416522
 21
-174.40926451251539
 31
0.0
1001
ACDBBLOCKREPETAG
1070
     1
1071
      434
1005
1258AA
  0
ARC
  5
125992
  8
OBJECT
 10
4450.3000008247991
 20
-179.1461853586334
 30
0.0
 40
5.0
 50
0.0
 51
36.446922476137139
1001
ACDBBLOCKREPETAG
1070
     1
1071
      435
1005
1258AB
  0
LINE
  5
125993
  8
OBJECT
 10
4454.322038555375
 20
-223.8242039246939
 30
0.0
 11
4453.0174047417368
 21
-225.59073548763959
 31
0.0
1001
ACDBBLOCKREPETAG
1070
     1
1071
      436
1005
1258AC
  0
ARC
  5
125994
  8
OBJECT
 10
4450.3000008247991
 20
-220.8538146414817
 30
0.0
 40
5.0
 50
323.55307752631819
 51
0.0
1001
ACDBBLOCKREPETAG
1070
     1
1071
      437
1005
1258AD
  0
LINE
  5
125995
  8
OBJECT
 10
4455.3000008247991
 20
-220.8538146414817
 30
0.0
 11
4455.3000008247991
 21
-179.1461853586334
 31
0.0
1001
ACDBBLOCKREPETAG
1070
     1
1071
      438
1005
1258AE
  0
LINE
  5
125996
  8
OBJECT
 10
6524.1029330932997
 20
-243.8069471237157
 30
0.0
 11
6520.6596569999947
 21
-232.55462199999769
 31
0.0
1001
ACDBBLOCKREPETAG
1070
     1
1071
      300
1005
12253B
  0
ARC
  5
12599E
  8
OBJECT
 10
6482.8961697618988
 20
-227.43512999905559
 30
0.0
 40
10.0
 50
67.066778292909234
 51
154.0147343702935
1001
ACDBBLOCKREPETAG
1070
     1
1071
      303
1005
12253D
  0
LINE
  5
12599F
  8
OBJECT
 10
6486.7927499013749
 20
-218.22553374207911
 30
0.0
 11
6520.6596569999947
 21
-232.5546219999957
 31
0.0
1001
ACDBBLOCKREPETAG
1070
     1
1071
      302
1005
12253C
  0
ARC
  5
1259A0
  8
OBJECT
 10
6486.1488390381273
 20
-225.55386256729051
 30
0.0
 40
7.0
 50
67.066778292909234
 51
154.01473377497621
1001
ACDBBLOCKREPETAG
1070
     1
1071
      304
1005
12253E
  0
LINE
  5
1259A1
  8
OBJECT
 10
6465.2972169006089
 20
-240.71813901882629
 30
0.0
 11
6473.9071022665066
 21
-223.05373004430641
 31
0.0
1001
ACDBBLOCKREPETAG
1070
     1
1071
      342
1005
122540
  0
LINE
  5
1259A2
  8
OBJECT
 10
6469.4199755553009
 20
-243.89888500818071
 30
0.0
 11
6479.856491823236
 21
-222.48688253356681
 31
0.0
1001
ACDBBLOCKREPETAG
1070
     1
1071
      341
1005
12253F
  0
ARC
  5
1259A3
  8
OBJECT
 10
6499.9999999999991
 20
-199.99999999999801
 30
0.0
 40
50.0
 50
206.2195611640025
 51
228.5237695596478
1001
ACDBBLOCKREPETAG
1070
     1
1071
        7
1005
122544
  0
ARC
  5
1259A4
  8
OBJECT
 10
6499.9999999999991
 20
-199.99999999999801
 30
0.0
 40
50.0
 50
298.81994300000628
 51
153.78043883603121
1001
ACDBBLOCKREPETAG
1070
     1
1071
        7
1005
122544
  0
LINE
  5
1259A5
  8
CENTER
 10
6580.0
 20
-199.99999999999801
 30
0.0
 11
6399.9999999999991
 21
-199.99999999999801
 31
0.0
1001
ACDBBLOCKREPETAG
1070
     1
1071
       14
1005
122545
  0
CIRCLE
  5
1259A6
  8
OBJECT
 10
6499.9999999999991
 20
-199.99999999999801
 30
0.0
 40
53.5
1001
ACDBBLOCKREPETAG
1070
     1
1071
      344
1005
122542
  0
LINE
  5
1259A7
  8
CENTER
 10
6499.9999999999991
 20
-294.99999999999801
 30
0.0
 11
6499.9999999999991
 21
-104.999999999998
 31
0.0
1001
ACDBBLOCKREPETAG
1070
     1
1071
       15
1005
122546
  0
ARC
  5
1259A8
  8
OBJECT
 10
6476.5796953073141
 20
-207.12893698284259
 30
0.0
 40
60.031113246032611
 50
314.07020130418522
 51
322.33936106090289
1001
ACDBBLOCKREPETAG
1070
     1
1071
      343
1005
122541
  0
POINT
  5
1259A9
  8
DOTS
 10
6499.9999999999991
 20
-199.99999999999801
 30
0.0
 50
270.0
1001
ACDBBLOCKREPETAG
1070
     1
1071
      362
1005
122543
  0
CIRCLE
  5
1259AA
  8
OBJECT
 10
6499.9999999999991
 20
-199.99999999999801
 30
0.0
 40
70.0
1001
ACDBBLOCKREPETAG
1070
     1
1071
       16
1005
122547
  0
ARC
  5
1259AB
  8
OBJECT
 10
6499.9999999999991
 20
-199.99999999999801
 30
0.0
 40
80.0
 50
50.805032573891587
 51
309.1949674259709
1001
ACDBBLOCKREPETAG
1070
     1
1071
       18
1005
122549
  0
CIRCLE
  5
1259AC
  8
OBJECT
 10
6499.9999999999991
 20
-199.99999999999801
 30
0.0
 40
77.0
1001
ACDBBLOCKREPETAG
1070
     1
1071
       17
1005
122548
  0
LINE
  5
1259AD
  8
OBJECT
 10
6545.6618002273208
 20
-261.99999999999801
 30
0.0
 11
6580.0
 21
-261.99999999999801
 31
0.0
1001
ACDBBLOCKREPETAG
1070
     1
1071
       20
1005
12254B
  0
LINE
  5
1259AE
  8
OBJECT
 10
6545.6618002273208
 20
-137.99999999999801
 30
0.0
 11
6580.0
 21
-137.99999999999801
 31
0.0
1001
ACDBBLOCKREPETAG
1070
     1
1071
       19
1005
12254A
  0
LINE
  5
1259AF
  8
OBJECT
 10
6366.9999999999991
 20
-254.99999999999889
 30
0.0
 11
6359.9999999999991
 21
-254.99999999999889
 31
0.0
1001
ACDBBLOCKREPETAG
1070
     1
1071
       20
1005
12250A
  0
LINE
  5
1259B0
  8
OBJECT
 10
6359.9999999999991
 20
-254.99999999999889
 30
0.0
 11
6359.9999999999991
 21
-144.99999999999881
 31
0.0
1001
ACDBBLOCKREPETAG
1070
     1
1071
       21
1005
12250B
  0
LINE
  5
1259B1
  8
OBJECT
 10
6359.9999999999991
 20
-144.99999999999881
 30
0.0
 11
6366.9999999999991
 21
-144.99999999999881
 31
0.0
1001
ACDBBLOCKREPETAG
1070
     1
1071
       22
1005
12250C
  0
LINE
  5
1259B2
  8
OBJECT
 10
6366.9999999999991
 20
-144.99999999999881
 30
0.0
 11
6366.9999999999991
 21
-254.99999999999889
 31
0.0
1001
ACDBBLOCKREPETAG
1070
     1
1071
       23
1005
12250D
  0
LINE
  5
1259B3
  8
CENTER
 10
6344.9999999999991
 20
-199.99999999999889
 30
0.0
 11
6419.9999999999991
 21
-199.99999999999889
 31
0.0
1001
ACDBBLOCKREPETAG
1070
     1
1071
       24
1005
12250E
  0
LINE
  5
1259B4
  8
OBJECT
 10
6366.9999999999991
 20
-251.99999999999889
 30
0.0
 11
6402.9999999999973
 21
-251.99999999999889
 31
0.0
1001
ACDBBLOCKREPETAG
1070
     1
1071
       25
1005
12250F
  0
LINE
  5
1259B5
  8
OBJECT
 10
6402.9999999999973
 20
-251.99999999999889
 30
0.0
 11
6402.9999999999973
 21
-147.99999999999881
 31
0.0
1001
ACDBBLOCKREPETAG
1070
     1
1071
       26
1005
122510
  0
LINE
  5
1259B6
  8
OBJECT
 10
6402.9999999999973
 20
-147.99999999999881
 30
0.0
 11
6366.9999999999991
 21
-147.99999999999881
 31
0.0
1001
ACDBBLOCKREPETAG
1070
     1
1071
       27
1005
122511
  0
LINE
  5
1259B7
  8
OBJECT
 10
6407.0
 20
-247.49999999999889
 30
0.0
 11
6415.4999999999973
 21
-247.49999999999889
 31
0.0
1001
ACDBBLOCKREPETAG
1070
     1
1071
       28
1005
122512
  0
LINE
  5
1259B8
  8
OBJECT
 10
6415.4999999999973
 20
-152.49999999999881
 30
0.0
 11
6407.0
 21
-152.49999999999881
 31
0.0
1001
ACDBBLOCKREPETAG
1070
     1
1071
       29
1005
122513
  0
LINE
  5
1259B9
  8
OBJECT
 10
6407.0
 20
-152.49999999999881
 30
0.0
 11
6407.0
 21
-247.49999999999889
 31
0.0
1001
ACDBBLOCKREPETAG
1070
     1
1071
       30
1005
122514
  0
LINE
  5
1259BA
  8
OBJECT
 10
6402.9999999999973
 20
-251.99999999999889
 30
0.0
 11
6407.0
 21
-247.49999999999889
 31
0.0
1001
ACDBBLOCKREPETAG
1070
     1
1071
       31
1005
122515
  0
LINE
  5
1259BB
  8
OBJECT
 10
6402.9999999999973
 20
-147.99999999999881
 30
0.0
 11
6407.0
 21
-152.49999999999881
 31
0.0
1001
ACDBBLOCKREPETAG
1070
     1
1071
       32
1005
122516
  0
LINE
  5
1259BC
  8
OBJECT
 10
6415.5000000000009
 20
-150.49999999999881
 30
0.0
 11
6415.4999999999973
 21
-249.49999999999889
 31
0.0
1001
ACDBBLOCKREPETAG
1070
     1
1071
       33
1005
122517
  0
LINE
  5
1259BD
  8
HIDDEN
 10
6411.9999999999991
 20
-237.99999999999889
 30
0.0
 11
6411.9999999999991
 21
-161.99999999999881
 31
0.0
1001
ACDBBLOCKREPETAG
1070
     1
1071
       34
1005
122518
  0
LINE
  5
1259BE
  8
OBJECT
 10
6415.4999999999973
 20
-249.49999999999889
 30
0.0
 11
6437.1529634747967
 21
-249.49999999999889
 31
0.0
1001
ACDBBLOCKREPETAG
1070
     1
1071
       35
1005
122519
  0
LINE
  5
1259BF
  8
OBJECT
 10
6415.5000000000009
 20
-150.49999999999881
 30
0.0
 11
6437.1529634747967
 21
-150.49999999999881
 31
0.0
1001
ACDBBLOCKREPETAG
1070
     1
1071
       36
1005
12251A
  0
LINE
  5
1259C0
  8
OBJECT
 10
6454.3220385552468
 20
-176.17579607524911
 30
0.0
 11
6453.0174047416504
 21
-174.40926451251539
 31
0.0
1001
ACDBBLOCKREPETAG
1070
     1
1071
      434
1005
1258AA
  0
ARC
  5
1259C1
  8
OBJECT
 10
6450.3000008248
 20
-179.1461853586334
 30
0.0
 40
5.0
 50
0.0
 51
36.446922476137139
1001
ACDBBLOCKREPETAG
1070
     1
1071
      435
1005
1258AB
  0
LINE
  5
1259C2
  8
OBJECT
 10
6454.322038555375
 20
-223.8242039246939
 30
0.0
 11
6453.0174047417368
 21
-225.59073548763959
 31
0.0
1001
ACDBBLOCKREPETAG
1070
     1
1071
      436
1005
1258AC
  0
ARC
  5
1259C3
  8
OBJECT
 10
6450.3000008248
 20
-220.8538146414817
 30
0.0
 40
5.0
 50
323.55307752631819
 51
0.0
1001
ACDBBLOCKREPETAG
1070
     1
1071
      437
1005
1258AD
  0
LINE
  5
1259C4
  8
OBJECT
 10
6455.3000008247982
 20
-220.8538146414817
 30
0.0
 11
6455.3000008247982
 21
-179.1461853586334
 31
0.0
1001
ACDBBLOCKREPETAG
1070
     1
1071
      438
1005
1258AE
  0
LINE
  5
126B6A
  8
OBJECT
 10
242.00000000000699
 20
-1556.999999999998
 30
0.0
 11
242.00000000000699
 21
-1563.999999999998
 31
0.0
1001
ACDBBLOCKREPETAG
1070
     1
1071
       34
1005
126B6A
  0
LINE
  5
126B6B
  8
OBJECT
 10
242.00000000000699
 20
-1563.999999999998
 30
0.0
 11
118.00000000000701
 21
-1563.999999999998
 31
0.0
1001
ACDBBLOCKREPETAG
1070
     1
1071
       35
1005
126B6B
  0
LINE
  5
126B6C
  8
OBJECT
 10
118.00000000000701
 20
-1563.999999999998
 30
0.0
 11
118.00000000000701
 21
-1556.999999999998
 31
0.0
1001
ACDBBLOCKREPETAG
1070
     1
1071
       36
1005
126B6C
  0
LINE
  5
126B6D
  8
OBJECT
 10
118.00000000000701
 20
-1556.999999999998
 30
0.0
 11
242.00000000000699
 21
-1556.999999999998
 31
0.0
1001
ACDBBLOCKREPETAG
1070
     1
1071
       37
1005
126B6D
  0
LINE
  5
126B6E
  8
OBJECT
 10
239.00000000000711
 20
-1556.999999999998
 30
0.0
 11
239.00000000000711
 21
-1520.999999999998
 31
0.0
1001
ACDBBLOCKREPETAG
1070
     1
1071
       38
1005
126B6E
  0
LINE
  5
126B6F
  8
OBJECT
 10
239.00000000000711
 20
-1520.999999999998
 30
0.0
 11
121.00000000000701
 21
-1520.999999999998
 31
0.0
1001
ACDBBLOCKREPETAG
1070
     1
1071
       39
1005
126B6F
  0
LINE
  5
126B70
  8
OBJECT
 10
121.00000000000701
 20
-1520.999999999998
 30
0.0
 11
121.00000000000701
 21
-1556.999999999998
 31
0.0
1001
ACDBBLOCKREPETAG
1070
     1
1071
       40
1005
126B70
  0
LINE
  5
126B71
  8
OBJECT
 10
234.50000000000699
 20
-1516.999999999998
 30
0.0
 11
234.50000000000699
 21
-1506.499999999998
 31
0.0
1001
ACDBBLOCKREPETAG
1070
     1
1071
       41
1005
126B71
  0
LINE
  5
126B72
  8
OBJECT
 10
125.50000000000701
 20
-1506.499999999998
 30
0.0
 11
125.50000000000701
 21
-1516.999999999998
 31
0.0
1001
ACDBBLOCKREPETAG
1070
     1
1071
       42
1005
126B72
  0
LINE
  5
126B73
  8
OBJECT
 10
125.50000000000701
 20
-1516.999999999998
 30
0.0
 11
234.50000000000699
 21
-1516.999999999998
 31
0.0
1001
ACDBBLOCKREPETAG
1070
     1
1071
       43
1005
126B73
  0
LINE
  5
126B74
  8
OBJECT
 10
239.00000000000711
 20
-1520.999999999998
 30
0.0
 11
234.50000000000699
 21
-1516.999999999998
 31
0.0
1001
ACDBBLOCKREPETAG
1070
     1
1071
       44
1005
126B74
  0
LINE
  5
126B75
  8
OBJECT
 10
121.00000000000701
 20
-1520.999999999998
 30
0.0
 11
125.50000000000701
 21
-1516.999999999998
 31
0.0
1001
ACDBBLOCKREPETAG
1070
     1
1071
       45
1005
126B75
  0
LINE
  5
126B76
  8
OBJECT
 10
229.50000000000699
 20
-1501.499999999998
 30
0.0
 11
229.5000000000062
 21
-1480.344919912977
 31
0.0
1001
ACDBBLOCKREPETAG
1070
     1
1071
       46
1005
126B76
  0
LINE
  5
126B77
  8
OBJECT
 10
130.50000000000699
 20
-1501.499999999998
 30
0.0
 11
130.50000000000699
 21
-1480.3449199129759
 31
0.0
1001
ACDBBLOCKREPETAG
1070
     1
1071
       47
1005
126B77
  0
LINE
  5
126B78
  8
OBJECT
 10
234.50000000000699
 20
-1506.499999999998
 30
0.0
 11
125.50000000000701
 21
-1506.499999999998
 31
0.0
1001
ACDBBLOCKREPETAG
1070
     1
1071
       48
1005
126B78
  0
LINE
  5
126B79
  8
OBJECT
 10
229.50000000000699
 20
-1501.499999999998
 30
0.0
 11
130.50000000000699
 21
-1501.499999999998
 31
0.0
1001
ACDBBLOCKREPETAG
1070
     1
1071
       49
1005
126B79
  0
LINE
  5
126B7A
  8
OBJECT
 10
234.50000000000699
 20
-1506.499999999998
 30
0.0
 11
229.50000000000699
 21
-1501.499999999998
 31
0.0
1001
ACDBBLOCKREPETAG
1070
     1
1071
       50
1005
126B7A
  0
LINE
  5
126B7B
  8
OBJECT
 10
130.50000000000699
 20
-1501.499999999998
 30
0.0
 11
125.5000000000107
 21
-1506.499999999998
 31
0.0
1001
ACDBBLOCKREPETAG
1070
     1
1071
       51
1005
126B7B
  0
INSERT
  5
126B7C
  8
OBJECT
  2
*U3
 10
0.0
 20
0.0
 30
0.0
  0
LINE
  5
126B7D
  8
HIDDEN
 10
224.50000000000719
 20
-1511.999999999998
 30
0.0
 11
135.50000000000699
 21
-1511.999999999998
 31
0.0
1001
ACDBBLOCKREPETAG
1070
     1
1071
       65
1005
126B7D
  0
ARC
  5
126B7E
  8
OBJECT
 10
180.00000000000699
 20
-1423.999999999998
 30
0.0
 40
50.0
 50
28.819942999992119
 51
243.78043883604639
1001
ACDBBLOCKREPETAG
1070
     1
1071
       49
1005
0
  0
ARC
  5
126B7F
  8
OBJECT
 10
180.00000000000699
 20
-1423.999999999998
 30
0.0
 40
50.0
 50
296.21956116400747
 51
318.52376955954998
1001
ACDBBLOCKREPETAG
1070
     1
1071
       49
1005
0
  0
CIRCLE
  5
126B80
  8
OBJECT
 10
180.00000000000699
 20
-1423.999999999998
 30
0.0
 40
70.0
1001
ACDBBLOCKREPETAG
1070
     1
1071
       50
1005
126B80
  0
CIRCLE
  5
126B81
  8
OBJECT
 10
180.00000000000699
 20
-1423.999999999998
 30
0.0
 40
75.0
1001
ACDBBLOCKREPETAG
1070
     1
1071
       51
1005
126B81
  0
POINT
  5
126B82
  8
DOTS
 10
180.00000000000699
 20
-1423.999999999998
 30
0.0
1001
ACDBBLOCKREPETAG
1070
     1
1071
       63
1005
126B82
  0
LINE
  5
126B83
  8
OBJECT
 10
223.80694712372471
 20
-1399.8970669066971
 30
0.0
 11
212.5546220000067
 21
-1403.3403430000019
 31
0.0
1001
ACDBBLOCKREPETAG
1070
     1
1071
      141
1005
126B83
  0
LINE
  5
126B84
  8
OBJECT
 10
198.2255337420863
 20
-1437.207250098623
 30
0.0
 11
212.55462200000309
 21
-1403.3403430000019
 31
0.0
1001
ACDBBLOCKREPETAG
1070
     1
1071
      143
1005
126B84
  0
ARC
  5
126B85
  8
OBJECT
 10
207.4351299990665
 20
-1441.1038302380971
 30
0.0
 40
10.0
 50
157.0667782929232
 51
244.01473437026289
1001
ACDBBLOCKREPETAG
1070
     1
1071
      144
1005
126B85
  0
ARC
  5
126B86
  8
OBJECT
 10
205.5538625672996
 20
-1437.8511609618711
 30
0.0
 40
7.0
 50
157.0667782929232
 51
244.01473377502219
1001
ACDBBLOCKREPETAG
1070
     1
1071
      145
1005
126B86
  0
LINE
  5
126B87
  8
OBJECT
 10
238.86769720860929
 20
-1461.8760376142509
 30
0.0
 11
202.48688253357591
 21
-1444.1435081767611
 31
0.0
1001
ACDBBLOCKREPETAG
1070
     1
1071
      154
1005
126B87
  0
LINE
  5
126B88
  8
OBJECT
 10
235.9167324445099
 20
-1466.110794729258
 30
0.0
 11
203.05373004431729
 21
-1450.09289773349
 31
0.0
1001
ACDBBLOCKREPETAG
1070
     1
1071
      155
1005
126B88
  0
ARC
  5
126B89
  8
OBJECT
 10
184.7576058985783
 20
-1450.2737555139529
 30
0.0
 40
63.739013211305632
 50
8.1694378253172513
 51
52.219052524698952
1001
ACDBBLOCKREPETAG
1070
     1
1071
      156
1005
126B89
  0
LINE
  5
126B8A
  8
OBJECT
 10
156.17579607525809
 20
-1469.677961444753
 30
0.0
 11
148.18761767300541
 21
-1475.577458443546
 31
0.0
  0
ARC
  5
126B8B
  8
OBJECT
 10
159.1461853586421
 20
-1473.699999175202
 30
0.0
 40
5.0
 50
90.0
 51
126.4469224760731
  0
LINE
  5
126B8C
  8
OBJECT
 10
203.8242039247032
 20
-1469.6779614446259
 30
0.0
 11
211.8124539801008
 21
-1475.577511360776
 31
0.0
  0
ARC
  5
126B8D
  8
OBJECT
 10
200.85381464149009
 20
-1473.699999175202
 30
0.0
 40
5.0
 50
53.553077526274542
 51
90.0
  0
LINE
  5
126B8E
  8
OBJECT
 10
200.85381464149009
 20
-1468.699999175202
 30
0.0
 11
159.1461853586421
 21
-1468.699999175202
 31
0.0
  0
ARC
  5
126B8F
  8
OBJECT
 10
207.0598311269602
 20
-1482.012771729698
 30
0.0
 40
8.0
 50
16.476216247958561
 51
53.553077526274542
  0
ARC
  5
126B90
  8
OBJECT
 10
152.94016887305199
 20
-1482.012771729698
 30
0.0
 40
8.0
 50
126.44692247372539
 51
163.5237837520414
  0
LINE
  5
126B91
  8
OBJECT
 10
145.26866848598161
 20
-1479.743833252975
 30
0.0
 11
144.00000000000699
 21
-1484.0333240792149
 31
0.0
  0
LINE
  5
126B92
  8
OBJECT
 10
214.73133151403249
 20
-1479.743833252975
 30
0.0
 11
216.00000000000711
 21
-1484.0333240792149
 31
0.0
  0
LINE
  5
126B93
  8
OBJECT
 10
595.00000000000705
 20
-1092.999999999998
 30
0.0
 11
595.00000000000705
 21
-1099.999999999998
 31
0.0
1001
ACDBBLOCKREPETAG
1070
     1
1071
       18
1005
126B93
  0
LINE
  5
126B94
  8
OBJECT
 10
595.00000000000705
 20
-1099.999999999998
 30
0.0
 11
485.00000000000688
 21
-1099.999999999998
 31
0.0
1001
ACDBBLOCKREPETAG
1070
     1
1071
       19
1005
126B94
  0
LINE
  5
126B95
  8
OBJECT
 10
485.00000000000688
 20
-1099.999999999998
 30
0.0
 11
485.00000000000688
 21
-1092.999999999998
 31
0.0
1001
ACDBBLOCKREPETAG
1070
     1
1071
       20
1005
126B95
  0
LINE
  5
126B96
  8
OBJECT
 10
485.00000000000688
 20
-1092.999999999998
 30
0.0
 11
595.00000000000705
 21
-1092.999999999998
 31
0.0
1001
ACDBBLOCKREPETAG
1070
     1
1071
       21
1005
126B96
  0
LINE
  5
126B97
  8
OBJECT
 10
592.00000000000705
 20
-1092.999999999998
 30
0.0
 11
592.00000000000705
 21
-1056.999999999998
 31
0.0
1001
ACDBBLOCKREPETAG
1070
     1
1071
       22
1005
126B97
  0
LINE
  5
126B98
  8
OBJECT
 10
592.00000000000705
 20
-1056.999999999998
 30
0.0
 11
488.00000000000688
 21
-1056.999999999998
 31
0.0
1001
ACDBBLOCKREPETAG
1070
     1
1071
       23
1005
126B98
  0
LINE
  5
126B99
  8
OBJECT
 10
488.00000000000688
 20
-1056.999999999998
 30
0.0
 11
488.00000000000688
 21
-1092.999999999998
 31
0.0
1001
ACDBBLOCKREPETAG
1070
     1
1071
       24
1005
126B99
  0
LINE
  5
126B9A
  8
OBJECT
 10
587.50000000000705
 20
-1052.999999999998
 30
0.0
 11
587.50000000000705
 21
-1044.499999999998
 31
0.0
1001
ACDBBLOCKREPETAG
1070
     1
1071
       25
1005
126B9A
  0
LINE
  5
126B9B
  8
OBJECT
 10
492.50000000000688
 20
-1044.499999999997
 30
0.0
 11
492.50000000000688
 21
-1052.999999999998
 31
0.0
1001
ACDBBLOCKREPETAG
1070
     1
1071
       26
1005
126B9B
  0
LINE
  5
126B9C
  8
OBJECT
 10
492.50000000000688
 20
-1052.999999999998
 30
0.0
 11
587.50000000000705
 21
-1052.999999999998
 31
0.0
1001
ACDBBLOCKREPETAG
1070
     1
1071
       27
1005
126B9C
  0
LINE
  5
126B9D
  8
OBJECT
 10
592.00000000000705
 20
-1056.999999999998
 30
0.0
 11
587.50000000000705
 21
-1052.999999999998
 31
0.0
1001
ACDBBLOCKREPETAG
1070
     1
1071
       28
1005
126B9D
  0
LINE
  5
126B9E
  8
OBJECT
 10
488.00000000000688
 20
-1056.999999999998
 30
0.0
 11
492.50000000000688
 21
-1052.999999999998
 31
0.0
1001
ACDBBLOCKREPETAG
1070
     1
1071
       29
1005
126B9E
  0
LINE
  5
126B9F
  8
OBJECT
 10
490.50000000000688
 20
-1044.499999999997
 30
0.0
 11
589.50000000000705
 21
-1044.499999999998
 31
0.0
1001
ACDBBLOCKREPETAG
1070
     1
1071
       30
1005
126B9F
  0
LINE
  5
126BA0
  8
OBJECT
 10
589.50000000000705
 20
-1044.499999999998
 30
0.0
 11
589.50000000000614
 21
-1016.344919912977
 31
0.0
1001
ACDBBLOCKREPETAG
1070
     1
1071
       31
1005
126BA0
  0
LINE
  5
126BA1
  8
OBJECT
 10
490.50000000000688
 20
-1044.499999999997
 30
0.0
 11
490.50000000000603
 21
-1016.344919912976
 31
0.0
1001
ACDBBLOCKREPETAG
1070
     1
1071
       32
1005
126BA1
  0
INSERT
  5
126BA2
  8
OBJECT
  2
*U4
 10
0.0
 20
0.0
 30
0.0
  0
LINE
  5
126BA3
  8
HIDDEN
 10
578.00000000000705
 20
-1047.999999999998
 30
0.0
 11
502.00000000000688
 21
-1047.999999999998
 31
0.0
1001
ACDBBLOCKREPETAG
1070
     1
1071
       57
1005
126BA3
  0
ARC
  5
126BA4
  8
OBJECT
 10
540.00000000000705
 20
-959.99999999999807
 30
0.0
 40
50.0
 50
28.819942999997039
 51
243.78043883604781
1001
ACDBBLOCKREPETAG
1070
     1
1071
       49
1005
0
  0
ARC
  5
126BA5
  8
OBJECT
 10
540.00000000000705
 20
-959.99999999999807
 30
0.0
 40
50.0
 50
296.21956116400168
 51
318.52376955954622
1001
ACDBBLOCKREPETAG
1070
     1
1071
       49
1005
0
  0
CIRCLE
  5
126BA6
  8
OBJECT
 10
540.00000000000705
 20
-959.99999999999807
 30
0.0
 40
70.0
1001
ACDBBLOCKREPETAG
1070
     1
1071
       50
1005
126BA6
  0
CIRCLE
  5
126BA7
  8
OBJECT
 10
540.00000000000705
 20
-959.99999999999807
 30
0.0
 40
75.0
1001
ACDBBLOCKREPETAG
1070
     1
1071
       51
1005
126BA7
  0
POINT
  5
126BA8
  8
DOTS
 10
540.00000000000705
 20
-959.99999999999807
 30
0.0
1001
ACDBBLOCKREPETAG
1070
     1
1071
       63
1005
126BA8
  0
LINE
  5
126BA9
  8
OBJECT
 10
583.80694712372474
 20
-935.89706690669664
 30
0.0
 11
572.5546220000067
 21
-939.34034300000167
 31
0.0
1001
ACDBBLOCKREPETAG
1070
     1
1071
      141
1005
126BA9
  0
LINE
  5
126BAA
  8
OBJECT
 10
558.22553374208633
 20
-973.20725009862315
 30
0.0
 11
572.55462200000306
 21
-939.34034300000167
 31
0.0
1001
ACDBBLOCKREPETAG
1070
     1
1071
      143
1005
126BAA
  0
ARC
  5
126BAB
  8
OBJECT
 10
567.43512999906636
 20
-977.10383023809675
 30
0.0
 40
10.0
 50
157.06677829292209
 51
244.01473437026289
1001
ACDBBLOCKREPETAG
1070
     1
1071
      144
1005
126BAB
  0
ARC
  5
126BAC
  8
OBJECT
 10
565.55386256729957
 20
-973.85116096187085
 30
0.0
 40
7.0
 50
157.06677829292209
 51
244.0147337750206
1001
ACDBBLOCKREPETAG
1070
     1
1071
      145
1005
126BAC
  0
LINE
  5
126BAD
  8
OBJECT
 10
598.86769720860923
 20
-997.87603761425123
 30
0.0
 11
562.48688253357591
 21
-980.1435081767612
 31
0.0
1001
ACDBBLOCKREPETAG
1070
     1
1071
      154
1005
126BAD
  0
LINE
  5
126BAE
  8
OBJECT
 10
595.91673244450988
 20
-1002.110794729258
 30
0.0
 11
563.05373004431715
 21
-986.09289773348962
 31
0.0
1001
ACDBBLOCKREPETAG
1070
     1
1071
      155
1005
126BAE
  0
ARC
  5
126BAF
  8
OBJECT
 10
544.75760589857839
 20
-986.27375551395312
 30
0.0
 40
63.739013211305632
 50
8.1694378253174822
 51
52.21905252470151
1001
ACDBBLOCKREPETAG
1070
     1
1071
      156
1005
126BAF
  0
LINE
  5
126BB0
  8
OBJECT
 10
516.17579607525818
 20
-1005.677961444753
 30
0.0
 11
508.18761767300532
 21
-1011.577458443546
 31
0.0
  0
ARC
  5
126BB1
  8
OBJECT
 10
519.14618535864224
 20
-1009.699999175202
 30
0.0
 40
5.0
 50
90.0
 51
126.4469224760718
  0
LINE
  5
126BB2
  8
OBJECT
 10
563.82420392470306
 20
-1005.677961444626
 30
0.0
 11
571.81245398010083
 21
-1011.577511360776
 31
0.0
  0
ARC
  5
126BB3
  8
OBJECT
 10
560.85381464148998
 20
-1009.699999175202
 30
0.0
 40
5.0
 50
53.55307752627585
 51
90.0
  0
LINE
  5
126BB4
  8
OBJECT
 10
560.85381464148998
 20
-1004.699999175202
 30
0.0
 11
519.14618535864224
 21
-1004.699999175202
 31
0.0
  0
ARC
  5
126BB5
  8
OBJECT
 10
567.05983112696026
 20
-1018.012771729698
 30
0.0
 40
8.0
 50
16.476216247958561
 51
53.55307752627585
  0
ARC
  5
126BB6
  8
OBJECT
 10
512.94016887305202
 20
-1018.012771729698
 30
0.0
 40
8.0
 50
126.4469224737241
 51
163.5237837520414
  0
LINE
  5
126BB7
  8
OBJECT
 10
505.26866848598161
 20
-1015.743833252974
 30
0.0
 11
504.00000000000688
 21
-1020.033324079215
 31
0.0
  0
LINE
  5
126BB8
  8
OBJECT
 10
574.73133151403226
 20
-1015.743833252974
 30
0.0
 11
576.00000000000705
 21
-1020.033324079215
 31
0.0
  0
LINE
  5
126BB9
  8
OBJECT
 10
227.00000000000711
 20
-1092.999999999998
 30
0.0
 11
227.00000000000711
 21
-1099.999999999998
 31
0.0
1001
ACDBBLOCKREPETAG
1070
     1
1071
        0
1005
126BB9
  0
LINE
  5
126BBA
  8
OBJECT
 10
227.00000000000711
 20
-1099.999999999998
 30
0.0
 11
133.00000000000699
 21
-1099.999999999998
 31
0.0
1001
ACDBBLOCKREPETAG
1070
     1
1071
        1
1005
126BBA
  0
LINE
  5
126BBB
  8
OBJECT
 10
133.00000000000699
 20
-1099.999999999998
 30
0.0
 11
133.00000000000699
 21
-1092.999999999998
 31
0.0
1001
ACDBBLOCKREPETAG
1070
     1
1071
        2
1005
126BBB
  0
LINE
  5
126BBC
  8
OBJECT
 10
133.00000000000699
 20
-1092.999999999998
 30
0.0
 11
227.00000000000711
 21
-1092.999999999998
 31
0.0
1001
ACDBBLOCKREPETAG
1070
     1
1071
        3
1005
126BBC
  0
LINE
  5
126BBD
  8
OBJECT
 10
224.00000000000699
 20
-1092.999999999998
 30
0.0
 11
224.00000000000699
 21
-1056.999999999998
 31
0.0
1001
ACDBBLOCKREPETAG
1070
     1
1071
        4
1005
126BBD
  0
LINE
  5
126BBE
  8
OBJECT
 10
224.00000000000699
 20
-1056.999999999998
 30
0.0
 11
136.00000000000699
 21
-1056.999999999998
 31
0.0
1001
ACDBBLOCKREPETAG
1070
     1
1071
        5
1005
126BBE
  0
LINE
  5
126BBF
  8
OBJECT
 10
136.00000000000699
 20
-1056.999999999998
 30
0.0
 11
136.00000000000699
 21
-1092.999999999998
 31
0.0
1001
ACDBBLOCKREPETAG
1070
     1
1071
        6
1005
126BBF
  0
LINE
  5
126BC0
  8
OBJECT
 10
219.50000000000699
 20
-1052.999999999998
 30
0.0
 11
219.50000000000699
 21
-1044.499999999998
 31
0.0
1001
ACDBBLOCKREPETAG
1070
     1
1071
        7
1005
126BC0
  0
LINE
  5
126BC1
  8
OBJECT
 10
140.50000000000699
 20
-1044.499999999997
 30
0.0
 11
140.50000000000699
 21
-1052.999999999998
 31
0.0
1001
ACDBBLOCKREPETAG
1070
     1
1071
        8
1005
126BC1
  0
LINE
  5
126BC2
  8
OBJECT
 10
140.50000000000699
 20
-1052.999999999998
 30
0.0
 11
219.50000000000699
 21
-1052.999999999998
 31
0.0
1001
ACDBBLOCKREPETAG
1070
     1
1071
        9
1005
126BC2
  0
LINE
  5
126BC3
  8
OBJECT
 10
224.00000000000699
 20
-1056.999999999998
 30
0.0
 11
219.50000000000699
 21
-1052.999999999998
 31
0.0
1001
ACDBBLOCKREPETAG
1070
     1
1071
       10
1005
126BC3
  0
LINE
  5
126BC4
  8
OBJECT
 10
136.00000000000699
 20
-1056.999999999998
 30
0.0
 11
140.50000000000699
 21
-1052.999999999998
 31
0.0
1001
ACDBBLOCKREPETAG
1070
     1
1071
       11
1005
126BC4
  0
LINE
  5
126BC5
  8
OBJECT
 10
133.50000000000699
 20
-1044.499999999997
 30
0.0
 11
226.50000000000711
 21
-1044.499999999998
 31
0.0
1001
ACDBBLOCKREPETAG
1070
     1
1071
       12
1005
126BC5
  0
ARC
  5
126BC6
  8
OBJECT
 10
226.50000000000711
 20
-1041.499999999998
 30
0.0
 40
3.0
 50
270.0
 51
0.0
1001
ACDBBLOCKREPETAG
1070
     1
1071
       13
1005
126BC6
  0
LINE
  5
126BC7
  8
OBJECT
 10
229.50000000000699
 20
-1041.499999999998
 30
0.0
 11
229.5000000000079
 21
-1016.344919912977
 31
0.0
1001
ACDBBLOCKREPETAG
1070
     1
1071
       15
1005
126BC7
  0
LINE
  5
126BC8
  8
OBJECT
 10
130.50000000000699
 20
-1041.499999999997
 30
0.0
 11
130.5000000000079
 21
-1016.344919912977
 31
0.0
1001
ACDBBLOCKREPETAG
1070
     1
1071
       16
1005
126BC8
  0
ARC
  5
126BC9
  8
OBJECT
 10
133.50000000000699
 20
-1041.499999999997
 30
0.0
 40
3.0
 50
180.0
 51
270.0
1001
ACDBBLOCKREPETAG
1070
     1
1071
       17
1005
126BC9
  0
INSERT
  5
126BCA
  8
OBJECT
  2
*U5
 10
0.0
 20
0.0
 30
0.0
  0
LINE
  5
126BCB
  8
HIDDEN
 10
210.00000000000719
 20
-1047.999999999998
 30
0.0
 11
150.00000000000699
 21
-1047.999999999998
 31
0.0
1001
ACDBBLOCKREPETAG
1070
     1
1071
       56
1005
126BCB
  0
ARC
  5
126BCC
  8
OBJECT
 10
180.00000000000699
 20
-959.99999999999807
 30
0.0
 40
50.0
 50
28.819942999997821
 51
243.78043883604639
1001
ACDBBLOCKREPETAG
1070
     1
1071
       49
1005
0
  0
ARC
  5
126BCD
  8
OBJECT
 10
180.00000000000699
 20
-959.99999999999807
 30
0.0
 40
50.0
 50
296.21956116400457
 51
318.52376955954509
1001
ACDBBLOCKREPETAG
1070
     1
1071
       49
1005
0
  0
CIRCLE
  5
126BCE
  8
OBJECT
 10
180.00000000000699
 20
-959.99999999999807
 30
0.0
 40
70.0
1001
ACDBBLOCKREPETAG
1070
     1
1071
       50
1005
126BCE
  0
CIRCLE
  5
126BCF
  8
OBJECT
 10
180.00000000000699
 20
-959.99999999999807
 30
0.0
 40
75.0
1001
ACDBBLOCKREPETAG
1070
     1
1071
       51
1005
126BCF
  0
POINT
  5
126BD0
  8
DOTS
 10
180.00000000000699
 20
-959.99999999999807
 30
0.0
1001
ACDBBLOCKREPETAG
1070
     1
1071
       63
1005
126BD0
  0
LINE
  5
126BD1
  8
OBJECT
 10
223.80694712372471
 20
-935.89706690669664
 30
0.0
 11
212.5546220000067
 21
-939.34034300000167
 31
0.0
1001
ACDBBLOCKREPETAG
1070
     1
1071
      141
1005
126BD1
  0
LINE
  5
126BD2
  8
OBJECT
 10
198.2255337420863
 20
-973.20725009862315
 30
0.0
 11
212.55462200000309
 21
-939.34034300000167
 31
0.0
1001
ACDBBLOCKREPETAG
1070
     1
1071
      143
1005
126BD2
  0
ARC
  5
126BD3
  8
OBJECT
 10
207.4351299990665
 20
-977.10383023809675
 30
0.0
 40
10.0
 50
157.0667782929232
 51
244.01473437026289
1001
ACDBBLOCKREPETAG
1070
     1
1071
      144
1005
126BD3
  0
ARC
  5
126BD4
  8
OBJECT
 10
205.5538625672996
 20
-973.85116096187085
 30
0.0
 40
7.0
 50
157.0667782929232
 51
244.01473377502219
1001
ACDBBLOCKREPETAG
1070
     1
1071
      145
1005
126BD4
  0
LINE
  5
126BD5
  8
OBJECT
 10
238.86769720860929
 20
-997.87603761425123
 30
0.0
 11
202.48688253357591
 21
-980.1435081767612
 31
0.0
1001
ACDBBLOCKREPETAG
1070
     1
1071
      154
1005
126BD5
  0
LINE
  5
126BD6
  8
OBJECT
 10
235.9167324445099
 20
-1002.110794729258
 30
0.0
 11
203.05373004431729
 21
-986.09289773348962
 31
0.0
1001
ACDBBLOCKREPETAG
1070
     1
1071
      155
1005
126BD6
  0
ARC
  5
126BD7
  8
OBJECT
 10
184.7576058985783
 20
-986.27375551395312
 30
0.0
 40
63.739013211305632
 50
8.1694378253172513
 51
52.219052524698952
1001
ACDBBLOCKREPETAG
1070
     1
1071
      156
1005
126BD7
  0
LINE
  5
126BD8
  8
OBJECT
 10
156.17579607525809
 20
-1005.677961444753
 30
0.0
 11
148.18761767300541
 21
-1011.577458443546
 31
0.0
  0
ARC
  5
126BD9
  8
OBJECT
 10
159.1461853586421
 20
-1009.699999175202
 30
0.0
 40
5.0
 50
90.0
 51
126.4469224760731
  0
LINE
  5
126BDA
  8
OBJECT
 10
203.8242039247032
 20
-1005.677961444626
 30
0.0
 11
211.8124539801008
 21
-1011.577511360776
 31
0.0
  0
ARC
  5
126BDB
  8
OBJECT
 10
200.85381464149009
 20
-1009.699999175202
 30
0.0
 40
5.0
 50
53.553077526274542
 51
90.0
  0
LINE
  5
126BDC
  8
OBJECT
 10
200.85381464149009
 20
-1004.699999175202
 30
0.0
 11
159.1461853586421
 21
-1004.699999175202
 31
0.0
  0
ARC
  5
126BDD
  8
OBJECT
 10
207.0598311269602
 20
-1018.012771729698
 30
0.0
 40
8.0
 50
16.476216247958561
 51
53.553077526274542
  0
ARC
  5
126BDE
  8
OBJECT
 10
152.94016887305199
 20
-1018.012771729698
 30
0.0
 40
8.0
 50
126.44692247372539
 51
163.5237837520414
  0
LINE
  5
126BDF
  8
OBJECT
 10
145.26866848598161
 20
-1015.743833252974
 30
0.0
 11
144.00000000000699
 21
-1020.033324079215
 31
0.0
  0
LINE
  5
126BE0
  8
OBJECT
 10
214.73133151403249
 20
-1015.743833252974
 30
0.0
 11
216.00000000000711
 21
-1020.033324079215
 31
0.0
  0
LINE
  5
126BE1
  8
OBJECT
 10
6633.0
 20
-137.99999999999801
 30
0.0
 11
6639.9999999999991
 21
-137.99999999999801
 31
0.0
1001
ACDBBLOCKREPETAG
1070
     1
1071
       47
1005
126BE1
  0
LINE
  5
126BE2
  8
OBJECT
 10
6639.9999999999991
 20
-137.99999999999801
 30
0.0
 11
6639.9999999999991
 21
-261.99999999999801
 31
0.0
1001
ACDBBLOCKREPETAG
1070
     1
1071
       48
1005
126BE2
  0
LINE
  5
126BE3
  8
OBJECT
 10
6639.9999999999991
 20
-261.99999999999801
 30
0.0
 11
6633.0
 21
-261.99999999999801
 31
0.0
1001
ACDBBLOCKREPETAG
1070
     1
1071
       49
1005
126BE3
  0
LINE
  5
126BE4
  8
OBJECT
 10
6633.0
 20
-261.99999999999801
 30
0.0
 11
6633.0
 21
-137.99999999999801
 31
0.0
1001
ACDBBLOCKREPETAG
1070
     1
1071
       50
1005
126BE4
  0
LINE
  5
126BE5
  8
CENTER
 10
6655.0
 20
-199.99999999999801
 30
0.0
 11
6580.0
 21
-199.99999999999801
 31
0.0
1001
ACDBBLOCKREPETAG
1070
     1
1071
       51
1005
126BE5
  0
LINE
  5
126BE6
  8
OBJECT
 10
6633.0
 20
-140.99999999999801
 30
0.0
 11
6597.0
 21
-140.99999999999801
 31
0.0
1001
ACDBBLOCKREPETAG
1070
     1
1071
       52
1005
126BE6
  0
LINE
  5
126BE7
  8
OBJECT
 10
6597.0
 20
-140.99999999999801
 30
0.0
 11
6597.0
 21
-258.99999999999801
 31
0.0
1001
ACDBBLOCKREPETAG
1070
     1
1071
       53
1005
126BE7
  0
LINE
  5
126BE8
  8
OBJECT
 10
6597.0
 20
-258.99999999999801
 30
0.0
 11
6633.0
 21
-258.99999999999801
 31
0.0
1001
ACDBBLOCKREPETAG
1070
     1
1071
       54
1005
126BE8
  0
LINE
  5
126BE9
  8
OBJECT
 10
6592.9999999999991
 20
-145.49999999999801
 30
0.0
 11
6585.9999999999973
 21
-145.49999999999801
 31
0.0
1001
ACDBBLOCKREPETAG
1070
     1
1071
       55
1005
126BE9
  0
LINE
  5
126BEA
  8
OBJECT
 10
6585.9999999999973
 20
-254.49999999999801
 30
0.0
 11
6592.9999999999991
 21
-254.49999999999801
 31
0.0
1001
ACDBBLOCKREPETAG
1070
     1
1071
       56
1005
126BEA
  0
LINE
  5
126BEB
  8
OBJECT
 10
6592.9999999999991
 20
-254.49999999999801
 30
0.0
 11
6592.9999999999991
 21
-145.49999999999801
 31
0.0
1001
ACDBBLOCKREPETAG
1070
     1
1071
       57
1005
126BEB
  0
LINE
  5
126BEC
  8
OBJECT
 10
6597.0
 20
-140.99999999999801
 30
0.0
 11
6592.9999999999991
 21
-145.49999999999801
 31
0.0
1001
ACDBBLOCKREPETAG
1070
     1
1071
       58
1005
126BEC
  0
LINE
  5
126BED
  8
OBJECT
 10
6597.0
 20
-258.99999999999801
 30
0.0
 11
6592.9999999999991
 21
-254.49999999999801
 31
0.0
1001
ACDBBLOCKREPETAG
1070
     1
1071
       59
1005
126BED
  0
LINE
  5
126BEE
  8
OBJECT
 10
6583.0
 20
-137.99999999999801
 30
0.0
 11
6580.0
 21
-137.99999999999801
 31
0.0
1001
ACDBBLOCKREPETAG
1070
     1
1071
       60
1005
126BEE
  0
ARC
  5
126BEF
  8
OBJECT
 10
6583.0
 20
-140.99999999999801
 30
0.0
 40
3.0
 50
0.0
 51
90.0
1001
ACDBBLOCKREPETAG
1070
     1
1071
       61
1005
126BEF
  0
LINE
  5
126BF0
  8
OBJECT
 10
6580.0
 20
-261.99999999999801
 30
0.0
 11
6583.0
 21
-261.99999999999801
 31
0.0
1001
ACDBBLOCKREPETAG
1070
     1
1071
       62
1005
126BF0
  0
ARC
  5
126BF1
  8
OBJECT
 10
6583.0
 20
-258.99999999999801
 30
0.0
 40
3.0
 50
270.0
 51
0.0
1001
ACDBBLOCKREPETAG
1070
     1
1071
       63
1005
126BF1
  0
LINE
  5
126BF2
  8
OBJECT
 10
6585.9999999999973
 20
-258.99999999999801
 30
0.0
 11
6585.9999999999973
 21
-140.99999999999801
 31
0.0
1001
ACDBBLOCKREPETAG
1070
     1
1071
       64
1005
126BF2
  0
LINE
  5
126BF3
  8
HIDDEN
 10
6588.0
 20
-155.49999999999801
 30
0.0
 11
6588.0
 21
-244.49999999999801
 31
0.0
1001
ACDBBLOCKREPETAG
1070
     1
1071
       65
1005
126BF3
  0
LINE
  5
126BF4
  8
OBJECT
 10
4632.9999999999991
 20
-137.99999999999801
 30
0.0
 11
4639.9999999999991
 21
-137.99999999999801
 31
0.0
1001
ACDBBLOCKREPETAG
1070
     1
1071
       47
1005
126BF4
  0
LINE
  5
126BF5
  8
OBJECT
 10
4639.9999999999991
 20
-137.99999999999801
 30
0.0
 11
4639.9999999999991
 21
-261.99999999999801
 31
0.0
1001
ACDBBLOCKREPETAG
1070
     1
1071
       48
1005
126BF5
  0
LINE
  5
126BF6
  8
OBJECT
 10
4639.9999999999991
 20
-261.99999999999801
 30
0.0
 11
4632.9999999999991
 21
-261.99999999999801
 31
0.0
1001
ACDBBLOCKREPETAG
1070
     1
1071
       49
1005
126BF6
  0
LINE
  5
126BF7
  8
OBJECT
 10
4632.9999999999991
 20
-261.99999999999801
 30
0.0
 11
4632.9999999999991
 21
-137.99999999999801
 31
0.0
1001
ACDBBLOCKREPETAG
1070
     1
1071
       50
1005
126BF7
  0
LINE
  5
126BF8
  8
CENTER
 10
4654.9999999999991
 20
-199.99999999999801
 30
0.0
 11
4579.9999999999991
 21
-199.99999999999801
 31
0.0
1001
ACDBBLOCKREPETAG
1070
     1
1071
       51
1005
126BF8
  0
LINE
  5
126BF9
  8
OBJECT
 10
4632.9999999999991
 20
-140.99999999999801
 30
0.0
 11
4596.9999999999991
 21
-140.99999999999801
 31
0.0
1001
ACDBBLOCKREPETAG
1070
     1
1071
       52
1005
126BF9
  0
LINE
  5
126BFA
  8
OBJECT
 10
4596.9999999999991
 20
-140.99999999999801
 30
0.0
 11
4596.9999999999991
 21
-258.99999999999801
 31
0.0
1001
ACDBBLOCKREPETAG
1070
     1
1071
       53
1005
126BFA
  0
LINE
  5
126BFB
  8
OBJECT
 10
4596.9999999999991
 20
-258.99999999999801
 30
0.0
 11
4632.9999999999991
 21
-258.99999999999801
 31
0.0
1001
ACDBBLOCKREPETAG
1070
     1
1071
       54
1005
126BFB
  0
LINE
  5
126BFC
  8
OBJECT
 10
4592.9999999999991
 20
-145.49999999999801
 30
0.0
 11
4585.9999999999991
 21
-145.49999999999801
 31
0.0
1001
ACDBBLOCKREPETAG
1070
     1
1071
       55
1005
126BFC
  0
LINE
  5
126BFD
  8
OBJECT
 10
4585.9999999999991
 20
-254.49999999999801
 30
0.0
 11
4592.9999999999991
 21
-254.49999999999801
 31
0.0
1001
ACDBBLOCKREPETAG
1070
     1
1071
       56
1005
126BFD
  0
LINE
  5
126BFE
  8
OBJECT
 10
4592.9999999999991
 20
-254.49999999999801
 30
0.0
 11
4592.9999999999991
 21
-145.49999999999801
 31
0.0
1001
ACDBBLOCKREPETAG
1070
     1
1071
       57
1005
126BFE
  0
LINE
  5
126BFF
  8
OBJECT
 10
4596.9999999999991
 20
-140.99999999999801
 30
0.0
 11
4592.9999999999991
 21
-145.49999999999801
 31
0.0
1001
ACDBBLOCKREPETAG
1070
     1
1071
       58
1005
126BFF
  0
LINE
  5
126C00
  8
OBJECT
 10
4596.9999999999991
 20
-258.99999999999801
 30
0.0
 11
4592.9999999999991
 21
-254.49999999999801
 31
0.0
1001
ACDBBLOCKREPETAG
1070
     1
1071
       59
1005
126C00
  0
LINE
  5
126C01
  8
OBJECT
 10
4582.9999999999991
 20
-137.99999999999801
 30
0.0
 11
4579.9999999999991
 21
-137.99999999999801
 31
0.0
1001
ACDBBLOCKREPETAG
1070
     1
1071
       60
1005
126C01
  0
ARC
  5
126C02
  8
OBJECT
 10
4582.9999999999991
 20
-140.99999999999801
 30
0.0
 40
3.0
 50
0.0
 51
90.0
1001
ACDBBLOCKREPETAG
1070
     1
1071
       61
1005
126C02
  0
LINE
  5
126C03
  8
OBJECT
 10
4579.9999999999991
 20
-261.99999999999801
 30
0.0
 11
4582.9999999999991
 21
-261.99999999999801
 31
0.0
1001
ACDBBLOCKREPETAG
1070
     1
1071
       62
1005
126C03
  0
ARC
  5
126C04
  8
OBJECT
 10
4582.9999999999991
 20
-258.99999999999801
 30
0.0
 40
3.0
 50
270.0
 51
0.0
1001
ACDBBLOCKREPETAG
1070
     1
1071
       63
1005
126C04
  0
LINE
  5
126C05
  8
OBJECT
 10
4585.9999999999991
 20
-258.99999999999801
 30
0.0
 11
4585.9999999999991
 21
-140.99999999999801
 31
0.0
1001
ACDBBLOCKREPETAG
1070
     1
1071
       64
1005
126C05
  0
LINE
  5
126C06
  8
HIDDEN
 10
4587.9999999999991
 20
-155.49999999999801
 30
0.0
 11
4587.9999999999991
 21
-244.49999999999801
 31
0.0
1001
ACDBBLOCKREPETAG
1070
     1
1071
       65
1005
126C06
  0
LINE
  5
126C07
  8
OBJECT
 10
2632.9999999999991
 20
-137.99999999999801
 30
0.0
 11
2639.9999999999991
 21
-137.99999999999801
 31
0.0
1001
ACDBBLOCKREPETAG
1070
     1
1071
       47
1005
126C07
  0
LINE
  5
126C08
  8
OBJECT
 10
2639.9999999999991
 20
-137.99999999999801
 30
0.0
 11
2639.9999999999991
 21
-261.99999999999801
 31
0.0
1001
ACDBBLOCKREPETAG
1070
     1
1071
       48
1005
126C08
  0
LINE
  5
126C09
  8
OBJECT
 10
2639.9999999999991
 20
-261.99999999999801
 30
0.0
 11
2632.9999999999991
 21
-261.99999999999801
 31
0.0
1001
ACDBBLOCKREPETAG
1070
     1
1071
       49
1005
126C09
  0
LINE
  5
126C0A
  8
OBJECT
 10
2632.9999999999991
 20
-261.99999999999801
 30
0.0
 11
2632.9999999999991
 21
-137.99999999999801
 31
0.0
1001
ACDBBLOCKREPETAG
1070
     1
1071
       50
1005
126C0A
  0
LINE
  5
126C0B
  8
CENTER
 10
2654.9999999999991
 20
-199.99999999999801
 30
0.0
 11
2579.9999999999991
 21
-199.99999999999801
 31
0.0
1001
ACDBBLOCKREPETAG
1070
     1
1071
       51
1005
126C0B
  0
LINE
  5
126C0C
  8
OBJECT
 10
2632.9999999999991
 20
-140.99999999999801
 30
0.0
 11
2596.9999999999991
 21
-140.99999999999801
 31
0.0
1001
ACDBBLOCKREPETAG
1070
     1
1071
       52
1005
126C0C
  0
LINE
  5
126C0D
  8
OBJECT
 10
2596.9999999999991
 20
-140.99999999999801
 30
0.0
 11
2596.9999999999991
 21
-258.99999999999801
 31
0.0
1001
ACDBBLOCKREPETAG
1070
     1
1071
       53
1005
126C0D
  0
LINE
  5
126C0E
  8
OBJECT
 10
2596.9999999999991
 20
-258.99999999999801
 30
0.0
 11
2632.9999999999991
 21
-258.99999999999801
 31
0.0
1001
ACDBBLOCKREPETAG
1070
     1
1071
       54
1005
126C0E
  0
LINE
  5
126C0F
  8
OBJECT
 10
2592.9999999999991
 20
-145.49999999999801
 30
0.0
 11
2585.9999999999991
 21
-145.49999999999801
 31
0.0
1001
ACDBBLOCKREPETAG
1070
     1
1071
       55
1005
126C0F
  0
LINE
  5
126C10
  8
OBJECT
 10
2585.9999999999991
 20
-254.49999999999801
 30
0.0
 11
2592.9999999999991
 21
-254.49999999999801
 31
0.0
1001
ACDBBLOCKREPETAG
1070
     1
1071
       56
1005
126C10
  0
LINE
  5
126C11
  8
OBJECT
 10
2592.9999999999991
 20
-254.49999999999801
 30
0.0
 11
2592.9999999999991
 21
-145.49999999999801
 31
0.0
1001
ACDBBLOCKREPETAG
1070
     1
1071
       57
1005
126C11
  0
LINE
  5
126C12
  8
OBJECT
 10
2596.9999999999991
 20
-140.99999999999801
 30
0.0
 11
2592.9999999999991
 21
-145.49999999999801
 31
0.0
1001
ACDBBLOCKREPETAG
1070
     1
1071
       58
1005
126C12
  0
LINE
  5
126C13
  8
OBJECT
 10
2596.9999999999991
 20
-258.99999999999801
 30
0.0
 11
2592.9999999999991
 21
-254.49999999999801
 31
0.0
1001
ACDBBLOCKREPETAG
1070
     1
1071
       59
1005
126C13
  0
LINE
  5
126C14
  8
OBJECT
 10
2582.9999999999991
 20
-137.99999999999801
 30
0.0
 11
2579.9999999999991
 21
-137.99999999999801
 31
0.0
1001
ACDBBLOCKREPETAG
1070
     1
1071
       60
1005
126C14
  0
ARC
  5
126C15
  8
OBJECT
 10
2582.9999999999991
 20
-140.99999999999801
 30
0.0
 40
3.0
 50
0.0
 51
90.0
1001
ACDBBLOCKREPETAG
1070
     1
1071
       61
1005
126C15
  0
LINE
  5
126C16
  8
OBJECT
 10
2579.9999999999991
 20
-261.99999999999801
 30
0.0
 11
2582.9999999999991
 21
-261.99999999999801
 31
0.0
1001
ACDBBLOCKREPETAG
1070
     1
1071
       62
1005
126C16
  0
ARC
  5
126C17
  8
OBJECT
 10
2582.9999999999991
 20
-258.99999999999801
 30
0.0
 40
3.0
 50
270.0
 51
0.0
1001
ACDBBLOCKREPETAG
1070
     1
1071
       63
1005
126C17
  0
LINE
  5
126C18
  8
OBJECT
 10
2585.9999999999991
 20
-258.99999999999801
 30
0.0
 11
2585.9999999999991
 21
-140.99999999999801
 31
0.0
1001
ACDBBLOCKREPETAG
1070
     1
1071
       64
1005
126C18
  0
LINE
  5
126C19
  8
HIDDEN
 10
2587.9999999999991
 20
-155.49999999999801
 30
0.0
 11
2587.9999999999991
 21
-244.49999999999801
 31
0.0
1001
ACDBBLOCKREPETAG
1070
     1
1071
       65
1005
126C19
  0
LINE
  5
126C1A
  8
SLIM
 10
12434.62485174211
 20
-150.5
 30
0.0
 11
12460.2662412277
 21
-124.858610514414
 31
0.0
1001
GRADIENTCOLOR1ACI
1070
     5
1001
GRADIENTCOLOR2ACI
1070
     2
1001
ACAD
1010
0.0
1020
0.0
1030
0.0
  0
LINE
  5
126C1B
  8
SLIM
 10
12466.96656796274
 20
-127.1385399004393
 30
0.0
 11
12475.4966737955
 21
-118.6084340676734
 31
0.0
1001
GRADIENTCOLOR1ACI
1070
     5
1001
GRADIENTCOLOR2ACI
1070
     2
1001
ACAD
1010
0.0
1020
0.0
1030
0.0
  0
LINE
  5
126C1C
  8
SLIM
 10
12480.729808117931
 20
-122.3555558663183
 30
0.0
 11
12487.10092058016
 21
-115.98444340408869
 31
0.0
1001
GRADIENTCOLOR1ACI
1070
     5
1001
GRADIENTCOLOR2ACI
1070
     2
1001
ACAD
1010
0.0
1020
0.0
1030
0.0
  0
LINE
  5
126C1D
  8
SLIM
 10
12491.62615505049
 20
-120.4394650548292
 30
0.0
 11
12497.013124938399
 21
-115.0524951669185
 31
0.0
1001
GRADIENTCOLOR1ACI
1070
     5
1001
GRADIENTCOLOR2ACI
1070
     2
1001
ACAD
1010
0.0
1020
0.0
1030
0.0
  0
LINE
  5
126C1E
  8
SLIM
 10
12501.03912728228
 20
-120.00674894410621
 30
0.0
 11
12505.84469431025
 21
-115.20118191613891
 31
0.0
1001
GRADIENTCOLOR1ACI
1070
     5
1001
GRADIENTCOLOR2ACI
1070
     2
1001
ACAD
1010
0.0
1020
0.0
1030
0.0
  0
LINE
  5
126C1F
  8
SLIM
 10
12509.464325564621
 20
-120.5618067828391
 30
0.0
 11
12513.884473575559
 21
-116.14165877189311
 31
0.0
1001
GRADIENTCOLOR1ACI
1070
     5
1001
GRADIENTCOLOR2ACI
1070
     2
1001
ACAD
1010
0.0
1020
0.0
1030
0.0
  0
LINE
  5
126C20
  8
SLIM
 10
12517.147132338559
 20
-121.85925612995651
 30
0.0
 11
12521.2955183575
 21
-117.7108701110201
 31
0.0
1001
GRADIENTCOLOR1ACI
1070
     5
1001
GRADIENTCOLOR2ACI
1070
     2
1001
ACAD
1010
0.0
1020
0.0
1030
0.0
  0
LINE
  5
126C21
  8
SLIM
 10
12524.22929262222
 20
-123.7573519673733
 30
0.0
 11
12528.179600214011
 21
-119.80704437558779
 31
0.0
1001
GRADIENTCOLOR1ACI
1070
     5
1001
GRADIENTCOLOR2ACI
1070
     2
1001
ACAD
1010
0.0
1020
0.0
1030
0.0
  0
LINE
  5
126C22
  8
SLIM
 10
12530.800159840819
 20
-126.16674086984671
 30
0.0
 11
12534.604195997101
 21
-122.3627047135587
 31
0.0
1001
GRADIENTCOLOR1ACI
1070
     5
1001
GRADIENTCOLOR2ACI
1070
     2
1001
ACAD
1010
0.0
1020
0.0
1030
0.0
  0
LINE
  5
126C23
  8
SLIM
 10
12536.91893009735
 20
-129.02822673437819
 30
0.0
 11
12540.615585390289
 21
-125.3315714414439
 31
0.0
1001
GRADIENTCOLOR1ACI
1070
     5
1001
GRADIENTCOLOR2ACI
1070
     2
1001
ACAD
1010
0.0
1020
0.0
1030
0.0
  0
LINE
  5
126C24
  8
SLIM
 10
12542.625662068
 20
-132.30175088479609
 30
0.0
 11
12546.24585805909
 21
-128.68155489371199
 31
0.0
1001
GRADIENTCOLOR1ACI
1070
     5
1001
GRADIENTCOLOR2ACI
1070
     2
1001
ACAD
1010
0.0
1020
0.0
1030
0.0
  0
LINE
  5
126C25
  8
SLIM
 10
12432.39076526292
 20
-251.51690381094841
 30
0.0
 11
12434.407669073869
 21
-249.49999999999861
 31
0.0
1001
GRADIENTCOLOR1ACI
1070
     5
1001
GRADIENTCOLOR2ACI
1070
     2
1001
ACAD
1010
0.0
1020
0.0
1030
0.0
  0
LINE
  5
126C26
  8
SLIM
 10
12547.94722005113
 20
-135.96044902274201
 30
0.0
 11
12551.516903810951
 21
-132.39076526292041
 31
0.0
1001
GRADIENTCOLOR1ACI
1070
     5
1001
GRADIENTCOLOR2ACI
1070
     2
1001
ACAD
1010
0.0
1020
0.0
1030
0.0
  0
LINE
  5
126C27
  8
SLIM
 10
12436.445174293111
 20
-256.44275090183191
 30
0.0
 11
12439.987301360799
 21
-252.9006238341367
 31
0.0
1001
GRADIENTCOLOR1ACI
1070
     5
1001
GRADIENTCOLOR2ACI
1070
     2
1001
ACAD
1010
0.0
1020
0.0
1030
0.0
  0
LINE
  5
126C28
  8
SLIM
 10
12554.88792519494
 20
-137.99999999999909
 30
0.0
 11
12556.44275090183
 21
-136.44517429310599
 31
0.0
1001
GRADIENTCOLOR1ACI
1070
     5
1001
GRADIENTCOLOR2ACI
1070
     2
1001
ACAD
1010
0.0
1020
0.0
1030
0.0
  0
LINE
  5
126C29
  8
SLIM
 10
12440.83727314956
 20
-261.03090816644271
 30
0.0
 11
12444.37326079631
 21
-257.49492051969042
 31
0.0
1001
GRADIENTCOLOR1ACI
1070
     5
1001
GRADIENTCOLOR2ACI
1070
     2
1001
ACAD
1010
0.0
1020
0.0
1030
0.0
  0
LINE
  5
126C2A
  8
SLIM
 10
12445.56540273214
 20
-265.28303470493529
 30
0.0
 11
12449.11633426801
 21
-261.73210316906119
 31
0.0
1001
GRADIENTCOLOR1ACI
1070
     5
1001
GRADIENTCOLOR2ACI
1070
     2
1001
ACAD
1010
0.0
1020
0.0
1030
0.0
  0
LINE
  5
126C2B
  8
SLIM
 10
12450.63361021192
 20
-269.19508334622611
 30
0.0
 11
12454.22138736817
 21
-265.60730618997422
 31
0.0
1001
GRADIENTCOLOR1ACI
1070
     5
1001
GRADIENTCOLOR2ACI
1070
     2
1001
ACAD
1010
0.0
1020
0.0
1030
0.0
  0
LINE
  5
126C2C
  8
SLIM
 10
12456.05200184493
 20
-272.75694783428941
 30
0.0
 11
12459.7006257557
 21
-269.10832392351722
 31
0.0
1001
GRADIENTCOLOR1ACI
1070
     5
1001
GRADIENTCOLOR2ACI
1070
     2
1001
ACAD
1010
0.0
1020
0.0
1030
0.0
  0
LINE
  5
126C2D
  8
SLIM
 10
12461.837666588721
 20
-275.95153921156628
 30
0.0
 11
12465.57486939324
 21
-272.21433640703441
 31
0.0
1001
GRADIENTCOLOR1ACI
1070
     5
1001
GRADIENTCOLOR2ACI
1070
     2
1001
ACAD
1010
0.0
1020
0.0
1030
0.0
  0
LINE
  5
126C2E
  8
SLIM
 10
12468.01637936975
 20
-278.75308255160547
 30
0.0
 11
12471.875951535259
 21
-274.89351038609948
 31
0.0
1001
GRADIENTCOLOR1ACI
1070
     5
1001
GRADIENTCOLOR2ACI
1070
     2
1001
ACAD
1010
0.0
1020
0.0
1030
0.0
  0
LINE
  5
126C2F
  8
SLIM
 10
12474.62551879481
 20
-281.12419924761713
 30
0.0
 11
12478.65096000308
 21
-277.09875803934659
 31
0.0
1001
GRADIENTCOLOR1ACI
1070
     5
1001
GRADIENTCOLOR2ACI
1070
     2
1001
ACAD
1010
0.0
1020
0.0
1030
0.0
  0
LINE
  5
126C30
  8
SLIM
 10
12481.71908289199
 20
-283.01089127150487
 30
0.0
 11
12485.96986221718
 21
-278.76011194630968
 31
0.0
1001
GRADIENTCOLOR1ACI
1070
     5
1001
GRADIENTCOLOR2ACI
1070
     2
1001
ACAD
1010
0.0
1020
0.0
1030
0.0
  0
LINE
  5
126C31
  8
SLIM
 10
12489.37669385588
 20
-284.33353642868298
 30
0.0
 11
12493.940077127039
 21
-279.7701531575176
 31
0.0
1001
GRADIENTCOLOR1ACI
1070
     5
1001
GRADIENTCOLOR2ACI
1070
     2
1001
ACAD
1010
0.0
1020
0.0
1030
0.0
  0
LINE
  5
126C32
  8
SLIM
 10
12497.721042757419
 20
-284.96944364820962
 30
0.0
 11
12500.0
 21
-282.69048640563238
 31
0.0
1001
GRADIENTCOLOR1ACI
1070
     5
1001
GRADIENTCOLOR2ACI
1070
     2
1001
ACAD
1010
0.0
1020
0.0
1030
0.0
  0
LINE
  5
126C33
  8
SLIM
 10
12500.0
 20
-282.69048640563238
 30
0.0
 11
12502.737331261091
 21
-279.9531551445416
 31
0.0
1001
GRADIENTCOLOR1ACI
1070
     5
1001
GRADIENTCOLOR2ACI
1070
     2
1001
ACAD
1010
0.0
1020
0.0
1030
0.0
  0
LINE
  5
126C34
  8
SLIM
 10
12506.955829841791
 20
-284.714912684909
 30
0.0
 11
12512.68241149879
 21
-278.98833102791468
 31
0.0
1001
GRADIENTCOLOR1ACI
1070
     5
1001
GRADIENTCOLOR2ACI
1070
     2
1001
ACAD
1010
0.0
1020
0.0
1030
0.0
  0
LINE
  5
126C35
  8
SLIM
 10
12517.464517631281
 20
-283.18648101648711
 30
0.0
 11
12524.49249489541
 21
-276.15850375236101
 31
0.0
1001
GRADIENTCOLOR1ACI
1070
     5
1001
GRADIENTCOLOR2ACI
1070
     2
1001
ACAD
1010
0.0
1020
0.0
1030
0.0
  0
LINE
  5
126C36
  8
SLIM
 10
12530.16310227131
 20
-279.46815249752581
 30
0.0
 11
12540.842546319291
 21
-268.7887084495423
 31
0.0
1001
GRADIENTCOLOR1ACI
1070
     5
1001
GRADIENTCOLOR2ACI
1070
     2
1001
ACAD
1010
0.0
1020
0.0
1030
0.0
  0
LINE
  5
126C37
  8
SLIM
 10
12549.542181759911
 20
-269.06932912999309
 30
0.0
 11
12556.61151088991
 21
-261.99999999999733
 31
0.0
1001
GRADIENTCOLOR1ACI
1070
     5
1001
GRADIENTCOLOR2ACI
1070
     2
1001
ACAD
1010
0.0
1020
0.0
1030
0.0
  0
LINE
  5
126C38
  8
OBJECT
 10
12633.0
 20
-137.99999999999909
 30
0.0
 11
12640.0
 21
-137.99999999999909
 31
0.0
1001
ACDBBLOCKREPETAG
1070
     1
1071
       47
1005
126C38
  0
LINE
  5
126C39
  8
OBJECT
 10
12640.0
 20
-137.99999999999909
 30
0.0
 11
12640.0
 21
-261.99999999999909
 31
0.0
1001
ACDBBLOCKREPETAG
1070
     1
1071
       48
1005
126C39
  0
LINE
  5
126C3A
  8
OBJECT
 10
12640.0
 20
-261.99999999999909
 30
0.0
 11
12633.0
 21
-261.99999999999909
 31
0.0
1001
ACDBBLOCKREPETAG
1070
     1
1071
       49
1005
126C3A
  0
LINE
  5
126C3B
  8
OBJECT
 10
12633.0
 20
-261.99999999999909
 30
0.0
 11
12633.0
 21
-137.99999999999909
 31
0.0
1001
ACDBBLOCKREPETAG
1070
     1
1071
       50
1005
126C3B
  0
LINE
  5
126C3C
  8
CENTER
 10
12655.0
 20
-199.99999999999909
 30
0.0
 11
12580.0
 21
-199.99999999999909
 31
0.0
1001
ACDBBLOCKREPETAG
1070
     1
1071
       51
1005
126C3C
  0
LINE
  5
126C3D
  8
OBJECT
 10
12633.0
 20
-140.99999999999909
 30
0.0
 11
12597.0
 21
-140.99999999999909
 31
0.0
1001
ACDBBLOCKREPETAG
1070
     1
1071
       52
1005
126C3D
  0
LINE
  5
126C3E
  8
OBJECT
 10
12597.0
 20
-140.99999999999909
 30
0.0
 11
12597.0
 21
-258.99999999999909
 31
0.0
1001
ACDBBLOCKREPETAG
1070
     1
1071
       53
1005
126C3E
  0
LINE
  5
126C3F
  8
OBJECT
 10
12597.0
 20
-258.99999999999909
 30
0.0
 11
12633.0
 21
-258.99999999999909
 31
0.0
1001
ACDBBLOCKREPETAG
1070
     1
1071
       54
1005
126C3F
  0
LINE
  5
126C40
  8
OBJECT
 10
12593.0
 20
-145.49999999999909
 30
0.0
 11
12586.0
 21
-145.49999999999909
 31
0.0
1001
ACDBBLOCKREPETAG
1070
     1
1071
       55
1005
126C40
  0
LINE
  5
126C41
  8
OBJECT
 10
12586.0
 20
-254.49999999999909
 30
0.0
 11
12593.0
 21
-254.49999999999909
 31
0.0
1001
ACDBBLOCKREPETAG
1070
     1
1071
       56
1005
126C41
  0
LINE
  5
126C42
  8
OBJECT
 10
12593.0
 20
-254.49999999999909
 30
0.0
 11
12593.0
 21
-145.49999999999909
 31
0.0
1001
ACDBBLOCKREPETAG
1070
     1
1071
       57
1005
126C42
  0
LINE
  5
126C43
  8
OBJECT
 10
12597.0
 20
-140.99999999999909
 30
0.0
 11
12593.0
 21
-145.49999999999909
 31
0.0
1001
ACDBBLOCKREPETAG
1070
     1
1071
       58
1005
126C43
  0
LINE
  5
126C44
  8
OBJECT
 10
12597.0
 20
-258.99999999999909
 30
0.0
 11
12593.0
 21
-254.49999999999909
 31
0.0
1001
ACDBBLOCKREPETAG
1070
     1
1071
       59
1005
126C44
  0
LINE
  5
126C45
  8
OBJECT
 10
12583.0
 20
-137.99999999999909
 30
0.0
 11
12580.0
 21
-137.99999999999909
 31
0.0
1001
ACDBBLOCKREPETAG
1070
     1
1071
       60
1005
126C45
  0
ARC
  5
126C46
  8
OBJECT
 10
12583.0
 20
-140.99999999999909
 30
0.0
 40
3.0
 50
0.0
 51
90.0
1001
ACDBBLOCKREPETAG
1070
     1
1071
       61
1005
126C46
  0
LINE
  5
126C47
  8
OBJECT
 10
12580.0
 20
-261.99999999999909
 30
0.0
 11
12583.0
 21
-261.99999999999909
 31
0.0
1001
ACDBBLOCKREPETAG
1070
     1
1071
       62
1005
126C47
  0
ARC
  5
126C48
  8
OBJECT
 10
12583.0
 20
-258.99999999999909
 30
0.0
 40
3.0
 50
270.0
 51
0.0
1001
ACDBBLOCKREPETAG
1070
     1
1071
       63
1005
126C48
  0
LINE
  5
126C49
  8
OBJECT
 10
12586.0
 20
-258.99999999999909
 30
0.0
 11
12586.0
 21
-140.99999999999909
 31
0.0
1001
ACDBBLOCKREPETAG
1070
     1
1071
       64
1005
126C49
  0
LINE
  5
126C4A
  8
HIDDEN
 10
12588.0
 20
-155.49999999999909
 30
0.0
 11
12588.0
 21
-244.49999999999909
 31
0.0
1001
ACDBBLOCKREPETAG
1070
     1
1071
       65
1005
126C4A
  0
LINE
  5
126C4B
  8
SLIM
 10
10434.62485174211
 20
-150.5
 30
0.0
 11
10460.2662412277
 21
-124.858610514414
 31
0.0
1001
GRADIENTCOLOR1ACI
1070
     5
1001
GRADIENTCOLOR2ACI
1070
     2
1001
ACAD
1010
0.0
1020
0.0
1030
0.0
  0
LINE
  5
126C4C
  8
SLIM
 10
10466.96656796274
 20
-127.1385399004393
 30
0.0
 11
10475.496673795509
 21
-118.6084340676734
 31
0.0
1001
GRADIENTCOLOR1ACI
1070
     5
1001
GRADIENTCOLOR2ACI
1070
     2
1001
ACAD
1010
0.0
1020
0.0
1030
0.0
  0
LINE
  5
126C4D
  8
SLIM
 10
10480.729808117931
 20
-122.3555558663183
 30
0.0
 11
10487.10092058016
 21
-115.98444340408869
 31
0.0
1001
GRADIENTCOLOR1ACI
1070
     5
1001
GRADIENTCOLOR2ACI
1070
     2
1001
ACAD
1010
0.0
1020
0.0
1030
0.0
  0
LINE
  5
126C4E
  8
SLIM
 10
10491.62615505049
 20
-120.4394650548292
 30
0.0
 11
10497.013124938399
 21
-115.0524951669185
 31
0.0
1001
GRADIENTCOLOR1ACI
1070
     5
1001
GRADIENTCOLOR2ACI
1070
     2
1001
ACAD
1010
0.0
1020
0.0
1030
0.0
  0
LINE
  5
126C4F
  8
SLIM
 10
10501.03912728228
 20
-120.00674894410621
 30
0.0
 11
10505.84469431025
 21
-115.20118191613891
 31
0.0
1001
GRADIENTCOLOR1ACI
1070
     5
1001
GRADIENTCOLOR2ACI
1070
     2
1001
ACAD
1010
0.0
1020
0.0
1030
0.0
  0
LINE
  5
126C50
  8
SLIM
 10
10509.464325564621
 20
-120.5618067828391
 30
0.0
 11
10513.884473575559
 21
-116.14165877189311
 31
0.0
1001
GRADIENTCOLOR1ACI
1070
     5
1001
GRADIENTCOLOR2ACI
1070
     2
1001
ACAD
1010
0.0
1020
0.0
1030
0.0
  0
LINE
  5
126C51
  8
SLIM
 10
10517.14713233857
 20
-121.85925612995651
 30
0.0
 11
10521.2955183575
 21
-117.7108701110201
 31
0.0
1001
GRADIENTCOLOR1ACI
1070
     5
1001
GRADIENTCOLOR2ACI
1070
     2
1001
ACAD
1010
0.0
1020
0.0
1030
0.0
  0
LINE
  5
126C52
  8
SLIM
 10
10524.22929262222
 20
-123.7573519673733
 30
0.0
 11
10528.179600214
 21
-119.80704437558779
 31
0.0
1001
GRADIENTCOLOR1ACI
1070
     5
1001
GRADIENTCOLOR2ACI
1070
     2
1001
ACAD
1010
0.0
1020
0.0
1030
0.0
  0
LINE
  5
126C53
  8
SLIM
 10
10530.80015984081
 20
-126.16674086984671
 30
0.0
 11
10534.604195997101
 21
-122.3627047135587
 31
0.0
1001
GRADIENTCOLOR1ACI
1070
     5
1001
GRADIENTCOLOR2ACI
1070
     2
1001
ACAD
1010
0.0
1020
0.0
1030
0.0
  0
LINE
  5
126C54
  8
SLIM
 10
10536.91893009735
 20
-129.02822673437819
 30
0.0
 11
10540.61558539028
 21
-125.3315714414439
 31
0.0
1001
GRADIENTCOLOR1ACI
1070
     5
1001
GRADIENTCOLOR2ACI
1070
     2
1001
ACAD
1010
0.0
1020
0.0
1030
0.0
  0
LINE
  5
126C55
  8
SLIM
 10
10542.625662068011
 20
-132.30175088479609
 30
0.0
 11
10546.24585805909
 21
-128.68155489371199
 31
0.0
1001
GRADIENTCOLOR1ACI
1070
     5
1001
GRADIENTCOLOR2ACI
1070
     2
1001
ACAD
1010
0.0
1020
0.0
1030
0.0
  0
LINE
  5
126C56
  8
SLIM
 10
10432.39076526292
 20
-251.51690381094841
 30
0.0
 11
10434.407669073869
 21
-249.49999999999861
 31
0.0
1001
GRADIENTCOLOR1ACI
1070
     5
1001
GRADIENTCOLOR2ACI
1070
     2
1001
ACAD
1010
0.0
1020
0.0
1030
0.0
  0
LINE
  5
126C57
  8
SLIM
 10
10547.94722005113
 20
-135.96044902274201
 30
0.0
 11
10551.516903810951
 21
-132.39076526292041
 31
0.0
1001
GRADIENTCOLOR1ACI
1070
     5
1001
GRADIENTCOLOR2ACI
1070
     2
1001
ACAD
1010
0.0
1020
0.0
1030
0.0
  0
LINE
  5
126C58
  8
SLIM
 10
10436.445174293111
 20
-256.44275090183191
 30
0.0
 11
10439.987301360799
 21
-252.9006238341367
 31
0.0
1001
GRADIENTCOLOR1ACI
1070
     5
1001
GRADIENTCOLOR2ACI
1070
     2
1001
ACAD
1010
0.0
1020
0.0
1030
0.0
  0
LINE
  5
126C59
  8
SLIM
 10
10554.88792519494
 20
-137.99999999999909
 30
0.0
 11
10556.44275090183
 21
-136.44517429310599
 31
0.0
1001
GRADIENTCOLOR1ACI
1070
     5
1001
GRADIENTCOLOR2ACI
1070
     2
1001
ACAD
1010
0.0
1020
0.0
1030
0.0
  0
LINE
  5
126C5A
  8
SLIM
 10
10440.83727314956
 20
-261.03090816644271
 30
0.0
 11
10444.373260796319
 21
-257.49492051969042
 31
0.0
1001
GRADIENTCOLOR1ACI
1070
     5
1001
GRADIENTCOLOR2ACI
1070
     2
1001
ACAD
1010
0.0
1020
0.0
1030
0.0
  0
LINE
  5
126C5B
  8
SLIM
 10
10445.56540273214
 20
-265.28303470493529
 30
0.0
 11
10449.11633426801
 21
-261.73210316906119
 31
0.0
1001
GRADIENTCOLOR1ACI
1070
     5
1001
GRADIENTCOLOR2ACI
1070
     2
1001
ACAD
1010
0.0
1020
0.0
1030
0.0
  0
LINE
  5
126C5C
  8
SLIM
 10
10450.63361021192
 20
-269.19508334622611
 30
0.0
 11
10454.22138736817
 21
-265.60730618997422
 31
0.0
1001
GRADIENTCOLOR1ACI
1070
     5
1001
GRADIENTCOLOR2ACI
1070
     2
1001
ACAD
1010
0.0
1020
0.0
1030
0.0
  0
LINE
  5
126C5D
  8
SLIM
 10
10456.05200184493
 20
-272.75694783428941
 30
0.0
 11
10459.7006257557
 21
-269.10832392351722
 31
0.0
1001
GRADIENTCOLOR1ACI
1070
     5
1001
GRADIENTCOLOR2ACI
1070
     2
1001
ACAD
1010
0.0
1020
0.0
1030
0.0
  0
LINE
  5
126C5E
  8
SLIM
 10
10461.837666588721
 20
-275.95153921156628
 30
0.0
 11
10465.574869393249
 21
-272.21433640703441
 31
0.0
1001
GRADIENTCOLOR1ACI
1070
     5
1001
GRADIENTCOLOR2ACI
1070
     2
1001
ACAD
1010
0.0
1020
0.0
1030
0.0
  0
LINE
  5
126C5F
  8
SLIM
 10
10468.01637936975
 20
-278.75308255160547
 30
0.0
 11
10471.875951535259
 21
-274.89351038609948
 31
0.0
1001
GRADIENTCOLOR1ACI
1070
     5
1001
GRADIENTCOLOR2ACI
1070
     2
1001
ACAD
1010
0.0
1020
0.0
1030
0.0
  0
LINE
  5
126C60
  8
SLIM
 10
10474.62551879481
 20
-281.12419924761713
 30
0.0
 11
10478.65096000308
 21
-277.09875803934659
 31
0.0
1001
GRADIENTCOLOR1ACI
1070
     5
1001
GRADIENTCOLOR2ACI
1070
     2
1001
ACAD
1010
0.0
1020
0.0
1030
0.0
  0
LINE
  5
126C61
  8
SLIM
 10
10481.71908289199
 20
-283.01089127150487
 30
0.0
 11
10485.96986221718
 21
-278.76011194630968
 31
0.0
1001
GRADIENTCOLOR1ACI
1070
     5
1001
GRADIENTCOLOR2ACI
1070
     2
1001
ACAD
1010
0.0
1020
0.0
1030
0.0
  0
LINE
  5
126C62
  8
SLIM
 10
10489.37669385588
 20
-284.33353642868298
 30
0.0
 11
10493.940077127039
 21
-279.7701531575176
 31
0.0
1001
GRADIENTCOLOR1ACI
1070
     5
1001
GRADIENTCOLOR2ACI
1070
     2
1001
ACAD
1010
0.0
1020
0.0
1030
0.0
  0
LINE
  5
126C63
  8
SLIM
 10
10497.721042757419
 20
-284.96944364820962
 30
0.0
 11
10500.0
 21
-282.69048640563238
 31
0.0
1001
GRADIENTCOLOR1ACI
1070
     5
1001
GRADIENTCOLOR2ACI
1070
     2
1001
ACAD
1010
0.0
1020
0.0
1030
0.0
  0
LINE
  5
126C64
  8
SLIM
 10
10500.0
 20
-282.69048640563238
 30
0.0
 11
10502.737331261091
 21
-279.9531551445416
 31
0.0
1001
GRADIENTCOLOR1ACI
1070
     5
1001
GRADIENTCOLOR2ACI
1070
     2
1001
ACAD
1010
0.0
1020
0.0
1030
0.0
  0
LINE
  5
126C65
  8
SLIM
 10
10506.955829841791
 20
-284.714912684909
 30
0.0
 11
10512.68241149879
 21
-278.98833102791468
 31
0.0
1001
GRADIENTCOLOR1ACI
1070
     5
1001
GRADIENTCOLOR2ACI
1070
     2
1001
ACAD
1010
0.0
1020
0.0
1030
0.0
  0
LINE
  5
126C66
  8
SLIM
 10
10517.464517631281
 20
-283.18648101648711
 30
0.0
 11
10524.49249489541
 21
-276.15850375236101
 31
0.0
1001
GRADIENTCOLOR1ACI
1070
     5
1001
GRADIENTCOLOR2ACI
1070
     2
1001
ACAD
1010
0.0
1020
0.0
1030
0.0
  0
LINE
  5
126C67
  8
SLIM
 10
10530.16310227131
 20
-279.46815249752581
 30
0.0
 11
10540.8425463193
 21
-268.7887084495423
 31
0.0
1001
GRADIENTCOLOR1ACI
1070
     5
1001
GRADIENTCOLOR2ACI
1070
     2
1001
ACAD
1010
0.0
1020
0.0
1030
0.0
  0
LINE
  5
126C68
  8
SLIM
 10
10549.542181759911
 20
-269.06932912999309
 30
0.0
 11
10556.61151088991
 21
-261.99999999999733
 31
0.0
1001
GRADIENTCOLOR1ACI
1070
     5
1001
GRADIENTCOLOR2ACI
1070
     2
1001
ACAD
1010
0.0
1020
0.0
1030
0.0
  0
LINE
  5
126C69
  8
OBJECT
 10
10633.0
 20
-137.99999999999909
 30
0.0
 11
10640.0
 21
-137.99999999999909
 31
0.0
1001
ACDBBLOCKREPETAG
1070
     1
1071
       47
1005
126C69
  0
LINE
  5
126C6A
  8
OBJECT
 10
10640.0
 20
-137.99999999999909
 30
0.0
 11
10640.0
 21
-261.99999999999909
 31
0.0
1001
ACDBBLOCKREPETAG
1070
     1
1071
       48
1005
126C6A
  0
LINE
  5
126C6B
  8
OBJECT
 10
10640.0
 20
-261.99999999999909
 30
0.0
 11
10633.0
 21
-261.99999999999909
 31
0.0
1001
ACDBBLOCKREPETAG
1070
     1
1071
       49
1005
126C6B
  0
LINE
  5
126C6C
  8
OBJECT
 10
10633.0
 20
-261.99999999999909
 30
0.0
 11
10633.0
 21
-137.99999999999909
 31
0.0
1001
ACDBBLOCKREPETAG
1070
     1
1071
       50
1005
126C6C
  0
LINE
  5
126C6D
  8
CENTER
 10
10655.0
 20
-199.99999999999909
 30
0.0
 11
10580.0
 21
-199.99999999999909
 31
0.0
1001
ACDBBLOCKREPETAG
1070
     1
1071
       51
1005
126C6D
  0
LINE
  5
126C6E
  8
OBJECT
 10
10633.0
 20
-140.99999999999909
 30
0.0
 11
10597.0
 21
-140.99999999999909
 31
0.0
1001
ACDBBLOCKREPETAG
1070
     1
1071
       52
1005
126C6E
  0
LINE
  5
126C6F
  8
OBJECT
 10
10597.0
 20
-140.99999999999909
 30
0.0
 11
10597.0
 21
-258.99999999999909
 31
0.0
1001
ACDBBLOCKREPETAG
1070
     1
1071
       53
1005
126C6F
  0
LINE
  5
126C70
  8
OBJECT
 10
10597.0
 20
-258.99999999999909
 30
0.0
 11
10633.0
 21
-258.99999999999909
 31
0.0
1001
ACDBBLOCKREPETAG
1070
     1
1071
       54
1005
126C70
  0
LINE
  5
126C71
  8
OBJECT
 10
10593.0
 20
-145.49999999999909
 30
0.0
 11
10586.0
 21
-145.49999999999909
 31
0.0
1001
ACDBBLOCKREPETAG
1070
     1
1071
       55
1005
126C71
  0
LINE
  5
126C72
  8
OBJECT
 10
10586.0
 20
-254.49999999999909
 30
0.0
 11
10593.0
 21
-254.49999999999909
 31
0.0
1001
ACDBBLOCKREPETAG
1070
     1
1071
       56
1005
126C72
  0
LINE
  5
126C73
  8
OBJECT
 10
10593.0
 20
-254.49999999999909
 30
0.0
 11
10593.0
 21
-145.49999999999909
 31
0.0
1001
ACDBBLOCKREPETAG
1070
     1
1071
       57
1005
126C73
  0
LINE
  5
126C74
  8
OBJECT
 10
10597.0
 20
-140.99999999999909
 30
0.0
 11
10593.0
 21
-145.49999999999909
 31
0.0
1001
ACDBBLOCKREPETAG
1070
     1
1071
       58
1005
126C74
  0
LINE
  5
126C75
  8
OBJECT
 10
10597.0
 20
-258.99999999999909
 30
0.0
 11
10593.0
 21
-254.49999999999909
 31
0.0
1001
ACDBBLOCKREPETAG
1070
     1
1071
       59
1005
126C75
  0
LINE
  5
126C76
  8
OBJECT
 10
10583.0
 20
-137.99999999999909
 30
0.0
 11
10580.0
 21
-137.99999999999909
 31
0.0
1001
ACDBBLOCKREPETAG
1070
     1
1071
       60
1005
126C76
  0
ARC
  5
126C77
  8
OBJECT
 10
10583.0
 20
-140.99999999999909
 30
0.0
 40
3.0
 50
0.0
 51
90.0
1001
ACDBBLOCKREPETAG
1070
     1
1071
       61
1005
126C77
  0
LINE
  5
126C78
  8
OBJECT
 10
10580.0
 20
-261.99999999999909
 30
0.0
 11
10583.0
 21
-261.99999999999909
 31
0.0
1001
ACDBBLOCKREPETAG
1070
     1
1071
       62
1005
126C78
  0
ARC
  5
126C79
  8
OBJECT
 10
10583.0
 20
-258.99999999999909
 30
0.0
 40
3.0
 50
270.0
 51
0.0
1001
ACDBBLOCKREPETAG
1070
     1
1071
       63
1005
126C79
  0
LINE
  5
126C7A
  8
OBJECT
 10
10586.0
 20
-258.99999999999909
 30
0.0
 11
10586.0
 21
-140.99999999999909
 31
0.0
1001
ACDBBLOCKREPETAG
1070
     1
1071
       64
1005
126C7A
  0
LINE
  5
126C7B
  8
HIDDEN
 10
10588.0
 20
-155.49999999999909
 30
0.0
 11
10588.0
 21
-244.49999999999909
 31
0.0
1001
ACDBBLOCKREPETAG
1070
     1
1071
       65
1005
126C7B
  0
LINE
  5
126C7C
  8
SLIM
 10
8434.6248517421118
 20
-150.49999999999909
 30
0.0
 11
8460.2662412276986
 21
-124.858610514414
 31
0.0
1001
GRADIENTCOLOR1ACI
1070
     5
1001
GRADIENTCOLOR2ACI
1070
     2
1001
ACAD
1010
0.0
1020
0.0
1030
0.0
  0
LINE
  5
126C7D
  8
SLIM
 10
8466.9665679627415
 20
-127.1385399004393
 30
0.0
 11
8475.4966737955074
 21
-118.6084340676734
 31
0.0
1001
GRADIENTCOLOR1ACI
1070
     5
1001
GRADIENTCOLOR2ACI
1070
     2
1001
ACAD
1010
0.0
1020
0.0
1030
0.0
  0
LINE
  5
126C7E
  8
SLIM
 10
8480.7298081179324
 20
-122.3555558663183
 30
0.0
 11
8487.1009205801583
 21
-115.98444340408869
 31
0.0
1001
GRADIENTCOLOR1ACI
1070
     5
1001
GRADIENTCOLOR2ACI
1070
     2
1001
ACAD
1010
0.0
1020
0.0
1030
0.0
  0
LINE
  5
126C7F
  8
SLIM
 10
8491.6261550504896
 20
-120.4394650548292
 30
0.0
 11
8497.0131249383976
 21
-115.0524951669185
 31
0.0
1001
GRADIENTCOLOR1ACI
1070
     5
1001
GRADIENTCOLOR2ACI
1070
     2
1001
ACAD
1010
0.0
1020
0.0
1030
0.0
  0
LINE
  5
126C80
  8
SLIM
 10
8501.0391272822817
 20
-120.00674894410621
 30
0.0
 11
8505.8446943102535
 21
-115.20118191613891
 31
0.0
1001
GRADIENTCOLOR1ACI
1070
     5
1001
GRADIENTCOLOR2ACI
1070
     2
1001
ACAD
1010
0.0
1020
0.0
1030
0.0
  0
LINE
  5
126C81
  8
SLIM
 10
8509.4643255646224
 20
-120.5618067828391
 30
0.0
 11
8513.8844735755629
 21
-116.14165877189311
 31
0.0
1001
GRADIENTCOLOR1ACI
1070
     5
1001
GRADIENTCOLOR2ACI
1070
     2
1001
ACAD
1010
0.0
1020
0.0
1030
0.0
  0
LINE
  5
126C82
  8
SLIM
 10
8517.1471323385686
 20
-121.85925612995651
 30
0.0
 11
8521.2955183575014
 21
-117.7108701110201
 31
0.0
1001
GRADIENTCOLOR1ACI
1070
     5
1001
GRADIENTCOLOR2ACI
1070
     2
1001
ACAD
1010
0.0
1020
0.0
1030
0.0
  0
LINE
  5
126C83
  8
SLIM
 10
8524.2292926222217
 20
-123.7573519673733
 30
0.0
 11
8528.1796002140072
 21
-119.80704437558779
 31
0.0
1001
GRADIENTCOLOR1ACI
1070
     5
1001
GRADIENTCOLOR2ACI
1070
     2
1001
ACAD
1010
0.0
1020
0.0
1030
0.0
  0
LINE
  5
126C84
  8
SLIM
 10
8530.8001598408136
 20
-126.16674086984671
 30
0.0
 11
8534.6041959971044
 21
-122.3627047135587
 31
0.0
1001
GRADIENTCOLOR1ACI
1070
     5
1001
GRADIENTCOLOR2ACI
1070
     2
1001
ACAD
1010
0.0
1020
0.0
1030
0.0
  0
LINE
  5
126C85
  8
SLIM
 10
8536.9189300973576
 20
-129.02822673437819
 30
0.0
 11
8540.615585390291
 21
-125.3315714414439
 31
0.0
1001
GRADIENTCOLOR1ACI
1070
     5
1001
GRADIENTCOLOR2ACI
1070
     2
1001
ACAD
1010
0.0
1020
0.0
1030
0.0
  0
LINE
  5
126C86
  8
SLIM
 10
8542.6256620680033
 20
-132.30175088479609
 30
0.0
 11
8546.2458580590901
 21
-128.68155489371199
 31
0.0
1001
GRADIENTCOLOR1ACI
1070
     5
1001
GRADIENTCOLOR2ACI
1070
     2
1001
ACAD
1010
0.0
1020
0.0
1030
0.0
  0
LINE
  5
126C87
  8
SLIM
 10
8432.3907652629223
 20
-251.51690381094841
 30
0.0
 11
8434.407669073873
 21
-249.49999999999861
 31
0.0
1001
GRADIENTCOLOR1ACI
1070
     5
1001
GRADIENTCOLOR2ACI
1070
     2
1001
ACAD
1010
0.0
1020
0.0
1030
0.0
  0
LINE
  5
126C88
  8
SLIM
 10
8547.9472200511282
 20
-135.96044902274201
 30
0.0
 11
8551.5169038109489
 21
-132.39076526292041
 31
0.0
1001
GRADIENTCOLOR1ACI
1070
     5
1001
GRADIENTCOLOR2ACI
1070
     2
1001
ACAD
1010
0.0
1020
0.0
1030
0.0
  0
LINE
  5
126C89
  8
SLIM
 10
8436.4451742931105
 20
-256.44275090183191
 30
0.0
 11
8439.987301360803
 21
-252.9006238341367
 31
0.0
1001
GRADIENTCOLOR1ACI
1070
     5
1001
GRADIENTCOLOR2ACI
1070
     2
1001
ACAD
1010
0.0
1020
0.0
1030
0.0
  0
LINE
  5
126C8A
  8
SLIM
 10
8554.8879251949402
 20
-137.99999999999909
 30
0.0
 11
8556.4427509018351
 21
-136.44517429310599
 31
0.0
1001
GRADIENTCOLOR1ACI
1070
     5
1001
GRADIENTCOLOR2ACI
1070
     2
1001
ACAD
1010
0.0
1020
0.0
1030
0.0
  0
LINE
  5
126C8B
  8
SLIM
 10
8440.8372731495674
 20
-261.03090816644271
 30
0.0
 11
8444.3732607963138
 21
-257.49492051969042
 31
0.0
1001
GRADIENTCOLOR1ACI
1070
     5
1001
GRADIENTCOLOR2ACI
1070
     2
1001
ACAD
1010
0.0
1020
0.0
1030
0.0
  0
LINE
  5
126C8C
  8
SLIM
 10
8445.5654027321416
 20
-265.28303470493529
 30
0.0
 11
8449.1163342680138
 21
-261.73210316906119
 31
0.0
1001
GRADIENTCOLOR1ACI
1070
     5
1001
GRADIENTCOLOR2ACI
1070
     2
1001
ACAD
1010
0.0
1020
0.0
1030
0.0
  0
LINE
  5
126C8D
  8
SLIM
 10
8450.6336102119203
 20
-269.19508334622611
 30
0.0
 11
8454.2213873681776
 21
-265.60730618997422
 31
0.0
1001
GRADIENTCOLOR1ACI
1070
     5
1001
GRADIENTCOLOR2ACI
1070
     2
1001
ACAD
1010
0.0
1020
0.0
1030
0.0
  0
LINE
  5
126C8E
  8
SLIM
 10
8456.0520018449297
 20
-272.75694783428941
 30
0.0
 11
8459.7006257556986
 21
-269.10832392351722
 31
0.0
1001
GRADIENTCOLOR1ACI
1070
     5
1001
GRADIENTCOLOR2ACI
1070
     2
1001
ACAD
1010
0.0
1020
0.0
1030
0.0
  0
LINE
  5
126C8F
  8
SLIM
 10
8461.837666588719
 20
-275.95153921156628
 30
0.0
 11
8465.5748693932492
 21
-272.21433640703441
 31
0.0
1001
GRADIENTCOLOR1ACI
1070
     5
1001
GRADIENTCOLOR2ACI
1070
     2
1001
ACAD
1010
0.0
1020
0.0
1030
0.0
  0
LINE
  5
126C90
  8
SLIM
 10
8468.0163793697502
 20
-278.75308255160547
 30
0.0
 11
8471.8759515352576
 21
-274.89351038609948
 31
0.0
1001
GRADIENTCOLOR1ACI
1070
     5
1001
GRADIENTCOLOR2ACI
1070
     2
1001
ACAD
1010
0.0
1020
0.0
1030
0.0
  0
LINE
  5
126C91
  8
SLIM
 10
8474.6255187948063
 20
-281.12419924761713
 30
0.0
 11
8478.6509600030768
 21
-277.09875803934659
 31
0.0
1001
GRADIENTCOLOR1ACI
1070
     5
1001
GRADIENTCOLOR2ACI
1070
     2
1001
ACAD
1010
0.0
1020
0.0
1030
0.0
  0
LINE
  5
126C92
  8
SLIM
 10
8481.7190828919902
 20
-283.01089127150487
 30
0.0
 11
8485.9698622171873
 21
-278.76011194630968
 31
0.0
1001
GRADIENTCOLOR1ACI
1070
     5
1001
GRADIENTCOLOR2ACI
1070
     2
1001
ACAD
1010
0.0
1020
0.0
1030
0.0
  0
LINE
  5
126C93
  8
SLIM
 10
8489.3766938558783
 20
-284.33353642868298
 30
0.0
 11
8493.9400771270484
 21
-279.7701531575176
 31
0.0
1001
GRADIENTCOLOR1ACI
1070
     5
1001
GRADIENTCOLOR2ACI
1070
     2
1001
ACAD
1010
0.0
1020
0.0
1030
0.0
  0
LINE
  5
126C94
  8
SLIM
 10
8497.7210427574246
 20
-284.96944364820962
 30
0.0
 11
8500.0
 21
-282.69048640563238
 31
0.0
1001
GRADIENTCOLOR1ACI
1070
     5
1001
GRADIENTCOLOR2ACI
1070
     2
1001
ACAD
1010
0.0
1020
0.0
1030
0.0
  0
LINE
  5
126C95
  8
SLIM
 10
8500.0
 20
-282.69048640563238
 30
0.0
 11
8502.7373312610907
 21
-279.9531551445416
 31
0.0
1001
GRADIENTCOLOR1ACI
1070
     5
1001
GRADIENTCOLOR2ACI
1070
     2
1001
ACAD
1010
0.0
1020
0.0
1030
0.0
  0
LINE
  5
126C96
  8
SLIM
 10
8506.9558298417887
 20
-284.714912684909
 30
0.0
 11
8512.6824114987849
 21
-278.98833102791468
 31
0.0
1001
GRADIENTCOLOR1ACI
1070
     5
1001
GRADIENTCOLOR2ACI
1070
     2
1001
ACAD
1010
0.0
1020
0.0
1030
0.0
  0
LINE
  5
126C97
  8
SLIM
 10
8517.4645176312824
 20
-283.18648101648711
 30
0.0
 11
8524.4924948954103
 21
-276.15850375236101
 31
0.0
1001
GRADIENTCOLOR1ACI
1070
     5
1001
GRADIENTCOLOR2ACI
1070
     2
1001
ACAD
1010
0.0
1020
0.0
1030
0.0
  0
LINE
  5
126C98
  8
SLIM
 10
8530.1631022713136
 20
-279.46815249752581
 30
0.0
 11
8540.842546319298
 21
-268.7887084495423
 31
0.0
1001
GRADIENTCOLOR1ACI
1070
     5
1001
GRADIENTCOLOR2ACI
1070
     2
1001
ACAD
1010
0.0
1020
0.0
1030
0.0
  0
LINE
  5
126C99
  8
SLIM
 10
8549.5421817599163
 20
-269.06932912999309
 30
0.0
 11
8556.6115108899103
 21
-261.99999999999909
 31
0.0
1001
GRADIENTCOLOR1ACI
1070
     5
1001
GRADIENTCOLOR2ACI
1070
     2
1001
ACAD
1010
0.0
1020
0.0
1030
0.0
  0
LINE
  5
126C9A
  8
OBJECT
 10
12425.0
 20
-770.0
 30
0.0
 11
12425.0
 21
-907.50000000006526
 31
0.0
1001
ACDBBLOCKREPETAG
1070
     1
1071
        1
1005
126C9A
  0
LINE
  5
126C9B
  8
OBJECT
 10
12575.0
 20
-769.9999999999942
 30
0.0
 11
12575.0
 21
-1043.0
 31
0.0
1001
ACDBBLOCKREPETAG
1070
     1
1071
        3
1005
126C9B
  0
LINE
  5
126C9C
  8
CENTER
 10
12500.0
 20
-770.0
 30
0.0
 11
12500.0
 21
-1055.0
 31
0.0
1001
ACDBBLOCKREPETAG
1070
     1
1071
        6
1005
126C9C
  0
LINE
  5
126C9D
  8
OBJECT
 10
12420.0
 20
-1055.0
 30
0.0
 11
12580.0
 21
-1055.0
 31
0.0
1001
ACDBBLOCKREPETAG
1070
     1
1071
        7
1005
126C9D
  0
LINE
  5
126C9E
  8
OBJECT
 10
12420.0
 20
-1043.0
 30
0.0
 11
12580.0
 21
-1043.0
 31
0.0
1001
ACDBBLOCKREPETAG
1070
     1
1071
        8
1005
126C9E
  0
LINE
  5
126C9F
  8
OBJECT
 10
12420.0
 20
-1043.0
 30
0.0
 11
12420.0
 21
-1055.0
 31
0.0
1001
ACDBBLOCKREPETAG
1070
     1
1071
        9
1005
126C9F
  0
LINE
  5
126CA0
  8
OBJECT
 10
12580.0
 20
-1043.0
 30
0.0
 11
12580.0
 21
-1055.0
 31
0.0
1001
ACDBBLOCKREPETAG
1070
     1
1071
       10
1005
126CA0
  0
LINE
  5
126CA1
  8
OBJECT
 10
12367.0
 20
-909.0
 30
0.0
 11
12360.0
 21
-909.0
 31
0.0
1001
ACDBBLOCKREPETAG
1070
     1
1071
       23
1005
126CA1
  0
LINE
  5
126CA2
  8
OBJECT
 10
12360.0
 20
-909.0
 30
0.0
 11
12360.0
 21
-1016.0
 31
0.0
1001
ACDBBLOCKREPETAG
1070
     1
1071
       24
1005
126CA2
  0
LINE
  5
126CA3
  8
OBJECT
 10
12415.5
 20
-910.50000000006548
 30
0.0
 11
12415.5
 21
-1013.5
 31
0.0
1001
ACDBBLOCKREPETAG
1070
     1
1071
       25
1005
126CA3
  0
ARC
  5
126CA4
  8
OBJECT
 10
12418.5
 20
-910.50000000006548
 30
0.0
 40
3.0
 50
90.0
 51
180.0
1001
ACDBBLOCKREPETAG
1070
     1
1071
       26
1005
126CA4
  0
LINE
  5
126CA5
  8
OBJECT
 10
12367.0
 20
-1016.0
 30
0.0
 11
12367.0
 21
-909.0
 31
0.0
1001
ACDBBLOCKREPETAG
1070
     1
1071
       27
1005
126CA5
  0
LINE
  5
126CA6
  8
CENTER
 10
12345.0
 20
-964.0
 30
0.0
 11
12458.65508008699
 21
-964.00000000006526
 31
0.0
1001
ACDBBLOCKREPETAG
1070
     1
1071
       28
1005
126CA6
  0
LINE
  5
126CA7
  8
OBJECT
 10
12367.0
 20
-912.0
 30
0.0
 11
12403.0
 21
-912.0
 31
0.0
1001
ACDBBLOCKREPETAG
1070
     1
1071
       29
1005
126CA7
  0
LINE
  5
126CA8
  8
OBJECT
 10
12403.0
 20
-912.0
 30
0.0
 11
12403.0
 21
-1016.0
 31
0.0
1001
ACDBBLOCKREPETAG
1070
     1
1071
       30
1005
126CA8
  0
LINE
  5
126CA9
  8
OBJECT
 10
12403.0
 20
-1016.0
 30
0.0
 11
12360.0
 21
-1016.0
 31
0.0
1001
ACDBBLOCKREPETAG
1070
     1
1071
       31
1005
126CA9
  0
LINE
  5
126CAA
  8
OBJECT
 10
12407.0
 20
-916.5
 30
0.0
 11
12415.5
 21
-916.5
 31
0.0
1001
ACDBBLOCKREPETAG
1070
     1
1071
       32
1005
126CAA
  0
LINE
  5
126CAB
  8
OBJECT
 10
12415.5
 20
-1011.5
 30
0.0
 11
12407.0
 21
-1011.5
 31
0.0
1001
ACDBBLOCKREPETAG
1070
     1
1071
       33
1005
126CAB
  0
LINE
  5
126CAC
  8
OBJECT
 10
12407.0
 20
-1011.5
 30
0.0
 11
12407.0
 21
-916.5
 31
0.0
1001
ACDBBLOCKREPETAG
1070
     1
1071
       34
1005
126CAC
  0
LINE
  5
126CAD
  8
OBJECT
 10
12403.0
 20
-912.0
 30
0.0
 11
12407.0
 21
-916.5
 31
0.0
1001
ACDBBLOCKREPETAG
1070
     1
1071
       35
1005
126CAD
  0
LINE
  5
126CAE
  8
OBJECT
 10
12403.0
 20
-1016.0
 30
0.0
 11
12407.0
 21
-1011.5
 31
0.0
1001
ACDBBLOCKREPETAG
1070
     1
1071
       36
1005
126CAE
  0
LINE
  5
126CAF
  8
HIDDEN
 10
12412.0
 20
-926.0
 30
0.0
 11
12412.0
 21
-1002.0
 31
0.0
1001
ACDBBLOCKREPETAG
1070
     1
1071
       37
1005
126CAF
  0
ARC
  5
126CB0
  8
OBJECT
 10
12335.121727121221
 20
-972.40950726122867
 30
0.0
 40
110.86635228309
 50
16.95964619565439
 51
35.836572580695218
1001
ACDBBLOCKREPETAG
1070
     1
1071
       38
1005
126CB0
  0
ARC
  5
126CB1
  8
OBJECT
 10
12382.86401122309
 20
-957.28774971844894
 30
0.0
 40
60.791749880358971
 50
0.2712030171730965
 51
16.452795347786878
1001
ACDBBLOCKREPETAG
1070
     1
1071
       39
1005
126CB1
  0
ARC
  5
126CB2
  8
OBJECT
 10
12382.86400434375
 20
-963.71224975990117
 30
0.0
 40
60.79175676209487
 50
343.54722053947972
 51
359.7287965218548
1001
ACDBBLOCKREPETAG
1070
     1
1071
       40
1005
126CB2
  0
ARC
  5
126CB3
  8
OBJECT
 10
12335.121727121221
 20
-948.59049273883636
 30
0.0
 40
110.8663522830916
 50
324.16342741930481
 51
343.04035380434561
1001
ACDBBLOCKREPETAG
1070
     1
1071
       41
1005
126CB3
  0
LINE
  5
126CB4
  8
OBJECT
 10
12443.65508008699
 20
-957.00000000003638
 30
0.0
 11
12443.65508008699
 21
-964.00000000003286
 31
0.0
1001
ACDBBLOCKREPETAG
1070
     1
1071
       42
1005
126CB4
  0
LINE
  5
126CB5
  8
OBJECT
 10
12425.0
 20
-907.50000000006526
 30
0.0
 11
12418.5
 21
-907.50000000006526
 31
0.0
1001
ACDBBLOCKREPETAG
1070
     1
1071
       43
1005
126CB5
  0
LINE
  5
126CB6
  8
OBJECT
 10
12425.0
 20
-1013.5
 30
0.0
 11
12415.5
 21
-1013.5
 31
0.0
1001
ACDBBLOCKREPETAG
1070
     1
1071
       44
1005
126CB6
  0
LINE
  5
126CB7
  8
OBJECT
 10
12425.0
 20
-1013.5
 30
0.0
 11
12425.0
 21
-1043.0
 31
0.0
1001
ACDBBLOCKREPETAG
1070
     1
1071
        1
1005
126C9A
  0
POINT
  5
126CB8
  8
DOTS
 10
12500.0
 20
-1016.0
 30
0.0
  0
LINE
  5
126CB9
  8
DIM
 10
12665.0
 20
-696.0
 30
0.0
 11
12719.424581672751
 21
-696.0
 31
0.0
  0
LINE
  5
126CBA
  8
DIM
 10
12413.0
 20
-1016.000000000011
 30
0.0
 11
12719.424581672751
 21
-1016.000000000011
 31
0.0
  0
LINE
  5
126CBB
  8
DIM
 10
12709.424581672751
 20
-716.0
 30
0.0
 11
12709.424581672751
 21
-996.00000000001103
 31
0.0
  0
INSERT
  5
126CBC
  8
DIM
  2
_OPEN30
 10
12709.424581672751
 20
-696.0
 30
0.0
 41
20.0
 42
20.0
 43
20.0
 50
90.0
  0
INSERT
  5
126CBD
  8
DIM
  2
_OPEN30
 10
12709.424581672751
 20
-1016.000000000011
 30
0.0
 41
20.0
 42
20.0
 43
20.0
 50
270.0
  0
INSERT
  5
126CBE
  8
OBJECT
  2
*U6
 10
0.0
 20
0.0
 30
0.0
  0
LINE
  5
126CBF
  8
DIM
 10
12405.5
 20
-1016.00000000001
 30
0.0
 11
12292.14939336144
 21
-1016.00000000001
 31
0.0
  0
LINE
  5
126CC0
  8
DIM
 10
12422.999999999991
 20
-1305.999999999997
 30
0.0
 11
12292.14939336144
 21
-1305.999999999997
 31
0.0
  0
LINE
  5
126CC1
  8
DIM
 10
12302.14939336144
 20
-1036.00000000001
 30
0.0
 11
12302.14939336144
 21
-1285.999999999997
 31
0.0
  0
INSERT
  5
126CC2
  8
DIM
  2
_OPEN30
 10
12302.14939336144
 20
-1016.00000000001
 30
0.0
 41
20.0
 42
20.0
 43
20.0
 50
90.0
  0
INSERT
  5
126CC3
  8
DIM
  2
_OPEN30
 10
12302.14939336144
 20
-1305.999999999997
 30
0.0
 41
20.0
 42
20.0
 43
20.0
 50
270.0
  0
INSERT
  5
126CC4
  8
OBJECT
  2
*U7
 10
0.0
 20
0.0
 30
0.0
  0
LINE
  5
126CC5
  8
OBJECT
 10
10425.0
 20
-770.0
 30
0.0
 11
10425.0
 21
-907.50000000006526
 31
0.0
1001
ACDBBLOCKREPETAG
1070
     1
1071
        1
1005
126CC5
  0
LINE
  5
126CC6
  8
OBJECT
 10
10575.0
 20
-769.9999999999942
 30
0.0
 11
10575.0
 21
-1043.0
 31
0.0
1001
ACDBBLOCKREPETAG
1070
     1
1071
        3
1005
126CC6
  0
LINE
  5
126CC7
  8
CENTER
 10
10500.0
 20
-770.0
 30
0.0
 11
10500.0
 21
-1055.0
 31
0.0
1001
ACDBBLOCKREPETAG
1070
     1
1071
        6
1005
126CC7
  0
LINE
  5
126CC8
  8
OBJECT
 10
10420.0
 20
-1055.0
 30
0.0
 11
10580.0
 21
-1055.0
 31
0.0
1001
ACDBBLOCKREPETAG
1070
     1
1071
        7
1005
126CC8
  0
LINE
  5
126CC9
  8
OBJECT
 10
10420.0
 20
-1043.0
 30
0.0
 11
10580.0
 21
-1043.0
 31
0.0
1001
ACDBBLOCKREPETAG
1070
     1
1071
        8
1005
126CC9
  0
LINE
  5
126CCA
  8
OBJECT
 10
10420.0
 20
-1043.0
 30
0.0
 11
10420.0
 21
-1055.0
 31
0.0
1001
ACDBBLOCKREPETAG
1070
     1
1071
        9
1005
126CCA
  0
LINE
  5
126CCB
  8
OBJECT
 10
10580.0
 20
-1043.0
 30
0.0
 11
10580.0
 21
-1055.0
 31
0.0
1001
ACDBBLOCKREPETAG
1070
     1
1071
       10
1005
126CCB
  0
LINE
  5
126CCC
  8
OBJECT
 10
10367.0
 20
-909.0
 30
0.0
 11
10360.0
 21
-909.0
 31
0.0
1001
ACDBBLOCKREPETAG
1070
     1
1071
       23
1005
126CCC
  0
LINE
  5
126CCD
  8
OBJECT
 10
10360.0
 20
-909.0
 30
0.0
 11
10360.0
 21
-1016.0
 31
0.0
1001
ACDBBLOCKREPETAG
1070
     1
1071
       24
1005
126CCD
  0
LINE
  5
126CCE
  8
OBJECT
 10
10415.5
 20
-910.50000000006548
 30
0.0
 11
10415.5
 21
-1013.5
 31
0.0
1001
ACDBBLOCKREPETAG
1070
     1
1071
       25
1005
126CCE
  0
ARC
  5
126CCF
  8
OBJECT
 10
10418.5
 20
-910.50000000006548
 30
0.0
 40
3.0
 50
90.0
 51
180.0
1001
ACDBBLOCKREPETAG
1070
     1
1071
       26
1005
126CCF
  0
LINE
  5
126CD0
  8
OBJECT
 10
10367.0
 20
-1016.0
 30
0.0
 11
10367.0
 21
-909.0
 31
0.0
1001
ACDBBLOCKREPETAG
1070
     1
1071
       27
1005
126CD0
  0
LINE
  5
126CD1
  8
CENTER
 10
10345.0
 20
-964.0
 30
0.0
 11
10458.65508008699
 21
-964.00000000006526
 31
0.0
1001
ACDBBLOCKREPETAG
1070
     1
1071
       28
1005
126CD1
  0
LINE
  5
126CD2
  8
OBJECT
 10
10367.0
 20
-912.0
 30
0.0
 11
10403.0
 21
-912.0
 31
0.0
1001
ACDBBLOCKREPETAG
1070
     1
1071
       29
1005
126CD2
  0
LINE
  5
126CD3
  8
OBJECT
 10
10403.0
 20
-912.0
 30
0.0
 11
10403.0
 21
-1016.0
 31
0.0
1001
ACDBBLOCKREPETAG
1070
     1
1071
       30
1005
126CD3
  0
LINE
  5
126CD4
  8
OBJECT
 10
10403.0
 20
-1016.0
 30
0.0
 11
10360.0
 21
-1016.0
 31
0.0
1001
ACDBBLOCKREPETAG
1070
     1
1071
       31
1005
126CD4
  0
LINE
  5
126CD5
  8
OBJECT
 10
10407.0
 20
-916.5
 30
0.0
 11
10415.5
 21
-916.5
 31
0.0
1001
ACDBBLOCKREPETAG
1070
     1
1071
       32
1005
126CD5
  0
LINE
  5
126CD6
  8
OBJECT
 10
10415.5
 20
-1011.5
 30
0.0
 11
10407.0
 21
-1011.5
 31
0.0
1001
ACDBBLOCKREPETAG
1070
     1
1071
       33
1005
126CD6
  0
LINE
  5
126CD7
  8
OBJECT
 10
10407.0
 20
-1011.5
 30
0.0
 11
10407.0
 21
-916.5
 31
0.0
1001
ACDBBLOCKREPETAG
1070
     1
1071
       34
1005
126CD7
  0
LINE
  5
126CD8
  8
OBJECT
 10
10403.0
 20
-912.0
 30
0.0
 11
10407.0
 21
-916.5
 31
0.0
1001
ACDBBLOCKREPETAG
1070
     1
1071
       35
1005
126CD8
  0
LINE
  5
126CD9
  8
OBJECT
 10
10403.0
 20
-1016.0
 30
0.0
 11
10407.0
 21
-1011.5
 31
0.0
1001
ACDBBLOCKREPETAG
1070
     1
1071
       36
1005
126CD9
  0
LINE
  5
126CDA
  8
HIDDEN
 10
10412.0
 20
-926.0
 30
0.0
 11
10412.0
 21
-1002.0
 31
0.0
1001
ACDBBLOCKREPETAG
1070
     1
1071
       37
1005
126CDA
  0
ARC
  5
126CDB
  8
OBJECT
 10
10335.121727121221
 20
-972.40950726122867
 30
0.0
 40
110.86635228309
 50
16.95964619565439
 51
35.836572580695218
1001
ACDBBLOCKREPETAG
1070
     1
1071
       38
1005
126CDB
  0
ARC
  5
126CDC
  8
OBJECT
 10
10382.86401122309
 20
-957.28774971844894
 30
0.0
 40
60.791749880358971
 50
0.2712030171730965
 51
16.452795347786878
1001
ACDBBLOCKREPETAG
1070
     1
1071
       39
1005
126CDC
  0
ARC
  5
126CDD
  8
OBJECT
 10
10382.86400434375
 20
-963.71224975990117
 30
0.0
 40
60.79175676209487
 50
343.54722053947972
 51
359.7287965218548
1001
ACDBBLOCKREPETAG
1070
     1
1071
       40
1005
126CDD
  0
ARC
  5
126CDE
  8
OBJECT
 10
10335.121727121221
 20
-948.59049273883636
 30
0.0
 40
110.8663522830916
 50
324.16342741930481
 51
343.04035380434561
1001
ACDBBLOCKREPETAG
1070
     1
1071
       41
1005
126CDE
  0
LINE
  5
126CDF
  8
OBJECT
 10
10443.65508008699
 20
-957.00000000003638
 30
0.0
 11
10443.65508008699
 21
-964.00000000003286
 31
0.0
1001
ACDBBLOCKREPETAG
1070
     1
1071
       42
1005
126CDF
  0
LINE
  5
126CE0
  8
OBJECT
 10
10425.0
 20
-907.50000000006526
 30
0.0
 11
10418.5
 21
-907.50000000006526
 31
0.0
1001
ACDBBLOCKREPETAG
1070
     1
1071
       43
1005
126CE0
  0
LINE
  5
126CE1
  8
OBJECT
 10
10425.0
 20
-1013.5
 30
0.0
 11
10415.5
 21
-1013.5
 31
0.0
1001
ACDBBLOCKREPETAG
1070
     1
1071
       44
1005
126CE1
  0
LINE
  5
126CE2
  8
OBJECT
 10
10425.0
 20
-1013.5
 30
0.0
 11
10425.0
 21
-1043.0
 31
0.0
1001
ACDBBLOCKREPETAG
1070
     1
1071
        1
1005
126CC5
  0
POINT
  5
126CE3
  8
DOTS
 10
10500.0
 20
-1016.0
 30
0.0
  0
LINE
  5
126CE4
  8
DIM
 10
10665.0
 20
-696.0
 30
0.0
 11
10719.424581672751
 21
-696.0
 31
0.0
  0
LINE
  5
126CE5
  8
DIM
 10
10413.0
 20
-1016.000000000011
 30
0.0
 11
10719.424581672751
 21
-1016.000000000011
 31
0.0
  0
LINE
  5
126CE6
  8
DIM
 10
10709.424581672751
 20
-716.0
 30
0.0
 11
10709.424581672751
 21
-996.00000000001103
 31
0.0
  0
INSERT
  5
126CE7
  8
DIM
  2
_OPEN30
 10
10709.424581672751
 20
-696.0
 30
0.0
 41
20.0
 42
20.0
 43
20.0
 50
90.0
  0
INSERT
  5
126CE8
  8
DIM
  2
_OPEN30
 10
10709.424581672751
 20
-1016.000000000011
 30
0.0
 41
20.0
 42
20.0
 43
20.0
 50
270.0
  0
INSERT
  5
126CE9
  8
OBJECT
  2
*U8
 10
0.0
 20
0.0
 30
0.0
  0
LINE
  5
126CEA
  8
DIM
 10
10405.5
 20
-1016.00000000001
 30
0.0
 11
10292.14939336144
 21
-1016.00000000001
 31
0.0
  0
LINE
  5
126CEB
  8
DIM
 10
10422.999999999991
 20
-1305.999999999997
 30
0.0
 11
10292.14939336144
 21
-1305.999999999997
 31
0.0
  0
LINE
  5
126CEC
  8
DIM
 10
10302.14939336144
 20
-1036.00000000001
 30
0.0
 11
10302.14939336144
 21
-1285.999999999997
 31
0.0
  0
INSERT
  5
126CED
  8
DIM
  2
_OPEN30
 10
10302.14939336144
 20
-1016.00000000001
 30
0.0
 41
20.0
 42
20.0
 43
20.0
 50
90.0
  0
INSERT
  5
126CEE
  8
DIM
  2
_OPEN30
 10
10302.14939336144
 20
-1305.999999999997
 30
0.0
 41
20.0
 42
20.0
 43
20.0
 50
270.0
  0
INSERT
  5
126CEF
  8
OBJECT
  2
*U9
 10
0.0
 20
0.0
 30
0.0
  0
LINE
  5
126CF0
  8
OBJECT
 10
8425.0
 20
-770.0
 30
0.0
 11
8425.0
 21
-907.50000000006526
 31
0.0
1001
ACDBBLOCKREPETAG
1070
     1
1071
        1
1005
126CF0
  0
LINE
  5
126CF1
  8
OBJECT
 10
8575.0
 20
-769.9999999999942
 30
0.0
 11
8575.0
 21
-1043.0
 31
0.0
1001
ACDBBLOCKREPETAG
1070
     1
1071
        3
1005
126CF1
  0
LINE
  5
126CF2
  8
CENTER
 10
8500.0
 20
-770.0
 30
0.0
 11
8500.0
 21
-1055.0
 31
0.0
1001
ACDBBLOCKREPETAG
1070
     1
1071
        6
1005
126CF2
  0
LINE
  5
126CF3
  8
OBJECT
 10
8420.0
 20
-1055.0
 30
0.0
 11
8580.0
 21
-1055.0
 31
0.0
1001
ACDBBLOCKREPETAG
1070
     1
1071
        7
1005
126CF3
  0
LINE
  5
126CF4
  8
OBJECT
 10
8420.0
 20
-1043.0
 30
0.0
 11
8580.0
 21
-1043.0
 31
0.0
1001
ACDBBLOCKREPETAG
1070
     1
1071
        8
1005
126CF4
  0
LINE
  5
126CF5
  8
OBJECT
 10
8420.0
 20
-1043.0
 30
0.0
 11
8420.0
 21
-1055.0
 31
0.0
1001
ACDBBLOCKREPETAG
1070
     1
1071
        9
1005
126CF5
  0
LINE
  5
126CF6
  8
OBJECT
 10
8580.0
 20
-1043.0
 30
0.0
 11
8580.0
 21
-1055.0
 31
0.0
1001
ACDBBLOCKREPETAG
1070
     1
1071
       10
1005
126CF6
  0
LINE
  5
126CF7
  8
OBJECT
 10
8367.0
 20
-909.0
 30
0.0
 11
8360.0
 21
-909.0
 31
0.0
1001
ACDBBLOCKREPETAG
1070
     1
1071
       23
1005
126CF7
  0
LINE
  5
126CF8
  8
OBJECT
 10
8360.0
 20
-909.0
 30
0.0
 11
8360.0
 21
-1016.0
 31
0.0
1001
ACDBBLOCKREPETAG
1070
     1
1071
       24
1005
126CF8
  0
LINE
  5
126CF9
  8
OBJECT
 10
8415.4999999999982
 20
-910.50000000006548
 30
0.0
 11
8415.4999999999982
 21
-1013.5
 31
0.0
1001
ACDBBLOCKREPETAG
1070
     1
1071
       25
1005
126CF9
  0
ARC
  5
126CFA
  8
OBJECT
 10
8418.4999999999982
 20
-910.50000000006548
 30
0.0
 40
3.0
 50
90.0
 51
180.0
1001
ACDBBLOCKREPETAG
1070
     1
1071
       26
1005
126CFA
  0
LINE
  5
126CFB
  8
OBJECT
 10
8367.0
 20
-1016.0
 30
0.0
 11
8367.0
 21
-909.0
 31
0.0
1001
ACDBBLOCKREPETAG
1070
     1
1071
       27
1005
126CFB
  0
LINE
  5
126CFC
  8
CENTER
 10
8345.0
 20
-964.0
 30
0.0
 11
8458.6550800869954
 21
-964.00000000006526
 31
0.0
1001
ACDBBLOCKREPETAG
1070
     1
1071
       28
1005
126CFC
  0
LINE
  5
126CFD
  8
OBJECT
 10
8367.0
 20
-912.0
 30
0.0
 11
8403.0
 21
-912.0
 31
0.0
1001
ACDBBLOCKREPETAG
1070
     1
1071
       29
1005
126CFD
  0
LINE
  5
126CFE
  8
OBJECT
 10
8403.0
 20
-912.0
 30
0.0
 11
8403.0
 21
-1016.0
 31
0.0
1001
ACDBBLOCKREPETAG
1070
     1
1071
       30
1005
126CFE
  0
LINE
  5
126CFF
  8
OBJECT
 10
8403.0
 20
-1016.0
 30
0.0
 11
8360.0
 21
-1016.0
 31
0.0
1001
ACDBBLOCKREPETAG
1070
     1
1071
       31
1005
126CFF
  0
LINE
  5
126D00
  8
OBJECT
 10
8407.0
 20
-916.5
 30
0.0
 11
8415.4999999999982
 21
-916.5
 31
0.0
1001
ACDBBLOCKREPETAG
1070
     1
1071
       32
1005
126D00
  0
LINE
  5
126D01
  8
OBJECT
 10
8415.4999999999982
 20
-1011.5
 30
0.0
 11
8407.0
 21
-1011.5
 31
0.0
1001
ACDBBLOCKREPETAG
1070
     1
1071
       33
1005
126D01
  0
LINE
  5
126D02
  8
OBJECT
 10
8407.0
 20
-1011.5
 30
0.0
 11
8407.0
 21
-916.5
 31
0.0
1001
ACDBBLOCKREPETAG
1070
     1
1071
       34
1005
126D02
  0
LINE
  5
126D03
  8
OBJECT
 10
8403.0
 20
-912.0
 30
0.0
 11
8407.0
 21
-916.5
 31
0.0
1001
ACDBBLOCKREPETAG
1070
     1
1071
       35
1005
126D03
  0
LINE
  5
126D04
  8
OBJECT
 10
8403.0
 20
-1016.0
 30
0.0
 11
8407.0
 21
-1011.5
 31
0.0
1001
ACDBBLOCKREPETAG
1070
     1
1071
       36
1005
126D04
  0
LINE
  5
126D05
  8
HIDDEN
 10
8412.0
 20
-926.0
 30
0.0
 11
8412.0
 21
-1002.0
 31
0.0
1001
ACDBBLOCKREPETAG
1070
     1
1071
       37
1005
126D05
  0
ARC
  5
126D06
  8
OBJECT
 10
8335.1217271212263
 20
-972.40950726122867
 30
0.0
 40
110.86635228309
 50
16.95964619565439
 51
35.836572580695218
1001
ACDBBLOCKREPETAG
1070
     1
1071
       38
1005
126D06
  0
ARC
  5
126D07
  8
OBJECT
 10
8382.8640112230933
 20
-957.28774971844894
 30
0.0
 40
60.791749880358971
 50
0.2712030171730965
 51
16.452795347786878
1001
ACDBBLOCKREPETAG
1070
     1
1071
       39
1005
126D07
  0
ARC
  5
126D08
  8
OBJECT
 10
8382.8640043437481
 20
-963.71224975990117
 30
0.0
 40
60.79175676209487
 50
343.54722053947972
 51
359.7287965218548
1001
ACDBBLOCKREPETAG
1070
     1
1071
       40
1005
126D08
  0
ARC
  5
126D09
  8
OBJECT
 10
8335.1217271212263
 20
-948.59049273883636
 30
0.0
 40
110.8663522830916
 50
324.16342741930481
 51
343.04035380434561
1001
ACDBBLOCKREPETAG
1070
     1
1071
       41
1005
126D09
  0
LINE
  5
126D0A
  8
OBJECT
 10
8443.6550800869954
 20
-957.00000000003638
 30
0.0
 11
8443.6550800869954
 21
-964.00000000003286
 31
0.0
1001
ACDBBLOCKREPETAG
1070
     1
1071
       42
1005
126D0A
  0
LINE
  5
126D0B
  8
OBJECT
 10
8425.0
 20
-907.50000000006526
 30
0.0
 11
8418.4999999999982
 21
-907.50000000006526
 31
0.0
1001
ACDBBLOCKREPETAG
1070
     1
1071
       43
1005
126D0B
  0
LINE
  5
126D0C
  8
OBJECT
 10
8425.0
 20
-1013.5
 30
0.0
 11
8415.4999999999982
 21
-1013.5
 31
0.0
1001
ACDBBLOCKREPETAG
1070
     1
1071
       44
1005
126D0C
  0
LINE
  5
126D0D
  8
OBJECT
 10
8425.0
 20
-1013.5
 30
0.0
 11
8425.0
 21
-1043.0
 31
0.0
1001
ACDBBLOCKREPETAG
1070
     1
1071
        1
1005
126CF0
  0
POINT
  5
126D0E
  8
DOTS
 10
8500.0
 20
-1016.0
 30
0.0
  0
LINE
  5
126D0F
  8
DIM
 10
8665.0
 20
-696.0
 30
0.0
 11
8719.4245816727544
 21
-696.0
 31
0.0
  0
LINE
  5
126D10
  8
DIM
 10
8413.0
 20
-1016.000000000011
 30
0.0
 11
8719.4245816727544
 21
-1016.000000000011
 31
0.0
  0
LINE
  5
126D11
  8
DIM
 10
8709.4245816727544
 20
-716.0
 30
0.0
 11
8709.4245816727544
 21
-996.00000000001103
 31
0.0
  0
INSERT
  5
126D12
  8
DIM
  2
_OPEN30
 10
8709.4245816727544
 20
-696.0
 30
0.0
 41
20.0
 42
20.0
 43
20.0
 50
90.0
  0
INSERT
  5
126D13
  8
DIM
  2
_OPEN30
 10
8709.4245816727544
 20
-1016.000000000011
 30
0.0
 41
20.0
 42
20.0
 43
20.0
 50
270.0
  0
INSERT
  5
126D14
  8
OBJECT
  2
*U10
 10
0.0
 20
0.0
 30
0.0
  0
LINE
  5
126D15
  8
OBJECT
 10
6425.0
 20
-770.0
 30
0.0
 11
6425.0
 21
-907.50000000006526
 31
0.0
1001
ACDBBLOCKREPETAG
1070
     1
1071
        1
1005
126D15
  0
LINE
  5
126D16
  8
OBJECT
 10
6575.0
 20
-769.9999999999942
 30
0.0
 11
6575.0
 21
-1043.0
 31
0.0
1001
ACDBBLOCKREPETAG
1070
     1
1071
        3
1005
126D16
  0
LINE
  5
126D17
  8
CENTER
 10
6500.0
 20
-770.0
 30
0.0
 11
6500.0
 21
-1055.0
 31
0.0
1001
ACDBBLOCKREPETAG
1070
     1
1071
        6
1005
126D17
  0
LINE
  5
126D18
  8
OBJECT
 10
6420.0
 20
-1055.0
 30
0.0
 11
6580.0
 21
-1055.0
 31
0.0
1001
ACDBBLOCKREPETAG
1070
     1
1071
        7
1005
126D18
  0
LINE
  5
126D19
  8
OBJECT
 10
6420.0
 20
-1043.0
 30
0.0
 11
6580.0
 21
-1043.0
 31
0.0
1001
ACDBBLOCKREPETAG
1070
     1
1071
        8
1005
126D19
  0
LINE
  5
126D1A
  8
OBJECT
 10
6420.0
 20
-1043.0
 30
0.0
 11
6420.0
 21
-1055.0
 31
0.0
1001
ACDBBLOCKREPETAG
1070
     1
1071
        9
1005
126D1A
  0
LINE
  5
126D1B
  8
OBJECT
 10
6580.0
 20
-1043.0
 30
0.0
 11
6580.0
 21
-1055.0
 31
0.0
1001
ACDBBLOCKREPETAG
1070
     1
1071
       10
1005
126D1B
  0
LINE
  5
126D1C
  8
OBJECT
 10
6367.0
 20
-909.0
 30
0.0
 11
6360.0
 21
-909.0
 31
0.0
1001
ACDBBLOCKREPETAG
1070
     1
1071
       23
1005
126D1C
  0
LINE
  5
126D1D
  8
OBJECT
 10
6360.0
 20
-909.0
 30
0.0
 11
6360.0
 21
-1016.0
 31
0.0
1001
ACDBBLOCKREPETAG
1070
     1
1071
       24
1005
126D1D
  0
LINE
  5
126D1E
  8
OBJECT
 10
6415.5
 20
-910.50000000006548
 30
0.0
 11
6415.5
 21
-1013.5
 31
0.0
1001
ACDBBLOCKREPETAG
1070
     1
1071
       25
1005
126D1E
  0
ARC
  5
126D1F
  8
OBJECT
 10
6418.5
 20
-910.50000000006548
 30
0.0
 40
3.0
 50
90.0
 51
180.0
1001
ACDBBLOCKREPETAG
1070
     1
1071
       26
1005
126D1F
  0
LINE
  5
126D20
  8
OBJECT
 10
6367.0
 20
-1016.0
 30
0.0
 11
6367.0
 21
-909.0
 31
0.0
1001
ACDBBLOCKREPETAG
1070
     1
1071
       27
1005
126D20
  0
LINE
  5
126D21
  8
CENTER
 10
6345.0
 20
-964.0
 30
0.0
 11
6458.6550800869954
 21
-964.00000000006526
 31
0.0
1001
ACDBBLOCKREPETAG
1070
     1
1071
       28
1005
126D21
  0
LINE
  5
126D22
  8
OBJECT
 10
6367.0
 20
-912.0
 30
0.0
 11
6403.0
 21
-912.0
 31
0.0
1001
ACDBBLOCKREPETAG
1070
     1
1071
       29
1005
126D22
  0
LINE
  5
126D23
  8
OBJECT
 10
6403.0
 20
-912.0
 30
0.0
 11
6403.0
 21
-1016.0
 31
0.0
1001
ACDBBLOCKREPETAG
1070
     1
1071
       30
1005
126D23
  0
LINE
  5
126D24
  8
OBJECT
 10
6403.0
 20
-1016.0
 30
0.0
 11
6360.0
 21
-1016.0
 31
0.0
1001
ACDBBLOCKREPETAG
1070
     1
1071
       31
1005
126D24
  0
LINE
  5
126D25
  8
OBJECT
 10
6407.0
 20
-916.5
 30
0.0
 11
6415.5
 21
-916.5
 31
0.0
1001
ACDBBLOCKREPETAG
1070
     1
1071
       32
1005
126D25
  0
LINE
  5
126D26
  8
OBJECT
 10
6415.5
 20
-1011.5
 30
0.0
 11
6407.0
 21
-1011.5
 31
0.0
1001
ACDBBLOCKREPETAG
1070
     1
1071
       33
1005
126D26
  0
LINE
  5
126D27
  8
OBJECT
 10
6407.0
 20
-1011.5
 30
0.0
 11
6407.0
 21
-916.5
 31
0.0
1001
ACDBBLOCKREPETAG
1070
     1
1071
       34
1005
126D27
  0
LINE
  5
126D28
  8
OBJECT
 10
6403.0
 20
-912.0
 30
0.0
 11
6407.0
 21
-916.5
 31
0.0
1001
ACDBBLOCKREPETAG
1070
     1
1071
       35
1005
126D28
  0
LINE
  5
126D29
  8
OBJECT
 10
6403.0
 20
-1016.0
 30
0.0
 11
6407.0
 21
-1011.5
 31
0.0
1001
ACDBBLOCKREPETAG
1070
     1
1071
       36
1005
126D29
  0
LINE
  5
126D2A
  8
HIDDEN
 10
6412.0
 20
-926.0
 30
0.0
 11
6412.0
 21
-1002.0
 31
0.0
1001
ACDBBLOCKREPETAG
1070
     1
1071
       37
1005
126D2A
  0
ARC
  5
126D2B
  8
OBJECT
 10
6335.1217271212263
 20
-972.40950726122867
 30
0.0
 40
110.86635228309
 50
16.95964619565439
 51
35.836572580695218
1001
ACDBBLOCKREPETAG
1070
     1
1071
       38
1005
126D2B
  0
ARC
  5
126D2C
  8
OBJECT
 10
6382.8640112230942
 20
-957.28774971844894
 30
0.0
 40
60.791749880358971
 50
0.2712030171733432
 51
16.452795347786878
1001
ACDBBLOCKREPETAG
1070
     1
1071
       39
1005
126D2C
  0
ARC
  5
126D2D
  8
OBJECT
 10
6382.8640043437508
 20
-963.71224975990117
 30
0.0
 40
60.79175676209487
 50
343.54722053947972
 51
359.7287965218548
1001
ACDBBLOCKREPETAG
1070
     1
1071
       40
1005
126D2D
  0
ARC
  5
126D2E
  8
OBJECT
 10
6335.1217271212263
 20
-948.59049273883636
 30
0.0
 40
110.8663522830916
 50
324.16342741930481
 51
343.04035380434561
1001
ACDBBLOCKREPETAG
1070
     1
1071
       41
1005
126D2E
  0
LINE
  5
126D2F
  8
OBJECT
 10
6443.6550800869954
 20
-957.00000000003638
 30
0.0
 11
6443.6550800869954
 21
-964.00000000003286
 31
0.0
1001
ACDBBLOCKREPETAG
1070
     1
1071
       42
1005
126D2F
  0
LINE
  5
126D30
  8
OBJECT
 10
6425.0
 20
-907.50000000006526
 30
0.0
 11
6418.5
 21
-907.50000000006526
 31
0.0
1001
ACDBBLOCKREPETAG
1070
     1
1071
       43
1005
126D30
  0
LINE
  5
126D31
  8
OBJECT
 10
6425.0
 20
-1013.5
 30
0.0
 11
6415.5
 21
-1013.5
 31
0.0
1001
ACDBBLOCKREPETAG
1070
     1
1071
       44
1005
126D31
  0
LINE
  5
126D32
  8
OBJECT
 10
6425.0
 20
-1013.5
 30
0.0
 11
6425.0
 21
-1043.0
 31
0.0
1001
ACDBBLOCKREPETAG
1070
     1
1071
        1
1005
126D15
  0
POINT
  5
126D33
  8
DOTS
 10
6500.0
 20
-1016.0
 30
0.0
  0
LINE
  5
126D34
  8
DIM
 10
6665.0
 20
-696.0
 30
0.0
 11
6719.4245816727562
 21
-696.0
 31
0.0
  0
LINE
  5
126D35
  8
DIM
 10
6413.0
 20
-1016.0
 30
0.0
 11
6719.4245816727562
 21
-1016.0
 31
0.0
  0
LINE
  5
126D36
  8
DIM
 10
6709.4245816727562
 20
-716.0
 30
0.0
 11
6709.4245816727562
 21
-996.0
 31
0.0
  0
INSERT
  5
126D37
  8
DIM
  2
_OPEN30
 10
6709.4245816727562
 20
-696.0
 30
0.0
 41
20.0
 42
20.0
 43
20.0
 50
90.0
  0
INSERT
  5
126D38
  8
DIM
  2
_OPEN30
 10
6709.4245816727562
 20
-1016.0
 30
0.0
 41
20.0
 42
20.0
 43
20.0
 50
270.0
  0
INSERT
  5
126D39
  8
OBJECT
  2
*U11
 10
0.0
 20
0.0
 30
0.0
  0
LINE
  5
126D3A
  8
OBJECT
 10
4425.0
 20
-770.0
 30
0.0
 11
4425.0
 21
-907.50000000006526
 31
0.0
1001
ACDBBLOCKREPETAG
1070
     1
1071
        1
1005
126D3A
  0
LINE
  5
126D3B
  8
OBJECT
 10
4575.0
 20
-769.9999999999942
 30
0.0
 11
4575.0
 21
-1043.0
 31
0.0
1001
ACDBBLOCKREPETAG
1070
     1
1071
        3
1005
126D3B
  0
LINE
  5
126D3C
  8
CENTER
 10
4500.0
 20
-770.0
 30
0.0
 11
4500.0
 21
-1055.0
 31
0.0
1001
ACDBBLOCKREPETAG
1070
     1
1071
        6
1005
126D3C
  0
LINE
  5
126D3D
  8
OBJECT
 10
4420.0
 20
-1055.0
 30
0.0
 11
4580.0
 21
-1055.0
 31
0.0
1001
ACDBBLOCKREPETAG
1070
     1
1071
        7
1005
126D3D
  0
LINE
  5
126D3E
  8
OBJECT
 10
4420.0
 20
-1043.0
 30
0.0
 11
4580.0
 21
-1043.0
 31
0.0
1001
ACDBBLOCKREPETAG
1070
     1
1071
        8
1005
126D3E
  0
LINE
  5
126D3F
  8
OBJECT
 10
4420.0
 20
-1043.0
 30
0.0
 11
4420.0
 21
-1055.0
 31
0.0
1001
ACDBBLOCKREPETAG
1070
     1
1071
        9
1005
126D3F
  0
LINE
  5
126D40
  8
OBJECT
 10
4580.0
 20
-1043.0
 30
0.0
 11
4580.0
 21
-1055.0
 31
0.0
1001
ACDBBLOCKREPETAG
1070
     1
1071
       10
1005
126D40
  0
LINE
  5
126D41
  8
OBJECT
 10
4367.0
 20
-909.0
 30
0.0
 11
4360.0
 21
-909.0
 31
0.0
1001
ACDBBLOCKREPETAG
1070
     1
1071
       23
1005
126D41
  0
LINE
  5
126D42
  8
OBJECT
 10
4360.0
 20
-909.0
 30
0.0
 11
4360.0
 21
-1016.0
 31
0.0
1001
ACDBBLOCKREPETAG
1070
     1
1071
       24
1005
126D42
  0
LINE
  5
126D43
  8
OBJECT
 10
4415.5
 20
-910.50000000006548
 30
0.0
 11
4415.5
 21
-1013.5
 31
0.0
1001
ACDBBLOCKREPETAG
1070
     1
1071
       25
1005
126D43
  0
ARC
  5
126D44
  8
OBJECT
 10
4418.5
 20
-910.50000000006548
 30
0.0
 40
3.0
 50
90.0
 51
180.0
1001
ACDBBLOCKREPETAG
1070
     1
1071
       26
1005
126D44
  0
LINE
  5
126D45
  8
OBJECT
 10
4367.0
 20
-1016.0
 30
0.0
 11
4367.0
 21
-909.0
 31
0.0
1001
ACDBBLOCKREPETAG
1070
     1
1071
       27
1005
126D45
  0
LINE
  5
126D46
  8
CENTER
 10
4345.0
 20
-964.0
 30
0.0
 11
4458.6550800869954
 21
-964.00000000006526
 31
0.0
1001
ACDBBLOCKREPETAG
1070
     1
1071
       28
1005
126D46
  0
LINE
  5
126D47
  8
OBJECT
 10
4367.0
 20
-912.0
 30
0.0
 11
4403.0
 21
-912.0
 31
0.0
1001
ACDBBLOCKREPETAG
1070
     1
1071
       29
1005
126D47
  0
LINE
  5
126D48
  8
OBJECT
 10
4403.0
 20
-912.0
 30
0.0
 11
4403.0
 21
-1016.0
 31
0.0
1001
ACDBBLOCKREPETAG
1070
     1
1071
       30
1005
126D48
  0
LINE
  5
126D49
  8
OBJECT
 10
4403.0
 20
-1016.0
 30
0.0
 11
4360.0
 21
-1016.0
 31
0.0
1001
ACDBBLOCKREPETAG
1070
     1
1071
       31
1005
126D49
  0
LINE
  5
126D4A
  8
OBJECT
 10
4407.0
 20
-916.5
 30
0.0
 11
4415.5
 21
-916.5
 31
0.0
1001
ACDBBLOCKREPETAG
1070
     1
1071
       32
1005
126D4A
  0
LINE
  5
126D4B
  8
OBJECT
 10
4415.5
 20
-1011.5
 30
0.0
 11
4407.0
 21
-1011.5
 31
0.0
1001
ACDBBLOCKREPETAG
1070
     1
1071
       33
1005
126D4B
  0
LINE
  5
126D4C
  8
OBJECT
 10
4407.0
 20
-1011.5
 30
0.0
 11
4407.0
 21
-916.5
 31
0.0
1001
ACDBBLOCKREPETAG
1070
     1
1071
       34
1005
126D4C
  0
LINE
  5
126D4D
  8
OBJECT
 10
4403.0
 20
-912.0
 30
0.0
 11
4407.0
 21
-916.5
 31
0.0
1001
ACDBBLOCKREPETAG
1070
     1
1071
       35
1005
126D4D
  0
LINE
  5
126D4E
  8
OBJECT
 10
4403.0
 20
-1016.0
 30
0.0
 11
4407.0
 21
-1011.5
 31
0.0
1001
ACDBBLOCKREPETAG
1070
     1
1071
       36
1005
126D4E
  0
LINE
  5
126D4F
  8
HIDDEN
 10
4412.0
 20
-926.0
 30
0.0
 11
4412.0
 21
-1002.0
 31
0.0
1001
ACDBBLOCKREPETAG
1070
     1
1071
       37
1005
126D4F
  0
ARC
  5
126D50
  8
OBJECT
 10
4335.1217271212254
 20
-972.40950726122867
 30
0.0
 40
110.86635228309
 50
16.95964619565439
 51
35.836572580695218
1001
ACDBBLOCKREPETAG
1070
     1
1071
       38
1005
126D50
  0
ARC
  5
126D51
  8
OBJECT
 10
4382.8640112230942
 20
-957.28774971844894
 30
0.0
 40
60.791749880358971
 50
0.2712030171733432
 51
16.452795347786878
1001
ACDBBLOCKREPETAG
1070
     1
1071
       39
1005
126D51
  0
ARC
  5
126D52
  8
OBJECT
 10
4382.8640043437499
 20
-963.71224975990117
 30
0.0
 40
60.79175676209487
 50
343.54722053947972
 51
359.7287965218548
1001
ACDBBLOCKREPETAG
1070
     1
1071
       40
1005
126D52
  0
ARC
  5
126D53
  8
OBJECT
 10
4335.1217271212254
 20
-948.59049273883636
 30
0.0
 40
110.8663522830916
 50
324.16342741930481
 51
343.04035380434561
1001
ACDBBLOCKREPETAG
1070
     1
1071
       41
1005
126D53
  0
LINE
  5
126D54
  8
OBJECT
 10
4443.6550800869954
 20
-957.00000000003638
 30
0.0
 11
4443.6550800869954
 21
-964.00000000003286
 31
0.0
1001
ACDBBLOCKREPETAG
1070
     1
1071
       42
1005
126D54
  0
LINE
  5
126D55
  8
OBJECT
 10
4425.0
 20
-907.50000000006526
 30
0.0
 11
4418.5
 21
-907.50000000006526
 31
0.0
1001
ACDBBLOCKREPETAG
1070
     1
1071
       43
1005
126D55
  0
LINE
  5
126D56
  8
OBJECT
 10
4425.0
 20
-1013.5
 30
0.0
 11
4415.5
 21
-1013.5
 31
0.0
1001
ACDBBLOCKREPETAG
1070
     1
1071
       44
1005
126D56
  0
LINE
  5
126D57
  8
OBJECT
 10
4425.0
 20
-1013.5
 30
0.0
 11
4425.0
 21
-1043.0
 31
0.0
1001
ACDBBLOCKREPETAG
1070
     1
1071
        1
1005
126D3A
  0
POINT
  5
126D58
  8
DOTS
 10
4500.0
 20
-1016.0
 30
0.0
  0
LINE
  5
126D59
  8
DIM
 10
4665.0
 20
-696.0
 30
0.0
 11
4719.4245816727571
 21
-696.0
 31
0.0
  0
LINE
  5
126D5A
  8
DIM
 10
4413.0
 20
-1016.0
 30
0.0
 11
4719.4245816727571
 21
-1016.0
 31
0.0
  0
LINE
  5
126D5B
  8
DIM
 10
4709.4245816727562
 20
-716.0
 30
0.0
 11
4709.4245816727562
 21
-996.0
 31
0.0
  0
INSERT
  5
126D5C
  8
DIM
  2
_OPEN30
 10
4709.4245816727562
 20
-696.0
 30
0.0
 41
20.0
 42
20.0
 43
20.0
 50
90.0
  0
INSERT
  5
126D5D
  8
DIM
  2
_OPEN30
 10
4709.4245816727562
 20
-1016.0
 30
0.0
 41
20.0
 42
20.0
 43
20.0
 50
270.0
  0
INSERT
  5
126D5E
  8
OBJECT
  2
*U12
 10
0.0
 20
0.0
 30
0.0
  0
POLYLINE
  5
126D5F
  8
HIDDEN
 66
     1
 10
0.0
 20
0.0
 30
0.0
 70
     1
1001
ACDBBLOCKREPETAG
1070
     1
1071
      105
1005
0
  0
VERTEX
  5
127315
  8
HIDDEN
 10
359.99999999987779
 20
-799.99999999999818
 30
0.0
  0
VERTEX
  5
127316
  8
HIDDEN
 10
719.99999999975603
 20
-799.99999999999818
 30
0.0
  0
VERTEX
  5
127317
  8
HIDDEN
 10
719.99999999975603
 20
-1263.9999999998399
 30
0.0
  0
VERTEX
  5
127318
  8
HIDDEN
 10
359.99999999987779
 20
-1263.9999999998399
 30
0.0
  0
SEQEND
  5
127319
  8
HIDDEN
  0
POLYLINE
  5
126D60
  8
HIDDEN
 66
     1
 10
0.0
 20
0.0
 30
0.0
 70
     1
1001
ACDBBLOCKREPETAG
1070
     1
1071
      110
1005
0
  0
VERTEX
  5
12731A
  8
HIDDEN
 10
-0.0000000000002274
 20
-799.99999999999818
 30
0.0
  0
VERTEX
  5
12731B
  8
HIDDEN
 10
359.99999999987779
 20
-799.99999999999818
 30
0.0
  0
VERTEX
  5
12731C
  8
HIDDEN
 10
359.99999999987779
 20
-1263.9999999998399
 30
0.0
  0
VERTEX
  5
12731D
  8
HIDDEN
 10
-0.0000000000002274
 20
-1263.9999999998399
 30
0.0
  0
SEQEND
  5
12731E
  8
HIDDEN
  0
POLYLINE
  5
126D61
  8
HIDDEN
 66
     1
 10
0.0
 20
0.0
 30
0.0
 70
     1
1001
ACDBBLOCKREPETAG
1070
     1
1071
      125
1005
0
  0
VERTEX
  5
12731F
  8
HIDDEN
 10
-0.0000000000002274
 20
-1263.9999999998399
 30
0.0
  0
VERTEX
  5
127320
  8
HIDDEN
 10
359.99999999987779
 20
-1263.9999999998399
 30
0.0
  0
VERTEX
  5
127321
  8
HIDDEN
 10
359.99999999987779
 20
-1727.999999999681
 30
0.0
  0
VERTEX
  5
127322
  8
HIDDEN
 10
-0.0000000000002274
 20
-1727.999999999681
 30
0.0
  0
SEQEND
  5
127323
  8
HIDDEN
  0
POLYLINE
  5
126D62
  8
HIDDEN
 66
     1
 10
0.0
 20
0.0
 30
0.0
 70
     1
1001
ACDBBLOCKREPETAG
1070
     1
1071
      110
1005
0
  0
VERTEX
  5
127324
  8
HIDDEN
 10
-0.0000000000002274
 20
0.0000000000009095
 30
0.0
  0
VERTEX
  5
127325
  8
HIDDEN
 10
359.99999999987779
 20
0.0000000000009095
 30
0.0
  0
VERTEX
  5
127326
  8
HIDDEN
 10
359.99999999987779
 20
-463.99999999984078
 30
0.0
  0
VERTEX
  5
127327
  8
HIDDEN
 10
-0.0000000000002274
 20
-463.99999999984078
 30
0.0
  0
SEQEND
  5
127328
  8
HIDDEN
  0
INSERT
  5
126D63
  8
OBJECT
  2
*U13
 10
0.0
 20
0.0
 30
0.0
  0
LINE
  5
126D64
  8
OBJECT
 10
118.00000000004179
 20
-99.000000000171866
 30
0.0
 11
118.00000000004179
 21
-92.000000000171866
 31
0.0
1001
ACDBBLOCKREPETAG
1070
     1
1071
       39
1005
126D64
  0
LINE
  5
126D65
  8
OBJECT
 10
118.00000000004179
 20
-92.000000000171866
 30
0.0
 11
242.00000000004181
 21
-92.000000000171866
 31
0.0
1001
ACDBBLOCKREPETAG
1070
     1
1071
       40
1005
126D65
  0
LINE
  5
126D66
  8
OBJECT
 10
242.00000000004181
 20
-92.000000000171866
 30
0.0
 11
242.00000000004181
 21
-99.000000000171866
 31
0.0
1001
ACDBBLOCKREPETAG
1070
     1
1071
       41
1005
126D66
  0
LINE
  5
126D67
  8
OBJECT
 10
242.00000000004181
 20
-99.000000000171866
 30
0.0
 11
118.00000000004179
 21
-99.000000000171866
 31
0.0
1001
ACDBBLOCKREPETAG
1070
     1
1071
       42
1005
126D67
  0
LINE
  5
126D68
  8
OBJECT
 10
121.00000000004179
 20
-99.000000000171866
 30
0.0
 11
121.00000000004179
 21
-135.00000000017181
 31
0.0
1001
ACDBBLOCKREPETAG
1070
     1
1071
       43
1005
126D68
  0
LINE
  5
126D69
  8
OBJECT
 10
121.00000000004179
 20
-135.00000000017181
 30
0.0
 11
239.00000000004181
 21
-135.00000000017181
 31
0.0
1001
ACDBBLOCKREPETAG
1070
     1
1071
       44
1005
126D69
  0
LINE
  5
126D6A
  8
OBJECT
 10
239.00000000004181
 20
-135.00000000017181
 30
0.0
 11
239.00000000004181
 21
-99.000000000171866
 31
0.0
1001
ACDBBLOCKREPETAG
1070
     1
1071
       45
1005
126D6A
  0
LINE
  5
126D6B
  8
OBJECT
 10
125.50000000004179
 20
-139.00000000017181
 30
0.0
 11
125.50000000004179
 21
-146.00000000017181
 31
0.0
1001
ACDBBLOCKREPETAG
1070
     1
1071
       46
1005
126D6B
  0
LINE
  5
126D6C
  8
OBJECT
 10
234.50000000004181
 20
-146.00000000017181
 30
0.0
 11
234.50000000004181
 21
-139.00000000017181
 31
0.0
1001
ACDBBLOCKREPETAG
1070
     1
1071
       47
1005
126D6C
  0
LINE
  5
126D6D
  8
OBJECT
 10
234.50000000004181
 20
-139.00000000017181
 30
0.0
 11
125.50000000004179
 21
-139.00000000017181
 31
0.0
1001
ACDBBLOCKREPETAG
1070
     1
1071
       48
1005
126D6D
  0
LINE
  5
126D6E
  8
OBJECT
 10
121.00000000004179
 20
-135.00000000017181
 30
0.0
 11
125.50000000004179
 21
-139.00000000017181
 31
0.0
1001
ACDBBLOCKREPETAG
1070
     1
1071
       49
1005
126D6E
  0
LINE
  5
126D6F
  8
OBJECT
 10
239.00000000004181
 20
-135.00000000017181
 30
0.0
 11
234.50000000004181
 21
-139.00000000017181
 31
0.0
1001
ACDBBLOCKREPETAG
1070
     1
1071
       50
1005
126D6F
  0
LINE
  5
126D70
  8
OBJECT
 10
118.00000000004179
 20
-149.00000000017101
 30
0.0
 11
118.00000000004179
 21
-152.00000000017181
 31
0.0
1001
ACDBBLOCKREPETAG
1070
     1
1071
       51
1005
126D70
  0
ARC
  5
126D71
  8
OBJECT
 10
121.00000000004179
 20
-149.00000000017101
 30
0.0
 40
3.0
 50
90.0
 51
180.0
1001
ACDBBLOCKREPETAG
1070
     1
1071
       52
1005
126D71
  0
LINE
  5
126D72
  8
OBJECT
 10
242.00000000004181
 20
-152.00000000017181
 30
0.0
 11
242.00000000004181
 21
-149.0000000001728
 31
0.0
1001
ACDBBLOCKREPETAG
1070
     1
1071
       53
1005
126D72
  0
ARC
  5
126D73
  8
OBJECT
 10
239.00000000004181
 20
-149.0000000001728
 30
0.0
 40
3.0
 50
0.0
 51
90.0
1001
ACDBBLOCKREPETAG
1070
     1
1071
       54
1005
126D73
  0
LINE
  5
126D74
  8
OBJECT
 10
239.00000000004181
 20
-146.0000000001728
 30
0.0
 11
121.00000000004179
 21
-146.00000000017101
 31
0.0
1001
ACDBBLOCKREPETAG
1070
     1
1071
       55
1005
126D74
  0
LINE
  5
126D75
  8
HIDDEN
 10
135.50000000004181
 20
-144.00000000017189
 30
0.0
 11
224.50000000004181
 21
-144.00000000017189
 31
0.0
1001
ACDBBLOCKREPETAG
1070
     1
1071
      426
1005
126D75
  0
ARC
  5
126D76
  8
OBJECT
 10
180.00000000004181
 20
-232.00000000017189
 30
0.0
 40
50.0
 50
28.819943000140022
 51
243.78043883603971
1001
ACDBBLOCKREPETAG
1070
     1
1071
       49
1005
126D76
  0
ARC
  5
126D77
  8
OBJECT
 10
180.00000000004181
 20
-232.00000000017189
 30
0.0
 40
50.0
 50
296.21956116401122
 51
318.52376955951968
1001
ACDBBLOCKREPETAG
1070
     1
1071
      170
1005
126D77
  0
CIRCLE
  5
126D78
  8
OBJECT
 10
180.00000000004181
 20
-232.00000000017189
 30
0.0
 40
70.0
1001
ACDBBLOCKREPETAG
1070
     1
1071
       50
1005
126D78
  0
CIRCLE
  5
126D79
  8
OBJECT
 10
180.00000000004181
 20
-232.00000000017189
 30
0.0
 40
77.0
1001
ACDBBLOCKREPETAG
1070
     1
1071
       51
1005
126D79
  0
ARC
  5
126D7A
  8
OBJECT
 10
180.00000000004181
 20
-232.00000000017189
 30
0.0
 40
80.0
 50
140.80503257377961
 51
39.194967426220252
1001
ACDBBLOCKREPETAG
1070
     1
1071
       52
1005
126D7A
  0
LINE
  5
126D7B
  8
OBJECT
 10
118.00000000004179
 20
-186.3381997728473
 30
0.0
 11
118.00000000004179
 21
-152.00000000017181
 31
0.0
1001
ACDBBLOCKREPETAG
1070
     1
1071
       53
1005
126D7B
  0
LINE
  5
126D7C
  8
OBJECT
 10
242.00000000004181
 20
-186.3381997728473
 30
0.0
 11
242.00000000004181
 21
-152.00000000017181
 31
0.0
1001
ACDBBLOCKREPETAG
1070
     1
1071
       54
1005
126D7C
  0
LINE
  5
126D7D
  8
OBJECT
 10
223.8069471237595
 20
-207.89706690687029
 30
0.0
 11
212.55462200004149
 21
-211.34034300017541
 31
0.0
1001
ACDBBLOCKREPETAG
1070
     1
1071
      141
1005
126D7D
  0
LINE
  5
126D7E
  8
OBJECT
 10
198.22553374212291
 20
-245.207250098797
 30
0.0
 11
212.5546220000397
 21
-211.34034300017541
 31
0.0
1001
ACDBBLOCKREPETAG
1070
     1
1071
      143
1005
126D7E
  0
ARC
  5
126D7F
  8
OBJECT
 10
207.43512999909939
 20
-249.10383023827021
 30
0.0
 40
10.0
 50
157.066778292897
 51
244.01473437020459
1001
ACDBBLOCKREPETAG
1070
     1
1071
      144
1005
126D7F
  0
ARC
  5
126D80
  8
OBJECT
 10
205.55386256733439
 20
-245.85116096204459
 30
0.0
 40
7.0
 50
157.066778292897
 51
244.0147337750746
1001
ACDBBLOCKREPETAG
1070
     1
1071
      145
1005
126D80
  0
LINE
  5
126D81
  8
OBJECT
 10
223.89888500822451
 20
-262.58002444487028
 30
0.0
 11
202.4868825336107
 21
-252.143508176935
 31
0.0
1001
ACDBBLOCKREPETAG
1070
     1
1071
      154
1005
126D81
  0
LINE
  5
126D82
  8
OBJECT
 10
220.71813901887009
 20
-266.70278309956279
 30
0.0
 11
203.0537300443502
 21
-258.09289773366339
 31
0.0
1001
ACDBBLOCKREPETAG
1070
     1
1071
      155
1005
126D82
  0
ARC
  5
126D83
  8
OBJECT
 10
187.12893698288639
 20
-255.42030469285689
 30
0.0
 40
60.031113246032611
 50
44.070201304186917
 51
52.339361060978852
1001
ACDBBLOCKREPETAG
1070
     1
1071
      156
1005
126D83
  0
CIRCLE
  5
126D84
  8
OBJECT
 10
180.00000000004181
 20
-232.00000000017189
 30
0.0
 40
53.5
1001
ACDBBLOCKREPETAG
1070
     1
1071
      157
1005
126D84
  0
POINT
  5
126D85
  8
DOTS
 10
180.00000000004181
 20
-232.00000000017189
 30
0.0
1001
ACDBBLOCKREPETAG
1070
     1
1071
      162
1005
126D85
  0
LINE
  5
126D86
  8
OBJECT
 10
156.17579607529291
 20
-277.67796144492331
 30
0.0
 11
154.40926451255919
 21
-278.98259525851881
 31
0.0
1001
ACDBBLOCKREPETAG
1070
     1
1071
      165
1005
126D86
  0
ARC
  5
126D87
  8
OBJECT
 10
159.1461853586772
 20
-281.69999917537177
 30
0.0
 40
5.0
 50
90.0
 51
126.4469224761369
1001
ACDBBLOCKREPETAG
1070
     1
1071
      166
1005
126D87
  0
LINE
  5
126D88
  8
OBJECT
 10
203.8242039247377
 20
-277.67796144479598
 30
0.0
 11
205.59073548768339
 21
-278.98259525843332
 31
0.0
1001
ACDBBLOCKREPETAG
1070
     1
1071
      167
1005
126D88
  0
ARC
  5
126D89
  8
OBJECT
 10
200.85381464152559
 20
-281.69999917537177
 30
0.0
 40
5.0
 50
53.553077526317523
 51
90.0
1001
ACDBBLOCKREPETAG
1070
     1
1071
      168
1005
126D89
  0
LINE
  5
126D8A
  8
OBJECT
 10
200.85381464152559
 20
-276.69999917537177
 30
0.0
 11
159.1461853586772
 21
-276.69999917537177
 31
0.0
1001
ACDBBLOCKREPETAG
1070
     1
1071
      169
1005
126D8A
  0
TEXT
  5
126D8B
  8
SLIM
 10
149.1428571427966
 20
-443.99999999984971
 30
0.0
 40
48.0
  1
A3
 41
0.75
1001
ACDBBLOCKREPETAG
1070
     1
1071
      119
1005
0
  0
TEXT
  5
126D8C
  8
SLIM
 10
0.0000035665234464
 20
24.000004585317608
 30
0.0
 40
79.999999999972701
  1
上部枝管
 41
0.75
1001
ACDBBLOCKREPETAG
1070
     1
1071
      119
1005
1255DD
  0
LINE
  5
126D8D
  8
DIM
 10
8405.5000000000018
 20
-1016.00000000001
 30
0.0
 11
8292.1493933614383
 21
-1016.00000000001
 31
0.0
  0
LINE
  5
126D8E
  8
DIM
 10
8423.0422321049627
 20
-1266.0
 30
0.0
 11
8292.1493933614383
 21
-1266.0
 31
0.0
  0
LINE
  5
126D8F
  8
DIM
 10
8302.1493933614402
 20
-1036.00000000001
 30
0.0
 11
8302.1493933614402
 21
-1245.9999999999991
 31
0.0
  0
INSERT
  5
126D90
  8
DIM
  2
_OPEN30
 10
8302.1493933614402
 20
-1016.00000000001
 30
0.0
 41
20.0
 42
20.0
 43
20.0
 50
90.0
  0
INSERT
  5
126D91
  8
DIM
  2
_OPEN30
 10
8302.1493933614402
 20
-1266.0
 30
0.0
 41
20.0
 42
20.0
 43
20.0
 50
270.0
  0
INSERT
  5
126D92
  8
OBJECT
  2
*U14
 10
0.0
 20
0.0
 30
0.0
  0
LINE
  5
126D93
  8
OBJECT
 10
2425.0
 20
-770.0
 30
0.0
 11
2425.0
 21
-907.50000000006526
 31
0.0
1001
ACDBBLOCKREPETAG
1070
     1
1071
        1
1005
126D93
  0
LINE
  5
126D94
  8
OBJECT
 10
2575.0
 20
-769.9999999999942
 30
0.0
 11
2575.0
 21
-1043.0
 31
0.0
1001
ACDBBLOCKREPETAG
1070
     1
1071
        3
1005
126D94
  0
LINE
  5
126D95
  8
CENTER
 10
2500.0
 20
-770.0
 30
0.0
 11
2500.0
 21
-1055.0
 31
0.0
1001
ACDBBLOCKREPETAG
1070
     1
1071
        6
1005
126D95
  0
LINE
  5
126D96
  8
OBJECT
 10
2420.0
 20
-1055.0
 30
0.0
 11
2580.0
 21
-1055.0
 31
0.0
1001
ACDBBLOCKREPETAG
1070
     1
1071
        7
1005
126D96
  0
LINE
  5
126D97
  8
OBJECT
 10
2420.0
 20
-1043.0
 30
0.0
 11
2580.0
 21
-1043.0
 31
0.0
1001
ACDBBLOCKREPETAG
1070
     1
1071
        8
1005
126D97
  0
LINE
  5
126D98
  8
OBJECT
 10
2420.0
 20
-1043.0
 30
0.0
 11
2420.0
 21
-1055.0
 31
0.0
1001
ACDBBLOCKREPETAG
1070
     1
1071
        9
1005
126D98
  0
LINE
  5
126D99
  8
OBJECT
 10
2580.0
 20
-1043.0
 30
0.0
 11
2580.0
 21
-1055.0
 31
0.0
1001
ACDBBLOCKREPETAG
1070
     1
1071
       10
1005
126D99
  0
LINE
  5
126D9A
  8
OBJECT
 10
2367.0
 20
-909.0
 30
0.0
 11
2360.0
 21
-909.0
 31
0.0
1001
ACDBBLOCKREPETAG
1070
     1
1071
       23
1005
126D9A
  0
LINE
  5
126D9B
  8
OBJECT
 10
2360.0
 20
-909.0
 30
0.0
 11
2360.0
 21
-1016.0
 31
0.0
1001
ACDBBLOCKREPETAG
1070
     1
1071
       24
1005
126D9B
  0
LINE
  5
126D9C
  8
OBJECT
 10
2415.5
 20
-910.50000000006548
 30
0.0
 11
2415.5
 21
-1013.5
 31
0.0
1001
ACDBBLOCKREPETAG
1070
     1
1071
       25
1005
126D9C
  0
ARC
  5
126D9D
  8
OBJECT
 10
2418.5
 20
-910.50000000006548
 30
0.0
 40
3.0
 50
90.0
 51
180.0
1001
ACDBBLOCKREPETAG
1070
     1
1071
       26
1005
126D9D
  0
LINE
  5
126D9E
  8
OBJECT
 10
2367.0
 20
-1016.0
 30
0.0
 11
2367.0
 21
-909.0
 31
0.0
1001
ACDBBLOCKREPETAG
1070
     1
1071
       27
1005
126D9E
  0
LINE
  5
126D9F
  8
CENTER
 10
2345.0
 20
-964.0
 30
0.0
 11
2458.655080086995
 21
-964.00000000006526
 31
0.0
1001
ACDBBLOCKREPETAG
1070
     1
1071
       28
1005
126D9F
  0
LINE
  5
126DA0
  8
OBJECT
 10
2367.0
 20
-912.0
 30
0.0
 11
2403.0
 21
-912.0
 31
0.0
1001
ACDBBLOCKREPETAG
1070
     1
1071
       29
1005
126DA0
  0
LINE
  5
126DA1
  8
OBJECT
 10
2403.0
 20
-912.0
 30
0.0
 11
2403.0
 21
-1016.0
 31
0.0
1001
ACDBBLOCKREPETAG
1070
     1
1071
       30
1005
126DA1
  0
LINE
  5
126DA2
  8
OBJECT
 10
2403.0
 20
-1016.0
 30
0.0
 11
2360.0
 21
-1016.0
 31
0.0
1001
ACDBBLOCKREPETAG
1070
     1
1071
       31
1005
126DA2
  0
LINE
  5
126DA3
  8
OBJECT
 10
2407.0
 20
-916.5
 30
0.0
 11
2415.5
 21
-916.5
 31
0.0
1001
ACDBBLOCKREPETAG
1070
     1
1071
       32
1005
126DA3
  0
LINE
  5
126DA4
  8
OBJECT
 10
2415.5
 20
-1011.5
 30
0.0
 11
2407.0
 21
-1011.5
 31
0.0
1001
ACDBBLOCKREPETAG
1070
     1
1071
       33
1005
126DA4
  0
LINE
  5
126DA5
  8
OBJECT
 10
2407.0
 20
-1011.5
 30
0.0
 11
2407.0
 21
-916.5
 31
0.0
1001
ACDBBLOCKREPETAG
1070
     1
1071
       34
1005
126DA5
  0
LINE
  5
126DA6
  8
OBJECT
 10
2403.0
 20
-912.0
 30
0.0
 11
2407.0
 21
-916.5
 31
0.0
1001
ACDBBLOCKREPETAG
1070
     1
1071
       35
1005
126DA6
  0
LINE
  5
126DA7
  8
OBJECT
 10
2403.0
 20
-1016.0
 30
0.0
 11
2407.0
 21
-1011.5
 31
0.0
1001
ACDBBLOCKREPETAG
1070
     1
1071
       36
1005
126DA7
  0
LINE
  5
126DA8
  8
HIDDEN
 10
2412.0
 20
-926.0
 30
0.0
 11
2412.0
 21
-1002.0
 31
0.0
1001
ACDBBLOCKREPETAG
1070
     1
1071
       37
1005
126DA8
  0
ARC
  5
126DA9
  8
OBJECT
 10
2335.1217271212249
 20
-972.40950726122867
 30
0.0
 40
110.86635228309
 50
16.959646195661989
 51
35.836572580695218
1001
ACDBBLOCKREPETAG
1070
     1
1071
       38
1005
126DA9
  0
ARC
  5
126DAA
  8
OBJECT
 10
2382.8640112230928
 20
-957.28774971844894
 30
0.0
 40
60.791749880358971
 50
0.2712030171732199
 51
16.452795347779499
1001
ACDBBLOCKREPETAG
1070
     1
1071
       39
1005
126DAA
  0
ARC
  5
126DAB
  8
OBJECT
 10
2382.8640043437531
 20
-963.71224975990117
 30
0.0
 40
60.79175676209487
 50
343.54722053947239
 51
359.72879652185469
1001
ACDBBLOCKREPETAG
1070
     1
1071
       40
1005
126DAB
  0
ARC
  5
126DAC
  8
OBJECT
 10
2335.1217271212249
 20
-948.59049273883636
 30
0.0
 40
110.8663522830916
 50
324.16342741930481
 51
343.040353804338
1001
ACDBBLOCKREPETAG
1070
     1
1071
       41
1005
126DAC
  0
LINE
  5
126DAD
  8
OBJECT
 10
2443.6550800869959
 20
-957.00000000003638
 30
0.0
 11
2443.6550800869959
 21
-964.00000000003286
 31
0.0
1001
ACDBBLOCKREPETAG
1070
     1
1071
       42
1005
126DAD
  0
LINE
  5
126DAE
  8
OBJECT
 10
2425.0
 20
-907.50000000006526
 30
0.0
 11
2418.5
 21
-907.50000000006526
 31
0.0
1001
ACDBBLOCKREPETAG
1070
     1
1071
       43
1005
126DAE
  0
LINE
  5
126DAF
  8
OBJECT
 10
2425.0
 20
-1013.5
 30
0.0
 11
2415.5
 21
-1013.5
 31
0.0
1001
ACDBBLOCKREPETAG
1070
     1
1071
       44
1005
126DAF
  0
LINE
  5
126DB0
  8
OBJECT
 10
2425.0
 20
-1013.5
 30
0.0
 11
2425.0
 21
-1043.0
 31
0.0
1001
ACDBBLOCKREPETAG
1070
     1
1071
        1
1005
126D93
  0
POINT
  5
126DB1
  8
DOTS
 10
2500.0
 20
-1016.0
 30
0.0
  0
LINE
  5
126DB2
  8
OBJECT
 10
8633.0
 20
-137.99999999999909
 30
0.0
 11
8640.0
 21
-137.99999999999909
 31
0.0
1001
ACDBBLOCKREPETAG
1070
     1
1071
       47
1005
126DB2
  0
LINE
  5
126DB3
  8
OBJECT
 10
8640.0
 20
-137.99999999999909
 30
0.0
 11
8640.0
 21
-261.99999999999909
 31
0.0
1001
ACDBBLOCKREPETAG
1070
     1
1071
       48
1005
126DB3
  0
LINE
  5
126DB4
  8
OBJECT
 10
8640.0
 20
-261.99999999999909
 30
0.0
 11
8633.0
 21
-261.99999999999909
 31
0.0
1001
ACDBBLOCKREPETAG
1070
     1
1071
       49
1005
126DB4
  0
LINE
  5
126DB5
  8
OBJECT
 10
8633.0
 20
-261.99999999999909
 30
0.0
 11
8633.0
 21
-137.99999999999909
 31
0.0
1001
ACDBBLOCKREPETAG
1070
     1
1071
       50
1005
126DB5
  0
LINE
  5
126DB6
  8
CENTER
 10
8655.0
 20
-199.99999999999909
 30
0.0
 11
8580.0
 21
-199.99999999999909
 31
0.0
1001
ACDBBLOCKREPETAG
1070
     1
1071
       51
1005
126DB6
  0
LINE
  5
126DB7
  8
OBJECT
 10
8633.0
 20
-140.99999999999909
 30
0.0
 11
8597.0
 21
-140.99999999999909
 31
0.0
1001
ACDBBLOCKREPETAG
1070
     1
1071
       52
1005
126DB7
  0
LINE
  5
126DB8
  8
OBJECT
 10
8597.0
 20
-140.99999999999909
 30
0.0
 11
8597.0
 21
-258.99999999999909
 31
0.0
1001
ACDBBLOCKREPETAG
1070
     1
1071
       53
1005
126DB8
  0
LINE
  5
126DB9
  8
OBJECT
 10
8597.0
 20
-258.99999999999909
 30
0.0
 11
8633.0
 21
-258.99999999999909
 31
0.0
1001
ACDBBLOCKREPETAG
1070
     1
1071
       54
1005
126DB9
  0
LINE
  5
126DBA
  8
OBJECT
 10
8593.0
 20
-145.49999999999909
 30
0.0
 11
8586.0
 21
-145.49999999999909
 31
0.0
1001
ACDBBLOCKREPETAG
1070
     1
1071
       55
1005
126DBA
  0
LINE
  5
126DBB
  8
OBJECT
 10
8586.0
 20
-254.49999999999909
 30
0.0
 11
8593.0
 21
-254.49999999999909
 31
0.0
1001
ACDBBLOCKREPETAG
1070
     1
1071
       56
1005
126DBB
  0
LINE
  5
126DBC
  8
OBJECT
 10
8593.0
 20
-254.49999999999909
 30
0.0
 11
8593.0
 21
-145.49999999999909
 31
0.0
1001
ACDBBLOCKREPETAG
1070
     1
1071
       57
1005
126DBC
  0
LINE
  5
126DBD
  8
OBJECT
 10
8597.0
 20
-140.99999999999909
 30
0.0
 11
8593.0
 21
-145.49999999999909
 31
0.0
1001
ACDBBLOCKREPETAG
1070
     1
1071
       58
1005
126DBD
  0
LINE
  5
126DBE
  8
OBJECT
 10
8597.0
 20
-258.99999999999909
 30
0.0
 11
8593.0
 21
-254.49999999999909
 31
0.0
1001
ACDBBLOCKREPETAG
1070
     1
1071
       59
1005
126DBE
  0
LINE
  5
126DBF
  8
OBJECT
 10
8583.0
 20
-137.99999999999909
 30
0.0
 11
8580.0
 21
-137.99999999999909
 31
0.0
1001
ACDBBLOCKREPETAG
1070
     1
1071
       60
1005
126DBF
  0
ARC
  5
126DC0
  8
OBJECT
 10
8583.0
 20
-140.99999999999909
 30
0.0
 40
3.0
 50
0.0
 51
90.0
1001
ACDBBLOCKREPETAG
1070
     1
1071
       61
1005
126DC0
  0
LINE
  5
126DC1
  8
OBJECT
 10
8580.0
 20
-261.99999999999909
 30
0.0
 11
8583.0
 21
-261.99999999999909
 31
0.0
1001
ACDBBLOCKREPETAG
1070
     1
1071
       62
1005
126DC1
  0
ARC
  5
126DC2
  8
OBJECT
 10
8583.0
 20
-258.99999999999909
 30
0.0
 40
3.0
 50
270.0
 51
0.0
1001
ACDBBLOCKREPETAG
1070
     1
1071
       63
1005
126DC2
  0
LINE
  5
126DC3
  8
OBJECT
 10
8586.0
 20
-258.99999999999909
 30
0.0
 11
8586.0
 21
-140.99999999999909
 31
0.0
1001
ACDBBLOCKREPETAG
1070
     1
1071
       64
1005
126DC3
  0
LINE
  5
126DC4
  8
HIDDEN
 10
8588.0
 20
-155.49999999999909
 30
0.0
 11
8588.0
 21
-244.49999999999909
 31
0.0
1001
ACDBBLOCKREPETAG
1070
     1
1071
       65
1005
126DC4
  0
LINE
  5
126DC5
  8
DIM
 10
2665.0
 20
-696.0
 30
0.0
 11
2719.4245816727562
 21
-696.0
 31
0.0
  0
LINE
  5
126DC6
  8
DIM
 10
2413.0
 20
-1016.0
 30
0.0
 11
2719.4245816727562
 21
-1016.0
 31
0.0
  0
LINE
  5
126DC7
  8
DIM
 10
2709.4245816727562
 20
-716.0
 30
0.0
 11
2709.4245816727562
 21
-996.0
 31
0.0
  0
INSERT
  5
126DC8
  8
DIM
  2
_OPEN30
 10
2709.4245816727562
 20
-696.0
 30
0.0
 41
20.0
 42
20.0
 43
20.0
 50
90.0
  0
INSERT
  5
126DC9
  8
DIM
  2
_OPEN30
 10
2709.4245816727562
 20
-1016.0
 30
0.0
 41
20.0
 42
20.0
 43
20.0
 50
270.0
  0
INSERT
  5
126DCA
  8
OBJECT
  2
*U15
 10
0.0
 20
0.0
 30
0.0
  0
LINE
  5
126DCB
  8
CENTER
 10
4977.0
 20
-3805.9999999999968
 30
0.0
 11
4823.0
 21
-3805.9999999999968
 31
0.0
1001
ACDBBLOCKREPETAG
1070
     1
1071
       17
1005
126DCB
  0
CIRCLE
  5
126DCC
  8
OBJECT
 10
4900.0
 20
-3805.9999999999968
 30
0.0
 40
41.5
1001
ACDBBLOCKREPETAG
1070
     1
1071
       18
1005
126DCC
  0
CIRCLE
  5
126DCD
  8
OBJECT
 10
4900.0
 20
-3805.9999999999968
 30
0.0
 40
54.0
1001
ACDBBLOCKREPETAG
1070
     1
1071
       19
1005
126DCD
  0
ARC
  5
126DCE
  8
OBJECT
 10
4900.0
 20
-3805.9999999999968
 30
0.0
 40
62.0
 50
287.89655112921122
 51
252.1034488707887
1001
ACDBBLOCKREPETAG
1070
     1
1071
       20
1005
126DCE
  0
LINE
  5
126DCF
  8
OBJECT
 10
4880.947441116743
 20
-3864.9999999999968
 30
0.0
 11
4919.052558883257
 21
-3864.9999999999968
 31
0.0
1001
ACDBBLOCKREPETAG
1070
     1
1071
       21
1005
126DCF
  0
POINT
  5
126DD0
  8
DOTS
 10
4900.0
 20
-3864.9999999999968
 30
0.0
1001
ACDBBLOCKREPETAG
1070
     1
1071
       23
1005
126DD0
  0
LINE
  5
126DD1
  8
OBJECT
 10
4633.0
 20
-3743.9999999999959
 30
0.0
 11
4640.0
 21
-3743.9999999999959
 31
0.0
1001
ACDBBLOCKREPETAG
1070
     1
1071
       46
1005
126DD1
  0
LINE
  5
126DD2
  8
OBJECT
 10
4640.0
 20
-3743.9999999999959
 30
0.0
 11
4640.0
 21
-3864.9999999999968
 31
0.0
1001
ACDBBLOCKREPETAG
1070
     1
1071
       47
1005
126DD2
  0
LINE
  5
126DD3
  8
OBJECT
 10
4633.0
 20
-3864.9999999999968
 30
0.0
 11
4633.0
 21
-3743.9999999999959
 31
0.0
1001
ACDBBLOCKREPETAG
1070
     1
1071
       48
1005
126DD3
  0
LINE
  5
126DD4
  8
CENTER
 10
4655.0
 20
-3805.9999999999968
 30
0.0
 11
4541.3449199130037
 21
-3806.0000000000618
 31
0.0
1001
ACDBBLOCKREPETAG
1070
     1
1071
       49
1005
126DD4
  0
LINE
  5
126DD5
  8
OBJECT
 10
4633.0
 20
-3746.9999999999959
 30
0.0
 11
4597.0
 21
-3746.9999999999959
 31
0.0
1001
ACDBBLOCKREPETAG
1070
     1
1071
       50
1005
126DD5
  0
LINE
  5
126DD6
  8
OBJECT
 10
4597.0
 20
-3746.9999999999959
 30
0.0
 11
4597.0
 21
-3864.9999999999968
 31
0.0
1001
ACDBBLOCKREPETAG
1070
     1
1071
       51
1005
126DD6
  0
LINE
  5
126DD7
  8
OBJECT
 10
4597.0
 20
-3864.9999999999968
 30
0.0
 11
4640.0
 21
-3864.9999999999968
 31
0.0
1001
ACDBBLOCKREPETAG
1070
     1
1071
       52
1005
126DD7
  0
LINE
  5
126DD8
  8
OBJECT
 10
4593.0
 20
-3751.4999999999959
 30
0.0
 11
4582.5
 21
-3751.4999999999959
 31
0.0
1001
ACDBBLOCKREPETAG
1070
     1
1071
       53
1005
126DD8
  0
LINE
  5
126DD9
  8
OBJECT
 10
4582.5
 20
-3860.4999999999959
 30
0.0
 11
4593.0
 21
-3860.4999999999959
 31
0.0
1001
ACDBBLOCKREPETAG
1070
     1
1071
       54
1005
126DD9
  0
LINE
  5
126DDA
  8
OBJECT
 10
4593.0
 20
-3860.4999999999959
 30
0.0
 11
4593.0
 21
-3751.4999999999959
 31
0.0
1001
ACDBBLOCKREPETAG
1070
     1
1071
       55
1005
126DDA
  0
LINE
  5
126DDB
  8
OBJECT
 10
4597.0
 20
-3746.9999999999959
 30
0.0
 11
4593.0
 21
-3751.4999999999959
 31
0.0
1001
ACDBBLOCKREPETAG
1070
     1
1071
       56
1005
126DDB
  0
LINE
  5
126DDC
  8
OBJECT
 10
4597.0
 20
-3864.9999999999968
 30
0.0
 11
4593.0
 21
-3860.4999999999959
 31
0.0
1001
ACDBBLOCKREPETAG
1070
     1
1071
       57
1005
126DDC
  0
LINE
  5
126DDD
  8
HIDDEN
 10
4588.0
 20
-3761.4999999999968
 30
0.0
 11
4588.0
 21
-3850.4999999999968
 31
0.0
1001
ACDBBLOCKREPETAG
1070
     1
1071
       58
1005
126DDD
  0
ARC
  5
126DDE
  8
OBJECT
 10
4664.8782728787719
 20
-3821.4095072612249
 30
0.0
 40
110.86635228309
 50
144.16342741928889
 51
163.04035380433939
1001
ACDBBLOCKREPETAG
1070
     1
1071
       59
1005
126DDE
  0
ARC
  5
126DDF
  8
OBJECT
 10
4617.1359887769049
 20
-3806.287749718445
 30
0.0
 40
60.791749880358971
 50
163.54720465221931
 51
179.72879698282651
1001
ACDBBLOCKREPETAG
1070
     1
1071
       60
1005
126DDF
  0
ARC
  5
126DE0
  8
OBJECT
 10
4617.1359956562483
 20
-3812.7122497598971
 30
0.0
 40
60.79175676209487
 50
180.2712034781452
 51
196.4527794605265
1001
ACDBBLOCKREPETAG
1070
     1
1071
       61
1005
126DE0
  0
ARC
  5
126DE1
  8
OBJECT
 10
4664.8782728787719
 20
-3797.5904927388328
 30
0.0
 40
110.8663522830916
 50
196.9596461956605
 51
215.83657258071111
1001
ACDBBLOCKREPETAG
1070
     1
1071
       62
1005
126DE1
  0
LINE
  5
126DE2
  8
OBJECT
 10
4556.3449199130037
 20
-3806.0000000000332
 30
0.0
 11
4556.3449199130037
 21
-3813.0000000000291
 31
0.0
1001
ACDBBLOCKREPETAG
1070
     1
1071
       63
1005
126DE2
  0
LINE
  5
126DE3
  8
OBJECT
 10
4574.9999999998336
 20
-3756.500000000291
 30
0.0
 11
4577.4999999998363
 21
-3756.500000000291
 31
0.0
1001
ACDBBLOCKREPETAG
1070
     1
1071
       65
1005
126DE3
  0
LINE
  5
126DE4
  8
OBJECT
 10
4574.9999999998327
 20
-3862.4999999997672
 30
0.0
 11
4579.4999999998308
 21
-3862.4999999997672
 31
0.0
1001
ACDBBLOCKREPETAG
1070
     1
1071
       66
1005
126DE4
  0
LINE
  5
126DE5
  8
OBJECT
 10
4579.4999999998308
 20
-3862.4999999997672
 30
0.0
 11
4577.4999999998363
 21
-3756.500000000291
 31
0.0
1001
ACDBBLOCKREPETAG
1070
     1
1071
       67
1005
126DE5
  0
LINE
  5
126DE6
  8
OBJECT
 10
4579.4999999998308
 20
-3862.4999999997672
 30
0.0
 11
4582.5
 21
-3860.4999999999959
 31
0.0
1001
ACDBBLOCKREPETAG
1070
     1
1071
       68
1005
126DE6
  0
LINE
  5
126DE7
  8
OBJECT
 10
4582.5
 20
-3860.4999999999959
 30
0.0
 11
4582.5
 21
-3751.4999999999959
 31
0.0
1001
ACDBBLOCKREPETAG
1070
     1
1071
       69
1005
126DE7
  0
LINE
  5
126DE8
  8
OBJECT
 10
4582.5
 20
-3751.4999999999959
 30
0.0
 11
4577.4999999998363
 21
-3756.500000000291
 31
0.0
1001
ACDBBLOCKREPETAG
1070
     1
1071
       70
1005
126DE8
  0
LINE
  5
126DE9
  8
OBJECT
 10
4633.0000000000009
 20
-3397.9999999999959
 30
0.0
 11
4640.0000000000018
 21
-3397.9999999999959
 31
0.0
1001
ACDBBLOCKREPETAG
1070
     1
1071
       38
1005
126DE9
  0
LINE
  5
126DEA
  8
OBJECT
 10
4640.0000000000018
 20
-3397.9999999999959
 30
0.0
 11
4640.0
 21
-3521.9999999999968
 31
0.0
1001
ACDBBLOCKREPETAG
1070
     1
1071
       39
1005
126DEA
  0
LINE
  5
126DEB
  8
OBJECT
 10
4640.0
 20
-3521.9999999999968
 30
0.0
 11
4633.0
 21
-3521.9999999999968
 31
0.0
1001
ACDBBLOCKREPETAG
1070
     1
1071
       40
1005
126DEB
  0
LINE
  5
126DEC
  8
OBJECT
 10
4633.0
 20
-3521.9999999999968
 30
0.0
 11
4633.0000000000009
 21
-3397.9999999999959
 31
0.0
1001
ACDBBLOCKREPETAG
1070
     1
1071
       41
1005
126DEC
  0
LINE
  5
126DED
  8
CENTER
 10
4655.0
 20
-3459.9999999999968
 30
0.0
 11
4580.0
 21
-3459.9999999999968
 31
0.0
1001
ACDBBLOCKREPETAG
1070
     1
1071
       42
1005
126DED
  0
LINE
  5
126DEE
  8
OBJECT
 10
4633.0000000000009
 20
-3400.9999999999959
 30
0.0
 11
4597.0000000000018
 21
-3400.9999999999959
 31
0.0
1001
ACDBBLOCKREPETAG
1070
     1
1071
       43
1005
126DEE
  0
LINE
  5
126DEF
  8
OBJECT
 10
4597.0000000000018
 20
-3400.9999999999959
 30
0.0
 11
4597.0
 21
-3518.9999999999968
 31
0.0
1001
ACDBBLOCKREPETAG
1070
     1
1071
       44
1005
126DEF
  0
LINE
  5
126DF0
  8
OBJECT
 10
4597.0
 20
-3518.9999999999968
 30
0.0
 11
4633.0
 21
-3518.9999999999968
 31
0.0
1001
ACDBBLOCKREPETAG
1070
     1
1071
       45
1005
126DF0
  0
LINE
  5
126DF1
  8
OBJECT
 10
4593.0000000000018
 20
-3405.4999999999959
 30
0.0
 11
4582.5000000000018
 21
-3405.4999999999959
 31
0.0
1001
ACDBBLOCKREPETAG
1070
     1
1071
       46
1005
126DF1
  0
LINE
  5
126DF2
  8
OBJECT
 10
4582.5
 20
-3514.4999999999968
 30
0.0
 11
4593.0
 21
-3514.4999999999968
 31
0.0
1001
ACDBBLOCKREPETAG
1070
     1
1071
       47
1005
126DF2
  0
LINE
  5
126DF3
  8
OBJECT
 10
4593.0
 20
-3514.4999999999968
 30
0.0
 11
4593.0000000000018
 21
-3405.4999999999959
 31
0.0
1001
ACDBBLOCKREPETAG
1070
     1
1071
       48
1005
126DF3
  0
LINE
  5
126DF4
  8
OBJECT
 10
4597.0000000000018
 20
-3400.9999999999959
 30
0.0
 11
4593.0000000000018
 21
-3405.4999999999959
 31
0.0
1001
ACDBBLOCKREPETAG
1070
     1
1071
       49
1005
126DF4
  0
LINE
  5
126DF5
  8
OBJECT
 10
4597.0
 20
-3518.9999999999968
 30
0.0
 11
4593.0
 21
-3514.4999999999968
 31
0.0
1001
ACDBBLOCKREPETAG
1070
     1
1071
       50
1005
126DF5
  0
LINE
  5
126DF6
  8
HIDDEN
 10
4588.0
 20
-3415.4999999999968
 30
0.0
 11
4588.0
 21
-3504.4999999999968
 31
0.0
1001
ACDBBLOCKREPETAG
1070
     1
1071
       51
1005
126DF6
  0
LINE
  5
126DF7
  8
OBJECT
 10
4577.5000000000018
 20
-3410.4999999999959
 30
0.0
 11
4556.3449199129791
 21
-3410.4999999999959
 31
0.0
1001
ACDBBLOCKREPETAG
1070
     1
1071
       52
1005
126DF7
  0
LINE
  5
126DF8
  8
OBJECT
 10
4577.4999999999991
 20
-3509.4999999999959
 30
0.0
 11
4556.3449199129791
 21
-3509.4999999999959
 31
0.0
1001
ACDBBLOCKREPETAG
1070
     1
1071
       53
1005
126DF8
  0
LINE
  5
126DF9
  8
OBJECT
 10
4582.5000000000018
 20
-3405.4999999999959
 30
0.0
 11
4582.5
 21
-3514.4999999999968
 31
0.0
1001
ACDBBLOCKREPETAG
1070
     1
1071
       54
1005
126DF9
  0
LINE
  5
126DFA
  8
OBJECT
 10
4577.5000000000018
 20
-3410.4999999999959
 30
0.0
 11
4577.4999999999991
 21
-3509.4999999999959
 31
0.0
1001
ACDBBLOCKREPETAG
1070
     1
1071
       55
1005
126DFA
  0
LINE
  5
126DFB
  8
OBJECT
 10
4582.5000000000018
 20
-3405.4999999999959
 30
0.0
 11
4577.5000000000018
 21
-3410.4999999999959
 31
0.0
1001
ACDBBLOCKREPETAG
1070
     1
1071
       56
1005
126DFB
  0
LINE
  5
126DFC
  8
OBJECT
 10
4577.4999999999991
 20
-3509.4999999999959
 30
0.0
 11
4582.5
 21
-3514.4999999999932
 31
0.0
1001
ACDBBLOCKREPETAG
1070
     1
1071
       57
1005
126DFC
  0
CIRCLE
  5
126DFD
  8
OBJECT
 10
3900.0
 20
-3812.9999999999968
 30
0.0
 40
35.5
1001
ACDBBLOCKREPETAG
1070
     1
1071
       11
1005
126DFD
  0
LINE
  5
126DFE
  8
CENTER
 10
3830.0
 20
-3812.9999999999968
 30
0.0
 11
3970.0
 21
-3812.9999999999968
 31
0.0
1001
ACDBBLOCKREPETAG
1070
     1
1071
       12
1005
126DFE
  0
CIRCLE
  5
126DFF
  8
OBJECT
 10
3900.0
 20
-3812.9999999999968
 30
0.0
 40
47.0
1001
ACDBBLOCKREPETAG
1070
     1
1071
       14
1005
126DFF
  0
ARC
  5
126E00
  8
OBJECT
 10
3900.0
 20
-3812.9999999999968
 30
0.0
 40
55.0
 50
289.01126526008892
 51
250.98873473991111
1001
ACDBBLOCKREPETAG
1070
     1
1071
       15
1005
126E00
  0
LINE
  5
126E01
  8
OBJECT
 10
3882.0835271328319
 20
-3864.9999999999968
 30
0.0
 11
3917.9164728671672
 21
-3864.9999999999968
 31
0.0
1001
ACDBBLOCKREPETAG
1070
     1
1071
       16
1005
126E01
  0
POINT
  5
126E02
  8
DOTS
 10
3900.0
 20
-3864.9999999999968
 30
0.0
1001
ACDBBLOCKREPETAG
1070
     1
1071
       24
1005
126E02
  0
LINE
  5
126E03
  8
OBJECT
 10
3633.0
 20
-3757.9999999999959
 30
0.0
 11
3640.0
 21
-3757.9999999999959
 31
0.0
1001
ACDBBLOCKREPETAG
1070
     1
1071
       23
1005
126E03
  0
LINE
  5
126E04
  8
OBJECT
 10
3640.0
 20
-3757.9999999999959
 30
0.0
 11
3640.0
 21
-3864.9999999999968
 31
0.0
1001
ACDBBLOCKREPETAG
1070
     1
1071
       24
1005
126E04
  0
LINE
  5
126E05
  8
OBJECT
 10
3584.5
 20
-3759.5000000000618
 30
0.0
 11
3584.5
 21
-3862.4999999999968
 31
0.0
1001
ACDBBLOCKREPETAG
1070
     1
1071
       25
1005
126E05
  0
ARC
  5
126E06
  8
OBJECT
 10
3581.5
 20
-3759.5000000000618
 30
0.0
 40
3.0
 50
0.0
 51
90.0
1001
ACDBBLOCKREPETAG
1070
     1
1071
       26
1005
126E06
  0
LINE
  5
126E07
  8
OBJECT
 10
3633.0
 20
-3864.9999999999968
 30
0.0
 11
3633.0
 21
-3757.9999999999959
 31
0.0
1001
ACDBBLOCKREPETAG
1070
     1
1071
       27
1005
126E07
  0
LINE
  5
126E08
  8
CENTER
 10
3655.0
 20
-3812.9999999999968
 30
0.0
 11
3541.3449199130041
 21
-3813.0000000000618
 31
0.0
1001
ACDBBLOCKREPETAG
1070
     1
1071
       28
1005
126E08
  0
LINE
  5
126E09
  8
OBJECT
 10
3633.0
 20
-3760.9999999999968
 30
0.0
 11
3597.0
 21
-3760.9999999999968
 31
0.0
1001
ACDBBLOCKREPETAG
1070
     1
1071
       29
1005
126E09
  0
LINE
  5
126E0A
  8
OBJECT
 10
3597.0
 20
-3760.9999999999968
 30
0.0
 11
3597.0
 21
-3864.9999999999968
 31
0.0
1001
ACDBBLOCKREPETAG
1070
     1
1071
       30
1005
126E0A
  0
LINE
  5
126E0B
  8
OBJECT
 10
3597.0
 20
-3864.9999999999968
 30
0.0
 11
3640.0
 21
-3864.9999999999968
 31
0.0
1001
ACDBBLOCKREPETAG
1070
     1
1071
       31
1005
126E0B
  0
LINE
  5
126E0C
  8
OBJECT
 10
3593.0
 20
-3765.4999999999968
 30
0.0
 11
3584.5
 21
-3765.4999999999968
 31
0.0
1001
ACDBBLOCKREPETAG
1070
     1
1071
       32
1005
126E0C
  0
LINE
  5
126E0D
  8
OBJECT
 10
3584.5
 20
-3860.4999999999959
 30
0.0
 11
3593.0
 21
-3860.4999999999959
 31
0.0
1001
ACDBBLOCKREPETAG
1070
     1
1071
       33
1005
126E0D
  0
LINE
  5
126E0E
  8
OBJECT
 10
3593.0
 20
-3860.4999999999959
 30
0.0
 11
3593.0
 21
-3765.4999999999968
 31
0.0
1001
ACDBBLOCKREPETAG
1070
     1
1071
       34
1005
126E0E
  0
LINE
  5
126E0F
  8
OBJECT
 10
3597.0
 20
-3760.9999999999968
 30
0.0
 11
3593.0
 21
-3765.4999999999968
 31
0.0
1001
ACDBBLOCKREPETAG
1070
     1
1071
       35
1005
126E0F
  0
LINE
  5
126E10
  8
OBJECT
 10
3597.0
 20
-3864.9999999999968
 30
0.0
 11
3593.0
 21
-3860.4999999999959
 31
0.0
1001
ACDBBLOCKREPETAG
1070
     1
1071
       36
1005
126E10
  0
LINE
  5
126E11
  8
HIDDEN
 10
3588.0
 20
-3774.9999999999968
 30
0.0
 11
3588.0
 21
-3850.9999999999959
 31
0.0
1001
ACDBBLOCKREPETAG
1070
     1
1071
       37
1005
126E11
  0
ARC
  5
126E12
  8
OBJECT
 10
3664.8782728787742
 20
-3821.4095072612249
 30
0.0
 40
110.86635228309
 50
144.16342741928889
 51
163.04035380433169
1001
ACDBBLOCKREPETAG
1070
     1
1071
       38
1005
126E12
  0
ARC
  5
126E13
  8
OBJECT
 10
3617.1359887769072
 20
-3806.287749718445
 30
0.0
 40
60.791749880358971
 50
163.5472046522267
 51
179.72879698282679
1001
ACDBBLOCKREPETAG
1070
     1
1071
       39
1005
126E13
  0
ARC
  5
126E14
  8
OBJECT
 10
3617.1359956562478
 20
-3812.7122497598971
 30
0.0
 40
60.79175676209487
 50
180.2712034781452
 51
196.4527794605338
1001
ACDBBLOCKREPETAG
1070
     1
1071
       40
1005
126E14
  0
ARC
  5
126E15
  8
OBJECT
 10
3664.8782728787742
 20
-3797.5904927388328
 30
0.0
 40
110.8663522830916
 50
196.95964619566811
 51
215.83657258071111
1001
ACDBBLOCKREPETAG
1070
     1
1071
       41
1005
126E15
  0
LINE
  5
126E16
  8
OBJECT
 10
3556.3449199130041
 20
-3806.0000000000332
 30
0.0
 11
3556.3449199130041
 21
-3813.0000000000291
 31
0.0
1001
ACDBBLOCKREPETAG
1070
     1
1071
       42
1005
126E16
  0
LINE
  5
126E17
  8
OBJECT
 10
3574.9999999999991
 20
-3756.5000000000618
 30
0.0
 11
3581.5
 21
-3756.5000000000618
 31
0.0
1001
ACDBBLOCKREPETAG
1070
     1
1071
       43
1005
126E17
  0
LINE
  5
126E18
  8
OBJECT
 10
3574.9999999999991
 20
-3862.4999999999968
 30
0.0
 11
3584.5
 21
-3862.4999999999968
 31
0.0
1001
ACDBBLOCKREPETAG
1070
     1
1071
       44
1005
126E18
  0
LINE
  5
126E19
  8
OBJECT
 10
3633.0
 20
-3404.9999999999959
 30
0.0
 11
3640.0
 21
-3404.9999999999959
 31
0.0
1001
ACDBBLOCKREPETAG
1070
     1
1071
       20
1005
126E19
  0
LINE
  5
126E1A
  8
OBJECT
 10
3640.0
 20
-3404.9999999999959
 30
0.0
 11
3640.0
 21
-3514.9999999999968
 31
0.0
1001
ACDBBLOCKREPETAG
1070
     1
1071
       21
1005
126E1A
  0
LINE
  5
126E1B
  8
OBJECT
 10
3640.0
 20
-3514.9999999999968
 30
0.0
 11
3633.0
 21
-3514.9999999999968
 31
0.0
1001
ACDBBLOCKREPETAG
1070
     1
1071
       22
1005
126E1B
  0
LINE
  5
126E1C
  8
OBJECT
 10
3633.0
 20
-3514.9999999999968
 30
0.0
 11
3633.0
 21
-3404.9999999999959
 31
0.0
1001
ACDBBLOCKREPETAG
1070
     1
1071
       23
1005
126E1C
  0
LINE
  5
126E1D
  8
CENTER
 10
3655.0
 20
-3459.9999999999968
 30
0.0
 11
3580.0
 21
-3459.9999999999968
 31
0.0
1001
ACDBBLOCKREPETAG
1070
     1
1071
       24
1005
126E1D
  0
LINE
  5
126E1E
  8
OBJECT
 10
3633.0
 20
-3407.9999999999959
 30
0.0
 11
3597.0
 21
-3407.9999999999959
 31
0.0
1001
ACDBBLOCKREPETAG
1070
     1
1071
       25
1005
126E1E
  0
LINE
  5
126E1F
  8
OBJECT
 10
3597.0
 20
-3407.9999999999959
 30
0.0
 11
3597.0
 21
-3511.9999999999959
 31
0.0
1001
ACDBBLOCKREPETAG
1070
     1
1071
       26
1005
126E1F
  0
LINE
  5
126E20
  8
OBJECT
 10
3597.0
 20
-3511.9999999999959
 30
0.0
 11
3633.0
 21
-3511.9999999999959
 31
0.0
1001
ACDBBLOCKREPETAG
1070
     1
1071
       27
1005
126E20
  0
LINE
  5
126E21
  8
OBJECT
 10
3593.0
 20
-3412.4999999999959
 30
0.0
 11
3584.5
 21
-3412.4999999999959
 31
0.0
1001
ACDBBLOCKREPETAG
1070
     1
1071
       28
1005
126E21
  0
LINE
  5
126E22
  8
OBJECT
 10
3584.5
 20
-3507.4999999999968
 30
0.0
 11
3593.0
 21
-3507.4999999999968
 31
0.0
1001
ACDBBLOCKREPETAG
1070
     1
1071
       29
1005
126E22
  0
LINE
  5
126E23
  8
OBJECT
 10
3593.0
 20
-3507.4999999999968
 30
0.0
 11
3593.0
 21
-3412.4999999999959
 31
0.0
1001
ACDBBLOCKREPETAG
1070
     1
1071
       30
1005
126E23
  0
LINE
  5
126E24
  8
OBJECT
 10
3597.0
 20
-3407.9999999999959
 30
0.0
 11
3593.0
 21
-3412.4999999999959
 31
0.0
1001
ACDBBLOCKREPETAG
1070
     1
1071
       31
1005
126E24
  0
LINE
  5
126E25
  8
OBJECT
 10
3597.0
 20
-3511.9999999999959
 30
0.0
 11
3593.0
 21
-3507.4999999999968
 31
0.0
1001
ACDBBLOCKREPETAG
1070
     1
1071
       32
1005
126E25
  0
LINE
  5
126E26
  8
OBJECT
 10
3584.4999999999982
 20
-3509.4999999999959
 30
0.0
 11
3584.5
 21
-3410.4999999999959
 31
0.0
1001
ACDBBLOCKREPETAG
1070
     1
1071
       33
1005
126E26
  0
LINE
  5
126E27
  8
HIDDEN
 10
3588.0
 20
-3421.9999999999968
 30
0.0
 11
3588.0
 21
-3497.9999999999959
 31
0.0
1001
ACDBBLOCKREPETAG
1070
     1
1071
       34
1005
126E27
  0
LINE
  5
126E28
  8
OBJECT
 10
3584.5
 20
-3410.4999999999959
 30
0.0
 11
3556.3449199129791
 21
-3410.4999999999959
 31
0.0
1001
ACDBBLOCKREPETAG
1070
     1
1071
       35
1005
126E28
  0
LINE
  5
126E29
  8
OBJECT
 10
3584.4999999999982
 20
-3509.4999999999959
 30
0.0
 11
3556.3449199129791
 21
-3509.4999999999959
 31
0.0
1001
ACDBBLOCKREPETAG
1070
     1
1071
       36
1005
126E29
  0
LINE
  5
126E2A
  8
CENTER
 10
2838.0
 20
-3820.9999999999968
 30
0.0
 11
2962.0
 21
-3820.9999999999968
 31
0.0
1001
ACDBBLOCKREPETAG
1070
     1
1071
        0
1005
126E2A
  0
CIRCLE
  5
126E2B
  8
OBJECT
 10
2900.0
 20
-3820.9999999999968
 30
0.0
 40
28.0
1001
ACDBBLOCKREPETAG
1070
     1
1071
        2
1005
126E2B
  0
CIRCLE
  5
126E2C
  8
OBJECT
 10
2900.0
 20
-3820.9999999999968
 30
0.0
 40
39.0
1001
ACDBBLOCKREPETAG
1070
     1
1071
        3
1005
126E2C
  0
ARC
  5
126E2D
  8
OBJECT
 10
2900.0
 20
-3820.9999999999968
 30
0.0
 40
47.0
 50
290.58196921144412
 51
249.41803078855591
1001
ACDBBLOCKREPETAG
1070
     1
1071
        4
1005
126E2D
  0
LINE
  5
126E2E
  8
OBJECT
 10
2883.4772883581418
 20
-3864.9999999999968
 30
0.0
 11
2916.5227116418569
 21
-3864.9999999999968
 31
0.0
1001
ACDBBLOCKREPETAG
1070
     1
1071
        5
1005
126E2E
  0
ARC
  5
126E2F
  8
OBJECT
 10
2900.0
 20
-3805.9999999999932
 30
0.0
 40
49.5
 50
0.0
 51
180.0
1001
ACDBBLOCKREPETAG
1070
     1
1071
        6
1005
126E2F
  0
LINE
  5
126E30
  8
OBJECT
 10
2850.5000000000032
 20
-3805.9999999999932
 30
0.0
 11
2850.5000000000032
 21
-3812.9999999999968
 31
0.0
1001
ACDBBLOCKREPETAG
1070
     1
1071
        7
1005
126E30
  0
LINE
  5
126E31
  8
OBJECT
 10
2949.5000000000068
 20
-3805.9999999999932
 30
0.0
 11
2949.5000000000068
 21
-3812.9999999999968
 31
0.0
1001
ACDBBLOCKREPETAG
1070
     1
1071
        8
1005
126E31
  0
ARC
  5
126E32
  8
OBJECT
 10
2900.0
 20
-3812.9999999999968
 30
0.0
 40
49.5
 50
180.0
 51
202.66956385104879
1001
ACDBBLOCKREPETAG
1070
     1
1071
        9
1005
126E32
  0
ARC
  5
126E33
  8
OBJECT
 10
2900.0
 20
-3812.9999999999968
 30
0.0
 40
49.5
 50
337.33043614895121
 51
0.0
1001
ACDBBLOCKREPETAG
1070
     1
1071
       10
1005
126E33
  0
POINT
  5
126E34
  8
DOTS
 10
2900.0
 20
-3864.9999999999968
 30
0.0
1001
ACDBBLOCKREPETAG
1070
     1
1071
       25
1005
126E34
  0
LINE
  5
126E35
  8
OBJECT
 10
2633.0
 20
-3773.9999999999968
 30
0.0
 11
2640.0
 21
-3773.9999999999968
 31
0.0
1001
ACDBBLOCKREPETAG
1070
     1
1071
        0
1005
126E35
  0
LINE
  5
126E36
  8
OBJECT
 10
2640.0
 20
-3773.9999999999968
 30
0.0
 11
2640.0
 21
-3864.9999999999968
 31
0.0
1001
ACDBBLOCKREPETAG
1070
     1
1071
        1
1005
126E36
  0
LINE
  5
126E37
  8
OBJECT
 10
2584.5
 20
-3759.5000000000618
 30
0.0
 11
2584.5
 21
-3862.4999999999968
 31
0.0
1001
ACDBBLOCKREPETAG
1070
     1
1071
        2
1005
126E37
  0
ARC
  5
126E38
  8
OBJECT
 10
2581.5
 20
-3759.5000000000618
 30
0.0
 40
3.0
 50
0.0
 51
90.0
1001
ACDBBLOCKREPETAG
1070
     1
1071
        3
1005
126E38
  0
LINE
  5
126E39
  8
OBJECT
 10
2633.0
 20
-3864.9999999999968
 30
0.0
 11
2633.0
 21
-3773.9999999999968
 31
0.0
1001
ACDBBLOCKREPETAG
1070
     1
1071
        4
1005
126E39
  0
LINE
  5
126E3A
  8
CENTER
 10
2655.0
 20
-3820.9999999999968
 30
0.0
 11
2541.911823713584
 21
-3820.9999999999968
 31
0.0
1001
ACDBBLOCKREPETAG
1070
     1
1071
        5
1005
126E3A
  0
LINE
  5
126E3B
  8
OBJECT
 10
2633.0
 20
-3776.9999999999968
 30
0.0
 11
2596.9999999999991
 21
-3776.9999999999968
 31
0.0
1001
ACDBBLOCKREPETAG
1070
     1
1071
        6
1005
126E3B
  0
LINE
  5
126E3C
  8
OBJECT
 10
2596.9999999999991
 20
-3776.9999999999968
 30
0.0
 11
2596.9999999999991
 21
-3864.9999999999968
 31
0.0
1001
ACDBBLOCKREPETAG
1070
     1
1071
        7
1005
126E3C
  0
LINE
  5
126E3D
  8
OBJECT
 10
2596.9999999999991
 20
-3864.9999999999968
 30
0.0
 11
2640.0
 21
-3864.9999999999968
 31
0.0
1001
ACDBBLOCKREPETAG
1070
     1
1071
        8
1005
126E3D
  0
LINE
  5
126E3E
  8
OBJECT
 10
2593.0
 20
-3781.4999999999959
 30
0.0
 11
2584.5
 21
-3781.4999999999959
 31
0.0
1001
ACDBBLOCKREPETAG
1070
     1
1071
        9
1005
126E3E
  0
LINE
  5
126E3F
  8
OBJECT
 10
2584.5
 20
-3860.4999999999959
 30
0.0
 11
2593.0
 21
-3860.4999999999959
 31
0.0
1001
ACDBBLOCKREPETAG
1070
     1
1071
       10
1005
126E3F
  0
LINE
  5
126E40
  8
OBJECT
 10
2593.0
 20
-3860.4999999999959
 30
0.0
 11
2593.0
 21
-3781.4999999999959
 31
0.0
1001
ACDBBLOCKREPETAG
1070
     1
1071
       11
1005
126E40
  0
LINE
  5
126E41
  8
OBJECT
 10
2596.9999999999991
 20
-3776.9999999999968
 30
0.0
 11
2593.0
 21
-3781.4999999999959
 31
0.0
1001
ACDBBLOCKREPETAG
1070
     1
1071
       12
1005
126E41
  0
LINE
  5
126E42
  8
OBJECT
 10
2596.9999999999991
 20
-3864.9999999999968
 30
0.0
 11
2593.0
 21
-3860.4999999999959
 31
0.0
1001
ACDBBLOCKREPETAG
1070
     1
1071
       13
1005
126E42
  0
LINE
  5
126E43
  8
HIDDEN
 10
2588.0
 20
-3790.9999999999959
 30
0.0
 11
2588.0
 21
-3850.9999999999959
 31
0.0
1001
ACDBBLOCKREPETAG
1070
     1
1071
       14
1005
126E43
  0
ARC
  5
126E44
  8
OBJECT
 10
2664.8782728787751
 20
-3821.4095072612249
 30
0.0
 40
110.86635228309
 50
144.1634274191434
 51
163.04035380433169
1001
ACDBBLOCKREPETAG
1070
     1
1071
       15
1005
126E44
  0
ARC
  5
126E45
  8
OBJECT
 10
2617.1359887769072
 20
-3806.287749718445
 30
0.0
 40
60.791749880358971
 50
163.5472046522267
 51
179.72879698282679
1001
ACDBBLOCKREPETAG
1070
     1
1071
       16
1005
126E45
  0
ARC
  5
126E46
  8
OBJECT
 10
2617.1359956562478
 20
-3812.7122497598971
 30
0.0
 40
60.79175676209487
 50
180.2712034781452
 51
196.4527794605338
1001
ACDBBLOCKREPETAG
1070
     1
1071
       17
1005
126E46
  0
ARC
  5
126E47
  8
OBJECT
 10
2664.8782728787751
 20
-3797.5904927388328
 30
0.0
 40
110.8663522830916
 50
196.95964619566811
 51
215.8365725808566
1001
ACDBBLOCKREPETAG
1070
     1
1071
       18
1005
126E47
  0
LINE
  5
126E48
  8
OBJECT
 10
2556.3449199130041
 20
-3806.0000000000332
 30
0.0
 11
2556.3449199130041
 21
-3813.0000000000291
 31
0.0
1001
ACDBBLOCKREPETAG
1070
     1
1071
       19
1005
126E48
  0
LINE
  5
126E49
  8
OBJECT
 10
2575.0
 20
-3756.5000000000618
 30
0.0
 11
2581.5
 21
-3756.5000000000618
 31
0.0
1001
ACDBBLOCKREPETAG
1070
     1
1071
       20
1005
126E49
  0
LINE
  5
126E4A
  8
OBJECT
 10
2575.0
 20
-3862.4999999999968
 30
0.0
 11
2584.5
 21
-3862.4999999999968
 31
0.0
1001
ACDBBLOCKREPETAG
1070
     1
1071
       21
1005
126E4A
  0
LINE
  5
126E4B
  8
OBJECT
 10
2633.0
 20
-3412.9999999999968
 30
0.0
 11
2640.0
 21
-3412.9999999999968
 31
0.0
1001
ACDBBLOCKREPETAG
1070
     1
1071
        0
1005
126E4B
  0
LINE
  5
126E4C
  8
OBJECT
 10
2640.0
 20
-3412.9999999999968
 30
0.0
 11
2640.0
 21
-3506.9999999999968
 31
0.0
1001
ACDBBLOCKREPETAG
1070
     1
1071
        1
1005
126E4C
  0
LINE
  5
126E4D
  8
OBJECT
 10
2640.0
 20
-3506.9999999999968
 30
0.0
 11
2633.0
 21
-3506.9999999999968
 31
0.0
1001
ACDBBLOCKREPETAG
1070
     1
1071
        2
1005
126E4D
  0
LINE
  5
126E4E
  8
OBJECT
 10
2633.0
 20
-3506.9999999999968
 30
0.0
 11
2633.0
 21
-3412.9999999999968
 31
0.0
1001
ACDBBLOCKREPETAG
1070
     1
1071
        3
1005
126E4E
  0
LINE
  5
126E4F
  8
CENTER
 10
2655.0
 20
-3459.9999999999968
 30
0.0
 11
2580.0
 21
-3459.9999999999968
 31
0.0
1001
ACDBBLOCKREPETAG
1070
     1
1071
        4
1005
126E4F
  0
LINE
  5
126E50
  8
OBJECT
 10
2633.0
 20
-3415.9999999999959
 30
0.0
 11
2596.9999999999991
 21
-3415.9999999999959
 31
0.0
1001
ACDBBLOCKREPETAG
1070
     1
1071
        5
1005
126E50
  0
LINE
  5
126E51
  8
OBJECT
 10
2596.9999999999991
 20
-3415.9999999999959
 30
0.0
 11
2596.9999999999991
 21
-3503.9999999999959
 31
0.0
1001
ACDBBLOCKREPETAG
1070
     1
1071
        6
1005
126E51
  0
LINE
  5
126E52
  8
OBJECT
 10
2596.9999999999991
 20
-3503.9999999999959
 30
0.0
 11
2633.0
 21
-3503.9999999999959
 31
0.0
1001
ACDBBLOCKREPETAG
1070
     1
1071
        7
1005
126E52
  0
LINE
  5
126E53
  8
OBJECT
 10
2593.0
 20
-3420.4999999999959
 30
0.0
 11
2584.5
 21
-3420.4999999999959
 31
0.0
1001
ACDBBLOCKREPETAG
1070
     1
1071
        8
1005
126E53
  0
LINE
  5
126E54
  8
OBJECT
 10
2584.5
 20
-3499.4999999999959
 30
0.0
 11
2593.0
 21
-3499.4999999999959
 31
0.0
1001
ACDBBLOCKREPETAG
1070
     1
1071
        9
1005
126E54
  0
LINE
  5
126E55
  8
OBJECT
 10
2593.0
 20
-3499.4999999999959
 30
0.0
 11
2593.0
 21
-3420.4999999999959
 31
0.0
1001
ACDBBLOCKREPETAG
1070
     1
1071
       10
1005
126E55
  0
LINE
  5
126E56
  8
OBJECT
 10
2596.9999999999991
 20
-3415.9999999999959
 30
0.0
 11
2593.0
 21
-3420.4999999999959
 31
0.0
1001
ACDBBLOCKREPETAG
1070
     1
1071
       11
1005
126E56
  0
LINE
  5
126E57
  8
OBJECT
 10
2596.9999999999991
 20
-3503.9999999999959
 30
0.0
 11
2593.0
 21
-3499.4999999999959
 31
0.0
1001
ACDBBLOCKREPETAG
1070
     1
1071
       12
1005
126E57
  0
LINE
  5
126E58
  8
OBJECT
 10
2584.4999999999991
 20
-3506.4999999999959
 30
0.0
 11
2584.5
 21
-3413.4999999999959
 31
0.0
1001
ACDBBLOCKREPETAG
1070
     1
1071
       13
1005
126E58
  0
ARC
  5
126E59
  8
OBJECT
 10
2581.5
 20
-3413.4999999999959
 30
0.0
 40
3.0
 50
0.0
 51
90.0
1001
ACDBBLOCKREPETAG
1070
     1
1071
       14
1005
126E59
  0
LINE
  5
126E5A
  8
HIDDEN
 10
2588.0
 20
-3429.9999999999959
 30
0.0
 11
2588.0
 21
-3489.9999999999968
 31
0.0
1001
ACDBBLOCKREPETAG
1070
     1
1071
       15
1005
126E5A
  0
LINE
  5
126E5B
  8
OBJECT
 10
2581.5
 20
-3410.4999999999959
 30
0.0
 11
2556.3449199129791
 21
-3410.4999999999959
 31
0.0
1001
ACDBBLOCKREPETAG
1070
     1
1071
       17
1005
126E5B
  0
LINE
  5
126E5C
  8
OBJECT
 10
2581.4999999999991
 20
-3509.4999999999959
 30
0.0
 11
2556.3449199129791
 21
-3509.4999999999959
 31
0.0
1001
ACDBBLOCKREPETAG
1070
     1
1071
       18
1005
126E5C
  0
ARC
  5
126E5D
  8
OBJECT
 10
2581.4999999999991
 20
-3506.4999999999959
 30
0.0
 40
3.0
 50
270.0
 51
0.0
1001
ACDBBLOCKREPETAG
1070
     1
1071
       19
1005
126E5D
  0
TEXT
  5
126E5E
  8
SLIM
 10
12231.700000000001
 20
-1964.6666666666631
 30
0.0
 40
28.0
  1
※ 対応P寸法　　220～320（10mm単位）
 41
0.75
  0
TEXT
  5
126E5F
  8
SLIM
 10
12229.299800000001
 20
-2011.3333333333301
 30
0.0
 40
28.0
  1
※ 対応スラブ厚　150～（600-P）
 41
0.75
  0
TEXT
  5
126E60
  8
SLIM
 10
12098.9
 20
-2104.6666666666638
 30
0.0
 40
28.0
  1
国土交通大臣認定・（一財）日本消防設備安全センター性能評定取得品
 41
0.75
  0
TEXT
  5
126E61
  8
SLIM
 10
12131.1
 20
-2151.3333333333289
 30
0.0
 40
28.0
  1
注）ご採用にあたり、認定書及び評定書の内容をご確認ください。
 41
0.75
  0
TEXT
  5
126E62
  8
SLIM
 10
10231.700000000001
 20
-1964.6666666666631
 30
0.0
 40
28.0
  1
※ 対応P寸法　　220～320（10mm単位）
 41
0.75
  0
TEXT
  5
126E63
  8
SLIM
 10
10229.299800000001
 20
-2011.3333333333301
 30
0.0
 40
28.0
  1
※ 対応スラブ厚　180～（600-P）
 41
0.75
  0
TEXT
  5
126E64
  8
SLIM
 10
10098.9
 20
-2104.6666666666638
 30
0.0
 40
28.0
  1
国土交通大臣認定・（一財）日本消防設備安全センター性能評定取得品
 41
0.75
  0
TEXT
  5
126E65
  8
SLIM
 10
10131.1
 20
-2151.3333333333289
 30
0.0
 40
28.0
  1
注）ご採用にあたり、認定書及び評定書の内容をご確認ください。
 41
0.75
  0
TEXT
  5
126E66
  8
SLIM
 10
6226.1000000000004
 20
-2016.3333600000001
 30
0.0
 40
28.0
  1
 ※ 対応P寸法　　220～340（10mm単位）
 41
0.75
  0
TEXT
  5
126E67
  8
SLIM
 10
6231.7997999999998
 20
-2063.0000266666671
 30
0.0
 40
28.0
  1
※ 対応スラブ厚　150mm以上
 41
0.75
  0
TEXT
  5
126E68
  8
SLIM
 10
6098.8999999999996
 20
-2134.9999733333329
 30
0.0
 40
28.0
  1
国土交通大臣認定・（一財）日本消防設備安全センター性能評定取得品
 41
0.75
  0
TEXT
  5
126E69
  8
SLIM
 10
6131.1000000000004
 20
-2181.666639999999
 30
0.0
 40
28.0
  1
注）ご採用にあたり、認定書及び評定書の内容をご確認ください。
 41
0.75
  0
TEXT
  5
126E6A
  8
SLIM
 10
4231.6999999999998
 20
-1982.9999999999959
 30
0.0
 40
28.0
  1
※ 対応P寸法　　220～340（10mm単位）
 41
0.75
  0
TEXT
  5
126E6B
  8
SLIM
 10
2231.6999999999998
 20
-1708.999999999998
 30
0.0
 40
28.0
  1
※ 対応P寸法　　220～340（10mm単位）
 41
0.75
  0
TEXT
  5
126E6C
  8
SLIM
 10
8231.7000000000007
 20
-1703.000026666665
 30
0.0
 40
28.0
  1
※ 対応P寸法　　220～320（10mm単位）
 41
0.75
  0
TEXT
  5
126E6D
  8
SLIM
 10
8228.1000000000004
 20
-1749.666693333332
 30
0.0
 40
28.0
  1
※ 対応スラブ厚　180｛150｝～（560-P）
 41
0.75
  0
TEXT
  5
126E6E
  8
SLIM
 10
8265.2998000000007
 20
-1796.3333599999989
 30
0.0
 40
28.0
  1
｛｝内はカンペイ立て管との組み合わせの場合
 41
0.75
  0
TEXT
  5
126E6F
  8
SLIM
 10
8098.8999999999978
 20
-1868.3333066666651
 30
0.0
 40
28.0
  1
国土交通大臣認定・（一財）日本消防設備安全センター性能評定取得品
 41
0.75
  0
TEXT
  5
126E70
  8
SLIM
 10
8131.1000000000013
 20
-1914.999973333332
 30
0.0
 40
28.0
  1
注）ご採用にあたり、認定書及び評定書の内容をご確認ください。
 41
0.75
  0
LINE
  5
126E71
  8
OBJECT
 10
12423.0
 20
-570.99999999999432
 30
0.0
 11
12423.0
 21
-549.99999999999432
 31
0.0
1001
ACDBBLOCKREPETAG
1070
     1
1071
        0
1005
126E71
  0
LINE
  5
126E72
  8
OBJECT
 10
12423.0
 20
-549.99999999999432
 30
0.0
 11
12577.0
 21
-549.99999999999432
 31
0.0
1001
ACDBBLOCKREPETAG
1070
     1
1071
        1
1005
126E72
  0
LINE
  5
126E73
  8
HIDDEN
 10
12443.0
 20
-619.99999999999432
 30
0.0
 11
12557.0
 21
-619.99999999999432
 31
0.0
1001
ACDBBLOCKREPETAG
1070
     1
1071
        2
1005
126E73
  0
LINE
  5
126E74
  8
OBJECT
 10
12577.0
 20
-549.99999999999432
 30
0.0
 11
12577.0
 21
-570.99999999999432
 31
0.0
1001
ACDBBLOCKREPETAG
1070
     1
1071
        3
1005
126E74
  0
LINE
  5
126E75
  8
OBJECT
 10
12577.0
 20
-570.99999999999432
 30
0.0
 11
12423.0
 21
-570.99999999999432
 31
0.0
1001
ACDBBLOCKREPETAG
1070
     1
1071
        4
1005
126E75
  0
LINE
  5
126E76
  8
CENTER
 10
12500.0
 20
-534.99999999999432
 30
0.0
 11
12500.0
 21
-769.9999999999942
 31
0.0
1001
ACDBBLOCKREPETAG
1070
     1
1071
        5
1005
126E76
  0
LINE
  5
126E77
  8
OBJECT
 10
12425.0
 20
-633.99999999999432
 30
0.0
 11
12425.0
 21
-757.9999999999942
 31
0.0
1001
ACDBBLOCKREPETAG
1070
     1
1071
        6
1005
126E77
  0
LINE
  5
126E78
  8
OBJECT
 10
12428.0
 20
-570.99999999999432
 30
0.0
 11
12428.0
 21
-633.99999999999432
 31
0.0
1001
ACDBBLOCKREPETAG
1070
     1
1071
        7
1005
126E78
  0
LINE
  5
126E79
  8
OBJECT
 10
12572.0
 20
-633.99999999999432
 30
0.0
 11
12572.0
 21
-570.99999999999432
 31
0.0
1001
ACDBBLOCKREPETAG
1070
     1
1071
        8
1005
126E79
  0
LINE
  5
126E7A
  8
OBJECT
 10
12420.0
 20
-757.9999999999942
 30
0.0
 11
12580.0
 21
-757.9999999999942
 31
0.0
1001
ACDBBLOCKREPETAG
1070
     1
1071
        9
1005
126E7A
  0
LINE
  5
126E7B
  8
OBJECT
 10
12580.0
 20
-633.99999999999432
 30
0.0
 11
12425.0
 21
-633.99999999999432
 31
0.0
1001
ACDBBLOCKREPETAG
1070
     1
1071
       10
1005
126E7B
  0
LINE
  5
126E7C
  8
OBJECT
 10
12420.0
 20
-757.9999999999942
 30
0.0
 11
12420.0
 21
-769.9999999999942
 31
0.0
1001
ACDBBLOCKREPETAG
1070
     1
1071
       11
1005
126E7C
  0
LINE
  5
126E7D
  8
OBJECT
 10
12420.0
 20
-769.9999999999942
 30
0.0
 11
12580.0
 21
-769.9999999999942
 31
0.0
1001
ACDBBLOCKREPETAG
1070
     1
1071
       12
1005
126E7D
  0
LINE
  5
126E7E
  8
OBJECT
 10
12580.0
 20
-769.9999999999942
 30
0.0
 11
12580.0
 21
-757.9999999999942
 31
0.0
1001
ACDBBLOCKREPETAG
1070
     1
1071
       13
1005
126E7E
  0
ARC
  5
126E7F
  8
OBJECT
 10
12700.687274671671
 20
-749.40809941010195
 30
0.0
 40
170.6350503965856
 50
137.44134459184301
 51
149.91949581337221
1001
ACDBBLOCKREPETAG
1070
     1
1071
       15
1005
126E7F
  0
ARC
  5
126E80
  8
OBJECT
 10
12618.845598704051
 20
-705.88272669535922
 30
0.0
 40
78.072222021763665
 50
147.45515310379639
 51
164.6636599771729
1001
ACDBBLOCKREPETAG
1070
     1
1071
       16
1005
126E80
  0
ARC
  5
126E81
  8
OBJECT
 10
12585.755434960871
 20
-695.99999999999432
 30
0.0
 40
43.55353926885617
 50
165.6884523008477
 51
194.3115476991523
1001
ACDBBLOCKREPETAG
1070
     1
1071
       17
1005
126E81
  0
ARC
  5
126E82
  8
OBJECT
 10
12700.687274671671
 20
-642.59190058988645
 30
0.0
 40
170.6350503965856
 50
210.08050418662771
 51
222.55865540815699
1001
ACDBBLOCKREPETAG
1070
     1
1071
       18
1005
126E82
  0
ARC
  5
126E83
  8
OBJECT
 10
12618.845598704051
 20
-686.11727330462952
 30
0.0
 40
78.072222021763665
 50
195.3363400228271
 51
212.54484689620361
1001
ACDBBLOCKREPETAG
1070
     1
1071
       19
1005
126E83
  0
LINE
  5
126E84
  8
OBJECT
 10
12633.0
 20
-634.0
 30
0.0
 11
12640.0
 21
-634.0
 31
0.0
1001
ACDBBLOCKREPETAG
1070
     1
1071
       45
1005
126E84
  0
LINE
  5
126E85
  8
OBJECT
 10
12640.0
 20
-634.0
 30
0.0
 11
12640.0
 21
-755.0
 31
0.0
1001
ACDBBLOCKREPETAG
1070
     1
1071
       46
1005
126E85
  0
LINE
  5
126E86
  8
OBJECT
 10
12633.0
 20
-755.0
 30
0.0
 11
12633.0
 21
-634.0
 31
0.0
1001
ACDBBLOCKREPETAG
1070
     1
1071
       47
1005
126E86
  0
LINE
  5
126E87
  8
CENTER
 10
12655.0
 20
-696.0
 30
0.0
 11
12571.0
 21
-696.0
 31
0.0
1001
ACDBBLOCKREPETAG
1070
     1
1071
       48
1005
126E87
  0
LINE
  5
126E88
  8
OBJECT
 10
12633.0
 20
-637.0
 30
0.0
 11
12597.0
 21
-637.0
 31
0.0
1001
ACDBBLOCKREPETAG
1070
     1
1071
       49
1005
126E88
  0
LINE
  5
126E89
  8
OBJECT
 10
12597.0
 20
-637.0
 30
0.0
 11
12597.0
 21
-755.0
 31
0.0
1001
ACDBBLOCKREPETAG
1070
     1
1071
       50
1005
126E89
  0
LINE
  5
126E8A
  8
OBJECT
 10
12597.0
 20
-755.0
 30
0.0
 11
12640.0
 21
-755.0
 31
0.0
1001
ACDBBLOCKREPETAG
1070
     1
1071
       51
1005
126E8A
  0
LINE
  5
126E8B
  8
OBJECT
 10
12593.0
 20
-641.5
 30
0.0
 11
12586.0
 21
-641.5
 31
0.0
1001
ACDBBLOCKREPETAG
1070
     1
1071
       52
1005
126E8B
  0
LINE
  5
126E8C
  8
OBJECT
 10
12586.0
 20
-750.49999999999989
 30
0.0
 11
12593.0
 21
-750.49999999999989
 31
0.0
1001
ACDBBLOCKREPETAG
1070
     1
1071
       53
1005
126E8C
  0
LINE
  5
126E8D
  8
OBJECT
 10
12593.0
 20
-750.49999999999989
 30
0.0
 11
12593.0
 21
-641.5
 31
0.0
1001
ACDBBLOCKREPETAG
1070
     1
1071
       54
1005
126E8D
  0
LINE
  5
126E8E
  8
OBJECT
 10
12597.0
 20
-637.0
 30
0.0
 11
12593.0
 21
-641.5
 31
0.0
1001
ACDBBLOCKREPETAG
1070
     1
1071
       55
1005
126E8E
  0
LINE
  5
126E8F
  8
OBJECT
 10
12597.0
 20
-755.0
 30
0.0
 11
12593.0
 21
-750.49999999999989
 31
0.0
1001
ACDBBLOCKREPETAG
1070
     1
1071
       56
1005
126E8F
  0
LINE
  5
126E90
  8
OBJECT
 10
12583.0
 20
-634.0
 30
0.0
 11
12580.0
 21
-634.0
 31
0.0
1001
ACDBBLOCKREPETAG
1070
     1
1071
       57
1005
126E90
  0
ARC
  5
126E91
  8
OBJECT
 10
12583.0
 20
-637.0
 30
0.0
 40
3.0
 50
0.0
 51
90.0
1001
ACDBBLOCKREPETAG
1070
     1
1071
       58
1005
126E91
  0
LINE
  5
126E92
  8
OBJECT
 10
12580.0
 20
-758.0
 30
0.0
 11
12583.0
 21
-758.0
 31
0.0
1001
ACDBBLOCKREPETAG
1070
     1
1071
       59
1005
126E92
  0
ARC
  5
126E93
  8
OBJECT
 10
12583.0
 20
-755.0
 30
0.0
 40
3.0
 50
270.0
 51
0.0
1001
ACDBBLOCKREPETAG
1070
     1
1071
       60
1005
126E93
  0
LINE
  5
126E94
  8
OBJECT
 10
12586.0
 20
-755.0
 30
0.0
 11
12586.0
 21
-637.0
 31
0.0
1001
ACDBBLOCKREPETAG
1070
     1
1071
       61
1005
126E94
  0
LINE
  5
126E95
  8
HIDDEN
 10
12588.0
 20
-651.5
 30
0.0
 11
12588.0
 21
-740.5
 31
0.0
1001
ACDBBLOCKREPETAG
1070
     1
1071
       63
1005
126E95
  0
LINE
  5
126E96
  8
OBJECT
 10
10423.0
 20
-570.99999999999432
 30
0.0
 11
10423.0
 21
-549.99999999999432
 31
0.0
1001
ACDBBLOCKREPETAG
1070
     1
1071
        0
1005
126E96
  0
LINE
  5
126E97
  8
OBJECT
 10
10423.0
 20
-549.99999999999432
 30
0.0
 11
10577.0
 21
-549.99999999999432
 31
0.0
1001
ACDBBLOCKREPETAG
1070
     1
1071
        1
1005
126E97
  0
LINE
  5
126E98
  8
HIDDEN
 10
10443.0
 20
-619.99999999999432
 30
0.0
 11
10557.0
 21
-619.99999999999432
 31
0.0
1001
ACDBBLOCKREPETAG
1070
     1
1071
        2
1005
126E98
  0
LINE
  5
126E99
  8
OBJECT
 10
10577.0
 20
-549.99999999999432
 30
0.0
 11
10577.0
 21
-570.99999999999432
 31
0.0
1001
ACDBBLOCKREPETAG
1070
     1
1071
        3
1005
126E99
  0
LINE
  5
126E9A
  8
OBJECT
 10
10577.0
 20
-570.99999999999432
 30
0.0
 11
10423.0
 21
-570.99999999999432
 31
0.0
1001
ACDBBLOCKREPETAG
1070
     1
1071
        4
1005
126E9A
  0
LINE
  5
126E9B
  8
CENTER
 10
10500.0
 20
-534.99999999999432
 30
0.0
 11
10500.0
 21
-769.9999999999942
 31
0.0
1001
ACDBBLOCKREPETAG
1070
     1
1071
        5
1005
126E9B
  0
LINE
  5
126E9C
  8
OBJECT
 10
10425.0
 20
-633.99999999999432
 30
0.0
 11
10425.0
 21
-757.9999999999942
 31
0.0
1001
ACDBBLOCKREPETAG
1070
     1
1071
        6
1005
126E9C
  0
LINE
  5
126E9D
  8
OBJECT
 10
10428.0
 20
-570.99999999999432
 30
0.0
 11
10428.0
 21
-633.99999999999432
 31
0.0
1001
ACDBBLOCKREPETAG
1070
     1
1071
        7
1005
126E9D
  0
LINE
  5
126E9E
  8
OBJECT
 10
10572.0
 20
-633.99999999999432
 30
0.0
 11
10572.0
 21
-570.99999999999432
 31
0.0
1001
ACDBBLOCKREPETAG
1070
     1
1071
        8
1005
126E9E
  0
LINE
  5
126E9F
  8
OBJECT
 10
10420.0
 20
-757.9999999999942
 30
0.0
 11
10580.0
 21
-757.9999999999942
 31
0.0
1001
ACDBBLOCKREPETAG
1070
     1
1071
        9
1005
126E9F
  0
LINE
  5
126EA0
  8
OBJECT
 10
10580.0
 20
-633.99999999999432
 30
0.0
 11
10425.0
 21
-633.99999999999432
 31
0.0
1001
ACDBBLOCKREPETAG
1070
     1
1071
       10
1005
126EA0
  0
LINE
  5
126EA1
  8
OBJECT
 10
10420.0
 20
-757.9999999999942
 30
0.0
 11
10420.0
 21
-769.9999999999942
 31
0.0
1001
ACDBBLOCKREPETAG
1070
     1
1071
       11
1005
126EA1
  0
LINE
  5
126EA2
  8
OBJECT
 10
10420.0
 20
-769.9999999999942
 30
0.0
 11
10580.0
 21
-769.9999999999942
 31
0.0
1001
ACDBBLOCKREPETAG
1070
     1
1071
       12
1005
126EA2
  0
LINE
  5
126EA3
  8
OBJECT
 10
10580.0
 20
-769.9999999999942
 30
0.0
 11
10580.0
 21
-757.9999999999942
 31
0.0
1001
ACDBBLOCKREPETAG
1070
     1
1071
       13
1005
126EA3
  0
ARC
  5
126EA4
  8
OBJECT
 10
10700.687274671671
 20
-749.40809941010195
 30
0.0
 40
170.6350503965856
 50
137.44134459184301
 51
149.91949581337221
1001
ACDBBLOCKREPETAG
1070
     1
1071
       15
1005
126EA4
  0
ARC
  5
126EA5
  8
OBJECT
 10
10618.845598704051
 20
-705.88272669535922
 30
0.0
 40
78.072222021763665
 50
147.45515310379639
 51
164.6636599771729
1001
ACDBBLOCKREPETAG
1070
     1
1071
       16
1005
126EA5
  0
ARC
  5
126EA6
  8
OBJECT
 10
10585.755434960871
 20
-695.99999999999432
 30
0.0
 40
43.55353926885617
 50
165.6884523008477
 51
194.3115476991523
1001
ACDBBLOCKREPETAG
1070
     1
1071
       17
1005
126EA6
  0
ARC
  5
126EA7
  8
OBJECT
 10
10700.687274671671
 20
-642.59190058988645
 30
0.0
 40
170.6350503965856
 50
210.08050418662771
 51
222.55865540815699
1001
ACDBBLOCKREPETAG
1070
     1
1071
       18
1005
126EA7
  0
ARC
  5
126EA8
  8
OBJECT
 10
10618.845598704051
 20
-686.11727330462952
 30
0.0
 40
78.072222021763665
 50
195.3363400228271
 51
212.54484689620361
1001
ACDBBLOCKREPETAG
1070
     1
1071
       19
1005
126EA8
  0
LINE
  5
126EA9
  8
OBJECT
 10
10633.0
 20
-634.0
 30
0.0
 11
10640.0
 21
-634.0
 31
0.0
1001
ACDBBLOCKREPETAG
1070
     1
1071
       45
1005
126EA9
  0
LINE
  5
126EAA
  8
OBJECT
 10
10640.0
 20
-634.0
 30
0.0
 11
10640.0
 21
-755.0
 31
0.0
1001
ACDBBLOCKREPETAG
1070
     1
1071
       46
1005
126EAA
  0
LINE
  5
126EAB
  8
OBJECT
 10
10633.0
 20
-755.0
 30
0.0
 11
10633.0
 21
-634.0
 31
0.0
1001
ACDBBLOCKREPETAG
1070
     1
1071
       47
1005
126EAB
  0
LINE
  5
126EAC
  8
CENTER
 10
10655.0
 20
-696.0
 30
0.0
 11
10571.0
 21
-696.0
 31
0.0
1001
ACDBBLOCKREPETAG
1070
     1
1071
       48
1005
126EAC
  0
LINE
  5
126EAD
  8
OBJECT
 10
10633.0
 20
-637.0
 30
0.0
 11
10597.0
 21
-637.0
 31
0.0
1001
ACDBBLOCKREPETAG
1070
     1
1071
       49
1005
126EAD
  0
LINE
  5
126EAE
  8
OBJECT
 10
10597.0
 20
-637.0
 30
0.0
 11
10597.0
 21
-755.0
 31
0.0
1001
ACDBBLOCKREPETAG
1070
     1
1071
       50
1005
126EAE
  0
LINE
  5
126EAF
  8
OBJECT
 10
10597.0
 20
-755.0
 30
0.0
 11
10640.0
 21
-755.0
 31
0.0
1001
ACDBBLOCKREPETAG
1070
     1
1071
       51
1005
126EAF
  0
LINE
  5
126EB0
  8
OBJECT
 10
10593.0
 20
-641.5
 30
0.0
 11
10586.0
 21
-641.5
 31
0.0
1001
ACDBBLOCKREPETAG
1070
     1
1071
       52
1005
126EB0
  0
LINE
  5
126EB1
  8
OBJECT
 10
10586.0
 20
-750.49999999999989
 30
0.0
 11
10593.0
 21
-750.49999999999989
 31
0.0
1001
ACDBBLOCKREPETAG
1070
     1
1071
       53
1005
126EB1
  0
LINE
  5
126EB2
  8
OBJECT
 10
10593.0
 20
-750.49999999999989
 30
0.0
 11
10593.0
 21
-641.5
 31
0.0
1001
ACDBBLOCKREPETAG
1070
     1
1071
       54
1005
126EB2
  0
LINE
  5
126EB3
  8
OBJECT
 10
10597.0
 20
-637.0
 30
0.0
 11
10593.0
 21
-641.5
 31
0.0
1001
ACDBBLOCKREPETAG
1070
     1
1071
       55
1005
126EB3
  0
LINE
  5
126EB4
  8
OBJECT
 10
10597.0
 20
-755.0
 30
0.0
 11
10593.0
 21
-750.49999999999989
 31
0.0
1001
ACDBBLOCKREPETAG
1070
     1
1071
       56
1005
126EB4
  0
LINE
  5
126EB5
  8
OBJECT
 10
10583.0
 20
-634.0
 30
0.0
 11
10580.0
 21
-634.0
 31
0.0
1001
ACDBBLOCKREPETAG
1070
     1
1071
       57
1005
126EB5
  0
ARC
  5
126EB6
  8
OBJECT
 10
10583.0
 20
-637.0
 30
0.0
 40
3.0
 50
0.0
 51
90.0
1001
ACDBBLOCKREPETAG
1070
     1
1071
       58
1005
126EB6
  0
LINE
  5
126EB7
  8
OBJECT
 10
10580.0
 20
-758.0
 30
0.0
 11
10583.0
 21
-758.0
 31
0.0
1001
ACDBBLOCKREPETAG
1070
     1
1071
       59
1005
126EB7
  0
ARC
  5
126EB8
  8
OBJECT
 10
10583.0
 20
-755.0
 30
0.0
 40
3.0
 50
270.0
 51
0.0
1001
ACDBBLOCKREPETAG
1070
     1
1071
       60
1005
126EB8
  0
LINE
  5
126EB9
  8
OBJECT
 10
10586.0
 20
-755.0
 30
0.0
 11
10586.0
 21
-637.0
 31
0.0
1001
ACDBBLOCKREPETAG
1070
     1
1071
       61
1005
126EB9
  0
LINE
  5
126EBA
  8
HIDDEN
 10
10588.0
 20
-651.5
 30
0.0
 11
10588.0
 21
-740.5
 31
0.0
1001
ACDBBLOCKREPETAG
1070
     1
1071
       63
1005
126EBA
  0
LINE
  5
126EBB
  8
OBJECT
 10
8423.0
 20
-570.99999999999432
 30
0.0
 11
8423.0
 21
-549.99999999999432
 31
0.0
1001
ACDBBLOCKREPETAG
1070
     1
1071
        0
1005
126EBB
  0
LINE
  5
126EBC
  8
OBJECT
 10
8423.0
 20
-549.99999999999432
 30
0.0
 11
8577.0
 21
-549.99999999999432
 31
0.0
1001
ACDBBLOCKREPETAG
1070
     1
1071
        1
1005
126EBC
  0
LINE
  5
126EBD
  8
HIDDEN
 10
8443.0
 20
-619.99999999999432
 30
0.0
 11
8557.0
 21
-619.99999999999432
 31
0.0
1001
ACDBBLOCKREPETAG
1070
     1
1071
        2
1005
126EBD
  0
LINE
  5
126EBE
  8
OBJECT
 10
8577.0
 20
-549.99999999999432
 30
0.0
 11
8577.0
 21
-570.99999999999432
 31
0.0
1001
ACDBBLOCKREPETAG
1070
     1
1071
        3
1005
126EBE
  0
LINE
  5
126EBF
  8
OBJECT
 10
8577.0
 20
-570.99999999999432
 30
0.0
 11
8423.0
 21
-570.99999999999432
 31
0.0
1001
ACDBBLOCKREPETAG
1070
     1
1071
        4
1005
126EBF
  0
LINE
  5
126EC0
  8
CENTER
 10
8500.0
 20
-534.99999999999432
 30
0.0
 11
8500.0
 21
-769.9999999999942
 31
0.0
1001
ACDBBLOCKREPETAG
1070
     1
1071
        5
1005
126EC0
  0
LINE
  5
126EC1
  8
OBJECT
 10
8425.0
 20
-633.99999999999432
 30
0.0
 11
8425.0
 21
-757.9999999999942
 31
0.0
1001
ACDBBLOCKREPETAG
1070
     1
1071
        6
1005
126EC1
  0
LINE
  5
126EC2
  8
OBJECT
 10
8428.0
 20
-570.99999999999432
 30
0.0
 11
8428.0
 21
-633.99999999999432
 31
0.0
1001
ACDBBLOCKREPETAG
1070
     1
1071
        7
1005
126EC2
  0
LINE
  5
126EC3
  8
OBJECT
 10
8572.0
 20
-633.99999999999432
 30
0.0
 11
8572.0
 21
-570.99999999999432
 31
0.0
1001
ACDBBLOCKREPETAG
1070
     1
1071
        8
1005
126EC3
  0
LINE
  5
126EC4
  8
OBJECT
 10
8420.0
 20
-757.9999999999942
 30
0.0
 11
8580.0
 21
-757.9999999999942
 31
0.0
1001
ACDBBLOCKREPETAG
1070
     1
1071
        9
1005
126EC4
  0
LINE
  5
126EC5
  8
OBJECT
 10
8580.0
 20
-633.99999999999432
 30
0.0
 11
8425.0
 21
-633.99999999999432
 31
0.0
1001
ACDBBLOCKREPETAG
1070
     1
1071
       10
1005
126EC5
  0
LINE
  5
126EC6
  8
OBJECT
 10
8420.0
 20
-757.9999999999942
 30
0.0
 11
8420.0
 21
-769.9999999999942
 31
0.0
1001
ACDBBLOCKREPETAG
1070
     1
1071
       11
1005
126EC6
  0
LINE
  5
126EC7
  8
OBJECT
 10
8420.0
 20
-769.9999999999942
 30
0.0
 11
8580.0
 21
-769.9999999999942
 31
0.0
1001
ACDBBLOCKREPETAG
1070
     1
1071
       12
1005
126EC7
  0
LINE
  5
126EC8
  8
OBJECT
 10
8580.0
 20
-769.9999999999942
 30
0.0
 11
8580.0
 21
-757.9999999999942
 31
0.0
1001
ACDBBLOCKREPETAG
1070
     1
1071
       13
1005
126EC8
  0
ARC
  5
126EC9
  8
OBJECT
 10
8700.6872746716726
 20
-749.40809941010195
 30
0.0
 40
170.6350503965856
 50
137.44134459184301
 51
149.91949581337221
1001
ACDBBLOCKREPETAG
1070
     1
1071
       15
1005
126EC9
  0
ARC
  5
126ECA
  8
OBJECT
 10
8618.8455987040506
 20
-705.88272669535922
 30
0.0
 40
78.072222021763665
 50
147.45515310379639
 51
164.6636599771729
1001
ACDBBLOCKREPETAG
1070
     1
1071
       16
1005
126ECA
  0
ARC
  5
126ECB
  8
OBJECT
 10
8585.7554349608708
 20
-695.99999999999432
 30
0.0
 40
43.55353926885617
 50
165.6884523008477
 51
194.3115476991523
1001
ACDBBLOCKREPETAG
1070
     1
1071
       17
1005
126ECB
  0
ARC
  5
126ECC
  8
OBJECT
 10
8700.6872746716726
 20
-642.59190058988645
 30
0.0
 40
170.6350503965856
 50
210.08050418662771
 51
222.55865540815699
1001
ACDBBLOCKREPETAG
1070
     1
1071
       18
1005
126ECC
  0
ARC
  5
126ECD
  8
OBJECT
 10
8618.8455987040506
 20
-686.11727330462952
 30
0.0
 40
78.072222021763665
 50
195.3363400228271
 51
212.54484689620361
1001
ACDBBLOCKREPETAG
1070
     1
1071
       19
1005
126ECD
  0
LINE
  5
126ECE
  8
OBJECT
 10
8633.0
 20
-634.0
 30
0.0
 11
8640.0
 21
-634.0
 31
0.0
1001
ACDBBLOCKREPETAG
1070
     1
1071
       45
1005
126ECE
  0
LINE
  5
126ECF
  8
OBJECT
 10
8640.0
 20
-634.0
 30
0.0
 11
8640.0
 21
-755.0
 31
0.0
1001
ACDBBLOCKREPETAG
1070
     1
1071
       46
1005
126ECF
  0
LINE
  5
126ED0
  8
OBJECT
 10
8633.0
 20
-755.0
 30
0.0
 11
8633.0
 21
-634.0
 31
0.0
1001
ACDBBLOCKREPETAG
1070
     1
1071
       47
1005
126ED0
  0
LINE
  5
126ED1
  8
CENTER
 10
8655.0
 20
-696.0
 30
0.0
 11
8571.0
 21
-696.0
 31
0.0
1001
ACDBBLOCKREPETAG
1070
     1
1071
       48
1005
126ED1
  0
LINE
  5
126ED2
  8
OBJECT
 10
8633.0
 20
-637.0
 30
0.0
 11
8597.0
 21
-637.0
 31
0.0
1001
ACDBBLOCKREPETAG
1070
     1
1071
       49
1005
126ED2
  0
LINE
  5
126ED3
  8
OBJECT
 10
8597.0
 20
-637.0
 30
0.0
 11
8597.0
 21
-755.0
 31
0.0
1001
ACDBBLOCKREPETAG
1070
     1
1071
       50
1005
126ED3
  0
LINE
  5
126ED4
  8
OBJECT
 10
8597.0
 20
-755.0
 30
0.0
 11
8640.0
 21
-755.0
 31
0.0
1001
ACDBBLOCKREPETAG
1070
     1
1071
       51
1005
126ED4
  0
LINE
  5
126ED5
  8
OBJECT
 10
8593.0
 20
-641.5
 30
0.0
 11
8586.0
 21
-641.5
 31
0.0
1001
ACDBBLOCKREPETAG
1070
     1
1071
       52
1005
126ED5
  0
LINE
  5
126ED6
  8
OBJECT
 10
8586.0
 20
-750.49999999999989
 30
0.0
 11
8593.0
 21
-750.49999999999989
 31
0.0
1001
ACDBBLOCKREPETAG
1070
     1
1071
       53
1005
126ED6
  0
LINE
  5
126ED7
  8
OBJECT
 10
8593.0
 20
-750.49999999999989
 30
0.0
 11
8593.0
 21
-641.5
 31
0.0
1001
ACDBBLOCKREPETAG
1070
     1
1071
       54
1005
126ED7
  0
LINE
  5
126ED8
  8
OBJECT
 10
8597.0
 20
-637.0
 30
0.0
 11
8593.0
 21
-641.5
 31
0.0
1001
ACDBBLOCKREPETAG
1070
     1
1071
       55
1005
126ED8
  0
LINE
  5
126ED9
  8
OBJECT
 10
8597.0
 20
-755.0
 30
0.0
 11
8593.0
 21
-750.49999999999989
 31
0.0
1001
ACDBBLOCKREPETAG
1070
     1
1071
       56
1005
126ED9
  0
LINE
  5
126EDA
  8
OBJECT
 10
8583.0
 20
-634.0
 30
0.0
 11
8580.0
 21
-634.0
 31
0.0
1001
ACDBBLOCKREPETAG
1070
     1
1071
       57
1005
126EDA
  0
ARC
  5
126EDB
  8
OBJECT
 10
8583.0
 20
-637.0
 30
0.0
 40
3.0
 50
0.0
 51
90.0
1001
ACDBBLOCKREPETAG
1070
     1
1071
       58
1005
126EDB
  0
LINE
  5
126EDC
  8
OBJECT
 10
8580.0
 20
-758.0
 30
0.0
 11
8583.0
 21
-758.0
 31
0.0
1001
ACDBBLOCKREPETAG
1070
     1
1071
       59
1005
126EDC
  0
ARC
  5
126EDD
  8
OBJECT
 10
8583.0
 20
-755.0
 30
0.0
 40
3.0
 50
270.0
 51
0.0
1001
ACDBBLOCKREPETAG
1070
     1
1071
       60
1005
126EDD
  0
LINE
  5
126EDE
  8
OBJECT
 10
8586.0
 20
-755.0
 30
0.0
 11
8586.0
 21
-637.0
 31
0.0
1001
ACDBBLOCKREPETAG
1070
     1
1071
       61
1005
126EDE
  0
LINE
  5
126EDF
  8
HIDDEN
 10
8588.0
 20
-651.5
 30
0.0
 11
8588.0
 21
-740.5
 31
0.0
1001
ACDBBLOCKREPETAG
1070
     1
1071
       63
1005
126EDF
  0
LINE
  5
126EE0
  8
OBJECT
 10
6423.0
 20
-570.99999999999432
 30
0.0
 11
6423.0
 21
-549.99999999999432
 31
0.0
1001
ACDBBLOCKREPETAG
1070
     1
1071
        0
1005
126EE0
  0
LINE
  5
126EE1
  8
OBJECT
 10
6423.0
 20
-549.99999999999432
 30
0.0
 11
6577.0
 21
-549.99999999999432
 31
0.0
1001
ACDBBLOCKREPETAG
1070
     1
1071
        1
1005
126EE1
  0
LINE
  5
126EE2
  8
HIDDEN
 10
6443.0
 20
-619.99999999999432
 30
0.0
 11
6557.0
 21
-619.99999999999432
 31
0.0
1001
ACDBBLOCKREPETAG
1070
     1
1071
        2
1005
126EE2
  0
LINE
  5
126EE3
  8
OBJECT
 10
6577.0
 20
-549.99999999999432
 30
0.0
 11
6577.0
 21
-570.99999999999432
 31
0.0
1001
ACDBBLOCKREPETAG
1070
     1
1071
        3
1005
126EE3
  0
LINE
  5
126EE4
  8
OBJECT
 10
6577.0
 20
-570.99999999999432
 30
0.0
 11
6423.0
 21
-570.99999999999432
 31
0.0
1001
ACDBBLOCKREPETAG
1070
     1
1071
        4
1005
126EE4
  0
LINE
  5
126EE5
  8
CENTER
 10
6500.0
 20
-534.99999999999432
 30
0.0
 11
6500.0
 21
-769.9999999999942
 31
0.0
1001
ACDBBLOCKREPETAG
1070
     1
1071
        5
1005
126EE5
  0
LINE
  5
126EE6
  8
OBJECT
 10
6425.0
 20
-633.99999999999432
 30
0.0
 11
6425.0
 21
-757.9999999999942
 31
0.0
1001
ACDBBLOCKREPETAG
1070
     1
1071
        6
1005
126EE6
  0
LINE
  5
126EE7
  8
OBJECT
 10
6428.0
 20
-570.99999999999432
 30
0.0
 11
6428.0
 21
-633.99999999999432
 31
0.0
1001
ACDBBLOCKREPETAG
1070
     1
1071
        7
1005
126EE7
  0
LINE
  5
126EE8
  8
OBJECT
 10
6572.0
 20
-633.99999999999432
 30
0.0
 11
6572.0
 21
-570.99999999999432
 31
0.0
1001
ACDBBLOCKREPETAG
1070
     1
1071
        8
1005
126EE8
  0
LINE
  5
126EE9
  8
OBJECT
 10
6420.0
 20
-757.9999999999942
 30
0.0
 11
6580.0
 21
-757.9999999999942
 31
0.0
1001
ACDBBLOCKREPETAG
1070
     1
1071
        9
1005
126EE9
  0
LINE
  5
126EEA
  8
OBJECT
 10
6580.0
 20
-633.99999999999432
 30
0.0
 11
6425.0
 21
-633.99999999999432
 31
0.0
1001
ACDBBLOCKREPETAG
1070
     1
1071
       10
1005
126EEA
  0
LINE
  5
126EEB
  8
OBJECT
 10
6420.0
 20
-757.9999999999942
 30
0.0
 11
6420.0
 21
-769.9999999999942
 31
0.0
1001
ACDBBLOCKREPETAG
1070
     1
1071
       11
1005
126EEB
  0
LINE
  5
126EEC
  8
OBJECT
 10
6420.0
 20
-769.9999999999942
 30
0.0
 11
6580.0
 21
-769.9999999999942
 31
0.0
1001
ACDBBLOCKREPETAG
1070
     1
1071
       12
1005
126EEC
  0
LINE
  5
126EED
  8
OBJECT
 10
6580.0
 20
-769.9999999999942
 30
0.0
 11
6580.0
 21
-757.9999999999942
 31
0.0
1001
ACDBBLOCKREPETAG
1070
     1
1071
       13
1005
126EED
  0
ARC
  5
126EEE
  8
OBJECT
 10
6700.6872746716717
 20
-749.40809941010195
 30
0.0
 40
170.6350503965856
 50
137.44134459184301
 51
149.91949581337221
1001
ACDBBLOCKREPETAG
1070
     1
1071
       15
1005
126EEE
  0
ARC
  5
126EEF
  8
OBJECT
 10
6618.8455987040506
 20
-705.88272669535922
 30
0.0
 40
78.072222021763665
 50
147.4551531037684
 51
164.66365997718671
1001
ACDBBLOCKREPETAG
1070
     1
1071
       16
1005
126EEF
  0
ARC
  5
126EF0
  8
OBJECT
 10
6585.7554349608727
 20
-695.99999999999432
 30
0.0
 40
43.55353926885617
 50
165.6884523008477
 51
194.3115476991523
1001
ACDBBLOCKREPETAG
1070
     1
1071
       17
1005
126EF0
  0
ARC
  5
126EF1
  8
OBJECT
 10
6700.6872746716717
 20
-642.59190058988645
 30
0.0
 40
170.6350503965856
 50
210.08050418662771
 51
222.55865540815699
1001
ACDBBLOCKREPETAG
1070
     1
1071
       18
1005
126EF1
  0
ARC
  5
126EF2
  8
OBJECT
 10
6618.8455987040506
 20
-686.11727330462952
 30
0.0
 40
78.072222021763665
 50
195.3363400228132
 51
212.5448468962316
1001
ACDBBLOCKREPETAG
1070
     1
1071
       19
1005
126EF2
  0
LINE
  5
126EF3
  8
OBJECT
 10
6633.0
 20
-634.0
 30
0.0
 11
6640.0
 21
-634.0
 31
0.0
1001
ACDBBLOCKREPETAG
1070
     1
1071
       45
1005
126EF3
  0
LINE
  5
126EF4
  8
OBJECT
 10
6640.0
 20
-634.0
 30
0.0
 11
6640.0
 21
-755.0
 31
0.0
1001
ACDBBLOCKREPETAG
1070
     1
1071
       46
1005
126EF4
  0
LINE
  5
126EF5
  8
OBJECT
 10
6633.0
 20
-755.0
 30
0.0
 11
6633.0
 21
-634.0
 31
0.0
1001
ACDBBLOCKREPETAG
1070
     1
1071
       47
1005
126EF5
  0
LINE
  5
126EF6
  8
CENTER
 10
6655.0
 20
-696.0
 30
0.0
 11
6571.0
 21
-696.0
 31
0.0
1001
ACDBBLOCKREPETAG
1070
     1
1071
       48
1005
126EF6
  0
LINE
  5
126EF7
  8
OBJECT
 10
6633.0
 20
-637.0
 30
0.0
 11
6597.0
 21
-637.0
 31
0.0
1001
ACDBBLOCKREPETAG
1070
     1
1071
       49
1005
126EF7
  0
LINE
  5
126EF8
  8
OBJECT
 10
6597.0
 20
-637.0
 30
0.0
 11
6597.0
 21
-755.0
 31
0.0
1001
ACDBBLOCKREPETAG
1070
     1
1071
       50
1005
126EF8
  0
LINE
  5
126EF9
  8
OBJECT
 10
6597.0
 20
-755.0
 30
0.0
 11
6640.0
 21
-755.0
 31
0.0
1001
ACDBBLOCKREPETAG
1070
     1
1071
       51
1005
126EF9
  0
LINE
  5
126EFA
  8
OBJECT
 10
6593.0
 20
-641.5
 30
0.0
 11
6586.0
 21
-641.5
 31
0.0
1001
ACDBBLOCKREPETAG
1070
     1
1071
       52
1005
126EFA
  0
LINE
  5
126EFB
  8
OBJECT
 10
6586.0
 20
-750.49999999999989
 30
0.0
 11
6593.0
 21
-750.49999999999989
 31
0.0
1001
ACDBBLOCKREPETAG
1070
     1
1071
       53
1005
126EFB
  0
LINE
  5
126EFC
  8
OBJECT
 10
6593.0
 20
-750.49999999999989
 30
0.0
 11
6593.0
 21
-641.5
 31
0.0
1001
ACDBBLOCKREPETAG
1070
     1
1071
       54
1005
126EFC
  0
LINE
  5
126EFD
  8
OBJECT
 10
6597.0
 20
-637.0
 30
0.0
 11
6593.0
 21
-641.5
 31
0.0
1001
ACDBBLOCKREPETAG
1070
     1
1071
       55
1005
126EFD
  0
LINE
  5
126EFE
  8
OBJECT
 10
6597.0
 20
-755.0
 30
0.0
 11
6593.0
 21
-750.49999999999989
 31
0.0
1001
ACDBBLOCKREPETAG
1070
     1
1071
       56
1005
126EFE
  0
LINE
  5
126EFF
  8
OBJECT
 10
6583.0
 20
-634.0
 30
0.0
 11
6580.0
 21
-634.0
 31
0.0
1001
ACDBBLOCKREPETAG
1070
     1
1071
       57
1005
126EFF
  0
ARC
  5
126F00
  8
OBJECT
 10
6583.0
 20
-637.0
 30
0.0
 40
3.0
 50
0.0
 51
90.0
1001
ACDBBLOCKREPETAG
1070
     1
1071
       58
1005
126F00
  0
LINE
  5
126F01
  8
OBJECT
 10
6580.0
 20
-758.0
 30
0.0
 11
6583.0
 21
-758.0
 31
0.0
1001
ACDBBLOCKREPETAG
1070
     1
1071
       59
1005
126F01
  0
ARC
  5
126F02
  8
OBJECT
 10
6583.0
 20
-755.0
 30
0.0
 40
3.0
 50
270.0
 51
0.0
1001
ACDBBLOCKREPETAG
1070
     1
1071
       60
1005
126F02
  0
LINE
  5
126F03
  8
OBJECT
 10
6586.0
 20
-755.0
 30
0.0
 11
6586.0
 21
-637.0
 31
0.0
1001
ACDBBLOCKREPETAG
1070
     1
1071
       61
1005
126F03
  0
LINE
  5
126F04
  8
HIDDEN
 10
6588.0
 20
-651.5
 30
0.0
 11
6588.0
 21
-740.5
 31
0.0
1001
ACDBBLOCKREPETAG
1070
     1
1071
       63
1005
126F04
  0
LINE
  5
126F05
  8
OBJECT
 10
4423.0
 20
-570.99999999999432
 30
0.0
 11
4423.0
 21
-549.99999999999432
 31
0.0
1001
ACDBBLOCKREPETAG
1070
     1
1071
        0
1005
126F05
  0
LINE
  5
126F06
  8
OBJECT
 10
4423.0
 20
-549.99999999999432
 30
0.0
 11
4577.0
 21
-549.99999999999432
 31
0.0
1001
ACDBBLOCKREPETAG
1070
     1
1071
        1
1005
126F06
  0
LINE
  5
126F07
  8
HIDDEN
 10
4443.0
 20
-619.99999999999432
 30
0.0
 11
4557.0
 21
-619.99999999999432
 31
0.0
1001
ACDBBLOCKREPETAG
1070
     1
1071
        2
1005
126F07
  0
LINE
  5
126F08
  8
OBJECT
 10
4577.0
 20
-549.99999999999432
 30
0.0
 11
4577.0
 21
-570.99999999999432
 31
0.0
1001
ACDBBLOCKREPETAG
1070
     1
1071
        3
1005
126F08
  0
LINE
  5
126F09
  8
OBJECT
 10
4577.0
 20
-570.99999999999432
 30
0.0
 11
4423.0
 21
-570.99999999999432
 31
0.0
1001
ACDBBLOCKREPETAG
1070
     1
1071
        4
1005
126F09
  0
LINE
  5
126F0A
  8
CENTER
 10
4500.0
 20
-534.99999999999432
 30
0.0
 11
4500.0
 21
-769.9999999999942
 31
0.0
1001
ACDBBLOCKREPETAG
1070
     1
1071
        5
1005
126F0A
  0
LINE
  5
126F0B
  8
OBJECT
 10
4425.0
 20
-633.99999999999432
 30
0.0
 11
4425.0
 21
-757.9999999999942
 31
0.0
1001
ACDBBLOCKREPETAG
1070
     1
1071
        6
1005
126F0B
  0
LINE
  5
126F0C
  8
OBJECT
 10
4428.0
 20
-570.99999999999432
 30
0.0
 11
4428.0
 21
-633.99999999999432
 31
0.0
1001
ACDBBLOCKREPETAG
1070
     1
1071
        7
1005
126F0C
  0
LINE
  5
126F0D
  8
OBJECT
 10
4572.0
 20
-633.99999999999432
 30
0.0
 11
4572.0
 21
-570.99999999999432
 31
0.0
1001
ACDBBLOCKREPETAG
1070
     1
1071
        8
1005
126F0D
  0
LINE
  5
126F0E
  8
OBJECT
 10
4420.0
 20
-757.9999999999942
 30
0.0
 11
4580.0
 21
-757.9999999999942
 31
0.0
1001
ACDBBLOCKREPETAG
1070
     1
1071
        9
1005
126F0E
  0
LINE
  5
126F0F
  8
OBJECT
 10
4580.0
 20
-633.99999999999432
 30
0.0
 11
4425.0
 21
-633.99999999999432
 31
0.0
1001
ACDBBLOCKREPETAG
1070
     1
1071
       10
1005
126F0F
  0
LINE
  5
126F10
  8
OBJECT
 10
4420.0
 20
-757.9999999999942
 30
0.0
 11
4420.0
 21
-769.9999999999942
 31
0.0
1001
ACDBBLOCKREPETAG
1070
     1
1071
       11
1005
126F10
  0
LINE
  5
126F11
  8
OBJECT
 10
4420.0
 20
-769.9999999999942
 30
0.0
 11
4580.0
 21
-769.9999999999942
 31
0.0
1001
ACDBBLOCKREPETAG
1070
     1
1071
       12
1005
126F11
  0
LINE
  5
126F12
  8
OBJECT
 10
4580.0
 20
-769.9999999999942
 30
0.0
 11
4580.0
 21
-757.9999999999942
 31
0.0
1001
ACDBBLOCKREPETAG
1070
     1
1071
       13
1005
126F12
  0
ARC
  5
126F13
  8
OBJECT
 10
4700.6872746716726
 20
-749.40809941010195
 30
0.0
 40
170.6350503965856
 50
137.44134459184301
 51
149.91949581337221
1001
ACDBBLOCKREPETAG
1070
     1
1071
       15
1005
126F13
  0
ARC
  5
126F14
  8
OBJECT
 10
4618.8455987040506
 20
-705.88272669535922
 30
0.0
 40
78.072222021763665
 50
147.4551531037684
 51
164.66365997718671
1001
ACDBBLOCKREPETAG
1070
     1
1071
       16
1005
126F14
  0
ARC
  5
126F15
  8
OBJECT
 10
4585.7554349608718
 20
-695.99999999999432
 30
0.0
 40
43.55353926885617
 50
165.6884523008477
 51
194.3115476991523
1001
ACDBBLOCKREPETAG
1070
     1
1071
       17
1005
126F15
  0
ARC
  5
126F16
  8
OBJECT
 10
4700.6872746716726
 20
-642.59190058988645
 30
0.0
 40
170.6350503965856
 50
210.08050418662771
 51
222.55865540815699
1001
ACDBBLOCKREPETAG
1070
     1
1071
       18
1005
126F16
  0
ARC
  5
126F17
  8
OBJECT
 10
4618.8455987040506
 20
-686.11727330462952
 30
0.0
 40
78.072222021763665
 50
195.3363400228132
 51
212.5448468962316
1001
ACDBBLOCKREPETAG
1070
     1
1071
       19
1005
126F17
  0
LINE
  5
126F18
  8
OBJECT
 10
4633.0
 20
-634.0
 30
0.0
 11
4640.0
 21
-634.0
 31
0.0
1001
ACDBBLOCKREPETAG
1070
     1
1071
       45
1005
126F18
  0
LINE
  5
126F19
  8
OBJECT
 10
4640.0
 20
-634.0
 30
0.0
 11
4640.0
 21
-755.0
 31
0.0
1001
ACDBBLOCKREPETAG
1070
     1
1071
       46
1005
126F19
  0
LINE
  5
126F1A
  8
OBJECT
 10
4633.0
 20
-755.0
 30
0.0
 11
4633.0
 21
-634.0
 31
0.0
1001
ACDBBLOCKREPETAG
1070
     1
1071
       47
1005
126F1A
  0
LINE
  5
126F1B
  8
CENTER
 10
4655.0
 20
-696.0
 30
0.0
 11
4571.0
 21
-696.0
 31
0.0
1001
ACDBBLOCKREPETAG
1070
     1
1071
       48
1005
126F1B
  0
LINE
  5
126F1C
  8
OBJECT
 10
4633.0
 20
-637.0
 30
0.0
 11
4597.0
 21
-637.0
 31
0.0
1001
ACDBBLOCKREPETAG
1070
     1
1071
       49
1005
126F1C
  0
LINE
  5
126F1D
  8
OBJECT
 10
4597.0
 20
-637.0
 30
0.0
 11
4597.0
 21
-755.0
 31
0.0
1001
ACDBBLOCKREPETAG
1070
     1
1071
       50
1005
126F1D
  0
LINE
  5
126F1E
  8
OBJECT
 10
4597.0
 20
-755.0
 30
0.0
 11
4640.0
 21
-755.0
 31
0.0
1001
ACDBBLOCKREPETAG
1070
     1
1071
       51
1005
126F1E
  0
LINE
  5
126F1F
  8
OBJECT
 10
4593.0
 20
-641.5
 30
0.0
 11
4586.0
 21
-641.5
 31
0.0
1001
ACDBBLOCKREPETAG
1070
     1
1071
       52
1005
126F1F
  0
LINE
  5
126F20
  8
OBJECT
 10
4586.0
 20
-750.49999999999989
 30
0.0
 11
4593.0
 21
-750.49999999999989
 31
0.0
1001
ACDBBLOCKREPETAG
1070
     1
1071
       53
1005
126F20
  0
LINE
  5
126F21
  8
OBJECT
 10
4593.0
 20
-750.49999999999989
 30
0.0
 11
4593.0
 21
-641.5
 31
0.0
1001
ACDBBLOCKREPETAG
1070
     1
1071
       54
1005
126F21
  0
LINE
  5
126F22
  8
OBJECT
 10
4597.0
 20
-637.0
 30
0.0
 11
4593.0
 21
-641.5
 31
0.0
1001
ACDBBLOCKREPETAG
1070
     1
1071
       55
1005
126F22
  0
LINE
  5
126F23
  8
OBJECT
 10
4597.0
 20
-755.0
 30
0.0
 11
4593.0
 21
-750.49999999999989
 31
0.0
1001
ACDBBLOCKREPETAG
1070
     1
1071
       56
1005
126F23
  0
LINE
  5
126F24
  8
OBJECT
 10
4583.0
 20
-634.0
 30
0.0
 11
4580.0
 21
-634.0
 31
0.0
1001
ACDBBLOCKREPETAG
1070
     1
1071
       57
1005
126F24
  0
ARC
  5
126F25
  8
OBJECT
 10
4583.0
 20
-637.0
 30
0.0
 40
3.0
 50
0.0
 51
90.0
1001
ACDBBLOCKREPETAG
1070
     1
1071
       58
1005
126F25
  0
LINE
  5
126F26
  8
OBJECT
 10
4580.0
 20
-758.0
 30
0.0
 11
4583.0
 21
-758.0
 31
0.0
1001
ACDBBLOCKREPETAG
1070
     1
1071
       59
1005
126F26
  0
ARC
  5
126F27
  8
OBJECT
 10
4583.0
 20
-755.0
 30
0.0
 40
3.0
 50
270.0
 51
0.0
1001
ACDBBLOCKREPETAG
1070
     1
1071
       60
1005
126F27
  0
LINE
  5
126F28
  8
OBJECT
 10
4586.0
 20
-755.0
 30
0.0
 11
4586.0
 21
-637.0
 31
0.0
1001
ACDBBLOCKREPETAG
1070
     1
1071
       61
1005
126F28
  0
LINE
  5
126F29
  8
HIDDEN
 10
4588.0
 20
-651.5
 30
0.0
 11
4588.0
 21
-740.5
 31
0.0
1001
ACDBBLOCKREPETAG
1070
     1
1071
       63
1005
126F29
  0
LINE
  5
126F2A
  8
SLIM
 10
10414.999999999991
 20
-1032.2369265471771
 30
0.0
 11
10431.23692654717
 21
-1016.0
 31
0.0
1001
ACAD
1010
0.0
1020
0.0
1030
0.0
  0
LINE
  5
126F2B
  8
SLIM
 10
10414.999999999991
 20
-1050.197438789314
 30
0.0
 11
10449.19743878931
 21
-1016.0
 31
0.0
1001
ACAD
1010
0.0
1020
0.0
1030
0.0
  0
LINE
  5
126F2C
  8
SLIM
 10
10414.999999999991
 20
-1068.15795103145
 30
0.0
 11
10467.15795103144
 21
-1016.0
 31
0.0
1001
ACAD
1010
0.0
1020
0.0
1030
0.0
  0
LINE
  5
126F2D
  8
SLIM
 10
10414.999999999991
 20
-1086.1184632735881
 30
0.0
 11
10485.11846327358
 21
-1016.0
 31
0.0
1001
ACAD
1010
0.0
1020
0.0
1030
0.0
  0
LINE
  5
126F2E
  8
SLIM
 10
10415.0
 20
-1104.0789755157259
 30
0.0
 11
10503.07897551572
 21
-1016.0
 31
0.0
1001
ACAD
1010
0.0
1020
0.0
1030
0.0
  0
LINE
  5
126F2F
  8
SLIM
 10
10415.0
 20
-1122.0394877578631
 30
0.0
 11
10521.03948775786
 21
-1016.0
 31
0.0
1001
ACAD
1010
0.0
1020
0.0
1030
0.0
  0
LINE
  5
126F30
  8
SLIM
 10
10415.283600749561
 20
-1139.716399250442
 30
0.0
 11
10539.0
 21
-1016.0
 31
0.0
1001
ACAD
1010
0.0
1020
0.0
1030
0.0
  0
LINE
  5
126F31
  8
SLIM
 10
10417.49791047804
 20
-1155.4626017640981
 30
0.0
 11
10556.96051224214
 21
-1016.0
 31
0.0
1001
ACAD
1010
0.0
1020
0.0
1030
0.0
  0
LINE
  5
126F32
  8
SLIM
 10
10419.71222020652
 20
-1171.208804277753
 30
0.0
 11
10574.921024484271
 21
-1016.0
 31
0.0
1001
ACAD
1010
0.0
1020
0.0
1030
0.0
  0
LINE
  5
126F33
  8
SLIM
 10
10421.926529935001
 20
-1186.9550067914081
 30
0.0
 11
10585.000000000009
 21
-1023.8815367264079
 31
0.0
1001
ACAD
1010
0.0
1020
0.0
1030
0.0
  0
LINE
  5
126F34
  8
SLIM
 10
10424.140839663491
 20
-1202.7012093050639
 30
0.0
 11
10585.0
 21
-1041.8420489685479
 31
0.0
1001
ACAD
1010
0.0
1020
0.0
1030
0.0
  0
LINE
  5
126F35
  8
SLIM
 10
10426.355149391969
 20
-1218.447411818719
 30
0.0
 11
10585.0
 21
-1059.802561210686
 31
0.0
1001
ACAD
1010
0.0
1020
0.0
1030
0.0
  0
LINE
  5
126F36
  8
SLIM
 10
10428.56945912045
 20
-1234.193614332374
 30
0.0
 11
10585.0
 21
-1077.7630734528259
 31
0.0
1001
ACAD
1010
0.0
1020
0.0
1030
0.0
  0
LINE
  5
126F37
  8
SLIM
 10
10430.78376884894
 20
-1249.93981684603
 30
0.0
 11
10585.0
 21
-1095.723585694966
 31
0.0
1001
ACAD
1010
0.0
1020
0.0
1030
0.0
  0
LINE
  5
126F38
  8
SLIM
 10
10432.998078577421
 20
-1265.6860193596849
 30
0.0
 11
10585.0
 21
-1113.684097937105
 31
0.0
1001
ACAD
1010
0.0
1020
0.0
1030
0.0
  0
LINE
  5
126F39
  8
SLIM
 10
10432.999999999991
 20
-1283.6446101792519
 30
0.0
 11
10585.0
 21
-1131.6446101792451
 31
0.0
1001
ACAD
1010
0.0
1020
0.0
1030
0.0
  0
LINE
  5
126F3A
  8
SLIM
 10
10432.999999999991
 20
-1301.60512242139
 30
0.0
 11
10583.05183715436
 21
-1151.553285267016
 31
0.0
1001
ACAD
1010
0.0
1020
0.0
1030
0.0
  0
LINE
  5
126F3B
  8
SLIM
 10
10446.565634663521
 20
-1305.999999999997
 30
0.0
 11
10580.112844242019
 21
-1172.452790421504
 31
0.0
1001
ACAD
1010
0.0
1020
0.0
1030
0.0
  0
LINE
  5
126F3C
  8
SLIM
 10
10464.52614690566
 20
-1305.999999999998
 30
0.0
 11
10577.17385132967
 21
-1193.352295575992
 31
0.0
1001
ACAD
1010
0.0
1020
0.0
1030
0.0
  0
LINE
  5
126F3D
  8
SLIM
 10
10482.4866591478
 20
-1305.999999999998
 30
0.0
 11
10574.23485841732
 21
-1214.2518007304791
 31
0.0
1001
ACAD
1010
0.0
1020
0.0
1030
0.0
  0
LINE
  5
126F3E
  8
SLIM
 10
10500.44717138994
 20
-1305.999999999998
 30
0.0
 11
10571.29586550497
 21
-1235.1513058849671
 31
0.0
1001
ACAD
1010
0.0
1020
0.0
1030
0.0
  0
LINE
  5
126F3F
  8
SLIM
 10
10518.40768363206
 20
-1305.9999999999991
 30
0.0
 11
10568.35687259262
 21
-1256.0508110394539
 31
0.0
1001
ACAD
1010
0.0
1020
0.0
1030
0.0
  0
LINE
  5
126F40
  8
SLIM
 10
10536.368195874211
 20
-1305.9999999999991
 30
0.0
 11
10567.000000000009
 21
-1275.368195874202
 31
0.0
1001
ACAD
1010
0.0
1020
0.0
1030
0.0
  0
LINE
  5
126F41
  8
SLIM
 10
10554.328708116351
 20
-1306.0
 30
0.0
 11
10567.000000000009
 21
-1293.328708116341
 31
0.0
1001
ACAD
1010
0.0
1020
0.0
1030
0.0
  0
LINE
  5
126F42
  8
OBJECT
 10
10432.999999999991
 20
-1305.999999999997
 30
0.0
 11
10567.000000000009
 21
-1306.0
 31
0.0
1001
ACDBBLOCKREPETAG
1070
     1
1071
        1
1005
126F42
  0
LINE
  5
126F43
  8
OBJECT
 10
10414.999999999991
 20
-1016.0
 30
0.0
 11
10415.0
 21
-1137.6996828091419
 31
0.0
1001
ACDBBLOCKREPETAG
1070
     1
1071
        2
1005
126F43
  0
LINE
  5
126F44
  8
OBJECT
 10
10585.000000000009
 20
-1016.0
 30
0.0
 11
10585.0
 21
-1137.6996828091731
 31
0.0
1001
ACDBBLOCKREPETAG
1070
     1
1071
        3
1005
126F44
  0
LINE
  5
126F45
  8
OBJECT
 10
10415.0
 20
-1137.6996828091419
 30
0.0
 11
10432.999999999991
 21
-1265.6996828090821
 31
0.0
1001
ACDBBLOCKREPETAG
1070
     1
1071
        4
1005
126F45
  0
LINE
  5
126F46
  8
OBJECT
 10
10567.000000000009
 20
-1265.6996828091289
 30
0.0
 11
10585.0
 21
-1137.6996828091731
 31
0.0
1001
ACDBBLOCKREPETAG
1070
     1
1071
        5
1005
126F46
  0
LINE
  5
126F47
  8
OBJECT
 10
10585.000000000009
 20
-1016.0
 30
0.0
 11
10414.999999999991
 21
-1016.0
 31
0.0
1001
ACDBBLOCKREPETAG
1070
     1
1071
        6
1005
126F47
  0
LINE
  5
126F48
  8
OBJECT
 10
10432.999999999991
 20
-1265.6996828090821
 30
0.0
 11
10432.999999999991
 21
-1305.999999999997
 31
0.0
1001
ACDBBLOCKREPETAG
1070
     1
1071
        8
1005
126F48
  0
LINE
  5
126F49
  8
OBJECT
 10
10567.000000000009
 20
-1265.6996828091289
 30
0.0
 11
10567.000000000009
 21
-1306.0
 31
0.0
1001
ACDBBLOCKREPETAG
1070
     1
1071
        9
1005
126F49
  0
LINE
  5
126F4A
  8
SLIM
 10
8414.9999999999909
 20
-1032.2369265471759
 30
0.0
 11
8431.2369265471698
 21
-1015.999999999999
 31
0.0
1001
GRADIENTCOLOR1ACI
1070
     5
1001
GRADIENTCOLOR2ACI
1070
     2
1001
ACAD
1010
0.0
1020
0.0
1030
0.0
  0
LINE
  5
126F4B
  8
SLIM
 10
8414.9999999999945
 20
-1050.1974387893131
 30
0.0
 11
8449.1974387893097
 21
-1015.999999999999
 31
0.0
1001
GRADIENTCOLOR1ACI
1070
     5
1001
GRADIENTCOLOR2ACI
1070
     2
1001
ACAD
1010
0.0
1020
0.0
1030
0.0
  0
LINE
  5
126F4C
  8
SLIM
 10
8414.9999999999964
 20
-1068.15795103145
 30
0.0
 11
8467.1579510314441
 21
-1015.999999999999
 31
0.0
1001
GRADIENTCOLOR1ACI
1070
     5
1001
GRADIENTCOLOR2ACI
1070
     2
1001
ACAD
1010
0.0
1020
0.0
1030
0.0
  0
LINE
  5
126F4D
  8
SLIM
 10
8414.9999999999964
 20
-1086.1184632735881
 30
0.0
 11
8485.1184632735858
 21
-1015.999999999999
 31
0.0
1001
GRADIENTCOLOR1ACI
1070
     5
1001
GRADIENTCOLOR2ACI
1070
     2
1001
ACAD
1010
0.0
1020
0.0
1030
0.0
  0
LINE
  5
126F4E
  8
SLIM
 10
8414.9999999999964
 20
-1104.078975515725
 30
0.0
 11
8503.0789755157257
 21
-1015.999999999999
 31
0.0
1001
GRADIENTCOLOR1ACI
1070
     5
1001
GRADIENTCOLOR2ACI
1070
     2
1001
ACAD
1010
0.0
1020
0.0
1030
0.0
  0
LINE
  5
126F4F
  8
SLIM
 10
8414.9999999999964
 20
-1122.0394877578619
 30
0.0
 11
8521.0394877578619
 21
-1015.999999999999
 31
0.0
1001
GRADIENTCOLOR1ACI
1070
     5
1001
GRADIENTCOLOR2ACI
1070
     2
1001
ACAD
1010
0.0
1020
0.0
1030
0.0
  0
LINE
  5
126F50
  8
SLIM
 10
8415.2836007495571
 20
-1139.7163992504411
 30
0.0
 11
8539.0
 21
-1015.999999999999
 31
0.0
1001
GRADIENTCOLOR1ACI
1070
     5
1001
GRADIENTCOLOR2ACI
1070
     2
1001
ACAD
1010
0.0
1020
0.0
1030
0.0
  0
LINE
  5
126F51
  8
SLIM
 10
8417.4979104780377
 20
-1155.462601764096
 30
0.0
 11
8556.9605122421381
 21
-1015.999999999999
 31
0.0
1001
GRADIENTCOLOR1ACI
1070
     5
1001
GRADIENTCOLOR2ACI
1070
     2
1001
ACAD
1010
0.0
1020
0.0
1030
0.0
  0
LINE
  5
126F52
  8
SLIM
 10
8419.7122202065257
 20
-1171.208804277753
 30
0.0
 11
8574.9210244842725
 21
-1015.999999999999
 31
0.0
1001
GRADIENTCOLOR1ACI
1070
     5
1001
GRADIENTCOLOR2ACI
1070
     2
1001
ACAD
1010
0.0
1020
0.0
1030
0.0
  0
LINE
  5
126F53
  8
SLIM
 10
8421.9265299350063
 20
-1186.955006791409
 30
0.0
 11
8585.0000000000055
 21
-1023.8815367264079
 31
0.0
1001
GRADIENTCOLOR1ACI
1070
     5
1001
GRADIENTCOLOR2ACI
1070
     2
1001
ACAD
1010
0.0
1020
0.0
1030
0.0
  0
LINE
  5
126F54
  8
SLIM
 10
8424.1408396634924
 20
-1202.7012093050639
 30
0.0
 11
8585.0000000000055
 21
-1041.842048968547
 31
0.0
1001
GRADIENTCOLOR1ACI
1070
     5
1001
GRADIENTCOLOR2ACI
1070
     2
1001
ACAD
1010
0.0
1020
0.0
1030
0.0
  0
LINE
  5
126F55
  8
SLIM
 10
8426.3551493919713
 20
-1218.44741181872
 30
0.0
 11
8585.0000000000055
 21
-1059.802561210686
 31
0.0
1001
GRADIENTCOLOR1ACI
1070
     5
1001
GRADIENTCOLOR2ACI
1070
     2
1001
ACAD
1010
0.0
1020
0.0
1030
0.0
  0
LINE
  5
126F56
  8
SLIM
 10
8428.5694591204538
 20
-1234.193614332376
 30
0.0
 11
8585.0000000000018
 21
-1077.7630734528259
 31
0.0
1001
GRADIENTCOLOR1ACI
1070
     5
1001
GRADIENTCOLOR2ACI
1070
     2
1001
ACAD
1010
0.0
1020
0.0
1030
0.0
  0
LINE
  5
126F57
  8
SLIM
 10
8430.7837688489362
 20
-1249.939816846032
 30
0.0
 11
8585.0000000000018
 21
-1095.7235856949651
 31
0.0
1001
GRADIENTCOLOR1ACI
1070
     5
1001
GRADIENTCOLOR2ACI
1070
     2
1001
ACAD
1010
0.0
1020
0.0
1030
0.0
  0
LINE
  5
126F58
  8
SLIM
 10
8432.9980785774169
 20
-1265.686019359687
 30
0.0
 11
8585.0000000000018
 21
-1113.6840979371041
 31
0.0
1001
GRADIENTCOLOR1ACI
1070
     5
1001
GRADIENTCOLOR2ACI
1070
     2
1001
ACAD
1010
0.0
1020
0.0
1030
0.0
  0
LINE
  5
126F59
  8
SLIM
 10
8443.0
 20
-1273.644610179244
 30
0.0
 11
8450.6446101792462
 21
-1266.0
 31
0.0
1001
GRADIENTCOLOR1ACI
1070
     5
1001
GRADIENTCOLOR2ACI
1070
     2
1001
ACAD
1010
0.0
1020
0.0
1030
0.0
  0
LINE
  5
126F5A
  8
SLIM
 10
8450.6446101792462
 20
-1266.0
 30
0.0
 11
8585.0
 21
-1131.644610179244
 31
0.0
1001
GRADIENTCOLOR1ACI
1070
     5
1001
GRADIENTCOLOR2ACI
1070
     2
1001
ACAD
1010
0.0
1020
0.0
1030
0.0
  0
LINE
  5
126F5B
  8
SLIM
 10
8444.6051224213843
 20
-1289.9999999999991
 30
0.0
 11
8468.6051224213825
 21
-1266.0
 31
0.0
1001
GRADIENTCOLOR1ACI
1070
     5
1001
GRADIENTCOLOR2ACI
1070
     2
1001
ACAD
1010
0.0
1020
0.0
1030
0.0
  0
LINE
  5
126F5C
  8
SLIM
 10
8468.6051224213825
 20
-1266.0
 30
0.0
 11
8583.0518371543658
 21
-1151.553285267016
 31
0.0
1001
GRADIENTCOLOR1ACI
1070
     5
1001
GRADIENTCOLOR2ACI
1070
     2
1001
ACAD
1010
0.0
1020
0.0
1030
0.0
  0
LINE
  5
126F5D
  8
SLIM
 10
8462.5656346635205
 20
-1289.9999999999991
 30
0.0
 11
8486.5656346635205
 21
-1266.0
 31
0.0
1001
GRADIENTCOLOR1ACI
1070
     5
1001
GRADIENTCOLOR2ACI
1070
     2
1001
ACAD
1010
0.0
1020
0.0
1030
0.0
  0
LINE
  5
126F5E
  8
SLIM
 10
8486.5656346635205
 20
-1266.0
 30
0.0
 11
8580.1128442420159
 21
-1172.4527904215049
 31
0.0
1001
GRADIENTCOLOR1ACI
1070
     5
1001
GRADIENTCOLOR2ACI
1070
     2
1001
ACAD
1010
0.0
1020
0.0
1030
0.0
  0
LINE
  5
126F5F
  8
SLIM
 10
8480.5261469056604
 20
-1289.9999999999991
 30
0.0
 11
8504.5261469056604
 21
-1266.0
 31
0.0
1001
GRADIENTCOLOR1ACI
1070
     5
1001
GRADIENTCOLOR2ACI
1070
     2
1001
ACAD
1010
0.0
1020
0.0
1030
0.0
  0
LINE
  5
126F60
  8
SLIM
 10
8504.5261469056604
 20
-1266.0
 30
0.0
 11
8577.1738513296659
 21
-1193.352295575992
 31
0.0
1001
GRADIENTCOLOR1ACI
1070
     5
1001
GRADIENTCOLOR2ACI
1070
     2
1001
ACAD
1010
0.0
1020
0.0
1030
0.0
  0
LINE
  5
126F61
  8
SLIM
 10
8498.4866591477985
 20
-1289.9999999999991
 30
0.0
 11
8522.4866591478003
 21
-1266.0
 31
0.0
1001
GRADIENTCOLOR1ACI
1070
     5
1001
GRADIENTCOLOR2ACI
1070
     2
1001
ACAD
1010
0.0
1020
0.0
1030
0.0
  0
LINE
  5
126F62
  8
SLIM
 10
8522.4866591478003
 20
-1266.0
 30
0.0
 11
8574.234858417316
 21
-1214.2518007304809
 31
0.0
1001
GRADIENTCOLOR1ACI
1070
     5
1001
GRADIENTCOLOR2ACI
1070
     2
1001
ACAD
1010
0.0
1020
0.0
1030
0.0
  0
LINE
  5
126F63
  8
SLIM
 10
8516.4471713899384
 20
-1289.9999999999991
 30
0.0
 11
8540.4471713899366
 21
-1266.0
 31
0.0
1001
GRADIENTCOLOR1ACI
1070
     5
1001
GRADIENTCOLOR2ACI
1070
     2
1001
ACAD
1010
0.0
1020
0.0
1030
0.0
  0
LINE
  5
126F64
  8
SLIM
 10
8540.4471713899366
 20
-1266.0
 30
0.0
 11
8571.2958655049661
 21
-1235.1513058849689
 31
0.0
1001
GRADIENTCOLOR1ACI
1070
     5
1001
GRADIENTCOLOR2ACI
1070
     2
1001
ACAD
1010
0.0
1020
0.0
1030
0.0
  0
LINE
  5
126F65
  8
SLIM
 10
8534.4076836320746
 20
-1289.9999999999991
 30
0.0
 11
8557.0
 21
-1267.4076836320739
 31
0.0
1001
GRADIENTCOLOR1ACI
1070
     5
1001
GRADIENTCOLOR2ACI
1070
     2
1001
ACAD
1010
0.0
1020
0.0
1030
0.0
  0
LINE
  5
126F66
  8
SLIM
 10
8558.4076836320746
 20
-1266.0
 30
0.0
 11
8568.3568725926179
 21
-1256.0508110394569
 31
0.0
1001
GRADIENTCOLOR1ACI
1070
     5
1001
GRADIENTCOLOR2ACI
1070
     2
1001
ACAD
1010
0.0
1020
0.0
1030
0.0
  0
LINE
  5
126F67
  8
SLIM
 10
8552.3681958742145
 20
-1289.9999999999991
 30
0.0
 11
8557.0
 21
-1285.368195874212
 31
0.0
1001
GRADIENTCOLOR1ACI
1070
     5
1001
GRADIENTCOLOR2ACI
1070
     2
1001
ACAD
1010
0.0
1020
0.0
1030
0.0
  0
LINE
  5
126F68
  8
OBJECT
 10
8443.0
 20
-1289.9999999999991
 30
0.0
 11
8557.0
 21
-1289.9999999999991
 31
0.0
1001
ACDBBLOCKREPETAG
1070
     1
1071
        1
1005
0
  0
LINE
  5
126F69
  8
OBJECT
 10
8433.0422321049627
 20
-1266.0
 30
0.0
 11
8566.9577678950409
 21
-1266.0
 31
0.0
1001
ACDBBLOCKREPETAG
1070
     1
1071
        2
1005
0
  0
LINE
  5
126F6A
  8
OBJECT
 10
8443.0
 20
-1289.9999999999991
 30
0.0
 11
8443.0
 21
-1266.0
 31
0.0
1001
ACDBBLOCKREPETAG
1070
     1
1071
        3
1005
0
  0
LINE
  5
126F6B
  8
OBJECT
 10
8557.0
 20
-1289.9999999999991
 30
0.0
 11
8557.0
 21
-1266.0
 31
0.0
1001
ACDBBLOCKREPETAG
1070
     1
1071
        4
1005
0
  0
LINE
  5
126F6C
  8
OBJECT
 10
8414.9999999999909
 20
-1015.999999999999
 30
0.0
 11
8415.0
 21
-1137.699682809143
 31
0.0
1001
ACDBBLOCKREPETAG
1070
     1
1071
        5
1005
0
  0
LINE
  5
126F6D
  8
OBJECT
 10
8585.0000000000055
 20
-1015.999999999999
 30
0.0
 11
8585.0
 21
-1137.6996828091719
 31
0.0
1001
ACDBBLOCKREPETAG
1070
     1
1071
        6
1005
0
  0
LINE
  5
126F6E
  8
OBJECT
 10
8415.0
 20
-1137.699682809143
 30
0.0
 11
8433.0422321049627
 21
-1266.0
 31
0.0
1001
ACDBBLOCKREPETAG
1070
     1
1071
        7
1005
0
  0
LINE
  5
126F6F
  8
OBJECT
 10
8566.9577678950409
 20
-1266.0
 30
0.0
 11
8585.0
 21
-1137.6996828091719
 31
0.0
1001
ACDBBLOCKREPETAG
1070
     1
1071
        8
1005
0
  0
LINE
  5
126F70
  8
OBJECT
 10
8585.0000000000055
 20
-1015.999999999999
 30
0.0
 11
8414.9999999999909
 21
-1015.999999999999
 31
0.0
1001
ACDBBLOCKREPETAG
1070
     1
1071
        9
1005
0
  0
LINE
  5
126F71
  8
SLIM
 10
12414.999999999991
 20
-1032.2369265471771
 30
0.0
 11
12431.23692654717
 21
-1016.0
 31
0.0
1001
ACAD
1010
0.0
1020
0.0
1030
0.0
  0
LINE
  5
126F72
  8
SLIM
 10
12414.999999999991
 20
-1050.197438789314
 30
0.0
 11
12449.19743878931
 21
-1016.0
 31
0.0
1001
ACAD
1010
0.0
1020
0.0
1030
0.0
  0
LINE
  5
126F73
  8
SLIM
 10
12414.999999999991
 20
-1068.15795103145
 30
0.0
 11
12467.15795103144
 21
-1016.0
 31
0.0
1001
ACAD
1010
0.0
1020
0.0
1030
0.0
  0
LINE
  5
126F74
  8
SLIM
 10
12414.999999999991
 20
-1086.1184632735881
 30
0.0
 11
12485.11846327358
 21
-1016.0
 31
0.0
1001
ACAD
1010
0.0
1020
0.0
1030
0.0
  0
LINE
  5
126F75
  8
SLIM
 10
12415.0
 20
-1104.0789755157259
 30
0.0
 11
12503.07897551572
 21
-1016.0
 31
0.0
1001
ACAD
1010
0.0
1020
0.0
1030
0.0
  0
LINE
  5
126F76
  8
SLIM
 10
12415.0
 20
-1122.0394877578631
 30
0.0
 11
12521.03948775786
 21
-1016.0
 31
0.0
1001
ACAD
1010
0.0
1020
0.0
1030
0.0
  0
LINE
  5
126F77
  8
SLIM
 10
12415.283600749561
 20
-1139.716399250442
 30
0.0
 11
12539.0
 21
-1016.0
 31
0.0
1001
ACAD
1010
0.0
1020
0.0
1030
0.0
  0
LINE
  5
126F78
  8
SLIM
 10
12417.49791047804
 20
-1155.4626017640981
 30
0.0
 11
12556.96051224214
 21
-1016.0
 31
0.0
1001
ACAD
1010
0.0
1020
0.0
1030
0.0
  0
LINE
  5
126F79
  8
SLIM
 10
12419.71222020652
 20
-1171.208804277753
 30
0.0
 11
12574.921024484271
 21
-1016.0
 31
0.0
1001
ACAD
1010
0.0
1020
0.0
1030
0.0
  0
LINE
  5
126F7A
  8
SLIM
 10
12421.92652993501
 20
-1186.9550067914081
 30
0.0
 11
12585.000000000009
 21
-1023.8815367264079
 31
0.0
1001
ACAD
1010
0.0
1020
0.0
1030
0.0
  0
LINE
  5
126F7B
  8
SLIM
 10
12424.140839663491
 20
-1202.7012093050639
 30
0.0
 11
12585.0
 21
-1041.8420489685479
 31
0.0
1001
ACAD
1010
0.0
1020
0.0
1030
0.0
  0
LINE
  5
126F7C
  8
SLIM
 10
12426.35514939196
 20
-1218.447411818719
 30
0.0
 11
12585.0
 21
-1059.802561210686
 31
0.0
1001
ACAD
1010
0.0
1020
0.0
1030
0.0
  0
LINE
  5
126F7D
  8
SLIM
 10
12428.56945912045
 20
-1234.193614332374
 30
0.0
 11
12585.0
 21
-1077.7630734528259
 31
0.0
1001
ACAD
1010
0.0
1020
0.0
1030
0.0
  0
LINE
  5
126F7E
  8
SLIM
 10
12430.78376884894
 20
-1249.93981684603
 30
0.0
 11
12585.0
 21
-1095.723585694966
 31
0.0
1001
ACAD
1010
0.0
1020
0.0
1030
0.0
  0
LINE
  5
126F7F
  8
SLIM
 10
12432.998078577421
 20
-1265.6860193596849
 30
0.0
 11
12585.0
 21
-1113.684097937105
 31
0.0
1001
ACAD
1010
0.0
1020
0.0
1030
0.0
  0
LINE
  5
126F80
  8
SLIM
 10
12432.999999999991
 20
-1283.6446101792519
 30
0.0
 11
12585.0
 21
-1131.6446101792451
 31
0.0
1001
ACAD
1010
0.0
1020
0.0
1030
0.0
  0
LINE
  5
126F81
  8
SLIM
 10
12432.999999999991
 20
-1301.60512242139
 30
0.0
 11
12583.05183715436
 21
-1151.553285267016
 31
0.0
1001
ACAD
1010
0.0
1020
0.0
1030
0.0
  0
LINE
  5
126F82
  8
SLIM
 10
12446.565634663521
 20
-1305.999999999997
 30
0.0
 11
12580.11284424201
 21
-1172.452790421504
 31
0.0
1001
ACAD
1010
0.0
1020
0.0
1030
0.0
  0
LINE
  5
126F83
  8
SLIM
 10
12464.52614690566
 20
-1305.999999999998
 30
0.0
 11
12577.17385132967
 21
-1193.352295575992
 31
0.0
1001
ACAD
1010
0.0
1020
0.0
1030
0.0
  0
LINE
  5
126F84
  8
SLIM
 10
12482.4866591478
 20
-1305.999999999998
 30
0.0
 11
12574.23485841732
 21
-1214.2518007304791
 31
0.0
1001
ACAD
1010
0.0
1020
0.0
1030
0.0
  0
LINE
  5
126F85
  8
SLIM
 10
12500.44717138994
 20
-1305.999999999998
 30
0.0
 11
12571.29586550497
 21
-1235.1513058849671
 31
0.0
1001
ACAD
1010
0.0
1020
0.0
1030
0.0
  0
LINE
  5
126F86
  8
SLIM
 10
12518.40768363208
 20
-1305.9999999999991
 30
0.0
 11
12568.35687259262
 21
-1256.0508110394539
 31
0.0
1001
ACAD
1010
0.0
1020
0.0
1030
0.0
  0
LINE
  5
126F87
  8
SLIM
 10
12536.368195874211
 20
-1305.9999999999991
 30
0.0
 11
12567.000000000009
 21
-1275.368195874202
 31
0.0
1001
ACAD
1010
0.0
1020
0.0
1030
0.0
  0
LINE
  5
126F88
  8
SLIM
 10
12554.328708116351
 20
-1306.0
 30
0.0
 11
12567.000000000009
 21
-1293.328708116341
 31
0.0
1001
ACAD
1010
0.0
1020
0.0
1030
0.0
  0
LINE
  5
126F89
  8
OBJECT
 10
12432.999999999991
 20
-1305.999999999997
 30
0.0
 11
12567.000000000009
 21
-1306.0
 31
0.0
1001
ACDBBLOCKREPETAG
1070
     1
1071
        1
1005
126F89
  0
LINE
  5
126F8A
  8
OBJECT
 10
12414.999999999991
 20
-1016.0
 30
0.0
 11
12415.0
 21
-1137.6996828091419
 31
0.0
1001
ACDBBLOCKREPETAG
1070
     1
1071
        2
1005
126F8A
  0
LINE
  5
126F8B
  8
OBJECT
 10
12585.000000000009
 20
-1016.0
 30
0.0
 11
12585.0
 21
-1137.6996828091731
 31
0.0
1001
ACDBBLOCKREPETAG
1070
     1
1071
        3
1005
126F8B
  0
LINE
  5
126F8C
  8
OBJECT
 10
12415.0
 20
-1137.6996828091419
 30
0.0
 11
12432.999999999991
 21
-1265.6996828090821
 31
0.0
1001
ACDBBLOCKREPETAG
1070
     1
1071
        4
1005
126F8C
  0
LINE
  5
126F8D
  8
OBJECT
 10
12567.000000000009
 20
-1265.6996828091289
 30
0.0
 11
12585.0
 21
-1137.6996828091731
 31
0.0
1001
ACDBBLOCKREPETAG
1070
     1
1071
        5
1005
126F8D
  0
LINE
  5
126F8E
  8
OBJECT
 10
12585.000000000009
 20
-1016.0
 30
0.0
 11
12414.999999999991
 21
-1016.0
 31
0.0
1001
ACDBBLOCKREPETAG
1070
     1
1071
        6
1005
126F8E
  0
LINE
  5
126F8F
  8
OBJECT
 10
12432.999999999991
 20
-1265.6996828090821
 30
0.0
 11
12432.999999999991
 21
-1305.999999999997
 31
0.0
1001
ACDBBLOCKREPETAG
1070
     1
1071
        8
1005
126F8F
  0
LINE
  5
126F90
  8
OBJECT
 10
12567.000000000009
 20
-1265.6996828091289
 30
0.0
 11
12567.000000000009
 21
-1306.0
 31
0.0
1001
ACDBBLOCKREPETAG
1070
     1
1071
        9
1005
126F90
  0
TEXT
  5
126F91
  8
SLIM
 10
97.714285714225255
 20
-1707.9999999996919
 30
0.0
 40
48.0
  1
A0030
 41
0.75
1001
ACDBBLOCKREPETAG
1070
     1
1071
      119
1005
0
  0
TEXT
  5
126F92
  8
SLIM
 10
457.71428571410331
 20
-1243.9999999998499
 30
0.0
 40
48.0
  1
A0020
 41
0.75
1001
ACDBBLOCKREPETAG
1070
     1
1071
      119
1005
0
  0
TEXT
  5
126F93
  8
SLIM
 10
101.1428571427967
 20
-1243.9999999998499
 30
0.0
 40
48.0
  1
A0010
 41
0.75
1001
ACDBBLOCKREPETAG
1070
     1
1071
      119
1005
0
  0
LINE
  5
126F94
  8
OBJECT
 10
2423.0
 20
-570.99999999999432
 30
0.0
 11
2423.0
 21
-549.99999999999432
 31
0.0
1001
ACDBBLOCKREPETAG
1070
     1
1071
        0
1005
126F94
  0
LINE
  5
126F95
  8
OBJECT
 10
2423.0
 20
-549.99999999999432
 30
0.0
 11
2577.0
 21
-549.99999999999432
 31
0.0
1001
ACDBBLOCKREPETAG
1070
     1
1071
        1
1005
126F95
  0
LINE
  5
126F96
  8
HIDDEN
 10
2443.0
 20
-619.99999999999432
 30
0.0
 11
2557.0
 21
-619.99999999999432
 31
0.0
1001
ACDBBLOCKREPETAG
1070
     1
1071
        2
1005
126F96
  0
LINE
  5
126F97
  8
OBJECT
 10
2577.0
 20
-549.99999999999432
 30
0.0
 11
2577.0
 21
-570.99999999999432
 31
0.0
1001
ACDBBLOCKREPETAG
1070
     1
1071
        3
1005
126F97
  0
LINE
  5
126F98
  8
OBJECT
 10
2577.0
 20
-570.99999999999432
 30
0.0
 11
2423.0
 21
-570.99999999999432
 31
0.0
1001
ACDBBLOCKREPETAG
1070
     1
1071
        4
1005
126F98
  0
LINE
  5
126F99
  8
CENTER
 10
2500.0
 20
-534.99999999999432
 30
0.0
 11
2500.0
 21
-769.9999999999942
 31
0.0
1001
ACDBBLOCKREPETAG
1070
     1
1071
        5
1005
126F99
  0
LINE
  5
126F9A
  8
OBJECT
 10
2425.0
 20
-633.99999999999432
 30
0.0
 11
2425.0
 21
-757.9999999999942
 31
0.0
1001
ACDBBLOCKREPETAG
1070
     1
1071
        6
1005
126F9A
  0
LINE
  5
126F9B
  8
OBJECT
 10
2428.0
 20
-570.99999999999432
 30
0.0
 11
2428.0
 21
-633.99999999999432
 31
0.0
1001
ACDBBLOCKREPETAG
1070
     1
1071
        7
1005
126F9B
  0
LINE
  5
126F9C
  8
OBJECT
 10
2572.0
 20
-633.99999999999432
 30
0.0
 11
2572.0
 21
-570.99999999999432
 31
0.0
1001
ACDBBLOCKREPETAG
1070
     1
1071
        8
1005
126F9C
  0
LINE
  5
126F9D
  8
OBJECT
 10
2420.0
 20
-757.9999999999942
 30
0.0
 11
2580.0
 21
-757.9999999999942
 31
0.0
1001
ACDBBLOCKREPETAG
1070
     1
1071
        9
1005
126F9D
  0
LINE
  5
126F9E
  8
OBJECT
 10
2580.0
 20
-633.99999999999432
 30
0.0
 11
2425.0
 21
-633.99999999999432
 31
0.0
1001
ACDBBLOCKREPETAG
1070
     1
1071
       10
1005
126F9E
  0
LINE
  5
126F9F
  8
OBJECT
 10
2420.0
 20
-757.9999999999942
 30
0.0
 11
2420.0
 21
-769.9999999999942
 31
0.0
1001
ACDBBLOCKREPETAG
1070
     1
1071
       11
1005
126F9F
  0
LINE
  5
126FA0
  8
OBJECT
 10
2420.0
 20
-769.9999999999942
 30
0.0
 11
2580.0
 21
-769.9999999999942
 31
0.0
1001
ACDBBLOCKREPETAG
1070
     1
1071
       12
1005
126FA0
  0
LINE
  5
126FA1
  8
OBJECT
 10
2580.0
 20
-769.9999999999942
 30
0.0
 11
2580.0
 21
-757.9999999999942
 31
0.0
1001
ACDBBLOCKREPETAG
1070
     1
1071
       13
1005
126FA1
  0
ARC
  5
126FA2
  8
OBJECT
 10
2700.6872746716731
 20
-749.40809941010195
 30
0.0
 40
170.6350503965856
 50
137.44134459184301
 51
149.91949581337221
1001
ACDBBLOCKREPETAG
1070
     1
1071
       15
1005
126FA2
  0
ARC
  5
126FA3
  8
OBJECT
 10
2618.8455987040511
 20
-705.88272669535922
 30
0.0
 40
78.072222021763665
 50
147.4551531037684
 51
164.6636599771798
1001
ACDBBLOCKREPETAG
1070
     1
1071
       16
1005
126FA3
  0
ARC
  5
126FA4
  8
OBJECT
 10
2585.7554349608731
 20
-695.99999999999432
 30
0.0
 40
43.55353926885617
 50
165.6884523008477
 51
194.3115476991523
1001
ACDBBLOCKREPETAG
1070
     1
1071
       17
1005
126FA4
  0
ARC
  5
126FA5
  8
OBJECT
 10
2700.6872746716731
 20
-642.59190058988645
 30
0.0
 40
170.6350503965856
 50
210.08050418662771
 51
222.55865540815699
1001
ACDBBLOCKREPETAG
1070
     1
1071
       18
1005
126FA5
  0
ARC
  5
126FA6
  8
OBJECT
 10
2618.8455987040511
 20
-686.11727330462952
 30
0.0
 40
78.072222021763665
 50
195.3363400228202
 51
212.5448468962316
1001
ACDBBLOCKREPETAG
1070
     1
1071
       19
1005
126FA6
  0
LINE
  5
126FA7
  8
OBJECT
 10
2633.0
 20
-634.0
 30
0.0
 11
2640.0
 21
-634.0
 31
0.0
1001
ACDBBLOCKREPETAG
1070
     1
1071
       45
1005
126FA7
  0
LINE
  5
126FA8
  8
OBJECT
 10
2640.0
 20
-634.0
 30
0.0
 11
2640.0
 21
-755.0
 31
0.0
1001
ACDBBLOCKREPETAG
1070
     1
1071
       46
1005
126FA8
  0
LINE
  5
126FA9
  8
OBJECT
 10
2633.0
 20
-755.0
 30
0.0
 11
2633.0
 21
-634.0
 31
0.0
1001
ACDBBLOCKREPETAG
1070
     1
1071
       47
1005
126FA9
  0
LINE
  5
126FAA
  8
CENTER
 10
2655.0
 20
-696.0
 30
0.0
 11
2571.0
 21
-696.0
 31
0.0
1001
ACDBBLOCKREPETAG
1070
     1
1071
       48
1005
126FAA
  0
LINE
  5
126FAB
  8
OBJECT
 10
2633.0
 20
-637.0
 30
0.0
 11
2597.0
 21
-637.0
 31
0.0
1001
ACDBBLOCKREPETAG
1070
     1
1071
       49
1005
126FAB
  0
LINE
  5
126FAC
  8
OBJECT
 10
2597.0
 20
-637.0
 30
0.0
 11
2597.0
 21
-755.0
 31
0.0
1001
ACDBBLOCKREPETAG
1070
     1
1071
       50
1005
126FAC
  0
LINE
  5
126FAD
  8
OBJECT
 10
2597.0
 20
-755.0
 30
0.0
 11
2640.0
 21
-755.0
 31
0.0
1001
ACDBBLOCKREPETAG
1070
     1
1071
       51
1005
126FAD
  0
LINE
  5
126FAE
  8
OBJECT
 10
2593.0
 20
-641.5
 30
0.0
 11
2586.0
 21
-641.5
 31
0.0
1001
ACDBBLOCKREPETAG
1070
     1
1071
       52
1005
126FAE
  0
LINE
  5
126FAF
  8
OBJECT
 10
2586.0
 20
-750.49999999999989
 30
0.0
 11
2593.0
 21
-750.49999999999989
 31
0.0
1001
ACDBBLOCKREPETAG
1070
     1
1071
       53
1005
126FAF
  0
LINE
  5
126FB0
  8
OBJECT
 10
2593.0
 20
-750.49999999999989
 30
0.0
 11
2593.0
 21
-641.5
 31
0.0
1001
ACDBBLOCKREPETAG
1070
     1
1071
       54
1005
126FB0
  0
LINE
  5
126FB1
  8
OBJECT
 10
2597.0
 20
-637.0
 30
0.0
 11
2593.0
 21
-641.5
 31
0.0
1001
ACDBBLOCKREPETAG
1070
     1
1071
       55
1005
126FB1
  0
LINE
  5
126FB2
  8
OBJECT
 10
2597.0
 20
-755.0
 30
0.0
 11
2593.0
 21
-750.49999999999989
 31
0.0
1001
ACDBBLOCKREPETAG
1070
     1
1071
       56
1005
126FB2
  0
LINE
  5
126FB3
  8
OBJECT
 10
2583.0
 20
-634.0
 30
0.0
 11
2580.0
 21
-634.0
 31
0.0
1001
ACDBBLOCKREPETAG
1070
     1
1071
       57
1005
126FB3
  0
ARC
  5
126FB4
  8
OBJECT
 10
2583.0
 20
-637.0
 30
0.0
 40
3.0
 50
0.0
 51
90.0
1001
ACDBBLOCKREPETAG
1070
     1
1071
       58
1005
126FB4
  0
LINE
  5
126FB5
  8
OBJECT
 10
2580.0
 20
-758.0
 30
0.0
 11
2583.0
 21
-758.0
 31
0.0
1001
ACDBBLOCKREPETAG
1070
     1
1071
       59
1005
126FB5
  0
ARC
  5
126FB6
  8
OBJECT
 10
2583.0
 20
-755.0
 30
0.0
 40
3.0
 50
270.0
 51
0.0
1001
ACDBBLOCKREPETAG
1070
     1
1071
       60
1005
126FB6
  0
LINE
  5
126FB7
  8
OBJECT
 10
2586.0
 20
-755.0
 30
0.0
 11
2586.0
 21
-637.0
 31
0.0
1001
ACDBBLOCKREPETAG
1070
     1
1071
       61
1005
126FB7
  0
LINE
  5
126FB8
  8
HIDDEN
 10
2588.0
 20
-651.5
 30
0.0
 11
2588.0
 21
-740.5
 31
0.0
1001
ACDBBLOCKREPETAG
1070
     1
1071
       63
1005
126FB8
  0
TEXT
  5
126FB9
  8
SLIM
 10
0.0000035665234464
 20
-775.9999954146823
 30
0.0
 40
79.999999999972701
  1
下部枝管バリエーション
 41
0.75
1001
ACDBBLOCKREPETAG
1070
     1
1071
      119
1005
120BCB
  0
LINE
  5
126FBA
  8
DIM
 10
2650.0
 20
-3506.9999999999968
 30
0.0
 11
2728.479620594459
 21
-3506.9999999999968
 31
0.0
  0
LINE
  5
126FBB
  8
DIM
 10
2650.0
 20
-3412.9999999999968
 30
0.0
 11
2728.479620594459
 21
-3412.9999999999968
 31
0.0
  0
LINE
  5
126FBC
  8
DIM
 10
2718.479620594459
 20
-3486.9999999999959
 30
0.0
 11
2718.479620594459
 21
-3432.9999999999959
 31
0.0
  0
INSERT
  5
126FBD
  8
DIM
  2
_OPEN30
 10
2718.479620594459
 20
-3506.9999999999968
 30
0.0
 41
20.0
 42
20.0
 43
20.0
 50
270.0
  0
INSERT
  5
126FBE
  8
DIM
  2
_OPEN30
 10
2718.479620594459
 20
-3412.9999999999968
 30
0.0
 41
20.0
 42
20.0
 43
20.0
 50
90.0
  0
INSERT
  5
126FBF
  8
OBJECT
  2
*U16
 10
0.0
 20
0.0
 30
0.0
  0
LINE
  5
126FC0
  8
DIM
 10
2650.0
 20
-3864.9999999999968
 30
0.0
 11
2726.8409284037339
 21
-3864.9999999999968
 31
0.0
  0
LINE
  5
126FC1
  8
DIM
 10
2665.0
 20
-3820.9999999999968
 30
0.0
 11
2726.8409284037339
 21
-3820.9999999999968
 31
0.0
  0
LINE
  5
126FC2
  8
DIM
 10
2716.8409284037339
 20
-3884.9999999999991
 30
0.0
 11
2716.8409284037339
 21
-3904.9999999999968
 31
0.0
  0
LINE
  5
126FC3
  8
DIM
 10
2716.8409284037339
 20
-3800.9999999999982
 30
0.0
 11
2716.8409284037339
 21
-3780.9999999999968
 31
0.0
  0
LINE
  5
126FC4
  8
DIM
 10
2716.8409284037339
 20
-3864.9999999999968
 30
0.0
 11
2716.8409284037339
 21
-3820.9999999999968
 31
0.0
  0
INSERT
  5
126FC5
  8
DIM
  2
_OPEN30
 10
2716.8409284037339
 20
-3864.9999999999968
 30
0.0
 41
20.0
 42
20.0
 43
20.0
 50
90.0
  0
INSERT
  5
126FC6
  8
DIM
  2
_OPEN30
 10
2716.8409284037339
 20
-3820.9999999999968
 30
0.0
 41
20.0
 42
20.0
 43
20.0
 50
270.0
  0
INSERT
  5
126FC7
  8
OBJECT
  2
*U17
 10
0.0
 20
0.0
 30
0.0
  0
LINE
  5
126FC8
  8
DIM
 10
2500.0
 20
-3359.9999999999968
 30
0.0
 11
2500.0
 21
-3322.208121984444
 31
0.0
  0
LINE
  5
126FC9
  8
DIM
 10
2640.0
 20
-3402.9999999999968
 30
0.0
 11
2640.0
 21
-3322.208121984444
 31
0.0
  0
LINE
  5
126FCA
  8
DIM
 10
2520.0
 20
-3332.208121984444
 30
0.0
 11
2620.0
 21
-3332.208121984444
 31
0.0
  0
INSERT
  5
126FCB
  8
DIM
  2
_OPEN30
 10
2500.0
 20
-3332.208121984444
 30
0.0
 41
20.0
 42
20.0
 43
20.0
 50
180.0
  0
INSERT
  5
126FCC
  8
DIM
  2
_OPEN30
 10
2640.0
 20
-3332.208121984444
 30
0.0
 41
20.0
 42
20.0
 43
20.0
  0
INSERT
  5
126FCD
  8
OBJECT
  2
*U18
 10
0.0
 20
0.0
 30
0.0
  0
TEXT
  5
126FCE
  8
SLIM
 10
3270.9999999999991
 20
-3237.5000160472709
 30
0.0
 40
40.0
  1
C寸法
 41
0.75
  0
TEXT
  5
126FCF
  8
SLIM
 10
3270.9999999999991
 20
-3167.5000160472709
 30
0.0
 40
40.0
  1
B寸法
 41
0.75
  0
TEXT
  5
126FD0
  8
SLIM
 10
3270.2857142857151
 20
-3097.5000160472709
 30
0.0
 40
40.0
  1
A寸法
 41
0.75
  0
TEXT
  5
126FD1
  8
SLIM
 10
3669.2857142857142
 20
-3237.5000160472709
 30
0.0
 40
40.0
  1
140
 41
0.75
  0
TEXT
  5
126FD2
  8
SLIM
 10
3409.2857142857151
 20
-3237.5000160472709
 30
0.0
 40
40.0
  1
140
 41
0.75
  0
TEXT
  5
126FD3
  8
SLIM
 10
3539.2857142857151
 20
-3237.5000160472709
 30
0.0
 40
40.0
  1
140
 41
0.75
  0
TEXT
  5
126FD4
  8
SLIM
 10
3681.4285714285711
 20
-3167.5000160472709
 30
0.0
 40
40.0
  1
59
 41
0.75
  0
TEXT
  5
126FD5
  8
SLIM
 10
3420.0
 20
-3167.5000160472709
 30
0.0
 40
40.0
  1
44
 41
0.75
  0
TEXT
  5
126FD6
  8
SLIM
 10
3550.7142857142849
 20
-3167.5000160472709
 30
0.0
 40
40.0
  1
52
 41
0.75
  0
TEXT
  5
126FD7
  8
SLIM
 10
3471.0
 20
-2972.5000160472709
 30
0.0
 40
40.0
  1
横枝管サイズ
 41
0.75
  0
TEXT
  5
126FD8
  8
SLIM
 10
3654.8571428571422
 20
-3027.50001604727
 30
0.0
 40
30.0
  1
75（3）
 41
0.75
  0
TEXT
  5
126FD9
  8
SLIM
 10
3524.8571428571422
 20
-3027.50001604727
 30
0.0
 40
30.0
  1
65（2）
 41
0.75
  0
TEXT
  5
126FDA
  8
SLIM
 10
3397.0
 20
-3027.50001604727
 30
0.0
 40
30.0
  1
50（1）
 41
0.75
  0
TEXT
  5
126FDB
  8
SLIM
 10
3668.5714285714289
 20
-3097.5000160472709
 30
0.0
 40
40.0
  1
124
 41
0.75
  0
TEXT
  5
126FDC
  8
SLIM
 10
3420.0
 20
-3097.5000160472709
 30
0.0
 40
40.0
  1
94
 41
0.75
  0
TEXT
  5
126FDD
  8
SLIM
 10
3542.142857142856
 20
-3097.5000160472709
 30
0.0
 40
40.0
  1
110
 41
0.75
  0
TEXT
  5
126FDE
  8
SLIM
 10
2349.9999999999991
 20
-2997.5
 30
0.0
 40
75.0
  1
下部枝管サイズ毎の形状
 41
0.75
  0
TEXT
  5
126FDF
  8
SLIM
 10
4394.25
 20
-3982.4999999999968
 30
0.0
 40
35.0
  1
通常枝75（3）
 41
0.75
  0
TEXT
  5
126FE0
  8
SLIM
 10
3394.2499999999991
 20
-3982.4999999999968
 30
0.0
 40
35.0
  1
通常枝65（2）
 41
0.75
  0
TEXT
  5
126FE1
  8
SLIM
 10
2396.75
 20
-3982.4999999999968
 30
0.0
 40
35.0
  1
通常枝50（1）
 41
0.75
  0
TEXT
  5
126FE2
  8
SLIM
 10
2337.75
 20
282.50000000000011
 30
0.0
 40
35.0
  1
（枝管サイズ毎に寸法が異なります。管底の位置は全サイズで同じです）
 41
0.75
  0
TEXT
  5
126FE3
  8
SLIM
 10
2350.0
 20
532.5
 30
0.0
 40
75.0
  1
側面図の代表機種
 41
0.75
  0
TEXT
  5
126FE4
  8
SLIM
 10
2350.0
 20
369.99999999999989
 30
0.0
 40
100.0
  1
4SL2-A3-A0020-P320
 41
0.75
  0
TEXT
  5
126FE5
  8
SLIM
 10
0.0
 20
670.0
 30
0.0
 40
100.0
  1
4SL2-A3-A00X0-PXXX-S
 41
0.75
  0
TEXT
  5
126FE6
  8
SLIM
 10
0.0
 20
520.0
 30
0.0
 40
100.0
  1
4SL2-A3-A00X0-PXXX-W
 41
0.75
  0
LINE
  5
126FE7
  8
OBJECT
 10
12585.999999999991
 20
-1388.9999999999991
 30
0.0
 11
12585.999999999991
 21
-1398.9999999999991
 31
0.0
1001
ACDBBLOCKREPETAG
1070
     1
1071
      121
1005
126FE7
  0
LINE
  5
126FE8
  8
OBJECT
 10
12569.999999999991
 20
-1388.9999999999991
 30
0.0
 11
12569.999999999991
 21
-1398.9999999999991
 31
0.0
1001
ACDBBLOCKREPETAG
1070
     1
1071
      122
1005
126FE8
  0
LINE
  5
126FE9
  8
OBJECT
 10
12585.999999999991
 20
-1398.9999999999991
 30
0.0
 11
12569.999999999991
 21
-1398.9999999999991
 31
0.0
1001
ACDBBLOCKREPETAG
1070
     1
1071
      123
1005
126FE9
  0
LINE
  5
126FEA
  8
OBJECT
 10
12590.0
 20
-1349.9999999999959
 30
0.0
 11
12424.0
 21
-1349.9999999999959
 31
0.0
1001
ACDBBLOCKREPETAG
1070
     1
1071
      124
1005
126FEA
  0
LINE
  5
126FEB
  8
OBJECT
 10
12590.0
 20
-1364.9999999999991
 30
0.0
 11
12590.0
 21
-1349.9999999999959
 31
0.0
1001
ACDBBLOCKREPETAG
1070
     1
1071
      125
1005
126FEB
  0
LINE
  5
126FEC
  8
OBJECT
 10
12424.0
 20
-1364.9999999999991
 30
0.0
 11
12590.0
 21
-1364.9999999999991
 31
0.0
1001
ACDBBLOCKREPETAG
1070
     1
1071
      126
1005
126FEC
  0
LINE
  5
126FED
  8
OBJECT
 10
12567.49999999998
 20
-1364.9999999999991
 30
0.0
 11
12567.49999999998
 21
-1375.0
 31
0.0
1001
ACDBBLOCKREPETAG
1070
     1
1071
      127
1005
126FED
  0
LINE
  5
126FEE
  8
OBJECT
 10
12572.999999999991
 20
-1375.0
 30
0.0
 11
12572.999999999991
 21
-1364.9999999999991
 31
0.0
1001
ACDBBLOCKREPETAG
1070
     1
1071
      128
1005
126FEE
  0
LINE
  5
126FEF
  8
OBJECT
 10
12582.999999999991
 20
-1375.0
 30
0.0
 11
12582.999999999991
 21
-1364.9999999999991
 31
0.0
1001
ACDBBLOCKREPETAG
1070
     1
1071
      129
1005
126FEF
  0
LINE
  5
126FF0
  8
OBJECT
 10
12424.0
 20
-1375.0
 30
0.0
 11
12424.0
 21
-1388.9999999999959
 31
0.0
1001
ACDBBLOCKREPETAG
1070
     1
1071
      130
1005
126FF0
  0
LINE
  5
126FF1
  8
OBJECT
 10
12590.0
 20
-1375.0
 30
0.0
 11
12590.0
 21
-1388.9999999999959
 31
0.0
1001
ACDBBLOCKREPETAG
1070
     1
1071
      131
1005
126FF1
  0
LINE
  5
126FF2
  8
OBJECT
 10
12424.0
 20
-1388.9999999999959
 30
0.0
 11
12590.0
 21
-1388.9999999999959
 31
0.0
1001
ACDBBLOCKREPETAG
1070
     1
1071
      132
1005
126FF2
  0
LINE
  5
126FF3
  8
OBJECT
 10
12424.0
 20
-1375.0
 30
0.0
 11
12590.0
 21
-1375.0
 31
0.0
1001
ACDBBLOCKREPETAG
1070
     1
1071
      133
1005
126FF3
  0
LINE
  5
126FF4
  8
OBJECT
 10
12432.49999999998
 20
-1364.9999999999991
 30
0.0
 11
12432.49999999998
 21
-1375.0
 31
0.0
1001
ACDBBLOCKREPETAG
1070
     1
1071
      134
1005
126FF4
  0
LINE
  5
126FF5
  8
OBJECT
 10
12434.0
 20
-1313.9999999999959
 30
0.0
 11
12565.999999999991
 21
-1313.9999999999959
 31
0.0
1001
ACDBBLOCKREPETAG
1070
     1
1071
      135
1005
126FF5
  0
LINE
  5
126FF6
  8
OBJECT
 10
12424.0
 20
-1364.9999999999991
 30
0.0
 11
12424.0
 21
-1349.9999999999959
 31
0.0
1001
ACDBBLOCKREPETAG
1070
     1
1071
      136
1005
126FF6
  0
LINE
  5
126FF7
  8
HIDDEN
 10
12443.0
 20
-1324.9999999999991
 30
0.0
 11
12557.0
 21
-1324.9999999999991
 31
0.0
1001
ACDBBLOCKREPETAG
1070
     1
1071
      137
1005
126FF7
  0
LINE
  5
126FF8
  8
OBJECT
 10
12586.999999999991
 20
-1348.2
 30
0.0
 11
12586.999999999991
 21
-1349.9999999999991
 31
0.0
1001
ACDBBLOCKREPETAG
1070
     1
1071
      138
1005
126FF8
  0
LINE
  5
126FF9
  8
OBJECT
 10
12568.999999999991
 20
-1348.2
 30
0.0
 11
12568.999999999991
 21
-1349.9999999999991
 31
0.0
1001
ACDBBLOCKREPETAG
1070
     1
1071
      139
1005
126FF9
  0
LINE
  5
126FFA
  8
OBJECT
 10
12572.249999999991
 20
-1338.5
 30
0.0
 11
12583.749999999991
 21
-1338.5
 31
0.0
1001
ACDBBLOCKREPETAG
1070
     1
1071
      140
1005
126FFA
  0
LINE
  5
126FFB
  8
OBJECT
 10
12572.249999999991
 20
-1338.5
 30
0.0
 11
12572.249999999991
 21
-1348.2
 31
0.0
1001
ACDBBLOCKREPETAG
1070
     1
1071
      141
1005
126FFB
  0
LINE
  5
126FFC
  8
OBJECT
 10
12583.749999999991
 20
-1338.5
 30
0.0
 11
12583.749999999991
 21
-1348.2
 31
0.0
1001
ACDBBLOCKREPETAG
1070
     1
1071
      142
1005
126FFC
  0
LINE
  5
126FFD
  8
OBJECT
 10
12431.99999999998
 20
-1429.9999999999991
 30
0.0
 11
12567.99999999998
 21
-1429.9999999999991
 31
0.0
1001
ACDBBLOCKREPETAG
1070
     1
1071
      143
1005
126FFD
  0
LINE
  5
126FFE
  8
OBJECT
 10
12431.99999999998
 20
-1429.9999999999991
 30
0.0
 11
12431.99999999998
 21
-1388.9999999999991
 31
0.0
1001
ACDBBLOCKREPETAG
1070
     1
1071
      144
1005
126FFE
  0
LINE
  5
126FFF
  8
OBJECT
 10
12567.99999999998
 20
-1429.9999999999991
 30
0.0
 11
12567.99999999998
 21
-1388.9999999999991
 31
0.0
1001
ACDBBLOCKREPETAG
1070
     1
1071
      145
1005
126FFF
  0
LINE
  5
127000
  8
OBJECT
 10
12586.999999999991
 20
-1348.2
 30
0.0
 11
12568.999999999991
 21
-1348.2
 31
0.0
1001
ACDBBLOCKREPETAG
1070
     1
1071
      146
1005
127000
  0
LINE
  5
127001
  8
CENTER
 10
12500.0
 20
-1054.9999999999991
 30
0.0
 11
12500.0
 21
-1444.9999999999991
 31
0.0
1001
ACDBBLOCKREPETAG
1070
     1
1071
      147
1005
127001
  0
LINE
  5
127002
  8
OBJECT
 10
12425.0
 20
-1054.9999999999991
 30
0.0
 11
12425.0
 21
-1136.9999999999959
 31
0.0
1001
ACDBBLOCKREPETAG
1070
     1
1071
      148
1005
127002
  0
LINE
  5
127003
  8
OBJECT
 10
12575.0
 20
-1054.9999999999991
 30
0.0
 11
12575.0
 21
-1136.999999999992
 31
0.0
1001
ACDBBLOCKREPETAG
1070
     1
1071
      149
1005
127003
  0
LINE
  5
127004
  8
OBJECT
 10
12425.0
 20
-1136.9999999999959
 30
0.0
 11
12575.0
 21
-1136.999999999992
 31
0.0
1001
ACDBBLOCKREPETAG
1070
     1
1071
      150
1005
127004
  0
LINE
  5
127005
  8
OBJECT
 10
12443.0
 20
-1313.9999999999959
 30
0.0
 11
12443.0
 21
-1264.999999999992
 31
0.0
1001
ACDBBLOCKREPETAG
1070
     1
1071
      151
1005
127005
  0
LINE
  5
127006
  8
OBJECT
 10
12557.0
 20
-1264.999999999992
 30
0.0
 11
12443.0
 21
-1264.999999999992
 31
0.0
1001
ACDBBLOCKREPETAG
1070
     1
1071
      152
1005
127006
  0
LINE
  5
127007
  8
OBJECT
 10
12557.0
 20
-1264.999999999992
 30
0.0
 11
12557.0
 21
-1313.9999999999959
 31
0.0
1001
ACDBBLOCKREPETAG
1070
     1
1071
      153
1005
127007
  0
LINE
  5
127008
  8
OBJECT
 10
12425.0
 20
-1136.9999999999959
 30
0.0
 11
12443.0
 21
-1264.999999999992
 31
0.0
1001
ACDBBLOCKREPETAG
1070
     1
1071
      154
1005
127008
  0
LINE
  5
127009
  8
OBJECT
 10
12557.0
 20
-1264.999999999992
 30
0.0
 11
12575.0
 21
-1136.999999999992
 31
0.0
1001
ACDBBLOCKREPETAG
1070
     1
1071
      155
1005
127009
  0
LINE
  5
12700A
  8
OBJECT
 10
12434.0
 20
-1349.9999999999959
 30
0.0
 11
12434.0
 21
-1313.9999999999959
 31
0.0
1001
ACDBBLOCKREPETAG
1070
     1
1071
      156
1005
12700A
  0
LINE
  5
12700B
  8
OBJECT
 10
12566.0
 20
-1349.9999999999959
 30
0.0
 11
12565.999999999991
 21
-1313.9999999999959
 31
0.0
1001
ACDBBLOCKREPETAG
1070
     1
1071
      157
1005
12700B
  0
LINE
  5
12700C
  8
OBJECT
 10
12454.75
 20
-1339.699999999993
 30
0.0
 11
12467.25
 21
-1339.699999999993
 31
0.0
1001
ACDBBLOCKREPETAG
1070
     1
1071
      158
1005
12700C
  0
LINE
  5
12700D
  8
OBJECT
 10
12446.0
 20
-1349.9999999999959
 30
0.0
 11
12446.0
 21
-1347.6999999999971
 31
0.0
1001
ACDBBLOCKREPETAG
1070
     1
1071
      159
1005
12700D
  0
LINE
  5
12700E
  8
OBJECT
 10
12476.0
 20
-1349.9999999999959
 30
0.0
 11
12476.0
 21
-1347.6999999999971
 31
0.0
1001
ACDBBLOCKREPETAG
1070
     1
1071
      160
1005
12700E
  0
LINE
  5
12700F
  8
OBJECT
 10
12454.75
 20
-1339.699999999993
 30
0.0
 11
12454.75
 21
-1347.6999999999971
 31
0.0
1001
ACDBBLOCKREPETAG
1070
     1
1071
      161
1005
12700F
  0
LINE
  5
127010
  8
OBJECT
 10
12467.25
 20
-1339.699999999993
 30
0.0
 11
12467.25
 21
-1347.6999999999971
 31
0.0
1001
ACDBBLOCKREPETAG
1070
     1
1071
      162
1005
127010
  0
LINE
  5
127011
  8
OBJECT
 10
12446.0
 20
-1347.6999999999971
 30
0.0
 11
12476.0
 21
-1347.6999999999971
 31
0.0
1001
ACDBBLOCKREPETAG
1070
     1
1071
      163
1005
127011
  0
LINE
  5
127012
  8
OBJECT
 10
12453.0
 20
-1388.9999999999959
 30
0.0
 11
12453.0
 21
-1398.9999999999959
 31
0.0
1001
ACDBBLOCKREPETAG
1070
     1
1071
      164
1005
127012
  0
LINE
  5
127013
  8
OBJECT
 10
12469.0
 20
-1388.9999999999959
 30
0.0
 11
12469.0
 21
-1398.9999999999959
 31
0.0
1001
ACDBBLOCKREPETAG
1070
     1
1071
      165
1005
127013
  0
LINE
  5
127014
  8
OBJECT
 10
12453.0
 20
-1398.9999999999959
 30
0.0
 11
12469.0
 21
-1398.9999999999959
 31
0.0
1001
ACDBBLOCKREPETAG
1070
     1
1071
      166
1005
127014
  0
LINE
  5
127015
  8
OBJECT
 10
12466.0
 20
-1374.9999999999959
 30
0.0
 11
12466.0
 21
-1364.9999999999959
 31
0.0
1001
ACDBBLOCKREPETAG
1070
     1
1071
      167
1005
127015
  0
LINE
  5
127016
  8
OBJECT
 10
12456.0
 20
-1374.9999999999959
 30
0.0
 11
12456.0
 21
-1364.9999999999959
 31
0.0
1001
ACDBBLOCKREPETAG
1070
     1
1071
      168
1005
127016
  0
LINE
  5
127017
  8
OBJECT
 10
10590.0
 20
-1349.9999999999959
 30
0.0
 11
10424.0
 21
-1349.9999999999959
 31
0.0
1001
ACDBBLOCKREPETAG
1070
     1
1071
       12
1005
127017
  0
LINE
  5
127018
  8
OBJECT
 10
10566.0
 20
-1313.9999999999959
 30
0.0
 11
10434.0
 21
-1313.9999999999959
 31
0.0
1001
ACDBBLOCKREPETAG
1070
     1
1071
       13
1005
127018
  0
LINE
  5
127019
  8
OBJECT
 10
10590.0
 20
-1365.0
 30
0.0
 11
10590.0
 21
-1349.9999999999959
 31
0.0
1001
ACDBBLOCKREPETAG
1070
     1
1071
       14
1005
127019
  0
LINE
  5
12701A
  8
OBJECT
 10
10424.0
 20
-1365.0
 30
0.0
 11
10590.0
 21
-1365.0
 31
0.0
1001
ACDBBLOCKREPETAG
1070
     1
1071
       15
1005
12701A
  0
LINE
  5
12701B
  8
OBJECT
 10
10567.49999999998
 20
-1365.0
 30
0.0
 11
10567.49999999998
 21
-1375.0
 31
0.0
1001
ACDBBLOCKREPETAG
1070
     1
1071
       16
1005
12701B
  0
LINE
  5
12701C
  8
OBJECT
 10
10424.0
 20
-1375.0
 30
0.0
 11
10424.0
 21
-1388.9999999999959
 31
0.0
1001
ACDBBLOCKREPETAG
1070
     1
1071
       17
1005
12701C
  0
LINE
  5
12701D
  8
OBJECT
 10
10590.0
 20
-1375.0
 30
0.0
 11
10590.0
 21
-1388.9999999999959
 31
0.0
1001
ACDBBLOCKREPETAG
1070
     1
1071
       18
1005
12701D
  0
LINE
  5
12701E
  8
OBJECT
 10
10424.0
 20
-1388.9999999999959
 30
0.0
 11
10590.0
 21
-1388.9999999999959
 31
0.0
1001
ACDBBLOCKREPETAG
1070
     1
1071
       19
1005
12701E
  0
LINE
  5
12701F
  8
OBJECT
 10
10424.0
 20
-1375.0
 30
0.0
 11
10590.0
 21
-1375.0
 31
0.0
1001
ACDBBLOCKREPETAG
1070
     1
1071
       20
1005
12701F
  0
LINE
  5
127020
  8
OBJECT
 10
10432.49999999998
 20
-1365.0
 30
0.0
 11
10432.49999999998
 21
-1375.0
 31
0.0
1001
ACDBBLOCKREPETAG
1070
     1
1071
       21
1005
127020
  0
LINE
  5
127021
  8
OBJECT
 10
10424.0
 20
-1365.0
 30
0.0
 11
10424.0
 21
-1349.9999999999959
 31
0.0
1001
ACDBBLOCKREPETAG
1070
     1
1071
       22
1005
127021
  0
LINE
  5
127022
  8
HIDDEN
 10
10443.0
 20
-1325.0
 30
0.0
 11
10557.0
 21
-1325.0
 31
0.0
1001
ACDBBLOCKREPETAG
1070
     1
1071
       23
1005
127022
  0
LINE
  5
127023
  8
CENTER
 10
10500.0
 20
-1055.0
 30
0.0
 11
10500.0
 21
-1403.9999999999959
 31
0.0
1001
ACDBBLOCKREPETAG
1070
     1
1071
       24
1005
127023
  0
LINE
  5
127024
  8
OBJECT
 10
10425.0
 20
-1055.0
 30
0.0
 11
10425.0
 21
-1136.9999999999959
 31
0.0
1001
ACDBBLOCKREPETAG
1070
     1
1071
       25
1005
127024
  0
LINE
  5
127025
  8
OBJECT
 10
10575.0
 20
-1055.0
 30
0.0
 11
10575.0
 21
-1136.999999999993
 31
0.0
1001
ACDBBLOCKREPETAG
1070
     1
1071
       26
1005
127025
  0
LINE
  5
127026
  8
OBJECT
 10
10425.0
 20
-1136.9999999999959
 30
0.0
 11
10575.0
 21
-1136.999999999993
 31
0.0
1001
ACDBBLOCKREPETAG
1070
     1
1071
       27
1005
127026
  0
LINE
  5
127027
  8
OBJECT
 10
10557.0
 20
-1313.9999999999959
 30
0.0
 11
10557.0
 21
-1264.999999999993
 31
0.0
1001
ACDBBLOCKREPETAG
1070
     1
1071
       28
1005
127027
  0
LINE
  5
127028
  8
OBJECT
 10
10443.0
 20
-1313.9999999999959
 30
0.0
 11
10443.0
 21
-1264.999999999993
 31
0.0
1001
ACDBBLOCKREPETAG
1070
     1
1071
       29
1005
127028
  0
LINE
  5
127029
  8
OBJECT
 10
10557.0
 20
-1264.999999999993
 30
0.0
 11
10443.0
 21
-1264.999999999993
 31
0.0
1001
ACDBBLOCKREPETAG
1070
     1
1071
       30
1005
127029
  0
LINE
  5
12702A
  8
OBJECT
 10
10425.0
 20
-1136.9999999999959
 30
0.0
 11
10443.0
 21
-1264.999999999993
 31
0.0
1001
ACDBBLOCKREPETAG
1070
     1
1071
       31
1005
12702A
  0
LINE
  5
12702B
  8
OBJECT
 10
10557.0
 20
-1264.999999999993
 30
0.0
 11
10575.0
 21
-1136.999999999993
 31
0.0
1001
ACDBBLOCKREPETAG
1070
     1
1071
       32
1005
12702B
  0
LINE
  5
12702C
  8
OBJECT
 10
10434.0
 20
-1313.9999999999959
 30
0.0
 11
10434.0
 21
-1349.9999999999959
 31
0.0
1001
ACDBBLOCKREPETAG
1070
     1
1071
       33
1005
12702C
  0
LINE
  5
12702D
  8
OBJECT
 10
10566.0
 20
-1313.9999999999959
 30
0.0
 11
10566.0
 21
-1349.9999999999959
 31
0.0
1001
ACDBBLOCKREPETAG
1070
     1
1071
       34
1005
12702D
  0
LINE
  5
12702E
  8
OBJECT
 10
10582.999999999991
 20
-1374.9999999999959
 30
0.0
 11
10582.999999999991
 21
-1364.9999999999959
 31
0.0
1001
ACDBBLOCKREPETAG
1070
     1
1071
       35
1005
12702E
  0
LINE
  5
12702F
  8
OBJECT
 10
10572.999999999991
 20
-1374.9999999999959
 30
0.0
 11
10572.999999999991
 21
-1364.9999999999959
 31
0.0
1001
ACDBBLOCKREPETAG
1070
     1
1071
       36
1005
12702F
  0
LINE
  5
127030
  8
OBJECT
 10
10568.99999999998
 20
-1344.9999999999959
 30
0.0
 11
10568.99999999998
 21
-1349.9999999999959
 31
0.0
1001
ACDBBLOCKREPETAG
1070
     1
1071
       37
1005
127030
  0
LINE
  5
127031
  8
OBJECT
 10
10587.0
 20
-1344.9999999999959
 30
0.0
 11
10587.0
 21
-1349.9999999999959
 31
0.0
1001
ACDBBLOCKREPETAG
1070
     1
1071
       38
1005
127031
  0
LINE
  5
127032
  8
OBJECT
 10
10587.0
 20
-1344.9999999999959
 30
0.0
 11
10568.99999999998
 21
-1344.9999999999959
 31
0.0
1001
ACDBBLOCKREPETAG
1070
     1
1071
       39
1005
127032
  0
LINE
  5
127033
  8
OBJECT
 10
10573.0
 20
-1396.9999999999959
 30
0.0
 11
10573.0
 21
-1399.9999999999959
 31
0.0
1001
ACDBBLOCKREPETAG
1070
     1
1071
       40
1005
127033
  0
LINE
  5
127034
  8
OBJECT
 10
10573.0
 20
-1399.9999999999959
 30
0.0
 11
10583.0
 21
-1399.9999999999959
 31
0.0
1001
ACDBBLOCKREPETAG
1070
     1
1071
       41
1005
127034
  0
LINE
  5
127035
  8
OBJECT
 10
10583.0
 20
-1399.9999999999959
 30
0.0
 11
10583.0
 21
-1396.9999999999959
 31
0.0
1001
ACDBBLOCKREPETAG
1070
     1
1071
       43
1005
127035
  0
LINE
  5
127036
  8
OBJECT
 10
10468.5
 20
-1344.9999999999959
 30
0.0
 11
10451.999999999991
 21
-1344.9999999999959
 31
0.0
1001
ACDBBLOCKREPETAG
1070
     1
1071
       48
1005
127036
  0
LINE
  5
127037
  8
OBJECT
 10
10476.0
 20
-1349.9999999999959
 30
0.0
 11
10476.0
 21
-1347.9999999999959
 31
0.0
1001
ACDBBLOCKREPETAG
1070
     1
1071
       49
1005
127037
  0
LINE
  5
127038
  8
OBJECT
 10
10466.0
 20
-1374.9999999999959
 30
0.0
 11
10466.0
 21
-1364.9999999999959
 31
0.0
1001
ACDBBLOCKREPETAG
1070
     1
1071
       50
1005
127038
  0
LINE
  5
127039
  8
OBJECT
 10
10456.0
 20
-1374.9999999999959
 30
0.0
 11
10456.0
 21
-1364.9999999999959
 31
0.0
1001
ACDBBLOCKREPETAG
1070
     1
1071
       51
1005
127039
  0
LINE
  5
12703A
  8
OBJECT
 10
10451.999999999991
 20
-1344.9999999999959
 30
0.0
 11
10451.999999999991
 21
-1349.9999999999959
 31
0.0
1001
ACDBBLOCKREPETAG
1070
     1
1071
       52
1005
12703A
  0
LINE
  5
12703B
  8
OBJECT
 10
10456.0
 20
-1396.9999999999959
 30
0.0
 11
10456.0
 21
-1399.9999999999959
 31
0.0
1001
ACDBBLOCKREPETAG
1070
     1
1071
       53
1005
12703B
  0
LINE
  5
12703C
  8
OBJECT
 10
10456.0
 20
-1399.9999999999959
 30
0.0
 11
10466.0
 21
-1399.9999999999959
 31
0.0
1001
ACDBBLOCKREPETAG
1070
     1
1071
       54
1005
12703C
  0
LINE
  5
12703D
  8
OBJECT
 10
10451.18504542377
 20
-1396.9999999999959
 30
0.0
 11
10470.814954576221
 21
-1396.9999999999959
 31
0.0
1001
ACDBBLOCKREPETAG
1070
     1
1071
       55
1005
12703D
  0
LINE
  5
12703E
  8
OBJECT
 10
10466.0
 20
-1399.9999999999959
 30
0.0
 11
10466.0
 21
-1396.9999999999959
 31
0.0
1001
ACDBBLOCKREPETAG
1070
     1
1071
       56
1005
12703E
  0
LINE
  5
12703F
  8
OBJECT
 10
10476.0
 20
-1347.9999999999959
 30
0.0
 11
10468.5
 21
-1344.9999999999959
 31
0.0
1001
ACDBBLOCKREPETAG
1070
     1
1071
       57
1005
12703F
  0
LINE
  5
127040
  8
OBJECT
 10
10451.18504542377
 20
-1388.9999999999959
 30
0.0
 11
10451.18504542377
 21
-1396.9999999999959
 31
0.0
1001
ACDBBLOCKREPETAG
1070
     1
1071
      630
1005
127040
  0
LINE
  5
127041
  8
OBJECT
 10
10456.09252271189
 20
-1388.9999999999959
 30
0.0
 11
10456.09252271189
 21
-1396.9999999999959
 31
0.0
1001
ACDBBLOCKREPETAG
1070
     1
1071
      631
1005
127041
  0
LINE
  5
127042
  8
OBJECT
 10
10465.90747728811
 20
-1388.9999999999959
 30
0.0
 11
10465.90747728811
 21
-1396.9999999999959
 31
0.0
1001
ACDBBLOCKREPETAG
1070
     1
1071
      632
1005
127042
  0
LINE
  5
127043
  8
OBJECT
 10
10470.814954576221
 20
-1388.9999999999959
 30
0.0
 11
10470.814954576221
 21
-1396.9999999999959
 31
0.0
1001
ACDBBLOCKREPETAG
1070
     1
1071
      633
1005
127043
  0
LINE
  5
127044
  8
OBJECT
 10
10568.18504542377
 20
-1396.9999999999959
 30
0.0
 11
10587.814954576221
 21
-1396.9999999999959
 31
0.0
1001
ACDBBLOCKREPETAG
1070
     1
1071
      634
1005
127044
  0
LINE
  5
127045
  8
OBJECT
 10
10568.18504542377
 20
-1388.9999999999959
 30
0.0
 11
10568.18504542377
 21
-1396.9999999999959
 31
0.0
1001
ACDBBLOCKREPETAG
1070
     1
1071
      635
1005
127045
  0
LINE
  5
127046
  8
OBJECT
 10
10573.09252271189
 20
-1388.9999999999959
 30
0.0
 11
10573.09252271189
 21
-1396.9999999999959
 31
0.0
1001
ACDBBLOCKREPETAG
1070
     1
1071
      636
1005
127046
  0
LINE
  5
127047
  8
OBJECT
 10
10582.90747728811
 20
-1388.9999999999959
 30
0.0
 11
10582.90747728811
 21
-1396.9999999999959
 31
0.0
1001
ACDBBLOCKREPETAG
1070
     1
1071
      637
1005
127047
  0
LINE
  5
127048
  8
OBJECT
 10
10587.814954576221
 20
-1388.9999999999959
 30
0.0
 11
10587.814954576221
 21
-1396.9999999999959
 31
0.0
1001
ACDBBLOCKREPETAG
1070
     1
1071
      638
1005
127048
  0
LINE
  5
127049
  8
OBJECT
 10
8443.0
 20
-1364.9999999999959
 30
0.0
 11
8557.0
 21
-1364.9999999999959
 31
0.0
1001
ACDBBLOCKREPETAG
1070
     1
1071
        0
1005
127049
  0
LINE
  5
12704A
  8
OBJECT
 10
8443.0
 20
-1364.9999999999959
 30
0.0
 11
8443.0
 21
-1264.9999999999959
 31
0.0
1001
ACDBBLOCKREPETAG
1070
     1
1071
        1
1005
12704A
  0
LINE
  5
12704B
  8
OBJECT
 10
8557.0
 20
-1364.9999999999959
 30
0.0
 11
8557.0
 21
-1264.9999999999959
 31
0.0
1001
ACDBBLOCKREPETAG
1070
     1
1071
        2
1005
12704B
  0
LINE
  5
12704C
  8
OBJECT
 10
8443.0
 20
-1264.9999999999959
 30
0.0
 11
8557.0
 21
-1264.9999999999959
 31
0.0
1001
ACDBBLOCKREPETAG
1070
     1
1071
        3
1005
12704C
  0
LINE
  5
12704D
  8
HIDDEN
 10
8450.0
 20
-1264.9999999999959
 30
0.0
 11
8450.0
 21
-1364.9999999999959
 31
0.0
1001
ACDBBLOCKREPETAG
1070
     1
1071
        4
1005
12704D
  0
LINE
  5
12704E
  8
HIDDEN
 10
8550.0
 20
-1264.9999999999959
 30
0.0
 11
8550.0
 21
-1364.9999999999959
 31
0.0
1001
ACDBBLOCKREPETAG
1070
     1
1071
        5
1005
12704E
  0
LINE
  5
12704F
  8
CENTER
 10
8500.0
 20
-1055.0
 30
0.0
 11
8500.0
 21
-1379.9999999999959
 31
0.0
1001
ACDBBLOCKREPETAG
1070
     1
1071
        6
1005
12704F
  0
LINE
  5
127050
  8
OBJECT
 10
8425.0
 20
-1055.0
 30
0.0
 11
8425.0
 21
-1136.9999999999959
 31
0.0
1001
ACDBBLOCKREPETAG
1070
     1
1071
        7
1005
127050
  0
LINE
  5
127051
  8
OBJECT
 10
8575.0
 20
-1055.0
 30
0.0
 11
8575.0
 21
-1136.9999999999959
 31
0.0
1001
ACDBBLOCKREPETAG
1070
     1
1071
        8
1005
127051
  0
LINE
  5
127052
  8
OBJECT
 10
8425.0
 20
-1136.9999999999959
 30
0.0
 11
8575.0
 21
-1136.9999999999959
 31
0.0
1001
ACDBBLOCKREPETAG
1070
     1
1071
        9
1005
127052
  0
LINE
  5
127053
  8
OBJECT
 10
8425.0
 20
-1136.9999999999959
 30
0.0
 11
8443.0
 21
-1264.9999999999959
 31
0.0
1001
ACDBBLOCKREPETAG
1070
     1
1071
       10
1005
127053
  0
LINE
  5
127054
  8
OBJECT
 10
8557.0
 20
-1264.9999999999959
 30
0.0
 11
8575.0
 21
-1136.9999999999959
 31
0.0
1001
ACDBBLOCKREPETAG
1070
     1
1071
       11
1005
127054
  0
LINE
  5
127055
  8
OBJECT
 10
6585.9999999999927
 20
-1388.9999999999991
 30
0.0
 11
6585.9999999999927
 21
-1398.9999999999991
 31
0.0
1001
ACDBBLOCKREPETAG
1070
     1
1071
      121
1005
127055
  0
LINE
  5
127056
  8
OBJECT
 10
6569.9999999999927
 20
-1388.9999999999991
 30
0.0
 11
6569.9999999999927
 21
-1398.9999999999991
 31
0.0
1001
ACDBBLOCKREPETAG
1070
     1
1071
      122
1005
127056
  0
LINE
  5
127057
  8
OBJECT
 10
6585.9999999999927
 20
-1398.9999999999991
 30
0.0
 11
6569.9999999999927
 21
-1398.9999999999991
 31
0.0
1001
ACDBBLOCKREPETAG
1070
     1
1071
      123
1005
127057
  0
LINE
  5
127058
  8
OBJECT
 10
6590.0
 20
-1349.9999999999959
 30
0.0
 11
6424.0
 21
-1349.9999999999959
 31
0.0
1001
ACDBBLOCKREPETAG
1070
     1
1071
      124
1005
127058
  0
LINE
  5
127059
  8
OBJECT
 10
6590.0
 20
-1364.9999999999991
 30
0.0
 11
6590.0
 21
-1349.9999999999959
 31
0.0
1001
ACDBBLOCKREPETAG
1070
     1
1071
      125
1005
127059
  0
LINE
  5
12705A
  8
OBJECT
 10
6424.0
 20
-1364.9999999999991
 30
0.0
 11
6590.0
 21
-1364.9999999999991
 31
0.0
1001
ACDBBLOCKREPETAG
1070
     1
1071
      126
1005
12705A
  0
LINE
  5
12705B
  8
OBJECT
 10
6567.4999999999873
 20
-1364.9999999999991
 30
0.0
 11
6567.4999999999873
 21
-1375.0
 31
0.0
1001
ACDBBLOCKREPETAG
1070
     1
1071
      127
1005
12705B
  0
LINE
  5
12705C
  8
OBJECT
 10
6572.9999999999927
 20
-1375.0
 30
0.0
 11
6572.9999999999927
 21
-1364.9999999999991
 31
0.0
1001
ACDBBLOCKREPETAG
1070
     1
1071
      128
1005
12705C
  0
LINE
  5
12705D
  8
OBJECT
 10
6582.9999999999927
 20
-1375.0
 30
0.0
 11
6582.9999999999927
 21
-1364.9999999999991
 31
0.0
1001
ACDBBLOCKREPETAG
1070
     1
1071
      129
1005
12705D
  0
LINE
  5
12705E
  8
OBJECT
 10
6424.0
 20
-1375.0
 30
0.0
 11
6424.0
 21
-1388.9999999999959
 31
0.0
1001
ACDBBLOCKREPETAG
1070
     1
1071
      130
1005
12705E
  0
LINE
  5
12705F
  8
OBJECT
 10
6590.0
 20
-1375.0
 30
0.0
 11
6590.0
 21
-1388.9999999999959
 31
0.0
1001
ACDBBLOCKREPETAG
1070
     1
1071
      131
1005
12705F
  0
LINE
  5
127060
  8
OBJECT
 10
6424.0
 20
-1388.9999999999959
 30
0.0
 11
6590.0
 21
-1388.9999999999959
 31
0.0
1001
ACDBBLOCKREPETAG
1070
     1
1071
      132
1005
127060
  0
LINE
  5
127061
  8
OBJECT
 10
6424.0
 20
-1375.0
 30
0.0
 11
6590.0
 21
-1375.0
 31
0.0
1001
ACDBBLOCKREPETAG
1070
     1
1071
      133
1005
127061
  0
LINE
  5
127062
  8
OBJECT
 10
6432.4999999999864
 20
-1364.9999999999991
 30
0.0
 11
6432.4999999999864
 21
-1375.0
 31
0.0
1001
ACDBBLOCKREPETAG
1070
     1
1071
      134
1005
127062
  0
LINE
  5
127063
  8
OBJECT
 10
6434.0
 20
-1313.9999999999959
 30
0.0
 11
6565.9999999999918
 21
-1313.9999999999959
 31
0.0
1001
ACDBBLOCKREPETAG
1070
     1
1071
      135
1005
127063
  0
LINE
  5
127064
  8
OBJECT
 10
6424.0
 20
-1364.9999999999991
 30
0.0
 11
6424.0
 21
-1349.9999999999959
 31
0.0
1001
ACDBBLOCKREPETAG
1070
     1
1071
      136
1005
127064
  0
LINE
  5
127065
  8
HIDDEN
 10
6443.0
 20
-1324.9999999999991
 30
0.0
 11
6557.0
 21
-1324.9999999999991
 31
0.0
1001
ACDBBLOCKREPETAG
1070
     1
1071
      137
1005
127065
  0
LINE
  5
127066
  8
OBJECT
 10
6586.9999999999927
 20
-1348.2
 30
0.0
 11
6586.9999999999927
 21
-1349.9999999999991
 31
0.0
1001
ACDBBLOCKREPETAG
1070
     1
1071
      138
1005
127066
  0
LINE
  5
127067
  8
OBJECT
 10
6568.9999999999909
 20
-1348.2
 30
0.0
 11
6568.9999999999909
 21
-1349.9999999999991
 31
0.0
1001
ACDBBLOCKREPETAG
1070
     1
1071
      139
1005
127067
  0
LINE
  5
127068
  8
OBJECT
 10
6572.2499999999927
 20
-1338.5
 30
0.0
 11
6583.7499999999927
 21
-1338.5
 31
0.0
1001
ACDBBLOCKREPETAG
1070
     1
1071
      140
1005
127068
  0
LINE
  5
127069
  8
OBJECT
 10
6572.2499999999927
 20
-1338.5
 30
0.0
 11
6572.2499999999927
 21
-1348.2
 31
0.0
1001
ACDBBLOCKREPETAG
1070
     1
1071
      141
1005
127069
  0
LINE
  5
12706A
  8
OBJECT
 10
6583.7499999999927
 20
-1338.5
 30
0.0
 11
6583.7499999999927
 21
-1348.2
 31
0.0
1001
ACDBBLOCKREPETAG
1070
     1
1071
      142
1005
12706A
  0
LINE
  5
12706B
  8
OBJECT
 10
6431.9999999999873
 20
-1429.9999999999991
 30
0.0
 11
6567.9999999999873
 21
-1429.9999999999991
 31
0.0
1001
ACDBBLOCKREPETAG
1070
     1
1071
      143
1005
12706B
  0
LINE
  5
12706C
  8
OBJECT
 10
6431.9999999999873
 20
-1429.9999999999991
 30
0.0
 11
6431.9999999999873
 21
-1388.9999999999991
 31
0.0
1001
ACDBBLOCKREPETAG
1070
     1
1071
      144
1005
12706C
  0
LINE
  5
12706D
  8
OBJECT
 10
6567.9999999999873
 20
-1429.9999999999991
 30
0.0
 11
6567.9999999999873
 21
-1388.9999999999991
 31
0.0
1001
ACDBBLOCKREPETAG
1070
     1
1071
      145
1005
12706D
  0
LINE
  5
12706E
  8
OBJECT
 10
6586.9999999999927
 20
-1348.2
 30
0.0
 11
6568.9999999999909
 21
-1348.2
 31
0.0
1001
ACDBBLOCKREPETAG
1070
     1
1071
      146
1005
12706E
  0
LINE
  5
12706F
  8
CENTER
 10
6500.0
 20
-1054.9999999999991
 30
0.0
 11
6500.0
 21
-1444.9999999999991
 31
0.0
1001
ACDBBLOCKREPETAG
1070
     1
1071
      147
1005
12706F
  0
LINE
  5
127070
  8
OBJECT
 10
6425.0
 20
-1054.9999999999991
 30
0.0
 11
6425.0
 21
-1136.9999999999959
 31
0.0
1001
ACDBBLOCKREPETAG
1070
     1
1071
      148
1005
127070
  0
LINE
  5
127071
  8
OBJECT
 10
6575.0
 20
-1054.9999999999991
 30
0.0
 11
6575.0
 21
-1136.999999999992
 31
0.0
1001
ACDBBLOCKREPETAG
1070
     1
1071
      149
1005
127071
  0
LINE
  5
127072
  8
OBJECT
 10
6425.0
 20
-1136.9999999999959
 30
0.0
 11
6575.0
 21
-1136.999999999992
 31
0.0
1001
ACDBBLOCKREPETAG
1070
     1
1071
      150
1005
127072
  0
LINE
  5
127073
  8
OBJECT
 10
6443.0
 20
-1313.9999999999959
 30
0.0
 11
6443.0
 21
-1264.999999999992
 31
0.0
1001
ACDBBLOCKREPETAG
1070
     1
1071
      151
1005
127073
  0
LINE
  5
127074
  8
OBJECT
 10
6557.0
 20
-1264.999999999992
 30
0.0
 11
6443.0
 21
-1264.999999999992
 31
0.0
1001
ACDBBLOCKREPETAG
1070
     1
1071
      152
1005
127074
  0
LINE
  5
127075
  8
OBJECT
 10
6557.0
 20
-1264.999999999992
 30
0.0
 11
6557.0
 21
-1313.9999999999959
 31
0.0
1001
ACDBBLOCKREPETAG
1070
     1
1071
      153
1005
127075
  0
LINE
  5
127076
  8
OBJECT
 10
6425.0
 20
-1136.9999999999959
 30
0.0
 11
6443.0
 21
-1264.999999999992
 31
0.0
1001
ACDBBLOCKREPETAG
1070
     1
1071
      154
1005
127076
  0
LINE
  5
127077
  8
OBJECT
 10
6557.0
 20
-1264.999999999992
 30
0.0
 11
6575.0
 21
-1136.999999999992
 31
0.0
1001
ACDBBLOCKREPETAG
1070
     1
1071
      155
1005
127077
  0
LINE
  5
127078
  8
OBJECT
 10
6434.0
 20
-1349.9999999999959
 30
0.0
 11
6434.0
 21
-1313.9999999999959
 31
0.0
1001
ACDBBLOCKREPETAG
1070
     1
1071
      156
1005
127078
  0
LINE
  5
127079
  8
OBJECT
 10
6566.0
 20
-1349.9999999999959
 30
0.0
 11
6565.9999999999918
 21
-1313.9999999999959
 31
0.0
1001
ACDBBLOCKREPETAG
1070
     1
1071
      157
1005
127079
  0
LINE
  5
12707A
  8
OBJECT
 10
6454.75
 20
-1339.699999999993
 30
0.0
 11
6467.2499999999991
 21
-1339.699999999993
 31
0.0
1001
ACDBBLOCKREPETAG
1070
     1
1071
      158
1005
12707A
  0
LINE
  5
12707B
  8
OBJECT
 10
6446.0
 20
-1349.9999999999959
 30
0.0
 11
6446.0
 21
-1347.6999999999971
 31
0.0
1001
ACDBBLOCKREPETAG
1070
     1
1071
      159
1005
12707B
  0
LINE
  5
12707C
  8
OBJECT
 10
6476.0
 20
-1349.9999999999959
 30
0.0
 11
6476.0
 21
-1347.6999999999971
 31
0.0
1001
ACDBBLOCKREPETAG
1070
     1
1071
      160
1005
12707C
  0
LINE
  5
12707D
  8
OBJECT
 10
6454.75
 20
-1339.699999999993
 30
0.0
 11
6454.75
 21
-1347.6999999999971
 31
0.0
1001
ACDBBLOCKREPETAG
1070
     1
1071
      161
1005
12707D
  0
LINE
  5
12707E
  8
OBJECT
 10
6467.2499999999991
 20
-1339.699999999993
 30
0.0
 11
6467.2499999999991
 21
-1347.6999999999971
 31
0.0
1001
ACDBBLOCKREPETAG
1070
     1
1071
      162
1005
12707E
  0
LINE
  5
12707F
  8
OBJECT
 10
6446.0
 20
-1347.6999999999971
 30
0.0
 11
6476.0
 21
-1347.6999999999971
 31
0.0
1001
ACDBBLOCKREPETAG
1070
     1
1071
      163
1005
12707F
  0
LINE
  5
127080
  8
OBJECT
 10
6453.0
 20
-1388.9999999999959
 30
0.0
 11
6453.0
 21
-1398.9999999999959
 31
0.0
1001
ACDBBLOCKREPETAG
1070
     1
1071
      164
1005
127080
  0
LINE
  5
127081
  8
OBJECT
 10
6469.0
 20
-1388.9999999999959
 30
0.0
 11
6469.0
 21
-1398.9999999999959
 31
0.0
1001
ACDBBLOCKREPETAG
1070
     1
1071
      165
1005
127081
  0
LINE
  5
127082
  8
OBJECT
 10
6453.0
 20
-1398.9999999999959
 30
0.0
 11
6469.0
 21
-1398.9999999999959
 31
0.0
1001
ACDBBLOCKREPETAG
1070
     1
1071
      166
1005
127082
  0
LINE
  5
127083
  8
OBJECT
 10
6466.0
 20
-1374.9999999999959
 30
0.0
 11
6466.0
 21
-1364.9999999999959
 31
0.0
1001
ACDBBLOCKREPETAG
1070
     1
1071
      167
1005
127083
  0
LINE
  5
127084
  8
OBJECT
 10
6456.0
 20
-1374.9999999999959
 30
0.0
 11
6456.0
 21
-1364.9999999999959
 31
0.0
1001
ACDBBLOCKREPETAG
1070
     1
1071
      168
1005
127084
  0
LINE
  5
127085
  8
OBJECT
 10
4590.0
 20
-1349.9999999999959
 30
0.0
 11
4424.0
 21
-1349.9999999999959
 31
0.0
1001
ACDBBLOCKREPETAG
1070
     1
1071
       12
1005
127085
  0
LINE
  5
127086
  8
OBJECT
 10
4566.0
 20
-1313.9999999999959
 30
0.0
 11
4434.0
 21
-1313.9999999999959
 31
0.0
1001
ACDBBLOCKREPETAG
1070
     1
1071
       13
1005
127086
  0
LINE
  5
127087
  8
OBJECT
 10
4590.0
 20
-1365.0
 30
0.0
 11
4590.0
 21
-1349.9999999999959
 31
0.0
1001
ACDBBLOCKREPETAG
1070
     1
1071
       14
1005
127087
  0
LINE
  5
127088
  8
OBJECT
 10
4424.0
 20
-1365.0
 30
0.0
 11
4590.0
 21
-1365.0
 31
0.0
1001
ACDBBLOCKREPETAG
1070
     1
1071
       15
1005
127088
  0
LINE
  5
127089
  8
OBJECT
 10
4567.4999999999864
 20
-1365.0
 30
0.0
 11
4567.4999999999864
 21
-1375.0
 31
0.0
1001
ACDBBLOCKREPETAG
1070
     1
1071
       16
1005
127089
  0
LINE
  5
12708A
  8
OBJECT
 10
4424.0
 20
-1375.0
 30
0.0
 11
4424.0
 21
-1388.9999999999959
 31
0.0
1001
ACDBBLOCKREPETAG
1070
     1
1071
       17
1005
12708A
  0
LINE
  5
12708B
  8
OBJECT
 10
4590.0
 20
-1375.0
 30
0.0
 11
4590.0
 21
-1388.9999999999959
 31
0.0
1001
ACDBBLOCKREPETAG
1070
     1
1071
       18
1005
12708B
  0
LINE
  5
12708C
  8
OBJECT
 10
4424.0
 20
-1388.9999999999959
 30
0.0
 11
4590.0
 21
-1388.9999999999959
 31
0.0
1001
ACDBBLOCKREPETAG
1070
     1
1071
       19
1005
12708C
  0
LINE
  5
12708D
  8
OBJECT
 10
4424.0
 20
-1375.0
 30
0.0
 11
4590.0
 21
-1375.0
 31
0.0
1001
ACDBBLOCKREPETAG
1070
     1
1071
       20
1005
12708D
  0
LINE
  5
12708E
  8
OBJECT
 10
4432.4999999999854
 20
-1365.0
 30
0.0
 11
4432.4999999999854
 21
-1375.0
 31
0.0
1001
ACDBBLOCKREPETAG
1070
     1
1071
       21
1005
12708E
  0
LINE
  5
12708F
  8
OBJECT
 10
4424.0
 20
-1365.0
 30
0.0
 11
4424.0
 21
-1349.9999999999959
 31
0.0
1001
ACDBBLOCKREPETAG
1070
     1
1071
       22
1005
12708F
  0
LINE
  5
127090
  8
HIDDEN
 10
4443.0
 20
-1325.0
 30
0.0
 11
4557.0
 21
-1325.0
 31
0.0
1001
ACDBBLOCKREPETAG
1070
     1
1071
       23
1005
127090
  0
LINE
  5
127091
  8
CENTER
 10
4500.0
 20
-1055.0
 30
0.0
 11
4500.0
 21
-1403.9999999999959
 31
0.0
1001
ACDBBLOCKREPETAG
1070
     1
1071
       24
1005
127091
  0
LINE
  5
127092
  8
OBJECT
 10
4425.0
 20
-1055.0
 30
0.0
 11
4425.0
 21
-1136.9999999999959
 31
0.0
1001
ACDBBLOCKREPETAG
1070
     1
1071
       25
1005
127092
  0
LINE
  5
127093
  8
OBJECT
 10
4575.0
 20
-1055.0
 30
0.0
 11
4575.0
 21
-1136.999999999993
 31
0.0
1001
ACDBBLOCKREPETAG
1070
     1
1071
       26
1005
127093
  0
LINE
  5
127094
  8
OBJECT
 10
4425.0
 20
-1136.9999999999959
 30
0.0
 11
4575.0
 21
-1136.999999999993
 31
0.0
1001
ACDBBLOCKREPETAG
1070
     1
1071
       27
1005
127094
  0
LINE
  5
127095
  8
OBJECT
 10
4557.0
 20
-1313.9999999999959
 30
0.0
 11
4557.0
 21
-1264.999999999993
 31
0.0
1001
ACDBBLOCKREPETAG
1070
     1
1071
       28
1005
127095
  0
LINE
  5
127096
  8
OBJECT
 10
4443.0
 20
-1313.9999999999959
 30
0.0
 11
4443.0
 21
-1264.999999999993
 31
0.0
1001
ACDBBLOCKREPETAG
1070
     1
1071
       29
1005
127096
  0
LINE
  5
127097
  8
OBJECT
 10
4557.0
 20
-1264.999999999993
 30
0.0
 11
4443.0
 21
-1264.999999999993
 31
0.0
1001
ACDBBLOCKREPETAG
1070
     1
1071
       30
1005
127097
  0
LINE
  5
127098
  8
OBJECT
 10
4425.0
 20
-1136.9999999999959
 30
0.0
 11
4443.0
 21
-1264.999999999993
 31
0.0
1001
ACDBBLOCKREPETAG
1070
     1
1071
       31
1005
127098
  0
LINE
  5
127099
  8
OBJECT
 10
4557.0
 20
-1264.999999999993
 30
0.0
 11
4575.0
 21
-1136.999999999993
 31
0.0
1001
ACDBBLOCKREPETAG
1070
     1
1071
       32
1005
127099
  0
LINE
  5
12709A
  8
OBJECT
 10
4434.0
 20
-1313.9999999999959
 30
0.0
 11
4434.0
 21
-1349.9999999999959
 31
0.0
1001
ACDBBLOCKREPETAG
1070
     1
1071
       33
1005
12709A
  0
LINE
  5
12709B
  8
OBJECT
 10
4566.0
 20
-1313.9999999999959
 30
0.0
 11
4566.0
 21
-1349.9999999999959
 31
0.0
1001
ACDBBLOCKREPETAG
1070
     1
1071
       34
1005
12709B
  0
LINE
  5
12709C
  8
OBJECT
 10
4582.9999999999927
 20
-1374.9999999999959
 30
0.0
 11
4582.9999999999927
 21
-1364.9999999999959
 31
0.0
1001
ACDBBLOCKREPETAG
1070
     1
1071
       35
1005
12709C
  0
LINE
  5
12709D
  8
OBJECT
 10
4572.9999999999918
 20
-1374.9999999999959
 30
0.0
 11
4572.9999999999918
 21
-1364.9999999999959
 31
0.0
1001
ACDBBLOCKREPETAG
1070
     1
1071
       36
1005
12709D
  0
LINE
  5
12709E
  8
OBJECT
 10
4568.9999999999864
 20
-1344.9999999999959
 30
0.0
 11
4568.9999999999864
 21
-1349.9999999999959
 31
0.0
1001
ACDBBLOCKREPETAG
1070
     1
1071
       37
1005
12709E
  0
LINE
  5
12709F
  8
OBJECT
 10
4587.0
 20
-1344.9999999999959
 30
0.0
 11
4587.0
 21
-1349.9999999999959
 31
0.0
1001
ACDBBLOCKREPETAG
1070
     1
1071
       38
1005
12709F
  0
LINE
  5
1270A0
  8
OBJECT
 10
4587.0
 20
-1344.9999999999959
 30
0.0
 11
4568.9999999999864
 21
-1344.9999999999959
 31
0.0
1001
ACDBBLOCKREPETAG
1070
     1
1071
       39
1005
1270A0
  0
LINE
  5
1270A1
  8
OBJECT
 10
4573.0
 20
-1396.9999999999959
 30
0.0
 11
4573.0
 21
-1399.9999999999959
 31
0.0
1001
ACDBBLOCKREPETAG
1070
     1
1071
       40
1005
1270A1
  0
LINE
  5
1270A2
  8
OBJECT
 10
4573.0
 20
-1399.9999999999959
 30
0.0
 11
4583.0
 21
-1399.9999999999959
 31
0.0
1001
ACDBBLOCKREPETAG
1070
     1
1071
       41
1005
1270A2
  0
LINE
  5
1270A3
  8
OBJECT
 10
4583.0
 20
-1399.9999999999959
 30
0.0
 11
4583.0
 21
-1396.9999999999959
 31
0.0
1001
ACDBBLOCKREPETAG
1070
     1
1071
       43
1005
1270A3
  0
LINE
  5
1270A4
  8
OBJECT
 10
4468.5
 20
-1344.9999999999959
 30
0.0
 11
4451.9999999999909
 21
-1344.9999999999959
 31
0.0
1001
ACDBBLOCKREPETAG
1070
     1
1071
       48
1005
1270A4
  0
LINE
  5
1270A5
  8
OBJECT
 10
4476.0
 20
-1349.9999999999959
 30
0.0
 11
4476.0
 21
-1347.9999999999959
 31
0.0
1001
ACDBBLOCKREPETAG
1070
     1
1071
       49
1005
1270A5
  0
LINE
  5
1270A6
  8
OBJECT
 10
4466.0
 20
-1374.9999999999959
 30
0.0
 11
4466.0
 21
-1364.9999999999959
 31
0.0
1001
ACDBBLOCKREPETAG
1070
     1
1071
       50
1005
1270A6
  0
LINE
  5
1270A7
  8
OBJECT
 10
4456.0
 20
-1374.9999999999959
 30
0.0
 11
4456.0
 21
-1364.9999999999959
 31
0.0
1001
ACDBBLOCKREPETAG
1070
     1
1071
       51
1005
1270A7
  0
LINE
  5
1270A8
  8
OBJECT
 10
4451.9999999999909
 20
-1344.9999999999959
 30
0.0
 11
4451.9999999999909
 21
-1349.9999999999959
 31
0.0
1001
ACDBBLOCKREPETAG
1070
     1
1071
       52
1005
1270A8
  0
LINE
  5
1270A9
  8
OBJECT
 10
4456.0
 20
-1396.9999999999959
 30
0.0
 11
4456.0
 21
-1399.9999999999959
 31
0.0
1001
ACDBBLOCKREPETAG
1070
     1
1071
       53
1005
1270A9
  0
LINE
  5
1270AA
  8
OBJECT
 10
4456.0
 20
-1399.9999999999959
 30
0.0
 11
4466.0
 21
-1399.9999999999959
 31
0.0
1001
ACDBBLOCKREPETAG
1070
     1
1071
       54
1005
1270AA
  0
LINE
  5
1270AB
  8
OBJECT
 10
4451.185045423772
 20
-1396.9999999999959
 30
0.0
 11
4470.8149545762208
 21
-1396.9999999999959
 31
0.0
1001
ACDBBLOCKREPETAG
1070
     1
1071
       55
1005
1270AB
  0
LINE
  5
1270AC
  8
OBJECT
 10
4466.0
 20
-1399.9999999999959
 30
0.0
 11
4466.0
 21
-1396.9999999999959
 31
0.0
1001
ACDBBLOCKREPETAG
1070
     1
1071
       56
1005
1270AC
  0
LINE
  5
1270AD
  8
OBJECT
 10
4476.0
 20
-1347.9999999999959
 30
0.0
 11
4468.5
 21
-1344.9999999999959
 31
0.0
1001
ACDBBLOCKREPETAG
1070
     1
1071
       57
1005
1270AD
  0
LINE
  5
1270AE
  8
OBJECT
 10
4451.1850454237756
 20
-1388.9999999999959
 30
0.0
 11
4451.1850454237756
 21
-1396.9999999999959
 31
0.0
1001
ACDBBLOCKREPETAG
1070
     1
1071
      630
1005
1270AE
  0
LINE
  5
1270AF
  8
OBJECT
 10
4456.0925227118869
 20
-1388.9999999999959
 30
0.0
 11
4456.0925227118869
 21
-1396.9999999999959
 31
0.0
1001
ACDBBLOCKREPETAG
1070
     1
1071
      631
1005
1270AF
  0
LINE
  5
1270B0
  8
OBJECT
 10
4465.9074772881113
 20
-1388.9999999999959
 30
0.0
 11
4465.9074772881113
 21
-1396.9999999999959
 31
0.0
1001
ACDBBLOCKREPETAG
1070
     1
1071
      632
1005
1270B0
  0
LINE
  5
1270B1
  8
OBJECT
 10
4470.8149545762226
 20
-1388.9999999999959
 30
0.0
 11
4470.8149545762226
 21
-1396.9999999999959
 31
0.0
1001
ACDBBLOCKREPETAG
1070
     1
1071
      633
1005
1270B1
  0
LINE
  5
1270B2
  8
OBJECT
 10
4568.185045423772
 20
-1396.9999999999959
 30
0.0
 11
4587.814954576219
 21
-1396.9999999999959
 31
0.0
1001
ACDBBLOCKREPETAG
1070
     1
1071
      634
1005
1270B2
  0
LINE
  5
1270B3
  8
OBJECT
 10
4568.1850454237783
 20
-1388.9999999999959
 30
0.0
 11
4568.1850454237783
 21
-1396.9999999999959
 31
0.0
1001
ACDBBLOCKREPETAG
1070
     1
1071
      635
1005
1270B3
  0
LINE
  5
1270B4
  8
OBJECT
 10
4573.0925227118869
 20
-1388.9999999999959
 30
0.0
 11
4573.0925227118869
 21
-1396.9999999999959
 31
0.0
1001
ACDBBLOCKREPETAG
1070
     1
1071
      636
1005
1270B4
  0
LINE
  5
1270B5
  8
OBJECT
 10
4582.9074772881122
 20
-1388.9999999999959
 30
0.0
 11
4582.9074772881122
 21
-1396.9999999999959
 31
0.0
1001
ACDBBLOCKREPETAG
1070
     1
1071
      637
1005
1270B5
  0
LINE
  5
1270B6
  8
OBJECT
 10
4587.8149545762226
 20
-1388.9999999999959
 30
0.0
 11
4587.8149545762226
 21
-1396.9999999999959
 31
0.0
1001
ACDBBLOCKREPETAG
1070
     1
1071
      638
1005
1270B6
  0
LINE
  5
1270B7
  8
CENTER
 10
12409.0
 20
-1638.9999999999959
 30
0.0
 11
12605.0
 21
-1638.9999999999959
 31
0.0
1001
ACDBBLOCKREPETAG
1070
     1
1071
       10
1005
1270B7
  0
LINE
  5
1270B8
  8
CENTER
 10
12500.0
 20
-1547.7253355707801
 30
0.0
 11
12500.0
 21
-1730.2746644292131
 31
0.0
1001
ACDBBLOCKREPETAG
1070
     1
1071
       11
1005
1270B8
  0
CIRCLE
  5
1270B9
  8
OBJECT
 10
12500.0
 20
-1638.9999999999959
 30
0.0
 40
50.0
1001
ACDBBLOCKREPETAG
1070
     1
1071
       12
1005
1270B9
  0
CIRCLE
  5
1270BA
  8
OBJECT
 10
12500.0
 20
-1638.9999999999959
 30
0.0
 40
60.0
1001
ACDBBLOCKREPETAG
1070
     1
1071
       13
1005
1270BA
  0
CIRCLE
  5
1270BB
  8
OBJECT
 10
12500.0
 20
-1638.9999999999959
 30
0.0
 40
68.0
1001
ACDBBLOCKREPETAG
1070
     1
1071
       14
1005
1270BB
  0
ARC
  5
1270BC
  8
OBJECT
 10
12577.5
 20
-1638.9999999999959
 30
0.0
 40
12.0
 50
272.10542627221611
 51
87.894573727783893
1001
ACDBBLOCKREPETAG
1070
     1
1071
       15
1005
1270BC
  0
ARC
  5
1270BD
  8
OBJECT
 10
12578.49193548386
 20
-1612.0182271895239
 30
0.0
 40
15.0
 50
198.97051877965251
 51
267.89457372778372
1001
ACDBBLOCKREPETAG
1070
     1
1071
       16
1005
1270BD
  0
ARC
  5
1270BE
  8
OBJECT
 10
12578.49193548386
 20
-1665.981772810464
 30
0.0
 40
15.0
 50
92.105426272216135
 51
161.02948122034729
1001
ACDBBLOCKREPETAG
1070
     1
1071
       17
1005
1270BE
  0
CIRCLE
  5
1270BF
  8
SLIM
 10
12578.0
 20
-1638.9999999999959
 30
0.0
 40
8.0
1001
ACDBBLOCKREPETAG
1070
     1
1071
       18
1005
1270BF
  0
POLYLINE
  5
1270C0
  8
SLIM
 66
     1
 10
0.0
 20
0.0
 30
0.0
 70
     1
1001
ACDBBLOCKREPETAG
1070
     1
1071
       19
1005
1270C0
  0
VERTEX
  5
127329
  8
SLIM
 10
12575.690598923229
 20
-1634.9999999999959
 30
0.0
  0
VERTEX
  5
12732A
  8
SLIM
 10
12573.38119784648
 20
-1638.9999999999959
 30
0.0
  0
VERTEX
  5
12732B
  8
SLIM
 10
12575.690598923229
 20
-1642.9999999999959
 30
0.0
  0
VERTEX
  5
12732C
  8
SLIM
 10
12580.309401076751
 20
-1642.9999999999959
 30
0.0
  0
VERTEX
  5
12732D
  8
SLIM
 10
12582.618802153511
 20
-1638.9999999999959
 30
0.0
  0
VERTEX
  5
12732E
  8
SLIM
 10
12580.309401076751
 20
-1634.9999999999959
 30
0.0
  0
SEQEND
  5
12732F
  8
SLIM
  0
ARC
  5
1270C1
  8
OBJECT
 10
12461.25
 20
-1571.8830312067
 30
0.0
 40
12.0
 50
32.105426272130188
 51
207.89457372768319
1001
ACDBBLOCKREPETAG
1070
     1
1071
       20
1005
1270C1
  0
ARC
  5
1270C2
  8
OBJECT
 10
12437.38713156505
 20
-1584.514876283989
 30
0.0
 40
15.0
 50
318.97051877944762
 51
27.89457372768311
1001
ACDBBLOCKREPETAG
1070
     1
1071
       21
1005
1270C2
  0
ARC
  5
1270C3
  8
OBJECT
 10
12484.120932951069
 20
-1557.533103473517
 30
0.0
 40
15.0
 50
212.10542627213019
 51
281.02948122044069
1001
ACDBBLOCKREPETAG
1070
     1
1071
       22
1005
1270C3
  0
CIRCLE
  5
1270C4
  8
SLIM
 10
12461.0
 20
-1571.450018504808
 30
0.0
 40
7.9999999999999982
1001
ACDBBLOCKREPETAG
1070
     1
1071
       23
1005
1270C4
  0
POLYLINE
  5
1270C5
  8
SLIM
 66
     1
 10
0.0
 20
0.0
 30
0.0
 70
     1
1001
ACDBBLOCKREPETAG
1070
     1
1071
       24
1005
1270C5
  0
VERTEX
  5
127330
  8
SLIM
 10
12458.69059892324
 20
-1575.4500185048089
 30
0.0
  0
VERTEX
  5
127331
  8
SLIM
 10
12463.309401076751
 20
-1575.4500185048089
 30
0.0
  0
VERTEX
  5
127332
  8
SLIM
 10
12465.618802153511
 20
-1571.450018504808
 30
0.0
  0
VERTEX
  5
127333
  8
SLIM
 10
12463.309401076751
 20
-1567.4500185048089
 30
0.0
  0
VERTEX
  5
127334
  8
SLIM
 10
12458.69059892324
 20
-1567.4500185048089
 30
0.0
  0
VERTEX
  5
127335
  8
SLIM
 10
12456.38119784648
 20
-1571.450018504808
 30
0.0
  0
SEQEND
  5
127336
  8
SLIM
  0
ARC
  5
1270C6
  8
OBJECT
 10
12461.25
 20
-1706.1169687932891
 30
0.0
 40
12.0
 50
152.10542627231681
 51
327.89457372786978
1001
ACDBBLOCKREPETAG
1070
     1
1071
       25
1005
1270C6
  0
ARC
  5
1270C7
  8
OBJECT
 10
12484.120932951069
 20
-1720.4668965264721
 30
0.0
 40
15.0
 50
78.970518779559228
 51
147.89457372786981
1001
ACDBBLOCKREPETAG
1070
     1
1071
       26
1005
1270C7
  0
ARC
  5
1270C8
  8
OBJECT
 10
12437.38713156505
 20
-1693.485123716004
 30
0.0
 40
15.0
 50
332.10542627231678
 51
41.029481220552412
1001
ACDBBLOCKREPETAG
1070
     1
1071
       27
1005
1270C8
  0
CIRCLE
  5
1270C9
  8
SLIM
 10
12461.0
 20
-1706.549981495182
 30
0.0
 40
8.0
1001
ACDBBLOCKREPETAG
1070
     1
1071
       28
1005
1270C9
  0
POLYLINE
  5
1270CA
  8
SLIM
 66
     1
 10
0.0
 20
0.0
 30
0.0
 70
     1
1001
ACDBBLOCKREPETAG
1070
     1
1071
       29
1005
1270CA
  0
VERTEX
  5
127337
  8
SLIM
 10
12465.618802153511
 20
-1706.54998149518
 30
0.0
  0
VERTEX
  5
127338
  8
SLIM
 10
12463.309401076751
 20
-1702.5499814951829
 30
0.0
  0
VERTEX
  5
127339
  8
SLIM
 10
12458.69059892324
 20
-1702.54998149518
 30
0.0
  0
VERTEX
  5
12733A
  8
SLIM
 10
12456.38119784648
 20
-1706.549981495182
 30
0.0
  0
VERTEX
  5
12733B
  8
SLIM
 10
12458.69059892322
 20
-1710.54998149518
 30
0.0
  0
VERTEX
  5
12733C
  8
SLIM
 10
12463.309401076751
 20
-1710.5499814951841
 30
0.0
  0
SEQEND
  5
12733D
  8
SLIM
  0
ARC
  5
1270CB
  8
OBJECT
 10
12500.0
 20
-1638.9999999999959
 30
0.0
 40
76.0
 50
34.863837954171863
 51
85.136162045732945
1001
ACDBBLOCKREPETAG
1070
     1
1071
       42
1005
1270CB
  0
ARC
  5
1270CC
  8
OBJECT
 10
12500.0
 20
-1638.9999999999959
 30
0.0
 40
76.0
 50
154.86383795430939
 51
205.1361620456905
1001
ACDBBLOCKREPETAG
1070
     1
1071
       43
1005
1270CC
  0
ARC
  5
1270CD
  8
OBJECT
 10
12500.0
 20
-1638.9999999999959
 30
0.0
 40
76.0
 50
274.86383795426718
 51
325.13616204582797
1001
ACDBBLOCKREPETAG
1070
     1
1071
       44
1005
1270CD
  0
ARC
  5
1270CE
  8
OBJECT
 10
12578.0
 20
-1638.9999999999959
 30
0.0
 40
12.0
 50
325.13616204582797
 51
34.863837954171863
1001
ACDBBLOCKREPETAG
1070
     1
1071
       45
1005
1270CE
  0
LINE
  5
1270CF
  8
OBJECT
 10
12587.84615384616
 20
-1632.140462520134
 30
0.0
 11
12562.35897435904
 21
-1595.556262627535
 31
0.0
1001
ACDBBLOCKREPETAG
1070
     1
1071
       46
1005
1270CF
  0
LINE
  5
1270D0
  8
OBJECT
 10
12587.846153846171
 20
-1645.859537479857
 30
0.0
 11
12562.35897435904
 21
-1682.4437373724591
 31
0.0
1001
ACDBBLOCKREPETAG
1070
     1
1071
       47
1005
1270D0
  0
ARC
  5
1270D1
  8
OBJECT
 10
12461.0
 20
-1571.4500185048109
 30
0.0
 40
12.0
 50
85.136162045942811
 51
154.86383795410001
1001
ACDBBLOCKREPETAG
1070
     1
1071
       48
1005
1270D1
  0
LINE
  5
1270D2
  8
OBJECT
 10
12450.13638936114
 20
-1566.3527678843909
 30
0.0
 11
12431.19713262058
 21
-1606.7174127373471
 31
0.0
1001
ACDBBLOCKREPETAG
1070
     1
1071
       49
1005
1270D2
  0
LINE
  5
1270D3
  8
OBJECT
 10
12462.017456792681
 20
-1559.4932304045269
 30
0.0
 11
12506.443893020371
 21
-1563.273675364886
 31
0.0
1001
ACDBBLOCKREPETAG
1070
     1
1071
       50
1005
1270D3
  0
ARC
  5
1270D4
  8
OBJECT
 10
12461.0
 20
-1706.549981495182
 30
0.0
 40
12.0
 50
205.13616204589991
 51
274.8638379540572
1001
ACDBBLOCKREPETAG
1070
     1
1071
       51
1005
1270D4
  0
LINE
  5
1270D5
  8
OBJECT
 10
12462.01745679269
 20
-1718.506769595464
 30
0.0
 11
12506.44389302036
 21
-1714.726324635106
 31
0.0
1001
ACDBBLOCKREPETAG
1070
     1
1071
       52
1005
1270D5
  0
LINE
  5
1270D6
  8
OBJECT
 10
12450.13638936114
 20
-1711.647232115605
 30
0.0
 11
12431.19713262058
 21
-1671.2825872626429
 31
0.0
1001
ACDBBLOCKREPETAG
1070
     1
1071
       53
1005
1270D6
  0
LINE
  5
1270D7
  8
CENTER
 10
10409.0
 20
-1638.9999999999959
 30
0.0
 11
10605.0
 21
-1638.9999999999959
 31
0.0
1001
ACDBBLOCKREPETAG
1070
     1
1071
        0
1005
1270D7
  0
LINE
  5
1270D8
  8
CENTER
 10
10500.0
 20
-1547.7253355707801
 30
0.0
 11
10500.0
 21
-1730.2746644292131
 31
0.0
1001
ACDBBLOCKREPETAG
1070
     1
1071
        1
1005
1270D8
  0
CIRCLE
  5
1270D9
  8
OBJECT
 10
10500.0
 20
-1638.9999999999959
 30
0.0
 40
50.0
1001
ACDBBLOCKREPETAG
1070
     1
1071
        2
1005
1270D9
  0
CIRCLE
  5
1270DA
  8
OBJECT
 10
10500.0
 20
-1638.9999999999959
 30
0.0
 40
62.0
1001
ACDBBLOCKREPETAG
1070
     1
1071
        3
1005
1270DA
  0
CIRCLE
  5
1270DB
  8
SLIM
 10
10578.0
 20
-1638.9999999999959
 30
0.0
 40
5.0
1001
ACDBBLOCKREPETAG
1070
     1
1071
        4
1005
1270DB
  0
POLYLINE
  5
1270DC
  8
SLIM
 66
     1
 10
0.0
 20
0.0
 30
0.0
 70
     1
1001
ACDBBLOCKREPETAG
1070
     1
1071
        5
1005
1270DC
  0
VERTEX
  5
12733E
  8
SLIM
 10
10573.092522711881
 20
-1630.4999999999959
 30
0.0
  0
VERTEX
  5
12733F
  8
SLIM
 10
10568.18504542377
 20
-1638.9999999999959
 30
0.0
  0
VERTEX
  5
127340
  8
SLIM
 10
10573.092522711881
 20
-1647.4999999999959
 30
0.0
  0
VERTEX
  5
127341
  8
SLIM
 10
10582.90747728811
 20
-1647.4999999999959
 30
0.0
  0
VERTEX
  5
127342
  8
SLIM
 10
10587.814954576221
 20
-1638.9999999999959
 30
0.0
  0
VERTEX
  5
127343
  8
SLIM
 10
10582.90747728811
 20
-1630.4999999999959
 30
0.0
  0
SEQEND
  5
127344
  8
SLIM
  0
CIRCLE
  5
1270DD
  8
SLIM
 10
10461.0
 20
-1571.450018504808
 30
0.0
 40
4.9999999999999991
1001
ACDBBLOCKREPETAG
1070
     1
1071
        6
1005
1270DD
  0
POLYLINE
  5
1270DE
  8
SLIM
 66
     1
 10
0.0
 20
0.0
 30
0.0
 70
     1
1001
ACDBBLOCKREPETAG
1070
     1
1071
        7
1005
1270DE
  0
VERTEX
  5
127345
  8
SLIM
 10
10456.092522711881
 20
-1579.950018504808
 30
0.0
  0
VERTEX
  5
127346
  8
SLIM
 10
10465.90747728811
 20
-1579.950018504808
 30
0.0
  0
VERTEX
  5
127347
  8
SLIM
 10
10470.814954576221
 20
-1571.450018504808
 30
0.0
  0
VERTEX
  5
127348
  8
SLIM
 10
10465.90747728811
 20
-1562.9500185048089
 30
0.0
  0
VERTEX
  5
127349
  8
SLIM
 10
10456.092522711881
 20
-1562.9500185048089
 30
0.0
  0
VERTEX
  5
12734A
  8
SLIM
 10
10451.18504542377
 20
-1571.450018504808
 30
0.0
  0
SEQEND
  5
12734B
  8
SLIM
  0
CIRCLE
  5
1270DF
  8
SLIM
 10
10461.0
 20
-1706.549981495182
 30
0.0
 40
5.0
1001
ACDBBLOCKREPETAG
1070
     1
1071
        8
1005
1270DF
  0
POLYLINE
  5
1270E0
  8
SLIM
 66
     1
 10
0.0
 20
0.0
 30
0.0
 70
     1
1001
ACDBBLOCKREPETAG
1070
     1
1071
        9
1005
1270E0
  0
VERTEX
  5
12734C
  8
SLIM
 10
10470.814954576221
 20
-1706.549981495182
 30
0.0
  0
VERTEX
  5
12734D
  8
SLIM
 10
10465.907477288099
 20
-1698.04998149518
 30
0.0
  0
VERTEX
  5
12734E
  8
SLIM
 10
10456.092522711881
 20
-1698.0499814951841
 30
0.0
  0
VERTEX
  5
12734F
  8
SLIM
 10
10451.18504542377
 20
-1706.54998149518
 30
0.0
  0
VERTEX
  5
127350
  8
SLIM
 10
10456.092522711881
 20
-1715.0499814951829
 30
0.0
  0
VERTEX
  5
127351
  8
SLIM
 10
10465.90747728811
 20
-1715.04998149518
 30
0.0
  0
SEQEND
  5
127352
  8
SLIM
  0
ARC
  5
1270E1
  8
OBJECT
 10
10500.0
 20
-1638.9999999999959
 30
0.0
 40
76.0
 50
34.863837954171863
 51
85.136162045732945
1001
ACDBBLOCKREPETAG
1070
     1
1071
       30
1005
1270E1
  0
ARC
  5
1270E2
  8
OBJECT
 10
10500.0
 20
-1638.9999999999959
 30
0.0
 40
76.0
 50
154.86383795430939
 51
205.1361620456905
1001
ACDBBLOCKREPETAG
1070
     1
1071
       31
1005
1270E2
  0
ARC
  5
1270E3
  8
OBJECT
 10
10500.0
 20
-1638.9999999999959
 30
0.0
 40
76.0
 50
274.86383795426718
 51
325.13616204582797
1001
ACDBBLOCKREPETAG
1070
     1
1071
       32
1005
1270E3
  0
ARC
  5
1270E4
  8
OBJECT
 10
10578.0
 20
-1638.9999999999959
 30
0.0
 40
12.0
 50
325.13616204582797
 51
34.863837954171863
1001
ACDBBLOCKREPETAG
1070
     1
1071
       33
1005
1270E4
  0
LINE
  5
1270E5
  8
OBJECT
 10
10587.84615384616
 20
-1632.140462520134
 30
0.0
 11
10562.35897435904
 21
-1595.556262627535
 31
0.0
1001
ACDBBLOCKREPETAG
1070
     1
1071
       34
1005
1270E5
  0
LINE
  5
1270E6
  8
OBJECT
 10
10587.846153846171
 20
-1645.859537479857
 30
0.0
 11
10562.35897435904
 21
-1682.4437373724591
 31
0.0
1001
ACDBBLOCKREPETAG
1070
     1
1071
       35
1005
1270E6
  0
ARC
  5
1270E7
  8
OBJECT
 10
10461.0
 20
-1571.4500185048109
 30
0.0
 40
12.0
 50
85.136162045942811
 51
154.86383795410001
1001
ACDBBLOCKREPETAG
1070
     1
1071
       36
1005
1270E7
  0
LINE
  5
1270E8
  8
OBJECT
 10
10450.13638936114
 20
-1566.3527678843909
 30
0.0
 11
10431.19713262058
 21
-1606.7174127373471
 31
0.0
1001
ACDBBLOCKREPETAG
1070
     1
1071
       37
1005
1270E8
  0
LINE
  5
1270E9
  8
OBJECT
 10
10462.017456792681
 20
-1559.4932304045269
 30
0.0
 11
10506.443893020371
 21
-1563.273675364886
 31
0.0
1001
ACDBBLOCKREPETAG
1070
     1
1071
       38
1005
1270E9
  0
ARC
  5
1270EA
  8
OBJECT
 10
10461.0
 20
-1706.549981495182
 30
0.0
 40
12.0
 50
205.13616204589991
 51
274.8638379540572
1001
ACDBBLOCKREPETAG
1070
     1
1071
       39
1005
1270EA
  0
LINE
  5
1270EB
  8
OBJECT
 10
10462.01745679269
 20
-1718.506769595464
 30
0.0
 11
10506.44389302036
 21
-1714.726324635106
 31
0.0
1001
ACDBBLOCKREPETAG
1070
     1
1071
       40
1005
1270EB
  0
LINE
  5
1270EC
  8
OBJECT
 10
10450.13638936114
 20
-1711.647232115605
 30
0.0
 11
10431.19713262058
 21
-1671.2825872626429
 31
0.0
1001
ACDBBLOCKREPETAG
1070
     1
1071
       41
1005
1270EC
  0
LINE
  5
1270ED
  8
CENTER
 10
6409.0
 20
-1679.9999999999991
 30
0.0
 11
6605.0
 21
-1679.9999999999991
 31
0.0
1001
ACDBBLOCKREPETAG
1070
     1
1071
       10
1005
1270ED
  0
LINE
  5
1270EE
  8
CENTER
 10
6500.0
 20
-1588.725335570783
 30
0.0
 11
6500.0
 21
-1771.274664429216
 31
0.0
1001
ACDBBLOCKREPETAG
1070
     1
1071
       11
1005
1270EE
  0
CIRCLE
  5
1270EF
  8
OBJECT
 10
6500.0
 20
-1679.9999999999991
 30
0.0
 40
50.0
1001
ACDBBLOCKREPETAG
1070
     1
1071
       12
1005
1270EF
  0
CIRCLE
  5
1270F0
  8
OBJECT
 10
6500.0
 20
-1679.9999999999991
 30
0.0
 40
60.0
1001
ACDBBLOCKREPETAG
1070
     1
1071
       13
1005
1270F0
  0
CIRCLE
  5
1270F1
  8
OBJECT
 10
6500.0
 20
-1679.9999999999991
 30
0.0
 40
68.0
1001
ACDBBLOCKREPETAG
1070
     1
1071
       14
1005
1270F1
  0
ARC
  5
1270F2
  8
OBJECT
 10
6577.5
 20
-1679.9999999999991
 30
0.0
 40
12.0
 50
272.10542627221611
 51
87.894573727783893
1001
ACDBBLOCKREPETAG
1070
     1
1071
       15
1005
1270F2
  0
ARC
  5
1270F3
  8
OBJECT
 10
6578.4919354838639
 20
-1653.018227189528
 30
0.0
 40
15.0
 50
198.9705187796356
 51
267.89457372778372
1001
ACDBBLOCKREPETAG
1070
     1
1071
       16
1005
1270F3
  0
ARC
  5
1270F4
  8
OBJECT
 10
6578.4919354838639
 20
-1706.9817728104681
 30
0.0
 40
15.0
 50
92.105426272216135
 51
161.02948122036429
1001
ACDBBLOCKREPETAG
1070
     1
1071
       17
1005
1270F4
  0
CIRCLE
  5
1270F5
  8
SLIM
 10
6578.0
 20
-1679.9999999999991
 30
0.0
 40
8.0
1001
ACDBBLOCKREPETAG
1070
     1
1071
       18
1005
1270F5
  0
POLYLINE
  5
1270F6
  8
SLIM
 66
     1
 10
0.0
 20
0.0
 30
0.0
 70
     1
1001
ACDBBLOCKREPETAG
1070
     1
1071
       19
1005
1270F6
  0
VERTEX
  5
127353
  8
SLIM
 10
6575.6905989232318
 20
-1675.9999999999991
 30
0.0
  0
VERTEX
  5
127354
  8
SLIM
 10
6573.3811978464792
 20
-1679.9999999999991
 30
0.0
  0
VERTEX
  5
127355
  8
SLIM
 10
6575.6905989232318
 20
-1683.9999999999991
 30
0.0
  0
VERTEX
  5
127356
  8
SLIM
 10
6580.3094010767518
 20
-1683.9999999999991
 30
0.0
  0
VERTEX
  5
127357
  8
SLIM
 10
6582.6188021535127
 20
-1679.9999999999991
 30
0.0
  0
VERTEX
  5
127358
  8
SLIM
 10
6580.3094010767518
 20
-1675.9999999999991
 30
0.0
  0
SEQEND
  5
127359
  8
SLIM
  0
ARC
  5
1270F7
  8
OBJECT
 10
6461.2499999999991
 20
-1612.883031206703
 30
0.0
 40
12.0
 50
32.105426272157878
 51
207.89457372770741
1001
ACDBBLOCKREPETAG
1070
     1
1071
       20
1005
1270F7
  0
ARC
  5
1270F8
  8
OBJECT
 10
6437.3871315650549
 20
-1625.514876283992
 30
0.0
 40
15.0
 50
318.97051877944762
 51
27.894573727707481
1001
ACDBBLOCKREPETAG
1070
     1
1071
       21
1005
1270F8
  0
ARC
  5
1270F9
  8
OBJECT
 10
6484.1209329510693
 20
-1598.53310347352
 30
0.0
 40
15.0
 50
212.1054262721579
 51
281.02948122044069
1001
ACDBBLOCKREPETAG
1070
     1
1071
       22
1005
1270F9
  0
CIRCLE
  5
1270FA
  8
SLIM
 10
6461.0
 20
-1612.4500185048121
 30
0.0
 40
7.9999999999999982
1001
ACDBBLOCKREPETAG
1070
     1
1071
       23
1005
1270FA
  0
POLYLINE
  5
1270FB
  8
SLIM
 66
     1
 10
0.0
 20
0.0
 30
0.0
 70
     1
1001
ACDBBLOCKREPETAG
1070
     1
1071
       24
1005
1270FB
  0
VERTEX
  5
12735A
  8
SLIM
 10
6458.69059892324
 20
-1616.4500185048121
 30
0.0
  0
VERTEX
  5
12735B
  8
SLIM
 10
6463.3094010767518
 20
-1616.4500185048121
 30
0.0
  0
VERTEX
  5
12735C
  8
SLIM
 10
6465.6188021535136
 20
-1612.4500185048121
 30
0.0
  0
VERTEX
  5
12735D
  8
SLIM
 10
6463.3094010767518
 20
-1608.4500185048121
 30
0.0
  0
VERTEX
  5
12735E
  8
SLIM
 10
6458.69059892324
 20
-1608.4500185048121
 30
0.0
  0
VERTEX
  5
12735F
  8
SLIM
 10
6456.3811978464801
 20
-1612.4500185048121
 30
0.0
  0
SEQEND
  5
127360
  8
SLIM
  0
ARC
  5
1270FC
  8
OBJECT
 10
6461.2499999999991
 20
-1747.116968793292
 30
0.0
 40
12.0
 50
152.1054262722925
 51
327.89457372784221
1001
ACDBBLOCKREPETAG
1070
     1
1071
       25
1005
1270FC
  0
ARC
  5
1270FD
  8
OBJECT
 10
6484.1209329510693
 20
-1761.466896526475
 30
0.0
 40
15.0
 50
78.970518779559228
 51
147.8945737278421
1001
ACDBBLOCKREPETAG
1070
     1
1071
       26
1005
1270FD
  0
ARC
  5
1270FE
  8
OBJECT
 10
6437.3871315650549
 20
-1734.4851237160069
 30
0.0
 40
15.0
 50
332.1054262722925
 51
41.029481220552412
1001
ACDBBLOCKREPETAG
1070
     1
1071
       27
1005
1270FE
  0
CIRCLE
  5
1270FF
  8
SLIM
 10
6461.0
 20
-1747.5499814951861
 30
0.0
 40
8.0
1001
ACDBBLOCKREPETAG
1070
     1
1071
       28
1005
1270FF
  0
POLYLINE
  5
127100
  8
SLIM
 66
     1
 10
0.0
 20
0.0
 30
0.0
 70
     1
1001
ACDBBLOCKREPETAG
1070
     1
1071
       29
1005
127100
  0
VERTEX
  5
127361
  8
SLIM
 10
6465.6188021535136
 20
-1747.5499814951829
 30
0.0
  0
VERTEX
  5
127362
  8
SLIM
 10
6463.3094010767518
 20
-1743.549981495187
 30
0.0
  0
VERTEX
  5
127363
  8
SLIM
 10
6458.69059892324
 20
-1743.5499814951829
 30
0.0
  0
VERTEX
  5
127364
  8
SLIM
 10
6456.3811978464801
 20
-1747.5499814951861
 30
0.0
  0
VERTEX
  5
127365
  8
SLIM
 10
6458.6905989232328
 20
-1751.549981495182
 30
0.0
  0
VERTEX
  5
127366
  8
SLIM
 10
6463.3094010767518
 20
-1751.549981495187
 30
0.0
  0
SEQEND
  5
127367
  8
SLIM
  0
ARC
  5
127101
  8
OBJECT
 10
6500.0
 20
-1679.9999999999991
 30
0.0
 40
76.0
 50
34.863837954142063
 51
85.136162045732945
1001
ACDBBLOCKREPETAG
1070
     1
1071
       42
1005
127101
  0
ARC
  5
127102
  8
OBJECT
 10
6500.0
 20
-1679.9999999999991
 30
0.0
 40
76.0
 50
154.86383795430939
 51
205.1361620456905
1001
ACDBBLOCKREPETAG
1070
     1
1071
       43
1005
127102
  0
ARC
  5
127103
  8
OBJECT
 10
6500.0
 20
-1679.9999999999991
 30
0.0
 40
76.0
 50
274.86383795426718
 51
325.13616204585799
1001
ACDBBLOCKREPETAG
1070
     1
1071
       44
1005
127103
  0
ARC
  5
127104
  8
OBJECT
 10
6578.0
 20
-1679.9999999999991
 30
0.0
 40
12.0
 50
325.13616204585799
 51
34.863837954142063
1001
ACDBBLOCKREPETAG
1070
     1
1071
       45
1005
127104
  0
LINE
  5
127105
  8
OBJECT
 10
6587.8461538461661
 20
-1673.1404625201369
 30
0.0
 11
6562.3589743590492
 21
-1636.556262627538
 31
0.0
1001
ACDBBLOCKREPETAG
1070
     1
1071
       46
1005
127105
  0
LINE
  5
127106
  8
OBJECT
 10
6587.8461538461688
 20
-1686.8595374798599
 30
0.0
 11
6562.3589743590492
 21
-1723.4437373724629
 31
0.0
1001
ACDBBLOCKREPETAG
1070
     1
1071
       47
1005
127106
  0
ARC
  5
127107
  8
OBJECT
 10
6461.0
 20
-1612.4500185048139
 30
0.0
 40
12.0
 50
85.136162045942811
 51
154.86383795410001
1001
ACDBBLOCKREPETAG
1070
     1
1071
       48
1005
127107
  0
LINE
  5
127108
  8
OBJECT
 10
6450.1363893611451
 20
-1607.3527678843941
 30
0.0
 11
6431.1971326205858
 21
-1647.7174127373501
 31
0.0
1001
ACDBBLOCKREPETAG
1070
     1
1071
       49
1005
127108
  0
LINE
  5
127109
  8
OBJECT
 10
6462.0174567926842
 20
-1600.4932304045301
 30
0.0
 11
6506.4438930203687
 21
-1604.273675364889
 31
0.0
1001
ACDBBLOCKREPETAG
1070
     1
1071
       50
1005
127109
  0
ARC
  5
12710A
  8
OBJECT
 10
6461.0
 20
-1747.549981495185
 30
0.0
 40
12.0
 50
205.13616204589991
 51
274.8638379540572
1001
ACDBBLOCKREPETAG
1070
     1
1071
       51
1005
12710A
  0
LINE
  5
12710B
  8
OBJECT
 10
6462.0174567926879
 20
-1759.5067695954669
 30
0.0
 11
6506.4438930203651
 21
-1755.7263246351099
 31
0.0
1001
ACDBBLOCKREPETAG
1070
     1
1071
       52
1005
12710B
  0
LINE
  5
12710C
  8
OBJECT
 10
6450.1363893611451
 20
-1752.6472321156079
 30
0.0
 11
6431.1971326205821
 21
-1712.282587262647
 31
0.0
1001
ACDBBLOCKREPETAG
1070
     1
1071
       53
1005
12710C
  0
LINE
  5
12710D
  8
CENTER
 10
4409.0
 20
-1638.9999999999959
 30
0.0
 11
4605.0
 21
-1638.9999999999959
 31
0.0
1001
ACDBBLOCKREPETAG
1070
     1
1071
        0
1005
12710D
  0
LINE
  5
12710E
  8
CENTER
 10
4500.0
 20
-1547.7253355707801
 30
0.0
 11
4500.0
 21
-1730.2746644292131
 31
0.0
1001
ACDBBLOCKREPETAG
1070
     1
1071
        1
1005
12710E
  0
CIRCLE
  5
12710F
  8
OBJECT
 10
4500.0
 20
-1638.9999999999959
 30
0.0
 40
50.0
1001
ACDBBLOCKREPETAG
1070
     1
1071
        2
1005
12710F
  0
CIRCLE
  5
127110
  8
OBJECT
 10
4500.0
 20
-1638.9999999999959
 30
0.0
 40
62.0
1001
ACDBBLOCKREPETAG
1070
     1
1071
        3
1005
127110
  0
CIRCLE
  5
127111
  8
SLIM
 10
4578.0
 20
-1638.9999999999959
 30
0.0
 40
5.0
1001
ACDBBLOCKREPETAG
1070
     1
1071
        4
1005
127111
  0
POLYLINE
  5
127112
  8
SLIM
 66
     1
 10
0.0
 20
0.0
 30
0.0
 70
     1
1001
ACDBBLOCKREPETAG
1070
     1
1071
        5
1005
127112
  0
VERTEX
  5
127368
  8
SLIM
 10
4573.092522711886
 20
-1630.4999999999959
 30
0.0
  0
VERTEX
  5
127369
  8
SLIM
 10
4568.185045423772
 20
-1638.9999999999959
 30
0.0
  0
VERTEX
  5
12736A
  8
SLIM
 10
4573.092522711886
 20
-1647.4999999999959
 30
0.0
  0
VERTEX
  5
12736B
  8
SLIM
 10
4582.9074772881049
 20
-1647.4999999999959
 30
0.0
  0
VERTEX
  5
12736C
  8
SLIM
 10
4587.814954576219
 20
-1638.9999999999959
 30
0.0
  0
VERTEX
  5
12736D
  8
SLIM
 10
4582.9074772881049
 20
-1630.4999999999959
 30
0.0
  0
SEQEND
  5
12736E
  8
SLIM
  0
CIRCLE
  5
127113
  8
SLIM
 10
4461.0
 20
-1571.450018504808
 30
0.0
 40
4.9999999999999991
1001
ACDBBLOCKREPETAG
1070
     1
1071
        6
1005
127113
  0
POLYLINE
  5
127114
  8
SLIM
 66
     1
 10
0.0
 20
0.0
 30
0.0
 70
     1
1001
ACDBBLOCKREPETAG
1070
     1
1071
        7
1005
127114
  0
VERTEX
  5
12736F
  8
SLIM
 10
4456.092522711886
 20
-1579.950018504808
 30
0.0
  0
VERTEX
  5
127370
  8
SLIM
 10
4465.907477288114
 20
-1579.950018504808
 30
0.0
  0
VERTEX
  5
127371
  8
SLIM
 10
4470.8149545762208
 20
-1571.450018504808
 30
0.0
  0
VERTEX
  5
127372
  8
SLIM
 10
4465.907477288114
 20
-1562.9500185048089
 30
0.0
  0
VERTEX
  5
127373
  8
SLIM
 10
4456.092522711886
 20
-1562.9500185048089
 30
0.0
  0
VERTEX
  5
127374
  8
SLIM
 10
4451.185045423772
 20
-1571.450018504808
 30
0.0
  0
SEQEND
  5
127375
  8
SLIM
  0
CIRCLE
  5
127115
  8
SLIM
 10
4461.0
 20
-1706.549981495182
 30
0.0
 40
5.0
1001
ACDBBLOCKREPETAG
1070
     1
1071
        8
1005
127115
  0
POLYLINE
  5
127116
  8
SLIM
 66
     1
 10
0.0
 20
0.0
 30
0.0
 70
     1
1001
ACDBBLOCKREPETAG
1070
     1
1071
        9
1005
127116
  0
VERTEX
  5
127376
  8
SLIM
 10
4470.8149545762208
 20
-1706.549981495182
 30
0.0
  0
VERTEX
  5
127377
  8
SLIM
 10
4465.9074772881067
 20
-1698.04998149518
 30
0.0
  0
VERTEX
  5
127378
  8
SLIM
 10
4456.092522711886
 20
-1698.0499814951841
 30
0.0
  0
VERTEX
  5
127379
  8
SLIM
 10
4451.185045423772
 20
-1706.54998149518
 30
0.0
  0
VERTEX
  5
12737A
  8
SLIM
 10
4456.092522711886
 20
-1715.0499814951829
 30
0.0
  0
VERTEX
  5
12737B
  8
SLIM
 10
4465.907477288114
 20
-1715.04998149518
 30
0.0
  0
SEQEND
  5
12737C
  8
SLIM
  0
ARC
  5
127117
  8
OBJECT
 10
4500.0
 20
-1638.9999999999959
 30
0.0
 40
76.0
 50
34.863837954142063
 51
85.136162045732945
1001
ACDBBLOCKREPETAG
1070
     1
1071
       30
1005
127117
  0
ARC
  5
127118
  8
OBJECT
 10
4500.0
 20
-1638.9999999999959
 30
0.0
 40
76.0
 50
154.86383795430939
 51
205.1361620456905
1001
ACDBBLOCKREPETAG
1070
     1
1071
       31
1005
127118
  0
ARC
  5
127119
  8
OBJECT
 10
4500.0
 20
-1638.9999999999959
 30
0.0
 40
76.0
 50
274.86383795426718
 51
325.13616204585799
1001
ACDBBLOCKREPETAG
1070
     1
1071
       32
1005
127119
  0
ARC
  5
12711A
  8
OBJECT
 10
4578.0
 20
-1638.9999999999959
 30
0.0
 40
12.0
 50
325.13616204585799
 51
34.863837954142063
1001
ACDBBLOCKREPETAG
1070
     1
1071
       33
1005
12711A
  0
LINE
  5
12711B
  8
OBJECT
 10
4587.846153846167
 20
-1632.140462520134
 30
0.0
 11
4562.3589743590492
 21
-1595.556262627535
 31
0.0
1001
ACDBBLOCKREPETAG
1070
     1
1071
       34
1005
12711B
  0
LINE
  5
12711C
  8
OBJECT
 10
4587.8461538461697
 20
-1645.859537479857
 30
0.0
 11
4562.3589743590492
 21
-1682.4437373724591
 31
0.0
1001
ACDBBLOCKREPETAG
1070
     1
1071
       35
1005
12711C
  0
ARC
  5
12711D
  8
OBJECT
 10
4461.0
 20
-1571.4500185048109
 30
0.0
 40
12.0
 50
85.136162045942811
 51
154.86383795410001
1001
ACDBBLOCKREPETAG
1070
     1
1071
       36
1005
12711D
  0
LINE
  5
12711E
  8
OBJECT
 10
4450.1363893611451
 20
-1566.3527678843909
 30
0.0
 11
4431.1971326205839
 21
-1606.7174127373471
 31
0.0
1001
ACDBBLOCKREPETAG
1070
     1
1071
       37
1005
12711E
  0
LINE
  5
12711F
  8
OBJECT
 10
4462.0174567926833
 20
-1559.4932304045269
 30
0.0
 11
4506.4438930203669
 21
-1563.273675364886
 31
0.0
1001
ACDBBLOCKREPETAG
1070
     1
1071
       38
1005
12711F
  0
ARC
  5
127120
  8
OBJECT
 10
4461.0
 20
-1706.549981495182
 30
0.0
 40
12.0
 50
205.13616204589991
 51
274.8638379540572
1001
ACDBBLOCKREPETAG
1070
     1
1071
       39
1005
127120
  0
LINE
  5
127121
  8
OBJECT
 10
4462.0174567926879
 20
-1718.506769595464
 30
0.0
 11
4506.4438930203651
 21
-1714.726324635106
 31
0.0
1001
ACDBBLOCKREPETAG
1070
     1
1071
       40
1005
127121
  0
LINE
  5
127122
  8
OBJECT
 10
4450.1363893611451
 20
-1711.647232115605
 30
0.0
 11
4431.1971326205821
 21
-1671.2825872626429
 31
0.0
1001
ACDBBLOCKREPETAG
1070
     1
1071
       41
1005
127122
  0
LINE
  5
127123
  8
OBJECT
 10
2443.0
 20
-1364.9999999999959
 30
0.0
 11
2557.0
 21
-1364.9999999999959
 31
0.0
1001
ACDBBLOCKREPETAG
1070
     1
1071
        0
1005
127123
  0
LINE
  5
127124
  8
OBJECT
 10
2443.0
 20
-1364.9999999999959
 30
0.0
 11
2443.0
 21
-1264.9999999999959
 31
0.0
1001
ACDBBLOCKREPETAG
1070
     1
1071
        1
1005
127124
  0
LINE
  5
127125
  8
OBJECT
 10
2557.0
 20
-1364.9999999999959
 30
0.0
 11
2557.0
 21
-1264.9999999999959
 31
0.0
1001
ACDBBLOCKREPETAG
1070
     1
1071
        2
1005
127125
  0
LINE
  5
127126
  8
OBJECT
 10
2443.0
 20
-1264.9999999999959
 30
0.0
 11
2557.0
 21
-1264.9999999999959
 31
0.0
1001
ACDBBLOCKREPETAG
1070
     1
1071
        3
1005
127126
  0
LINE
  5
127127
  8
HIDDEN
 10
2450.0
 20
-1264.9999999999959
 30
0.0
 11
2450.0
 21
-1364.9999999999959
 31
0.0
1001
ACDBBLOCKREPETAG
1070
     1
1071
        4
1005
127127
  0
LINE
  5
127128
  8
HIDDEN
 10
2550.0
 20
-1264.9999999999959
 30
0.0
 11
2550.0
 21
-1364.9999999999959
 31
0.0
1001
ACDBBLOCKREPETAG
1070
     1
1071
        5
1005
127128
  0
LINE
  5
127129
  8
CENTER
 10
2500.0
 20
-1055.0
 30
0.0
 11
2500.0
 21
-1379.9999999999959
 31
0.0
1001
ACDBBLOCKREPETAG
1070
     1
1071
        6
1005
127129
  0
LINE
  5
12712A
  8
OBJECT
 10
2425.0
 20
-1055.0
 30
0.0
 11
2425.0
 21
-1136.9999999999959
 31
0.0
1001
ACDBBLOCKREPETAG
1070
     1
1071
        7
1005
12712A
  0
LINE
  5
12712B
  8
OBJECT
 10
2575.0
 20
-1055.0
 30
0.0
 11
2575.0
 21
-1136.9999999999959
 31
0.0
1001
ACDBBLOCKREPETAG
1070
     1
1071
        8
1005
12712B
  0
LINE
  5
12712C
  8
OBJECT
 10
2425.0
 20
-1136.9999999999959
 30
0.0
 11
2575.0
 21
-1136.9999999999959
 31
0.0
1001
ACDBBLOCKREPETAG
1070
     1
1071
        9
1005
12712C
  0
LINE
  5
12712D
  8
OBJECT
 10
2425.0
 20
-1136.9999999999959
 30
0.0
 11
2443.0
 21
-1264.9999999999959
 31
0.0
1001
ACDBBLOCKREPETAG
1070
     1
1071
       10
1005
12712D
  0
LINE
  5
12712E
  8
OBJECT
 10
2557.0
 20
-1264.9999999999959
 30
0.0
 11
2575.0
 21
-1136.9999999999959
 31
0.0
1001
ACDBBLOCKREPETAG
1070
     1
1071
       11
1005
12712E
  0
TEXT
  5
12712F
  8
SLIM
 10
4353.75
 20
-1906.4999999999959
 30
0.0
 40
35.0
  1
両受けスタイル（W）
 41
0.75
  0
TEXT
  5
127130
  8
SLIM
 10
10239.125
 20
-1906.4999999999959
 30
0.0
 40
35.0
  1
両受けスタイル（W）＋シンドカット
 41
0.75
  0
TEXT
  5
127131
  8
SLIM
 10
12243.5
 20
-1906.4999999999959
 30
0.0
 40
35.0
  1
カンペイ君（WKP）＋シンドカット
 41
0.75
  0
TEXT
  5
127132
  8
SLIM
 10
8241.625
 20
-1632.499999999998
 30
0.0
 40
35.0
  1
片受けスタイル（S）＋シンドカット
 41
0.75
  0
TEXT
  5
127133
  8
SLIM
 10
6358.1250000000009
 20
-1947.4999999999991
 30
0.0
 40
35.0
  1
カンペイ君（WKP）
 41
0.75
  0
TEXT
  5
127134
  8
SLIM
 10
2356.25
 20
-1632.499999999998
 30
0.0
 40
35.0
  1
片受けスタイル（S）
 41
0.75
  0
TEXT
  5
127135
  8
SLIM
 10
0.0
 20
370.0
 30
0.0
 40
100.0
  1
4SL2-A3-A00X0-PXXX-WKP
 41
0.75
  0
VIEWPORT
  5
F6BA7
 67
     1
  8
0
 10
195.9179030619629
 20
101.8328354358673
 30
0.0
 40
435.30034845564728
 41
222.25923674088349
 68
     1
 69
     1
1001
ACAD
1000
MVIEW
1002
{
1070
    16
1010
0.0
1020
0.0
1030
0.0
1010
0.0
1020
0.0
1030
1.0
1040
0.0
1040
222.25923674088349
1040
195.9179030619629
1040
101.8328354358673
1040
50.0
1040
0.0
1040
0.0
1070
     0
1070
     0
1070
     1
1070
     1
1070
     0
1070
     0
1070
     0
1070
     0
1040
0.0
1040
0.0
1040
0.0
1040
10.0
1040
10.0
1040
10.0
1040
10.0
1070
     0
1002
{
1002
}
1002
}
  0
VIEWPORT
  5
F6BA9
 67
     1
  8
OBJECT
 10
145.3303314447403
 20
101.8328338861465
 30
0.0
 40
232.5285303115844
 41
162.93253421783439
 68
     2
 69
     2
1001
ACAD
1000
MVIEW
1002
{
1070
    16
1010
0.0
1020
0.0
1030
0.0
1010
0.0
1020
0.0
1030
1.0
1040
0.0
1040
25942.55904403147
1040
2377.604457077377
1040
-7591.5176687056619
1040
50.0
1040
0.0
1040
0.0
1070
     0
1070
   600
1070
     1
1070
     1
1070
     0
1070
     0
1070
     0
1070
     0
1040
0.0
1040
0.0
1040
0.0
1040
1.0
1040
1.0
1040
0.0
1040
0.0
1070
     0
1002
{
1002
}
1002
}
  0
ENDSEC
  0
EOF
