  0
SECTION
  2
HEADER
  9
$ACADVER
  1
AC1009
  9
$INSBASE
 10
0.0
 20
0.0
 30
0.0
  9
$EXTMIN
 10
-0.0000000000002274
 20
-3982.4999999999982
 30
0.0
  9
$EXTMAX
 10
12964.09999999998
 20
770.0
 30
0.0
  9
$LIMMIN
 10
0.0
 20
0.0
  9
$LIMMAX
 10
210.0
 20
297.0
  9
$ORTHOMODE
 70
     0
  9
$REGENMODE
 70
     1
  9
$FILLMODE
 70
     1
  9
$QTEXTMODE
 70
     0
  9
$MIRRTEXT
 70
     0
  9
$DRAGMODE
 70
     2
  9
$LTSCALE
 40
1.0
  9
$OSMODE
 70
   109
  9
$ATTMODE
 70
     1
  9
$TEXTSIZE
 40
4.0
  9
$TRACEWID
 40
0.05
  9
$TEXTSTYLE
  7
STANDARD
  9
$CLAYER
  8
SLIM
  9
$CELTYPE
  6
BYLAYER
  9
$CECOLOR
 62
   256
  9
$DIMSCALE
 40
10.0
  9
$DIMASZ
 40
2.0
  9
$DIMEXO
 40
1.0
  9
$DIMDLI
 40
10.0
  9
$DIMRND
 40
0.0
  9
$DIMDLE
 40
0.0
  9
$DIMEXE
 40
1.0
  9
$DIMTP
 40
0.0
  9
$DIMTM
 40
0.0
  9
$DIMTXT
 40
3.2000000000000002
  9
$DIMCEN
 40
0.0
  9
$DIMTSZ
 40
0.0
  9
$DIMTOL
 70
     0
  9
$DIMLIM
 70
     0
  9
$DIMTIH
 70
     0
  9
$DIMTOH
 70
     0
  9
$DIMSE1
 70
     0
  9
$DIMSE2
 70
     0
  9
$DIMTAD
 70
     1
  9
$DIMZIN
 70
     8
  9
$DIMBLK
  1
OPEN30
  9
$DIMASO
 70
     1
  9
$DIMSHO
 70
     1
  9
$DIMPOST
  1

  9
$DIMAPOST
  1

  9
$DIMALT
 70
     0
  9
$DIMALTD
 70
     2
  9
$DIMALTF
 40
25.399999999999999
  9
$DIMLFAC
 40
1.0
  9
$DIMTOFL
 70
     1
  9
$DIMTVP
 40
0.0
  9
$DIMTIX
 70
     0
  9
$DIMSOXD
 70
     0
  9
$DIMSAH
 70
     0
  9
$DIMBLK1
  1

  9
$DIMBLK2
  1

  9
$DIMSTYLE
  2
S10
  9
$DIMCLRD
 70
   256
  9
$DIMCLRE
 70
   256
  9
$DIMCLRT
 70
   256
  9
$DIMTFAC
 40
1.0
  9
$DIMGAP
 40
0.9
  9
$LUNITS
 70
     2
  9
$LUPREC
 70
     2
  9
$SKETCHINC
 40
0.1
  9
$FILLETRAD
 40
0.0
  9
$AUNITS
 70
     0
  9
$AUPREC
 70
     2
  9
$MENU
  1
ACAD
  9
$ELEVATION
 40
0.0
  9
$PELEVATION
 40
0.0
  9
$THICKNESS
 40
0.0
  9
$LIMCHECK
 70
     0
  9
$BLIPMODE
 70
     0
  9
$CHAMFERA
 40
2.0
  9
$CHAMFERB
 40
2.0
  9
$SKPOLY
 70
     0
  9
$TDCREATE
 40
2453095.4929404748
  9
$TDUPDATE
 40
2457234.5692395479
  9
$TDINDWG
 40
18.741245381900001
  9
$TDUSRTIMER
 40
18.741244652799999
  9
$USRTIMER
 70
     1
  9
$ANGBASE
 50
0.0
  9
$ANGDIR
 70
     0
  9
$PDMODE
 70
    35
  9
$PDSIZE
 40
2.0
  9
$PLINEWID
 40
0.0
  9
$COORDS
 70
     1
  9
$SPLFRAME
 70
     0
  9
$SPLINETYPE
 70
     6
  9
$SPLINESEGS
 70
     8
  9
$ATTDIA
 70
     0
  9
$ATTREQ
 70
     1
  9
$HANDLING
 70
     1
  9
$HANDSEED
  5
128C29
  9
$SURFTAB1
 70
     6
  9
$SURFTAB2
 70
     6
  9
$SURFTYPE
 70
     6
  9
$SURFU
 70
     6
  9
$SURFV
 70
     6
  9
$UCSNAME
  2

  9
$UCSORG
 10
0.0
 20
0.0
 30
0.0
  9
$UCSXDIR
 10
1.0
 20
0.0
 30
0.0
  9
$UCSYDIR
 10
0.0
 20
1.0
 30
0.0
  9
$PUCSNAME
  2

  9
$PUCSORG
 10
0.0
 20
0.0
 30
0.0
  9
$PUCSXDIR
 10
1.0
 20
0.0
 30
0.0
  9
$PUCSYDIR
 10
0.0
 20
1.0
 30
0.0
  9
$USERI1
 70
     0
  9
$USERI2
 70
     0
  9
$USERI3
 70
     0
  9
$USERI4
 70
     0
  9
$USERI5
 70
     0
  9
$USERR1
 40
0.0
  9
$USERR2
 40
0.0
  9
$USERR3
 40
0.0
  9
$USERR4
 40
0.0
  9
$USERR5
 40
0.0
  9
$WORLDVIEW
 70
     1
  9
$SHADEDGE
 70
     3
  9
$SHADEDIF
 70
    70
  9
$TILEMODE
 70
     1
  9
$MAXACTVP
 70
    64
  9
$PLIMCHECK
 70
     0
  9
$PEXTMIN
 10
29.066066288948051
 20
20.366566777229309
 30
0.0
  9
$PEXTMAX
 10
261.5945966005325
 20
183.29910099506381
 30
0.0
  9
$PLIMMIN
 10
-3.17498779296875
 20
-3.1749999523162842
  9
$PLIMMAX
 10
293.83566284179687
 20
206.8406708240509
  9
$UNITMODE
 70
     0
  9
$VISRETAIN
 70
     1
  9
$PLINEGEN
 70
     0
  9
$PSLTSCALE
 70
     1
  0
ENDSEC
  0
SECTION
  2
TABLES
  0
TABLE
  2
VPORT
 70
     1
  0
VPORT
  2
*ACTIVE
 70
     0
 10
0.0
 20
0.0
 11
1.0
 21
1.0
 12
4348.4699996001309
 22
-1416.974103359408
 13
0.0
 23
0.0
 14
1.0
 24
1.0
 15
0.0
 25
0.0
 16
0.0
 26
0.0
 36
1.0
 17
0.0
 27
0.0
 37
0.0
 40
12220.45170691302
 41
1.6494178525226391
 42
50.0
 43
0.0
 44
0.0
 50
0.0
 51
0.0
 71
     0
 72
   600
 73
     1
 74
     1
 75
     0
 76
     0
 77
     0
 78
     0
  0
ENDTAB
  0
TABLE
  2
LTYPE
 70
     4
  0
LTYPE
  2
CONTINUOUS
 70
     0
  3
Solid line
 72
    65
 73
     0
 40
0.0
  0
LTYPE
  2
PHANTOM2
 70
     0
  3
___ _ _ ___ _ _ ___ _ _ ___ _ _
 72
    65
 73
     6
 40
1.25
 49
0.625
 49
-0.125
 49
0.125
 49
-0.125
 49
0.125
 49
-0.125
  0
LTYPE
  2
ACAD_ISO08W100
 70
     0
  3
ISO long-dash short-dash ____ __ ____ __ ____ _
 72
    65
 73
     4
 40
36.0
 49
24.0
 49
-3.0
 49
6.0
 49
-3.0
  0
LTYPE
  2
ACAD_ISO02W100
 70
     0
  3
ISO dash __ __ __ __ __ __ __ __ __ __ __ __ __
 72
    65
 73
     2
 40
15.0
 49
12.0
 49
-3.0
  0
ENDTAB
  0
TABLE
  2
LAYER
 70
     8
  0
LAYER
  2
0
 70
     0
 62
     7
  6
CONTINUOUS
  0
LAYER
  2
SLIM
 70
     0
 62
     2
  6
CONTINUOUS
  0
LAYER
  2
DEFPOINTS
 70
     0
 62
     7
  6
CONTINUOUS
  0
LAYER
  2
DIM
 70
     0
 62
     7
  6
CONTINUOUS
  0
LAYER
  2
OBJECT
 70
     0
 62
     4
  6
CONTINUOUS
  0
LAYER
  2
HIDDEN
 70
     0
 62
     2
  6
ACAD_ISO02W100
  0
LAYER
  2
CENTER
 70
     0
 62
     2
  6
ACAD_ISO08W100
  0
LAYER
  2
DOTS
 70
     0
 62
     1
  6
CONTINUOUS
  0
ENDTAB
  0
TABLE
  2
STYLE
 70
     2
  0
STYLE
  2
STANDARD
 70
     0
 40
0.0
 41
0.75
 50
0.0
 71
     0
 42
4.0
  3
simplex.shx
  4
bigfont.shx
  0
ENDTAB
  0
TABLE
  2
VIEW
 70
     0
  0
ENDTAB
  0
TABLE
  2
UCS
 70
     0
  0
ENDTAB
  0
TABLE
  2
APPID
 70
    20
  0
APPID
  2
ACAD
 70
     0
  0
APPID
  2
ACADANNOTATIVE
 70
     0
  0
APPID
  2
ACAD_PSEXT
 70
     0
  0
APPID
  2
ACAD_EXEMPT_FROM_CAD_STANDARDS
 70
     0
  0
APPID
  2
ACAECLAYERSTANDARD
 70
     0
  0
APPID
  2
ACAUTHENVIRON
 70
     0
  0
APPID
  2
ACDBDYNAMICBLOCKTRUENAME
 70
     0
  0
APPID
  2
ACDBDYNAMICBLOCKGUID
 70
     0
  0
APPID
  2
ACDBBLOCKREPETAG
 70
     0
  0
APPID
  2
ACDBBLOCKREPBTAG
 70
     0
  0
APPID
  2
ACAD_NAV_VCDISPLAY
 70
     0
  0
APPID
  2
ACAD_DSTYLE_DIMRADIAL_EXTENSION
 70
     0
  0
APPID
  2
ACAD_DSTYLE_DIMJAG
 70
     0
  0
APPID
  2
ACAD_DSTYLE_DIMTALN
 70
     0
  0
APPID
  2
ACADANNOPO
 70
     0
  0
APPID
  2
GRADIENTCOLOR1ACI
 70
     0
  0
APPID
  2
GRADIENTCOLOR2ACI
 70
     0
  0
APPID
  2
ACADANNOMONITORALERTICONDI
 70
     0
  0
APPID
  2
CONTENTBLOCKICON
 70
     0
  0
APPID
  2
ACAD_MLEADERVER
 70
     0
  0
ENDTAB
  0
TABLE
  2
DIMSTYLE
 70
     3
  0
DIMSTYLE
  2
STANDARD
 70
     0
  3

  4

  5

  6

  7

 40
1.0
 41
0.18
 42
0.0625
 43
0.38
 44
0.18
 45
0.0
 46
0.0
 47
0.0
 48
0.0
140
0.18
141
0.09
142
0.0
143
25.399999999999999
144
1.0
145
0.0
146
1.0
147
0.09
 71
     0
 72
     0
 73
     1
 74
     1
 75
     0
 76
     0
 77
     0
 78
     0
170
     0
171
     2
172
     0
173
     0
174
     0
175
     0
176
     0
177
     0
178
     0
  0
DIMSTYLE
  2
S10
 70
     0
  3

  4

  5

  6

  7

 40
10.0
 41
2.0
 42
1.0
 43
10.0
 44
1.0
 45
0.0
 46
0.0
 47
0.0
 48
0.0
140
3.2000000000000002
141
0.0
142
0.0
143
25.399999999999999
144
1.0
145
0.0
146
1.0
147
0.9
 71
     0
 72
     0
 73
     0
 74
     0
 75
     0
 76
     0
 77
     1
 78
     8
170
     0
171
     2
172
     1
173
     0
174
     0
175
     0
176
   256
177
   256
178
   256
  0
ENDTAB
  0
ENDSEC
  0
SECTION
  2
BLOCKS
  0
BLOCK
  8
0
  2
$MODEL_SPACE
 70
     0
 10
0.0
 20
0.0
 30
0.0
  3
$MODEL_SPACE
  1

  0
ENDBLK
  5
128B19
  8
0
  0
BLOCK
 67
     1
  8
0
  2
$PAPER_SPACE
 70
     0
 10
0.0
 20
0.0
 30
0.0
  3
$PAPER_SPACE
  1

  0
ENDBLK
  5
128B15
 67
     1
  8
0
  0
BLOCK
  8
0
  2
_OPEN30
 70
     0
 10
0.0
 20
0.0
 30
0.0
  3
_OPEN30
  1

  0
LINE
  5
202
  8
0
  6
BYBLOCK
 62
     0
 10
-1.0
 20
0.26794919
 30
0.0
 11
0.0
 21
0.0
 31
0.0
  0
LINE
  5
203
  8
0
  6
BYBLOCK
 62
     0
 10
0.0
 20
0.0
 30
0.0
 11
-1.0
 21
-0.26794919
 31
0.0
  0
LINE
  5
204
  8
0
  6
BYBLOCK
 62
     0
 10
0.0
 20
0.0
 30
0.0
 11
-1.0
 21
0.0
 31
0.0
  0
ENDBLK
  5
206
  8
0
  0
BLOCK
  8
0
  2
*U3
 70
     1
 10
0.0
 20
0.0
 30
0.0
  3
*U3
  1

  0
TEXT
  5
128A01
  8
SLIM
 10
158.95238095238091
 20
-1393.9999999999991
 30
0.0
 40
26.0
  1
75
  0
ENDBLK
  5
128A03
  8
0
  0
BLOCK
  8
0
  2
*U4
 70
     1
 10
0.0
 20
0.0
 30
0.0
  3
*U4
  1

  0
TEXT
  5
128A05
  8
SLIM
 10
518.95238095238085
 20
-929.99999999999909
 30
0.0
 40
26.0
  1
65
  0
ENDBLK
  5
128A07
  8
0
  0
BLOCK
  8
0
  2
*U5
 70
     1
 10
0.0
 20
0.0
 30
0.0
  3
*U5
  1

  0
TEXT
  5
128A09
  8
SLIM
 10
158.95238095238091
 20
-929.99999999999909
 30
0.0
 40
26.0
  1
50
  0
ENDBLK
  5
128A0B
  8
0
  0
BLOCK
  8
0
  2
*U6
 70
     1
 10
0.0
 20
0.0
 30
0.0
  3
*U6
  1

  0
TEXT
  5
128A0D
  8
DIM
 10
12700.424581672751
 20
-863.99999999999795
 30
0.0
 40
32.0
  1
P
 50
90.0
 41
0.75
  0
ENDBLK
  5
128A0F
  8
0
  0
BLOCK
  8
0
  2
*U7
 70
     1
 10
0.0
 20
0.0
 30
0.0
  3
*U7
  1

  0
TEXT
  5
128A11
  8
DIM
 10
10700.424581672751
 20
-863.99999999999818
 30
0.0
 40
32.0
  1
P
 50
90.0
 41
0.75
  0
ENDBLK
  5
128A13
  8
0
  0
BLOCK
  8
0
  2
*U8
 70
     1
 10
0.0
 20
0.0
 30
0.0
  3
*U8
  1

  0
TEXT
  5
128A15
  8
DIM
 10
8700.4245816727544
 20
-863.99999999999841
 30
0.0
 40
32.0
  1
P
 50
90.0
 41
0.75
  0
ENDBLK
  5
128A17
  8
0
  0
BLOCK
  8
0
  2
*U9
 70
     1
 10
0.0
 20
0.0
 30
0.0
  3
*U9
  1

  0
TEXT
  5
128A19
  8
DIM
 10
6700.4245816727562
 20
-863.99999999999875
 30
0.0
 40
32.0
  1
P
 50
90.0
 41
0.75
  0
ENDBLK
  5
128A1B
  8
0
  0
BLOCK
  8
0
  2
*U10
 70
     1
 10
0.0
 20
0.0
 30
0.0
  3
*U10
  1

  0
TEXT
  5
128A1D
  8
DIM
 10
4700.4245816727562
 20
-863.99999999999955
 30
0.0
 40
32.0
  1
P
 50
90.0
 41
0.75
  0
ENDBLK
  5
128A1F
  8
0
  0
BLOCK
  8
0
  2
*U11
 70
     1
 10
0.0
 20
0.0
 30
0.0
  3
*U11
  1

  0
TEXT
  5
128A35
  8
SLIM
 10
158.9523809524228
 20
-130.00000000017181
 30
0.0
 40
26.0
  1
75
  0
ENDBLK
  5
128A37
  8
0
  0
BLOCK
  8
0
  2
*U12
 70
     1
 10
0.0
 20
0.0
 30
0.0
  3
*U12
  1

  0
TEXT
  5
128A39
  8
DIM
 10
12334.11645607577
 20
-1325.4571428571389
 30
0.0
 40
32.0
  1
610-P（シンドカット）
 50
90.0
 41
0.75
  0
ENDBLK
  5
128A3B
  8
0
  0
BLOCK
  8
0
  2
*U13
 70
     1
 10
0.0
 20
0.0
 30
0.0
  3
*U13
  1

  0
TEXT
  5
128A3D
  8
DIM
 10
10334.11645607577
 20
-1325.4571428571389
 30
0.0
 40
32.0
  1
610-P（シンドカット）
 50
90.0
 41
0.75
  0
ENDBLK
  5
128A3F
  8
0
  0
BLOCK
  8
0
  2
*U14
 70
     1
 10
0.0
 20
0.0
 30
0.0
  3
*U14
  1

  0
TEXT
  5
128A41
  8
DIM
 10
8334.1164560757734
 20
-1307.742857142855
 30
0.0
 40
32.0
  1
570-P（シンドカット）
 50
90.0
 41
0.75
  0
ENDBLK
  5
128A43
  8
0
  0
BLOCK
  8
0
  2
*U15
 70
     1
 10
0.0
 20
0.0
 30
0.0
  3
*U15
  1

  0
TEXT
  5
128A45
  8
DIM
 10
2700.4245816727562
 20
-863.99999999999955
 30
0.0
 40
32.0
  1
P
 50
90.0
 41
0.75
  0
ENDBLK
  5
128A47
  8
0
  0
BLOCK
  8
0
  2
*U16
 70
     1
 10
0.0
 20
0.0
 30
0.0
  3
*U16
  1

  0
TEXT
  5
128A49
  8
DIM
 10
2709.479620594459
 20
-3469.1428571428528
 30
0.0
 40
32.0
  1
A
 50
90.0
 41
0.75
  0
ENDBLK
  5
128A4B
  8
0
  0
BLOCK
  8
0
  2
*U17
 70
     1
 10
0.0
 20
0.0
 30
0.0
  3
*U17
  1

  0
TEXT
  5
128A4D
  8
DIM
 10
2707.840928403733
 20
-3850.9999999999968
 30
0.0
 40
32.0
  1
B
 50
90.0
 41
0.75
  0
ENDBLK
  5
128A4F
  8
0
  0
BLOCK
  8
0
  2
*U18
 70
     1
 10
0.0
 20
0.0
 30
0.0
  3
*U18
  1

  0
TEXT
  5
128A51
  8
DIM
 10
2561.4285714285711
 20
-3323.208121984444
 30
0.0
 40
32.0
  1
C
 41
0.75
  0
ENDBLK
  5
128A53
  8
0
  0
ENDSEC
  0
SECTION
  2
ENTITIES
  0
LINE
  5
11273E
  8
OBJECT
 10
2325.0
 20
-3864.9999999999968
 30
0.0
 11
5075.0
 21
-3864.9999999999968
 31
0.0
  0
LINE
  5
11412B
  8
SLIM
 10
3256.0
 20
-2922.5000160472709
 30
0.0
 11
3256.0
 21
-3252.5000160472709
 31
0.0
  0
LINE
  5
11412C
  8
SLIM
 10
3380.0
 20
-2922.5000160472709
 30
0.0
 11
3380.0
 21
-3252.5000160472709
 31
0.0
  0
LINE
  5
11412D
  8
SLIM
 10
3510.0
 20
-2982.50001604727
 30
0.0
 11
3510.0
 21
-3252.5000160472709
 31
0.0
  0
LINE
  5
11412E
  8
SLIM
 10
3640.0
 20
-2982.50001604727
 30
0.0
 11
3640.0
 21
-3252.5000160472709
 31
0.0
  0
LINE
  5
11412F
  8
SLIM
 10
3770.0
 20
-3252.5000160472709
 30
0.0
 11
3770.0
 21
-2922.5000160472709
 31
0.0
  0
LINE
  5
114131
  8
SLIM
 10
3770.0
 20
-2922.5000160472709
 30
0.0
 11
3256.0
 21
-2922.5000160472709
 31
0.0
  0
LINE
  5
114132
  8
SLIM
 10
3769.9999999999991
 20
-2982.50001604727
 30
0.0
 11
3380.0
 21
-2982.50001604727
 31
0.0
  0
LINE
  5
114133
  8
SLIM
 10
3770.0
 20
-3042.5000160472709
 30
0.0
 11
3256.0
 21
-3042.5000160472709
 31
0.0
  0
LINE
  5
114134
  8
SLIM
 10
3770.0
 20
-3112.5000160472709
 30
0.0
 11
3256.0
 21
-3112.5000160472709
 31
0.0
  0
LINE
  5
114135
  8
SLIM
 10
3770.0
 20
-3182.5000160472709
 30
0.0
 11
3256.0
 21
-3182.5000160472709
 31
0.0
  0
LINE
  5
114136
  8
SLIM
 10
3770.0
 20
-3252.5000160472709
 30
0.0
 11
3256.0
 21
-3252.5000160472709
 31
0.0
  0
LINE
  5
11414B
  8
SLIM
 10
3380.0
 20
-3042.5000160472709
 30
0.0
 11
3255.9999722746579
 21
-2922.5000000000018
 31
0.0
  0
LINE
  5
1238B4
  8
CENTER
 10
2579.9999999999991
 20
-3459.9999999999968
 30
0.0
 11
2409.9999999999991
 21
-3459.9999999999968
 31
0.0
1001
ACDBBLOCKREPETAG
1070
     1
1071
       14
1005
122545
  0
LINE
  5
1238B5
  8
CENTER
 10
2500.0
 20
-3549.9999999999968
 30
0.0
 11
2500.0
 21
-3369.9999999999968
 31
0.0
1001
ACDBBLOCKREPETAG
1070
     1
1071
       15
1005
122546
  0
CIRCLE
  5
1238B6
  8
OBJECT
 10
2500.0
 20
-3459.9999999999968
 30
0.0
 40
70.0
1001
ACDBBLOCKREPETAG
1070
     1
1071
       16
1005
122547
  0
CIRCLE
  5
1238B7
  8
OBJECT
 10
2500.0
 20
-3459.9999999999968
 30
0.0
 40
75.0
1001
ACDBBLOCKREPETAG
1070
     1
1071
       17
1005
122548
  0
LINE
  5
123927
  8
CENTER
 10
2500.0
 20
-3644.9999999999991
 30
0.0
 11
2500.0
 21
-3891.9999999999991
 31
0.0
1001
ACDBBLOCKREPETAG
1070
     1
1071
       25
1005
123927
  0
LINE
  5
123928
  8
OBJECT
 10
2425.0
 20
-3659.9999999999968
 30
0.0
 11
2425.0
 21
-3879.9999999999991
 31
0.0
1001
ACDBBLOCKREPETAG
1070
     1
1071
       26
1005
123928
  0
LINE
  5
12392C
  8
OBJECT
 10
2575.0
 20
-3659.9999999999968
 30
0.0
 11
2575.0
 21
-3756.5000000000618
 31
0.0
1001
ACDBBLOCKREPETAG
1070
     1
1071
       34
1005
12392C
  0
LINE
  5
123A5C
  8
OBJECT
 10
2575.0
 20
-3862.4999999999991
 30
0.0
 11
2575.0
 21
-3879.9999999999991
 31
0.0
1001
ACDBBLOCKREPETAG
1070
     1
1071
       34
1005
12392C
  0
LINE
  5
123A5E
  8
CENTER
 10
2900.0
 20
-3644.9999999999991
 30
0.0
 11
2900.0
 21
-3891.9999999999991
 31
0.0
1001
ACDBBLOCKREPETAG
1070
     1
1071
       25
1005
123927
  0
LINE
  5
123A5F
  8
OBJECT
 10
2825.0
 20
-3659.9999999999968
 30
0.0
 11
2825.0
 21
-3879.9999999999991
 31
0.0
1001
ACDBBLOCKREPETAG
1070
     1
1071
       26
1005
123928
  0
LINE
  5
123A60
  8
OBJECT
 10
2975.0
 20
-3659.9999999999968
 30
0.0
 11
2975.0
 21
-3879.9999999999991
 31
0.0
1001
ACDBBLOCKREPETAG
1070
     1
1071
       34
1005
12392C
  0
LINE
  5
123AD2
  8
CENTER
 10
3579.9999999999991
 20
-3459.9999999999968
 30
0.0
 11
3410.0
 21
-3459.9999999999968
 31
0.0
1001
ACDBBLOCKREPETAG
1070
     1
1071
       14
1005
122545
  0
LINE
  5
123AD3
  8
CENTER
 10
3500.0
 20
-3549.9999999999968
 30
0.0
 11
3500.0
 21
-3369.9999999999968
 31
0.0
1001
ACDBBLOCKREPETAG
1070
     1
1071
       15
1005
122546
  0
CIRCLE
  5
123AD4
  8
OBJECT
 10
3500.0
 20
-3459.9999999999968
 30
0.0
 40
70.0
1001
ACDBBLOCKREPETAG
1070
     1
1071
       16
1005
122547
  0
CIRCLE
  5
123AD5
  8
OBJECT
 10
3500.0
 20
-3459.9999999999968
 30
0.0
 40
75.0
1001
ACDBBLOCKREPETAG
1070
     1
1071
       17
1005
122548
  0
LINE
  5
123ADD
  8
CENTER
 10
3500.0
 20
-3644.9999999999991
 30
0.0
 11
3500.0
 21
-3891.9999999999991
 31
0.0
1001
ACDBBLOCKREPETAG
1070
     1
1071
       25
1005
123927
  0
LINE
  5
123ADE
  8
OBJECT
 10
3424.9999999999991
 20
-3659.9999999999968
 30
0.0
 11
3424.9999999999991
 21
-3879.9999999999991
 31
0.0
1001
ACDBBLOCKREPETAG
1070
     1
1071
       26
1005
123928
  0
LINE
  5
123ADF
  8
OBJECT
 10
3574.9999999999991
 20
-3659.9999999999968
 30
0.0
 11
3574.9999999999991
 21
-3756.5000000000618
 31
0.0
1001
ACDBBLOCKREPETAG
1070
     1
1071
       34
1005
12392C
  0
LINE
  5
123AE0
  8
OBJECT
 10
3574.9999999999991
 20
-3862.4999999999991
 30
0.0
 11
3574.9999999999991
 21
-3879.9999999999991
 31
0.0
1001
ACDBBLOCKREPETAG
1070
     1
1071
       34
1005
12392C
  0
LINE
  5
123AE8
  8
CENTER
 10
3900.0
 20
-3644.9999999999991
 30
0.0
 11
3900.0
 21
-3891.9999999999991
 31
0.0
1001
ACDBBLOCKREPETAG
1070
     1
1071
       25
1005
123927
  0
LINE
  5
123AE9
  8
OBJECT
 10
3824.9999999999991
 20
-3659.9999999999968
 30
0.0
 11
3824.9999999999991
 21
-3879.9999999999991
 31
0.0
1001
ACDBBLOCKREPETAG
1070
     1
1071
       26
1005
123928
  0
LINE
  5
123AEA
  8
OBJECT
 10
3975.0
 20
-3659.9999999999968
 30
0.0
 11
3975.0
 21
-3879.9999999999991
 31
0.0
1001
ACDBBLOCKREPETAG
1070
     1
1071
       34
1005
12392C
  0
LINE
  5
123B38
  8
CENTER
 10
4579.9999999999991
 20
-3459.9999999999968
 30
0.0
 11
4409.9999999999991
 21
-3459.9999999999968
 31
0.0
1001
ACDBBLOCKREPETAG
1070
     1
1071
       14
1005
122545
  0
LINE
  5
123B39
  8
CENTER
 10
4499.9999999999991
 20
-3549.9999999999968
 30
0.0
 11
4499.9999999999991
 21
-3369.9999999999968
 31
0.0
1001
ACDBBLOCKREPETAG
1070
     1
1071
       15
1005
122546
  0
CIRCLE
  5
123B3A
  8
OBJECT
 10
4499.9999999999991
 20
-3459.9999999999968
 30
0.0
 40
70.0
1001
ACDBBLOCKREPETAG
1070
     1
1071
       16
1005
122547
  0
CIRCLE
  5
123B3B
  8
OBJECT
 10
4499.9999999999991
 20
-3459.9999999999968
 30
0.0
 40
75.0
1001
ACDBBLOCKREPETAG
1070
     1
1071
       17
1005
122548
  0
LINE
  5
123B43
  8
CENTER
 10
4500.0
 20
-3644.9999999999991
 30
0.0
 11
4500.0
 21
-3891.9999999999991
 31
0.0
1001
ACDBBLOCKREPETAG
1070
     1
1071
       25
1005
123927
  0
LINE
  5
123B44
  8
OBJECT
 10
4425.0
 20
-3659.9999999999968
 30
0.0
 11
4425.0
 21
-3879.9999999999991
 31
0.0
1001
ACDBBLOCKREPETAG
1070
     1
1071
       26
1005
123928
  0
LINE
  5
123B45
  8
OBJECT
 10
4575.0
 20
-3659.9999999999968
 30
0.0
 11
4575.0
 21
-3756.5000000000618
 31
0.0
1001
ACDBBLOCKREPETAG
1070
     1
1071
       34
1005
12392C
  0
LINE
  5
123B46
  8
OBJECT
 10
4575.0
 20
-3862.4999999999991
 30
0.0
 11
4575.0
 21
-3879.9999999999991
 31
0.0
1001
ACDBBLOCKREPETAG
1070
     1
1071
       34
1005
12392C
  0
LINE
  5
123B4E
  8
CENTER
 10
4900.0
 20
-3644.9999999999991
 30
0.0
 11
4900.0
 21
-3891.9999999999991
 31
0.0
1001
ACDBBLOCKREPETAG
1070
     1
1071
       25
1005
123927
  0
LINE
  5
123B4F
  8
OBJECT
 10
4825.0
 20
-3659.9999999999968
 30
0.0
 11
4825.0
 21
-3879.9999999999991
 31
0.0
1001
ACDBBLOCKREPETAG
1070
     1
1071
       26
1005
123928
  0
LINE
  5
123B50
  8
OBJECT
 10
4975.0
 20
-3659.9999999999968
 30
0.0
 11
4974.9999999999991
 21
-3879.9999999999991
 31
0.0
1001
ACDBBLOCKREPETAG
1070
     1
1071
       34
1005
12392C
  0
POINT
  5
124C02
  8
DOTS
 10
2500.0
 20
-3459.9999999999968
 30
0.0
  0
POINT
  5
124C03
  8
DOTS
 10
2500.0
 20
-3864.9999999999968
 30
0.0
  0
POINT
  5
124C05
  8
DOTS
 10
3500.0
 20
-3864.9999999999968
 30
0.0
  0
POINT
  5
124C07
  8
DOTS
 10
3500.0
 20
-3459.9999999999968
 30
0.0
  0
POINT
  5
124C08
  8
DOTS
 10
4499.9999999999991
 20
-3459.9999999999968
 30
0.0
  0
POINT
  5
124C09
  8
DOTS
 10
4499.9999999999991
 20
-3864.9999999999968
 30
0.0
  0
LINE
  5
128371
  8
OBJECT
 10
118.0
 20
-1362.9999999999991
 30
0.0
 11
118.0
 21
-1355.9999999999991
 31
0.0
1001
ACDBBLOCKREPETAG
1070
     1
1071
       34
1005
128371
  0
LINE
  5
128372
  8
OBJECT
 10
118.0
 20
-1355.9999999999991
 30
0.0
 11
242.0
 21
-1355.9999999999991
 31
0.0
1001
ACDBBLOCKREPETAG
1070
     1
1071
       35
1005
128372
  0
LINE
  5
128373
  8
OBJECT
 10
242.0
 20
-1355.9999999999991
 30
0.0
 11
242.0
 21
-1362.9999999999991
 31
0.0
1001
ACDBBLOCKREPETAG
1070
     1
1071
       36
1005
128373
  0
LINE
  5
128374
  8
OBJECT
 10
242.0
 20
-1362.9999999999991
 30
0.0
 11
118.0
 21
-1362.9999999999991
 31
0.0
1001
ACDBBLOCKREPETAG
1070
     1
1071
       37
1005
128374
  0
LINE
  5
128375
  8
OBJECT
 10
121.0
 20
-1362.9999999999991
 30
0.0
 11
121.0
 21
-1398.9999999999991
 31
0.0
1001
ACDBBLOCKREPETAG
1070
     1
1071
       38
1005
128375
  0
LINE
  5
128376
  8
OBJECT
 10
121.0
 20
-1398.9999999999991
 30
0.0
 11
239.0
 21
-1398.9999999999991
 31
0.0
1001
ACDBBLOCKREPETAG
1070
     1
1071
       39
1005
128376
  0
LINE
  5
128377
  8
OBJECT
 10
239.0
 20
-1398.9999999999991
 30
0.0
 11
239.0
 21
-1362.9999999999991
 31
0.0
1001
ACDBBLOCKREPETAG
1070
     1
1071
       40
1005
128377
  0
LINE
  5
128378
  8
OBJECT
 10
125.5
 20
-1402.9999999999991
 30
0.0
 11
125.5
 21
-1413.4999999999991
 31
0.0
1001
ACDBBLOCKREPETAG
1070
     1
1071
       41
1005
128378
  0
LINE
  5
128379
  8
OBJECT
 10
234.5
 20
-1413.4999999999991
 30
0.0
 11
234.5
 21
-1402.9999999999991
 31
0.0
1001
ACDBBLOCKREPETAG
1070
     1
1071
       42
1005
128379
  0
LINE
  5
12837A
  8
OBJECT
 10
234.5
 20
-1402.9999999999991
 30
0.0
 11
125.5
 21
-1402.9999999999991
 31
0.0
1001
ACDBBLOCKREPETAG
1070
     1
1071
       43
1005
12837A
  0
LINE
  5
12837B
  8
OBJECT
 10
121.0
 20
-1398.9999999999991
 30
0.0
 11
125.5
 21
-1402.9999999999991
 31
0.0
1001
ACDBBLOCKREPETAG
1070
     1
1071
       44
1005
12837B
  0
LINE
  5
12837C
  8
OBJECT
 10
239.0
 20
-1398.9999999999991
 30
0.0
 11
234.5
 21
-1402.9999999999991
 31
0.0
1001
ACDBBLOCKREPETAG
1070
     1
1071
       45
1005
12837C
  0
LINE
  5
12837D
  8
OBJECT
 10
130.5
 20
-1418.4999999999991
 30
0.0
 11
130.50000000000091
 21
-1439.65508008702
 31
0.0
1001
ACDBBLOCKREPETAG
1070
     1
1071
       46
1005
12837D
  0
LINE
  5
12837E
  8
OBJECT
 10
229.5
 20
-1418.4999999999991
 30
0.0
 11
229.5
 21
-1439.6550800870209
 31
0.0
1001
ACDBBLOCKREPETAG
1070
     1
1071
       47
1005
12837E
  0
LINE
  5
12837F
  8
OBJECT
 10
125.5
 20
-1413.4999999999991
 30
0.0
 11
234.5
 21
-1413.4999999999991
 31
0.0
1001
ACDBBLOCKREPETAG
1070
     1
1071
       48
1005
12837F
  0
LINE
  5
128380
  8
OBJECT
 10
130.5
 20
-1418.4999999999991
 30
0.0
 11
229.5
 21
-1418.4999999999991
 31
0.0
1001
ACDBBLOCKREPETAG
1070
     1
1071
       49
1005
128380
  0
LINE
  5
128381
  8
OBJECT
 10
125.5
 20
-1413.4999999999991
 30
0.0
 11
130.5
 21
-1418.4999999999991
 31
0.0
1001
ACDBBLOCKREPETAG
1070
     1
1071
       50
1005
128381
  0
LINE
  5
128382
  8
OBJECT
 10
229.5
 20
-1418.4999999999991
 30
0.0
 11
234.49999999999639
 21
-1413.4999999999991
 31
0.0
1001
ACDBBLOCKREPETAG
1070
     1
1071
       51
1005
128382
  0
INSERT
  5
128383
  8
SLIM
  2
*U3
 10
0.0
 20
0.0
 30
0.0
  0
LINE
  5
128384
  8
HIDDEN
 10
135.5
 20
-1407.9999999999991
 30
0.0
 11
224.5
 21
-1407.9999999999991
 31
0.0
1001
ACDBBLOCKREPETAG
1070
     1
1071
       65
1005
128384
  0
ARC
  5
128385
  8
OBJECT
 10
180.0
 20
-1495.9999999999991
 30
0.0
 40
50.0
 50
28.81994300016834
 51
318.52376955954998
1001
ACDBBLOCKREPETAG
1070
     1
1071
       49
1005
128385
  0
CIRCLE
  5
128386
  8
OBJECT
 10
180.0
 20
-1495.9999999999991
 30
0.0
 40
70.0
1001
ACDBBLOCKREPETAG
1070
     1
1071
       50
1005
128386
  0
CIRCLE
  5
128387
  8
OBJECT
 10
180.0
 20
-1495.9999999999991
 30
0.0
 40
75.0
1001
ACDBBLOCKREPETAG
1070
     1
1071
       51
1005
128387
  0
POINT
  5
128388
  8
DOTS
 10
180.0
 20
-1495.9999999999991
 30
0.0
1001
ACDBBLOCKREPETAG
1070
     1
1071
       63
1005
128388
  0
LINE
  5
128389
  8
OBJECT
 10
223.80694712371769
 20
-1471.897066906698
 30
0.0
 11
212.5546219999996
 21
-1475.340343000003
 31
0.0
1001
ACDBBLOCKREPETAG
1070
     1
1071
      141
1005
128389
  0
LINE
  5
12838A
  8
OBJECT
 10
198.22553374207919
 20
-1509.2072500986239
 30
0.0
 11
212.55462199999599
 21
-1475.340343000003
 31
0.0
1001
ACDBBLOCKREPETAG
1070
     1
1071
      143
1005
12838A
  0
ARC
  5
12838B
  8
OBJECT
 10
207.4351299990594
 20
-1513.103830238098
 30
0.0
 40
10.0
 50
157.0667782929232
 51
244.01473437026289
1001
ACDBBLOCKREPETAG
1070
     1
1071
      144
1005
12838B
  0
ARC
  5
12838C
  8
OBJECT
 10
205.5538625672925
 20
-1509.851160961872
 30
0.0
 40
7.0
 50
157.0667782929232
 51
244.01473377502219
1001
ACDBBLOCKREPETAG
1070
     1
1071
      145
1005
12838C
  0
LINE
  5
12838D
  8
OBJECT
 10
238.86769720860229
 20
-1533.876037614252
 30
0.0
 11
202.48688253356889
 21
-1516.143508176762
 31
0.0
1001
ACDBBLOCKREPETAG
1070
     1
1071
      154
1005
12838D
  0
LINE
  5
12838E
  8
OBJECT
 10
235.9167324445028
 20
-1538.1107947292589
 30
0.0
 11
203.05373004431021
 21
-1522.0928977334911
 31
0.0
1001
ACDBBLOCKREPETAG
1070
     1
1071
      155
1005
12838E
  0
ARC
  5
12838F
  8
OBJECT
 10
184.75760589857131
 20
-1522.273755513954
 30
0.0
 40
63.739013211305632
 50
8.1694378253172513
 51
52.219052524698952
1001
ACDBBLOCKREPETAG
1070
     1
1071
      156
1005
12838F
  0
LINE
  5
128390
  8
OBJECT
 10
485.0
 20
-898.99999999999932
 30
0.0
 11
485.0
 21
-891.9999999999992
 31
0.0
1001
ACDBBLOCKREPETAG
1070
     1
1071
       18
1005
128390
  0
LINE
  5
128391
  8
OBJECT
 10
485.0
 20
-891.9999999999992
 30
0.0
 11
595.0
 21
-891.9999999999992
 31
0.0
1001
ACDBBLOCKREPETAG
1070
     1
1071
       19
1005
128391
  0
LINE
  5
128392
  8
OBJECT
 10
595.0
 20
-891.9999999999992
 30
0.0
 11
595.0
 21
-898.99999999999932
 31
0.0
1001
ACDBBLOCKREPETAG
1070
     1
1071
       20
1005
128392
  0
LINE
  5
128393
  8
OBJECT
 10
595.0
 20
-898.99999999999932
 30
0.0
 11
485.0
 21
-898.99999999999932
 31
0.0
1001
ACDBBLOCKREPETAG
1070
     1
1071
       21
1005
128393
  0
LINE
  5
128394
  8
OBJECT
 10
488.0
 20
-898.99999999999932
 30
0.0
 11
488.0
 21
-934.99999999999875
 31
0.0
1001
ACDBBLOCKREPETAG
1070
     1
1071
       22
1005
128394
  0
LINE
  5
128395
  8
OBJECT
 10
488.0
 20
-934.99999999999875
 30
0.0
 11
592.0
 21
-934.99999999999875
 31
0.0
1001
ACDBBLOCKREPETAG
1070
     1
1071
       23
1005
128395
  0
LINE
  5
128396
  8
OBJECT
 10
592.0
 20
-934.99999999999875
 30
0.0
 11
592.0
 21
-898.99999999999932
 31
0.0
1001
ACDBBLOCKREPETAG
1070
     1
1071
       24
1005
128396
  0
LINE
  5
128397
  8
OBJECT
 10
492.49999999999989
 20
-938.99999999999909
 30
0.0
 11
492.49999999999989
 21
-947.49999999999875
 31
0.0
1001
ACDBBLOCKREPETAG
1070
     1
1071
       25
1005
128397
  0
LINE
  5
128398
  8
OBJECT
 10
587.5
 20
-947.49999999999955
 30
0.0
 11
587.5
 21
-938.99999999999909
 31
0.0
1001
ACDBBLOCKREPETAG
1070
     1
1071
       26
1005
128398
  0
LINE
  5
128399
  8
OBJECT
 10
587.5
 20
-938.99999999999909
 30
0.0
 11
492.49999999999989
 21
-938.99999999999909
 31
0.0
1001
ACDBBLOCKREPETAG
1070
     1
1071
       27
1005
128399
  0
LINE
  5
12839A
  8
OBJECT
 10
488.0
 20
-934.99999999999875
 30
0.0
 11
492.49999999999989
 21
-938.99999999999909
 31
0.0
1001
ACDBBLOCKREPETAG
1070
     1
1071
       28
1005
12839A
  0
LINE
  5
12839B
  8
OBJECT
 10
592.0
 20
-934.99999999999875
 30
0.0
 11
587.5
 21
-938.99999999999909
 31
0.0
1001
ACDBBLOCKREPETAG
1070
     1
1071
       29
1005
12839B
  0
LINE
  5
12839C
  8
OBJECT
 10
589.5
 20
-947.50000000000034
 30
0.0
 11
490.5
 21
-947.49999999999875
 31
0.0
1001
ACDBBLOCKREPETAG
1070
     1
1071
       30
1005
12839C
  0
LINE
  5
12839D
  8
OBJECT
 10
490.5
 20
-947.49999999999875
 30
0.0
 11
490.5000000000008
 21
-975.65508008701954
 31
0.0
1001
ACDBBLOCKREPETAG
1070
     1
1071
       31
1005
12839D
  0
LINE
  5
12839E
  8
OBJECT
 10
589.5
 20
-947.50000000000034
 30
0.0
 11
589.5000000000008
 21
-975.65508008702056
 31
0.0
1001
ACDBBLOCKREPETAG
1070
     1
1071
       32
1005
12839E
  0
INSERT
  5
12839F
  8
SLIM
  2
*U4
 10
0.0
 20
0.0
 30
0.0
  0
LINE
  5
1283A0
  8
HIDDEN
 10
502.0
 20
-943.99999999999875
 30
0.0
 11
578.0
 21
-943.99999999999875
 31
0.0
1001
ACDBBLOCKREPETAG
1070
     1
1071
       57
1005
1283A0
  0
ARC
  5
1283A1
  8
OBJECT
 10
540.0
 20
-1031.9999999999991
 30
0.0
 40
50.0
 50
28.819943000169118
 51
318.52376955955111
1001
ACDBBLOCKREPETAG
1070
     1
1071
       49
1005
1283A1
  0
CIRCLE
  5
1283A2
  8
OBJECT
 10
540.0
 20
-1031.9999999999991
 30
0.0
 40
70.0
1001
ACDBBLOCKREPETAG
1070
     1
1071
       50
1005
1283A2
  0
CIRCLE
  5
1283A3
  8
OBJECT
 10
540.0
 20
-1031.9999999999991
 30
0.0
 40
75.0
1001
ACDBBLOCKREPETAG
1070
     1
1071
       51
1005
1283A3
  0
POINT
  5
1283A4
  8
DOTS
 10
540.0
 20
-1031.9999999999991
 30
0.0
1001
ACDBBLOCKREPETAG
1070
     1
1071
       63
1005
1283A4
  0
LINE
  5
1283A5
  8
OBJECT
 10
583.80694712371769
 20
-1007.897066906697
 30
0.0
 11
572.55462199999965
 21
-1011.340343000002
 31
0.0
1001
ACDBBLOCKREPETAG
1070
     1
1071
      141
1005
1283A5
  0
LINE
  5
1283A6
  8
OBJECT
 10
558.22553374207905
 20
-1045.2072500986239
 30
0.0
 11
572.55462199999602
 21
-1011.340343000002
 31
0.0
1001
ACDBBLOCKREPETAG
1070
     1
1071
      143
1005
1283A6
  0
ARC
  5
1283A7
  8
OBJECT
 10
567.43512999905943
 20
-1049.1038302380971
 30
0.0
 40
10.0
 50
157.06677829292209
 51
244.01473437026289
1001
ACDBBLOCKREPETAG
1070
     1
1071
      144
1005
1283A7
  0
ARC
  5
1283A8
  8
OBJECT
 10
565.55386256729241
 20
-1045.851160961872
 30
0.0
 40
7.0
 50
157.06677829292209
 51
244.0147337750206
1001
ACDBBLOCKREPETAG
1070
     1
1071
      145
1005
1283A8
  0
LINE
  5
1283A9
  8
OBJECT
 10
598.86769720860241
 20
-1069.876037614252
 30
0.0
 11
562.48688253356875
 21
-1052.143508176762
 31
0.0
1001
ACDBBLOCKREPETAG
1070
     1
1071
      154
1005
1283A9
  0
LINE
  5
1283AA
  8
OBJECT
 10
595.91673244450271
 20
-1074.110794729258
 30
0.0
 11
563.05373004430999
 21
-1058.09289773349
 31
0.0
1001
ACDBBLOCKREPETAG
1070
     1
1071
      155
1005
1283AA
  0
ARC
  5
1283AB
  8
OBJECT
 10
544.75760589857111
 20
-1058.273755513954
 30
0.0
 40
63.739013211305632
 50
8.1694378253174822
 51
52.21905252470151
1001
ACDBBLOCKREPETAG
1070
     1
1071
      156
1005
1283AB
  0
LINE
  5
1283AC
  8
OBJECT
 10
133.0
 20
-898.99999999999932
 30
0.0
 11
133.0
 21
-891.9999999999992
 31
0.0
1001
ACDBBLOCKREPETAG
1070
     1
1071
        0
1005
1283AC
  0
LINE
  5
1283AD
  8
OBJECT
 10
133.0
 20
-891.9999999999992
 30
0.0
 11
227.0
 21
-891.9999999999992
 31
0.0
1001
ACDBBLOCKREPETAG
1070
     1
1071
        1
1005
1283AD
  0
LINE
  5
1283AE
  8
OBJECT
 10
227.0
 20
-891.9999999999992
 30
0.0
 11
227.0
 21
-898.99999999999932
 31
0.0
1001
ACDBBLOCKREPETAG
1070
     1
1071
        2
1005
1283AE
  0
LINE
  5
1283AF
  8
OBJECT
 10
227.0
 20
-898.99999999999932
 30
0.0
 11
133.0
 21
-898.99999999999932
 31
0.0
1001
ACDBBLOCKREPETAG
1070
     1
1071
        3
1005
1283AF
  0
LINE
  5
1283B0
  8
OBJECT
 10
136.0
 20
-898.99999999999932
 30
0.0
 11
136.0
 21
-934.99999999999875
 31
0.0
1001
ACDBBLOCKREPETAG
1070
     1
1071
        4
1005
1283B0
  0
LINE
  5
1283B1
  8
OBJECT
 10
136.0
 20
-934.99999999999875
 30
0.0
 11
224.0
 21
-934.99999999999875
 31
0.0
1001
ACDBBLOCKREPETAG
1070
     1
1071
        5
1005
1283B1
  0
LINE
  5
1283B2
  8
OBJECT
 10
224.0
 20
-934.99999999999875
 30
0.0
 11
224.0
 21
-898.99999999999932
 31
0.0
1001
ACDBBLOCKREPETAG
1070
     1
1071
        6
1005
1283B2
  0
LINE
  5
1283B3
  8
OBJECT
 10
140.5
 20
-938.99999999999909
 30
0.0
 11
140.5
 21
-947.49999999999875
 31
0.0
1001
ACDBBLOCKREPETAG
1070
     1
1071
        7
1005
1283B3
  0
LINE
  5
1283B4
  8
OBJECT
 10
219.5
 20
-947.49999999999955
 30
0.0
 11
219.5
 21
-938.99999999999909
 31
0.0
1001
ACDBBLOCKREPETAG
1070
     1
1071
        8
1005
1283B4
  0
LINE
  5
1283B5
  8
OBJECT
 10
219.5
 20
-938.99999999999909
 30
0.0
 11
140.5
 21
-938.99999999999909
 31
0.0
1001
ACDBBLOCKREPETAG
1070
     1
1071
        9
1005
1283B5
  0
LINE
  5
1283B6
  8
OBJECT
 10
136.0
 20
-934.99999999999875
 30
0.0
 11
140.5
 21
-938.99999999999909
 31
0.0
1001
ACDBBLOCKREPETAG
1070
     1
1071
       10
1005
1283B6
  0
LINE
  5
1283B7
  8
OBJECT
 10
224.0
 20
-934.99999999999875
 30
0.0
 11
219.5
 21
-938.99999999999909
 31
0.0
1001
ACDBBLOCKREPETAG
1070
     1
1071
       11
1005
1283B7
  0
LINE
  5
1283B8
  8
OBJECT
 10
226.5
 20
-947.49999999999989
 30
0.0
 11
133.5
 21
-947.49999999999875
 31
0.0
1001
ACDBBLOCKREPETAG
1070
     1
1071
       12
1005
1283B8
  0
ARC
  5
1283B9
  8
OBJECT
 10
133.5
 20
-950.49999999999841
 30
0.0
 40
3.0
 50
90.0
 51
180.0
1001
ACDBBLOCKREPETAG
1070
     1
1071
       13
1005
1283B9
  0
LINE
  5
1283BA
  8
OBJECT
 10
130.5
 20
-950.49999999999841
 30
0.0
 11
130.49999999999909
 21
-975.65508008702056
 31
0.0
1001
ACDBBLOCKREPETAG
1070
     1
1071
       15
1005
1283BA
  0
LINE
  5
1283BB
  8
OBJECT
 10
229.5
 20
-950.5
 30
0.0
 11
229.49999999999909
 21
-975.65508008701954
 31
0.0
1001
ACDBBLOCKREPETAG
1070
     1
1071
       16
1005
1283BB
  0
ARC
  5
1283BC
  8
OBJECT
 10
226.5
 20
-950.5
 30
0.0
 40
3.0
 50
0.0
 51
90.0
1001
ACDBBLOCKREPETAG
1070
     1
1071
       17
1005
1283BC
  0
INSERT
  5
1283BD
  8
SLIM
  2
*U5
 10
0.0
 20
0.0
 30
0.0
  0
LINE
  5
1283BE
  8
HIDDEN
 10
150.0
 20
-943.99999999999875
 30
0.0
 11
210.0
 21
-943.99999999999875
 31
0.0
1001
ACDBBLOCKREPETAG
1070
     1
1071
       56
1005
1283BE
  0
ARC
  5
1283BF
  8
OBJECT
 10
180.0
 20
-1031.9999999999991
 30
0.0
 40
50.0
 50
28.81994300016834
 51
318.52376955954998
1001
ACDBBLOCKREPETAG
1070
     1
1071
       49
1005
1283BF
  0
CIRCLE
  5
1283C0
  8
OBJECT
 10
180.0
 20
-1031.9999999999991
 30
0.0
 40
70.0
1001
ACDBBLOCKREPETAG
1070
     1
1071
       50
1005
1283C0
  0
CIRCLE
  5
1283C1
  8
OBJECT
 10
180.0
 20
-1031.9999999999991
 30
0.0
 40
75.0
1001
ACDBBLOCKREPETAG
1070
     1
1071
       51
1005
1283C1
  0
POINT
  5
1283C2
  8
DOTS
 10
180.0
 20
-1031.9999999999991
 30
0.0
1001
ACDBBLOCKREPETAG
1070
     1
1071
       63
1005
1283C2
  0
LINE
  5
1283C3
  8
OBJECT
 10
223.80694712371769
 20
-1007.897066906697
 30
0.0
 11
212.5546219999996
 21
-1011.340343000002
 31
0.0
1001
ACDBBLOCKREPETAG
1070
     1
1071
      141
1005
1283C3
  0
LINE
  5
1283C4
  8
OBJECT
 10
198.22553374207919
 20
-1045.2072500986239
 30
0.0
 11
212.55462199999599
 21
-1011.340343000002
 31
0.0
1001
ACDBBLOCKREPETAG
1070
     1
1071
      143
1005
1283C4
  0
ARC
  5
1283C5
  8
OBJECT
 10
207.4351299990594
 20
-1049.1038302380971
 30
0.0
 40
10.0
 50
157.0667782929232
 51
244.01473437026289
1001
ACDBBLOCKREPETAG
1070
     1
1071
      144
1005
1283C5
  0
ARC
  5
1283C6
  8
OBJECT
 10
205.5538625672925
 20
-1045.851160961872
 30
0.0
 40
7.0
 50
157.0667782929232
 51
244.01473377502219
1001
ACDBBLOCKREPETAG
1070
     1
1071
      145
1005
1283C6
  0
LINE
  5
1283C7
  8
OBJECT
 10
238.86769720860229
 20
-1069.876037614252
 30
0.0
 11
202.48688253356889
 21
-1052.143508176762
 31
0.0
1001
ACDBBLOCKREPETAG
1070
     1
1071
      154
1005
1283C7
  0
LINE
  5
1283C8
  8
OBJECT
 10
235.9167324445028
 20
-1074.110794729258
 30
0.0
 11
203.05373004431021
 21
-1058.09289773349
 31
0.0
1001
ACDBBLOCKREPETAG
1070
     1
1071
      155
1005
1283C8
  0
ARC
  5
1283C9
  8
OBJECT
 10
184.75760589857131
 20
-1058.273755513954
 30
0.0
 40
63.739013211305632
 50
8.1694378253172513
 51
52.219052524698952
1001
ACDBBLOCKREPETAG
1070
     1
1071
      156
1005
1283C9
  0
ARC
  5
1283CA
  8
OBJECT
 10
12500.0
 20
-175.99999541468151
 30
0.0
 40
50.0
 50
298.81994300000417
 51
228.52376955964741
1001
ACDBBLOCKREPETAG
1070
     1
1071
      185
1005
1283CA
  0
LINE
  5
1283CB
  8
SLIM
 10
12427.30183005652
 20
-131.95483578426081
 30
0.0
 11
12455.954840369581
 21
-103.3018254712013
 31
0.0
1001
ACAD
1010
0.0
1020
0.0
1030
0.0
1001
ACDBBLOCKREPETAG
1070
     1
1071
      429
1005
1283CB
  0
LINE
  5
1283CC
  8
SLIM
 10
12419.486152070829
 20
-148.75076989101481
 30
0.0
 11
12428.8911593638
 21
-139.34576259805101
 31
0.0
1001
ACAD
1010
0.0
1020
0.0
1030
0.0
1001
ACDBBLOCKREPETAG
1070
     1
1071
      381
1005
1283CC
  0
LINE
  5
1283CD
  8
SLIM
 10
12463.345767183369
 20
-104.8911547784803
 30
0.0
 11
12472.75077447633
 21
-95.486147485516582
 31
0.0
1001
ACAD
1010
0.0
1020
0.0
1030
0.0
1001
ACDBBLOCKREPETAG
1070
     1
1071
      382
1005
1283CD
  0
LINE
  5
1283CE
  8
SLIM
 10
12416.35966799338
 20
-160.85751008954301
 30
0.0
 11
12423.0316308417
 21
-154.18554724121299
 31
0.0
1001
ACAD
1010
0.0
1020
0.0
1030
0.0
1001
ACDBBLOCKREPETAG
1070
     1
1071
      383
1005
1283CE
  0
LINE
  5
1283CF
  8
SLIM
 10
12478.185551826529
 20
-99.031626256387483
 30
0.0
 11
12484.857514674861
 21
-92.359663408057429
 31
0.0
1001
ACAD
1010
0.0
1020
0.0
1030
0.0
1001
ACDBBLOCKREPETAG
1070
     1
1071
      384
1005
1283CF
  0
LINE
  5
1283D0
  8
SLIM
 10
12415.14405758905
 20
-171.05337661493741
 30
0.0
 11
12420.691234743779
 21
-165.50619946020811
 31
0.0
1001
ACAD
1010
0.0
1020
0.0
1030
0.0
1001
ACDBBLOCKREPETAG
1070
     1
1071
      385
1005
1283D0
  0
LINE
  5
1283D1
  8
SLIM
 10
12489.50620404553
 20
-96.691230158461494
 30
0.0
 11
12495.05338120026
 21
-91.144053003732239
 31
0.0
1001
ACAD
1010
0.0
1020
0.0
1030
0.0
1001
ACDBBLOCKREPETAG
1070
     1
1071
      386
1005
1283D1
  0
LINE
  5
1283D2
  8
SLIM
 10
12415.09796355746
 20
-180.07972676759269
 30
0.0
 11
12419.17769491037
 21
-175.99999541468151
 31
0.0
1001
ACAD
1010
0.0
1020
0.0
1030
0.0
1001
ACDBBLOCKREPETAG
1070
     1
1071
      387
1005
1283D2
  0
LINE
  5
1283D3
  8
SLIM
 10
12500.0
 20
-95.177690325059132
 30
0.0
 11
12504.0797313529
 21
-91.097958972153265
 31
0.0
1001
ACAD
1010
0.0
1020
0.0
1030
0.0
1001
ACDBBLOCKREPETAG
1070
     1
1071
      388
1005
1283D3
  0
LINE
  5
1283D4
  8
SLIM
 10
12419.17769491037
 20
-175.99999541468151
 30
0.0
 11
12420.00427028175
 21
-175.17342004330999
 31
0.0
1001
ACAD
1010
0.0
1020
0.0
1030
0.0
1001
ACDBBLOCKREPETAG
1070
     1
1071
      389
1005
1283D4
  0
LINE
  5
1283D5
  8
SLIM
 10
12499.173424628631
 20
-96.004265696428789
 30
0.0
 11
12500.0
 21
-95.177690325059146
 31
0.0
1001
ACAD
1010
0.0
1020
0.0
1030
0.0
1001
ACDBBLOCKREPETAG
1070
     1
1071
      390
1005
1283D5
  0
LINE
  5
1283D6
  8
SLIM
 10
12415.88997262086
 20
-188.2679738252624
 30
0.0
 11
12420.37908993235
 21
-183.77885651377261
 31
0.0
1001
ACAD
1010
0.0
1020
0.0
1030
0.0
1001
ACDBBLOCKREPETAG
1070
     1
1071
      391
1005
1283D6
  0
LINE
  5
1283D7
  8
SLIM
 10
12507.77886109909
 20
-96.379085347030724
 30
0.0
 11
12512.26797841058
 21
-91.889968035552343
 31
0.0
1001
ACAD
1010
0.0
1020
0.0
1030
0.0
1001
ACDBBLOCKREPETAG
1070
     1
1071
      392
1005
1283D7
  0
LINE
  5
1283D8
  8
SLIM
 10
12417.338265695151
 20
-195.7999368720495
 30
0.0
 11
12421.53614970347
 21
-191.6020528637238
 31
0.0
1001
ACAD
1010
0.0
1020
0.0
1030
0.0
1001
ACDBBLOCKREPETAG
1070
     1
1071
      393
1005
1283D8
  0
LINE
  5
1283D9
  8
SLIM
 10
12515.60205744905
 20
-97.536145118149506
 30
0.0
 11
12519.799941457361
 21
-93.338261109834278
 31
0.0
1001
ACAD
1010
0.0
1020
0.0
1030
0.0
1001
ACDBBLOCKREPETAG
1070
     1
1071
      394
1005
1283D9
  0
LINE
  5
1283DA
  8
SLIM
 10
12419.331259406301
 20
-202.78719928196651
 30
0.0
 11
12423.317950993851
 21
-198.80050769441161
 31
0.0
1001
ACAD
1010
0.0
1020
0.0
1030
0.0
1001
ACDBBLOCKREPETAG
1070
     1
1071
      395
1005
1283DA
  0
LINE
  5
1283DB
  8
SLIM
 10
12522.800512279729
 20
-99.317946408531412
 30
0.0
 11
12526.787203867279
 21
-95.331254820986345
 31
0.0
1001
ACAD
1010
0.0
1020
0.0
1030
0.0
1001
ACDBBLOCKREPETAG
1070
     1
1071
      396
1005
1283DB
  0
LINE
  5
1283DC
  8
SLIM
 10
12421.795716318609
 20
-209.3029984907202
 30
0.0
 11
12425.62664068147
 21
-205.47207412786429
 31
0.0
1001
ACAD
1010
0.0
1020
0.0
1030
0.0
1001
ACDBBLOCKREPETAG
1070
     1
1071
      397
1005
1283DC
  0
LINE
  5
1283DD
  8
SLIM
 10
12529.47207871319
 20
-101.6266360961484
 30
0.0
 11
12533.303003076029
 21
-97.795711733301616
 31
0.0
1001
ACAD
1010
0.0
1020
0.0
1030
0.0
1001
ACDBBLOCKREPETAG
1070
     1
1071
      398
1005
1283DD
  0
LINE
  5
1283DE
  8
SLIM
 10
12424.681663531341
 20
-215.39730739906469
 30
0.0
 11
12428.397899414491
 21
-211.68107151591281
 31
0.0
1001
ACAD
1010
0.0
1020
0.0
1030
0.0
1001
ACDBBLOCKREPETAG
1070
     1
1071
      399
1005
1283DE
  0
LINE
  5
1283DF
  8
SLIM
 10
12535.681076101229
 20
-104.3978948291695
 30
0.0
 11
12539.397311984379
 21
-100.6816589460261
 31
0.0
1001
ACAD
1010
0.0
1020
0.0
1030
0.0
1001
ACDBBLOCKREPETAG
1070
     1
1071
      400
1005
1283DF
  0
LINE
  5
1283E0
  8
SLIM
 10
12427.954461102419
 20
-221.1047659490537
 30
0.0
 11
12431.58829484775
 21
-217.47093220372389
 31
0.0
1001
ACAD
1010
0.0
1020
0.0
1030
0.0
1001
ACDBBLOCKREPETAG
1070
     1
1071
      401
1005
1283E0
  0
LINE
  5
1283E1
  8
SLIM
 10
12541.470936789039
 20
-107.588290262428
 30
0.0
 11
12545.104770534361
 21
-103.9544565171061
 31
0.0
1001
ACAD
1010
0.0
1020
0.0
1030
0.0
1001
ACDBBLOCKREPETAG
1070
     1
1071
      402
1005
1283E1
  0
LINE
  5
1283E2
  8
SLIM
 10
12431.59033196866
 20
-226.44915120388191
 30
0.0
 11
12435.16855767846
 21
-222.8709254940826
 31
0.0
1001
ACAD
1010
0.0
1020
0.0
1030
0.0
1001
ACDBBLOCKREPETAG
1070
     1
1071
      403
1005
1283E2
  0
LINE
  5
1283E3
  8
SLIM
 10
12546.8709300794
 20
-111.1685530931389
 30
0.0
 11
12550.449155789191
 21
-107.5903273833469
 31
0.0
1001
ACAD
1010
0.0
1020
0.0
1030
0.0
1001
ACDBBLOCKREPETAG
1070
     1
1071
      404
1005
1283E3
  0
LINE
  5
1283E4
  8
SLIM
 10
12435.573749692519
 20
-231.44598960108971
 30
0.0
 11
12439.119812975139
 21
-227.89992631846809
 31
0.0
1001
ACAD
1010
0.0
1020
0.0
1030
0.0
1001
ACDBBLOCKREPETAG
1070
     1
1071
      405
1005
1283E4
  0
LINE
  5
1283E5
  8
SLIM
 10
12553.019743878929
 20
-113.99999541468151
 30
0.0
 11
12555.445994186401
 21
-111.5737451072081
 31
0.0
1001
ACAD
1010
0.0
1020
0.0
1030
0.0
1001
ACDBBLOCKREPETAG
1070
     1
1071
      406
1005
1283E5
  0
LINE
  5
1283E6
  8
SLIM
 10
12439.895923599141
 20
-236.10407181554169
 30
0.0
 11
12443.431457505079
 21
-232.5685379096023
 31
0.0
1001
ACAD
1010
0.0
1020
0.0
1030
0.0
1001
ACDBBLOCKREPETAG
1070
     1
1071
      407
1005
1283E6
  0
LINE
  5
1283E7
  8
SLIM
 10
12444.55400581359
 20
-240.42624572215851
 30
0.0
 11
12448.10006909621
 21
-236.88018243953789
 31
0.0
1001
ACAD
1010
0.0
1020
0.0
1030
0.0
1001
ACDBBLOCKREPETAG
1070
     1
1071
      408
1005
1283E7
  0
LINE
  5
1283E8
  8
SLIM
 10
12449.5508442108
 20
-244.40966344601941
 30
0.0
 11
12453.1290699206
 21
-240.831437736222
 31
0.0
1001
ACAD
1010
0.0
1020
0.0
1030
0.0
1001
ACDBBLOCKREPETAG
1070
     1
1071
      409
1005
1283E8
  0
LINE
  5
1283E9
  8
SLIM
 10
12454.89522946563
 20
-248.04553431225989
 30
0.0
 11
12458.52906321095
 21
-244.41170056693321
 31
0.0
1001
ACAD
1010
0.0
1020
0.0
1030
0.0
1001
ACDBBLOCKREPETAG
1070
     1
1071
      410
1005
1283E9
  0
LINE
  5
1283EA
  8
SLIM
 10
12460.602688015621
 20
-251.3183318833396
 30
0.0
 11
12464.31892389876
 21
-247.60209600019189
 31
0.0
1001
ACAD
1010
0.0
1020
0.0
1030
0.0
1001
ACDBBLOCKREPETAG
1070
     1
1071
      411
1005
1283EA
  0
LINE
  5
1283EB
  8
SLIM
 10
12466.69699692396
 20
-254.2042790960638
 30
0.0
 11
12470.52792128681
 21
-250.3733547332132
 31
0.0
1001
ACAD
1010
0.0
1020
0.0
1030
0.0
1001
ACDBBLOCKREPETAG
1070
     1
1071
      412
1005
1283EB
  0
LINE
  5
1283EC
  8
SLIM
 10
12473.21279613271
 20
-256.66873600837869
 30
0.0
 11
12477.19948772026
 21
-252.68204442083049
 31
0.0
1001
ACAD
1010
0.0
1020
0.0
1030
0.0
1001
ACDBBLOCKREPETAG
1070
     1
1071
      413
1005
1283EC
  0
LINE
  5
1283ED
  8
SLIM
 10
12480.20005854263
 20
-258.66172971953029
 30
0.0
 11
12484.39794255095
 21
-254.4638457112128
 31
0.0
1001
ACAD
1010
0.0
1020
0.0
1030
0.0
1001
ACDBBLOCKREPETAG
1070
     1
1071
      414
1005
1283ED
  0
LINE
  5
1283EE
  8
SLIM
 10
12487.73202158942
 20
-260.11002279381171
 30
0.0
 11
12492.221138900901
 21
-255.62090548233189
 31
0.0
1001
ACAD
1010
0.0
1020
0.0
1030
0.0
1001
ACDBBLOCKREPETAG
1070
     1
1071
      415
1005
1283EE
  0
LINE
  5
1283EF
  8
SLIM
 10
12495.920268647091
 20
-260.90203185721009
 30
0.0
 11
12500.0
 21
-256.82230050430388
 31
0.0
1001
ACAD
1010
0.0
1020
0.0
1030
0.0
1001
ACDBBLOCKREPETAG
1070
     1
1071
      416
1005
1283EF
  0
LINE
  5
1283F0
  8
SLIM
 10
12500.0
 20
-256.82230050430388
 30
0.0
 11
12500.826575371369
 21
-255.99572513293049
 31
0.0
1001
ACAD
1010
0.0
1020
0.0
1030
0.0
1001
ACDBBLOCKREPETAG
1070
     1
1071
      417
1005
1283F0
  0
LINE
  5
1283F1
  8
SLIM
 10
12504.94661879974
 20
-260.85593782563058
 30
0.0
 11
12510.49379595447
 21
-255.3087606708975
 31
0.0
1001
ACAD
1010
0.0
1020
0.0
1030
0.0
1001
ACDBBLOCKREPETAG
1070
     1
1071
      418
1005
1283F1
  0
LINE
  5
1283F2
  8
SLIM
 10
12515.14248532513
 20
-259.64032742130519
 30
0.0
 11
12521.814448173471
 21
-252.9683645729709
 31
0.0
1001
ACAD
1010
0.0
1020
0.0
1030
0.0
1001
ACDBBLOCKREPETAG
1070
     1
1071
      419
1005
1283F2
  0
LINE
  5
1283F3
  8
SLIM
 10
12527.249225523659
 20
-256.51384334384568
 30
0.0
 11
12536.654232816631
 21
-247.10883605087631
 31
0.0
1001
ACAD
1010
0.0
1020
0.0
1030
0.0
1001
ACDBBLOCKREPETAG
1070
     1
1071
      420
1005
1283F3
  0
LINE
  5
1283F4
  8
SLIM
 10
12544.045159630419
 20
-248.6981653581594
 30
0.0
 11
12554.743329573899
 21
-237.99999541468151
 31
0.0
1001
ACAD
1010
0.0
1020
0.0
1030
0.0
1001
ACDBBLOCKREPETAG
1070
     1
1071
      421
1005
1283F4
  0
LINE
  5
1283F5
  8
CENTER
 10
12580.0
 20
-175.99999541468151
 30
0.0
 11
12400.0
 21
-175.99999541468151
 31
0.0
1001
ACDBBLOCKREPETAG
1070
     1
1071
      187
1005
1283F5
  0
LINE
  5
1283F6
  8
CENTER
 10
12500.0
 20
-275.99999541468162
 30
0.0
 11
12500.0
 21
-75.999995414681507
 31
0.0
1001
ACDBBLOCKREPETAG
1070
     1
1071
      188
1005
1283F6
  0
CIRCLE
  5
1283F7
  8
OBJECT
 10
12500.0
 20
-175.99999541468151
 30
0.0
 40
70.0
1001
ACDBBLOCKREPETAG
1070
     1
1071
      189
1005
1283F7
  0
CIRCLE
  5
1283F8
  8
OBJECT
 10
12500.0
 20
-175.99999541468151
 30
0.0
 40
77.0
1001
ACDBBLOCKREPETAG
1070
     1
1071
      190
1005
1283F8
  0
ARC
  5
1283F9
  8
OBJECT
 10
12500.0
 20
-175.99999541468151
 30
0.0
 40
80.0
 50
50.805032573897769
 51
309.19496742610232
1001
ACDBBLOCKREPETAG
1070
     1
1071
      191
1005
1283F9
  0
LINE
  5
1283FA
  8
OBJECT
 10
12545.661800227321
 20
-113.99999541468151
 30
0.0
 11
12580.0
 21
-113.99999541468151
 31
0.0
1001
ACDBBLOCKREPETAG
1070
     1
1071
      192
1005
1283FA
  0
LINE
  5
1283FB
  8
OBJECT
 10
12545.661800227321
 20
-237.99999541468151
 30
0.0
 11
12580.0
 21
-237.99999541468151
 31
0.0
1001
ACDBBLOCKREPETAG
1070
     1
1071
      193
1005
1283FB
  0
ARC
  5
1283FC
  8
OBJECT
 10
12500.0
 20
-175.99999541468151
 30
0.0
 40
85.0
 50
46.837102859853147
 51
313.16289714014681
1001
ACDBBLOCKREPETAG
1070
     1
1071
      202
1005
1283FC
  0
LINE
  5
1283FD
  8
OBJECT
 10
12524.1029330933
 20
-219.8069425383992
 30
0.0
 11
12520.659656999989
 21
-208.5546174146811
 31
0.0
1001
ACDBBLOCKREPETAG
1070
     1
1071
      321
1005
1283FD
  0
LINE
  5
1283FE
  8
OBJECT
 10
12486.79274990136
 20
-194.2255291567626
 30
0.0
 11
12520.659656999989
 21
-208.55461741467931
 31
0.0
1001
ACDBBLOCKREPETAG
1070
     1
1071
      323
1005
1283FE
  0
ARC
  5
1283FF
  8
OBJECT
 10
12482.8961697619
 20
-203.43512541373909
 30
0.0
 40
10.0
 50
67.066778292911366
 51
154.01473437031629
1001
ACDBBLOCKREPETAG
1070
     1
1071
      324
1005
1283FF
  0
ARC
  5
128400
  8
OBJECT
 10
12486.14883903812
 20
-201.55385798197401
 30
0.0
 40
7.0
 50
67.066778292911366
 51
154.0147337749826
1001
ACDBBLOCKREPETAG
1070
     1
1071
      325
1005
128400
  0
LINE
  5
128401
  8
OBJECT
 10
12469.4199755553
 20
-219.89888042286421
 30
0.0
 11
12479.856491823241
 21
-198.48687794825031
 31
0.0
1001
ACDBBLOCKREPETAG
1070
     1
1071
      353
1005
128401
  0
LINE
  5
128402
  8
OBJECT
 10
12465.29721690061
 20
-216.71813443350979
 30
0.0
 11
12473.90710226651
 21
-199.0537254589899
 31
0.0
1001
ACDBBLOCKREPETAG
1070
     1
1071
      354
1005
128402
  0
ARC
  5
128403
  8
OBJECT
 10
12476.57969530731
 20
-183.128932397526
 30
0.0
 40
60.031113246032611
 50
314.07020130422319
 51
322.33936106089681
1001
ACDBBLOCKREPETAG
1070
     1
1071
      355
1005
128403
  0
CIRCLE
  5
128404
  8
OBJECT
 10
12500.0
 20
-175.99999541468151
 30
0.0
 40
53.5
1001
ACDBBLOCKREPETAG
1070
     1
1071
      356
1005
128404
  0
POINT
  5
128405
  8
DOTS
 10
12500.0
 20
-175.99999541468151
 30
0.0
 50
270.0
1001
ACDBBLOCKREPETAG
1070
     1
1071
      365
1005
128405
  0
LINE
  5
128406
  8
OBJECT
 10
6524.1029330933034
 20
-219.8069425383992
 30
0.0
 11
6520.6596569999947
 21
-208.5546174146811
 31
0.0
1001
ACDBBLOCKREPETAG
1070
     1
1071
      300
1005
128406
  0
LINE
  5
128407
  8
OBJECT
 10
6486.7927499013749
 20
-194.2255291567626
 30
0.0
 11
6520.6596569999947
 21
-208.55461741467931
 31
0.0
1001
ACDBBLOCKREPETAG
1070
     1
1071
      302
1005
128407
  0
ARC
  5
128408
  8
OBJECT
 10
6482.8961697619015
 20
-203.43512541373909
 30
0.0
 40
10.0
 50
67.066778292911366
 51
154.0147343702935
1001
ACDBBLOCKREPETAG
1070
     1
1071
      303
1005
128408
  0
ARC
  5
128409
  8
OBJECT
 10
6486.1488390381273
 20
-201.55385798197401
 30
0.0
 40
7.0
 50
67.066778292911366
 51
154.0147337749826
1001
ACDBBLOCKREPETAG
1070
     1
1071
      304
1005
128409
  0
LINE
  5
12840A
  8
OBJECT
 10
6469.4199755553009
 20
-219.89888042286421
 30
0.0
 11
6479.8564918232369
 21
-198.48687794825031
 31
0.0
1001
ACDBBLOCKREPETAG
1070
     1
1071
      341
1005
12840A
  0
LINE
  5
12840B
  8
OBJECT
 10
6465.2972169006089
 20
-216.71813443350979
 30
0.0
 11
6473.9071022665084
 21
-199.0537254589899
 31
0.0
1001
ACDBBLOCKREPETAG
1070
     1
1071
      342
1005
12840B
  0
ARC
  5
12840C
  8
OBJECT
 10
6476.5796953073141
 20
-183.128932397526
 30
0.0
 40
60.031113246032611
 50
314.07020130418567
 51
322.33936106089681
1001
ACDBBLOCKREPETAG
1070
     1
1071
      343
1005
12840C
  0
CIRCLE
  5
12840D
  8
OBJECT
 10
6500.0
 20
-175.99999541468151
 30
0.0
 40
53.5
1001
ACDBBLOCKREPETAG
1070
     1
1071
      344
1005
12840D
  0
POINT
  5
12840E
  8
DOTS
 10
6500.0
 20
-175.99999541468151
 30
0.0
 50
270.0
1001
ACDBBLOCKREPETAG
1070
     1
1071
      362
1005
12840E
  0
ARC
  5
12840F
  8
OBJECT
 10
6500.0
 20
-175.99999541468151
 30
0.0
 40
50.0
 50
298.81994300000417
 51
228.52376955965491
1001
ACDBBLOCKREPETAG
1070
     1
1071
        7
1005
12840F
  0
LINE
  5
128410
  8
CENTER
 10
6580.0
 20
-175.99999541468151
 30
0.0
 11
6405.0
 21
-175.99999541468151
 31
0.0
1001
ACDBBLOCKREPETAG
1070
     1
1071
       14
1005
128410
  0
LINE
  5
128411
  8
CENTER
 10
6500.0
 20
-270.99999541468162
 30
0.0
 11
6500.0
 21
-80.999995414681507
 31
0.0
1001
ACDBBLOCKREPETAG
1070
     1
1071
       15
1005
128411
  0
CIRCLE
  5
128412
  8
OBJECT
 10
6500.0
 20
-175.99999541468151
 30
0.0
 40
70.0
1001
ACDBBLOCKREPETAG
1070
     1
1071
       16
1005
128412
  0
CIRCLE
  5
128413
  8
OBJECT
 10
6500.0
 20
-175.99999541468151
 30
0.0
 40
77.0
1001
ACDBBLOCKREPETAG
1070
     1
1071
       17
1005
128413
  0
ARC
  5
128414
  8
OBJECT
 10
6500.0
 20
-175.99999541468151
 30
0.0
 40
80.0
 50
50.80503257388439
 51
309.19496742611562
1001
ACDBBLOCKREPETAG
1070
     1
1071
       18
1005
128414
  0
LINE
  5
128415
  8
OBJECT
 10
6545.6618002273262
 20
-113.99999541468151
 30
0.0
 11
6580.0
 21
-113.99999541468151
 31
0.0
1001
ACDBBLOCKREPETAG
1070
     1
1071
       19
1005
128415
  0
LINE
  5
128416
  8
OBJECT
 10
6545.6618002273262
 20
-237.99999541468151
 30
0.0
 11
6580.0
 21
-237.99999541468151
 31
0.0
1001
ACDBBLOCKREPETAG
1070
     1
1071
       20
1005
128416
  0
LINE
  5
128417
  8
OBJECT
 10
12633.0
 20
-113.99999541468151
 30
0.0
 11
12640.0
 21
-113.99999541468151
 31
0.0
1001
ACDBBLOCKREPETAG
1070
     1
1071
       47
1005
128417
  0
LINE
  5
128418
  8
OBJECT
 10
12640.0
 20
-113.99999541468151
 30
0.0
 11
12640.0
 21
-237.99999541468151
 31
0.0
1001
ACDBBLOCKREPETAG
1070
     1
1071
       48
1005
128418
  0
LINE
  5
128419
  8
OBJECT
 10
12640.0
 20
-237.99999541468151
 30
0.0
 11
12633.0
 21
-237.99999541468151
 31
0.0
1001
ACDBBLOCKREPETAG
1070
     1
1071
       49
1005
128419
  0
LINE
  5
12841A
  8
OBJECT
 10
12633.0
 20
-237.99999541468151
 30
0.0
 11
12633.0
 21
-113.99999541468151
 31
0.0
1001
ACDBBLOCKREPETAG
1070
     1
1071
       50
1005
12841A
  0
LINE
  5
12841B
  8
CENTER
 10
12655.0
 20
-175.99999541468151
 30
0.0
 11
12580.0
 21
-175.99999541468151
 31
0.0
1001
ACDBBLOCKREPETAG
1070
     1
1071
       51
1005
12841B
  0
LINE
  5
12841C
  8
OBJECT
 10
12633.0
 20
-116.99999541468151
 30
0.0
 11
12597.0
 21
-116.99999541468151
 31
0.0
1001
ACDBBLOCKREPETAG
1070
     1
1071
       52
1005
12841C
  0
LINE
  5
12841D
  8
OBJECT
 10
12597.0
 20
-116.99999541468151
 30
0.0
 11
12597.0
 21
-234.99999541468151
 31
0.0
1001
ACDBBLOCKREPETAG
1070
     1
1071
       53
1005
12841D
  0
LINE
  5
12841E
  8
OBJECT
 10
12597.0
 20
-234.99999541468151
 30
0.0
 11
12633.0
 21
-234.99999541468151
 31
0.0
1001
ACDBBLOCKREPETAG
1070
     1
1071
       54
1005
12841E
  0
LINE
  5
12841F
  8
OBJECT
 10
12593.0
 20
-121.49999541468151
 30
0.0
 11
12586.0
 21
-121.49999541468151
 31
0.0
1001
ACDBBLOCKREPETAG
1070
     1
1071
       55
1005
12841F
  0
LINE
  5
128420
  8
OBJECT
 10
12586.0
 20
-230.49999541468151
 30
0.0
 11
12593.0
 21
-230.49999541468151
 31
0.0
1001
ACDBBLOCKREPETAG
1070
     1
1071
       56
1005
128420
  0
LINE
  5
128421
  8
OBJECT
 10
12593.0
 20
-230.49999541468151
 30
0.0
 11
12593.0
 21
-121.49999541468151
 31
0.0
1001
ACDBBLOCKREPETAG
1070
     1
1071
       57
1005
128421
  0
LINE
  5
128422
  8
OBJECT
 10
12597.0
 20
-116.99999541468151
 30
0.0
 11
12593.0
 21
-121.49999541468151
 31
0.0
1001
ACDBBLOCKREPETAG
1070
     1
1071
       58
1005
128422
  0
LINE
  5
128423
  8
OBJECT
 10
12597.0
 20
-234.99999541468151
 30
0.0
 11
12593.0
 21
-230.49999541468151
 31
0.0
1001
ACDBBLOCKREPETAG
1070
     1
1071
       59
1005
128423
  0
LINE
  5
128424
  8
OBJECT
 10
12583.0
 20
-113.99999541468151
 30
0.0
 11
12580.0
 21
-113.99999541468151
 31
0.0
1001
ACDBBLOCKREPETAG
1070
     1
1071
       60
1005
128424
  0
ARC
  5
128425
  8
OBJECT
 10
12583.0
 20
-116.99999541468151
 30
0.0
 40
3.0
 50
0.0
 51
90.0
1001
ACDBBLOCKREPETAG
1070
     1
1071
       61
1005
128425
  0
LINE
  5
128426
  8
OBJECT
 10
12580.0
 20
-237.99999541468151
 30
0.0
 11
12583.0
 21
-237.99999541468151
 31
0.0
1001
ACDBBLOCKREPETAG
1070
     1
1071
       62
1005
128426
  0
ARC
  5
128427
  8
OBJECT
 10
12583.0
 20
-234.99999541468151
 30
0.0
 40
3.0
 50
270.0
 51
0.0
1001
ACDBBLOCKREPETAG
1070
     1
1071
       63
1005
128427
  0
LINE
  5
128428
  8
OBJECT
 10
12586.0
 20
-234.99999541468151
 30
0.0
 11
12586.0
 21
-116.99999541468151
 31
0.0
1001
ACDBBLOCKREPETAG
1070
     1
1071
       64
1005
128428
  0
LINE
  5
128429
  8
HIDDEN
 10
12588.0
 20
-131.49999541468151
 30
0.0
 11
12588.0
 21
-220.49999541468151
 31
0.0
1001
ACDBBLOCKREPETAG
1070
     1
1071
       65
1005
128429
  0
LINE
  5
12842A
  8
OBJECT
 10
6633.0
 20
-113.99999541468151
 30
0.0
 11
6640.0
 21
-113.99999541468151
 31
0.0
1001
ACDBBLOCKREPETAG
1070
     1
1071
       47
1005
12842A
  0
LINE
  5
12842B
  8
OBJECT
 10
6640.0
 20
-113.99999541468151
 30
0.0
 11
6640.0
 21
-237.99999541468151
 31
0.0
1001
ACDBBLOCKREPETAG
1070
     1
1071
       48
1005
12842B
  0
LINE
  5
12842C
  8
OBJECT
 10
6640.0
 20
-237.99999541468151
 30
0.0
 11
6633.0
 21
-237.99999541468151
 31
0.0
1001
ACDBBLOCKREPETAG
1070
     1
1071
       49
1005
12842C
  0
LINE
  5
12842D
  8
OBJECT
 10
6633.0
 20
-237.99999541468151
 30
0.0
 11
6633.0
 21
-113.99999541468151
 31
0.0
1001
ACDBBLOCKREPETAG
1070
     1
1071
       50
1005
12842D
  0
LINE
  5
12842E
  8
CENTER
 10
6655.0
 20
-175.99999541468151
 30
0.0
 11
6580.0
 21
-175.99999541468151
 31
0.0
1001
ACDBBLOCKREPETAG
1070
     1
1071
       51
1005
12842E
  0
LINE
  5
12842F
  8
OBJECT
 10
6633.0
 20
-116.99999541468151
 30
0.0
 11
6597.0
 21
-116.99999541468151
 31
0.0
1001
ACDBBLOCKREPETAG
1070
     1
1071
       52
1005
12842F
  0
LINE
  5
128430
  8
OBJECT
 10
6597.0
 20
-116.99999541468151
 30
0.0
 11
6597.0
 21
-234.99999541468151
 31
0.0
1001
ACDBBLOCKREPETAG
1070
     1
1071
       53
1005
128430
  0
LINE
  5
128431
  8
OBJECT
 10
6597.0
 20
-234.99999541468151
 30
0.0
 11
6633.0
 21
-234.99999541468151
 31
0.0
1001
ACDBBLOCKREPETAG
1070
     1
1071
       54
1005
128431
  0
LINE
  5
128432
  8
OBJECT
 10
6593.0
 20
-121.49999541468151
 30
0.0
 11
6586.0
 21
-121.49999541468151
 31
0.0
1001
ACDBBLOCKREPETAG
1070
     1
1071
       55
1005
128432
  0
LINE
  5
128433
  8
OBJECT
 10
6586.0
 20
-230.49999541468151
 30
0.0
 11
6593.0
 21
-230.49999541468151
 31
0.0
1001
ACDBBLOCKREPETAG
1070
     1
1071
       56
1005
128433
  0
LINE
  5
128434
  8
OBJECT
 10
6593.0
 20
-230.49999541468151
 30
0.0
 11
6593.0
 21
-121.49999541468151
 31
0.0
1001
ACDBBLOCKREPETAG
1070
     1
1071
       57
1005
128434
  0
LINE
  5
128435
  8
OBJECT
 10
6597.0
 20
-116.99999541468151
 30
0.0
 11
6593.0
 21
-121.49999541468151
 31
0.0
1001
ACDBBLOCKREPETAG
1070
     1
1071
       58
1005
128435
  0
LINE
  5
128436
  8
OBJECT
 10
6597.0
 20
-234.99999541468151
 30
0.0
 11
6593.0
 21
-230.49999541468151
 31
0.0
1001
ACDBBLOCKREPETAG
1070
     1
1071
       59
1005
128436
  0
LINE
  5
128437
  8
OBJECT
 10
6583.0
 20
-113.99999541468151
 30
0.0
 11
6580.0
 21
-113.99999541468151
 31
0.0
1001
ACDBBLOCKREPETAG
1070
     1
1071
       60
1005
128437
  0
ARC
  5
128438
  8
OBJECT
 10
6583.0
 20
-116.99999541468151
 30
0.0
 40
3.0
 50
0.0
 51
90.0
1001
ACDBBLOCKREPETAG
1070
     1
1071
       61
1005
128438
  0
LINE
  5
128439
  8
OBJECT
 10
6580.0
 20
-237.99999541468151
 30
0.0
 11
6583.0
 21
-237.99999541468151
 31
0.0
1001
ACDBBLOCKREPETAG
1070
     1
1071
       62
1005
128439
  0
ARC
  5
12843A
  8
OBJECT
 10
6583.0
 20
-234.99999541468151
 30
0.0
 40
3.0
 50
270.0
 51
0.0
1001
ACDBBLOCKREPETAG
1070
     1
1071
       63
1005
12843A
  0
LINE
  5
12843B
  8
OBJECT
 10
6586.0
 20
-234.99999541468151
 30
0.0
 11
6586.0
 21
-116.99999541468151
 31
0.0
1001
ACDBBLOCKREPETAG
1070
     1
1071
       64
1005
12843B
  0
LINE
  5
12843C
  8
HIDDEN
 10
6588.0
 20
-131.49999541468151
 30
0.0
 11
6588.0
 21
-220.49999541468151
 31
0.0
1001
ACDBBLOCKREPETAG
1070
     1
1071
       65
1005
12843C
  0
ARC
  5
12843D
  8
OBJECT
 10
10500.0
 20
-175.99999541468151
 30
0.0
 40
50.0
 50
298.81994300000417
 51
228.52376955964741
1001
ACDBBLOCKREPETAG
1070
     1
1071
      185
1005
12843D
  0
LINE
  5
12843E
  8
SLIM
 10
10427.30183005652
 20
-131.95483578426081
 30
0.0
 11
10455.954840369581
 21
-103.3018254712013
 31
0.0
1001
ACAD
1010
0.0
1020
0.0
1030
0.0
1001
ACDBBLOCKREPETAG
1070
     1
1071
      429
1005
12843E
  0
LINE
  5
12843F
  8
SLIM
 10
10419.48615207082
 20
-148.75076989101481
 30
0.0
 11
10428.8911593638
 21
-139.34576259805101
 31
0.0
1001
ACAD
1010
0.0
1020
0.0
1030
0.0
1001
ACDBBLOCKREPETAG
1070
     1
1071
      381
1005
12843F
  0
LINE
  5
128440
  8
SLIM
 10
10463.34576718336
 20
-104.8911547784803
 30
0.0
 11
10472.75077447633
 21
-95.486147485516582
 31
0.0
1001
ACAD
1010
0.0
1020
0.0
1030
0.0
1001
ACDBBLOCKREPETAG
1070
     1
1071
      382
1005
128440
  0
LINE
  5
128441
  8
SLIM
 10
10416.35966799338
 20
-160.85751008954301
 30
0.0
 11
10423.03163084171
 21
-154.18554724121299
 31
0.0
1001
ACAD
1010
0.0
1020
0.0
1030
0.0
1001
ACDBBLOCKREPETAG
1070
     1
1071
      383
1005
128441
  0
LINE
  5
128442
  8
SLIM
 10
10478.185551826529
 20
-99.031626256387483
 30
0.0
 11
10484.857514674861
 21
-92.359663408057429
 31
0.0
1001
ACAD
1010
0.0
1020
0.0
1030
0.0
1001
ACDBBLOCKREPETAG
1070
     1
1071
      384
1005
128442
  0
LINE
  5
128443
  8
SLIM
 10
10415.14405758905
 20
-171.05337661493741
 30
0.0
 11
10420.691234743779
 21
-165.50619946020811
 31
0.0
1001
ACAD
1010
0.0
1020
0.0
1030
0.0
1001
ACDBBLOCKREPETAG
1070
     1
1071
      385
1005
128443
  0
LINE
  5
128444
  8
SLIM
 10
10489.50620404553
 20
-96.691230158461494
 30
0.0
 11
10495.05338120026
 21
-91.144053003732239
 31
0.0
1001
ACAD
1010
0.0
1020
0.0
1030
0.0
1001
ACDBBLOCKREPETAG
1070
     1
1071
      386
1005
128444
  0
LINE
  5
128445
  8
SLIM
 10
10415.09796355746
 20
-180.07972676759269
 30
0.0
 11
10419.17769491037
 21
-175.99999541468151
 31
0.0
1001
ACAD
1010
0.0
1020
0.0
1030
0.0
1001
ACDBBLOCKREPETAG
1070
     1
1071
      387
1005
128445
  0
LINE
  5
128446
  8
SLIM
 10
10500.0
 20
-95.177690325059132
 30
0.0
 11
10504.0797313529
 21
-91.097958972153265
 31
0.0
1001
ACAD
1010
0.0
1020
0.0
1030
0.0
1001
ACDBBLOCKREPETAG
1070
     1
1071
      388
1005
128446
  0
LINE
  5
128447
  8
SLIM
 10
10419.17769491037
 20
-175.99999541468151
 30
0.0
 11
10420.00427028175
 21
-175.17342004330999
 31
0.0
1001
ACAD
1010
0.0
1020
0.0
1030
0.0
1001
ACDBBLOCKREPETAG
1070
     1
1071
      389
1005
128447
  0
LINE
  5
128448
  8
SLIM
 10
10499.173424628631
 20
-96.004265696428789
 30
0.0
 11
10500.0
 21
-95.177690325059146
 31
0.0
1001
ACAD
1010
0.0
1020
0.0
1030
0.0
1001
ACDBBLOCKREPETAG
1070
     1
1071
      390
1005
128448
  0
LINE
  5
128449
  8
SLIM
 10
10415.88997262086
 20
-188.2679738252624
 30
0.0
 11
10420.37908993235
 21
-183.77885651377261
 31
0.0
1001
ACAD
1010
0.0
1020
0.0
1030
0.0
1001
ACDBBLOCKREPETAG
1070
     1
1071
      391
1005
128449
  0
LINE
  5
12844A
  8
SLIM
 10
10507.77886109909
 20
-96.379085347030724
 30
0.0
 11
10512.26797841056
 21
-91.889968035552343
 31
0.0
1001
ACAD
1010
0.0
1020
0.0
1030
0.0
1001
ACDBBLOCKREPETAG
1070
     1
1071
      392
1005
12844A
  0
LINE
  5
12844B
  8
SLIM
 10
10417.338265695151
 20
-195.7999368720495
 30
0.0
 11
10421.53614970347
 21
-191.6020528637238
 31
0.0
1001
ACAD
1010
0.0
1020
0.0
1030
0.0
1001
ACDBBLOCKREPETAG
1070
     1
1071
      393
1005
12844B
  0
LINE
  5
12844C
  8
SLIM
 10
10515.60205744905
 20
-97.536145118149506
 30
0.0
 11
10519.799941457361
 21
-93.338261109834278
 31
0.0
1001
ACAD
1010
0.0
1020
0.0
1030
0.0
1001
ACDBBLOCKREPETAG
1070
     1
1071
      394
1005
12844C
  0
LINE
  5
12844D
  8
SLIM
 10
10419.331259406301
 20
-202.78719928196651
 30
0.0
 11
10423.317950993851
 21
-198.80050769441161
 31
0.0
1001
ACAD
1010
0.0
1020
0.0
1030
0.0
1001
ACDBBLOCKREPETAG
1070
     1
1071
      395
1005
12844D
  0
LINE
  5
12844E
  8
SLIM
 10
10522.800512279729
 20
-99.317946408531412
 30
0.0
 11
10526.787203867279
 21
-95.331254820986345
 31
0.0
1001
ACAD
1010
0.0
1020
0.0
1030
0.0
1001
ACDBBLOCKREPETAG
1070
     1
1071
      396
1005
12844E
  0
LINE
  5
12844F
  8
SLIM
 10
10421.795716318609
 20
-209.3029984907202
 30
0.0
 11
10425.62664068147
 21
-205.47207412786429
 31
0.0
1001
ACAD
1010
0.0
1020
0.0
1030
0.0
1001
ACDBBLOCKREPETAG
1070
     1
1071
      397
1005
12844F
  0
LINE
  5
128450
  8
SLIM
 10
10529.47207871319
 20
-101.6266360961484
 30
0.0
 11
10533.303003076029
 21
-97.795711733301616
 31
0.0
1001
ACAD
1010
0.0
1020
0.0
1030
0.0
1001
ACDBBLOCKREPETAG
1070
     1
1071
      398
1005
128450
  0
LINE
  5
128451
  8
SLIM
 10
10424.681663531341
 20
-215.39730739906469
 30
0.0
 11
10428.397899414491
 21
-211.68107151591281
 31
0.0
1001
ACAD
1010
0.0
1020
0.0
1030
0.0
1001
ACDBBLOCKREPETAG
1070
     1
1071
      399
1005
128451
  0
LINE
  5
128452
  8
SLIM
 10
10535.681076101229
 20
-104.3978948291695
 30
0.0
 11
10539.397311984379
 21
-100.6816589460261
 31
0.0
1001
ACAD
1010
0.0
1020
0.0
1030
0.0
1001
ACDBBLOCKREPETAG
1070
     1
1071
      400
1005
128452
  0
LINE
  5
128453
  8
SLIM
 10
10427.954461102419
 20
-221.1047659490537
 30
0.0
 11
10431.58829484775
 21
-217.47093220372389
 31
0.0
1001
ACAD
1010
0.0
1020
0.0
1030
0.0
1001
ACDBBLOCKREPETAG
1070
     1
1071
      401
1005
128453
  0
LINE
  5
128454
  8
SLIM
 10
10541.470936789039
 20
-107.588290262428
 30
0.0
 11
10545.10477053437
 21
-103.9544565171061
 31
0.0
1001
ACAD
1010
0.0
1020
0.0
1030
0.0
1001
ACDBBLOCKREPETAG
1070
     1
1071
      402
1005
128454
  0
LINE
  5
128455
  8
SLIM
 10
10431.59033196866
 20
-226.44915120388191
 30
0.0
 11
10435.16855767846
 21
-222.8709254940826
 31
0.0
1001
ACAD
1010
0.0
1020
0.0
1030
0.0
1001
ACDBBLOCKREPETAG
1070
     1
1071
      403
1005
128455
  0
LINE
  5
128456
  8
SLIM
 10
10546.8709300794
 20
-111.1685530931389
 30
0.0
 11
10550.449155789191
 21
-107.5903273833469
 31
0.0
1001
ACAD
1010
0.0
1020
0.0
1030
0.0
1001
ACDBBLOCKREPETAG
1070
     1
1071
      404
1005
128456
  0
LINE
  5
128457
  8
SLIM
 10
10435.573749692519
 20
-231.44598960108971
 30
0.0
 11
10439.119812975139
 21
-227.89992631846809
 31
0.0
1001
ACAD
1010
0.0
1020
0.0
1030
0.0
1001
ACDBBLOCKREPETAG
1070
     1
1071
      405
1005
128457
  0
LINE
  5
128458
  8
SLIM
 10
10553.019743878929
 20
-113.99999541468151
 30
0.0
 11
10555.445994186401
 21
-111.5737451072081
 31
0.0
1001
ACAD
1010
0.0
1020
0.0
1030
0.0
1001
ACDBBLOCKREPETAG
1070
     1
1071
      406
1005
128458
  0
LINE
  5
128459
  8
SLIM
 10
10439.895923599141
 20
-236.10407181554169
 30
0.0
 11
10443.431457505079
 21
-232.5685379096023
 31
0.0
1001
ACAD
1010
0.0
1020
0.0
1030
0.0
1001
ACDBBLOCKREPETAG
1070
     1
1071
      407
1005
128459
  0
LINE
  5
12845A
  8
SLIM
 10
10444.55400581359
 20
-240.42624572215851
 30
0.0
 11
10448.10006909621
 21
-236.88018243953789
 31
0.0
1001
ACAD
1010
0.0
1020
0.0
1030
0.0
1001
ACDBBLOCKREPETAG
1070
     1
1071
      408
1005
12845A
  0
LINE
  5
12845B
  8
SLIM
 10
10449.5508442108
 20
-244.40966344601941
 30
0.0
 11
10453.1290699206
 21
-240.831437736222
 31
0.0
1001
ACAD
1010
0.0
1020
0.0
1030
0.0
1001
ACDBBLOCKREPETAG
1070
     1
1071
      409
1005
12845B
  0
LINE
  5
12845C
  8
SLIM
 10
10454.89522946563
 20
-248.04553431225989
 30
0.0
 11
10458.52906321095
 21
-244.41170056693321
 31
0.0
1001
ACAD
1010
0.0
1020
0.0
1030
0.0
1001
ACDBBLOCKREPETAG
1070
     1
1071
      410
1005
12845C
  0
LINE
  5
12845D
  8
SLIM
 10
10460.602688015621
 20
-251.3183318833396
 30
0.0
 11
10464.31892389876
 21
-247.60209600019189
 31
0.0
1001
ACAD
1010
0.0
1020
0.0
1030
0.0
1001
ACDBBLOCKREPETAG
1070
     1
1071
      411
1005
12845D
  0
LINE
  5
12845E
  8
SLIM
 10
10466.69699692396
 20
-254.2042790960638
 30
0.0
 11
10470.52792128681
 21
-250.3733547332132
 31
0.0
1001
ACAD
1010
0.0
1020
0.0
1030
0.0
1001
ACDBBLOCKREPETAG
1070
     1
1071
      412
1005
12845E
  0
LINE
  5
12845F
  8
SLIM
 10
10473.212796132721
 20
-256.66873600837869
 30
0.0
 11
10477.19948772026
 21
-252.68204442083049
 31
0.0
1001
ACAD
1010
0.0
1020
0.0
1030
0.0
1001
ACDBBLOCKREPETAG
1070
     1
1071
      413
1005
12845F
  0
LINE
  5
128460
  8
SLIM
 10
10480.20005854263
 20
-258.66172971953029
 30
0.0
 11
10484.39794255095
 21
-254.4638457112128
 31
0.0
1001
ACAD
1010
0.0
1020
0.0
1030
0.0
1001
ACDBBLOCKREPETAG
1070
     1
1071
      414
1005
128460
  0
LINE
  5
128461
  8
SLIM
 10
10487.73202158942
 20
-260.11002279381171
 30
0.0
 11
10492.221138900901
 21
-255.62090548233189
 31
0.0
1001
ACAD
1010
0.0
1020
0.0
1030
0.0
1001
ACDBBLOCKREPETAG
1070
     1
1071
      415
1005
128461
  0
LINE
  5
128462
  8
SLIM
 10
10495.920268647091
 20
-260.90203185721009
 30
0.0
 11
10500.0
 21
-256.82230050430388
 31
0.0
1001
ACAD
1010
0.0
1020
0.0
1030
0.0
1001
ACDBBLOCKREPETAG
1070
     1
1071
      416
1005
128462
  0
LINE
  5
128463
  8
SLIM
 10
10500.0
 20
-256.82230050430388
 30
0.0
 11
10500.826575371369
 21
-255.99572513293049
 31
0.0
1001
ACAD
1010
0.0
1020
0.0
1030
0.0
1001
ACDBBLOCKREPETAG
1070
     1
1071
      417
1005
128463
  0
LINE
  5
128464
  8
SLIM
 10
10504.94661879974
 20
-260.85593782563058
 30
0.0
 11
10510.49379595447
 21
-255.3087606708975
 31
0.0
1001
ACAD
1010
0.0
1020
0.0
1030
0.0
1001
ACDBBLOCKREPETAG
1070
     1
1071
      418
1005
128464
  0
LINE
  5
128465
  8
SLIM
 10
10515.14248532513
 20
-259.64032742130519
 30
0.0
 11
10521.814448173471
 21
-252.9683645729709
 31
0.0
1001
ACAD
1010
0.0
1020
0.0
1030
0.0
1001
ACDBBLOCKREPETAG
1070
     1
1071
      419
1005
128465
  0
LINE
  5
128466
  8
SLIM
 10
10527.249225523659
 20
-256.51384334384568
 30
0.0
 11
10536.654232816631
 21
-247.10883605087631
 31
0.0
1001
ACAD
1010
0.0
1020
0.0
1030
0.0
1001
ACDBBLOCKREPETAG
1070
     1
1071
      420
1005
128466
  0
LINE
  5
128467
  8
SLIM
 10
10544.045159630419
 20
-248.6981653581594
 30
0.0
 11
10554.743329573899
 21
-237.99999541468151
 31
0.0
1001
ACAD
1010
0.0
1020
0.0
1030
0.0
1001
ACDBBLOCKREPETAG
1070
     1
1071
      421
1005
128467
  0
LINE
  5
128468
  8
CENTER
 10
10580.0
 20
-175.99999541468151
 30
0.0
 11
10400.0
 21
-175.99999541468151
 31
0.0
1001
ACDBBLOCKREPETAG
1070
     1
1071
      187
1005
128468
  0
LINE
  5
128469
  8
CENTER
 10
10500.0
 20
-275.99999541468162
 30
0.0
 11
10500.0
 21
-75.999995414681507
 31
0.0
1001
ACDBBLOCKREPETAG
1070
     1
1071
      188
1005
128469
  0
CIRCLE
  5
12846A
  8
OBJECT
 10
10500.0
 20
-175.99999541468151
 30
0.0
 40
70.0
1001
ACDBBLOCKREPETAG
1070
     1
1071
      189
1005
12846A
  0
CIRCLE
  5
12846B
  8
OBJECT
 10
10500.0
 20
-175.99999541468151
 30
0.0
 40
77.0
1001
ACDBBLOCKREPETAG
1070
     1
1071
      190
1005
12846B
  0
ARC
  5
12846C
  8
OBJECT
 10
10500.0
 20
-175.99999541468151
 30
0.0
 40
80.0
 50
50.805032573897769
 51
309.19496742610232
1001
ACDBBLOCKREPETAG
1070
     1
1071
      191
1005
12846C
  0
LINE
  5
12846D
  8
OBJECT
 10
10545.661800227321
 20
-113.99999541468151
 30
0.0
 11
10580.0
 21
-113.99999541468151
 31
0.0
1001
ACDBBLOCKREPETAG
1070
     1
1071
      192
1005
12846D
  0
LINE
  5
12846E
  8
OBJECT
 10
10545.661800227321
 20
-237.99999541468151
 30
0.0
 11
10580.0
 21
-237.99999541468151
 31
0.0
1001
ACDBBLOCKREPETAG
1070
     1
1071
      193
1005
12846E
  0
ARC
  5
12846F
  8
OBJECT
 10
10500.0
 20
-175.99999541468151
 30
0.0
 40
85.0
 50
46.837102859853147
 51
313.16289714014681
1001
ACDBBLOCKREPETAG
1070
     1
1071
      202
1005
12846F
  0
LINE
  5
128470
  8
OBJECT
 10
10524.1029330933
 20
-219.8069425383992
 30
0.0
 11
10520.659656999989
 21
-208.5546174146811
 31
0.0
1001
ACDBBLOCKREPETAG
1070
     1
1071
      321
1005
128470
  0
LINE
  5
128471
  8
OBJECT
 10
10486.792749901369
 20
-194.2255291567626
 30
0.0
 11
10520.659656999989
 21
-208.55461741467931
 31
0.0
1001
ACDBBLOCKREPETAG
1070
     1
1071
      323
1005
128471
  0
ARC
  5
128472
  8
OBJECT
 10
10482.8961697619
 20
-203.43512541373909
 30
0.0
 40
10.0
 50
67.066778292911366
 51
154.01473437031629
1001
ACDBBLOCKREPETAG
1070
     1
1071
      324
1005
128472
  0
ARC
  5
128473
  8
OBJECT
 10
10486.14883903812
 20
-201.55385798197401
 30
0.0
 40
7.0
 50
67.066778292911366
 51
154.0147337749826
1001
ACDBBLOCKREPETAG
1070
     1
1071
      325
1005
128473
  0
LINE
  5
128474
  8
OBJECT
 10
10469.4199755553
 20
-219.89888042286421
 30
0.0
 11
10479.856491823241
 21
-198.48687794825031
 31
0.0
1001
ACDBBLOCKREPETAG
1070
     1
1071
      353
1005
128474
  0
LINE
  5
128475
  8
OBJECT
 10
10465.29721690061
 20
-216.71813443350979
 30
0.0
 11
10473.90710226651
 21
-199.0537254589899
 31
0.0
1001
ACDBBLOCKREPETAG
1070
     1
1071
      354
1005
128475
  0
ARC
  5
128476
  8
OBJECT
 10
10476.57969530731
 20
-183.128932397526
 30
0.0
 40
60.031113246032611
 50
314.07020130422319
 51
322.33936106089681
1001
ACDBBLOCKREPETAG
1070
     1
1071
      355
1005
128476
  0
CIRCLE
  5
128477
  8
OBJECT
 10
10500.0
 20
-175.99999541468151
 30
0.0
 40
53.5
1001
ACDBBLOCKREPETAG
1070
     1
1071
      356
1005
128477
  0
POINT
  5
128478
  8
DOTS
 10
10500.0
 20
-175.99999541468151
 30
0.0
 50
270.0
1001
ACDBBLOCKREPETAG
1070
     1
1071
      365
1005
128478
  0
LINE
  5
128479
  8
OBJECT
 10
4524.1029330933034
 20
-219.8069425383992
 30
0.0
 11
4520.6596569999947
 21
-208.5546174146811
 31
0.0
1001
ACDBBLOCKREPETAG
1070
     1
1071
      300
1005
128479
  0
LINE
  5
12847A
  8
OBJECT
 10
4486.7927499013749
 20
-194.2255291567626
 30
0.0
 11
4520.6596569999947
 21
-208.55461741467931
 31
0.0
1001
ACDBBLOCKREPETAG
1070
     1
1071
      302
1005
12847A
  0
ARC
  5
12847B
  8
OBJECT
 10
4482.8961697619006
 20
-203.43512541373909
 30
0.0
 40
10.0
 50
67.066778292911366
 51
154.0147343702935
1001
ACDBBLOCKREPETAG
1070
     1
1071
      303
1005
12847B
  0
ARC
  5
12847C
  8
OBJECT
 10
4486.1488390381273
 20
-201.55385798197401
 30
0.0
 40
7.0
 50
67.066778292911366
 51
154.0147337749826
1001
ACDBBLOCKREPETAG
1070
     1
1071
      304
1005
12847C
  0
LINE
  5
12847D
  8
OBJECT
 10
4469.4199755553018
 20
-219.89888042286421
 30
0.0
 11
4479.8564918232369
 21
-198.48687794825031
 31
0.0
1001
ACDBBLOCKREPETAG
1070
     1
1071
      341
1005
12847D
  0
LINE
  5
12847E
  8
OBJECT
 10
4465.2972169006089
 20
-216.71813443350979
 30
0.0
 11
4473.9071022665084
 21
-199.0537254589899
 31
0.0
1001
ACDBBLOCKREPETAG
1070
     1
1071
      342
1005
12847E
  0
ARC
  5
12847F
  8
OBJECT
 10
4476.5796953073141
 20
-183.128932397526
 30
0.0
 40
60.031113246032611
 50
314.07020130418567
 51
322.33936106089681
1001
ACDBBLOCKREPETAG
1070
     1
1071
      343
1005
12847F
  0
CIRCLE
  5
128480
  8
OBJECT
 10
4500.0
 20
-175.99999541468151
 30
0.0
 40
53.5
1001
ACDBBLOCKREPETAG
1070
     1
1071
      344
1005
128480
  0
POINT
  5
128481
  8
DOTS
 10
4500.0
 20
-175.99999541468151
 30
0.0
 50
270.0
1001
ACDBBLOCKREPETAG
1070
     1
1071
      362
1005
128481
  0
ARC
  5
128482
  8
OBJECT
 10
4500.0
 20
-175.99999541468151
 30
0.0
 40
50.0
 50
298.81994300000417
 51
228.52376955965491
1001
ACDBBLOCKREPETAG
1070
     1
1071
        7
1005
128482
  0
LINE
  5
128483
  8
CENTER
 10
4580.0
 20
-175.99999541468151
 30
0.0
 11
4405.0
 21
-175.99999541468151
 31
0.0
1001
ACDBBLOCKREPETAG
1070
     1
1071
       14
1005
128483
  0
LINE
  5
128484
  8
CENTER
 10
4500.0
 20
-270.99999541468162
 30
0.0
 11
4500.0
 21
-80.999995414681507
 31
0.0
1001
ACDBBLOCKREPETAG
1070
     1
1071
       15
1005
128484
  0
CIRCLE
  5
128485
  8
OBJECT
 10
4500.0
 20
-175.99999541468151
 30
0.0
 40
70.0
1001
ACDBBLOCKREPETAG
1070
     1
1071
       16
1005
128485
  0
CIRCLE
  5
128486
  8
OBJECT
 10
4500.0
 20
-175.99999541468151
 30
0.0
 40
77.0
1001
ACDBBLOCKREPETAG
1070
     1
1071
       17
1005
128486
  0
ARC
  5
128487
  8
OBJECT
 10
4500.0
 20
-175.99999541468151
 30
0.0
 40
80.0
 50
50.80503257388439
 51
309.19496742611562
1001
ACDBBLOCKREPETAG
1070
     1
1071
       18
1005
128487
  0
LINE
  5
128488
  8
OBJECT
 10
4545.6618002273244
 20
-113.99999541468151
 30
0.0
 11
4580.0
 21
-113.99999541468151
 31
0.0
1001
ACDBBLOCKREPETAG
1070
     1
1071
       19
1005
128488
  0
LINE
  5
128489
  8
OBJECT
 10
4545.6618002273244
 20
-237.99999541468151
 30
0.0
 11
4580.0
 21
-237.99999541468151
 31
0.0
1001
ACDBBLOCKREPETAG
1070
     1
1071
       20
1005
128489
  0
LINE
  5
12848A
  8
OBJECT
 10
10633.0
 20
-113.99999541468151
 30
0.0
 11
10640.0
 21
-113.99999541468151
 31
0.0
1001
ACDBBLOCKREPETAG
1070
     1
1071
       47
1005
12848A
  0
LINE
  5
12848B
  8
OBJECT
 10
10640.0
 20
-113.99999541468151
 30
0.0
 11
10640.0
 21
-237.99999541468151
 31
0.0
1001
ACDBBLOCKREPETAG
1070
     1
1071
       48
1005
12848B
  0
LINE
  5
12848C
  8
OBJECT
 10
10640.0
 20
-237.99999541468151
 30
0.0
 11
10633.0
 21
-237.99999541468151
 31
0.0
1001
ACDBBLOCKREPETAG
1070
     1
1071
       49
1005
12848C
  0
LINE
  5
12848D
  8
OBJECT
 10
10633.0
 20
-237.99999541468151
 30
0.0
 11
10633.0
 21
-113.99999541468151
 31
0.0
1001
ACDBBLOCKREPETAG
1070
     1
1071
       50
1005
12848D
  0
LINE
  5
12848E
  8
CENTER
 10
10655.0
 20
-175.99999541468151
 30
0.0
 11
10580.0
 21
-175.99999541468151
 31
0.0
1001
ACDBBLOCKREPETAG
1070
     1
1071
       51
1005
12848E
  0
LINE
  5
12848F
  8
OBJECT
 10
10633.0
 20
-116.99999541468151
 30
0.0
 11
10597.0
 21
-116.99999541468151
 31
0.0
1001
ACDBBLOCKREPETAG
1070
     1
1071
       52
1005
12848F
  0
LINE
  5
128490
  8
OBJECT
 10
10597.0
 20
-116.99999541468151
 30
0.0
 11
10597.0
 21
-234.99999541468151
 31
0.0
1001
ACDBBLOCKREPETAG
1070
     1
1071
       53
1005
128490
  0
LINE
  5
128491
  8
OBJECT
 10
10597.0
 20
-234.99999541468151
 30
0.0
 11
10633.0
 21
-234.99999541468151
 31
0.0
1001
ACDBBLOCKREPETAG
1070
     1
1071
       54
1005
128491
  0
LINE
  5
128492
  8
OBJECT
 10
10593.0
 20
-121.49999541468151
 30
0.0
 11
10586.0
 21
-121.49999541468151
 31
0.0
1001
ACDBBLOCKREPETAG
1070
     1
1071
       55
1005
128492
  0
LINE
  5
128493
  8
OBJECT
 10
10586.0
 20
-230.49999541468151
 30
0.0
 11
10593.0
 21
-230.49999541468151
 31
0.0
1001
ACDBBLOCKREPETAG
1070
     1
1071
       56
1005
128493
  0
LINE
  5
128494
  8
OBJECT
 10
10593.0
 20
-230.49999541468151
 30
0.0
 11
10593.0
 21
-121.49999541468151
 31
0.0
1001
ACDBBLOCKREPETAG
1070
     1
1071
       57
1005
128494
  0
LINE
  5
128495
  8
OBJECT
 10
10597.0
 20
-116.99999541468151
 30
0.0
 11
10593.0
 21
-121.49999541468151
 31
0.0
1001
ACDBBLOCKREPETAG
1070
     1
1071
       58
1005
128495
  0
LINE
  5
128496
  8
OBJECT
 10
10597.0
 20
-234.99999541468151
 30
0.0
 11
10593.0
 21
-230.49999541468151
 31
0.0
1001
ACDBBLOCKREPETAG
1070
     1
1071
       59
1005
128496
  0
LINE
  5
128497
  8
OBJECT
 10
10583.0
 20
-113.99999541468151
 30
0.0
 11
10580.0
 21
-113.99999541468151
 31
0.0
1001
ACDBBLOCKREPETAG
1070
     1
1071
       60
1005
128497
  0
ARC
  5
128498
  8
OBJECT
 10
10583.0
 20
-116.99999541468151
 30
0.0
 40
3.0
 50
0.0
 51
90.0
1001
ACDBBLOCKREPETAG
1070
     1
1071
       61
1005
128498
  0
LINE
  5
128499
  8
OBJECT
 10
10580.0
 20
-237.99999541468151
 30
0.0
 11
10583.0
 21
-237.99999541468151
 31
0.0
1001
ACDBBLOCKREPETAG
1070
     1
1071
       62
1005
128499
  0
ARC
  5
12849A
  8
OBJECT
 10
10583.0
 20
-234.99999541468151
 30
0.0
 40
3.0
 50
270.0
 51
0.0
1001
ACDBBLOCKREPETAG
1070
     1
1071
       63
1005
12849A
  0
LINE
  5
12849B
  8
OBJECT
 10
10586.0
 20
-234.99999541468151
 30
0.0
 11
10586.0
 21
-116.99999541468151
 31
0.0
1001
ACDBBLOCKREPETAG
1070
     1
1071
       64
1005
12849B
  0
LINE
  5
12849C
  8
HIDDEN
 10
10588.0
 20
-131.49999541468151
 30
0.0
 11
10588.0
 21
-220.49999541468151
 31
0.0
1001
ACDBBLOCKREPETAG
1070
     1
1071
       65
1005
12849C
  0
LINE
  5
12849D
  8
OBJECT
 10
4633.0
 20
-113.99999541468151
 30
0.0
 11
4640.0
 21
-113.99999541468151
 31
0.0
1001
ACDBBLOCKREPETAG
1070
     1
1071
       47
1005
12849D
  0
LINE
  5
12849E
  8
OBJECT
 10
4640.0
 20
-113.99999541468151
 30
0.0
 11
4640.0
 21
-237.99999541468151
 31
0.0
1001
ACDBBLOCKREPETAG
1070
     1
1071
       48
1005
12849E
  0
LINE
  5
12849F
  8
OBJECT
 10
4640.0
 20
-237.99999541468151
 30
0.0
 11
4633.0
 21
-237.99999541468151
 31
0.0
1001
ACDBBLOCKREPETAG
1070
     1
1071
       49
1005
12849F
  0
LINE
  5
1284A0
  8
OBJECT
 10
4633.0
 20
-237.99999541468151
 30
0.0
 11
4633.0
 21
-113.99999541468151
 31
0.0
1001
ACDBBLOCKREPETAG
1070
     1
1071
       50
1005
1284A0
  0
LINE
  5
1284A1
  8
CENTER
 10
4655.0
 20
-175.99999541468151
 30
0.0
 11
4580.0
 21
-175.99999541468151
 31
0.0
1001
ACDBBLOCKREPETAG
1070
     1
1071
       51
1005
1284A1
  0
LINE
  5
1284A2
  8
OBJECT
 10
4633.0
 20
-116.99999541468151
 30
0.0
 11
4597.0
 21
-116.99999541468151
 31
0.0
1001
ACDBBLOCKREPETAG
1070
     1
1071
       52
1005
1284A2
  0
LINE
  5
1284A3
  8
OBJECT
 10
4597.0
 20
-116.99999541468151
 30
0.0
 11
4597.0
 21
-234.99999541468151
 31
0.0
1001
ACDBBLOCKREPETAG
1070
     1
1071
       53
1005
1284A3
  0
LINE
  5
1284A4
  8
OBJECT
 10
4597.0
 20
-234.99999541468151
 30
0.0
 11
4633.0
 21
-234.99999541468151
 31
0.0
1001
ACDBBLOCKREPETAG
1070
     1
1071
       54
1005
1284A4
  0
LINE
  5
1284A5
  8
OBJECT
 10
4593.0
 20
-121.49999541468151
 30
0.0
 11
4586.0
 21
-121.49999541468151
 31
0.0
1001
ACDBBLOCKREPETAG
1070
     1
1071
       55
1005
1284A5
  0
LINE
  5
1284A6
  8
OBJECT
 10
4586.0
 20
-230.49999541468151
 30
0.0
 11
4593.0
 21
-230.49999541468151
 31
0.0
1001
ACDBBLOCKREPETAG
1070
     1
1071
       56
1005
1284A6
  0
LINE
  5
1284A7
  8
OBJECT
 10
4593.0
 20
-230.49999541468151
 30
0.0
 11
4593.0
 21
-121.49999541468151
 31
0.0
1001
ACDBBLOCKREPETAG
1070
     1
1071
       57
1005
1284A7
  0
LINE
  5
1284A8
  8
OBJECT
 10
4597.0
 20
-116.99999541468151
 30
0.0
 11
4593.0
 21
-121.49999541468151
 31
0.0
1001
ACDBBLOCKREPETAG
1070
     1
1071
       58
1005
1284A8
  0
LINE
  5
1284A9
  8
OBJECT
 10
4597.0
 20
-234.99999541468151
 30
0.0
 11
4593.0
 21
-230.49999541468151
 31
0.0
1001
ACDBBLOCKREPETAG
1070
     1
1071
       59
1005
1284A9
  0
LINE
  5
1284AA
  8
OBJECT
 10
4583.0
 20
-113.99999541468151
 30
0.0
 11
4580.0
 21
-113.99999541468151
 31
0.0
1001
ACDBBLOCKREPETAG
1070
     1
1071
       60
1005
1284AA
  0
ARC
  5
1284AB
  8
OBJECT
 10
4583.0
 20
-116.99999541468151
 30
0.0
 40
3.0
 50
0.0
 51
90.0
1001
ACDBBLOCKREPETAG
1070
     1
1071
       61
1005
1284AB
  0
LINE
  5
1284AC
  8
OBJECT
 10
4580.0
 20
-237.99999541468151
 30
0.0
 11
4583.0
 21
-237.99999541468151
 31
0.0
1001
ACDBBLOCKREPETAG
1070
     1
1071
       62
1005
1284AC
  0
ARC
  5
1284AD
  8
OBJECT
 10
4583.0
 20
-234.99999541468151
 30
0.0
 40
3.0
 50
270.0
 51
0.0
1001
ACDBBLOCKREPETAG
1070
     1
1071
       63
1005
1284AD
  0
LINE
  5
1284AE
  8
OBJECT
 10
4586.0
 20
-234.99999541468151
 30
0.0
 11
4586.0
 21
-116.99999541468151
 31
0.0
1001
ACDBBLOCKREPETAG
1070
     1
1071
       64
1005
1284AE
  0
LINE
  5
1284AF
  8
HIDDEN
 10
4588.0
 20
-131.49999541468151
 30
0.0
 11
4588.0
 21
-220.49999541468151
 31
0.0
1001
ACDBBLOCKREPETAG
1070
     1
1071
       65
1005
1284AF
  0
ARC
  5
1284B0
  8
OBJECT
 10
8500.0
 20
-175.99999541468151
 30
0.0
 40
50.0
 50
298.81994300000417
 51
228.52376955964741
1001
ACDBBLOCKREPETAG
1070
     1
1071
      185
1005
1284B0
  0
LINE
  5
1284B1
  8
SLIM
 10
8427.3018300565236
 20
-131.95483578426081
 30
0.0
 11
8455.9548403695826
 21
-103.3018254712013
 31
0.0
1001
ACAD
1010
0.0
1020
0.0
1030
0.0
1001
ACDBBLOCKREPETAG
1070
     1
1071
      429
1005
1284B1
  0
LINE
  5
1284B2
  8
SLIM
 10
8419.4861520708346
 20
-148.75076989101481
 30
0.0
 11
8428.8911593638004
 21
-139.34576259805101
 31
0.0
1001
ACAD
1010
0.0
1020
0.0
1030
0.0
1001
ACDBBLOCKREPETAG
1070
     1
1071
      381
1005
1284B2
  0
LINE
  5
1284B3
  8
SLIM
 10
8463.3457671833712
 20
-104.8911547784803
 30
0.0
 11
8472.7507744763334
 21
-95.486147485516582
 31
0.0
1001
ACAD
1010
0.0
1020
0.0
1030
0.0
1001
ACDBBLOCKREPETAG
1070
     1
1071
      382
1005
1284B3
  0
LINE
  5
1284B4
  8
SLIM
 10
8416.3596679933762
 20
-160.85751008954301
 30
0.0
 11
8423.0316308417041
 21
-154.18554724121299
 31
0.0
1001
ACAD
1010
0.0
1020
0.0
1030
0.0
1001
ACDBBLOCKREPETAG
1070
     1
1071
      383
1005
1284B4
  0
LINE
  5
1284B5
  8
SLIM
 10
8478.1855518265329
 20
-99.031626256387483
 30
0.0
 11
8484.8575146748626
 21
-92.359663408057429
 31
0.0
1001
ACAD
1010
0.0
1020
0.0
1030
0.0
1001
ACDBBLOCKREPETAG
1070
     1
1071
      384
1005
1284B5
  0
LINE
  5
1284B6
  8
SLIM
 10
8415.1440575890501
 20
-171.05337661493741
 30
0.0
 11
8420.691234743781
 21
-165.50619946020811
 31
0.0
1001
ACAD
1010
0.0
1020
0.0
1030
0.0
1001
ACDBBLOCKREPETAG
1070
     1
1071
      385
1005
1284B6
  0
LINE
  5
1284B7
  8
SLIM
 10
8489.5062040455286
 20
-96.691230158461494
 30
0.0
 11
8495.0533812002577
 21
-91.144053003732239
 31
0.0
1001
ACAD
1010
0.0
1020
0.0
1030
0.0
1001
ACDBBLOCKREPETAG
1070
     1
1071
      386
1005
1284B7
  0
LINE
  5
1284B8
  8
SLIM
 10
8415.0979635574658
 20
-180.07972676759269
 30
0.0
 11
8419.1776949103787
 21
-175.99999541468151
 31
0.0
1001
ACAD
1010
0.0
1020
0.0
1030
0.0
1001
ACDBBLOCKREPETAG
1070
     1
1071
      387
1005
1284B8
  0
LINE
  5
1284B9
  8
SLIM
 10
8500.0
 20
-95.177690325059132
 30
0.0
 11
8504.0797313529074
 21
-91.097958972153265
 31
0.0
1001
ACAD
1010
0.0
1020
0.0
1030
0.0
1001
ACDBBLOCKREPETAG
1070
     1
1071
      388
1005
1284B9
  0
LINE
  5
1284BA
  8
SLIM
 10
8419.1776949103787
 20
-175.99999541468151
 30
0.0
 11
8420.0042702817464
 21
-175.17342004330999
 31
0.0
1001
ACAD
1010
0.0
1020
0.0
1030
0.0
1001
ACDBBLOCKREPETAG
1070
     1
1071
      389
1005
1284BA
  0
LINE
  5
1284BB
  8
SLIM
 10
8499.1734246286305
 20
-96.004265696428789
 30
0.0
 11
8500.0
 21
-95.177690325059146
 31
0.0
1001
ACAD
1010
0.0
1020
0.0
1030
0.0
1001
ACDBBLOCKREPETAG
1070
     1
1071
      390
1005
1284BB
  0
LINE
  5
1284BC
  8
SLIM
 10
8415.8899726208656
 20
-188.2679738252624
 30
0.0
 11
8420.3790899323576
 21
-183.77885651377261
 31
0.0
1001
ACAD
1010
0.0
1020
0.0
1030
0.0
1001
ACDBBLOCKREPETAG
1070
     1
1071
      391
1005
1284BC
  0
LINE
  5
1284BD
  8
SLIM
 10
8507.7788610990974
 20
-96.379085347030724
 30
0.0
 11
8512.2679784105767
 21
-91.889968035552343
 31
0.0
1001
ACAD
1010
0.0
1020
0.0
1030
0.0
1001
ACDBBLOCKREPETAG
1070
     1
1071
      392
1005
1284BD
  0
LINE
  5
1284BE
  8
SLIM
 10
8417.3382656951471
 20
-195.7999368720495
 30
0.0
 11
8421.5361497034737
 21
-191.6020528637238
 31
0.0
1001
ACAD
1010
0.0
1020
0.0
1030
0.0
1001
ACDBBLOCKREPETAG
1070
     1
1071
      393
1005
1284BE
  0
LINE
  5
1284BF
  8
SLIM
 10
8515.6020574490485
 20
-97.536145118149506
 30
0.0
 11
8519.7999414573624
 21
-93.338261109834278
 31
0.0
1001
ACAD
1010
0.0
1020
0.0
1030
0.0
1001
ACDBBLOCKREPETAG
1070
     1
1071
      394
1005
1284BF
  0
LINE
  5
1284C0
  8
SLIM
 10
8419.3312594063045
 20
-202.78719928196651
 30
0.0
 11
8423.3179509938545
 21
-198.80050769441161
 31
0.0
1001
ACAD
1010
0.0
1020
0.0
1030
0.0
1001
ACDBBLOCKREPETAG
1070
     1
1071
      395
1005
1284C0
  0
LINE
  5
1284C1
  8
SLIM
 10
8522.8005122797367
 20
-99.317946408531412
 30
0.0
 11
8526.7872038672776
 21
-95.331254820986345
 31
0.0
1001
ACAD
1010
0.0
1020
0.0
1030
0.0
1001
ACDBBLOCKREPETAG
1070
     1
1071
      396
1005
1284C1
  0
LINE
  5
1284C2
  8
SLIM
 10
8421.7957163186147
 20
-209.3029984907202
 30
0.0
 11
8425.6266406814684
 21
-205.47207412786429
 31
0.0
1001
ACAD
1010
0.0
1020
0.0
1030
0.0
1001
ACDBBLOCKREPETAG
1070
     1
1071
      397
1005
1284C2
  0
LINE
  5
1284C3
  8
SLIM
 10
8529.4720787131864
 20
-101.6266360961484
 30
0.0
 11
8533.3030030760347
 21
-97.795711733301616
 31
0.0
1001
ACAD
1010
0.0
1020
0.0
1030
0.0
1001
ACDBBLOCKREPETAG
1070
     1
1071
      398
1005
1284C3
  0
LINE
  5
1284C4
  8
SLIM
 10
8424.6816635313407
 20
-215.39730739906469
 30
0.0
 11
8428.3978994144927
 21
-211.68107151591281
 31
0.0
1001
ACAD
1010
0.0
1020
0.0
1030
0.0
1001
ACDBBLOCKREPETAG
1070
     1
1071
      399
1005
1284C4
  0
LINE
  5
1284C5
  8
SLIM
 10
8535.6810761012348
 20
-104.3978948291695
 30
0.0
 11
8539.3973119843777
 21
-100.6816589460261
 31
0.0
1001
ACAD
1010
0.0
1020
0.0
1030
0.0
1001
ACDBBLOCKREPETAG
1070
     1
1071
      400
1005
1284C5
  0
LINE
  5
1284C6
  8
SLIM
 10
8427.9544611024212
 20
-221.1047659490537
 30
0.0
 11
8431.5882948477501
 21
-217.47093220372389
 31
0.0
1001
ACAD
1010
0.0
1020
0.0
1030
0.0
1001
ACDBBLOCKREPETAG
1070
     1
1071
      401
1005
1284C6
  0
LINE
  5
1284C7
  8
SLIM
 10
8541.4709367890446
 20
-107.588290262428
 30
0.0
 11
8545.1047705343717
 21
-103.9544565171061
 31
0.0
1001
ACAD
1010
0.0
1020
0.0
1030
0.0
1001
ACDBBLOCKREPETAG
1070
     1
1071
      402
1005
1284C7
  0
LINE
  5
1284C8
  8
SLIM
 10
8431.5903319686622
 20
-226.44915120388191
 30
0.0
 11
8435.1685576784603
 21
-222.8709254940826
 31
0.0
1001
ACAD
1010
0.0
1020
0.0
1030
0.0
1001
ACDBBLOCKREPETAG
1070
     1
1071
      403
1005
1284C8
  0
LINE
  5
1284C9
  8
SLIM
 10
8546.8709300794035
 20
-111.1685530931389
 30
0.0
 11
8550.4491557891979
 21
-107.5903273833469
 31
0.0
1001
ACAD
1010
0.0
1020
0.0
1030
0.0
1001
ACDBBLOCKREPETAG
1070
     1
1071
      404
1005
1284C9
  0
LINE
  5
1284CA
  8
SLIM
 10
8435.5737496925212
 20
-231.44598960108971
 30
0.0
 11
8439.1198129751447
 21
-227.89992631846809
 31
0.0
1001
ACAD
1010
0.0
1020
0.0
1030
0.0
1001
ACDBBLOCKREPETAG
1070
     1
1071
      405
1005
1284CA
  0
LINE
  5
1284CB
  8
SLIM
 10
8553.0197438789328
 20
-113.99999541468151
 30
0.0
 11
8555.4459941864025
 21
-111.5737451072081
 31
0.0
1001
ACAD
1010
0.0
1020
0.0
1030
0.0
1001
ACDBBLOCKREPETAG
1070
     1
1071
      406
1005
1284CB
  0
LINE
  5
1284CC
  8
SLIM
 10
8439.8959235991388
 20
-236.10407181554169
 30
0.0
 11
8443.4314575050776
 21
-232.5685379096023
 31
0.0
1001
ACAD
1010
0.0
1020
0.0
1030
0.0
1001
ACDBBLOCKREPETAG
1070
     1
1071
      407
1005
1284CC
  0
LINE
  5
1284CD
  8
SLIM
 10
8444.5540058135903
 20
-240.42624572215851
 30
0.0
 11
8448.1000690962137
 21
-236.88018243953789
 31
0.0
1001
ACAD
1010
0.0
1020
0.0
1030
0.0
1001
ACDBBLOCKREPETAG
1070
     1
1071
      408
1005
1284CD
  0
LINE
  5
1284CE
  8
SLIM
 10
8449.5508442108003
 20
-244.40966344601941
 30
0.0
 11
8453.1290699205965
 21
-240.831437736222
 31
0.0
1001
ACAD
1010
0.0
1020
0.0
1030
0.0
1001
ACDBBLOCKREPETAG
1070
     1
1071
      409
1005
1284CE
  0
LINE
  5
1284CF
  8
SLIM
 10
8454.8952294656283
 20
-248.04553431225989
 30
0.0
 11
8458.5290632109554
 21
-244.41170056693321
 31
0.0
1001
ACAD
1010
0.0
1020
0.0
1030
0.0
1001
ACDBBLOCKREPETAG
1070
     1
1071
      410
1005
1284CF
  0
LINE
  5
1284D0
  8
SLIM
 10
8460.6026880156169
 20
-251.3183318833396
 30
0.0
 11
8464.318923898767
 21
-247.60209600019189
 31
0.0
1001
ACAD
1010
0.0
1020
0.0
1030
0.0
1001
ACDBBLOCKREPETAG
1070
     1
1071
      411
1005
1284D0
  0
LINE
  5
1284D1
  8
SLIM
 10
8466.6969969239617
 20
-254.2042790960638
 30
0.0
 11
8470.5279212868136
 21
-250.3733547332132
 31
0.0
1001
ACAD
1010
0.0
1020
0.0
1030
0.0
1001
ACDBBLOCKREPETAG
1070
     1
1071
      412
1005
1284D1
  0
LINE
  5
1284D2
  8
SLIM
 10
8473.2127961327187
 20
-256.66873600837869
 30
0.0
 11
8477.1994877202687
 21
-252.68204442083049
 31
0.0
1001
ACAD
1010
0.0
1020
0.0
1030
0.0
1001
ACDBBLOCKREPETAG
1070
     1
1071
      413
1005
1284D2
  0
LINE
  5
1284D3
  8
SLIM
 10
8480.2000585426358
 20
-258.66172971953029
 30
0.0
 11
8484.3979425509551
 21
-254.4638457112128
 31
0.0
1001
ACAD
1010
0.0
1020
0.0
1030
0.0
1001
ACDBBLOCKREPETAG
1070
     1
1071
      414
1005
1284D3
  0
LINE
  5
1284D4
  8
SLIM
 10
8487.7320215894215
 20
-260.11002279381171
 30
0.0
 11
8492.2211389009026
 21
-255.62090548233189
 31
0.0
1001
ACAD
1010
0.0
1020
0.0
1030
0.0
1001
ACDBBLOCKREPETAG
1070
     1
1071
      415
1005
1284D4
  0
LINE
  5
1284D5
  8
SLIM
 10
8495.9202686470926
 20
-260.90203185721009
 30
0.0
 11
8500.0
 21
-256.82230050430388
 31
0.0
1001
ACAD
1010
0.0
1020
0.0
1030
0.0
1001
ACDBBLOCKREPETAG
1070
     1
1071
      416
1005
1284D5
  0
LINE
  5
1284D6
  8
SLIM
 10
8500.0
 20
-256.82230050430388
 30
0.0
 11
8500.8265753713731
 21
-255.99572513293049
 31
0.0
1001
ACAD
1010
0.0
1020
0.0
1030
0.0
1001
ACDBBLOCKREPETAG
1070
     1
1071
      417
1005
1284D6
  0
LINE
  5
1284D7
  8
SLIM
 10
8504.9466187997423
 20
-260.85593782563058
 30
0.0
 11
8510.493795954475
 21
-255.3087606708975
 31
0.0
1001
ACAD
1010
0.0
1020
0.0
1030
0.0
1001
ACDBBLOCKREPETAG
1070
     1
1071
      418
1005
1284D7
  0
LINE
  5
1284D8
  8
SLIM
 10
8515.1424853251374
 20
-259.64032742130519
 30
0.0
 11
8521.8144481734707
 21
-252.9683645729709
 31
0.0
1001
ACAD
1010
0.0
1020
0.0
1030
0.0
1001
ACDBBLOCKREPETAG
1070
     1
1071
      419
1005
1284D8
  0
LINE
  5
1284D9
  8
SLIM
 10
8527.2492255236666
 20
-256.51384334384568
 30
0.0
 11
8536.6542328166342
 21
-247.10883605087631
 31
0.0
1001
ACAD
1010
0.0
1020
0.0
1030
0.0
1001
ACDBBLOCKREPETAG
1070
     1
1071
      420
1005
1284D9
  0
LINE
  5
1284DA
  8
SLIM
 10
8544.045159630421
 20
-248.6981653581594
 30
0.0
 11
8554.7433295738992
 21
-237.99999541468151
 31
0.0
1001
ACAD
1010
0.0
1020
0.0
1030
0.0
1001
ACDBBLOCKREPETAG
1070
     1
1071
      421
1005
1284DA
  0
LINE
  5
1284DB
  8
CENTER
 10
8580.0
 20
-175.99999541468151
 30
0.0
 11
8400.0
 21
-175.99999541468151
 31
0.0
1001
ACDBBLOCKREPETAG
1070
     1
1071
      187
1005
1284DB
  0
LINE
  5
1284DC
  8
CENTER
 10
8500.0
 20
-275.99999541468162
 30
0.0
 11
8500.0
 21
-75.999995414681507
 31
0.0
1001
ACDBBLOCKREPETAG
1070
     1
1071
      188
1005
1284DC
  0
CIRCLE
  5
1284DD
  8
OBJECT
 10
8500.0
 20
-175.99999541468151
 30
0.0
 40
70.0
1001
ACDBBLOCKREPETAG
1070
     1
1071
      189
1005
1284DD
  0
CIRCLE
  5
1284DE
  8
OBJECT
 10
8500.0
 20
-175.99999541468151
 30
0.0
 40
77.0
1001
ACDBBLOCKREPETAG
1070
     1
1071
      190
1005
1284DE
  0
ARC
  5
1284DF
  8
OBJECT
 10
8500.0
 20
-175.99999541468151
 30
0.0
 40
80.0
 50
50.805032573897769
 51
309.19496742610232
1001
ACDBBLOCKREPETAG
1070
     1
1071
      191
1005
1284DF
  0
LINE
  5
1284E0
  8
OBJECT
 10
8545.6618002273262
 20
-113.99999541468151
 30
0.0
 11
8580.0
 21
-113.99999541468151
 31
0.0
1001
ACDBBLOCKREPETAG
1070
     1
1071
      192
1005
1284E0
  0
LINE
  5
1284E1
  8
OBJECT
 10
8545.6618002273262
 20
-237.99999541468151
 30
0.0
 11
8580.0
 21
-237.99999541468151
 31
0.0
1001
ACDBBLOCKREPETAG
1070
     1
1071
      193
1005
1284E1
  0
ARC
  5
1284E2
  8
OBJECT
 10
8500.0
 20
-175.99999541468151
 30
0.0
 40
85.0
 50
46.837102859853147
 51
313.16289714014681
1001
ACDBBLOCKREPETAG
1070
     1
1071
      202
1005
1284E2
  0
LINE
  5
1284E3
  8
OBJECT
 10
8524.1029330933015
 20
-219.8069425383992
 30
0.0
 11
8520.6596569999983
 21
-208.5546174146811
 31
0.0
1001
ACDBBLOCKREPETAG
1070
     1
1071
      321
1005
1284E3
  0
LINE
  5
1284E4
  8
OBJECT
 10
8486.7927499013731
 20
-194.2255291567626
 30
0.0
 11
8520.6596569999983
 21
-208.55461741467931
 31
0.0
1001
ACDBBLOCKREPETAG
1070
     1
1071
      323
1005
1284E4
  0
ARC
  5
1284E5
  8
OBJECT
 10
8482.8961697618979
 20
-203.43512541373909
 30
0.0
 40
10.0
 50
67.066778292911366
 51
154.01473437031629
1001
ACDBBLOCKREPETAG
1070
     1
1071
      324
1005
1284E5
  0
ARC
  5
1284E6
  8
OBJECT
 10
8486.1488390381255
 20
-201.55385798197401
 30
0.0
 40
7.0
 50
67.066778292911366
 51
154.0147337749826
1001
ACDBBLOCKREPETAG
1070
     1
1071
      325
1005
1284E6
  0
LINE
  5
1284E7
  8
OBJECT
 10
8469.4199755553018
 20
-219.89888042286421
 30
0.0
 11
8479.8564918232369
 21
-198.48687794825031
 31
0.0
1001
ACDBBLOCKREPETAG
1070
     1
1071
      353
1005
1284E7
  0
LINE
  5
1284E8
  8
OBJECT
 10
8465.2972169006116
 20
-216.71813443350979
 30
0.0
 11
8473.9071022665084
 21
-199.0537254589899
 31
0.0
1001
ACDBBLOCKREPETAG
1070
     1
1071
      354
1005
1284E8
  0
ARC
  5
1284E9
  8
OBJECT
 10
8476.5796953073132
 20
-183.128932397526
 30
0.0
 40
60.031113246032611
 50
314.07020130422319
 51
322.33936106089681
1001
ACDBBLOCKREPETAG
1070
     1
1071
      355
1005
1284E9
  0
CIRCLE
  5
1284EA
  8
OBJECT
 10
8500.0
 20
-175.99999541468151
 30
0.0
 40
53.5
1001
ACDBBLOCKREPETAG
1070
     1
1071
      356
1005
1284EA
  0
POINT
  5
1284EB
  8
DOTS
 10
8500.0
 20
-175.99999541468151
 30
0.0
 50
270.0
1001
ACDBBLOCKREPETAG
1070
     1
1071
      365
1005
1284EB
  0
LINE
  5
1284EC
  8
OBJECT
 10
2524.102933093302
 20
-219.8069425383992
 30
0.0
 11
2520.659656999997
 21
-208.5546174146811
 31
0.0
1001
ACDBBLOCKREPETAG
1070
     1
1071
      300
1005
1284EC
  0
LINE
  5
1284ED
  8
OBJECT
 10
2486.7927499013749
 20
-194.2255291567626
 30
0.0
 11
2520.659656999997
 21
-208.55461741467931
 31
0.0
1001
ACDBBLOCKREPETAG
1070
     1
1071
      302
1005
1284ED
  0
ARC
  5
1284EE
  8
OBJECT
 10
2482.896169761902
 20
-203.43512541373909
 30
0.0
 40
10.0
 50
67.066778292911366
 51
154.0147343702935
1001
ACDBBLOCKREPETAG
1070
     1
1071
      303
1005
1284EE
  0
ARC
  5
1284EF
  8
OBJECT
 10
2486.1488390381278
 20
-201.55385798197401
 30
0.0
 40
7.0
 50
67.066778292911366
 51
154.01473377497121
1001
ACDBBLOCKREPETAG
1070
     1
1071
      304
1005
1284EF
  0
LINE
  5
1284F0
  8
OBJECT
 10
2469.4199755553018
 20
-219.89888042286421
 30
0.0
 11
2479.8564918232369
 21
-198.48687794825031
 31
0.0
1001
ACDBBLOCKREPETAG
1070
     1
1071
      341
1005
1284F0
  0
LINE
  5
1284F1
  8
OBJECT
 10
2465.2972169006089
 20
-216.71813443350979
 30
0.0
 11
2473.9071022665089
 21
-199.0537254589899
 31
0.0
1001
ACDBBLOCKREPETAG
1070
     1
1071
      342
1005
1284F1
  0
ARC
  5
1284F2
  8
OBJECT
 10
2476.579695307315
 20
-183.128932397526
 30
0.0
 40
60.031113246032611
 50
314.07020130418567
 51
322.33936106091278
1001
ACDBBLOCKREPETAG
1070
     1
1071
      343
1005
1284F2
  0
CIRCLE
  5
1284F3
  8
OBJECT
 10
2500.0
 20
-175.99999541468151
 30
0.0
 40
53.5
1001
ACDBBLOCKREPETAG
1070
     1
1071
      344
1005
1284F3
  0
POINT
  5
1284F4
  8
DOTS
 10
2500.0
 20
-175.99999541468151
 30
0.0
 50
270.0
1001
ACDBBLOCKREPETAG
1070
     1
1071
      362
1005
1284F4
  0
ARC
  5
1284F5
  8
OBJECT
 10
2500.0
 20
-175.99999541468151
 30
0.0
 40
50.0
 50
298.81994300000417
 51
228.52376955967449
1001
ACDBBLOCKREPETAG
1070
     1
1071
        7
1005
1284F5
  0
LINE
  5
1284F6
  8
CENTER
 10
2580.0
 20
-175.99999541468151
 30
0.0
 11
2405.0
 21
-175.99999541468151
 31
0.0
1001
ACDBBLOCKREPETAG
1070
     1
1071
       14
1005
1284F6
  0
LINE
  5
1284F7
  8
CENTER
 10
2500.0
 20
-270.99999541468162
 30
0.0
 11
2500.0
 21
-80.999995414681507
 31
0.0
1001
ACDBBLOCKREPETAG
1070
     1
1071
       15
1005
1284F7
  0
CIRCLE
  5
1284F8
  8
OBJECT
 10
2500.0
 20
-175.99999541468151
 30
0.0
 40
70.0
1001
ACDBBLOCKREPETAG
1070
     1
1071
       16
1005
1284F8
  0
CIRCLE
  5
1284F9
  8
OBJECT
 10
2500.0
 20
-175.99999541468151
 30
0.0
 40
77.0
1001
ACDBBLOCKREPETAG
1070
     1
1071
       17
1005
1284F9
  0
ARC
  5
1284FA
  8
OBJECT
 10
2500.0
 20
-175.99999541468151
 30
0.0
 40
80.0
 50
50.805032573864182
 51
309.1949674261358
1001
ACDBBLOCKREPETAG
1070
     1
1071
       18
1005
1284FA
  0
LINE
  5
1284FB
  8
OBJECT
 10
2545.6618002273249
 20
-113.99999541468151
 30
0.0
 11
2580.0
 21
-113.99999541468151
 31
0.0
1001
ACDBBLOCKREPETAG
1070
     1
1071
       19
1005
1284FB
  0
LINE
  5
1284FC
  8
OBJECT
 10
2545.6618002273249
 20
-237.99999541468151
 30
0.0
 11
2580.0
 21
-237.99999541468151
 31
0.0
1001
ACDBBLOCKREPETAG
1070
     1
1071
       20
1005
1284FC
  0
LINE
  5
1284FD
  8
OBJECT
 10
8633.0
 20
-113.99999541468151
 30
0.0
 11
8640.0
 21
-113.99999541468151
 31
0.0
1001
ACDBBLOCKREPETAG
1070
     1
1071
       47
1005
1284FD
  0
LINE
  5
1284FE
  8
OBJECT
 10
8640.0
 20
-113.99999541468151
 30
0.0
 11
8640.0
 21
-237.99999541468151
 31
0.0
1001
ACDBBLOCKREPETAG
1070
     1
1071
       48
1005
1284FE
  0
LINE
  5
1284FF
  8
OBJECT
 10
8640.0
 20
-237.99999541468151
 30
0.0
 11
8633.0
 21
-237.99999541468151
 31
0.0
1001
ACDBBLOCKREPETAG
1070
     1
1071
       49
1005
1284FF
  0
LINE
  5
128500
  8
OBJECT
 10
8633.0
 20
-237.99999541468151
 30
0.0
 11
8633.0
 21
-113.99999541468151
 31
0.0
1001
ACDBBLOCKREPETAG
1070
     1
1071
       50
1005
128500
  0
LINE
  5
128501
  8
CENTER
 10
8655.0
 20
-175.99999541468151
 30
0.0
 11
8580.0
 21
-175.99999541468151
 31
0.0
1001
ACDBBLOCKREPETAG
1070
     1
1071
       51
1005
128501
  0
LINE
  5
128502
  8
OBJECT
 10
8633.0
 20
-116.99999541468151
 30
0.0
 11
8597.0
 21
-116.99999541468151
 31
0.0
1001
ACDBBLOCKREPETAG
1070
     1
1071
       52
1005
128502
  0
LINE
  5
128503
  8
OBJECT
 10
8597.0
 20
-116.99999541468151
 30
0.0
 11
8597.0
 21
-234.99999541468151
 31
0.0
1001
ACDBBLOCKREPETAG
1070
     1
1071
       53
1005
128503
  0
LINE
  5
128504
  8
OBJECT
 10
8597.0
 20
-234.99999541468151
 30
0.0
 11
8633.0
 21
-234.99999541468151
 31
0.0
1001
ACDBBLOCKREPETAG
1070
     1
1071
       54
1005
128504
  0
LINE
  5
128505
  8
OBJECT
 10
8593.0
 20
-121.49999541468151
 30
0.0
 11
8586.0
 21
-121.49999541468151
 31
0.0
1001
ACDBBLOCKREPETAG
1070
     1
1071
       55
1005
128505
  0
LINE
  5
128506
  8
OBJECT
 10
8586.0
 20
-230.49999541468151
 30
0.0
 11
8593.0
 21
-230.49999541468151
 31
0.0
1001
ACDBBLOCKREPETAG
1070
     1
1071
       56
1005
128506
  0
LINE
  5
128507
  8
OBJECT
 10
8593.0
 20
-230.49999541468151
 30
0.0
 11
8593.0
 21
-121.49999541468151
 31
0.0
1001
ACDBBLOCKREPETAG
1070
     1
1071
       57
1005
128507
  0
LINE
  5
128508
  8
OBJECT
 10
8597.0
 20
-116.99999541468151
 30
0.0
 11
8593.0
 21
-121.49999541468151
 31
0.0
1001
ACDBBLOCKREPETAG
1070
     1
1071
       58
1005
128508
  0
LINE
  5
128509
  8
OBJECT
 10
8597.0
 20
-234.99999541468151
 30
0.0
 11
8593.0
 21
-230.49999541468151
 31
0.0
1001
ACDBBLOCKREPETAG
1070
     1
1071
       59
1005
128509
  0
LINE
  5
12850A
  8
OBJECT
 10
8583.0
 20
-113.99999541468151
 30
0.0
 11
8580.0
 21
-113.99999541468151
 31
0.0
1001
ACDBBLOCKREPETAG
1070
     1
1071
       60
1005
12850A
  0
ARC
  5
12850B
  8
OBJECT
 10
8583.0
 20
-116.99999541468151
 30
0.0
 40
3.0
 50
0.0
 51
90.0
1001
ACDBBLOCKREPETAG
1070
     1
1071
       61
1005
12850B
  0
LINE
  5
12850C
  8
OBJECT
 10
8580.0
 20
-237.99999541468151
 30
0.0
 11
8583.0
 21
-237.99999541468151
 31
0.0
1001
ACDBBLOCKREPETAG
1070
     1
1071
       62
1005
12850C
  0
ARC
  5
12850D
  8
OBJECT
 10
8583.0
 20
-234.99999541468151
 30
0.0
 40
3.0
 50
270.0
 51
0.0
1001
ACDBBLOCKREPETAG
1070
     1
1071
       63
1005
12850D
  0
LINE
  5
12850E
  8
OBJECT
 10
8586.0
 20
-234.99999541468151
 30
0.0
 11
8586.0
 21
-116.99999541468151
 31
0.0
1001
ACDBBLOCKREPETAG
1070
     1
1071
       64
1005
12850E
  0
LINE
  5
12850F
  8
HIDDEN
 10
8588.0
 20
-131.49999541468151
 30
0.0
 11
8588.0
 21
-220.49999541468151
 31
0.0
1001
ACDBBLOCKREPETAG
1070
     1
1071
       65
1005
12850F
  0
LINE
  5
128510
  8
OBJECT
 10
2633.0
 20
-113.99999541468151
 30
0.0
 11
2640.0
 21
-113.99999541468151
 31
0.0
1001
ACDBBLOCKREPETAG
1070
     1
1071
       47
1005
128510
  0
LINE
  5
128511
  8
OBJECT
 10
2640.0
 20
-113.99999541468151
 30
0.0
 11
2640.0
 21
-237.99999541468151
 31
0.0
1001
ACDBBLOCKREPETAG
1070
     1
1071
       48
1005
128511
  0
LINE
  5
128512
  8
OBJECT
 10
2640.0
 20
-237.99999541468151
 30
0.0
 11
2633.0
 21
-237.99999541468151
 31
0.0
1001
ACDBBLOCKREPETAG
1070
     1
1071
       49
1005
128512
  0
LINE
  5
128513
  8
OBJECT
 10
2633.0
 20
-237.99999541468151
 30
0.0
 11
2633.0
 21
-113.99999541468151
 31
0.0
1001
ACDBBLOCKREPETAG
1070
     1
1071
       50
1005
128513
  0
LINE
  5
128514
  8
CENTER
 10
2655.0
 20
-175.99999541468151
 30
0.0
 11
2580.0
 21
-175.99999541468151
 31
0.0
1001
ACDBBLOCKREPETAG
1070
     1
1071
       51
1005
128514
  0
LINE
  5
128515
  8
OBJECT
 10
2633.0
 20
-116.99999541468151
 30
0.0
 11
2597.0
 21
-116.99999541468151
 31
0.0
1001
ACDBBLOCKREPETAG
1070
     1
1071
       52
1005
128515
  0
LINE
  5
128516
  8
OBJECT
 10
2597.0
 20
-116.99999541468151
 30
0.0
 11
2597.0
 21
-234.99999541468151
 31
0.0
1001
ACDBBLOCKREPETAG
1070
     1
1071
       53
1005
128516
  0
LINE
  5
128517
  8
OBJECT
 10
2597.0
 20
-234.99999541468151
 30
0.0
 11
2633.0
 21
-234.99999541468151
 31
0.0
1001
ACDBBLOCKREPETAG
1070
     1
1071
       54
1005
128517
  0
LINE
  5
128518
  8
OBJECT
 10
2593.0
 20
-121.49999541468151
 30
0.0
 11
2586.0
 21
-121.49999541468151
 31
0.0
1001
ACDBBLOCKREPETAG
1070
     1
1071
       55
1005
128518
  0
LINE
  5
128519
  8
OBJECT
 10
2586.0
 20
-230.49999541468151
 30
0.0
 11
2593.0
 21
-230.49999541468151
 31
0.0
1001
ACDBBLOCKREPETAG
1070
     1
1071
       56
1005
128519
  0
LINE
  5
12851A
  8
OBJECT
 10
2593.0
 20
-230.49999541468151
 30
0.0
 11
2593.0
 21
-121.49999541468151
 31
0.0
1001
ACDBBLOCKREPETAG
1070
     1
1071
       57
1005
12851A
  0
LINE
  5
12851B
  8
OBJECT
 10
2597.0
 20
-116.99999541468151
 30
0.0
 11
2593.0
 21
-121.49999541468151
 31
0.0
1001
ACDBBLOCKREPETAG
1070
     1
1071
       58
1005
12851B
  0
LINE
  5
12851C
  8
OBJECT
 10
2597.0
 20
-234.99999541468151
 30
0.0
 11
2593.0
 21
-230.49999541468151
 31
0.0
1001
ACDBBLOCKREPETAG
1070
     1
1071
       59
1005
12851C
  0
LINE
  5
12851D
  8
OBJECT
 10
2583.0
 20
-113.99999541468151
 30
0.0
 11
2580.0
 21
-113.99999541468151
 31
0.0
1001
ACDBBLOCKREPETAG
1070
     1
1071
       60
1005
12851D
  0
ARC
  5
12851E
  8
OBJECT
 10
2583.0
 20
-116.99999541468151
 30
0.0
 40
3.0
 50
0.0
 51
90.0
1001
ACDBBLOCKREPETAG
1070
     1
1071
       61
1005
12851E
  0
LINE
  5
12851F
  8
OBJECT
 10
2580.0
 20
-237.99999541468151
 30
0.0
 11
2583.0
 21
-237.99999541468151
 31
0.0
1001
ACDBBLOCKREPETAG
1070
     1
1071
       62
1005
12851F
  0
ARC
  5
128520
  8
OBJECT
 10
2583.0
 20
-234.99999541468151
 30
0.0
 40
3.0
 50
270.0
 51
0.0
1001
ACDBBLOCKREPETAG
1070
     1
1071
       63
1005
128520
  0
LINE
  5
128521
  8
OBJECT
 10
2586.0
 20
-234.99999541468151
 30
0.0
 11
2586.0
 21
-116.99999541468151
 31
0.0
1001
ACDBBLOCKREPETAG
1070
     1
1071
       64
1005
128521
  0
LINE
  5
128522
  8
HIDDEN
 10
2588.0
 20
-131.49999541468151
 30
0.0
 11
2588.0
 21
-220.49999541468151
 31
0.0
1001
ACDBBLOCKREPETAG
1070
     1
1071
       65
1005
128522
  0
LINE
  5
128523
  8
OBJECT
 10
12575.0
 20
-770.0
 30
0.0
 11
12575.0
 21
-907.50000000006526
 31
0.0
1001
ACDBBLOCKREPETAG
1070
     1
1071
        1
1005
128523
  0
LINE
  5
128524
  8
OBJECT
 10
12425.0
 20
-769.9999999999942
 30
0.0
 11
12425.0
 21
-1043.0
 31
0.0
1001
ACDBBLOCKREPETAG
1070
     1
1071
        3
1005
128524
  0
LINE
  5
128525
  8
CENTER
 10
12500.0
 20
-770.0
 30
0.0
 11
12500.0
 21
-1055.0
 31
0.0
1001
ACDBBLOCKREPETAG
1070
     1
1071
        6
1005
128525
  0
LINE
  5
128526
  8
OBJECT
 10
12419.999999999991
 20
-1055.0
 30
0.0
 11
12580.0
 21
-1055.0
 31
0.0
1001
ACDBBLOCKREPETAG
1070
     1
1071
        7
1005
128526
  0
LINE
  5
128527
  8
OBJECT
 10
12419.999999999991
 20
-1043.0
 30
0.0
 11
12580.0
 21
-1043.0
 31
0.0
1001
ACDBBLOCKREPETAG
1070
     1
1071
        8
1005
128527
  0
LINE
  5
128528
  8
OBJECT
 10
12419.999999999991
 20
-1043.0
 30
0.0
 11
12419.999999999991
 21
-1055.0
 31
0.0
1001
ACDBBLOCKREPETAG
1070
     1
1071
        9
1005
128528
  0
LINE
  5
128529
  8
OBJECT
 10
12580.0
 20
-1043.0
 30
0.0
 11
12580.0
 21
-1055.0
 31
0.0
1001
ACDBBLOCKREPETAG
1070
     1
1071
       10
1005
128529
  0
LINE
  5
12852A
  8
OBJECT
 10
12633.0
 20
-909.0
 30
0.0
 11
12640.0
 21
-909.0
 31
0.0
1001
ACDBBLOCKREPETAG
1070
     1
1071
       23
1005
12852A
  0
LINE
  5
12852B
  8
OBJECT
 10
12640.0
 20
-909.0
 30
0.0
 11
12640.0
 21
-1016.0
 31
0.0
1001
ACDBBLOCKREPETAG
1070
     1
1071
       24
1005
12852B
  0
LINE
  5
12852C
  8
OBJECT
 10
12584.5
 20
-910.50000000006548
 30
0.0
 11
12584.5
 21
-1013.5
 31
0.0
1001
ACDBBLOCKREPETAG
1070
     1
1071
       25
1005
12852C
  0
ARC
  5
12852D
  8
OBJECT
 10
12581.5
 20
-910.50000000006548
 30
0.0
 40
3.0
 50
0.0
 51
90.0
1001
ACDBBLOCKREPETAG
1070
     1
1071
       26
1005
12852D
  0
LINE
  5
12852E
  8
OBJECT
 10
12633.0
 20
-1016.0
 30
0.0
 11
12633.0
 21
-909.0
 31
0.0
1001
ACDBBLOCKREPETAG
1070
     1
1071
       27
1005
12852E
  0
LINE
  5
12852F
  8
CENTER
 10
12655.0
 20
-964.0
 30
0.0
 11
12541.344919912999
 21
-964.00000000006526
 31
0.0
1001
ACDBBLOCKREPETAG
1070
     1
1071
       28
1005
12852F
  0
LINE
  5
128530
  8
OBJECT
 10
12633.0
 20
-912.0
 30
0.0
 11
12597.0
 21
-912.0
 31
0.0
1001
ACDBBLOCKREPETAG
1070
     1
1071
       29
1005
128530
  0
LINE
  5
128531
  8
OBJECT
 10
12597.0
 20
-912.0
 30
0.0
 11
12597.0
 21
-1016.0
 31
0.0
1001
ACDBBLOCKREPETAG
1070
     1
1071
       30
1005
128531
  0
LINE
  5
128532
  8
OBJECT
 10
12597.0
 20
-1016.0
 30
0.0
 11
12640.0
 21
-1016.0
 31
0.0
1001
ACDBBLOCKREPETAG
1070
     1
1071
       31
1005
128532
  0
LINE
  5
128533
  8
OBJECT
 10
12593.0
 20
-916.5
 30
0.0
 11
12584.5
 21
-916.5
 31
0.0
1001
ACDBBLOCKREPETAG
1070
     1
1071
       32
1005
128533
  0
LINE
  5
128534
  8
OBJECT
 10
12584.5
 20
-1011.5
 30
0.0
 11
12593.0
 21
-1011.5
 31
0.0
1001
ACDBBLOCKREPETAG
1070
     1
1071
       33
1005
128534
  0
LINE
  5
128535
  8
OBJECT
 10
12593.0
 20
-1011.5
 30
0.0
 11
12593.0
 21
-916.5
 31
0.0
1001
ACDBBLOCKREPETAG
1070
     1
1071
       34
1005
128535
  0
LINE
  5
128536
  8
OBJECT
 10
12597.0
 20
-912.0
 30
0.0
 11
12593.0
 21
-916.5
 31
0.0
1001
ACDBBLOCKREPETAG
1070
     1
1071
       35
1005
128536
  0
LINE
  5
128537
  8
OBJECT
 10
12597.0
 20
-1016.0
 30
0.0
 11
12593.0
 21
-1011.5
 31
0.0
1001
ACDBBLOCKREPETAG
1070
     1
1071
       36
1005
128537
  0
LINE
  5
128538
  8
HIDDEN
 10
12588.0
 20
-926.0
 30
0.0
 11
12588.0
 21
-1002.0
 31
0.0
1001
ACDBBLOCKREPETAG
1070
     1
1071
       37
1005
128538
  0
ARC
  5
128539
  8
OBJECT
 10
12664.87827287877
 20
-972.40950726122867
 30
0.0
 40
110.86635228309
 50
144.1634274193047
 51
163.04035380434561
1001
ACDBBLOCKREPETAG
1070
     1
1071
       38
1005
128539
  0
ARC
  5
12853A
  8
OBJECT
 10
12617.135988776899
 20
-957.28774971844894
 30
0.0
 40
60.791749880358971
 50
163.54720465221311
 51
179.72879698282691
1001
ACDBBLOCKREPETAG
1070
     1
1071
       39
1005
12853A
  0
ARC
  5
12853B
  8
OBJECT
 10
12617.13599565625
 20
-963.71224975990117
 30
0.0
 40
60.79175676209487
 50
180.2712034781452
 51
196.45277946052011
1001
ACDBBLOCKREPETAG
1070
     1
1071
       40
1005
12853B
  0
ARC
  5
12853C
  8
OBJECT
 10
12664.87827287877
 20
-948.59049273883636
 30
0.0
 40
110.8663522830916
 50
196.95964619565439
 51
215.8365725806953
1001
ACDBBLOCKREPETAG
1070
     1
1071
       41
1005
12853C
  0
LINE
  5
12853D
  8
OBJECT
 10
12556.344919912999
 20
-957.00000000003638
 30
0.0
 11
12556.344919912999
 21
-964.00000000003286
 31
0.0
1001
ACDBBLOCKREPETAG
1070
     1
1071
       42
1005
12853D
  0
LINE
  5
12853E
  8
OBJECT
 10
12575.0
 20
-907.50000000006526
 30
0.0
 11
12581.5
 21
-907.50000000006526
 31
0.0
1001
ACDBBLOCKREPETAG
1070
     1
1071
       43
1005
12853E
  0
LINE
  5
12853F
  8
OBJECT
 10
12575.0
 20
-1013.5
 30
0.0
 11
12584.5
 21
-1013.5
 31
0.0
1001
ACDBBLOCKREPETAG
1070
     1
1071
       44
1005
12853F
  0
LINE
  5
128540
  8
OBJECT
 10
12575.0
 20
-1013.5
 30
0.0
 11
12575.0
 21
-1043.0
 31
0.0
1001
ACDBBLOCKREPETAG
1070
     1
1071
        1
1005
128523
  0
POINT
  5
128541
  8
DOTS
 10
12500.0
 20
-1016.0
 30
0.0
  0
LINE
  5
128542
  8
DIM
 10
12665.0
 20
-696.0
 30
0.0
 11
12719.424581672751
 21
-696.0
 31
0.0
  0
LINE
  5
128543
  8
DIM
 10
12650.0
 20
-1016.0
 30
0.0
 11
12719.424581672751
 21
-1016.0
 31
0.0
  0
LINE
  5
128544
  8
DIM
 10
12709.424581672751
 20
-716.0
 30
0.0
 11
12709.424581672751
 21
-996.0
 31
0.0
  0
INSERT
  5
128545
  8
DIM
  2
_OPEN30
 10
12709.424581672751
 20
-696.0
 30
0.0
 41
20.0
 42
20.0
 43
20.0
 50
90.0
  0
INSERT
  5
128546
  8
DIM
  2
_OPEN30
 10
12709.424581672751
 20
-1016.0
 30
0.0
 41
20.0
 42
20.0
 43
20.0
 50
270.0
  0
INSERT
  5
128547
  8
SLIM
  2
*U6
 10
0.0
 20
0.0
 30
0.0
  0
LINE
  5
128548
  8
OBJECT
 10
10575.0
 20
-770.0
 30
0.0
 11
10575.0
 21
-907.50000000006526
 31
0.0
1001
ACDBBLOCKREPETAG
1070
     1
1071
        1
1005
128548
  0
LINE
  5
128549
  8
OBJECT
 10
10425.0
 20
-769.9999999999942
 30
0.0
 11
10425.0
 21
-1043.0
 31
0.0
1001
ACDBBLOCKREPETAG
1070
     1
1071
        3
1005
128549
  0
LINE
  5
12854A
  8
CENTER
 10
10500.0
 20
-770.0
 30
0.0
 11
10500.0
 21
-1055.0
 31
0.0
1001
ACDBBLOCKREPETAG
1070
     1
1071
        6
1005
12854A
  0
LINE
  5
12854B
  8
OBJECT
 10
10420.0
 20
-1055.0
 30
0.0
 11
10580.0
 21
-1055.0
 31
0.0
1001
ACDBBLOCKREPETAG
1070
     1
1071
        7
1005
12854B
  0
LINE
  5
12854C
  8
OBJECT
 10
10420.0
 20
-1043.0
 30
0.0
 11
10580.0
 21
-1043.0
 31
0.0
1001
ACDBBLOCKREPETAG
1070
     1
1071
        8
1005
12854C
  0
LINE
  5
12854D
  8
OBJECT
 10
10420.0
 20
-1043.0
 30
0.0
 11
10420.0
 21
-1055.0
 31
0.0
1001
ACDBBLOCKREPETAG
1070
     1
1071
        9
1005
12854D
  0
LINE
  5
12854E
  8
OBJECT
 10
10580.0
 20
-1043.0
 30
0.0
 11
10580.0
 21
-1055.0
 31
0.0
1001
ACDBBLOCKREPETAG
1070
     1
1071
       10
1005
12854E
  0
LINE
  5
12854F
  8
OBJECT
 10
10633.0
 20
-909.0
 30
0.0
 11
10640.0
 21
-909.0
 31
0.0
1001
ACDBBLOCKREPETAG
1070
     1
1071
       23
1005
12854F
  0
LINE
  5
128550
  8
OBJECT
 10
10640.0
 20
-909.0
 30
0.0
 11
10640.0
 21
-1016.0
 31
0.0
1001
ACDBBLOCKREPETAG
1070
     1
1071
       24
1005
128550
  0
LINE
  5
128551
  8
OBJECT
 10
10584.5
 20
-910.50000000006548
 30
0.0
 11
10584.5
 21
-1013.5
 31
0.0
1001
ACDBBLOCKREPETAG
1070
     1
1071
       25
1005
128551
  0
ARC
  5
128552
  8
OBJECT
 10
10581.5
 20
-910.50000000006548
 30
0.0
 40
3.0
 50
0.0
 51
90.0
1001
ACDBBLOCKREPETAG
1070
     1
1071
       26
1005
128552
  0
LINE
  5
128553
  8
OBJECT
 10
10633.0
 20
-1016.0
 30
0.0
 11
10633.0
 21
-909.0
 31
0.0
1001
ACDBBLOCKREPETAG
1070
     1
1071
       27
1005
128553
  0
LINE
  5
128554
  8
CENTER
 10
10655.0
 20
-964.0
 30
0.0
 11
10541.344919912999
 21
-964.00000000006526
 31
0.0
1001
ACDBBLOCKREPETAG
1070
     1
1071
       28
1005
128554
  0
LINE
  5
128555
  8
OBJECT
 10
10633.0
 20
-912.0
 30
0.0
 11
10597.0
 21
-912.0
 31
0.0
1001
ACDBBLOCKREPETAG
1070
     1
1071
       29
1005
128555
  0
LINE
  5
128556
  8
OBJECT
 10
10597.0
 20
-912.0
 30
0.0
 11
10597.0
 21
-1016.0
 31
0.0
1001
ACDBBLOCKREPETAG
1070
     1
1071
       30
1005
128556
  0
LINE
  5
128557
  8
OBJECT
 10
10597.0
 20
-1016.0
 30
0.0
 11
10640.0
 21
-1016.0
 31
0.0
1001
ACDBBLOCKREPETAG
1070
     1
1071
       31
1005
128557
  0
LINE
  5
128558
  8
OBJECT
 10
10593.0
 20
-916.5
 30
0.0
 11
10584.5
 21
-916.5
 31
0.0
1001
ACDBBLOCKREPETAG
1070
     1
1071
       32
1005
128558
  0
LINE
  5
128559
  8
OBJECT
 10
10584.5
 20
-1011.5
 30
0.0
 11
10593.0
 21
-1011.5
 31
0.0
1001
ACDBBLOCKREPETAG
1070
     1
1071
       33
1005
128559
  0
LINE
  5
12855A
  8
OBJECT
 10
10593.0
 20
-1011.5
 30
0.0
 11
10593.0
 21
-916.5
 31
0.0
1001
ACDBBLOCKREPETAG
1070
     1
1071
       34
1005
12855A
  0
LINE
  5
12855B
  8
OBJECT
 10
10597.0
 20
-912.0
 30
0.0
 11
10593.0
 21
-916.5
 31
0.0
1001
ACDBBLOCKREPETAG
1070
     1
1071
       35
1005
12855B
  0
LINE
  5
12855C
  8
OBJECT
 10
10597.0
 20
-1016.0
 30
0.0
 11
10593.0
 21
-1011.5
 31
0.0
1001
ACDBBLOCKREPETAG
1070
     1
1071
       36
1005
12855C
  0
LINE
  5
12855D
  8
HIDDEN
 10
10588.0
 20
-926.0
 30
0.0
 11
10588.0
 21
-1002.0
 31
0.0
1001
ACDBBLOCKREPETAG
1070
     1
1071
       37
1005
12855D
  0
ARC
  5
12855E
  8
OBJECT
 10
10664.87827287877
 20
-972.40950726122867
 30
0.0
 40
110.86635228309
 50
144.1634274193047
 51
163.04035380434561
1001
ACDBBLOCKREPETAG
1070
     1
1071
       38
1005
12855E
  0
ARC
  5
12855F
  8
OBJECT
 10
10617.135988776899
 20
-957.28774971844894
 30
0.0
 40
60.791749880358971
 50
163.54720465221311
 51
179.72879698282691
1001
ACDBBLOCKREPETAG
1070
     1
1071
       39
1005
12855F
  0
ARC
  5
128560
  8
OBJECT
 10
10617.13599565625
 20
-963.71224975990117
 30
0.0
 40
60.79175676209487
 50
180.2712034781452
 51
196.45277946052011
1001
ACDBBLOCKREPETAG
1070
     1
1071
       40
1005
128560
  0
ARC
  5
128561
  8
OBJECT
 10
10664.87827287877
 20
-948.59049273883636
 30
0.0
 40
110.8663522830916
 50
196.95964619565439
 51
215.8365725806953
1001
ACDBBLOCKREPETAG
1070
     1
1071
       41
1005
128561
  0
LINE
  5
128562
  8
OBJECT
 10
10556.344919912999
 20
-957.00000000003638
 30
0.0
 11
10556.344919912999
 21
-964.00000000003286
 31
0.0
1001
ACDBBLOCKREPETAG
1070
     1
1071
       42
1005
128562
  0
LINE
  5
128563
  8
OBJECT
 10
10575.0
 20
-907.50000000006526
 30
0.0
 11
10581.5
 21
-907.50000000006526
 31
0.0
1001
ACDBBLOCKREPETAG
1070
     1
1071
       43
1005
128563
  0
LINE
  5
128564
  8
OBJECT
 10
10575.0
 20
-1013.5
 30
0.0
 11
10584.5
 21
-1013.5
 31
0.0
1001
ACDBBLOCKREPETAG
1070
     1
1071
       44
1005
128564
  0
LINE
  5
128565
  8
OBJECT
 10
10575.0
 20
-1013.5
 30
0.0
 11
10575.0
 21
-1043.0
 31
0.0
1001
ACDBBLOCKREPETAG
1070
     1
1071
        1
1005
128548
  0
POINT
  5
128566
  8
DOTS
 10
10500.0
 20
-1016.0
 30
0.0
  0
LINE
  5
128567
  8
DIM
 10
10665.0
 20
-696.0
 30
0.0
 11
10719.424581672751
 21
-696.0
 31
0.0
  0
LINE
  5
128568
  8
DIM
 10
10650.0
 20
-1016.0
 30
0.0
 11
10719.424581672751
 21
-1016.0
 31
0.0
  0
LINE
  5
128569
  8
DIM
 10
10709.424581672751
 20
-716.0
 30
0.0
 11
10709.424581672751
 21
-996.0
 31
0.0
  0
INSERT
  5
12856A
  8
DIM
  2
_OPEN30
 10
10709.424581672751
 20
-696.0
 30
0.0
 41
20.0
 42
20.0
 43
20.0
 50
90.0
  0
INSERT
  5
12856B
  8
DIM
  2
_OPEN30
 10
10709.424581672751
 20
-1016.0
 30
0.0
 41
20.0
 42
20.0
 43
20.0
 50
270.0
  0
INSERT
  5
12856C
  8
SLIM
  2
*U7
 10
0.0
 20
0.0
 30
0.0
  0
LINE
  5
12856D
  8
OBJECT
 10
8575.0
 20
-770.0
 30
0.0
 11
8575.0
 21
-907.50000000006526
 31
0.0
1001
ACDBBLOCKREPETAG
1070
     1
1071
        1
1005
12856D
  0
LINE
  5
12856E
  8
OBJECT
 10
8425.0
 20
-769.9999999999942
 30
0.0
 11
8425.0
 21
-1043.0
 31
0.0
1001
ACDBBLOCKREPETAG
1070
     1
1071
        3
1005
12856E
  0
LINE
  5
12856F
  8
CENTER
 10
8500.0
 20
-770.0
 30
0.0
 11
8500.0
 21
-1055.0
 31
0.0
1001
ACDBBLOCKREPETAG
1070
     1
1071
        6
1005
12856F
  0
LINE
  5
128570
  8
OBJECT
 10
8420.0
 20
-1055.0
 30
0.0
 11
8580.0
 21
-1055.0
 31
0.0
1001
ACDBBLOCKREPETAG
1070
     1
1071
        7
1005
128570
  0
LINE
  5
128571
  8
OBJECT
 10
8420.0
 20
-1043.0
 30
0.0
 11
8580.0
 21
-1043.0
 31
0.0
1001
ACDBBLOCKREPETAG
1070
     1
1071
        8
1005
128571
  0
LINE
  5
128572
  8
OBJECT
 10
8420.0
 20
-1043.0
 30
0.0
 11
8420.0
 21
-1055.0
 31
0.0
1001
ACDBBLOCKREPETAG
1070
     1
1071
        9
1005
128572
  0
LINE
  5
128573
  8
OBJECT
 10
8580.0
 20
-1043.0
 30
0.0
 11
8580.0
 21
-1055.0
 31
0.0
1001
ACDBBLOCKREPETAG
1070
     1
1071
       10
1005
128573
  0
LINE
  5
128574
  8
OBJECT
 10
8633.0
 20
-909.0
 30
0.0
 11
8640.0
 21
-909.0
 31
0.0
1001
ACDBBLOCKREPETAG
1070
     1
1071
       23
1005
128574
  0
LINE
  5
128575
  8
OBJECT
 10
8640.0
 20
-909.0
 30
0.0
 11
8640.0
 21
-1016.0
 31
0.0
1001
ACDBBLOCKREPETAG
1070
     1
1071
       24
1005
128575
  0
LINE
  5
128576
  8
OBJECT
 10
8584.5
 20
-910.50000000006548
 30
0.0
 11
8584.5
 21
-1013.5
 31
0.0
1001
ACDBBLOCKREPETAG
1070
     1
1071
       25
1005
128576
  0
ARC
  5
128577
  8
OBJECT
 10
8581.5
 20
-910.50000000006548
 30
0.0
 40
3.0
 50
0.0
 51
90.0
1001
ACDBBLOCKREPETAG
1070
     1
1071
       26
1005
128577
  0
LINE
  5
128578
  8
OBJECT
 10
8633.0
 20
-1016.0
 30
0.0
 11
8633.0
 21
-909.0
 31
0.0
1001
ACDBBLOCKREPETAG
1070
     1
1071
       27
1005
128578
  0
LINE
  5
128579
  8
CENTER
 10
8655.0
 20
-964.0
 30
0.0
 11
8541.3449199130046
 21
-964.00000000006526
 31
0.0
1001
ACDBBLOCKREPETAG
1070
     1
1071
       28
1005
128579
  0
LINE
  5
12857A
  8
OBJECT
 10
8633.0
 20
-912.0
 30
0.0
 11
8597.0
 21
-912.0
 31
0.0
1001
ACDBBLOCKREPETAG
1070
     1
1071
       29
1005
12857A
  0
LINE
  5
12857B
  8
OBJECT
 10
8597.0
 20
-912.0
 30
0.0
 11
8597.0
 21
-1016.0
 31
0.0
1001
ACDBBLOCKREPETAG
1070
     1
1071
       30
1005
12857B
  0
LINE
  5
12857C
  8
OBJECT
 10
8597.0
 20
-1016.0
 30
0.0
 11
8640.0
 21
-1016.0
 31
0.0
1001
ACDBBLOCKREPETAG
1070
     1
1071
       31
1005
12857C
  0
LINE
  5
12857D
  8
OBJECT
 10
8593.0
 20
-916.5
 30
0.0
 11
8584.5
 21
-916.5
 31
0.0
1001
ACDBBLOCKREPETAG
1070
     1
1071
       32
1005
12857D
  0
LINE
  5
12857E
  8
OBJECT
 10
8584.5
 20
-1011.5
 30
0.0
 11
8593.0
 21
-1011.5
 31
0.0
1001
ACDBBLOCKREPETAG
1070
     1
1071
       33
1005
12857E
  0
LINE
  5
12857F
  8
OBJECT
 10
8593.0
 20
-1011.5
 30
0.0
 11
8593.0
 21
-916.5
 31
0.0
1001
ACDBBLOCKREPETAG
1070
     1
1071
       34
1005
12857F
  0
LINE
  5
128580
  8
OBJECT
 10
8597.0
 20
-912.0
 30
0.0
 11
8593.0
 21
-916.5
 31
0.0
1001
ACDBBLOCKREPETAG
1070
     1
1071
       35
1005
128580
  0
LINE
  5
128581
  8
OBJECT
 10
8597.0
 20
-1016.0
 30
0.0
 11
8593.0
 21
-1011.5
 31
0.0
1001
ACDBBLOCKREPETAG
1070
     1
1071
       36
1005
128581
  0
LINE
  5
128582
  8
HIDDEN
 10
8588.0
 20
-926.0
 30
0.0
 11
8588.0
 21
-1002.0
 31
0.0
1001
ACDBBLOCKREPETAG
1070
     1
1071
       37
1005
128582
  0
ARC
  5
128583
  8
OBJECT
 10
8664.8782728787737
 20
-972.40950726122867
 30
0.0
 40
110.86635228309
 50
144.1634274193047
 51
163.04035380434561
1001
ACDBBLOCKREPETAG
1070
     1
1071
       38
1005
128583
  0
ARC
  5
128584
  8
OBJECT
 10
8617.1359887769067
 20
-957.28774971844894
 30
0.0
 40
60.791749880358971
 50
163.54720465221311
 51
179.72879698282691
1001
ACDBBLOCKREPETAG
1070
     1
1071
       39
1005
128584
  0
ARC
  5
128585
  8
OBJECT
 10
8617.1359956562483
 20
-963.71224975990117
 30
0.0
 40
60.79175676209487
 50
180.2712034781452
 51
196.45277946052011
1001
ACDBBLOCKREPETAG
1070
     1
1071
       40
1005
128585
  0
ARC
  5
128586
  8
OBJECT
 10
8664.8782728787737
 20
-948.59049273883636
 30
0.0
 40
110.8663522830916
 50
196.95964619565439
 51
215.8365725806953
1001
ACDBBLOCKREPETAG
1070
     1
1071
       41
1005
128586
  0
LINE
  5
128587
  8
OBJECT
 10
8556.3449199130046
 20
-957.00000000003638
 30
0.0
 11
8556.3449199130046
 21
-964.00000000003286
 31
0.0
1001
ACDBBLOCKREPETAG
1070
     1
1071
       42
1005
128587
  0
LINE
  5
128588
  8
OBJECT
 10
8575.0
 20
-907.50000000006526
 30
0.0
 11
8581.5
 21
-907.50000000006526
 31
0.0
1001
ACDBBLOCKREPETAG
1070
     1
1071
       43
1005
128588
  0
LINE
  5
128589
  8
OBJECT
 10
8575.0
 20
-1013.5
 30
0.0
 11
8584.5
 21
-1013.5
 31
0.0
1001
ACDBBLOCKREPETAG
1070
     1
1071
       44
1005
128589
  0
LINE
  5
12858A
  8
OBJECT
 10
8575.0
 20
-1013.5
 30
0.0
 11
8575.0
 21
-1043.0
 31
0.0
1001
ACDBBLOCKREPETAG
1070
     1
1071
        1
1005
12856D
  0
POINT
  5
12858B
  8
DOTS
 10
8500.0
 20
-1016.0
 30
0.0
  0
LINE
  5
12858C
  8
DIM
 10
8665.0
 20
-696.0
 30
0.0
 11
8719.4245816727544
 21
-696.0
 31
0.0
  0
LINE
  5
12858D
  8
DIM
 10
8650.0
 20
-1016.0
 30
0.0
 11
8719.4245816727544
 21
-1016.0
 31
0.0
  0
LINE
  5
12858E
  8
DIM
 10
8709.4245816727544
 20
-716.0
 30
0.0
 11
8709.4245816727544
 21
-996.0
 31
0.0
  0
INSERT
  5
12858F
  8
DIM
  2
_OPEN30
 10
8709.4245816727544
 20
-696.0
 30
0.0
 41
20.0
 42
20.0
 43
20.0
 50
90.0
  0
INSERT
  5
128590
  8
DIM
  2
_OPEN30
 10
8709.4245816727544
 20
-1016.0
 30
0.0
 41
20.0
 42
20.0
 43
20.0
 50
270.0
  0
INSERT
  5
128591
  8
SLIM
  2
*U8
 10
0.0
 20
0.0
 30
0.0
  0
LINE
  5
128592
  8
OBJECT
 10
6575.0
 20
-770.0
 30
0.0
 11
6575.0
 21
-907.50000000006526
 31
0.0
1001
ACDBBLOCKREPETAG
1070
     1
1071
        1
1005
128592
  0
LINE
  5
128593
  8
OBJECT
 10
6425.0
 20
-769.9999999999942
 30
0.0
 11
6425.0
 21
-1043.0
 31
0.0
1001
ACDBBLOCKREPETAG
1070
     1
1071
        3
1005
128593
  0
LINE
  5
128594
  8
CENTER
 10
6500.0
 20
-770.0
 30
0.0
 11
6500.0
 21
-1055.0
 31
0.0
1001
ACDBBLOCKREPETAG
1070
     1
1071
        6
1005
128594
  0
LINE
  5
128595
  8
OBJECT
 10
6420.0
 20
-1055.0
 30
0.0
 11
6580.0
 21
-1055.0
 31
0.0
1001
ACDBBLOCKREPETAG
1070
     1
1071
        7
1005
128595
  0
LINE
  5
128596
  8
OBJECT
 10
6420.0
 20
-1043.0
 30
0.0
 11
6580.0
 21
-1043.0
 31
0.0
1001
ACDBBLOCKREPETAG
1070
     1
1071
        8
1005
128596
  0
LINE
  5
128597
  8
OBJECT
 10
6420.0
 20
-1043.0
 30
0.0
 11
6420.0
 21
-1055.0
 31
0.0
1001
ACDBBLOCKREPETAG
1070
     1
1071
        9
1005
128597
  0
LINE
  5
128598
  8
OBJECT
 10
6580.0
 20
-1043.0
 30
0.0
 11
6580.0
 21
-1055.0
 31
0.0
1001
ACDBBLOCKREPETAG
1070
     1
1071
       10
1005
128598
  0
LINE
  5
128599
  8
OBJECT
 10
6633.0
 20
-909.0
 30
0.0
 11
6640.0
 21
-909.0
 31
0.0
1001
ACDBBLOCKREPETAG
1070
     1
1071
       23
1005
128599
  0
LINE
  5
12859A
  8
OBJECT
 10
6640.0
 20
-909.0
 30
0.0
 11
6640.0
 21
-1016.0
 31
0.0
1001
ACDBBLOCKREPETAG
1070
     1
1071
       24
1005
12859A
  0
LINE
  5
12859B
  8
OBJECT
 10
6584.5
 20
-910.50000000006548
 30
0.0
 11
6584.5
 21
-1013.5
 31
0.0
1001
ACDBBLOCKREPETAG
1070
     1
1071
       25
1005
12859B
  0
ARC
  5
12859C
  8
OBJECT
 10
6581.5
 20
-910.50000000006548
 30
0.0
 40
3.0
 50
0.0
 51
90.0
1001
ACDBBLOCKREPETAG
1070
     1
1071
       26
1005
12859C
  0
LINE
  5
12859D
  8
OBJECT
 10
6633.0
 20
-1016.0
 30
0.0
 11
6633.0
 21
-909.0
 31
0.0
1001
ACDBBLOCKREPETAG
1070
     1
1071
       27
1005
12859D
  0
LINE
  5
12859E
  8
CENTER
 10
6655.0
 20
-964.0
 30
0.0
 11
6541.3449199130037
 21
-964.00000000006526
 31
0.0
1001
ACDBBLOCKREPETAG
1070
     1
1071
       28
1005
12859E
  0
LINE
  5
12859F
  8
OBJECT
 10
6633.0
 20
-912.0
 30
0.0
 11
6597.0
 21
-912.0
 31
0.0
1001
ACDBBLOCKREPETAG
1070
     1
1071
       29
1005
12859F
  0
LINE
  5
1285A0
  8
OBJECT
 10
6597.0
 20
-912.0
 30
0.0
 11
6597.0
 21
-1016.0
 31
0.0
1001
ACDBBLOCKREPETAG
1070
     1
1071
       30
1005
1285A0
  0
LINE
  5
1285A1
  8
OBJECT
 10
6597.0
 20
-1016.0
 30
0.0
 11
6640.0
 21
-1016.0
 31
0.0
1001
ACDBBLOCKREPETAG
1070
     1
1071
       31
1005
1285A1
  0
LINE
  5
1285A2
  8
OBJECT
 10
6593.0
 20
-916.5
 30
0.0
 11
6584.5
 21
-916.5
 31
0.0
1001
ACDBBLOCKREPETAG
1070
     1
1071
       32
1005
1285A2
  0
LINE
  5
1285A3
  8
OBJECT
 10
6584.5
 20
-1011.5
 30
0.0
 11
6593.0
 21
-1011.5
 31
0.0
1001
ACDBBLOCKREPETAG
1070
     1
1071
       33
1005
1285A3
  0
LINE
  5
1285A4
  8
OBJECT
 10
6593.0
 20
-1011.5
 30
0.0
 11
6593.0
 21
-916.5
 31
0.0
1001
ACDBBLOCKREPETAG
1070
     1
1071
       34
1005
1285A4
  0
LINE
  5
1285A5
  8
OBJECT
 10
6597.0
 20
-912.0
 30
0.0
 11
6593.0
 21
-916.5
 31
0.0
1001
ACDBBLOCKREPETAG
1070
     1
1071
       35
1005
1285A5
  0
LINE
  5
1285A6
  8
OBJECT
 10
6597.0
 20
-1016.0
 30
0.0
 11
6593.0
 21
-1011.5
 31
0.0
1001
ACDBBLOCKREPETAG
1070
     1
1071
       36
1005
1285A6
  0
LINE
  5
1285A7
  8
HIDDEN
 10
6588.0
 20
-926.0
 30
0.0
 11
6588.0
 21
-1002.0
 31
0.0
1001
ACDBBLOCKREPETAG
1070
     1
1071
       37
1005
1285A7
  0
ARC
  5
1285A8
  8
OBJECT
 10
6664.8782728787719
 20
-972.40950726122867
 30
0.0
 40
110.86635228309
 50
144.1634274193047
 51
163.04035380434561
1001
ACDBBLOCKREPETAG
1070
     1
1071
       38
1005
1285A8
  0
ARC
  5
1285A9
  8
OBJECT
 10
6617.1359887769049
 20
-957.28774971844894
 30
0.0
 40
60.791749880358971
 50
163.54720465221311
 51
179.72879698282651
1001
ACDBBLOCKREPETAG
1070
     1
1071
       39
1005
1285A9
  0
ARC
  5
1285AA
  8
OBJECT
 10
6617.1359956562474
 20
-963.71224975990117
 30
0.0
 40
60.79175676209487
 50
180.2712034781452
 51
196.45277946052011
1001
ACDBBLOCKREPETAG
1070
     1
1071
       40
1005
1285AA
  0
ARC
  5
1285AB
  8
OBJECT
 10
6664.8782728787719
 20
-948.59049273883636
 30
0.0
 40
110.8663522830916
 50
196.95964619565439
 51
215.8365725806953
1001
ACDBBLOCKREPETAG
1070
     1
1071
       41
1005
1285AB
  0
LINE
  5
1285AC
  8
OBJECT
 10
6556.3449199130064
 20
-957.00000000003638
 30
0.0
 11
6556.3449199130064
 21
-964.00000000003286
 31
0.0
1001
ACDBBLOCKREPETAG
1070
     1
1071
       42
1005
1285AC
  0
LINE
  5
1285AD
  8
OBJECT
 10
6575.0
 20
-907.50000000006526
 30
0.0
 11
6581.5
 21
-907.50000000006526
 31
0.0
1001
ACDBBLOCKREPETAG
1070
     1
1071
       43
1005
1285AD
  0
LINE
  5
1285AE
  8
OBJECT
 10
6575.0
 20
-1013.5
 30
0.0
 11
6584.5
 21
-1013.5
 31
0.0
1001
ACDBBLOCKREPETAG
1070
     1
1071
       44
1005
1285AE
  0
LINE
  5
1285AF
  8
OBJECT
 10
6575.0
 20
-1013.5
 30
0.0
 11
6575.0
 21
-1043.0
 31
0.0
1001
ACDBBLOCKREPETAG
1070
     1
1071
        1
1005
128592
  0
POINT
  5
1285B0
  8
DOTS
 10
6500.0
 20
-1016.0
 30
0.0
  0
LINE
  5
1285B1
  8
DIM
 10
6665.0
 20
-696.0
 30
0.0
 11
6719.4245816727562
 21
-696.0
 31
0.0
  0
LINE
  5
1285B2
  8
DIM
 10
6650.0
 20
-1016.0
 30
0.0
 11
6719.4245816727562
 21
-1016.0
 31
0.0
  0
LINE
  5
1285B3
  8
DIM
 10
6709.4245816727562
 20
-716.0
 30
0.0
 11
6709.4245816727562
 21
-996.0
 31
0.0
  0
INSERT
  5
1285B4
  8
DIM
  2
_OPEN30
 10
6709.4245816727562
 20
-696.0
 30
0.0
 41
20.0
 42
20.0
 43
20.0
 50
90.0
  0
INSERT
  5
1285B5
  8
DIM
  2
_OPEN30
 10
6709.4245816727562
 20
-1016.0
 30
0.0
 41
20.0
 42
20.0
 43
20.0
 50
270.0
  0
INSERT
  5
1285B6
  8
SLIM
  2
*U9
 10
0.0
 20
0.0
 30
0.0
  0
LINE
  5
1285B7
  8
OBJECT
 10
4575.0
 20
-770.0
 30
0.0
 11
4575.0
 21
-907.50000000006526
 31
0.0
1001
ACDBBLOCKREPETAG
1070
     1
1071
        1
1005
1285B7
  0
LINE
  5
1285B8
  8
OBJECT
 10
4425.0
 20
-769.9999999999942
 30
0.0
 11
4425.0
 21
-1043.0
 31
0.0
1001
ACDBBLOCKREPETAG
1070
     1
1071
        3
1005
1285B8
  0
LINE
  5
1285B9
  8
CENTER
 10
4500.0
 20
-770.0
 30
0.0
 11
4500.0
 21
-1055.0
 31
0.0
1001
ACDBBLOCKREPETAG
1070
     1
1071
        6
1005
1285B9
  0
LINE
  5
1285BA
  8
OBJECT
 10
4420.0
 20
-1055.0
 30
0.0
 11
4580.0
 21
-1055.0
 31
0.0
1001
ACDBBLOCKREPETAG
1070
     1
1071
        7
1005
1285BA
  0
LINE
  5
1285BB
  8
OBJECT
 10
4420.0
 20
-1043.0
 30
0.0
 11
4580.0
 21
-1043.0
 31
0.0
1001
ACDBBLOCKREPETAG
1070
     1
1071
        8
1005
1285BB
  0
LINE
  5
1285BC
  8
OBJECT
 10
4420.0
 20
-1043.0
 30
0.0
 11
4420.0
 21
-1055.0
 31
0.0
1001
ACDBBLOCKREPETAG
1070
     1
1071
        9
1005
1285BC
  0
LINE
  5
1285BD
  8
OBJECT
 10
4580.0
 20
-1043.0
 30
0.0
 11
4580.0
 21
-1055.0
 31
0.0
1001
ACDBBLOCKREPETAG
1070
     1
1071
       10
1005
1285BD
  0
LINE
  5
1285BE
  8
OBJECT
 10
4633.0
 20
-909.0
 30
0.0
 11
4640.0
 21
-909.0
 31
0.0
1001
ACDBBLOCKREPETAG
1070
     1
1071
       23
1005
1285BE
  0
LINE
  5
1285BF
  8
OBJECT
 10
4640.0
 20
-909.0
 30
0.0
 11
4640.0
 21
-1016.0
 31
0.0
1001
ACDBBLOCKREPETAG
1070
     1
1071
       24
1005
1285BF
  0
LINE
  5
1285C0
  8
OBJECT
 10
4584.5
 20
-910.50000000006548
 30
0.0
 11
4584.5
 21
-1013.5
 31
0.0
1001
ACDBBLOCKREPETAG
1070
     1
1071
       25
1005
1285C0
  0
ARC
  5
1285C1
  8
OBJECT
 10
4581.5
 20
-910.50000000006548
 30
0.0
 40
3.0
 50
0.0
 51
90.0
1001
ACDBBLOCKREPETAG
1070
     1
1071
       26
1005
1285C1
  0
LINE
  5
1285C2
  8
OBJECT
 10
4633.0
 20
-1016.0
 30
0.0
 11
4633.0
 21
-909.0
 31
0.0
1001
ACDBBLOCKREPETAG
1070
     1
1071
       27
1005
1285C2
  0
LINE
  5
1285C3
  8
CENTER
 10
4655.0
 20
-964.0
 30
0.0
 11
4541.3449199130037
 21
-964.00000000006526
 31
0.0
1001
ACDBBLOCKREPETAG
1070
     1
1071
       28
1005
1285C3
  0
LINE
  5
1285C4
  8
OBJECT
 10
4633.0
 20
-912.0
 30
0.0
 11
4597.0
 21
-912.0
 31
0.0
1001
ACDBBLOCKREPETAG
1070
     1
1071
       29
1005
1285C4
  0
LINE
  5
1285C5
  8
OBJECT
 10
4597.0
 20
-912.0
 30
0.0
 11
4597.0
 21
-1016.0
 31
0.0
1001
ACDBBLOCKREPETAG
1070
     1
1071
       30
1005
1285C5
  0
LINE
  5
1285C6
  8
OBJECT
 10
4597.0
 20
-1016.0
 30
0.0
 11
4640.0
 21
-1016.0
 31
0.0
1001
ACDBBLOCKREPETAG
1070
     1
1071
       31
1005
1285C6
  0
LINE
  5
1285C7
  8
OBJECT
 10
4593.0
 20
-916.5
 30
0.0
 11
4584.5
 21
-916.5
 31
0.0
1001
ACDBBLOCKREPETAG
1070
     1
1071
       32
1005
1285C7
  0
LINE
  5
1285C8
  8
OBJECT
 10
4584.5
 20
-1011.5
 30
0.0
 11
4593.0
 21
-1011.5
 31
0.0
1001
ACDBBLOCKREPETAG
1070
     1
1071
       33
1005
1285C8
  0
LINE
  5
1285C9
  8
OBJECT
 10
4593.0
 20
-1011.5
 30
0.0
 11
4593.0
 21
-916.5
 31
0.0
1001
ACDBBLOCKREPETAG
1070
     1
1071
       34
1005
1285C9
  0
LINE
  5
1285CA
  8
OBJECT
 10
4597.0
 20
-912.0
 30
0.0
 11
4593.0
 21
-916.5
 31
0.0
1001
ACDBBLOCKREPETAG
1070
     1
1071
       35
1005
1285CA
  0
LINE
  5
1285CB
  8
OBJECT
 10
4597.0
 20
-1016.0
 30
0.0
 11
4593.0
 21
-1011.5
 31
0.0
1001
ACDBBLOCKREPETAG
1070
     1
1071
       36
1005
1285CB
  0
LINE
  5
1285CC
  8
HIDDEN
 10
4588.0
 20
-926.0
 30
0.0
 11
4588.0
 21
-1002.0
 31
0.0
1001
ACDBBLOCKREPETAG
1070
     1
1071
       37
1005
1285CC
  0
ARC
  5
1285CD
  8
OBJECT
 10
4664.8782728787719
 20
-972.40950726122867
 30
0.0
 40
110.86635228309
 50
144.1634274193047
 51
163.04035380434561
1001
ACDBBLOCKREPETAG
1070
     1
1071
       38
1005
1285CD
  0
ARC
  5
1285CE
  8
OBJECT
 10
4617.1359887769049
 20
-957.28774971844894
 30
0.0
 40
60.791749880358971
 50
163.54720465221311
 51
179.72879698282651
1001
ACDBBLOCKREPETAG
1070
     1
1071
       39
1005
1285CE
  0
ARC
  5
1285CF
  8
OBJECT
 10
4617.1359956562483
 20
-963.71224975990117
 30
0.0
 40
60.79175676209487
 50
180.2712034781452
 51
196.45277946052011
1001
ACDBBLOCKREPETAG
1070
     1
1071
       40
1005
1285CF
  0
ARC
  5
1285D0
  8
OBJECT
 10
4664.8782728787719
 20
-948.59049273883636
 30
0.0
 40
110.8663522830916
 50
196.95964619565439
 51
215.8365725806953
1001
ACDBBLOCKREPETAG
1070
     1
1071
       41
1005
1285D0
  0
LINE
  5
1285D1
  8
OBJECT
 10
4556.3449199130037
 20
-957.00000000003638
 30
0.0
 11
4556.3449199130037
 21
-964.00000000003286
 31
0.0
1001
ACDBBLOCKREPETAG
1070
     1
1071
       42
1005
1285D1
  0
LINE
  5
1285D2
  8
OBJECT
 10
4575.0
 20
-907.50000000006526
 30
0.0
 11
4581.5
 21
-907.50000000006526
 31
0.0
1001
ACDBBLOCKREPETAG
1070
     1
1071
       43
1005
1285D2
  0
LINE
  5
1285D3
  8
OBJECT
 10
4575.0
 20
-1013.5
 30
0.0
 11
4584.5
 21
-1013.5
 31
0.0
1001
ACDBBLOCKREPETAG
1070
     1
1071
       44
1005
1285D3
  0
LINE
  5
1285D4
  8
OBJECT
 10
4575.0
 20
-1013.5
 30
0.0
 11
4575.0
 21
-1043.0
 31
0.0
1001
ACDBBLOCKREPETAG
1070
     1
1071
        1
1005
1285B7
  0
POINT
  5
1285D5
  8
DOTS
 10
4500.0
 20
-1016.0
 30
0.0
  0
LINE
  5
1285D6
  8
DIM
 10
4665.0
 20
-696.0
 30
0.0
 11
4719.4245816727571
 21
-696.0
 31
0.0
  0
LINE
  5
1285D7
  8
DIM
 10
4650.0
 20
-1016.0
 30
0.0
 11
4719.4245816727571
 21
-1016.0
 31
0.0
  0
LINE
  5
1285D8
  8
DIM
 10
4709.4245816727562
 20
-716.0
 30
0.0
 11
4709.4245816727562
 21
-996.0
 31
0.0
  0
INSERT
  5
1285D9
  8
DIM
  2
_OPEN30
 10
4709.4245816727562
 20
-696.0
 30
0.0
 41
20.0
 42
20.0
 43
20.0
 50
90.0
  0
INSERT
  5
1285DA
  8
DIM
  2
_OPEN30
 10
4709.4245816727562
 20
-1016.0
 30
0.0
 41
20.0
 42
20.0
 43
20.0
 50
270.0
  0
INSERT
  5
1285DB
  8
SLIM
  2
*U10
 10
0.0
 20
0.0
 30
0.0
  0
POLYLINE
  5
1285DC
  8
HIDDEN
 66
     1
 10
0.0
 20
0.0
 30
0.0
 70
     1
1001
ACDBBLOCKREPETAG
1070
     1
1071
      105
1005
0
  0
VERTEX
  5
128B85
  8
HIDDEN
 10
359.99999999987779
 20
-799.99999999999818
 30
0.0
  0
VERTEX
  5
128B86
  8
HIDDEN
 10
719.99999999975603
 20
-799.99999999999818
 30
0.0
  0
VERTEX
  5
128B87
  8
HIDDEN
 10
719.99999999975603
 20
-1263.9999999998399
 30
0.0
  0
VERTEX
  5
128B88
  8
HIDDEN
 10
359.99999999987779
 20
-1263.9999999998399
 30
0.0
  0
SEQEND
  5
128B89
  8
HIDDEN
  0
POLYLINE
  5
1285DD
  8
HIDDEN
 66
     1
 10
0.0
 20
0.0
 30
0.0
 70
     1
1001
ACDBBLOCKREPETAG
1070
     1
1071
      110
1005
0
  0
VERTEX
  5
128B8A
  8
HIDDEN
 10
-0.0000000000002274
 20
-799.99999999999818
 30
0.0
  0
VERTEX
  5
128B8B
  8
HIDDEN
 10
359.99999999987779
 20
-799.99999999999818
 30
0.0
  0
VERTEX
  5
128B8C
  8
HIDDEN
 10
359.99999999987779
 20
-1263.9999999998399
 30
0.0
  0
VERTEX
  5
128B8D
  8
HIDDEN
 10
-0.0000000000002274
 20
-1263.9999999998399
 30
0.0
  0
SEQEND
  5
128B8E
  8
HIDDEN
  0
POLYLINE
  5
1285DE
  8
HIDDEN
 66
     1
 10
0.0
 20
0.0
 30
0.0
 70
     1
1001
ACDBBLOCKREPETAG
1070
     1
1071
      125
1005
0
  0
VERTEX
  5
128B8F
  8
HIDDEN
 10
-0.0000000000002274
 20
-1263.9999999998399
 30
0.0
  0
VERTEX
  5
128B90
  8
HIDDEN
 10
359.99999999987779
 20
-1263.9999999998399
 30
0.0
  0
VERTEX
  5
128B91
  8
HIDDEN
 10
359.99999999987779
 20
-1727.999999999681
 30
0.0
  0
VERTEX
  5
128B92
  8
HIDDEN
 10
-0.0000000000002274
 20
-1727.999999999681
 30
0.0
  0
SEQEND
  5
128B93
  8
HIDDEN
  0
POLYLINE
  5
1285DF
  8
HIDDEN
 66
     1
 10
0.0
 20
0.0
 30
0.0
 70
     1
1001
ACDBBLOCKREPETAG
1070
     1
1071
      110
1005
0
  0
VERTEX
  5
128B94
  8
HIDDEN
 10
-0.0000000000002274
 20
0.0000000000009095
 30
0.0
  0
VERTEX
  5
128B95
  8
HIDDEN
 10
359.99999999987779
 20
0.0000000000009095
 30
0.0
  0
VERTEX
  5
128B96
  8
HIDDEN
 10
359.99999999987779
 20
-463.99999999984078
 30
0.0
  0
VERTEX
  5
128B97
  8
HIDDEN
 10
-0.0000000000002274
 20
-463.99999999984078
 30
0.0
  0
SEQEND
  5
128B98
  8
HIDDEN
  0
INSERT
  5
1285E0
  8
SLIM
  2
*U11
 10
0.0
 20
0.0
 30
0.0
  0
LINE
  5
1285E1
  8
OBJECT
 10
118.00000000004179
 20
-99.000000000171866
 30
0.0
 11
118.00000000004179
 21
-92.000000000171866
 31
0.0
1001
ACDBBLOCKREPETAG
1070
     1
1071
       39
1005
1285E1
  0
LINE
  5
1285E2
  8
OBJECT
 10
118.00000000004179
 20
-92.000000000171866
 30
0.0
 11
242.00000000004181
 21
-92.000000000171866
 31
0.0
1001
ACDBBLOCKREPETAG
1070
     1
1071
       40
1005
1285E2
  0
LINE
  5
1285E3
  8
OBJECT
 10
242.00000000004181
 20
-92.000000000171866
 30
0.0
 11
242.00000000004181
 21
-99.000000000171866
 31
0.0
1001
ACDBBLOCKREPETAG
1070
     1
1071
       41
1005
1285E3
  0
LINE
  5
1285E4
  8
OBJECT
 10
242.00000000004181
 20
-99.000000000171866
 30
0.0
 11
118.00000000004179
 21
-99.000000000171866
 31
0.0
1001
ACDBBLOCKREPETAG
1070
     1
1071
       42
1005
1285E4
  0
LINE
  5
1285E5
  8
OBJECT
 10
121.00000000004179
 20
-99.000000000171866
 30
0.0
 11
121.00000000004179
 21
-135.00000000017181
 31
0.0
1001
ACDBBLOCKREPETAG
1070
     1
1071
       43
1005
1285E5
  0
LINE
  5
1285E6
  8
OBJECT
 10
121.00000000004179
 20
-135.00000000017181
 30
0.0
 11
239.00000000004181
 21
-135.00000000017181
 31
0.0
1001
ACDBBLOCKREPETAG
1070
     1
1071
       44
1005
1285E6
  0
LINE
  5
1285E7
  8
OBJECT
 10
239.00000000004181
 20
-135.00000000017181
 30
0.0
 11
239.00000000004181
 21
-99.000000000171866
 31
0.0
1001
ACDBBLOCKREPETAG
1070
     1
1071
       45
1005
1285E7
  0
LINE
  5
1285E8
  8
OBJECT
 10
125.50000000004179
 20
-139.00000000017181
 30
0.0
 11
125.50000000004179
 21
-146.00000000017181
 31
0.0
1001
ACDBBLOCKREPETAG
1070
     1
1071
       46
1005
1285E8
  0
LINE
  5
1285E9
  8
OBJECT
 10
234.50000000004181
 20
-146.00000000017181
 30
0.0
 11
234.50000000004181
 21
-139.00000000017181
 31
0.0
1001
ACDBBLOCKREPETAG
1070
     1
1071
       47
1005
1285E9
  0
LINE
  5
1285EA
  8
OBJECT
 10
234.50000000004181
 20
-139.00000000017181
 30
0.0
 11
125.50000000004179
 21
-139.00000000017181
 31
0.0
1001
ACDBBLOCKREPETAG
1070
     1
1071
       48
1005
1285EA
  0
LINE
  5
1285EB
  8
OBJECT
 10
121.00000000004179
 20
-135.00000000017181
 30
0.0
 11
125.50000000004179
 21
-139.00000000017181
 31
0.0
1001
ACDBBLOCKREPETAG
1070
     1
1071
       49
1005
1285EB
  0
LINE
  5
1285EC
  8
OBJECT
 10
239.00000000004181
 20
-135.00000000017181
 30
0.0
 11
234.50000000004181
 21
-139.00000000017181
 31
0.0
1001
ACDBBLOCKREPETAG
1070
     1
1071
       50
1005
1285EC
  0
LINE
  5
1285ED
  8
OBJECT
 10
118.00000000004179
 20
-149.00000000017101
 30
0.0
 11
118.00000000004179
 21
-152.00000000017181
 31
0.0
1001
ACDBBLOCKREPETAG
1070
     1
1071
       51
1005
1285ED
  0
ARC
  5
1285EE
  8
OBJECT
 10
121.00000000004179
 20
-149.00000000017101
 30
0.0
 40
3.0
 50
90.0
 51
180.0
1001
ACDBBLOCKREPETAG
1070
     1
1071
       52
1005
1285EE
  0
LINE
  5
1285EF
  8
OBJECT
 10
242.00000000004181
 20
-152.00000000017181
 30
0.0
 11
242.00000000004181
 21
-149.0000000001728
 31
0.0
1001
ACDBBLOCKREPETAG
1070
     1
1071
       53
1005
1285EF
  0
ARC
  5
1285F0
  8
OBJECT
 10
239.00000000004181
 20
-149.0000000001728
 30
0.0
 40
3.0
 50
0.0
 51
90.0
1001
ACDBBLOCKREPETAG
1070
     1
1071
       54
1005
1285F0
  0
LINE
  5
1285F1
  8
OBJECT
 10
239.00000000004181
 20
-146.0000000001728
 30
0.0
 11
121.00000000004179
 21
-146.00000000017101
 31
0.0
1001
ACDBBLOCKREPETAG
1070
     1
1071
       55
1005
1285F1
  0
LINE
  5
1285F2
  8
HIDDEN
 10
135.50000000004181
 20
-144.00000000017189
 30
0.0
 11
224.50000000004181
 21
-144.00000000017189
 31
0.0
1001
ACDBBLOCKREPETAG
1070
     1
1071
      426
1005
1285F2
  0
ARC
  5
1285F3
  8
OBJECT
 10
180.00000000004181
 20
-232.00000000017189
 30
0.0
 40
50.0
 50
28.819943000140022
 51
318.52376955951968
1001
ACDBBLOCKREPETAG
1070
     1
1071
       49
1005
1285F3
  0
CIRCLE
  5
1285F4
  8
OBJECT
 10
180.00000000004181
 20
-232.00000000017189
 30
0.0
 40
70.0
1001
ACDBBLOCKREPETAG
1070
     1
1071
       50
1005
1285F4
  0
CIRCLE
  5
1285F5
  8
OBJECT
 10
180.00000000004181
 20
-232.00000000017189
 30
0.0
 40
77.0
1001
ACDBBLOCKREPETAG
1070
     1
1071
       51
1005
1285F5
  0
ARC
  5
1285F6
  8
OBJECT
 10
180.00000000004181
 20
-232.00000000017189
 30
0.0
 40
80.0
 50
140.80503257377961
 51
39.194967426220252
1001
ACDBBLOCKREPETAG
1070
     1
1071
       52
1005
1285F6
  0
LINE
  5
1285F7
  8
OBJECT
 10
118.00000000004179
 20
-186.3381997728473
 30
0.0
 11
118.00000000004179
 21
-152.00000000017181
 31
0.0
1001
ACDBBLOCKREPETAG
1070
     1
1071
       53
1005
1285F7
  0
LINE
  5
1285F8
  8
OBJECT
 10
242.00000000004181
 20
-186.3381997728473
 30
0.0
 11
242.00000000004181
 21
-152.00000000017181
 31
0.0
1001
ACDBBLOCKREPETAG
1070
     1
1071
       54
1005
1285F8
  0
LINE
  5
1285F9
  8
OBJECT
 10
223.8069471237595
 20
-207.89706690687029
 30
0.0
 11
212.55462200004149
 21
-211.34034300017541
 31
0.0
1001
ACDBBLOCKREPETAG
1070
     1
1071
      141
1005
1285F9
  0
LINE
  5
1285FA
  8
OBJECT
 10
198.22553374212291
 20
-245.207250098797
 30
0.0
 11
212.5546220000397
 21
-211.34034300017541
 31
0.0
1001
ACDBBLOCKREPETAG
1070
     1
1071
      143
1005
1285FA
  0
ARC
  5
1285FB
  8
OBJECT
 10
207.43512999909939
 20
-249.10383023827021
 30
0.0
 40
10.0
 50
157.066778292897
 51
244.01473437020459
1001
ACDBBLOCKREPETAG
1070
     1
1071
      144
1005
1285FB
  0
ARC
  5
1285FC
  8
OBJECT
 10
205.55386256733439
 20
-245.85116096204459
 30
0.0
 40
7.0
 50
157.066778292897
 51
244.0147337750746
1001
ACDBBLOCKREPETAG
1070
     1
1071
      145
1005
1285FC
  0
LINE
  5
1285FD
  8
OBJECT
 10
223.89888500822451
 20
-262.58002444487028
 30
0.0
 11
202.4868825336107
 21
-252.143508176935
 31
0.0
1001
ACDBBLOCKREPETAG
1070
     1
1071
      154
1005
1285FD
  0
LINE
  5
1285FE
  8
OBJECT
 10
220.71813901887009
 20
-266.70278309956279
 30
0.0
 11
203.0537300443502
 21
-258.09289773366339
 31
0.0
1001
ACDBBLOCKREPETAG
1070
     1
1071
      155
1005
1285FE
  0
ARC
  5
1285FF
  8
OBJECT
 10
187.12893698288639
 20
-255.42030469285689
 30
0.0
 40
60.031113246032611
 50
44.070201304186917
 51
52.339361060978852
1001
ACDBBLOCKREPETAG
1070
     1
1071
      156
1005
1285FF
  0
CIRCLE
  5
128600
  8
OBJECT
 10
180.00000000004181
 20
-232.00000000017189
 30
0.0
 40
53.5
1001
ACDBBLOCKREPETAG
1070
     1
1071
      157
1005
128600
  0
POINT
  5
128601
  8
DOTS
 10
180.00000000004181
 20
-232.00000000017189
 30
0.0
1001
ACDBBLOCKREPETAG
1070
     1
1071
      162
1005
128601
  0
TEXT
  5
128602
  8
SLIM
 10
97.714285714225042
 20
-1707.9999999996919
 30
0.0
 40
48.0
  1
A3000
 41
0.75
1001
ACDBBLOCKREPETAG
1070
     1
1071
      119
1005
0
  0
TEXT
  5
128603
  8
SLIM
 10
457.71428571410308
 20
-1243.9999999998499
 30
0.0
 40
48.0
  1
A2000
 41
0.75
1001
ACDBBLOCKREPETAG
1070
     1
1071
      119
1005
0
  0
TEXT
  5
128604
  8
SLIM
 10
101.1428571427964
 20
-1243.9999999998499
 30
0.0
 40
48.0
  1
A1000
 41
0.75
1001
ACDBBLOCKREPETAG
1070
     1
1071
      119
1005
0
  0
TEXT
  5
128605
  8
SLIM
 10
0.000003566523219
 20
-775.9999954146823
 30
0.0
 40
79.999999999972701
  1
下部枝管バリエーション
 41
0.75
1001
ACDBBLOCKREPETAG
1070
     1
1071
      119
1005
120BCB
  0
LINE
  5
128606
  8
DIM
 10
12404.999999999991
 20
-1015.999999999999
 30
0.0
 11
12333.11645607577
 21
-1015.999999999999
 31
0.0
  0
LINE
  5
128607
  8
DIM
 10
12423.042232104959
 20
-1305.999999999997
 30
0.0
 11
12333.11645607577
 21
-1305.999999999997
 31
0.0
  0
LINE
  5
128608
  8
DIM
 10
12343.11645607577
 20
-1035.9999999999991
 30
0.0
 11
12343.11645607577
 21
-1285.999999999997
 31
0.0
  0
INSERT
  5
128609
  8
DIM
  2
_OPEN30
 10
12343.11645607577
 20
-1015.999999999999
 30
0.0
 41
20.0
 42
20.0
 43
20.0
 50
90.0
  0
INSERT
  5
12860A
  8
DIM
  2
_OPEN30
 10
12343.11645607577
 20
-1305.999999999997
 30
0.0
 41
20.0
 42
20.0
 43
20.0
 50
270.0
  0
INSERT
  5
12860B
  8
SLIM
  2
*U12
 10
0.0
 20
0.0
 30
0.0
  0
LINE
  5
12860C
  8
DIM
 10
10404.999999999991
 20
-1015.999999999999
 30
0.0
 11
10333.11645607577
 21
-1015.999999999999
 31
0.0
  0
LINE
  5
12860D
  8
DIM
 10
10423.042232104959
 20
-1305.999999999997
 30
0.0
 11
10333.11645607577
 21
-1305.999999999997
 31
0.0
  0
LINE
  5
12860E
  8
DIM
 10
10343.11645607577
 20
-1035.9999999999991
 30
0.0
 11
10343.11645607577
 21
-1285.999999999997
 31
0.0
  0
INSERT
  5
12860F
  8
DIM
  2
_OPEN30
 10
10343.11645607577
 20
-1015.999999999999
 30
0.0
 41
20.0
 42
20.0
 43
20.0
 50
90.0
  0
INSERT
  5
128610
  8
DIM
  2
_OPEN30
 10
10343.11645607577
 20
-1305.999999999997
 30
0.0
 41
20.0
 42
20.0
 43
20.0
 50
270.0
  0
INSERT
  5
128611
  8
SLIM
  2
*U13
 10
0.0
 20
0.0
 30
0.0
  0
LINE
  5
128612
  8
DIM
 10
8404.9999999999927
 20
-1015.999999999999
 30
0.0
 11
8333.1164560757734
 21
-1015.999999999999
 31
0.0
  0
LINE
  5
128613
  8
DIM
 10
8423.0422321049627
 20
-1266.0
 30
0.0
 11
8333.1164560757734
 21
-1266.0
 31
0.0
  0
LINE
  5
128614
  8
DIM
 10
8343.1164560757734
 20
-1035.9999999999991
 30
0.0
 11
8343.1164560757734
 21
-1245.9999999999991
 31
0.0
  0
INSERT
  5
128615
  8
DIM
  2
_OPEN30
 10
8343.1164560757734
 20
-1015.999999999999
 30
0.0
 41
20.0
 42
20.0
 43
20.0
 50
90.0
  0
INSERT
  5
128616
  8
DIM
  2
_OPEN30
 10
8343.1164560757734
 20
-1266.0
 30
0.0
 41
20.0
 42
20.0
 43
20.0
 50
270.0
  0
INSERT
  5
128617
  8
SLIM
  2
*U14
 10
0.0
 20
0.0
 30
0.0
  0
LINE
  5
128618
  8
OBJECT
 10
2575.0
 20
-770.0
 30
0.0
 11
2575.0
 21
-907.50000000006526
 31
0.0
1001
ACDBBLOCKREPETAG
1070
     1
1071
        1
1005
128618
  0
LINE
  5
128619
  8
OBJECT
 10
2425.0
 20
-769.9999999999942
 30
0.0
 11
2425.0
 21
-1043.0
 31
0.0
1001
ACDBBLOCKREPETAG
1070
     1
1071
        3
1005
128619
  0
LINE
  5
12861A
  8
CENTER
 10
2500.0
 20
-770.0
 30
0.0
 11
2500.0
 21
-1055.0
 31
0.0
1001
ACDBBLOCKREPETAG
1070
     1
1071
        6
1005
12861A
  0
LINE
  5
12861B
  8
OBJECT
 10
2420.0
 20
-1055.0
 30
0.0
 11
2580.0
 21
-1055.0
 31
0.0
1001
ACDBBLOCKREPETAG
1070
     1
1071
        7
1005
12861B
  0
LINE
  5
12861C
  8
OBJECT
 10
2420.0
 20
-1043.0
 30
0.0
 11
2580.0
 21
-1043.0
 31
0.0
1001
ACDBBLOCKREPETAG
1070
     1
1071
        8
1005
12861C
  0
LINE
  5
12861D
  8
OBJECT
 10
2420.0
 20
-1043.0
 30
0.0
 11
2420.0
 21
-1055.0
 31
0.0
1001
ACDBBLOCKREPETAG
1070
     1
1071
        9
1005
12861D
  0
LINE
  5
12861E
  8
OBJECT
 10
2580.0
 20
-1043.0
 30
0.0
 11
2580.0
 21
-1055.0
 31
0.0
1001
ACDBBLOCKREPETAG
1070
     1
1071
       10
1005
12861E
  0
LINE
  5
12861F
  8
OBJECT
 10
2633.0
 20
-909.0
 30
0.0
 11
2640.0
 21
-909.0
 31
0.0
1001
ACDBBLOCKREPETAG
1070
     1
1071
       23
1005
12861F
  0
LINE
  5
128620
  8
OBJECT
 10
2640.0
 20
-909.0
 30
0.0
 11
2640.0
 21
-1016.0
 31
0.0
1001
ACDBBLOCKREPETAG
1070
     1
1071
       24
1005
128620
  0
LINE
  5
128621
  8
OBJECT
 10
2584.5
 20
-910.50000000006548
 30
0.0
 11
2584.5
 21
-1013.5
 31
0.0
1001
ACDBBLOCKREPETAG
1070
     1
1071
       25
1005
128621
  0
ARC
  5
128622
  8
OBJECT
 10
2581.5
 20
-910.50000000006548
 30
0.0
 40
3.0
 50
0.0
 51
90.0
1001
ACDBBLOCKREPETAG
1070
     1
1071
       26
1005
128622
  0
LINE
  5
128623
  8
OBJECT
 10
2633.0
 20
-1016.0
 30
0.0
 11
2633.0
 21
-909.0
 31
0.0
1001
ACDBBLOCKREPETAG
1070
     1
1071
       27
1005
128623
  0
LINE
  5
128624
  8
CENTER
 10
2655.0
 20
-964.0
 30
0.0
 11
2541.344919913005
 21
-964.00000000006526
 31
0.0
1001
ACDBBLOCKREPETAG
1070
     1
1071
       28
1005
128624
  0
LINE
  5
128625
  8
OBJECT
 10
2633.0
 20
-912.0
 30
0.0
 11
2597.0
 21
-912.0
 31
0.0
1001
ACDBBLOCKREPETAG
1070
     1
1071
       29
1005
128625
  0
LINE
  5
128626
  8
OBJECT
 10
2597.0
 20
-912.0
 30
0.0
 11
2597.0
 21
-1016.0
 31
0.0
1001
ACDBBLOCKREPETAG
1070
     1
1071
       30
1005
128626
  0
LINE
  5
128627
  8
OBJECT
 10
2597.0
 20
-1016.0
 30
0.0
 11
2640.0
 21
-1016.0
 31
0.0
1001
ACDBBLOCKREPETAG
1070
     1
1071
       31
1005
128627
  0
LINE
  5
128628
  8
OBJECT
 10
2593.0
 20
-916.5
 30
0.0
 11
2584.5
 21
-916.5
 31
0.0
1001
ACDBBLOCKREPETAG
1070
     1
1071
       32
1005
128628
  0
LINE
  5
128629
  8
OBJECT
 10
2584.5
 20
-1011.5
 30
0.0
 11
2593.0
 21
-1011.5
 31
0.0
1001
ACDBBLOCKREPETAG
1070
     1
1071
       33
1005
128629
  0
LINE
  5
12862A
  8
OBJECT
 10
2593.0
 20
-1011.5
 30
0.0
 11
2593.0
 21
-916.5
 31
0.0
1001
ACDBBLOCKREPETAG
1070
     1
1071
       34
1005
12862A
  0
LINE
  5
12862B
  8
OBJECT
 10
2597.0
 20
-912.0
 30
0.0
 11
2593.0
 21
-916.5
 31
0.0
1001
ACDBBLOCKREPETAG
1070
     1
1071
       35
1005
12862B
  0
LINE
  5
12862C
  8
OBJECT
 10
2597.0
 20
-1016.0
 30
0.0
 11
2593.0
 21
-1011.5
 31
0.0
1001
ACDBBLOCKREPETAG
1070
     1
1071
       36
1005
12862C
  0
LINE
  5
12862D
  8
HIDDEN
 10
2588.0
 20
-926.0
 30
0.0
 11
2588.0
 21
-1002.0
 31
0.0
1001
ACDBBLOCKREPETAG
1070
     1
1071
       37
1005
12862D
  0
ARC
  5
12862E
  8
OBJECT
 10
2664.8782728787751
 20
-972.40950726122867
 30
0.0
 40
110.86635228309
 50
144.1634274193047
 51
163.040353804338
1001
ACDBBLOCKREPETAG
1070
     1
1071
       38
1005
12862E
  0
ARC
  5
12862F
  8
OBJECT
 10
2617.1359887769072
 20
-957.28774971844894
 30
0.0
 40
60.791749880358971
 50
163.5472046522205
 51
179.72879698282679
1001
ACDBBLOCKREPETAG
1070
     1
1071
       39
1005
12862F
  0
ARC
  5
128630
  8
OBJECT
 10
2617.1359956562478
 20
-963.71224975990117
 30
0.0
 40
60.79175676209487
 50
180.2712034781452
 51
196.45277946052761
1001
ACDBBLOCKREPETAG
1070
     1
1071
       40
1005
128630
  0
ARC
  5
128631
  8
OBJECT
 10
2664.8782728787751
 20
-948.59049273883636
 30
0.0
 40
110.8663522830916
 50
196.95964619566189
 51
215.8365725806953
1001
ACDBBLOCKREPETAG
1070
     1
1071
       41
1005
128631
  0
LINE
  5
128632
  8
OBJECT
 10
2556.344919913005
 20
-957.00000000003638
 30
0.0
 11
2556.344919913005
 21
-964.00000000003286
 31
0.0
1001
ACDBBLOCKREPETAG
1070
     1
1071
       42
1005
128632
  0
LINE
  5
128633
  8
OBJECT
 10
2575.0
 20
-907.50000000006526
 30
0.0
 11
2581.5
 21
-907.50000000006526
 31
0.0
1001
ACDBBLOCKREPETAG
1070
     1
1071
       43
1005
128633
  0
LINE
  5
128634
  8
OBJECT
 10
2575.0
 20
-1013.5
 30
0.0
 11
2584.5
 21
-1013.5
 31
0.0
1001
ACDBBLOCKREPETAG
1070
     1
1071
       44
1005
128634
  0
LINE
  5
128635
  8
OBJECT
 10
2575.0
 20
-1013.5
 30
0.0
 11
2575.0
 21
-1043.0
 31
0.0
1001
ACDBBLOCKREPETAG
1070
     1
1071
        1
1005
128618
  0
POINT
  5
128636
  8
DOTS
 10
2500.0
 20
-1016.0
 30
0.0
  0
LINE
  5
128637
  8
DIM
 10
2665.0
 20
-696.0
 30
0.0
 11
2719.4245816727562
 21
-696.0
 31
0.0
  0
LINE
  5
128638
  8
DIM
 10
2650.0
 20
-1016.0
 30
0.0
 11
2719.4245816727562
 21
-1016.0
 31
0.0
  0
LINE
  5
128639
  8
DIM
 10
2709.4245816727562
 20
-716.0
 30
0.0
 11
2709.4245816727562
 21
-996.0
 31
0.0
  0
INSERT
  5
12863A
  8
DIM
  2
_OPEN30
 10
2709.4245816727562
 20
-696.0
 30
0.0
 41
20.0
 42
20.0
 43
20.0
 50
90.0
  0
INSERT
  5
12863B
  8
DIM
  2
_OPEN30
 10
2709.4245816727562
 20
-1016.0
 30
0.0
 41
20.0
 42
20.0
 43
20.0
 50
270.0
  0
INSERT
  5
12863C
  8
SLIM
  2
*U15
 10
0.0
 20
0.0
 30
0.0
  0
LINE
  5
12863D
  8
CENTER
 10
4977.0
 20
-3805.9999999999968
 30
0.0
 11
4823.0
 21
-3805.9999999999968
 31
0.0
1001
ACDBBLOCKREPETAG
1070
     1
1071
       17
1005
12863D
  0
CIRCLE
  5
12863E
  8
OBJECT
 10
4900.0
 20
-3805.9999999999968
 30
0.0
 40
41.5
1001
ACDBBLOCKREPETAG
1070
     1
1071
       18
1005
12863E
  0
CIRCLE
  5
12863F
  8
OBJECT
 10
4900.0
 20
-3805.9999999999968
 30
0.0
 40
54.0
1001
ACDBBLOCKREPETAG
1070
     1
1071
       19
1005
12863F
  0
ARC
  5
128640
  8
OBJECT
 10
4900.0
 20
-3805.9999999999968
 30
0.0
 40
62.0
 50
287.89655112921122
 51
252.1034488707887
1001
ACDBBLOCKREPETAG
1070
     1
1071
       20
1005
128640
  0
LINE
  5
128641
  8
OBJECT
 10
4880.947441116743
 20
-3864.9999999999968
 30
0.0
 11
4919.052558883257
 21
-3864.9999999999968
 31
0.0
1001
ACDBBLOCKREPETAG
1070
     1
1071
       21
1005
128641
  0
POINT
  5
128642
  8
DOTS
 10
4900.0
 20
-3864.9999999999968
 30
0.0
1001
ACDBBLOCKREPETAG
1070
     1
1071
       23
1005
128642
  0
LINE
  5
128643
  8
OBJECT
 10
4633.0
 20
-3743.9999999999959
 30
0.0
 11
4640.0
 21
-3743.9999999999959
 31
0.0
1001
ACDBBLOCKREPETAG
1070
     1
1071
       46
1005
128643
  0
LINE
  5
128644
  8
OBJECT
 10
4640.0
 20
-3743.9999999999959
 30
0.0
 11
4640.0
 21
-3864.9999999999968
 31
0.0
1001
ACDBBLOCKREPETAG
1070
     1
1071
       47
1005
128644
  0
LINE
  5
128645
  8
OBJECT
 10
4633.0
 20
-3864.9999999999968
 30
0.0
 11
4633.0
 21
-3743.9999999999959
 31
0.0
1001
ACDBBLOCKREPETAG
1070
     1
1071
       48
1005
128645
  0
LINE
  5
128646
  8
CENTER
 10
4655.0
 20
-3805.9999999999968
 30
0.0
 11
4541.3449199130037
 21
-3806.0000000000618
 31
0.0
1001
ACDBBLOCKREPETAG
1070
     1
1071
       49
1005
128646
  0
LINE
  5
128647
  8
OBJECT
 10
4633.0
 20
-3746.9999999999959
 30
0.0
 11
4597.0
 21
-3746.9999999999959
 31
0.0
1001
ACDBBLOCKREPETAG
1070
     1
1071
       50
1005
128647
  0
LINE
  5
128648
  8
OBJECT
 10
4597.0
 20
-3746.9999999999959
 30
0.0
 11
4597.0
 21
-3864.9999999999968
 31
0.0
1001
ACDBBLOCKREPETAG
1070
     1
1071
       51
1005
128648
  0
LINE
  5
128649
  8
OBJECT
 10
4597.0
 20
-3864.9999999999968
 30
0.0
 11
4640.0
 21
-3864.9999999999968
 31
0.0
1001
ACDBBLOCKREPETAG
1070
     1
1071
       52
1005
128649
  0
LINE
  5
12864A
  8
OBJECT
 10
4593.0
 20
-3751.4999999999959
 30
0.0
 11
4582.5
 21
-3751.4999999999959
 31
0.0
1001
ACDBBLOCKREPETAG
1070
     1
1071
       53
1005
12864A
  0
LINE
  5
12864B
  8
OBJECT
 10
4582.5
 20
-3860.4999999999959
 30
0.0
 11
4593.0
 21
-3860.4999999999959
 31
0.0
1001
ACDBBLOCKREPETAG
1070
     1
1071
       54
1005
12864B
  0
LINE
  5
12864C
  8
OBJECT
 10
4593.0
 20
-3860.4999999999959
 30
0.0
 11
4593.0
 21
-3751.4999999999959
 31
0.0
1001
ACDBBLOCKREPETAG
1070
     1
1071
       55
1005
12864C
  0
LINE
  5
12864D
  8
OBJECT
 10
4597.0
 20
-3746.9999999999959
 30
0.0
 11
4593.0
 21
-3751.4999999999959
 31
0.0
1001
ACDBBLOCKREPETAG
1070
     1
1071
       56
1005
12864D
  0
LINE
  5
12864E
  8
OBJECT
 10
4597.0
 20
-3864.9999999999968
 30
0.0
 11
4593.0
 21
-3860.4999999999959
 31
0.0
1001
ACDBBLOCKREPETAG
1070
     1
1071
       57
1005
12864E
  0
LINE
  5
12864F
  8
HIDDEN
 10
4588.0
 20
-3761.4999999999968
 30
0.0
 11
4588.0
 21
-3850.4999999999968
 31
0.0
1001
ACDBBLOCKREPETAG
1070
     1
1071
       58
1005
12864F
  0
ARC
  5
128650
  8
OBJECT
 10
4664.8782728787719
 20
-3821.4095072612249
 30
0.0
 40
110.86635228309
 50
144.16342741928889
 51
163.04035380433939
1001
ACDBBLOCKREPETAG
1070
     1
1071
       59
1005
128650
  0
ARC
  5
128651
  8
OBJECT
 10
4617.1359887769049
 20
-3806.287749718445
 30
0.0
 40
60.791749880358971
 50
163.54720465221931
 51
179.72879698282651
1001
ACDBBLOCKREPETAG
1070
     1
1071
       60
1005
128651
  0
ARC
  5
128652
  8
OBJECT
 10
4617.1359956562483
 20
-3812.7122497598971
 30
0.0
 40
60.79175676209487
 50
180.2712034781452
 51
196.4527794605265
1001
ACDBBLOCKREPETAG
1070
     1
1071
       61
1005
128652
  0
ARC
  5
128653
  8
OBJECT
 10
4664.8782728787719
 20
-3797.5904927388328
 30
0.0
 40
110.8663522830916
 50
196.9596461956605
 51
215.83657258071111
1001
ACDBBLOCKREPETAG
1070
     1
1071
       62
1005
128653
  0
LINE
  5
128654
  8
OBJECT
 10
4556.3449199130037
 20
-3806.0000000000332
 30
0.0
 11
4556.3449199130037
 21
-3813.0000000000291
 31
0.0
1001
ACDBBLOCKREPETAG
1070
     1
1071
       63
1005
128654
  0
LINE
  5
128655
  8
OBJECT
 10
4574.9999999998336
 20
-3756.500000000291
 30
0.0
 11
4577.4999999998363
 21
-3756.500000000291
 31
0.0
1001
ACDBBLOCKREPETAG
1070
     1
1071
       65
1005
128655
  0
LINE
  5
128656
  8
OBJECT
 10
4574.9999999998327
 20
-3862.4999999997672
 30
0.0
 11
4579.4999999998308
 21
-3862.4999999997672
 31
0.0
1001
ACDBBLOCKREPETAG
1070
     1
1071
       66
1005
128656
  0
LINE
  5
128657
  8
OBJECT
 10
4579.4999999998308
 20
-3862.4999999997672
 30
0.0
 11
4577.4999999998363
 21
-3756.500000000291
 31
0.0
1001
ACDBBLOCKREPETAG
1070
     1
1071
       67
1005
128657
  0
LINE
  5
128658
  8
OBJECT
 10
4579.4999999998308
 20
-3862.4999999997672
 30
0.0
 11
4582.5
 21
-3860.4999999999959
 31
0.0
1001
ACDBBLOCKREPETAG
1070
     1
1071
       68
1005
128658
  0
LINE
  5
128659
  8
OBJECT
 10
4582.5
 20
-3860.4999999999959
 30
0.0
 11
4582.5
 21
-3751.4999999999959
 31
0.0
1001
ACDBBLOCKREPETAG
1070
     1
1071
       69
1005
128659
  0
LINE
  5
12865A
  8
OBJECT
 10
4582.5
 20
-3751.4999999999959
 30
0.0
 11
4577.4999999998363
 21
-3756.500000000291
 31
0.0
1001
ACDBBLOCKREPETAG
1070
     1
1071
       70
1005
12865A
  0
LINE
  5
12865B
  8
OBJECT
 10
4633.0000000000009
 20
-3397.9999999999959
 30
0.0
 11
4640.0000000000018
 21
-3397.9999999999959
 31
0.0
1001
ACDBBLOCKREPETAG
1070
     1
1071
       38
1005
12865B
  0
LINE
  5
12865C
  8
OBJECT
 10
4640.0000000000018
 20
-3397.9999999999959
 30
0.0
 11
4640.0
 21
-3521.9999999999968
 31
0.0
1001
ACDBBLOCKREPETAG
1070
     1
1071
       39
1005
12865C
  0
LINE
  5
12865D
  8
OBJECT
 10
4640.0
 20
-3521.9999999999968
 30
0.0
 11
4633.0
 21
-3521.9999999999968
 31
0.0
1001
ACDBBLOCKREPETAG
1070
     1
1071
       40
1005
12865D
  0
LINE
  5
12865E
  8
OBJECT
 10
4633.0
 20
-3521.9999999999968
 30
0.0
 11
4633.0000000000009
 21
-3397.9999999999959
 31
0.0
1001
ACDBBLOCKREPETAG
1070
     1
1071
       41
1005
12865E
  0
LINE
  5
12865F
  8
CENTER
 10
4655.0
 20
-3459.9999999999968
 30
0.0
 11
4580.0
 21
-3459.9999999999968
 31
0.0
1001
ACDBBLOCKREPETAG
1070
     1
1071
       42
1005
12865F
  0
LINE
  5
128660
  8
OBJECT
 10
4633.0000000000009
 20
-3400.9999999999959
 30
0.0
 11
4597.0000000000018
 21
-3400.9999999999959
 31
0.0
1001
ACDBBLOCKREPETAG
1070
     1
1071
       43
1005
128660
  0
LINE
  5
128661
  8
OBJECT
 10
4597.0000000000018
 20
-3400.9999999999959
 30
0.0
 11
4597.0
 21
-3518.9999999999968
 31
0.0
1001
ACDBBLOCKREPETAG
1070
     1
1071
       44
1005
128661
  0
LINE
  5
128662
  8
OBJECT
 10
4597.0
 20
-3518.9999999999968
 30
0.0
 11
4633.0
 21
-3518.9999999999968
 31
0.0
1001
ACDBBLOCKREPETAG
1070
     1
1071
       45
1005
128662
  0
LINE
  5
128663
  8
OBJECT
 10
4593.0000000000018
 20
-3405.4999999999959
 30
0.0
 11
4582.5000000000018
 21
-3405.4999999999959
 31
0.0
1001
ACDBBLOCKREPETAG
1070
     1
1071
       46
1005
128663
  0
LINE
  5
128664
  8
OBJECT
 10
4582.5
 20
-3514.4999999999968
 30
0.0
 11
4593.0
 21
-3514.4999999999968
 31
0.0
1001
ACDBBLOCKREPETAG
1070
     1
1071
       47
1005
128664
  0
LINE
  5
128665
  8
OBJECT
 10
4593.0
 20
-3514.4999999999968
 30
0.0
 11
4593.0000000000018
 21
-3405.4999999999959
 31
0.0
1001
ACDBBLOCKREPETAG
1070
     1
1071
       48
1005
128665
  0
LINE
  5
128666
  8
OBJECT
 10
4597.0000000000018
 20
-3400.9999999999959
 30
0.0
 11
4593.0000000000018
 21
-3405.4999999999959
 31
0.0
1001
ACDBBLOCKREPETAG
1070
     1
1071
       49
1005
128666
  0
LINE
  5
128667
  8
OBJECT
 10
4597.0
 20
-3518.9999999999968
 30
0.0
 11
4593.0
 21
-3514.4999999999968
 31
0.0
1001
ACDBBLOCKREPETAG
1070
     1
1071
       50
1005
128667
  0
LINE
  5
128668
  8
HIDDEN
 10
4588.0
 20
-3415.4999999999968
 30
0.0
 11
4588.0
 21
-3504.4999999999968
 31
0.0
1001
ACDBBLOCKREPETAG
1070
     1
1071
       51
1005
128668
  0
LINE
  5
128669
  8
OBJECT
 10
4577.5000000000018
 20
-3410.4999999999959
 30
0.0
 11
4556.3449199129791
 21
-3410.4999999999959
 31
0.0
1001
ACDBBLOCKREPETAG
1070
     1
1071
       52
1005
128669
  0
LINE
  5
12866A
  8
OBJECT
 10
4577.4999999999991
 20
-3509.4999999999959
 30
0.0
 11
4556.3449199129791
 21
-3509.4999999999959
 31
0.0
1001
ACDBBLOCKREPETAG
1070
     1
1071
       53
1005
12866A
  0
LINE
  5
12866B
  8
OBJECT
 10
4582.5000000000018
 20
-3405.4999999999959
 30
0.0
 11
4582.5
 21
-3514.4999999999968
 31
0.0
1001
ACDBBLOCKREPETAG
1070
     1
1071
       54
1005
12866B
  0
LINE
  5
12866C
  8
OBJECT
 10
4577.5000000000018
 20
-3410.4999999999959
 30
0.0
 11
4577.4999999999991
 21
-3509.4999999999959
 31
0.0
1001
ACDBBLOCKREPETAG
1070
     1
1071
       55
1005
12866C
  0
LINE
  5
12866D
  8
OBJECT
 10
4582.5000000000018
 20
-3405.4999999999959
 30
0.0
 11
4577.5000000000018
 21
-3410.4999999999959
 31
0.0
1001
ACDBBLOCKREPETAG
1070
     1
1071
       56
1005
12866D
  0
LINE
  5
12866E
  8
OBJECT
 10
4577.4999999999991
 20
-3509.4999999999959
 30
0.0
 11
4582.5
 21
-3514.4999999999932
 31
0.0
1001
ACDBBLOCKREPETAG
1070
     1
1071
       57
1005
12866E
  0
CIRCLE
  5
12866F
  8
OBJECT
 10
3900.0
 20
-3812.9999999999968
 30
0.0
 40
35.5
1001
ACDBBLOCKREPETAG
1070
     1
1071
       11
1005
12866F
  0
LINE
  5
128670
  8
CENTER
 10
3830.0
 20
-3812.9999999999968
 30
0.0
 11
3970.0
 21
-3812.9999999999968
 31
0.0
1001
ACDBBLOCKREPETAG
1070
     1
1071
       12
1005
128670
  0
CIRCLE
  5
128671
  8
OBJECT
 10
3900.0
 20
-3812.9999999999968
 30
0.0
 40
47.0
1001
ACDBBLOCKREPETAG
1070
     1
1071
       14
1005
128671
  0
ARC
  5
128672
  8
OBJECT
 10
3900.0
 20
-3812.9999999999968
 30
0.0
 40
55.0
 50
289.01126526008892
 51
250.98873473991111
1001
ACDBBLOCKREPETAG
1070
     1
1071
       15
1005
128672
  0
LINE
  5
128673
  8
OBJECT
 10
3882.0835271328319
 20
-3864.9999999999968
 30
0.0
 11
3917.9164728671672
 21
-3864.9999999999968
 31
0.0
1001
ACDBBLOCKREPETAG
1070
     1
1071
       16
1005
128673
  0
POINT
  5
128674
  8
DOTS
 10
3900.0
 20
-3864.9999999999968
 30
0.0
1001
ACDBBLOCKREPETAG
1070
     1
1071
       24
1005
128674
  0
LINE
  5
128675
  8
OBJECT
 10
3633.0
 20
-3757.9999999999959
 30
0.0
 11
3640.0
 21
-3757.9999999999959
 31
0.0
1001
ACDBBLOCKREPETAG
1070
     1
1071
       23
1005
128675
  0
LINE
  5
128676
  8
OBJECT
 10
3640.0
 20
-3757.9999999999959
 30
0.0
 11
3640.0
 21
-3864.9999999999968
 31
0.0
1001
ACDBBLOCKREPETAG
1070
     1
1071
       24
1005
128676
  0
LINE
  5
128677
  8
OBJECT
 10
3584.5
 20
-3759.5000000000618
 30
0.0
 11
3584.5
 21
-3862.4999999999968
 31
0.0
1001
ACDBBLOCKREPETAG
1070
     1
1071
       25
1005
128677
  0
ARC
  5
128678
  8
OBJECT
 10
3581.5
 20
-3759.5000000000618
 30
0.0
 40
3.0
 50
0.0
 51
90.0
1001
ACDBBLOCKREPETAG
1070
     1
1071
       26
1005
128678
  0
LINE
  5
128679
  8
OBJECT
 10
3633.0
 20
-3864.9999999999968
 30
0.0
 11
3633.0
 21
-3757.9999999999959
 31
0.0
1001
ACDBBLOCKREPETAG
1070
     1
1071
       27
1005
128679
  0
LINE
  5
12867A
  8
CENTER
 10
3655.0
 20
-3812.9999999999968
 30
0.0
 11
3541.3449199130041
 21
-3813.0000000000618
 31
0.0
1001
ACDBBLOCKREPETAG
1070
     1
1071
       28
1005
12867A
  0
LINE
  5
12867B
  8
OBJECT
 10
3633.0
 20
-3760.9999999999968
 30
0.0
 11
3597.0
 21
-3760.9999999999968
 31
0.0
1001
ACDBBLOCKREPETAG
1070
     1
1071
       29
1005
12867B
  0
LINE
  5
12867C
  8
OBJECT
 10
3597.0
 20
-3760.9999999999968
 30
0.0
 11
3597.0
 21
-3864.9999999999968
 31
0.0
1001
ACDBBLOCKREPETAG
1070
     1
1071
       30
1005
12867C
  0
LINE
  5
12867D
  8
OBJECT
 10
3597.0
 20
-3864.9999999999968
 30
0.0
 11
3640.0
 21
-3864.9999999999968
 31
0.0
1001
ACDBBLOCKREPETAG
1070
     1
1071
       31
1005
12867D
  0
LINE
  5
12867E
  8
OBJECT
 10
3593.0
 20
-3765.4999999999968
 30
0.0
 11
3584.5
 21
-3765.4999999999968
 31
0.0
1001
ACDBBLOCKREPETAG
1070
     1
1071
       32
1005
12867E
  0
LINE
  5
12867F
  8
OBJECT
 10
3584.5
 20
-3860.4999999999959
 30
0.0
 11
3593.0
 21
-3860.4999999999959
 31
0.0
1001
ACDBBLOCKREPETAG
1070
     1
1071
       33
1005
12867F
  0
LINE
  5
128680
  8
OBJECT
 10
3593.0
 20
-3860.4999999999959
 30
0.0
 11
3593.0
 21
-3765.4999999999968
 31
0.0
1001
ACDBBLOCKREPETAG
1070
     1
1071
       34
1005
128680
  0
LINE
  5
128681
  8
OBJECT
 10
3597.0
 20
-3760.9999999999968
 30
0.0
 11
3593.0
 21
-3765.4999999999968
 31
0.0
1001
ACDBBLOCKREPETAG
1070
     1
1071
       35
1005
128681
  0
LINE
  5
128682
  8
OBJECT
 10
3597.0
 20
-3864.9999999999968
 30
0.0
 11
3593.0
 21
-3860.4999999999959
 31
0.0
1001
ACDBBLOCKREPETAG
1070
     1
1071
       36
1005
128682
  0
LINE
  5
128683
  8
HIDDEN
 10
3588.0
 20
-3774.9999999999968
 30
0.0
 11
3588.0
 21
-3850.9999999999959
 31
0.0
1001
ACDBBLOCKREPETAG
1070
     1
1071
       37
1005
128683
  0
ARC
  5
128684
  8
OBJECT
 10
3664.8782728787742
 20
-3821.4095072612249
 30
0.0
 40
110.86635228309
 50
144.16342741928889
 51
163.04035380433169
1001
ACDBBLOCKREPETAG
1070
     1
1071
       38
1005
128684
  0
ARC
  5
128685
  8
OBJECT
 10
3617.1359887769072
 20
-3806.287749718445
 30
0.0
 40
60.791749880358971
 50
163.5472046522267
 51
179.72879698282679
1001
ACDBBLOCKREPETAG
1070
     1
1071
       39
1005
128685
  0
ARC
  5
128686
  8
OBJECT
 10
3617.1359956562478
 20
-3812.7122497598971
 30
0.0
 40
60.79175676209487
 50
180.2712034781452
 51
196.4527794605338
1001
ACDBBLOCKREPETAG
1070
     1
1071
       40
1005
128686
  0
ARC
  5
128687
  8
OBJECT
 10
3664.8782728787742
 20
-3797.5904927388328
 30
0.0
 40
110.8663522830916
 50
196.95964619566811
 51
215.83657258071111
1001
ACDBBLOCKREPETAG
1070
     1
1071
       41
1005
128687
  0
LINE
  5
128688
  8
OBJECT
 10
3556.3449199130041
 20
-3806.0000000000332
 30
0.0
 11
3556.3449199130041
 21
-3813.0000000000291
 31
0.0
1001
ACDBBLOCKREPETAG
1070
     1
1071
       42
1005
128688
  0
LINE
  5
128689
  8
OBJECT
 10
3574.9999999999991
 20
-3756.5000000000618
 30
0.0
 11
3581.5
 21
-3756.5000000000618
 31
0.0
1001
ACDBBLOCKREPETAG
1070
     1
1071
       43
1005
128689
  0
LINE
  5
12868A
  8
OBJECT
 10
3574.9999999999991
 20
-3862.4999999999968
 30
0.0
 11
3584.5
 21
-3862.4999999999968
 31
0.0
1001
ACDBBLOCKREPETAG
1070
     1
1071
       44
1005
12868A
  0
LINE
  5
12868B
  8
OBJECT
 10
3633.0
 20
-3404.9999999999959
 30
0.0
 11
3640.0
 21
-3404.9999999999959
 31
0.0
1001
ACDBBLOCKREPETAG
1070
     1
1071
       20
1005
12868B
  0
LINE
  5
12868C
  8
OBJECT
 10
3640.0
 20
-3404.9999999999959
 30
0.0
 11
3640.0
 21
-3514.9999999999968
 31
0.0
1001
ACDBBLOCKREPETAG
1070
     1
1071
       21
1005
12868C
  0
LINE
  5
12868D
  8
OBJECT
 10
3640.0
 20
-3514.9999999999968
 30
0.0
 11
3633.0
 21
-3514.9999999999968
 31
0.0
1001
ACDBBLOCKREPETAG
1070
     1
1071
       22
1005
12868D
  0
LINE
  5
12868E
  8
OBJECT
 10
3633.0
 20
-3514.9999999999968
 30
0.0
 11
3633.0
 21
-3404.9999999999959
 31
0.0
1001
ACDBBLOCKREPETAG
1070
     1
1071
       23
1005
12868E
  0
LINE
  5
12868F
  8
CENTER
 10
3655.0
 20
-3459.9999999999968
 30
0.0
 11
3580.0
 21
-3459.9999999999968
 31
0.0
1001
ACDBBLOCKREPETAG
1070
     1
1071
       24
1005
12868F
  0
LINE
  5
128690
  8
OBJECT
 10
3633.0
 20
-3407.9999999999959
 30
0.0
 11
3597.0
 21
-3407.9999999999959
 31
0.0
1001
ACDBBLOCKREPETAG
1070
     1
1071
       25
1005
128690
  0
LINE
  5
128691
  8
OBJECT
 10
3597.0
 20
-3407.9999999999959
 30
0.0
 11
3597.0
 21
-3511.9999999999959
 31
0.0
1001
ACDBBLOCKREPETAG
1070
     1
1071
       26
1005
128691
  0
LINE
  5
128692
  8
OBJECT
 10
3597.0
 20
-3511.9999999999959
 30
0.0
 11
3633.0
 21
-3511.9999999999959
 31
0.0
1001
ACDBBLOCKREPETAG
1070
     1
1071
       27
1005
128692
  0
LINE
  5
128693
  8
OBJECT
 10
3593.0
 20
-3412.4999999999959
 30
0.0
 11
3584.5
 21
-3412.4999999999959
 31
0.0
1001
ACDBBLOCKREPETAG
1070
     1
1071
       28
1005
128693
  0
LINE
  5
128694
  8
OBJECT
 10
3584.5
 20
-3507.4999999999968
 30
0.0
 11
3593.0
 21
-3507.4999999999968
 31
0.0
1001
ACDBBLOCKREPETAG
1070
     1
1071
       29
1005
128694
  0
LINE
  5
128695
  8
OBJECT
 10
3593.0
 20
-3507.4999999999968
 30
0.0
 11
3593.0
 21
-3412.4999999999959
 31
0.0
1001
ACDBBLOCKREPETAG
1070
     1
1071
       30
1005
128695
  0
LINE
  5
128696
  8
OBJECT
 10
3597.0
 20
-3407.9999999999959
 30
0.0
 11
3593.0
 21
-3412.4999999999959
 31
0.0
1001
ACDBBLOCKREPETAG
1070
     1
1071
       31
1005
128696
  0
LINE
  5
128697
  8
OBJECT
 10
3597.0
 20
-3511.9999999999959
 30
0.0
 11
3593.0
 21
-3507.4999999999968
 31
0.0
1001
ACDBBLOCKREPETAG
1070
     1
1071
       32
1005
128697
  0
LINE
  5
128698
  8
OBJECT
 10
3584.4999999999982
 20
-3509.4999999999959
 30
0.0
 11
3584.5
 21
-3410.4999999999959
 31
0.0
1001
ACDBBLOCKREPETAG
1070
     1
1071
       33
1005
128698
  0
LINE
  5
128699
  8
HIDDEN
 10
3588.0
 20
-3421.9999999999968
 30
0.0
 11
3588.0
 21
-3497.9999999999959
 31
0.0
1001
ACDBBLOCKREPETAG
1070
     1
1071
       34
1005
128699
  0
LINE
  5
12869A
  8
OBJECT
 10
3584.5
 20
-3410.4999999999959
 30
0.0
 11
3556.3449199129791
 21
-3410.4999999999959
 31
0.0
1001
ACDBBLOCKREPETAG
1070
     1
1071
       35
1005
12869A
  0
LINE
  5
12869B
  8
OBJECT
 10
3584.4999999999982
 20
-3509.4999999999959
 30
0.0
 11
3556.3449199129791
 21
-3509.4999999999959
 31
0.0
1001
ACDBBLOCKREPETAG
1070
     1
1071
       36
1005
12869B
  0
LINE
  5
12869C
  8
CENTER
 10
2838.0
 20
-3820.9999999999968
 30
0.0
 11
2962.0
 21
-3820.9999999999968
 31
0.0
1001
ACDBBLOCKREPETAG
1070
     1
1071
        0
1005
12869C
  0
CIRCLE
  5
12869D
  8
OBJECT
 10
2900.0
 20
-3820.9999999999968
 30
0.0
 40
28.0
1001
ACDBBLOCKREPETAG
1070
     1
1071
        2
1005
12869D
  0
CIRCLE
  5
12869E
  8
OBJECT
 10
2900.0
 20
-3820.9999999999968
 30
0.0
 40
39.0
1001
ACDBBLOCKREPETAG
1070
     1
1071
        3
1005
12869E
  0
ARC
  5
12869F
  8
OBJECT
 10
2900.0
 20
-3820.9999999999968
 30
0.0
 40
47.0
 50
290.58196921144412
 51
249.41803078855591
1001
ACDBBLOCKREPETAG
1070
     1
1071
        4
1005
12869F
  0
LINE
  5
1286A0
  8
OBJECT
 10
2883.4772883581418
 20
-3864.9999999999968
 30
0.0
 11
2916.5227116418569
 21
-3864.9999999999968
 31
0.0
1001
ACDBBLOCKREPETAG
1070
     1
1071
        5
1005
1286A0
  0
ARC
  5
1286A1
  8
OBJECT
 10
2900.0
 20
-3805.9999999999932
 30
0.0
 40
49.5
 50
0.0
 51
180.0
1001
ACDBBLOCKREPETAG
1070
     1
1071
        6
1005
1286A1
  0
LINE
  5
1286A2
  8
OBJECT
 10
2850.5000000000032
 20
-3805.9999999999932
 30
0.0
 11
2850.5000000000032
 21
-3812.9999999999968
 31
0.0
1001
ACDBBLOCKREPETAG
1070
     1
1071
        7
1005
1286A2
  0
LINE
  5
1286A3
  8
OBJECT
 10
2949.5000000000068
 20
-3805.9999999999932
 30
0.0
 11
2949.5000000000068
 21
-3812.9999999999968
 31
0.0
1001
ACDBBLOCKREPETAG
1070
     1
1071
        8
1005
1286A3
  0
ARC
  5
1286A4
  8
OBJECT
 10
2900.0
 20
-3812.9999999999968
 30
0.0
 40
49.5
 50
180.0
 51
202.66956385104879
1001
ACDBBLOCKREPETAG
1070
     1
1071
        9
1005
1286A4
  0
ARC
  5
1286A5
  8
OBJECT
 10
2900.0
 20
-3812.9999999999968
 30
0.0
 40
49.5
 50
337.33043614895121
 51
0.0
1001
ACDBBLOCKREPETAG
1070
     1
1071
       10
1005
1286A5
  0
POINT
  5
1286A6
  8
DOTS
 10
2900.0
 20
-3864.9999999999968
 30
0.0
1001
ACDBBLOCKREPETAG
1070
     1
1071
       25
1005
1286A6
  0
LINE
  5
1286A7
  8
OBJECT
 10
2633.0
 20
-3773.9999999999968
 30
0.0
 11
2640.0
 21
-3773.9999999999968
 31
0.0
1001
ACDBBLOCKREPETAG
1070
     1
1071
        0
1005
1286A7
  0
LINE
  5
1286A8
  8
OBJECT
 10
2640.0
 20
-3773.9999999999968
 30
0.0
 11
2640.0
 21
-3864.9999999999968
 31
0.0
1001
ACDBBLOCKREPETAG
1070
     1
1071
        1
1005
1286A8
  0
LINE
  5
1286A9
  8
OBJECT
 10
2584.5
 20
-3759.5000000000618
 30
0.0
 11
2584.5
 21
-3862.4999999999968
 31
0.0
1001
ACDBBLOCKREPETAG
1070
     1
1071
        2
1005
1286A9
  0
ARC
  5
1286AA
  8
OBJECT
 10
2581.5
 20
-3759.5000000000618
 30
0.0
 40
3.0
 50
0.0
 51
90.0
1001
ACDBBLOCKREPETAG
1070
     1
1071
        3
1005
1286AA
  0
LINE
  5
1286AB
  8
OBJECT
 10
2633.0
 20
-3864.9999999999968
 30
0.0
 11
2633.0
 21
-3773.9999999999968
 31
0.0
1001
ACDBBLOCKREPETAG
1070
     1
1071
        4
1005
1286AB
  0
LINE
  5
1286AC
  8
CENTER
 10
2655.0
 20
-3820.9999999999968
 30
0.0
 11
2541.911823713584
 21
-3820.9999999999968
 31
0.0
1001
ACDBBLOCKREPETAG
1070
     1
1071
        5
1005
1286AC
  0
LINE
  5
1286AD
  8
OBJECT
 10
2633.0
 20
-3776.9999999999968
 30
0.0
 11
2596.9999999999991
 21
-3776.9999999999968
 31
0.0
1001
ACDBBLOCKREPETAG
1070
     1
1071
        6
1005
1286AD
  0
LINE
  5
1286AE
  8
OBJECT
 10
2596.9999999999991
 20
-3776.9999999999968
 30
0.0
 11
2596.9999999999991
 21
-3864.9999999999968
 31
0.0
1001
ACDBBLOCKREPETAG
1070
     1
1071
        7
1005
1286AE
  0
LINE
  5
1286AF
  8
OBJECT
 10
2596.9999999999991
 20
-3864.9999999999968
 30
0.0
 11
2640.0
 21
-3864.9999999999968
 31
0.0
1001
ACDBBLOCKREPETAG
1070
     1
1071
        8
1005
1286AF
  0
LINE
  5
1286B0
  8
OBJECT
 10
2593.0
 20
-3781.4999999999959
 30
0.0
 11
2584.5
 21
-3781.4999999999959
 31
0.0
1001
ACDBBLOCKREPETAG
1070
     1
1071
        9
1005
1286B0
  0
LINE
  5
1286B1
  8
OBJECT
 10
2584.5
 20
-3860.4999999999959
 30
0.0
 11
2593.0
 21
-3860.4999999999959
 31
0.0
1001
ACDBBLOCKREPETAG
1070
     1
1071
       10
1005
1286B1
  0
LINE
  5
1286B2
  8
OBJECT
 10
2593.0
 20
-3860.4999999999959
 30
0.0
 11
2593.0
 21
-3781.4999999999959
 31
0.0
1001
ACDBBLOCKREPETAG
1070
     1
1071
       11
1005
1286B2
  0
LINE
  5
1286B3
  8
OBJECT
 10
2596.9999999999991
 20
-3776.9999999999968
 30
0.0
 11
2593.0
 21
-3781.4999999999959
 31
0.0
1001
ACDBBLOCKREPETAG
1070
     1
1071
       12
1005
1286B3
  0
LINE
  5
1286B4
  8
OBJECT
 10
2596.9999999999991
 20
-3864.9999999999968
 30
0.0
 11
2593.0
 21
-3860.4999999999959
 31
0.0
1001
ACDBBLOCKREPETAG
1070
     1
1071
       13
1005
1286B4
  0
LINE
  5
1286B5
  8
HIDDEN
 10
2588.0
 20
-3790.9999999999959
 30
0.0
 11
2588.0
 21
-3850.9999999999959
 31
0.0
1001
ACDBBLOCKREPETAG
1070
     1
1071
       14
1005
1286B5
  0
ARC
  5
1286B6
  8
OBJECT
 10
2664.8782728787751
 20
-3821.4095072612249
 30
0.0
 40
110.86635228309
 50
144.1634274191434
 51
163.04035380433169
1001
ACDBBLOCKREPETAG
1070
     1
1071
       15
1005
1286B6
  0
ARC
  5
1286B7
  8
OBJECT
 10
2617.1359887769072
 20
-3806.287749718445
 30
0.0
 40
60.791749880358971
 50
163.5472046522267
 51
179.72879698282679
1001
ACDBBLOCKREPETAG
1070
     1
1071
       16
1005
1286B7
  0
ARC
  5
1286B8
  8
OBJECT
 10
2617.1359956562478
 20
-3812.7122497598971
 30
0.0
 40
60.79175676209487
 50
180.2712034781452
 51
196.4527794605338
1001
ACDBBLOCKREPETAG
1070
     1
1071
       17
1005
1286B8
  0
ARC
  5
1286B9
  8
OBJECT
 10
2664.8782728787751
 20
-3797.5904927388328
 30
0.0
 40
110.8663522830916
 50
196.95964619566811
 51
215.8365725808566
1001
ACDBBLOCKREPETAG
1070
     1
1071
       18
1005
1286B9
  0
LINE
  5
1286BA
  8
OBJECT
 10
2556.3449199130041
 20
-3806.0000000000332
 30
0.0
 11
2556.3449199130041
 21
-3813.0000000000291
 31
0.0
1001
ACDBBLOCKREPETAG
1070
     1
1071
       19
1005
1286BA
  0
LINE
  5
1286BB
  8
OBJECT
 10
2575.0
 20
-3756.5000000000618
 30
0.0
 11
2581.5
 21
-3756.5000000000618
 31
0.0
1001
ACDBBLOCKREPETAG
1070
     1
1071
       20
1005
1286BB
  0
LINE
  5
1286BC
  8
OBJECT
 10
2575.0
 20
-3862.4999999999968
 30
0.0
 11
2584.5
 21
-3862.4999999999968
 31
0.0
1001
ACDBBLOCKREPETAG
1070
     1
1071
       21
1005
1286BC
  0
LINE
  5
1286BD
  8
OBJECT
 10
2633.0
 20
-3412.9999999999968
 30
0.0
 11
2640.0
 21
-3412.9999999999968
 31
0.0
1001
ACDBBLOCKREPETAG
1070
     1
1071
        0
1005
1286BD
  0
LINE
  5
1286BE
  8
OBJECT
 10
2640.0
 20
-3412.9999999999968
 30
0.0
 11
2640.0
 21
-3506.9999999999968
 31
0.0
1001
ACDBBLOCKREPETAG
1070
     1
1071
        1
1005
1286BE
  0
LINE
  5
1286BF
  8
OBJECT
 10
2640.0
 20
-3506.9999999999968
 30
0.0
 11
2633.0
 21
-3506.9999999999968
 31
0.0
1001
ACDBBLOCKREPETAG
1070
     1
1071
        2
1005
1286BF
  0
LINE
  5
1286C0
  8
OBJECT
 10
2633.0
 20
-3506.9999999999968
 30
0.0
 11
2633.0
 21
-3412.9999999999968
 31
0.0
1001
ACDBBLOCKREPETAG
1070
     1
1071
        3
1005
1286C0
  0
LINE
  5
1286C1
  8
CENTER
 10
2655.0
 20
-3459.9999999999968
 30
0.0
 11
2580.0
 21
-3459.9999999999968
 31
0.0
1001
ACDBBLOCKREPETAG
1070
     1
1071
        4
1005
1286C1
  0
LINE
  5
1286C2
  8
OBJECT
 10
2633.0
 20
-3415.9999999999959
 30
0.0
 11
2596.9999999999991
 21
-3415.9999999999959
 31
0.0
1001
ACDBBLOCKREPETAG
1070
     1
1071
        5
1005
1286C2
  0
LINE
  5
1286C3
  8
OBJECT
 10
2596.9999999999991
 20
-3415.9999999999959
 30
0.0
 11
2596.9999999999991
 21
-3503.9999999999959
 31
0.0
1001
ACDBBLOCKREPETAG
1070
     1
1071
        6
1005
1286C3
  0
LINE
  5
1286C4
  8
OBJECT
 10
2596.9999999999991
 20
-3503.9999999999959
 30
0.0
 11
2633.0
 21
-3503.9999999999959
 31
0.0
1001
ACDBBLOCKREPETAG
1070
     1
1071
        7
1005
1286C4
  0
LINE
  5
1286C5
  8
OBJECT
 10
2593.0
 20
-3420.4999999999959
 30
0.0
 11
2584.5
 21
-3420.4999999999959
 31
0.0
1001
ACDBBLOCKREPETAG
1070
     1
1071
        8
1005
1286C5
  0
LINE
  5
1286C6
  8
OBJECT
 10
2584.5
 20
-3499.4999999999959
 30
0.0
 11
2593.0
 21
-3499.4999999999959
 31
0.0
1001
ACDBBLOCKREPETAG
1070
     1
1071
        9
1005
1286C6
  0
LINE
  5
1286C7
  8
OBJECT
 10
2593.0
 20
-3499.4999999999959
 30
0.0
 11
2593.0
 21
-3420.4999999999959
 31
0.0
1001
ACDBBLOCKREPETAG
1070
     1
1071
       10
1005
1286C7
  0
LINE
  5
1286C8
  8
OBJECT
 10
2596.9999999999991
 20
-3415.9999999999959
 30
0.0
 11
2593.0
 21
-3420.4999999999959
 31
0.0
1001
ACDBBLOCKREPETAG
1070
     1
1071
       11
1005
1286C8
  0
LINE
  5
1286C9
  8
OBJECT
 10
2596.9999999999991
 20
-3503.9999999999959
 30
0.0
 11
2593.0
 21
-3499.4999999999959
 31
0.0
1001
ACDBBLOCKREPETAG
1070
     1
1071
       12
1005
1286C9
  0
LINE
  5
1286CA
  8
OBJECT
 10
2584.4999999999991
 20
-3506.4999999999959
 30
0.0
 11
2584.5
 21
-3413.4999999999959
 31
0.0
1001
ACDBBLOCKREPETAG
1070
     1
1071
       13
1005
1286CA
  0
ARC
  5
1286CB
  8
OBJECT
 10
2581.5
 20
-3413.4999999999959
 30
0.0
 40
3.0
 50
0.0
 51
90.0
1001
ACDBBLOCKREPETAG
1070
     1
1071
       14
1005
1286CB
  0
LINE
  5
1286CC
  8
HIDDEN
 10
2588.0
 20
-3429.9999999999959
 30
0.0
 11
2588.0
 21
-3489.9999999999968
 31
0.0
1001
ACDBBLOCKREPETAG
1070
     1
1071
       15
1005
1286CC
  0
LINE
  5
1286CD
  8
OBJECT
 10
2581.5
 20
-3410.4999999999959
 30
0.0
 11
2556.3449199129791
 21
-3410.4999999999959
 31
0.0
1001
ACDBBLOCKREPETAG
1070
     1
1071
       17
1005
1286CD
  0
LINE
  5
1286CE
  8
OBJECT
 10
2581.4999999999991
 20
-3509.4999999999959
 30
0.0
 11
2556.3449199129791
 21
-3509.4999999999959
 31
0.0
1001
ACDBBLOCKREPETAG
1070
     1
1071
       18
1005
1286CE
  0
ARC
  5
1286CF
  8
OBJECT
 10
2581.4999999999991
 20
-3506.4999999999959
 30
0.0
 40
3.0
 50
270.0
 51
0.0
1001
ACDBBLOCKREPETAG
1070
     1
1071
       19
1005
1286CF
  0
TEXT
  5
1286D0
  8
SLIM
 10
12034.5
 20
-1964.6666666666631
 30
0.0
 40
28.0
  1
※ 対応P寸法　　190＜210＞～320（10mm単位。＜＞内は下枝75の場合）
 41
0.75
  0
TEXT
  5
1286D1
  8
SLIM
 10
12033.304
 20
-2011.3333333333301
 30
0.0
 40
28.0
  1
※ 対応スラブ厚　150～（600-P）
 41
0.75
  0
TEXT
  5
1286D2
  8
SLIM
 10
12098.9
 20
-2104.6666666666638
 30
0.0
 40
28.0
  1
国土交通大臣認定・（一財）日本消防設備安全センター性能評定取得品
 41
0.75
  0
TEXT
  5
1286D3
  8
SLIM
 10
12131.1
 20
-2151.3333333333289
 30
0.0
 40
28.0
  1
注）ご採用にあたり、認定書及び評定書の内容をご確認ください。
 41
0.75
  0
TEXT
  5
1286D4
  8
SLIM
 10
10034.5
 20
-1964.6666666666631
 30
0.0
 40
28.0
  1
※ 対応P寸法　　190＜210＞～320（10mm単位。＜＞内は下枝75の場合）
 41
0.75
  0
TEXT
  5
1286D5
  8
SLIM
 10
10033.304
 20
-2011.3333333333301
 30
0.0
 40
28.0
  1
※ 対応スラブ厚　180～（600-P）
 41
0.75
  0
TEXT
  5
1286D6
  8
SLIM
 10
10098.9
 20
-2104.6666666666638
 30
0.0
 40
28.0
  1
国土交通大臣認定・（一財）日本消防設備安全センター性能評定取得品
 41
0.75
  0
TEXT
  5
1286D7
  8
SLIM
 10
10131.1
 20
-2151.3333333333289
 30
0.0
 40
28.0
  1
注）ご採用にあたり、認定書及び評定書の内容をご確認ください。
 41
0.75
  0
TEXT
  5
1286D8
  8
SLIM
 10
6028.9000000000005
 20
-2016.3333600000001
 30
0.0
 40
28.0
  1
 ※ 対応P寸法　　190＜210＞～340（10mm単位。＜＞内は下枝75の場合）
 41
0.75
  0
TEXT
  5
1286D9
  8
SLIM
 10
6035.8040000000001
 20
-2063.0000266666671
 30
0.0
 40
28.0
  1
※ 対応スラブ厚　150mm以上
 41
0.75
  0
TEXT
  5
1286DA
  8
SLIM
 10
6098.8999999999996
 20
-2134.9999733333329
 30
0.0
 40
28.0
  1
国土交通大臣認定・（一財）日本消防設備安全センター性能評定取得品
 41
0.75
  0
TEXT
  5
1286DB
  8
SLIM
 10
6131.1000000000004
 20
-2181.666639999999
 30
0.0
 40
28.0
  1
注）ご採用にあたり、認定書及び評定書の内容をご確認ください。
 41
0.75
  0
TEXT
  5
1286DC
  8
SLIM
 10
4034.5
 20
-1982.9999999999959
 30
0.0
 40
28.0
  1
※ 対応P寸法　　190＜210＞～340（10mm単位。＜＞内は下枝75の場合）
 41
0.75
  0
TEXT
  5
1286DD
  8
SLIM
 10
2034.5
 20
-1708.999999999998
 30
0.0
 40
28.0
  1
※ 対応P寸法　　190＜210＞～340（10mm単位。＜＞内は下枝75の場合）
 41
0.75
  0
TEXT
  5
1286DE
  8
SLIM
 10
8180.5
 20
-1703.000026666665
 30
0.0
 40
28.0
  1
※ 対応P寸法　　190＜210＞～320（10mm単位）
 41
0.75
  0
TEXT
  5
1286DF
  8
SLIM
 10
8176.0998000000018
 20
-1749.666693333332
 30
0.0
 40
28.0
  1
※ 対応スラブ厚　180｛150｝～（560-P）
 41
0.75
  0
TEXT
  5
1286E0
  8
SLIM
 10
8211.8999999999978
 20
-1796.3333599999989
 30
0.0
 40
28.0
  1
＜＞内は下枝75、｛｝内はカンペイ立て管との組み合わせの場合
 41
0.75
  0
TEXT
  5
1286E1
  8
SLIM
 10
8098.8999999999978
 20
-1868.3333066666651
 30
0.0
 40
28.0
  1
国土交通大臣認定・（一財）日本消防設備安全センター性能評定取得品
 41
0.75
  0
TEXT
  5
1286E2
  8
SLIM
 10
8131.1000000000013
 20
-1914.999973333332
 30
0.0
 40
28.0
  1
注）ご採用にあたり、認定書及び評定書の内容をご確認ください。
 41
0.75
  0
LINE
  5
1286E3
  8
OBJECT
 10
12423.0
 20
-570.99999999999432
 30
0.0
 11
12423.0
 21
-549.99999999999432
 31
0.0
1001
ACDBBLOCKREPETAG
1070
     1
1071
        0
1005
1286E3
  0
LINE
  5
1286E4
  8
OBJECT
 10
12423.0
 20
-549.99999999999432
 30
0.0
 11
12577.0
 21
-549.99999999999432
 31
0.0
1001
ACDBBLOCKREPETAG
1070
     1
1071
        1
1005
1286E4
  0
LINE
  5
1286E5
  8
HIDDEN
 10
12443.0
 20
-619.99999999999432
 30
0.0
 11
12557.0
 21
-619.99999999999432
 31
0.0
1001
ACDBBLOCKREPETAG
1070
     1
1071
        2
1005
1286E5
  0
LINE
  5
1286E6
  8
OBJECT
 10
12577.0
 20
-549.99999999999432
 30
0.0
 11
12577.0
 21
-570.99999999999432
 31
0.0
1001
ACDBBLOCKREPETAG
1070
     1
1071
        3
1005
1286E6
  0
LINE
  5
1286E7
  8
OBJECT
 10
12577.0
 20
-570.99999999999432
 30
0.0
 11
12423.0
 21
-570.99999999999432
 31
0.0
1001
ACDBBLOCKREPETAG
1070
     1
1071
        4
1005
1286E7
  0
LINE
  5
1286E8
  8
CENTER
 10
12500.0
 20
-534.99999999999432
 30
0.0
 11
12500.0
 21
-769.9999999999942
 31
0.0
1001
ACDBBLOCKREPETAG
1070
     1
1071
        5
1005
1286E8
  0
LINE
  5
1286E9
  8
OBJECT
 10
12425.0
 20
-633.99999999999432
 30
0.0
 11
12425.0
 21
-757.9999999999942
 31
0.0
1001
ACDBBLOCKREPETAG
1070
     1
1071
        6
1005
1286E9
  0
LINE
  5
1286EA
  8
OBJECT
 10
12428.0
 20
-570.99999999999432
 30
0.0
 11
12428.0
 21
-633.99999999999432
 31
0.0
1001
ACDBBLOCKREPETAG
1070
     1
1071
        7
1005
1286EA
  0
LINE
  5
1286EB
  8
OBJECT
 10
12572.0
 20
-633.99999999999432
 30
0.0
 11
12572.0
 21
-570.99999999999432
 31
0.0
1001
ACDBBLOCKREPETAG
1070
     1
1071
        8
1005
1286EB
  0
LINE
  5
1286EC
  8
OBJECT
 10
12420.0
 20
-757.9999999999942
 30
0.0
 11
12580.0
 21
-757.9999999999942
 31
0.0
1001
ACDBBLOCKREPETAG
1070
     1
1071
        9
1005
1286EC
  0
LINE
  5
1286ED
  8
OBJECT
 10
12580.0
 20
-633.99999999999432
 30
0.0
 11
12425.0
 21
-633.99999999999432
 31
0.0
1001
ACDBBLOCKREPETAG
1070
     1
1071
       10
1005
1286ED
  0
LINE
  5
1286EE
  8
OBJECT
 10
12420.0
 20
-757.9999999999942
 30
0.0
 11
12420.0
 21
-769.9999999999942
 31
0.0
1001
ACDBBLOCKREPETAG
1070
     1
1071
       11
1005
1286EE
  0
LINE
  5
1286EF
  8
OBJECT
 10
12420.0
 20
-769.9999999999942
 30
0.0
 11
12580.0
 21
-769.9999999999942
 31
0.0
1001
ACDBBLOCKREPETAG
1070
     1
1071
       12
1005
1286EF
  0
LINE
  5
1286F0
  8
OBJECT
 10
12580.0
 20
-769.9999999999942
 30
0.0
 11
12580.0
 21
-757.9999999999942
 31
0.0
1001
ACDBBLOCKREPETAG
1070
     1
1071
       13
1005
1286F0
  0
ARC
  5
1286F1
  8
OBJECT
 10
12700.687274671671
 20
-749.40809941010195
 30
0.0
 40
170.6350503965856
 50
137.44134459184301
 51
149.91949581337221
1001
ACDBBLOCKREPETAG
1070
     1
1071
       15
1005
1286F1
  0
ARC
  5
1286F2
  8
OBJECT
 10
12618.845598704051
 20
-705.88272669535922
 30
0.0
 40
78.072222021763665
 50
147.45515310379639
 51
164.6636599771729
1001
ACDBBLOCKREPETAG
1070
     1
1071
       16
1005
1286F2
  0
ARC
  5
1286F3
  8
OBJECT
 10
12585.755434960871
 20
-695.99999999999432
 30
0.0
 40
43.55353926885617
 50
165.6884523008477
 51
194.3115476991523
1001
ACDBBLOCKREPETAG
1070
     1
1071
       17
1005
1286F3
  0
ARC
  5
1286F4
  8
OBJECT
 10
12700.687274671671
 20
-642.59190058988645
 30
0.0
 40
170.6350503965856
 50
210.08050418662771
 51
222.55865540815699
1001
ACDBBLOCKREPETAG
1070
     1
1071
       18
1005
1286F4
  0
ARC
  5
1286F5
  8
OBJECT
 10
12618.845598704051
 20
-686.11727330462952
 30
0.0
 40
78.072222021763665
 50
195.3363400228271
 51
212.54484689620361
1001
ACDBBLOCKREPETAG
1070
     1
1071
       19
1005
1286F5
  0
LINE
  5
1286F6
  8
OBJECT
 10
12633.0
 20
-634.0
 30
0.0
 11
12640.0
 21
-634.0
 31
0.0
1001
ACDBBLOCKREPETAG
1070
     1
1071
       45
1005
1286F6
  0
LINE
  5
1286F7
  8
OBJECT
 10
12640.0
 20
-634.0
 30
0.0
 11
12640.0
 21
-755.0
 31
0.0
1001
ACDBBLOCKREPETAG
1070
     1
1071
       46
1005
1286F7
  0
LINE
  5
1286F8
  8
OBJECT
 10
12633.0
 20
-755.0
 30
0.0
 11
12633.0
 21
-634.0
 31
0.0
1001
ACDBBLOCKREPETAG
1070
     1
1071
       47
1005
1286F8
  0
LINE
  5
1286F9
  8
CENTER
 10
12655.0
 20
-696.0
 30
0.0
 11
12571.0
 21
-696.0
 31
0.0
1001
ACDBBLOCKREPETAG
1070
     1
1071
       48
1005
1286F9
  0
LINE
  5
1286FA
  8
OBJECT
 10
12633.0
 20
-637.0
 30
0.0
 11
12597.0
 21
-637.0
 31
0.0
1001
ACDBBLOCKREPETAG
1070
     1
1071
       49
1005
1286FA
  0
LINE
  5
1286FB
  8
OBJECT
 10
12597.0
 20
-637.0
 30
0.0
 11
12597.0
 21
-755.0
 31
0.0
1001
ACDBBLOCKREPETAG
1070
     1
1071
       50
1005
1286FB
  0
LINE
  5
1286FC
  8
OBJECT
 10
12597.0
 20
-755.0
 30
0.0
 11
12640.0
 21
-755.0
 31
0.0
1001
ACDBBLOCKREPETAG
1070
     1
1071
       51
1005
1286FC
  0
LINE
  5
1286FD
  8
OBJECT
 10
12593.0
 20
-641.5
 30
0.0
 11
12586.0
 21
-641.5
 31
0.0
1001
ACDBBLOCKREPETAG
1070
     1
1071
       52
1005
1286FD
  0
LINE
  5
1286FE
  8
OBJECT
 10
12586.0
 20
-750.49999999999989
 30
0.0
 11
12593.0
 21
-750.49999999999989
 31
0.0
1001
ACDBBLOCKREPETAG
1070
     1
1071
       53
1005
1286FE
  0
LINE
  5
1286FF
  8
OBJECT
 10
12593.0
 20
-750.49999999999989
 30
0.0
 11
12593.0
 21
-641.5
 31
0.0
1001
ACDBBLOCKREPETAG
1070
     1
1071
       54
1005
1286FF
  0
LINE
  5
128700
  8
OBJECT
 10
12597.0
 20
-637.0
 30
0.0
 11
12593.0
 21
-641.5
 31
0.0
1001
ACDBBLOCKREPETAG
1070
     1
1071
       55
1005
128700
  0
LINE
  5
128701
  8
OBJECT
 10
12597.0
 20
-755.0
 30
0.0
 11
12593.0
 21
-750.49999999999989
 31
0.0
1001
ACDBBLOCKREPETAG
1070
     1
1071
       56
1005
128701
  0
LINE
  5
128702
  8
OBJECT
 10
12583.0
 20
-634.0
 30
0.0
 11
12580.0
 21
-634.0
 31
0.0
1001
ACDBBLOCKREPETAG
1070
     1
1071
       57
1005
128702
  0
ARC
  5
128703
  8
OBJECT
 10
12583.0
 20
-637.0
 30
0.0
 40
3.0
 50
0.0
 51
90.0
1001
ACDBBLOCKREPETAG
1070
     1
1071
       58
1005
128703
  0
LINE
  5
128704
  8
OBJECT
 10
12580.0
 20
-758.0
 30
0.0
 11
12583.0
 21
-758.0
 31
0.0
1001
ACDBBLOCKREPETAG
1070
     1
1071
       59
1005
128704
  0
ARC
  5
128705
  8
OBJECT
 10
12583.0
 20
-755.0
 30
0.0
 40
3.0
 50
270.0
 51
0.0
1001
ACDBBLOCKREPETAG
1070
     1
1071
       60
1005
128705
  0
LINE
  5
128706
  8
OBJECT
 10
12586.0
 20
-755.0
 30
0.0
 11
12586.0
 21
-637.0
 31
0.0
1001
ACDBBLOCKREPETAG
1070
     1
1071
       61
1005
128706
  0
LINE
  5
128707
  8
HIDDEN
 10
12588.0
 20
-651.5
 30
0.0
 11
12588.0
 21
-740.5
 31
0.0
1001
ACDBBLOCKREPETAG
1070
     1
1071
       63
1005
128707
  0
LINE
  5
128708
  8
OBJECT
 10
10423.0
 20
-570.99999999999432
 30
0.0
 11
10423.0
 21
-549.99999999999432
 31
0.0
1001
ACDBBLOCKREPETAG
1070
     1
1071
        0
1005
128708
  0
LINE
  5
128709
  8
OBJECT
 10
10423.0
 20
-549.99999999999432
 30
0.0
 11
10577.0
 21
-549.99999999999432
 31
0.0
1001
ACDBBLOCKREPETAG
1070
     1
1071
        1
1005
128709
  0
LINE
  5
12870A
  8
HIDDEN
 10
10443.0
 20
-619.99999999999432
 30
0.0
 11
10557.0
 21
-619.99999999999432
 31
0.0
1001
ACDBBLOCKREPETAG
1070
     1
1071
        2
1005
12870A
  0
LINE
  5
12870B
  8
OBJECT
 10
10577.0
 20
-549.99999999999432
 30
0.0
 11
10577.0
 21
-570.99999999999432
 31
0.0
1001
ACDBBLOCKREPETAG
1070
     1
1071
        3
1005
12870B
  0
LINE
  5
12870C
  8
OBJECT
 10
10577.0
 20
-570.99999999999432
 30
0.0
 11
10423.0
 21
-570.99999999999432
 31
0.0
1001
ACDBBLOCKREPETAG
1070
     1
1071
        4
1005
12870C
  0
LINE
  5
12870D
  8
CENTER
 10
10500.0
 20
-534.99999999999432
 30
0.0
 11
10500.0
 21
-769.9999999999942
 31
0.0
1001
ACDBBLOCKREPETAG
1070
     1
1071
        5
1005
12870D
  0
LINE
  5
12870E
  8
OBJECT
 10
10425.0
 20
-633.99999999999432
 30
0.0
 11
10425.0
 21
-757.9999999999942
 31
0.0
1001
ACDBBLOCKREPETAG
1070
     1
1071
        6
1005
12870E
  0
LINE
  5
12870F
  8
OBJECT
 10
10428.0
 20
-570.99999999999432
 30
0.0
 11
10428.0
 21
-633.99999999999432
 31
0.0
1001
ACDBBLOCKREPETAG
1070
     1
1071
        7
1005
12870F
  0
LINE
  5
128710
  8
OBJECT
 10
10572.0
 20
-633.99999999999432
 30
0.0
 11
10572.0
 21
-570.99999999999432
 31
0.0
1001
ACDBBLOCKREPETAG
1070
     1
1071
        8
1005
128710
  0
LINE
  5
128711
  8
OBJECT
 10
10420.0
 20
-757.9999999999942
 30
0.0
 11
10580.0
 21
-757.9999999999942
 31
0.0
1001
ACDBBLOCKREPETAG
1070
     1
1071
        9
1005
128711
  0
LINE
  5
128712
  8
OBJECT
 10
10580.0
 20
-633.99999999999432
 30
0.0
 11
10425.0
 21
-633.99999999999432
 31
0.0
1001
ACDBBLOCKREPETAG
1070
     1
1071
       10
1005
128712
  0
LINE
  5
128713
  8
OBJECT
 10
10420.0
 20
-757.9999999999942
 30
0.0
 11
10420.0
 21
-769.9999999999942
 31
0.0
1001
ACDBBLOCKREPETAG
1070
     1
1071
       11
1005
128713
  0
LINE
  5
128714
  8
OBJECT
 10
10420.0
 20
-769.9999999999942
 30
0.0
 11
10580.0
 21
-769.9999999999942
 31
0.0
1001
ACDBBLOCKREPETAG
1070
     1
1071
       12
1005
128714
  0
LINE
  5
128715
  8
OBJECT
 10
10580.0
 20
-769.9999999999942
 30
0.0
 11
10580.0
 21
-757.9999999999942
 31
0.0
1001
ACDBBLOCKREPETAG
1070
     1
1071
       13
1005
128715
  0
ARC
  5
128716
  8
OBJECT
 10
10700.687274671671
 20
-749.40809941010195
 30
0.0
 40
170.6350503965856
 50
137.44134459184301
 51
149.91949581337221
1001
ACDBBLOCKREPETAG
1070
     1
1071
       15
1005
128716
  0
ARC
  5
128717
  8
OBJECT
 10
10618.845598704051
 20
-705.88272669535922
 30
0.0
 40
78.072222021763665
 50
147.45515310379639
 51
164.6636599771729
1001
ACDBBLOCKREPETAG
1070
     1
1071
       16
1005
128717
  0
ARC
  5
128718
  8
OBJECT
 10
10585.755434960871
 20
-695.99999999999432
 30
0.0
 40
43.55353926885617
 50
165.6884523008477
 51
194.3115476991523
1001
ACDBBLOCKREPETAG
1070
     1
1071
       17
1005
128718
  0
ARC
  5
128719
  8
OBJECT
 10
10700.687274671671
 20
-642.59190058988645
 30
0.0
 40
170.6350503965856
 50
210.08050418662771
 51
222.55865540815699
1001
ACDBBLOCKREPETAG
1070
     1
1071
       18
1005
128719
  0
ARC
  5
12871A
  8
OBJECT
 10
10618.845598704051
 20
-686.11727330462952
 30
0.0
 40
78.072222021763665
 50
195.3363400228271
 51
212.54484689620361
1001
ACDBBLOCKREPETAG
1070
     1
1071
       19
1005
12871A
  0
LINE
  5
12871B
  8
OBJECT
 10
10633.0
 20
-634.0
 30
0.0
 11
10640.0
 21
-634.0
 31
0.0
1001
ACDBBLOCKREPETAG
1070
     1
1071
       45
1005
12871B
  0
LINE
  5
12871C
  8
OBJECT
 10
10640.0
 20
-634.0
 30
0.0
 11
10640.0
 21
-755.0
 31
0.0
1001
ACDBBLOCKREPETAG
1070
     1
1071
       46
1005
12871C
  0
LINE
  5
12871D
  8
OBJECT
 10
10633.0
 20
-755.0
 30
0.0
 11
10633.0
 21
-634.0
 31
0.0
1001
ACDBBLOCKREPETAG
1070
     1
1071
       47
1005
12871D
  0
LINE
  5
12871E
  8
CENTER
 10
10655.0
 20
-696.0
 30
0.0
 11
10571.0
 21
-696.0
 31
0.0
1001
ACDBBLOCKREPETAG
1070
     1
1071
       48
1005
12871E
  0
LINE
  5
12871F
  8
OBJECT
 10
10633.0
 20
-637.0
 30
0.0
 11
10597.0
 21
-637.0
 31
0.0
1001
ACDBBLOCKREPETAG
1070
     1
1071
       49
1005
12871F
  0
LINE
  5
128720
  8
OBJECT
 10
10597.0
 20
-637.0
 30
0.0
 11
10597.0
 21
-755.0
 31
0.0
1001
ACDBBLOCKREPETAG
1070
     1
1071
       50
1005
128720
  0
LINE
  5
128721
  8
OBJECT
 10
10597.0
 20
-755.0
 30
0.0
 11
10640.0
 21
-755.0
 31
0.0
1001
ACDBBLOCKREPETAG
1070
     1
1071
       51
1005
128721
  0
LINE
  5
128722
  8
OBJECT
 10
10593.0
 20
-641.5
 30
0.0
 11
10586.0
 21
-641.5
 31
0.0
1001
ACDBBLOCKREPETAG
1070
     1
1071
       52
1005
128722
  0
LINE
  5
128723
  8
OBJECT
 10
10586.0
 20
-750.49999999999989
 30
0.0
 11
10593.0
 21
-750.49999999999989
 31
0.0
1001
ACDBBLOCKREPETAG
1070
     1
1071
       53
1005
128723
  0
LINE
  5
128724
  8
OBJECT
 10
10593.0
 20
-750.49999999999989
 30
0.0
 11
10593.0
 21
-641.5
 31
0.0
1001
ACDBBLOCKREPETAG
1070
     1
1071
       54
1005
128724
  0
LINE
  5
128725
  8
OBJECT
 10
10597.0
 20
-637.0
 30
0.0
 11
10593.0
 21
-641.5
 31
0.0
1001
ACDBBLOCKREPETAG
1070
     1
1071
       55
1005
128725
  0
LINE
  5
128726
  8
OBJECT
 10
10597.0
 20
-755.0
 30
0.0
 11
10593.0
 21
-750.49999999999989
 31
0.0
1001
ACDBBLOCKREPETAG
1070
     1
1071
       56
1005
128726
  0
LINE
  5
128727
  8
OBJECT
 10
10583.0
 20
-634.0
 30
0.0
 11
10580.0
 21
-634.0
 31
0.0
1001
ACDBBLOCKREPETAG
1070
     1
1071
       57
1005
128727
  0
ARC
  5
128728
  8
OBJECT
 10
10583.0
 20
-637.0
 30
0.0
 40
3.0
 50
0.0
 51
90.0
1001
ACDBBLOCKREPETAG
1070
     1
1071
       58
1005
128728
  0
LINE
  5
128729
  8
OBJECT
 10
10580.0
 20
-758.0
 30
0.0
 11
10583.0
 21
-758.0
 31
0.0
1001
ACDBBLOCKREPETAG
1070
     1
1071
       59
1005
128729
  0
ARC
  5
12872A
  8
OBJECT
 10
10583.0
 20
-755.0
 30
0.0
 40
3.0
 50
270.0
 51
0.0
1001
ACDBBLOCKREPETAG
1070
     1
1071
       60
1005
12872A
  0
LINE
  5
12872B
  8
OBJECT
 10
10586.0
 20
-755.0
 30
0.0
 11
10586.0
 21
-637.0
 31
0.0
1001
ACDBBLOCKREPETAG
1070
     1
1071
       61
1005
12872B
  0
LINE
  5
12872C
  8
HIDDEN
 10
10588.0
 20
-651.5
 30
0.0
 11
10588.0
 21
-740.5
 31
0.0
1001
ACDBBLOCKREPETAG
1070
     1
1071
       63
1005
12872C
  0
LINE
  5
12872D
  8
OBJECT
 10
8423.0
 20
-570.99999999999432
 30
0.0
 11
8423.0
 21
-549.99999999999432
 31
0.0
1001
ACDBBLOCKREPETAG
1070
     1
1071
        0
1005
12872D
  0
LINE
  5
12872E
  8
OBJECT
 10
8423.0
 20
-549.99999999999432
 30
0.0
 11
8577.0
 21
-549.99999999999432
 31
0.0
1001
ACDBBLOCKREPETAG
1070
     1
1071
        1
1005
12872E
  0
LINE
  5
12872F
  8
HIDDEN
 10
8443.0
 20
-619.99999999999432
 30
0.0
 11
8557.0
 21
-619.99999999999432
 31
0.0
1001
ACDBBLOCKREPETAG
1070
     1
1071
        2
1005
12872F
  0
LINE
  5
128730
  8
OBJECT
 10
8577.0
 20
-549.99999999999432
 30
0.0
 11
8577.0
 21
-570.99999999999432
 31
0.0
1001
ACDBBLOCKREPETAG
1070
     1
1071
        3
1005
128730
  0
LINE
  5
128731
  8
OBJECT
 10
8577.0
 20
-570.99999999999432
 30
0.0
 11
8423.0
 21
-570.99999999999432
 31
0.0
1001
ACDBBLOCKREPETAG
1070
     1
1071
        4
1005
128731
  0
LINE
  5
128732
  8
CENTER
 10
8500.0
 20
-534.99999999999432
 30
0.0
 11
8500.0
 21
-769.9999999999942
 31
0.0
1001
ACDBBLOCKREPETAG
1070
     1
1071
        5
1005
128732
  0
LINE
  5
128733
  8
OBJECT
 10
8425.0
 20
-633.99999999999432
 30
0.0
 11
8425.0
 21
-757.9999999999942
 31
0.0
1001
ACDBBLOCKREPETAG
1070
     1
1071
        6
1005
128733
  0
LINE
  5
128734
  8
OBJECT
 10
8428.0
 20
-570.99999999999432
 30
0.0
 11
8428.0
 21
-633.99999999999432
 31
0.0
1001
ACDBBLOCKREPETAG
1070
     1
1071
        7
1005
128734
  0
LINE
  5
128735
  8
OBJECT
 10
8572.0
 20
-633.99999999999432
 30
0.0
 11
8572.0
 21
-570.99999999999432
 31
0.0
1001
ACDBBLOCKREPETAG
1070
     1
1071
        8
1005
128735
  0
LINE
  5
128736
  8
OBJECT
 10
8420.0
 20
-757.9999999999942
 30
0.0
 11
8580.0
 21
-757.9999999999942
 31
0.0
1001
ACDBBLOCKREPETAG
1070
     1
1071
        9
1005
128736
  0
LINE
  5
128737
  8
OBJECT
 10
8580.0
 20
-633.99999999999432
 30
0.0
 11
8425.0
 21
-633.99999999999432
 31
0.0
1001
ACDBBLOCKREPETAG
1070
     1
1071
       10
1005
128737
  0
LINE
  5
128738
  8
OBJECT
 10
8420.0
 20
-757.9999999999942
 30
0.0
 11
8420.0
 21
-769.9999999999942
 31
0.0
1001
ACDBBLOCKREPETAG
1070
     1
1071
       11
1005
128738
  0
LINE
  5
128739
  8
OBJECT
 10
8420.0
 20
-769.9999999999942
 30
0.0
 11
8580.0
 21
-769.9999999999942
 31
0.0
1001
ACDBBLOCKREPETAG
1070
     1
1071
       12
1005
128739
  0
LINE
  5
12873A
  8
OBJECT
 10
8580.0
 20
-769.9999999999942
 30
0.0
 11
8580.0
 21
-757.9999999999942
 31
0.0
1001
ACDBBLOCKREPETAG
1070
     1
1071
       13
1005
12873A
  0
ARC
  5
12873B
  8
OBJECT
 10
8700.6872746716726
 20
-749.40809941010195
 30
0.0
 40
170.6350503965856
 50
137.44134459184301
 51
149.91949581337221
1001
ACDBBLOCKREPETAG
1070
     1
1071
       15
1005
12873B
  0
ARC
  5
12873C
  8
OBJECT
 10
8618.8455987040506
 20
-705.88272669535922
 30
0.0
 40
78.072222021763665
 50
147.45515310379639
 51
164.6636599771729
1001
ACDBBLOCKREPETAG
1070
     1
1071
       16
1005
12873C
  0
ARC
  5
12873D
  8
OBJECT
 10
8585.7554349608708
 20
-695.99999999999432
 30
0.0
 40
43.55353926885617
 50
165.6884523008477
 51
194.3115476991523
1001
ACDBBLOCKREPETAG
1070
     1
1071
       17
1005
12873D
  0
ARC
  5
12873E
  8
OBJECT
 10
8700.6872746716726
 20
-642.59190058988645
 30
0.0
 40
170.6350503965856
 50
210.08050418662771
 51
222.55865540815699
1001
ACDBBLOCKREPETAG
1070
     1
1071
       18
1005
12873E
  0
ARC
  5
12873F
  8
OBJECT
 10
8618.8455987040506
 20
-686.11727330462952
 30
0.0
 40
78.072222021763665
 50
195.3363400228271
 51
212.54484689620361
1001
ACDBBLOCKREPETAG
1070
     1
1071
       19
1005
12873F
  0
LINE
  5
128740
  8
OBJECT
 10
8633.0
 20
-634.0
 30
0.0
 11
8640.0
 21
-634.0
 31
0.0
1001
ACDBBLOCKREPETAG
1070
     1
1071
       45
1005
128740
  0
LINE
  5
128741
  8
OBJECT
 10
8640.0
 20
-634.0
 30
0.0
 11
8640.0
 21
-755.0
 31
0.0
1001
ACDBBLOCKREPETAG
1070
     1
1071
       46
1005
128741
  0
LINE
  5
128742
  8
OBJECT
 10
8633.0
 20
-755.0
 30
0.0
 11
8633.0
 21
-634.0
 31
0.0
1001
ACDBBLOCKREPETAG
1070
     1
1071
       47
1005
128742
  0
LINE
  5
128743
  8
CENTER
 10
8655.0
 20
-696.0
 30
0.0
 11
8571.0
 21
-696.0
 31
0.0
1001
ACDBBLOCKREPETAG
1070
     1
1071
       48
1005
128743
  0
LINE
  5
128744
  8
OBJECT
 10
8633.0
 20
-637.0
 30
0.0
 11
8597.0
 21
-637.0
 31
0.0
1001
ACDBBLOCKREPETAG
1070
     1
1071
       49
1005
128744
  0
LINE
  5
128745
  8
OBJECT
 10
8597.0
 20
-637.0
 30
0.0
 11
8597.0
 21
-755.0
 31
0.0
1001
ACDBBLOCKREPETAG
1070
     1
1071
       50
1005
128745
  0
LINE
  5
128746
  8
OBJECT
 10
8597.0
 20
-755.0
 30
0.0
 11
8640.0
 21
-755.0
 31
0.0
1001
ACDBBLOCKREPETAG
1070
     1
1071
       51
1005
128746
  0
LINE
  5
128747
  8
OBJECT
 10
8593.0
 20
-641.5
 30
0.0
 11
8586.0
 21
-641.5
 31
0.0
1001
ACDBBLOCKREPETAG
1070
     1
1071
       52
1005
128747
  0
LINE
  5
128748
  8
OBJECT
 10
8586.0
 20
-750.49999999999989
 30
0.0
 11
8593.0
 21
-750.49999999999989
 31
0.0
1001
ACDBBLOCKREPETAG
1070
     1
1071
       53
1005
128748
  0
LINE
  5
128749
  8
OBJECT
 10
8593.0
 20
-750.49999999999989
 30
0.0
 11
8593.0
 21
-641.5
 31
0.0
1001
ACDBBLOCKREPETAG
1070
     1
1071
       54
1005
128749
  0
LINE
  5
12874A
  8
OBJECT
 10
8597.0
 20
-637.0
 30
0.0
 11
8593.0
 21
-641.5
 31
0.0
1001
ACDBBLOCKREPETAG
1070
     1
1071
       55
1005
12874A
  0
LINE
  5
12874B
  8
OBJECT
 10
8597.0
 20
-755.0
 30
0.0
 11
8593.0
 21
-750.49999999999989
 31
0.0
1001
ACDBBLOCKREPETAG
1070
     1
1071
       56
1005
12874B
  0
LINE
  5
12874C
  8
OBJECT
 10
8583.0
 20
-634.0
 30
0.0
 11
8580.0
 21
-634.0
 31
0.0
1001
ACDBBLOCKREPETAG
1070
     1
1071
       57
1005
12874C
  0
ARC
  5
12874D
  8
OBJECT
 10
8583.0
 20
-637.0
 30
0.0
 40
3.0
 50
0.0
 51
90.0
1001
ACDBBLOCKREPETAG
1070
     1
1071
       58
1005
12874D
  0
LINE
  5
12874E
  8
OBJECT
 10
8580.0
 20
-758.0
 30
0.0
 11
8583.0
 21
-758.0
 31
0.0
1001
ACDBBLOCKREPETAG
1070
     1
1071
       59
1005
12874E
  0
ARC
  5
12874F
  8
OBJECT
 10
8583.0
 20
-755.0
 30
0.0
 40
3.0
 50
270.0
 51
0.0
1001
ACDBBLOCKREPETAG
1070
     1
1071
       60
1005
12874F
  0
LINE
  5
128750
  8
OBJECT
 10
8586.0
 20
-755.0
 30
0.0
 11
8586.0
 21
-637.0
 31
0.0
1001
ACDBBLOCKREPETAG
1070
     1
1071
       61
1005
128750
  0
LINE
  5
128751
  8
HIDDEN
 10
8588.0
 20
-651.5
 30
0.0
 11
8588.0
 21
-740.5
 31
0.0
1001
ACDBBLOCKREPETAG
1070
     1
1071
       63
1005
128751
  0
LINE
  5
128752
  8
OBJECT
 10
6423.0
 20
-570.99999999999432
 30
0.0
 11
6423.0
 21
-549.99999999999432
 31
0.0
1001
ACDBBLOCKREPETAG
1070
     1
1071
        0
1005
128752
  0
LINE
  5
128753
  8
OBJECT
 10
6423.0
 20
-549.99999999999432
 30
0.0
 11
6577.0
 21
-549.99999999999432
 31
0.0
1001
ACDBBLOCKREPETAG
1070
     1
1071
        1
1005
128753
  0
LINE
  5
128754
  8
HIDDEN
 10
6443.0
 20
-619.99999999999432
 30
0.0
 11
6557.0
 21
-619.99999999999432
 31
0.0
1001
ACDBBLOCKREPETAG
1070
     1
1071
        2
1005
128754
  0
LINE
  5
128755
  8
OBJECT
 10
6577.0
 20
-549.99999999999432
 30
0.0
 11
6577.0
 21
-570.99999999999432
 31
0.0
1001
ACDBBLOCKREPETAG
1070
     1
1071
        3
1005
128755
  0
LINE
  5
128756
  8
OBJECT
 10
6577.0
 20
-570.99999999999432
 30
0.0
 11
6423.0
 21
-570.99999999999432
 31
0.0
1001
ACDBBLOCKREPETAG
1070
     1
1071
        4
1005
128756
  0
LINE
  5
128757
  8
CENTER
 10
6500.0
 20
-534.99999999999432
 30
0.0
 11
6500.0
 21
-769.9999999999942
 31
0.0
1001
ACDBBLOCKREPETAG
1070
     1
1071
        5
1005
128757
  0
LINE
  5
128758
  8
OBJECT
 10
6425.0
 20
-633.99999999999432
 30
0.0
 11
6425.0
 21
-757.9999999999942
 31
0.0
1001
ACDBBLOCKREPETAG
1070
     1
1071
        6
1005
128758
  0
LINE
  5
128759
  8
OBJECT
 10
6428.0
 20
-570.99999999999432
 30
0.0
 11
6428.0
 21
-633.99999999999432
 31
0.0
1001
ACDBBLOCKREPETAG
1070
     1
1071
        7
1005
128759
  0
LINE
  5
12875A
  8
OBJECT
 10
6572.0
 20
-633.99999999999432
 30
0.0
 11
6572.0
 21
-570.99999999999432
 31
0.0
1001
ACDBBLOCKREPETAG
1070
     1
1071
        8
1005
12875A
  0
LINE
  5
12875B
  8
OBJECT
 10
6420.0
 20
-757.9999999999942
 30
0.0
 11
6580.0
 21
-757.9999999999942
 31
0.0
1001
ACDBBLOCKREPETAG
1070
     1
1071
        9
1005
12875B
  0
LINE
  5
12875C
  8
OBJECT
 10
6580.0
 20
-633.99999999999432
 30
0.0
 11
6425.0
 21
-633.99999999999432
 31
0.0
1001
ACDBBLOCKREPETAG
1070
     1
1071
       10
1005
12875C
  0
LINE
  5
12875D
  8
OBJECT
 10
6420.0
 20
-757.9999999999942
 30
0.0
 11
6420.0
 21
-769.9999999999942
 31
0.0
1001
ACDBBLOCKREPETAG
1070
     1
1071
       11
1005
12875D
  0
LINE
  5
12875E
  8
OBJECT
 10
6420.0
 20
-769.9999999999942
 30
0.0
 11
6580.0
 21
-769.9999999999942
 31
0.0
1001
ACDBBLOCKREPETAG
1070
     1
1071
       12
1005
12875E
  0
LINE
  5
12875F
  8
OBJECT
 10
6580.0
 20
-769.9999999999942
 30
0.0
 11
6580.0
 21
-757.9999999999942
 31
0.0
1001
ACDBBLOCKREPETAG
1070
     1
1071
       13
1005
12875F
  0
ARC
  5
128760
  8
OBJECT
 10
6700.6872746716717
 20
-749.40809941010195
 30
0.0
 40
170.6350503965856
 50
137.44134459184301
 51
149.91949581337221
1001
ACDBBLOCKREPETAG
1070
     1
1071
       15
1005
128760
  0
ARC
  5
128761
  8
OBJECT
 10
6618.8455987040506
 20
-705.88272669535922
 30
0.0
 40
78.072222021763665
 50
147.4551531037684
 51
164.66365997718671
1001
ACDBBLOCKREPETAG
1070
     1
1071
       16
1005
128761
  0
ARC
  5
128762
  8
OBJECT
 10
6585.7554349608727
 20
-695.99999999999432
 30
0.0
 40
43.55353926885617
 50
165.6884523008477
 51
194.3115476991523
1001
ACDBBLOCKREPETAG
1070
     1
1071
       17
1005
128762
  0
ARC
  5
128763
  8
OBJECT
 10
6700.6872746716717
 20
-642.59190058988645
 30
0.0
 40
170.6350503965856
 50
210.08050418662771
 51
222.55865540815699
1001
ACDBBLOCKREPETAG
1070
     1
1071
       18
1005
128763
  0
ARC
  5
128764
  8
OBJECT
 10
6618.8455987040506
 20
-686.11727330462952
 30
0.0
 40
78.072222021763665
 50
195.3363400228132
 51
212.5448468962316
1001
ACDBBLOCKREPETAG
1070
     1
1071
       19
1005
128764
  0
LINE
  5
128765
  8
OBJECT
 10
6633.0
 20
-634.0
 30
0.0
 11
6640.0
 21
-634.0
 31
0.0
1001
ACDBBLOCKREPETAG
1070
     1
1071
       45
1005
128765
  0
LINE
  5
128766
  8
OBJECT
 10
6640.0
 20
-634.0
 30
0.0
 11
6640.0
 21
-755.0
 31
0.0
1001
ACDBBLOCKREPETAG
1070
     1
1071
       46
1005
128766
  0
LINE
  5
128767
  8
OBJECT
 10
6633.0
 20
-755.0
 30
0.0
 11
6633.0
 21
-634.0
 31
0.0
1001
ACDBBLOCKREPETAG
1070
     1
1071
       47
1005
128767
  0
LINE
  5
128768
  8
CENTER
 10
6655.0
 20
-696.0
 30
0.0
 11
6571.0
 21
-696.0
 31
0.0
1001
ACDBBLOCKREPETAG
1070
     1
1071
       48
1005
128768
  0
LINE
  5
128769
  8
OBJECT
 10
6633.0
 20
-637.0
 30
0.0
 11
6597.0
 21
-637.0
 31
0.0
1001
ACDBBLOCKREPETAG
1070
     1
1071
       49
1005
128769
  0
LINE
  5
12876A
  8
OBJECT
 10
6597.0
 20
-637.0
 30
0.0
 11
6597.0
 21
-755.0
 31
0.0
1001
ACDBBLOCKREPETAG
1070
     1
1071
       50
1005
12876A
  0
LINE
  5
12876B
  8
OBJECT
 10
6597.0
 20
-755.0
 30
0.0
 11
6640.0
 21
-755.0
 31
0.0
1001
ACDBBLOCKREPETAG
1070
     1
1071
       51
1005
12876B
  0
LINE
  5
12876C
  8
OBJECT
 10
6593.0
 20
-641.5
 30
0.0
 11
6586.0
 21
-641.5
 31
0.0
1001
ACDBBLOCKREPETAG
1070
     1
1071
       52
1005
12876C
  0
LINE
  5
12876D
  8
OBJECT
 10
6586.0
 20
-750.49999999999989
 30
0.0
 11
6593.0
 21
-750.49999999999989
 31
0.0
1001
ACDBBLOCKREPETAG
1070
     1
1071
       53
1005
12876D
  0
LINE
  5
12876E
  8
OBJECT
 10
6593.0
 20
-750.49999999999989
 30
0.0
 11
6593.0
 21
-641.5
 31
0.0
1001
ACDBBLOCKREPETAG
1070
     1
1071
       54
1005
12876E
  0
LINE
  5
12876F
  8
OBJECT
 10
6597.0
 20
-637.0
 30
0.0
 11
6593.0
 21
-641.5
 31
0.0
1001
ACDBBLOCKREPETAG
1070
     1
1071
       55
1005
12876F
  0
LINE
  5
128770
  8
OBJECT
 10
6597.0
 20
-755.0
 30
0.0
 11
6593.0
 21
-750.49999999999989
 31
0.0
1001
ACDBBLOCKREPETAG
1070
     1
1071
       56
1005
128770
  0
LINE
  5
128771
  8
OBJECT
 10
6583.0
 20
-634.0
 30
0.0
 11
6580.0
 21
-634.0
 31
0.0
1001
ACDBBLOCKREPETAG
1070
     1
1071
       57
1005
128771
  0
ARC
  5
128772
  8
OBJECT
 10
6583.0
 20
-637.0
 30
0.0
 40
3.0
 50
0.0
 51
90.0
1001
ACDBBLOCKREPETAG
1070
     1
1071
       58
1005
128772
  0
LINE
  5
128773
  8
OBJECT
 10
6580.0
 20
-758.0
 30
0.0
 11
6583.0
 21
-758.0
 31
0.0
1001
ACDBBLOCKREPETAG
1070
     1
1071
       59
1005
128773
  0
ARC
  5
128774
  8
OBJECT
 10
6583.0
 20
-755.0
 30
0.0
 40
3.0
 50
270.0
 51
0.0
1001
ACDBBLOCKREPETAG
1070
     1
1071
       60
1005
128774
  0
LINE
  5
128775
  8
OBJECT
 10
6586.0
 20
-755.0
 30
0.0
 11
6586.0
 21
-637.0
 31
0.0
1001
ACDBBLOCKREPETAG
1070
     1
1071
       61
1005
128775
  0
LINE
  5
128776
  8
HIDDEN
 10
6588.0
 20
-651.5
 30
0.0
 11
6588.0
 21
-740.5
 31
0.0
1001
ACDBBLOCKREPETAG
1070
     1
1071
       63
1005
128776
  0
LINE
  5
128777
  8
OBJECT
 10
4423.0
 20
-570.99999999999432
 30
0.0
 11
4423.0
 21
-549.99999999999432
 31
0.0
1001
ACDBBLOCKREPETAG
1070
     1
1071
        0
1005
128777
  0
LINE
  5
128778
  8
OBJECT
 10
4423.0
 20
-549.99999999999432
 30
0.0
 11
4577.0
 21
-549.99999999999432
 31
0.0
1001
ACDBBLOCKREPETAG
1070
     1
1071
        1
1005
128778
  0
LINE
  5
128779
  8
HIDDEN
 10
4443.0
 20
-619.99999999999432
 30
0.0
 11
4557.0
 21
-619.99999999999432
 31
0.0
1001
ACDBBLOCKREPETAG
1070
     1
1071
        2
1005
128779
  0
LINE
  5
12877A
  8
OBJECT
 10
4577.0
 20
-549.99999999999432
 30
0.0
 11
4577.0
 21
-570.99999999999432
 31
0.0
1001
ACDBBLOCKREPETAG
1070
     1
1071
        3
1005
12877A
  0
LINE
  5
12877B
  8
OBJECT
 10
4577.0
 20
-570.99999999999432
 30
0.0
 11
4423.0
 21
-570.99999999999432
 31
0.0
1001
ACDBBLOCKREPETAG
1070
     1
1071
        4
1005
12877B
  0
LINE
  5
12877C
  8
CENTER
 10
4500.0
 20
-534.99999999999432
 30
0.0
 11
4500.0
 21
-769.9999999999942
 31
0.0
1001
ACDBBLOCKREPETAG
1070
     1
1071
        5
1005
12877C
  0
LINE
  5
12877D
  8
OBJECT
 10
4425.0
 20
-633.99999999999432
 30
0.0
 11
4425.0
 21
-757.9999999999942
 31
0.0
1001
ACDBBLOCKREPETAG
1070
     1
1071
        6
1005
12877D
  0
LINE
  5
12877E
  8
OBJECT
 10
4428.0
 20
-570.99999999999432
 30
0.0
 11
4428.0
 21
-633.99999999999432
 31
0.0
1001
ACDBBLOCKREPETAG
1070
     1
1071
        7
1005
12877E
  0
LINE
  5
12877F
  8
OBJECT
 10
4572.0
 20
-633.99999999999432
 30
0.0
 11
4572.0
 21
-570.99999999999432
 31
0.0
1001
ACDBBLOCKREPETAG
1070
     1
1071
        8
1005
12877F
  0
LINE
  5
128780
  8
OBJECT
 10
4420.0
 20
-757.9999999999942
 30
0.0
 11
4580.0
 21
-757.9999999999942
 31
0.0
1001
ACDBBLOCKREPETAG
1070
     1
1071
        9
1005
128780
  0
LINE
  5
128781
  8
OBJECT
 10
4580.0
 20
-633.99999999999432
 30
0.0
 11
4425.0
 21
-633.99999999999432
 31
0.0
1001
ACDBBLOCKREPETAG
1070
     1
1071
       10
1005
128781
  0
LINE
  5
128782
  8
OBJECT
 10
4420.0
 20
-757.9999999999942
 30
0.0
 11
4420.0
 21
-769.9999999999942
 31
0.0
1001
ACDBBLOCKREPETAG
1070
     1
1071
       11
1005
128782
  0
LINE
  5
128783
  8
OBJECT
 10
4420.0
 20
-769.9999999999942
 30
0.0
 11
4580.0
 21
-769.9999999999942
 31
0.0
1001
ACDBBLOCKREPETAG
1070
     1
1071
       12
1005
128783
  0
LINE
  5
128784
  8
OBJECT
 10
4580.0
 20
-769.9999999999942
 30
0.0
 11
4580.0
 21
-757.9999999999942
 31
0.0
1001
ACDBBLOCKREPETAG
1070
     1
1071
       13
1005
128784
  0
ARC
  5
128785
  8
OBJECT
 10
4700.6872746716726
 20
-749.40809941010195
 30
0.0
 40
170.6350503965856
 50
137.44134459184301
 51
149.91949581337221
1001
ACDBBLOCKREPETAG
1070
     1
1071
       15
1005
128785
  0
ARC
  5
128786
  8
OBJECT
 10
4618.8455987040506
 20
-705.88272669535922
 30
0.0
 40
78.072222021763665
 50
147.4551531037684
 51
164.66365997718671
1001
ACDBBLOCKREPETAG
1070
     1
1071
       16
1005
128786
  0
ARC
  5
128787
  8
OBJECT
 10
4585.7554349608718
 20
-695.99999999999432
 30
0.0
 40
43.55353926885617
 50
165.6884523008477
 51
194.3115476991523
1001
ACDBBLOCKREPETAG
1070
     1
1071
       17
1005
128787
  0
ARC
  5
128788
  8
OBJECT
 10
4700.6872746716726
 20
-642.59190058988645
 30
0.0
 40
170.6350503965856
 50
210.08050418662771
 51
222.55865540815699
1001
ACDBBLOCKREPETAG
1070
     1
1071
       18
1005
128788
  0
ARC
  5
128789
  8
OBJECT
 10
4618.8455987040506
 20
-686.11727330462952
 30
0.0
 40
78.072222021763665
 50
195.3363400228132
 51
212.5448468962316
1001
ACDBBLOCKREPETAG
1070
     1
1071
       19
1005
128789
  0
LINE
  5
12878A
  8
OBJECT
 10
4633.0
 20
-634.0
 30
0.0
 11
4640.0
 21
-634.0
 31
0.0
1001
ACDBBLOCKREPETAG
1070
     1
1071
       45
1005
12878A
  0
LINE
  5
12878B
  8
OBJECT
 10
4640.0
 20
-634.0
 30
0.0
 11
4640.0
 21
-755.0
 31
0.0
1001
ACDBBLOCKREPETAG
1070
     1
1071
       46
1005
12878B
  0
LINE
  5
12878C
  8
OBJECT
 10
4633.0
 20
-755.0
 30
0.0
 11
4633.0
 21
-634.0
 31
0.0
1001
ACDBBLOCKREPETAG
1070
     1
1071
       47
1005
12878C
  0
LINE
  5
12878D
  8
CENTER
 10
4655.0
 20
-696.0
 30
0.0
 11
4571.0
 21
-696.0
 31
0.0
1001
ACDBBLOCKREPETAG
1070
     1
1071
       48
1005
12878D
  0
LINE
  5
12878E
  8
OBJECT
 10
4633.0
 20
-637.0
 30
0.0
 11
4597.0
 21
-637.0
 31
0.0
1001
ACDBBLOCKREPETAG
1070
     1
1071
       49
1005
12878E
  0
LINE
  5
12878F
  8
OBJECT
 10
4597.0
 20
-637.0
 30
0.0
 11
4597.0
 21
-755.0
 31
0.0
1001
ACDBBLOCKREPETAG
1070
     1
1071
       50
1005
12878F
  0
LINE
  5
128790
  8
OBJECT
 10
4597.0
 20
-755.0
 30
0.0
 11
4640.0
 21
-755.0
 31
0.0
1001
ACDBBLOCKREPETAG
1070
     1
1071
       51
1005
128790
  0
LINE
  5
128791
  8
OBJECT
 10
4593.0
 20
-641.5
 30
0.0
 11
4586.0
 21
-641.5
 31
0.0
1001
ACDBBLOCKREPETAG
1070
     1
1071
       52
1005
128791
  0
LINE
  5
128792
  8
OBJECT
 10
4586.0
 20
-750.49999999999989
 30
0.0
 11
4593.0
 21
-750.49999999999989
 31
0.0
1001
ACDBBLOCKREPETAG
1070
     1
1071
       53
1005
128792
  0
LINE
  5
128793
  8
OBJECT
 10
4593.0
 20
-750.49999999999989
 30
0.0
 11
4593.0
 21
-641.5
 31
0.0
1001
ACDBBLOCKREPETAG
1070
     1
1071
       54
1005
128793
  0
LINE
  5
128794
  8
OBJECT
 10
4597.0
 20
-637.0
 30
0.0
 11
4593.0
 21
-641.5
 31
0.0
1001
ACDBBLOCKREPETAG
1070
     1
1071
       55
1005
128794
  0
LINE
  5
128795
  8
OBJECT
 10
4597.0
 20
-755.0
 30
0.0
 11
4593.0
 21
-750.49999999999989
 31
0.0
1001
ACDBBLOCKREPETAG
1070
     1
1071
       56
1005
128795
  0
LINE
  5
128796
  8
OBJECT
 10
4583.0
 20
-634.0
 30
0.0
 11
4580.0
 21
-634.0
 31
0.0
1001
ACDBBLOCKREPETAG
1070
     1
1071
       57
1005
128796
  0
ARC
  5
128797
  8
OBJECT
 10
4583.0
 20
-637.0
 30
0.0
 40
3.0
 50
0.0
 51
90.0
1001
ACDBBLOCKREPETAG
1070
     1
1071
       58
1005
128797
  0
LINE
  5
128798
  8
OBJECT
 10
4580.0
 20
-758.0
 30
0.0
 11
4583.0
 21
-758.0
 31
0.0
1001
ACDBBLOCKREPETAG
1070
     1
1071
       59
1005
128798
  0
ARC
  5
128799
  8
OBJECT
 10
4583.0
 20
-755.0
 30
0.0
 40
3.0
 50
270.0
 51
0.0
1001
ACDBBLOCKREPETAG
1070
     1
1071
       60
1005
128799
  0
LINE
  5
12879A
  8
OBJECT
 10
4586.0
 20
-755.0
 30
0.0
 11
4586.0
 21
-637.0
 31
0.0
1001
ACDBBLOCKREPETAG
1070
     1
1071
       61
1005
12879A
  0
LINE
  5
12879B
  8
HIDDEN
 10
4588.0
 20
-651.5
 30
0.0
 11
4588.0
 21
-740.5
 31
0.0
1001
ACDBBLOCKREPETAG
1070
     1
1071
       63
1005
12879B
  0
LINE
  5
12879C
  8
SLIM
 10
10414.999999999991
 20
-1032.2369265471771
 30
0.0
 11
10431.23692654717
 21
-1016.0
 31
0.0
1001
ACAD
1010
0.0
1020
0.0
1030
0.0
  0
LINE
  5
12879D
  8
SLIM
 10
10414.999999999991
 20
-1050.197438789314
 30
0.0
 11
10449.19743878931
 21
-1016.0
 31
0.0
1001
ACAD
1010
0.0
1020
0.0
1030
0.0
  0
LINE
  5
12879E
  8
SLIM
 10
10414.999999999991
 20
-1068.15795103145
 30
0.0
 11
10467.15795103144
 21
-1016.0
 31
0.0
1001
ACAD
1010
0.0
1020
0.0
1030
0.0
  0
LINE
  5
12879F
  8
SLIM
 10
10414.999999999991
 20
-1086.1184632735881
 30
0.0
 11
10485.11846327358
 21
-1016.0
 31
0.0
1001
ACAD
1010
0.0
1020
0.0
1030
0.0
  0
LINE
  5
1287A0
  8
SLIM
 10
10415.0
 20
-1104.0789755157259
 30
0.0
 11
10503.07897551572
 21
-1016.0
 31
0.0
1001
ACAD
1010
0.0
1020
0.0
1030
0.0
  0
LINE
  5
1287A1
  8
SLIM
 10
10415.0
 20
-1122.0394877578631
 30
0.0
 11
10521.03948775786
 21
-1016.0
 31
0.0
1001
ACAD
1010
0.0
1020
0.0
1030
0.0
  0
LINE
  5
1287A2
  8
SLIM
 10
10415.283600749561
 20
-1139.716399250442
 30
0.0
 11
10539.0
 21
-1016.0
 31
0.0
1001
ACAD
1010
0.0
1020
0.0
1030
0.0
  0
LINE
  5
1287A3
  8
SLIM
 10
10417.49791047804
 20
-1155.4626017640981
 30
0.0
 11
10556.96051224214
 21
-1016.0
 31
0.0
1001
ACAD
1010
0.0
1020
0.0
1030
0.0
  0
LINE
  5
1287A4
  8
SLIM
 10
10419.71222020652
 20
-1171.208804277753
 30
0.0
 11
10574.921024484271
 21
-1016.0
 31
0.0
1001
ACAD
1010
0.0
1020
0.0
1030
0.0
  0
LINE
  5
1287A5
  8
SLIM
 10
10421.926529935001
 20
-1186.9550067914081
 30
0.0
 11
10585.000000000009
 21
-1023.8815367264079
 31
0.0
1001
ACAD
1010
0.0
1020
0.0
1030
0.0
  0
LINE
  5
1287A6
  8
SLIM
 10
10424.140839663491
 20
-1202.7012093050639
 30
0.0
 11
10585.0
 21
-1041.8420489685479
 31
0.0
1001
ACAD
1010
0.0
1020
0.0
1030
0.0
  0
LINE
  5
1287A7
  8
SLIM
 10
10426.355149391969
 20
-1218.447411818719
 30
0.0
 11
10585.0
 21
-1059.802561210686
 31
0.0
1001
ACAD
1010
0.0
1020
0.0
1030
0.0
  0
LINE
  5
1287A8
  8
SLIM
 10
10428.56945912045
 20
-1234.193614332374
 30
0.0
 11
10585.0
 21
-1077.7630734528259
 31
0.0
1001
ACAD
1010
0.0
1020
0.0
1030
0.0
  0
LINE
  5
1287A9
  8
SLIM
 10
10430.78376884894
 20
-1249.93981684603
 30
0.0
 11
10585.0
 21
-1095.723585694966
 31
0.0
1001
ACAD
1010
0.0
1020
0.0
1030
0.0
  0
LINE
  5
1287AA
  8
SLIM
 10
10432.998078577421
 20
-1265.6860193596849
 30
0.0
 11
10585.0
 21
-1113.684097937105
 31
0.0
1001
ACAD
1010
0.0
1020
0.0
1030
0.0
  0
LINE
  5
1287AB
  8
SLIM
 10
10432.999999999991
 20
-1283.6446101792519
 30
0.0
 11
10585.0
 21
-1131.6446101792451
 31
0.0
1001
ACAD
1010
0.0
1020
0.0
1030
0.0
  0
LINE
  5
1287AC
  8
SLIM
 10
10432.999999999991
 20
-1301.60512242139
 30
0.0
 11
10583.05183715436
 21
-1151.553285267016
 31
0.0
1001
ACAD
1010
0.0
1020
0.0
1030
0.0
  0
LINE
  5
1287AD
  8
SLIM
 10
10446.565634663521
 20
-1305.999999999997
 30
0.0
 11
10580.112844242019
 21
-1172.452790421504
 31
0.0
1001
ACAD
1010
0.0
1020
0.0
1030
0.0
  0
LINE
  5
1287AE
  8
SLIM
 10
10464.52614690566
 20
-1305.999999999998
 30
0.0
 11
10577.17385132967
 21
-1193.352295575992
 31
0.0
1001
ACAD
1010
0.0
1020
0.0
1030
0.0
  0
LINE
  5
1287AF
  8
SLIM
 10
10482.4866591478
 20
-1305.999999999998
 30
0.0
 11
10574.23485841732
 21
-1214.2518007304791
 31
0.0
1001
ACAD
1010
0.0
1020
0.0
1030
0.0
  0
LINE
  5
1287B0
  8
SLIM
 10
10500.44717138994
 20
-1305.999999999998
 30
0.0
 11
10571.29586550497
 21
-1235.1513058849671
 31
0.0
1001
ACAD
1010
0.0
1020
0.0
1030
0.0
  0
LINE
  5
1287B1
  8
SLIM
 10
10518.40768363206
 20
-1305.9999999999991
 30
0.0
 11
10568.35687259262
 21
-1256.0508110394539
 31
0.0
1001
ACAD
1010
0.0
1020
0.0
1030
0.0
  0
LINE
  5
1287B2
  8
SLIM
 10
10536.368195874211
 20
-1305.9999999999991
 30
0.0
 11
10567.000000000009
 21
-1275.368195874202
 31
0.0
1001
ACAD
1010
0.0
1020
0.0
1030
0.0
  0
LINE
  5
1287B3
  8
SLIM
 10
10554.328708116351
 20
-1306.0
 30
0.0
 11
10567.000000000009
 21
-1293.328708116341
 31
0.0
1001
ACAD
1010
0.0
1020
0.0
1030
0.0
  0
LINE
  5
1287B4
  8
OBJECT
 10
10432.999999999991
 20
-1305.999999999997
 30
0.0
 11
10567.000000000009
 21
-1306.0
 31
0.0
1001
ACDBBLOCKREPETAG
1070
     1
1071
        1
1005
1287B4
  0
LINE
  5
1287B5
  8
OBJECT
 10
10414.999999999991
 20
-1016.0
 30
0.0
 11
10415.0
 21
-1137.6996828091419
 31
0.0
1001
ACDBBLOCKREPETAG
1070
     1
1071
        2
1005
1287B5
  0
LINE
  5
1287B6
  8
OBJECT
 10
10585.000000000009
 20
-1016.0
 30
0.0
 11
10585.0
 21
-1137.6996828091731
 31
0.0
1001
ACDBBLOCKREPETAG
1070
     1
1071
        3
1005
1287B6
  0
LINE
  5
1287B7
  8
OBJECT
 10
10415.0
 20
-1137.6996828091419
 30
0.0
 11
10432.999999999991
 21
-1265.6996828090821
 31
0.0
1001
ACDBBLOCKREPETAG
1070
     1
1071
        4
1005
1287B7
  0
LINE
  5
1287B8
  8
OBJECT
 10
10567.000000000009
 20
-1265.6996828091289
 30
0.0
 11
10585.0
 21
-1137.6996828091731
 31
0.0
1001
ACDBBLOCKREPETAG
1070
     1
1071
        5
1005
1287B8
  0
LINE
  5
1287B9
  8
OBJECT
 10
10585.000000000009
 20
-1016.0
 30
0.0
 11
10414.999999999991
 21
-1016.0
 31
0.0
1001
ACDBBLOCKREPETAG
1070
     1
1071
        6
1005
1287B9
  0
LINE
  5
1287BA
  8
OBJECT
 10
10432.999999999991
 20
-1265.6996828090821
 30
0.0
 11
10432.999999999991
 21
-1305.999999999997
 31
0.0
1001
ACDBBLOCKREPETAG
1070
     1
1071
        8
1005
1287BA
  0
LINE
  5
1287BB
  8
OBJECT
 10
10567.000000000009
 20
-1265.6996828091289
 30
0.0
 11
10567.000000000009
 21
-1306.0
 31
0.0
1001
ACDBBLOCKREPETAG
1070
     1
1071
        9
1005
1287BB
  0
LINE
  5
1287BC
  8
SLIM
 10
8414.9999999999909
 20
-1032.2369265471759
 30
0.0
 11
8431.2369265471698
 21
-1015.999999999999
 31
0.0
1001
GRADIENTCOLOR1ACI
1070
     5
1001
GRADIENTCOLOR2ACI
1070
     2
1001
ACAD
1010
0.0
1020
0.0
1030
0.0
  0
LINE
  5
1287BD
  8
SLIM
 10
8414.9999999999945
 20
-1050.1974387893131
 30
0.0
 11
8449.1974387893097
 21
-1015.999999999999
 31
0.0
1001
GRADIENTCOLOR1ACI
1070
     5
1001
GRADIENTCOLOR2ACI
1070
     2
1001
ACAD
1010
0.0
1020
0.0
1030
0.0
  0
LINE
  5
1287BE
  8
SLIM
 10
8414.9999999999964
 20
-1068.15795103145
 30
0.0
 11
8467.1579510314441
 21
-1015.999999999999
 31
0.0
1001
GRADIENTCOLOR1ACI
1070
     5
1001
GRADIENTCOLOR2ACI
1070
     2
1001
ACAD
1010
0.0
1020
0.0
1030
0.0
  0
LINE
  5
1287BF
  8
SLIM
 10
8414.9999999999964
 20
-1086.1184632735881
 30
0.0
 11
8485.1184632735858
 21
-1015.999999999999
 31
0.0
1001
GRADIENTCOLOR1ACI
1070
     5
1001
GRADIENTCOLOR2ACI
1070
     2
1001
ACAD
1010
0.0
1020
0.0
1030
0.0
  0
LINE
  5
1287C0
  8
SLIM
 10
8414.9999999999964
 20
-1104.078975515725
 30
0.0
 11
8503.0789755157257
 21
-1015.999999999999
 31
0.0
1001
GRADIENTCOLOR1ACI
1070
     5
1001
GRADIENTCOLOR2ACI
1070
     2
1001
ACAD
1010
0.0
1020
0.0
1030
0.0
  0
LINE
  5
1287C1
  8
SLIM
 10
8414.9999999999964
 20
-1122.0394877578619
 30
0.0
 11
8521.0394877578619
 21
-1015.999999999999
 31
0.0
1001
GRADIENTCOLOR1ACI
1070
     5
1001
GRADIENTCOLOR2ACI
1070
     2
1001
ACAD
1010
0.0
1020
0.0
1030
0.0
  0
LINE
  5
1287C2
  8
SLIM
 10
8415.2836007495571
 20
-1139.7163992504411
 30
0.0
 11
8539.0
 21
-1015.999999999999
 31
0.0
1001
GRADIENTCOLOR1ACI
1070
     5
1001
GRADIENTCOLOR2ACI
1070
     2
1001
ACAD
1010
0.0
1020
0.0
1030
0.0
  0
LINE
  5
1287C3
  8
SLIM
 10
8417.4979104780377
 20
-1155.462601764096
 30
0.0
 11
8556.9605122421381
 21
-1015.999999999999
 31
0.0
1001
GRADIENTCOLOR1ACI
1070
     5
1001
GRADIENTCOLOR2ACI
1070
     2
1001
ACAD
1010
0.0
1020
0.0
1030
0.0
  0
LINE
  5
1287C4
  8
SLIM
 10
8419.7122202065257
 20
-1171.208804277753
 30
0.0
 11
8574.9210244842725
 21
-1015.999999999999
 31
0.0
1001
GRADIENTCOLOR1ACI
1070
     5
1001
GRADIENTCOLOR2ACI
1070
     2
1001
ACAD
1010
0.0
1020
0.0
1030
0.0
  0
LINE
  5
1287C5
  8
SLIM
 10
8421.9265299350063
 20
-1186.955006791409
 30
0.0
 11
8585.0000000000055
 21
-1023.8815367264079
 31
0.0
1001
GRADIENTCOLOR1ACI
1070
     5
1001
GRADIENTCOLOR2ACI
1070
     2
1001
ACAD
1010
0.0
1020
0.0
1030
0.0
  0
LINE
  5
1287C6
  8
SLIM
 10
8424.1408396634924
 20
-1202.7012093050639
 30
0.0
 11
8585.0000000000055
 21
-1041.842048968547
 31
0.0
1001
GRADIENTCOLOR1ACI
1070
     5
1001
GRADIENTCOLOR2ACI
1070
     2
1001
ACAD
1010
0.0
1020
0.0
1030
0.0
  0
LINE
  5
1287C7
  8
SLIM
 10
8426.3551493919713
 20
-1218.44741181872
 30
0.0
 11
8585.0000000000055
 21
-1059.802561210686
 31
0.0
1001
GRADIENTCOLOR1ACI
1070
     5
1001
GRADIENTCOLOR2ACI
1070
     2
1001
ACAD
1010
0.0
1020
0.0
1030
0.0
  0
LINE
  5
1287C8
  8
SLIM
 10
8428.5694591204538
 20
-1234.193614332376
 30
0.0
 11
8585.0000000000018
 21
-1077.7630734528259
 31
0.0
1001
GRADIENTCOLOR1ACI
1070
     5
1001
GRADIENTCOLOR2ACI
1070
     2
1001
ACAD
1010
0.0
1020
0.0
1030
0.0
  0
LINE
  5
1287C9
  8
SLIM
 10
8430.7837688489362
 20
-1249.939816846032
 30
0.0
 11
8585.0000000000018
 21
-1095.7235856949651
 31
0.0
1001
GRADIENTCOLOR1ACI
1070
     5
1001
GRADIENTCOLOR2ACI
1070
     2
1001
ACAD
1010
0.0
1020
0.0
1030
0.0
  0
LINE
  5
1287CA
  8
SLIM
 10
8432.9980785774169
 20
-1265.686019359687
 30
0.0
 11
8585.0000000000018
 21
-1113.6840979371041
 31
0.0
1001
GRADIENTCOLOR1ACI
1070
     5
1001
GRADIENTCOLOR2ACI
1070
     2
1001
ACAD
1010
0.0
1020
0.0
1030
0.0
  0
LINE
  5
1287CB
  8
SLIM
 10
8443.0
 20
-1273.644610179244
 30
0.0
 11
8450.6446101792462
 21
-1266.0
 31
0.0
1001
GRADIENTCOLOR1ACI
1070
     5
1001
GRADIENTCOLOR2ACI
1070
     2
1001
ACAD
1010
0.0
1020
0.0
1030
0.0
  0
LINE
  5
1287CC
  8
SLIM
 10
8450.6446101792462
 20
-1266.0
 30
0.0
 11
8585.0
 21
-1131.644610179244
 31
0.0
1001
GRADIENTCOLOR1ACI
1070
     5
1001
GRADIENTCOLOR2ACI
1070
     2
1001
ACAD
1010
0.0
1020
0.0
1030
0.0
  0
LINE
  5
1287CD
  8
SLIM
 10
8444.6051224213843
 20
-1289.9999999999991
 30
0.0
 11
8468.6051224213825
 21
-1266.0
 31
0.0
1001
GRADIENTCOLOR1ACI
1070
     5
1001
GRADIENTCOLOR2ACI
1070
     2
1001
ACAD
1010
0.0
1020
0.0
1030
0.0
  0
LINE
  5
1287CE
  8
SLIM
 10
8468.6051224213825
 20
-1266.0
 30
0.0
 11
8583.0518371543658
 21
-1151.553285267016
 31
0.0
1001
GRADIENTCOLOR1ACI
1070
     5
1001
GRADIENTCOLOR2ACI
1070
     2
1001
ACAD
1010
0.0
1020
0.0
1030
0.0
  0
LINE
  5
1287CF
  8
SLIM
 10
8462.5656346635205
 20
-1289.9999999999991
 30
0.0
 11
8486.5656346635205
 21
-1266.0
 31
0.0
1001
GRADIENTCOLOR1ACI
1070
     5
1001
GRADIENTCOLOR2ACI
1070
     2
1001
ACAD
1010
0.0
1020
0.0
1030
0.0
  0
LINE
  5
1287D0
  8
SLIM
 10
8486.5656346635205
 20
-1266.0
 30
0.0
 11
8580.1128442420159
 21
-1172.4527904215049
 31
0.0
1001
GRADIENTCOLOR1ACI
1070
     5
1001
GRADIENTCOLOR2ACI
1070
     2
1001
ACAD
1010
0.0
1020
0.0
1030
0.0
  0
LINE
  5
1287D1
  8
SLIM
 10
8480.5261469056604
 20
-1289.9999999999991
 30
0.0
 11
8504.5261469056604
 21
-1266.0
 31
0.0
1001
GRADIENTCOLOR1ACI
1070
     5
1001
GRADIENTCOLOR2ACI
1070
     2
1001
ACAD
1010
0.0
1020
0.0
1030
0.0
  0
LINE
  5
1287D2
  8
SLIM
 10
8504.5261469056604
 20
-1266.0
 30
0.0
 11
8577.1738513296659
 21
-1193.352295575992
 31
0.0
1001
GRADIENTCOLOR1ACI
1070
     5
1001
GRADIENTCOLOR2ACI
1070
     2
1001
ACAD
1010
0.0
1020
0.0
1030
0.0
  0
LINE
  5
1287D3
  8
SLIM
 10
8498.4866591477985
 20
-1289.9999999999991
 30
0.0
 11
8522.4866591478003
 21
-1266.0
 31
0.0
1001
GRADIENTCOLOR1ACI
1070
     5
1001
GRADIENTCOLOR2ACI
1070
     2
1001
ACAD
1010
0.0
1020
0.0
1030
0.0
  0
LINE
  5
1287D4
  8
SLIM
 10
8522.4866591478003
 20
-1266.0
 30
0.0
 11
8574.234858417316
 21
-1214.2518007304809
 31
0.0
1001
GRADIENTCOLOR1ACI
1070
     5
1001
GRADIENTCOLOR2ACI
1070
     2
1001
ACAD
1010
0.0
1020
0.0
1030
0.0
  0
LINE
  5
1287D5
  8
SLIM
 10
8516.4471713899384
 20
-1289.9999999999991
 30
0.0
 11
8540.4471713899366
 21
-1266.0
 31
0.0
1001
GRADIENTCOLOR1ACI
1070
     5
1001
GRADIENTCOLOR2ACI
1070
     2
1001
ACAD
1010
0.0
1020
0.0
1030
0.0
  0
LINE
  5
1287D6
  8
SLIM
 10
8540.4471713899366
 20
-1266.0
 30
0.0
 11
8571.2958655049661
 21
-1235.1513058849689
 31
0.0
1001
GRADIENTCOLOR1ACI
1070
     5
1001
GRADIENTCOLOR2ACI
1070
     2
1001
ACAD
1010
0.0
1020
0.0
1030
0.0
  0
LINE
  5
1287D7
  8
SLIM
 10
8534.4076836320746
 20
-1289.9999999999991
 30
0.0
 11
8557.0
 21
-1267.4076836320739
 31
0.0
1001
GRADIENTCOLOR1ACI
1070
     5
1001
GRADIENTCOLOR2ACI
1070
     2
1001
ACAD
1010
0.0
1020
0.0
1030
0.0
  0
LINE
  5
1287D8
  8
SLIM
 10
8558.4076836320746
 20
-1266.0
 30
0.0
 11
8568.3568725926179
 21
-1256.0508110394569
 31
0.0
1001
GRADIENTCOLOR1ACI
1070
     5
1001
GRADIENTCOLOR2ACI
1070
     2
1001
ACAD
1010
0.0
1020
0.0
1030
0.0
  0
LINE
  5
1287D9
  8
SLIM
 10
8552.3681958742145
 20
-1289.9999999999991
 30
0.0
 11
8557.0
 21
-1285.368195874212
 31
0.0
1001
GRADIENTCOLOR1ACI
1070
     5
1001
GRADIENTCOLOR2ACI
1070
     2
1001
ACAD
1010
0.0
1020
0.0
1030
0.0
  0
LINE
  5
1287DA
  8
OBJECT
 10
8443.0
 20
-1289.9999999999991
 30
0.0
 11
8557.0
 21
-1289.9999999999991
 31
0.0
1001
ACDBBLOCKREPETAG
1070
     1
1071
        1
1005
0
  0
LINE
  5
1287DB
  8
OBJECT
 10
8433.0422321049627
 20
-1266.0
 30
0.0
 11
8566.9577678950409
 21
-1266.0
 31
0.0
1001
ACDBBLOCKREPETAG
1070
     1
1071
        2
1005
0
  0
LINE
  5
1287DC
  8
OBJECT
 10
8443.0
 20
-1289.9999999999991
 30
0.0
 11
8443.0
 21
-1266.0
 31
0.0
1001
ACDBBLOCKREPETAG
1070
     1
1071
        3
1005
0
  0
LINE
  5
1287DD
  8
OBJECT
 10
8557.0
 20
-1289.9999999999991
 30
0.0
 11
8557.0
 21
-1266.0
 31
0.0
1001
ACDBBLOCKREPETAG
1070
     1
1071
        4
1005
0
  0
LINE
  5
1287DE
  8
OBJECT
 10
8414.9999999999909
 20
-1015.999999999999
 30
0.0
 11
8415.0
 21
-1137.699682809143
 31
0.0
1001
ACDBBLOCKREPETAG
1070
     1
1071
        5
1005
0
  0
LINE
  5
1287DF
  8
OBJECT
 10
8585.0000000000055
 20
-1015.999999999999
 30
0.0
 11
8585.0
 21
-1137.6996828091719
 31
0.0
1001
ACDBBLOCKREPETAG
1070
     1
1071
        6
1005
0
  0
LINE
  5
1287E0
  8
OBJECT
 10
8415.0
 20
-1137.699682809143
 30
0.0
 11
8433.0422321049627
 21
-1266.0
 31
0.0
1001
ACDBBLOCKREPETAG
1070
     1
1071
        7
1005
0
  0
LINE
  5
1287E1
  8
OBJECT
 10
8566.9577678950409
 20
-1266.0
 30
0.0
 11
8585.0
 21
-1137.6996828091719
 31
0.0
1001
ACDBBLOCKREPETAG
1070
     1
1071
        8
1005
0
  0
LINE
  5
1287E2
  8
OBJECT
 10
8585.0000000000055
 20
-1015.999999999999
 30
0.0
 11
8414.9999999999909
 21
-1015.999999999999
 31
0.0
1001
ACDBBLOCKREPETAG
1070
     1
1071
        9
1005
0
  0
LINE
  5
1287E3
  8
SLIM
 10
12414.999999999991
 20
-1032.2369265471771
 30
0.0
 11
12431.23692654717
 21
-1016.0
 31
0.0
1001
ACAD
1010
0.0
1020
0.0
1030
0.0
  0
LINE
  5
1287E4
  8
SLIM
 10
12414.999999999991
 20
-1050.197438789314
 30
0.0
 11
12449.19743878931
 21
-1016.0
 31
0.0
1001
ACAD
1010
0.0
1020
0.0
1030
0.0
  0
LINE
  5
1287E5
  8
SLIM
 10
12414.999999999991
 20
-1068.15795103145
 30
0.0
 11
12467.15795103144
 21
-1016.0
 31
0.0
1001
ACAD
1010
0.0
1020
0.0
1030
0.0
  0
LINE
  5
1287E6
  8
SLIM
 10
12414.999999999991
 20
-1086.1184632735881
 30
0.0
 11
12485.11846327358
 21
-1016.0
 31
0.0
1001
ACAD
1010
0.0
1020
0.0
1030
0.0
  0
LINE
  5
1287E7
  8
SLIM
 10
12415.0
 20
-1104.0789755157259
 30
0.0
 11
12503.07897551572
 21
-1016.0
 31
0.0
1001
ACAD
1010
0.0
1020
0.0
1030
0.0
  0
LINE
  5
1287E8
  8
SLIM
 10
12415.0
 20
-1122.0394877578631
 30
0.0
 11
12521.03948775786
 21
-1016.0
 31
0.0
1001
ACAD
1010
0.0
1020
0.0
1030
0.0
  0
LINE
  5
1287E9
  8
SLIM
 10
12415.283600749561
 20
-1139.716399250442
 30
0.0
 11
12539.0
 21
-1016.0
 31
0.0
1001
ACAD
1010
0.0
1020
0.0
1030
0.0
  0
LINE
  5
1287EA
  8
SLIM
 10
12417.49791047804
 20
-1155.4626017640981
 30
0.0
 11
12556.96051224214
 21
-1016.0
 31
0.0
1001
ACAD
1010
0.0
1020
0.0
1030
0.0
  0
LINE
  5
1287EB
  8
SLIM
 10
12419.71222020652
 20
-1171.208804277753
 30
0.0
 11
12574.921024484271
 21
-1016.0
 31
0.0
1001
ACAD
1010
0.0
1020
0.0
1030
0.0
  0
LINE
  5
1287EC
  8
SLIM
 10
12421.92652993501
 20
-1186.9550067914081
 30
0.0
 11
12585.000000000009
 21
-1023.8815367264079
 31
0.0
1001
ACAD
1010
0.0
1020
0.0
1030
0.0
  0
LINE
  5
1287ED
  8
SLIM
 10
12424.140839663491
 20
-1202.7012093050639
 30
0.0
 11
12585.0
 21
-1041.8420489685479
 31
0.0
1001
ACAD
1010
0.0
1020
0.0
1030
0.0
  0
LINE
  5
1287EE
  8
SLIM
 10
12426.35514939196
 20
-1218.447411818719
 30
0.0
 11
12585.0
 21
-1059.802561210686
 31
0.0
1001
ACAD
1010
0.0
1020
0.0
1030
0.0
  0
LINE
  5
1287EF
  8
SLIM
 10
12428.56945912045
 20
-1234.193614332374
 30
0.0
 11
12585.0
 21
-1077.7630734528259
 31
0.0
1001
ACAD
1010
0.0
1020
0.0
1030
0.0
  0
LINE
  5
1287F0
  8
SLIM
 10
12430.78376884894
 20
-1249.93981684603
 30
0.0
 11
12585.0
 21
-1095.723585694966
 31
0.0
1001
ACAD
1010
0.0
1020
0.0
1030
0.0
  0
LINE
  5
1287F1
  8
SLIM
 10
12432.998078577421
 20
-1265.6860193596849
 30
0.0
 11
12585.0
 21
-1113.684097937105
 31
0.0
1001
ACAD
1010
0.0
1020
0.0
1030
0.0
  0
LINE
  5
1287F2
  8
SLIM
 10
12432.999999999991
 20
-1283.6446101792519
 30
0.0
 11
12585.0
 21
-1131.6446101792451
 31
0.0
1001
ACAD
1010
0.0
1020
0.0
1030
0.0
  0
LINE
  5
1287F3
  8
SLIM
 10
12432.999999999991
 20
-1301.60512242139
 30
0.0
 11
12583.05183715436
 21
-1151.553285267016
 31
0.0
1001
ACAD
1010
0.0
1020
0.0
1030
0.0
  0
LINE
  5
1287F4
  8
SLIM
 10
12446.565634663521
 20
-1305.999999999997
 30
0.0
 11
12580.11284424201
 21
-1172.452790421504
 31
0.0
1001
ACAD
1010
0.0
1020
0.0
1030
0.0
  0
LINE
  5
1287F5
  8
SLIM
 10
12464.52614690566
 20
-1305.999999999998
 30
0.0
 11
12577.17385132967
 21
-1193.352295575992
 31
0.0
1001
ACAD
1010
0.0
1020
0.0
1030
0.0
  0
LINE
  5
1287F6
  8
SLIM
 10
12482.4866591478
 20
-1305.999999999998
 30
0.0
 11
12574.23485841732
 21
-1214.2518007304791
 31
0.0
1001
ACAD
1010
0.0
1020
0.0
1030
0.0
  0
LINE
  5
1287F7
  8
SLIM
 10
12500.44717138994
 20
-1305.999999999998
 30
0.0
 11
12571.29586550497
 21
-1235.1513058849671
 31
0.0
1001
ACAD
1010
0.0
1020
0.0
1030
0.0
  0
LINE
  5
1287F8
  8
SLIM
 10
12518.40768363208
 20
-1305.9999999999991
 30
0.0
 11
12568.35687259262
 21
-1256.0508110394539
 31
0.0
1001
ACAD
1010
0.0
1020
0.0
1030
0.0
  0
LINE
  5
1287F9
  8
SLIM
 10
12536.368195874211
 20
-1305.9999999999991
 30
0.0
 11
12567.000000000009
 21
-1275.368195874202
 31
0.0
1001
ACAD
1010
0.0
1020
0.0
1030
0.0
  0
LINE
  5
1287FA
  8
SLIM
 10
12554.328708116351
 20
-1306.0
 30
0.0
 11
12567.000000000009
 21
-1293.328708116341
 31
0.0
1001
ACAD
1010
0.0
1020
0.0
1030
0.0
  0
LINE
  5
1287FB
  8
OBJECT
 10
12432.999999999991
 20
-1305.999999999997
 30
0.0
 11
12567.000000000009
 21
-1306.0
 31
0.0
1001
ACDBBLOCKREPETAG
1070
     1
1071
        1
1005
1287FB
  0
LINE
  5
1287FC
  8
OBJECT
 10
12414.999999999991
 20
-1016.0
 30
0.0
 11
12415.0
 21
-1137.6996828091419
 31
0.0
1001
ACDBBLOCKREPETAG
1070
     1
1071
        2
1005
1287FC
  0
LINE
  5
1287FD
  8
OBJECT
 10
12585.000000000009
 20
-1016.0
 30
0.0
 11
12585.0
 21
-1137.6996828091731
 31
0.0
1001
ACDBBLOCKREPETAG
1070
     1
1071
        3
1005
1287FD
  0
LINE
  5
1287FE
  8
OBJECT
 10
12415.0
 20
-1137.6996828091419
 30
0.0
 11
12432.999999999991
 21
-1265.6996828090821
 31
0.0
1001
ACDBBLOCKREPETAG
1070
     1
1071
        4
1005
1287FE
  0
LINE
  5
1287FF
  8
OBJECT
 10
12567.000000000009
 20
-1265.6996828091289
 30
0.0
 11
12585.0
 21
-1137.6996828091731
 31
0.0
1001
ACDBBLOCKREPETAG
1070
     1
1071
        5
1005
1287FF
  0
LINE
  5
128800
  8
OBJECT
 10
12585.000000000009
 20
-1016.0
 30
0.0
 11
12414.999999999991
 21
-1016.0
 31
0.0
1001
ACDBBLOCKREPETAG
1070
     1
1071
        6
1005
128800
  0
LINE
  5
128801
  8
OBJECT
 10
12432.999999999991
 20
-1265.6996828090821
 30
0.0
 11
12432.999999999991
 21
-1305.999999999997
 31
0.0
1001
ACDBBLOCKREPETAG
1070
     1
1071
        8
1005
128801
  0
LINE
  5
128802
  8
OBJECT
 10
12567.000000000009
 20
-1265.6996828091289
 30
0.0
 11
12567.000000000009
 21
-1306.0
 31
0.0
1001
ACDBBLOCKREPETAG
1070
     1
1071
        9
1005
128802
  0
TEXT
  5
128803
  8
SLIM
 10
149.1428571427966
 20
-443.99999999984971
 30
0.0
 40
48.0
  1
A3
 41
0.75
1001
ACDBBLOCKREPETAG
1070
     1
1071
      119
1005
0
  0
LINE
  5
128804
  8
OBJECT
 10
2423.0
 20
-570.99999999999432
 30
0.0
 11
2423.0
 21
-549.99999999999432
 31
0.0
1001
ACDBBLOCKREPETAG
1070
     1
1071
        0
1005
128804
  0
LINE
  5
128805
  8
OBJECT
 10
2423.0
 20
-549.99999999999432
 30
0.0
 11
2577.0
 21
-549.99999999999432
 31
0.0
1001
ACDBBLOCKREPETAG
1070
     1
1071
        1
1005
128805
  0
LINE
  5
128806
  8
HIDDEN
 10
2443.0
 20
-619.99999999999432
 30
0.0
 11
2557.0
 21
-619.99999999999432
 31
0.0
1001
ACDBBLOCKREPETAG
1070
     1
1071
        2
1005
128806
  0
LINE
  5
128807
  8
OBJECT
 10
2577.0
 20
-549.99999999999432
 30
0.0
 11
2577.0
 21
-570.99999999999432
 31
0.0
1001
ACDBBLOCKREPETAG
1070
     1
1071
        3
1005
128807
  0
LINE
  5
128808
  8
OBJECT
 10
2577.0
 20
-570.99999999999432
 30
0.0
 11
2423.0
 21
-570.99999999999432
 31
0.0
1001
ACDBBLOCKREPETAG
1070
     1
1071
        4
1005
128808
  0
LINE
  5
128809
  8
CENTER
 10
2500.0
 20
-534.99999999999432
 30
0.0
 11
2500.0
 21
-769.9999999999942
 31
0.0
1001
ACDBBLOCKREPETAG
1070
     1
1071
        5
1005
128809
  0
LINE
  5
12880A
  8
OBJECT
 10
2425.0
 20
-633.99999999999432
 30
0.0
 11
2425.0
 21
-757.9999999999942
 31
0.0
1001
ACDBBLOCKREPETAG
1070
     1
1071
        6
1005
12880A
  0
LINE
  5
12880B
  8
OBJECT
 10
2428.0
 20
-570.99999999999432
 30
0.0
 11
2428.0
 21
-633.99999999999432
 31
0.0
1001
ACDBBLOCKREPETAG
1070
     1
1071
        7
1005
12880B
  0
LINE
  5
12880C
  8
OBJECT
 10
2572.0
 20
-633.99999999999432
 30
0.0
 11
2572.0
 21
-570.99999999999432
 31
0.0
1001
ACDBBLOCKREPETAG
1070
     1
1071
        8
1005
12880C
  0
LINE
  5
12880D
  8
OBJECT
 10
2420.0
 20
-757.9999999999942
 30
0.0
 11
2580.0
 21
-757.9999999999942
 31
0.0
1001
ACDBBLOCKREPETAG
1070
     1
1071
        9
1005
12880D
  0
LINE
  5
12880E
  8
OBJECT
 10
2580.0
 20
-633.99999999999432
 30
0.0
 11
2425.0
 21
-633.99999999999432
 31
0.0
1001
ACDBBLOCKREPETAG
1070
     1
1071
       10
1005
12880E
  0
LINE
  5
12880F
  8
OBJECT
 10
2420.0
 20
-757.9999999999942
 30
0.0
 11
2420.0
 21
-769.9999999999942
 31
0.0
1001
ACDBBLOCKREPETAG
1070
     1
1071
       11
1005
12880F
  0
LINE
  5
128810
  8
OBJECT
 10
2420.0
 20
-769.9999999999942
 30
0.0
 11
2580.0
 21
-769.9999999999942
 31
0.0
1001
ACDBBLOCKREPETAG
1070
     1
1071
       12
1005
128810
  0
LINE
  5
128811
  8
OBJECT
 10
2580.0
 20
-769.9999999999942
 30
0.0
 11
2580.0
 21
-757.9999999999942
 31
0.0
1001
ACDBBLOCKREPETAG
1070
     1
1071
       13
1005
128811
  0
ARC
  5
128812
  8
OBJECT
 10
2700.6872746716731
 20
-749.40809941010195
 30
0.0
 40
170.6350503965856
 50
137.44134459184301
 51
149.91949581337221
1001
ACDBBLOCKREPETAG
1070
     1
1071
       15
1005
128812
  0
ARC
  5
128813
  8
OBJECT
 10
2618.8455987040511
 20
-705.88272669535922
 30
0.0
 40
78.072222021763665
 50
147.4551531037684
 51
164.6636599771798
1001
ACDBBLOCKREPETAG
1070
     1
1071
       16
1005
128813
  0
ARC
  5
128814
  8
OBJECT
 10
2585.7554349608731
 20
-695.99999999999432
 30
0.0
 40
43.55353926885617
 50
165.6884523008477
 51
194.3115476991523
1001
ACDBBLOCKREPETAG
1070
     1
1071
       17
1005
128814
  0
ARC
  5
128815
  8
OBJECT
 10
2700.6872746716731
 20
-642.59190058988645
 30
0.0
 40
170.6350503965856
 50
210.08050418662771
 51
222.55865540815699
1001
ACDBBLOCKREPETAG
1070
     1
1071
       18
1005
128815
  0
ARC
  5
128816
  8
OBJECT
 10
2618.8455987040511
 20
-686.11727330462952
 30
0.0
 40
78.072222021763665
 50
195.3363400228202
 51
212.5448468962316
1001
ACDBBLOCKREPETAG
1070
     1
1071
       19
1005
128816
  0
LINE
  5
128817
  8
OBJECT
 10
2633.0
 20
-634.0
 30
0.0
 11
2640.0
 21
-634.0
 31
0.0
1001
ACDBBLOCKREPETAG
1070
     1
1071
       45
1005
128817
  0
LINE
  5
128818
  8
OBJECT
 10
2640.0
 20
-634.0
 30
0.0
 11
2640.0
 21
-755.0
 31
0.0
1001
ACDBBLOCKREPETAG
1070
     1
1071
       46
1005
128818
  0
LINE
  5
128819
  8
OBJECT
 10
2633.0
 20
-755.0
 30
0.0
 11
2633.0
 21
-634.0
 31
0.0
1001
ACDBBLOCKREPETAG
1070
     1
1071
       47
1005
128819
  0
LINE
  5
12881A
  8
CENTER
 10
2655.0
 20
-696.0
 30
0.0
 11
2571.0
 21
-696.0
 31
0.0
1001
ACDBBLOCKREPETAG
1070
     1
1071
       48
1005
12881A
  0
LINE
  5
12881B
  8
OBJECT
 10
2633.0
 20
-637.0
 30
0.0
 11
2597.0
 21
-637.0
 31
0.0
1001
ACDBBLOCKREPETAG
1070
     1
1071
       49
1005
12881B
  0
LINE
  5
12881C
  8
OBJECT
 10
2597.0
 20
-637.0
 30
0.0
 11
2597.0
 21
-755.0
 31
0.0
1001
ACDBBLOCKREPETAG
1070
     1
1071
       50
1005
12881C
  0
LINE
  5
12881D
  8
OBJECT
 10
2597.0
 20
-755.0
 30
0.0
 11
2640.0
 21
-755.0
 31
0.0
1001
ACDBBLOCKREPETAG
1070
     1
1071
       51
1005
12881D
  0
LINE
  5
12881E
  8
OBJECT
 10
2593.0
 20
-641.5
 30
0.0
 11
2586.0
 21
-641.5
 31
0.0
1001
ACDBBLOCKREPETAG
1070
     1
1071
       52
1005
12881E
  0
LINE
  5
12881F
  8
OBJECT
 10
2586.0
 20
-750.49999999999989
 30
0.0
 11
2593.0
 21
-750.49999999999989
 31
0.0
1001
ACDBBLOCKREPETAG
1070
     1
1071
       53
1005
12881F
  0
LINE
  5
128820
  8
OBJECT
 10
2593.0
 20
-750.49999999999989
 30
0.0
 11
2593.0
 21
-641.5
 31
0.0
1001
ACDBBLOCKREPETAG
1070
     1
1071
       54
1005
128820
  0
LINE
  5
128821
  8
OBJECT
 10
2597.0
 20
-637.0
 30
0.0
 11
2593.0
 21
-641.5
 31
0.0
1001
ACDBBLOCKREPETAG
1070
     1
1071
       55
1005
128821
  0
LINE
  5
128822
  8
OBJECT
 10
2597.0
 20
-755.0
 30
0.0
 11
2593.0
 21
-750.49999999999989
 31
0.0
1001
ACDBBLOCKREPETAG
1070
     1
1071
       56
1005
128822
  0
LINE
  5
128823
  8
OBJECT
 10
2583.0
 20
-634.0
 30
0.0
 11
2580.0
 21
-634.0
 31
0.0
1001
ACDBBLOCKREPETAG
1070
     1
1071
       57
1005
128823
  0
ARC
  5
128824
  8
OBJECT
 10
2583.0
 20
-637.0
 30
0.0
 40
3.0
 50
0.0
 51
90.0
1001
ACDBBLOCKREPETAG
1070
     1
1071
       58
1005
128824
  0
LINE
  5
128825
  8
OBJECT
 10
2580.0
 20
-758.0
 30
0.0
 11
2583.0
 21
-758.0
 31
0.0
1001
ACDBBLOCKREPETAG
1070
     1
1071
       59
1005
128825
  0
ARC
  5
128826
  8
OBJECT
 10
2583.0
 20
-755.0
 30
0.0
 40
3.0
 50
270.0
 51
0.0
1001
ACDBBLOCKREPETAG
1070
     1
1071
       60
1005
128826
  0
LINE
  5
128827
  8
OBJECT
 10
2586.0
 20
-755.0
 30
0.0
 11
2586.0
 21
-637.0
 31
0.0
1001
ACDBBLOCKREPETAG
1070
     1
1071
       61
1005
128827
  0
LINE
  5
128828
  8
HIDDEN
 10
2588.0
 20
-651.5
 30
0.0
 11
2588.0
 21
-740.5
 31
0.0
1001
ACDBBLOCKREPETAG
1070
     1
1071
       63
1005
128828
  0
TEXT
  5
128829
  8
SLIM
 10
0.0000035665234464
 20
24.000004585317608
 30
0.0
 40
79.999999999972701
  1
上部枝管
 41
0.75
1001
ACDBBLOCKREPETAG
1070
     1
1071
      119
1005
120BCB
  0
LINE
  5
12882A
  8
DIM
 10
2650.0
 20
-3506.9999999999968
 30
0.0
 11
2728.479620594459
 21
-3506.9999999999968
 31
0.0
  0
LINE
  5
12882B
  8
DIM
 10
2650.0
 20
-3412.9999999999968
 30
0.0
 11
2728.479620594459
 21
-3412.9999999999968
 31
0.0
  0
LINE
  5
12882C
  8
DIM
 10
2718.479620594459
 20
-3486.9999999999959
 30
0.0
 11
2718.479620594459
 21
-3432.9999999999959
 31
0.0
  0
INSERT
  5
12882D
  8
DIM
  2
_OPEN30
 10
2718.479620594459
 20
-3506.9999999999968
 30
0.0
 41
20.0
 42
20.0
 43
20.0
 50
270.0
  0
INSERT
  5
12882E
  8
DIM
  2
_OPEN30
 10
2718.479620594459
 20
-3412.9999999999968
 30
0.0
 41
20.0
 42
20.0
 43
20.0
 50
90.0
  0
INSERT
  5
12882F
  8
SLIM
  2
*U16
 10
0.0
 20
0.0
 30
0.0
  0
LINE
  5
128830
  8
DIM
 10
2650.0
 20
-3864.9999999999968
 30
0.0
 11
2726.8409284037339
 21
-3864.9999999999968
 31
0.0
  0
LINE
  5
128831
  8
DIM
 10
2665.0
 20
-3820.9999999999968
 30
0.0
 11
2726.8409284037339
 21
-3820.9999999999968
 31
0.0
  0
LINE
  5
128832
  8
DIM
 10
2716.8409284037339
 20
-3884.9999999999991
 30
0.0
 11
2716.8409284037339
 21
-3904.9999999999968
 31
0.0
  0
LINE
  5
128833
  8
DIM
 10
2716.8409284037339
 20
-3800.9999999999982
 30
0.0
 11
2716.8409284037339
 21
-3780.9999999999968
 31
0.0
  0
LINE
  5
128834
  8
DIM
 10
2716.8409284037339
 20
-3864.9999999999968
 30
0.0
 11
2716.8409284037339
 21
-3820.9999999999968
 31
0.0
  0
INSERT
  5
128835
  8
DIM
  2
_OPEN30
 10
2716.8409284037339
 20
-3864.9999999999968
 30
0.0
 41
20.0
 42
20.0
 43
20.0
 50
90.0
  0
INSERT
  5
128836
  8
DIM
  2
_OPEN30
 10
2716.8409284037339
 20
-3820.9999999999968
 30
0.0
 41
20.0
 42
20.0
 43
20.0
 50
270.0
  0
INSERT
  5
128837
  8
SLIM
  2
*U17
 10
0.0
 20
0.0
 30
0.0
  0
LINE
  5
128838
  8
DIM
 10
2500.0
 20
-3359.9999999999968
 30
0.0
 11
2500.0
 21
-3322.208121984444
 31
0.0
  0
LINE
  5
128839
  8
DIM
 10
2640.0
 20
-3402.9999999999968
 30
0.0
 11
2640.0
 21
-3322.208121984444
 31
0.0
  0
LINE
  5
12883A
  8
DIM
 10
2520.0
 20
-3332.208121984444
 30
0.0
 11
2620.0
 21
-3332.208121984444
 31
0.0
  0
INSERT
  5
12883B
  8
DIM
  2
_OPEN30
 10
2500.0
 20
-3332.208121984444
 30
0.0
 41
20.0
 42
20.0
 43
20.0
 50
180.0
  0
INSERT
  5
12883C
  8
DIM
  2
_OPEN30
 10
2640.0
 20
-3332.208121984444
 30
0.0
 41
20.0
 42
20.0
 43
20.0
  0
INSERT
  5
12883D
  8
SLIM
  2
*U18
 10
0.0
 20
0.0
 30
0.0
  0
TEXT
  5
12883E
  8
SLIM
 10
3270.9999999999991
 20
-3237.5000160472709
 30
0.0
 40
40.0
  1
C寸法
 41
0.75
  0
TEXT
  5
12883F
  8
SLIM
 10
3270.9999999999991
 20
-3167.5000160472709
 30
0.0
 40
40.0
  1
B寸法
 41
0.75
  0
TEXT
  5
128840
  8
SLIM
 10
3270.2857142857151
 20
-3097.5000160472709
 30
0.0
 40
40.0
  1
A寸法
 41
0.75
  0
TEXT
  5
128841
  8
SLIM
 10
3669.2857142857142
 20
-3237.5000160472709
 30
0.0
 40
40.0
  1
140
 41
0.75
  0
TEXT
  5
128842
  8
SLIM
 10
3409.2857142857151
 20
-3237.5000160472709
 30
0.0
 40
40.0
  1
140
 41
0.75
  0
TEXT
  5
128843
  8
SLIM
 10
3539.2857142857151
 20
-3237.5000160472709
 30
0.0
 40
40.0
  1
140
 41
0.75
  0
TEXT
  5
128844
  8
SLIM
 10
3681.4285714285711
 20
-3167.5000160472709
 30
0.0
 40
40.0
  1
59
 41
0.75
  0
TEXT
  5
128845
  8
SLIM
 10
3420.0
 20
-3167.5000160472709
 30
0.0
 40
40.0
  1
44
 41
0.75
  0
TEXT
  5
128846
  8
SLIM
 10
3550.7142857142849
 20
-3167.5000160472709
 30
0.0
 40
40.0
  1
52
 41
0.75
  0
TEXT
  5
128847
  8
SLIM
 10
3471.0
 20
-2972.5000160472709
 30
0.0
 40
40.0
  1
横枝管サイズ
 41
0.75
  0
TEXT
  5
128848
  8
SLIM
 10
3654.8571428571422
 20
-3027.50001604727
 30
0.0
 40
30.0
  1
75（3）
 41
0.75
  0
TEXT
  5
128849
  8
SLIM
 10
3524.8571428571422
 20
-3027.50001604727
 30
0.0
 40
30.0
  1
65（2）
 41
0.75
  0
TEXT
  5
12884A
  8
SLIM
 10
3397.0
 20
-3027.50001604727
 30
0.0
 40
30.0
  1
50（1）
 41
0.75
  0
TEXT
  5
12884B
  8
SLIM
 10
3668.5714285714289
 20
-3097.5000160472709
 30
0.0
 40
40.0
  1
124
 41
0.75
  0
TEXT
  5
12884C
  8
SLIM
 10
3420.0
 20
-3097.5000160472709
 30
0.0
 40
40.0
  1
94
 41
0.75
  0
TEXT
  5
12884D
  8
SLIM
 10
3542.142857142856
 20
-3097.5000160472709
 30
0.0
 40
40.0
  1
110
 41
0.75
  0
TEXT
  5
12884E
  8
SLIM
 10
2349.9999999999991
 20
-2997.5
 30
0.0
 40
75.0
  1
下部枝管サイズ毎の形状
 41
0.75
  0
TEXT
  5
12884F
  8
SLIM
 10
4394.25
 20
-3982.4999999999968
 30
0.0
 40
35.0
  1
通常枝75（3）
 41
0.75
  0
TEXT
  5
128850
  8
SLIM
 10
3394.2499999999991
 20
-3982.4999999999968
 30
0.0
 40
35.0
  1
通常枝65（2）
 41
0.75
  0
TEXT
  5
128851
  8
SLIM
 10
2396.75
 20
-3982.4999999999968
 30
0.0
 40
35.0
  1
通常枝50（1）
 41
0.75
  0
TEXT
  5
128852
  8
SLIM
 10
2337.75
 20
282.50000000000011
 30
0.0
 40
35.0
  1
（枝管サイズ毎に寸法が異なります。管底の位置は全サイズで同じです）
 41
0.75
  0
TEXT
  5
128853
  8
SLIM
 10
2350.0
 20
532.5
 30
0.0
 40
75.0
  1
側面図の代表機種
 41
0.75
  0
TEXT
  5
128854
  8
SLIM
 10
2350.0
 20
369.99999999999989
 30
0.0
 40
100.0
  1
4SL2-A3-A2000-P320
 41
0.75
  0
TEXT
  5
128855
  8
SLIM
 10
0.0
 20
670.0
 30
0.0
 40
100.0
  1
4SL2-A3-AX000-PXXX-S
 41
0.75
  0
TEXT
  5
128856
  8
SLIM
 10
0.0
 20
520.0
 30
0.0
 40
100.0
  1
4SL2-A3-AX000-PXXX-W
 41
0.75
  0
LINE
  5
128857
  8
OBJECT
 10
12585.999999999991
 20
-1388.9999999999991
 30
0.0
 11
12585.999999999991
 21
-1398.9999999999991
 31
0.0
1001
ACDBBLOCKREPETAG
1070
     1
1071
      121
1005
128857
  0
LINE
  5
128858
  8
OBJECT
 10
12569.999999999991
 20
-1388.9999999999991
 30
0.0
 11
12569.999999999991
 21
-1398.9999999999991
 31
0.0
1001
ACDBBLOCKREPETAG
1070
     1
1071
      122
1005
128858
  0
LINE
  5
128859
  8
OBJECT
 10
12585.999999999991
 20
-1398.9999999999991
 30
0.0
 11
12569.999999999991
 21
-1398.9999999999991
 31
0.0
1001
ACDBBLOCKREPETAG
1070
     1
1071
      123
1005
128859
  0
LINE
  5
12885A
  8
OBJECT
 10
12590.0
 20
-1349.9999999999959
 30
0.0
 11
12424.0
 21
-1349.9999999999959
 31
0.0
1001
ACDBBLOCKREPETAG
1070
     1
1071
      124
1005
12885A
  0
LINE
  5
12885B
  8
OBJECT
 10
12590.0
 20
-1364.9999999999991
 30
0.0
 11
12590.0
 21
-1349.9999999999959
 31
0.0
1001
ACDBBLOCKREPETAG
1070
     1
1071
      125
1005
12885B
  0
LINE
  5
12885C
  8
OBJECT
 10
12424.0
 20
-1364.9999999999991
 30
0.0
 11
12590.0
 21
-1364.9999999999991
 31
0.0
1001
ACDBBLOCKREPETAG
1070
     1
1071
      126
1005
12885C
  0
LINE
  5
12885D
  8
OBJECT
 10
12567.49999999998
 20
-1364.9999999999991
 30
0.0
 11
12567.49999999998
 21
-1375.0
 31
0.0
1001
ACDBBLOCKREPETAG
1070
     1
1071
      127
1005
12885D
  0
LINE
  5
12885E
  8
OBJECT
 10
12572.999999999991
 20
-1375.0
 30
0.0
 11
12572.999999999991
 21
-1364.9999999999991
 31
0.0
1001
ACDBBLOCKREPETAG
1070
     1
1071
      128
1005
12885E
  0
LINE
  5
12885F
  8
OBJECT
 10
12582.999999999991
 20
-1375.0
 30
0.0
 11
12582.999999999991
 21
-1364.9999999999991
 31
0.0
1001
ACDBBLOCKREPETAG
1070
     1
1071
      129
1005
12885F
  0
LINE
  5
128860
  8
OBJECT
 10
12424.0
 20
-1375.0
 30
0.0
 11
12424.0
 21
-1388.9999999999959
 31
0.0
1001
ACDBBLOCKREPETAG
1070
     1
1071
      130
1005
128860
  0
LINE
  5
128861
  8
OBJECT
 10
12590.0
 20
-1375.0
 30
0.0
 11
12590.0
 21
-1388.9999999999959
 31
0.0
1001
ACDBBLOCKREPETAG
1070
     1
1071
      131
1005
128861
  0
LINE
  5
128862
  8
OBJECT
 10
12424.0
 20
-1388.9999999999959
 30
0.0
 11
12590.0
 21
-1388.9999999999959
 31
0.0
1001
ACDBBLOCKREPETAG
1070
     1
1071
      132
1005
128862
  0
LINE
  5
128863
  8
OBJECT
 10
12424.0
 20
-1375.0
 30
0.0
 11
12590.0
 21
-1375.0
 31
0.0
1001
ACDBBLOCKREPETAG
1070
     1
1071
      133
1005
128863
  0
LINE
  5
128864
  8
OBJECT
 10
12432.49999999998
 20
-1364.9999999999991
 30
0.0
 11
12432.49999999998
 21
-1375.0
 31
0.0
1001
ACDBBLOCKREPETAG
1070
     1
1071
      134
1005
128864
  0
LINE
  5
128865
  8
OBJECT
 10
12434.0
 20
-1313.9999999999959
 30
0.0
 11
12565.999999999991
 21
-1313.9999999999959
 31
0.0
1001
ACDBBLOCKREPETAG
1070
     1
1071
      135
1005
128865
  0
LINE
  5
128866
  8
OBJECT
 10
12424.0
 20
-1364.9999999999991
 30
0.0
 11
12424.0
 21
-1349.9999999999959
 31
0.0
1001
ACDBBLOCKREPETAG
1070
     1
1071
      136
1005
128866
  0
LINE
  5
128867
  8
HIDDEN
 10
12443.0
 20
-1324.9999999999991
 30
0.0
 11
12557.0
 21
-1324.9999999999991
 31
0.0
1001
ACDBBLOCKREPETAG
1070
     1
1071
      137
1005
128867
  0
LINE
  5
128868
  8
OBJECT
 10
12586.999999999991
 20
-1348.2
 30
0.0
 11
12586.999999999991
 21
-1349.9999999999991
 31
0.0
1001
ACDBBLOCKREPETAG
1070
     1
1071
      138
1005
128868
  0
LINE
  5
128869
  8
OBJECT
 10
12568.999999999991
 20
-1348.2
 30
0.0
 11
12568.999999999991
 21
-1349.9999999999991
 31
0.0
1001
ACDBBLOCKREPETAG
1070
     1
1071
      139
1005
128869
  0
LINE
  5
12886A
  8
OBJECT
 10
12572.249999999991
 20
-1338.5
 30
0.0
 11
12583.749999999991
 21
-1338.5
 31
0.0
1001
ACDBBLOCKREPETAG
1070
     1
1071
      140
1005
12886A
  0
LINE
  5
12886B
  8
OBJECT
 10
12572.249999999991
 20
-1338.5
 30
0.0
 11
12572.249999999991
 21
-1348.2
 31
0.0
1001
ACDBBLOCKREPETAG
1070
     1
1071
      141
1005
12886B
  0
LINE
  5
12886C
  8
OBJECT
 10
12583.749999999991
 20
-1338.5
 30
0.0
 11
12583.749999999991
 21
-1348.2
 31
0.0
1001
ACDBBLOCKREPETAG
1070
     1
1071
      142
1005
12886C
  0
LINE
  5
12886D
  8
OBJECT
 10
12431.99999999998
 20
-1429.9999999999991
 30
0.0
 11
12567.99999999998
 21
-1429.9999999999991
 31
0.0
1001
ACDBBLOCKREPETAG
1070
     1
1071
      143
1005
12886D
  0
LINE
  5
12886E
  8
OBJECT
 10
12431.99999999998
 20
-1429.9999999999991
 30
0.0
 11
12431.99999999998
 21
-1388.9999999999991
 31
0.0
1001
ACDBBLOCKREPETAG
1070
     1
1071
      144
1005
12886E
  0
LINE
  5
12886F
  8
OBJECT
 10
12567.99999999998
 20
-1429.9999999999991
 30
0.0
 11
12567.99999999998
 21
-1388.9999999999991
 31
0.0
1001
ACDBBLOCKREPETAG
1070
     1
1071
      145
1005
12886F
  0
LINE
  5
128870
  8
OBJECT
 10
12586.999999999991
 20
-1348.2
 30
0.0
 11
12568.999999999991
 21
-1348.2
 31
0.0
1001
ACDBBLOCKREPETAG
1070
     1
1071
      146
1005
128870
  0
LINE
  5
128871
  8
CENTER
 10
12500.0
 20
-1054.9999999999991
 30
0.0
 11
12500.0
 21
-1444.9999999999991
 31
0.0
1001
ACDBBLOCKREPETAG
1070
     1
1071
      147
1005
128871
  0
LINE
  5
128872
  8
OBJECT
 10
12425.0
 20
-1054.9999999999991
 30
0.0
 11
12425.0
 21
-1136.9999999999959
 31
0.0
1001
ACDBBLOCKREPETAG
1070
     1
1071
      148
1005
128872
  0
LINE
  5
128873
  8
OBJECT
 10
12575.0
 20
-1054.9999999999991
 30
0.0
 11
12575.0
 21
-1136.999999999992
 31
0.0
1001
ACDBBLOCKREPETAG
1070
     1
1071
      149
1005
128873
  0
LINE
  5
128874
  8
OBJECT
 10
12425.0
 20
-1136.9999999999959
 30
0.0
 11
12575.0
 21
-1136.999999999992
 31
0.0
1001
ACDBBLOCKREPETAG
1070
     1
1071
      150
1005
128874
  0
LINE
  5
128875
  8
OBJECT
 10
12443.0
 20
-1313.9999999999959
 30
0.0
 11
12443.0
 21
-1264.999999999992
 31
0.0
1001
ACDBBLOCKREPETAG
1070
     1
1071
      151
1005
128875
  0
LINE
  5
128876
  8
OBJECT
 10
12557.0
 20
-1264.999999999992
 30
0.0
 11
12443.0
 21
-1264.999999999992
 31
0.0
1001
ACDBBLOCKREPETAG
1070
     1
1071
      152
1005
128876
  0
LINE
  5
128877
  8
OBJECT
 10
12557.0
 20
-1264.999999999992
 30
0.0
 11
12557.0
 21
-1313.9999999999959
 31
0.0
1001
ACDBBLOCKREPETAG
1070
     1
1071
      153
1005
128877
  0
LINE
  5
128878
  8
OBJECT
 10
12425.0
 20
-1136.9999999999959
 30
0.0
 11
12443.0
 21
-1264.999999999992
 31
0.0
1001
ACDBBLOCKREPETAG
1070
     1
1071
      154
1005
128878
  0
LINE
  5
128879
  8
OBJECT
 10
12557.0
 20
-1264.999999999992
 30
0.0
 11
12575.0
 21
-1136.999999999992
 31
0.0
1001
ACDBBLOCKREPETAG
1070
     1
1071
      155
1005
128879
  0
LINE
  5
12887A
  8
OBJECT
 10
12434.0
 20
-1349.9999999999959
 30
0.0
 11
12434.0
 21
-1313.9999999999959
 31
0.0
1001
ACDBBLOCKREPETAG
1070
     1
1071
      156
1005
12887A
  0
LINE
  5
12887B
  8
OBJECT
 10
12566.0
 20
-1349.9999999999959
 30
0.0
 11
12565.999999999991
 21
-1313.9999999999959
 31
0.0
1001
ACDBBLOCKREPETAG
1070
     1
1071
      157
1005
12887B
  0
LINE
  5
12887C
  8
OBJECT
 10
12454.75
 20
-1339.699999999993
 30
0.0
 11
12467.25
 21
-1339.699999999993
 31
0.0
1001
ACDBBLOCKREPETAG
1070
     1
1071
      158
1005
12887C
  0
LINE
  5
12887D
  8
OBJECT
 10
12446.0
 20
-1349.9999999999959
 30
0.0
 11
12446.0
 21
-1347.6999999999971
 31
0.0
1001
ACDBBLOCKREPETAG
1070
     1
1071
      159
1005
12887D
  0
LINE
  5
12887E
  8
OBJECT
 10
12476.0
 20
-1349.9999999999959
 30
0.0
 11
12476.0
 21
-1347.6999999999971
 31
0.0
1001
ACDBBLOCKREPETAG
1070
     1
1071
      160
1005
12887E
  0
LINE
  5
12887F
  8
OBJECT
 10
12454.75
 20
-1339.699999999993
 30
0.0
 11
12454.75
 21
-1347.6999999999971
 31
0.0
1001
ACDBBLOCKREPETAG
1070
     1
1071
      161
1005
12887F
  0
LINE
  5
128880
  8
OBJECT
 10
12467.25
 20
-1339.699999999993
 30
0.0
 11
12467.25
 21
-1347.6999999999971
 31
0.0
1001
ACDBBLOCKREPETAG
1070
     1
1071
      162
1005
128880
  0
LINE
  5
128881
  8
OBJECT
 10
12446.0
 20
-1347.6999999999971
 30
0.0
 11
12476.0
 21
-1347.6999999999971
 31
0.0
1001
ACDBBLOCKREPETAG
1070
     1
1071
      163
1005
128881
  0
LINE
  5
128882
  8
OBJECT
 10
12453.0
 20
-1388.9999999999959
 30
0.0
 11
12453.0
 21
-1398.9999999999959
 31
0.0
1001
ACDBBLOCKREPETAG
1070
     1
1071
      164
1005
128882
  0
LINE
  5
128883
  8
OBJECT
 10
12469.0
 20
-1388.9999999999959
 30
0.0
 11
12469.0
 21
-1398.9999999999959
 31
0.0
1001
ACDBBLOCKREPETAG
1070
     1
1071
      165
1005
128883
  0
LINE
  5
128884
  8
OBJECT
 10
12453.0
 20
-1398.9999999999959
 30
0.0
 11
12469.0
 21
-1398.9999999999959
 31
0.0
1001
ACDBBLOCKREPETAG
1070
     1
1071
      166
1005
128884
  0
LINE
  5
128885
  8
OBJECT
 10
12466.0
 20
-1374.9999999999959
 30
0.0
 11
12466.0
 21
-1364.9999999999959
 31
0.0
1001
ACDBBLOCKREPETAG
1070
     1
1071
      167
1005
128885
  0
LINE
  5
128886
  8
OBJECT
 10
12456.0
 20
-1374.9999999999959
 30
0.0
 11
12456.0
 21
-1364.9999999999959
 31
0.0
1001
ACDBBLOCKREPETAG
1070
     1
1071
      168
1005
128886
  0
LINE
  5
128887
  8
OBJECT
 10
10590.0
 20
-1349.9999999999959
 30
0.0
 11
10424.0
 21
-1349.9999999999959
 31
0.0
1001
ACDBBLOCKREPETAG
1070
     1
1071
       12
1005
128887
  0
LINE
  5
128888
  8
OBJECT
 10
10566.0
 20
-1313.9999999999959
 30
0.0
 11
10434.0
 21
-1313.9999999999959
 31
0.0
1001
ACDBBLOCKREPETAG
1070
     1
1071
       13
1005
128888
  0
LINE
  5
128889
  8
OBJECT
 10
10590.0
 20
-1365.0
 30
0.0
 11
10590.0
 21
-1349.9999999999959
 31
0.0
1001
ACDBBLOCKREPETAG
1070
     1
1071
       14
1005
128889
  0
LINE
  5
12888A
  8
OBJECT
 10
10424.0
 20
-1365.0
 30
0.0
 11
10590.0
 21
-1365.0
 31
0.0
1001
ACDBBLOCKREPETAG
1070
     1
1071
       15
1005
12888A
  0
LINE
  5
12888B
  8
OBJECT
 10
10567.49999999998
 20
-1365.0
 30
0.0
 11
10567.49999999998
 21
-1375.0
 31
0.0
1001
ACDBBLOCKREPETAG
1070
     1
1071
       16
1005
12888B
  0
LINE
  5
12888C
  8
OBJECT
 10
10424.0
 20
-1375.0
 30
0.0
 11
10424.0
 21
-1388.9999999999959
 31
0.0
1001
ACDBBLOCKREPETAG
1070
     1
1071
       17
1005
12888C
  0
LINE
  5
12888D
  8
OBJECT
 10
10590.0
 20
-1375.0
 30
0.0
 11
10590.0
 21
-1388.9999999999959
 31
0.0
1001
ACDBBLOCKREPETAG
1070
     1
1071
       18
1005
12888D
  0
LINE
  5
12888E
  8
OBJECT
 10
10424.0
 20
-1388.9999999999959
 30
0.0
 11
10590.0
 21
-1388.9999999999959
 31
0.0
1001
ACDBBLOCKREPETAG
1070
     1
1071
       19
1005
12888E
  0
LINE
  5
12888F
  8
OBJECT
 10
10424.0
 20
-1375.0
 30
0.0
 11
10590.0
 21
-1375.0
 31
0.0
1001
ACDBBLOCKREPETAG
1070
     1
1071
       20
1005
12888F
  0
LINE
  5
128890
  8
OBJECT
 10
10432.49999999998
 20
-1365.0
 30
0.0
 11
10432.49999999998
 21
-1375.0
 31
0.0
1001
ACDBBLOCKREPETAG
1070
     1
1071
       21
1005
128890
  0
LINE
  5
128891
  8
OBJECT
 10
10424.0
 20
-1365.0
 30
0.0
 11
10424.0
 21
-1349.9999999999959
 31
0.0
1001
ACDBBLOCKREPETAG
1070
     1
1071
       22
1005
128891
  0
LINE
  5
128892
  8
HIDDEN
 10
10443.0
 20
-1325.0
 30
0.0
 11
10557.0
 21
-1325.0
 31
0.0
1001
ACDBBLOCKREPETAG
1070
     1
1071
       23
1005
128892
  0
LINE
  5
128893
  8
CENTER
 10
10500.0
 20
-1055.0
 30
0.0
 11
10500.0
 21
-1403.9999999999959
 31
0.0
1001
ACDBBLOCKREPETAG
1070
     1
1071
       24
1005
128893
  0
LINE
  5
128894
  8
OBJECT
 10
10425.0
 20
-1055.0
 30
0.0
 11
10425.0
 21
-1136.9999999999959
 31
0.0
1001
ACDBBLOCKREPETAG
1070
     1
1071
       25
1005
128894
  0
LINE
  5
128895
  8
OBJECT
 10
10575.0
 20
-1055.0
 30
0.0
 11
10575.0
 21
-1136.999999999993
 31
0.0
1001
ACDBBLOCKREPETAG
1070
     1
1071
       26
1005
128895
  0
LINE
  5
128896
  8
OBJECT
 10
10425.0
 20
-1136.9999999999959
 30
0.0
 11
10575.0
 21
-1136.999999999993
 31
0.0
1001
ACDBBLOCKREPETAG
1070
     1
1071
       27
1005
128896
  0
LINE
  5
128897
  8
OBJECT
 10
10557.0
 20
-1313.9999999999959
 30
0.0
 11
10557.0
 21
-1264.999999999993
 31
0.0
1001
ACDBBLOCKREPETAG
1070
     1
1071
       28
1005
128897
  0
LINE
  5
128898
  8
OBJECT
 10
10443.0
 20
-1313.9999999999959
 30
0.0
 11
10443.0
 21
-1264.999999999993
 31
0.0
1001
ACDBBLOCKREPETAG
1070
     1
1071
       29
1005
128898
  0
LINE
  5
128899
  8
OBJECT
 10
10557.0
 20
-1264.999999999993
 30
0.0
 11
10443.0
 21
-1264.999999999993
 31
0.0
1001
ACDBBLOCKREPETAG
1070
     1
1071
       30
1005
128899
  0
LINE
  5
12889A
  8
OBJECT
 10
10425.0
 20
-1136.9999999999959
 30
0.0
 11
10443.0
 21
-1264.999999999993
 31
0.0
1001
ACDBBLOCKREPETAG
1070
     1
1071
       31
1005
12889A
  0
LINE
  5
12889B
  8
OBJECT
 10
10557.0
 20
-1264.999999999993
 30
0.0
 11
10575.0
 21
-1136.999999999993
 31
0.0
1001
ACDBBLOCKREPETAG
1070
     1
1071
       32
1005
12889B
  0
LINE
  5
12889C
  8
OBJECT
 10
10434.0
 20
-1313.9999999999959
 30
0.0
 11
10434.0
 21
-1349.9999999999959
 31
0.0
1001
ACDBBLOCKREPETAG
1070
     1
1071
       33
1005
12889C
  0
LINE
  5
12889D
  8
OBJECT
 10
10566.0
 20
-1313.9999999999959
 30
0.0
 11
10566.0
 21
-1349.9999999999959
 31
0.0
1001
ACDBBLOCKREPETAG
1070
     1
1071
       34
1005
12889D
  0
LINE
  5
12889E
  8
OBJECT
 10
10582.999999999991
 20
-1374.9999999999959
 30
0.0
 11
10582.999999999991
 21
-1364.9999999999959
 31
0.0
1001
ACDBBLOCKREPETAG
1070
     1
1071
       35
1005
12889E
  0
LINE
  5
12889F
  8
OBJECT
 10
10572.999999999991
 20
-1374.9999999999959
 30
0.0
 11
10572.999999999991
 21
-1364.9999999999959
 31
0.0
1001
ACDBBLOCKREPETAG
1070
     1
1071
       36
1005
12889F
  0
LINE
  5
1288A0
  8
OBJECT
 10
10568.99999999998
 20
-1344.9999999999959
 30
0.0
 11
10568.99999999998
 21
-1349.9999999999959
 31
0.0
1001
ACDBBLOCKREPETAG
1070
     1
1071
       37
1005
1288A0
  0
LINE
  5
1288A1
  8
OBJECT
 10
10587.0
 20
-1344.9999999999959
 30
0.0
 11
10587.0
 21
-1349.9999999999959
 31
0.0
1001
ACDBBLOCKREPETAG
1070
     1
1071
       38
1005
1288A1
  0
LINE
  5
1288A2
  8
OBJECT
 10
10587.0
 20
-1344.9999999999959
 30
0.0
 11
10568.99999999998
 21
-1344.9999999999959
 31
0.0
1001
ACDBBLOCKREPETAG
1070
     1
1071
       39
1005
1288A2
  0
LINE
  5
1288A3
  8
OBJECT
 10
10573.0
 20
-1396.9999999999959
 30
0.0
 11
10573.0
 21
-1399.9999999999959
 31
0.0
1001
ACDBBLOCKREPETAG
1070
     1
1071
       40
1005
1288A3
  0
LINE
  5
1288A4
  8
OBJECT
 10
10573.0
 20
-1399.9999999999959
 30
0.0
 11
10583.0
 21
-1399.9999999999959
 31
0.0
1001
ACDBBLOCKREPETAG
1070
     1
1071
       41
1005
1288A4
  0
LINE
  5
1288A5
  8
OBJECT
 10
10583.0
 20
-1399.9999999999959
 30
0.0
 11
10583.0
 21
-1396.9999999999959
 31
0.0
1001
ACDBBLOCKREPETAG
1070
     1
1071
       43
1005
1288A5
  0
LINE
  5
1288A6
  8
OBJECT
 10
10468.5
 20
-1344.9999999999959
 30
0.0
 11
10451.999999999991
 21
-1344.9999999999959
 31
0.0
1001
ACDBBLOCKREPETAG
1070
     1
1071
       48
1005
1288A6
  0
LINE
  5
1288A7
  8
OBJECT
 10
10476.0
 20
-1349.9999999999959
 30
0.0
 11
10476.0
 21
-1347.9999999999959
 31
0.0
1001
ACDBBLOCKREPETAG
1070
     1
1071
       49
1005
1288A7
  0
LINE
  5
1288A8
  8
OBJECT
 10
10466.0
 20
-1374.9999999999959
 30
0.0
 11
10466.0
 21
-1364.9999999999959
 31
0.0
1001
ACDBBLOCKREPETAG
1070
     1
1071
       50
1005
1288A8
  0
LINE
  5
1288A9
  8
OBJECT
 10
10456.0
 20
-1374.9999999999959
 30
0.0
 11
10456.0
 21
-1364.9999999999959
 31
0.0
1001
ACDBBLOCKREPETAG
1070
     1
1071
       51
1005
1288A9
  0
LINE
  5
1288AA
  8
OBJECT
 10
10451.999999999991
 20
-1344.9999999999959
 30
0.0
 11
10451.999999999991
 21
-1349.9999999999959
 31
0.0
1001
ACDBBLOCKREPETAG
1070
     1
1071
       52
1005
1288AA
  0
LINE
  5
1288AB
  8
OBJECT
 10
10456.0
 20
-1396.9999999999959
 30
0.0
 11
10456.0
 21
-1399.9999999999959
 31
0.0
1001
ACDBBLOCKREPETAG
1070
     1
1071
       53
1005
1288AB
  0
LINE
  5
1288AC
  8
OBJECT
 10
10456.0
 20
-1399.9999999999959
 30
0.0
 11
10466.0
 21
-1399.9999999999959
 31
0.0
1001
ACDBBLOCKREPETAG
1070
     1
1071
       54
1005
1288AC
  0
LINE
  5
1288AD
  8
OBJECT
 10
10451.18504542377
 20
-1396.9999999999959
 30
0.0
 11
10470.814954576221
 21
-1396.9999999999959
 31
0.0
1001
ACDBBLOCKREPETAG
1070
     1
1071
       55
1005
1288AD
  0
LINE
  5
1288AE
  8
OBJECT
 10
10466.0
 20
-1399.9999999999959
 30
0.0
 11
10466.0
 21
-1396.9999999999959
 31
0.0
1001
ACDBBLOCKREPETAG
1070
     1
1071
       56
1005
1288AE
  0
LINE
  5
1288AF
  8
OBJECT
 10
10476.0
 20
-1347.9999999999959
 30
0.0
 11
10468.5
 21
-1344.9999999999959
 31
0.0
1001
ACDBBLOCKREPETAG
1070
     1
1071
       57
1005
1288AF
  0
LINE
  5
1288B0
  8
OBJECT
 10
10451.18504542377
 20
-1388.9999999999959
 30
0.0
 11
10451.18504542377
 21
-1396.9999999999959
 31
0.0
1001
ACDBBLOCKREPETAG
1070
     1
1071
      630
1005
1288B0
  0
LINE
  5
1288B1
  8
OBJECT
 10
10456.09252271189
 20
-1388.9999999999959
 30
0.0
 11
10456.09252271189
 21
-1396.9999999999959
 31
0.0
1001
ACDBBLOCKREPETAG
1070
     1
1071
      631
1005
1288B1
  0
LINE
  5
1288B2
  8
OBJECT
 10
10465.90747728811
 20
-1388.9999999999959
 30
0.0
 11
10465.90747728811
 21
-1396.9999999999959
 31
0.0
1001
ACDBBLOCKREPETAG
1070
     1
1071
      632
1005
1288B2
  0
LINE
  5
1288B3
  8
OBJECT
 10
10470.814954576221
 20
-1388.9999999999959
 30
0.0
 11
10470.814954576221
 21
-1396.9999999999959
 31
0.0
1001
ACDBBLOCKREPETAG
1070
     1
1071
      633
1005
1288B3
  0
LINE
  5
1288B4
  8
OBJECT
 10
10568.18504542377
 20
-1396.9999999999959
 30
0.0
 11
10587.814954576221
 21
-1396.9999999999959
 31
0.0
1001
ACDBBLOCKREPETAG
1070
     1
1071
      634
1005
1288B4
  0
LINE
  5
1288B5
  8
OBJECT
 10
10568.18504542377
 20
-1388.9999999999959
 30
0.0
 11
10568.18504542377
 21
-1396.9999999999959
 31
0.0
1001
ACDBBLOCKREPETAG
1070
     1
1071
      635
1005
1288B5
  0
LINE
  5
1288B6
  8
OBJECT
 10
10573.09252271189
 20
-1388.9999999999959
 30
0.0
 11
10573.09252271189
 21
-1396.9999999999959
 31
0.0
1001
ACDBBLOCKREPETAG
1070
     1
1071
      636
1005
1288B6
  0
LINE
  5
1288B7
  8
OBJECT
 10
10582.90747728811
 20
-1388.9999999999959
 30
0.0
 11
10582.90747728811
 21
-1396.9999999999959
 31
0.0
1001
ACDBBLOCKREPETAG
1070
     1
1071
      637
1005
1288B7
  0
LINE
  5
1288B8
  8
OBJECT
 10
10587.814954576221
 20
-1388.9999999999959
 30
0.0
 11
10587.814954576221
 21
-1396.9999999999959
 31
0.0
1001
ACDBBLOCKREPETAG
1070
     1
1071
      638
1005
1288B8
  0
LINE
  5
1288B9
  8
OBJECT
 10
8443.0
 20
-1364.9999999999959
 30
0.0
 11
8557.0
 21
-1364.9999999999959
 31
0.0
1001
ACDBBLOCKREPETAG
1070
     1
1071
        0
1005
1288B9
  0
LINE
  5
1288BA
  8
OBJECT
 10
8443.0
 20
-1364.9999999999959
 30
0.0
 11
8443.0
 21
-1264.9999999999959
 31
0.0
1001
ACDBBLOCKREPETAG
1070
     1
1071
        1
1005
1288BA
  0
LINE
  5
1288BB
  8
OBJECT
 10
8557.0
 20
-1364.9999999999959
 30
0.0
 11
8557.0
 21
-1264.9999999999959
 31
0.0
1001
ACDBBLOCKREPETAG
1070
     1
1071
        2
1005
1288BB
  0
LINE
  5
1288BC
  8
OBJECT
 10
8443.0
 20
-1264.9999999999959
 30
0.0
 11
8557.0
 21
-1264.9999999999959
 31
0.0
1001
ACDBBLOCKREPETAG
1070
     1
1071
        3
1005
1288BC
  0
LINE
  5
1288BD
  8
HIDDEN
 10
8450.0
 20
-1264.9999999999959
 30
0.0
 11
8450.0
 21
-1364.9999999999959
 31
0.0
1001
ACDBBLOCKREPETAG
1070
     1
1071
        4
1005
1288BD
  0
LINE
  5
1288BE
  8
HIDDEN
 10
8550.0
 20
-1264.9999999999959
 30
0.0
 11
8550.0
 21
-1364.9999999999959
 31
0.0
1001
ACDBBLOCKREPETAG
1070
     1
1071
        5
1005
1288BE
  0
LINE
  5
1288BF
  8
CENTER
 10
8500.0
 20
-1055.0
 30
0.0
 11
8500.0
 21
-1379.9999999999959
 31
0.0
1001
ACDBBLOCKREPETAG
1070
     1
1071
        6
1005
1288BF
  0
LINE
  5
1288C0
  8
OBJECT
 10
8425.0
 20
-1055.0
 30
0.0
 11
8425.0
 21
-1136.9999999999959
 31
0.0
1001
ACDBBLOCKREPETAG
1070
     1
1071
        7
1005
1288C0
  0
LINE
  5
1288C1
  8
OBJECT
 10
8575.0
 20
-1055.0
 30
0.0
 11
8575.0
 21
-1136.9999999999959
 31
0.0
1001
ACDBBLOCKREPETAG
1070
     1
1071
        8
1005
1288C1
  0
LINE
  5
1288C2
  8
OBJECT
 10
8425.0
 20
-1136.9999999999959
 30
0.0
 11
8575.0
 21
-1136.9999999999959
 31
0.0
1001
ACDBBLOCKREPETAG
1070
     1
1071
        9
1005
1288C2
  0
LINE
  5
1288C3
  8
OBJECT
 10
8425.0
 20
-1136.9999999999959
 30
0.0
 11
8443.0
 21
-1264.9999999999959
 31
0.0
1001
ACDBBLOCKREPETAG
1070
     1
1071
       10
1005
1288C3
  0
LINE
  5
1288C4
  8
OBJECT
 10
8557.0
 20
-1264.9999999999959
 30
0.0
 11
8575.0
 21
-1136.9999999999959
 31
0.0
1001
ACDBBLOCKREPETAG
1070
     1
1071
       11
1005
1288C4
  0
LINE
  5
1288C5
  8
OBJECT
 10
6585.9999999999927
 20
-1388.9999999999991
 30
0.0
 11
6585.9999999999927
 21
-1398.9999999999991
 31
0.0
1001
ACDBBLOCKREPETAG
1070
     1
1071
      121
1005
1288C5
  0
LINE
  5
1288C6
  8
OBJECT
 10
6569.9999999999927
 20
-1388.9999999999991
 30
0.0
 11
6569.9999999999927
 21
-1398.9999999999991
 31
0.0
1001
ACDBBLOCKREPETAG
1070
     1
1071
      122
1005
1288C6
  0
LINE
  5
1288C7
  8
OBJECT
 10
6585.9999999999927
 20
-1398.9999999999991
 30
0.0
 11
6569.9999999999927
 21
-1398.9999999999991
 31
0.0
1001
ACDBBLOCKREPETAG
1070
     1
1071
      123
1005
1288C7
  0
LINE
  5
1288C8
  8
OBJECT
 10
6590.0
 20
-1349.9999999999959
 30
0.0
 11
6424.0
 21
-1349.9999999999959
 31
0.0
1001
ACDBBLOCKREPETAG
1070
     1
1071
      124
1005
1288C8
  0
LINE
  5
1288C9
  8
OBJECT
 10
6590.0
 20
-1364.9999999999991
 30
0.0
 11
6590.0
 21
-1349.9999999999959
 31
0.0
1001
ACDBBLOCKREPETAG
1070
     1
1071
      125
1005
1288C9
  0
LINE
  5
1288CA
  8
OBJECT
 10
6424.0
 20
-1364.9999999999991
 30
0.0
 11
6590.0
 21
-1364.9999999999991
 31
0.0
1001
ACDBBLOCKREPETAG
1070
     1
1071
      126
1005
1288CA
  0
LINE
  5
1288CB
  8
OBJECT
 10
6567.4999999999873
 20
-1364.9999999999991
 30
0.0
 11
6567.4999999999873
 21
-1375.0
 31
0.0
1001
ACDBBLOCKREPETAG
1070
     1
1071
      127
1005
1288CB
  0
LINE
  5
1288CC
  8
OBJECT
 10
6572.9999999999927
 20
-1375.0
 30
0.0
 11
6572.9999999999927
 21
-1364.9999999999991
 31
0.0
1001
ACDBBLOCKREPETAG
1070
     1
1071
      128
1005
1288CC
  0
LINE
  5
1288CD
  8
OBJECT
 10
6582.9999999999927
 20
-1375.0
 30
0.0
 11
6582.9999999999927
 21
-1364.9999999999991
 31
0.0
1001
ACDBBLOCKREPETAG
1070
     1
1071
      129
1005
1288CD
  0
LINE
  5
1288CE
  8
OBJECT
 10
6424.0
 20
-1375.0
 30
0.0
 11
6424.0
 21
-1388.9999999999959
 31
0.0
1001
ACDBBLOCKREPETAG
1070
     1
1071
      130
1005
1288CE
  0
LINE
  5
1288CF
  8
OBJECT
 10
6590.0
 20
-1375.0
 30
0.0
 11
6590.0
 21
-1388.9999999999959
 31
0.0
1001
ACDBBLOCKREPETAG
1070
     1
1071
      131
1005
1288CF
  0
LINE
  5
1288D0
  8
OBJECT
 10
6424.0
 20
-1388.9999999999959
 30
0.0
 11
6590.0
 21
-1388.9999999999959
 31
0.0
1001
ACDBBLOCKREPETAG
1070
     1
1071
      132
1005
1288D0
  0
LINE
  5
1288D1
  8
OBJECT
 10
6424.0
 20
-1375.0
 30
0.0
 11
6590.0
 21
-1375.0
 31
0.0
1001
ACDBBLOCKREPETAG
1070
     1
1071
      133
1005
1288D1
  0
LINE
  5
1288D2
  8
OBJECT
 10
6432.4999999999864
 20
-1364.9999999999991
 30
0.0
 11
6432.4999999999864
 21
-1375.0
 31
0.0
1001
ACDBBLOCKREPETAG
1070
     1
1071
      134
1005
1288D2
  0
LINE
  5
1288D3
  8
OBJECT
 10
6434.0
 20
-1313.9999999999959
 30
0.0
 11
6565.9999999999918
 21
-1313.9999999999959
 31
0.0
1001
ACDBBLOCKREPETAG
1070
     1
1071
      135
1005
1288D3
  0
LINE
  5
1288D4
  8
OBJECT
 10
6424.0
 20
-1364.9999999999991
 30
0.0
 11
6424.0
 21
-1349.9999999999959
 31
0.0
1001
ACDBBLOCKREPETAG
1070
     1
1071
      136
1005
1288D4
  0
LINE
  5
1288D5
  8
HIDDEN
 10
6443.0
 20
-1324.9999999999991
 30
0.0
 11
6557.0
 21
-1324.9999999999991
 31
0.0
1001
ACDBBLOCKREPETAG
1070
     1
1071
      137
1005
1288D5
  0
LINE
  5
1288D6
  8
OBJECT
 10
6586.9999999999927
 20
-1348.2
 30
0.0
 11
6586.9999999999927
 21
-1349.9999999999991
 31
0.0
1001
ACDBBLOCKREPETAG
1070
     1
1071
      138
1005
1288D6
  0
LINE
  5
1288D7
  8
OBJECT
 10
6568.9999999999909
 20
-1348.2
 30
0.0
 11
6568.9999999999909
 21
-1349.9999999999991
 31
0.0
1001
ACDBBLOCKREPETAG
1070
     1
1071
      139
1005
1288D7
  0
LINE
  5
1288D8
  8
OBJECT
 10
6572.2499999999927
 20
-1338.5
 30
0.0
 11
6583.7499999999927
 21
-1338.5
 31
0.0
1001
ACDBBLOCKREPETAG
1070
     1
1071
      140
1005
1288D8
  0
LINE
  5
1288D9
  8
OBJECT
 10
6572.2499999999927
 20
-1338.5
 30
0.0
 11
6572.2499999999927
 21
-1348.2
 31
0.0
1001
ACDBBLOCKREPETAG
1070
     1
1071
      141
1005
1288D9
  0
LINE
  5
1288DA
  8
OBJECT
 10
6583.7499999999927
 20
-1338.5
 30
0.0
 11
6583.7499999999927
 21
-1348.2
 31
0.0
1001
ACDBBLOCKREPETAG
1070
     1
1071
      142
1005
1288DA
  0
LINE
  5
1288DB
  8
OBJECT
 10
6431.9999999999873
 20
-1429.9999999999991
 30
0.0
 11
6567.9999999999873
 21
-1429.9999999999991
 31
0.0
1001
ACDBBLOCKREPETAG
1070
     1
1071
      143
1005
1288DB
  0
LINE
  5
1288DC
  8
OBJECT
 10
6431.9999999999873
 20
-1429.9999999999991
 30
0.0
 11
6431.9999999999873
 21
-1388.9999999999991
 31
0.0
1001
ACDBBLOCKREPETAG
1070
     1
1071
      144
1005
1288DC
  0
LINE
  5
1288DD
  8
OBJECT
 10
6567.9999999999873
 20
-1429.9999999999991
 30
0.0
 11
6567.9999999999873
 21
-1388.9999999999991
 31
0.0
1001
ACDBBLOCKREPETAG
1070
     1
1071
      145
1005
1288DD
  0
LINE
  5
1288DE
  8
OBJECT
 10
6586.9999999999927
 20
-1348.2
 30
0.0
 11
6568.9999999999909
 21
-1348.2
 31
0.0
1001
ACDBBLOCKREPETAG
1070
     1
1071
      146
1005
1288DE
  0
LINE
  5
1288DF
  8
CENTER
 10
6500.0
 20
-1054.9999999999991
 30
0.0
 11
6500.0
 21
-1444.9999999999991
 31
0.0
1001
ACDBBLOCKREPETAG
1070
     1
1071
      147
1005
1288DF
  0
LINE
  5
1288E0
  8
OBJECT
 10
6425.0
 20
-1054.9999999999991
 30
0.0
 11
6425.0
 21
-1136.9999999999959
 31
0.0
1001
ACDBBLOCKREPETAG
1070
     1
1071
      148
1005
1288E0
  0
LINE
  5
1288E1
  8
OBJECT
 10
6575.0
 20
-1054.9999999999991
 30
0.0
 11
6575.0
 21
-1136.999999999992
 31
0.0
1001
ACDBBLOCKREPETAG
1070
     1
1071
      149
1005
1288E1
  0
LINE
  5
1288E2
  8
OBJECT
 10
6425.0
 20
-1136.9999999999959
 30
0.0
 11
6575.0
 21
-1136.999999999992
 31
0.0
1001
ACDBBLOCKREPETAG
1070
     1
1071
      150
1005
1288E2
  0
LINE
  5
1288E3
  8
OBJECT
 10
6443.0
 20
-1313.9999999999959
 30
0.0
 11
6443.0
 21
-1264.999999999992
 31
0.0
1001
ACDBBLOCKREPETAG
1070
     1
1071
      151
1005
1288E3
  0
LINE
  5
1288E4
  8
OBJECT
 10
6557.0
 20
-1264.999999999992
 30
0.0
 11
6443.0
 21
-1264.999999999992
 31
0.0
1001
ACDBBLOCKREPETAG
1070
     1
1071
      152
1005
1288E4
  0
LINE
  5
1288E5
  8
OBJECT
 10
6557.0
 20
-1264.999999999992
 30
0.0
 11
6557.0
 21
-1313.9999999999959
 31
0.0
1001
ACDBBLOCKREPETAG
1070
     1
1071
      153
1005
1288E5
  0
LINE
  5
1288E6
  8
OBJECT
 10
6425.0
 20
-1136.9999999999959
 30
0.0
 11
6443.0
 21
-1264.999999999992
 31
0.0
1001
ACDBBLOCKREPETAG
1070
     1
1071
      154
1005
1288E6
  0
LINE
  5
1288E7
  8
OBJECT
 10
6557.0
 20
-1264.999999999992
 30
0.0
 11
6575.0
 21
-1136.999999999992
 31
0.0
1001
ACDBBLOCKREPETAG
1070
     1
1071
      155
1005
1288E7
  0
LINE
  5
1288E8
  8
OBJECT
 10
6434.0
 20
-1349.9999999999959
 30
0.0
 11
6434.0
 21
-1313.9999999999959
 31
0.0
1001
ACDBBLOCKREPETAG
1070
     1
1071
      156
1005
1288E8
  0
LINE
  5
1288E9
  8
OBJECT
 10
6566.0
 20
-1349.9999999999959
 30
0.0
 11
6565.9999999999918
 21
-1313.9999999999959
 31
0.0
1001
ACDBBLOCKREPETAG
1070
     1
1071
      157
1005
1288E9
  0
LINE
  5
1288EA
  8
OBJECT
 10
6454.75
 20
-1339.699999999993
 30
0.0
 11
6467.2499999999991
 21
-1339.699999999993
 31
0.0
1001
ACDBBLOCKREPETAG
1070
     1
1071
      158
1005
1288EA
  0
LINE
  5
1288EB
  8
OBJECT
 10
6446.0
 20
-1349.9999999999959
 30
0.0
 11
6446.0
 21
-1347.6999999999971
 31
0.0
1001
ACDBBLOCKREPETAG
1070
     1
1071
      159
1005
1288EB
  0
LINE
  5
1288EC
  8
OBJECT
 10
6476.0
 20
-1349.9999999999959
 30
0.0
 11
6476.0
 21
-1347.6999999999971
 31
0.0
1001
ACDBBLOCKREPETAG
1070
     1
1071
      160
1005
1288EC
  0
LINE
  5
1288ED
  8
OBJECT
 10
6454.75
 20
-1339.699999999993
 30
0.0
 11
6454.75
 21
-1347.6999999999971
 31
0.0
1001
ACDBBLOCKREPETAG
1070
     1
1071
      161
1005
1288ED
  0
LINE
  5
1288EE
  8
OBJECT
 10
6467.2499999999991
 20
-1339.699999999993
 30
0.0
 11
6467.2499999999991
 21
-1347.6999999999971
 31
0.0
1001
ACDBBLOCKREPETAG
1070
     1
1071
      162
1005
1288EE
  0
LINE
  5
1288EF
  8
OBJECT
 10
6446.0
 20
-1347.6999999999971
 30
0.0
 11
6476.0
 21
-1347.6999999999971
 31
0.0
1001
ACDBBLOCKREPETAG
1070
     1
1071
      163
1005
1288EF
  0
LINE
  5
1288F0
  8
OBJECT
 10
6453.0
 20
-1388.9999999999959
 30
0.0
 11
6453.0
 21
-1398.9999999999959
 31
0.0
1001
ACDBBLOCKREPETAG
1070
     1
1071
      164
1005
1288F0
  0
LINE
  5
1288F1
  8
OBJECT
 10
6469.0
 20
-1388.9999999999959
 30
0.0
 11
6469.0
 21
-1398.9999999999959
 31
0.0
1001
ACDBBLOCKREPETAG
1070
     1
1071
      165
1005
1288F1
  0
LINE
  5
1288F2
  8
OBJECT
 10
6453.0
 20
-1398.9999999999959
 30
0.0
 11
6469.0
 21
-1398.9999999999959
 31
0.0
1001
ACDBBLOCKREPETAG
1070
     1
1071
      166
1005
1288F2
  0
LINE
  5
1288F3
  8
OBJECT
 10
6466.0
 20
-1374.9999999999959
 30
0.0
 11
6466.0
 21
-1364.9999999999959
 31
0.0
1001
ACDBBLOCKREPETAG
1070
     1
1071
      167
1005
1288F3
  0
LINE
  5
1288F4
  8
OBJECT
 10
6456.0
 20
-1374.9999999999959
 30
0.0
 11
6456.0
 21
-1364.9999999999959
 31
0.0
1001
ACDBBLOCKREPETAG
1070
     1
1071
      168
1005
1288F4
  0
LINE
  5
1288F5
  8
OBJECT
 10
4590.0
 20
-1349.9999999999959
 30
0.0
 11
4424.0
 21
-1349.9999999999959
 31
0.0
1001
ACDBBLOCKREPETAG
1070
     1
1071
       12
1005
1288F5
  0
LINE
  5
1288F6
  8
OBJECT
 10
4566.0
 20
-1313.9999999999959
 30
0.0
 11
4434.0
 21
-1313.9999999999959
 31
0.0
1001
ACDBBLOCKREPETAG
1070
     1
1071
       13
1005
1288F6
  0
LINE
  5
1288F7
  8
OBJECT
 10
4590.0
 20
-1365.0
 30
0.0
 11
4590.0
 21
-1349.9999999999959
 31
0.0
1001
ACDBBLOCKREPETAG
1070
     1
1071
       14
1005
1288F7
  0
LINE
  5
1288F8
  8
OBJECT
 10
4424.0
 20
-1365.0
 30
0.0
 11
4590.0
 21
-1365.0
 31
0.0
1001
ACDBBLOCKREPETAG
1070
     1
1071
       15
1005
1288F8
  0
LINE
  5
1288F9
  8
OBJECT
 10
4567.4999999999864
 20
-1365.0
 30
0.0
 11
4567.4999999999864
 21
-1375.0
 31
0.0
1001
ACDBBLOCKREPETAG
1070
     1
1071
       16
1005
1288F9
  0
LINE
  5
1288FA
  8
OBJECT
 10
4424.0
 20
-1375.0
 30
0.0
 11
4424.0
 21
-1388.9999999999959
 31
0.0
1001
ACDBBLOCKREPETAG
1070
     1
1071
       17
1005
1288FA
  0
LINE
  5
1288FB
  8
OBJECT
 10
4590.0
 20
-1375.0
 30
0.0
 11
4590.0
 21
-1388.9999999999959
 31
0.0
1001
ACDBBLOCKREPETAG
1070
     1
1071
       18
1005
1288FB
  0
LINE
  5
1288FC
  8
OBJECT
 10
4424.0
 20
-1388.9999999999959
 30
0.0
 11
4590.0
 21
-1388.9999999999959
 31
0.0
1001
ACDBBLOCKREPETAG
1070
     1
1071
       19
1005
1288FC
  0
LINE
  5
1288FD
  8
OBJECT
 10
4424.0
 20
-1375.0
 30
0.0
 11
4590.0
 21
-1375.0
 31
0.0
1001
ACDBBLOCKREPETAG
1070
     1
1071
       20
1005
1288FD
  0
LINE
  5
1288FE
  8
OBJECT
 10
4432.4999999999854
 20
-1365.0
 30
0.0
 11
4432.4999999999854
 21
-1375.0
 31
0.0
1001
ACDBBLOCKREPETAG
1070
     1
1071
       21
1005
1288FE
  0
LINE
  5
1288FF
  8
OBJECT
 10
4424.0
 20
-1365.0
 30
0.0
 11
4424.0
 21
-1349.9999999999959
 31
0.0
1001
ACDBBLOCKREPETAG
1070
     1
1071
       22
1005
1288FF
  0
LINE
  5
128900
  8
HIDDEN
 10
4443.0
 20
-1325.0
 30
0.0
 11
4557.0
 21
-1325.0
 31
0.0
1001
ACDBBLOCKREPETAG
1070
     1
1071
       23
1005
128900
  0
LINE
  5
128901
  8
CENTER
 10
4500.0
 20
-1055.0
 30
0.0
 11
4500.0
 21
-1403.9999999999959
 31
0.0
1001
ACDBBLOCKREPETAG
1070
     1
1071
       24
1005
128901
  0
LINE
  5
128902
  8
OBJECT
 10
4425.0
 20
-1055.0
 30
0.0
 11
4425.0
 21
-1136.9999999999959
 31
0.0
1001
ACDBBLOCKREPETAG
1070
     1
1071
       25
1005
128902
  0
LINE
  5
128903
  8
OBJECT
 10
4575.0
 20
-1055.0
 30
0.0
 11
4575.0
 21
-1136.999999999993
 31
0.0
1001
ACDBBLOCKREPETAG
1070
     1
1071
       26
1005
128903
  0
LINE
  5
128904
  8
OBJECT
 10
4425.0
 20
-1136.9999999999959
 30
0.0
 11
4575.0
 21
-1136.999999999993
 31
0.0
1001
ACDBBLOCKREPETAG
1070
     1
1071
       27
1005
128904
  0
LINE
  5
128905
  8
OBJECT
 10
4557.0
 20
-1313.9999999999959
 30
0.0
 11
4557.0
 21
-1264.999999999993
 31
0.0
1001
ACDBBLOCKREPETAG
1070
     1
1071
       28
1005
128905
  0
LINE
  5
128906
  8
OBJECT
 10
4443.0
 20
-1313.9999999999959
 30
0.0
 11
4443.0
 21
-1264.999999999993
 31
0.0
1001
ACDBBLOCKREPETAG
1070
     1
1071
       29
1005
128906
  0
LINE
  5
128907
  8
OBJECT
 10
4557.0
 20
-1264.999999999993
 30
0.0
 11
4443.0
 21
-1264.999999999993
 31
0.0
1001
ACDBBLOCKREPETAG
1070
     1
1071
       30
1005
128907
  0
LINE
  5
128908
  8
OBJECT
 10
4425.0
 20
-1136.9999999999959
 30
0.0
 11
4443.0
 21
-1264.999999999993
 31
0.0
1001
ACDBBLOCKREPETAG
1070
     1
1071
       31
1005
128908
  0
LINE
  5
128909
  8
OBJECT
 10
4557.0
 20
-1264.999999999993
 30
0.0
 11
4575.0
 21
-1136.999999999993
 31
0.0
1001
ACDBBLOCKREPETAG
1070
     1
1071
       32
1005
128909
  0
LINE
  5
12890A
  8
OBJECT
 10
4434.0
 20
-1313.9999999999959
 30
0.0
 11
4434.0
 21
-1349.9999999999959
 31
0.0
1001
ACDBBLOCKREPETAG
1070
     1
1071
       33
1005
12890A
  0
LINE
  5
12890B
  8
OBJECT
 10
4566.0
 20
-1313.9999999999959
 30
0.0
 11
4566.0
 21
-1349.9999999999959
 31
0.0
1001
ACDBBLOCKREPETAG
1070
     1
1071
       34
1005
12890B
  0
LINE
  5
12890C
  8
OBJECT
 10
4582.9999999999927
 20
-1374.9999999999959
 30
0.0
 11
4582.9999999999927
 21
-1364.9999999999959
 31
0.0
1001
ACDBBLOCKREPETAG
1070
     1
1071
       35
1005
12890C
  0
LINE
  5
12890D
  8
OBJECT
 10
4572.9999999999918
 20
-1374.9999999999959
 30
0.0
 11
4572.9999999999918
 21
-1364.9999999999959
 31
0.0
1001
ACDBBLOCKREPETAG
1070
     1
1071
       36
1005
12890D
  0
LINE
  5
12890E
  8
OBJECT
 10
4568.9999999999864
 20
-1344.9999999999959
 30
0.0
 11
4568.9999999999864
 21
-1349.9999999999959
 31
0.0
1001
ACDBBLOCKREPETAG
1070
     1
1071
       37
1005
12890E
  0
LINE
  5
12890F
  8
OBJECT
 10
4587.0
 20
-1344.9999999999959
 30
0.0
 11
4587.0
 21
-1349.9999999999959
 31
0.0
1001
ACDBBLOCKREPETAG
1070
     1
1071
       38
1005
12890F
  0
LINE
  5
128910
  8
OBJECT
 10
4587.0
 20
-1344.9999999999959
 30
0.0
 11
4568.9999999999864
 21
-1344.9999999999959
 31
0.0
1001
ACDBBLOCKREPETAG
1070
     1
1071
       39
1005
128910
  0
LINE
  5
128911
  8
OBJECT
 10
4573.0
 20
-1396.9999999999959
 30
0.0
 11
4573.0
 21
-1399.9999999999959
 31
0.0
1001
ACDBBLOCKREPETAG
1070
     1
1071
       40
1005
128911
  0
LINE
  5
128912
  8
OBJECT
 10
4573.0
 20
-1399.9999999999959
 30
0.0
 11
4583.0
 21
-1399.9999999999959
 31
0.0
1001
ACDBBLOCKREPETAG
1070
     1
1071
       41
1005
128912
  0
LINE
  5
128913
  8
OBJECT
 10
4583.0
 20
-1399.9999999999959
 30
0.0
 11
4583.0
 21
-1396.9999999999959
 31
0.0
1001
ACDBBLOCKREPETAG
1070
     1
1071
       43
1005
128913
  0
LINE
  5
128914
  8
OBJECT
 10
4468.5
 20
-1344.9999999999959
 30
0.0
 11
4451.9999999999909
 21
-1344.9999999999959
 31
0.0
1001
ACDBBLOCKREPETAG
1070
     1
1071
       48
1005
128914
  0
LINE
  5
128915
  8
OBJECT
 10
4476.0
 20
-1349.9999999999959
 30
0.0
 11
4476.0
 21
-1347.9999999999959
 31
0.0
1001
ACDBBLOCKREPETAG
1070
     1
1071
       49
1005
128915
  0
LINE
  5
128916
  8
OBJECT
 10
4466.0
 20
-1374.9999999999959
 30
0.0
 11
4466.0
 21
-1364.9999999999959
 31
0.0
1001
ACDBBLOCKREPETAG
1070
     1
1071
       50
1005
128916
  0
LINE
  5
128917
  8
OBJECT
 10
4456.0
 20
-1374.9999999999959
 30
0.0
 11
4456.0
 21
-1364.9999999999959
 31
0.0
1001
ACDBBLOCKREPETAG
1070
     1
1071
       51
1005
128917
  0
LINE
  5
128918
  8
OBJECT
 10
4451.9999999999909
 20
-1344.9999999999959
 30
0.0
 11
4451.9999999999909
 21
-1349.9999999999959
 31
0.0
1001
ACDBBLOCKREPETAG
1070
     1
1071
       52
1005
128918
  0
LINE
  5
128919
  8
OBJECT
 10
4456.0
 20
-1396.9999999999959
 30
0.0
 11
4456.0
 21
-1399.9999999999959
 31
0.0
1001
ACDBBLOCKREPETAG
1070
     1
1071
       53
1005
128919
  0
LINE
  5
12891A
  8
OBJECT
 10
4456.0
 20
-1399.9999999999959
 30
0.0
 11
4466.0
 21
-1399.9999999999959
 31
0.0
1001
ACDBBLOCKREPETAG
1070
     1
1071
       54
1005
12891A
  0
LINE
  5
12891B
  8
OBJECT
 10
4451.185045423772
 20
-1396.9999999999959
 30
0.0
 11
4470.8149545762208
 21
-1396.9999999999959
 31
0.0
1001
ACDBBLOCKREPETAG
1070
     1
1071
       55
1005
12891B
  0
LINE
  5
12891C
  8
OBJECT
 10
4466.0
 20
-1399.9999999999959
 30
0.0
 11
4466.0
 21
-1396.9999999999959
 31
0.0
1001
ACDBBLOCKREPETAG
1070
     1
1071
       56
1005
12891C
  0
LINE
  5
12891D
  8
OBJECT
 10
4476.0
 20
-1347.9999999999959
 30
0.0
 11
4468.5
 21
-1344.9999999999959
 31
0.0
1001
ACDBBLOCKREPETAG
1070
     1
1071
       57
1005
12891D
  0
LINE
  5
12891E
  8
OBJECT
 10
4451.1850454237756
 20
-1388.9999999999959
 30
0.0
 11
4451.1850454237756
 21
-1396.9999999999959
 31
0.0
1001
ACDBBLOCKREPETAG
1070
     1
1071
      630
1005
12891E
  0
LINE
  5
12891F
  8
OBJECT
 10
4456.0925227118869
 20
-1388.9999999999959
 30
0.0
 11
4456.0925227118869
 21
-1396.9999999999959
 31
0.0
1001
ACDBBLOCKREPETAG
1070
     1
1071
      631
1005
12891F
  0
LINE
  5
128920
  8
OBJECT
 10
4465.9074772881113
 20
-1388.9999999999959
 30
0.0
 11
4465.9074772881113
 21
-1396.9999999999959
 31
0.0
1001
ACDBBLOCKREPETAG
1070
     1
1071
      632
1005
128920
  0
LINE
  5
128921
  8
OBJECT
 10
4470.8149545762226
 20
-1388.9999999999959
 30
0.0
 11
4470.8149545762226
 21
-1396.9999999999959
 31
0.0
1001
ACDBBLOCKREPETAG
1070
     1
1071
      633
1005
128921
  0
LINE
  5
128922
  8
OBJECT
 10
4568.185045423772
 20
-1396.9999999999959
 30
0.0
 11
4587.814954576219
 21
-1396.9999999999959
 31
0.0
1001
ACDBBLOCKREPETAG
1070
     1
1071
      634
1005
128922
  0
LINE
  5
128923
  8
OBJECT
 10
4568.1850454237783
 20
-1388.9999999999959
 30
0.0
 11
4568.1850454237783
 21
-1396.9999999999959
 31
0.0
1001
ACDBBLOCKREPETAG
1070
     1
1071
      635
1005
128923
  0
LINE
  5
128924
  8
OBJECT
 10
4573.0925227118869
 20
-1388.9999999999959
 30
0.0
 11
4573.0925227118869
 21
-1396.9999999999959
 31
0.0
1001
ACDBBLOCKREPETAG
1070
     1
1071
      636
1005
128924
  0
LINE
  5
128925
  8
OBJECT
 10
4582.9074772881122
 20
-1388.9999999999959
 30
0.0
 11
4582.9074772881122
 21
-1396.9999999999959
 31
0.0
1001
ACDBBLOCKREPETAG
1070
     1
1071
      637
1005
128925
  0
LINE
  5
128926
  8
OBJECT
 10
4587.8149545762226
 20
-1388.9999999999959
 30
0.0
 11
4587.8149545762226
 21
-1396.9999999999959
 31
0.0
1001
ACDBBLOCKREPETAG
1070
     1
1071
      638
1005
128926
  0
LINE
  5
128927
  8
CENTER
 10
12409.0
 20
-1638.9999999999959
 30
0.0
 11
12605.0
 21
-1638.9999999999959
 31
0.0
1001
ACDBBLOCKREPETAG
1070
     1
1071
       10
1005
128927
  0
LINE
  5
128928
  8
CENTER
 10
12500.0
 20
-1547.7253355707801
 30
0.0
 11
12500.0
 21
-1730.2746644292131
 31
0.0
1001
ACDBBLOCKREPETAG
1070
     1
1071
       11
1005
128928
  0
CIRCLE
  5
128929
  8
OBJECT
 10
12500.0
 20
-1638.9999999999959
 30
0.0
 40
50.0
1001
ACDBBLOCKREPETAG
1070
     1
1071
       12
1005
128929
  0
CIRCLE
  5
12892A
  8
OBJECT
 10
12500.0
 20
-1638.9999999999959
 30
0.0
 40
60.0
1001
ACDBBLOCKREPETAG
1070
     1
1071
       13
1005
12892A
  0
CIRCLE
  5
12892B
  8
OBJECT
 10
12500.0
 20
-1638.9999999999959
 30
0.0
 40
68.0
1001
ACDBBLOCKREPETAG
1070
     1
1071
       14
1005
12892B
  0
ARC
  5
12892C
  8
OBJECT
 10
12577.5
 20
-1638.9999999999959
 30
0.0
 40
12.0
 50
272.10542627221611
 51
87.894573727783893
1001
ACDBBLOCKREPETAG
1070
     1
1071
       15
1005
12892C
  0
ARC
  5
12892D
  8
OBJECT
 10
12578.49193548386
 20
-1612.0182271895239
 30
0.0
 40
15.0
 50
198.97051877965251
 51
267.89457372778372
1001
ACDBBLOCKREPETAG
1070
     1
1071
       16
1005
12892D
  0
ARC
  5
12892E
  8
OBJECT
 10
12578.49193548386
 20
-1665.981772810464
 30
0.0
 40
15.0
 50
92.105426272216135
 51
161.02948122034729
1001
ACDBBLOCKREPETAG
1070
     1
1071
       17
1005
12892E
  0
CIRCLE
  5
12892F
  8
SLIM
 10
12578.0
 20
-1638.9999999999959
 30
0.0
 40
8.0
1001
ACDBBLOCKREPETAG
1070
     1
1071
       18
1005
12892F
  0
POLYLINE
  5
128930
  8
SLIM
 66
     1
 10
0.0
 20
0.0
 30
0.0
 70
     1
1001
ACDBBLOCKREPETAG
1070
     1
1071
       19
1005
128930
  0
VERTEX
  5
128B99
  8
SLIM
 10
12575.690598923229
 20
-1634.9999999999959
 30
0.0
  0
VERTEX
  5
128B9A
  8
SLIM
 10
12573.38119784648
 20
-1638.9999999999959
 30
0.0
  0
VERTEX
  5
128B9B
  8
SLIM
 10
12575.690598923229
 20
-1642.9999999999959
 30
0.0
  0
VERTEX
  5
128B9C
  8
SLIM
 10
12580.309401076751
 20
-1642.9999999999959
 30
0.0
  0
VERTEX
  5
128B9D
  8
SLIM
 10
12582.618802153511
 20
-1638.9999999999959
 30
0.0
  0
VERTEX
  5
128B9E
  8
SLIM
 10
12580.309401076751
 20
-1634.9999999999959
 30
0.0
  0
SEQEND
  5
128B9F
  8
SLIM
  0
ARC
  5
128931
  8
OBJECT
 10
12461.25
 20
-1571.8830312067
 30
0.0
 40
12.0
 50
32.105426272130188
 51
207.89457372768319
1001
ACDBBLOCKREPETAG
1070
     1
1071
       20
1005
128931
  0
ARC
  5
128932
  8
OBJECT
 10
12437.38713156505
 20
-1584.514876283989
 30
0.0
 40
15.0
 50
318.97051877944762
 51
27.89457372768311
1001
ACDBBLOCKREPETAG
1070
     1
1071
       21
1005
128932
  0
ARC
  5
128933
  8
OBJECT
 10
12484.120932951069
 20
-1557.533103473517
 30
0.0
 40
15.0
 50
212.10542627213019
 51
281.02948122044069
1001
ACDBBLOCKREPETAG
1070
     1
1071
       22
1005
128933
  0
CIRCLE
  5
128934
  8
SLIM
 10
12461.0
 20
-1571.450018504808
 30
0.0
 40
7.9999999999999982
1001
ACDBBLOCKREPETAG
1070
     1
1071
       23
1005
128934
  0
POLYLINE
  5
128935
  8
SLIM
 66
     1
 10
0.0
 20
0.0
 30
0.0
 70
     1
1001
ACDBBLOCKREPETAG
1070
     1
1071
       24
1005
128935
  0
VERTEX
  5
128BA0
  8
SLIM
 10
12458.69059892324
 20
-1575.4500185048089
 30
0.0
  0
VERTEX
  5
128BA1
  8
SLIM
 10
12463.309401076751
 20
-1575.4500185048089
 30
0.0
  0
VERTEX
  5
128BA2
  8
SLIM
 10
12465.618802153511
 20
-1571.450018504808
 30
0.0
  0
VERTEX
  5
128BA3
  8
SLIM
 10
12463.309401076751
 20
-1567.4500185048089
 30
0.0
  0
VERTEX
  5
128BA4
  8
SLIM
 10
12458.69059892324
 20
-1567.4500185048089
 30
0.0
  0
VERTEX
  5
128BA5
  8
SLIM
 10
12456.38119784648
 20
-1571.450018504808
 30
0.0
  0
SEQEND
  5
128BA6
  8
SLIM
  0
ARC
  5
128936
  8
OBJECT
 10
12461.25
 20
-1706.1169687932891
 30
0.0
 40
12.0
 50
152.10542627231681
 51
327.89457372786978
1001
ACDBBLOCKREPETAG
1070
     1
1071
       25
1005
128936
  0
ARC
  5
128937
  8
OBJECT
 10
12484.120932951069
 20
-1720.4668965264721
 30
0.0
 40
15.0
 50
78.970518779559228
 51
147.89457372786981
1001
ACDBBLOCKREPETAG
1070
     1
1071
       26
1005
128937
  0
ARC
  5
128938
  8
OBJECT
 10
12437.38713156505
 20
-1693.485123716004
 30
0.0
 40
15.0
 50
332.10542627231678
 51
41.029481220552412
1001
ACDBBLOCKREPETAG
1070
     1
1071
       27
1005
128938
  0
CIRCLE
  5
128939
  8
SLIM
 10
12461.0
 20
-1706.549981495182
 30
0.0
 40
8.0
1001
ACDBBLOCKREPETAG
1070
     1
1071
       28
1005
128939
  0
POLYLINE
  5
12893A
  8
SLIM
 66
     1
 10
0.0
 20
0.0
 30
0.0
 70
     1
1001
ACDBBLOCKREPETAG
1070
     1
1071
       29
1005
12893A
  0
VERTEX
  5
128BA7
  8
SLIM
 10
12465.618802153511
 20
-1706.54998149518
 30
0.0
  0
VERTEX
  5
128BA8
  8
SLIM
 10
12463.309401076751
 20
-1702.5499814951829
 30
0.0
  0
VERTEX
  5
128BA9
  8
SLIM
 10
12458.69059892324
 20
-1702.54998149518
 30
0.0
  0
VERTEX
  5
128BAA
  8
SLIM
 10
12456.38119784648
 20
-1706.549981495182
 30
0.0
  0
VERTEX
  5
128BAB
  8
SLIM
 10
12458.69059892322
 20
-1710.54998149518
 30
0.0
  0
VERTEX
  5
128BAC
  8
SLIM
 10
12463.309401076751
 20
-1710.5499814951841
 30
0.0
  0
SEQEND
  5
128BAD
  8
SLIM
  0
ARC
  5
12893B
  8
OBJECT
 10
12500.0
 20
-1638.9999999999959
 30
0.0
 40
76.0
 50
34.863837954171863
 51
85.136162045732945
1001
ACDBBLOCKREPETAG
1070
     1
1071
       42
1005
12893B
  0
ARC
  5
12893C
  8
OBJECT
 10
12500.0
 20
-1638.9999999999959
 30
0.0
 40
76.0
 50
154.86383795430939
 51
205.1361620456905
1001
ACDBBLOCKREPETAG
1070
     1
1071
       43
1005
12893C
  0
ARC
  5
12893D
  8
OBJECT
 10
12500.0
 20
-1638.9999999999959
 30
0.0
 40
76.0
 50
274.86383795426718
 51
325.13616204582797
1001
ACDBBLOCKREPETAG
1070
     1
1071
       44
1005
12893D
  0
ARC
  5
12893E
  8
OBJECT
 10
12578.0
 20
-1638.9999999999959
 30
0.0
 40
12.0
 50
325.13616204582797
 51
34.863837954171863
1001
ACDBBLOCKREPETAG
1070
     1
1071
       45
1005
12893E
  0
LINE
  5
12893F
  8
OBJECT
 10
12587.84615384616
 20
-1632.140462520134
 30
0.0
 11
12562.35897435904
 21
-1595.556262627535
 31
0.0
1001
ACDBBLOCKREPETAG
1070
     1
1071
       46
1005
12893F
  0
LINE
  5
128940
  8
OBJECT
 10
12587.846153846171
 20
-1645.859537479857
 30
0.0
 11
12562.35897435904
 21
-1682.4437373724591
 31
0.0
1001
ACDBBLOCKREPETAG
1070
     1
1071
       47
1005
128940
  0
ARC
  5
128941
  8
OBJECT
 10
12461.0
 20
-1571.4500185048109
 30
0.0
 40
12.0
 50
85.136162045942811
 51
154.86383795410001
1001
ACDBBLOCKREPETAG
1070
     1
1071
       48
1005
128941
  0
LINE
  5
128942
  8
OBJECT
 10
12450.13638936114
 20
-1566.3527678843909
 30
0.0
 11
12431.19713262058
 21
-1606.7174127373471
 31
0.0
1001
ACDBBLOCKREPETAG
1070
     1
1071
       49
1005
128942
  0
LINE
  5
128943
  8
OBJECT
 10
12462.017456792681
 20
-1559.4932304045269
 30
0.0
 11
12506.443893020371
 21
-1563.273675364886
 31
0.0
1001
ACDBBLOCKREPETAG
1070
     1
1071
       50
1005
128943
  0
ARC
  5
128944
  8
OBJECT
 10
12461.0
 20
-1706.549981495182
 30
0.0
 40
12.0
 50
205.13616204589991
 51
274.8638379540572
1001
ACDBBLOCKREPETAG
1070
     1
1071
       51
1005
128944
  0
LINE
  5
128945
  8
OBJECT
 10
12462.01745679269
 20
-1718.506769595464
 30
0.0
 11
12506.44389302036
 21
-1714.726324635106
 31
0.0
1001
ACDBBLOCKREPETAG
1070
     1
1071
       52
1005
128945
  0
LINE
  5
128946
  8
OBJECT
 10
12450.13638936114
 20
-1711.647232115605
 30
0.0
 11
12431.19713262058
 21
-1671.2825872626429
 31
0.0
1001
ACDBBLOCKREPETAG
1070
     1
1071
       53
1005
128946
  0
LINE
  5
128947
  8
CENTER
 10
10409.0
 20
-1638.9999999999959
 30
0.0
 11
10605.0
 21
-1638.9999999999959
 31
0.0
1001
ACDBBLOCKREPETAG
1070
     1
1071
        0
1005
128947
  0
LINE
  5
128948
  8
CENTER
 10
10500.0
 20
-1547.7253355707801
 30
0.0
 11
10500.0
 21
-1730.2746644292131
 31
0.0
1001
ACDBBLOCKREPETAG
1070
     1
1071
        1
1005
128948
  0
CIRCLE
  5
128949
  8
OBJECT
 10
10500.0
 20
-1638.9999999999959
 30
0.0
 40
50.0
1001
ACDBBLOCKREPETAG
1070
     1
1071
        2
1005
128949
  0
CIRCLE
  5
12894A
  8
OBJECT
 10
10500.0
 20
-1638.9999999999959
 30
0.0
 40
62.0
1001
ACDBBLOCKREPETAG
1070
     1
1071
        3
1005
12894A
  0
CIRCLE
  5
12894B
  8
SLIM
 10
10578.0
 20
-1638.9999999999959
 30
0.0
 40
5.0
1001
ACDBBLOCKREPETAG
1070
     1
1071
        4
1005
12894B
  0
POLYLINE
  5
12894C
  8
SLIM
 66
     1
 10
0.0
 20
0.0
 30
0.0
 70
     1
1001
ACDBBLOCKREPETAG
1070
     1
1071
        5
1005
12894C
  0
VERTEX
  5
128BAE
  8
SLIM
 10
10573.092522711881
 20
-1630.4999999999959
 30
0.0
  0
VERTEX
  5
128BAF
  8
SLIM
 10
10568.18504542377
 20
-1638.9999999999959
 30
0.0
  0
VERTEX
  5
128BB0
  8
SLIM
 10
10573.092522711881
 20
-1647.4999999999959
 30
0.0
  0
VERTEX
  5
128BB1
  8
SLIM
 10
10582.90747728811
 20
-1647.4999999999959
 30
0.0
  0
VERTEX
  5
128BB2
  8
SLIM
 10
10587.814954576221
 20
-1638.9999999999959
 30
0.0
  0
VERTEX
  5
128BB3
  8
SLIM
 10
10582.90747728811
 20
-1630.4999999999959
 30
0.0
  0
SEQEND
  5
128BB4
  8
SLIM
  0
CIRCLE
  5
12894D
  8
SLIM
 10
10461.0
 20
-1571.450018504808
 30
0.0
 40
4.9999999999999991
1001
ACDBBLOCKREPETAG
1070
     1
1071
        6
1005
12894D
  0
POLYLINE
  5
12894E
  8
SLIM
 66
     1
 10
0.0
 20
0.0
 30
0.0
 70
     1
1001
ACDBBLOCKREPETAG
1070
     1
1071
        7
1005
12894E
  0
VERTEX
  5
128BB5
  8
SLIM
 10
10456.092522711881
 20
-1579.950018504808
 30
0.0
  0
VERTEX
  5
128BB6
  8
SLIM
 10
10465.90747728811
 20
-1579.950018504808
 30
0.0
  0
VERTEX
  5
128BB7
  8
SLIM
 10
10470.814954576221
 20
-1571.450018504808
 30
0.0
  0
VERTEX
  5
128BB8
  8
SLIM
 10
10465.90747728811
 20
-1562.9500185048089
 30
0.0
  0
VERTEX
  5
128BB9
  8
SLIM
 10
10456.092522711881
 20
-1562.9500185048089
 30
0.0
  0
VERTEX
  5
128BBA
  8
SLIM
 10
10451.18504542377
 20
-1571.450018504808
 30
0.0
  0
SEQEND
  5
128BBB
  8
SLIM
  0
CIRCLE
  5
12894F
  8
SLIM
 10
10461.0
 20
-1706.549981495182
 30
0.0
 40
5.0
1001
ACDBBLOCKREPETAG
1070
     1
1071
        8
1005
12894F
  0
POLYLINE
  5
128950
  8
SLIM
 66
     1
 10
0.0
 20
0.0
 30
0.0
 70
     1
1001
ACDBBLOCKREPETAG
1070
     1
1071
        9
1005
128950
  0
VERTEX
  5
128BBC
  8
SLIM
 10
10470.814954576221
 20
-1706.549981495182
 30
0.0
  0
VERTEX
  5
128BBD
  8
SLIM
 10
10465.907477288099
 20
-1698.04998149518
 30
0.0
  0
VERTEX
  5
128BBE
  8
SLIM
 10
10456.092522711881
 20
-1698.0499814951841
 30
0.0
  0
VERTEX
  5
128BBF
  8
SLIM
 10
10451.18504542377
 20
-1706.54998149518
 30
0.0
  0
VERTEX
  5
128BC0
  8
SLIM
 10
10456.092522711881
 20
-1715.0499814951829
 30
0.0
  0
VERTEX
  5
128BC1
  8
SLIM
 10
10465.90747728811
 20
-1715.04998149518
 30
0.0
  0
SEQEND
  5
128BC2
  8
SLIM
  0
ARC
  5
128951
  8
OBJECT
 10
10500.0
 20
-1638.9999999999959
 30
0.0
 40
76.0
 50
34.863837954171863
 51
85.136162045732945
1001
ACDBBLOCKREPETAG
1070
     1
1071
       30
1005
128951
  0
ARC
  5
128952
  8
OBJECT
 10
10500.0
 20
-1638.9999999999959
 30
0.0
 40
76.0
 50
154.86383795430939
 51
205.1361620456905
1001
ACDBBLOCKREPETAG
1070
     1
1071
       31
1005
128952
  0
ARC
  5
128953
  8
OBJECT
 10
10500.0
 20
-1638.9999999999959
 30
0.0
 40
76.0
 50
274.86383795426718
 51
325.13616204582797
1001
ACDBBLOCKREPETAG
1070
     1
1071
       32
1005
128953
  0
ARC
  5
128954
  8
OBJECT
 10
10578.0
 20
-1638.9999999999959
 30
0.0
 40
12.0
 50
325.13616204582797
 51
34.863837954171863
1001
ACDBBLOCKREPETAG
1070
     1
1071
       33
1005
128954
  0
LINE
  5
128955
  8
OBJECT
 10
10587.84615384616
 20
-1632.140462520134
 30
0.0
 11
10562.35897435904
 21
-1595.556262627535
 31
0.0
1001
ACDBBLOCKREPETAG
1070
     1
1071
       34
1005
128955
  0
LINE
  5
128956
  8
OBJECT
 10
10587.846153846171
 20
-1645.859537479857
 30
0.0
 11
10562.35897435904
 21
-1682.4437373724591
 31
0.0
1001
ACDBBLOCKREPETAG
1070
     1
1071
       35
1005
128956
  0
ARC
  5
128957
  8
OBJECT
 10
10461.0
 20
-1571.4500185048109
 30
0.0
 40
12.0
 50
85.136162045942811
 51
154.86383795410001
1001
ACDBBLOCKREPETAG
1070
     1
1071
       36
1005
128957
  0
LINE
  5
128958
  8
OBJECT
 10
10450.13638936114
 20
-1566.3527678843909
 30
0.0
 11
10431.19713262058
 21
-1606.7174127373471
 31
0.0
1001
ACDBBLOCKREPETAG
1070
     1
1071
       37
1005
128958
  0
LINE
  5
128959
  8
OBJECT
 10
10462.017456792681
 20
-1559.4932304045269
 30
0.0
 11
10506.443893020371
 21
-1563.273675364886
 31
0.0
1001
ACDBBLOCKREPETAG
1070
     1
1071
       38
1005
128959
  0
ARC
  5
12895A
  8
OBJECT
 10
10461.0
 20
-1706.549981495182
 30
0.0
 40
12.0
 50
205.13616204589991
 51
274.8638379540572
1001
ACDBBLOCKREPETAG
1070
     1
1071
       39
1005
12895A
  0
LINE
  5
12895B
  8
OBJECT
 10
10462.01745679269
 20
-1718.506769595464
 30
0.0
 11
10506.44389302036
 21
-1714.726324635106
 31
0.0
1001
ACDBBLOCKREPETAG
1070
     1
1071
       40
1005
12895B
  0
LINE
  5
12895C
  8
OBJECT
 10
10450.13638936114
 20
-1711.647232115605
 30
0.0
 11
10431.19713262058
 21
-1671.2825872626429
 31
0.0
1001
ACDBBLOCKREPETAG
1070
     1
1071
       41
1005
12895C
  0
LINE
  5
12895D
  8
CENTER
 10
6409.0
 20
-1679.9999999999991
 30
0.0
 11
6605.0
 21
-1679.9999999999991
 31
0.0
1001
ACDBBLOCKREPETAG
1070
     1
1071
       10
1005
12895D
  0
LINE
  5
12895E
  8
CENTER
 10
6500.0
 20
-1588.725335570783
 30
0.0
 11
6500.0
 21
-1771.274664429216
 31
0.0
1001
ACDBBLOCKREPETAG
1070
     1
1071
       11
1005
12895E
  0
CIRCLE
  5
12895F
  8
OBJECT
 10
6500.0
 20
-1679.9999999999991
 30
0.0
 40
50.0
1001
ACDBBLOCKREPETAG
1070
     1
1071
       12
1005
12895F
  0
CIRCLE
  5
128960
  8
OBJECT
 10
6500.0
 20
-1679.9999999999991
 30
0.0
 40
60.0
1001
ACDBBLOCKREPETAG
1070
     1
1071
       13
1005
128960
  0
CIRCLE
  5
128961
  8
OBJECT
 10
6500.0
 20
-1679.9999999999991
 30
0.0
 40
68.0
1001
ACDBBLOCKREPETAG
1070
     1
1071
       14
1005
128961
  0
ARC
  5
128962
  8
OBJECT
 10
6577.5
 20
-1679.9999999999991
 30
0.0
 40
12.0
 50
272.10542627221611
 51
87.894573727783893
1001
ACDBBLOCKREPETAG
1070
     1
1071
       15
1005
128962
  0
ARC
  5
128963
  8
OBJECT
 10
6578.4919354838639
 20
-1653.018227189528
 30
0.0
 40
15.0
 50
198.9705187796356
 51
267.89457372778372
1001
ACDBBLOCKREPETAG
1070
     1
1071
       16
1005
128963
  0
ARC
  5
128964
  8
OBJECT
 10
6578.4919354838639
 20
-1706.9817728104681
 30
0.0
 40
15.0
 50
92.105426272216135
 51
161.02948122036429
1001
ACDBBLOCKREPETAG
1070
     1
1071
       17
1005
128964
  0
CIRCLE
  5
128965
  8
SLIM
 10
6578.0
 20
-1679.9999999999991
 30
0.0
 40
8.0
1001
ACDBBLOCKREPETAG
1070
     1
1071
       18
1005
128965
  0
POLYLINE
  5
128966
  8
SLIM
 66
     1
 10
0.0
 20
0.0
 30
0.0
 70
     1
1001
ACDBBLOCKREPETAG
1070
     1
1071
       19
1005
128966
  0
VERTEX
  5
128BC3
  8
SLIM
 10
6575.6905989232318
 20
-1675.9999999999991
 30
0.0
  0
VERTEX
  5
128BC4
  8
SLIM
 10
6573.3811978464792
 20
-1679.9999999999991
 30
0.0
  0
VERTEX
  5
128BC5
  8
SLIM
 10
6575.6905989232318
 20
-1683.9999999999991
 30
0.0
  0
VERTEX
  5
128BC6
  8
SLIM
 10
6580.3094010767518
 20
-1683.9999999999991
 30
0.0
  0
VERTEX
  5
128BC7
  8
SLIM
 10
6582.6188021535127
 20
-1679.9999999999991
 30
0.0
  0
VERTEX
  5
128BC8
  8
SLIM
 10
6580.3094010767518
 20
-1675.9999999999991
 30
0.0
  0
SEQEND
  5
128BC9
  8
SLIM
  0
ARC
  5
128967
  8
OBJECT
 10
6461.2499999999991
 20
-1612.883031206703
 30
0.0
 40
12.0
 50
32.105426272157878
 51
207.89457372770741
1001
ACDBBLOCKREPETAG
1070
     1
1071
       20
1005
128967
  0
ARC
  5
128968
  8
OBJECT
 10
6437.3871315650549
 20
-1625.514876283992
 30
0.0
 40
15.0
 50
318.97051877944762
 51
27.894573727707481
1001
ACDBBLOCKREPETAG
1070
     1
1071
       21
1005
128968
  0
ARC
  5
128969
  8
OBJECT
 10
6484.1209329510693
 20
-1598.53310347352
 30
0.0
 40
15.0
 50
212.1054262721579
 51
281.02948122044069
1001
ACDBBLOCKREPETAG
1070
     1
1071
       22
1005
128969
  0
CIRCLE
  5
12896A
  8
SLIM
 10
6461.0
 20
-1612.4500185048121
 30
0.0
 40
7.9999999999999982
1001
ACDBBLOCKREPETAG
1070
     1
1071
       23
1005
12896A
  0
POLYLINE
  5
12896B
  8
SLIM
 66
     1
 10
0.0
 20
0.0
 30
0.0
 70
     1
1001
ACDBBLOCKREPETAG
1070
     1
1071
       24
1005
12896B
  0
VERTEX
  5
128BCA
  8
SLIM
 10
6458.69059892324
 20
-1616.4500185048121
 30
0.0
  0
VERTEX
  5
128BCB
  8
SLIM
 10
6463.3094010767518
 20
-1616.4500185048121
 30
0.0
  0
VERTEX
  5
128BCC
  8
SLIM
 10
6465.6188021535136
 20
-1612.4500185048121
 30
0.0
  0
VERTEX
  5
128BCD
  8
SLIM
 10
6463.3094010767518
 20
-1608.4500185048121
 30
0.0
  0
VERTEX
  5
128BCE
  8
SLIM
 10
6458.69059892324
 20
-1608.4500185048121
 30
0.0
  0
VERTEX
  5
128BCF
  8
SLIM
 10
6456.3811978464801
 20
-1612.4500185048121
 30
0.0
  0
SEQEND
  5
128BD0
  8
SLIM
  0
ARC
  5
12896C
  8
OBJECT
 10
6461.2499999999991
 20
-1747.116968793292
 30
0.0
 40
12.0
 50
152.1054262722925
 51
327.89457372784221
1001
ACDBBLOCKREPETAG
1070
     1
1071
       25
1005
12896C
  0
ARC
  5
12896D
  8
OBJECT
 10
6484.1209329510693
 20
-1761.466896526475
 30
0.0
 40
15.0
 50
78.970518779559228
 51
147.8945737278421
1001
ACDBBLOCKREPETAG
1070
     1
1071
       26
1005
12896D
  0
ARC
  5
12896E
  8
OBJECT
 10
6437.3871315650549
 20
-1734.4851237160069
 30
0.0
 40
15.0
 50
332.1054262722925
 51
41.029481220552412
1001
ACDBBLOCKREPETAG
1070
     1
1071
       27
1005
12896E
  0
CIRCLE
  5
12896F
  8
SLIM
 10
6461.0
 20
-1747.5499814951861
 30
0.0
 40
8.0
1001
ACDBBLOCKREPETAG
1070
     1
1071
       28
1005
12896F
  0
POLYLINE
  5
128970
  8
SLIM
 66
     1
 10
0.0
 20
0.0
 30
0.0
 70
     1
1001
ACDBBLOCKREPETAG
1070
     1
1071
       29
1005
128970
  0
VERTEX
  5
128BD1
  8
SLIM
 10
6465.6188021535136
 20
-1747.5499814951829
 30
0.0
  0
VERTEX
  5
128BD2
  8
SLIM
 10
6463.3094010767518
 20
-1743.549981495187
 30
0.0
  0
VERTEX
  5
128BD3
  8
SLIM
 10
6458.69059892324
 20
-1743.5499814951829
 30
0.0
  0
VERTEX
  5
128BD4
  8
SLIM
 10
6456.3811978464801
 20
-1747.5499814951861
 30
0.0
  0
VERTEX
  5
128BD5
  8
SLIM
 10
6458.6905989232328
 20
-1751.549981495182
 30
0.0
  0
VERTEX
  5
128BD6
  8
SLIM
 10
6463.3094010767518
 20
-1751.549981495187
 30
0.0
  0
SEQEND
  5
128BD7
  8
SLIM
  0
ARC
  5
128971
  8
OBJECT
 10
6500.0
 20
-1679.9999999999991
 30
0.0
 40
76.0
 50
34.863837954142063
 51
85.136162045732945
1001
ACDBBLOCKREPETAG
1070
     1
1071
       42
1005
128971
  0
ARC
  5
128972
  8
OBJECT
 10
6500.0
 20
-1679.9999999999991
 30
0.0
 40
76.0
 50
154.86383795430939
 51
205.1361620456905
1001
ACDBBLOCKREPETAG
1070
     1
1071
       43
1005
128972
  0
ARC
  5
128973
  8
OBJECT
 10
6500.0
 20
-1679.9999999999991
 30
0.0
 40
76.0
 50
274.86383795426718
 51
325.13616204585799
1001
ACDBBLOCKREPETAG
1070
     1
1071
       44
1005
128973
  0
ARC
  5
128974
  8
OBJECT
 10
6578.0
 20
-1679.9999999999991
 30
0.0
 40
12.0
 50
325.13616204585799
 51
34.863837954142063
1001
ACDBBLOCKREPETAG
1070
     1
1071
       45
1005
128974
  0
LINE
  5
128975
  8
OBJECT
 10
6587.8461538461661
 20
-1673.1404625201369
 30
0.0
 11
6562.3589743590492
 21
-1636.556262627538
 31
0.0
1001
ACDBBLOCKREPETAG
1070
     1
1071
       46
1005
128975
  0
LINE
  5
128976
  8
OBJECT
 10
6587.8461538461688
 20
-1686.8595374798599
 30
0.0
 11
6562.3589743590492
 21
-1723.4437373724629
 31
0.0
1001
ACDBBLOCKREPETAG
1070
     1
1071
       47
1005
128976
  0
ARC
  5
128977
  8
OBJECT
 10
6461.0
 20
-1612.4500185048139
 30
0.0
 40
12.0
 50
85.136162045942811
 51
154.86383795410001
1001
ACDBBLOCKREPETAG
1070
     1
1071
       48
1005
128977
  0
LINE
  5
128978
  8
OBJECT
 10
6450.1363893611451
 20
-1607.3527678843941
 30
0.0
 11
6431.1971326205858
 21
-1647.7174127373501
 31
0.0
1001
ACDBBLOCKREPETAG
1070
     1
1071
       49
1005
128978
  0
LINE
  5
128979
  8
OBJECT
 10
6462.0174567926842
 20
-1600.4932304045301
 30
0.0
 11
6506.4438930203687
 21
-1604.273675364889
 31
0.0
1001
ACDBBLOCKREPETAG
1070
     1
1071
       50
1005
128979
  0
ARC
  5
12897A
  8
OBJECT
 10
6461.0
 20
-1747.549981495185
 30
0.0
 40
12.0
 50
205.13616204589991
 51
274.8638379540572
1001
ACDBBLOCKREPETAG
1070
     1
1071
       51
1005
12897A
  0
LINE
  5
12897B
  8
OBJECT
 10
6462.0174567926879
 20
-1759.5067695954669
 30
0.0
 11
6506.4438930203651
 21
-1755.7263246351099
 31
0.0
1001
ACDBBLOCKREPETAG
1070
     1
1071
       52
1005
12897B
  0
LINE
  5
12897C
  8
OBJECT
 10
6450.1363893611451
 20
-1752.6472321156079
 30
0.0
 11
6431.1971326205821
 21
-1712.282587262647
 31
0.0
1001
ACDBBLOCKREPETAG
1070
     1
1071
       53
1005
12897C
  0
LINE
  5
12897D
  8
CENTER
 10
4409.0
 20
-1638.9999999999959
 30
0.0
 11
4605.0
 21
-1638.9999999999959
 31
0.0
1001
ACDBBLOCKREPETAG
1070
     1
1071
        0
1005
12897D
  0
LINE
  5
12897E
  8
CENTER
 10
4500.0
 20
-1547.7253355707801
 30
0.0
 11
4500.0
 21
-1730.2746644292131
 31
0.0
1001
ACDBBLOCKREPETAG
1070
     1
1071
        1
1005
12897E
  0
CIRCLE
  5
12897F
  8
OBJECT
 10
4500.0
 20
-1638.9999999999959
 30
0.0
 40
50.0
1001
ACDBBLOCKREPETAG
1070
     1
1071
        2
1005
12897F
  0
CIRCLE
  5
128980
  8
OBJECT
 10
4500.0
 20
-1638.9999999999959
 30
0.0
 40
62.0
1001
ACDBBLOCKREPETAG
1070
     1
1071
        3
1005
128980
  0
CIRCLE
  5
128981
  8
SLIM
 10
4578.0
 20
-1638.9999999999959
 30
0.0
 40
5.0
1001
ACDBBLOCKREPETAG
1070
     1
1071
        4
1005
128981
  0
POLYLINE
  5
128982
  8
SLIM
 66
     1
 10
0.0
 20
0.0
 30
0.0
 70
     1
1001
ACDBBLOCKREPETAG
1070
     1
1071
        5
1005
128982
  0
VERTEX
  5
128BD8
  8
SLIM
 10
4573.092522711886
 20
-1630.4999999999959
 30
0.0
  0
VERTEX
  5
128BD9
  8
SLIM
 10
4568.185045423772
 20
-1638.9999999999959
 30
0.0
  0
VERTEX
  5
128BDA
  8
SLIM
 10
4573.092522711886
 20
-1647.4999999999959
 30
0.0
  0
VERTEX
  5
128BDB
  8
SLIM
 10
4582.9074772881049
 20
-1647.4999999999959
 30
0.0
  0
VERTEX
  5
128BDC
  8
SLIM
 10
4587.814954576219
 20
-1638.9999999999959
 30
0.0
  0
VERTEX
  5
128BDD
  8
SLIM
 10
4582.9074772881049
 20
-1630.4999999999959
 30
0.0
  0
SEQEND
  5
128BDE
  8
SLIM
  0
CIRCLE
  5
128983
  8
SLIM
 10
4461.0
 20
-1571.450018504808
 30
0.0
 40
4.9999999999999991
1001
ACDBBLOCKREPETAG
1070
     1
1071
        6
1005
128983
  0
POLYLINE
  5
128984
  8
SLIM
 66
     1
 10
0.0
 20
0.0
 30
0.0
 70
     1
1001
ACDBBLOCKREPETAG
1070
     1
1071
        7
1005
128984
  0
VERTEX
  5
128BDF
  8
SLIM
 10
4456.092522711886
 20
-1579.950018504808
 30
0.0
  0
VERTEX
  5
128BE0
  8
SLIM
 10
4465.907477288114
 20
-1579.950018504808
 30
0.0
  0
VERTEX
  5
128BE1
  8
SLIM
 10
4470.8149545762208
 20
-1571.450018504808
 30
0.0
  0
VERTEX
  5
128BE2
  8
SLIM
 10
4465.907477288114
 20
-1562.9500185048089
 30
0.0
  0
VERTEX
  5
128BE3
  8
SLIM
 10
4456.092522711886
 20
-1562.9500185048089
 30
0.0
  0
VERTEX
  5
128BE4
  8
SLIM
 10
4451.185045423772
 20
-1571.450018504808
 30
0.0
  0
SEQEND
  5
128BE5
  8
SLIM
  0
CIRCLE
  5
128985
  8
SLIM
 10
4461.0
 20
-1706.549981495182
 30
0.0
 40
5.0
1001
ACDBBLOCKREPETAG
1070
     1
1071
        8
1005
128985
  0
POLYLINE
  5
128986
  8
SLIM
 66
     1
 10
0.0
 20
0.0
 30
0.0
 70
     1
1001
ACDBBLOCKREPETAG
1070
     1
1071
        9
1005
128986
  0
VERTEX
  5
128BE6
  8
SLIM
 10
4470.8149545762208
 20
-1706.549981495182
 30
0.0
  0
VERTEX
  5
128BE7
  8
SLIM
 10
4465.9074772881067
 20
-1698.04998149518
 30
0.0
  0
VERTEX
  5
128BE8
  8
SLIM
 10
4456.092522711886
 20
-1698.0499814951841
 30
0.0
  0
VERTEX
  5
128BE9
  8
SLIM
 10
4451.185045423772
 20
-1706.54998149518
 30
0.0
  0
VERTEX
  5
128BEA
  8
SLIM
 10
4456.092522711886
 20
-1715.0499814951829
 30
0.0
  0
VERTEX
  5
128BEB
  8
SLIM
 10
4465.907477288114
 20
-1715.04998149518
 30
0.0
  0
SEQEND
  5
128BEC
  8
SLIM
  0
ARC
  5
128987
  8
OBJECT
 10
4500.0
 20
-1638.9999999999959
 30
0.0
 40
76.0
 50
34.863837954142063
 51
85.136162045732945
1001
ACDBBLOCKREPETAG
1070
     1
1071
       30
1005
128987
  0
ARC
  5
128988
  8
OBJECT
 10
4500.0
 20
-1638.9999999999959
 30
0.0
 40
76.0
 50
154.86383795430939
 51
205.1361620456905
1001
ACDBBLOCKREPETAG
1070
     1
1071
       31
1005
128988
  0
ARC
  5
128989
  8
OBJECT
 10
4500.0
 20
-1638.9999999999959
 30
0.0
 40
76.0
 50
274.86383795426718
 51
325.13616204585799
1001
ACDBBLOCKREPETAG
1070
     1
1071
       32
1005
128989
  0
ARC
  5
12898A
  8
OBJECT
 10
4578.0
 20
-1638.9999999999959
 30
0.0
 40
12.0
 50
325.13616204585799
 51
34.863837954142063
1001
ACDBBLOCKREPETAG
1070
     1
1071
       33
1005
12898A
  0
LINE
  5
12898B
  8
OBJECT
 10
4587.846153846167
 20
-1632.140462520134
 30
0.0
 11
4562.3589743590492
 21
-1595.556262627535
 31
0.0
1001
ACDBBLOCKREPETAG
1070
     1
1071
       34
1005
12898B
  0
LINE
  5
12898C
  8
OBJECT
 10
4587.8461538461697
 20
-1645.859537479857
 30
0.0
 11
4562.3589743590492
 21
-1682.4437373724591
 31
0.0
1001
ACDBBLOCKREPETAG
1070
     1
1071
       35
1005
12898C
  0
ARC
  5
12898D
  8
OBJECT
 10
4461.0
 20
-1571.4500185048109
 30
0.0
 40
12.0
 50
85.136162045942811
 51
154.86383795410001
1001
ACDBBLOCKREPETAG
1070
     1
1071
       36
1005
12898D
  0
LINE
  5
12898E
  8
OBJECT
 10
4450.1363893611451
 20
-1566.3527678843909
 30
0.0
 11
4431.1971326205839
 21
-1606.7174127373471
 31
0.0
1001
ACDBBLOCKREPETAG
1070
     1
1071
       37
1005
12898E
  0
LINE
  5
12898F
  8
OBJECT
 10
4462.0174567926833
 20
-1559.4932304045269
 30
0.0
 11
4506.4438930203669
 21
-1563.273675364886
 31
0.0
1001
ACDBBLOCKREPETAG
1070
     1
1071
       38
1005
12898F
  0
ARC
  5
128990
  8
OBJECT
 10
4461.0
 20
-1706.549981495182
 30
0.0
 40
12.0
 50
205.13616204589991
 51
274.8638379540572
1001
ACDBBLOCKREPETAG
1070
     1
1071
       39
1005
128990
  0
LINE
  5
128991
  8
OBJECT
 10
4462.0174567926879
 20
-1718.506769595464
 30
0.0
 11
4506.4438930203651
 21
-1714.726324635106
 31
0.0
1001
ACDBBLOCKREPETAG
1070
     1
1071
       40
1005
128991
  0
LINE
  5
128992
  8
OBJECT
 10
4450.1363893611451
 20
-1711.647232115605
 30
0.0
 11
4431.1971326205821
 21
-1671.2825872626429
 31
0.0
1001
ACDBBLOCKREPETAG
1070
     1
1071
       41
1005
128992
  0
LINE
  5
128993
  8
OBJECT
 10
2443.0
 20
-1364.9999999999959
 30
0.0
 11
2557.0
 21
-1364.9999999999959
 31
0.0
1001
ACDBBLOCKREPETAG
1070
     1
1071
        0
1005
128993
  0
LINE
  5
128994
  8
OBJECT
 10
2443.0
 20
-1364.9999999999959
 30
0.0
 11
2443.0
 21
-1264.9999999999959
 31
0.0
1001
ACDBBLOCKREPETAG
1070
     1
1071
        1
1005
128994
  0
LINE
  5
128995
  8
OBJECT
 10
2557.0
 20
-1364.9999999999959
 30
0.0
 11
2557.0
 21
-1264.9999999999959
 31
0.0
1001
ACDBBLOCKREPETAG
1070
     1
1071
        2
1005
128995
  0
LINE
  5
128996
  8
OBJECT
 10
2443.0
 20
-1264.9999999999959
 30
0.0
 11
2557.0
 21
-1264.9999999999959
 31
0.0
1001
ACDBBLOCKREPETAG
1070
     1
1071
        3
1005
128996
  0
LINE
  5
128997
  8
HIDDEN
 10
2450.0
 20
-1264.9999999999959
 30
0.0
 11
2450.0
 21
-1364.9999999999959
 31
0.0
1001
ACDBBLOCKREPETAG
1070
     1
1071
        4
1005
128997
  0
LINE
  5
128998
  8
HIDDEN
 10
2550.0
 20
-1264.9999999999959
 30
0.0
 11
2550.0
 21
-1364.9999999999959
 31
0.0
1001
ACDBBLOCKREPETAG
1070
     1
1071
        5
1005
128998
  0
LINE
  5
128999
  8
CENTER
 10
2500.0
 20
-1055.0
 30
0.0
 11
2500.0
 21
-1379.9999999999959
 31
0.0
1001
ACDBBLOCKREPETAG
1070
     1
1071
        6
1005
128999
  0
LINE
  5
12899A
  8
OBJECT
 10
2425.0
 20
-1055.0
 30
0.0
 11
2425.0
 21
-1136.9999999999959
 31
0.0
1001
ACDBBLOCKREPETAG
1070
     1
1071
        7
1005
12899A
  0
LINE
  5
12899B
  8
OBJECT
 10
2575.0
 20
-1055.0
 30
0.0
 11
2575.0
 21
-1136.9999999999959
 31
0.0
1001
ACDBBLOCKREPETAG
1070
     1
1071
        8
1005
12899B
  0
LINE
  5
12899C
  8
OBJECT
 10
2425.0
 20
-1136.9999999999959
 30
0.0
 11
2575.0
 21
-1136.9999999999959
 31
0.0
1001
ACDBBLOCKREPETAG
1070
     1
1071
        9
1005
12899C
  0
LINE
  5
12899D
  8
OBJECT
 10
2425.0
 20
-1136.9999999999959
 30
0.0
 11
2443.0
 21
-1264.9999999999959
 31
0.0
1001
ACDBBLOCKREPETAG
1070
     1
1071
       10
1005
12899D
  0
LINE
  5
12899E
  8
OBJECT
 10
2557.0
 20
-1264.9999999999959
 30
0.0
 11
2575.0
 21
-1136.9999999999959
 31
0.0
1001
ACDBBLOCKREPETAG
1070
     1
1071
       11
1005
12899E
  0
TEXT
  5
12899F
  8
SLIM
 10
4353.75
 20
-1906.4999999999959
 30
0.0
 40
35.0
  1
両受けスタイル（W）
 41
0.75
  0
TEXT
  5
1289A0
  8
SLIM
 10
10239.125
 20
-1906.4999999999959
 30
0.0
 40
35.0
  1
両受けスタイル（W）＋シンドカット
 41
0.75
  0
TEXT
  5
1289A1
  8
SLIM
 10
12243.5
 20
-1906.4999999999959
 30
0.0
 40
35.0
  1
カンペイ君（WKP）＋シンドカット
 41
0.75
  0
TEXT
  5
1289A2
  8
SLIM
 10
8241.625
 20
-1632.499999999998
 30
0.0
 40
35.0
  1
片受けスタイル（S）＋シンドカット
 41
0.75
  0
TEXT
  5
1289A3
  8
SLIM
 10
6358.1250000000009
 20
-1947.4999999999991
 30
0.0
 40
35.0
  1
カンペイ君（WKP）
 41
0.75
  0
TEXT
  5
1289A4
  8
SLIM
 10
2356.25
 20
-1632.499999999998
 30
0.0
 40
35.0
  1
片受けスタイル（S）
 41
0.75
  0
TEXT
  5
1289A5
  8
SLIM
 10
0.0
 20
370.0
 30
0.0
 40
100.0
  1
4SL2-A3-AX000-PXXX-WKP
 41
0.75
  0
VIEWPORT
  5
F6BA7
 67
     1
  8
0
 10
195.9179030619629
 20
101.8328354358673
 30
0.0
 40
435.17763301655992
 41
222.19657968139651
 68
     1
 69
     1
1001
ACAD
1000
MVIEW
1002
{
1070
    16
1010
0.0
1020
0.0
1030
0.0
1010
0.0
1020
0.0
1030
1.0
1040
0.0
1040
222.19657968139651
1040
195.9179030619629
1040
101.8328354358673
1040
50.0
1040
0.0
1040
0.0
1070
     0
1070
     0
1070
     1
1070
     1
1070
     0
1070
     0
1070
     0
1070
     0
1040
0.0
1040
0.0
1040
0.0
1040
10.0
1040
10.0
1040
10.0
1040
10.0
1070
     0
1002
{
1002
}
1002
}
  0
VIEWPORT
  5
F6BA9
 67
     1
  8
OBJECT
 10
145.3303314447403
 20
101.8328338861465
 30
0.0
 40
232.5285303115844
 41
162.93253421783439
 68
     2
 69
     2
1001
ACAD
1000
MVIEW
1002
{
1070
    16
1010
0.0
1020
0.0
1030
0.0
1010
0.0
1020
0.0
1030
1.0
1040
0.0
1040
25942.55904403147
1040
2377.604457077377
1040
-7591.5176687056619
1040
50.0
1040
0.0
1040
0.0
1070
     0
1070
   600
1070
     1
1070
     1
1070
     0
1070
     0
1070
     0
1070
     0
1040
0.0
1040
0.0
1040
0.0
1040
1.0
1040
1.0
1040
0.0
1040
0.0
1070
     0
1002
{
1002
}
1002
}
  0
ENDSEC
  0
EOF
