  0
SECTION
  2
HEADER
  9
$ACADVER
  1
AC1009
  9
$INSBASE
 10
0.0
 20
0.0
 30
0.0
  9
$EXTMIN
 10
0.0
 20
-1878.9999999999991
 30
0.0
  9
$EXTMAX
 10
12399.70000000001
 20
770.0
 30
0.0
  9
$LIMMIN
 10
0.0
 20
0.0
  9
$LIMMAX
 10
210.0
 20
297.0
  9
$ORTHOMODE
 70
     0
  9
$REGENMODE
 70
     1
  9
$FILLMODE
 70
     1
  9
$QTEXTMODE
 70
     0
  9
$MIRRTEXT
 70
     0
  9
$DRAGMODE
 70
     2
  9
$LTSCALE
 40
1.0
  9
$OSMODE
 70
   109
  9
$ATTMODE
 70
     1
  9
$TEXTSIZE
 40
4.0
  9
$TRACEWID
 40
0.05
  9
$TEXTSTYLE
  7
STANDARD
  9
$CLAYER
  8
OBJECT
  9
$CELTYPE
  6
BYLAYER
  9
$CECOLOR
 62
   256
  9
$DIMSCALE
 40
10.0
  9
$DIMASZ
 40
2.0
  9
$DIMEXO
 40
1.0
  9
$DIMDLI
 40
10.0
  9
$DIMRND
 40
0.0
  9
$DIMDLE
 40
0.0
  9
$DIMEXE
 40
1.0
  9
$DIMTP
 40
0.0
  9
$DIMTM
 40
0.0
  9
$DIMTXT
 40
3.2000000000000002
  9
$DIMCEN
 40
0.0
  9
$DIMTSZ
 40
0.0
  9
$DIMTOL
 70
     0
  9
$DIMLIM
 70
     0
  9
$DIMTIH
 70
     0
  9
$DIMTOH
 70
     0
  9
$DIMSE1
 70
     0
  9
$DIMSE2
 70
     0
  9
$DIMTAD
 70
     1
  9
$DIMZIN
 70
     8
  9
$DIMBLK
  1
OPEN30
  9
$DIMASO
 70
     1
  9
$DIMSHO
 70
     1
  9
$DIMPOST
  1

  9
$DIMAPOST
  1

  9
$DIMALT
 70
     0
  9
$DIMALTD
 70
     2
  9
$DIMALTF
 40
25.399999999999999
  9
$DIMLFAC
 40
1.0
  9
$DIMTOFL
 70
     1
  9
$DIMTVP
 40
0.0
  9
$DIMTIX
 70
     0
  9
$DIMSOXD
 70
     0
  9
$DIMSAH
 70
     0
  9
$DIMBLK1
  1

  9
$DIMBLK2
  1

  9
$DIMSTYLE
  2
S10
  9
$DIMCLRD
 70
   256
  9
$DIMCLRE
 70
   256
  9
$DIMCLRT
 70
   256
  9
$DIMTFAC
 40
1.0
  9
$DIMGAP
 40
0.9
  9
$LUNITS
 70
     2
  9
$LUPREC
 70
     2
  9
$SKETCHINC
 40
0.1
  9
$FILLETRAD
 40
0.0
  9
$AUNITS
 70
     0
  9
$AUPREC
 70
     2
  9
$MENU
  1
ACAD
  9
$ELEVATION
 40
0.0
  9
$PELEVATION
 40
0.0
  9
$THICKNESS
 40
0.0
  9
$LIMCHECK
 70
     0
  9
$BLIPMODE
 70
     0
  9
$CHAMFERA
 40
2.0
  9
$CHAMFERB
 40
2.0
  9
$SKPOLY
 70
     0
  9
$TDCREATE
 40
2453095.4929404748
  9
$TDUPDATE
 40
2457270.6177005549
  9
$TDINDWG
 40
18.407364756900002
  9
$TDUSRTIMER
 40
18.407363842599999
  9
$USRTIMER
 70
     1
  9
$ANGBASE
 50
0.0
  9
$ANGDIR
 70
     0
  9
$PDMODE
 70
    35
  9
$PDSIZE
 40
2.0
  9
$PLINEWID
 40
0.0
  9
$COORDS
 70
     1
  9
$SPLFRAME
 70
     0
  9
$SPLINETYPE
 70
     6
  9
$SPLINESEGS
 70
     8
  9
$ATTDIA
 70
     0
  9
$ATTREQ
 70
     1
  9
$HANDLING
 70
     1
  9
$HANDSEED
  5
122078
  9
$SURFTAB1
 70
     6
  9
$SURFTAB2
 70
     6
  9
$SURFTYPE
 70
     6
  9
$SURFU
 70
     6
  9
$SURFV
 70
     6
  9
$UCSNAME
  2

  9
$UCSORG
 10
0.0
 20
0.0
 30
0.0
  9
$UCSXDIR
 10
1.0
 20
0.0
 30
0.0
  9
$UCSYDIR
 10
0.0
 20
1.0
 30
0.0
  9
$PUCSNAME
  2

  9
$PUCSORG
 10
0.0
 20
0.0
 30
0.0
  9
$PUCSXDIR
 10
1.0
 20
0.0
 30
0.0
  9
$PUCSYDIR
 10
0.0
 20
1.0
 30
0.0
  9
$USERI1
 70
     0
  9
$USERI2
 70
     0
  9
$USERI3
 70
     0
  9
$USERI4
 70
     0
  9
$USERI5
 70
     0
  9
$USERR1
 40
0.0
  9
$USERR2
 40
0.0
  9
$USERR3
 40
0.0
  9
$USERR4
 40
0.0
  9
$USERR5
 40
0.0
  9
$WORLDVIEW
 70
     1
  9
$SHADEDGE
 70
     3
  9
$SHADEDIF
 70
    70
  9
$TILEMODE
 70
     1
  9
$MAXACTVP
 70
    64
  9
$PLIMCHECK
 70
     0
  9
$PEXTMIN
 10
29.066066288948051
 20
20.366566777229309
 30
0.0
  9
$PEXTMAX
 10
261.5945966005325
 20
183.29910099506381
 30
0.0
  9
$PLIMMIN
 10
-3.17498779296875
 20
-3.1749999523162842
  9
$PLIMMAX
 10
293.83566284179687
 20
206.8406708240509
  9
$UNITMODE
 70
     0
  9
$VISRETAIN
 70
     1
  9
$PLINEGEN
 70
     0
  9
$PSLTSCALE
 70
     1
  0
ENDSEC
  0
SECTION
  2
TABLES
  0
TABLE
  2
VPORT
 70
     1
  0
VPORT
  2
*ACTIVE
 70
     0
 10
0.0
 20
0.0
 11
1.0
 21
1.0
 12
3971.8992718098211
 22
-3469.5500342795981
 13
0.0
 23
0.0
 14
1.0
 24
1.0
 15
0.0
 25
0.0
 16
0.0
 26
0.0
 36
1.0
 17
0.0
 27
0.0
 37
0.0
 40
7823.977706064893
 41
1.6494178525226391
 42
50.0
 43
0.0
 44
0.0
 50
0.0
 51
0.0
 71
     0
 72
   600
 73
     1
 74
     1
 75
     0
 76
     0
 77
     0
 78
     0
  0
ENDTAB
  0
TABLE
  2
LTYPE
 70
     4
  0
LTYPE
  2
CONTINUOUS
 70
     0
  3
Solid line
 72
    65
 73
     0
 40
0.0
  0
LTYPE
  2
PHANTOM2
 70
     0
  3
___ _ _ ___ _ _ ___ _ _ ___ _ _
 72
    65
 73
     6
 40
1.25
 49
0.625
 49
-0.125
 49
0.125
 49
-0.125
 49
0.125
 49
-0.125
  0
LTYPE
  2
ACAD_ISO08W100
 70
     0
  3
ISO long-dash short-dash ____ __ ____ __ ____ _
 72
    65
 73
     4
 40
36.0
 49
24.0
 49
-3.0
 49
6.0
 49
-3.0
  0
LTYPE
  2
ACAD_ISO02W100
 70
     0
  3
ISO dash __ __ __ __ __ __ __ __ __ __ __ __ __
 72
    65
 73
     2
 40
15.0
 49
12.0
 49
-3.0
  0
ENDTAB
  0
TABLE
  2
LAYER
 70
     7
  0
LAYER
  2
0
 70
     0
 62
     7
  6
CONTINUOUS
  0
LAYER
  2
OBJECT
 70
     0
 62
     4
  6
CONTINUOUS
  0
LAYER
  2
DEFPOINTS
 70
     0
 62
     7
  6
CONTINUOUS
  0
LAYER
  2
HIDDEN
 70
     0
 62
     2
  6
ACAD_ISO02W100
  0
LAYER
  2
CENTER
 70
     0
 62
     2
  6
ACAD_ISO08W100
  0
LAYER
  2
DOTS
 70
     0
 62
     1
  6
CONTINUOUS
  0
LAYER
  2
SLIM
 70
     0
 62
     2
  6
CONTINUOUS
  0
ENDTAB
  0
TABLE
  2
STYLE
 70
     2
  0
STYLE
  2
STANDARD
 70
     0
 40
0.0
 41
0.75
 50
0.0
 71
     0
 42
4.0
  3
simplex.shx
  4
bigfont.shx
  0
ENDTAB
  0
TABLE
  2
VIEW
 70
     0
  0
ENDTAB
  0
TABLE
  2
UCS
 70
     0
  0
ENDTAB
  0
TABLE
  2
APPID
 70
    18
  0
APPID
  2
ACAD
 70
     0
  0
APPID
  2
ACADANNOTATIVE
 70
     0
  0
APPID
  2
ACAD_PSEXT
 70
     0
  0
APPID
  2
ACAD_EXEMPT_FROM_CAD_STANDARDS
 70
     0
  0
APPID
  2
ACAECLAYERSTANDARD
 70
     0
  0
APPID
  2
ACAUTHENVIRON
 70
     0
  0
APPID
  2
ACDBDYNAMICBLOCKTRUENAME
 70
     0
  0
APPID
  2
ACDBDYNAMICBLOCKGUID
 70
     0
  0
APPID
  2
ACDBBLOCKREPETAG
 70
     0
  0
APPID
  2
ACDBBLOCKREPBTAG
 70
     0
  0
APPID
  2
ACAD_NAV_VCDISPLAY
 70
     0
  0
APPID
  2
ACAD_DSTYLE_DIMRADIAL_EXTENSION
 70
     0
  0
APPID
  2
ACAD_DSTYLE_DIMJAG
 70
     0
  0
APPID
  2
ACAD_DSTYLE_DIMTALN
 70
     0
  0
APPID
  2
ACADANNOPO
 70
     0
  0
APPID
  2
GRADIENTCOLOR1ACI
 70
     0
  0
APPID
  2
GRADIENTCOLOR2ACI
 70
     0
  0
APPID
  2
ACAD_MLEADERVER
 70
     0
  0
ENDTAB
  0
TABLE
  2
DIMSTYLE
 70
     3
  0
DIMSTYLE
  2
STANDARD
 70
     0
  3

  4

  5

  6

  7

 40
1.0
 41
0.18
 42
0.0625
 43
0.38
 44
0.18
 45
0.0
 46
0.0
 47
0.0
 48
0.0
140
0.18
141
0.09
142
0.0
143
25.399999999999999
144
1.0
145
0.0
146
1.0
147
0.09
 71
     0
 72
     0
 73
     1
 74
     1
 75
     0
 76
     0
 77
     0
 78
     0
170
     0
171
     2
172
     0
173
     0
174
     0
175
     0
176
     0
177
     0
178
     0
  0
DIMSTYLE
  2
S10
 70
     0
  3

  4

  5

  6

  7

 40
10.0
 41
2.0
 42
1.0
 43
10.0
 44
1.0
 45
0.0
 46
0.0
 47
0.0
 48
0.0
140
3.2000000000000002
141
0.0
142
0.0
143
25.399999999999999
144
1.0
145
0.0
146
1.0
147
0.9
 71
     0
 72
     0
 73
     0
 74
     0
 75
     0
 76
     0
 77
     1
 78
     8
170
     0
171
     2
172
     1
173
     0
174
     0
175
     0
176
   256
177
   256
178
   256
  0
ENDTAB
  0
ENDSEC
  0
SECTION
  2
BLOCKS
  0
BLOCK
  8
0
  2
$MODEL_SPACE
 70
     0
 10
0.0
 20
0.0
 30
0.0
  3
$MODEL_SPACE
  1

  0
ENDBLK
  5
121FA1
  8
0
  0
BLOCK
 67
     1
  8
0
  2
$PAPER_SPACE
 70
     0
 10
0.0
 20
0.0
 30
0.0
  3
$PAPER_SPACE
  1

  0
ENDBLK
  5
121F9D
 67
     1
  8
0
  0
BLOCK
  8
0
  2
_OPEN30
 70
     0
 10
0.0
 20
0.0
 30
0.0
  3
_OPEN30
  1

  0
LINE
  5
202
  8
0
  6
BYBLOCK
 62
     0
 10
-1.0
 20
0.26794919
 30
0.0
 11
0.0
 21
0.0
 31
0.0
  0
LINE
  5
203
  8
0
  6
BYBLOCK
 62
     0
 10
0.0
 20
0.0
 30
0.0
 11
-1.0
 21
-0.26794919
 31
0.0
  0
LINE
  5
204
  8
0
  6
BYBLOCK
 62
     0
 10
0.0
 20
0.0
 30
0.0
 11
-1.0
 21
0.0
 31
0.0
  0
ENDBLK
  5
206
  8
0
  0
ENDSEC
  0
SECTION
  2
ENTITIES
  0
LINE
  5
121A2A
  8
OBJECT
 10
11923.0
 20
-470.99999999999937
 30
0.0
 11
11923.0
 21
-449.99999999999937
 31
0.0
1001
ACDBBLOCKREPETAG
1070
     1
1071
        0
1005
121A2A
  0
LINE
  5
121A2B
  8
OBJECT
 10
11923.0
 20
-449.99999999999937
 30
0.0
 11
12077.0
 21
-449.99999999999937
 31
0.0
1001
ACDBBLOCKREPETAG
1070
     1
1071
        1
1005
121A2B
  0
LINE
  5
121A2C
  8
HIDDEN
 10
11943.0
 20
-519.99999999999955
 30
0.0
 11
12057.0
 21
-519.99999999999955
 31
0.0
1001
ACDBBLOCKREPETAG
1070
     1
1071
        2
1005
121A2C
  0
LINE
  5
121A2D
  8
OBJECT
 10
12077.0
 20
-449.99999999999937
 30
0.0
 11
12077.0
 21
-470.99999999999937
 31
0.0
1001
ACDBBLOCKREPETAG
1070
     1
1071
        3
1005
121A2D
  0
LINE
  5
121A2E
  8
OBJECT
 10
12077.0
 20
-470.99999999999937
 30
0.0
 11
11923.0
 21
-470.99999999999937
 31
0.0
1001
ACDBBLOCKREPETAG
1070
     1
1071
        4
1005
121A2E
  0
LINE
  5
121A2F
  8
CENTER
 10
12000.0
 20
-434.99999999999949
 30
0.0
 11
12000.0
 21
-789.99999999999955
 31
0.0
1001
ACDBBLOCKREPETAG
1070
     1
1071
        5
1005
121A2F
  0
LINE
  5
121A30
  8
OBJECT
 10
11925.0
 20
-533.99999999999955
 30
0.0
 11
11925.0
 21
-777.99999999999955
 31
0.0
1001
ACDBBLOCKREPETAG
1070
     1
1071
        6
1005
121A30
  0
LINE
  5
121A31
  8
OBJECT
 10
11928.0
 20
-470.99999999999937
 30
0.0
 11
11928.0
 21
-533.99999999999955
 31
0.0
1001
ACDBBLOCKREPETAG
1070
     1
1071
        7
1005
121A31
  0
LINE
  5
121A32
  8
OBJECT
 10
12072.0
 20
-533.99999999999955
 30
0.0
 11
12072.0
 21
-470.99999999999937
 31
0.0
1001
ACDBBLOCKREPETAG
1070
     1
1071
        8
1005
121A32
  0
LINE
  5
121A33
  8
OBJECT
 10
11920.0
 20
-777.99999999999955
 30
0.0
 11
12080.0
 21
-777.99999999999955
 31
0.0
1001
ACDBBLOCKREPETAG
1070
     1
1071
        9
1005
121A33
  0
LINE
  5
121A34
  8
OBJECT
 10
12080.0
 20
-533.99999999999955
 30
0.0
 11
11925.0
 21
-533.99999999999955
 31
0.0
1001
ACDBBLOCKREPETAG
1070
     1
1071
       10
1005
121A34
  0
LINE
  5
121A35
  8
OBJECT
 10
11920.0
 20
-777.99999999999955
 30
0.0
 11
11920.0
 21
-789.99999999999955
 31
0.0
1001
ACDBBLOCKREPETAG
1070
     1
1071
       11
1005
121A35
  0
LINE
  5
121A36
  8
OBJECT
 10
11920.0
 20
-789.99999999999955
 30
0.0
 11
12080.0
 21
-789.99999999999955
 31
0.0
1001
ACDBBLOCKREPETAG
1070
     1
1071
       12
1005
121A36
  0
LINE
  5
121A37
  8
OBJECT
 10
12080.0
 20
-789.99999999999955
 30
0.0
 11
12080.0
 21
-777.99999999999955
 31
0.0
1001
ACDBBLOCKREPETAG
1070
     1
1071
       13
1005
121A37
  0
LINE
  5
121A38
  8
OBJECT
 10
12074.99999999986
 20
-657.99999999985039
 30
0.0
 11
12075.0
 21
-777.99999999999955
 31
0.0
1001
ACDBBLOCKREPETAG
1070
     1
1071
       15
1005
121A38
  0
LINE
  5
121A39
  8
OBJECT
 10
12074.99999080298
 20
-657.99998602702135
 30
0.0
 11
12080.0
 21
-657.99998602702135
 31
0.0
1001
ACDBBLOCKREPETAG
1070
     1
1071
       16
1005
121A39
  0
ARC
  5
121A3A
  8
OBJECT
 10
12200.687274671671
 20
-649.40809941010718
 30
0.0
 40
170.6350503965856
 50
137.44134459184301
 51
149.91949581337221
1001
ACDBBLOCKREPETAG
1070
     1
1071
       17
1005
121A3A
  0
ARC
  5
121A3B
  8
OBJECT
 10
12118.845598704051
 20
-605.88272669536445
 30
0.0
 40
78.072222021763665
 50
147.4551531038623
 51
164.6636599771729
1001
ACDBBLOCKREPETAG
1070
     1
1071
       18
1005
121A3B
  0
ARC
  5
121A3C
  8
OBJECT
 10
12085.755434960871
 20
-595.99999999999955
 30
0.0
 40
43.55353926885617
 50
165.688452300753
 51
194.3115476992468
1001
ACDBBLOCKREPETAG
1070
     1
1071
       19
1005
121A3C
  0
ARC
  5
121A3D
  8
OBJECT
 10
12200.687274671671
 20
-542.59190058989179
 30
0.0
 40
170.6350503965856
 50
210.08050418662771
 51
222.55865540815699
1001
ACDBBLOCKREPETAG
1070
     1
1071
       20
1005
121A3D
  0
ARC
  5
121A3E
  8
OBJECT
 10
12118.845598704051
 20
-586.11727330463452
 30
0.0
 40
78.072222021763665
 50
195.3363400228271
 51
212.5448468961377
1001
ACDBBLOCKREPETAG
1070
     1
1071
       21
1005
121A3E
  0
POINT
  5
121A3F
  8
DOTS
 10
12000.0
 20
-654.99999999999966
 30
0.0
1001
ACDBBLOCKREPETAG
1070
     1
1071
      187
1005
121A3F
  0
ARC
  5
121A40
  8
OBJECT
 10
12000.0
 20
-199.99999999999909
 30
0.0
 40
50.0
 50
298.81994300000417
 51
228.52376955964741
1001
ACDBBLOCKREPETAG
1070
     1
1071
      185
1005
121A40
  0
LINE
  5
121A41
  8
SLIM
 10
11927.30183005652
 20
-155.95484036957691
 30
0.0
 11
11955.954840369581
 21
-127.30183005652231
 31
0.0
1001
GRADIENTCOLOR1ACI
1070
     5
1001
GRADIENTCOLOR2ACI
1070
     2
1001
ACAD
1010
0.0
1020
0.0
1030
0.0
1001
ACDBBLOCKREPETAG
1070
     1
1071
      442
1005
121A41
  0
LINE
  5
121A42
  8
SLIM
 10
11919.48615207084
 20
-172.75077447633191
 30
0.0
 11
11938.29030895727
 21
-153.94661758989659
 31
0.0
1001
GRADIENTCOLOR1ACI
1070
     5
1001
GRADIENTCOLOR2ACI
1070
     2
1001
ACAD
1010
0.0
1020
0.0
1030
0.0
1001
ACDBBLOCKREPETAG
1070
     1
1071
      443
1005
121A42
  0
LINE
  5
121A43
  8
SLIM
 10
11953.9466175899
 20
-138.29030895727169
 30
0.0
 11
11972.75077447633
 21
-119.4861520708364
 31
0.0
1001
GRADIENTCOLOR1ACI
1070
     5
1001
GRADIENTCOLOR2ACI
1070
     2
1001
ACAD
1010
0.0
1020
0.0
1030
0.0
1001
ACDBBLOCKREPETAG
1070
     1
1071
      444
1005
121A43
  0
LINE
  5
121A44
  8
SLIM
 10
11916.35966799338
 20
-184.8575146748604
 30
0.0
 11
11927.69595835578
 21
-173.5212243124561
 31
0.0
1001
GRADIENTCOLOR1ACI
1070
     5
1001
GRADIENTCOLOR2ACI
1070
     2
1001
ACAD
1010
0.0
1020
0.0
1030
0.0
1001
ACDBBLOCKREPETAG
1070
     1
1071
      445
1005
121A44
  0
LINE
  5
121A45
  8
SLIM
 10
11973.521224312461
 20
-127.6959583557812
 30
0.0
 11
11984.857514674861
 21
-116.359667993377
 31
0.0
1001
GRADIENTCOLOR1ACI
1070
     5
1001
GRADIENTCOLOR2ACI
1070
     2
1001
ACAD
1010
0.0
1020
0.0
1030
0.0
1001
ACDBBLOCKREPETAG
1070
     1
1071
      446
1005
121A45
  0
LINE
  5
121A46
  8
SLIM
 10
11915.14405758905
 20
-195.0533812002549
 30
0.0
 11
11924.30302164318
 21
-185.89441714612491
 31
0.0
1001
GRADIENTCOLOR1ACI
1070
     5
1001
GRADIENTCOLOR2ACI
1070
     2
1001
ACAD
1010
0.0
1020
0.0
1030
0.0
1001
ACDBBLOCKREPETAG
1070
     1
1071
      447
1005
121A46
  0
LINE
  5
121A47
  8
SLIM
 10
11985.894417146121
 20
-124.30302164318159
 30
0.0
 11
11995.05338120025
 21
-115.1440575890517
 31
0.0
1001
GRADIENTCOLOR1ACI
1070
     5
1001
GRADIENTCOLOR2ACI
1070
     2
1001
ACAD
1010
0.0
1020
0.0
1030
0.0
1001
ACDBBLOCKREPETAG
1070
     1
1071
      448
1005
121A47
  0
LINE
  5
121A48
  8
SLIM
 10
11915.097963557469
 20
-204.07973135290339
 30
0.0
 11
11919.17769491037
 21
-199.99999999999909
 31
0.0
1001
GRADIENTCOLOR1ACI
1070
     5
1001
GRADIENTCOLOR2ACI
1070
     2
1001
ACAD
1010
0.0
1020
0.0
1030
0.0
1001
ACDBBLOCKREPETAG
1070
     1
1071
      449
1005
121A48
  0
LINE
  5
121A49
  8
SLIM
 10
12000.0
 20
-119.1776949103767
 30
0.0
 11
12004.0797313529
 21
-115.0979635574724
 31
0.0
1001
GRADIENTCOLOR1ACI
1070
     5
1001
GRADIENTCOLOR2ACI
1070
     2
1001
ACAD
1010
0.0
1020
0.0
1030
0.0
1001
ACDBBLOCKREPETAG
1070
     1
1071
      450
1005
121A49
  0
LINE
  5
121A4A
  8
SLIM
 10
11919.17769491037
 20
-199.99999999999909
 30
0.0
 11
11923.09996216117
 21
-196.07773274920581
 31
0.0
1001
GRADIENTCOLOR1ACI
1070
     5
1001
GRADIENTCOLOR2ACI
1070
     2
1001
ACAD
1010
0.0
1020
0.0
1030
0.0
1001
ACDBBLOCKREPETAG
1070
     1
1071
      451
1005
121A4A
  0
LINE
  5
121A4B
  8
SLIM
 10
11996.077732749211
 20
-123.0999621611699
 30
0.0
 11
12000.0
 21
-119.1776949103767
 31
0.0
1001
GRADIENTCOLOR1ACI
1070
     5
1001
GRADIENTCOLOR2ACI
1070
     2
1001
ACAD
1010
0.0
1020
0.0
1030
0.0
1001
ACDBBLOCKREPETAG
1070
     1
1071
      452
1005
121A4B
  0
LINE
  5
121A4C
  8
SLIM
 10
11915.889972620869
 20
-212.26797841057399
 30
0.0
 11
11923.16223077717
 21
-204.9957202542767
 31
0.0
1001
GRADIENTCOLOR1ACI
1070
     5
1001
GRADIENTCOLOR2ACI
1070
     2
1001
ACAD
1010
0.0
1020
0.0
1030
0.0
1001
ACDBBLOCKREPETAG
1070
     1
1071
      453
1005
121A4C
  0
LINE
  5
121A4D
  8
SLIM
 10
12004.995720254279
 20
-123.1622307771683
 30
0.0
 11
12012.267978410569
 21
-115.88997262087101
 31
0.0
1001
GRADIENTCOLOR1ACI
1070
     5
1001
GRADIENTCOLOR2ACI
1070
     2
1001
ACAD
1010
0.0
1020
0.0
1030
0.0
1001
ACDBBLOCKREPETAG
1070
     1
1071
      454
1005
121A4D
  0
LINE
  5
121A4E
  8
SLIM
 10
11917.338265695151
 20
-219.79994145736151
 30
0.0
 11
11924.11014778555
 21
-213.02805936696359
 31
0.0
1001
GRADIENTCOLOR1ACI
1070
     5
1001
GRADIENTCOLOR2ACI
1070
     2
1001
ACAD
1010
0.0
1020
0.0
1030
0.0
1001
ACDBBLOCKREPETAG
1070
     1
1071
      455
1005
121A4E
  0
LINE
  5
121A4F
  8
SLIM
 10
12013.028059366959
 20
-124.1101477855505
 30
0.0
 11
12019.799941457361
 21
-117.3382656951526
 31
0.0
1001
GRADIENTCOLOR1ACI
1070
     5
1001
GRADIENTCOLOR2ACI
1070
     2
1001
ACAD
1010
0.0
1020
0.0
1030
0.0
1001
ACDBBLOCKREPETAG
1070
     1
1071
      456
1005
121A4F
  0
LINE
  5
121A50
  8
SLIM
 10
11919.331259406301
 20
-226.78720386727881
 30
0.0
 11
11925.744381959341
 21
-220.3740813142449
 31
0.0
1001
GRADIENTCOLOR1ACI
1070
     5
1001
GRADIENTCOLOR2ACI
1070
     2
1001
ACAD
1010
0.0
1020
0.0
1030
0.0
1001
ACDBBLOCKREPETAG
1070
     1
1071
      457
1005
121A50
  0
LINE
  5
121A51
  8
SLIM
 10
12020.374081314239
 20
-125.7443819593384
 30
0.0
 11
12026.787203867279
 21
-119.3312594063044
 31
0.0
1001
GRADIENTCOLOR1ACI
1070
     5
1001
GRADIENTCOLOR2ACI
1070
     2
1001
ACAD
1010
0.0
1020
0.0
1030
0.0
1001
ACDBBLOCKREPETAG
1070
     1
1071
      458
1005
121A51
  0
LINE
  5
121A52
  8
SLIM
 10
11921.79571631862
 20
-233.30300307603289
 30
0.0
 11
11927.946247395779
 21
-227.1524719988744
 31
0.0
1001
GRADIENTCOLOR1ACI
1070
     5
1001
GRADIENTCOLOR2ACI
1070
     2
1001
ACAD
1010
0.0
1020
0.0
1030
0.0
1001
ACDBBLOCKREPETAG
1070
     1
1071
      459
1005
121A52
  0
LINE
  5
121A53
  8
SLIM
 10
12027.15247199887
 20
-127.946247395778
 30
0.0
 11
12033.303003076029
 21
-121.7957163186195
 31
0.0
1001
GRADIENTCOLOR1ACI
1070
     5
1001
GRADIENTCOLOR2ACI
1070
     2
1001
ACAD
1010
0.0
1020
0.0
1030
0.0
1001
ACDBBLOCKREPETAG
1070
     1
1071
      460
1005
121A53
  0
LINE
  5
121A54
  8
SLIM
 10
11924.681663531341
 20
-239.39731198437769
 30
0.0
 11
11930.63987686439
 21
-233.4390986513296
 31
0.0
1001
GRADIENTCOLOR1ACI
1070
     5
1001
GRADIENTCOLOR2ACI
1070
     2
1001
ACAD
1010
0.0
1020
0.0
1030
0.0
1001
ACDBBLOCKREPETAG
1070
     1
1071
      461
1005
121A54
  0
LINE
  5
121A55
  8
SLIM
 10
12033.43909865133
 20
-130.63987686439199
 30
0.0
 11
12039.397311984379
 21
-124.6816635313439
 31
0.0
1001
GRADIENTCOLOR1ACI
1070
     5
1001
GRADIENTCOLOR2ACI
1070
     2
1001
ACAD
1010
0.0
1020
0.0
1030
0.0
1001
ACDBBLOCKREPETAG
1070
     1
1071
      462
1005
121A55
  0
LINE
  5
121A56
  8
SLIM
 10
11927.954461102419
 20
-245.10477053436691
 30
0.0
 11
11933.77500701499
 21
-239.28422462179751
 31
0.0
1001
GRADIENTCOLOR1ACI
1070
     5
1001
GRADIENTCOLOR2ACI
1070
     2
1001
ACAD
1010
0.0
1020
0.0
1030
0.0
1001
ACDBBLOCKREPETAG
1070
     1
1071
      463
1005
121A56
  0
LINE
  5
121A57
  8
SLIM
 10
12039.284224621801
 20
-133.77500701499321
 30
0.0
 11
12045.10477053437
 21
-127.95446110242381
 31
0.0
1001
GRADIENTCOLOR1ACI
1070
     5
1001
GRADIENTCOLOR2ACI
1070
     2
1001
ACAD
1010
0.0
1020
0.0
1030
0.0
1001
ACDBBLOCKREPETAG
1070
     1
1071
      464
1005
121A57
  0
LINE
  5
121A58
  8
SLIM
 10
11931.59033196866
 20
-250.4491557891954
 30
0.0
 11
11937.31820758806
 21
-244.72128016980341
 31
0.0
1001
GRADIENTCOLOR1ACI
1070
     5
1001
GRADIENTCOLOR2ACI
1070
     2
1001
ACAD
1010
0.0
1020
0.0
1030
0.0
1001
ACDBBLOCKREPETAG
1070
     1
1071
      465
1005
121A58
  0
LINE
  5
121A59
  8
SLIM
 10
12044.721280169801
 20
-137.31820758805651
 30
0.0
 11
12050.449155789191
 21
-131.59033196866449
 31
0.0
1001
GRADIENTCOLOR1ACI
1070
     5
1001
GRADIENTCOLOR2ACI
1070
     2
1001
ACAD
1010
0.0
1020
0.0
1030
0.0
1001
ACDBBLOCKREPETAG
1070
     1
1071
      466
1005
121A59
  0
LINE
  5
121A5A
  8
SLIM
 10
11935.573749692519
 20
-255.4459941864034
 30
0.0
 11
11941.24811054159
 21
-249.77163333734029
 31
0.0
1001
GRADIENTCOLOR1ACI
1070
     5
1001
GRADIENTCOLOR2ACI
1070
     2
1001
ACAD
1010
0.0
1020
0.0
1030
0.0
1001
ACDBBLOCKREPETAG
1070
     1
1071
      467
1005
121A5A
  0
LINE
  5
121A5B
  8
SLIM
 10
12053.01974387892
 20
-137.99999999999909
 30
0.0
 11
12055.445994186401
 21
-135.57374969252561
 31
0.0
1001
GRADIENTCOLOR1ACI
1070
     5
1001
GRADIENTCOLOR2ACI
1070
     2
1001
ACAD
1010
0.0
1020
0.0
1030
0.0
1001
ACDBBLOCKREPETAG
1070
     1
1071
      468
1005
121A5B
  0
LINE
  5
121A5C
  8
SLIM
 10
11939.895923599141
 20
-260.10407640085572
 30
0.0
 11
11945.55277784863
 21
-254.44722215136329
 31
0.0
1001
GRADIENTCOLOR1ACI
1070
     5
1001
GRADIENTCOLOR2ACI
1070
     2
1001
ACAD
1010
0.0
1020
0.0
1030
0.0
1001
ACDBBLOCKREPETAG
1070
     1
1071
      469
1005
121A5C
  0
LINE
  5
121A5D
  8
SLIM
 10
11944.55400581359
 20
-264.4262503074724
 30
0.0
 11
11950.228366662661
 21
-258.75188945840949
 31
0.0
1001
GRADIENTCOLOR1ACI
1070
     5
1001
GRADIENTCOLOR2ACI
1070
     2
1001
ACAD
1010
0.0
1020
0.0
1030
0.0
1001
ACDBBLOCKREPETAG
1070
     1
1071
      470
1005
121A5D
  0
LINE
  5
121A5E
  8
SLIM
 10
11949.5508442108
 20
-268.40966803133369
 30
0.0
 11
11955.27871983019
 21
-262.68179241194167
 31
0.0
1001
GRADIENTCOLOR1ACI
1070
     5
1001
GRADIENTCOLOR2ACI
1070
     2
1001
ACAD
1010
0.0
1020
0.0
1030
0.0
1001
ACDBBLOCKREPETAG
1070
     1
1071
      471
1005
121A5E
  0
LINE
  5
121A5F
  8
SLIM
 10
11954.89522946563
 20
-272.04553889757437
 30
0.0
 11
11960.715775378199
 21
-266.22499298500497
 31
0.0
1001
GRADIENTCOLOR1ACI
1070
     5
1001
GRADIENTCOLOR2ACI
1070
     2
1001
ACAD
1010
0.0
1020
0.0
1030
0.0
1001
ACDBBLOCKREPETAG
1070
     1
1071
      472
1005
121A5F
  0
LINE
  5
121A60
  8
SLIM
 10
11960.602688015621
 20
-275.31833646865431
 30
0.0
 11
11966.56090134867
 21
-269.36012313560622
 31
0.0
1001
GRADIENTCOLOR1ACI
1070
     5
1001
GRADIENTCOLOR2ACI
1070
     2
1001
ACAD
1010
0.0
1020
0.0
1030
0.0
1001
ACDBBLOCKREPETAG
1070
     1
1071
      473
1005
121A60
  0
LINE
  5
121A61
  8
SLIM
 10
11966.69699692396
 20
-278.20428368137868
 30
0.0
 11
11972.847528001121
 21
-272.05375260422022
 31
0.0
1001
GRADIENTCOLOR1ACI
1070
     5
1001
GRADIENTCOLOR2ACI
1070
     2
1001
ACAD
1010
0.0
1020
0.0
1030
0.0
1001
ACDBBLOCKREPETAG
1070
     1
1071
      474
1005
121A61
  0
LINE
  5
121A62
  8
SLIM
 10
11973.212796132721
 20
-280.66874059369371
 30
0.0
 11
11979.62591868575
 21
-274.25561804065973
 31
0.0
1001
GRADIENTCOLOR1ACI
1070
     5
1001
GRADIENTCOLOR2ACI
1070
     2
1001
ACAD
1010
0.0
1020
0.0
1030
0.0
1001
ACDBBLOCKREPETAG
1070
     1
1071
      475
1005
121A62
  0
LINE
  5
121A63
  8
SLIM
 10
11980.200058542639
 20
-282.6617343048456
 30
0.0
 11
11986.97194063303
 21
-275.88985221444773
 31
0.0
1001
GRADIENTCOLOR1ACI
1070
     5
1001
GRADIENTCOLOR2ACI
1070
     2
1001
ACAD
1010
0.0
1020
0.0
1030
0.0
1001
ACDBBLOCKREPETAG
1070
     1
1071
      476
1005
121A63
  0
LINE
  5
121A64
  8
SLIM
 10
11987.73202158942
 20
-284.11002737912702
 30
0.0
 11
11995.004279745721
 21
-276.83776922282988
 31
0.0
1001
GRADIENTCOLOR1ACI
1070
     5
1001
GRADIENTCOLOR2ACI
1070
     2
1001
ACAD
1010
0.0
1020
0.0
1030
0.0
1001
ACDBBLOCKREPETAG
1070
     1
1071
      477
1005
121A64
  0
LINE
  5
121A65
  8
SLIM
 10
11995.9202686471
 20
-284.9020364425258
 30
0.0
 11
12000.0
 21
-280.82230508962152
 31
0.0
1001
GRADIENTCOLOR1ACI
1070
     5
1001
GRADIENTCOLOR2ACI
1070
     2
1001
ACAD
1010
0.0
1020
0.0
1030
0.0
1001
ACDBBLOCKREPETAG
1070
     1
1071
      478
1005
121A65
  0
LINE
  5
121A66
  8
SLIM
 10
12000.0
 20
-280.82230508962152
 30
0.0
 11
12003.922267250789
 21
-276.90003783882821
 31
0.0
1001
GRADIENTCOLOR1ACI
1070
     5
1001
GRADIENTCOLOR2ACI
1070
     2
1001
ACAD
1010
0.0
1020
0.0
1030
0.0
1001
ACDBBLOCKREPETAG
1070
     1
1071
      479
1005
121A66
  0
LINE
  5
121A67
  8
SLIM
 10
12004.94661879974
 20
-284.85594241094651
 30
0.0
 11
12014.10558285387
 21
-275.6969783568166
 31
0.0
1001
GRADIENTCOLOR1ACI
1070
     5
1001
GRADIENTCOLOR2ACI
1070
     2
1001
ACAD
1010
0.0
1020
0.0
1030
0.0
1001
ACDBBLOCKREPETAG
1070
     1
1071
      480
1005
121A67
  0
LINE
  5
121A68
  8
SLIM
 10
12015.142485325139
 20
-283.64033200662118
 30
0.0
 11
12026.478775687539
 21
-272.30404164421702
 31
0.0
1001
GRADIENTCOLOR1ACI
1070
     5
1001
GRADIENTCOLOR2ACI
1070
     2
1001
ACAD
1010
0.0
1020
0.0
1030
0.0
1001
ACDBBLOCKREPETAG
1070
     1
1071
      481
1005
121A68
  0
LINE
  5
121A69
  8
SLIM
 10
12027.249225523659
 20
-280.51384792916173
 30
0.0
 11
12045.76307345283
 21
-261.99999999999909
 31
0.0
1001
GRADIENTCOLOR1ACI
1070
     5
1001
GRADIENTCOLOR2ACI
1070
     2
1001
ACAD
1010
0.0
1020
0.0
1030
0.0
1001
ACDBBLOCKREPETAG
1070
     1
1071
      482
1005
121A69
  0
LINE
  5
121A6A
  8
SLIM
 10
12044.045159630419
 20
-272.69816994347582
 30
0.0
 11
12054.743329573899
 21
-261.99999999999909
 31
0.0
1001
GRADIENTCOLOR1ACI
1070
     5
1001
GRADIENTCOLOR2ACI
1070
     2
1001
ACAD
1010
0.0
1020
0.0
1030
0.0
1001
ACDBBLOCKREPETAG
1070
     1
1071
      483
1005
121A6A
  0
LINE
  5
121A6B
  8
CENTER
 10
12080.0
 20
-199.99999999999909
 30
0.0
 11
11900.0
 21
-199.99999999999909
 31
0.0
1001
ACDBBLOCKREPETAG
1070
     1
1071
      187
1005
121A6B
  0
LINE
  5
121A6C
  8
CENTER
 10
12000.0
 20
-299.99999999999898
 30
0.0
 11
12000.0
 21
-99.999999999999091
 31
0.0
1001
ACDBBLOCKREPETAG
1070
     1
1071
      188
1005
121A6C
  0
CIRCLE
  5
121A6D
  8
OBJECT
 10
12000.0
 20
-199.99999999999909
 30
0.0
 40
70.0
1001
ACDBBLOCKREPETAG
1070
     1
1071
      189
1005
121A6D
  0
CIRCLE
  5
121A6E
  8
OBJECT
 10
12000.0
 20
-199.99999999999909
 30
0.0
 40
77.0
1001
ACDBBLOCKREPETAG
1070
     1
1071
      190
1005
121A6E
  0
LINE
  5
121A6F
  8
OBJECT
 10
12045.661800227321
 20
-137.99999999999909
 30
0.0
 11
12080.0
 21
-137.99999999999909
 31
0.0
1001
ACDBBLOCKREPETAG
1070
     1
1071
      192
1005
121A6F
  0
LINE
  5
121A70
  8
OBJECT
 10
12045.661800227321
 20
-261.99999999999909
 30
0.0
 11
12080.0
 21
-261.99999999999909
 31
0.0
1001
ACDBBLOCKREPETAG
1070
     1
1071
      193
1005
121A70
  0
ARC
  5
121A71
  8
OBJECT
 10
12000.0
 20
-199.99999999999909
 30
0.0
 40
85.0
 50
46.837102859853147
 51
313.16289714014681
1001
ACDBBLOCKREPETAG
1070
     1
1071
      202
1005
121A71
  0
LINE
  5
121A72
  8
OBJECT
 10
12024.1029330933
 20
-243.80694712371681
 30
0.0
 11
12020.659656999989
 21
-232.55462199999889
 31
0.0
1001
ACDBBLOCKREPETAG
1070
     1
1071
      321
1005
121A72
  0
LINE
  5
121A73
  8
OBJECT
 10
11986.79274990136
 20
-218.22553374208019
 30
0.0
 11
12020.659656999989
 21
-232.5546219999969
 31
0.0
1001
ACDBBLOCKREPETAG
1070
     1
1071
      323
1005
121A73
  0
ARC
  5
121A74
  8
OBJECT
 10
11982.8961697619
 20
-227.4351299990567
 30
0.0
 40
10.0
 50
67.066778292911366
 51
154.01473437031629
1001
ACDBBLOCKREPETAG
1070
     1
1071
      324
1005
121A74
  0
ARC
  5
121A75
  8
OBJECT
 10
11986.148839038129
 20
-225.55386256729159
 30
0.0
 40
7.0
 50
67.066778292911366
 51
154.0147337749826
1001
ACDBBLOCKREPETAG
1070
     1
1071
      325
1005
121A75
  0
LINE
  5
121A76
  8
OBJECT
 10
11969.4199755553
 20
-243.89888500818171
 30
0.0
 11
11979.85649182323
 21
-222.48688253356801
 31
0.0
1001
ACDBBLOCKREPETAG
1070
     1
1071
      353
1005
121A76
  0
LINE
  5
121A77
  8
OBJECT
 10
11965.29721690061
 20
-240.71813901882729
 30
0.0
 11
11973.90710226651
 21
-223.05373004430751
 31
0.0
1001
ACDBBLOCKREPETAG
1070
     1
1071
      354
1005
121A77
  0
ARC
  5
121A78
  8
OBJECT
 10
11976.57969530731
 20
-207.1289369828437
 30
0.0
 40
60.031113246032611
 50
314.07020130422319
 51
322.33936106089681
1001
ACDBBLOCKREPETAG
1070
     1
1071
      355
1005
121A78
  0
CIRCLE
  5
121A79
  8
OBJECT
 10
12000.0
 20
-199.99999999999909
 30
0.0
 40
53.5
1001
ACDBBLOCKREPETAG
1070
     1
1071
      356
1005
121A79
  0
POINT
  5
121A7A
  8
DOTS
 10
12000.0
 20
-199.99999999999909
 30
0.0
 50
270.0
1001
ACDBBLOCKREPETAG
1070
     1
1071
      365
1005
121A7A
  0
LINE
  5
121A7B
  8
OBJECT
 10
12212.99999999998
 20
-453.0000000000008
 30
0.0
 11
12219.99999999998
 21
-453.0000000000008
 31
0.0
1001
ACDBBLOCKREPETAG
1070
     1
1071
      106
1005
121A7B
  0
LINE
  5
121A7C
  8
OBJECT
 10
12219.99999999998
 20
-453.0000000000008
 30
0.0
 11
12219.99999999998
 21
-577.0000000000008
 31
0.0
1001
ACDBBLOCKREPETAG
1070
     1
1071
      107
1005
121A7C
  0
LINE
  5
121A7D
  8
OBJECT
 10
12085.99999999998
 20
-553.3502637757274
 30
0.0
 11
12085.99999999998
 21
-655.00000000000068
 31
0.0
1001
ACDBBLOCKREPETAG
1070
     1
1071
      108
1005
121A7D
  0
LINE
  5
121A7E
  8
OBJECT
 10
12219.99999999998
 20
-577.0000000000008
 30
0.0
 11
12212.99999999998
 21
-577.0000000000008
 31
0.0
1001
ACDBBLOCKREPETAG
1070
     1
1071
      109
1005
121A7E
  0
LINE
  5
121A7F
  8
OBJECT
 10
12212.99999999998
 20
-577.0000000000008
 30
0.0
 11
12212.99999999998
 21
-453.0000000000008
 31
0.0
1001
ACDBBLOCKREPETAG
1070
     1
1071
      110
1005
121A7F
  0
LINE
  5
121A80
  8
CENTER
 10
12144.99999999998
 20
-515.0000000000008
 30
0.0
 11
12234.99999999998
 21
-515.0000000000008
 31
0.0
1001
ACDBBLOCKREPETAG
1070
     1
1071
      111
1005
121A80
  0
LINE
  5
121A81
  8
OBJECT
 10
12079.99999999998
 20
-658.0
 30
0.0
 11
12082.99999999998
 21
-658.0000000000008
 31
0.0
1001
ACDBBLOCKREPETAG
1070
     1
1071
      112
1005
121A81
  0
ARC
  5
121A82
  8
OBJECT
 10
12082.99999999998
 20
-655.00000000000068
 30
0.0
 40
3.0
 50
270.0
 51
0.0
1001
ACDBBLOCKREPETAG
1070
     1
1071
      113
1005
121A82
  0
LINE
  5
121A83
  8
OBJECT
 10
12212.99999999998
 20
-456.0000000000008
 30
0.0
 11
12176.99999999998
 21
-456.0000000000008
 31
0.0
1001
ACDBBLOCKREPETAG
1070
     1
1071
      114
1005
121A83
  0
LINE
  5
121A84
  8
OBJECT
 10
12176.99999999998
 20
-456.0000000000008
 30
0.0
 11
12176.99999999998
 21
-553.15756805667843
 31
0.0
1001
ACDBBLOCKREPETAG
1070
     1
1071
      115
1005
121A84
  0
LINE
  5
121A85
  8
OBJECT
 10
12172.99999999998
 20
-460.5000000000008
 30
0.0
 11
12172.99999999998
 21
-545.74491827928705
 31
0.0
1001
ACDBBLOCKREPETAG
1070
     1
1071
      116
1005
121A85
  0
LINE
  5
121A86
  8
OBJECT
 10
12172.99999999998
 20
-460.5000000000008
 30
0.0
 11
12159.99999999998
 21
-460.5000000000008
 31
0.0
1001
ACDBBLOCKREPETAG
1070
     1
1071
      117
1005
121A86
  0
LINE
  5
121A87
  8
OBJECT
 10
12168.656316825471
 20
-574.0000000000008
 30
0.0
 11
12212.99999999998
 21
-574.0000000000008
 31
0.0
1001
ACDBBLOCKREPETAG
1070
     1
1071
      118
1005
121A87
  0
LINE
  5
121A88
  8
OBJECT
 10
12176.99999999998
 20
-456.0000000000008
 30
0.0
 11
12172.99999999998
 21
-460.5000000000008
 31
0.0
1001
ACDBBLOCKREPETAG
1070
     1
1071
      119
1005
121A88
  0
LINE
  5
121A89
  8
OBJECT
 10
12159.99999999998
 20
-460.5000000000008
 30
0.0
 11
12159.99999999998
 21
-545.74491827928784
 31
0.0
1001
ACDBBLOCKREPETAG
1070
     1
1071
      120
1005
121A89
  0
ARC
  5
121A8A
  8
OBJECT
 10
12091.99999999998
 20
-537.27386365609345
 30
0.0
 40
85.0
 50
308.59099323720869
 51
334.4008612781347
1001
ACDBBLOCKREPETAG
1070
     1
1071
      121
1005
121A8A
  0
ARC
  5
121A8B
  8
OBJECT
 10
12162.799999999979
 20
-555.00000000000068
 30
0.0
 40
85.0
 50
91.887731891831123
 51
160.07406787456929
1001
ACDBBLOCKREPETAG
1070
     1
1071
      122
1005
121A8B
  0
LINE
  5
121A8C
  8
OBJECT
 10
12085.99999999998
 20
-650.81075719270927
 30
0.0
 11
12145.0193225436
 21
-603.71143914629465
 31
0.0
1001
ACDBBLOCKREPETAG
1070
     1
1071
      123
1005
121A8C
  0
LINE
  5
121A8D
  8
OBJECT
 10
12172.99999999998
 20
-545.74491827928705
 30
0.0
 11
12159.99999999998
 21
-545.74491827928784
 31
0.0
1001
ACDBBLOCKREPETAG
1070
     1
1071
      124
1005
121A8D
  0
LINE
  5
121A8E
  8
OBJECT
 10
12176.99999999998
 20
-553.15756805667843
 30
0.0
 11
12172.99999999998
 21
-545.74491827928705
 31
0.0
1001
ACDBBLOCKREPETAG
1070
     1
1071
      125
1005
121A8E
  0
LINE
  5
121A8F
  8
OBJECT
 10
12080.00000000002
 20
-534.0
 30
0.0
 11
12082.888612159621
 21
-526.03156729425325
 31
0.0
1001
ACDBBLOCKREPETAG
1070
     1
1071
      126
1005
121A8F
  0
LINE
  5
121A90
  8
OBJECT
 10
12080.00000000002
 20
-534.0
 30
0.0
 11
12085.99999999998
 21
-553.3502637757274
 31
0.0
1001
ACDBBLOCKREPETAG
1070
     1
1071
      127
1005
121A90
  0
LINE
  5
121A91
  8
HIDDEN
 10
12167.99999999998
 20
-470.5000000000008
 30
0.0
 11
12167.99999999998
 21
-559.50000000000068
 31
0.0
1001
ACDBBLOCKREPETAG
1070
     1
1071
      129
1005
121A91
  0
LINE
  5
121A92
  8
OBJECT
 10
12212.99999999998
 20
-137.99999999999909
 30
0.0
 11
12219.99999999998
 21
-137.99999999999909
 31
0.0
1001
ACDBBLOCKREPETAG
1070
     1
1071
      110
1005
121A92
  0
LINE
  5
121A93
  8
OBJECT
 10
12219.99999999998
 20
-137.99999999999909
 30
0.0
 11
12219.99999999998
 21
-261.99999999999909
 31
0.0
1001
ACDBBLOCKREPETAG
1070
     1
1071
      111
1005
121A93
  0
LINE
  5
121A94
  8
OBJECT
 10
12219.99999999998
 20
-261.99999999999909
 30
0.0
 11
12212.99999999998
 21
-261.99999999999909
 31
0.0
1001
ACDBBLOCKREPETAG
1070
     1
1071
      112
1005
121A94
  0
LINE
  5
121A95
  8
OBJECT
 10
12212.99999999998
 20
-261.99999999999909
 30
0.0
 11
12212.99999999998
 21
-137.99999999999909
 31
0.0
1001
ACDBBLOCKREPETAG
1070
     1
1071
      113
1005
121A95
  0
LINE
  5
121A96
  8
CENTER
 10
12234.99999999998
 20
-199.99999999999909
 30
0.0
 11
12080.0
 21
-199.99999999999909
 31
0.0
1001
ACDBBLOCKREPETAG
1070
     1
1071
      114
1005
121A96
  0
LINE
  5
121A97
  8
OBJECT
 10
12159.999974964179
 20
-245.0000000000027
 30
0.0
 11
12086.0
 21
-244.99999999999909
 31
0.0
1001
ACDBBLOCKREPETAG
1070
     1
1071
      115
1005
121A97
  0
LINE
  5
121A98
  8
OBJECT
 10
12159.999974964179
 20
-154.99999999999909
 30
0.0
 11
12086.0
 21
-154.99999999999909
 31
0.0
1001
ACDBBLOCKREPETAG
1070
     1
1071
      116
1005
121A98
  0
LINE
  5
121A99
  8
OBJECT
 10
12212.99999999998
 20
-140.99999999999909
 30
0.0
 11
12176.99999999998
 21
-140.99999999999909
 31
0.0
1001
ACDBBLOCKREPETAG
1070
     1
1071
      117
1005
121A99
  0
LINE
  5
121A9A
  8
OBJECT
 10
12176.99999999998
 20
-140.99999999999909
 30
0.0
 11
12176.99999999998
 21
-258.99999999999909
 31
0.0
1001
ACDBBLOCKREPETAG
1070
     1
1071
      118
1005
121A9A
  0
LINE
  5
121A9B
  8
OBJECT
 10
12176.99999999998
 20
-258.99999999999909
 30
0.0
 11
12212.99999999998
 21
-258.99999999999909
 31
0.0
1001
ACDBBLOCKREPETAG
1070
     1
1071
      119
1005
121A9B
  0
LINE
  5
121A9C
  8
OBJECT
 10
12172.99999999998
 20
-145.49999999999909
 30
0.0
 11
12159.99999999998
 21
-145.49999999999909
 31
0.0
1001
ACDBBLOCKREPETAG
1070
     1
1071
      120
1005
121A9C
  0
LINE
  5
121A9D
  8
OBJECT
 10
12159.99999999998
 20
-254.49999999999909
 30
0.0
 11
12172.99999999998
 21
-254.49999999999909
 31
0.0
1001
ACDBBLOCKREPETAG
1070
     1
1071
      121
1005
121A9D
  0
LINE
  5
121A9E
  8
OBJECT
 10
12172.99999999998
 20
-254.49999999999909
 30
0.0
 11
12172.99999999998
 21
-145.49999999999909
 31
0.0
1001
ACDBBLOCKREPETAG
1070
     1
1071
      122
1005
121A9E
  0
LINE
  5
121A9F
  8
OBJECT
 10
12176.99999999998
 20
-140.99999999999909
 30
0.0
 11
12172.99999999998
 21
-145.49999999999909
 31
0.0
1001
ACDBBLOCKREPETAG
1070
     1
1071
      123
1005
121A9F
  0
LINE
  5
121AA0
  8
OBJECT
 10
12176.99999999998
 20
-258.99999999999909
 30
0.0
 11
12172.99999999998
 21
-254.49999999999909
 31
0.0
1001
ACDBBLOCKREPETAG
1070
     1
1071
      124
1005
121AA0
  0
LINE
  5
121AA1
  8
OBJECT
 10
12083.0
 20
-137.99999999999909
 30
0.0
 11
12080.0
 21
-137.99999999999909
 31
0.0
1001
ACDBBLOCKREPETAG
1070
     1
1071
      125
1005
121AA1
  0
ARC
  5
121AA2
  8
OBJECT
 10
12083.0
 20
-140.99999999999909
 30
0.0
 40
3.0
 50
0.0
 51
90.0
1001
ACDBBLOCKREPETAG
1070
     1
1071
      126
1005
121AA2
  0
LINE
  5
121AA3
  8
OBJECT
 10
12080.0
 20
-261.99999999999909
 30
0.0
 11
12083.0
 21
-261.99999999999909
 31
0.0
1001
ACDBBLOCKREPETAG
1070
     1
1071
      127
1005
121AA3
  0
ARC
  5
121AA4
  8
OBJECT
 10
12083.0
 20
-258.99999999999909
 30
0.0
 40
3.0
 50
270.0
 51
0.0
1001
ACDBBLOCKREPETAG
1070
     1
1071
      128
1005
121AA4
  0
LINE
  5
121AA5
  8
OBJECT
 10
12086.0
 20
-258.99999999999909
 30
0.0
 11
12086.0
 21
-222.44994432063581
 31
0.0
1001
ACDBBLOCKREPETAG
1070
     1
1071
      129
1005
121AA5
  0
LINE
  5
121AA6
  8
OBJECT
 10
12086.0
 20
-177.55005567935859
 30
0.0
 11
12086.0
 21
-140.99999999999909
 31
0.0
1001
ACDBBLOCKREPETAG
1070
     1
1071
      130
1005
121AA6
  0
LINE
  5
121AA7
  8
HIDDEN
 10
12167.99999999998
 20
-155.49999999999909
 30
0.0
 11
12167.99999999998
 21
-244.49999999999909
 31
0.0
1001
ACDBBLOCKREPETAG
1070
     1
1071
      131
1005
121AA7
  0
LINE
  5
121AA8
  8
OBJECT
 10
12159.999974964179
 20
-254.4999509238105
 30
0.0
 11
12159.999974964179
 21
-145.4999509238105
 31
0.0
1001
ACDBBLOCKREPETAG
1070
     1
1071
      133
1005
121AA8
  0
ARC
  5
121AA9
  8
OBJECT
 10
12125.0
 20
-199.99999999999909
 30
0.0
 40
45.000000000000547
 50
90.0
 51
270.0
1001
ACDBBLOCKREPETAG
1070
     1
1071
      134
1005
121AA9
  0
LINE
  5
121AAA
  8
OBJECT
 10
9923.0
 20
-470.99999999999937
 30
0.0
 11
9923.0
 21
-449.99999999999937
 31
0.0
1001
ACDBBLOCKREPETAG
1070
     1
1071
        0
1005
121AAA
  0
LINE
  5
121AAB
  8
OBJECT
 10
9923.0
 20
-449.99999999999937
 30
0.0
 11
10077.0
 21
-449.99999999999937
 31
0.0
1001
ACDBBLOCKREPETAG
1070
     1
1071
        1
1005
121AAB
  0
LINE
  5
121AAC
  8
HIDDEN
 10
9943.0
 20
-519.99999999999955
 30
0.0
 11
10057.0
 21
-519.99999999999955
 31
0.0
1001
ACDBBLOCKREPETAG
1070
     1
1071
        2
1005
121AAC
  0
LINE
  5
121AAD
  8
OBJECT
 10
10077.0
 20
-449.99999999999937
 30
0.0
 11
10077.0
 21
-470.99999999999937
 31
0.0
1001
ACDBBLOCKREPETAG
1070
     1
1071
        3
1005
121AAD
  0
LINE
  5
121AAE
  8
OBJECT
 10
10077.0
 20
-470.99999999999937
 30
0.0
 11
9923.0
 21
-470.99999999999937
 31
0.0
1001
ACDBBLOCKREPETAG
1070
     1
1071
        4
1005
121AAE
  0
LINE
  5
121AAF
  8
CENTER
 10
10000.0
 20
-434.99999999999949
 30
0.0
 11
10000.0
 21
-789.99999999999955
 31
0.0
1001
ACDBBLOCKREPETAG
1070
     1
1071
        5
1005
121AAF
  0
LINE
  5
121AB0
  8
OBJECT
 10
9925.0
 20
-533.99999999999955
 30
0.0
 11
9925.0
 21
-777.99999999999955
 31
0.0
1001
ACDBBLOCKREPETAG
1070
     1
1071
        6
1005
121AB0
  0
LINE
  5
121AB1
  8
OBJECT
 10
9928.0
 20
-470.99999999999937
 30
0.0
 11
9928.0
 21
-533.99999999999955
 31
0.0
1001
ACDBBLOCKREPETAG
1070
     1
1071
        7
1005
121AB1
  0
LINE
  5
121AB2
  8
OBJECT
 10
10072.0
 20
-533.99999999999955
 30
0.0
 11
10072.0
 21
-470.99999999999937
 31
0.0
1001
ACDBBLOCKREPETAG
1070
     1
1071
        8
1005
121AB2
  0
LINE
  5
121AB3
  8
OBJECT
 10
9920.0
 20
-777.99999999999955
 30
0.0
 11
10080.0
 21
-777.99999999999955
 31
0.0
1001
ACDBBLOCKREPETAG
1070
     1
1071
        9
1005
121AB3
  0
LINE
  5
121AB4
  8
OBJECT
 10
10080.0
 20
-533.99999999999955
 30
0.0
 11
9925.0
 21
-533.99999999999955
 31
0.0
1001
ACDBBLOCKREPETAG
1070
     1
1071
       10
1005
121AB4
  0
LINE
  5
121AB5
  8
OBJECT
 10
9920.0
 20
-777.99999999999955
 30
0.0
 11
9920.0
 21
-789.99999999999955
 31
0.0
1001
ACDBBLOCKREPETAG
1070
     1
1071
       11
1005
121AB5
  0
LINE
  5
121AB6
  8
OBJECT
 10
9920.0
 20
-789.99999999999955
 30
0.0
 11
10080.0
 21
-789.99999999999955
 31
0.0
1001
ACDBBLOCKREPETAG
1070
     1
1071
       12
1005
121AB6
  0
LINE
  5
121AB7
  8
OBJECT
 10
10080.0
 20
-789.99999999999955
 30
0.0
 11
10080.0
 21
-777.99999999999955
 31
0.0
1001
ACDBBLOCKREPETAG
1070
     1
1071
       13
1005
121AB7
  0
LINE
  5
121AB8
  8
OBJECT
 10
10074.99999999986
 20
-657.99999999985039
 30
0.0
 11
10075.0
 21
-777.99999999999955
 31
0.0
1001
ACDBBLOCKREPETAG
1070
     1
1071
       15
1005
121AB8
  0
LINE
  5
121AB9
  8
OBJECT
 10
10074.99999080298
 20
-657.99998602702135
 30
0.0
 11
10080.0
 21
-657.99998602702135
 31
0.0
1001
ACDBBLOCKREPETAG
1070
     1
1071
       16
1005
121AB9
  0
ARC
  5
121ABA
  8
OBJECT
 10
10200.687274671671
 20
-649.40809941010718
 30
0.0
 40
170.6350503965856
 50
137.44134459184301
 51
149.91949581337221
1001
ACDBBLOCKREPETAG
1070
     1
1071
       17
1005
121ABA
  0
ARC
  5
121ABB
  8
OBJECT
 10
10118.845598704051
 20
-605.88272669536445
 30
0.0
 40
78.072222021763665
 50
147.4551531038623
 51
164.6636599771729
1001
ACDBBLOCKREPETAG
1070
     1
1071
       18
1005
121ABB
  0
ARC
  5
121ABC
  8
OBJECT
 10
10085.755434960871
 20
-595.99999999999955
 30
0.0
 40
43.55353926885617
 50
165.688452300753
 51
194.3115476992468
1001
ACDBBLOCKREPETAG
1070
     1
1071
       19
1005
121ABC
  0
ARC
  5
121ABD
  8
OBJECT
 10
10200.687274671671
 20
-542.59190058989179
 30
0.0
 40
170.6350503965856
 50
210.08050418662771
 51
222.55865540815699
1001
ACDBBLOCKREPETAG
1070
     1
1071
       20
1005
121ABD
  0
ARC
  5
121ABE
  8
OBJECT
 10
10118.845598704051
 20
-586.11727330463452
 30
0.0
 40
78.072222021763665
 50
195.3363400228271
 51
212.5448468961377
1001
ACDBBLOCKREPETAG
1070
     1
1071
       21
1005
121ABE
  0
POINT
  5
121ABF
  8
DOTS
 10
10000.0
 20
-654.99999999999966
 30
0.0
1001
ACDBBLOCKREPETAG
1070
     1
1071
      187
1005
121ABF
  0
ARC
  5
121AC0
  8
OBJECT
 10
10000.0
 20
-199.99999999999909
 30
0.0
 40
50.0
 50
298.81994300000417
 51
228.52376955964741
1001
ACDBBLOCKREPETAG
1070
     1
1071
      185
1005
121AC0
  0
LINE
  5
121AC1
  8
SLIM
 10
9927.3018300565236
 20
-155.95484036957691
 30
0.0
 11
9955.9548403695771
 21
-127.30183005652231
 31
0.0
1001
GRADIENTCOLOR1ACI
1070
     5
1001
GRADIENTCOLOR2ACI
1070
     2
1001
ACAD
1010
0.0
1020
0.0
1030
0.0
1001
ACDBBLOCKREPETAG
1070
     1
1071
      442
1005
121AC1
  0
LINE
  5
121AC2
  8
SLIM
 10
9919.4861520708382
 20
-172.75077447633191
 30
0.0
 11
9938.2903089572737
 21
-153.94661758989659
 31
0.0
1001
GRADIENTCOLOR1ACI
1070
     5
1001
GRADIENTCOLOR2ACI
1070
     2
1001
ACAD
1010
0.0
1020
0.0
1030
0.0
1001
ACDBBLOCKREPETAG
1070
     1
1071
      443
1005
121AC2
  0
LINE
  5
121AC3
  8
SLIM
 10
9953.9466175898997
 20
-138.29030895727169
 30
0.0
 11
9972.7507744763316
 21
-119.4861520708364
 31
0.0
1001
GRADIENTCOLOR1ACI
1070
     5
1001
GRADIENTCOLOR2ACI
1070
     2
1001
ACAD
1010
0.0
1020
0.0
1030
0.0
1001
ACDBBLOCKREPETAG
1070
     1
1071
      444
1005
121AC3
  0
LINE
  5
121AC4
  8
SLIM
 10
9916.3596679933817
 20
-184.8575146748604
 30
0.0
 11
9927.6959583557837
 21
-173.5212243124561
 31
0.0
1001
GRADIENTCOLOR1ACI
1070
     5
1001
GRADIENTCOLOR2ACI
1070
     2
1001
ACAD
1010
0.0
1020
0.0
1030
0.0
1001
ACDBBLOCKREPETAG
1070
     1
1071
      445
1005
121AC4
  0
LINE
  5
121AC5
  8
SLIM
 10
9973.5212243124606
 20
-127.6959583557812
 30
0.0
 11
9984.8575146748644
 21
-116.359667993377
 31
0.0
1001
GRADIENTCOLOR1ACI
1070
     5
1001
GRADIENTCOLOR2ACI
1070
     2
1001
ACAD
1010
0.0
1020
0.0
1030
0.0
1001
ACDBBLOCKREPETAG
1070
     1
1071
      446
1005
121AC5
  0
LINE
  5
121AC6
  8
SLIM
 10
9915.1440575890538
 20
-195.0533812002549
 30
0.0
 11
9924.3030216431835
 21
-185.89441714612491
 31
0.0
1001
GRADIENTCOLOR1ACI
1070
     5
1001
GRADIENTCOLOR2ACI
1070
     2
1001
ACAD
1010
0.0
1020
0.0
1030
0.0
1001
ACDBBLOCKREPETAG
1070
     1
1071
      447
1005
121AC6
  0
LINE
  5
121AC7
  8
SLIM
 10
9985.8944171461262
 20
-124.30302164318159
 30
0.0
 11
9995.0533812002577
 21
-115.1440575890517
 31
0.0
1001
GRADIENTCOLOR1ACI
1070
     5
1001
GRADIENTCOLOR2ACI
1070
     2
1001
ACAD
1010
0.0
1020
0.0
1030
0.0
1001
ACDBBLOCKREPETAG
1070
     1
1071
      448
1005
121AC7
  0
LINE
  5
121AC8
  8
SLIM
 10
9915.0979635574713
 20
-204.07973135290339
 30
0.0
 11
9919.1776949103787
 21
-199.99999999999909
 31
0.0
1001
GRADIENTCOLOR1ACI
1070
     5
1001
GRADIENTCOLOR2ACI
1070
     2
1001
ACAD
1010
0.0
1020
0.0
1030
0.0
1001
ACDBBLOCKREPETAG
1070
     1
1071
      449
1005
121AC8
  0
LINE
  5
121AC9
  8
SLIM
 10
10000.0
 20
-119.1776949103767
 30
0.0
 11
10004.0797313529
 21
-115.0979635574724
 31
0.0
1001
GRADIENTCOLOR1ACI
1070
     5
1001
GRADIENTCOLOR2ACI
1070
     2
1001
ACAD
1010
0.0
1020
0.0
1030
0.0
1001
ACDBBLOCKREPETAG
1070
     1
1071
      450
1005
121AC9
  0
LINE
  5
121ACA
  8
SLIM
 10
9919.1776949103787
 20
-199.99999999999909
 30
0.0
 11
9923.09996216117
 21
-196.07773274920581
 31
0.0
1001
GRADIENTCOLOR1ACI
1070
     5
1001
GRADIENTCOLOR2ACI
1070
     2
1001
ACAD
1010
0.0
1020
0.0
1030
0.0
1001
ACDBBLOCKREPETAG
1070
     1
1071
      451
1005
121ACA
  0
LINE
  5
121ACB
  8
SLIM
 10
9996.0777327492033
 20
-123.0999621611699
 30
0.0
 11
10000.0
 21
-119.1776949103767
 31
0.0
1001
GRADIENTCOLOR1ACI
1070
     5
1001
GRADIENTCOLOR2ACI
1070
     2
1001
ACAD
1010
0.0
1020
0.0
1030
0.0
1001
ACDBBLOCKREPETAG
1070
     1
1071
      452
1005
121ACB
  0
LINE
  5
121ACC
  8
SLIM
 10
9915.8899726208747
 20
-212.26797841057399
 30
0.0
 11
9923.1622307771686
 21
-204.9957202542767
 31
0.0
1001
GRADIENTCOLOR1ACI
1070
     5
1001
GRADIENTCOLOR2ACI
1070
     2
1001
ACAD
1010
0.0
1020
0.0
1030
0.0
1001
ACDBBLOCKREPETAG
1070
     1
1071
      453
1005
121ACC
  0
LINE
  5
121ACD
  8
SLIM
 10
10004.99572025427
 20
-123.1622307771683
 30
0.0
 11
10012.26797841056
 21
-115.88997262087101
 31
0.0
1001
GRADIENTCOLOR1ACI
1070
     5
1001
GRADIENTCOLOR2ACI
1070
     2
1001
ACAD
1010
0.0
1020
0.0
1030
0.0
1001
ACDBBLOCKREPETAG
1070
     1
1071
      454
1005
121ACD
  0
LINE
  5
121ACE
  8
SLIM
 10
9917.3382656951544
 20
-219.79994145736151
 30
0.0
 11
9924.1101477855536
 21
-213.02805936696359
 31
0.0
1001
GRADIENTCOLOR1ACI
1070
     5
1001
GRADIENTCOLOR2ACI
1070
     2
1001
ACAD
1010
0.0
1020
0.0
1030
0.0
1001
ACDBBLOCKREPETAG
1070
     1
1071
      455
1005
121ACE
  0
LINE
  5
121ACF
  8
SLIM
 10
10013.028059366959
 20
-124.1101477855505
 30
0.0
 11
10019.799941457361
 21
-117.3382656951526
 31
0.0
1001
GRADIENTCOLOR1ACI
1070
     5
1001
GRADIENTCOLOR2ACI
1070
     2
1001
ACAD
1010
0.0
1020
0.0
1030
0.0
1001
ACDBBLOCKREPETAG
1070
     1
1071
      456
1005
121ACF
  0
LINE
  5
121AD0
  8
SLIM
 10
9919.3312594063045
 20
-226.78720386727881
 30
0.0
 11
9925.7443819593445
 21
-220.3740813142449
 31
0.0
1001
GRADIENTCOLOR1ACI
1070
     5
1001
GRADIENTCOLOR2ACI
1070
     2
1001
ACAD
1010
0.0
1020
0.0
1030
0.0
1001
ACDBBLOCKREPETAG
1070
     1
1071
      457
1005
121AD0
  0
LINE
  5
121AD1
  8
SLIM
 10
10020.374081314239
 20
-125.7443819593384
 30
0.0
 11
10026.787203867279
 21
-119.3312594063044
 31
0.0
1001
GRADIENTCOLOR1ACI
1070
     5
1001
GRADIENTCOLOR2ACI
1070
     2
1001
ACAD
1010
0.0
1020
0.0
1030
0.0
1001
ACDBBLOCKREPETAG
1070
     1
1071
      458
1005
121AD1
  0
LINE
  5
121AD2
  8
SLIM
 10
9921.7957163186184
 20
-233.30300307603289
 30
0.0
 11
9927.9462473957792
 21
-227.1524719988744
 31
0.0
1001
GRADIENTCOLOR1ACI
1070
     5
1001
GRADIENTCOLOR2ACI
1070
     2
1001
ACAD
1010
0.0
1020
0.0
1030
0.0
1001
ACDBBLOCKREPETAG
1070
     1
1071
      459
1005
121AD2
  0
LINE
  5
121AD3
  8
SLIM
 10
10027.15247199887
 20
-127.946247395778
 30
0.0
 11
10033.303003076029
 21
-121.7957163186195
 31
0.0
1001
GRADIENTCOLOR1ACI
1070
     5
1001
GRADIENTCOLOR2ACI
1070
     2
1001
ACAD
1010
0.0
1020
0.0
1030
0.0
1001
ACDBBLOCKREPETAG
1070
     1
1071
      460
1005
121AD3
  0
LINE
  5
121AD4
  8
SLIM
 10
9924.6816635313444
 20
-239.39731198437769
 30
0.0
 11
9930.6398768643921
 21
-233.4390986513296
 31
0.0
1001
GRADIENTCOLOR1ACI
1070
     5
1001
GRADIENTCOLOR2ACI
1070
     2
1001
ACAD
1010
0.0
1020
0.0
1030
0.0
1001
ACDBBLOCKREPETAG
1070
     1
1071
      461
1005
121AD4
  0
LINE
  5
121AD5
  8
SLIM
 10
10033.43909865133
 20
-130.63987686439199
 30
0.0
 11
10039.39731198437
 21
-124.6816635313439
 31
0.0
1001
GRADIENTCOLOR1ACI
1070
     5
1001
GRADIENTCOLOR2ACI
1070
     2
1001
ACAD
1010
0.0
1020
0.0
1030
0.0
1001
ACDBBLOCKREPETAG
1070
     1
1071
      462
1005
121AD5
  0
LINE
  5
121AD6
  8
SLIM
 10
9927.9544611024248
 20
-245.10477053436691
 30
0.0
 11
9933.7750070149923
 21
-239.28422462179751
 31
0.0
1001
GRADIENTCOLOR1ACI
1070
     5
1001
GRADIENTCOLOR2ACI
1070
     2
1001
ACAD
1010
0.0
1020
0.0
1030
0.0
1001
ACDBBLOCKREPETAG
1070
     1
1071
      463
1005
121AD6
  0
LINE
  5
121AD7
  8
SLIM
 10
10039.284224621801
 20
-133.77500701499321
 30
0.0
 11
10045.104770534361
 21
-127.95446110242381
 31
0.0
1001
GRADIENTCOLOR1ACI
1070
     5
1001
GRADIENTCOLOR2ACI
1070
     2
1001
ACAD
1010
0.0
1020
0.0
1030
0.0
1001
ACDBBLOCKREPETAG
1070
     1
1071
      464
1005
121AD7
  0
LINE
  5
121AD8
  8
SLIM
 10
9931.5903319686659
 20
-250.4491557891954
 30
0.0
 11
9937.3182075880559
 21
-244.72128016980341
 31
0.0
1001
GRADIENTCOLOR1ACI
1070
     5
1001
GRADIENTCOLOR2ACI
1070
     2
1001
ACAD
1010
0.0
1020
0.0
1030
0.0
1001
ACDBBLOCKREPETAG
1070
     1
1071
      465
1005
121AD8
  0
LINE
  5
121AD9
  8
SLIM
 10
10044.721280169801
 20
-137.31820758805651
 30
0.0
 11
10050.449155789191
 21
-131.59033196866449
 31
0.0
1001
GRADIENTCOLOR1ACI
1070
     5
1001
GRADIENTCOLOR2ACI
1070
     2
1001
ACAD
1010
0.0
1020
0.0
1030
0.0
1001
ACDBBLOCKREPETAG
1070
     1
1071
      466
1005
121AD9
  0
LINE
  5
121ADA
  8
SLIM
 10
9935.5737496925303
 20
-255.4459941864034
 30
0.0
 11
9941.2481105415936
 21
-249.77163333734029
 31
0.0
1001
GRADIENTCOLOR1ACI
1070
     5
1001
GRADIENTCOLOR2ACI
1070
     2
1001
ACAD
1010
0.0
1020
0.0
1030
0.0
1001
ACDBBLOCKREPETAG
1070
     1
1071
      467
1005
121ADA
  0
LINE
  5
121ADB
  8
SLIM
 10
10053.019743878929
 20
-137.99999999999909
 30
0.0
 11
10055.445994186401
 21
-135.57374969252561
 31
0.0
1001
GRADIENTCOLOR1ACI
1070
     5
1001
GRADIENTCOLOR2ACI
1070
     2
1001
ACAD
1010
0.0
1020
0.0
1030
0.0
1001
ACDBBLOCKREPETAG
1070
     1
1071
      468
1005
121ADB
  0
LINE
  5
121ADC
  8
SLIM
 10
9939.8959235991442
 20
-260.10407640085572
 30
0.0
 11
9945.5527778486357
 21
-254.44722215136329
 31
0.0
1001
GRADIENTCOLOR1ACI
1070
     5
1001
GRADIENTCOLOR2ACI
1070
     2
1001
ACAD
1010
0.0
1020
0.0
1030
0.0
1001
ACDBBLOCKREPETAG
1070
     1
1071
      469
1005
121ADC
  0
LINE
  5
121ADD
  8
SLIM
 10
9944.5540058135957
 20
-264.4262503074724
 30
0.0
 11
9950.2283666626608
 21
-258.75188945840949
 31
0.0
1001
GRADIENTCOLOR1ACI
1070
     5
1001
GRADIENTCOLOR2ACI
1070
     2
1001
ACAD
1010
0.0
1020
0.0
1030
0.0
1001
ACDBBLOCKREPETAG
1070
     1
1071
      470
1005
121ADD
  0
LINE
  5
121ADE
  8
SLIM
 10
9949.5508442108039
 20
-268.40966803133369
 30
0.0
 11
9955.2787198301976
 21
-262.68179241194167
 31
0.0
1001
GRADIENTCOLOR1ACI
1070
     5
1001
GRADIENTCOLOR2ACI
1070
     2
1001
ACAD
1010
0.0
1020
0.0
1030
0.0
1001
ACDBBLOCKREPETAG
1070
     1
1071
      471
1005
121ADE
  0
LINE
  5
121ADF
  8
SLIM
 10
9954.8952294656337
 20
-272.04553889757437
 30
0.0
 11
9960.7157753781994
 21
-266.22499298500497
 31
0.0
1001
GRADIENTCOLOR1ACI
1070
     5
1001
GRADIENTCOLOR2ACI
1070
     2
1001
ACAD
1010
0.0
1020
0.0
1030
0.0
1001
ACDBBLOCKREPETAG
1070
     1
1071
      472
1005
121ADF
  0
LINE
  5
121AE0
  8
SLIM
 10
9960.6026880156223
 20
-275.31833646865431
 30
0.0
 11
9966.5609013486755
 21
-269.36012313560622
 31
0.0
1001
GRADIENTCOLOR1ACI
1070
     5
1001
GRADIENTCOLOR2ACI
1070
     2
1001
ACAD
1010
0.0
1020
0.0
1030
0.0
1001
ACDBBLOCKREPETAG
1070
     1
1071
      473
1005
121AE0
  0
LINE
  5
121AE1
  8
SLIM
 10
9966.6969969239635
 20
-278.20428368137868
 30
0.0
 11
9972.8475280011244
 21
-272.05375260422022
 31
0.0
1001
GRADIENTCOLOR1ACI
1070
     5
1001
GRADIENTCOLOR2ACI
1070
     2
1001
ACAD
1010
0.0
1020
0.0
1030
0.0
1001
ACDBBLOCKREPETAG
1070
     1
1071
      474
1005
121AE1
  0
LINE
  5
121AE2
  8
SLIM
 10
9973.2127961327205
 20
-280.66874059369371
 30
0.0
 11
9979.6259186857551
 21
-274.25561804065973
 31
0.0
1001
GRADIENTCOLOR1ACI
1070
     5
1001
GRADIENTCOLOR2ACI
1070
     2
1001
ACAD
1010
0.0
1020
0.0
1030
0.0
1001
ACDBBLOCKREPETAG
1070
     1
1071
      475
1005
121AE2
  0
LINE
  5
121AE3
  8
SLIM
 10
9980.2000585426413
 20
-282.6617343048456
 30
0.0
 11
9986.971940633035
 21
-275.88985221444773
 31
0.0
1001
GRADIENTCOLOR1ACI
1070
     5
1001
GRADIENTCOLOR2ACI
1070
     2
1001
ACAD
1010
0.0
1020
0.0
1030
0.0
1001
ACDBBLOCKREPETAG
1070
     1
1071
      476
1005
121AE3
  0
LINE
  5
121AE4
  8
SLIM
 10
9987.7320215894215
 20
-284.11002737912702
 30
0.0
 11
9995.0042797457209
 21
-276.83776922282988
 31
0.0
1001
GRADIENTCOLOR1ACI
1070
     5
1001
GRADIENTCOLOR2ACI
1070
     2
1001
ACAD
1010
0.0
1020
0.0
1030
0.0
1001
ACDBBLOCKREPETAG
1070
     1
1071
      477
1005
121AE4
  0
LINE
  5
121AE5
  8
SLIM
 10
9995.9202686470962
 20
-284.9020364425258
 30
0.0
 11
10000.0
 21
-280.82230508962152
 31
0.0
1001
GRADIENTCOLOR1ACI
1070
     5
1001
GRADIENTCOLOR2ACI
1070
     2
1001
ACAD
1010
0.0
1020
0.0
1030
0.0
1001
ACDBBLOCKREPETAG
1070
     1
1071
      478
1005
121AE5
  0
LINE
  5
121AE6
  8
SLIM
 10
10000.0
 20
-280.82230508962152
 30
0.0
 11
10003.922267250789
 21
-276.90003783882821
 31
0.0
1001
GRADIENTCOLOR1ACI
1070
     5
1001
GRADIENTCOLOR2ACI
1070
     2
1001
ACAD
1010
0.0
1020
0.0
1030
0.0
1001
ACDBBLOCKREPETAG
1070
     1
1071
      479
1005
121AE6
  0
LINE
  5
121AE7
  8
SLIM
 10
10004.94661879974
 20
-284.85594241094651
 30
0.0
 11
10014.10558285387
 21
-275.6969783568166
 31
0.0
1001
GRADIENTCOLOR1ACI
1070
     5
1001
GRADIENTCOLOR2ACI
1070
     2
1001
ACAD
1010
0.0
1020
0.0
1030
0.0
1001
ACDBBLOCKREPETAG
1070
     1
1071
      480
1005
121AE7
  0
LINE
  5
121AE8
  8
SLIM
 10
10015.142485325139
 20
-283.64033200662118
 30
0.0
 11
10026.478775687539
 21
-272.30404164421702
 31
0.0
1001
GRADIENTCOLOR1ACI
1070
     5
1001
GRADIENTCOLOR2ACI
1070
     2
1001
ACAD
1010
0.0
1020
0.0
1030
0.0
1001
ACDBBLOCKREPETAG
1070
     1
1071
      481
1005
121AE8
  0
LINE
  5
121AE9
  8
SLIM
 10
10027.249225523659
 20
-280.51384792916173
 30
0.0
 11
10045.76307345283
 21
-261.99999999999909
 31
0.0
1001
GRADIENTCOLOR1ACI
1070
     5
1001
GRADIENTCOLOR2ACI
1070
     2
1001
ACAD
1010
0.0
1020
0.0
1030
0.0
1001
ACDBBLOCKREPETAG
1070
     1
1071
      482
1005
121AE9
  0
LINE
  5
121AEA
  8
SLIM
 10
10044.045159630419
 20
-272.69816994347582
 30
0.0
 11
10054.743329573899
 21
-261.99999999999909
 31
0.0
1001
GRADIENTCOLOR1ACI
1070
     5
1001
GRADIENTCOLOR2ACI
1070
     2
1001
ACAD
1010
0.0
1020
0.0
1030
0.0
1001
ACDBBLOCKREPETAG
1070
     1
1071
      483
1005
121AEA
  0
LINE
  5
121AEB
  8
CENTER
 10
10080.0
 20
-199.99999999999909
 30
0.0
 11
9900.0
 21
-199.99999999999909
 31
0.0
1001
ACDBBLOCKREPETAG
1070
     1
1071
      187
1005
121AEB
  0
LINE
  5
121AEC
  8
CENTER
 10
10000.0
 20
-299.99999999999898
 30
0.0
 11
10000.0
 21
-99.999999999999091
 31
0.0
1001
ACDBBLOCKREPETAG
1070
     1
1071
      188
1005
121AEC
  0
CIRCLE
  5
121AED
  8
OBJECT
 10
10000.0
 20
-199.99999999999909
 30
0.0
 40
70.0
1001
ACDBBLOCKREPETAG
1070
     1
1071
      189
1005
121AED
  0
CIRCLE
  5
121AEE
  8
OBJECT
 10
10000.0
 20
-199.99999999999909
 30
0.0
 40
77.0
1001
ACDBBLOCKREPETAG
1070
     1
1071
      190
1005
121AEE
  0
LINE
  5
121AEF
  8
OBJECT
 10
10045.661800227321
 20
-137.99999999999909
 30
0.0
 11
10080.0
 21
-137.99999999999909
 31
0.0
1001
ACDBBLOCKREPETAG
1070
     1
1071
      192
1005
121AEF
  0
LINE
  5
121AF0
  8
OBJECT
 10
10045.661800227321
 20
-261.99999999999909
 30
0.0
 11
10080.0
 21
-261.99999999999909
 31
0.0
1001
ACDBBLOCKREPETAG
1070
     1
1071
      193
1005
121AF0
  0
ARC
  5
121AF1
  8
OBJECT
 10
10000.0
 20
-199.99999999999909
 30
0.0
 40
85.0
 50
46.837102859853147
 51
313.16289714014681
1001
ACDBBLOCKREPETAG
1070
     1
1071
      202
1005
121AF1
  0
LINE
  5
121AF2
  8
OBJECT
 10
10024.1029330933
 20
-243.80694712371681
 30
0.0
 11
10020.659656999989
 21
-232.55462199999889
 31
0.0
1001
ACDBBLOCKREPETAG
1070
     1
1071
      321
1005
121AF2
  0
LINE
  5
121AF3
  8
OBJECT
 10
9986.7927499013749
 20
-218.22553374208019
 30
0.0
 11
10020.659656999989
 21
-232.5546219999969
 31
0.0
1001
ACDBBLOCKREPETAG
1070
     1
1071
      323
1005
121AF3
  0
ARC
  5
121AF4
  8
OBJECT
 10
9982.8961697618997
 20
-227.4351299990567
 30
0.0
 40
10.0
 50
67.066778292911366
 51
154.01473437031629
1001
ACDBBLOCKREPETAG
1070
     1
1071
      324
1005
121AF4
  0
ARC
  5
121AF5
  8
OBJECT
 10
9986.1488390381292
 20
-225.55386256729159
 30
0.0
 40
7.0
 50
67.066778292911366
 51
154.0147337749826
1001
ACDBBLOCKREPETAG
1070
     1
1071
      325
1005
121AF5
  0
LINE
  5
121AF6
  8
OBJECT
 10
9969.4199755553
 20
-243.89888500818171
 30
0.0
 11
9979.8564918232369
 21
-222.48688253356801
 31
0.0
1001
ACDBBLOCKREPETAG
1070
     1
1071
      353
1005
121AF6
  0
LINE
  5
121AF7
  8
OBJECT
 10
9965.2972169006098
 20
-240.71813901882729
 30
0.0
 11
9973.9071022665084
 21
-223.05373004430751
 31
0.0
1001
ACDBBLOCKREPETAG
1070
     1
1071
      354
1005
121AF7
  0
ARC
  5
121AF8
  8
OBJECT
 10
9976.5796953073132
 20
-207.1289369828437
 30
0.0
 40
60.031113246032611
 50
314.07020130422319
 51
322.33936106089681
1001
ACDBBLOCKREPETAG
1070
     1
1071
      355
1005
121AF8
  0
CIRCLE
  5
121AF9
  8
OBJECT
 10
10000.0
 20
-199.99999999999909
 30
0.0
 40
53.5
1001
ACDBBLOCKREPETAG
1070
     1
1071
      356
1005
121AF9
  0
POINT
  5
121AFA
  8
DOTS
 10
10000.0
 20
-199.99999999999909
 30
0.0
 50
270.0
1001
ACDBBLOCKREPETAG
1070
     1
1071
      365
1005
121AFA
  0
LINE
  5
121AFB
  8
OBJECT
 10
10212.99999999998
 20
-453.0000000000008
 30
0.0
 11
10219.99999999998
 21
-453.0000000000008
 31
0.0
1001
ACDBBLOCKREPETAG
1070
     1
1071
      106
1005
121AFB
  0
LINE
  5
121AFC
  8
OBJECT
 10
10219.99999999998
 20
-453.0000000000008
 30
0.0
 11
10219.99999999998
 21
-577.0000000000008
 31
0.0
1001
ACDBBLOCKREPETAG
1070
     1
1071
      107
1005
121AFC
  0
LINE
  5
121AFD
  8
OBJECT
 10
10085.99999999998
 20
-553.3502637757274
 30
0.0
 11
10085.99999999998
 21
-655.00000000000068
 31
0.0
1001
ACDBBLOCKREPETAG
1070
     1
1071
      108
1005
121AFD
  0
LINE
  5
121AFE
  8
OBJECT
 10
10219.99999999998
 20
-577.0000000000008
 30
0.0
 11
10212.99999999998
 21
-577.0000000000008
 31
0.0
1001
ACDBBLOCKREPETAG
1070
     1
1071
      109
1005
121AFE
  0
LINE
  5
121AFF
  8
OBJECT
 10
10212.99999999998
 20
-577.0000000000008
 30
0.0
 11
10212.99999999998
 21
-453.0000000000008
 31
0.0
1001
ACDBBLOCKREPETAG
1070
     1
1071
      110
1005
121AFF
  0
LINE
  5
121B00
  8
CENTER
 10
10144.99999999998
 20
-515.0000000000008
 30
0.0
 11
10234.99999999998
 21
-515.0000000000008
 31
0.0
1001
ACDBBLOCKREPETAG
1070
     1
1071
      111
1005
121B00
  0
LINE
  5
121B01
  8
OBJECT
 10
10079.99999999998
 20
-658.0
 30
0.0
 11
10082.99999999998
 21
-658.0000000000008
 31
0.0
1001
ACDBBLOCKREPETAG
1070
     1
1071
      112
1005
121B01
  0
ARC
  5
121B02
  8
OBJECT
 10
10082.99999999998
 20
-655.00000000000068
 30
0.0
 40
3.0
 50
270.0
 51
0.0
1001
ACDBBLOCKREPETAG
1070
     1
1071
      113
1005
121B02
  0
LINE
  5
121B03
  8
OBJECT
 10
10212.99999999998
 20
-456.0000000000008
 30
0.0
 11
10176.99999999998
 21
-456.0000000000008
 31
0.0
1001
ACDBBLOCKREPETAG
1070
     1
1071
      114
1005
121B03
  0
LINE
  5
121B04
  8
OBJECT
 10
10176.99999999998
 20
-456.0000000000008
 30
0.0
 11
10176.99999999998
 21
-553.15756805667843
 31
0.0
1001
ACDBBLOCKREPETAG
1070
     1
1071
      115
1005
121B04
  0
LINE
  5
121B05
  8
OBJECT
 10
10172.99999999998
 20
-460.5000000000008
 30
0.0
 11
10172.99999999998
 21
-545.74491827928705
 31
0.0
1001
ACDBBLOCKREPETAG
1070
     1
1071
      116
1005
121B05
  0
LINE
  5
121B06
  8
OBJECT
 10
10172.99999999998
 20
-460.5000000000008
 30
0.0
 11
10159.99999999998
 21
-460.5000000000008
 31
0.0
1001
ACDBBLOCKREPETAG
1070
     1
1071
      117
1005
121B06
  0
LINE
  5
121B07
  8
OBJECT
 10
10168.656316825471
 20
-574.0000000000008
 30
0.0
 11
10212.99999999998
 21
-574.0000000000008
 31
0.0
1001
ACDBBLOCKREPETAG
1070
     1
1071
      118
1005
121B07
  0
LINE
  5
121B08
  8
OBJECT
 10
10176.99999999998
 20
-456.0000000000008
 30
0.0
 11
10172.99999999998
 21
-460.5000000000008
 31
0.0
1001
ACDBBLOCKREPETAG
1070
     1
1071
      119
1005
121B08
  0
LINE
  5
121B09
  8
OBJECT
 10
10159.99999999998
 20
-460.5000000000008
 30
0.0
 11
10159.99999999998
 21
-545.74491827928784
 31
0.0
1001
ACDBBLOCKREPETAG
1070
     1
1071
      120
1005
121B09
  0
ARC
  5
121B0A
  8
OBJECT
 10
10091.99999999998
 20
-537.27386365609345
 30
0.0
 40
85.0
 50
308.59099323720869
 51
334.4008612781347
1001
ACDBBLOCKREPETAG
1070
     1
1071
      121
1005
121B0A
  0
ARC
  5
121B0B
  8
OBJECT
 10
10162.799999999979
 20
-555.00000000000068
 30
0.0
 40
85.0
 50
91.887731891831123
 51
160.07406787456929
1001
ACDBBLOCKREPETAG
1070
     1
1071
      122
1005
121B0B
  0
LINE
  5
121B0C
  8
OBJECT
 10
10085.99999999998
 20
-650.81075719270927
 30
0.0
 11
10145.0193225436
 21
-603.71143914629465
 31
0.0
1001
ACDBBLOCKREPETAG
1070
     1
1071
      123
1005
121B0C
  0
LINE
  5
121B0D
  8
OBJECT
 10
10172.99999999998
 20
-545.74491827928705
 30
0.0
 11
10159.99999999998
 21
-545.74491827928784
 31
0.0
1001
ACDBBLOCKREPETAG
1070
     1
1071
      124
1005
121B0D
  0
LINE
  5
121B0E
  8
OBJECT
 10
10176.99999999998
 20
-553.15756805667843
 30
0.0
 11
10172.99999999998
 21
-545.74491827928705
 31
0.0
1001
ACDBBLOCKREPETAG
1070
     1
1071
      125
1005
121B0E
  0
LINE
  5
121B0F
  8
OBJECT
 10
10080.00000000002
 20
-534.0
 30
0.0
 11
10082.888612159621
 21
-526.03156729425325
 31
0.0
1001
ACDBBLOCKREPETAG
1070
     1
1071
      126
1005
121B0F
  0
LINE
  5
121B10
  8
OBJECT
 10
10080.00000000002
 20
-534.0
 30
0.0
 11
10085.99999999998
 21
-553.3502637757274
 31
0.0
1001
ACDBBLOCKREPETAG
1070
     1
1071
      127
1005
121B10
  0
LINE
  5
121B11
  8
HIDDEN
 10
10167.99999999998
 20
-470.5000000000008
 30
0.0
 11
10167.99999999998
 21
-559.50000000000068
 31
0.0
1001
ACDBBLOCKREPETAG
1070
     1
1071
      129
1005
121B11
  0
LINE
  5
121B12
  8
OBJECT
 10
10212.99999999998
 20
-137.99999999999909
 30
0.0
 11
10219.99999999998
 21
-137.99999999999909
 31
0.0
1001
ACDBBLOCKREPETAG
1070
     1
1071
      110
1005
121B12
  0
LINE
  5
121B13
  8
OBJECT
 10
10219.99999999998
 20
-137.99999999999909
 30
0.0
 11
10219.99999999998
 21
-261.99999999999909
 31
0.0
1001
ACDBBLOCKREPETAG
1070
     1
1071
      111
1005
121B13
  0
LINE
  5
121B14
  8
OBJECT
 10
10219.99999999998
 20
-261.99999999999909
 30
0.0
 11
10212.99999999998
 21
-261.99999999999909
 31
0.0
1001
ACDBBLOCKREPETAG
1070
     1
1071
      112
1005
121B14
  0
LINE
  5
121B15
  8
OBJECT
 10
10212.99999999998
 20
-261.99999999999909
 30
0.0
 11
10212.99999999998
 21
-137.99999999999909
 31
0.0
1001
ACDBBLOCKREPETAG
1070
     1
1071
      113
1005
121B15
  0
LINE
  5
121B16
  8
CENTER
 10
10234.99999999998
 20
-199.99999999999909
 30
0.0
 11
10080.0
 21
-199.99999999999909
 31
0.0
1001
ACDBBLOCKREPETAG
1070
     1
1071
      114
1005
121B16
  0
LINE
  5
121B17
  8
OBJECT
 10
10159.999974964179
 20
-245.0000000000027
 30
0.0
 11
10086.0
 21
-244.99999999999909
 31
0.0
1001
ACDBBLOCKREPETAG
1070
     1
1071
      115
1005
121B17
  0
LINE
  5
121B18
  8
OBJECT
 10
10159.999974964179
 20
-154.99999999999909
 30
0.0
 11
10086.0
 21
-154.99999999999909
 31
0.0
1001
ACDBBLOCKREPETAG
1070
     1
1071
      116
1005
121B18
  0
LINE
  5
121B19
  8
OBJECT
 10
10212.99999999998
 20
-140.99999999999909
 30
0.0
 11
10176.99999999998
 21
-140.99999999999909
 31
0.0
1001
ACDBBLOCKREPETAG
1070
     1
1071
      117
1005
121B19
  0
LINE
  5
121B1A
  8
OBJECT
 10
10176.99999999998
 20
-140.99999999999909
 30
0.0
 11
10176.99999999998
 21
-258.99999999999909
 31
0.0
1001
ACDBBLOCKREPETAG
1070
     1
1071
      118
1005
121B1A
  0
LINE
  5
121B1B
  8
OBJECT
 10
10176.99999999998
 20
-258.99999999999909
 30
0.0
 11
10212.99999999998
 21
-258.99999999999909
 31
0.0
1001
ACDBBLOCKREPETAG
1070
     1
1071
      119
1005
121B1B
  0
LINE
  5
121B1C
  8
OBJECT
 10
10172.99999999998
 20
-145.49999999999909
 30
0.0
 11
10159.99999999998
 21
-145.49999999999909
 31
0.0
1001
ACDBBLOCKREPETAG
1070
     1
1071
      120
1005
121B1C
  0
LINE
  5
121B1D
  8
OBJECT
 10
10159.99999999998
 20
-254.49999999999909
 30
0.0
 11
10172.99999999998
 21
-254.49999999999909
 31
0.0
1001
ACDBBLOCKREPETAG
1070
     1
1071
      121
1005
121B1D
  0
LINE
  5
121B1E
  8
OBJECT
 10
10172.99999999998
 20
-254.49999999999909
 30
0.0
 11
10172.99999999998
 21
-145.49999999999909
 31
0.0
1001
ACDBBLOCKREPETAG
1070
     1
1071
      122
1005
121B1E
  0
LINE
  5
121B1F
  8
OBJECT
 10
10176.99999999998
 20
-140.99999999999909
 30
0.0
 11
10172.99999999998
 21
-145.49999999999909
 31
0.0
1001
ACDBBLOCKREPETAG
1070
     1
1071
      123
1005
121B1F
  0
LINE
  5
121B20
  8
OBJECT
 10
10176.99999999998
 20
-258.99999999999909
 30
0.0
 11
10172.99999999998
 21
-254.49999999999909
 31
0.0
1001
ACDBBLOCKREPETAG
1070
     1
1071
      124
1005
121B20
  0
LINE
  5
121B21
  8
OBJECT
 10
10083.0
 20
-137.99999999999909
 30
0.0
 11
10080.0
 21
-137.99999999999909
 31
0.0
1001
ACDBBLOCKREPETAG
1070
     1
1071
      125
1005
121B21
  0
ARC
  5
121B22
  8
OBJECT
 10
10083.0
 20
-140.99999999999909
 30
0.0
 40
3.0
 50
0.0
 51
90.0
1001
ACDBBLOCKREPETAG
1070
     1
1071
      126
1005
121B22
  0
LINE
  5
121B23
  8
OBJECT
 10
10080.0
 20
-261.99999999999909
 30
0.0
 11
10083.0
 21
-261.99999999999909
 31
0.0
1001
ACDBBLOCKREPETAG
1070
     1
1071
      127
1005
121B23
  0
ARC
  5
121B24
  8
OBJECT
 10
10083.0
 20
-258.99999999999909
 30
0.0
 40
3.0
 50
270.0
 51
0.0
1001
ACDBBLOCKREPETAG
1070
     1
1071
      128
1005
121B24
  0
LINE
  5
121B25
  8
OBJECT
 10
10086.0
 20
-258.99999999999909
 30
0.0
 11
10086.0
 21
-222.44994432063581
 31
0.0
1001
ACDBBLOCKREPETAG
1070
     1
1071
      129
1005
121B25
  0
LINE
  5
121B26
  8
OBJECT
 10
10086.0
 20
-177.55005567935859
 30
0.0
 11
10086.0
 21
-140.99999999999909
 31
0.0
1001
ACDBBLOCKREPETAG
1070
     1
1071
      130
1005
121B26
  0
LINE
  5
121B27
  8
HIDDEN
 10
10167.99999999998
 20
-155.49999999999909
 30
0.0
 11
10167.99999999998
 21
-244.49999999999909
 31
0.0
1001
ACDBBLOCKREPETAG
1070
     1
1071
      131
1005
121B27
  0
LINE
  5
121B28
  8
OBJECT
 10
10159.999974964179
 20
-254.4999509238105
 30
0.0
 11
10159.999974964179
 21
-145.4999509238105
 31
0.0
1001
ACDBBLOCKREPETAG
1070
     1
1071
      133
1005
121B28
  0
ARC
  5
121B29
  8
OBJECT
 10
10125.0
 20
-199.99999999999909
 30
0.0
 40
45.000000000000547
 50
90.0
 51
270.0
1001
ACDBBLOCKREPETAG
1070
     1
1071
      134
1005
121B29
  0
LINE
  5
121B2A
  8
OBJECT
 10
7923.0
 20
-470.99999999999937
 30
0.0
 11
7923.0
 21
-449.99999999999937
 31
0.0
1001
ACDBBLOCKREPETAG
1070
     1
1071
        0
1005
121B2A
  0
LINE
  5
121B2B
  8
OBJECT
 10
7923.0
 20
-449.99999999999937
 30
0.0
 11
8077.0
 21
-449.99999999999937
 31
0.0
1001
ACDBBLOCKREPETAG
1070
     1
1071
        1
1005
121B2B
  0
LINE
  5
121B2C
  8
HIDDEN
 10
7943.0
 20
-519.99999999999955
 30
0.0
 11
8057.0
 21
-519.99999999999955
 31
0.0
1001
ACDBBLOCKREPETAG
1070
     1
1071
        2
1005
121B2C
  0
LINE
  5
121B2D
  8
OBJECT
 10
8077.0
 20
-449.99999999999937
 30
0.0
 11
8077.0
 21
-470.99999999999937
 31
0.0
1001
ACDBBLOCKREPETAG
1070
     1
1071
        3
1005
121B2D
  0
LINE
  5
121B2E
  8
OBJECT
 10
8077.0
 20
-470.99999999999937
 30
0.0
 11
7923.0
 21
-470.99999999999937
 31
0.0
1001
ACDBBLOCKREPETAG
1070
     1
1071
        4
1005
121B2E
  0
LINE
  5
121B2F
  8
CENTER
 10
8000.0
 20
-434.99999999999949
 30
0.0
 11
8000.0
 21
-789.99999999999955
 31
0.0
1001
ACDBBLOCKREPETAG
1070
     1
1071
        5
1005
121B2F
  0
LINE
  5
121B30
  8
OBJECT
 10
7925.0
 20
-533.99999999999955
 30
0.0
 11
7925.0
 21
-777.99999999999955
 31
0.0
1001
ACDBBLOCKREPETAG
1070
     1
1071
        6
1005
121B30
  0
LINE
  5
121B31
  8
OBJECT
 10
7928.0
 20
-470.99999999999937
 30
0.0
 11
7928.0
 21
-533.99999999999955
 31
0.0
1001
ACDBBLOCKREPETAG
1070
     1
1071
        7
1005
121B31
  0
LINE
  5
121B32
  8
OBJECT
 10
8072.0
 20
-533.99999999999955
 30
0.0
 11
8072.0
 21
-470.99999999999937
 31
0.0
1001
ACDBBLOCKREPETAG
1070
     1
1071
        8
1005
121B32
  0
LINE
  5
121B33
  8
OBJECT
 10
7920.0
 20
-777.99999999999955
 30
0.0
 11
8080.0
 21
-777.99999999999955
 31
0.0
1001
ACDBBLOCKREPETAG
1070
     1
1071
        9
1005
121B33
  0
LINE
  5
121B34
  8
OBJECT
 10
8080.0
 20
-533.99999999999955
 30
0.0
 11
7925.0
 21
-533.99999999999955
 31
0.0
1001
ACDBBLOCKREPETAG
1070
     1
1071
       10
1005
121B34
  0
LINE
  5
121B35
  8
OBJECT
 10
7920.0
 20
-777.99999999999955
 30
0.0
 11
7920.0
 21
-789.99999999999955
 31
0.0
1001
ACDBBLOCKREPETAG
1070
     1
1071
       11
1005
121B35
  0
LINE
  5
121B36
  8
OBJECT
 10
7920.0
 20
-789.99999999999955
 30
0.0
 11
8080.0
 21
-789.99999999999955
 31
0.0
1001
ACDBBLOCKREPETAG
1070
     1
1071
       12
1005
121B36
  0
LINE
  5
121B37
  8
OBJECT
 10
8080.0
 20
-789.99999999999955
 30
0.0
 11
8080.0
 21
-777.99999999999955
 31
0.0
1001
ACDBBLOCKREPETAG
1070
     1
1071
       13
1005
121B37
  0
LINE
  5
121B38
  8
OBJECT
 10
8074.9999999998618
 20
-657.99999999985039
 30
0.0
 11
8075.0
 21
-777.99999999999955
 31
0.0
1001
ACDBBLOCKREPETAG
1070
     1
1071
       15
1005
121B38
  0
LINE
  5
121B39
  8
OBJECT
 10
8074.9999908029858
 20
-657.99998602702135
 30
0.0
 11
8080.0
 21
-657.99998602702135
 31
0.0
1001
ACDBBLOCKREPETAG
1070
     1
1071
       16
1005
121B39
  0
ARC
  5
121B3A
  8
OBJECT
 10
8200.6872746716726
 20
-649.40809941010718
 30
0.0
 40
170.6350503965856
 50
137.44134459184301
 51
149.91949581337221
1001
ACDBBLOCKREPETAG
1070
     1
1071
       17
1005
121B3A
  0
ARC
  5
121B3B
  8
OBJECT
 10
8118.8455987040506
 20
-605.88272669536445
 30
0.0
 40
78.072222021763665
 50
147.4551531038623
 51
164.66365997718671
1001
ACDBBLOCKREPETAG
1070
     1
1071
       18
1005
121B3B
  0
ARC
  5
121B3C
  8
OBJECT
 10
8085.7554349608708
 20
-595.99999999999955
 30
0.0
 40
43.55353926885617
 50
165.688452300753
 51
194.3115476992468
1001
ACDBBLOCKREPETAG
1070
     1
1071
       19
1005
121B3C
  0
ARC
  5
121B3D
  8
OBJECT
 10
8200.6872746716726
 20
-542.59190058989179
 30
0.0
 40
170.6350503965856
 50
210.08050418662771
 51
222.55865540815699
1001
ACDBBLOCKREPETAG
1070
     1
1071
       20
1005
121B3D
  0
ARC
  5
121B3E
  8
OBJECT
 10
8118.8455987040506
 20
-586.11727330463452
 30
0.0
 40
78.072222021763665
 50
195.3363400228132
 51
212.5448468961377
1001
ACDBBLOCKREPETAG
1070
     1
1071
       21
1005
121B3E
  0
POINT
  5
121B3F
  8
DOTS
 10
8000.0
 20
-654.99999999999966
 30
0.0
1001
ACDBBLOCKREPETAG
1070
     1
1071
      187
1005
121B3F
  0
ARC
  5
121B40
  8
OBJECT
 10
8000.0
 20
-199.99999999999909
 30
0.0
 40
50.0
 50
298.81994300000417
 51
228.52376955964741
1001
ACDBBLOCKREPETAG
1070
     1
1071
      185
1005
121B40
  0
LINE
  5
121B41
  8
SLIM
 10
7927.3018300565236
 20
-155.95484036957691
 30
0.0
 11
7955.9548403695781
 21
-127.30183005652231
 31
0.0
1001
GRADIENTCOLOR1ACI
1070
     5
1001
GRADIENTCOLOR2ACI
1070
     2
1001
ACAD
1010
0.0
1020
0.0
1030
0.0
1001
ACDBBLOCKREPETAG
1070
     1
1071
      442
1005
121B41
  0
LINE
  5
121B42
  8
SLIM
 10
7919.4861520708373
 20
-172.75077447633191
 30
0.0
 11
7938.2903089572737
 21
-153.94661758989659
 31
0.0
1001
GRADIENTCOLOR1ACI
1070
     5
1001
GRADIENTCOLOR2ACI
1070
     2
1001
ACAD
1010
0.0
1020
0.0
1030
0.0
1001
ACDBBLOCKREPETAG
1070
     1
1071
      443
1005
121B42
  0
LINE
  5
121B43
  8
SLIM
 10
7953.9466175898988
 20
-138.29030895727169
 30
0.0
 11
7972.7507744763334
 21
-119.4861520708364
 31
0.0
1001
GRADIENTCOLOR1ACI
1070
     5
1001
GRADIENTCOLOR2ACI
1070
     2
1001
ACAD
1010
0.0
1020
0.0
1030
0.0
1001
ACDBBLOCKREPETAG
1070
     1
1071
      444
1005
121B43
  0
LINE
  5
121B44
  8
SLIM
 10
7916.3596679933771
 20
-184.8575146748604
 30
0.0
 11
7927.6959583557828
 21
-173.5212243124561
 31
0.0
1001
GRADIENTCOLOR1ACI
1070
     5
1001
GRADIENTCOLOR2ACI
1070
     2
1001
ACAD
1010
0.0
1020
0.0
1030
0.0
1001
ACDBBLOCKREPETAG
1070
     1
1071
      445
1005
121B44
  0
LINE
  5
121B45
  8
SLIM
 10
7973.5212243124561
 20
-127.6959583557812
 30
0.0
 11
7984.8575146748608
 21
-116.359667993377
 31
0.0
1001
GRADIENTCOLOR1ACI
1070
     5
1001
GRADIENTCOLOR2ACI
1070
     2
1001
ACAD
1010
0.0
1020
0.0
1030
0.0
1001
ACDBBLOCKREPETAG
1070
     1
1071
      446
1005
121B45
  0
LINE
  5
121B46
  8
SLIM
 10
7915.1440575890529
 20
-195.0533812002549
 30
0.0
 11
7924.3030216431825
 21
-185.89441714612491
 31
0.0
1001
GRADIENTCOLOR1ACI
1070
     5
1001
GRADIENTCOLOR2ACI
1070
     2
1001
ACAD
1010
0.0
1020
0.0
1030
0.0
1001
ACDBBLOCKREPETAG
1070
     1
1071
      447
1005
121B46
  0
LINE
  5
121B47
  8
SLIM
 10
7985.8944171461262
 20
-124.30302164318159
 30
0.0
 11
7995.0533812002559
 21
-115.1440575890517
 31
0.0
1001
GRADIENTCOLOR1ACI
1070
     5
1001
GRADIENTCOLOR2ACI
1070
     2
1001
ACAD
1010
0.0
1020
0.0
1030
0.0
1001
ACDBBLOCKREPETAG
1070
     1
1071
      448
1005
121B47
  0
LINE
  5
121B48
  8
SLIM
 10
7915.097963557474
 20
-204.07973135290339
 30
0.0
 11
7919.1776949103778
 21
-199.99999999999909
 31
0.0
1001
GRADIENTCOLOR1ACI
1070
     5
1001
GRADIENTCOLOR2ACI
1070
     2
1001
ACAD
1010
0.0
1020
0.0
1030
0.0
1001
ACDBBLOCKREPETAG
1070
     1
1071
      449
1005
121B48
  0
LINE
  5
121B49
  8
SLIM
 10
8000.0
 20
-119.1776949103767
 30
0.0
 11
8004.0797313529074
 21
-115.0979635574724
 31
0.0
1001
GRADIENTCOLOR1ACI
1070
     5
1001
GRADIENTCOLOR2ACI
1070
     2
1001
ACAD
1010
0.0
1020
0.0
1030
0.0
1001
ACDBBLOCKREPETAG
1070
     1
1071
      450
1005
121B49
  0
LINE
  5
121B4A
  8
SLIM
 10
7919.1776949103778
 20
-199.99999999999909
 30
0.0
 11
7923.0999621611709
 21
-196.07773274920581
 31
0.0
1001
GRADIENTCOLOR1ACI
1070
     5
1001
GRADIENTCOLOR2ACI
1070
     2
1001
ACAD
1010
0.0
1020
0.0
1030
0.0
1001
ACDBBLOCKREPETAG
1070
     1
1071
      451
1005
121B4A
  0
LINE
  5
121B4B
  8
SLIM
 10
7996.077732749206
 20
-123.0999621611699
 30
0.0
 11
8000.0
 21
-119.1776949103767
 31
0.0
1001
GRADIENTCOLOR1ACI
1070
     5
1001
GRADIENTCOLOR2ACI
1070
     2
1001
ACAD
1010
0.0
1020
0.0
1030
0.0
1001
ACDBBLOCKREPETAG
1070
     1
1071
      452
1005
121B4B
  0
LINE
  5
121B4C
  8
SLIM
 10
7915.889972620871
 20
-212.26797841057399
 30
0.0
 11
7923.1622307771704
 21
-204.9957202542767
 31
0.0
1001
GRADIENTCOLOR1ACI
1070
     5
1001
GRADIENTCOLOR2ACI
1070
     2
1001
ACAD
1010
0.0
1020
0.0
1030
0.0
1001
ACDBBLOCKREPETAG
1070
     1
1071
      453
1005
121B4C
  0
LINE
  5
121B4D
  8
SLIM
 10
8004.9957202542737
 20
-123.1622307771683
 30
0.0
 11
8012.2679784105749
 21
-115.88997262087101
 31
0.0
1001
GRADIENTCOLOR1ACI
1070
     5
1001
GRADIENTCOLOR2ACI
1070
     2
1001
ACAD
1010
0.0
1020
0.0
1030
0.0
1001
ACDBBLOCKREPETAG
1070
     1
1071
      454
1005
121B4D
  0
LINE
  5
121B4E
  8
SLIM
 10
7917.3382656951526
 20
-219.79994145736151
 30
0.0
 11
7924.1101477855518
 21
-213.02805936696359
 31
0.0
1001
GRADIENTCOLOR1ACI
1070
     5
1001
GRADIENTCOLOR2ACI
1070
     2
1001
ACAD
1010
0.0
1020
0.0
1030
0.0
1001
ACDBBLOCKREPETAG
1070
     1
1071
      455
1005
121B4E
  0
LINE
  5
121B4F
  8
SLIM
 10
8013.028059366964
 20
-124.1101477855505
 30
0.0
 11
8019.7999414573624
 21
-117.3382656951526
 31
0.0
1001
GRADIENTCOLOR1ACI
1070
     5
1001
GRADIENTCOLOR2ACI
1070
     2
1001
ACAD
1010
0.0
1020
0.0
1030
0.0
1001
ACDBBLOCKREPETAG
1070
     1
1071
      456
1005
121B4F
  0
LINE
  5
121B50
  8
SLIM
 10
7919.3312594063054
 20
-226.78720386727881
 30
0.0
 11
7925.74438195934
 21
-220.3740813142449
 31
0.0
1001
GRADIENTCOLOR1ACI
1070
     5
1001
GRADIENTCOLOR2ACI
1070
     2
1001
ACAD
1010
0.0
1020
0.0
1030
0.0
1001
ACDBBLOCKREPETAG
1070
     1
1071
      457
1005
121B50
  0
LINE
  5
121B51
  8
SLIM
 10
8020.3740813142458
 20
-125.7443819593384
 30
0.0
 11
8026.7872038672767
 21
-119.3312594063044
 31
0.0
1001
GRADIENTCOLOR1ACI
1070
     5
1001
GRADIENTCOLOR2ACI
1070
     2
1001
ACAD
1010
0.0
1020
0.0
1030
0.0
1001
ACDBBLOCKREPETAG
1070
     1
1071
      458
1005
121B51
  0
LINE
  5
121B52
  8
SLIM
 10
7921.7957163186193
 20
-233.30300307603289
 30
0.0
 11
7927.9462473957792
 21
-227.1524719988744
 31
0.0
1001
GRADIENTCOLOR1ACI
1070
     5
1001
GRADIENTCOLOR2ACI
1070
     2
1001
ACAD
1010
0.0
1020
0.0
1030
0.0
1001
ACDBBLOCKREPETAG
1070
     1
1071
      459
1005
121B52
  0
LINE
  5
121B53
  8
SLIM
 10
8027.1524719988738
 20
-127.946247395778
 30
0.0
 11
8033.3030030760328
 21
-121.7957163186195
 31
0.0
1001
GRADIENTCOLOR1ACI
1070
     5
1001
GRADIENTCOLOR2ACI
1070
     2
1001
ACAD
1010
0.0
1020
0.0
1030
0.0
1001
ACDBBLOCKREPETAG
1070
     1
1071
      460
1005
121B53
  0
LINE
  5
121B54
  8
SLIM
 10
7924.6816635313462
 20
-239.39731198437769
 30
0.0
 11
7930.639876864393
 21
-233.4390986513296
 31
0.0
1001
GRADIENTCOLOR1ACI
1070
     5
1001
GRADIENTCOLOR2ACI
1070
     2
1001
ACAD
1010
0.0
1020
0.0
1030
0.0
1001
ACDBBLOCKREPETAG
1070
     1
1071
      461
1005
121B54
  0
LINE
  5
121B55
  8
SLIM
 10
8033.4390986513308
 20
-130.63987686439199
 30
0.0
 11
8039.3973119843777
 21
-124.6816635313439
 31
0.0
1001
GRADIENTCOLOR1ACI
1070
     5
1001
GRADIENTCOLOR2ACI
1070
     2
1001
ACAD
1010
0.0
1020
0.0
1030
0.0
1001
ACDBBLOCKREPETAG
1070
     1
1071
      462
1005
121B55
  0
LINE
  5
121B56
  8
SLIM
 10
7927.9544611024266
 20
-245.10477053436691
 30
0.0
 11
7933.7750070149932
 21
-239.28422462179751
 31
0.0
1001
GRADIENTCOLOR1ACI
1070
     5
1001
GRADIENTCOLOR2ACI
1070
     2
1001
ACAD
1010
0.0
1020
0.0
1030
0.0
1001
ACDBBLOCKREPETAG
1070
     1
1071
      463
1005
121B56
  0
LINE
  5
121B57
  8
SLIM
 10
8039.2842246217979
 20
-133.77500701499321
 30
0.0
 11
8045.1047705343699
 21
-127.95446110242381
 31
0.0
1001
GRADIENTCOLOR1ACI
1070
     5
1001
GRADIENTCOLOR2ACI
1070
     2
1001
ACAD
1010
0.0
1020
0.0
1030
0.0
1001
ACDBBLOCKREPETAG
1070
     1
1071
      464
1005
121B57
  0
LINE
  5
121B58
  8
SLIM
 10
7931.5903319686649
 20
-250.4491557891954
 30
0.0
 11
7937.3182075880577
 21
-244.72128016980341
 31
0.0
1001
GRADIENTCOLOR1ACI
1070
     5
1001
GRADIENTCOLOR2ACI
1070
     2
1001
ACAD
1010
0.0
1020
0.0
1030
0.0
1001
ACDBBLOCKREPETAG
1070
     1
1071
      465
1005
121B58
  0
LINE
  5
121B59
  8
SLIM
 10
8044.7212801698061
 20
-137.31820758805651
 30
0.0
 11
8050.449155789197
 21
-131.59033196866449
 31
0.0
1001
GRADIENTCOLOR1ACI
1070
     5
1001
GRADIENTCOLOR2ACI
1070
     2
1001
ACAD
1010
0.0
1020
0.0
1030
0.0
1001
ACDBBLOCKREPETAG
1070
     1
1071
      466
1005
121B59
  0
LINE
  5
121B5A
  8
SLIM
 10
7935.5737496925258
 20
-255.4459941864034
 30
0.0
 11
7941.24811054159
 21
-249.77163333734029
 31
0.0
1001
GRADIENTCOLOR1ACI
1070
     5
1001
GRADIENTCOLOR2ACI
1070
     2
1001
ACAD
1010
0.0
1020
0.0
1030
0.0
1001
ACDBBLOCKREPETAG
1070
     1
1071
      467
1005
121B5A
  0
LINE
  5
121B5B
  8
SLIM
 10
8053.0197438789319
 20
-137.99999999999909
 30
0.0
 11
8055.4459941864034
 21
-135.57374969252561
 31
0.0
1001
GRADIENTCOLOR1ACI
1070
     5
1001
GRADIENTCOLOR2ACI
1070
     2
1001
ACAD
1010
0.0
1020
0.0
1030
0.0
1001
ACDBBLOCKREPETAG
1070
     1
1071
      468
1005
121B5B
  0
LINE
  5
121B5C
  8
SLIM
 10
7939.8959235991442
 20
-260.10407640085572
 30
0.0
 11
7945.5527778486357
 21
-254.44722215136329
 31
0.0
1001
GRADIENTCOLOR1ACI
1070
     5
1001
GRADIENTCOLOR2ACI
1070
     2
1001
ACAD
1010
0.0
1020
0.0
1030
0.0
1001
ACDBBLOCKREPETAG
1070
     1
1071
      469
1005
121B5C
  0
LINE
  5
121B5D
  8
SLIM
 10
7944.5540058135948
 20
-264.4262503074724
 30
0.0
 11
7950.2283666626608
 21
-258.75188945840949
 31
0.0
1001
GRADIENTCOLOR1ACI
1070
     5
1001
GRADIENTCOLOR2ACI
1070
     2
1001
ACAD
1010
0.0
1020
0.0
1030
0.0
1001
ACDBBLOCKREPETAG
1070
     1
1071
      470
1005
121B5D
  0
LINE
  5
121B5E
  8
SLIM
 10
7949.5508442108039
 20
-268.40966803133369
 30
0.0
 11
7955.2787198301958
 21
-262.68179241194167
 31
0.0
1001
GRADIENTCOLOR1ACI
1070
     5
1001
GRADIENTCOLOR2ACI
1070
     2
1001
ACAD
1010
0.0
1020
0.0
1030
0.0
1001
ACDBBLOCKREPETAG
1070
     1
1071
      471
1005
121B5E
  0
LINE
  5
121B5F
  8
SLIM
 10
7954.895229465631
 20
-272.04553889757437
 30
0.0
 11
7960.7157753782021
 21
-266.22499298500497
 31
0.0
1001
GRADIENTCOLOR1ACI
1070
     5
1001
GRADIENTCOLOR2ACI
1070
     2
1001
ACAD
1010
0.0
1020
0.0
1030
0.0
1001
ACDBBLOCKREPETAG
1070
     1
1071
      472
1005
121B5F
  0
LINE
  5
121B60
  8
SLIM
 10
7960.6026880156223
 20
-275.31833646865431
 30
0.0
 11
7966.5609013486683
 21
-269.36012313560622
 31
0.0
1001
GRADIENTCOLOR1ACI
1070
     5
1001
GRADIENTCOLOR2ACI
1070
     2
1001
ACAD
1010
0.0
1020
0.0
1030
0.0
1001
ACDBBLOCKREPETAG
1070
     1
1071
      473
1005
121B60
  0
LINE
  5
121B61
  8
SLIM
 10
7966.6969969239663
 20
-278.20428368137868
 30
0.0
 11
7972.8475280011244
 21
-272.05375260422022
 31
0.0
1001
GRADIENTCOLOR1ACI
1070
     5
1001
GRADIENTCOLOR2ACI
1070
     2
1001
ACAD
1010
0.0
1020
0.0
1030
0.0
1001
ACDBBLOCKREPETAG
1070
     1
1071
      474
1005
121B61
  0
LINE
  5
121B62
  8
SLIM
 10
7973.2127961327187
 20
-280.66874059369371
 30
0.0
 11
7979.6259186857542
 21
-274.25561804065973
 31
0.0
1001
GRADIENTCOLOR1ACI
1070
     5
1001
GRADIENTCOLOR2ACI
1070
     2
1001
ACAD
1010
0.0
1020
0.0
1030
0.0
1001
ACDBBLOCKREPETAG
1070
     1
1071
      475
1005
121B62
  0
LINE
  5
121B63
  8
SLIM
 10
7980.2000585426395
 20
-282.6617343048456
 30
0.0
 11
7986.971940633035
 21
-275.88985221444773
 31
0.0
1001
GRADIENTCOLOR1ACI
1070
     5
1001
GRADIENTCOLOR2ACI
1070
     2
1001
ACAD
1010
0.0
1020
0.0
1030
0.0
1001
ACDBBLOCKREPETAG
1070
     1
1071
      476
1005
121B63
  0
LINE
  5
121B64
  8
SLIM
 10
7987.732021589426
 20
-284.11002737912702
 30
0.0
 11
7995.0042797457209
 21
-276.83776922282988
 31
0.0
1001
GRADIENTCOLOR1ACI
1070
     5
1001
GRADIENTCOLOR2ACI
1070
     2
1001
ACAD
1010
0.0
1020
0.0
1030
0.0
1001
ACDBBLOCKREPETAG
1070
     1
1071
      477
1005
121B64
  0
LINE
  5
121B65
  8
SLIM
 10
7995.9202686470962
 20
-284.9020364425258
 30
0.0
 11
8000.0
 21
-280.82230508962152
 31
0.0
1001
GRADIENTCOLOR1ACI
1070
     5
1001
GRADIENTCOLOR2ACI
1070
     2
1001
ACAD
1010
0.0
1020
0.0
1030
0.0
1001
ACDBBLOCKREPETAG
1070
     1
1071
      478
1005
121B65
  0
LINE
  5
121B66
  8
SLIM
 10
8000.0
 20
-280.82230508962152
 30
0.0
 11
8003.9222672507931
 21
-276.90003783882821
 31
0.0
1001
GRADIENTCOLOR1ACI
1070
     5
1001
GRADIENTCOLOR2ACI
1070
     2
1001
ACAD
1010
0.0
1020
0.0
1030
0.0
1001
ACDBBLOCKREPETAG
1070
     1
1071
      479
1005
121B66
  0
LINE
  5
121B67
  8
SLIM
 10
8004.9466187997441
 20
-284.85594241094651
 30
0.0
 11
8014.1055828538756
 21
-275.6969783568166
 31
0.0
1001
GRADIENTCOLOR1ACI
1070
     5
1001
GRADIENTCOLOR2ACI
1070
     2
1001
ACAD
1010
0.0
1020
0.0
1030
0.0
1001
ACDBBLOCKREPETAG
1070
     1
1071
      480
1005
121B67
  0
LINE
  5
121B68
  8
SLIM
 10
8015.1424853251401
 20
-283.64033200662118
 30
0.0
 11
8026.478775687543
 21
-272.30404164421702
 31
0.0
1001
GRADIENTCOLOR1ACI
1070
     5
1001
GRADIENTCOLOR2ACI
1070
     2
1001
ACAD
1010
0.0
1020
0.0
1030
0.0
1001
ACDBBLOCKREPETAG
1070
     1
1071
      481
1005
121B68
  0
LINE
  5
121B69
  8
SLIM
 10
8027.2492255236657
 20
-280.51384792916173
 30
0.0
 11
8045.7630734528302
 21
-261.99999999999909
 31
0.0
1001
GRADIENTCOLOR1ACI
1070
     5
1001
GRADIENTCOLOR2ACI
1070
     2
1001
ACAD
1010
0.0
1020
0.0
1030
0.0
1001
ACDBBLOCKREPETAG
1070
     1
1071
      482
1005
121B69
  0
LINE
  5
121B6A
  8
SLIM
 10
8044.045159630421
 20
-272.69816994347582
 30
0.0
 11
8054.7433295739002
 21
-261.99999999999909
 31
0.0
1001
GRADIENTCOLOR1ACI
1070
     5
1001
GRADIENTCOLOR2ACI
1070
     2
1001
ACAD
1010
0.0
1020
0.0
1030
0.0
1001
ACDBBLOCKREPETAG
1070
     1
1071
      483
1005
121B6A
  0
LINE
  5
121B6B
  8
CENTER
 10
8080.0
 20
-199.99999999999909
 30
0.0
 11
7900.0
 21
-199.99999999999909
 31
0.0
1001
ACDBBLOCKREPETAG
1070
     1
1071
      187
1005
121B6B
  0
LINE
  5
121B6C
  8
CENTER
 10
8000.0
 20
-299.99999999999898
 30
0.0
 11
8000.0
 21
-99.999999999999091
 31
0.0
1001
ACDBBLOCKREPETAG
1070
     1
1071
      188
1005
121B6C
  0
CIRCLE
  5
121B6D
  8
OBJECT
 10
8000.0
 20
-199.99999999999909
 30
0.0
 40
70.0
1001
ACDBBLOCKREPETAG
1070
     1
1071
      189
1005
121B6D
  0
CIRCLE
  5
121B6E
  8
OBJECT
 10
8000.0
 20
-199.99999999999909
 30
0.0
 40
77.0
1001
ACDBBLOCKREPETAG
1070
     1
1071
      190
1005
121B6E
  0
LINE
  5
121B6F
  8
OBJECT
 10
8045.6618002273271
 20
-137.99999999999909
 30
0.0
 11
8080.0
 21
-137.99999999999909
 31
0.0
1001
ACDBBLOCKREPETAG
1070
     1
1071
      192
1005
121B6F
  0
LINE
  5
121B70
  8
OBJECT
 10
8045.6618002273271
 20
-261.99999999999909
 30
0.0
 11
8080.0
 21
-261.99999999999909
 31
0.0
1001
ACDBBLOCKREPETAG
1070
     1
1071
      193
1005
121B70
  0
ARC
  5
121B71
  8
OBJECT
 10
8000.0
 20
-199.99999999999909
 30
0.0
 40
85.0
 50
46.83710285981514
 51
313.16289714018478
1001
ACDBBLOCKREPETAG
1070
     1
1071
      202
1005
121B71
  0
LINE
  5
121B72
  8
OBJECT
 10
8024.1029330933006
 20
-243.80694712371681
 30
0.0
 11
8020.6596569999974
 21
-232.55462199999889
 31
0.0
1001
ACDBBLOCKREPETAG
1070
     1
1071
      321
1005
121B72
  0
LINE
  5
121B73
  8
OBJECT
 10
7986.7927499013749
 20
-218.22553374208019
 30
0.0
 11
8020.6596569999974
 21
-232.5546219999969
 31
0.0
1001
ACDBBLOCKREPETAG
1070
     1
1071
      323
1005
121B73
  0
ARC
  5
121B74
  8
OBJECT
 10
7982.8961697618997
 20
-227.4351299990567
 30
0.0
 40
10.0
 50
67.066778292911366
 51
154.0147343702935
1001
ACDBBLOCKREPETAG
1070
     1
1071
      324
1005
121B74
  0
ARC
  5
121B75
  8
OBJECT
 10
7986.1488390381273
 20
-225.55386256729159
 30
0.0
 40
7.0
 50
67.066778292911366
 51
154.0147337749826
1001
ACDBBLOCKREPETAG
1070
     1
1071
      325
1005
121B75
  0
LINE
  5
121B76
  8
OBJECT
 10
7969.4199755553009
 20
-243.89888500818171
 30
0.0
 11
7979.8564918232369
 21
-222.48688253356801
 31
0.0
1001
ACDBBLOCKREPETAG
1070
     1
1071
      353
1005
121B76
  0
LINE
  5
121B77
  8
OBJECT
 10
7965.2972169006098
 20
-240.71813901882729
 30
0.0
 11
7973.9071022665084
 21
-223.05373004430751
 31
0.0
1001
ACDBBLOCKREPETAG
1070
     1
1071
      354
1005
121B77
  0
ARC
  5
121B78
  8
OBJECT
 10
7976.5796953073141
 20
-207.1289369828437
 30
0.0
 40
60.031113246032611
 50
314.07020130418567
 51
322.33936106089681
1001
ACDBBLOCKREPETAG
1070
     1
1071
      355
1005
121B78
  0
CIRCLE
  5
121B79
  8
OBJECT
 10
8000.0
 20
-199.99999999999909
 30
0.0
 40
53.5
1001
ACDBBLOCKREPETAG
1070
     1
1071
      356
1005
121B79
  0
POINT
  5
121B7A
  8
DOTS
 10
8000.0
 20
-199.99999999999909
 30
0.0
 50
270.0
1001
ACDBBLOCKREPETAG
1070
     1
1071
      365
1005
121B7A
  0
LINE
  5
121B7B
  8
OBJECT
 10
8212.9999999999836
 20
-453.0000000000008
 30
0.0
 11
8219.9999999999873
 21
-453.0000000000008
 31
0.0
1001
ACDBBLOCKREPETAG
1070
     1
1071
      106
1005
121B7B
  0
LINE
  5
121B7C
  8
OBJECT
 10
8219.9999999999873
 20
-453.0000000000008
 30
0.0
 11
8219.9999999999873
 21
-577.0000000000008
 31
0.0
1001
ACDBBLOCKREPETAG
1070
     1
1071
      107
1005
121B7C
  0
LINE
  5
121B7D
  8
OBJECT
 10
8085.9999999999873
 20
-553.3502637757274
 30
0.0
 11
8085.9999999999873
 21
-655.00000000000068
 31
0.0
1001
ACDBBLOCKREPETAG
1070
     1
1071
      108
1005
121B7D
  0
LINE
  5
121B7E
  8
OBJECT
 10
8219.9999999999873
 20
-577.0000000000008
 30
0.0
 11
8212.9999999999836
 21
-577.0000000000008
 31
0.0
1001
ACDBBLOCKREPETAG
1070
     1
1071
      109
1005
121B7E
  0
LINE
  5
121B7F
  8
OBJECT
 10
8212.9999999999836
 20
-577.0000000000008
 30
0.0
 11
8212.9999999999836
 21
-453.0000000000008
 31
0.0
1001
ACDBBLOCKREPETAG
1070
     1
1071
      110
1005
121B7F
  0
LINE
  5
121B80
  8
CENTER
 10
8144.9999999999873
 20
-515.0000000000008
 30
0.0
 11
8234.9999999999873
 21
-515.0000000000008
 31
0.0
1001
ACDBBLOCKREPETAG
1070
     1
1071
      111
1005
121B80
  0
LINE
  5
121B81
  8
OBJECT
 10
8079.9999999999818
 20
-658.0
 30
0.0
 11
8082.9999999999873
 21
-658.0000000000008
 31
0.0
1001
ACDBBLOCKREPETAG
1070
     1
1071
      112
1005
121B81
  0
ARC
  5
121B82
  8
OBJECT
 10
8082.9999999999873
 20
-655.00000000000068
 30
0.0
 40
3.0
 50
270.0
 51
0.0
1001
ACDBBLOCKREPETAG
1070
     1
1071
      113
1005
121B82
  0
LINE
  5
121B83
  8
OBJECT
 10
8212.9999999999836
 20
-456.0000000000008
 30
0.0
 11
8176.9999999999873
 21
-456.0000000000008
 31
0.0
1001
ACDBBLOCKREPETAG
1070
     1
1071
      114
1005
121B83
  0
LINE
  5
121B84
  8
OBJECT
 10
8176.9999999999873
 20
-456.0000000000008
 30
0.0
 11
8176.9999999999873
 21
-553.15756805667843
 31
0.0
1001
ACDBBLOCKREPETAG
1070
     1
1071
      115
1005
121B84
  0
LINE
  5
121B85
  8
OBJECT
 10
8172.9999999999854
 20
-460.5000000000008
 30
0.0
 11
8172.99999999998
 21
-545.74491827928705
 31
0.0
1001
ACDBBLOCKREPETAG
1070
     1
1071
      116
1005
121B85
  0
LINE
  5
121B86
  8
OBJECT
 10
8172.9999999999854
 20
-460.5000000000008
 30
0.0
 11
8159.9999999999873
 21
-460.5000000000008
 31
0.0
1001
ACDBBLOCKREPETAG
1070
     1
1071
      117
1005
121B86
  0
LINE
  5
121B87
  8
OBJECT
 10
8168.6563168254688
 20
-574.0000000000008
 30
0.0
 11
8212.9999999999836
 21
-574.0000000000008
 31
0.0
1001
ACDBBLOCKREPETAG
1070
     1
1071
      118
1005
121B87
  0
LINE
  5
121B88
  8
OBJECT
 10
8176.9999999999873
 20
-456.0000000000008
 30
0.0
 11
8172.9999999999854
 21
-460.5000000000008
 31
0.0
1001
ACDBBLOCKREPETAG
1070
     1
1071
      119
1005
121B88
  0
LINE
  5
121B89
  8
OBJECT
 10
8159.9999999999873
 20
-460.5000000000008
 30
0.0
 11
8159.9999999999873
 21
-545.74491827928784
 31
0.0
1001
ACDBBLOCKREPETAG
1070
     1
1071
      120
1005
121B89
  0
ARC
  5
121B8A
  8
OBJECT
 10
8091.9999999999864
 20
-537.27386365609345
 30
0.0
 40
85.0
 50
308.59099323720869
 51
334.40086127811207
1001
ACDBBLOCKREPETAG
1070
     1
1071
      121
1005
121B8A
  0
ARC
  5
121B8B
  8
OBJECT
 10
8162.7999999999838
 20
-555.00000000000068
 30
0.0
 40
85.0
 50
91.887731891831123
 51
160.07406787456929
1001
ACDBBLOCKREPETAG
1070
     1
1071
      122
1005
121B8B
  0
LINE
  5
121B8C
  8
OBJECT
 10
8085.9999999999873
 20
-650.81075719270927
 30
0.0
 11
8145.0193225436024
 21
-603.71143914629465
 31
0.0
1001
ACDBBLOCKREPETAG
1070
     1
1071
      123
1005
121B8C
  0
LINE
  5
121B8D
  8
OBJECT
 10
8172.99999999998
 20
-545.74491827928705
 30
0.0
 11
8159.9999999999873
 21
-545.74491827928784
 31
0.0
1001
ACDBBLOCKREPETAG
1070
     1
1071
      124
1005
121B8D
  0
LINE
  5
121B8E
  8
OBJECT
 10
8176.9999999999873
 20
-553.15756805667843
 30
0.0
 11
8172.99999999998
 21
-545.74491827928705
 31
0.0
1001
ACDBBLOCKREPETAG
1070
     1
1071
      125
1005
121B8E
  0
LINE
  5
121B8F
  8
OBJECT
 10
8080.0000000000173
 20
-534.0
 30
0.0
 11
8082.8886121596206
 21
-526.03156729425325
 31
0.0
1001
ACDBBLOCKREPETAG
1070
     1
1071
      126
1005
121B8F
  0
LINE
  5
121B90
  8
OBJECT
 10
8080.0000000000173
 20
-534.0
 30
0.0
 11
8085.9999999999873
 21
-553.3502637757274
 31
0.0
1001
ACDBBLOCKREPETAG
1070
     1
1071
      127
1005
121B90
  0
LINE
  5
121B91
  8
HIDDEN
 10
8167.9999999999864
 20
-470.5000000000008
 30
0.0
 11
8167.9999999999864
 21
-559.50000000000068
 31
0.0
1001
ACDBBLOCKREPETAG
1070
     1
1071
      129
1005
121B91
  0
LINE
  5
121B92
  8
OBJECT
 10
8212.9999999999836
 20
-137.99999999999909
 30
0.0
 11
8219.9999999999873
 21
-137.99999999999909
 31
0.0
1001
ACDBBLOCKREPETAG
1070
     1
1071
      110
1005
121B92
  0
LINE
  5
121B93
  8
OBJECT
 10
8219.9999999999873
 20
-137.99999999999909
 30
0.0
 11
8219.9999999999873
 21
-261.99999999999909
 31
0.0
1001
ACDBBLOCKREPETAG
1070
     1
1071
      111
1005
121B93
  0
LINE
  5
121B94
  8
OBJECT
 10
8219.9999999999873
 20
-261.99999999999909
 30
0.0
 11
8212.9999999999836
 21
-261.99999999999909
 31
0.0
1001
ACDBBLOCKREPETAG
1070
     1
1071
      112
1005
121B94
  0
LINE
  5
121B95
  8
OBJECT
 10
8212.9999999999836
 20
-261.99999999999909
 30
0.0
 11
8212.9999999999836
 21
-137.99999999999909
 31
0.0
1001
ACDBBLOCKREPETAG
1070
     1
1071
      113
1005
121B95
  0
LINE
  5
121B96
  8
CENTER
 10
8234.9999999999873
 20
-199.99999999999909
 30
0.0
 11
8080.0000000000027
 21
-199.99999999999909
 31
0.0
1001
ACDBBLOCKREPETAG
1070
     1
1071
      114
1005
121B96
  0
LINE
  5
121B97
  8
OBJECT
 10
8159.9999749641838
 20
-245.0000000000027
 30
0.0
 11
8086.0
 21
-244.99999999999909
 31
0.0
1001
ACDBBLOCKREPETAG
1070
     1
1071
      115
1005
121B97
  0
LINE
  5
121B98
  8
OBJECT
 10
8159.9999749641838
 20
-154.99999999999909
 30
0.0
 11
8086.0
 21
-154.99999999999909
 31
0.0
1001
ACDBBLOCKREPETAG
1070
     1
1071
      116
1005
121B98
  0
LINE
  5
121B99
  8
OBJECT
 10
8212.9999999999836
 20
-140.99999999999909
 30
0.0
 11
8176.9999999999873
 21
-140.99999999999909
 31
0.0
1001
ACDBBLOCKREPETAG
1070
     1
1071
      117
1005
121B99
  0
LINE
  5
121B9A
  8
OBJECT
 10
8176.9999999999873
 20
-140.99999999999909
 30
0.0
 11
8176.9999999999873
 21
-258.99999999999909
 31
0.0
1001
ACDBBLOCKREPETAG
1070
     1
1071
      118
1005
121B9A
  0
LINE
  5
121B9B
  8
OBJECT
 10
8176.9999999999873
 20
-258.99999999999909
 30
0.0
 11
8212.9999999999836
 21
-258.99999999999909
 31
0.0
1001
ACDBBLOCKREPETAG
1070
     1
1071
      119
1005
121B9B
  0
LINE
  5
121B9C
  8
OBJECT
 10
8172.9999999999854
 20
-145.49999999999909
 30
0.0
 11
8159.9999999999873
 21
-145.49999999999909
 31
0.0
1001
ACDBBLOCKREPETAG
1070
     1
1071
      120
1005
121B9C
  0
LINE
  5
121B9D
  8
OBJECT
 10
8159.9999999999873
 20
-254.49999999999909
 30
0.0
 11
8172.9999999999854
 21
-254.49999999999909
 31
0.0
1001
ACDBBLOCKREPETAG
1070
     1
1071
      121
1005
121B9D
  0
LINE
  5
121B9E
  8
OBJECT
 10
8172.9999999999854
 20
-254.49999999999909
 30
0.0
 11
8172.9999999999854
 21
-145.49999999999909
 31
0.0
1001
ACDBBLOCKREPETAG
1070
     1
1071
      122
1005
121B9E
  0
LINE
  5
121B9F
  8
OBJECT
 10
8176.9999999999873
 20
-140.99999999999909
 30
0.0
 11
8172.9999999999854
 21
-145.49999999999909
 31
0.0
1001
ACDBBLOCKREPETAG
1070
     1
1071
      123
1005
121B9F
  0
LINE
  5
121BA0
  8
OBJECT
 10
8176.9999999999873
 20
-258.99999999999909
 30
0.0
 11
8172.9999999999854
 21
-254.49999999999909
 31
0.0
1001
ACDBBLOCKREPETAG
1070
     1
1071
      124
1005
121BA0
  0
LINE
  5
121BA1
  8
OBJECT
 10
8083.0
 20
-137.99999999999909
 30
0.0
 11
8080.0
 21
-137.99999999999909
 31
0.0
1001
ACDBBLOCKREPETAG
1070
     1
1071
      125
1005
121BA1
  0
ARC
  5
121BA2
  8
OBJECT
 10
8083.0
 20
-140.99999999999909
 30
0.0
 40
3.0
 50
0.0
 51
90.0
1001
ACDBBLOCKREPETAG
1070
     1
1071
      126
1005
121BA2
  0
LINE
  5
121BA3
  8
OBJECT
 10
8080.0
 20
-261.99999999999909
 30
0.0
 11
8083.0
 21
-261.99999999999909
 31
0.0
1001
ACDBBLOCKREPETAG
1070
     1
1071
      127
1005
121BA3
  0
ARC
  5
121BA4
  8
OBJECT
 10
8083.0
 20
-258.99999999999909
 30
0.0
 40
3.0
 50
270.0
 51
0.0
1001
ACDBBLOCKREPETAG
1070
     1
1071
      128
1005
121BA4
  0
LINE
  5
121BA5
  8
OBJECT
 10
8086.0
 20
-258.99999999999909
 30
0.0
 11
8086.0
 21
-222.44994432063581
 31
0.0
1001
ACDBBLOCKREPETAG
1070
     1
1071
      129
1005
121BA5
  0
LINE
  5
121BA6
  8
OBJECT
 10
8086.0
 20
-177.55005567935859
 30
0.0
 11
8086.0
 21
-140.99999999999909
 31
0.0
1001
ACDBBLOCKREPETAG
1070
     1
1071
      130
1005
121BA6
  0
LINE
  5
121BA7
  8
HIDDEN
 10
8167.9999999999864
 20
-155.49999999999909
 30
0.0
 11
8167.9999999999864
 21
-244.49999999999909
 31
0.0
1001
ACDBBLOCKREPETAG
1070
     1
1071
      131
1005
121BA7
  0
LINE
  5
121BA8
  8
OBJECT
 10
8159.9999749641838
 20
-254.4999509238105
 30
0.0
 11
8159.9999749641838
 21
-145.4999509238105
 31
0.0
1001
ACDBBLOCKREPETAG
1070
     1
1071
      133
1005
121BA8
  0
ARC
  5
121BA9
  8
OBJECT
 10
8125.0000000000027
 20
-199.99999999999909
 30
0.0
 40
45.000000000000547
 50
90.0
 51
270.0
1001
ACDBBLOCKREPETAG
1070
     1
1071
      134
1005
121BA9
  0
LINE
  5
121BAA
  8
OBJECT
 10
5923.0
 20
-470.99999999999937
 30
0.0
 11
5923.0
 21
-449.99999999999937
 31
0.0
1001
ACDBBLOCKREPETAG
1070
     1
1071
        0
1005
121BAA
  0
LINE
  5
121BAB
  8
OBJECT
 10
5923.0
 20
-449.99999999999937
 30
0.0
 11
6077.0
 21
-449.99999999999937
 31
0.0
1001
ACDBBLOCKREPETAG
1070
     1
1071
        1
1005
121BAB
  0
LINE
  5
121BAC
  8
HIDDEN
 10
5943.0
 20
-519.99999999999955
 30
0.0
 11
6057.0
 21
-519.99999999999955
 31
0.0
1001
ACDBBLOCKREPETAG
1070
     1
1071
        2
1005
121BAC
  0
LINE
  5
121BAD
  8
OBJECT
 10
6077.0
 20
-449.99999999999937
 30
0.0
 11
6077.0
 21
-470.99999999999937
 31
0.0
1001
ACDBBLOCKREPETAG
1070
     1
1071
        3
1005
121BAD
  0
LINE
  5
121BAE
  8
OBJECT
 10
6077.0
 20
-470.99999999999937
 30
0.0
 11
5923.0
 21
-470.99999999999937
 31
0.0
1001
ACDBBLOCKREPETAG
1070
     1
1071
        4
1005
121BAE
  0
LINE
  5
121BAF
  8
CENTER
 10
6000.0
 20
-434.99999999999949
 30
0.0
 11
6000.0
 21
-789.99999999999955
 31
0.0
1001
ACDBBLOCKREPETAG
1070
     1
1071
        5
1005
121BAF
  0
LINE
  5
121BB0
  8
OBJECT
 10
5925.0
 20
-533.99999999999955
 30
0.0
 11
5925.0
 21
-777.99999999999955
 31
0.0
1001
ACDBBLOCKREPETAG
1070
     1
1071
        6
1005
121BB0
  0
LINE
  5
121BB1
  8
OBJECT
 10
5928.0
 20
-470.99999999999937
 30
0.0
 11
5928.0
 21
-533.99999999999955
 31
0.0
1001
ACDBBLOCKREPETAG
1070
     1
1071
        7
1005
121BB1
  0
LINE
  5
121BB2
  8
OBJECT
 10
6072.0
 20
-533.99999999999955
 30
0.0
 11
6072.0
 21
-470.99999999999937
 31
0.0
1001
ACDBBLOCKREPETAG
1070
     1
1071
        8
1005
121BB2
  0
LINE
  5
121BB3
  8
OBJECT
 10
5920.0
 20
-777.99999999999955
 30
0.0
 11
6080.0
 21
-777.99999999999955
 31
0.0
1001
ACDBBLOCKREPETAG
1070
     1
1071
        9
1005
121BB3
  0
LINE
  5
121BB4
  8
OBJECT
 10
6080.0
 20
-533.99999999999955
 30
0.0
 11
5925.0
 21
-533.99999999999955
 31
0.0
1001
ACDBBLOCKREPETAG
1070
     1
1071
       10
1005
121BB4
  0
LINE
  5
121BB5
  8
OBJECT
 10
5920.0
 20
-777.99999999999955
 30
0.0
 11
5920.0
 21
-789.99999999999955
 31
0.0
1001
ACDBBLOCKREPETAG
1070
     1
1071
       11
1005
121BB5
  0
LINE
  5
121BB6
  8
OBJECT
 10
5920.0
 20
-789.99999999999955
 30
0.0
 11
6080.0
 21
-789.99999999999955
 31
0.0
1001
ACDBBLOCKREPETAG
1070
     1
1071
       12
1005
121BB6
  0
LINE
  5
121BB7
  8
OBJECT
 10
6080.0
 20
-789.99999999999955
 30
0.0
 11
6080.0
 21
-777.99999999999955
 31
0.0
1001
ACDBBLOCKREPETAG
1070
     1
1071
       13
1005
121BB7
  0
LINE
  5
121BB8
  8
OBJECT
 10
6074.9999999998618
 20
-657.99999999985039
 30
0.0
 11
6075.0
 21
-777.99999999999955
 31
0.0
1001
ACDBBLOCKREPETAG
1070
     1
1071
       15
1005
121BB8
  0
LINE
  5
121BB9
  8
OBJECT
 10
6074.9999908029858
 20
-657.99998602702135
 30
0.0
 11
6080.0
 21
-657.99998602702135
 31
0.0
1001
ACDBBLOCKREPETAG
1070
     1
1071
       16
1005
121BB9
  0
ARC
  5
121BBA
  8
OBJECT
 10
6200.6872746716735
 20
-649.40809941010718
 30
0.0
 40
170.6350503965856
 50
137.44134459184301
 51
149.91949581337221
1001
ACDBBLOCKREPETAG
1070
     1
1071
       17
1005
121BBA
  0
ARC
  5
121BBB
  8
OBJECT
 10
6118.8455987040506
 20
-605.88272669536445
 30
0.0
 40
78.072222021763665
 50
147.4551531038623
 51
164.66365997718671
1001
ACDBBLOCKREPETAG
1070
     1
1071
       18
1005
121BBB
  0
ARC
  5
121BBC
  8
OBJECT
 10
6085.7554349608727
 20
-595.99999999999955
 30
0.0
 40
43.55353926885617
 50
165.688452300753
 51
194.3115476992468
1001
ACDBBLOCKREPETAG
1070
     1
1071
       19
1005
121BBC
  0
ARC
  5
121BBD
  8
OBJECT
 10
6200.6872746716735
 20
-542.59190058989179
 30
0.0
 40
170.6350503965856
 50
210.08050418662771
 51
222.55865540815699
1001
ACDBBLOCKREPETAG
1070
     1
1071
       20
1005
121BBD
  0
ARC
  5
121BBE
  8
OBJECT
 10
6118.8455987040506
 20
-586.11727330463452
 30
0.0
 40
78.072222021763665
 50
195.3363400228132
 51
212.5448468961377
1001
ACDBBLOCKREPETAG
1070
     1
1071
       21
1005
121BBE
  0
POINT
  5
121BBF
  8
DOTS
 10
6000.0
 20
-654.99999999999966
 30
0.0
1001
ACDBBLOCKREPETAG
1070
     1
1071
      187
1005
121BBF
  0
LINE
  5
121BC0
  8
OBJECT
 10
6024.1029330933034
 20
-243.80694712371681
 30
0.0
 11
6020.6596569999956
 21
-232.55462199999889
 31
0.0
1001
ACDBBLOCKREPETAG
1070
     1
1071
      300
1005
121BC0
  0
LINE
  5
121BC1
  8
OBJECT
 10
5986.7927499013749
 20
-218.22553374208019
 30
0.0
 11
6020.6596569999956
 21
-232.5546219999969
 31
0.0
1001
ACDBBLOCKREPETAG
1070
     1
1071
      302
1005
121BC1
  0
ARC
  5
121BC2
  8
OBJECT
 10
5982.8961697618997
 20
-227.4351299990567
 30
0.0
 40
10.0
 50
67.066778292911366
 51
154.0147343702935
1001
ACDBBLOCKREPETAG
1070
     1
1071
      303
1005
121BC2
  0
ARC
  5
121BC3
  8
OBJECT
 10
5986.1488390381273
 20
-225.55386256729159
 30
0.0
 40
7.0
 50
67.066778292911366
 51
154.0147337749826
1001
ACDBBLOCKREPETAG
1070
     1
1071
      304
1005
121BC3
  0
LINE
  5
121BC4
  8
OBJECT
 10
5969.4199755553018
 20
-243.89888500818171
 30
0.0
 11
5979.8564918232369
 21
-222.48688253356801
 31
0.0
1001
ACDBBLOCKREPETAG
1070
     1
1071
      341
1005
121BC4
  0
LINE
  5
121BC5
  8
OBJECT
 10
5965.2972169006089
 20
-240.71813901882729
 30
0.0
 11
5973.9071022665084
 21
-223.05373004430751
 31
0.0
1001
ACDBBLOCKREPETAG
1070
     1
1071
      342
1005
121BC5
  0
ARC
  5
121BC6
  8
OBJECT
 10
5976.5796953073141
 20
-207.1289369828437
 30
0.0
 40
60.031113246032611
 50
314.07020130418567
 51
322.33936106089681
1001
ACDBBLOCKREPETAG
1070
     1
1071
      343
1005
121BC6
  0
CIRCLE
  5
121BC7
  8
OBJECT
 10
6000.0
 20
-199.99999999999909
 30
0.0
 40
53.5
1001
ACDBBLOCKREPETAG
1070
     1
1071
      344
1005
121BC7
  0
POINT
  5
121BC8
  8
DOTS
 10
6000.0
 20
-199.99999999999909
 30
0.0
 50
270.0
1001
ACDBBLOCKREPETAG
1070
     1
1071
      362
1005
121BC8
  0
ARC
  5
121BC9
  8
OBJECT
 10
6000.0
 20
-199.99999999999909
 30
0.0
 40
50.0
 50
298.81994300000417
 51
228.52376955965491
1001
ACDBBLOCKREPETAG
1070
     1
1071
        7
1005
121BC9
  0
LINE
  5
121BCA
  8
CENTER
 10
6080.0
 20
-199.99999999999909
 30
0.0
 11
5905.0
 21
-199.99999999999909
 31
0.0
1001
ACDBBLOCKREPETAG
1070
     1
1071
       14
1005
121BCA
  0
LINE
  5
121BCB
  8
CENTER
 10
6000.0
 20
-294.99999999999898
 30
0.0
 11
6000.0
 21
-104.9999999999991
 31
0.0
1001
ACDBBLOCKREPETAG
1070
     1
1071
       15
1005
121BCB
  0
CIRCLE
  5
121BCC
  8
OBJECT
 10
6000.0
 20
-199.99999999999909
 30
0.0
 40
70.0
1001
ACDBBLOCKREPETAG
1070
     1
1071
       16
1005
121BCC
  0
CIRCLE
  5
121BCD
  8
OBJECT
 10
6000.0
 20
-199.99999999999909
 30
0.0
 40
77.0
1001
ACDBBLOCKREPETAG
1070
     1
1071
       17
1005
121BCD
  0
ARC
  5
121BCE
  8
OBJECT
 10
6000.0
 20
-199.99999999999909
 30
0.0
 40
80.0
 50
50.80503257388439
 51
309.19496742611562
1001
ACDBBLOCKREPETAG
1070
     1
1071
       18
1005
121BCE
  0
LINE
  5
121BCF
  8
OBJECT
 10
6045.6618002273253
 20
-137.99999999999909
 30
0.0
 11
6080.0
 21
-137.99999999999909
 31
0.0
1001
ACDBBLOCKREPETAG
1070
     1
1071
       19
1005
121BCF
  0
LINE
  5
121BD0
  8
OBJECT
 10
6045.6618002273253
 20
-261.99999999999909
 30
0.0
 11
6080.0
 21
-261.99999999999909
 31
0.0
1001
ACDBBLOCKREPETAG
1070
     1
1071
       20
1005
121BD0
  0
LINE
  5
121BD1
  8
OBJECT
 10
6212.9999999999864
 20
-453.0000000000008
 30
0.0
 11
6219.9999999999873
 21
-453.0000000000008
 31
0.0
1001
ACDBBLOCKREPETAG
1070
     1
1071
      106
1005
121BD1
  0
LINE
  5
121BD2
  8
OBJECT
 10
6219.9999999999873
 20
-453.0000000000008
 30
0.0
 11
6219.9999999999873
 21
-577.0000000000008
 31
0.0
1001
ACDBBLOCKREPETAG
1070
     1
1071
      107
1005
121BD2
  0
LINE
  5
121BD3
  8
OBJECT
 10
6085.9999999999864
 20
-553.3502637757274
 30
0.0
 11
6085.9999999999864
 21
-655.00000000000068
 31
0.0
1001
ACDBBLOCKREPETAG
1070
     1
1071
      108
1005
121BD3
  0
LINE
  5
121BD4
  8
OBJECT
 10
6219.9999999999873
 20
-577.0000000000008
 30
0.0
 11
6212.9999999999864
 21
-577.0000000000008
 31
0.0
1001
ACDBBLOCKREPETAG
1070
     1
1071
      109
1005
121BD4
  0
LINE
  5
121BD5
  8
OBJECT
 10
6212.9999999999864
 20
-577.0000000000008
 30
0.0
 11
6212.9999999999864
 21
-453.0000000000008
 31
0.0
1001
ACDBBLOCKREPETAG
1070
     1
1071
      110
1005
121BD5
  0
LINE
  5
121BD6
  8
CENTER
 10
6144.9999999999873
 20
-515.0000000000008
 30
0.0
 11
6234.9999999999864
 21
-515.0000000000008
 31
0.0
1001
ACDBBLOCKREPETAG
1070
     1
1071
      111
1005
121BD6
  0
LINE
  5
121BD7
  8
OBJECT
 10
6079.9999999999818
 20
-658.0
 30
0.0
 11
6082.9999999999864
 21
-658.0000000000008
 31
0.0
1001
ACDBBLOCKREPETAG
1070
     1
1071
      112
1005
121BD7
  0
ARC
  5
121BD8
  8
OBJECT
 10
6082.9999999999864
 20
-655.00000000000068
 30
0.0
 40
3.0
 50
270.0
 51
0.0
1001
ACDBBLOCKREPETAG
1070
     1
1071
      113
1005
121BD8
  0
LINE
  5
121BD9
  8
OBJECT
 10
6212.9999999999864
 20
-456.0000000000008
 30
0.0
 11
6176.9999999999873
 21
-456.0000000000008
 31
0.0
1001
ACDBBLOCKREPETAG
1070
     1
1071
      114
1005
121BD9
  0
LINE
  5
121BDA
  8
OBJECT
 10
6176.9999999999873
 20
-456.0000000000008
 30
0.0
 11
6176.9999999999873
 21
-553.15756805667843
 31
0.0
1001
ACDBBLOCKREPETAG
1070
     1
1071
      115
1005
121BDA
  0
LINE
  5
121BDB
  8
OBJECT
 10
6172.9999999999864
 20
-460.5000000000008
 30
0.0
 11
6172.9999999999818
 21
-545.74491827928705
 31
0.0
1001
ACDBBLOCKREPETAG
1070
     1
1071
      116
1005
121BDB
  0
LINE
  5
121BDC
  8
OBJECT
 10
6172.9999999999864
 20
-460.5000000000008
 30
0.0
 11
6159.9999999999864
 21
-460.5000000000008
 31
0.0
1001
ACDBBLOCKREPETAG
1070
     1
1071
      117
1005
121BDC
  0
LINE
  5
121BDD
  8
OBJECT
 10
6168.6563168254688
 20
-574.0000000000008
 30
0.0
 11
6212.9999999999864
 21
-574.0000000000008
 31
0.0
1001
ACDBBLOCKREPETAG
1070
     1
1071
      118
1005
121BDD
  0
LINE
  5
121BDE
  8
OBJECT
 10
6176.9999999999873
 20
-456.0000000000008
 30
0.0
 11
6172.9999999999864
 21
-460.5000000000008
 31
0.0
1001
ACDBBLOCKREPETAG
1070
     1
1071
      119
1005
121BDE
  0
LINE
  5
121BDF
  8
OBJECT
 10
6159.9999999999864
 20
-460.5000000000008
 30
0.0
 11
6159.9999999999864
 21
-545.74491827928784
 31
0.0
1001
ACDBBLOCKREPETAG
1070
     1
1071
      120
1005
121BDF
  0
ARC
  5
121BE0
  8
OBJECT
 10
6091.9999999999873
 20
-537.27386365609345
 30
0.0
 40
85.0
 50
308.59099323720869
 51
334.40086127811207
1001
ACDBBLOCKREPETAG
1070
     1
1071
      121
1005
121BE0
  0
ARC
  5
121BE1
  8
OBJECT
 10
6162.7999999999856
 20
-555.00000000000068
 30
0.0
 40
85.0
 50
91.887731891831123
 51
160.07406787456929
1001
ACDBBLOCKREPETAG
1070
     1
1071
      122
1005
121BE1
  0
LINE
  5
121BE2
  8
OBJECT
 10
6085.9999999999864
 20
-650.81075719270927
 30
0.0
 11
6145.0193225436024
 21
-603.71143914629465
 31
0.0
1001
ACDBBLOCKREPETAG
1070
     1
1071
      123
1005
121BE2
  0
LINE
  5
121BE3
  8
OBJECT
 10
6172.9999999999818
 20
-545.74491827928705
 30
0.0
 11
6159.9999999999864
 21
-545.74491827928784
 31
0.0
1001
ACDBBLOCKREPETAG
1070
     1
1071
      124
1005
121BE3
  0
LINE
  5
121BE4
  8
OBJECT
 10
6176.9999999999873
 20
-553.15756805667843
 30
0.0
 11
6172.9999999999818
 21
-545.74491827928705
 31
0.0
1001
ACDBBLOCKREPETAG
1070
     1
1071
      125
1005
121BE4
  0
LINE
  5
121BE5
  8
OBJECT
 10
6080.0000000000182
 20
-534.0
 30
0.0
 11
6082.8886121596233
 21
-526.03156729425325
 31
0.0
1001
ACDBBLOCKREPETAG
1070
     1
1071
      126
1005
121BE5
  0
LINE
  5
121BE6
  8
OBJECT
 10
6080.0000000000182
 20
-534.0
 30
0.0
 11
6085.9999999999864
 21
-553.3502637757274
 31
0.0
1001
ACDBBLOCKREPETAG
1070
     1
1071
      127
1005
121BE6
  0
LINE
  5
121BE7
  8
HIDDEN
 10
6167.9999999999864
 20
-470.5000000000008
 30
0.0
 11
6167.9999999999864
 21
-559.50000000000068
 31
0.0
1001
ACDBBLOCKREPETAG
1070
     1
1071
      129
1005
121BE7
  0
LINE
  5
121BE8
  8
OBJECT
 10
6212.9999999999864
 20
-137.99999999999909
 30
0.0
 11
6219.9999999999873
 21
-137.99999999999909
 31
0.0
1001
ACDBBLOCKREPETAG
1070
     1
1071
      110
1005
121BE8
  0
LINE
  5
121BE9
  8
OBJECT
 10
6219.9999999999873
 20
-137.99999999999909
 30
0.0
 11
6219.9999999999873
 21
-261.99999999999909
 31
0.0
1001
ACDBBLOCKREPETAG
1070
     1
1071
      111
1005
121BE9
  0
LINE
  5
121BEA
  8
OBJECT
 10
6219.9999999999873
 20
-261.99999999999909
 30
0.0
 11
6212.9999999999864
 21
-261.99999999999909
 31
0.0
1001
ACDBBLOCKREPETAG
1070
     1
1071
      112
1005
121BEA
  0
LINE
  5
121BEB
  8
OBJECT
 10
6212.9999999999864
 20
-261.99999999999909
 30
0.0
 11
6212.9999999999864
 21
-137.99999999999909
 31
0.0
1001
ACDBBLOCKREPETAG
1070
     1
1071
      113
1005
121BEB
  0
LINE
  5
121BEC
  8
CENTER
 10
6234.9999999999864
 20
-199.99999999999909
 30
0.0
 11
6080.0000000000036
 21
-199.99999999999909
 31
0.0
1001
ACDBBLOCKREPETAG
1070
     1
1071
      114
1005
121BEC
  0
LINE
  5
121BED
  8
OBJECT
 10
6159.9999749641856
 20
-245.0000000000027
 30
0.0
 11
6086.0
 21
-244.99999999999909
 31
0.0
1001
ACDBBLOCKREPETAG
1070
     1
1071
      115
1005
121BED
  0
LINE
  5
121BEE
  8
OBJECT
 10
6159.9999749641856
 20
-154.99999999999909
 30
0.0
 11
6086.0
 21
-154.99999999999909
 31
0.0
1001
ACDBBLOCKREPETAG
1070
     1
1071
      116
1005
121BEE
  0
LINE
  5
121BEF
  8
OBJECT
 10
6212.9999999999864
 20
-140.99999999999909
 30
0.0
 11
6176.9999999999873
 21
-140.99999999999909
 31
0.0
1001
ACDBBLOCKREPETAG
1070
     1
1071
      117
1005
121BEF
  0
LINE
  5
121BF0
  8
OBJECT
 10
6176.9999999999873
 20
-140.99999999999909
 30
0.0
 11
6176.9999999999873
 21
-258.99999999999909
 31
0.0
1001
ACDBBLOCKREPETAG
1070
     1
1071
      118
1005
121BF0
  0
LINE
  5
121BF1
  8
OBJECT
 10
6176.9999999999873
 20
-258.99999999999909
 30
0.0
 11
6212.9999999999864
 21
-258.99999999999909
 31
0.0
1001
ACDBBLOCKREPETAG
1070
     1
1071
      119
1005
121BF1
  0
LINE
  5
121BF2
  8
OBJECT
 10
6172.9999999999864
 20
-145.49999999999909
 30
0.0
 11
6159.9999999999864
 21
-145.49999999999909
 31
0.0
1001
ACDBBLOCKREPETAG
1070
     1
1071
      120
1005
121BF2
  0
LINE
  5
121BF3
  8
OBJECT
 10
6159.9999999999864
 20
-254.49999999999909
 30
0.0
 11
6172.9999999999864
 21
-254.49999999999909
 31
0.0
1001
ACDBBLOCKREPETAG
1070
     1
1071
      121
1005
121BF3
  0
LINE
  5
121BF4
  8
OBJECT
 10
6172.9999999999864
 20
-254.49999999999909
 30
0.0
 11
6172.9999999999864
 21
-145.49999999999909
 31
0.0
1001
ACDBBLOCKREPETAG
1070
     1
1071
      122
1005
121BF4
  0
LINE
  5
121BF5
  8
OBJECT
 10
6176.9999999999873
 20
-140.99999999999909
 30
0.0
 11
6172.9999999999864
 21
-145.49999999999909
 31
0.0
1001
ACDBBLOCKREPETAG
1070
     1
1071
      123
1005
121BF5
  0
LINE
  5
121BF6
  8
OBJECT
 10
6176.9999999999873
 20
-258.99999999999909
 30
0.0
 11
6172.9999999999864
 21
-254.49999999999909
 31
0.0
1001
ACDBBLOCKREPETAG
1070
     1
1071
      124
1005
121BF6
  0
LINE
  5
121BF7
  8
OBJECT
 10
6083.0
 20
-137.99999999999909
 30
0.0
 11
6080.0
 21
-137.99999999999909
 31
0.0
1001
ACDBBLOCKREPETAG
1070
     1
1071
      125
1005
121BF7
  0
ARC
  5
121BF8
  8
OBJECT
 10
6083.0
 20
-140.99999999999909
 30
0.0
 40
3.0
 50
0.0
 51
90.0
1001
ACDBBLOCKREPETAG
1070
     1
1071
      126
1005
121BF8
  0
LINE
  5
121BF9
  8
OBJECT
 10
6080.0
 20
-261.99999999999909
 30
0.0
 11
6083.0
 21
-261.99999999999909
 31
0.0
1001
ACDBBLOCKREPETAG
1070
     1
1071
      127
1005
121BF9
  0
ARC
  5
121BFA
  8
OBJECT
 10
6083.0
 20
-258.99999999999909
 30
0.0
 40
3.0
 50
270.0
 51
0.0
1001
ACDBBLOCKREPETAG
1070
     1
1071
      128
1005
121BFA
  0
LINE
  5
121BFB
  8
OBJECT
 10
6086.0
 20
-258.99999999999909
 30
0.0
 11
6086.0
 21
-222.44994432063581
 31
0.0
1001
ACDBBLOCKREPETAG
1070
     1
1071
      129
1005
121BFB
  0
LINE
  5
121BFC
  8
OBJECT
 10
6086.0
 20
-177.55005567935859
 30
0.0
 11
6086.0
 21
-140.99999999999909
 31
0.0
1001
ACDBBLOCKREPETAG
1070
     1
1071
      130
1005
121BFC
  0
LINE
  5
121BFD
  8
HIDDEN
 10
6167.9999999999864
 20
-155.49999999999909
 30
0.0
 11
6167.9999999999864
 21
-244.49999999999909
 31
0.0
1001
ACDBBLOCKREPETAG
1070
     1
1071
      131
1005
121BFD
  0
LINE
  5
121BFE
  8
OBJECT
 10
6159.9999749641856
 20
-254.4999509238105
 30
0.0
 11
6159.9999749641856
 21
-145.4999509238105
 31
0.0
1001
ACDBBLOCKREPETAG
1070
     1
1071
      133
1005
121BFE
  0
ARC
  5
121BFF
  8
OBJECT
 10
6125.0000000000027
 20
-199.99999999999909
 30
0.0
 40
45.000000000000547
 50
90.0
 51
270.0
1001
ACDBBLOCKREPETAG
1070
     1
1071
      134
1005
121BFF
  0
LINE
  5
121C00
  8
OBJECT
 10
3923.0
 20
-470.99999999999937
 30
0.0
 11
3923.0
 21
-449.99999999999937
 31
0.0
1001
ACDBBLOCKREPETAG
1070
     1
1071
        0
1005
121C00
  0
LINE
  5
121C01
  8
OBJECT
 10
3923.0
 20
-449.99999999999937
 30
0.0
 11
4077.0
 21
-449.99999999999937
 31
0.0
1001
ACDBBLOCKREPETAG
1070
     1
1071
        1
1005
121C01
  0
LINE
  5
121C02
  8
HIDDEN
 10
3943.0
 20
-519.99999999999955
 30
0.0
 11
4057.0
 21
-519.99999999999955
 31
0.0
1001
ACDBBLOCKREPETAG
1070
     1
1071
        2
1005
121C02
  0
LINE
  5
121C03
  8
OBJECT
 10
4077.0
 20
-449.99999999999937
 30
0.0
 11
4077.0
 21
-470.99999999999937
 31
0.0
1001
ACDBBLOCKREPETAG
1070
     1
1071
        3
1005
121C03
  0
LINE
  5
121C04
  8
OBJECT
 10
4077.0
 20
-470.99999999999937
 30
0.0
 11
3923.0
 21
-470.99999999999937
 31
0.0
1001
ACDBBLOCKREPETAG
1070
     1
1071
        4
1005
121C04
  0
LINE
  5
121C05
  8
CENTER
 10
4000.0
 20
-434.99999999999949
 30
0.0
 11
4000.0
 21
-789.99999999999955
 31
0.0
1001
ACDBBLOCKREPETAG
1070
     1
1071
        5
1005
121C05
  0
LINE
  5
121C06
  8
OBJECT
 10
3925.0
 20
-533.99999999999955
 30
0.0
 11
3925.0
 21
-777.99999999999955
 31
0.0
1001
ACDBBLOCKREPETAG
1070
     1
1071
        6
1005
121C06
  0
LINE
  5
121C07
  8
OBJECT
 10
3928.0
 20
-470.99999999999937
 30
0.0
 11
3928.0
 21
-533.99999999999955
 31
0.0
1001
ACDBBLOCKREPETAG
1070
     1
1071
        7
1005
121C07
  0
LINE
  5
121C08
  8
OBJECT
 10
4072.0
 20
-533.99999999999955
 30
0.0
 11
4072.0
 21
-470.99999999999937
 31
0.0
1001
ACDBBLOCKREPETAG
1070
     1
1071
        8
1005
121C08
  0
LINE
  5
121C09
  8
OBJECT
 10
3920.0
 20
-777.99999999999955
 30
0.0
 11
4080.0
 21
-777.99999999999955
 31
0.0
1001
ACDBBLOCKREPETAG
1070
     1
1071
        9
1005
121C09
  0
LINE
  5
121C0A
  8
OBJECT
 10
4080.0
 20
-533.99999999999955
 30
0.0
 11
3925.0
 21
-533.99999999999955
 31
0.0
1001
ACDBBLOCKREPETAG
1070
     1
1071
       10
1005
121C0A
  0
LINE
  5
121C0B
  8
OBJECT
 10
3920.0
 20
-777.99999999999955
 30
0.0
 11
3920.0
 21
-789.99999999999955
 31
0.0
1001
ACDBBLOCKREPETAG
1070
     1
1071
       11
1005
121C0B
  0
LINE
  5
121C0C
  8
OBJECT
 10
3920.0
 20
-789.99999999999955
 30
0.0
 11
4080.0
 21
-789.99999999999955
 31
0.0
1001
ACDBBLOCKREPETAG
1070
     1
1071
       12
1005
121C0C
  0
LINE
  5
121C0D
  8
OBJECT
 10
4080.0
 20
-789.99999999999955
 30
0.0
 11
4080.0
 21
-777.99999999999955
 31
0.0
1001
ACDBBLOCKREPETAG
1070
     1
1071
       13
1005
121C0D
  0
LINE
  5
121C0E
  8
OBJECT
 10
4074.9999999998631
 20
-657.99999999985039
 30
0.0
 11
4075.0
 21
-777.99999999999955
 31
0.0
1001
ACDBBLOCKREPETAG
1070
     1
1071
       15
1005
121C0E
  0
LINE
  5
121C0F
  8
OBJECT
 10
4074.9999908029849
 20
-657.99998602702135
 30
0.0
 11
4080.0
 21
-657.99998602702135
 31
0.0
1001
ACDBBLOCKREPETAG
1070
     1
1071
       16
1005
121C0F
  0
ARC
  5
121C10
  8
OBJECT
 10
4200.6872746716726
 20
-649.40809941010718
 30
0.0
 40
170.6350503965856
 50
137.44134459184301
 51
149.91949581337221
1001
ACDBBLOCKREPETAG
1070
     1
1071
       17
1005
121C10
  0
ARC
  5
121C11
  8
OBJECT
 10
4118.8455987040506
 20
-605.88272669536445
 30
0.0
 40
78.072222021763665
 50
147.4551531038623
 51
164.6636599771798
1001
ACDBBLOCKREPETAG
1070
     1
1071
       18
1005
121C11
  0
ARC
  5
121C12
  8
OBJECT
 10
4085.7554349608722
 20
-595.99999999999955
 30
0.0
 40
43.55353926885617
 50
165.6884523007466
 51
194.3115476992534
1001
ACDBBLOCKREPETAG
1070
     1
1071
       19
1005
121C12
  0
ARC
  5
121C13
  8
OBJECT
 10
4200.6872746716726
 20
-542.59190058989179
 30
0.0
 40
170.6350503965856
 50
210.08050418662771
 51
222.55865540815699
1001
ACDBBLOCKREPETAG
1070
     1
1071
       20
1005
121C13
  0
ARC
  5
121C14
  8
OBJECT
 10
4118.8455987040506
 20
-586.11727330463452
 30
0.0
 40
78.072222021763665
 50
195.3363400228202
 51
212.5448468961377
1001
ACDBBLOCKREPETAG
1070
     1
1071
       21
1005
121C14
  0
POINT
  5
121C15
  8
DOTS
 10
4000.0
 20
-654.99999999999966
 30
0.0
1001
ACDBBLOCKREPETAG
1070
     1
1071
      187
1005
121C15
  0
LINE
  5
121C16
  8
OBJECT
 10
4024.102933093302
 20
-243.80694712371681
 30
0.0
 11
4020.6596569999951
 21
-232.55462199999889
 31
0.0
1001
ACDBBLOCKREPETAG
1070
     1
1071
      300
1005
121C16
  0
LINE
  5
121C17
  8
OBJECT
 10
3986.7927499013749
 20
-218.22553374208019
 30
0.0
 11
4020.6596569999951
 21
-232.5546219999969
 31
0.0
1001
ACDBBLOCKREPETAG
1070
     1
1071
      302
1005
121C17
  0
ARC
  5
121C18
  8
OBJECT
 10
3982.896169761902
 20
-227.4351299990567
 30
0.0
 40
10.0
 50
67.066778292911366
 51
154.0147343702935
1001
ACDBBLOCKREPETAG
1070
     1
1071
      303
1005
121C18
  0
ARC
  5
121C19
  8
OBJECT
 10
3986.1488390381278
 20
-225.55386256729159
 30
0.0
 40
7.0
 50
67.066778292911366
 51
154.01473377497121
1001
ACDBBLOCKREPETAG
1070
     1
1071
      304
1005
121C19
  0
LINE
  5
121C1A
  8
OBJECT
 10
3969.4199755553018
 20
-243.89888500818171
 30
0.0
 11
3979.8564918232369
 21
-222.48688253356801
 31
0.0
1001
ACDBBLOCKREPETAG
1070
     1
1071
      341
1005
121C1A
  0
LINE
  5
121C1B
  8
OBJECT
 10
3965.2972169006089
 20
-240.71813901882729
 30
0.0
 11
3973.9071022665089
 21
-223.05373004430751
 31
0.0
1001
ACDBBLOCKREPETAG
1070
     1
1071
      342
1005
121C1B
  0
ARC
  5
121C1C
  8
OBJECT
 10
3976.579695307315
 20
-207.1289369828437
 30
0.0
 40
60.031113246032611
 50
314.07020130418567
 51
322.33936106091278
1001
ACDBBLOCKREPETAG
1070
     1
1071
      343
1005
121C1C
  0
CIRCLE
  5
121C1D
  8
OBJECT
 10
4000.0
 20
-199.99999999999909
 30
0.0
 40
53.5
1001
ACDBBLOCKREPETAG
1070
     1
1071
      344
1005
121C1D
  0
POINT
  5
121C1E
  8
DOTS
 10
4000.0
 20
-199.99999999999909
 30
0.0
 50
270.0
1001
ACDBBLOCKREPETAG
1070
     1
1071
      362
1005
121C1E
  0
ARC
  5
121C1F
  8
OBJECT
 10
4000.0
 20
-199.99999999999909
 30
0.0
 40
50.0
 50
298.81994300000417
 51
228.52376955967449
1001
ACDBBLOCKREPETAG
1070
     1
1071
        7
1005
121C1F
  0
LINE
  5
121C20
  8
CENTER
 10
4080.0
 20
-199.99999999999909
 30
0.0
 11
3905.0
 21
-199.99999999999909
 31
0.0
1001
ACDBBLOCKREPETAG
1070
     1
1071
       14
1005
121C20
  0
LINE
  5
121C21
  8
CENTER
 10
4000.0
 20
-294.99999999999898
 30
0.0
 11
4000.0
 21
-104.9999999999991
 31
0.0
1001
ACDBBLOCKREPETAG
1070
     1
1071
       15
1005
121C21
  0
CIRCLE
  5
121C22
  8
OBJECT
 10
4000.0
 20
-199.99999999999909
 30
0.0
 40
70.0
1001
ACDBBLOCKREPETAG
1070
     1
1071
       16
1005
121C22
  0
CIRCLE
  5
121C23
  8
OBJECT
 10
4000.0
 20
-199.99999999999909
 30
0.0
 40
77.0
1001
ACDBBLOCKREPETAG
1070
     1
1071
       17
1005
121C23
  0
ARC
  5
121C24
  8
OBJECT
 10
4000.0
 20
-199.99999999999909
 30
0.0
 40
80.0
 50
50.805032573864182
 51
309.1949674261358
1001
ACDBBLOCKREPETAG
1070
     1
1071
       18
1005
121C24
  0
LINE
  5
121C25
  8
OBJECT
 10
4045.661800227324
 20
-137.99999999999909
 30
0.0
 11
4080.0
 21
-137.99999999999909
 31
0.0
1001
ACDBBLOCKREPETAG
1070
     1
1071
       19
1005
121C25
  0
LINE
  5
121C26
  8
OBJECT
 10
4045.661800227324
 20
-261.99999999999909
 30
0.0
 11
4080.0
 21
-261.99999999999909
 31
0.0
1001
ACDBBLOCKREPETAG
1070
     1
1071
       20
1005
121C26
  0
LINE
  5
121C27
  8
OBJECT
 10
4212.9999999999854
 20
-453.0000000000008
 30
0.0
 11
4219.9999999999854
 21
-453.0000000000008
 31
0.0
1001
ACDBBLOCKREPETAG
1070
     1
1071
      106
1005
121C27
  0
LINE
  5
121C28
  8
OBJECT
 10
4219.9999999999854
 20
-453.0000000000008
 30
0.0
 11
4219.9999999999854
 21
-577.0000000000008
 31
0.0
1001
ACDBBLOCKREPETAG
1070
     1
1071
      107
1005
121C28
  0
LINE
  5
121C29
  8
OBJECT
 10
4085.9999999999859
 20
-553.3502637757274
 30
0.0
 11
4085.9999999999859
 21
-655.00000000000068
 31
0.0
1001
ACDBBLOCKREPETAG
1070
     1
1071
      108
1005
121C29
  0
LINE
  5
121C2A
  8
OBJECT
 10
4219.9999999999854
 20
-577.0000000000008
 30
0.0
 11
4212.9999999999854
 21
-577.0000000000008
 31
0.0
1001
ACDBBLOCKREPETAG
1070
     1
1071
      109
1005
121C2A
  0
LINE
  5
121C2B
  8
OBJECT
 10
4212.9999999999854
 20
-577.0000000000008
 30
0.0
 11
4212.9999999999854
 21
-453.0000000000008
 31
0.0
1001
ACDBBLOCKREPETAG
1070
     1
1071
      110
1005
121C2B
  0
LINE
  5
121C2C
  8
CENTER
 10
4144.9999999999854
 20
-515.0000000000008
 30
0.0
 11
4234.9999999999854
 21
-515.0000000000008
 31
0.0
1001
ACDBBLOCKREPETAG
1070
     1
1071
      111
1005
121C2C
  0
LINE
  5
121C2D
  8
OBJECT
 10
4079.9999999999818
 20
-658.0
 30
0.0
 11
4082.999999999985
 21
-658.0000000000008
 31
0.0
1001
ACDBBLOCKREPETAG
1070
     1
1071
      112
1005
121C2D
  0
ARC
  5
121C2E
  8
OBJECT
 10
4082.999999999985
 20
-655.00000000000068
 30
0.0
 40
3.0
 50
270.0
 51
0.0
1001
ACDBBLOCKREPETAG
1070
     1
1071
      113
1005
121C2E
  0
LINE
  5
121C2F
  8
OBJECT
 10
4212.9999999999854
 20
-456.0000000000008
 30
0.0
 11
4176.9999999999854
 21
-456.0000000000008
 31
0.0
1001
ACDBBLOCKREPETAG
1070
     1
1071
      114
1005
121C2F
  0
LINE
  5
121C30
  8
OBJECT
 10
4176.9999999999854
 20
-456.0000000000008
 30
0.0
 11
4176.9999999999854
 21
-553.15756805667843
 31
0.0
1001
ACDBBLOCKREPETAG
1070
     1
1071
      115
1005
121C30
  0
LINE
  5
121C31
  8
OBJECT
 10
4172.9999999999854
 20
-460.5000000000008
 30
0.0
 11
4172.9999999999818
 21
-545.74491827928705
 31
0.0
1001
ACDBBLOCKREPETAG
1070
     1
1071
      116
1005
121C31
  0
LINE
  5
121C32
  8
OBJECT
 10
4172.9999999999854
 20
-460.5000000000008
 30
0.0
 11
4159.9999999999854
 21
-460.5000000000008
 31
0.0
1001
ACDBBLOCKREPETAG
1070
     1
1071
      117
1005
121C32
  0
LINE
  5
121C33
  8
OBJECT
 10
4168.6563168254679
 20
-574.0000000000008
 30
0.0
 11
4212.9999999999854
 21
-574.0000000000008
 31
0.0
1001
ACDBBLOCKREPETAG
1070
     1
1071
      118
1005
121C33
  0
LINE
  5
121C34
  8
OBJECT
 10
4176.9999999999854
 20
-456.0000000000008
 30
0.0
 11
4172.9999999999854
 21
-460.5000000000008
 31
0.0
1001
ACDBBLOCKREPETAG
1070
     1
1071
      119
1005
121C34
  0
LINE
  5
121C35
  8
OBJECT
 10
4159.9999999999854
 20
-460.5000000000008
 30
0.0
 11
4159.9999999999854
 21
-545.74491827928784
 31
0.0
1001
ACDBBLOCKREPETAG
1070
     1
1071
      120
1005
121C35
  0
ARC
  5
121C36
  8
OBJECT
 10
4091.9999999999841
 20
-537.27386365609345
 30
0.0
 40
85.0
 50
308.59099323720869
 51
334.40086127812339
1001
ACDBBLOCKREPETAG
1070
     1
1071
      121
1005
121C36
  0
ARC
  5
121C37
  8
OBJECT
 10
4162.7999999999847
 20
-555.00000000000068
 30
0.0
 40
85.0
 50
91.887731891831123
 51
160.07406787456929
1001
ACDBBLOCKREPETAG
1070
     1
1071
      122
1005
121C37
  0
LINE
  5
121C38
  8
OBJECT
 10
4085.9999999999859
 20
-650.81075719270927
 30
0.0
 11
4145.0193225436024
 21
-603.71143914629465
 31
0.0
1001
ACDBBLOCKREPETAG
1070
     1
1071
      123
1005
121C38
  0
LINE
  5
121C39
  8
OBJECT
 10
4172.9999999999818
 20
-545.74491827928705
 30
0.0
 11
4159.9999999999854
 21
-545.74491827928784
 31
0.0
1001
ACDBBLOCKREPETAG
1070
     1
1071
      124
1005
121C39
  0
LINE
  5
121C3A
  8
OBJECT
 10
4176.9999999999854
 20
-553.15756805667843
 30
0.0
 11
4172.9999999999818
 21
-545.74491827928705
 31
0.0
1001
ACDBBLOCKREPETAG
1070
     1
1071
      125
1005
121C3A
  0
LINE
  5
121C3B
  8
OBJECT
 10
4080.0000000000168
 20
-534.0
 30
0.0
 11
4082.8886121596229
 21
-526.03156729425325
 31
0.0
1001
ACDBBLOCKREPETAG
1070
     1
1071
      126
1005
121C3B
  0
LINE
  5
121C3C
  8
OBJECT
 10
4080.0000000000168
 20
-534.0
 30
0.0
 11
4085.9999999999859
 21
-553.3502637757274
 31
0.0
1001
ACDBBLOCKREPETAG
1070
     1
1071
      127
1005
121C3C
  0
LINE
  5
121C3D
  8
HIDDEN
 10
4167.9999999999854
 20
-470.5000000000008
 30
0.0
 11
4167.9999999999854
 21
-559.50000000000068
 31
0.0
1001
ACDBBLOCKREPETAG
1070
     1
1071
      129
1005
121C3D
  0
LINE
  5
121C3E
  8
OBJECT
 10
4212.9999999999854
 20
-137.99999999999909
 30
0.0
 11
4219.9999999999854
 21
-137.99999999999909
 31
0.0
1001
ACDBBLOCKREPETAG
1070
     1
1071
      110
1005
121C3E
  0
LINE
  5
121C3F
  8
OBJECT
 10
4219.9999999999854
 20
-137.99999999999909
 30
0.0
 11
4219.9999999999854
 21
-261.99999999999909
 31
0.0
1001
ACDBBLOCKREPETAG
1070
     1
1071
      111
1005
121C3F
  0
LINE
  5
121C40
  8
OBJECT
 10
4219.9999999999854
 20
-261.99999999999909
 30
0.0
 11
4212.9999999999854
 21
-261.99999999999909
 31
0.0
1001
ACDBBLOCKREPETAG
1070
     1
1071
      112
1005
121C40
  0
LINE
  5
121C41
  8
OBJECT
 10
4212.9999999999854
 20
-261.99999999999909
 30
0.0
 11
4212.9999999999854
 21
-137.99999999999909
 31
0.0
1001
ACDBBLOCKREPETAG
1070
     1
1071
      113
1005
121C41
  0
LINE
  5
121C42
  8
CENTER
 10
4234.9999999999854
 20
-199.99999999999909
 30
0.0
 11
4080.0000000000041
 21
-199.99999999999909
 31
0.0
1001
ACDBBLOCKREPETAG
1070
     1
1071
      114
1005
121C42
  0
LINE
  5
121C43
  8
OBJECT
 10
4159.9999749641847
 20
-245.0000000000027
 30
0.0
 11
4086.0
 21
-244.99999999999909
 31
0.0
1001
ACDBBLOCKREPETAG
1070
     1
1071
      115
1005
121C43
  0
LINE
  5
121C44
  8
OBJECT
 10
4159.9999749641847
 20
-154.99999999999909
 30
0.0
 11
4086.0
 21
-154.99999999999909
 31
0.0
1001
ACDBBLOCKREPETAG
1070
     1
1071
      116
1005
121C44
  0
LINE
  5
121C45
  8
OBJECT
 10
4212.9999999999854
 20
-140.99999999999909
 30
0.0
 11
4176.9999999999854
 21
-140.99999999999909
 31
0.0
1001
ACDBBLOCKREPETAG
1070
     1
1071
      117
1005
121C45
  0
LINE
  5
121C46
  8
OBJECT
 10
4176.9999999999854
 20
-140.99999999999909
 30
0.0
 11
4176.9999999999854
 21
-258.99999999999909
 31
0.0
1001
ACDBBLOCKREPETAG
1070
     1
1071
      118
1005
121C46
  0
LINE
  5
121C47
  8
OBJECT
 10
4176.9999999999854
 20
-258.99999999999909
 30
0.0
 11
4212.9999999999854
 21
-258.99999999999909
 31
0.0
1001
ACDBBLOCKREPETAG
1070
     1
1071
      119
1005
121C47
  0
LINE
  5
121C48
  8
OBJECT
 10
4172.9999999999854
 20
-145.49999999999909
 30
0.0
 11
4159.9999999999854
 21
-145.49999999999909
 31
0.0
1001
ACDBBLOCKREPETAG
1070
     1
1071
      120
1005
121C48
  0
LINE
  5
121C49
  8
OBJECT
 10
4159.9999999999854
 20
-254.49999999999909
 30
0.0
 11
4172.9999999999854
 21
-254.49999999999909
 31
0.0
1001
ACDBBLOCKREPETAG
1070
     1
1071
      121
1005
121C49
  0
LINE
  5
121C4A
  8
OBJECT
 10
4172.9999999999854
 20
-254.49999999999909
 30
0.0
 11
4172.9999999999854
 21
-145.49999999999909
 31
0.0
1001
ACDBBLOCKREPETAG
1070
     1
1071
      122
1005
121C4A
  0
LINE
  5
121C4B
  8
OBJECT
 10
4176.9999999999854
 20
-140.99999999999909
 30
0.0
 11
4172.9999999999854
 21
-145.49999999999909
 31
0.0
1001
ACDBBLOCKREPETAG
1070
     1
1071
      123
1005
121C4B
  0
LINE
  5
121C4C
  8
OBJECT
 10
4176.9999999999854
 20
-258.99999999999909
 30
0.0
 11
4172.9999999999854
 21
-254.49999999999909
 31
0.0
1001
ACDBBLOCKREPETAG
1070
     1
1071
      124
1005
121C4C
  0
LINE
  5
121C4D
  8
OBJECT
 10
4083.0
 20
-137.99999999999909
 30
0.0
 11
4080.0
 21
-137.99999999999909
 31
0.0
1001
ACDBBLOCKREPETAG
1070
     1
1071
      125
1005
121C4D
  0
ARC
  5
121C4E
  8
OBJECT
 10
4083.0
 20
-140.99999999999909
 30
0.0
 40
3.0
 50
0.0
 51
90.0
1001
ACDBBLOCKREPETAG
1070
     1
1071
      126
1005
121C4E
  0
LINE
  5
121C4F
  8
OBJECT
 10
4080.0
 20
-261.99999999999909
 30
0.0
 11
4083.0
 21
-261.99999999999909
 31
0.0
1001
ACDBBLOCKREPETAG
1070
     1
1071
      127
1005
121C4F
  0
ARC
  5
121C50
  8
OBJECT
 10
4083.0
 20
-258.99999999999909
 30
0.0
 40
3.0
 50
270.0
 51
0.0
1001
ACDBBLOCKREPETAG
1070
     1
1071
      128
1005
121C50
  0
LINE
  5
121C51
  8
OBJECT
 10
4086.0
 20
-258.99999999999909
 30
0.0
 11
4086.0
 21
-222.44994432063581
 31
0.0
1001
ACDBBLOCKREPETAG
1070
     1
1071
      129
1005
121C51
  0
LINE
  5
121C52
  8
OBJECT
 10
4086.0
 20
-177.55005567935859
 30
0.0
 11
4086.0
 21
-140.99999999999909
 31
0.0
1001
ACDBBLOCKREPETAG
1070
     1
1071
      130
1005
121C52
  0
LINE
  5
121C53
  8
HIDDEN
 10
4167.9999999999854
 20
-155.49999999999909
 30
0.0
 11
4167.9999999999854
 21
-244.49999999999909
 31
0.0
1001
ACDBBLOCKREPETAG
1070
     1
1071
      131
1005
121C53
  0
LINE
  5
121C54
  8
OBJECT
 10
4159.9999749641847
 20
-254.4999509238105
 30
0.0
 11
4159.9999749641847
 21
-145.4999509238105
 31
0.0
1001
ACDBBLOCKREPETAG
1070
     1
1071
      133
1005
121C54
  0
ARC
  5
121C55
  8
OBJECT
 10
4125.0000000000018
 20
-199.99999999999909
 30
0.0
 40
45.000000000000547
 50
90.0
 51
270.0
1001
ACDBBLOCKREPETAG
1070
     1
1071
      134
1005
121C55
  0
LINE
  5
121C56
  8
SLIM
 10
11914.999999999991
 20
-659.47385309434696
 30
0.0
 11
11919.47385309434
 21
-654.99999999999966
 31
0.0
1001
ACAD
1010
0.0
1020
0.0
1030
0.0
1001
ACDBBLOCKREPETAG
1070
     1
1071
        0
1005
0
  0
LINE
  5
121C57
  8
SLIM
 10
11914.999999999991
 20
-677.43436533648446
 30
0.0
 11
11937.434365336479
 21
-654.99999999999966
 31
0.0
1001
ACAD
1010
0.0
1020
0.0
1030
0.0
1001
ACDBBLOCKREPETAG
1070
     1
1071
       10
1005
121C57
  0
LINE
  5
121C58
  8
SLIM
 10
11914.999999999991
 20
-695.39487757862241
 30
0.0
 11
11955.39487757861
 21
-654.99999999999966
 31
0.0
1001
ACAD
1010
0.0
1020
0.0
1030
0.0
1001
ACDBBLOCKREPETAG
1070
     1
1071
       11
1005
121C58
  0
LINE
  5
121C59
  8
SLIM
 10
11914.999999999991
 20
-713.35538982076014
 30
0.0
 11
11973.35538982075
 21
-654.99999999999966
 31
0.0
1001
ACAD
1010
0.0
1020
0.0
1030
0.0
1001
ACDBBLOCKREPETAG
1070
     1
1071
       12
1005
121C59
  0
LINE
  5
121C5A
  8
SLIM
 10
11914.999999999991
 20
-731.31590206289775
 30
0.0
 11
11991.31590206289
 21
-654.99999999999966
 31
0.0
1001
ACAD
1010
0.0
1020
0.0
1030
0.0
1001
ACDBBLOCKREPETAG
1070
     1
1071
       13
1005
121C5A
  0
LINE
  5
121C5B
  8
SLIM
 10
11915.0
 20
-749.27641430503525
 30
0.0
 11
12009.27641430503
 21
-654.99999999999966
 31
0.0
1001
ACAD
1010
0.0
1020
0.0
1030
0.0
1001
ACDBBLOCKREPETAG
1070
     1
1071
       14
1005
121C5B
  0
LINE
  5
121C5C
  8
SLIM
 10
11915.0
 20
-767.23692654717331
 30
0.0
 11
12027.23692654717
 21
-654.99999999999966
 31
0.0
1001
ACAD
1010
0.0
1020
0.0
1030
0.0
1001
ACDBBLOCKREPETAG
1070
     1
1071
       15
1005
121C5C
  0
LINE
  5
121C5D
  8
SLIM
 10
11915.0
 20
-785.19743878931081
 30
0.0
 11
12045.19743878931
 21
-654.99999999999966
 31
0.0
1001
ACAD
1010
0.0
1020
0.0
1030
0.0
1001
ACDBBLOCKREPETAG
1070
     1
1071
       16
1005
121C5D
  0
LINE
  5
121C5E
  8
SLIM
 10
11915.0
 20
-803.15795103144865
 30
0.0
 11
12063.15795103144
 21
-654.99999999999966
 31
0.0
1001
ACAD
1010
0.0
1020
0.0
1030
0.0
1001
ACDBBLOCKREPETAG
1070
     1
1071
       17
1005
121C5E
  0
LINE
  5
121C5F
  8
SLIM
 10
11915.0
 20
-821.11846327358626
 30
0.0
 11
12081.11846327358
 21
-654.99999999999966
 31
0.0
1001
ACAD
1010
0.0
1020
0.0
1030
0.0
1001
ACDBBLOCKREPETAG
1070
     1
1071
       18
1005
121C5F
  0
LINE
  5
121C60
  8
SLIM
 10
11915.0
 20
-839.07897551572387
 30
0.0
 11
12085.000000000009
 21
-669.07897551571614
 31
0.0
1001
ACAD
1010
0.0
1020
0.0
1030
0.0
1001
ACDBBLOCKREPETAG
1070
     1
1071
       19
1005
121C60
  0
LINE
  5
121C61
  8
SLIM
 10
11915.0
 20
-857.03948775786182
 30
0.0
 11
12085.0
 21
-687.03948775785511
 31
0.0
1001
ACAD
1010
0.0
1020
0.0
1030
0.0
1001
ACDBBLOCKREPETAG
1070
     1
1071
       20
1005
121C61
  0
LINE
  5
121C62
  8
SLIM
 10
11915.28360074955
 20
-874.71639925044155
 30
0.0
 11
12085.0
 21
-704.99999999999409
 31
0.0
1001
ACAD
1010
0.0
1020
0.0
1030
0.0
1001
ACDBBLOCKREPETAG
1070
     1
1071
       21
1005
121C62
  0
LINE
  5
121C63
  8
SLIM
 10
11917.49791047804
 20
-890.46260176409692
 30
0.0
 11
12085.0
 21
-722.96051224213272
 31
0.0
1001
ACAD
1010
0.0
1020
0.0
1030
0.0
1001
ACDBBLOCKREPETAG
1070
     1
1071
       22
1005
121C63
  0
LINE
  5
121C64
  8
SLIM
 10
11919.71222020652
 20
-906.20880427775239
 30
0.0
 11
12085.0
 21
-740.92102448427181
 31
0.0
1001
ACAD
1010
0.0
1020
0.0
1030
0.0
1001
ACDBBLOCKREPETAG
1070
     1
1071
       23
1005
121C64
  0
LINE
  5
121C65
  8
SLIM
 10
11921.926529935001
 20
-921.95500679140764
 30
0.0
 11
12085.0
 21
-758.88153672641045
 31
0.0
1001
ACAD
1010
0.0
1020
0.0
1030
0.0
1001
ACDBBLOCKREPETAG
1070
     1
1071
       24
1005
121C65
  0
LINE
  5
121C66
  8
SLIM
 10
11924.140839663491
 20
-937.701209305063
 30
0.0
 11
12085.0
 21
-776.84204896854953
 31
0.0
1001
ACAD
1010
0.0
1020
0.0
1030
0.0
1001
ACDBBLOCKREPETAG
1070
     1
1071
       25
1005
121C66
  0
LINE
  5
121C67
  8
SLIM
 10
11926.35514939196
 20
-953.44741181871825
 30
0.0
 11
12085.0
 21
-794.80256121068851
 31
0.0
1001
ACAD
1010
0.0
1020
0.0
1030
0.0
1001
ACDBBLOCKREPETAG
1070
     1
1071
       26
1005
121C67
  0
LINE
  5
121C68
  8
SLIM
 10
11928.56945912045
 20
-969.19361433237384
 30
0.0
 11
12085.0
 21
-812.76307345282714
 31
0.0
1001
ACAD
1010
0.0
1020
0.0
1030
0.0
1001
ACDBBLOCKREPETAG
1070
     1
1071
       27
1005
121C68
  0
LINE
  5
121C69
  8
SLIM
 10
11930.78376884894
 20
-984.93981684602909
 30
0.0
 11
12085.0
 21
-830.72358569496612
 31
0.0
1001
ACAD
1010
0.0
1020
0.0
1030
0.0
1001
ACDBBLOCKREPETAG
1070
     1
1071
       28
1005
121C69
  0
LINE
  5
121C6A
  8
SLIM
 10
11932.998078577421
 20
-1000.686019359684
 30
0.0
 11
12085.0
 21
-848.68409793710521
 31
0.0
1001
ACAD
1010
0.0
1020
0.0
1030
0.0
1001
ACDBBLOCKREPETAG
1070
     1
1071
       29
1005
121C6A
  0
LINE
  5
121C6B
  8
SLIM
 10
11932.999999999991
 20
-1018.644610179251
 30
0.0
 11
12085.0
 21
-866.64461017924395
 31
0.0
1001
ACAD
1010
0.0
1020
0.0
1030
0.0
1001
ACDBBLOCKREPETAG
1070
     1
1071
       30
1005
121C6B
  0
LINE
  5
121C6C
  8
SLIM
 10
11932.999999999991
 20
-1036.60512242139
 30
0.0
 11
12083.05183715436
 21
-886.55328526701646
 31
0.0
1001
ACAD
1010
0.0
1020
0.0
1030
0.0
1001
ACDBBLOCKREPETAG
1070
     1
1071
       31
1005
121C6C
  0
LINE
  5
121C6D
  8
SLIM
 10
11942.565634663521
 20
-1044.9999999999959
 30
0.0
 11
12080.112844242019
 21
-907.45279042150355
 31
0.0
1001
ACAD
1010
0.0
1020
0.0
1030
0.0
1001
ACDBBLOCKREPETAG
1070
     1
1071
       32
1005
121C6D
  0
LINE
  5
121C6E
  8
SLIM
 10
11960.52614690566
 20
-1044.9999999999959
 30
0.0
 11
12077.17385132967
 21
-928.35229557599109
 31
0.0
1001
ACAD
1010
0.0
1020
0.0
1030
0.0
1001
ACDBBLOCKREPETAG
1070
     1
1071
       33
1005
121C6E
  0
LINE
  5
121C6F
  8
SLIM
 10
11978.4866591478
 20
-1044.999999999997
 30
0.0
 11
12074.23485841732
 21
-949.25180073047841
 31
0.0
1001
ACAD
1010
0.0
1020
0.0
1030
0.0
1001
ACDBBLOCKREPETAG
1070
     1
1071
       34
1005
121C6F
  0
LINE
  5
121C70
  8
SLIM
 10
11996.44717138994
 20
-1044.999999999998
 30
0.0
 11
12071.29586550497
 21
-970.15130588496572
 31
0.0
1001
ACAD
1010
0.0
1020
0.0
1030
0.0
1001
ACDBBLOCKREPETAG
1070
     1
1071
       35
1005
121C70
  0
LINE
  5
121C71
  8
SLIM
 10
12014.40768363208
 20
-1044.999999999998
 30
0.0
 11
12068.35687259262
 21
-991.05081103945292
 31
0.0
1001
ACAD
1010
0.0
1020
0.0
1030
0.0
1001
ACDBBLOCKREPETAG
1070
     1
1071
       36
1005
121C71
  0
LINE
  5
121C72
  8
SLIM
 10
12032.368195874211
 20
-1044.9999999999991
 30
0.0
 11
12067.0
 21
-1010.368195874201
 31
0.0
1001
ACAD
1010
0.0
1020
0.0
1030
0.0
1001
ACDBBLOCKREPETAG
1070
     1
1071
       37
1005
121C72
  0
LINE
  5
121C73
  8
SLIM
 10
12050.328708116351
 20
-1044.9999999999991
 30
0.0
 11
12067.0
 21
-1028.3287081163401
 31
0.0
1001
ACAD
1010
0.0
1020
0.0
1030
0.0
1001
ACDBBLOCKREPETAG
1070
     1
1071
       38
1005
121C73
  0
LINE
  5
121C74
  8
OBJECT
 10
11932.999999999991
 20
-1044.9999999999959
 30
0.0
 11
12067.0
 21
-1044.9999999999991
 31
0.0
1001
ACDBBLOCKREPETAG
1070
     1
1071
        1
1005
121C74
  0
LINE
  5
121C75
  8
OBJECT
 10
11914.999999999991
 20
-654.99999999999966
 30
0.0
 11
11915.0
 21
-872.69968280914077
 31
0.0
1001
ACDBBLOCKREPETAG
1070
     1
1071
        2
1005
121C75
  0
LINE
  5
121C76
  8
OBJECT
 10
12085.000000000009
 20
-654.99999999999966
 30
0.0
 11
12085.0
 21
-872.69968280917192
 31
0.0
1001
ACDBBLOCKREPETAG
1070
     1
1071
        3
1005
121C76
  0
LINE
  5
121C77
  8
OBJECT
 10
11915.0
 20
-872.69968280914077
 30
0.0
 11
11932.999999999991
 21
-1000.699682809081
 31
0.0
1001
ACDBBLOCKREPETAG
1070
     1
1071
        4
1005
121C77
  0
LINE
  5
121C78
  8
OBJECT
 10
12067.0
 20
-1000.699682809128
 30
0.0
 11
12085.0
 21
-872.69968280917192
 31
0.0
1001
ACDBBLOCKREPETAG
1070
     1
1071
        5
1005
121C78
  0
LINE
  5
121C79
  8
OBJECT
 10
12085.000000000009
 20
-654.99999999999966
 30
0.0
 11
11914.999999999991
 21
-654.99999999999966
 31
0.0
1001
ACDBBLOCKREPETAG
1070
     1
1071
        6
1005
121C79
  0
LINE
  5
121C7A
  8
OBJECT
 10
11932.999999999991
 20
-1000.699682809081
 30
0.0
 11
11932.999999999991
 21
-1044.9999999999959
 31
0.0
1001
ACDBBLOCKREPETAG
1070
     1
1071
        8
1005
121C7A
  0
LINE
  5
121C7B
  8
OBJECT
 10
12067.0
 20
-1000.699682809128
 30
0.0
 11
12067.0
 21
-1044.9999999999991
 31
0.0
1001
ACDBBLOCKREPETAG
1070
     1
1071
        9
1005
121C7B
  0
LINE
  5
121C7C
  8
SLIM
 10
9914.9999999999927
 20
-659.47385309434696
 30
0.0
 11
9919.4738530943396
 21
-654.99999999999966
 31
0.0
1001
ACAD
1010
0.0
1020
0.0
1030
0.0
1001
ACDBBLOCKREPETAG
1070
     1
1071
        0
1005
0
  0
LINE
  5
121C7D
  8
SLIM
 10
9914.9999999999927
 20
-677.43436533648446
 30
0.0
 11
9937.4343653364795
 21
-654.99999999999966
 31
0.0
1001
ACAD
1010
0.0
1020
0.0
1030
0.0
1001
ACDBBLOCKREPETAG
1070
     1
1071
       10
1005
121C7D
  0
LINE
  5
121C7E
  8
SLIM
 10
9914.9999999999945
 20
-695.39487757862241
 30
0.0
 11
9955.3948775786212
 21
-654.99999999999966
 31
0.0
1001
ACAD
1010
0.0
1020
0.0
1030
0.0
1001
ACDBBLOCKREPETAG
1070
     1
1071
       11
1005
121C7E
  0
LINE
  5
121C7F
  8
SLIM
 10
9914.9999999999945
 20
-713.35538982076014
 30
0.0
 11
9973.3553898207556
 21
-654.99999999999966
 31
0.0
1001
ACAD
1010
0.0
1020
0.0
1030
0.0
1001
ACDBBLOCKREPETAG
1070
     1
1071
       12
1005
121C7F
  0
LINE
  5
121C80
  8
SLIM
 10
9914.9999999999945
 20
-731.31590206289775
 30
0.0
 11
9991.3159020628937
 21
-654.99999999999966
 31
0.0
1001
ACAD
1010
0.0
1020
0.0
1030
0.0
1001
ACDBBLOCKREPETAG
1070
     1
1071
       13
1005
121C80
  0
LINE
  5
121C81
  8
SLIM
 10
9914.9999999999964
 20
-749.27641430503525
 30
0.0
 11
10009.27641430503
 21
-654.99999999999966
 31
0.0
1001
ACAD
1010
0.0
1020
0.0
1030
0.0
1001
ACDBBLOCKREPETAG
1070
     1
1071
       14
1005
121C81
  0
LINE
  5
121C82
  8
SLIM
 10
9914.9999999999964
 20
-767.23692654717331
 30
0.0
 11
10027.23692654717
 21
-654.99999999999966
 31
0.0
1001
ACAD
1010
0.0
1020
0.0
1030
0.0
1001
ACDBBLOCKREPETAG
1070
     1
1071
       15
1005
121C82
  0
LINE
  5
121C83
  8
SLIM
 10
9914.9999999999964
 20
-785.19743878931081
 30
0.0
 11
10045.19743878931
 21
-654.99999999999966
 31
0.0
1001
ACAD
1010
0.0
1020
0.0
1030
0.0
1001
ACDBBLOCKREPETAG
1070
     1
1071
       16
1005
121C83
  0
LINE
  5
121C84
  8
SLIM
 10
9914.9999999999982
 20
-803.15795103144865
 30
0.0
 11
10063.15795103144
 21
-654.99999999999966
 31
0.0
1001
ACAD
1010
0.0
1020
0.0
1030
0.0
1001
ACDBBLOCKREPETAG
1070
     1
1071
       17
1005
121C84
  0
LINE
  5
121C85
  8
SLIM
 10
9914.9999999999982
 20
-821.11846327358626
 30
0.0
 11
10081.11846327358
 21
-654.99999999999966
 31
0.0
1001
ACAD
1010
0.0
1020
0.0
1030
0.0
1001
ACDBBLOCKREPETAG
1070
     1
1071
       18
1005
121C85
  0
LINE
  5
121C86
  8
SLIM
 10
9914.9999999999982
 20
-839.07897551572387
 30
0.0
 11
10085.000000000009
 21
-669.07897551571614
 31
0.0
1001
ACAD
1010
0.0
1020
0.0
1030
0.0
1001
ACDBBLOCKREPETAG
1070
     1
1071
       19
1005
121C86
  0
LINE
  5
121C87
  8
SLIM
 10
9915.0
 20
-857.03948775786182
 30
0.0
 11
10085.0
 21
-687.03948775785511
 31
0.0
1001
ACAD
1010
0.0
1020
0.0
1030
0.0
1001
ACDBBLOCKREPETAG
1070
     1
1071
       20
1005
121C87
  0
LINE
  5
121C88
  8
SLIM
 10
9915.2836007495607
 20
-874.71639925044155
 30
0.0
 11
10085.0
 21
-704.99999999999409
 31
0.0
1001
ACAD
1010
0.0
1020
0.0
1030
0.0
1001
ACDBBLOCKREPETAG
1070
     1
1071
       21
1005
121C88
  0
LINE
  5
121C89
  8
SLIM
 10
9917.4979104780396
 20
-890.46260176409692
 30
0.0
 11
10085.0
 21
-722.96051224213272
 31
0.0
1001
ACAD
1010
0.0
1020
0.0
1030
0.0
1001
ACDBBLOCKREPETAG
1070
     1
1071
       22
1005
121C89
  0
LINE
  5
121C8A
  8
SLIM
 10
9919.7122202065257
 20
-906.20880427775239
 30
0.0
 11
10085.0
 21
-740.92102448427181
 31
0.0
1001
ACAD
1010
0.0
1020
0.0
1030
0.0
1001
ACDBBLOCKREPETAG
1070
     1
1071
       23
1005
121C8A
  0
LINE
  5
121C8B
  8
SLIM
 10
9921.9265299350063
 20
-921.95500679140764
 30
0.0
 11
10085.0
 21
-758.88153672641045
 31
0.0
1001
ACAD
1010
0.0
1020
0.0
1030
0.0
1001
ACDBBLOCKREPETAG
1070
     1
1071
       24
1005
121C8B
  0
LINE
  5
121C8C
  8
SLIM
 10
9924.1408396634924
 20
-937.701209305063
 30
0.0
 11
10085.0
 21
-776.84204896854953
 31
0.0
1001
ACAD
1010
0.0
1020
0.0
1030
0.0
1001
ACDBBLOCKREPETAG
1070
     1
1071
       25
1005
121C8C
  0
LINE
  5
121C8D
  8
SLIM
 10
9926.3551493919731
 20
-953.44741181871825
 30
0.0
 11
10085.0
 21
-794.80256121068851
 31
0.0
1001
ACAD
1010
0.0
1020
0.0
1030
0.0
1001
ACDBBLOCKREPETAG
1070
     1
1071
       26
1005
121C8D
  0
LINE
  5
121C8E
  8
SLIM
 10
9928.5694591204574
 20
-969.19361433237384
 30
0.0
 11
10085.0
 21
-812.76307345282714
 31
0.0
1001
ACAD
1010
0.0
1020
0.0
1030
0.0
1001
ACDBBLOCKREPETAG
1070
     1
1071
       27
1005
121C8E
  0
LINE
  5
121C8F
  8
SLIM
 10
9930.7837688489417
 20
-984.93981684602909
 30
0.0
 11
10085.0
 21
-830.72358569496612
 31
0.0
1001
ACAD
1010
0.0
1020
0.0
1030
0.0
1001
ACDBBLOCKREPETAG
1070
     1
1071
       28
1005
121C8F
  0
LINE
  5
121C90
  8
SLIM
 10
9932.9980785774187
 20
-1000.686019359684
 30
0.0
 11
10085.0
 21
-848.68409793710521
 31
0.0
1001
ACAD
1010
0.0
1020
0.0
1030
0.0
1001
ACDBBLOCKREPETAG
1070
     1
1071
       29
1005
121C90
  0
LINE
  5
121C91
  8
SLIM
 10
9932.9999999999927
 20
-1018.644610179251
 30
0.0
 11
10085.0
 21
-866.64461017924395
 31
0.0
1001
ACAD
1010
0.0
1020
0.0
1030
0.0
1001
ACDBBLOCKREPETAG
1070
     1
1071
       30
1005
121C91
  0
LINE
  5
121C92
  8
SLIM
 10
9932.9999999999927
 20
-1036.60512242139
 30
0.0
 11
10083.05183715436
 21
-886.55328526701646
 31
0.0
1001
ACAD
1010
0.0
1020
0.0
1030
0.0
1001
ACDBBLOCKREPETAG
1070
     1
1071
       31
1005
121C92
  0
LINE
  5
121C93
  8
SLIM
 10
9942.5656346635242
 20
-1044.9999999999959
 30
0.0
 11
10080.11284424201
 21
-907.45279042150355
 31
0.0
1001
ACAD
1010
0.0
1020
0.0
1030
0.0
1001
ACDBBLOCKREPETAG
1070
     1
1071
       32
1005
121C93
  0
LINE
  5
121C94
  8
SLIM
 10
9960.5261469056641
 20
-1044.9999999999959
 30
0.0
 11
10077.17385132967
 21
-928.35229557599109
 31
0.0
1001
ACAD
1010
0.0
1020
0.0
1030
0.0
1001
ACDBBLOCKREPETAG
1070
     1
1071
       33
1005
121C94
  0
LINE
  5
121C95
  8
SLIM
 10
9978.4866591478003
 20
-1044.999999999997
 30
0.0
 11
10074.23485841732
 21
-949.25180073047841
 31
0.0
1001
ACAD
1010
0.0
1020
0.0
1030
0.0
1001
ACDBBLOCKREPETAG
1070
     1
1071
       34
1005
121C95
  0
LINE
  5
121C96
  8
SLIM
 10
9996.4471713899384
 20
-1044.999999999998
 30
0.0
 11
10071.29586550497
 21
-970.15130588496572
 31
0.0
1001
ACAD
1010
0.0
1020
0.0
1030
0.0
1001
ACDBBLOCKREPETAG
1070
     1
1071
       35
1005
121C96
  0
LINE
  5
121C97
  8
SLIM
 10
10014.40768363206
 20
-1044.999999999998
 30
0.0
 11
10068.35687259262
 21
-991.05081103945292
 31
0.0
1001
ACAD
1010
0.0
1020
0.0
1030
0.0
1001
ACDBBLOCKREPETAG
1070
     1
1071
       36
1005
121C97
  0
LINE
  5
121C98
  8
SLIM
 10
10032.368195874211
 20
-1044.9999999999991
 30
0.0
 11
10067.000000000009
 21
-1010.368195874201
 31
0.0
1001
ACAD
1010
0.0
1020
0.0
1030
0.0
1001
ACDBBLOCKREPETAG
1070
     1
1071
       37
1005
121C98
  0
LINE
  5
121C99
  8
SLIM
 10
10050.328708116351
 20
-1044.9999999999991
 30
0.0
 11
10067.000000000009
 21
-1028.3287081163401
 31
0.0
1001
ACAD
1010
0.0
1020
0.0
1030
0.0
1001
ACDBBLOCKREPETAG
1070
     1
1071
       38
1005
121C99
  0
LINE
  5
121C9A
  8
OBJECT
 10
9932.9999999999927
 20
-1044.9999999999959
 30
0.0
 11
10067.000000000009
 21
-1044.9999999999991
 31
0.0
1001
ACDBBLOCKREPETAG
1070
     1
1071
        1
1005
121C9A
  0
LINE
  5
121C9B
  8
OBJECT
 10
9914.9999999999927
 20
-654.99999999999966
 30
0.0
 11
9915.0
 21
-872.69968280914077
 31
0.0
1001
ACDBBLOCKREPETAG
1070
     1
1071
        2
1005
121C9B
  0
LINE
  5
121C9C
  8
OBJECT
 10
10085.000000000009
 20
-654.99999999999966
 30
0.0
 11
10085.0
 21
-872.69968280917192
 31
0.0
1001
ACDBBLOCKREPETAG
1070
     1
1071
        3
1005
121C9C
  0
LINE
  5
121C9D
  8
OBJECT
 10
9915.0
 20
-872.69968280914077
 30
0.0
 11
9932.9999999999927
 21
-1000.699682809081
 31
0.0
1001
ACDBBLOCKREPETAG
1070
     1
1071
        4
1005
121C9D
  0
LINE
  5
121C9E
  8
OBJECT
 10
10067.000000000009
 20
-1000.699682809128
 30
0.0
 11
10085.0
 21
-872.69968280917192
 31
0.0
1001
ACDBBLOCKREPETAG
1070
     1
1071
        5
1005
121C9E
  0
LINE
  5
121C9F
  8
OBJECT
 10
10085.000000000009
 20
-654.99999999999966
 30
0.0
 11
9914.9999999999927
 21
-654.99999999999966
 31
0.0
1001
ACDBBLOCKREPETAG
1070
     1
1071
        6
1005
121C9F
  0
LINE
  5
121CA0
  8
OBJECT
 10
9932.9999999999927
 20
-1000.699682809081
 30
0.0
 11
9932.9999999999927
 21
-1044.9999999999959
 31
0.0
1001
ACDBBLOCKREPETAG
1070
     1
1071
        8
1005
121CA0
  0
LINE
  5
121CA1
  8
OBJECT
 10
10067.000000000009
 20
-1000.699682809128
 30
0.0
 11
10067.000000000009
 21
-1044.9999999999991
 31
0.0
1001
ACDBBLOCKREPETAG
1070
     1
1071
        9
1005
121CA1
  0
LINE
  5
121CA2
  8
SLIM
 10
7914.9999999999918
 20
-659.47385309434696
 30
0.0
 11
7919.4738530943414
 21
-654.99999999999966
 31
0.0
1001
ACAD
1010
0.0
1020
0.0
1030
0.0
1001
ACDBBLOCKREPETAG
1070
     1
1071
        0
1005
0
  0
LINE
  5
121CA3
  8
SLIM
 10
7914.9999999999918
 20
-677.43436533648446
 30
0.0
 11
7937.4343653364776
 21
-654.99999999999966
 31
0.0
1001
ACAD
1010
0.0
1020
0.0
1030
0.0
1001
ACDBBLOCKREPETAG
1070
     1
1071
       11
1005
121CA3
  0
LINE
  5
121CA4
  8
SLIM
 10
7914.9999999999918
 20
-695.39487757862241
 30
0.0
 11
7955.3948775786157
 21
-654.99999999999966
 31
0.0
1001
ACAD
1010
0.0
1020
0.0
1030
0.0
1001
ACDBBLOCKREPETAG
1070
     1
1071
       12
1005
121CA4
  0
LINE
  5
121CA5
  8
SLIM
 10
7914.9999999999964
 20
-713.35538982076014
 30
0.0
 11
7973.3553898207538
 21
-654.99999999999966
 31
0.0
1001
ACAD
1010
0.0
1020
0.0
1030
0.0
1001
ACDBBLOCKREPETAG
1070
     1
1071
       13
1005
121CA5
  0
LINE
  5
121CA6
  8
SLIM
 10
7914.9999999999982
 20
-731.31590206289775
 30
0.0
 11
7991.3159020628918
 21
-654.99999999999966
 31
0.0
1001
ACAD
1010
0.0
1020
0.0
1030
0.0
1001
ACDBBLOCKREPETAG
1070
     1
1071
       14
1005
121CA6
  0
LINE
  5
121CA7
  8
SLIM
 10
7914.9999999999982
 20
-749.27641430503525
 30
0.0
 11
8009.2764143050308
 21
-654.99999999999966
 31
0.0
1001
ACAD
1010
0.0
1020
0.0
1030
0.0
1001
ACDBBLOCKREPETAG
1070
     1
1071
       15
1005
121CA7
  0
LINE
  5
121CA8
  8
SLIM
 10
7914.9999999999982
 20
-767.23692654717331
 30
0.0
 11
8027.2369265471707
 21
-654.99999999999966
 31
0.0
1001
ACAD
1010
0.0
1020
0.0
1030
0.0
1001
ACDBBLOCKREPETAG
1070
     1
1071
       16
1005
121CA8
  0
LINE
  5
121CA9
  8
SLIM
 10
7914.9999999999982
 20
-785.19743878931081
 30
0.0
 11
8045.1974387893079
 21
-654.99999999999966
 31
0.0
1001
ACAD
1010
0.0
1020
0.0
1030
0.0
1001
ACDBBLOCKREPETAG
1070
     1
1071
       17
1005
121CA9
  0
LINE
  5
121CAA
  8
SLIM
 10
7914.9999999999982
 20
-803.15795103144865
 30
0.0
 11
8063.1579510314468
 21
-654.99999999999966
 31
0.0
1001
ACAD
1010
0.0
1020
0.0
1030
0.0
1001
ACDBBLOCKREPETAG
1070
     1
1071
       18
1005
121CAA
  0
LINE
  5
121CAB
  8
SLIM
 10
7914.9999999999982
 20
-821.11846327358626
 30
0.0
 11
8081.118463273584
 21
-654.99999999999966
 31
0.0
1001
ACAD
1010
0.0
1020
0.0
1030
0.0
1001
ACDBBLOCKREPETAG
1070
     1
1071
       19
1005
121CAB
  0
LINE
  5
121CAC
  8
SLIM
 10
7914.9999999999982
 20
-839.07897551572387
 30
0.0
 11
8085.0000000000064
 21
-669.07897551571614
 31
0.0
1001
ACAD
1010
0.0
1020
0.0
1030
0.0
1001
ACDBBLOCKREPETAG
1070
     1
1071
       20
1005
121CAC
  0
LINE
  5
121CAD
  8
SLIM
 10
7914.9999999999982
 20
-857.03948775786182
 30
0.0
 11
8085.0000000000064
 21
-687.039487757855
 31
0.0
1001
ACAD
1010
0.0
1020
0.0
1030
0.0
1001
ACDBBLOCKREPETAG
1070
     1
1071
       21
1005
121CAD
  0
LINE
  5
121CAE
  8
SLIM
 10
7915.283600749558
 20
-874.71639925044155
 30
0.0
 11
8085.0000000000064
 21
-704.99999999999409
 31
0.0
1001
ACAD
1010
0.0
1020
0.0
1030
0.0
1001
ACDBBLOCKREPETAG
1070
     1
1071
       22
1005
121CAE
  0
LINE
  5
121CAF
  8
SLIM
 10
7917.4979104780423
 20
-890.46260176409692
 30
0.0
 11
8085.0000000000064
 21
-722.96051224213272
 31
0.0
1001
ACAD
1010
0.0
1020
0.0
1030
0.0
1001
ACDBBLOCKREPETAG
1070
     1
1071
       23
1005
121CAF
  0
LINE
  5
121CB0
  8
SLIM
 10
7919.7122202065239
 20
-906.20880427775205
 30
0.0
 11
8085.0000000000064
 21
-740.92102448427181
 31
0.0
1001
ACAD
1010
0.0
1020
0.0
1030
0.0
1001
ACDBBLOCKREPETAG
1070
     1
1071
       24
1005
121CB0
  0
LINE
  5
121CB1
  8
SLIM
 10
7921.9265299350072
 20
-921.95500679140719
 30
0.0
 11
8085.0000000000018
 21
-758.88153672641045
 31
0.0
1001
ACAD
1010
0.0
1020
0.0
1030
0.0
1001
ACDBBLOCKREPETAG
1070
     1
1071
       25
1005
121CB1
  0
LINE
  5
121CB2
  8
SLIM
 10
7924.1408396634897
 20
-937.70120930506255
 30
0.0
 11
8085.0000000000018
 21
-776.84204896854953
 31
0.0
1001
ACAD
1010
0.0
1020
0.0
1030
0.0
1001
ACDBBLOCKREPETAG
1070
     1
1071
       26
1005
121CB2
  0
LINE
  5
121CB3
  8
SLIM
 10
7926.3551493919731
 20
-953.4474118187178
 30
0.0
 11
8085.0000000000018
 21
-794.80256121068851
 31
0.0
1001
ACAD
1010
0.0
1020
0.0
1030
0.0
1001
ACDBBLOCKREPETAG
1070
     1
1071
       27
1005
121CB3
  0
LINE
  5
121CB4
  8
SLIM
 10
7928.5694591204538
 20
-969.19361433237304
 30
0.0
 11
8085.0000000000018
 21
-812.76307345282714
 31
0.0
1001
ACAD
1010
0.0
1020
0.0
1030
0.0
1001
ACDBBLOCKREPETAG
1070
     1
1071
       28
1005
121CB4
  0
LINE
  5
121CB5
  8
SLIM
 10
7930.783768848939
 20
-984.93981684602841
 30
0.0
 11
8085.0000000000018
 21
-830.72358569496612
 31
0.0
1001
ACAD
1010
0.0
1020
0.0
1030
0.0
1001
ACDBBLOCKREPETAG
1070
     1
1071
       29
1005
121CB5
  0
LINE
  5
121CB6
  8
SLIM
 10
7932.9980785774214
 20
-1000.686019359684
 30
0.0
 11
8085.0
 21
-848.68409793710521
 31
0.0
1001
ACAD
1010
0.0
1020
0.0
1030
0.0
1001
ACDBBLOCKREPETAG
1070
     1
1071
       30
1005
121CB6
  0
LINE
  5
121CB7
  8
SLIM
 10
7943.0
 20
-1008.644610179244
 30
0.0
 11
7946.6446101792453
 21
-1004.999999999998
 31
0.0
1001
ACAD
1010
0.0
1020
0.0
1030
0.0
1001
ACDBBLOCKREPETAG
1070
     1
1071
       31
1005
121CB7
  0
LINE
  5
121CB8
  8
SLIM
 10
7946.6446101792453
 20
-1004.999999999998
 30
0.0
 11
8085.0
 21
-866.64461017924395
 31
0.0
1001
ACAD
1010
0.0
1020
0.0
1030
0.0
1001
ACDBBLOCKREPETAG
1070
     1
1071
       32
1005
121CB8
  0
LINE
  5
121CB9
  8
SLIM
 10
7944.6051224213861
 20
-1024.999999999997
 30
0.0
 11
7964.6051224213852
 21
-1004.999999999998
 31
0.0
1001
ACAD
1010
0.0
1020
0.0
1030
0.0
1001
ACDBBLOCKREPETAG
1070
     1
1071
       33
1005
121CB9
  0
LINE
  5
121CBA
  8
SLIM
 10
7964.6051224213852
 20
-1004.999999999998
 30
0.0
 11
8083.051837154364
 21
-886.55328526701703
 31
0.0
1001
ACAD
1010
0.0
1020
0.0
1030
0.0
1001
ACDBBLOCKREPETAG
1070
     1
1071
       34
1005
121CBA
  0
LINE
  5
121CBB
  8
SLIM
 10
7962.5656346635242
 20
-1024.999999999997
 30
0.0
 11
7982.5656346635215
 21
-1004.999999999998
 31
0.0
1001
ACAD
1010
0.0
1020
0.0
1030
0.0
1001
ACDBBLOCKREPETAG
1070
     1
1071
       35
1005
121CBB
  0
LINE
  5
121CBC
  8
SLIM
 10
7982.5656346635215
 20
-1004.999999999998
 30
0.0
 11
8080.1128442420159
 21
-907.45279042150526
 31
0.0
1001
ACAD
1010
0.0
1020
0.0
1030
0.0
1001
ACDBBLOCKREPETAG
1070
     1
1071
       36
1005
121CBC
  0
LINE
  5
121CBD
  8
SLIM
 10
7980.5261469056622
 20
-1024.999999999997
 30
0.0
 11
8000.5261469056613
 21
-1004.999999999998
 31
0.0
1001
ACAD
1010
0.0
1020
0.0
1030
0.0
1001
ACDBBLOCKREPETAG
1070
     1
1071
       37
1005
121CBD
  0
LINE
  5
121CBE
  8
SLIM
 10
8000.5261469056613
 20
-1004.999999999998
 30
0.0
 11
8077.1738513296659
 21
-928.35229557599314
 31
0.0
1001
ACAD
1010
0.0
1020
0.0
1030
0.0
1001
ACDBBLOCKREPETAG
1070
     1
1071
       38
1005
121CBE
  0
LINE
  5
121CBF
  8
SLIM
 10
7998.4866591478003
 20
-1024.999999999997
 30
0.0
 11
8018.4866591478003
 21
-1004.999999999998
 31
0.0
1001
ACAD
1010
0.0
1020
0.0
1030
0.0
1001
ACDBBLOCKREPETAG
1070
     1
1071
       39
1005
121CBF
  0
LINE
  5
121CC0
  8
SLIM
 10
8018.4866591478003
 20
-1004.999999999998
 30
0.0
 11
8074.234858417316
 21
-949.25180073048125
 31
0.0
1001
ACAD
1010
0.0
1020
0.0
1030
0.0
1001
ACDBBLOCKREPETAG
1070
     1
1071
       40
1005
121CC0
  0
LINE
  5
121CC1
  8
SLIM
 10
8016.4471713899393
 20
-1024.999999999997
 30
0.0
 11
8036.4471713899393
 21
-1004.999999999998
 31
0.0
1001
ACAD
1010
0.0
1020
0.0
1030
0.0
1001
ACDBBLOCKREPETAG
1070
     1
1071
       41
1005
121CC1
  0
LINE
  5
121CC2
  8
SLIM
 10
8036.4471713899393
 20
-1004.999999999998
 30
0.0
 11
8071.2958655049679
 21
-970.15130588496913
 31
0.0
1001
ACAD
1010
0.0
1020
0.0
1030
0.0
1001
ACDBBLOCKREPETAG
1070
     1
1071
       42
1005
121CC2
  0
LINE
  5
121CC3
  8
SLIM
 10
8034.4076836320774
 20
-1024.999999999997
 30
0.0
 11
8054.4076836320764
 21
-1004.999999999998
 31
0.0
1001
ACAD
1010
0.0
1020
0.0
1030
0.0
1001
ACDBBLOCKREPETAG
1070
     1
1071
       43
1005
121CC3
  0
LINE
  5
121CC4
  8
SLIM
 10
8054.4076836320764
 20
-1004.999999999998
 30
0.0
 11
8068.3568725926198
 21
-991.05081103945713
 31
0.0
1001
ACAD
1010
0.0
1020
0.0
1030
0.0
1001
ACDBBLOCKREPETAG
1070
     1
1071
       44
1005
121CC4
  0
LINE
  5
121CC5
  8
SLIM
 10
8052.3681958742136
 20
-1024.999999999997
 30
0.0
 11
8057.0
 21
-1020.368195874212
 31
0.0
1001
ACAD
1010
0.0
1020
0.0
1030
0.0
1001
ACDBBLOCKREPETAG
1070
     1
1071
       45
1005
121CC5
  0
LINE
  5
121CC6
  8
OBJECT
 10
7943.0
 20
-1024.999999999997
 30
0.0
 11
8057.0
 21
-1024.999999999997
 31
0.0
1001
ACDBBLOCKREPETAG
1070
     1
1071
        1
1005
121CC6
  0
LINE
  5
121CC7
  8
OBJECT
 10
7933.6047321049664
 20
-1004.999999999998
 30
0.0
 11
8066.3952678950427
 21
-1004.999999999998
 31
0.0
1001
ACDBBLOCKREPETAG
1070
     1
1071
        2
1005
121CC7
  0
LINE
  5
121CC8
  8
OBJECT
 10
7943.0
 20
-1024.999999999997
 30
0.0
 11
7943.0
 21
-1004.999999999998
 31
0.0
1001
ACDBBLOCKREPETAG
1070
     1
1071
        3
1005
121CC8
  0
LINE
  5
121CC9
  8
OBJECT
 10
8057.0
 20
-1024.999999999997
 30
0.0
 11
8057.0
 21
-1004.999999999998
 31
0.0
1001
ACDBBLOCKREPETAG
1070
     1
1071
        4
1005
121CC9
  0
LINE
  5
121CCA
  8
OBJECT
 10
7914.9999999999918
 20
-654.99999999999966
 30
0.0
 11
7915.0
 21
-872.69968280914077
 31
0.0
1001
ACDBBLOCKREPETAG
1070
     1
1071
        5
1005
121CCA
  0
LINE
  5
121CCB
  8
OBJECT
 10
8085.0000000000064
 20
-654.99999999999966
 30
0.0
 11
8085.0
 21
-872.69968280917192
 31
0.0
1001
ACDBBLOCKREPETAG
1070
     1
1071
        6
1005
121CCB
  0
LINE
  5
121CCC
  8
OBJECT
 10
7915.0
 20
-872.69968280914077
 30
0.0
 11
7933.6047321049664
 21
-1004.999999999998
 31
0.0
1001
ACDBBLOCKREPETAG
1070
     1
1071
        7
1005
121CCC
  0
LINE
  5
121CCD
  8
OBJECT
 10
8066.3952678950427
 20
-1004.999999999998
 30
0.0
 11
8085.0
 21
-872.69968280917192
 31
0.0
1001
ACDBBLOCKREPETAG
1070
     1
1071
        8
1005
121CCD
  0
LINE
  5
121CCE
  8
OBJECT
 10
8085.0000000000064
 20
-654.99999999999966
 30
0.0
 11
7914.9999999999918
 21
-654.99999999999966
 31
0.0
1001
ACDBBLOCKREPETAG
1070
     1
1071
        9
1005
121CCE
  0
LINE
  5
121CCF
  8
OBJECT
 10
1923.0
 20
-470.99999999999937
 30
0.0
 11
1923.0
 21
-449.99999999999937
 31
0.0
1001
ACDBBLOCKREPETAG
1070
     1
1071
        0
1005
121CCF
  0
LINE
  5
121CD0
  8
OBJECT
 10
1923.0
 20
-449.99999999999937
 30
0.0
 11
2077.0
 21
-449.99999999999937
 31
0.0
1001
ACDBBLOCKREPETAG
1070
     1
1071
        1
1005
121CD0
  0
LINE
  5
121CD1
  8
HIDDEN
 10
1943.0
 20
-519.99999999999955
 30
0.0
 11
2057.0
 21
-519.99999999999955
 31
0.0
1001
ACDBBLOCKREPETAG
1070
     1
1071
        2
1005
121CD1
  0
LINE
  5
121CD2
  8
OBJECT
 10
2077.0
 20
-449.99999999999937
 30
0.0
 11
2077.0
 21
-470.99999999999937
 31
0.0
1001
ACDBBLOCKREPETAG
1070
     1
1071
        3
1005
121CD2
  0
LINE
  5
121CD3
  8
OBJECT
 10
2077.0
 20
-470.99999999999937
 30
0.0
 11
1923.0
 21
-470.99999999999937
 31
0.0
1001
ACDBBLOCKREPETAG
1070
     1
1071
        4
1005
121CD3
  0
LINE
  5
121CD4
  8
CENTER
 10
2000.0
 20
-434.99999999999949
 30
0.0
 11
2000.0
 21
-789.99999999999955
 31
0.0
1001
ACDBBLOCKREPETAG
1070
     1
1071
        5
1005
121CD4
  0
LINE
  5
121CD5
  8
OBJECT
 10
1925.0
 20
-533.99999999999955
 30
0.0
 11
1925.0
 21
-777.99999999999955
 31
0.0
1001
ACDBBLOCKREPETAG
1070
     1
1071
        6
1005
121CD5
  0
LINE
  5
121CD6
  8
OBJECT
 10
1928.0
 20
-470.99999999999937
 30
0.0
 11
1928.0
 21
-533.99999999999955
 31
0.0
1001
ACDBBLOCKREPETAG
1070
     1
1071
        7
1005
121CD6
  0
LINE
  5
121CD7
  8
OBJECT
 10
2072.0
 20
-533.99999999999955
 30
0.0
 11
2072.0
 21
-470.99999999999937
 31
0.0
1001
ACDBBLOCKREPETAG
1070
     1
1071
        8
1005
121CD7
  0
LINE
  5
121CD8
  8
OBJECT
 10
1920.0
 20
-777.99999999999955
 30
0.0
 11
2080.0
 21
-777.99999999999955
 31
0.0
1001
ACDBBLOCKREPETAG
1070
     1
1071
        9
1005
121CD8
  0
LINE
  5
121CD9
  8
OBJECT
 10
2080.0
 20
-533.99999999999955
 30
0.0
 11
1925.0
 21
-533.99999999999955
 31
0.0
1001
ACDBBLOCKREPETAG
1070
     1
1071
       10
1005
121CD9
  0
LINE
  5
121CDA
  8
OBJECT
 10
1920.0
 20
-777.99999999999955
 30
0.0
 11
1920.0
 21
-789.99999999999955
 31
0.0
1001
ACDBBLOCKREPETAG
1070
     1
1071
       11
1005
121CDA
  0
LINE
  5
121CDB
  8
OBJECT
 10
1920.0
 20
-789.99999999999955
 30
0.0
 11
2080.0
 21
-789.99999999999955
 31
0.0
1001
ACDBBLOCKREPETAG
1070
     1
1071
       12
1005
121CDB
  0
LINE
  5
121CDC
  8
OBJECT
 10
2080.0
 20
-789.99999999999955
 30
0.0
 11
2080.0
 21
-777.99999999999955
 31
0.0
1001
ACDBBLOCKREPETAG
1070
     1
1071
       13
1005
121CDC
  0
LINE
  5
121CDD
  8
OBJECT
 10
2074.9999999998622
 20
-657.99999999985039
 30
0.0
 11
2075.0
 21
-777.99999999999955
 31
0.0
1001
ACDBBLOCKREPETAG
1070
     1
1071
       15
1005
121CDD
  0
LINE
  5
121CDE
  8
OBJECT
 10
2074.9999908029849
 20
-657.99998602702135
 30
0.0
 11
2080.0
 21
-657.99998602702135
 31
0.0
1001
ACDBBLOCKREPETAG
1070
     1
1071
       16
1005
121CDE
  0
ARC
  5
121CDF
  8
OBJECT
 10
2200.6872746716731
 20
-649.40809941010718
 30
0.0
 40
170.6350503965856
 50
137.44134459184301
 51
149.91949581336559
1001
ACDBBLOCKREPETAG
1070
     1
1071
       17
1005
121CDF
  0
ARC
  5
121CE0
  8
OBJECT
 10
2118.8455987040511
 20
-605.88272669536445
 30
0.0
 40
78.072222021763665
 50
147.4551531038623
 51
164.6636599771798
1001
ACDBBLOCKREPETAG
1070
     1
1071
       18
1005
121CE0
  0
ARC
  5
121CE1
  8
OBJECT
 10
2085.7554349608731
 20
-595.99999999999955
 30
0.0
 40
43.55353926885617
 50
165.6884523007466
 51
194.3115476992534
1001
ACDBBLOCKREPETAG
1070
     1
1071
       19
1005
121CE1
  0
ARC
  5
121CE2
  8
OBJECT
 10
2200.6872746716731
 20
-542.59190058989179
 30
0.0
 40
170.6350503965856
 50
210.0805041866343
 51
222.55865540815699
1001
ACDBBLOCKREPETAG
1070
     1
1071
       20
1005
121CE2
  0
ARC
  5
121CE3
  8
OBJECT
 10
2118.8455987040511
 20
-586.11727330463452
 30
0.0
 40
78.072222021763665
 50
195.3363400228202
 51
212.5448468961377
1001
ACDBBLOCKREPETAG
1070
     1
1071
       21
1005
121CE3
  0
POINT
  5
121CE4
  8
DOTS
 10
2000.0
 20
-654.99999999999966
 30
0.0
1001
ACDBBLOCKREPETAG
1070
     1
1071
      187
1005
121CE4
  0
LINE
  5
121CE5
  8
OBJECT
 10
2024.102933093302
 20
-243.80694712371681
 30
0.0
 11
2020.659656999997
 21
-232.55462199999889
 31
0.0
1001
ACDBBLOCKREPETAG
1070
     1
1071
      300
1005
121CE5
  0
LINE
  5
121CE6
  8
OBJECT
 10
1986.7927499013749
 20
-218.22553374208019
 30
0.0
 11
2020.659656999997
 21
-232.5546219999969
 31
0.0
1001
ACDBBLOCKREPETAG
1070
     1
1071
      302
1005
121CE6
  0
ARC
  5
121CE7
  8
OBJECT
 10
1982.8961697619
 20
-227.4351299990567
 30
0.0
 40
10.0
 50
67.066778292923374
 51
154.0147343702935
1001
ACDBBLOCKREPETAG
1070
     1
1071
      303
1005
121CE7
  0
ARC
  5
121CE8
  8
OBJECT
 10
1986.1488390381271
 20
-225.55386256729159
 30
0.0
 40
7.0
 50
67.066778292923374
 51
154.01473377497121
1001
ACDBBLOCKREPETAG
1070
     1
1071
      304
1005
121CE8
  0
LINE
  5
121CE9
  8
OBJECT
 10
1969.4199755553
 20
-243.89888500818171
 30
0.0
 11
1979.856491823236
 21
-222.48688253356801
 31
0.0
1001
ACDBBLOCKREPETAG
1070
     1
1071
      341
1005
121CE9
  0
LINE
  5
121CEA
  8
OBJECT
 10
1965.2972169006091
 20
-240.71813901882729
 30
0.0
 11
1973.907102266508
 21
-223.05373004430751
 31
0.0
1001
ACDBBLOCKREPETAG
1070
     1
1071
      342
1005
121CEA
  0
ARC
  5
121CEB
  8
OBJECT
 10
1976.579695307315
 20
-207.1289369828437
 30
0.0
 40
60.031113246032611
 50
314.07020130418567
 51
322.33936106091278
1001
ACDBBLOCKREPETAG
1070
     1
1071
      343
1005
121CEB
  0
CIRCLE
  5
121CEC
  8
OBJECT
 10
2000.0
 20
-199.99999999999909
 30
0.0
 40
53.5
1001
ACDBBLOCKREPETAG
1070
     1
1071
      344
1005
121CEC
  0
POINT
  5
121CED
  8
DOTS
 10
2000.0
 20
-199.99999999999909
 30
0.0
 50
270.0
1001
ACDBBLOCKREPETAG
1070
     1
1071
      362
1005
121CED
  0
ARC
  5
121CEE
  8
OBJECT
 10
2000.0
 20
-199.99999999999909
 30
0.0
 40
50.0
 50
298.81994300000417
 51
228.52376955967449
1001
ACDBBLOCKREPETAG
1070
     1
1071
        7
1005
121CEE
  0
LINE
  5
121CEF
  8
CENTER
 10
2080.0
 20
-199.99999999999909
 30
0.0
 11
1905.0
 21
-199.99999999999909
 31
0.0
1001
ACDBBLOCKREPETAG
1070
     1
1071
       14
1005
121CEF
  0
LINE
  5
121CF0
  8
CENTER
 10
2000.0
 20
-294.99999999999898
 30
0.0
 11
2000.0
 21
-104.9999999999991
 31
0.0
1001
ACDBBLOCKREPETAG
1070
     1
1071
       15
1005
121CF0
  0
CIRCLE
  5
121CF1
  8
OBJECT
 10
2000.0
 20
-199.99999999999909
 30
0.0
 40
70.0
1001
ACDBBLOCKREPETAG
1070
     1
1071
       16
1005
121CF1
  0
CIRCLE
  5
121CF2
  8
OBJECT
 10
2000.0
 20
-199.99999999999909
 30
0.0
 40
77.0
1001
ACDBBLOCKREPETAG
1070
     1
1071
       17
1005
121CF2
  0
ARC
  5
121CF3
  8
OBJECT
 10
2000.0
 20
-199.99999999999909
 30
0.0
 40
80.0
 50
50.805032573864182
 51
309.1949674261358
1001
ACDBBLOCKREPETAG
1070
     1
1071
       18
1005
121CF3
  0
LINE
  5
121CF4
  8
OBJECT
 10
2045.6618002273251
 20
-137.99999999999909
 30
0.0
 11
2080.0
 21
-137.99999999999909
 31
0.0
1001
ACDBBLOCKREPETAG
1070
     1
1071
       19
1005
121CF4
  0
LINE
  5
121CF5
  8
OBJECT
 10
2045.6618002273251
 20
-261.99999999999909
 30
0.0
 11
2080.0
 21
-261.99999999999909
 31
0.0
1001
ACDBBLOCKREPETAG
1070
     1
1071
       20
1005
121CF5
  0
LINE
  5
121CF6
  8
OBJECT
 10
12085.999999999991
 20
-1123.9999999999991
 30
0.0
 11
12085.999999999991
 21
-1133.9999999999991
 31
0.0
1001
ACDBBLOCKREPETAG
1070
     1
1071
      121
1005
121CF6
  0
LINE
  5
121CF7
  8
OBJECT
 10
12069.999999999991
 20
-1123.9999999999991
 30
0.0
 11
12069.999999999991
 21
-1133.9999999999991
 31
0.0
1001
ACDBBLOCKREPETAG
1070
     1
1071
      122
1005
121CF7
  0
LINE
  5
121CF8
  8
OBJECT
 10
12085.999999999991
 20
-1133.9999999999991
 30
0.0
 11
12069.999999999991
 21
-1133.9999999999991
 31
0.0
1001
ACDBBLOCKREPETAG
1070
     1
1071
      123
1005
121CF8
  0
LINE
  5
121CF9
  8
OBJECT
 10
12090.0
 20
-1084.9999999999959
 30
0.0
 11
11924.0
 21
-1084.9999999999959
 31
0.0
1001
ACDBBLOCKREPETAG
1070
     1
1071
      124
1005
121CF9
  0
LINE
  5
121CFA
  8
OBJECT
 10
12090.0
 20
-1099.9999999999991
 30
0.0
 11
12090.0
 21
-1084.9999999999959
 31
0.0
1001
ACDBBLOCKREPETAG
1070
     1
1071
      125
1005
121CFA
  0
LINE
  5
121CFB
  8
OBJECT
 10
11924.0
 20
-1099.9999999999991
 30
0.0
 11
12090.0
 21
-1099.9999999999991
 31
0.0
1001
ACDBBLOCKREPETAG
1070
     1
1071
      126
1005
121CFB
  0
LINE
  5
121CFC
  8
OBJECT
 10
12067.49999999998
 20
-1099.9999999999991
 30
0.0
 11
12067.49999999998
 21
-1109.9999999999991
 31
0.0
1001
ACDBBLOCKREPETAG
1070
     1
1071
      127
1005
121CFC
  0
LINE
  5
121CFD
  8
OBJECT
 10
12072.999999999991
 20
-1109.9999999999991
 30
0.0
 11
12072.999999999991
 21
-1099.9999999999991
 31
0.0
1001
ACDBBLOCKREPETAG
1070
     1
1071
      128
1005
121CFD
  0
LINE
  5
121CFE
  8
OBJECT
 10
12082.999999999991
 20
-1109.9999999999991
 30
0.0
 11
12082.999999999991
 21
-1099.9999999999991
 31
0.0
1001
ACDBBLOCKREPETAG
1070
     1
1071
      129
1005
121CFE
  0
LINE
  5
121CFF
  8
OBJECT
 10
11924.0
 20
-1109.9999999999991
 30
0.0
 11
11924.0
 21
-1123.9999999999959
 31
0.0
1001
ACDBBLOCKREPETAG
1070
     1
1071
      130
1005
121CFF
  0
LINE
  5
121D00
  8
OBJECT
 10
12090.0
 20
-1109.9999999999991
 30
0.0
 11
12090.0
 21
-1123.9999999999959
 31
0.0
1001
ACDBBLOCKREPETAG
1070
     1
1071
      131
1005
121D00
  0
LINE
  5
121D01
  8
OBJECT
 10
11924.0
 20
-1123.9999999999959
 30
0.0
 11
12090.0
 21
-1123.9999999999959
 31
0.0
1001
ACDBBLOCKREPETAG
1070
     1
1071
      132
1005
121D01
  0
LINE
  5
121D02
  8
OBJECT
 10
11924.0
 20
-1109.9999999999991
 30
0.0
 11
12090.0
 21
-1109.9999999999991
 31
0.0
1001
ACDBBLOCKREPETAG
1070
     1
1071
      133
1005
121D02
  0
LINE
  5
121D03
  8
OBJECT
 10
11932.49999999998
 20
-1099.9999999999991
 30
0.0
 11
11932.49999999998
 21
-1109.9999999999991
 31
0.0
1001
ACDBBLOCKREPETAG
1070
     1
1071
      134
1005
121D03
  0
LINE
  5
121D04
  8
OBJECT
 10
11934.0
 20
-1048.9999999999959
 30
0.0
 11
12065.999999999991
 21
-1048.9999999999959
 31
0.0
1001
ACDBBLOCKREPETAG
1070
     1
1071
      135
1005
121D04
  0
LINE
  5
121D05
  8
OBJECT
 10
11924.0
 20
-1099.9999999999991
 30
0.0
 11
11924.0
 21
-1084.9999999999959
 31
0.0
1001
ACDBBLOCKREPETAG
1070
     1
1071
      136
1005
121D05
  0
LINE
  5
121D06
  8
HIDDEN
 10
11943.0
 20
-1059.9999999999991
 30
0.0
 11
12057.0
 21
-1059.9999999999991
 31
0.0
1001
ACDBBLOCKREPETAG
1070
     1
1071
      137
1005
121D06
  0
LINE
  5
121D07
  8
OBJECT
 10
12086.999999999991
 20
-1083.2
 30
0.0
 11
12086.999999999991
 21
-1084.9999999999991
 31
0.0
1001
ACDBBLOCKREPETAG
1070
     1
1071
      138
1005
121D07
  0
LINE
  5
121D08
  8
OBJECT
 10
12068.999999999991
 20
-1083.2
 30
0.0
 11
12068.999999999991
 21
-1084.9999999999991
 31
0.0
1001
ACDBBLOCKREPETAG
1070
     1
1071
      139
1005
121D08
  0
LINE
  5
121D09
  8
OBJECT
 10
12072.249999999991
 20
-1073.4999999999991
 30
0.0
 11
12083.749999999991
 21
-1073.4999999999991
 31
0.0
1001
ACDBBLOCKREPETAG
1070
     1
1071
      140
1005
121D09
  0
LINE
  5
121D0A
  8
OBJECT
 10
12072.249999999991
 20
-1073.4999999999991
 30
0.0
 11
12072.249999999991
 21
-1083.2
 31
0.0
1001
ACDBBLOCKREPETAG
1070
     1
1071
      141
1005
121D0A
  0
LINE
  5
121D0B
  8
OBJECT
 10
12083.749999999991
 20
-1073.4999999999991
 30
0.0
 11
12083.749999999991
 21
-1083.2
 31
0.0
1001
ACDBBLOCKREPETAG
1070
     1
1071
      142
1005
121D0B
  0
LINE
  5
121D0C
  8
OBJECT
 10
11931.99999999998
 20
-1164.9999999999991
 30
0.0
 11
12067.99999999998
 21
-1164.9999999999991
 31
0.0
1001
ACDBBLOCKREPETAG
1070
     1
1071
      143
1005
121D0C
  0
LINE
  5
121D0D
  8
OBJECT
 10
11931.99999999998
 20
-1164.9999999999991
 30
0.0
 11
11931.99999999998
 21
-1123.9999999999991
 31
0.0
1001
ACDBBLOCKREPETAG
1070
     1
1071
      144
1005
121D0D
  0
LINE
  5
121D0E
  8
OBJECT
 10
12067.99999999998
 20
-1164.9999999999991
 30
0.0
 11
12067.99999999998
 21
-1123.9999999999991
 31
0.0
1001
ACDBBLOCKREPETAG
1070
     1
1071
      145
1005
121D0E
  0
LINE
  5
121D0F
  8
OBJECT
 10
12086.999999999991
 20
-1083.2
 30
0.0
 11
12068.999999999991
 21
-1083.2
 31
0.0
1001
ACDBBLOCKREPETAG
1070
     1
1071
      146
1005
121D0F
  0
LINE
  5
121D10
  8
CENTER
 10
12000.0
 20
-789.99999999999955
 30
0.0
 11
12000.0
 21
-1179.9999999999991
 31
0.0
1001
ACDBBLOCKREPETAG
1070
     1
1071
      147
1005
121D10
  0
LINE
  5
121D11
  8
OBJECT
 10
11925.0
 20
-789.99999999999955
 30
0.0
 11
11925.0
 21
-871.99999999999591
 31
0.0
1001
ACDBBLOCKREPETAG
1070
     1
1071
      148
1005
121D11
  0
LINE
  5
121D12
  8
OBJECT
 10
12075.0
 20
-789.99999999999955
 30
0.0
 11
12075.0
 21
-871.99999999999204
 31
0.0
1001
ACDBBLOCKREPETAG
1070
     1
1071
      149
1005
121D12
  0
LINE
  5
121D13
  8
OBJECT
 10
11925.0
 20
-871.99999999999591
 30
0.0
 11
12075.0
 21
-871.99999999999204
 31
0.0
1001
ACDBBLOCKREPETAG
1070
     1
1071
      150
1005
121D13
  0
LINE
  5
121D14
  8
OBJECT
 10
11943.0
 20
-1048.9999999999959
 30
0.0
 11
11943.0
 21
-999.99999999999204
 31
0.0
1001
ACDBBLOCKREPETAG
1070
     1
1071
      151
1005
121D14
  0
LINE
  5
121D15
  8
OBJECT
 10
12057.0
 20
-999.99999999999204
 30
0.0
 11
11943.0
 21
-999.99999999999204
 31
0.0
1001
ACDBBLOCKREPETAG
1070
     1
1071
      152
1005
121D15
  0
LINE
  5
121D16
  8
OBJECT
 10
12057.0
 20
-999.99999999999204
 30
0.0
 11
12057.0
 21
-1048.9999999999959
 31
0.0
1001
ACDBBLOCKREPETAG
1070
     1
1071
      153
1005
121D16
  0
LINE
  5
121D17
  8
OBJECT
 10
11925.0
 20
-871.99999999999591
 30
0.0
 11
11943.0
 21
-999.99999999999204
 31
0.0
1001
ACDBBLOCKREPETAG
1070
     1
1071
      154
1005
121D17
  0
LINE
  5
121D18
  8
OBJECT
 10
12057.0
 20
-999.99999999999204
 30
0.0
 11
12075.0
 21
-871.99999999999204
 31
0.0
1001
ACDBBLOCKREPETAG
1070
     1
1071
      155
1005
121D18
  0
LINE
  5
121D19
  8
OBJECT
 10
11934.0
 20
-1084.9999999999959
 30
0.0
 11
11934.0
 21
-1048.9999999999959
 31
0.0
1001
ACDBBLOCKREPETAG
1070
     1
1071
      156
1005
121D19
  0
LINE
  5
121D1A
  8
OBJECT
 10
12066.0
 20
-1084.9999999999959
 30
0.0
 11
12065.999999999991
 21
-1048.9999999999959
 31
0.0
1001
ACDBBLOCKREPETAG
1070
     1
1071
      157
1005
121D1A
  0
LINE
  5
121D1B
  8
OBJECT
 10
11954.75
 20
-1074.699999999993
 30
0.0
 11
11967.25
 21
-1074.699999999993
 31
0.0
1001
ACDBBLOCKREPETAG
1070
     1
1071
      158
1005
121D1B
  0
LINE
  5
121D1C
  8
OBJECT
 10
11946.0
 20
-1084.9999999999959
 30
0.0
 11
11946.0
 21
-1082.699999999996
 31
0.0
1001
ACDBBLOCKREPETAG
1070
     1
1071
      159
1005
121D1C
  0
LINE
  5
121D1D
  8
OBJECT
 10
11976.0
 20
-1084.9999999999959
 30
0.0
 11
11976.0
 21
-1082.699999999996
 31
0.0
1001
ACDBBLOCKREPETAG
1070
     1
1071
      160
1005
121D1D
  0
LINE
  5
121D1E
  8
OBJECT
 10
11954.75
 20
-1074.699999999993
 30
0.0
 11
11954.75
 21
-1082.699999999996
 31
0.0
1001
ACDBBLOCKREPETAG
1070
     1
1071
      161
1005
121D1E
  0
LINE
  5
121D1F
  8
OBJECT
 10
11967.25
 20
-1074.699999999993
 30
0.0
 11
11967.25
 21
-1082.699999999996
 31
0.0
1001
ACDBBLOCKREPETAG
1070
     1
1071
      162
1005
121D1F
  0
LINE
  5
121D20
  8
OBJECT
 10
11946.0
 20
-1082.699999999996
 30
0.0
 11
11976.0
 21
-1082.699999999996
 31
0.0
1001
ACDBBLOCKREPETAG
1070
     1
1071
      163
1005
121D20
  0
LINE
  5
121D21
  8
OBJECT
 10
11953.0
 20
-1123.9999999999959
 30
0.0
 11
11953.0
 21
-1133.9999999999959
 31
0.0
1001
ACDBBLOCKREPETAG
1070
     1
1071
      164
1005
121D21
  0
LINE
  5
121D22
  8
OBJECT
 10
11969.0
 20
-1123.9999999999959
 30
0.0
 11
11969.0
 21
-1133.9999999999959
 31
0.0
1001
ACDBBLOCKREPETAG
1070
     1
1071
      165
1005
121D22
  0
LINE
  5
121D23
  8
OBJECT
 10
11953.0
 20
-1133.9999999999959
 30
0.0
 11
11969.0
 21
-1133.9999999999959
 31
0.0
1001
ACDBBLOCKREPETAG
1070
     1
1071
      166
1005
121D23
  0
LINE
  5
121D24
  8
OBJECT
 10
11966.0
 20
-1109.9999999999959
 30
0.0
 11
11966.0
 21
-1099.9999999999959
 31
0.0
1001
ACDBBLOCKREPETAG
1070
     1
1071
      167
1005
121D24
  0
LINE
  5
121D25
  8
OBJECT
 10
11956.0
 20
-1109.9999999999959
 30
0.0
 11
11956.0
 21
-1099.9999999999959
 31
0.0
1001
ACDBBLOCKREPETAG
1070
     1
1071
      168
1005
121D25
  0
LINE
  5
121D26
  8
OBJECT
 10
10090.0
 20
-1084.9999999999959
 30
0.0
 11
9924.0
 21
-1084.9999999999959
 31
0.0
1001
ACDBBLOCKREPETAG
1070
     1
1071
       12
1005
121D26
  0
LINE
  5
121D27
  8
OBJECT
 10
10066.0
 20
-1048.9999999999959
 30
0.0
 11
9934.0
 21
-1048.9999999999959
 31
0.0
1001
ACDBBLOCKREPETAG
1070
     1
1071
       13
1005
121D27
  0
LINE
  5
121D28
  8
OBJECT
 10
10090.0
 20
-1099.9999999999991
 30
0.0
 11
10090.0
 21
-1084.9999999999959
 31
0.0
1001
ACDBBLOCKREPETAG
1070
     1
1071
       14
1005
121D28
  0
LINE
  5
121D29
  8
OBJECT
 10
9924.0
 20
-1099.9999999999991
 30
0.0
 11
10090.0
 21
-1099.9999999999991
 31
0.0
1001
ACDBBLOCKREPETAG
1070
     1
1071
       15
1005
121D29
  0
LINE
  5
121D2A
  8
OBJECT
 10
10067.49999999998
 20
-1099.9999999999991
 30
0.0
 11
10067.49999999998
 21
-1109.9999999999991
 31
0.0
1001
ACDBBLOCKREPETAG
1070
     1
1071
       16
1005
121D2A
  0
LINE
  5
121D2B
  8
OBJECT
 10
9924.0
 20
-1109.9999999999991
 30
0.0
 11
9924.0
 21
-1123.9999999999959
 31
0.0
1001
ACDBBLOCKREPETAG
1070
     1
1071
       17
1005
121D2B
  0
LINE
  5
121D2C
  8
OBJECT
 10
10090.0
 20
-1109.9999999999991
 30
0.0
 11
10090.0
 21
-1123.9999999999959
 31
0.0
1001
ACDBBLOCKREPETAG
1070
     1
1071
       18
1005
121D2C
  0
LINE
  5
121D2D
  8
OBJECT
 10
9924.0
 20
-1123.9999999999959
 30
0.0
 11
10090.0
 21
-1123.9999999999959
 31
0.0
1001
ACDBBLOCKREPETAG
1070
     1
1071
       19
1005
121D2D
  0
LINE
  5
121D2E
  8
OBJECT
 10
9924.0
 20
-1109.9999999999991
 30
0.0
 11
10090.0
 21
-1109.9999999999991
 31
0.0
1001
ACDBBLOCKREPETAG
1070
     1
1071
       20
1005
121D2E
  0
LINE
  5
121D2F
  8
OBJECT
 10
9932.4999999999836
 20
-1099.9999999999991
 30
0.0
 11
9932.4999999999836
 21
-1109.9999999999991
 31
0.0
1001
ACDBBLOCKREPETAG
1070
     1
1071
       21
1005
121D2F
  0
LINE
  5
121D30
  8
OBJECT
 10
9924.0
 20
-1099.9999999999991
 30
0.0
 11
9924.0
 21
-1084.9999999999959
 31
0.0
1001
ACDBBLOCKREPETAG
1070
     1
1071
       22
1005
121D30
  0
LINE
  5
121D31
  8
HIDDEN
 10
9943.0
 20
-1059.9999999999991
 30
0.0
 11
10057.0
 21
-1059.9999999999991
 31
0.0
1001
ACDBBLOCKREPETAG
1070
     1
1071
       23
1005
121D31
  0
LINE
  5
121D32
  8
CENTER
 10
10000.0
 20
-789.99999999999955
 30
0.0
 11
10000.0
 21
-1138.9999999999959
 31
0.0
1001
ACDBBLOCKREPETAG
1070
     1
1071
       24
1005
121D32
  0
LINE
  5
121D33
  8
OBJECT
 10
9925.0
 20
-789.99999999999955
 30
0.0
 11
9925.0
 21
-871.99999999999591
 31
0.0
1001
ACDBBLOCKREPETAG
1070
     1
1071
       25
1005
121D33
  0
LINE
  5
121D34
  8
OBJECT
 10
10075.0
 20
-789.99999999999955
 30
0.0
 11
10075.0
 21
-871.99999999999204
 31
0.0
1001
ACDBBLOCKREPETAG
1070
     1
1071
       26
1005
121D34
  0
LINE
  5
121D35
  8
OBJECT
 10
9925.0
 20
-871.99999999999591
 30
0.0
 11
10075.0
 21
-871.99999999999204
 31
0.0
1001
ACDBBLOCKREPETAG
1070
     1
1071
       27
1005
121D35
  0
LINE
  5
121D36
  8
OBJECT
 10
10057.0
 20
-1048.9999999999959
 30
0.0
 11
10057.0
 21
-999.99999999999204
 31
0.0
1001
ACDBBLOCKREPETAG
1070
     1
1071
       28
1005
121D36
  0
LINE
  5
121D37
  8
OBJECT
 10
9943.0
 20
-1048.9999999999959
 30
0.0
 11
9943.0
 21
-999.99999999999204
 31
0.0
1001
ACDBBLOCKREPETAG
1070
     1
1071
       29
1005
121D37
  0
LINE
  5
121D38
  8
OBJECT
 10
10057.0
 20
-999.99999999999204
 30
0.0
 11
9943.0
 21
-999.99999999999204
 31
0.0
1001
ACDBBLOCKREPETAG
1070
     1
1071
       30
1005
121D38
  0
LINE
  5
121D39
  8
OBJECT
 10
9925.0
 20
-871.99999999999591
 30
0.0
 11
9943.0
 21
-999.99999999999204
 31
0.0
1001
ACDBBLOCKREPETAG
1070
     1
1071
       31
1005
121D39
  0
LINE
  5
121D3A
  8
OBJECT
 10
10057.0
 20
-999.99999999999204
 30
0.0
 11
10075.0
 21
-871.99999999999204
 31
0.0
1001
ACDBBLOCKREPETAG
1070
     1
1071
       32
1005
121D3A
  0
LINE
  5
121D3B
  8
OBJECT
 10
9934.0
 20
-1048.9999999999959
 30
0.0
 11
9934.0
 21
-1084.9999999999959
 31
0.0
1001
ACDBBLOCKREPETAG
1070
     1
1071
       33
1005
121D3B
  0
LINE
  5
121D3C
  8
OBJECT
 10
10066.0
 20
-1048.9999999999959
 30
0.0
 11
10066.0
 21
-1084.9999999999959
 31
0.0
1001
ACDBBLOCKREPETAG
1070
     1
1071
       34
1005
121D3C
  0
LINE
  5
121D3D
  8
OBJECT
 10
10082.999999999991
 20
-1109.9999999999959
 30
0.0
 11
10082.999999999991
 21
-1099.9999999999959
 31
0.0
1001
ACDBBLOCKREPETAG
1070
     1
1071
       35
1005
121D3D
  0
LINE
  5
121D3E
  8
OBJECT
 10
10072.999999999991
 20
-1109.9999999999959
 30
0.0
 11
10072.999999999991
 21
-1099.9999999999959
 31
0.0
1001
ACDBBLOCKREPETAG
1070
     1
1071
       36
1005
121D3E
  0
LINE
  5
121D3F
  8
OBJECT
 10
10068.99999999998
 20
-1079.9999999999959
 30
0.0
 11
10068.99999999998
 21
-1084.9999999999959
 31
0.0
1001
ACDBBLOCKREPETAG
1070
     1
1071
       37
1005
121D3F
  0
LINE
  5
121D40
  8
OBJECT
 10
10087.0
 20
-1079.9999999999959
 30
0.0
 11
10087.0
 21
-1084.9999999999959
 31
0.0
1001
ACDBBLOCKREPETAG
1070
     1
1071
       38
1005
121D40
  0
LINE
  5
121D41
  8
OBJECT
 10
10087.0
 20
-1079.9999999999959
 30
0.0
 11
10068.99999999998
 21
-1079.9999999999959
 31
0.0
1001
ACDBBLOCKREPETAG
1070
     1
1071
       39
1005
121D41
  0
LINE
  5
121D42
  8
OBJECT
 10
10073.0
 20
-1131.9999999999959
 30
0.0
 11
10073.0
 21
-1134.9999999999959
 31
0.0
1001
ACDBBLOCKREPETAG
1070
     1
1071
       40
1005
121D42
  0
LINE
  5
121D43
  8
OBJECT
 10
10073.0
 20
-1134.9999999999959
 30
0.0
 11
10083.0
 21
-1134.9999999999959
 31
0.0
1001
ACDBBLOCKREPETAG
1070
     1
1071
       41
1005
121D43
  0
LINE
  5
121D44
  8
OBJECT
 10
10083.0
 20
-1134.9999999999959
 30
0.0
 11
10083.0
 21
-1131.9999999999959
 31
0.0
1001
ACDBBLOCKREPETAG
1070
     1
1071
       43
1005
121D44
  0
LINE
  5
121D45
  8
OBJECT
 10
9968.5
 20
-1079.9999999999959
 30
0.0
 11
9951.9999999999909
 21
-1079.9999999999959
 31
0.0
1001
ACDBBLOCKREPETAG
1070
     1
1071
       48
1005
121D45
  0
LINE
  5
121D46
  8
OBJECT
 10
9976.0
 20
-1084.9999999999959
 30
0.0
 11
9976.0
 21
-1082.9999999999959
 31
0.0
1001
ACDBBLOCKREPETAG
1070
     1
1071
       49
1005
121D46
  0
LINE
  5
121D47
  8
OBJECT
 10
9966.0
 20
-1109.9999999999959
 30
0.0
 11
9966.0
 21
-1099.9999999999959
 31
0.0
1001
ACDBBLOCKREPETAG
1070
     1
1071
       50
1005
121D47
  0
LINE
  5
121D48
  8
OBJECT
 10
9956.0
 20
-1109.9999999999959
 30
0.0
 11
9956.0
 21
-1099.9999999999959
 31
0.0
1001
ACDBBLOCKREPETAG
1070
     1
1071
       51
1005
121D48
  0
LINE
  5
121D49
  8
OBJECT
 10
9951.9999999999909
 20
-1079.9999999999959
 30
0.0
 11
9951.9999999999909
 21
-1084.9999999999959
 31
0.0
1001
ACDBBLOCKREPETAG
1070
     1
1071
       52
1005
121D49
  0
LINE
  5
121D4A
  8
OBJECT
 10
9956.0
 20
-1131.9999999999959
 30
0.0
 11
9956.0
 21
-1134.9999999999959
 31
0.0
1001
ACDBBLOCKREPETAG
1070
     1
1071
       53
1005
121D4A
  0
LINE
  5
121D4B
  8
OBJECT
 10
9956.0
 20
-1134.9999999999959
 30
0.0
 11
9966.0
 21
-1134.9999999999959
 31
0.0
1001
ACDBBLOCKREPETAG
1070
     1
1071
       54
1005
121D4B
  0
LINE
  5
121D4C
  8
OBJECT
 10
9951.185045423772
 20
-1131.9999999999959
 30
0.0
 11
9970.814954576219
 21
-1131.9999999999959
 31
0.0
1001
ACDBBLOCKREPETAG
1070
     1
1071
       55
1005
121D4C
  0
LINE
  5
121D4D
  8
OBJECT
 10
9966.0
 20
-1134.9999999999959
 30
0.0
 11
9966.0
 21
-1131.9999999999959
 31
0.0
1001
ACDBBLOCKREPETAG
1070
     1
1071
       56
1005
121D4D
  0
LINE
  5
121D4E
  8
OBJECT
 10
9976.0
 20
-1082.9999999999959
 30
0.0
 11
9968.5
 21
-1079.9999999999959
 31
0.0
1001
ACDBBLOCKREPETAG
1070
     1
1071
       57
1005
121D4E
  0
LINE
  5
121D4F
  8
OBJECT
 10
9951.1850454237774
 20
-1123.9999999999959
 30
0.0
 11
9951.1850454237774
 21
-1131.9999999999959
 31
0.0
1001
ACDBBLOCKREPETAG
1070
     1
1071
      630
1005
121D4F
  0
LINE
  5
121D50
  8
OBJECT
 10
9956.0925227118896
 20
-1123.9999999999959
 30
0.0
 11
9956.0925227118896
 21
-1131.9999999999959
 31
0.0
1001
ACDBBLOCKREPETAG
1070
     1
1071
      631
1005
121D50
  0
LINE
  5
121D51
  8
OBJECT
 10
9965.9074772881122
 20
-1123.9999999999959
 30
0.0
 11
9965.9074772881122
 21
-1131.9999999999959
 31
0.0
1001
ACDBBLOCKREPETAG
1070
     1
1071
      632
1005
121D51
  0
LINE
  5
121D52
  8
OBJECT
 10
9970.8149545762244
 20
-1123.9999999999959
 30
0.0
 11
9970.8149545762244
 21
-1131.9999999999959
 31
0.0
1001
ACDBBLOCKREPETAG
1070
     1
1071
      633
1005
121D52
  0
LINE
  5
121D53
  8
OBJECT
 10
10068.18504542377
 20
-1131.9999999999959
 30
0.0
 11
10087.814954576221
 21
-1131.9999999999959
 31
0.0
1001
ACDBBLOCKREPETAG
1070
     1
1071
      634
1005
121D53
  0
LINE
  5
121D54
  8
OBJECT
 10
10068.18504542377
 20
-1123.9999999999959
 30
0.0
 11
10068.18504542377
 21
-1131.9999999999959
 31
0.0
1001
ACDBBLOCKREPETAG
1070
     1
1071
      635
1005
121D54
  0
LINE
  5
121D55
  8
OBJECT
 10
10073.09252271189
 20
-1123.9999999999959
 30
0.0
 11
10073.09252271189
 21
-1131.9999999999959
 31
0.0
1001
ACDBBLOCKREPETAG
1070
     1
1071
      636
1005
121D55
  0
LINE
  5
121D56
  8
OBJECT
 10
10082.90747728811
 20
-1123.9999999999959
 30
0.0
 11
10082.90747728811
 21
-1131.9999999999959
 31
0.0
1001
ACDBBLOCKREPETAG
1070
     1
1071
      637
1005
121D56
  0
LINE
  5
121D57
  8
OBJECT
 10
10087.814954576221
 20
-1123.9999999999959
 30
0.0
 11
10087.814954576221
 21
-1131.9999999999959
 31
0.0
1001
ACDBBLOCKREPETAG
1070
     1
1071
      638
1005
121D57
  0
LINE
  5
121D58
  8
OBJECT
 10
7943.0
 20
-1099.9999999999959
 30
0.0
 11
8057.0
 21
-1099.9999999999959
 31
0.0
1001
ACDBBLOCKREPETAG
1070
     1
1071
        0
1005
121D58
  0
LINE
  5
121D59
  8
OBJECT
 10
7943.0
 20
-1099.9999999999959
 30
0.0
 11
7943.0
 21
-999.99999999999602
 31
0.0
1001
ACDBBLOCKREPETAG
1070
     1
1071
        1
1005
121D59
  0
LINE
  5
121D5A
  8
OBJECT
 10
8057.0
 20
-1099.9999999999959
 30
0.0
 11
8057.0
 21
-999.99999999999602
 31
0.0
1001
ACDBBLOCKREPETAG
1070
     1
1071
        2
1005
121D5A
  0
LINE
  5
121D5B
  8
OBJECT
 10
7943.0
 20
-999.99999999999602
 30
0.0
 11
8057.0
 21
-999.99999999999602
 31
0.0
1001
ACDBBLOCKREPETAG
1070
     1
1071
        3
1005
121D5B
  0
LINE
  5
121D5C
  8
HIDDEN
 10
7950.0
 20
-999.99999999999602
 30
0.0
 11
7950.0
 21
-1099.9999999999959
 31
0.0
1001
ACDBBLOCKREPETAG
1070
     1
1071
        4
1005
121D5C
  0
LINE
  5
121D5D
  8
HIDDEN
 10
8050.0
 20
-999.99999999999602
 30
0.0
 11
8050.0
 21
-1099.9999999999959
 31
0.0
1001
ACDBBLOCKREPETAG
1070
     1
1071
        5
1005
121D5D
  0
LINE
  5
121D5E
  8
CENTER
 10
8000.0
 20
-789.99999999999955
 30
0.0
 11
8000.0
 21
-1114.9999999999959
 31
0.0
1001
ACDBBLOCKREPETAG
1070
     1
1071
        6
1005
121D5E
  0
LINE
  5
121D5F
  8
OBJECT
 10
7925.0
 20
-789.99999999999955
 30
0.0
 11
7925.0
 21
-871.99999999999591
 31
0.0
1001
ACDBBLOCKREPETAG
1070
     1
1071
        7
1005
121D5F
  0
LINE
  5
121D60
  8
OBJECT
 10
8075.0
 20
-789.99999999999955
 30
0.0
 11
8075.0
 21
-871.99999999999591
 31
0.0
1001
ACDBBLOCKREPETAG
1070
     1
1071
        8
1005
121D60
  0
LINE
  5
121D61
  8
OBJECT
 10
7925.0
 20
-871.99999999999591
 30
0.0
 11
8075.0
 21
-871.99999999999591
 31
0.0
1001
ACDBBLOCKREPETAG
1070
     1
1071
        9
1005
121D61
  0
LINE
  5
121D62
  8
OBJECT
 10
7925.0
 20
-871.99999999999591
 30
0.0
 11
7943.0
 21
-999.99999999999602
 31
0.0
1001
ACDBBLOCKREPETAG
1070
     1
1071
       10
1005
121D62
  0
LINE
  5
121D63
  8
OBJECT
 10
8057.0
 20
-999.99999999999602
 30
0.0
 11
8075.0
 21
-871.99999999999591
 31
0.0
1001
ACDBBLOCKREPETAG
1070
     1
1071
       11
1005
121D63
  0
LINE
  5
121D64
  8
OBJECT
 10
6085.9999999999927
 20
-1123.9999999999991
 30
0.0
 11
6085.9999999999927
 21
-1133.9999999999991
 31
0.0
1001
ACDBBLOCKREPETAG
1070
     1
1071
      121
1005
121D64
  0
LINE
  5
121D65
  8
OBJECT
 10
6069.9999999999927
 20
-1123.9999999999991
 30
0.0
 11
6069.9999999999927
 21
-1133.9999999999991
 31
0.0
1001
ACDBBLOCKREPETAG
1070
     1
1071
      122
1005
121D65
  0
LINE
  5
121D66
  8
OBJECT
 10
6085.9999999999927
 20
-1133.9999999999991
 30
0.0
 11
6069.9999999999927
 21
-1133.9999999999991
 31
0.0
1001
ACDBBLOCKREPETAG
1070
     1
1071
      123
1005
121D66
  0
LINE
  5
121D67
  8
OBJECT
 10
6090.0
 20
-1084.9999999999959
 30
0.0
 11
5924.0
 21
-1084.9999999999959
 31
0.0
1001
ACDBBLOCKREPETAG
1070
     1
1071
      124
1005
121D67
  0
LINE
  5
121D68
  8
OBJECT
 10
6090.0
 20
-1099.9999999999991
 30
0.0
 11
6090.0
 21
-1084.9999999999959
 31
0.0
1001
ACDBBLOCKREPETAG
1070
     1
1071
      125
1005
121D68
  0
LINE
  5
121D69
  8
OBJECT
 10
5924.0
 20
-1099.9999999999991
 30
0.0
 11
6090.0
 21
-1099.9999999999991
 31
0.0
1001
ACDBBLOCKREPETAG
1070
     1
1071
      126
1005
121D69
  0
LINE
  5
121D6A
  8
OBJECT
 10
6067.4999999999864
 20
-1099.9999999999991
 30
0.0
 11
6067.4999999999864
 21
-1109.9999999999991
 31
0.0
1001
ACDBBLOCKREPETAG
1070
     1
1071
      127
1005
121D6A
  0
LINE
  5
121D6B
  8
OBJECT
 10
6072.9999999999927
 20
-1109.9999999999991
 30
0.0
 11
6072.9999999999927
 21
-1099.9999999999991
 31
0.0
1001
ACDBBLOCKREPETAG
1070
     1
1071
      128
1005
121D6B
  0
LINE
  5
121D6C
  8
OBJECT
 10
6082.9999999999927
 20
-1109.9999999999991
 30
0.0
 11
6082.9999999999927
 21
-1099.9999999999991
 31
0.0
1001
ACDBBLOCKREPETAG
1070
     1
1071
      129
1005
121D6C
  0
LINE
  5
121D6D
  8
OBJECT
 10
5924.0
 20
-1109.9999999999991
 30
0.0
 11
5924.0
 21
-1123.9999999999959
 31
0.0
1001
ACDBBLOCKREPETAG
1070
     1
1071
      130
1005
121D6D
  0
LINE
  5
121D6E
  8
OBJECT
 10
6090.0
 20
-1109.9999999999991
 30
0.0
 11
6090.0
 21
-1123.9999999999959
 31
0.0
1001
ACDBBLOCKREPETAG
1070
     1
1071
      131
1005
121D6E
  0
LINE
  5
121D6F
  8
OBJECT
 10
5924.0
 20
-1123.9999999999959
 30
0.0
 11
6090.0
 21
-1123.9999999999959
 31
0.0
1001
ACDBBLOCKREPETAG
1070
     1
1071
      132
1005
121D6F
  0
LINE
  5
121D70
  8
OBJECT
 10
5924.0
 20
-1109.9999999999991
 30
0.0
 11
6090.0
 21
-1109.9999999999991
 31
0.0
1001
ACDBBLOCKREPETAG
1070
     1
1071
      133
1005
121D70
  0
LINE
  5
121D71
  8
OBJECT
 10
5932.4999999999864
 20
-1099.9999999999991
 30
0.0
 11
5932.4999999999864
 21
-1109.9999999999991
 31
0.0
1001
ACDBBLOCKREPETAG
1070
     1
1071
      134
1005
121D71
  0
LINE
  5
121D72
  8
OBJECT
 10
5934.0
 20
-1048.9999999999959
 30
0.0
 11
6065.9999999999909
 21
-1048.9999999999959
 31
0.0
1001
ACDBBLOCKREPETAG
1070
     1
1071
      135
1005
121D72
  0
LINE
  5
121D73
  8
OBJECT
 10
5924.0
 20
-1099.9999999999991
 30
0.0
 11
5924.0
 21
-1084.9999999999959
 31
0.0
1001
ACDBBLOCKREPETAG
1070
     1
1071
      136
1005
121D73
  0
LINE
  5
121D74
  8
HIDDEN
 10
5943.0
 20
-1059.9999999999991
 30
0.0
 11
6057.0
 21
-1059.9999999999991
 31
0.0
1001
ACDBBLOCKREPETAG
1070
     1
1071
      137
1005
121D74
  0
LINE
  5
121D75
  8
OBJECT
 10
6086.9999999999918
 20
-1083.2
 30
0.0
 11
6086.9999999999918
 21
-1084.9999999999991
 31
0.0
1001
ACDBBLOCKREPETAG
1070
     1
1071
      138
1005
121D75
  0
LINE
  5
121D76
  8
OBJECT
 10
6068.9999999999909
 20
-1083.2
 30
0.0
 11
6068.9999999999909
 21
-1084.9999999999991
 31
0.0
1001
ACDBBLOCKREPETAG
1070
     1
1071
      139
1005
121D76
  0
LINE
  5
121D77
  8
OBJECT
 10
6072.2499999999927
 20
-1073.4999999999991
 30
0.0
 11
6083.7499999999927
 21
-1073.4999999999991
 31
0.0
1001
ACDBBLOCKREPETAG
1070
     1
1071
      140
1005
121D77
  0
LINE
  5
121D78
  8
OBJECT
 10
6072.2499999999927
 20
-1073.4999999999991
 30
0.0
 11
6072.2499999999927
 21
-1083.2
 31
0.0
1001
ACDBBLOCKREPETAG
1070
     1
1071
      141
1005
121D78
  0
LINE
  5
121D79
  8
OBJECT
 10
6083.7499999999927
 20
-1073.4999999999991
 30
0.0
 11
6083.7499999999927
 21
-1083.2
 31
0.0
1001
ACDBBLOCKREPETAG
1070
     1
1071
      142
1005
121D79
  0
LINE
  5
121D7A
  8
OBJECT
 10
5931.9999999999873
 20
-1164.9999999999991
 30
0.0
 11
6067.9999999999873
 21
-1164.9999999999991
 31
0.0
1001
ACDBBLOCKREPETAG
1070
     1
1071
      143
1005
121D7A
  0
LINE
  5
121D7B
  8
OBJECT
 10
5931.9999999999873
 20
-1164.9999999999991
 30
0.0
 11
5931.9999999999873
 21
-1123.9999999999991
 31
0.0
1001
ACDBBLOCKREPETAG
1070
     1
1071
      144
1005
121D7B
  0
LINE
  5
121D7C
  8
OBJECT
 10
6067.9999999999873
 20
-1164.9999999999991
 30
0.0
 11
6067.9999999999873
 21
-1123.9999999999991
 31
0.0
1001
ACDBBLOCKREPETAG
1070
     1
1071
      145
1005
121D7C
  0
LINE
  5
121D7D
  8
OBJECT
 10
6086.9999999999918
 20
-1083.2
 30
0.0
 11
6068.9999999999909
 21
-1083.2
 31
0.0
1001
ACDBBLOCKREPETAG
1070
     1
1071
      146
1005
121D7D
  0
LINE
  5
121D7E
  8
CENTER
 10
6000.0
 20
-789.99999999999955
 30
0.0
 11
6000.0
 21
-1179.9999999999991
 31
0.0
1001
ACDBBLOCKREPETAG
1070
     1
1071
      147
1005
121D7E
  0
LINE
  5
121D7F
  8
OBJECT
 10
5925.0
 20
-789.99999999999955
 30
0.0
 11
5925.0
 21
-871.99999999999591
 31
0.0
1001
ACDBBLOCKREPETAG
1070
     1
1071
      148
1005
121D7F
  0
LINE
  5
121D80
  8
OBJECT
 10
6075.0
 20
-789.99999999999955
 30
0.0
 11
6075.0
 21
-871.99999999999204
 31
0.0
1001
ACDBBLOCKREPETAG
1070
     1
1071
      149
1005
121D80
  0
LINE
  5
121D81
  8
OBJECT
 10
5925.0
 20
-871.99999999999591
 30
0.0
 11
6075.0
 21
-871.99999999999204
 31
0.0
1001
ACDBBLOCKREPETAG
1070
     1
1071
      150
1005
121D81
  0
LINE
  5
121D82
  8
OBJECT
 10
5943.0
 20
-1048.9999999999959
 30
0.0
 11
5943.0
 21
-999.99999999999204
 31
0.0
1001
ACDBBLOCKREPETAG
1070
     1
1071
      151
1005
121D82
  0
LINE
  5
121D83
  8
OBJECT
 10
6057.0
 20
-999.99999999999204
 30
0.0
 11
5943.0
 21
-999.99999999999204
 31
0.0
1001
ACDBBLOCKREPETAG
1070
     1
1071
      152
1005
121D83
  0
LINE
  5
121D84
  8
OBJECT
 10
6057.0
 20
-999.99999999999204
 30
0.0
 11
6057.0
 21
-1048.9999999999959
 31
0.0
1001
ACDBBLOCKREPETAG
1070
     1
1071
      153
1005
121D84
  0
LINE
  5
121D85
  8
OBJECT
 10
5925.0
 20
-871.99999999999591
 30
0.0
 11
5943.0
 21
-999.99999999999204
 31
0.0
1001
ACDBBLOCKREPETAG
1070
     1
1071
      154
1005
121D85
  0
LINE
  5
121D86
  8
OBJECT
 10
6057.0
 20
-999.99999999999204
 30
0.0
 11
6075.0
 21
-871.99999999999204
 31
0.0
1001
ACDBBLOCKREPETAG
1070
     1
1071
      155
1005
121D86
  0
LINE
  5
121D87
  8
OBJECT
 10
5934.0
 20
-1084.9999999999959
 30
0.0
 11
5934.0
 21
-1048.9999999999959
 31
0.0
1001
ACDBBLOCKREPETAG
1070
     1
1071
      156
1005
121D87
  0
LINE
  5
121D88
  8
OBJECT
 10
6066.0
 20
-1084.9999999999959
 30
0.0
 11
6065.9999999999909
 21
-1048.9999999999959
 31
0.0
1001
ACDBBLOCKREPETAG
1070
     1
1071
      157
1005
121D88
  0
LINE
  5
121D89
  8
OBJECT
 10
5954.75
 20
-1074.699999999993
 30
0.0
 11
5967.2499999999991
 21
-1074.699999999993
 31
0.0
1001
ACDBBLOCKREPETAG
1070
     1
1071
      158
1005
121D89
  0
LINE
  5
121D8A
  8
OBJECT
 10
5946.0
 20
-1084.9999999999959
 30
0.0
 11
5946.0
 21
-1082.699999999996
 31
0.0
1001
ACDBBLOCKREPETAG
1070
     1
1071
      159
1005
121D8A
  0
LINE
  5
121D8B
  8
OBJECT
 10
5976.0
 20
-1084.9999999999959
 30
0.0
 11
5976.0
 21
-1082.699999999996
 31
0.0
1001
ACDBBLOCKREPETAG
1070
     1
1071
      160
1005
121D8B
  0
LINE
  5
121D8C
  8
OBJECT
 10
5954.75
 20
-1074.699999999993
 30
0.0
 11
5954.75
 21
-1082.699999999996
 31
0.0
1001
ACDBBLOCKREPETAG
1070
     1
1071
      161
1005
121D8C
  0
LINE
  5
121D8D
  8
OBJECT
 10
5967.2499999999991
 20
-1074.699999999993
 30
0.0
 11
5967.2499999999991
 21
-1082.699999999996
 31
0.0
1001
ACDBBLOCKREPETAG
1070
     1
1071
      162
1005
121D8D
  0
LINE
  5
121D8E
  8
OBJECT
 10
5946.0
 20
-1082.699999999996
 30
0.0
 11
5976.0
 21
-1082.699999999996
 31
0.0
1001
ACDBBLOCKREPETAG
1070
     1
1071
      163
1005
121D8E
  0
LINE
  5
121D8F
  8
OBJECT
 10
5953.0
 20
-1123.9999999999959
 30
0.0
 11
5953.0
 21
-1133.9999999999959
 31
0.0
1001
ACDBBLOCKREPETAG
1070
     1
1071
      164
1005
121D8F
  0
LINE
  5
121D90
  8
OBJECT
 10
5969.0
 20
-1123.9999999999959
 30
0.0
 11
5969.0
 21
-1133.9999999999959
 31
0.0
1001
ACDBBLOCKREPETAG
1070
     1
1071
      165
1005
121D90
  0
LINE
  5
121D91
  8
OBJECT
 10
5953.0
 20
-1133.9999999999959
 30
0.0
 11
5969.0
 21
-1133.9999999999959
 31
0.0
1001
ACDBBLOCKREPETAG
1070
     1
1071
      166
1005
121D91
  0
LINE
  5
121D92
  8
OBJECT
 10
5966.0
 20
-1109.9999999999959
 30
0.0
 11
5966.0
 21
-1099.9999999999959
 31
0.0
1001
ACDBBLOCKREPETAG
1070
     1
1071
      167
1005
121D92
  0
LINE
  5
121D93
  8
OBJECT
 10
5956.0
 20
-1109.9999999999959
 30
0.0
 11
5956.0
 21
-1099.9999999999959
 31
0.0
1001
ACDBBLOCKREPETAG
1070
     1
1071
      168
1005
121D93
  0
LINE
  5
121D94
  8
OBJECT
 10
4090.0
 20
-1084.9999999999959
 30
0.0
 11
3924.0
 21
-1084.9999999999959
 31
0.0
1001
ACDBBLOCKREPETAG
1070
     1
1071
       12
1005
121D94
  0
LINE
  5
121D95
  8
OBJECT
 10
4066.0
 20
-1048.9999999999959
 30
0.0
 11
3934.0
 21
-1048.9999999999959
 31
0.0
1001
ACDBBLOCKREPETAG
1070
     1
1071
       13
1005
121D95
  0
LINE
  5
121D96
  8
OBJECT
 10
4090.0
 20
-1099.9999999999991
 30
0.0
 11
4090.0
 21
-1084.9999999999959
 31
0.0
1001
ACDBBLOCKREPETAG
1070
     1
1071
       14
1005
121D96
  0
LINE
  5
121D97
  8
OBJECT
 10
3924.0
 20
-1099.9999999999991
 30
0.0
 11
4090.0
 21
-1099.9999999999991
 31
0.0
1001
ACDBBLOCKREPETAG
1070
     1
1071
       15
1005
121D97
  0
LINE
  5
121D98
  8
OBJECT
 10
4067.4999999999841
 20
-1099.9999999999991
 30
0.0
 11
4067.4999999999841
 21
-1109.9999999999991
 31
0.0
1001
ACDBBLOCKREPETAG
1070
     1
1071
       16
1005
121D98
  0
LINE
  5
121D99
  8
OBJECT
 10
3924.0
 20
-1109.9999999999991
 30
0.0
 11
3924.0
 21
-1123.9999999999959
 31
0.0
1001
ACDBBLOCKREPETAG
1070
     1
1071
       17
1005
121D99
  0
LINE
  5
121D9A
  8
OBJECT
 10
4090.0
 20
-1109.9999999999991
 30
0.0
 11
4090.0
 21
-1123.9999999999959
 31
0.0
1001
ACDBBLOCKREPETAG
1070
     1
1071
       18
1005
121D9A
  0
LINE
  5
121D9B
  8
OBJECT
 10
3924.0
 20
-1123.9999999999959
 30
0.0
 11
4090.0
 21
-1123.9999999999959
 31
0.0
1001
ACDBBLOCKREPETAG
1070
     1
1071
       19
1005
121D9B
  0
LINE
  5
121D9C
  8
OBJECT
 10
3924.0
 20
-1109.9999999999991
 30
0.0
 11
4090.0
 21
-1109.9999999999991
 31
0.0
1001
ACDBBLOCKREPETAG
1070
     1
1071
       20
1005
121D9C
  0
LINE
  5
121D9D
  8
OBJECT
 10
3932.499999999985
 20
-1099.9999999999991
 30
0.0
 11
3932.499999999985
 21
-1109.9999999999991
 31
0.0
1001
ACDBBLOCKREPETAG
1070
     1
1071
       21
1005
121D9D
  0
LINE
  5
121D9E
  8
OBJECT
 10
3924.0
 20
-1099.9999999999991
 30
0.0
 11
3924.0
 21
-1084.9999999999959
 31
0.0
1001
ACDBBLOCKREPETAG
1070
     1
1071
       22
1005
121D9E
  0
LINE
  5
121D9F
  8
HIDDEN
 10
3943.0
 20
-1059.9999999999991
 30
0.0
 11
4057.0
 21
-1059.9999999999991
 31
0.0
1001
ACDBBLOCKREPETAG
1070
     1
1071
       23
1005
121D9F
  0
LINE
  5
121DA0
  8
CENTER
 10
4000.0
 20
-789.99999999999955
 30
0.0
 11
4000.0
 21
-1138.9999999999959
 31
0.0
1001
ACDBBLOCKREPETAG
1070
     1
1071
       24
1005
121DA0
  0
LINE
  5
121DA1
  8
OBJECT
 10
3925.0
 20
-789.99999999999955
 30
0.0
 11
3925.0
 21
-871.99999999999591
 31
0.0
1001
ACDBBLOCKREPETAG
1070
     1
1071
       25
1005
121DA1
  0
LINE
  5
121DA2
  8
OBJECT
 10
4075.0
 20
-789.99999999999955
 30
0.0
 11
4075.0
 21
-871.99999999999204
 31
0.0
1001
ACDBBLOCKREPETAG
1070
     1
1071
       26
1005
121DA2
  0
LINE
  5
121DA3
  8
OBJECT
 10
3925.0
 20
-871.99999999999591
 30
0.0
 11
4075.0
 21
-871.99999999999204
 31
0.0
1001
ACDBBLOCKREPETAG
1070
     1
1071
       27
1005
121DA3
  0
LINE
  5
121DA4
  8
OBJECT
 10
4057.0
 20
-1048.9999999999959
 30
0.0
 11
4057.0
 21
-999.99999999999204
 31
0.0
1001
ACDBBLOCKREPETAG
1070
     1
1071
       28
1005
121DA4
  0
LINE
  5
121DA5
  8
OBJECT
 10
3943.0
 20
-1048.9999999999959
 30
0.0
 11
3943.0
 21
-999.99999999999204
 31
0.0
1001
ACDBBLOCKREPETAG
1070
     1
1071
       29
1005
121DA5
  0
LINE
  5
121DA6
  8
OBJECT
 10
4057.0
 20
-999.99999999999204
 30
0.0
 11
3943.0
 21
-999.99999999999204
 31
0.0
1001
ACDBBLOCKREPETAG
1070
     1
1071
       30
1005
121DA6
  0
LINE
  5
121DA7
  8
OBJECT
 10
3925.0
 20
-871.99999999999591
 30
0.0
 11
3943.0
 21
-999.99999999999204
 31
0.0
1001
ACDBBLOCKREPETAG
1070
     1
1071
       31
1005
121DA7
  0
LINE
  5
121DA8
  8
OBJECT
 10
4057.0
 20
-999.99999999999204
 30
0.0
 11
4075.0
 21
-871.99999999999204
 31
0.0
1001
ACDBBLOCKREPETAG
1070
     1
1071
       32
1005
121DA8
  0
LINE
  5
121DA9
  8
OBJECT
 10
3934.0
 20
-1048.9999999999959
 30
0.0
 11
3934.0
 21
-1084.9999999999959
 31
0.0
1001
ACDBBLOCKREPETAG
1070
     1
1071
       33
1005
121DA9
  0
LINE
  5
121DAA
  8
OBJECT
 10
4066.0
 20
-1048.9999999999959
 30
0.0
 11
4066.0
 21
-1084.9999999999959
 31
0.0
1001
ACDBBLOCKREPETAG
1070
     1
1071
       34
1005
121DAA
  0
LINE
  5
121DAB
  8
OBJECT
 10
4082.9999999999932
 20
-1109.9999999999959
 30
0.0
 11
4082.9999999999932
 21
-1099.9999999999959
 31
0.0
1001
ACDBBLOCKREPETAG
1070
     1
1071
       35
1005
121DAB
  0
LINE
  5
121DAC
  8
OBJECT
 10
4072.9999999999918
 20
-1109.9999999999959
 30
0.0
 11
4072.9999999999918
 21
-1099.9999999999959
 31
0.0
1001
ACDBBLOCKREPETAG
1070
     1
1071
       36
1005
121DAC
  0
LINE
  5
121DAD
  8
OBJECT
 10
4068.9999999999841
 20
-1079.9999999999959
 30
0.0
 11
4068.9999999999841
 21
-1084.9999999999959
 31
0.0
1001
ACDBBLOCKREPETAG
1070
     1
1071
       37
1005
121DAD
  0
LINE
  5
121DAE
  8
OBJECT
 10
4087.0
 20
-1079.9999999999959
 30
0.0
 11
4087.0
 21
-1084.9999999999959
 31
0.0
1001
ACDBBLOCKREPETAG
1070
     1
1071
       38
1005
121DAE
  0
LINE
  5
121DAF
  8
OBJECT
 10
4087.0
 20
-1079.9999999999959
 30
0.0
 11
4068.9999999999841
 21
-1079.9999999999959
 31
0.0
1001
ACDBBLOCKREPETAG
1070
     1
1071
       39
1005
121DAF
  0
LINE
  5
121DB0
  8
OBJECT
 10
4073.0
 20
-1131.9999999999959
 30
0.0
 11
4073.0
 21
-1134.9999999999959
 31
0.0
1001
ACDBBLOCKREPETAG
1070
     1
1071
       40
1005
121DB0
  0
LINE
  5
121DB1
  8
OBJECT
 10
4073.0
 20
-1134.9999999999959
 30
0.0
 11
4083.0
 21
-1134.9999999999959
 31
0.0
1001
ACDBBLOCKREPETAG
1070
     1
1071
       41
1005
121DB1
  0
LINE
  5
121DB2
  8
OBJECT
 10
4083.0
 20
-1134.9999999999959
 30
0.0
 11
4083.0
 21
-1131.9999999999959
 31
0.0
1001
ACDBBLOCKREPETAG
1070
     1
1071
       43
1005
121DB2
  0
LINE
  5
121DB3
  8
OBJECT
 10
3968.5
 20
-1079.9999999999959
 30
0.0
 11
3951.9999999999932
 21
-1079.9999999999959
 31
0.0
1001
ACDBBLOCKREPETAG
1070
     1
1071
       48
1005
121DB3
  0
LINE
  5
121DB4
  8
OBJECT
 10
3976.0
 20
-1084.9999999999959
 30
0.0
 11
3976.0
 21
-1082.9999999999959
 31
0.0
1001
ACDBBLOCKREPETAG
1070
     1
1071
       49
1005
121DB4
  0
LINE
  5
121DB5
  8
OBJECT
 10
3966.0
 20
-1109.9999999999959
 30
0.0
 11
3966.0
 21
-1099.9999999999959
 31
0.0
1001
ACDBBLOCKREPETAG
1070
     1
1071
       50
1005
121DB5
  0
LINE
  5
121DB6
  8
OBJECT
 10
3956.0
 20
-1109.9999999999959
 30
0.0
 11
3956.0
 21
-1099.9999999999959
 31
0.0
1001
ACDBBLOCKREPETAG
1070
     1
1071
       51
1005
121DB6
  0
LINE
  5
121DB7
  8
OBJECT
 10
3951.9999999999932
 20
-1079.9999999999959
 30
0.0
 11
3951.9999999999932
 21
-1084.9999999999959
 31
0.0
1001
ACDBBLOCKREPETAG
1070
     1
1071
       52
1005
121DB7
  0
LINE
  5
121DB8
  8
OBJECT
 10
3956.0
 20
-1131.9999999999959
 30
0.0
 11
3956.0
 21
-1134.9999999999959
 31
0.0
1001
ACDBBLOCKREPETAG
1070
     1
1071
       53
1005
121DB8
  0
LINE
  5
121DB9
  8
OBJECT
 10
3956.0
 20
-1134.9999999999959
 30
0.0
 11
3966.0
 21
-1134.9999999999959
 31
0.0
1001
ACDBBLOCKREPETAG
1070
     1
1071
       54
1005
121DB9
  0
LINE
  5
121DBA
  8
OBJECT
 10
3951.185045423772
 20
-1131.9999999999959
 30
0.0
 11
3970.8149545762212
 21
-1131.9999999999959
 31
0.0
1001
ACDBBLOCKREPETAG
1070
     1
1071
       55
1005
121DBA
  0
LINE
  5
121DBB
  8
OBJECT
 10
3966.0
 20
-1134.9999999999959
 30
0.0
 11
3966.0
 21
-1131.9999999999959
 31
0.0
1001
ACDBBLOCKREPETAG
1070
     1
1071
       56
1005
121DBB
  0
LINE
  5
121DBC
  8
OBJECT
 10
3976.0
 20
-1082.9999999999959
 30
0.0
 11
3968.5
 21
-1079.9999999999959
 31
0.0
1001
ACDBBLOCKREPETAG
1070
     1
1071
       57
1005
121DBC
  0
LINE
  5
121DBD
  8
OBJECT
 10
3951.185045423777
 20
-1123.9999999999959
 30
0.0
 11
3951.185045423777
 21
-1131.9999999999959
 31
0.0
1001
ACDBBLOCKREPETAG
1070
     1
1071
      630
1005
121DBD
  0
LINE
  5
121DBE
  8
OBJECT
 10
3956.0925227118901
 20
-1123.9999999999959
 30
0.0
 11
3956.0925227118901
 21
-1131.9999999999959
 31
0.0
1001
ACDBBLOCKREPETAG
1070
     1
1071
      631
1005
121DBE
  0
LINE
  5
121DBF
  8
OBJECT
 10
3965.9074772881122
 20
-1123.9999999999959
 30
0.0
 11
3965.9074772881122
 21
-1131.9999999999959
 31
0.0
1001
ACDBBLOCKREPETAG
1070
     1
1071
      632
1005
121DBF
  0
LINE
  5
121DC0
  8
OBJECT
 10
3970.814954576223
 20
-1123.9999999999959
 30
0.0
 11
3970.814954576223
 21
-1131.9999999999959
 31
0.0
1001
ACDBBLOCKREPETAG
1070
     1
1071
      633
1005
121DC0
  0
LINE
  5
121DC1
  8
OBJECT
 10
4068.185045423772
 20
-1131.9999999999959
 30
0.0
 11
4087.8149545762199
 21
-1131.9999999999959
 31
0.0
1001
ACDBBLOCKREPETAG
1070
     1
1071
      634
1005
121DC1
  0
LINE
  5
121DC2
  8
OBJECT
 10
4068.185045423777
 20
-1123.9999999999959
 30
0.0
 11
4068.185045423777
 21
-1131.9999999999959
 31
0.0
1001
ACDBBLOCKREPETAG
1070
     1
1071
      635
1005
121DC2
  0
LINE
  5
121DC3
  8
OBJECT
 10
4073.0925227118869
 20
-1123.9999999999959
 30
0.0
 11
4073.0925227118869
 21
-1131.9999999999959
 31
0.0
1001
ACDBBLOCKREPETAG
1070
     1
1071
      636
1005
121DC3
  0
LINE
  5
121DC4
  8
OBJECT
 10
4082.9074772881122
 20
-1123.9999999999959
 30
0.0
 11
4082.9074772881122
 21
-1131.9999999999959
 31
0.0
1001
ACDBBLOCKREPETAG
1070
     1
1071
      637
1005
121DC4
  0
LINE
  5
121DC5
  8
OBJECT
 10
4087.814954576223
 20
-1123.9999999999959
 30
0.0
 11
4087.814954576223
 21
-1131.9999999999959
 31
0.0
1001
ACDBBLOCKREPETAG
1070
     1
1071
      638
1005
121DC5
  0
LINE
  5
121DC6
  8
OBJECT
 10
1943.0
 20
-1099.9999999999959
 30
0.0
 11
2057.0
 21
-1099.9999999999959
 31
0.0
1001
ACDBBLOCKREPETAG
1070
     1
1071
        0
1005
121DC6
  0
LINE
  5
121DC7
  8
OBJECT
 10
1943.0
 20
-1099.9999999999959
 30
0.0
 11
1943.0
 21
-999.99999999999602
 31
0.0
1001
ACDBBLOCKREPETAG
1070
     1
1071
        1
1005
121DC7
  0
LINE
  5
121DC8
  8
OBJECT
 10
2057.0
 20
-1099.9999999999959
 30
0.0
 11
2057.0
 21
-999.99999999999602
 31
0.0
1001
ACDBBLOCKREPETAG
1070
     1
1071
        2
1005
121DC8
  0
LINE
  5
121DC9
  8
OBJECT
 10
1943.0
 20
-999.99999999999602
 30
0.0
 11
2057.0
 21
-999.99999999999602
 31
0.0
1001
ACDBBLOCKREPETAG
1070
     1
1071
        3
1005
121DC9
  0
LINE
  5
121DCA
  8
HIDDEN
 10
1950.0
 20
-999.99999999999602
 30
0.0
 11
1950.0
 21
-1099.9999999999959
 31
0.0
1001
ACDBBLOCKREPETAG
1070
     1
1071
        4
1005
121DCA
  0
LINE
  5
121DCB
  8
HIDDEN
 10
2050.0
 20
-999.99999999999602
 30
0.0
 11
2050.0
 21
-1099.9999999999959
 31
0.0
1001
ACDBBLOCKREPETAG
1070
     1
1071
        5
1005
121DCB
  0
LINE
  5
121DCC
  8
CENTER
 10
2000.0
 20
-789.99999999999955
 30
0.0
 11
2000.0
 21
-1114.9999999999959
 31
0.0
1001
ACDBBLOCKREPETAG
1070
     1
1071
        6
1005
121DCC
  0
LINE
  5
121DCD
  8
OBJECT
 10
1925.0
 20
-789.99999999999955
 30
0.0
 11
1925.0
 21
-871.99999999999591
 31
0.0
1001
ACDBBLOCKREPETAG
1070
     1
1071
        7
1005
121DCD
  0
LINE
  5
121DCE
  8
OBJECT
 10
2075.0
 20
-789.99999999999955
 30
0.0
 11
2075.0
 21
-871.99999999999591
 31
0.0
1001
ACDBBLOCKREPETAG
1070
     1
1071
        8
1005
121DCE
  0
LINE
  5
121DCF
  8
OBJECT
 10
1925.0
 20
-871.99999999999591
 30
0.0
 11
2075.0
 21
-871.99999999999591
 31
0.0
1001
ACDBBLOCKREPETAG
1070
     1
1071
        9
1005
121DCF
  0
LINE
  5
121DD0
  8
OBJECT
 10
1925.0
 20
-871.99999999999591
 30
0.0
 11
1943.0
 21
-999.99999999999602
 31
0.0
1001
ACDBBLOCKREPETAG
1070
     1
1071
       10
1005
121DD0
  0
LINE
  5
121DD1
  8
OBJECT
 10
2057.0
 20
-999.99999999999602
 30
0.0
 11
2075.0
 21
-871.99999999999591
 31
0.0
1001
ACDBBLOCKREPETAG
1070
     1
1071
       11
1005
121DD1
  0
LINE
  5
121DD2
  8
OBJECT
 10
2212.999999999985
 20
-453.0000000000008
 30
0.0
 11
2219.999999999985
 21
-453.0000000000008
 31
0.0
1001
ACDBBLOCKREPETAG
1070
     1
1071
      106
1005
121DD2
  0
LINE
  5
121DD3
  8
OBJECT
 10
2219.999999999985
 20
-453.0000000000008
 30
0.0
 11
2219.999999999985
 21
-577.0000000000008
 31
0.0
1001
ACDBBLOCKREPETAG
1070
     1
1071
      107
1005
121DD3
  0
LINE
  5
121DD4
  8
OBJECT
 10
2085.9999999999859
 20
-553.3502637757274
 30
0.0
 11
2085.9999999999859
 21
-655.00000000000068
 31
0.0
1001
ACDBBLOCKREPETAG
1070
     1
1071
      108
1005
121DD4
  0
LINE
  5
121DD5
  8
OBJECT
 10
2219.999999999985
 20
-577.0000000000008
 30
0.0
 11
2212.999999999985
 21
-577.0000000000008
 31
0.0
1001
ACDBBLOCKREPETAG
1070
     1
1071
      109
1005
121DD5
  0
LINE
  5
121DD6
  8
OBJECT
 10
2212.999999999985
 20
-577.0000000000008
 30
0.0
 11
2212.999999999985
 21
-453.0000000000008
 31
0.0
1001
ACDBBLOCKREPETAG
1070
     1
1071
      110
1005
121DD6
  0
LINE
  5
121DD7
  8
CENTER
 10
2144.999999999985
 20
-515.0000000000008
 30
0.0
 11
2234.9999999999859
 21
-515.0000000000008
 31
0.0
1001
ACDBBLOCKREPETAG
1070
     1
1071
      111
1005
121DD7
  0
LINE
  5
121DD8
  8
OBJECT
 10
2079.9999999999809
 20
-658.0
 30
0.0
 11
2082.999999999985
 21
-658.0000000000008
 31
0.0
1001
ACDBBLOCKREPETAG
1070
     1
1071
      112
1005
121DD8
  0
ARC
  5
121DD9
  8
OBJECT
 10
2082.999999999985
 20
-655.00000000000068
 30
0.0
 40
3.0
 50
270.0
 51
0.0
1001
ACDBBLOCKREPETAG
1070
     1
1071
      113
1005
121DD9
  0
LINE
  5
121DDA
  8
OBJECT
 10
2212.999999999985
 20
-456.0000000000008
 30
0.0
 11
2176.999999999985
 21
-456.0000000000008
 31
0.0
1001
ACDBBLOCKREPETAG
1070
     1
1071
      114
1005
121DDA
  0
LINE
  5
121DDB
  8
OBJECT
 10
2176.999999999985
 20
-456.0000000000008
 30
0.0
 11
2176.999999999985
 21
-553.15756805667843
 31
0.0
1001
ACDBBLOCKREPETAG
1070
     1
1071
      115
1005
121DDB
  0
LINE
  5
121DDC
  8
OBJECT
 10
2172.999999999985
 20
-460.5000000000008
 30
0.0
 11
2172.9999999999818
 21
-545.74491827928705
 31
0.0
1001
ACDBBLOCKREPETAG
1070
     1
1071
      116
1005
121DDC
  0
LINE
  5
121DDD
  8
OBJECT
 10
2172.999999999985
 20
-460.5000000000008
 30
0.0
 11
2159.999999999985
 21
-460.5000000000008
 31
0.0
1001
ACDBBLOCKREPETAG
1070
     1
1071
      117
1005
121DDD
  0
LINE
  5
121DDE
  8
OBJECT
 10
2168.6563168254688
 20
-574.0000000000008
 30
0.0
 11
2212.999999999985
 21
-574.0000000000008
 31
0.0
1001
ACDBBLOCKREPETAG
1070
     1
1071
      118
1005
121DDE
  0
LINE
  5
121DDF
  8
OBJECT
 10
2176.999999999985
 20
-456.0000000000008
 30
0.0
 11
2172.999999999985
 21
-460.5000000000008
 31
0.0
1001
ACDBBLOCKREPETAG
1070
     1
1071
      119
1005
121DDF
  0
LINE
  5
121DE0
  8
OBJECT
 10
2159.999999999985
 20
-460.5000000000008
 30
0.0
 11
2159.999999999985
 21
-545.74491827928784
 31
0.0
1001
ACDBBLOCKREPETAG
1070
     1
1071
      120
1005
121DE0
  0
ARC
  5
121DE1
  8
OBJECT
 10
2091.9999999999859
 20
-537.27386365609345
 30
0.0
 40
85.0
 50
308.59099323720869
 51
334.40086127812339
1001
ACDBBLOCKREPETAG
1070
     1
1071
      121
1005
121DE1
  0
ARC
  5
121DE2
  8
OBJECT
 10
2162.7999999999852
 20
-555.00000000000068
 30
0.0
 40
85.0
 50
91.887731891831123
 51
160.07406787456929
1001
ACDBBLOCKREPETAG
1070
     1
1071
      122
1005
121DE2
  0
LINE
  5
121DE3
  8
OBJECT
 10
2085.9999999999859
 20
-650.81075719270927
 30
0.0
 11
2145.0193225436019
 21
-603.71143914629465
 31
0.0
1001
ACDBBLOCKREPETAG
1070
     1
1071
      123
1005
121DE3
  0
LINE
  5
121DE4
  8
OBJECT
 10
2172.9999999999818
 20
-545.74491827928705
 30
0.0
 11
2159.999999999985
 21
-545.74491827928784
 31
0.0
1001
ACDBBLOCKREPETAG
1070
     1
1071
      124
1005
121DE4
  0
LINE
  5
121DE5
  8
OBJECT
 10
2176.999999999985
 20
-553.15756805667843
 30
0.0
 11
2172.9999999999818
 21
-545.74491827928705
 31
0.0
1001
ACDBBLOCKREPETAG
1070
     1
1071
      125
1005
121DE5
  0
LINE
  5
121DE6
  8
OBJECT
 10
2080.0000000000191
 20
-534.0
 30
0.0
 11
2082.8886121596229
 21
-526.03156729425325
 31
0.0
1001
ACDBBLOCKREPETAG
1070
     1
1071
      126
1005
121DE6
  0
LINE
  5
121DE7
  8
OBJECT
 10
2080.0000000000191
 20
-534.0
 30
0.0
 11
2085.9999999999859
 21
-553.3502637757274
 31
0.0
1001
ACDBBLOCKREPETAG
1070
     1
1071
      127
1005
121DE7
  0
LINE
  5
121DE8
  8
HIDDEN
 10
2167.999999999985
 20
-470.5000000000008
 30
0.0
 11
2167.999999999985
 21
-559.50000000000068
 31
0.0
1001
ACDBBLOCKREPETAG
1070
     1
1071
      129
1005
121DE8
  0
LINE
  5
121DE9
  8
OBJECT
 10
2212.999999999985
 20
-137.99999999999909
 30
0.0
 11
2219.999999999985
 21
-137.99999999999909
 31
0.0
1001
ACDBBLOCKREPETAG
1070
     1
1071
      110
1005
121DE9
  0
LINE
  5
121DEA
  8
OBJECT
 10
2219.999999999985
 20
-137.99999999999909
 30
0.0
 11
2219.999999999985
 21
-261.99999999999909
 31
0.0
1001
ACDBBLOCKREPETAG
1070
     1
1071
      111
1005
121DEA
  0
LINE
  5
121DEB
  8
OBJECT
 10
2219.999999999985
 20
-261.99999999999909
 30
0.0
 11
2212.999999999985
 21
-261.99999999999909
 31
0.0
1001
ACDBBLOCKREPETAG
1070
     1
1071
      112
1005
121DEB
  0
LINE
  5
121DEC
  8
OBJECT
 10
2212.999999999985
 20
-261.99999999999909
 30
0.0
 11
2212.999999999985
 21
-137.99999999999909
 31
0.0
1001
ACDBBLOCKREPETAG
1070
     1
1071
      113
1005
121DEC
  0
LINE
  5
121DED
  8
CENTER
 10
2234.9999999999859
 20
-199.99999999999909
 30
0.0
 11
2080.0000000000041
 21
-199.99999999999909
 31
0.0
1001
ACDBBLOCKREPETAG
1070
     1
1071
      114
1005
121DED
  0
LINE
  5
121DEE
  8
OBJECT
 10
2159.999974964187
 20
-245.0000000000027
 30
0.0
 11
2086.0
 21
-244.99999999999909
 31
0.0
1001
ACDBBLOCKREPETAG
1070
     1
1071
      115
1005
121DEE
  0
LINE
  5
121DEF
  8
OBJECT
 10
2159.999974964187
 20
-154.99999999999909
 30
0.0
 11
2086.0
 21
-154.99999999999909
 31
0.0
1001
ACDBBLOCKREPETAG
1070
     1
1071
      116
1005
121DEF
  0
LINE
  5
121DF0
  8
OBJECT
 10
2212.999999999985
 20
-140.99999999999909
 30
0.0
 11
2176.999999999985
 21
-140.99999999999909
 31
0.0
1001
ACDBBLOCKREPETAG
1070
     1
1071
      117
1005
121DF0
  0
LINE
  5
121DF1
  8
OBJECT
 10
2176.999999999985
 20
-140.99999999999909
 30
0.0
 11
2176.999999999985
 21
-258.99999999999909
 31
0.0
1001
ACDBBLOCKREPETAG
1070
     1
1071
      118
1005
121DF1
  0
LINE
  5
121DF2
  8
OBJECT
 10
2176.999999999985
 20
-258.99999999999909
 30
0.0
 11
2212.999999999985
 21
-258.99999999999909
 31
0.0
1001
ACDBBLOCKREPETAG
1070
     1
1071
      119
1005
121DF2
  0
LINE
  5
121DF3
  8
OBJECT
 10
2172.999999999985
 20
-145.49999999999909
 30
0.0
 11
2159.999999999985
 21
-145.49999999999909
 31
0.0
1001
ACDBBLOCKREPETAG
1070
     1
1071
      120
1005
121DF3
  0
LINE
  5
121DF4
  8
OBJECT
 10
2159.999999999985
 20
-254.49999999999909
 30
0.0
 11
2172.999999999985
 21
-254.49999999999909
 31
0.0
1001
ACDBBLOCKREPETAG
1070
     1
1071
      121
1005
121DF4
  0
LINE
  5
121DF5
  8
OBJECT
 10
2172.999999999985
 20
-254.49999999999909
 30
0.0
 11
2172.999999999985
 21
-145.49999999999909
 31
0.0
1001
ACDBBLOCKREPETAG
1070
     1
1071
      122
1005
121DF5
  0
LINE
  5
121DF6
  8
OBJECT
 10
2176.999999999985
 20
-140.99999999999909
 30
0.0
 11
2172.999999999985
 21
-145.49999999999909
 31
0.0
1001
ACDBBLOCKREPETAG
1070
     1
1071
      123
1005
121DF6
  0
LINE
  5
121DF7
  8
OBJECT
 10
2176.999999999985
 20
-258.99999999999909
 30
0.0
 11
2172.999999999985
 21
-254.49999999999909
 31
0.0
1001
ACDBBLOCKREPETAG
1070
     1
1071
      124
1005
121DF7
  0
LINE
  5
121DF8
  8
OBJECT
 10
2083.0
 20
-137.99999999999909
 30
0.0
 11
2080.0
 21
-137.99999999999909
 31
0.0
1001
ACDBBLOCKREPETAG
1070
     1
1071
      125
1005
121DF8
  0
ARC
  5
121DF9
  8
OBJECT
 10
2083.0
 20
-140.99999999999909
 30
0.0
 40
3.0
 50
0.0
 51
90.0
1001
ACDBBLOCKREPETAG
1070
     1
1071
      126
1005
121DF9
  0
LINE
  5
121DFA
  8
OBJECT
 10
2080.0
 20
-261.99999999999909
 30
0.0
 11
2083.0
 21
-261.99999999999909
 31
0.0
1001
ACDBBLOCKREPETAG
1070
     1
1071
      127
1005
121DFA
  0
ARC
  5
121DFB
  8
OBJECT
 10
2083.0
 20
-258.99999999999909
 30
0.0
 40
3.0
 50
270.0
 51
0.0
1001
ACDBBLOCKREPETAG
1070
     1
1071
      128
1005
121DFB
  0
LINE
  5
121DFC
  8
OBJECT
 10
2086.0
 20
-258.99999999999909
 30
0.0
 11
2086.0
 21
-222.44994432063581
 31
0.0
1001
ACDBBLOCKREPETAG
1070
     1
1071
      129
1005
121DFC
  0
LINE
  5
121DFD
  8
OBJECT
 10
2086.0
 20
-177.55005567935859
 30
0.0
 11
2086.0
 21
-140.99999999999909
 31
0.0
1001
ACDBBLOCKREPETAG
1070
     1
1071
      130
1005
121DFD
  0
LINE
  5
121DFE
  8
HIDDEN
 10
2167.999999999985
 20
-155.49999999999909
 30
0.0
 11
2167.999999999985
 21
-244.49999999999909
 31
0.0
1001
ACDBBLOCKREPETAG
1070
     1
1071
      131
1005
121DFE
  0
LINE
  5
121DFF
  8
OBJECT
 10
2159.999974964187
 20
-254.4999509238105
 30
0.0
 11
2159.999974964187
 21
-145.4999509238105
 31
0.0
1001
ACDBBLOCKREPETAG
1070
     1
1071
      133
1005
121DFF
  0
ARC
  5
121E00
  8
OBJECT
 10
2125.0000000000032
 20
-199.99999999999909
 30
0.0
 40
45.000000000000547
 50
90.0
 51
270.0
1001
ACDBBLOCKREPETAG
1070
     1
1071
      134
1005
121E00
  0
TEXT
  5
121E01
  8
SLIM
 10
0.0
 20
670.0
 30
0.0
 40
100.0
  1
4SLT-Z6-P140-S
 41
0.75
  0
TEXT
  5
121E02
  8
SLIM
 10
0.0
 20
520.0
 30
0.0
 40
100.0
  1
4SLT-Z6-P140-W
 41
0.75
  0
LINE
  5
121E03
  8
CENTER
 10
11909.0
 20
-1373.9999999999959
 30
0.0
 11
12105.0
 21
-1373.9999999999959
 31
0.0
1001
ACDBBLOCKREPETAG
1070
     1
1071
       10
1005
121E03
  0
LINE
  5
121E04
  8
CENTER
 10
12000.0
 20
-1282.725335570779
 30
0.0
 11
12000.0
 21
-1465.274664429212
 31
0.0
1001
ACDBBLOCKREPETAG
1070
     1
1071
       11
1005
121E04
  0
CIRCLE
  5
121E05
  8
OBJECT
 10
12000.0
 20
-1373.9999999999959
 30
0.0
 40
50.0
1001
ACDBBLOCKREPETAG
1070
     1
1071
       12
1005
121E05
  0
CIRCLE
  5
121E06
  8
OBJECT
 10
12000.0
 20
-1373.9999999999959
 30
0.0
 40
60.0
1001
ACDBBLOCKREPETAG
1070
     1
1071
       13
1005
121E06
  0
CIRCLE
  5
121E07
  8
OBJECT
 10
12000.0
 20
-1373.9999999999959
 30
0.0
 40
68.0
1001
ACDBBLOCKREPETAG
1070
     1
1071
       14
1005
121E07
  0
ARC
  5
121E08
  8
OBJECT
 10
12077.5
 20
-1373.9999999999959
 30
0.0
 40
12.0
 50
272.10542627221611
 51
87.894573727783893
1001
ACDBBLOCKREPETAG
1070
     1
1071
       15
1005
121E08
  0
ARC
  5
121E09
  8
OBJECT
 10
12078.49193548386
 20
-1347.0182271895239
 30
0.0
 40
15.0
 50
198.97051877965251
 51
267.89457372778372
1001
ACDBBLOCKREPETAG
1070
     1
1071
       16
1005
121E09
  0
ARC
  5
121E0A
  8
OBJECT
 10
12078.49193548386
 20
-1400.981772810464
 30
0.0
 40
15.0
 50
92.105426272216135
 51
161.02948122034729
1001
ACDBBLOCKREPETAG
1070
     1
1071
       17
1005
121E0A
  0
CIRCLE
  5
121E0B
  8
SLIM
 10
12078.0
 20
-1373.9999999999959
 30
0.0
 40
8.0
1001
ACDBBLOCKREPETAG
1070
     1
1071
       18
1005
121E0B
  0
POLYLINE
  5
121E0C
  8
SLIM
 66
     1
 10
0.0
 20
0.0
 30
0.0
 70
     1
1001
ACDBBLOCKREPETAG
1070
     1
1071
       19
1005
121E0C
  0
VERTEX
  5
121FE8
  8
SLIM
 10
12075.69059892322
 20
-1369.9999999999959
 30
0.0
  0
VERTEX
  5
121FE9
  8
SLIM
 10
12073.38119784648
 20
-1373.9999999999959
 30
0.0
  0
VERTEX
  5
121FEA
  8
SLIM
 10
12075.69059892322
 20
-1377.9999999999959
 30
0.0
  0
VERTEX
  5
121FEB
  8
SLIM
 10
12080.309401076751
 20
-1377.9999999999959
 30
0.0
  0
VERTEX
  5
121FEC
  8
SLIM
 10
12082.618802153511
 20
-1373.9999999999959
 30
0.0
  0
VERTEX
  5
121FED
  8
SLIM
 10
12080.309401076751
 20
-1369.9999999999959
 30
0.0
  0
SEQEND
  5
121FEE
  8
SLIM
  0
ARC
  5
121E0D
  8
OBJECT
 10
11961.25
 20
-1306.8830312067
 30
0.0
 40
12.0
 50
32.105426272130188
 51
207.89457372768319
1001
ACDBBLOCKREPETAG
1070
     1
1071
       20
1005
121E0D
  0
ARC
  5
121E0E
  8
OBJECT
 10
11937.38713156505
 20
-1319.5148762839881
 30
0.0
 40
15.0
 50
318.97051877944762
 51
27.89457372768311
1001
ACDBBLOCKREPETAG
1070
     1
1071
       21
1005
121E0E
  0
ARC
  5
121E0F
  8
OBJECT
 10
11984.120932951069
 20
-1292.533103473517
 30
0.0
 40
15.0
 50
212.10542627213019
 51
281.02948122044069
1001
ACDBBLOCKREPETAG
1070
     1
1071
       22
1005
121E0F
  0
CIRCLE
  5
121E10
  8
SLIM
 10
11961.0
 20
-1306.4500185048089
 30
0.0
 40
7.9999999999999982
1001
ACDBBLOCKREPETAG
1070
     1
1071
       23
1005
121E10
  0
POLYLINE
  5
121E11
  8
SLIM
 66
     1
 10
0.0
 20
0.0
 30
0.0
 70
     1
1001
ACDBBLOCKREPETAG
1070
     1
1071
       24
1005
121E11
  0
VERTEX
  5
121FEF
  8
SLIM
 10
11958.69059892324
 20
-1310.450018504808
 30
0.0
  0
VERTEX
  5
121FF0
  8
SLIM
 10
11963.309401076751
 20
-1310.450018504808
 30
0.0
  0
VERTEX
  5
121FF1
  8
SLIM
 10
11965.618802153511
 20
-1306.4500185048089
 30
0.0
  0
VERTEX
  5
121FF2
  8
SLIM
 10
11963.309401076751
 20
-1302.450018504808
 30
0.0
  0
VERTEX
  5
121FF3
  8
SLIM
 10
11958.69059892324
 20
-1302.450018504808
 30
0.0
  0
VERTEX
  5
121FF4
  8
SLIM
 10
11956.38119784648
 20
-1306.4500185048089
 30
0.0
  0
SEQEND
  5
121FF5
  8
SLIM
  0
ARC
  5
121E12
  8
OBJECT
 10
11961.25
 20
-1441.1169687932879
 30
0.0
 40
12.0
 50
152.10542627231681
 51
327.89457372786978
1001
ACDBBLOCKREPETAG
1070
     1
1071
       25
1005
121E12
  0
ARC
  5
121E13
  8
OBJECT
 10
11984.120932951069
 20
-1455.4668965264709
 30
0.0
 40
15.0
 50
78.970518779559228
 51
147.89457372786981
1001
ACDBBLOCKREPETAG
1070
     1
1071
       26
1005
121E13
  0
ARC
  5
121E14
  8
OBJECT
 10
11937.38713156505
 20
-1428.485123716003
 30
0.0
 40
15.0
 50
332.10542627231678
 51
41.029481220552412
1001
ACDBBLOCKREPETAG
1070
     1
1071
       27
1005
121E14
  0
CIRCLE
  5
121E15
  8
SLIM
 10
11961.0
 20
-1441.5499814951829
 30
0.0
 40
8.0
1001
ACDBBLOCKREPETAG
1070
     1
1071
       28
1005
121E15
  0
POLYLINE
  5
121E16
  8
SLIM
 66
     1
 10
0.0
 20
0.0
 30
0.0
 70
     1
1001
ACDBBLOCKREPETAG
1070
     1
1071
       29
1005
121E16
  0
VERTEX
  5
121FF6
  8
SLIM
 10
11965.618802153511
 20
-1441.5499814951791
 30
0.0
  0
VERTEX
  5
121FF7
  8
SLIM
 10
11963.309401076751
 20
-1437.549981495182
 30
0.0
  0
VERTEX
  5
121FF8
  8
SLIM
 10
11958.69059892324
 20
-1437.5499814951791
 30
0.0
  0
VERTEX
  5
121FF9
  8
SLIM
 10
11956.38119784648
 20
-1441.5499814951829
 30
0.0
  0
VERTEX
  5
121FFA
  8
SLIM
 10
11958.69059892322
 20
-1445.5499814951791
 30
0.0
  0
VERTEX
  5
121FFB
  8
SLIM
 10
11963.309401076751
 20
-1445.549981495182
 30
0.0
  0
SEQEND
  5
121FFC
  8
SLIM
  0
ARC
  5
121E17
  8
OBJECT
 10
12000.0
 20
-1373.9999999999959
 30
0.0
 40
76.0
 50
34.863837954171863
 51
85.136162045732945
1001
ACDBBLOCKREPETAG
1070
     1
1071
       42
1005
121E17
  0
ARC
  5
121E18
  8
OBJECT
 10
12000.0
 20
-1373.9999999999959
 30
0.0
 40
76.0
 50
154.86383795430939
 51
205.1361620456905
1001
ACDBBLOCKREPETAG
1070
     1
1071
       43
1005
121E18
  0
ARC
  5
121E19
  8
OBJECT
 10
12000.0
 20
-1373.9999999999959
 30
0.0
 40
76.0
 50
274.86383795426718
 51
325.13616204582797
1001
ACDBBLOCKREPETAG
1070
     1
1071
       44
1005
121E19
  0
ARC
  5
121E1A
  8
OBJECT
 10
12078.0
 20
-1373.9999999999959
 30
0.0
 40
12.0
 50
325.13616204582797
 51
34.863837954171863
1001
ACDBBLOCKREPETAG
1070
     1
1071
       45
1005
121E1A
  0
LINE
  5
121E1B
  8
OBJECT
 10
12087.84615384616
 20
-1367.140462520133
 30
0.0
 11
12062.358974359049
 21
-1330.5562626275339
 31
0.0
1001
ACDBBLOCKREPETAG
1070
     1
1071
       46
1005
121E1B
  0
LINE
  5
121E1C
  8
OBJECT
 10
12087.846153846171
 20
-1380.859537479856
 30
0.0
 11
12062.358974359049
 21
-1417.4437373724591
 31
0.0
1001
ACDBBLOCKREPETAG
1070
     1
1071
       47
1005
121E1C
  0
ARC
  5
121E1D
  8
OBJECT
 10
11961.0
 20
-1306.45001850481
 30
0.0
 40
12.0
 50
85.136162045942811
 51
154.86383795410001
1001
ACDBBLOCKREPETAG
1070
     1
1071
       48
1005
121E1D
  0
LINE
  5
121E1E
  8
OBJECT
 10
11950.13638936114
 20
-1301.3527678843909
 30
0.0
 11
11931.19713262058
 21
-1341.7174127373471
 31
0.0
1001
ACDBBLOCKREPETAG
1070
     1
1071
       49
1005
121E1E
  0
LINE
  5
121E1F
  8
OBJECT
 10
11962.017456792681
 20
-1294.493230404526
 30
0.0
 11
12006.443893020371
 21
-1298.273675364886
 31
0.0
1001
ACDBBLOCKREPETAG
1070
     1
1071
       50
1005
121E1F
  0
ARC
  5
121E20
  8
OBJECT
 10
11961.0
 20
-1441.5499814951811
 30
0.0
 40
12.0
 50
205.13616204589991
 51
274.8638379540572
1001
ACDBBLOCKREPETAG
1070
     1
1071
       51
1005
121E20
  0
LINE
  5
121E21
  8
OBJECT
 10
11962.01745679269
 20
-1453.5067695954631
 30
0.0
 11
12006.44389302036
 21
-1449.726324635106
 31
0.0
1001
ACDBBLOCKREPETAG
1070
     1
1071
       52
1005
121E21
  0
LINE
  5
121E22
  8
OBJECT
 10
11950.13638936114
 20
-1446.6472321156041
 30
0.0
 11
11931.19713262058
 21
-1406.2825872626429
 31
0.0
1001
ACDBBLOCKREPETAG
1070
     1
1071
       53
1005
121E22
  0
LINE
  5
121E23
  8
CENTER
 10
9909.0
 20
-1373.9999999999959
 30
0.0
 11
10105.0
 21
-1373.9999999999959
 31
0.0
1001
ACDBBLOCKREPETAG
1070
     1
1071
        0
1005
121E23
  0
LINE
  5
121E24
  8
CENTER
 10
10000.0
 20
-1282.725335570779
 30
0.0
 11
10000.0
 21
-1465.274664429212
 31
0.0
1001
ACDBBLOCKREPETAG
1070
     1
1071
        1
1005
121E24
  0
CIRCLE
  5
121E25
  8
OBJECT
 10
10000.0
 20
-1373.9999999999959
 30
0.0
 40
50.0
1001
ACDBBLOCKREPETAG
1070
     1
1071
        2
1005
121E25
  0
CIRCLE
  5
121E26
  8
OBJECT
 10
10000.0
 20
-1373.9999999999959
 30
0.0
 40
62.0
1001
ACDBBLOCKREPETAG
1070
     1
1071
        3
1005
121E26
  0
CIRCLE
  5
121E27
  8
SLIM
 10
10078.0
 20
-1373.9999999999959
 30
0.0
 40
5.0
1001
ACDBBLOCKREPETAG
1070
     1
1071
        4
1005
121E27
  0
POLYLINE
  5
121E28
  8
SLIM
 66
     1
 10
0.0
 20
0.0
 30
0.0
 70
     1
1001
ACDBBLOCKREPETAG
1070
     1
1071
        5
1005
121E28
  0
VERTEX
  5
121FFD
  8
SLIM
 10
10073.092522711881
 20
-1365.4999999999959
 30
0.0
  0
VERTEX
  5
121FFE
  8
SLIM
 10
10068.18504542377
 20
-1373.9999999999959
 30
0.0
  0
VERTEX
  5
121FFF
  8
SLIM
 10
10073.092522711881
 20
-1382.4999999999959
 30
0.0
  0
VERTEX
  5
122000
  8
SLIM
 10
10082.907477288099
 20
-1382.4999999999959
 30
0.0
  0
VERTEX
  5
122001
  8
SLIM
 10
10087.814954576221
 20
-1373.9999999999959
 30
0.0
  0
VERTEX
  5
122002
  8
SLIM
 10
10082.907477288099
 20
-1365.4999999999959
 30
0.0
  0
SEQEND
  5
122003
  8
SLIM
  0
CIRCLE
  5
121E29
  8
SLIM
 10
9961.0
 20
-1306.4500185048089
 30
0.0
 40
4.9999999999999991
1001
ACDBBLOCKREPETAG
1070
     1
1071
        6
1005
121E29
  0
POLYLINE
  5
121E2A
  8
SLIM
 66
     1
 10
0.0
 20
0.0
 30
0.0
 70
     1
1001
ACDBBLOCKREPETAG
1070
     1
1071
        7
1005
121E2A
  0
VERTEX
  5
122004
  8
SLIM
 10
9956.092522711886
 20
-1314.9500185048089
 30
0.0
  0
VERTEX
  5
122005
  8
SLIM
 10
9965.907477288114
 20
-1314.9500185048089
 30
0.0
  0
VERTEX
  5
122006
  8
SLIM
 10
9970.814954576219
 20
-1306.4500185048089
 30
0.0
  0
VERTEX
  5
122007
  8
SLIM
 10
9965.907477288114
 20
-1297.950018504808
 30
0.0
  0
VERTEX
  5
122008
  8
SLIM
 10
9956.092522711886
 20
-1297.950018504808
 30
0.0
  0
VERTEX
  5
122009
  8
SLIM
 10
9951.185045423772
 20
-1306.4500185048089
 30
0.0
  0
SEQEND
  5
12200A
  8
SLIM
  0
CIRCLE
  5
121E2B
  8
SLIM
 10
9961.0
 20
-1441.5499814951829
 30
0.0
 40
5.0
1001
ACDBBLOCKREPETAG
1070
     1
1071
        8
1005
121E2B
  0
POLYLINE
  5
121E2C
  8
SLIM
 66
     1
 10
0.0
 20
0.0
 30
0.0
 70
     1
1001
ACDBBLOCKREPETAG
1070
     1
1071
        9
1005
121E2C
  0
VERTEX
  5
12200B
  8
SLIM
 10
9970.814954576219
 20
-1441.5499814951829
 30
0.0
  0
VERTEX
  5
12200C
  8
SLIM
 10
9965.9074772881049
 20
-1433.0499814951791
 30
0.0
  0
VERTEX
  5
12200D
  8
SLIM
 10
9956.092522711886
 20
-1433.049981495182
 30
0.0
  0
VERTEX
  5
12200E
  8
SLIM
 10
9951.185045423772
 20
-1441.5499814951791
 30
0.0
  0
VERTEX
  5
12200F
  8
SLIM
 10
9956.092522711886
 20
-1450.0499814951829
 30
0.0
  0
VERTEX
  5
122010
  8
SLIM
 10
9965.907477288114
 20
-1450.0499814951791
 30
0.0
  0
SEQEND
  5
122011
  8
SLIM
  0
ARC
  5
121E2D
  8
OBJECT
 10
10000.0
 20
-1373.9999999999959
 30
0.0
 40
76.0
 50
34.863837954171863
 51
85.136162045732945
1001
ACDBBLOCKREPETAG
1070
     1
1071
       30
1005
121E2D
  0
ARC
  5
121E2E
  8
OBJECT
 10
10000.0
 20
-1373.9999999999959
 30
0.0
 40
76.0
 50
154.86383795430939
 51
205.1361620456905
1001
ACDBBLOCKREPETAG
1070
     1
1071
       31
1005
121E2E
  0
ARC
  5
121E2F
  8
OBJECT
 10
10000.0
 20
-1373.9999999999959
 30
0.0
 40
76.0
 50
274.86383795426718
 51
325.13616204582797
1001
ACDBBLOCKREPETAG
1070
     1
1071
       32
1005
121E2F
  0
ARC
  5
121E30
  8
OBJECT
 10
10078.0
 20
-1373.9999999999959
 30
0.0
 40
12.0
 50
325.13616204582797
 51
34.863837954171863
1001
ACDBBLOCKREPETAG
1070
     1
1071
       33
1005
121E30
  0
LINE
  5
121E31
  8
OBJECT
 10
10087.84615384616
 20
-1367.140462520133
 30
0.0
 11
10062.35897435904
 21
-1330.5562626275339
 31
0.0
1001
ACDBBLOCKREPETAG
1070
     1
1071
       34
1005
121E31
  0
LINE
  5
121E32
  8
OBJECT
 10
10087.846153846171
 20
-1380.859537479856
 30
0.0
 11
10062.35897435904
 21
-1417.4437373724591
 31
0.0
1001
ACDBBLOCKREPETAG
1070
     1
1071
       35
1005
121E32
  0
ARC
  5
121E33
  8
OBJECT
 10
9961.0
 20
-1306.45001850481
 30
0.0
 40
12.0
 50
85.136162045942811
 51
154.86383795410001
1001
ACDBBLOCKREPETAG
1070
     1
1071
       36
1005
121E33
  0
LINE
  5
121E34
  8
OBJECT
 10
9950.1363893611433
 20
-1301.3527678843909
 30
0.0
 11
9931.1971326205894
 21
-1341.7174127373471
 31
0.0
1001
ACDBBLOCKREPETAG
1070
     1
1071
       37
1005
121E34
  0
LINE
  5
121E35
  8
OBJECT
 10
9962.0174567926842
 20
-1294.493230404526
 30
0.0
 11
10006.443893020371
 21
-1298.273675364886
 31
0.0
1001
ACDBBLOCKREPETAG
1070
     1
1071
       38
1005
121E35
  0
ARC
  5
121E36
  8
OBJECT
 10
9961.0
 20
-1441.5499814951811
 30
0.0
 40
12.0
 50
205.13616204589991
 51
274.8638379540572
1001
ACDBBLOCKREPETAG
1070
     1
1071
       39
1005
121E36
  0
LINE
  5
121E37
  8
OBJECT
 10
9962.0174567926897
 20
-1453.5067695954631
 30
0.0
 11
10006.44389302036
 21
-1449.726324635106
 31
0.0
1001
ACDBBLOCKREPETAG
1070
     1
1071
       40
1005
121E37
  0
LINE
  5
121E38
  8
OBJECT
 10
9950.1363893611433
 20
-1446.6472321156041
 30
0.0
 11
9931.1971326205821
 21
-1406.2825872626429
 31
0.0
1001
ACDBBLOCKREPETAG
1070
     1
1071
       41
1005
121E38
  0
LINE
  5
121E39
  8
CENTER
 10
5909.0
 20
-1414.9999999999991
 30
0.0
 11
6105.0
 21
-1414.9999999999991
 31
0.0
1001
ACDBBLOCKREPETAG
1070
     1
1071
       10
1005
121E39
  0
LINE
  5
121E3A
  8
CENTER
 10
6000.0
 20
-1323.7253355707819
 30
0.0
 11
6000.0
 21
-1506.2746644292149
 31
0.0
1001
ACDBBLOCKREPETAG
1070
     1
1071
       11
1005
121E3A
  0
CIRCLE
  5
121E3B
  8
OBJECT
 10
6000.0
 20
-1414.9999999999991
 30
0.0
 40
50.0
1001
ACDBBLOCKREPETAG
1070
     1
1071
       12
1005
121E3B
  0
CIRCLE
  5
121E3C
  8
OBJECT
 10
6000.0
 20
-1414.9999999999991
 30
0.0
 40
60.0
1001
ACDBBLOCKREPETAG
1070
     1
1071
       13
1005
121E3C
  0
CIRCLE
  5
121E3D
  8
OBJECT
 10
6000.0
 20
-1414.9999999999991
 30
0.0
 40
68.0
1001
ACDBBLOCKREPETAG
1070
     1
1071
       14
1005
121E3D
  0
ARC
  5
121E3E
  8
OBJECT
 10
6077.5
 20
-1414.9999999999991
 30
0.0
 40
12.0
 50
272.10542627221611
 51
87.894573727783893
1001
ACDBBLOCKREPETAG
1070
     1
1071
       15
1005
121E3E
  0
ARC
  5
121E3F
  8
OBJECT
 10
6078.4919354838639
 20
-1388.018227189526
 30
0.0
 40
15.0
 50
198.9705187796356
 51
267.89457372778372
1001
ACDBBLOCKREPETAG
1070
     1
1071
       16
1005
121E3F
  0
ARC
  5
121E40
  8
OBJECT
 10
6078.4919354838639
 20
-1441.981772810467
 30
0.0
 40
15.0
 50
92.105426272216135
 51
161.02948122036429
1001
ACDBBLOCKREPETAG
1070
     1
1071
       17
1005
121E40
  0
CIRCLE
  5
121E41
  8
SLIM
 10
6078.0
 20
-1414.9999999999991
 30
0.0
 40
8.0
1001
ACDBBLOCKREPETAG
1070
     1
1071
       18
1005
121E41
  0
POLYLINE
  5
121E42
  8
SLIM
 66
     1
 10
0.0
 20
0.0
 30
0.0
 70
     1
1001
ACDBBLOCKREPETAG
1070
     1
1071
       19
1005
121E42
  0
VERTEX
  5
122012
  8
SLIM
 10
6075.6905989232328
 20
-1410.9999999999991
 30
0.0
  0
VERTEX
  5
122013
  8
SLIM
 10
6073.3811978464801
 20
-1414.9999999999991
 30
0.0
  0
VERTEX
  5
122014
  8
SLIM
 10
6075.6905989232328
 20
-1418.9999999999991
 30
0.0
  0
VERTEX
  5
122015
  8
SLIM
 10
6080.3094010767527
 20
-1418.9999999999991
 30
0.0
  0
VERTEX
  5
122016
  8
SLIM
 10
6082.6188021535136
 20
-1414.9999999999991
 30
0.0
  0
VERTEX
  5
122017
  8
SLIM
 10
6080.3094010767527
 20
-1410.9999999999991
 30
0.0
  0
SEQEND
  5
122018
  8
SLIM
  0
ARC
  5
121E43
  8
OBJECT
 10
5961.25
 20
-1347.883031206703
 30
0.0
 40
12.0
 50
32.105426272157878
 51
207.89457372770741
1001
ACDBBLOCKREPETAG
1070
     1
1071
       20
1005
121E43
  0
ARC
  5
121E44
  8
OBJECT
 10
5937.387131565054
 20
-1360.514876283992
 30
0.0
 40
15.0
 50
318.97051877944762
 51
27.894573727707481
1001
ACDBBLOCKREPETAG
1070
     1
1071
       21
1005
121E44
  0
ARC
  5
121E45
  8
OBJECT
 10
5984.1209329510702
 20
-1333.53310347352
 30
0.0
 40
15.0
 50
212.1054262721579
 51
281.02948122044069
1001
ACDBBLOCKREPETAG
1070
     1
1071
       22
1005
121E45
  0
CIRCLE
  5
121E46
  8
SLIM
 10
5961.0
 20
-1347.4500185048121
 30
0.0
 40
7.9999999999999982
1001
ACDBBLOCKREPETAG
1070
     1
1071
       23
1005
121E46
  0
POLYLINE
  5
121E47
  8
SLIM
 66
     1
 10
0.0
 20
0.0
 30
0.0
 70
     1
1001
ACDBBLOCKREPETAG
1070
     1
1071
       24
1005
121E47
  0
VERTEX
  5
122019
  8
SLIM
 10
5958.69059892324
 20
-1351.4500185048121
 30
0.0
  0
VERTEX
  5
12201A
  8
SLIM
 10
5963.3094010767518
 20
-1351.4500185048121
 30
0.0
  0
VERTEX
  5
12201B
  8
SLIM
 10
5965.6188021535136
 20
-1347.4500185048121
 30
0.0
  0
VERTEX
  5
12201C
  8
SLIM
 10
5963.3094010767518
 20
-1343.4500185048121
 30
0.0
  0
VERTEX
  5
12201D
  8
SLIM
 10
5958.69059892324
 20
-1343.4500185048121
 30
0.0
  0
VERTEX
  5
12201E
  8
SLIM
 10
5956.3811978464792
 20
-1347.4500185048121
 30
0.0
  0
SEQEND
  5
12201F
  8
SLIM
  0
ARC
  5
121E48
  8
OBJECT
 10
5961.25
 20
-1482.1169687932911
 30
0.0
 40
12.0
 50
152.1054262722925
 51
327.89457372784221
1001
ACDBBLOCKREPETAG
1070
     1
1071
       25
1005
121E48
  0
ARC
  5
121E49
  8
OBJECT
 10
5984.1209329510702
 20
-1496.4668965264741
 30
0.0
 40
15.0
 50
78.970518779559228
 51
147.8945737278421
1001
ACDBBLOCKREPETAG
1070
     1
1071
       26
1005
121E49
  0
ARC
  5
121E4A
  8
OBJECT
 10
5937.387131565054
 20
-1469.485123716006
 30
0.0
 40
15.0
 50
332.1054262722925
 51
41.029481220552412
1001
ACDBBLOCKREPETAG
1070
     1
1071
       27
1005
121E4A
  0
CIRCLE
  5
121E4B
  8
SLIM
 10
5961.0
 20
-1482.5499814951861
 30
0.0
 40
8.0
1001
ACDBBLOCKREPETAG
1070
     1
1071
       28
1005
121E4B
  0
POLYLINE
  5
121E4C
  8
SLIM
 66
     1
 10
0.0
 20
0.0
 30
0.0
 70
     1
1001
ACDBBLOCKREPETAG
1070
     1
1071
       29
1005
121E4C
  0
VERTEX
  5
122020
  8
SLIM
 10
5965.6188021535136
 20
-1482.5499814951829
 30
0.0
  0
VERTEX
  5
122021
  8
SLIM
 10
5963.3094010767518
 20
-1478.5499814951861
 30
0.0
  0
VERTEX
  5
122022
  8
SLIM
 10
5958.69059892324
 20
-1478.5499814951829
 30
0.0
  0
VERTEX
  5
122023
  8
SLIM
 10
5956.3811978464792
 20
-1482.5499814951861
 30
0.0
  0
VERTEX
  5
122024
  8
SLIM
 10
5958.6905989232328
 20
-1486.5499814951829
 30
0.0
  0
VERTEX
  5
122025
  8
SLIM
 10
5963.3094010767518
 20
-1486.5499814951861
 30
0.0
  0
SEQEND
  5
122026
  8
SLIM
  0
ARC
  5
121E4D
  8
OBJECT
 10
6000.0
 20
-1414.9999999999991
 30
0.0
 40
76.0
 50
34.863837954142063
 51
85.136162045732945
1001
ACDBBLOCKREPETAG
1070
     1
1071
       42
1005
121E4D
  0
ARC
  5
121E4E
  8
OBJECT
 10
6000.0
 20
-1414.9999999999991
 30
0.0
 40
76.0
 50
154.86383795430939
 51
205.1361620456905
1001
ACDBBLOCKREPETAG
1070
     1
1071
       43
1005
121E4E
  0
ARC
  5
121E4F
  8
OBJECT
 10
6000.0
 20
-1414.9999999999991
 30
0.0
 40
76.0
 50
274.86383795426718
 51
325.13616204585799
1001
ACDBBLOCKREPETAG
1070
     1
1071
       44
1005
121E4F
  0
ARC
  5
121E50
  8
OBJECT
 10
6078.0
 20
-1414.9999999999991
 30
0.0
 40
12.0
 50
325.13616204585799
 51
34.863837954142063
1001
ACDBBLOCKREPETAG
1070
     1
1071
       45
1005
121E50
  0
LINE
  5
121E51
  8
OBJECT
 10
6087.846153846167
 20
-1408.1404625201369
 30
0.0
 11
6062.3589743590501
 21
-1371.556262627538
 31
0.0
1001
ACDBBLOCKREPETAG
1070
     1
1071
       46
1005
121E51
  0
LINE
  5
121E52
  8
OBJECT
 10
6087.8461538461697
 20
-1421.859537479859
 30
0.0
 11
6062.3589743590501
 21
-1458.443737372462
 31
0.0
1001
ACDBBLOCKREPETAG
1070
     1
1071
       47
1005
121E52
  0
ARC
  5
121E53
  8
OBJECT
 10
5961.0
 20
-1347.4500185048139
 30
0.0
 40
12.0
 50
85.136162045942811
 51
154.86383795410001
1001
ACDBBLOCKREPETAG
1070
     1
1071
       48
1005
121E53
  0
LINE
  5
121E54
  8
OBJECT
 10
5950.1363893611451
 20
-1342.3527678843941
 30
0.0
 11
5931.1971326205849
 21
-1382.7174127373501
 31
0.0
1001
ACDBBLOCKREPETAG
1070
     1
1071
       49
1005
121E54
  0
LINE
  5
121E55
  8
OBJECT
 10
5962.0174567926842
 20
-1335.493230404529
 30
0.0
 11
6006.4438930203669
 21
-1339.273675364889
 31
0.0
1001
ACDBBLOCKREPETAG
1070
     1
1071
       50
1005
121E55
  0
ARC
  5
121E56
  8
OBJECT
 10
5961.0
 20
-1482.5499814951841
 30
0.0
 40
12.0
 50
205.13616204589991
 51
274.8638379540572
1001
ACDBBLOCKREPETAG
1070
     1
1071
       51
1005
121E56
  0
LINE
  5
121E57
  8
OBJECT
 10
5962.0174567926879
 20
-1494.506769595466
 30
0.0
 11
6006.4438930203651
 21
-1490.726324635109
 31
0.0
1001
ACDBBLOCKREPETAG
1070
     1
1071
       52
1005
121E57
  0
LINE
  5
121E58
  8
OBJECT
 10
5950.1363893611451
 20
-1487.6472321156079
 30
0.0
 11
5931.1971326205821
 21
-1447.2825872626461
 31
0.0
1001
ACDBBLOCKREPETAG
1070
     1
1071
       53
1005
121E58
  0
LINE
  5
121E59
  8
CENTER
 10
3909.0
 20
-1373.9999999999959
 30
0.0
 11
4105.0
 21
-1373.9999999999959
 31
0.0
1001
ACDBBLOCKREPETAG
1070
     1
1071
        0
1005
121E59
  0
LINE
  5
121E5A
  8
CENTER
 10
4000.0
 20
-1282.725335570779
 30
0.0
 11
4000.0
 21
-1465.274664429212
 31
0.0
1001
ACDBBLOCKREPETAG
1070
     1
1071
        1
1005
121E5A
  0
CIRCLE
  5
121E5B
  8
OBJECT
 10
4000.0
 20
-1373.9999999999959
 30
0.0
 40
50.0
1001
ACDBBLOCKREPETAG
1070
     1
1071
        2
1005
121E5B
  0
CIRCLE
  5
121E5C
  8
OBJECT
 10
4000.0
 20
-1373.9999999999959
 30
0.0
 40
62.0
1001
ACDBBLOCKREPETAG
1070
     1
1071
        3
1005
121E5C
  0
CIRCLE
  5
121E5D
  8
SLIM
 10
4078.0
 20
-1373.9999999999959
 30
0.0
 40
5.0
1001
ACDBBLOCKREPETAG
1070
     1
1071
        4
1005
121E5D
  0
POLYLINE
  5
121E5E
  8
SLIM
 66
     1
 10
0.0
 20
0.0
 30
0.0
 70
     1
1001
ACDBBLOCKREPETAG
1070
     1
1071
        5
1005
121E5E
  0
VERTEX
  5
122027
  8
SLIM
 10
4073.092522711886
 20
-1365.4999999999959
 30
0.0
  0
VERTEX
  5
122028
  8
SLIM
 10
4068.185045423772
 20
-1373.9999999999959
 30
0.0
  0
VERTEX
  5
122029
  8
SLIM
 10
4073.092522711886
 20
-1382.4999999999959
 30
0.0
  0
VERTEX
  5
12202A
  8
SLIM
 10
4082.9074772881072
 20
-1382.4999999999959
 30
0.0
  0
VERTEX
  5
12202B
  8
SLIM
 10
4087.8149545762199
 20
-1373.9999999999959
 30
0.0
  0
VERTEX
  5
12202C
  8
SLIM
 10
4082.9074772881072
 20
-1365.4999999999959
 30
0.0
  0
SEQEND
  5
12202D
  8
SLIM
  0
CIRCLE
  5
121E5F
  8
SLIM
 10
3961.0
 20
-1306.4500185048089
 30
0.0
 40
4.9999999999999991
1001
ACDBBLOCKREPETAG
1070
     1
1071
        6
1005
121E5F
  0
POLYLINE
  5
121E60
  8
SLIM
 66
     1
 10
0.0
 20
0.0
 30
0.0
 70
     1
1001
ACDBBLOCKREPETAG
1070
     1
1071
        7
1005
121E60
  0
VERTEX
  5
12202E
  8
SLIM
 10
3956.092522711886
 20
-1314.9500185048089
 30
0.0
  0
VERTEX
  5
12202F
  8
SLIM
 10
3965.907477288114
 20
-1314.9500185048089
 30
0.0
  0
VERTEX
  5
122030
  8
SLIM
 10
3970.8149545762212
 20
-1306.4500185048089
 30
0.0
  0
VERTEX
  5
122031
  8
SLIM
 10
3965.907477288114
 20
-1297.950018504808
 30
0.0
  0
VERTEX
  5
122032
  8
SLIM
 10
3956.092522711886
 20
-1297.950018504808
 30
0.0
  0
VERTEX
  5
122033
  8
SLIM
 10
3951.185045423772
 20
-1306.4500185048089
 30
0.0
  0
SEQEND
  5
122034
  8
SLIM
  0
CIRCLE
  5
121E61
  8
SLIM
 10
3961.0
 20
-1441.5499814951829
 30
0.0
 40
5.0
1001
ACDBBLOCKREPETAG
1070
     1
1071
        8
1005
121E61
  0
POLYLINE
  5
121E62
  8
SLIM
 66
     1
 10
0.0
 20
0.0
 30
0.0
 70
     1
1001
ACDBBLOCKREPETAG
1070
     1
1071
        9
1005
121E62
  0
VERTEX
  5
122035
  8
SLIM
 10
3970.8149545762212
 20
-1441.5499814951829
 30
0.0
  0
VERTEX
  5
122036
  8
SLIM
 10
3965.9074772881072
 20
-1433.0499814951791
 30
0.0
  0
VERTEX
  5
122037
  8
SLIM
 10
3956.092522711886
 20
-1433.049981495182
 30
0.0
  0
VERTEX
  5
122038
  8
SLIM
 10
3951.185045423772
 20
-1441.5499814951791
 30
0.0
  0
VERTEX
  5
122039
  8
SLIM
 10
3956.092522711886
 20
-1450.0499814951829
 30
0.0
  0
VERTEX
  5
12203A
  8
SLIM
 10
3965.907477288114
 20
-1450.0499814951791
 30
0.0
  0
SEQEND
  5
12203B
  8
SLIM
  0
ARC
  5
121E63
  8
OBJECT
 10
4000.0
 20
-1373.9999999999959
 30
0.0
 40
76.0
 50
34.863837954142063
 51
85.136162045732945
1001
ACDBBLOCKREPETAG
1070
     1
1071
       30
1005
121E63
  0
ARC
  5
121E64
  8
OBJECT
 10
4000.0
 20
-1373.9999999999959
 30
0.0
 40
76.0
 50
154.86383795430939
 51
205.1361620456905
1001
ACDBBLOCKREPETAG
1070
     1
1071
       31
1005
121E64
  0
ARC
  5
121E65
  8
OBJECT
 10
4000.0
 20
-1373.9999999999959
 30
0.0
 40
76.0
 50
274.86383795426718
 51
325.13616204585799
1001
ACDBBLOCKREPETAG
1070
     1
1071
       32
1005
121E65
  0
ARC
  5
121E66
  8
OBJECT
 10
4078.0
 20
-1373.9999999999959
 30
0.0
 40
12.0
 50
325.13616204585799
 51
34.863837954142063
1001
ACDBBLOCKREPETAG
1070
     1
1071
       33
1005
121E66
  0
LINE
  5
121E67
  8
OBJECT
 10
4087.846153846167
 20
-1367.140462520133
 30
0.0
 11
4062.3589743590492
 21
-1330.5562626275339
 31
0.0
1001
ACDBBLOCKREPETAG
1070
     1
1071
       34
1005
121E67
  0
LINE
  5
121E68
  8
OBJECT
 10
4087.8461538461711
 20
-1380.859537479856
 30
0.0
 11
4062.3589743590492
 21
-1417.4437373724591
 31
0.0
1001
ACDBBLOCKREPETAG
1070
     1
1071
       35
1005
121E68
  0
ARC
  5
121E69
  8
OBJECT
 10
3961.0
 20
-1306.45001850481
 30
0.0
 40
12.0
 50
85.136162045942811
 51
154.86383795411109
1001
ACDBBLOCKREPETAG
1070
     1
1071
       36
1005
121E69
  0
LINE
  5
121E6A
  8
OBJECT
 10
3950.136389361146
 20
-1301.3527678843909
 30
0.0
 11
3931.1971326205862
 21
-1341.7174127373471
 31
0.0
1001
ACDBBLOCKREPETAG
1070
     1
1071
       37
1005
121E6A
  0
LINE
  5
121E6B
  8
OBJECT
 10
3962.0174567926852
 20
-1294.493230404526
 30
0.0
 11
4006.4438930203678
 21
-1298.273675364886
 31
0.0
1001
ACDBBLOCKREPETAG
1070
     1
1071
       38
1005
121E6B
  0
ARC
  5
121E6C
  8
OBJECT
 10
3961.0
 20
-1441.5499814951811
 30
0.0
 40
12.0
 50
205.13616204588891
 51
274.8638379540572
1001
ACDBBLOCKREPETAG
1070
     1
1071
       39
1005
121E6C
  0
LINE
  5
121E6D
  8
OBJECT
 10
3962.0174567926879
 20
-1453.5067695954631
 30
0.0
 11
4006.4438930203651
 21
-1449.726324635106
 31
0.0
1001
ACDBBLOCKREPETAG
1070
     1
1071
       40
1005
121E6D
  0
LINE
  5
121E6E
  8
OBJECT
 10
3950.136389361146
 20
-1446.6472321156041
 30
0.0
 11
3931.1971326205821
 21
-1406.2825872626429
 31
0.0
1001
ACDBBLOCKREPETAG
1070
     1
1071
       41
1005
121E6E
  0
TEXT
  5
121E6F
  8
SLIM
 10
3853.75
 20
-1641.4999999999959
 30
0.0
 40
35.0
  1
両受けスタイル（W）
 41
0.75
  0
TEXT
  5
121E70
  8
SLIM
 10
5811.8000000000002
 20
-1738.9999999999991
 30
0.0
 40
28.0
  1
※ 対応スラブ厚　150mm以上
 41
0.75
  0
TEXT
  5
121E71
  8
SLIM
 10
5598.8999999999996
 20
-1832.3333333333319
 30
0.0
 40
28.0
  1
国土交通大臣認定・（一財）日本消防設備安全センター性能評定取得品
 41
0.75
  0
TEXT
  5
121E72
  8
SLIM
 10
5631.1000000000004
 20
-1878.9999999999991
 30
0.0
 40
28.0
  1
注）ご採用にあたり、認定書及び評定書の内容をご確認ください。
 41
0.75
  0
TEXT
  5
121E73
  8
SLIM
 10
11824.6
 20
-1697.9999999999959
 30
0.0
 40
28.0
  1
※ 対応スラブ厚　150～380
 41
0.75
  0
TEXT
  5
121E74
  8
SLIM
 10
11598.9
 20
-1791.3333333333289
 30
0.0
 40
28.0
  1
国土交通大臣認定・（一財）日本消防設備安全センター性能評定取得品
 41
0.75
  0
TEXT
  5
121E75
  8
SLIM
 10
11631.1
 20
-1837.9999999999959
 30
0.0
 40
28.0
  1
注）ご採用にあたり、認定書及び評定書の内容をご確認ください。
 41
0.75
  0
TEXT
  5
121E76
  8
SLIM
 10
9824.6000000000004
 20
-1697.9999999999959
 30
0.0
 40
28.0
  1
※ 対応スラブ厚　180～380
 41
0.75
  0
TEXT
  5
121E77
  8
SLIM
 10
9598.8999999999996
 20
-1791.3333333333289
 30
0.0
 40
28.0
  1
国土交通大臣認定・（一財）日本消防設備安全センター性能評定取得品
 41
0.75
  0
TEXT
  5
121E78
  8
SLIM
 10
9631.1000000000004
 20
-1837.9999999999959
 30
0.0
 40
28.0
  1
注）ご採用にあたり、認定書及び評定書の内容をご確認ください。
 41
0.75
  0
TEXT
  5
121E79
  8
SLIM
 10
7771.3999999999987
 20
-1430.666666666664
 30
0.0
 40
28.0
  1
※ 対応スラブ厚　180｛150｝～340
 41
0.75
  0
TEXT
  5
121E7A
  8
SLIM
 10
7733.2999999999975
 20
-1477.333333333331
 30
0.0
 40
28.0
  1
｛｝内はカンペイ立て管との組み合わせの場合
 41
0.75
  0
TEXT
  5
121E7B
  8
SLIM
 10
7598.8999999999969
 20
-1570.6666666666649
 30
0.0
 40
28.0
  1
国土交通大臣認定・（一財）日本消防設備安全センター性能評定取得品
 41
0.75
  0
TEXT
  5
121E7C
  8
SLIM
 10
7631.1000000000004
 20
-1617.333333333331
 30
0.0
 40
28.0
  1
注）ご採用にあたり、認定書及び評定書の内容をご確認ください。
 41
0.75
  0
TEXT
  5
121E7D
  8
SLIM
 10
9739.1250000000018
 20
-1641.4999999999959
 30
0.0
 40
35.0
  1
両受けスタイル（W）＋シンドカット
 41
0.75
  0
TEXT
  5
121E7E
  8
SLIM
 10
11743.5
 20
-1641.4999999999959
 30
0.0
 40
35.0
  1
カンペイ君（WKP）＋シンドカット
 41
0.75
  0
TEXT
  5
121E7F
  8
SLIM
 10
7741.625
 20
-1367.499999999998
 30
0.0
 40
35.0
  1
片受けスタイル（S）＋シンドカット
 41
0.75
  0
TEXT
  5
121E80
  8
SLIM
 10
5858.1250000000009
 20
-1682.4999999999991
 30
0.0
 40
35.0
  1
カンペイ君（WKP）
 41
0.75
  0
TEXT
  5
121E81
  8
SLIM
 10
1856.25
 20
-1367.499999999998
 30
0.0
 40
35.0
  1
片受けスタイル（S）
 41
0.75
  0
TEXT
  5
121E82
  8
SLIM
 10
0.0
 20
369.99999999999989
 30
0.0
 40
100.0
  1
4SLT-Z6-P140-WKP
 41
0.75
  0
VIEWPORT
  5
F6BA7
 67
     1
  8
0
 10
163.0024027789494
 20
101.8328354358673
 30
0.0
 40
369.34663245053321
 41
222.19657968139651
 68
     1
 69
     1
1001
ACAD
1000
MVIEW
1002
{
1070
    16
1010
0.0
1020
0.0
1030
0.0
1010
0.0
1020
0.0
1030
1.0
1040
0.0
1040
222.19657968139651
1040
163.0024027789494
1040
101.8328354358673
1040
50.0
1040
0.0
1040
0.0
1070
     0
1070
     0
1070
     1
1070
     1
1070
     0
1070
     0
1070
     0
1070
     0
1040
0.0
1040
0.0
1040
0.0
1040
10.0
1040
10.0
1040
10.0
1040
10.0
1070
     0
1002
{
1002
}
1002
}
  0
VIEWPORT
  5
F6BA9
 67
     1
  8
OBJECT
 10
145.3303314447403
 20
101.8328338861465
 30
0.0
 40
232.5285303115844
 41
162.93253421783439
 68
     2
 69
     2
1001
ACAD
1000
MVIEW
1002
{
1070
    16
1010
0.0
1020
0.0
1030
0.0
1010
0.0
1020
0.0
1030
1.0
1040
0.0
1040
25942.55904403147
1040
2377.604457077377
1040
-7591.5176687056619
1040
50.0
1040
0.0
1040
0.0
1070
     0
1070
   600
1070
     1
1070
     1
1070
     0
1070
     0
1070
     0
1070
     0
1040
0.0
1040
0.0
1040
0.0
1040
1.0
1040
1.0
1040
0.0
1040
0.0
1070
     0
1002
{
1002
}
1002
}
  0
ENDSEC
  0
EOF
