  0
SECTION
  2
HEADER
  9
$ACADVER
  1
AC1009
  9
$INSBASE
 10
0.0
 20
0.0
 30
0.0
  9
$EXTMIN
 10
0.0
 20
-2163.9999999999991
 30
0.0
  9
$EXTMAX
 10
12399.70000000001
 20
770.0
 30
0.0
  9
$LIMMIN
 10
0.0
 20
0.0
  9
$LIMMAX
 10
210.0
 20
297.0
  9
$ORTHOMODE
 70
     0
  9
$REGENMODE
 70
     1
  9
$FILLMODE
 70
     1
  9
$QTEXTMODE
 70
     0
  9
$MIRRTEXT
 70
     0
  9
$DRAGMODE
 70
     2
  9
$LTSCALE
 40
1.0
  9
$OSMODE
 70
   109
  9
$ATTMODE
 70
     1
  9
$TEXTSIZE
 40
4.0
  9
$TRACEWID
 40
0.05
  9
$TEXTSTYLE
  7
STANDARD
  9
$CLAYER
  8
OBJECT
  9
$CELTYPE
  6
BYLAYER
  9
$CECOLOR
 62
   256
  9
$DIMSCALE
 40
10.0
  9
$DIMASZ
 40
2.0
  9
$DIMEXO
 40
1.0
  9
$DIMDLI
 40
10.0
  9
$DIMRND
 40
0.0
  9
$DIMDLE
 40
0.0
  9
$DIMEXE
 40
1.0
  9
$DIMTP
 40
0.0
  9
$DIMTM
 40
0.0
  9
$DIMTXT
 40
3.2000000000000002
  9
$DIMCEN
 40
0.0
  9
$DIMTSZ
 40
0.0
  9
$DIMTOL
 70
     0
  9
$DIMLIM
 70
     0
  9
$DIMTIH
 70
     0
  9
$DIMTOH
 70
     0
  9
$DIMSE1
 70
     0
  9
$DIMSE2
 70
     0
  9
$DIMTAD
 70
     1
  9
$DIMZIN
 70
     8
  9
$DIMBLK
  1
OPEN30
  9
$DIMASO
 70
     1
  9
$DIMSHO
 70
     1
  9
$DIMPOST
  1

  9
$DIMAPOST
  1

  9
$DIMALT
 70
     0
  9
$DIMALTD
 70
     2
  9
$DIMALTF
 40
25.399999999999999
  9
$DIMLFAC
 40
1.0
  9
$DIMTOFL
 70
     1
  9
$DIMTVP
 40
0.0
  9
$DIMTIX
 70
     0
  9
$DIMSOXD
 70
     0
  9
$DIMSAH
 70
     0
  9
$DIMBLK1
  1

  9
$DIMBLK2
  1

  9
$DIMSTYLE
  2
S10
  9
$DIMCLRD
 70
   256
  9
$DIMCLRE
 70
   256
  9
$DIMCLRT
 70
   256
  9
$DIMTFAC
 40
1.0
  9
$DIMGAP
 40
0.9
  9
$LUNITS
 70
     2
  9
$LUPREC
 70
     2
  9
$SKETCHINC
 40
0.1
  9
$FILLETRAD
 40
0.0
  9
$AUNITS
 70
     0
  9
$AUPREC
 70
     2
  9
$MENU
  1
ACAD
  9
$ELEVATION
 40
0.0
  9
$PELEVATION
 40
0.0
  9
$THICKNESS
 40
0.0
  9
$LIMCHECK
 70
     0
  9
$BLIPMODE
 70
     0
  9
$CHAMFERA
 40
2.0
  9
$CHAMFERB
 40
2.0
  9
$SKPOLY
 70
     0
  9
$TDCREATE
 40
2453095.4929404748
  9
$TDUPDATE
 40
2457267.5534331482
  9
$TDINDWG
 40
18.3896250116
  9
$TDUSRTIMER
 40
18.3896241088
  9
$USRTIMER
 70
     1
  9
$ANGBASE
 50
0.0
  9
$ANGDIR
 70
     0
  9
$PDMODE
 70
    35
  9
$PDSIZE
 40
2.0
  9
$PLINEWID
 40
0.0
  9
$COORDS
 70
     1
  9
$SPLFRAME
 70
     0
  9
$SPLINETYPE
 70
     6
  9
$SPLINESEGS
 70
     8
  9
$ATTDIA
 70
     0
  9
$ATTREQ
 70
     1
  9
$HANDLING
 70
     1
  9
$HANDSEED
  5
123D24
  9
$SURFTAB1
 70
     6
  9
$SURFTAB2
 70
     6
  9
$SURFTYPE
 70
     6
  9
$SURFU
 70
     6
  9
$SURFV
 70
     6
  9
$UCSNAME
  2

  9
$UCSORG
 10
0.0
 20
0.0
 30
0.0
  9
$UCSXDIR
 10
1.0
 20
0.0
 30
0.0
  9
$UCSYDIR
 10
0.0
 20
1.0
 30
0.0
  9
$PUCSNAME
  2

  9
$PUCSORG
 10
0.0
 20
0.0
 30
0.0
  9
$PUCSXDIR
 10
1.0
 20
0.0
 30
0.0
  9
$PUCSYDIR
 10
0.0
 20
1.0
 30
0.0
  9
$USERI1
 70
     0
  9
$USERI2
 70
     0
  9
$USERI3
 70
     0
  9
$USERI4
 70
     0
  9
$USERI5
 70
     0
  9
$USERR1
 40
0.0
  9
$USERR2
 40
0.0
  9
$USERR3
 40
0.0
  9
$USERR4
 40
0.0
  9
$USERR5
 40
0.0
  9
$WORLDVIEW
 70
     1
  9
$SHADEDGE
 70
     3
  9
$SHADEDIF
 70
    70
  9
$TILEMODE
 70
     1
  9
$MAXACTVP
 70
    64
  9
$PLIMCHECK
 70
     0
  9
$PEXTMIN
 10
29.066066288948051
 20
20.366566777229309
 30
0.0
  9
$PEXTMAX
 10
261.5945966005325
 20
183.29910099506381
 30
0.0
  9
$PLIMMIN
 10
-3.17498779296875
 20
-3.1749999523162842
  9
$PLIMMAX
 10
293.83566284179687
 20
206.8406708240509
  9
$UNITMODE
 70
     0
  9
$VISRETAIN
 70
     1
  9
$PLINEGEN
 70
     0
  9
$PSLTSCALE
 70
     1
  0
ENDSEC
  0
SECTION
  2
TABLES
  0
TABLE
  2
VPORT
 70
     1
  0
VPORT
  2
*ACTIVE
 70
     0
 10
0.0
 20
0.0
 11
1.0
 21
1.0
 12
7982.123534599913
 22
-272.77760544385461
 13
0.0
 23
0.0
 14
1.0
 24
1.0
 15
0.0
 25
0.0
 16
0.0
 26
0.0
 36
1.0
 17
0.0
 27
0.0
 37
0.0
 40
13099.05982656079
 41
1.6494178525226391
 42
50.0
 43
0.0
 44
0.0
 50
0.0
 51
0.0
 71
     0
 72
   600
 73
     1
 74
     1
 75
     0
 76
     0
 77
     0
 78
     0
  0
ENDTAB
  0
TABLE
  2
LTYPE
 70
     4
  0
LTYPE
  2
CONTINUOUS
 70
     0
  3
Solid line
 72
    65
 73
     0
 40
0.0
  0
LTYPE
  2
PHANTOM2
 70
     0
  3
___ _ _ ___ _ _ ___ _ _ ___ _ _
 72
    65
 73
     6
 40
1.25
 49
0.625
 49
-0.125
 49
0.125
 49
-0.125
 49
0.125
 49
-0.125
  0
LTYPE
  2
ACAD_ISO08W100
 70
     0
  3
ISO long-dash short-dash ____ __ ____ __ ____ _
 72
    65
 73
     4
 40
36.0
 49
24.0
 49
-3.0
 49
6.0
 49
-3.0
  0
LTYPE
  2
ACAD_ISO02W100
 70
     0
  3
ISO dash __ __ __ __ __ __ __ __ __ __ __ __ __
 72
    65
 73
     2
 40
15.0
 49
12.0
 49
-3.0
  0
ENDTAB
  0
TABLE
  2
LAYER
 70
     7
  0
LAYER
  2
0
 70
     0
 62
     7
  6
CONTINUOUS
  0
LAYER
  2
OBJECT
 70
     0
 62
     4
  6
CONTINUOUS
  0
LAYER
  2
DEFPOINTS
 70
     0
 62
     7
  6
CONTINUOUS
  0
LAYER
  2
HIDDEN
 70
     0
 62
     2
  6
ACAD_ISO02W100
  0
LAYER
  2
CENTER
 70
     0
 62
     2
  6
ACAD_ISO08W100
  0
LAYER
  2
DOTS
 70
     0
 62
     1
  6
CONTINUOUS
  0
LAYER
  2
SLIM
 70
     0
 62
     2
  6
CONTINUOUS
  0
ENDTAB
  0
TABLE
  2
STYLE
 70
     2
  0
STYLE
  2
STANDARD
 70
     0
 40
0.0
 41
0.75
 50
0.0
 71
     0
 42
4.0
  3
simplex.shx
  4
bigfont.shx
  0
ENDTAB
  0
TABLE
  2
VIEW
 70
     0
  0
ENDTAB
  0
TABLE
  2
UCS
 70
     0
  0
ENDTAB
  0
TABLE
  2
APPID
 70
    18
  0
APPID
  2
ACAD
 70
     0
  0
APPID
  2
ACADANNOTATIVE
 70
     0
  0
APPID
  2
ACAD_PSEXT
 70
     0
  0
APPID
  2
ACAD_EXEMPT_FROM_CAD_STANDARDS
 70
     0
  0
APPID
  2
ACAECLAYERSTANDARD
 70
     0
  0
APPID
  2
ACAUTHENVIRON
 70
     0
  0
APPID
  2
ACDBDYNAMICBLOCKTRUENAME
 70
     0
  0
APPID
  2
ACDBDYNAMICBLOCKGUID
 70
     0
  0
APPID
  2
ACDBBLOCKREPETAG
 70
     0
  0
APPID
  2
ACDBBLOCKREPBTAG
 70
     0
  0
APPID
  2
ACAD_NAV_VCDISPLAY
 70
     0
  0
APPID
  2
ACAD_DSTYLE_DIMRADIAL_EXTENSION
 70
     0
  0
APPID
  2
ACAD_DSTYLE_DIMJAG
 70
     0
  0
APPID
  2
ACAD_DSTYLE_DIMTALN
 70
     0
  0
APPID
  2
ACADANNOPO
 70
     0
  0
APPID
  2
GRADIENTCOLOR1ACI
 70
     0
  0
APPID
  2
GRADIENTCOLOR2ACI
 70
     0
  0
APPID
  2
ACAD_MLEADERVER
 70
     0
  0
ENDTAB
  0
TABLE
  2
DIMSTYLE
 70
     3
  0
DIMSTYLE
  2
STANDARD
 70
     0
  3

  4

  5

  6

  7

 40
1.0
 41
0.18
 42
0.0625
 43
0.38
 44
0.18
 45
0.0
 46
0.0
 47
0.0
 48
0.0
140
0.18
141
0.09
142
0.0
143
25.399999999999999
144
1.0
145
0.0
146
1.0
147
0.09
 71
     0
 72
     0
 73
     1
 74
     1
 75
     0
 76
     0
 77
     0
 78
     0
170
     0
171
     2
172
     0
173
     0
174
     0
175
     0
176
     0
177
     0
178
     0
  0
DIMSTYLE
  2
S10
 70
     0
  3

  4

  5

  6

  7

 40
10.0
 41
2.0
 42
1.0
 43
10.0
 44
1.0
 45
0.0
 46
0.0
 47
0.0
 48
0.0
140
3.2000000000000002
141
0.0
142
0.0
143
25.399999999999999
144
1.0
145
0.0
146
1.0
147
0.9
 71
     0
 72
     0
 73
     0
 74
     0
 75
     0
 76
     0
 77
     1
 78
     8
170
     0
171
     2
172
     1
173
     0
174
     0
175
     0
176
   256
177
   256
178
   256
  0
ENDTAB
  0
ENDSEC
  0
SECTION
  2
BLOCKS
  0
BLOCK
  8
0
  2
$MODEL_SPACE
 70
     0
 10
0.0
 20
0.0
 30
0.0
  3
$MODEL_SPACE
  1

  0
ENDBLK
  5
123C4D
  8
0
  0
BLOCK
 67
     1
  8
0
  2
$PAPER_SPACE
 70
     0
 10
0.0
 20
0.0
 30
0.0
  3
$PAPER_SPACE
  1

  0
ENDBLK
  5
123C49
 67
     1
  8
0
  0
BLOCK
  8
0
  2
_OPEN30
 70
     0
 10
0.0
 20
0.0
 30
0.0
  3
_OPEN30
  1

  0
LINE
  5
202
  8
0
  6
BYBLOCK
 62
     0
 10
-1.0
 20
0.26794919
 30
0.0
 11
0.0
 21
0.0
 31
0.0
  0
LINE
  5
203
  8
0
  6
BYBLOCK
 62
     0
 10
0.0
 20
0.0
 30
0.0
 11
-1.0
 21
-0.26794919
 31
0.0
  0
LINE
  5
204
  8
0
  6
BYBLOCK
 62
     0
 10
0.0
 20
0.0
 30
0.0
 11
-1.0
 21
0.0
 31
0.0
  0
ENDBLK
  5
206
  8
0
  0
ENDSEC
  0
SECTION
  2
ENTITIES
  0
ARC
  5
12367C
  8
OBJECT
 10
12000.0
 20
-199.99999999999909
 30
0.0
 40
50.0
 50
298.81994300000417
 51
228.52376955964741
1001
ACDBBLOCKREPETAG
1070
     1
1071
      185
1005
12367C
  0
LINE
  5
12367D
  8
SLIM
 10
11927.30183005652
 20
-155.95484036957691
 30
0.0
 11
11955.954840369581
 21
-127.30183005652231
 31
0.0
1001
GRADIENTCOLOR1ACI
1070
     5
1001
GRADIENTCOLOR2ACI
1070
     2
1001
ACAD
1010
0.0
1020
0.0
1030
0.0
1001
ACDBBLOCKREPETAG
1070
     1
1071
      442
1005
12367D
  0
LINE
  5
12367E
  8
SLIM
 10
11919.48615207084
 20
-172.75077447633191
 30
0.0
 11
11938.29030895727
 21
-153.94661758989659
 31
0.0
1001
GRADIENTCOLOR1ACI
1070
     5
1001
GRADIENTCOLOR2ACI
1070
     2
1001
ACAD
1010
0.0
1020
0.0
1030
0.0
1001
ACDBBLOCKREPETAG
1070
     1
1071
      443
1005
12367E
  0
LINE
  5
12367F
  8
SLIM
 10
11953.9466175899
 20
-138.29030895727169
 30
0.0
 11
11972.75077447633
 21
-119.4861520708364
 31
0.0
1001
GRADIENTCOLOR1ACI
1070
     5
1001
GRADIENTCOLOR2ACI
1070
     2
1001
ACAD
1010
0.0
1020
0.0
1030
0.0
1001
ACDBBLOCKREPETAG
1070
     1
1071
      444
1005
12367F
  0
LINE
  5
123680
  8
SLIM
 10
11916.35966799338
 20
-184.8575146748604
 30
0.0
 11
11927.69595835578
 21
-173.5212243124561
 31
0.0
1001
GRADIENTCOLOR1ACI
1070
     5
1001
GRADIENTCOLOR2ACI
1070
     2
1001
ACAD
1010
0.0
1020
0.0
1030
0.0
1001
ACDBBLOCKREPETAG
1070
     1
1071
      445
1005
123680
  0
LINE
  5
123681
  8
SLIM
 10
11973.521224312461
 20
-127.6959583557812
 30
0.0
 11
11984.857514674861
 21
-116.359667993377
 31
0.0
1001
GRADIENTCOLOR1ACI
1070
     5
1001
GRADIENTCOLOR2ACI
1070
     2
1001
ACAD
1010
0.0
1020
0.0
1030
0.0
1001
ACDBBLOCKREPETAG
1070
     1
1071
      446
1005
123681
  0
LINE
  5
123682
  8
SLIM
 10
11915.14405758905
 20
-195.0533812002549
 30
0.0
 11
11924.30302164318
 21
-185.89441714612491
 31
0.0
1001
GRADIENTCOLOR1ACI
1070
     5
1001
GRADIENTCOLOR2ACI
1070
     2
1001
ACAD
1010
0.0
1020
0.0
1030
0.0
1001
ACDBBLOCKREPETAG
1070
     1
1071
      447
1005
123682
  0
LINE
  5
123683
  8
SLIM
 10
11985.894417146121
 20
-124.30302164318159
 30
0.0
 11
11995.05338120025
 21
-115.1440575890517
 31
0.0
1001
GRADIENTCOLOR1ACI
1070
     5
1001
GRADIENTCOLOR2ACI
1070
     2
1001
ACAD
1010
0.0
1020
0.0
1030
0.0
1001
ACDBBLOCKREPETAG
1070
     1
1071
      448
1005
123683
  0
LINE
  5
123684
  8
SLIM
 10
11915.097963557469
 20
-204.07973135290339
 30
0.0
 11
11919.17769491037
 21
-199.99999999999909
 31
0.0
1001
GRADIENTCOLOR1ACI
1070
     5
1001
GRADIENTCOLOR2ACI
1070
     2
1001
ACAD
1010
0.0
1020
0.0
1030
0.0
1001
ACDBBLOCKREPETAG
1070
     1
1071
      449
1005
123684
  0
LINE
  5
123685
  8
SLIM
 10
12000.0
 20
-119.1776949103767
 30
0.0
 11
12004.0797313529
 21
-115.0979635574724
 31
0.0
1001
GRADIENTCOLOR1ACI
1070
     5
1001
GRADIENTCOLOR2ACI
1070
     2
1001
ACAD
1010
0.0
1020
0.0
1030
0.0
1001
ACDBBLOCKREPETAG
1070
     1
1071
      450
1005
123685
  0
LINE
  5
123686
  8
SLIM
 10
11919.17769491037
 20
-199.99999999999909
 30
0.0
 11
11923.09996216117
 21
-196.07773274920581
 31
0.0
1001
GRADIENTCOLOR1ACI
1070
     5
1001
GRADIENTCOLOR2ACI
1070
     2
1001
ACAD
1010
0.0
1020
0.0
1030
0.0
1001
ACDBBLOCKREPETAG
1070
     1
1071
      451
1005
123686
  0
LINE
  5
123687
  8
SLIM
 10
11996.077732749211
 20
-123.0999621611699
 30
0.0
 11
12000.0
 21
-119.1776949103767
 31
0.0
1001
GRADIENTCOLOR1ACI
1070
     5
1001
GRADIENTCOLOR2ACI
1070
     2
1001
ACAD
1010
0.0
1020
0.0
1030
0.0
1001
ACDBBLOCKREPETAG
1070
     1
1071
      452
1005
123687
  0
LINE
  5
123688
  8
SLIM
 10
11915.889972620869
 20
-212.26797841057399
 30
0.0
 11
11923.16223077717
 21
-204.9957202542767
 31
0.0
1001
GRADIENTCOLOR1ACI
1070
     5
1001
GRADIENTCOLOR2ACI
1070
     2
1001
ACAD
1010
0.0
1020
0.0
1030
0.0
1001
ACDBBLOCKREPETAG
1070
     1
1071
      453
1005
123688
  0
LINE
  5
123689
  8
SLIM
 10
12004.995720254279
 20
-123.1622307771683
 30
0.0
 11
12012.267978410569
 21
-115.88997262087101
 31
0.0
1001
GRADIENTCOLOR1ACI
1070
     5
1001
GRADIENTCOLOR2ACI
1070
     2
1001
ACAD
1010
0.0
1020
0.0
1030
0.0
1001
ACDBBLOCKREPETAG
1070
     1
1071
      454
1005
123689
  0
LINE
  5
12368A
  8
SLIM
 10
11917.338265695151
 20
-219.79994145736151
 30
0.0
 11
11924.11014778555
 21
-213.02805936696359
 31
0.0
1001
GRADIENTCOLOR1ACI
1070
     5
1001
GRADIENTCOLOR2ACI
1070
     2
1001
ACAD
1010
0.0
1020
0.0
1030
0.0
1001
ACDBBLOCKREPETAG
1070
     1
1071
      455
1005
12368A
  0
LINE
  5
12368B
  8
SLIM
 10
12013.028059366959
 20
-124.1101477855505
 30
0.0
 11
12019.799941457361
 21
-117.3382656951526
 31
0.0
1001
GRADIENTCOLOR1ACI
1070
     5
1001
GRADIENTCOLOR2ACI
1070
     2
1001
ACAD
1010
0.0
1020
0.0
1030
0.0
1001
ACDBBLOCKREPETAG
1070
     1
1071
      456
1005
12368B
  0
LINE
  5
12368C
  8
SLIM
 10
11919.331259406301
 20
-226.78720386727881
 30
0.0
 11
11925.744381959341
 21
-220.3740813142449
 31
0.0
1001
GRADIENTCOLOR1ACI
1070
     5
1001
GRADIENTCOLOR2ACI
1070
     2
1001
ACAD
1010
0.0
1020
0.0
1030
0.0
1001
ACDBBLOCKREPETAG
1070
     1
1071
      457
1005
12368C
  0
LINE
  5
12368D
  8
SLIM
 10
12020.374081314239
 20
-125.7443819593384
 30
0.0
 11
12026.787203867279
 21
-119.3312594063044
 31
0.0
1001
GRADIENTCOLOR1ACI
1070
     5
1001
GRADIENTCOLOR2ACI
1070
     2
1001
ACAD
1010
0.0
1020
0.0
1030
0.0
1001
ACDBBLOCKREPETAG
1070
     1
1071
      458
1005
12368D
  0
LINE
  5
12368E
  8
SLIM
 10
11921.79571631862
 20
-233.30300307603289
 30
0.0
 11
11927.946247395779
 21
-227.1524719988744
 31
0.0
1001
GRADIENTCOLOR1ACI
1070
     5
1001
GRADIENTCOLOR2ACI
1070
     2
1001
ACAD
1010
0.0
1020
0.0
1030
0.0
1001
ACDBBLOCKREPETAG
1070
     1
1071
      459
1005
12368E
  0
LINE
  5
12368F
  8
SLIM
 10
12027.15247199887
 20
-127.946247395778
 30
0.0
 11
12033.303003076029
 21
-121.7957163186195
 31
0.0
1001
GRADIENTCOLOR1ACI
1070
     5
1001
GRADIENTCOLOR2ACI
1070
     2
1001
ACAD
1010
0.0
1020
0.0
1030
0.0
1001
ACDBBLOCKREPETAG
1070
     1
1071
      460
1005
12368F
  0
LINE
  5
123690
  8
SLIM
 10
11924.681663531341
 20
-239.39731198437769
 30
0.0
 11
11930.63987686439
 21
-233.4390986513296
 31
0.0
1001
GRADIENTCOLOR1ACI
1070
     5
1001
GRADIENTCOLOR2ACI
1070
     2
1001
ACAD
1010
0.0
1020
0.0
1030
0.0
1001
ACDBBLOCKREPETAG
1070
     1
1071
      461
1005
123690
  0
LINE
  5
123691
  8
SLIM
 10
12033.43909865133
 20
-130.63987686439199
 30
0.0
 11
12039.397311984379
 21
-124.6816635313439
 31
0.0
1001
GRADIENTCOLOR1ACI
1070
     5
1001
GRADIENTCOLOR2ACI
1070
     2
1001
ACAD
1010
0.0
1020
0.0
1030
0.0
1001
ACDBBLOCKREPETAG
1070
     1
1071
      462
1005
123691
  0
LINE
  5
123692
  8
SLIM
 10
11927.954461102419
 20
-245.10477053436691
 30
0.0
 11
11933.77500701499
 21
-239.28422462179751
 31
0.0
1001
GRADIENTCOLOR1ACI
1070
     5
1001
GRADIENTCOLOR2ACI
1070
     2
1001
ACAD
1010
0.0
1020
0.0
1030
0.0
1001
ACDBBLOCKREPETAG
1070
     1
1071
      463
1005
123692
  0
LINE
  5
123693
  8
SLIM
 10
12039.284224621801
 20
-133.77500701499321
 30
0.0
 11
12045.10477053437
 21
-127.95446110242381
 31
0.0
1001
GRADIENTCOLOR1ACI
1070
     5
1001
GRADIENTCOLOR2ACI
1070
     2
1001
ACAD
1010
0.0
1020
0.0
1030
0.0
1001
ACDBBLOCKREPETAG
1070
     1
1071
      464
1005
123693
  0
LINE
  5
123694
  8
SLIM
 10
11931.59033196866
 20
-250.4491557891954
 30
0.0
 11
11937.31820758806
 21
-244.72128016980341
 31
0.0
1001
GRADIENTCOLOR1ACI
1070
     5
1001
GRADIENTCOLOR2ACI
1070
     2
1001
ACAD
1010
0.0
1020
0.0
1030
0.0
1001
ACDBBLOCKREPETAG
1070
     1
1071
      465
1005
123694
  0
LINE
  5
123695
  8
SLIM
 10
12044.721280169801
 20
-137.31820758805651
 30
0.0
 11
12050.449155789191
 21
-131.59033196866449
 31
0.0
1001
GRADIENTCOLOR1ACI
1070
     5
1001
GRADIENTCOLOR2ACI
1070
     2
1001
ACAD
1010
0.0
1020
0.0
1030
0.0
1001
ACDBBLOCKREPETAG
1070
     1
1071
      466
1005
123695
  0
LINE
  5
123696
  8
SLIM
 10
11935.573749692519
 20
-255.4459941864034
 30
0.0
 11
11941.24811054159
 21
-249.77163333734029
 31
0.0
1001
GRADIENTCOLOR1ACI
1070
     5
1001
GRADIENTCOLOR2ACI
1070
     2
1001
ACAD
1010
0.0
1020
0.0
1030
0.0
1001
ACDBBLOCKREPETAG
1070
     1
1071
      467
1005
123696
  0
LINE
  5
123697
  8
SLIM
 10
12053.01974387892
 20
-137.99999999999909
 30
0.0
 11
12055.445994186401
 21
-135.57374969252561
 31
0.0
1001
GRADIENTCOLOR1ACI
1070
     5
1001
GRADIENTCOLOR2ACI
1070
     2
1001
ACAD
1010
0.0
1020
0.0
1030
0.0
1001
ACDBBLOCKREPETAG
1070
     1
1071
      468
1005
123697
  0
LINE
  5
123698
  8
SLIM
 10
11939.895923599141
 20
-260.10407640085572
 30
0.0
 11
11945.55277784863
 21
-254.44722215136329
 31
0.0
1001
GRADIENTCOLOR1ACI
1070
     5
1001
GRADIENTCOLOR2ACI
1070
     2
1001
ACAD
1010
0.0
1020
0.0
1030
0.0
1001
ACDBBLOCKREPETAG
1070
     1
1071
      469
1005
123698
  0
LINE
  5
123699
  8
SLIM
 10
11944.55400581359
 20
-264.4262503074724
 30
0.0
 11
11950.228366662661
 21
-258.75188945840949
 31
0.0
1001
GRADIENTCOLOR1ACI
1070
     5
1001
GRADIENTCOLOR2ACI
1070
     2
1001
ACAD
1010
0.0
1020
0.0
1030
0.0
1001
ACDBBLOCKREPETAG
1070
     1
1071
      470
1005
123699
  0
LINE
  5
12369A
  8
SLIM
 10
11949.5508442108
 20
-268.40966803133369
 30
0.0
 11
11955.27871983019
 21
-262.68179241194167
 31
0.0
1001
GRADIENTCOLOR1ACI
1070
     5
1001
GRADIENTCOLOR2ACI
1070
     2
1001
ACAD
1010
0.0
1020
0.0
1030
0.0
1001
ACDBBLOCKREPETAG
1070
     1
1071
      471
1005
12369A
  0
LINE
  5
12369B
  8
SLIM
 10
11954.89522946563
 20
-272.04553889757437
 30
0.0
 11
11960.715775378199
 21
-266.22499298500497
 31
0.0
1001
GRADIENTCOLOR1ACI
1070
     5
1001
GRADIENTCOLOR2ACI
1070
     2
1001
ACAD
1010
0.0
1020
0.0
1030
0.0
1001
ACDBBLOCKREPETAG
1070
     1
1071
      472
1005
12369B
  0
LINE
  5
12369C
  8
SLIM
 10
11960.602688015621
 20
-275.31833646865431
 30
0.0
 11
11966.56090134867
 21
-269.36012313560622
 31
0.0
1001
GRADIENTCOLOR1ACI
1070
     5
1001
GRADIENTCOLOR2ACI
1070
     2
1001
ACAD
1010
0.0
1020
0.0
1030
0.0
1001
ACDBBLOCKREPETAG
1070
     1
1071
      473
1005
12369C
  0
LINE
  5
12369D
  8
SLIM
 10
11966.69699692396
 20
-278.20428368137868
 30
0.0
 11
11972.847528001121
 21
-272.05375260422022
 31
0.0
1001
GRADIENTCOLOR1ACI
1070
     5
1001
GRADIENTCOLOR2ACI
1070
     2
1001
ACAD
1010
0.0
1020
0.0
1030
0.0
1001
ACDBBLOCKREPETAG
1070
     1
1071
      474
1005
12369D
  0
LINE
  5
12369E
  8
SLIM
 10
11973.212796132721
 20
-280.66874059369371
 30
0.0
 11
11979.62591868575
 21
-274.25561804065973
 31
0.0
1001
GRADIENTCOLOR1ACI
1070
     5
1001
GRADIENTCOLOR2ACI
1070
     2
1001
ACAD
1010
0.0
1020
0.0
1030
0.0
1001
ACDBBLOCKREPETAG
1070
     1
1071
      475
1005
12369E
  0
LINE
  5
12369F
  8
SLIM
 10
11980.200058542639
 20
-282.6617343048456
 30
0.0
 11
11986.97194063303
 21
-275.88985221444773
 31
0.0
1001
GRADIENTCOLOR1ACI
1070
     5
1001
GRADIENTCOLOR2ACI
1070
     2
1001
ACAD
1010
0.0
1020
0.0
1030
0.0
1001
ACDBBLOCKREPETAG
1070
     1
1071
      476
1005
12369F
  0
LINE
  5
1236A0
  8
SLIM
 10
11987.73202158942
 20
-284.11002737912702
 30
0.0
 11
11995.004279745721
 21
-276.83776922282988
 31
0.0
1001
GRADIENTCOLOR1ACI
1070
     5
1001
GRADIENTCOLOR2ACI
1070
     2
1001
ACAD
1010
0.0
1020
0.0
1030
0.0
1001
ACDBBLOCKREPETAG
1070
     1
1071
      477
1005
1236A0
  0
LINE
  5
1236A1
  8
SLIM
 10
11995.9202686471
 20
-284.9020364425258
 30
0.0
 11
12000.0
 21
-280.82230508962152
 31
0.0
1001
GRADIENTCOLOR1ACI
1070
     5
1001
GRADIENTCOLOR2ACI
1070
     2
1001
ACAD
1010
0.0
1020
0.0
1030
0.0
1001
ACDBBLOCKREPETAG
1070
     1
1071
      478
1005
1236A1
  0
LINE
  5
1236A2
  8
SLIM
 10
12000.0
 20
-280.82230508962152
 30
0.0
 11
12003.922267250789
 21
-276.90003783882821
 31
0.0
1001
GRADIENTCOLOR1ACI
1070
     5
1001
GRADIENTCOLOR2ACI
1070
     2
1001
ACAD
1010
0.0
1020
0.0
1030
0.0
1001
ACDBBLOCKREPETAG
1070
     1
1071
      479
1005
1236A2
  0
LINE
  5
1236A3
  8
SLIM
 10
12004.94661879974
 20
-284.85594241094651
 30
0.0
 11
12014.10558285387
 21
-275.6969783568166
 31
0.0
1001
GRADIENTCOLOR1ACI
1070
     5
1001
GRADIENTCOLOR2ACI
1070
     2
1001
ACAD
1010
0.0
1020
0.0
1030
0.0
1001
ACDBBLOCKREPETAG
1070
     1
1071
      480
1005
1236A3
  0
LINE
  5
1236A4
  8
SLIM
 10
12015.142485325139
 20
-283.64033200662118
 30
0.0
 11
12026.478775687539
 21
-272.30404164421702
 31
0.0
1001
GRADIENTCOLOR1ACI
1070
     5
1001
GRADIENTCOLOR2ACI
1070
     2
1001
ACAD
1010
0.0
1020
0.0
1030
0.0
1001
ACDBBLOCKREPETAG
1070
     1
1071
      481
1005
1236A4
  0
LINE
  5
1236A5
  8
SLIM
 10
12027.249225523659
 20
-280.51384792916173
 30
0.0
 11
12045.76307345283
 21
-261.99999999999909
 31
0.0
1001
GRADIENTCOLOR1ACI
1070
     5
1001
GRADIENTCOLOR2ACI
1070
     2
1001
ACAD
1010
0.0
1020
0.0
1030
0.0
1001
ACDBBLOCKREPETAG
1070
     1
1071
      482
1005
1236A5
  0
LINE
  5
1236A6
  8
SLIM
 10
12044.045159630419
 20
-272.69816994347582
 30
0.0
 11
12054.743329573899
 21
-261.99999999999909
 31
0.0
1001
GRADIENTCOLOR1ACI
1070
     5
1001
GRADIENTCOLOR2ACI
1070
     2
1001
ACAD
1010
0.0
1020
0.0
1030
0.0
1001
ACDBBLOCKREPETAG
1070
     1
1071
      483
1005
1236A6
  0
LINE
  5
1236A7
  8
CENTER
 10
12080.0
 20
-199.99999999999909
 30
0.0
 11
11900.0
 21
-199.99999999999909
 31
0.0
1001
ACDBBLOCKREPETAG
1070
     1
1071
      187
1005
1236A7
  0
LINE
  5
1236A8
  8
CENTER
 10
12000.0
 20
-299.99999999999898
 30
0.0
 11
12000.0
 21
-99.999999999999091
 31
0.0
1001
ACDBBLOCKREPETAG
1070
     1
1071
      188
1005
1236A8
  0
CIRCLE
  5
1236A9
  8
OBJECT
 10
12000.0
 20
-199.99999999999909
 30
0.0
 40
70.0
1001
ACDBBLOCKREPETAG
1070
     1
1071
      189
1005
1236A9
  0
CIRCLE
  5
1236AA
  8
OBJECT
 10
12000.0
 20
-199.99999999999909
 30
0.0
 40
77.0
1001
ACDBBLOCKREPETAG
1070
     1
1071
      190
1005
1236AA
  0
LINE
  5
1236AB
  8
OBJECT
 10
12045.661800227321
 20
-137.99999999999909
 30
0.0
 11
12080.0
 21
-137.99999999999909
 31
0.0
1001
ACDBBLOCKREPETAG
1070
     1
1071
      192
1005
1236AB
  0
LINE
  5
1236AC
  8
OBJECT
 10
12045.661800227321
 20
-261.99999999999909
 30
0.0
 11
12080.0
 21
-261.99999999999909
 31
0.0
1001
ACDBBLOCKREPETAG
1070
     1
1071
      193
1005
1236AC
  0
ARC
  5
1236AD
  8
OBJECT
 10
12000.0
 20
-199.99999999999909
 30
0.0
 40
85.0
 50
46.837102859853147
 51
313.16289714014681
1001
ACDBBLOCKREPETAG
1070
     1
1071
      202
1005
1236AD
  0
LINE
  5
1236AE
  8
OBJECT
 10
12024.1029330933
 20
-243.80694712371681
 30
0.0
 11
12020.659656999989
 21
-232.55462199999889
 31
0.0
1001
ACDBBLOCKREPETAG
1070
     1
1071
      321
1005
1236AE
  0
LINE
  5
1236AF
  8
OBJECT
 10
11986.79274990136
 20
-218.22553374208019
 30
0.0
 11
12020.659656999989
 21
-232.5546219999969
 31
0.0
1001
ACDBBLOCKREPETAG
1070
     1
1071
      323
1005
1236AF
  0
ARC
  5
1236B0
  8
OBJECT
 10
11982.8961697619
 20
-227.4351299990567
 30
0.0
 40
10.0
 50
67.066778292911366
 51
154.01473437031629
1001
ACDBBLOCKREPETAG
1070
     1
1071
      324
1005
1236B0
  0
ARC
  5
1236B1
  8
OBJECT
 10
11986.148839038129
 20
-225.55386256729159
 30
0.0
 40
7.0
 50
67.066778292911366
 51
154.0147337749826
1001
ACDBBLOCKREPETAG
1070
     1
1071
      325
1005
1236B1
  0
LINE
  5
1236B2
  8
OBJECT
 10
11969.4199755553
 20
-243.89888500818171
 30
0.0
 11
11979.85649182323
 21
-222.48688253356801
 31
0.0
1001
ACDBBLOCKREPETAG
1070
     1
1071
      353
1005
1236B2
  0
LINE
  5
1236B3
  8
OBJECT
 10
11965.29721690061
 20
-240.71813901882729
 30
0.0
 11
11973.90710226651
 21
-223.05373004430751
 31
0.0
1001
ACDBBLOCKREPETAG
1070
     1
1071
      354
1005
1236B3
  0
ARC
  5
1236B4
  8
OBJECT
 10
11976.57969530731
 20
-207.1289369828437
 30
0.0
 40
60.031113246032611
 50
314.07020130422319
 51
322.33936106089681
1001
ACDBBLOCKREPETAG
1070
     1
1071
      355
1005
1236B4
  0
CIRCLE
  5
1236B5
  8
OBJECT
 10
12000.0
 20
-199.99999999999909
 30
0.0
 40
53.5
1001
ACDBBLOCKREPETAG
1070
     1
1071
      356
1005
1236B5
  0
POINT
  5
1236B6
  8
DOTS
 10
12000.0
 20
-199.99999999999909
 30
0.0
 50
270.0
1001
ACDBBLOCKREPETAG
1070
     1
1071
      365
1005
1236B6
  0
LINE
  5
1236B7
  8
OBJECT
 10
12212.99999999998
 20
-453.0000000000008
 30
0.0
 11
12219.99999999998
 21
-453.0000000000008
 31
0.0
1001
ACDBBLOCKREPETAG
1070
     1
1071
      106
1005
1236B7
  0
LINE
  5
1236B8
  8
OBJECT
 10
12219.99999999998
 20
-453.0000000000008
 30
0.0
 11
12219.99999999998
 21
-577.0000000000008
 31
0.0
1001
ACDBBLOCKREPETAG
1070
     1
1071
      107
1005
1236B8
  0
LINE
  5
1236B9
  8
OBJECT
 10
12085.99999999998
 20
-553.3502637757274
 30
0.0
 11
12085.99999999998
 21
-655.00000000000068
 31
0.0
1001
ACDBBLOCKREPETAG
1070
     1
1071
      108
1005
1236B9
  0
LINE
  5
1236BA
  8
OBJECT
 10
12219.99999999998
 20
-577.0000000000008
 30
0.0
 11
12212.99999999998
 21
-577.0000000000008
 31
0.0
1001
ACDBBLOCKREPETAG
1070
     1
1071
      109
1005
1236BA
  0
LINE
  5
1236BB
  8
OBJECT
 10
12212.99999999998
 20
-577.0000000000008
 30
0.0
 11
12212.99999999998
 21
-453.0000000000008
 31
0.0
1001
ACDBBLOCKREPETAG
1070
     1
1071
      110
1005
1236BB
  0
LINE
  5
1236BC
  8
CENTER
 10
12144.99999999998
 20
-515.0000000000008
 30
0.0
 11
12234.99999999998
 21
-515.0000000000008
 31
0.0
1001
ACDBBLOCKREPETAG
1070
     1
1071
      111
1005
1236BC
  0
LINE
  5
1236BD
  8
OBJECT
 10
12079.99999999998
 20
-658.0
 30
0.0
 11
12082.99999999998
 21
-658.0000000000008
 31
0.0
1001
ACDBBLOCKREPETAG
1070
     1
1071
      112
1005
1236BD
  0
ARC
  5
1236BE
  8
OBJECT
 10
12082.99999999998
 20
-655.00000000000068
 30
0.0
 40
3.0
 50
270.0
 51
0.0
1001
ACDBBLOCKREPETAG
1070
     1
1071
      113
1005
1236BE
  0
LINE
  5
1236BF
  8
OBJECT
 10
12212.99999999998
 20
-456.0000000000008
 30
0.0
 11
12176.99999999998
 21
-456.0000000000008
 31
0.0
1001
ACDBBLOCKREPETAG
1070
     1
1071
      114
1005
1236BF
  0
LINE
  5
1236C0
  8
OBJECT
 10
12176.99999999998
 20
-456.0000000000008
 30
0.0
 11
12176.99999999998
 21
-553.15756805667843
 31
0.0
1001
ACDBBLOCKREPETAG
1070
     1
1071
      115
1005
1236C0
  0
LINE
  5
1236C1
  8
OBJECT
 10
12172.99999999998
 20
-460.5000000000008
 30
0.0
 11
12172.99999999998
 21
-545.74491827928705
 31
0.0
1001
ACDBBLOCKREPETAG
1070
     1
1071
      116
1005
1236C1
  0
LINE
  5
1236C2
  8
OBJECT
 10
12172.99999999998
 20
-460.5000000000008
 30
0.0
 11
12159.99999999998
 21
-460.5000000000008
 31
0.0
1001
ACDBBLOCKREPETAG
1070
     1
1071
      117
1005
1236C2
  0
LINE
  5
1236C3
  8
OBJECT
 10
12168.656316825471
 20
-574.0000000000008
 30
0.0
 11
12212.99999999998
 21
-574.0000000000008
 31
0.0
1001
ACDBBLOCKREPETAG
1070
     1
1071
      118
1005
1236C3
  0
LINE
  5
1236C4
  8
OBJECT
 10
12176.99999999998
 20
-456.0000000000008
 30
0.0
 11
12172.99999999998
 21
-460.5000000000008
 31
0.0
1001
ACDBBLOCKREPETAG
1070
     1
1071
      119
1005
1236C4
  0
LINE
  5
1236C5
  8
OBJECT
 10
12159.99999999998
 20
-460.5000000000008
 30
0.0
 11
12159.99999999998
 21
-545.74491827928784
 31
0.0
1001
ACDBBLOCKREPETAG
1070
     1
1071
      120
1005
1236C5
  0
ARC
  5
1236C6
  8
OBJECT
 10
12091.99999999998
 20
-537.27386365609345
 30
0.0
 40
85.0
 50
308.59099323720869
 51
334.4008612781347
1001
ACDBBLOCKREPETAG
1070
     1
1071
      121
1005
1236C6
  0
ARC
  5
1236C7
  8
OBJECT
 10
12162.799999999979
 20
-555.00000000000068
 30
0.0
 40
85.0
 50
91.887731891831123
 51
160.07406787456929
1001
ACDBBLOCKREPETAG
1070
     1
1071
      122
1005
1236C7
  0
LINE
  5
1236C8
  8
OBJECT
 10
12085.99999999998
 20
-650.81075719270927
 30
0.0
 11
12145.0193225436
 21
-603.71143914629465
 31
0.0
1001
ACDBBLOCKREPETAG
1070
     1
1071
      123
1005
1236C8
  0
LINE
  5
1236C9
  8
OBJECT
 10
12172.99999999998
 20
-545.74491827928705
 30
0.0
 11
12159.99999999998
 21
-545.74491827928784
 31
0.0
1001
ACDBBLOCKREPETAG
1070
     1
1071
      124
1005
1236C9
  0
LINE
  5
1236CA
  8
OBJECT
 10
12176.99999999998
 20
-553.15756805667843
 30
0.0
 11
12172.99999999998
 21
-545.74491827928705
 31
0.0
1001
ACDBBLOCKREPETAG
1070
     1
1071
      125
1005
1236CA
  0
LINE
  5
1236CB
  8
OBJECT
 10
12080.00000000002
 20
-534.0
 30
0.0
 11
12082.888612159621
 21
-526.03156729425325
 31
0.0
1001
ACDBBLOCKREPETAG
1070
     1
1071
      126
1005
1236CB
  0
LINE
  5
1236CC
  8
OBJECT
 10
12080.00000000002
 20
-534.0
 30
0.0
 11
12085.99999999998
 21
-553.3502637757274
 31
0.0
1001
ACDBBLOCKREPETAG
1070
     1
1071
      127
1005
1236CC
  0
LINE
  5
1236CD
  8
HIDDEN
 10
12167.99999999998
 20
-470.5000000000008
 30
0.0
 11
12167.99999999998
 21
-559.50000000000068
 31
0.0
1001
ACDBBLOCKREPETAG
1070
     1
1071
      129
1005
1236CD
  0
LINE
  5
1236CE
  8
OBJECT
 10
12212.99999999998
 20
-137.99999999999909
 30
0.0
 11
12219.99999999998
 21
-137.99999999999909
 31
0.0
1001
ACDBBLOCKREPETAG
1070
     1
1071
      110
1005
1236CE
  0
LINE
  5
1236CF
  8
OBJECT
 10
12219.99999999998
 20
-137.99999999999909
 30
0.0
 11
12219.99999999998
 21
-261.99999999999909
 31
0.0
1001
ACDBBLOCKREPETAG
1070
     1
1071
      111
1005
1236CF
  0
LINE
  5
1236D0
  8
OBJECT
 10
12219.99999999998
 20
-261.99999999999909
 30
0.0
 11
12212.99999999998
 21
-261.99999999999909
 31
0.0
1001
ACDBBLOCKREPETAG
1070
     1
1071
      112
1005
1236D0
  0
LINE
  5
1236D1
  8
OBJECT
 10
12212.99999999998
 20
-261.99999999999909
 30
0.0
 11
12212.99999999998
 21
-137.99999999999909
 31
0.0
1001
ACDBBLOCKREPETAG
1070
     1
1071
      113
1005
1236D1
  0
LINE
  5
1236D2
  8
CENTER
 10
12234.99999999998
 20
-199.99999999999909
 30
0.0
 11
12080.0
 21
-199.99999999999909
 31
0.0
1001
ACDBBLOCKREPETAG
1070
     1
1071
      114
1005
1236D2
  0
LINE
  5
1236D3
  8
OBJECT
 10
12159.999974964179
 20
-245.0000000000027
 30
0.0
 11
12086.0
 21
-244.99999999999909
 31
0.0
1001
ACDBBLOCKREPETAG
1070
     1
1071
      115
1005
1236D3
  0
LINE
  5
1236D4
  8
OBJECT
 10
12159.999974964179
 20
-154.99999999999909
 30
0.0
 11
12086.0
 21
-154.99999999999909
 31
0.0
1001
ACDBBLOCKREPETAG
1070
     1
1071
      116
1005
1236D4
  0
LINE
  5
1236D5
  8
OBJECT
 10
12212.99999999998
 20
-140.99999999999909
 30
0.0
 11
12176.99999999998
 21
-140.99999999999909
 31
0.0
1001
ACDBBLOCKREPETAG
1070
     1
1071
      117
1005
1236D5
  0
LINE
  5
1236D6
  8
OBJECT
 10
12176.99999999998
 20
-140.99999999999909
 30
0.0
 11
12176.99999999998
 21
-258.99999999999909
 31
0.0
1001
ACDBBLOCKREPETAG
1070
     1
1071
      118
1005
1236D6
  0
LINE
  5
1236D7
  8
OBJECT
 10
12176.99999999998
 20
-258.99999999999909
 30
0.0
 11
12212.99999999998
 21
-258.99999999999909
 31
0.0
1001
ACDBBLOCKREPETAG
1070
     1
1071
      119
1005
1236D7
  0
LINE
  5
1236D8
  8
OBJECT
 10
12172.99999999998
 20
-145.49999999999909
 30
0.0
 11
12159.99999999998
 21
-145.49999999999909
 31
0.0
1001
ACDBBLOCKREPETAG
1070
     1
1071
      120
1005
1236D8
  0
LINE
  5
1236D9
  8
OBJECT
 10
12159.99999999998
 20
-254.49999999999909
 30
0.0
 11
12172.99999999998
 21
-254.49999999999909
 31
0.0
1001
ACDBBLOCKREPETAG
1070
     1
1071
      121
1005
1236D9
  0
LINE
  5
1236DA
  8
OBJECT
 10
12172.99999999998
 20
-254.49999999999909
 30
0.0
 11
12172.99999999998
 21
-145.49999999999909
 31
0.0
1001
ACDBBLOCKREPETAG
1070
     1
1071
      122
1005
1236DA
  0
LINE
  5
1236DB
  8
OBJECT
 10
12176.99999999998
 20
-140.99999999999909
 30
0.0
 11
12172.99999999998
 21
-145.49999999999909
 31
0.0
1001
ACDBBLOCKREPETAG
1070
     1
1071
      123
1005
1236DB
  0
LINE
  5
1236DC
  8
OBJECT
 10
12176.99999999998
 20
-258.99999999999909
 30
0.0
 11
12172.99999999998
 21
-254.49999999999909
 31
0.0
1001
ACDBBLOCKREPETAG
1070
     1
1071
      124
1005
1236DC
  0
LINE
  5
1236DD
  8
OBJECT
 10
12083.0
 20
-137.99999999999909
 30
0.0
 11
12080.0
 21
-137.99999999999909
 31
0.0
1001
ACDBBLOCKREPETAG
1070
     1
1071
      125
1005
1236DD
  0
ARC
  5
1236DE
  8
OBJECT
 10
12083.0
 20
-140.99999999999909
 30
0.0
 40
3.0
 50
0.0
 51
90.0
1001
ACDBBLOCKREPETAG
1070
     1
1071
      126
1005
1236DE
  0
LINE
  5
1236DF
  8
OBJECT
 10
12080.0
 20
-261.99999999999909
 30
0.0
 11
12083.0
 21
-261.99999999999909
 31
0.0
1001
ACDBBLOCKREPETAG
1070
     1
1071
      127
1005
1236DF
  0
ARC
  5
1236E0
  8
OBJECT
 10
12083.0
 20
-258.99999999999909
 30
0.0
 40
3.0
 50
270.0
 51
0.0
1001
ACDBBLOCKREPETAG
1070
     1
1071
      128
1005
1236E0
  0
LINE
  5
1236E1
  8
OBJECT
 10
12086.0
 20
-258.99999999999909
 30
0.0
 11
12086.0
 21
-222.44994432063581
 31
0.0
1001
ACDBBLOCKREPETAG
1070
     1
1071
      129
1005
1236E1
  0
LINE
  5
1236E2
  8
OBJECT
 10
12086.0
 20
-177.55005567935859
 30
0.0
 11
12086.0
 21
-140.99999999999909
 31
0.0
1001
ACDBBLOCKREPETAG
1070
     1
1071
      130
1005
1236E2
  0
LINE
  5
1236E3
  8
HIDDEN
 10
12167.99999999998
 20
-155.49999999999909
 30
0.0
 11
12167.99999999998
 21
-244.49999999999909
 31
0.0
1001
ACDBBLOCKREPETAG
1070
     1
1071
      131
1005
1236E3
  0
LINE
  5
1236E4
  8
OBJECT
 10
12159.999974964179
 20
-254.4999509238105
 30
0.0
 11
12159.999974964179
 21
-145.4999509238105
 31
0.0
1001
ACDBBLOCKREPETAG
1070
     1
1071
      133
1005
1236E4
  0
ARC
  5
1236E5
  8
OBJECT
 10
12125.0
 20
-199.99999999999909
 30
0.0
 40
45.000000000000547
 50
90.0
 51
270.0
1001
ACDBBLOCKREPETAG
1070
     1
1071
      134
1005
1236E5
  0
LINE
  5
1236E6
  8
OBJECT
 10
11923.0
 20
-470.99999999999937
 30
0.0
 11
11923.0
 21
-449.99999999999937
 31
0.0
1001
ACDBBLOCKREPETAG
1070
     1
1071
        0
1005
1236E6
  0
LINE
  5
1236E7
  8
OBJECT
 10
11923.0
 20
-449.99999999999937
 30
0.0
 11
12077.0
 21
-449.99999999999937
 31
0.0
1001
ACDBBLOCKREPETAG
1070
     1
1071
        1
1005
1236E7
  0
LINE
  5
1236E8
  8
HIDDEN
 10
11943.0
 20
-519.99999999999955
 30
0.0
 11
12057.0
 21
-519.99999999999955
 31
0.0
1001
ACDBBLOCKREPETAG
1070
     1
1071
        2
1005
1236E8
  0
LINE
  5
1236E9
  8
OBJECT
 10
12077.0
 20
-449.99999999999937
 30
0.0
 11
12077.0
 21
-470.99999999999937
 31
0.0
1001
ACDBBLOCKREPETAG
1070
     1
1071
        3
1005
1236E9
  0
LINE
  5
1236EA
  8
OBJECT
 10
12077.0
 20
-470.99999999999937
 30
0.0
 11
11923.0
 21
-470.99999999999937
 31
0.0
1001
ACDBBLOCKREPETAG
1070
     1
1071
        4
1005
1236EA
  0
LINE
  5
1236EB
  8
CENTER
 10
12000.0
 20
-434.99999999999949
 30
0.0
 11
12000.0
 21
-789.99999999999955
 31
0.0
1001
ACDBBLOCKREPETAG
1070
     1
1071
        5
1005
1236EB
  0
LINE
  5
1236EC
  8
OBJECT
 10
11925.0
 20
-533.99999999999955
 30
0.0
 11
11925.0
 21
-777.99999999999955
 31
0.0
1001
ACDBBLOCKREPETAG
1070
     1
1071
        6
1005
1236EC
  0
LINE
  5
1236ED
  8
OBJECT
 10
11928.0
 20
-470.99999999999937
 30
0.0
 11
11928.0
 21
-533.99999999999955
 31
0.0
1001
ACDBBLOCKREPETAG
1070
     1
1071
        7
1005
1236ED
  0
LINE
  5
1236EE
  8
OBJECT
 10
12072.0
 20
-533.99999999999955
 30
0.0
 11
12072.0
 21
-470.99999999999937
 31
0.0
1001
ACDBBLOCKREPETAG
1070
     1
1071
        8
1005
1236EE
  0
LINE
  5
1236EF
  8
OBJECT
 10
11920.0
 20
-777.99999999999955
 30
0.0
 11
12080.0
 21
-777.99999999999955
 31
0.0
1001
ACDBBLOCKREPETAG
1070
     1
1071
        9
1005
1236EF
  0
LINE
  5
1236F0
  8
OBJECT
 10
12080.0
 20
-533.99999999999955
 30
0.0
 11
11925.0
 21
-533.99999999999955
 31
0.0
1001
ACDBBLOCKREPETAG
1070
     1
1071
       10
1005
1236F0
  0
LINE
  5
1236F1
  8
OBJECT
 10
11920.0
 20
-777.99999999999955
 30
0.0
 11
11920.0
 21
-789.99999999999955
 31
0.0
1001
ACDBBLOCKREPETAG
1070
     1
1071
       11
1005
1236F1
  0
LINE
  5
1236F2
  8
OBJECT
 10
11920.0
 20
-789.99999999999955
 30
0.0
 11
12080.0
 21
-789.99999999999955
 31
0.0
1001
ACDBBLOCKREPETAG
1070
     1
1071
       12
1005
1236F2
  0
LINE
  5
1236F3
  8
OBJECT
 10
12080.0
 20
-789.99999999999955
 30
0.0
 11
12080.0
 21
-777.99999999999955
 31
0.0
1001
ACDBBLOCKREPETAG
1070
     1
1071
       13
1005
1236F3
  0
LINE
  5
1236F4
  8
OBJECT
 10
12074.99999999986
 20
-657.99999999985039
 30
0.0
 11
12075.0
 21
-777.99999999999955
 31
0.0
1001
ACDBBLOCKREPETAG
1070
     1
1071
       15
1005
1236F4
  0
LINE
  5
1236F5
  8
OBJECT
 10
12074.99999080298
 20
-657.99998602702135
 30
0.0
 11
12080.0
 21
-657.99998602702135
 31
0.0
1001
ACDBBLOCKREPETAG
1070
     1
1071
       16
1005
1236F5
  0
ARC
  5
1236F6
  8
OBJECT
 10
12200.687274671671
 20
-649.40809941010718
 30
0.0
 40
170.6350503965856
 50
137.44134459184301
 51
149.91949581337221
1001
ACDBBLOCKREPETAG
1070
     1
1071
       17
1005
1236F6
  0
ARC
  5
1236F7
  8
OBJECT
 10
12118.845598704051
 20
-605.88272669536445
 30
0.0
 40
78.072222021763665
 50
147.4551531038623
 51
164.6636599771729
1001
ACDBBLOCKREPETAG
1070
     1
1071
       18
1005
1236F7
  0
ARC
  5
1236F8
  8
OBJECT
 10
12085.755434960871
 20
-595.99999999999955
 30
0.0
 40
43.55353926885617
 50
165.688452300753
 51
194.3115476992468
1001
ACDBBLOCKREPETAG
1070
     1
1071
       19
1005
1236F8
  0
ARC
  5
1236F9
  8
OBJECT
 10
12200.687274671671
 20
-542.59190058989179
 30
0.0
 40
170.6350503965856
 50
210.08050418662771
 51
222.55865540815699
1001
ACDBBLOCKREPETAG
1070
     1
1071
       20
1005
1236F9
  0
ARC
  5
1236FA
  8
OBJECT
 10
12118.845598704051
 20
-586.11727330463452
 30
0.0
 40
78.072222021763665
 50
195.3363400228271
 51
212.5448468961377
1001
ACDBBLOCKREPETAG
1070
     1
1071
       21
1005
1236FA
  0
POINT
  5
1236FB
  8
DOTS
 10
12000.0
 20
-654.99999999999966
 30
0.0
1001
ACDBBLOCKREPETAG
1070
     1
1071
      187
1005
1236FB
  0
ARC
  5
1236FC
  8
OBJECT
 10
10000.0
 20
-199.99999999999909
 30
0.0
 40
50.0
 50
298.81994300000417
 51
228.52376955964741
1001
ACDBBLOCKREPETAG
1070
     1
1071
      185
1005
1236FC
  0
LINE
  5
1236FD
  8
SLIM
 10
9927.3018300565236
 20
-155.95484036957691
 30
0.0
 11
9955.9548403695771
 21
-127.30183005652231
 31
0.0
1001
GRADIENTCOLOR1ACI
1070
     5
1001
GRADIENTCOLOR2ACI
1070
     2
1001
ACAD
1010
0.0
1020
0.0
1030
0.0
1001
ACDBBLOCKREPETAG
1070
     1
1071
      442
1005
1236FD
  0
LINE
  5
1236FE
  8
SLIM
 10
9919.4861520708382
 20
-172.75077447633191
 30
0.0
 11
9938.2903089572737
 21
-153.94661758989659
 31
0.0
1001
GRADIENTCOLOR1ACI
1070
     5
1001
GRADIENTCOLOR2ACI
1070
     2
1001
ACAD
1010
0.0
1020
0.0
1030
0.0
1001
ACDBBLOCKREPETAG
1070
     1
1071
      443
1005
1236FE
  0
LINE
  5
1236FF
  8
SLIM
 10
9953.9466175898997
 20
-138.29030895727169
 30
0.0
 11
9972.7507744763316
 21
-119.4861520708364
 31
0.0
1001
GRADIENTCOLOR1ACI
1070
     5
1001
GRADIENTCOLOR2ACI
1070
     2
1001
ACAD
1010
0.0
1020
0.0
1030
0.0
1001
ACDBBLOCKREPETAG
1070
     1
1071
      444
1005
1236FF
  0
LINE
  5
123700
  8
SLIM
 10
9916.3596679933817
 20
-184.8575146748604
 30
0.0
 11
9927.6959583557837
 21
-173.5212243124561
 31
0.0
1001
GRADIENTCOLOR1ACI
1070
     5
1001
GRADIENTCOLOR2ACI
1070
     2
1001
ACAD
1010
0.0
1020
0.0
1030
0.0
1001
ACDBBLOCKREPETAG
1070
     1
1071
      445
1005
123700
  0
LINE
  5
123701
  8
SLIM
 10
9973.5212243124606
 20
-127.6959583557812
 30
0.0
 11
9984.8575146748644
 21
-116.359667993377
 31
0.0
1001
GRADIENTCOLOR1ACI
1070
     5
1001
GRADIENTCOLOR2ACI
1070
     2
1001
ACAD
1010
0.0
1020
0.0
1030
0.0
1001
ACDBBLOCKREPETAG
1070
     1
1071
      446
1005
123701
  0
LINE
  5
123702
  8
SLIM
 10
9915.1440575890538
 20
-195.0533812002549
 30
0.0
 11
9924.3030216431835
 21
-185.89441714612491
 31
0.0
1001
GRADIENTCOLOR1ACI
1070
     5
1001
GRADIENTCOLOR2ACI
1070
     2
1001
ACAD
1010
0.0
1020
0.0
1030
0.0
1001
ACDBBLOCKREPETAG
1070
     1
1071
      447
1005
123702
  0
LINE
  5
123703
  8
SLIM
 10
9985.8944171461262
 20
-124.30302164318159
 30
0.0
 11
9995.0533812002577
 21
-115.1440575890517
 31
0.0
1001
GRADIENTCOLOR1ACI
1070
     5
1001
GRADIENTCOLOR2ACI
1070
     2
1001
ACAD
1010
0.0
1020
0.0
1030
0.0
1001
ACDBBLOCKREPETAG
1070
     1
1071
      448
1005
123703
  0
LINE
  5
123704
  8
SLIM
 10
9915.0979635574713
 20
-204.07973135290339
 30
0.0
 11
9919.1776949103787
 21
-199.99999999999909
 31
0.0
1001
GRADIENTCOLOR1ACI
1070
     5
1001
GRADIENTCOLOR2ACI
1070
     2
1001
ACAD
1010
0.0
1020
0.0
1030
0.0
1001
ACDBBLOCKREPETAG
1070
     1
1071
      449
1005
123704
  0
LINE
  5
123705
  8
SLIM
 10
10000.0
 20
-119.1776949103767
 30
0.0
 11
10004.0797313529
 21
-115.0979635574724
 31
0.0
1001
GRADIENTCOLOR1ACI
1070
     5
1001
GRADIENTCOLOR2ACI
1070
     2
1001
ACAD
1010
0.0
1020
0.0
1030
0.0
1001
ACDBBLOCKREPETAG
1070
     1
1071
      450
1005
123705
  0
LINE
  5
123706
  8
SLIM
 10
9919.1776949103787
 20
-199.99999999999909
 30
0.0
 11
9923.09996216117
 21
-196.07773274920581
 31
0.0
1001
GRADIENTCOLOR1ACI
1070
     5
1001
GRADIENTCOLOR2ACI
1070
     2
1001
ACAD
1010
0.0
1020
0.0
1030
0.0
1001
ACDBBLOCKREPETAG
1070
     1
1071
      451
1005
123706
  0
LINE
  5
123707
  8
SLIM
 10
9996.0777327492033
 20
-123.0999621611699
 30
0.0
 11
10000.0
 21
-119.1776949103767
 31
0.0
1001
GRADIENTCOLOR1ACI
1070
     5
1001
GRADIENTCOLOR2ACI
1070
     2
1001
ACAD
1010
0.0
1020
0.0
1030
0.0
1001
ACDBBLOCKREPETAG
1070
     1
1071
      452
1005
123707
  0
LINE
  5
123708
  8
SLIM
 10
9915.8899726208747
 20
-212.26797841057399
 30
0.0
 11
9923.1622307771686
 21
-204.9957202542767
 31
0.0
1001
GRADIENTCOLOR1ACI
1070
     5
1001
GRADIENTCOLOR2ACI
1070
     2
1001
ACAD
1010
0.0
1020
0.0
1030
0.0
1001
ACDBBLOCKREPETAG
1070
     1
1071
      453
1005
123708
  0
LINE
  5
123709
  8
SLIM
 10
10004.99572025427
 20
-123.1622307771683
 30
0.0
 11
10012.26797841056
 21
-115.88997262087101
 31
0.0
1001
GRADIENTCOLOR1ACI
1070
     5
1001
GRADIENTCOLOR2ACI
1070
     2
1001
ACAD
1010
0.0
1020
0.0
1030
0.0
1001
ACDBBLOCKREPETAG
1070
     1
1071
      454
1005
123709
  0
LINE
  5
12370A
  8
SLIM
 10
9917.3382656951544
 20
-219.79994145736151
 30
0.0
 11
9924.1101477855536
 21
-213.02805936696359
 31
0.0
1001
GRADIENTCOLOR1ACI
1070
     5
1001
GRADIENTCOLOR2ACI
1070
     2
1001
ACAD
1010
0.0
1020
0.0
1030
0.0
1001
ACDBBLOCKREPETAG
1070
     1
1071
      455
1005
12370A
  0
LINE
  5
12370B
  8
SLIM
 10
10013.028059366959
 20
-124.1101477855505
 30
0.0
 11
10019.799941457361
 21
-117.3382656951526
 31
0.0
1001
GRADIENTCOLOR1ACI
1070
     5
1001
GRADIENTCOLOR2ACI
1070
     2
1001
ACAD
1010
0.0
1020
0.0
1030
0.0
1001
ACDBBLOCKREPETAG
1070
     1
1071
      456
1005
12370B
  0
LINE
  5
12370C
  8
SLIM
 10
9919.3312594063045
 20
-226.78720386727881
 30
0.0
 11
9925.7443819593445
 21
-220.3740813142449
 31
0.0
1001
GRADIENTCOLOR1ACI
1070
     5
1001
GRADIENTCOLOR2ACI
1070
     2
1001
ACAD
1010
0.0
1020
0.0
1030
0.0
1001
ACDBBLOCKREPETAG
1070
     1
1071
      457
1005
12370C
  0
LINE
  5
12370D
  8
SLIM
 10
10020.374081314239
 20
-125.7443819593384
 30
0.0
 11
10026.787203867279
 21
-119.3312594063044
 31
0.0
1001
GRADIENTCOLOR1ACI
1070
     5
1001
GRADIENTCOLOR2ACI
1070
     2
1001
ACAD
1010
0.0
1020
0.0
1030
0.0
1001
ACDBBLOCKREPETAG
1070
     1
1071
      458
1005
12370D
  0
LINE
  5
12370E
  8
SLIM
 10
9921.7957163186184
 20
-233.30300307603289
 30
0.0
 11
9927.9462473957792
 21
-227.1524719988744
 31
0.0
1001
GRADIENTCOLOR1ACI
1070
     5
1001
GRADIENTCOLOR2ACI
1070
     2
1001
ACAD
1010
0.0
1020
0.0
1030
0.0
1001
ACDBBLOCKREPETAG
1070
     1
1071
      459
1005
12370E
  0
LINE
  5
12370F
  8
SLIM
 10
10027.15247199887
 20
-127.946247395778
 30
0.0
 11
10033.303003076029
 21
-121.7957163186195
 31
0.0
1001
GRADIENTCOLOR1ACI
1070
     5
1001
GRADIENTCOLOR2ACI
1070
     2
1001
ACAD
1010
0.0
1020
0.0
1030
0.0
1001
ACDBBLOCKREPETAG
1070
     1
1071
      460
1005
12370F
  0
LINE
  5
123710
  8
SLIM
 10
9924.6816635313444
 20
-239.39731198437769
 30
0.0
 11
9930.6398768643921
 21
-233.4390986513296
 31
0.0
1001
GRADIENTCOLOR1ACI
1070
     5
1001
GRADIENTCOLOR2ACI
1070
     2
1001
ACAD
1010
0.0
1020
0.0
1030
0.0
1001
ACDBBLOCKREPETAG
1070
     1
1071
      461
1005
123710
  0
LINE
  5
123711
  8
SLIM
 10
10033.43909865133
 20
-130.63987686439199
 30
0.0
 11
10039.39731198437
 21
-124.6816635313439
 31
0.0
1001
GRADIENTCOLOR1ACI
1070
     5
1001
GRADIENTCOLOR2ACI
1070
     2
1001
ACAD
1010
0.0
1020
0.0
1030
0.0
1001
ACDBBLOCKREPETAG
1070
     1
1071
      462
1005
123711
  0
LINE
  5
123712
  8
SLIM
 10
9927.9544611024248
 20
-245.10477053436691
 30
0.0
 11
9933.7750070149923
 21
-239.28422462179751
 31
0.0
1001
GRADIENTCOLOR1ACI
1070
     5
1001
GRADIENTCOLOR2ACI
1070
     2
1001
ACAD
1010
0.0
1020
0.0
1030
0.0
1001
ACDBBLOCKREPETAG
1070
     1
1071
      463
1005
123712
  0
LINE
  5
123713
  8
SLIM
 10
10039.284224621801
 20
-133.77500701499321
 30
0.0
 11
10045.104770534361
 21
-127.95446110242381
 31
0.0
1001
GRADIENTCOLOR1ACI
1070
     5
1001
GRADIENTCOLOR2ACI
1070
     2
1001
ACAD
1010
0.0
1020
0.0
1030
0.0
1001
ACDBBLOCKREPETAG
1070
     1
1071
      464
1005
123713
  0
LINE
  5
123714
  8
SLIM
 10
9931.5903319686659
 20
-250.4491557891954
 30
0.0
 11
9937.3182075880559
 21
-244.72128016980341
 31
0.0
1001
GRADIENTCOLOR1ACI
1070
     5
1001
GRADIENTCOLOR2ACI
1070
     2
1001
ACAD
1010
0.0
1020
0.0
1030
0.0
1001
ACDBBLOCKREPETAG
1070
     1
1071
      465
1005
123714
  0
LINE
  5
123715
  8
SLIM
 10
10044.721280169801
 20
-137.31820758805651
 30
0.0
 11
10050.449155789191
 21
-131.59033196866449
 31
0.0
1001
GRADIENTCOLOR1ACI
1070
     5
1001
GRADIENTCOLOR2ACI
1070
     2
1001
ACAD
1010
0.0
1020
0.0
1030
0.0
1001
ACDBBLOCKREPETAG
1070
     1
1071
      466
1005
123715
  0
LINE
  5
123716
  8
SLIM
 10
9935.5737496925303
 20
-255.4459941864034
 30
0.0
 11
9941.2481105415936
 21
-249.77163333734029
 31
0.0
1001
GRADIENTCOLOR1ACI
1070
     5
1001
GRADIENTCOLOR2ACI
1070
     2
1001
ACAD
1010
0.0
1020
0.0
1030
0.0
1001
ACDBBLOCKREPETAG
1070
     1
1071
      467
1005
123716
  0
LINE
  5
123717
  8
SLIM
 10
10053.019743878929
 20
-137.99999999999909
 30
0.0
 11
10055.445994186401
 21
-135.57374969252561
 31
0.0
1001
GRADIENTCOLOR1ACI
1070
     5
1001
GRADIENTCOLOR2ACI
1070
     2
1001
ACAD
1010
0.0
1020
0.0
1030
0.0
1001
ACDBBLOCKREPETAG
1070
     1
1071
      468
1005
123717
  0
LINE
  5
123718
  8
SLIM
 10
9939.8959235991442
 20
-260.10407640085572
 30
0.0
 11
9945.5527778486357
 21
-254.44722215136329
 31
0.0
1001
GRADIENTCOLOR1ACI
1070
     5
1001
GRADIENTCOLOR2ACI
1070
     2
1001
ACAD
1010
0.0
1020
0.0
1030
0.0
1001
ACDBBLOCKREPETAG
1070
     1
1071
      469
1005
123718
  0
LINE
  5
123719
  8
SLIM
 10
9944.5540058135957
 20
-264.4262503074724
 30
0.0
 11
9950.2283666626608
 21
-258.75188945840949
 31
0.0
1001
GRADIENTCOLOR1ACI
1070
     5
1001
GRADIENTCOLOR2ACI
1070
     2
1001
ACAD
1010
0.0
1020
0.0
1030
0.0
1001
ACDBBLOCKREPETAG
1070
     1
1071
      470
1005
123719
  0
LINE
  5
12371A
  8
SLIM
 10
9949.5508442108039
 20
-268.40966803133369
 30
0.0
 11
9955.2787198301976
 21
-262.68179241194167
 31
0.0
1001
GRADIENTCOLOR1ACI
1070
     5
1001
GRADIENTCOLOR2ACI
1070
     2
1001
ACAD
1010
0.0
1020
0.0
1030
0.0
1001
ACDBBLOCKREPETAG
1070
     1
1071
      471
1005
12371A
  0
LINE
  5
12371B
  8
SLIM
 10
9954.8952294656337
 20
-272.04553889757437
 30
0.0
 11
9960.7157753781994
 21
-266.22499298500497
 31
0.0
1001
GRADIENTCOLOR1ACI
1070
     5
1001
GRADIENTCOLOR2ACI
1070
     2
1001
ACAD
1010
0.0
1020
0.0
1030
0.0
1001
ACDBBLOCKREPETAG
1070
     1
1071
      472
1005
12371B
  0
LINE
  5
12371C
  8
SLIM
 10
9960.6026880156223
 20
-275.31833646865431
 30
0.0
 11
9966.5609013486755
 21
-269.36012313560622
 31
0.0
1001
GRADIENTCOLOR1ACI
1070
     5
1001
GRADIENTCOLOR2ACI
1070
     2
1001
ACAD
1010
0.0
1020
0.0
1030
0.0
1001
ACDBBLOCKREPETAG
1070
     1
1071
      473
1005
12371C
  0
LINE
  5
12371D
  8
SLIM
 10
9966.6969969239635
 20
-278.20428368137868
 30
0.0
 11
9972.8475280011244
 21
-272.05375260422022
 31
0.0
1001
GRADIENTCOLOR1ACI
1070
     5
1001
GRADIENTCOLOR2ACI
1070
     2
1001
ACAD
1010
0.0
1020
0.0
1030
0.0
1001
ACDBBLOCKREPETAG
1070
     1
1071
      474
1005
12371D
  0
LINE
  5
12371E
  8
SLIM
 10
9973.2127961327205
 20
-280.66874059369371
 30
0.0
 11
9979.6259186857551
 21
-274.25561804065973
 31
0.0
1001
GRADIENTCOLOR1ACI
1070
     5
1001
GRADIENTCOLOR2ACI
1070
     2
1001
ACAD
1010
0.0
1020
0.0
1030
0.0
1001
ACDBBLOCKREPETAG
1070
     1
1071
      475
1005
12371E
  0
LINE
  5
12371F
  8
SLIM
 10
9980.2000585426413
 20
-282.6617343048456
 30
0.0
 11
9986.971940633035
 21
-275.88985221444773
 31
0.0
1001
GRADIENTCOLOR1ACI
1070
     5
1001
GRADIENTCOLOR2ACI
1070
     2
1001
ACAD
1010
0.0
1020
0.0
1030
0.0
1001
ACDBBLOCKREPETAG
1070
     1
1071
      476
1005
12371F
  0
LINE
  5
123720
  8
SLIM
 10
9987.7320215894215
 20
-284.11002737912702
 30
0.0
 11
9995.0042797457209
 21
-276.83776922282988
 31
0.0
1001
GRADIENTCOLOR1ACI
1070
     5
1001
GRADIENTCOLOR2ACI
1070
     2
1001
ACAD
1010
0.0
1020
0.0
1030
0.0
1001
ACDBBLOCKREPETAG
1070
     1
1071
      477
1005
123720
  0
LINE
  5
123721
  8
SLIM
 10
9995.9202686470962
 20
-284.9020364425258
 30
0.0
 11
10000.0
 21
-280.82230508962152
 31
0.0
1001
GRADIENTCOLOR1ACI
1070
     5
1001
GRADIENTCOLOR2ACI
1070
     2
1001
ACAD
1010
0.0
1020
0.0
1030
0.0
1001
ACDBBLOCKREPETAG
1070
     1
1071
      478
1005
123721
  0
LINE
  5
123722
  8
SLIM
 10
10000.0
 20
-280.82230508962152
 30
0.0
 11
10003.922267250789
 21
-276.90003783882821
 31
0.0
1001
GRADIENTCOLOR1ACI
1070
     5
1001
GRADIENTCOLOR2ACI
1070
     2
1001
ACAD
1010
0.0
1020
0.0
1030
0.0
1001
ACDBBLOCKREPETAG
1070
     1
1071
      479
1005
123722
  0
LINE
  5
123723
  8
SLIM
 10
10004.94661879974
 20
-284.85594241094651
 30
0.0
 11
10014.10558285387
 21
-275.6969783568166
 31
0.0
1001
GRADIENTCOLOR1ACI
1070
     5
1001
GRADIENTCOLOR2ACI
1070
     2
1001
ACAD
1010
0.0
1020
0.0
1030
0.0
1001
ACDBBLOCKREPETAG
1070
     1
1071
      480
1005
123723
  0
LINE
  5
123724
  8
SLIM
 10
10015.142485325139
 20
-283.64033200662118
 30
0.0
 11
10026.478775687539
 21
-272.30404164421702
 31
0.0
1001
GRADIENTCOLOR1ACI
1070
     5
1001
GRADIENTCOLOR2ACI
1070
     2
1001
ACAD
1010
0.0
1020
0.0
1030
0.0
1001
ACDBBLOCKREPETAG
1070
     1
1071
      481
1005
123724
  0
LINE
  5
123725
  8
SLIM
 10
10027.249225523659
 20
-280.51384792916173
 30
0.0
 11
10045.76307345283
 21
-261.99999999999909
 31
0.0
1001
GRADIENTCOLOR1ACI
1070
     5
1001
GRADIENTCOLOR2ACI
1070
     2
1001
ACAD
1010
0.0
1020
0.0
1030
0.0
1001
ACDBBLOCKREPETAG
1070
     1
1071
      482
1005
123725
  0
LINE
  5
123726
  8
SLIM
 10
10044.045159630419
 20
-272.69816994347582
 30
0.0
 11
10054.743329573899
 21
-261.99999999999909
 31
0.0
1001
GRADIENTCOLOR1ACI
1070
     5
1001
GRADIENTCOLOR2ACI
1070
     2
1001
ACAD
1010
0.0
1020
0.0
1030
0.0
1001
ACDBBLOCKREPETAG
1070
     1
1071
      483
1005
123726
  0
LINE
  5
123727
  8
CENTER
 10
10080.0
 20
-199.99999999999909
 30
0.0
 11
9900.0
 21
-199.99999999999909
 31
0.0
1001
ACDBBLOCKREPETAG
1070
     1
1071
      187
1005
123727
  0
LINE
  5
123728
  8
CENTER
 10
10000.0
 20
-299.99999999999898
 30
0.0
 11
10000.0
 21
-99.999999999999091
 31
0.0
1001
ACDBBLOCKREPETAG
1070
     1
1071
      188
1005
123728
  0
CIRCLE
  5
123729
  8
OBJECT
 10
10000.0
 20
-199.99999999999909
 30
0.0
 40
70.0
1001
ACDBBLOCKREPETAG
1070
     1
1071
      189
1005
123729
  0
CIRCLE
  5
12372A
  8
OBJECT
 10
10000.0
 20
-199.99999999999909
 30
0.0
 40
77.0
1001
ACDBBLOCKREPETAG
1070
     1
1071
      190
1005
12372A
  0
LINE
  5
12372B
  8
OBJECT
 10
10045.661800227321
 20
-137.99999999999909
 30
0.0
 11
10080.0
 21
-137.99999999999909
 31
0.0
1001
ACDBBLOCKREPETAG
1070
     1
1071
      192
1005
12372B
  0
LINE
  5
12372C
  8
OBJECT
 10
10045.661800227321
 20
-261.99999999999909
 30
0.0
 11
10080.0
 21
-261.99999999999909
 31
0.0
1001
ACDBBLOCKREPETAG
1070
     1
1071
      193
1005
12372C
  0
ARC
  5
12372D
  8
OBJECT
 10
10000.0
 20
-199.99999999999909
 30
0.0
 40
85.0
 50
46.837102859853147
 51
313.16289714014681
1001
ACDBBLOCKREPETAG
1070
     1
1071
      202
1005
12372D
  0
LINE
  5
12372E
  8
OBJECT
 10
10024.1029330933
 20
-243.80694712371681
 30
0.0
 11
10020.659656999989
 21
-232.55462199999889
 31
0.0
1001
ACDBBLOCKREPETAG
1070
     1
1071
      321
1005
12372E
  0
LINE
  5
12372F
  8
OBJECT
 10
9986.7927499013749
 20
-218.22553374208019
 30
0.0
 11
10020.659656999989
 21
-232.5546219999969
 31
0.0
1001
ACDBBLOCKREPETAG
1070
     1
1071
      323
1005
12372F
  0
ARC
  5
123730
  8
OBJECT
 10
9982.8961697618997
 20
-227.4351299990567
 30
0.0
 40
10.0
 50
67.066778292911366
 51
154.01473437031629
1001
ACDBBLOCKREPETAG
1070
     1
1071
      324
1005
123730
  0
ARC
  5
123731
  8
OBJECT
 10
9986.1488390381292
 20
-225.55386256729159
 30
0.0
 40
7.0
 50
67.066778292911366
 51
154.0147337749826
1001
ACDBBLOCKREPETAG
1070
     1
1071
      325
1005
123731
  0
LINE
  5
123732
  8
OBJECT
 10
9969.4199755553
 20
-243.89888500818171
 30
0.0
 11
9979.8564918232369
 21
-222.48688253356801
 31
0.0
1001
ACDBBLOCKREPETAG
1070
     1
1071
      353
1005
123732
  0
LINE
  5
123733
  8
OBJECT
 10
9965.2972169006098
 20
-240.71813901882729
 30
0.0
 11
9973.9071022665084
 21
-223.05373004430751
 31
0.0
1001
ACDBBLOCKREPETAG
1070
     1
1071
      354
1005
123733
  0
ARC
  5
123734
  8
OBJECT
 10
9976.5796953073132
 20
-207.1289369828437
 30
0.0
 40
60.031113246032611
 50
314.07020130422319
 51
322.33936106089681
1001
ACDBBLOCKREPETAG
1070
     1
1071
      355
1005
123734
  0
CIRCLE
  5
123735
  8
OBJECT
 10
10000.0
 20
-199.99999999999909
 30
0.0
 40
53.5
1001
ACDBBLOCKREPETAG
1070
     1
1071
      356
1005
123735
  0
POINT
  5
123736
  8
DOTS
 10
10000.0
 20
-199.99999999999909
 30
0.0
 50
270.0
1001
ACDBBLOCKREPETAG
1070
     1
1071
      365
1005
123736
  0
LINE
  5
123737
  8
OBJECT
 10
10212.99999999998
 20
-453.0000000000008
 30
0.0
 11
10219.99999999998
 21
-453.0000000000008
 31
0.0
1001
ACDBBLOCKREPETAG
1070
     1
1071
      106
1005
123737
  0
LINE
  5
123738
  8
OBJECT
 10
10219.99999999998
 20
-453.0000000000008
 30
0.0
 11
10219.99999999998
 21
-577.0000000000008
 31
0.0
1001
ACDBBLOCKREPETAG
1070
     1
1071
      107
1005
123738
  0
LINE
  5
123739
  8
OBJECT
 10
10085.99999999998
 20
-553.3502637757274
 30
0.0
 11
10085.99999999998
 21
-655.00000000000068
 31
0.0
1001
ACDBBLOCKREPETAG
1070
     1
1071
      108
1005
123739
  0
LINE
  5
12373A
  8
OBJECT
 10
10219.99999999998
 20
-577.0000000000008
 30
0.0
 11
10212.99999999998
 21
-577.0000000000008
 31
0.0
1001
ACDBBLOCKREPETAG
1070
     1
1071
      109
1005
12373A
  0
LINE
  5
12373B
  8
OBJECT
 10
10212.99999999998
 20
-577.0000000000008
 30
0.0
 11
10212.99999999998
 21
-453.0000000000008
 31
0.0
1001
ACDBBLOCKREPETAG
1070
     1
1071
      110
1005
12373B
  0
LINE
  5
12373C
  8
CENTER
 10
10144.99999999998
 20
-515.0000000000008
 30
0.0
 11
10234.99999999998
 21
-515.0000000000008
 31
0.0
1001
ACDBBLOCKREPETAG
1070
     1
1071
      111
1005
12373C
  0
LINE
  5
12373D
  8
OBJECT
 10
10079.99999999998
 20
-658.0
 30
0.0
 11
10082.99999999998
 21
-658.0000000000008
 31
0.0
1001
ACDBBLOCKREPETAG
1070
     1
1071
      112
1005
12373D
  0
ARC
  5
12373E
  8
OBJECT
 10
10082.99999999998
 20
-655.00000000000068
 30
0.0
 40
3.0
 50
270.0
 51
0.0
1001
ACDBBLOCKREPETAG
1070
     1
1071
      113
1005
12373E
  0
LINE
  5
12373F
  8
OBJECT
 10
10212.99999999998
 20
-456.0000000000008
 30
0.0
 11
10176.99999999998
 21
-456.0000000000008
 31
0.0
1001
ACDBBLOCKREPETAG
1070
     1
1071
      114
1005
12373F
  0
LINE
  5
123740
  8
OBJECT
 10
10176.99999999998
 20
-456.0000000000008
 30
0.0
 11
10176.99999999998
 21
-553.15756805667843
 31
0.0
1001
ACDBBLOCKREPETAG
1070
     1
1071
      115
1005
123740
  0
LINE
  5
123741
  8
OBJECT
 10
10172.99999999998
 20
-460.5000000000008
 30
0.0
 11
10172.99999999998
 21
-545.74491827928705
 31
0.0
1001
ACDBBLOCKREPETAG
1070
     1
1071
      116
1005
123741
  0
LINE
  5
123742
  8
OBJECT
 10
10172.99999999998
 20
-460.5000000000008
 30
0.0
 11
10159.99999999998
 21
-460.5000000000008
 31
0.0
1001
ACDBBLOCKREPETAG
1070
     1
1071
      117
1005
123742
  0
LINE
  5
123743
  8
OBJECT
 10
10168.656316825471
 20
-574.0000000000008
 30
0.0
 11
10212.99999999998
 21
-574.0000000000008
 31
0.0
1001
ACDBBLOCKREPETAG
1070
     1
1071
      118
1005
123743
  0
LINE
  5
123744
  8
OBJECT
 10
10176.99999999998
 20
-456.0000000000008
 30
0.0
 11
10172.99999999998
 21
-460.5000000000008
 31
0.0
1001
ACDBBLOCKREPETAG
1070
     1
1071
      119
1005
123744
  0
LINE
  5
123745
  8
OBJECT
 10
10159.99999999998
 20
-460.5000000000008
 30
0.0
 11
10159.99999999998
 21
-545.74491827928784
 31
0.0
1001
ACDBBLOCKREPETAG
1070
     1
1071
      120
1005
123745
  0
ARC
  5
123746
  8
OBJECT
 10
10091.99999999998
 20
-537.27386365609345
 30
0.0
 40
85.0
 50
308.59099323720869
 51
334.4008612781347
1001
ACDBBLOCKREPETAG
1070
     1
1071
      121
1005
123746
  0
ARC
  5
123747
  8
OBJECT
 10
10162.799999999979
 20
-555.00000000000068
 30
0.0
 40
85.0
 50
91.887731891831123
 51
160.07406787456929
1001
ACDBBLOCKREPETAG
1070
     1
1071
      122
1005
123747
  0
LINE
  5
123748
  8
OBJECT
 10
10085.99999999998
 20
-650.81075719270927
 30
0.0
 11
10145.0193225436
 21
-603.71143914629465
 31
0.0
1001
ACDBBLOCKREPETAG
1070
     1
1071
      123
1005
123748
  0
LINE
  5
123749
  8
OBJECT
 10
10172.99999999998
 20
-545.74491827928705
 30
0.0
 11
10159.99999999998
 21
-545.74491827928784
 31
0.0
1001
ACDBBLOCKREPETAG
1070
     1
1071
      124
1005
123749
  0
LINE
  5
12374A
  8
OBJECT
 10
10176.99999999998
 20
-553.15756805667843
 30
0.0
 11
10172.99999999998
 21
-545.74491827928705
 31
0.0
1001
ACDBBLOCKREPETAG
1070
     1
1071
      125
1005
12374A
  0
LINE
  5
12374B
  8
OBJECT
 10
10080.00000000002
 20
-534.0
 30
0.0
 11
10082.888612159621
 21
-526.03156729425325
 31
0.0
1001
ACDBBLOCKREPETAG
1070
     1
1071
      126
1005
12374B
  0
LINE
  5
12374C
  8
OBJECT
 10
10080.00000000002
 20
-534.0
 30
0.0
 11
10085.99999999998
 21
-553.3502637757274
 31
0.0
1001
ACDBBLOCKREPETAG
1070
     1
1071
      127
1005
12374C
  0
LINE
  5
12374D
  8
HIDDEN
 10
10167.99999999998
 20
-470.5000000000008
 30
0.0
 11
10167.99999999998
 21
-559.50000000000068
 31
0.0
1001
ACDBBLOCKREPETAG
1070
     1
1071
      129
1005
12374D
  0
LINE
  5
12374E
  8
OBJECT
 10
10212.99999999998
 20
-137.99999999999909
 30
0.0
 11
10219.99999999998
 21
-137.99999999999909
 31
0.0
1001
ACDBBLOCKREPETAG
1070
     1
1071
      110
1005
12374E
  0
LINE
  5
12374F
  8
OBJECT
 10
10219.99999999998
 20
-137.99999999999909
 30
0.0
 11
10219.99999999998
 21
-261.99999999999909
 31
0.0
1001
ACDBBLOCKREPETAG
1070
     1
1071
      111
1005
12374F
  0
LINE
  5
123750
  8
OBJECT
 10
10219.99999999998
 20
-261.99999999999909
 30
0.0
 11
10212.99999999998
 21
-261.99999999999909
 31
0.0
1001
ACDBBLOCKREPETAG
1070
     1
1071
      112
1005
123750
  0
LINE
  5
123751
  8
OBJECT
 10
10212.99999999998
 20
-261.99999999999909
 30
0.0
 11
10212.99999999998
 21
-137.99999999999909
 31
0.0
1001
ACDBBLOCKREPETAG
1070
     1
1071
      113
1005
123751
  0
LINE
  5
123752
  8
CENTER
 10
10234.99999999998
 20
-199.99999999999909
 30
0.0
 11
10080.0
 21
-199.99999999999909
 31
0.0
1001
ACDBBLOCKREPETAG
1070
     1
1071
      114
1005
123752
  0
LINE
  5
123753
  8
OBJECT
 10
10159.999974964179
 20
-245.0000000000027
 30
0.0
 11
10086.0
 21
-244.99999999999909
 31
0.0
1001
ACDBBLOCKREPETAG
1070
     1
1071
      115
1005
123753
  0
LINE
  5
123754
  8
OBJECT
 10
10159.999974964179
 20
-154.99999999999909
 30
0.0
 11
10086.0
 21
-154.99999999999909
 31
0.0
1001
ACDBBLOCKREPETAG
1070
     1
1071
      116
1005
123754
  0
LINE
  5
123755
  8
OBJECT
 10
10212.99999999998
 20
-140.99999999999909
 30
0.0
 11
10176.99999999998
 21
-140.99999999999909
 31
0.0
1001
ACDBBLOCKREPETAG
1070
     1
1071
      117
1005
123755
  0
LINE
  5
123756
  8
OBJECT
 10
10176.99999999998
 20
-140.99999999999909
 30
0.0
 11
10176.99999999998
 21
-258.99999999999909
 31
0.0
1001
ACDBBLOCKREPETAG
1070
     1
1071
      118
1005
123756
  0
LINE
  5
123757
  8
OBJECT
 10
10176.99999999998
 20
-258.99999999999909
 30
0.0
 11
10212.99999999998
 21
-258.99999999999909
 31
0.0
1001
ACDBBLOCKREPETAG
1070
     1
1071
      119
1005
123757
  0
LINE
  5
123758
  8
OBJECT
 10
10172.99999999998
 20
-145.49999999999909
 30
0.0
 11
10159.99999999998
 21
-145.49999999999909
 31
0.0
1001
ACDBBLOCKREPETAG
1070
     1
1071
      120
1005
123758
  0
LINE
  5
123759
  8
OBJECT
 10
10159.99999999998
 20
-254.49999999999909
 30
0.0
 11
10172.99999999998
 21
-254.49999999999909
 31
0.0
1001
ACDBBLOCKREPETAG
1070
     1
1071
      121
1005
123759
  0
LINE
  5
12375A
  8
OBJECT
 10
10172.99999999998
 20
-254.49999999999909
 30
0.0
 11
10172.99999999998
 21
-145.49999999999909
 31
0.0
1001
ACDBBLOCKREPETAG
1070
     1
1071
      122
1005
12375A
  0
LINE
  5
12375B
  8
OBJECT
 10
10176.99999999998
 20
-140.99999999999909
 30
0.0
 11
10172.99999999998
 21
-145.49999999999909
 31
0.0
1001
ACDBBLOCKREPETAG
1070
     1
1071
      123
1005
12375B
  0
LINE
  5
12375C
  8
OBJECT
 10
10176.99999999998
 20
-258.99999999999909
 30
0.0
 11
10172.99999999998
 21
-254.49999999999909
 31
0.0
1001
ACDBBLOCKREPETAG
1070
     1
1071
      124
1005
12375C
  0
LINE
  5
12375D
  8
OBJECT
 10
10083.0
 20
-137.99999999999909
 30
0.0
 11
10080.0
 21
-137.99999999999909
 31
0.0
1001
ACDBBLOCKREPETAG
1070
     1
1071
      125
1005
12375D
  0
ARC
  5
12375E
  8
OBJECT
 10
10083.0
 20
-140.99999999999909
 30
0.0
 40
3.0
 50
0.0
 51
90.0
1001
ACDBBLOCKREPETAG
1070
     1
1071
      126
1005
12375E
  0
LINE
  5
12375F
  8
OBJECT
 10
10080.0
 20
-261.99999999999909
 30
0.0
 11
10083.0
 21
-261.99999999999909
 31
0.0
1001
ACDBBLOCKREPETAG
1070
     1
1071
      127
1005
12375F
  0
ARC
  5
123760
  8
OBJECT
 10
10083.0
 20
-258.99999999999909
 30
0.0
 40
3.0
 50
270.0
 51
0.0
1001
ACDBBLOCKREPETAG
1070
     1
1071
      128
1005
123760
  0
LINE
  5
123761
  8
OBJECT
 10
10086.0
 20
-258.99999999999909
 30
0.0
 11
10086.0
 21
-222.44994432063581
 31
0.0
1001
ACDBBLOCKREPETAG
1070
     1
1071
      129
1005
123761
  0
LINE
  5
123762
  8
OBJECT
 10
10086.0
 20
-177.55005567935859
 30
0.0
 11
10086.0
 21
-140.99999999999909
 31
0.0
1001
ACDBBLOCKREPETAG
1070
     1
1071
      130
1005
123762
  0
LINE
  5
123763
  8
HIDDEN
 10
10167.99999999998
 20
-155.49999999999909
 30
0.0
 11
10167.99999999998
 21
-244.49999999999909
 31
0.0
1001
ACDBBLOCKREPETAG
1070
     1
1071
      131
1005
123763
  0
LINE
  5
123764
  8
OBJECT
 10
10159.999974964179
 20
-254.4999509238105
 30
0.0
 11
10159.999974964179
 21
-145.4999509238105
 31
0.0
1001
ACDBBLOCKREPETAG
1070
     1
1071
      133
1005
123764
  0
ARC
  5
123765
  8
OBJECT
 10
10125.0
 20
-199.99999999999909
 30
0.0
 40
45.000000000000547
 50
90.0
 51
270.0
1001
ACDBBLOCKREPETAG
1070
     1
1071
      134
1005
123765
  0
LINE
  5
123766
  8
OBJECT
 10
9923.0
 20
-470.99999999999937
 30
0.0
 11
9923.0
 21
-449.99999999999937
 31
0.0
1001
ACDBBLOCKREPETAG
1070
     1
1071
        0
1005
123766
  0
LINE
  5
123767
  8
OBJECT
 10
9923.0
 20
-449.99999999999937
 30
0.0
 11
10077.0
 21
-449.99999999999937
 31
0.0
1001
ACDBBLOCKREPETAG
1070
     1
1071
        1
1005
123767
  0
LINE
  5
123768
  8
HIDDEN
 10
9943.0
 20
-519.99999999999955
 30
0.0
 11
10057.0
 21
-519.99999999999955
 31
0.0
1001
ACDBBLOCKREPETAG
1070
     1
1071
        2
1005
123768
  0
LINE
  5
123769
  8
OBJECT
 10
10077.0
 20
-449.99999999999937
 30
0.0
 11
10077.0
 21
-470.99999999999937
 31
0.0
1001
ACDBBLOCKREPETAG
1070
     1
1071
        3
1005
123769
  0
LINE
  5
12376A
  8
OBJECT
 10
10077.0
 20
-470.99999999999937
 30
0.0
 11
9923.0
 21
-470.99999999999937
 31
0.0
1001
ACDBBLOCKREPETAG
1070
     1
1071
        4
1005
12376A
  0
LINE
  5
12376B
  8
CENTER
 10
10000.0
 20
-434.99999999999949
 30
0.0
 11
10000.0
 21
-789.99999999999955
 31
0.0
1001
ACDBBLOCKREPETAG
1070
     1
1071
        5
1005
12376B
  0
LINE
  5
12376C
  8
OBJECT
 10
9925.0
 20
-533.99999999999955
 30
0.0
 11
9925.0
 21
-777.99999999999955
 31
0.0
1001
ACDBBLOCKREPETAG
1070
     1
1071
        6
1005
12376C
  0
LINE
  5
12376D
  8
OBJECT
 10
9928.0
 20
-470.99999999999937
 30
0.0
 11
9928.0
 21
-533.99999999999955
 31
0.0
1001
ACDBBLOCKREPETAG
1070
     1
1071
        7
1005
12376D
  0
LINE
  5
12376E
  8
OBJECT
 10
10072.0
 20
-533.99999999999955
 30
0.0
 11
10072.0
 21
-470.99999999999937
 31
0.0
1001
ACDBBLOCKREPETAG
1070
     1
1071
        8
1005
12376E
  0
LINE
  5
12376F
  8
OBJECT
 10
9920.0
 20
-777.99999999999955
 30
0.0
 11
10080.0
 21
-777.99999999999955
 31
0.0
1001
ACDBBLOCKREPETAG
1070
     1
1071
        9
1005
12376F
  0
LINE
  5
123770
  8
OBJECT
 10
10080.0
 20
-533.99999999999955
 30
0.0
 11
9925.0
 21
-533.99999999999955
 31
0.0
1001
ACDBBLOCKREPETAG
1070
     1
1071
       10
1005
123770
  0
LINE
  5
123771
  8
OBJECT
 10
9920.0
 20
-777.99999999999955
 30
0.0
 11
9920.0
 21
-789.99999999999955
 31
0.0
1001
ACDBBLOCKREPETAG
1070
     1
1071
       11
1005
123771
  0
LINE
  5
123772
  8
OBJECT
 10
9920.0
 20
-789.99999999999955
 30
0.0
 11
10080.0
 21
-789.99999999999955
 31
0.0
1001
ACDBBLOCKREPETAG
1070
     1
1071
       12
1005
123772
  0
LINE
  5
123773
  8
OBJECT
 10
10080.0
 20
-789.99999999999955
 30
0.0
 11
10080.0
 21
-777.99999999999955
 31
0.0
1001
ACDBBLOCKREPETAG
1070
     1
1071
       13
1005
123773
  0
LINE
  5
123774
  8
OBJECT
 10
10074.99999999986
 20
-657.99999999985039
 30
0.0
 11
10075.0
 21
-777.99999999999955
 31
0.0
1001
ACDBBLOCKREPETAG
1070
     1
1071
       15
1005
123774
  0
LINE
  5
123775
  8
OBJECT
 10
10074.99999080298
 20
-657.99998602702135
 30
0.0
 11
10080.0
 21
-657.99998602702135
 31
0.0
1001
ACDBBLOCKREPETAG
1070
     1
1071
       16
1005
123775
  0
ARC
  5
123776
  8
OBJECT
 10
10200.687274671671
 20
-649.40809941010718
 30
0.0
 40
170.6350503965856
 50
137.44134459184301
 51
149.91949581337221
1001
ACDBBLOCKREPETAG
1070
     1
1071
       17
1005
123776
  0
ARC
  5
123777
  8
OBJECT
 10
10118.845598704051
 20
-605.88272669536445
 30
0.0
 40
78.072222021763665
 50
147.4551531038623
 51
164.6636599771729
1001
ACDBBLOCKREPETAG
1070
     1
1071
       18
1005
123777
  0
ARC
  5
123778
  8
OBJECT
 10
10085.755434960871
 20
-595.99999999999955
 30
0.0
 40
43.55353926885617
 50
165.688452300753
 51
194.3115476992468
1001
ACDBBLOCKREPETAG
1070
     1
1071
       19
1005
123778
  0
ARC
  5
123779
  8
OBJECT
 10
10200.687274671671
 20
-542.59190058989179
 30
0.0
 40
170.6350503965856
 50
210.08050418662771
 51
222.55865540815699
1001
ACDBBLOCKREPETAG
1070
     1
1071
       20
1005
123779
  0
ARC
  5
12377A
  8
OBJECT
 10
10118.845598704051
 20
-586.11727330463452
 30
0.0
 40
78.072222021763665
 50
195.3363400228271
 51
212.5448468961377
1001
ACDBBLOCKREPETAG
1070
     1
1071
       21
1005
12377A
  0
POINT
  5
12377B
  8
DOTS
 10
10000.0
 20
-654.99999999999966
 30
0.0
1001
ACDBBLOCKREPETAG
1070
     1
1071
      187
1005
12377B
  0
ARC
  5
12377C
  8
OBJECT
 10
8000.0
 20
-199.99999999999909
 30
0.0
 40
50.0
 50
298.81994300000417
 51
228.52376955964741
1001
ACDBBLOCKREPETAG
1070
     1
1071
      185
1005
12377C
  0
LINE
  5
12377D
  8
SLIM
 10
7927.3018300565236
 20
-155.95484036957691
 30
0.0
 11
7955.9548403695781
 21
-127.30183005652231
 31
0.0
1001
GRADIENTCOLOR1ACI
1070
     5
1001
GRADIENTCOLOR2ACI
1070
     2
1001
ACAD
1010
0.0
1020
0.0
1030
0.0
1001
ACDBBLOCKREPETAG
1070
     1
1071
      442
1005
12377D
  0
LINE
  5
12377E
  8
SLIM
 10
7919.4861520708373
 20
-172.75077447633191
 30
0.0
 11
7938.2903089572737
 21
-153.94661758989659
 31
0.0
1001
GRADIENTCOLOR1ACI
1070
     5
1001
GRADIENTCOLOR2ACI
1070
     2
1001
ACAD
1010
0.0
1020
0.0
1030
0.0
1001
ACDBBLOCKREPETAG
1070
     1
1071
      443
1005
12377E
  0
LINE
  5
12377F
  8
SLIM
 10
7953.9466175898988
 20
-138.29030895727169
 30
0.0
 11
7972.7507744763334
 21
-119.4861520708364
 31
0.0
1001
GRADIENTCOLOR1ACI
1070
     5
1001
GRADIENTCOLOR2ACI
1070
     2
1001
ACAD
1010
0.0
1020
0.0
1030
0.0
1001
ACDBBLOCKREPETAG
1070
     1
1071
      444
1005
12377F
  0
LINE
  5
123780
  8
SLIM
 10
7916.3596679933771
 20
-184.8575146748604
 30
0.0
 11
7927.6959583557828
 21
-173.5212243124561
 31
0.0
1001
GRADIENTCOLOR1ACI
1070
     5
1001
GRADIENTCOLOR2ACI
1070
     2
1001
ACAD
1010
0.0
1020
0.0
1030
0.0
1001
ACDBBLOCKREPETAG
1070
     1
1071
      445
1005
123780
  0
LINE
  5
123781
  8
SLIM
 10
7973.5212243124561
 20
-127.6959583557812
 30
0.0
 11
7984.8575146748608
 21
-116.359667993377
 31
0.0
1001
GRADIENTCOLOR1ACI
1070
     5
1001
GRADIENTCOLOR2ACI
1070
     2
1001
ACAD
1010
0.0
1020
0.0
1030
0.0
1001
ACDBBLOCKREPETAG
1070
     1
1071
      446
1005
123781
  0
LINE
  5
123782
  8
SLIM
 10
7915.1440575890529
 20
-195.0533812002549
 30
0.0
 11
7924.3030216431825
 21
-185.89441714612491
 31
0.0
1001
GRADIENTCOLOR1ACI
1070
     5
1001
GRADIENTCOLOR2ACI
1070
     2
1001
ACAD
1010
0.0
1020
0.0
1030
0.0
1001
ACDBBLOCKREPETAG
1070
     1
1071
      447
1005
123782
  0
LINE
  5
123783
  8
SLIM
 10
7985.8944171461262
 20
-124.30302164318159
 30
0.0
 11
7995.0533812002559
 21
-115.1440575890517
 31
0.0
1001
GRADIENTCOLOR1ACI
1070
     5
1001
GRADIENTCOLOR2ACI
1070
     2
1001
ACAD
1010
0.0
1020
0.0
1030
0.0
1001
ACDBBLOCKREPETAG
1070
     1
1071
      448
1005
123783
  0
LINE
  5
123784
  8
SLIM
 10
7915.097963557474
 20
-204.07973135290339
 30
0.0
 11
7919.1776949103778
 21
-199.99999999999909
 31
0.0
1001
GRADIENTCOLOR1ACI
1070
     5
1001
GRADIENTCOLOR2ACI
1070
     2
1001
ACAD
1010
0.0
1020
0.0
1030
0.0
1001
ACDBBLOCKREPETAG
1070
     1
1071
      449
1005
123784
  0
LINE
  5
123785
  8
SLIM
 10
8000.0
 20
-119.1776949103767
 30
0.0
 11
8004.0797313529074
 21
-115.0979635574724
 31
0.0
1001
GRADIENTCOLOR1ACI
1070
     5
1001
GRADIENTCOLOR2ACI
1070
     2
1001
ACAD
1010
0.0
1020
0.0
1030
0.0
1001
ACDBBLOCKREPETAG
1070
     1
1071
      450
1005
123785
  0
LINE
  5
123786
  8
SLIM
 10
7919.1776949103778
 20
-199.99999999999909
 30
0.0
 11
7923.0999621611709
 21
-196.07773274920581
 31
0.0
1001
GRADIENTCOLOR1ACI
1070
     5
1001
GRADIENTCOLOR2ACI
1070
     2
1001
ACAD
1010
0.0
1020
0.0
1030
0.0
1001
ACDBBLOCKREPETAG
1070
     1
1071
      451
1005
123786
  0
LINE
  5
123787
  8
SLIM
 10
7996.077732749206
 20
-123.0999621611699
 30
0.0
 11
8000.0
 21
-119.1776949103767
 31
0.0
1001
GRADIENTCOLOR1ACI
1070
     5
1001
GRADIENTCOLOR2ACI
1070
     2
1001
ACAD
1010
0.0
1020
0.0
1030
0.0
1001
ACDBBLOCKREPETAG
1070
     1
1071
      452
1005
123787
  0
LINE
  5
123788
  8
SLIM
 10
7915.889972620871
 20
-212.26797841057399
 30
0.0
 11
7923.1622307771704
 21
-204.9957202542767
 31
0.0
1001
GRADIENTCOLOR1ACI
1070
     5
1001
GRADIENTCOLOR2ACI
1070
     2
1001
ACAD
1010
0.0
1020
0.0
1030
0.0
1001
ACDBBLOCKREPETAG
1070
     1
1071
      453
1005
123788
  0
LINE
  5
123789
  8
SLIM
 10
8004.9957202542737
 20
-123.1622307771683
 30
0.0
 11
8012.2679784105749
 21
-115.88997262087101
 31
0.0
1001
GRADIENTCOLOR1ACI
1070
     5
1001
GRADIENTCOLOR2ACI
1070
     2
1001
ACAD
1010
0.0
1020
0.0
1030
0.0
1001
ACDBBLOCKREPETAG
1070
     1
1071
      454
1005
123789
  0
LINE
  5
12378A
  8
SLIM
 10
7917.3382656951526
 20
-219.79994145736151
 30
0.0
 11
7924.1101477855518
 21
-213.02805936696359
 31
0.0
1001
GRADIENTCOLOR1ACI
1070
     5
1001
GRADIENTCOLOR2ACI
1070
     2
1001
ACAD
1010
0.0
1020
0.0
1030
0.0
1001
ACDBBLOCKREPETAG
1070
     1
1071
      455
1005
12378A
  0
LINE
  5
12378B
  8
SLIM
 10
8013.028059366964
 20
-124.1101477855505
 30
0.0
 11
8019.7999414573624
 21
-117.3382656951526
 31
0.0
1001
GRADIENTCOLOR1ACI
1070
     5
1001
GRADIENTCOLOR2ACI
1070
     2
1001
ACAD
1010
0.0
1020
0.0
1030
0.0
1001
ACDBBLOCKREPETAG
1070
     1
1071
      456
1005
12378B
  0
LINE
  5
12378C
  8
SLIM
 10
7919.3312594063054
 20
-226.78720386727881
 30
0.0
 11
7925.74438195934
 21
-220.3740813142449
 31
0.0
1001
GRADIENTCOLOR1ACI
1070
     5
1001
GRADIENTCOLOR2ACI
1070
     2
1001
ACAD
1010
0.0
1020
0.0
1030
0.0
1001
ACDBBLOCKREPETAG
1070
     1
1071
      457
1005
12378C
  0
LINE
  5
12378D
  8
SLIM
 10
8020.3740813142458
 20
-125.7443819593384
 30
0.0
 11
8026.7872038672767
 21
-119.3312594063044
 31
0.0
1001
GRADIENTCOLOR1ACI
1070
     5
1001
GRADIENTCOLOR2ACI
1070
     2
1001
ACAD
1010
0.0
1020
0.0
1030
0.0
1001
ACDBBLOCKREPETAG
1070
     1
1071
      458
1005
12378D
  0
LINE
  5
12378E
  8
SLIM
 10
7921.7957163186193
 20
-233.30300307603289
 30
0.0
 11
7927.9462473957792
 21
-227.1524719988744
 31
0.0
1001
GRADIENTCOLOR1ACI
1070
     5
1001
GRADIENTCOLOR2ACI
1070
     2
1001
ACAD
1010
0.0
1020
0.0
1030
0.0
1001
ACDBBLOCKREPETAG
1070
     1
1071
      459
1005
12378E
  0
LINE
  5
12378F
  8
SLIM
 10
8027.1524719988738
 20
-127.946247395778
 30
0.0
 11
8033.3030030760328
 21
-121.7957163186195
 31
0.0
1001
GRADIENTCOLOR1ACI
1070
     5
1001
GRADIENTCOLOR2ACI
1070
     2
1001
ACAD
1010
0.0
1020
0.0
1030
0.0
1001
ACDBBLOCKREPETAG
1070
     1
1071
      460
1005
12378F
  0
LINE
  5
123790
  8
SLIM
 10
7924.6816635313462
 20
-239.39731198437769
 30
0.0
 11
7930.639876864393
 21
-233.4390986513296
 31
0.0
1001
GRADIENTCOLOR1ACI
1070
     5
1001
GRADIENTCOLOR2ACI
1070
     2
1001
ACAD
1010
0.0
1020
0.0
1030
0.0
1001
ACDBBLOCKREPETAG
1070
     1
1071
      461
1005
123790
  0
LINE
  5
123791
  8
SLIM
 10
8033.4390986513308
 20
-130.63987686439199
 30
0.0
 11
8039.3973119843777
 21
-124.6816635313439
 31
0.0
1001
GRADIENTCOLOR1ACI
1070
     5
1001
GRADIENTCOLOR2ACI
1070
     2
1001
ACAD
1010
0.0
1020
0.0
1030
0.0
1001
ACDBBLOCKREPETAG
1070
     1
1071
      462
1005
123791
  0
LINE
  5
123792
  8
SLIM
 10
7927.9544611024266
 20
-245.10477053436691
 30
0.0
 11
7933.7750070149932
 21
-239.28422462179751
 31
0.0
1001
GRADIENTCOLOR1ACI
1070
     5
1001
GRADIENTCOLOR2ACI
1070
     2
1001
ACAD
1010
0.0
1020
0.0
1030
0.0
1001
ACDBBLOCKREPETAG
1070
     1
1071
      463
1005
123792
  0
LINE
  5
123793
  8
SLIM
 10
8039.2842246217979
 20
-133.77500701499321
 30
0.0
 11
8045.1047705343699
 21
-127.95446110242381
 31
0.0
1001
GRADIENTCOLOR1ACI
1070
     5
1001
GRADIENTCOLOR2ACI
1070
     2
1001
ACAD
1010
0.0
1020
0.0
1030
0.0
1001
ACDBBLOCKREPETAG
1070
     1
1071
      464
1005
123793
  0
LINE
  5
123794
  8
SLIM
 10
7931.5903319686649
 20
-250.4491557891954
 30
0.0
 11
7937.3182075880577
 21
-244.72128016980341
 31
0.0
1001
GRADIENTCOLOR1ACI
1070
     5
1001
GRADIENTCOLOR2ACI
1070
     2
1001
ACAD
1010
0.0
1020
0.0
1030
0.0
1001
ACDBBLOCKREPETAG
1070
     1
1071
      465
1005
123794
  0
LINE
  5
123795
  8
SLIM
 10
8044.7212801698061
 20
-137.31820758805651
 30
0.0
 11
8050.449155789197
 21
-131.59033196866449
 31
0.0
1001
GRADIENTCOLOR1ACI
1070
     5
1001
GRADIENTCOLOR2ACI
1070
     2
1001
ACAD
1010
0.0
1020
0.0
1030
0.0
1001
ACDBBLOCKREPETAG
1070
     1
1071
      466
1005
123795
  0
LINE
  5
123796
  8
SLIM
 10
7935.5737496925258
 20
-255.4459941864034
 30
0.0
 11
7941.24811054159
 21
-249.77163333734029
 31
0.0
1001
GRADIENTCOLOR1ACI
1070
     5
1001
GRADIENTCOLOR2ACI
1070
     2
1001
ACAD
1010
0.0
1020
0.0
1030
0.0
1001
ACDBBLOCKREPETAG
1070
     1
1071
      467
1005
123796
  0
LINE
  5
123797
  8
SLIM
 10
8053.0197438789319
 20
-137.99999999999909
 30
0.0
 11
8055.4459941864034
 21
-135.57374969252561
 31
0.0
1001
GRADIENTCOLOR1ACI
1070
     5
1001
GRADIENTCOLOR2ACI
1070
     2
1001
ACAD
1010
0.0
1020
0.0
1030
0.0
1001
ACDBBLOCKREPETAG
1070
     1
1071
      468
1005
123797
  0
LINE
  5
123798
  8
SLIM
 10
7939.8959235991442
 20
-260.10407640085572
 30
0.0
 11
7945.5527778486357
 21
-254.44722215136329
 31
0.0
1001
GRADIENTCOLOR1ACI
1070
     5
1001
GRADIENTCOLOR2ACI
1070
     2
1001
ACAD
1010
0.0
1020
0.0
1030
0.0
1001
ACDBBLOCKREPETAG
1070
     1
1071
      469
1005
123798
  0
LINE
  5
123799
  8
SLIM
 10
7944.5540058135948
 20
-264.4262503074724
 30
0.0
 11
7950.2283666626608
 21
-258.75188945840949
 31
0.0
1001
GRADIENTCOLOR1ACI
1070
     5
1001
GRADIENTCOLOR2ACI
1070
     2
1001
ACAD
1010
0.0
1020
0.0
1030
0.0
1001
ACDBBLOCKREPETAG
1070
     1
1071
      470
1005
123799
  0
LINE
  5
12379A
  8
SLIM
 10
7949.5508442108039
 20
-268.40966803133369
 30
0.0
 11
7955.2787198301958
 21
-262.68179241194167
 31
0.0
1001
GRADIENTCOLOR1ACI
1070
     5
1001
GRADIENTCOLOR2ACI
1070
     2
1001
ACAD
1010
0.0
1020
0.0
1030
0.0
1001
ACDBBLOCKREPETAG
1070
     1
1071
      471
1005
12379A
  0
LINE
  5
12379B
  8
SLIM
 10
7954.895229465631
 20
-272.04553889757437
 30
0.0
 11
7960.7157753782021
 21
-266.22499298500497
 31
0.0
1001
GRADIENTCOLOR1ACI
1070
     5
1001
GRADIENTCOLOR2ACI
1070
     2
1001
ACAD
1010
0.0
1020
0.0
1030
0.0
1001
ACDBBLOCKREPETAG
1070
     1
1071
      472
1005
12379B
  0
LINE
  5
12379C
  8
SLIM
 10
7960.6026880156223
 20
-275.31833646865431
 30
0.0
 11
7966.5609013486683
 21
-269.36012313560622
 31
0.0
1001
GRADIENTCOLOR1ACI
1070
     5
1001
GRADIENTCOLOR2ACI
1070
     2
1001
ACAD
1010
0.0
1020
0.0
1030
0.0
1001
ACDBBLOCKREPETAG
1070
     1
1071
      473
1005
12379C
  0
LINE
  5
12379D
  8
SLIM
 10
7966.6969969239663
 20
-278.20428368137868
 30
0.0
 11
7972.8475280011244
 21
-272.05375260422022
 31
0.0
1001
GRADIENTCOLOR1ACI
1070
     5
1001
GRADIENTCOLOR2ACI
1070
     2
1001
ACAD
1010
0.0
1020
0.0
1030
0.0
1001
ACDBBLOCKREPETAG
1070
     1
1071
      474
1005
12379D
  0
LINE
  5
12379E
  8
SLIM
 10
7973.2127961327187
 20
-280.66874059369371
 30
0.0
 11
7979.6259186857542
 21
-274.25561804065973
 31
0.0
1001
GRADIENTCOLOR1ACI
1070
     5
1001
GRADIENTCOLOR2ACI
1070
     2
1001
ACAD
1010
0.0
1020
0.0
1030
0.0
1001
ACDBBLOCKREPETAG
1070
     1
1071
      475
1005
12379E
  0
LINE
  5
12379F
  8
SLIM
 10
7980.2000585426395
 20
-282.6617343048456
 30
0.0
 11
7986.971940633035
 21
-275.88985221444773
 31
0.0
1001
GRADIENTCOLOR1ACI
1070
     5
1001
GRADIENTCOLOR2ACI
1070
     2
1001
ACAD
1010
0.0
1020
0.0
1030
0.0
1001
ACDBBLOCKREPETAG
1070
     1
1071
      476
1005
12379F
  0
LINE
  5
1237A0
  8
SLIM
 10
7987.732021589426
 20
-284.11002737912702
 30
0.0
 11
7995.0042797457209
 21
-276.83776922282988
 31
0.0
1001
GRADIENTCOLOR1ACI
1070
     5
1001
GRADIENTCOLOR2ACI
1070
     2
1001
ACAD
1010
0.0
1020
0.0
1030
0.0
1001
ACDBBLOCKREPETAG
1070
     1
1071
      477
1005
1237A0
  0
LINE
  5
1237A1
  8
SLIM
 10
7995.9202686470962
 20
-284.9020364425258
 30
0.0
 11
8000.0
 21
-280.82230508962152
 31
0.0
1001
GRADIENTCOLOR1ACI
1070
     5
1001
GRADIENTCOLOR2ACI
1070
     2
1001
ACAD
1010
0.0
1020
0.0
1030
0.0
1001
ACDBBLOCKREPETAG
1070
     1
1071
      478
1005
1237A1
  0
LINE
  5
1237A2
  8
SLIM
 10
8000.0
 20
-280.82230508962152
 30
0.0
 11
8003.9222672507931
 21
-276.90003783882821
 31
0.0
1001
GRADIENTCOLOR1ACI
1070
     5
1001
GRADIENTCOLOR2ACI
1070
     2
1001
ACAD
1010
0.0
1020
0.0
1030
0.0
1001
ACDBBLOCKREPETAG
1070
     1
1071
      479
1005
1237A2
  0
LINE
  5
1237A3
  8
SLIM
 10
8004.9466187997441
 20
-284.85594241094651
 30
0.0
 11
8014.1055828538756
 21
-275.6969783568166
 31
0.0
1001
GRADIENTCOLOR1ACI
1070
     5
1001
GRADIENTCOLOR2ACI
1070
     2
1001
ACAD
1010
0.0
1020
0.0
1030
0.0
1001
ACDBBLOCKREPETAG
1070
     1
1071
      480
1005
1237A3
  0
LINE
  5
1237A4
  8
SLIM
 10
8015.1424853251401
 20
-283.64033200662118
 30
0.0
 11
8026.478775687543
 21
-272.30404164421702
 31
0.0
1001
GRADIENTCOLOR1ACI
1070
     5
1001
GRADIENTCOLOR2ACI
1070
     2
1001
ACAD
1010
0.0
1020
0.0
1030
0.0
1001
ACDBBLOCKREPETAG
1070
     1
1071
      481
1005
1237A4
  0
LINE
  5
1237A5
  8
SLIM
 10
8027.2492255236657
 20
-280.51384792916173
 30
0.0
 11
8045.7630734528302
 21
-261.99999999999909
 31
0.0
1001
GRADIENTCOLOR1ACI
1070
     5
1001
GRADIENTCOLOR2ACI
1070
     2
1001
ACAD
1010
0.0
1020
0.0
1030
0.0
1001
ACDBBLOCKREPETAG
1070
     1
1071
      482
1005
1237A5
  0
LINE
  5
1237A6
  8
SLIM
 10
8044.045159630421
 20
-272.69816994347582
 30
0.0
 11
8054.7433295739002
 21
-261.99999999999909
 31
0.0
1001
GRADIENTCOLOR1ACI
1070
     5
1001
GRADIENTCOLOR2ACI
1070
     2
1001
ACAD
1010
0.0
1020
0.0
1030
0.0
1001
ACDBBLOCKREPETAG
1070
     1
1071
      483
1005
1237A6
  0
LINE
  5
1237A7
  8
CENTER
 10
8080.0
 20
-199.99999999999909
 30
0.0
 11
7900.0
 21
-199.99999999999909
 31
0.0
1001
ACDBBLOCKREPETAG
1070
     1
1071
      187
1005
1237A7
  0
LINE
  5
1237A8
  8
CENTER
 10
8000.0
 20
-299.99999999999898
 30
0.0
 11
8000.0
 21
-99.999999999999091
 31
0.0
1001
ACDBBLOCKREPETAG
1070
     1
1071
      188
1005
1237A8
  0
CIRCLE
  5
1237A9
  8
OBJECT
 10
8000.0
 20
-199.99999999999909
 30
0.0
 40
70.0
1001
ACDBBLOCKREPETAG
1070
     1
1071
      189
1005
1237A9
  0
CIRCLE
  5
1237AA
  8
OBJECT
 10
8000.0
 20
-199.99999999999909
 30
0.0
 40
77.0
1001
ACDBBLOCKREPETAG
1070
     1
1071
      190
1005
1237AA
  0
LINE
  5
1237AB
  8
OBJECT
 10
8045.6618002273271
 20
-137.99999999999909
 30
0.0
 11
8080.0
 21
-137.99999999999909
 31
0.0
1001
ACDBBLOCKREPETAG
1070
     1
1071
      192
1005
1237AB
  0
LINE
  5
1237AC
  8
OBJECT
 10
8045.6618002273271
 20
-261.99999999999909
 30
0.0
 11
8080.0
 21
-261.99999999999909
 31
0.0
1001
ACDBBLOCKREPETAG
1070
     1
1071
      193
1005
1237AC
  0
ARC
  5
1237AD
  8
OBJECT
 10
8000.0
 20
-199.99999999999909
 30
0.0
 40
85.0
 50
46.83710285981514
 51
313.16289714018478
1001
ACDBBLOCKREPETAG
1070
     1
1071
      202
1005
1237AD
  0
LINE
  5
1237AE
  8
OBJECT
 10
8024.1029330933006
 20
-243.80694712371681
 30
0.0
 11
8020.6596569999974
 21
-232.55462199999889
 31
0.0
1001
ACDBBLOCKREPETAG
1070
     1
1071
      321
1005
1237AE
  0
LINE
  5
1237AF
  8
OBJECT
 10
7986.7927499013749
 20
-218.22553374208019
 30
0.0
 11
8020.6596569999974
 21
-232.5546219999969
 31
0.0
1001
ACDBBLOCKREPETAG
1070
     1
1071
      323
1005
1237AF
  0
ARC
  5
1237B0
  8
OBJECT
 10
7982.8961697618997
 20
-227.4351299990567
 30
0.0
 40
10.0
 50
67.066778292911366
 51
154.0147343702935
1001
ACDBBLOCKREPETAG
1070
     1
1071
      324
1005
1237B0
  0
ARC
  5
1237B1
  8
OBJECT
 10
7986.1488390381273
 20
-225.55386256729159
 30
0.0
 40
7.0
 50
67.066778292911366
 51
154.0147337749826
1001
ACDBBLOCKREPETAG
1070
     1
1071
      325
1005
1237B1
  0
LINE
  5
1237B2
  8
OBJECT
 10
7969.4199755553009
 20
-243.89888500818171
 30
0.0
 11
7979.8564918232369
 21
-222.48688253356801
 31
0.0
1001
ACDBBLOCKREPETAG
1070
     1
1071
      353
1005
1237B2
  0
LINE
  5
1237B3
  8
OBJECT
 10
7965.2972169006098
 20
-240.71813901882729
 30
0.0
 11
7973.9071022665084
 21
-223.05373004430751
 31
0.0
1001
ACDBBLOCKREPETAG
1070
     1
1071
      354
1005
1237B3
  0
ARC
  5
1237B4
  8
OBJECT
 10
7976.5796953073141
 20
-207.1289369828437
 30
0.0
 40
60.031113246032611
 50
314.07020130418567
 51
322.33936106089681
1001
ACDBBLOCKREPETAG
1070
     1
1071
      355
1005
1237B4
  0
CIRCLE
  5
1237B5
  8
OBJECT
 10
8000.0
 20
-199.99999999999909
 30
0.0
 40
53.5
1001
ACDBBLOCKREPETAG
1070
     1
1071
      356
1005
1237B5
  0
POINT
  5
1237B6
  8
DOTS
 10
8000.0
 20
-199.99999999999909
 30
0.0
 50
270.0
1001
ACDBBLOCKREPETAG
1070
     1
1071
      365
1005
1237B6
  0
LINE
  5
1237B7
  8
OBJECT
 10
8212.9999999999836
 20
-453.0000000000008
 30
0.0
 11
8219.9999999999873
 21
-453.0000000000008
 31
0.0
1001
ACDBBLOCKREPETAG
1070
     1
1071
      106
1005
1237B7
  0
LINE
  5
1237B8
  8
OBJECT
 10
8219.9999999999873
 20
-453.0000000000008
 30
0.0
 11
8219.9999999999873
 21
-577.0000000000008
 31
0.0
1001
ACDBBLOCKREPETAG
1070
     1
1071
      107
1005
1237B8
  0
LINE
  5
1237B9
  8
OBJECT
 10
8085.9999999999873
 20
-553.3502637757274
 30
0.0
 11
8085.9999999999873
 21
-655.00000000000068
 31
0.0
1001
ACDBBLOCKREPETAG
1070
     1
1071
      108
1005
1237B9
  0
LINE
  5
1237BA
  8
OBJECT
 10
8219.9999999999873
 20
-577.0000000000008
 30
0.0
 11
8212.9999999999836
 21
-577.0000000000008
 31
0.0
1001
ACDBBLOCKREPETAG
1070
     1
1071
      109
1005
1237BA
  0
LINE
  5
1237BB
  8
OBJECT
 10
8212.9999999999836
 20
-577.0000000000008
 30
0.0
 11
8212.9999999999836
 21
-453.0000000000008
 31
0.0
1001
ACDBBLOCKREPETAG
1070
     1
1071
      110
1005
1237BB
  0
LINE
  5
1237BC
  8
CENTER
 10
8144.9999999999873
 20
-515.0000000000008
 30
0.0
 11
8234.9999999999873
 21
-515.0000000000008
 31
0.0
1001
ACDBBLOCKREPETAG
1070
     1
1071
      111
1005
1237BC
  0
LINE
  5
1237BD
  8
OBJECT
 10
8079.9999999999818
 20
-658.0
 30
0.0
 11
8082.9999999999873
 21
-658.0000000000008
 31
0.0
1001
ACDBBLOCKREPETAG
1070
     1
1071
      112
1005
1237BD
  0
ARC
  5
1237BE
  8
OBJECT
 10
8082.9999999999873
 20
-655.00000000000068
 30
0.0
 40
3.0
 50
270.0
 51
0.0
1001
ACDBBLOCKREPETAG
1070
     1
1071
      113
1005
1237BE
  0
LINE
  5
1237BF
  8
OBJECT
 10
8212.9999999999836
 20
-456.0000000000008
 30
0.0
 11
8176.9999999999873
 21
-456.0000000000008
 31
0.0
1001
ACDBBLOCKREPETAG
1070
     1
1071
      114
1005
1237BF
  0
LINE
  5
1237C0
  8
OBJECT
 10
8176.9999999999873
 20
-456.0000000000008
 30
0.0
 11
8176.9999999999873
 21
-553.15756805667843
 31
0.0
1001
ACDBBLOCKREPETAG
1070
     1
1071
      115
1005
1237C0
  0
LINE
  5
1237C1
  8
OBJECT
 10
8172.9999999999854
 20
-460.5000000000008
 30
0.0
 11
8172.99999999998
 21
-545.74491827928705
 31
0.0
1001
ACDBBLOCKREPETAG
1070
     1
1071
      116
1005
1237C1
  0
LINE
  5
1237C2
  8
OBJECT
 10
8172.9999999999854
 20
-460.5000000000008
 30
0.0
 11
8159.9999999999873
 21
-460.5000000000008
 31
0.0
1001
ACDBBLOCKREPETAG
1070
     1
1071
      117
1005
1237C2
  0
LINE
  5
1237C3
  8
OBJECT
 10
8168.6563168254688
 20
-574.0000000000008
 30
0.0
 11
8212.9999999999836
 21
-574.0000000000008
 31
0.0
1001
ACDBBLOCKREPETAG
1070
     1
1071
      118
1005
1237C3
  0
LINE
  5
1237C4
  8
OBJECT
 10
8176.9999999999873
 20
-456.0000000000008
 30
0.0
 11
8172.9999999999854
 21
-460.5000000000008
 31
0.0
1001
ACDBBLOCKREPETAG
1070
     1
1071
      119
1005
1237C4
  0
LINE
  5
1237C5
  8
OBJECT
 10
8159.9999999999873
 20
-460.5000000000008
 30
0.0
 11
8159.9999999999873
 21
-545.74491827928784
 31
0.0
1001
ACDBBLOCKREPETAG
1070
     1
1071
      120
1005
1237C5
  0
ARC
  5
1237C6
  8
OBJECT
 10
8091.9999999999864
 20
-537.27386365609345
 30
0.0
 40
85.0
 50
308.59099323720869
 51
334.40086127811207
1001
ACDBBLOCKREPETAG
1070
     1
1071
      121
1005
1237C6
  0
ARC
  5
1237C7
  8
OBJECT
 10
8162.7999999999838
 20
-555.00000000000068
 30
0.0
 40
85.0
 50
91.887731891831123
 51
160.07406787456929
1001
ACDBBLOCKREPETAG
1070
     1
1071
      122
1005
1237C7
  0
LINE
  5
1237C8
  8
OBJECT
 10
8085.9999999999873
 20
-650.81075719270927
 30
0.0
 11
8145.0193225436024
 21
-603.71143914629465
 31
0.0
1001
ACDBBLOCKREPETAG
1070
     1
1071
      123
1005
1237C8
  0
LINE
  5
1237C9
  8
OBJECT
 10
8172.99999999998
 20
-545.74491827928705
 30
0.0
 11
8159.9999999999873
 21
-545.74491827928784
 31
0.0
1001
ACDBBLOCKREPETAG
1070
     1
1071
      124
1005
1237C9
  0
LINE
  5
1237CA
  8
OBJECT
 10
8176.9999999999873
 20
-553.15756805667843
 30
0.0
 11
8172.99999999998
 21
-545.74491827928705
 31
0.0
1001
ACDBBLOCKREPETAG
1070
     1
1071
      125
1005
1237CA
  0
LINE
  5
1237CB
  8
OBJECT
 10
8080.0000000000173
 20
-534.0
 30
0.0
 11
8082.8886121596206
 21
-526.03156729425325
 31
0.0
1001
ACDBBLOCKREPETAG
1070
     1
1071
      126
1005
1237CB
  0
LINE
  5
1237CC
  8
OBJECT
 10
8080.0000000000173
 20
-534.0
 30
0.0
 11
8085.9999999999873
 21
-553.3502637757274
 31
0.0
1001
ACDBBLOCKREPETAG
1070
     1
1071
      127
1005
1237CC
  0
LINE
  5
1237CD
  8
HIDDEN
 10
8167.9999999999864
 20
-470.5000000000008
 30
0.0
 11
8167.9999999999864
 21
-559.50000000000068
 31
0.0
1001
ACDBBLOCKREPETAG
1070
     1
1071
      129
1005
1237CD
  0
LINE
  5
1237CE
  8
OBJECT
 10
8212.9999999999836
 20
-137.99999999999909
 30
0.0
 11
8219.9999999999873
 21
-137.99999999999909
 31
0.0
1001
ACDBBLOCKREPETAG
1070
     1
1071
      110
1005
1237CE
  0
LINE
  5
1237CF
  8
OBJECT
 10
8219.9999999999873
 20
-137.99999999999909
 30
0.0
 11
8219.9999999999873
 21
-261.99999999999909
 31
0.0
1001
ACDBBLOCKREPETAG
1070
     1
1071
      111
1005
1237CF
  0
LINE
  5
1237D0
  8
OBJECT
 10
8219.9999999999873
 20
-261.99999999999909
 30
0.0
 11
8212.9999999999836
 21
-261.99999999999909
 31
0.0
1001
ACDBBLOCKREPETAG
1070
     1
1071
      112
1005
1237D0
  0
LINE
  5
1237D1
  8
OBJECT
 10
8212.9999999999836
 20
-261.99999999999909
 30
0.0
 11
8212.9999999999836
 21
-137.99999999999909
 31
0.0
1001
ACDBBLOCKREPETAG
1070
     1
1071
      113
1005
1237D1
  0
LINE
  5
1237D2
  8
CENTER
 10
8234.9999999999873
 20
-199.99999999999909
 30
0.0
 11
8080.0000000000027
 21
-199.99999999999909
 31
0.0
1001
ACDBBLOCKREPETAG
1070
     1
1071
      114
1005
1237D2
  0
LINE
  5
1237D3
  8
OBJECT
 10
8159.9999749641838
 20
-245.0000000000027
 30
0.0
 11
8086.0
 21
-244.99999999999909
 31
0.0
1001
ACDBBLOCKREPETAG
1070
     1
1071
      115
1005
1237D3
  0
LINE
  5
1237D4
  8
OBJECT
 10
8159.9999749641838
 20
-154.99999999999909
 30
0.0
 11
8086.0
 21
-154.99999999999909
 31
0.0
1001
ACDBBLOCKREPETAG
1070
     1
1071
      116
1005
1237D4
  0
LINE
  5
1237D5
  8
OBJECT
 10
8212.9999999999836
 20
-140.99999999999909
 30
0.0
 11
8176.9999999999873
 21
-140.99999999999909
 31
0.0
1001
ACDBBLOCKREPETAG
1070
     1
1071
      117
1005
1237D5
  0
LINE
  5
1237D6
  8
OBJECT
 10
8176.9999999999873
 20
-140.99999999999909
 30
0.0
 11
8176.9999999999873
 21
-258.99999999999909
 31
0.0
1001
ACDBBLOCKREPETAG
1070
     1
1071
      118
1005
1237D6
  0
LINE
  5
1237D7
  8
OBJECT
 10
8176.9999999999873
 20
-258.99999999999909
 30
0.0
 11
8212.9999999999836
 21
-258.99999999999909
 31
0.0
1001
ACDBBLOCKREPETAG
1070
     1
1071
      119
1005
1237D7
  0
LINE
  5
1237D8
  8
OBJECT
 10
8172.9999999999854
 20
-145.49999999999909
 30
0.0
 11
8159.9999999999873
 21
-145.49999999999909
 31
0.0
1001
ACDBBLOCKREPETAG
1070
     1
1071
      120
1005
1237D8
  0
LINE
  5
1237D9
  8
OBJECT
 10
8159.9999999999873
 20
-254.49999999999909
 30
0.0
 11
8172.9999999999854
 21
-254.49999999999909
 31
0.0
1001
ACDBBLOCKREPETAG
1070
     1
1071
      121
1005
1237D9
  0
LINE
  5
1237DA
  8
OBJECT
 10
8172.9999999999854
 20
-254.49999999999909
 30
0.0
 11
8172.9999999999854
 21
-145.49999999999909
 31
0.0
1001
ACDBBLOCKREPETAG
1070
     1
1071
      122
1005
1237DA
  0
LINE
  5
1237DB
  8
OBJECT
 10
8176.9999999999873
 20
-140.99999999999909
 30
0.0
 11
8172.9999999999854
 21
-145.49999999999909
 31
0.0
1001
ACDBBLOCKREPETAG
1070
     1
1071
      123
1005
1237DB
  0
LINE
  5
1237DC
  8
OBJECT
 10
8176.9999999999873
 20
-258.99999999999909
 30
0.0
 11
8172.9999999999854
 21
-254.49999999999909
 31
0.0
1001
ACDBBLOCKREPETAG
1070
     1
1071
      124
1005
1237DC
  0
LINE
  5
1237DD
  8
OBJECT
 10
8083.0
 20
-137.99999999999909
 30
0.0
 11
8080.0
 21
-137.99999999999909
 31
0.0
1001
ACDBBLOCKREPETAG
1070
     1
1071
      125
1005
1237DD
  0
ARC
  5
1237DE
  8
OBJECT
 10
8083.0
 20
-140.99999999999909
 30
0.0
 40
3.0
 50
0.0
 51
90.0
1001
ACDBBLOCKREPETAG
1070
     1
1071
      126
1005
1237DE
  0
LINE
  5
1237DF
  8
OBJECT
 10
8080.0
 20
-261.99999999999909
 30
0.0
 11
8083.0
 21
-261.99999999999909
 31
0.0
1001
ACDBBLOCKREPETAG
1070
     1
1071
      127
1005
1237DF
  0
ARC
  5
1237E0
  8
OBJECT
 10
8083.0
 20
-258.99999999999909
 30
0.0
 40
3.0
 50
270.0
 51
0.0
1001
ACDBBLOCKREPETAG
1070
     1
1071
      128
1005
1237E0
  0
LINE
  5
1237E1
  8
OBJECT
 10
8086.0
 20
-258.99999999999909
 30
0.0
 11
8086.0
 21
-222.44994432063581
 31
0.0
1001
ACDBBLOCKREPETAG
1070
     1
1071
      129
1005
1237E1
  0
LINE
  5
1237E2
  8
OBJECT
 10
8086.0
 20
-177.55005567935859
 30
0.0
 11
8086.0
 21
-140.99999999999909
 31
0.0
1001
ACDBBLOCKREPETAG
1070
     1
1071
      130
1005
1237E2
  0
LINE
  5
1237E3
  8
HIDDEN
 10
8167.9999999999864
 20
-155.49999999999909
 30
0.0
 11
8167.9999999999864
 21
-244.49999999999909
 31
0.0
1001
ACDBBLOCKREPETAG
1070
     1
1071
      131
1005
1237E3
  0
LINE
  5
1237E4
  8
OBJECT
 10
8159.9999749641838
 20
-254.4999509238105
 30
0.0
 11
8159.9999749641838
 21
-145.4999509238105
 31
0.0
1001
ACDBBLOCKREPETAG
1070
     1
1071
      133
1005
1237E4
  0
ARC
  5
1237E5
  8
OBJECT
 10
8125.0000000000027
 20
-199.99999999999909
 30
0.0
 40
45.000000000000547
 50
90.0
 51
270.0
1001
ACDBBLOCKREPETAG
1070
     1
1071
      134
1005
1237E5
  0
LINE
  5
1237E6
  8
OBJECT
 10
7923.0
 20
-470.99999999999937
 30
0.0
 11
7923.0
 21
-449.99999999999937
 31
0.0
1001
ACDBBLOCKREPETAG
1070
     1
1071
        0
1005
1237E6
  0
LINE
  5
1237E7
  8
OBJECT
 10
7923.0
 20
-449.99999999999937
 30
0.0
 11
8077.0
 21
-449.99999999999937
 31
0.0
1001
ACDBBLOCKREPETAG
1070
     1
1071
        1
1005
1237E7
  0
LINE
  5
1237E8
  8
HIDDEN
 10
7943.0
 20
-519.99999999999955
 30
0.0
 11
8057.0
 21
-519.99999999999955
 31
0.0
1001
ACDBBLOCKREPETAG
1070
     1
1071
        2
1005
1237E8
  0
LINE
  5
1237E9
  8
OBJECT
 10
8077.0
 20
-449.99999999999937
 30
0.0
 11
8077.0
 21
-470.99999999999937
 31
0.0
1001
ACDBBLOCKREPETAG
1070
     1
1071
        3
1005
1237E9
  0
LINE
  5
1237EA
  8
OBJECT
 10
8077.0
 20
-470.99999999999937
 30
0.0
 11
7923.0
 21
-470.99999999999937
 31
0.0
1001
ACDBBLOCKREPETAG
1070
     1
1071
        4
1005
1237EA
  0
LINE
  5
1237EB
  8
CENTER
 10
8000.0
 20
-434.99999999999949
 30
0.0
 11
8000.0
 21
-789.99999999999955
 31
0.0
1001
ACDBBLOCKREPETAG
1070
     1
1071
        5
1005
1237EB
  0
LINE
  5
1237EC
  8
OBJECT
 10
7925.0
 20
-533.99999999999955
 30
0.0
 11
7925.0
 21
-777.99999999999955
 31
0.0
1001
ACDBBLOCKREPETAG
1070
     1
1071
        6
1005
1237EC
  0
LINE
  5
1237ED
  8
OBJECT
 10
7928.0
 20
-470.99999999999937
 30
0.0
 11
7928.0
 21
-533.99999999999955
 31
0.0
1001
ACDBBLOCKREPETAG
1070
     1
1071
        7
1005
1237ED
  0
LINE
  5
1237EE
  8
OBJECT
 10
8072.0
 20
-533.99999999999955
 30
0.0
 11
8072.0
 21
-470.99999999999937
 31
0.0
1001
ACDBBLOCKREPETAG
1070
     1
1071
        8
1005
1237EE
  0
LINE
  5
1237EF
  8
OBJECT
 10
7920.0
 20
-777.99999999999955
 30
0.0
 11
8080.0
 21
-777.99999999999955
 31
0.0
1001
ACDBBLOCKREPETAG
1070
     1
1071
        9
1005
1237EF
  0
LINE
  5
1237F0
  8
OBJECT
 10
8080.0
 20
-533.99999999999955
 30
0.0
 11
7925.0
 21
-533.99999999999955
 31
0.0
1001
ACDBBLOCKREPETAG
1070
     1
1071
       10
1005
1237F0
  0
LINE
  5
1237F1
  8
OBJECT
 10
7920.0
 20
-777.99999999999955
 30
0.0
 11
7920.0
 21
-789.99999999999955
 31
0.0
1001
ACDBBLOCKREPETAG
1070
     1
1071
       11
1005
1237F1
  0
LINE
  5
1237F2
  8
OBJECT
 10
7920.0
 20
-789.99999999999955
 30
0.0
 11
8080.0
 21
-789.99999999999955
 31
0.0
1001
ACDBBLOCKREPETAG
1070
     1
1071
       12
1005
1237F2
  0
LINE
  5
1237F3
  8
OBJECT
 10
8080.0
 20
-789.99999999999955
 30
0.0
 11
8080.0
 21
-777.99999999999955
 31
0.0
1001
ACDBBLOCKREPETAG
1070
     1
1071
       13
1005
1237F3
  0
LINE
  5
1237F4
  8
OBJECT
 10
8074.9999999998618
 20
-657.99999999985039
 30
0.0
 11
8075.0
 21
-777.99999999999955
 31
0.0
1001
ACDBBLOCKREPETAG
1070
     1
1071
       15
1005
1237F4
  0
LINE
  5
1237F5
  8
OBJECT
 10
8074.9999908029858
 20
-657.99998602702135
 30
0.0
 11
8080.0
 21
-657.99998602702135
 31
0.0
1001
ACDBBLOCKREPETAG
1070
     1
1071
       16
1005
1237F5
  0
ARC
  5
1237F6
  8
OBJECT
 10
8200.6872746716726
 20
-649.40809941010718
 30
0.0
 40
170.6350503965856
 50
137.44134459184301
 51
149.91949581337221
1001
ACDBBLOCKREPETAG
1070
     1
1071
       17
1005
1237F6
  0
ARC
  5
1237F7
  8
OBJECT
 10
8118.8455987040506
 20
-605.88272669536445
 30
0.0
 40
78.072222021763665
 50
147.4551531038623
 51
164.66365997718671
1001
ACDBBLOCKREPETAG
1070
     1
1071
       18
1005
1237F7
  0
ARC
  5
1237F8
  8
OBJECT
 10
8085.7554349608708
 20
-595.99999999999955
 30
0.0
 40
43.55353926885617
 50
165.688452300753
 51
194.3115476992468
1001
ACDBBLOCKREPETAG
1070
     1
1071
       19
1005
1237F8
  0
ARC
  5
1237F9
  8
OBJECT
 10
8200.6872746716726
 20
-542.59190058989179
 30
0.0
 40
170.6350503965856
 50
210.08050418662771
 51
222.55865540815699
1001
ACDBBLOCKREPETAG
1070
     1
1071
       20
1005
1237F9
  0
ARC
  5
1237FA
  8
OBJECT
 10
8118.8455987040506
 20
-586.11727330463452
 30
0.0
 40
78.072222021763665
 50
195.3363400228132
 51
212.5448468961377
1001
ACDBBLOCKREPETAG
1070
     1
1071
       21
1005
1237FA
  0
POINT
  5
1237FB
  8
DOTS
 10
8000.0
 20
-654.99999999999966
 30
0.0
1001
ACDBBLOCKREPETAG
1070
     1
1071
      187
1005
1237FB
  0
LINE
  5
1237FC
  8
OBJECT
 10
6024.1029330933034
 20
-243.80694712371681
 30
0.0
 11
6020.6596569999956
 21
-232.55462199999889
 31
0.0
1001
ACDBBLOCKREPETAG
1070
     1
1071
      300
1005
1237FC
  0
LINE
  5
1237FD
  8
OBJECT
 10
5986.7927499013749
 20
-218.22553374208019
 30
0.0
 11
6020.6596569999956
 21
-232.5546219999969
 31
0.0
1001
ACDBBLOCKREPETAG
1070
     1
1071
      302
1005
1237FD
  0
ARC
  5
1237FE
  8
OBJECT
 10
5982.8961697618997
 20
-227.4351299990567
 30
0.0
 40
10.0
 50
67.066778292911366
 51
154.0147343702935
1001
ACDBBLOCKREPETAG
1070
     1
1071
      303
1005
1237FE
  0
ARC
  5
1237FF
  8
OBJECT
 10
5986.1488390381273
 20
-225.55386256729159
 30
0.0
 40
7.0
 50
67.066778292911366
 51
154.0147337749826
1001
ACDBBLOCKREPETAG
1070
     1
1071
      304
1005
1237FF
  0
LINE
  5
123800
  8
OBJECT
 10
5969.4199755553018
 20
-243.89888500818171
 30
0.0
 11
5979.8564918232369
 21
-222.48688253356801
 31
0.0
1001
ACDBBLOCKREPETAG
1070
     1
1071
      341
1005
123800
  0
LINE
  5
123801
  8
OBJECT
 10
5965.2972169006089
 20
-240.71813901882729
 30
0.0
 11
5973.9071022665084
 21
-223.05373004430751
 31
0.0
1001
ACDBBLOCKREPETAG
1070
     1
1071
      342
1005
123801
  0
ARC
  5
123802
  8
OBJECT
 10
5976.5796953073141
 20
-207.1289369828437
 30
0.0
 40
60.031113246032611
 50
314.07020130418567
 51
322.33936106089681
1001
ACDBBLOCKREPETAG
1070
     1
1071
      343
1005
123802
  0
CIRCLE
  5
123803
  8
OBJECT
 10
6000.0
 20
-199.99999999999909
 30
0.0
 40
53.5
1001
ACDBBLOCKREPETAG
1070
     1
1071
      344
1005
123803
  0
POINT
  5
123804
  8
DOTS
 10
6000.0
 20
-199.99999999999909
 30
0.0
 50
270.0
1001
ACDBBLOCKREPETAG
1070
     1
1071
      362
1005
123804
  0
ARC
  5
123805
  8
OBJECT
 10
6000.0
 20
-199.99999999999909
 30
0.0
 40
50.0
 50
298.81994300000417
 51
228.52376955965491
1001
ACDBBLOCKREPETAG
1070
     1
1071
        7
1005
123805
  0
LINE
  5
123806
  8
CENTER
 10
6080.0
 20
-199.99999999999909
 30
0.0
 11
5905.0
 21
-199.99999999999909
 31
0.0
1001
ACDBBLOCKREPETAG
1070
     1
1071
       14
1005
123806
  0
LINE
  5
123807
  8
CENTER
 10
6000.0
 20
-294.99999999999898
 30
0.0
 11
6000.0
 21
-104.9999999999991
 31
0.0
1001
ACDBBLOCKREPETAG
1070
     1
1071
       15
1005
123807
  0
CIRCLE
  5
123808
  8
OBJECT
 10
6000.0
 20
-199.99999999999909
 30
0.0
 40
70.0
1001
ACDBBLOCKREPETAG
1070
     1
1071
       16
1005
123808
  0
CIRCLE
  5
123809
  8
OBJECT
 10
6000.0
 20
-199.99999999999909
 30
0.0
 40
77.0
1001
ACDBBLOCKREPETAG
1070
     1
1071
       17
1005
123809
  0
ARC
  5
12380A
  8
OBJECT
 10
6000.0
 20
-199.99999999999909
 30
0.0
 40
80.0
 50
50.80503257388439
 51
309.19496742611562
1001
ACDBBLOCKREPETAG
1070
     1
1071
       18
1005
12380A
  0
LINE
  5
12380B
  8
OBJECT
 10
6045.6618002273253
 20
-137.99999999999909
 30
0.0
 11
6080.0
 21
-137.99999999999909
 31
0.0
1001
ACDBBLOCKREPETAG
1070
     1
1071
       19
1005
12380B
  0
LINE
  5
12380C
  8
OBJECT
 10
6045.6618002273253
 20
-261.99999999999909
 30
0.0
 11
6080.0
 21
-261.99999999999909
 31
0.0
1001
ACDBBLOCKREPETAG
1070
     1
1071
       20
1005
12380C
  0
LINE
  5
12380D
  8
OBJECT
 10
6212.9999999999864
 20
-453.0000000000008
 30
0.0
 11
6219.9999999999873
 21
-453.0000000000008
 31
0.0
1001
ACDBBLOCKREPETAG
1070
     1
1071
      106
1005
12380D
  0
LINE
  5
12380E
  8
OBJECT
 10
6219.9999999999873
 20
-453.0000000000008
 30
0.0
 11
6219.9999999999873
 21
-577.0000000000008
 31
0.0
1001
ACDBBLOCKREPETAG
1070
     1
1071
      107
1005
12380E
  0
LINE
  5
12380F
  8
OBJECT
 10
6085.9999999999864
 20
-553.3502637757274
 30
0.0
 11
6085.9999999999864
 21
-655.00000000000068
 31
0.0
1001
ACDBBLOCKREPETAG
1070
     1
1071
      108
1005
12380F
  0
LINE
  5
123810
  8
OBJECT
 10
6219.9999999999873
 20
-577.0000000000008
 30
0.0
 11
6212.9999999999864
 21
-577.0000000000008
 31
0.0
1001
ACDBBLOCKREPETAG
1070
     1
1071
      109
1005
123810
  0
LINE
  5
123811
  8
OBJECT
 10
6212.9999999999864
 20
-577.0000000000008
 30
0.0
 11
6212.9999999999864
 21
-453.0000000000008
 31
0.0
1001
ACDBBLOCKREPETAG
1070
     1
1071
      110
1005
123811
  0
LINE
  5
123812
  8
CENTER
 10
6144.9999999999873
 20
-515.0000000000008
 30
0.0
 11
6234.9999999999864
 21
-515.0000000000008
 31
0.0
1001
ACDBBLOCKREPETAG
1070
     1
1071
      111
1005
123812
  0
LINE
  5
123813
  8
OBJECT
 10
6079.9999999999818
 20
-658.0
 30
0.0
 11
6082.9999999999864
 21
-658.0000000000008
 31
0.0
1001
ACDBBLOCKREPETAG
1070
     1
1071
      112
1005
123813
  0
ARC
  5
123814
  8
OBJECT
 10
6082.9999999999864
 20
-655.00000000000068
 30
0.0
 40
3.0
 50
270.0
 51
0.0
1001
ACDBBLOCKREPETAG
1070
     1
1071
      113
1005
123814
  0
LINE
  5
123815
  8
OBJECT
 10
6212.9999999999864
 20
-456.0000000000008
 30
0.0
 11
6176.9999999999873
 21
-456.0000000000008
 31
0.0
1001
ACDBBLOCKREPETAG
1070
     1
1071
      114
1005
123815
  0
LINE
  5
123816
  8
OBJECT
 10
6176.9999999999873
 20
-456.0000000000008
 30
0.0
 11
6176.9999999999873
 21
-553.15756805667843
 31
0.0
1001
ACDBBLOCKREPETAG
1070
     1
1071
      115
1005
123816
  0
LINE
  5
123817
  8
OBJECT
 10
6172.9999999999864
 20
-460.5000000000008
 30
0.0
 11
6172.9999999999818
 21
-545.74491827928705
 31
0.0
1001
ACDBBLOCKREPETAG
1070
     1
1071
      116
1005
123817
  0
LINE
  5
123818
  8
OBJECT
 10
6172.9999999999864
 20
-460.5000000000008
 30
0.0
 11
6159.9999999999864
 21
-460.5000000000008
 31
0.0
1001
ACDBBLOCKREPETAG
1070
     1
1071
      117
1005
123818
  0
LINE
  5
123819
  8
OBJECT
 10
6168.6563168254688
 20
-574.0000000000008
 30
0.0
 11
6212.9999999999864
 21
-574.0000000000008
 31
0.0
1001
ACDBBLOCKREPETAG
1070
     1
1071
      118
1005
123819
  0
LINE
  5
12381A
  8
OBJECT
 10
6176.9999999999873
 20
-456.0000000000008
 30
0.0
 11
6172.9999999999864
 21
-460.5000000000008
 31
0.0
1001
ACDBBLOCKREPETAG
1070
     1
1071
      119
1005
12381A
  0
LINE
  5
12381B
  8
OBJECT
 10
6159.9999999999864
 20
-460.5000000000008
 30
0.0
 11
6159.9999999999864
 21
-545.74491827928784
 31
0.0
1001
ACDBBLOCKREPETAG
1070
     1
1071
      120
1005
12381B
  0
ARC
  5
12381C
  8
OBJECT
 10
6091.9999999999873
 20
-537.27386365609345
 30
0.0
 40
85.0
 50
308.59099323720869
 51
334.40086127811207
1001
ACDBBLOCKREPETAG
1070
     1
1071
      121
1005
12381C
  0
ARC
  5
12381D
  8
OBJECT
 10
6162.7999999999856
 20
-555.00000000000068
 30
0.0
 40
85.0
 50
91.887731891831123
 51
160.07406787456929
1001
ACDBBLOCKREPETAG
1070
     1
1071
      122
1005
12381D
  0
LINE
  5
12381E
  8
OBJECT
 10
6085.9999999999864
 20
-650.81075719270927
 30
0.0
 11
6145.0193225436024
 21
-603.71143914629465
 31
0.0
1001
ACDBBLOCKREPETAG
1070
     1
1071
      123
1005
12381E
  0
LINE
  5
12381F
  8
OBJECT
 10
6172.9999999999818
 20
-545.74491827928705
 30
0.0
 11
6159.9999999999864
 21
-545.74491827928784
 31
0.0
1001
ACDBBLOCKREPETAG
1070
     1
1071
      124
1005
12381F
  0
LINE
  5
123820
  8
OBJECT
 10
6176.9999999999873
 20
-553.15756805667843
 30
0.0
 11
6172.9999999999818
 21
-545.74491827928705
 31
0.0
1001
ACDBBLOCKREPETAG
1070
     1
1071
      125
1005
123820
  0
LINE
  5
123821
  8
OBJECT
 10
6080.0000000000182
 20
-534.0
 30
0.0
 11
6082.8886121596233
 21
-526.03156729425325
 31
0.0
1001
ACDBBLOCKREPETAG
1070
     1
1071
      126
1005
123821
  0
LINE
  5
123822
  8
OBJECT
 10
6080.0000000000182
 20
-534.0
 30
0.0
 11
6085.9999999999864
 21
-553.3502637757274
 31
0.0
1001
ACDBBLOCKREPETAG
1070
     1
1071
      127
1005
123822
  0
LINE
  5
123823
  8
HIDDEN
 10
6167.9999999999864
 20
-470.5000000000008
 30
0.0
 11
6167.9999999999864
 21
-559.50000000000068
 31
0.0
1001
ACDBBLOCKREPETAG
1070
     1
1071
      129
1005
123823
  0
LINE
  5
123824
  8
OBJECT
 10
6212.9999999999864
 20
-137.99999999999909
 30
0.0
 11
6219.9999999999873
 21
-137.99999999999909
 31
0.0
1001
ACDBBLOCKREPETAG
1070
     1
1071
      110
1005
123824
  0
LINE
  5
123825
  8
OBJECT
 10
6219.9999999999873
 20
-137.99999999999909
 30
0.0
 11
6219.9999999999873
 21
-261.99999999999909
 31
0.0
1001
ACDBBLOCKREPETAG
1070
     1
1071
      111
1005
123825
  0
LINE
  5
123826
  8
OBJECT
 10
6219.9999999999873
 20
-261.99999999999909
 30
0.0
 11
6212.9999999999864
 21
-261.99999999999909
 31
0.0
1001
ACDBBLOCKREPETAG
1070
     1
1071
      112
1005
123826
  0
LINE
  5
123827
  8
OBJECT
 10
6212.9999999999864
 20
-261.99999999999909
 30
0.0
 11
6212.9999999999864
 21
-137.99999999999909
 31
0.0
1001
ACDBBLOCKREPETAG
1070
     1
1071
      113
1005
123827
  0
LINE
  5
123828
  8
CENTER
 10
6234.9999999999864
 20
-199.99999999999909
 30
0.0
 11
6080.0000000000036
 21
-199.99999999999909
 31
0.0
1001
ACDBBLOCKREPETAG
1070
     1
1071
      114
1005
123828
  0
LINE
  5
123829
  8
OBJECT
 10
6159.9999749641856
 20
-245.0000000000027
 30
0.0
 11
6086.0
 21
-244.99999999999909
 31
0.0
1001
ACDBBLOCKREPETAG
1070
     1
1071
      115
1005
123829
  0
LINE
  5
12382A
  8
OBJECT
 10
6159.9999749641856
 20
-154.99999999999909
 30
0.0
 11
6086.0
 21
-154.99999999999909
 31
0.0
1001
ACDBBLOCKREPETAG
1070
     1
1071
      116
1005
12382A
  0
LINE
  5
12382B
  8
OBJECT
 10
6212.9999999999864
 20
-140.99999999999909
 30
0.0
 11
6176.9999999999873
 21
-140.99999999999909
 31
0.0
1001
ACDBBLOCKREPETAG
1070
     1
1071
      117
1005
12382B
  0
LINE
  5
12382C
  8
OBJECT
 10
6176.9999999999873
 20
-140.99999999999909
 30
0.0
 11
6176.9999999999873
 21
-258.99999999999909
 31
0.0
1001
ACDBBLOCKREPETAG
1070
     1
1071
      118
1005
12382C
  0
LINE
  5
12382D
  8
OBJECT
 10
6176.9999999999873
 20
-258.99999999999909
 30
0.0
 11
6212.9999999999864
 21
-258.99999999999909
 31
0.0
1001
ACDBBLOCKREPETAG
1070
     1
1071
      119
1005
12382D
  0
LINE
  5
12382E
  8
OBJECT
 10
6172.9999999999864
 20
-145.49999999999909
 30
0.0
 11
6159.9999999999864
 21
-145.49999999999909
 31
0.0
1001
ACDBBLOCKREPETAG
1070
     1
1071
      120
1005
12382E
  0
LINE
  5
12382F
  8
OBJECT
 10
6159.9999999999864
 20
-254.49999999999909
 30
0.0
 11
6172.9999999999864
 21
-254.49999999999909
 31
0.0
1001
ACDBBLOCKREPETAG
1070
     1
1071
      121
1005
12382F
  0
LINE
  5
123830
  8
OBJECT
 10
6172.9999999999864
 20
-254.49999999999909
 30
0.0
 11
6172.9999999999864
 21
-145.49999999999909
 31
0.0
1001
ACDBBLOCKREPETAG
1070
     1
1071
      122
1005
123830
  0
LINE
  5
123831
  8
OBJECT
 10
6176.9999999999873
 20
-140.99999999999909
 30
0.0
 11
6172.9999999999864
 21
-145.49999999999909
 31
0.0
1001
ACDBBLOCKREPETAG
1070
     1
1071
      123
1005
123831
  0
LINE
  5
123832
  8
OBJECT
 10
6176.9999999999873
 20
-258.99999999999909
 30
0.0
 11
6172.9999999999864
 21
-254.49999999999909
 31
0.0
1001
ACDBBLOCKREPETAG
1070
     1
1071
      124
1005
123832
  0
LINE
  5
123833
  8
OBJECT
 10
6083.0
 20
-137.99999999999909
 30
0.0
 11
6080.0
 21
-137.99999999999909
 31
0.0
1001
ACDBBLOCKREPETAG
1070
     1
1071
      125
1005
123833
  0
ARC
  5
123834
  8
OBJECT
 10
6083.0
 20
-140.99999999999909
 30
0.0
 40
3.0
 50
0.0
 51
90.0
1001
ACDBBLOCKREPETAG
1070
     1
1071
      126
1005
123834
  0
LINE
  5
123835
  8
OBJECT
 10
6080.0
 20
-261.99999999999909
 30
0.0
 11
6083.0
 21
-261.99999999999909
 31
0.0
1001
ACDBBLOCKREPETAG
1070
     1
1071
      127
1005
123835
  0
ARC
  5
123836
  8
OBJECT
 10
6083.0
 20
-258.99999999999909
 30
0.0
 40
3.0
 50
270.0
 51
0.0
1001
ACDBBLOCKREPETAG
1070
     1
1071
      128
1005
123836
  0
LINE
  5
123837
  8
OBJECT
 10
6086.0
 20
-258.99999999999909
 30
0.0
 11
6086.0
 21
-222.44994432063581
 31
0.0
1001
ACDBBLOCKREPETAG
1070
     1
1071
      129
1005
123837
  0
LINE
  5
123838
  8
OBJECT
 10
6086.0
 20
-177.55005567935859
 30
0.0
 11
6086.0
 21
-140.99999999999909
 31
0.0
1001
ACDBBLOCKREPETAG
1070
     1
1071
      130
1005
123838
  0
LINE
  5
123839
  8
HIDDEN
 10
6167.9999999999864
 20
-155.49999999999909
 30
0.0
 11
6167.9999999999864
 21
-244.49999999999909
 31
0.0
1001
ACDBBLOCKREPETAG
1070
     1
1071
      131
1005
123839
  0
LINE
  5
12383A
  8
OBJECT
 10
6159.9999749641856
 20
-254.4999509238105
 30
0.0
 11
6159.9999749641856
 21
-145.4999509238105
 31
0.0
1001
ACDBBLOCKREPETAG
1070
     1
1071
      133
1005
12383A
  0
ARC
  5
12383B
  8
OBJECT
 10
6125.0000000000027
 20
-199.99999999999909
 30
0.0
 40
45.000000000000547
 50
90.0
 51
270.0
1001
ACDBBLOCKREPETAG
1070
     1
1071
      134
1005
12383B
  0
LINE
  5
12383C
  8
OBJECT
 10
5923.0
 20
-470.99999999999937
 30
0.0
 11
5923.0
 21
-449.99999999999937
 31
0.0
1001
ACDBBLOCKREPETAG
1070
     1
1071
        0
1005
12383C
  0
LINE
  5
12383D
  8
OBJECT
 10
5923.0
 20
-449.99999999999937
 30
0.0
 11
6077.0
 21
-449.99999999999937
 31
0.0
1001
ACDBBLOCKREPETAG
1070
     1
1071
        1
1005
12383D
  0
LINE
  5
12383E
  8
HIDDEN
 10
5943.0
 20
-519.99999999999955
 30
0.0
 11
6057.0
 21
-519.99999999999955
 31
0.0
1001
ACDBBLOCKREPETAG
1070
     1
1071
        2
1005
12383E
  0
LINE
  5
12383F
  8
OBJECT
 10
6077.0
 20
-449.99999999999937
 30
0.0
 11
6077.0
 21
-470.99999999999937
 31
0.0
1001
ACDBBLOCKREPETAG
1070
     1
1071
        3
1005
12383F
  0
LINE
  5
123840
  8
OBJECT
 10
6077.0
 20
-470.99999999999937
 30
0.0
 11
5923.0
 21
-470.99999999999937
 31
0.0
1001
ACDBBLOCKREPETAG
1070
     1
1071
        4
1005
123840
  0
LINE
  5
123841
  8
CENTER
 10
6000.0
 20
-434.99999999999949
 30
0.0
 11
6000.0
 21
-789.99999999999955
 31
0.0
1001
ACDBBLOCKREPETAG
1070
     1
1071
        5
1005
123841
  0
LINE
  5
123842
  8
OBJECT
 10
5925.0
 20
-533.99999999999955
 30
0.0
 11
5925.0
 21
-777.99999999999955
 31
0.0
1001
ACDBBLOCKREPETAG
1070
     1
1071
        6
1005
123842
  0
LINE
  5
123843
  8
OBJECT
 10
5928.0
 20
-470.99999999999937
 30
0.0
 11
5928.0
 21
-533.99999999999955
 31
0.0
1001
ACDBBLOCKREPETAG
1070
     1
1071
        7
1005
123843
  0
LINE
  5
123844
  8
OBJECT
 10
6072.0
 20
-533.99999999999955
 30
0.0
 11
6072.0
 21
-470.99999999999937
 31
0.0
1001
ACDBBLOCKREPETAG
1070
     1
1071
        8
1005
123844
  0
LINE
  5
123845
  8
OBJECT
 10
5920.0
 20
-777.99999999999955
 30
0.0
 11
6080.0
 21
-777.99999999999955
 31
0.0
1001
ACDBBLOCKREPETAG
1070
     1
1071
        9
1005
123845
  0
LINE
  5
123846
  8
OBJECT
 10
6080.0
 20
-533.99999999999955
 30
0.0
 11
5925.0
 21
-533.99999999999955
 31
0.0
1001
ACDBBLOCKREPETAG
1070
     1
1071
       10
1005
123846
  0
LINE
  5
123847
  8
OBJECT
 10
5920.0
 20
-777.99999999999955
 30
0.0
 11
5920.0
 21
-789.99999999999955
 31
0.0
1001
ACDBBLOCKREPETAG
1070
     1
1071
       11
1005
123847
  0
LINE
  5
123848
  8
OBJECT
 10
5920.0
 20
-789.99999999999955
 30
0.0
 11
6080.0
 21
-789.99999999999955
 31
0.0
1001
ACDBBLOCKREPETAG
1070
     1
1071
       12
1005
123848
  0
LINE
  5
123849
  8
OBJECT
 10
6080.0
 20
-789.99999999999955
 30
0.0
 11
6080.0
 21
-777.99999999999955
 31
0.0
1001
ACDBBLOCKREPETAG
1070
     1
1071
       13
1005
123849
  0
LINE
  5
12384A
  8
OBJECT
 10
6074.9999999998618
 20
-657.99999999985039
 30
0.0
 11
6075.0
 21
-777.99999999999955
 31
0.0
1001
ACDBBLOCKREPETAG
1070
     1
1071
       15
1005
12384A
  0
LINE
  5
12384B
  8
OBJECT
 10
6074.9999908029858
 20
-657.99998602702135
 30
0.0
 11
6080.0
 21
-657.99998602702135
 31
0.0
1001
ACDBBLOCKREPETAG
1070
     1
1071
       16
1005
12384B
  0
ARC
  5
12384C
  8
OBJECT
 10
6200.6872746716735
 20
-649.40809941010718
 30
0.0
 40
170.6350503965856
 50
137.44134459184301
 51
149.91949581337221
1001
ACDBBLOCKREPETAG
1070
     1
1071
       17
1005
12384C
  0
ARC
  5
12384D
  8
OBJECT
 10
6118.8455987040506
 20
-605.88272669536445
 30
0.0
 40
78.072222021763665
 50
147.4551531038623
 51
164.66365997718671
1001
ACDBBLOCKREPETAG
1070
     1
1071
       18
1005
12384D
  0
ARC
  5
12384E
  8
OBJECT
 10
6085.7554349608727
 20
-595.99999999999955
 30
0.0
 40
43.55353926885617
 50
165.688452300753
 51
194.3115476992468
1001
ACDBBLOCKREPETAG
1070
     1
1071
       19
1005
12384E
  0
ARC
  5
12384F
  8
OBJECT
 10
6200.6872746716735
 20
-542.59190058989179
 30
0.0
 40
170.6350503965856
 50
210.08050418662771
 51
222.55865540815699
1001
ACDBBLOCKREPETAG
1070
     1
1071
       20
1005
12384F
  0
ARC
  5
123850
  8
OBJECT
 10
6118.8455987040506
 20
-586.11727330463452
 30
0.0
 40
78.072222021763665
 50
195.3363400228132
 51
212.5448468961377
1001
ACDBBLOCKREPETAG
1070
     1
1071
       21
1005
123850
  0
POINT
  5
123851
  8
DOTS
 10
6000.0
 20
-654.99999999999966
 30
0.0
1001
ACDBBLOCKREPETAG
1070
     1
1071
      187
1005
123851
  0
LINE
  5
123852
  8
OBJECT
 10
4024.102933093302
 20
-243.80694712371681
 30
0.0
 11
4020.6596569999951
 21
-232.55462199999889
 31
0.0
1001
ACDBBLOCKREPETAG
1070
     1
1071
      300
1005
123852
  0
LINE
  5
123853
  8
OBJECT
 10
3986.7927499013749
 20
-218.22553374208019
 30
0.0
 11
4020.6596569999951
 21
-232.5546219999969
 31
0.0
1001
ACDBBLOCKREPETAG
1070
     1
1071
      302
1005
123853
  0
ARC
  5
123854
  8
OBJECT
 10
3982.896169761902
 20
-227.4351299990567
 30
0.0
 40
10.0
 50
67.066778292911366
 51
154.0147343702935
1001
ACDBBLOCKREPETAG
1070
     1
1071
      303
1005
123854
  0
ARC
  5
123855
  8
OBJECT
 10
3986.1488390381278
 20
-225.55386256729159
 30
0.0
 40
7.0
 50
67.066778292911366
 51
154.01473377497121
1001
ACDBBLOCKREPETAG
1070
     1
1071
      304
1005
123855
  0
LINE
  5
123856
  8
OBJECT
 10
3969.4199755553018
 20
-243.89888500818171
 30
0.0
 11
3979.8564918232369
 21
-222.48688253356801
 31
0.0
1001
ACDBBLOCKREPETAG
1070
     1
1071
      341
1005
123856
  0
LINE
  5
123857
  8
OBJECT
 10
3965.2972169006089
 20
-240.71813901882729
 30
0.0
 11
3973.9071022665089
 21
-223.05373004430751
 31
0.0
1001
ACDBBLOCKREPETAG
1070
     1
1071
      342
1005
123857
  0
ARC
  5
123858
  8
OBJECT
 10
3976.579695307315
 20
-207.1289369828437
 30
0.0
 40
60.031113246032611
 50
314.07020130418567
 51
322.33936106091278
1001
ACDBBLOCKREPETAG
1070
     1
1071
      343
1005
123858
  0
CIRCLE
  5
123859
  8
OBJECT
 10
4000.0
 20
-199.99999999999909
 30
0.0
 40
53.5
1001
ACDBBLOCKREPETAG
1070
     1
1071
      344
1005
123859
  0
POINT
  5
12385A
  8
DOTS
 10
4000.0
 20
-199.99999999999909
 30
0.0
 50
270.0
1001
ACDBBLOCKREPETAG
1070
     1
1071
      362
1005
12385A
  0
ARC
  5
12385B
  8
OBJECT
 10
4000.0
 20
-199.99999999999909
 30
0.0
 40
50.0
 50
298.81994300000417
 51
228.52376955967449
1001
ACDBBLOCKREPETAG
1070
     1
1071
        7
1005
12385B
  0
LINE
  5
12385C
  8
CENTER
 10
4080.0
 20
-199.99999999999909
 30
0.0
 11
3905.0
 21
-199.99999999999909
 31
0.0
1001
ACDBBLOCKREPETAG
1070
     1
1071
       14
1005
12385C
  0
LINE
  5
12385D
  8
CENTER
 10
4000.0
 20
-294.99999999999898
 30
0.0
 11
4000.0
 21
-104.9999999999991
 31
0.0
1001
ACDBBLOCKREPETAG
1070
     1
1071
       15
1005
12385D
  0
CIRCLE
  5
12385E
  8
OBJECT
 10
4000.0
 20
-199.99999999999909
 30
0.0
 40
70.0
1001
ACDBBLOCKREPETAG
1070
     1
1071
       16
1005
12385E
  0
CIRCLE
  5
12385F
  8
OBJECT
 10
4000.0
 20
-199.99999999999909
 30
0.0
 40
77.0
1001
ACDBBLOCKREPETAG
1070
     1
1071
       17
1005
12385F
  0
ARC
  5
123860
  8
OBJECT
 10
4000.0
 20
-199.99999999999909
 30
0.0
 40
80.0
 50
50.805032573864182
 51
309.1949674261358
1001
ACDBBLOCKREPETAG
1070
     1
1071
       18
1005
123860
  0
LINE
  5
123861
  8
OBJECT
 10
4045.661800227324
 20
-137.99999999999909
 30
0.0
 11
4080.0
 21
-137.99999999999909
 31
0.0
1001
ACDBBLOCKREPETAG
1070
     1
1071
       19
1005
123861
  0
LINE
  5
123862
  8
OBJECT
 10
4045.661800227324
 20
-261.99999999999909
 30
0.0
 11
4080.0
 21
-261.99999999999909
 31
0.0
1001
ACDBBLOCKREPETAG
1070
     1
1071
       20
1005
123862
  0
LINE
  5
123863
  8
OBJECT
 10
4212.9999999999854
 20
-453.0000000000008
 30
0.0
 11
4219.9999999999854
 21
-453.0000000000008
 31
0.0
1001
ACDBBLOCKREPETAG
1070
     1
1071
      106
1005
123863
  0
LINE
  5
123864
  8
OBJECT
 10
4219.9999999999854
 20
-453.0000000000008
 30
0.0
 11
4219.9999999999854
 21
-577.0000000000008
 31
0.0
1001
ACDBBLOCKREPETAG
1070
     1
1071
      107
1005
123864
  0
LINE
  5
123865
  8
OBJECT
 10
4085.9999999999859
 20
-553.3502637757274
 30
0.0
 11
4085.9999999999859
 21
-655.00000000000068
 31
0.0
1001
ACDBBLOCKREPETAG
1070
     1
1071
      108
1005
123865
  0
LINE
  5
123866
  8
OBJECT
 10
4219.9999999999854
 20
-577.0000000000008
 30
0.0
 11
4212.9999999999854
 21
-577.0000000000008
 31
0.0
1001
ACDBBLOCKREPETAG
1070
     1
1071
      109
1005
123866
  0
LINE
  5
123867
  8
OBJECT
 10
4212.9999999999854
 20
-577.0000000000008
 30
0.0
 11
4212.9999999999854
 21
-453.0000000000008
 31
0.0
1001
ACDBBLOCKREPETAG
1070
     1
1071
      110
1005
123867
  0
LINE
  5
123868
  8
CENTER
 10
4144.9999999999854
 20
-515.0000000000008
 30
0.0
 11
4234.9999999999854
 21
-515.0000000000008
 31
0.0
1001
ACDBBLOCKREPETAG
1070
     1
1071
      111
1005
123868
  0
LINE
  5
123869
  8
OBJECT
 10
4079.9999999999818
 20
-658.0
 30
0.0
 11
4082.999999999985
 21
-658.0000000000008
 31
0.0
1001
ACDBBLOCKREPETAG
1070
     1
1071
      112
1005
123869
  0
ARC
  5
12386A
  8
OBJECT
 10
4082.999999999985
 20
-655.00000000000068
 30
0.0
 40
3.0
 50
270.0
 51
0.0
1001
ACDBBLOCKREPETAG
1070
     1
1071
      113
1005
12386A
  0
LINE
  5
12386B
  8
OBJECT
 10
4212.9999999999854
 20
-456.0000000000008
 30
0.0
 11
4176.9999999999854
 21
-456.0000000000008
 31
0.0
1001
ACDBBLOCKREPETAG
1070
     1
1071
      114
1005
12386B
  0
LINE
  5
12386C
  8
OBJECT
 10
4176.9999999999854
 20
-456.0000000000008
 30
0.0
 11
4176.9999999999854
 21
-553.15756805667843
 31
0.0
1001
ACDBBLOCKREPETAG
1070
     1
1071
      115
1005
12386C
  0
LINE
  5
12386D
  8
OBJECT
 10
4172.9999999999854
 20
-460.5000000000008
 30
0.0
 11
4172.9999999999818
 21
-545.74491827928705
 31
0.0
1001
ACDBBLOCKREPETAG
1070
     1
1071
      116
1005
12386D
  0
LINE
  5
12386E
  8
OBJECT
 10
4172.9999999999854
 20
-460.5000000000008
 30
0.0
 11
4159.9999999999854
 21
-460.5000000000008
 31
0.0
1001
ACDBBLOCKREPETAG
1070
     1
1071
      117
1005
12386E
  0
LINE
  5
12386F
  8
OBJECT
 10
4168.6563168254679
 20
-574.0000000000008
 30
0.0
 11
4212.9999999999854
 21
-574.0000000000008
 31
0.0
1001
ACDBBLOCKREPETAG
1070
     1
1071
      118
1005
12386F
  0
LINE
  5
123870
  8
OBJECT
 10
4176.9999999999854
 20
-456.0000000000008
 30
0.0
 11
4172.9999999999854
 21
-460.5000000000008
 31
0.0
1001
ACDBBLOCKREPETAG
1070
     1
1071
      119
1005
123870
  0
LINE
  5
123871
  8
OBJECT
 10
4159.9999999999854
 20
-460.5000000000008
 30
0.0
 11
4159.9999999999854
 21
-545.74491827928784
 31
0.0
1001
ACDBBLOCKREPETAG
1070
     1
1071
      120
1005
123871
  0
ARC
  5
123872
  8
OBJECT
 10
4091.9999999999841
 20
-537.27386365609345
 30
0.0
 40
85.0
 50
308.59099323720869
 51
334.40086127812339
1001
ACDBBLOCKREPETAG
1070
     1
1071
      121
1005
123872
  0
ARC
  5
123873
  8
OBJECT
 10
4162.7999999999847
 20
-555.00000000000068
 30
0.0
 40
85.0
 50
91.887731891831123
 51
160.07406787456929
1001
ACDBBLOCKREPETAG
1070
     1
1071
      122
1005
123873
  0
LINE
  5
123874
  8
OBJECT
 10
4085.9999999999859
 20
-650.81075719270927
 30
0.0
 11
4145.0193225436024
 21
-603.71143914629465
 31
0.0
1001
ACDBBLOCKREPETAG
1070
     1
1071
      123
1005
123874
  0
LINE
  5
123875
  8
OBJECT
 10
4172.9999999999818
 20
-545.74491827928705
 30
0.0
 11
4159.9999999999854
 21
-545.74491827928784
 31
0.0
1001
ACDBBLOCKREPETAG
1070
     1
1071
      124
1005
123875
  0
LINE
  5
123876
  8
OBJECT
 10
4176.9999999999854
 20
-553.15756805667843
 30
0.0
 11
4172.9999999999818
 21
-545.74491827928705
 31
0.0
1001
ACDBBLOCKREPETAG
1070
     1
1071
      125
1005
123876
  0
LINE
  5
123877
  8
OBJECT
 10
4080.0000000000168
 20
-534.0
 30
0.0
 11
4082.8886121596229
 21
-526.03156729425325
 31
0.0
1001
ACDBBLOCKREPETAG
1070
     1
1071
      126
1005
123877
  0
LINE
  5
123878
  8
OBJECT
 10
4080.0000000000168
 20
-534.0
 30
0.0
 11
4085.9999999999859
 21
-553.3502637757274
 31
0.0
1001
ACDBBLOCKREPETAG
1070
     1
1071
      127
1005
123878
  0
LINE
  5
123879
  8
HIDDEN
 10
4167.9999999999854
 20
-470.5000000000008
 30
0.0
 11
4167.9999999999854
 21
-559.50000000000068
 31
0.0
1001
ACDBBLOCKREPETAG
1070
     1
1071
      129
1005
123879
  0
LINE
  5
12387A
  8
OBJECT
 10
4212.9999999999854
 20
-137.99999999999909
 30
0.0
 11
4219.9999999999854
 21
-137.99999999999909
 31
0.0
1001
ACDBBLOCKREPETAG
1070
     1
1071
      110
1005
12387A
  0
LINE
  5
12387B
  8
OBJECT
 10
4219.9999999999854
 20
-137.99999999999909
 30
0.0
 11
4219.9999999999854
 21
-261.99999999999909
 31
0.0
1001
ACDBBLOCKREPETAG
1070
     1
1071
      111
1005
12387B
  0
LINE
  5
12387C
  8
OBJECT
 10
4219.9999999999854
 20
-261.99999999999909
 30
0.0
 11
4212.9999999999854
 21
-261.99999999999909
 31
0.0
1001
ACDBBLOCKREPETAG
1070
     1
1071
      112
1005
12387C
  0
LINE
  5
12387D
  8
OBJECT
 10
4212.9999999999854
 20
-261.99999999999909
 30
0.0
 11
4212.9999999999854
 21
-137.99999999999909
 31
0.0
1001
ACDBBLOCKREPETAG
1070
     1
1071
      113
1005
12387D
  0
LINE
  5
12387E
  8
CENTER
 10
4234.9999999999854
 20
-199.99999999999909
 30
0.0
 11
4080.0000000000041
 21
-199.99999999999909
 31
0.0
1001
ACDBBLOCKREPETAG
1070
     1
1071
      114
1005
12387E
  0
LINE
  5
12387F
  8
OBJECT
 10
4159.9999749641847
 20
-245.0000000000027
 30
0.0
 11
4086.0
 21
-244.99999999999909
 31
0.0
1001
ACDBBLOCKREPETAG
1070
     1
1071
      115
1005
12387F
  0
LINE
  5
123880
  8
OBJECT
 10
4159.9999749641847
 20
-154.99999999999909
 30
0.0
 11
4086.0
 21
-154.99999999999909
 31
0.0
1001
ACDBBLOCKREPETAG
1070
     1
1071
      116
1005
123880
  0
LINE
  5
123881
  8
OBJECT
 10
4212.9999999999854
 20
-140.99999999999909
 30
0.0
 11
4176.9999999999854
 21
-140.99999999999909
 31
0.0
1001
ACDBBLOCKREPETAG
1070
     1
1071
      117
1005
123881
  0
LINE
  5
123882
  8
OBJECT
 10
4176.9999999999854
 20
-140.99999999999909
 30
0.0
 11
4176.9999999999854
 21
-258.99999999999909
 31
0.0
1001
ACDBBLOCKREPETAG
1070
     1
1071
      118
1005
123882
  0
LINE
  5
123883
  8
OBJECT
 10
4176.9999999999854
 20
-258.99999999999909
 30
0.0
 11
4212.9999999999854
 21
-258.99999999999909
 31
0.0
1001
ACDBBLOCKREPETAG
1070
     1
1071
      119
1005
123883
  0
LINE
  5
123884
  8
OBJECT
 10
4172.9999999999854
 20
-145.49999999999909
 30
0.0
 11
4159.9999999999854
 21
-145.49999999999909
 31
0.0
1001
ACDBBLOCKREPETAG
1070
     1
1071
      120
1005
123884
  0
LINE
  5
123885
  8
OBJECT
 10
4159.9999999999854
 20
-254.49999999999909
 30
0.0
 11
4172.9999999999854
 21
-254.49999999999909
 31
0.0
1001
ACDBBLOCKREPETAG
1070
     1
1071
      121
1005
123885
  0
LINE
  5
123886
  8
OBJECT
 10
4172.9999999999854
 20
-254.49999999999909
 30
0.0
 11
4172.9999999999854
 21
-145.49999999999909
 31
0.0
1001
ACDBBLOCKREPETAG
1070
     1
1071
      122
1005
123886
  0
LINE
  5
123887
  8
OBJECT
 10
4176.9999999999854
 20
-140.99999999999909
 30
0.0
 11
4172.9999999999854
 21
-145.49999999999909
 31
0.0
1001
ACDBBLOCKREPETAG
1070
     1
1071
      123
1005
123887
  0
LINE
  5
123888
  8
OBJECT
 10
4176.9999999999854
 20
-258.99999999999909
 30
0.0
 11
4172.9999999999854
 21
-254.49999999999909
 31
0.0
1001
ACDBBLOCKREPETAG
1070
     1
1071
      124
1005
123888
  0
LINE
  5
123889
  8
OBJECT
 10
4083.0
 20
-137.99999999999909
 30
0.0
 11
4080.0
 21
-137.99999999999909
 31
0.0
1001
ACDBBLOCKREPETAG
1070
     1
1071
      125
1005
123889
  0
ARC
  5
12388A
  8
OBJECT
 10
4083.0
 20
-140.99999999999909
 30
0.0
 40
3.0
 50
0.0
 51
90.0
1001
ACDBBLOCKREPETAG
1070
     1
1071
      126
1005
12388A
  0
LINE
  5
12388B
  8
OBJECT
 10
4080.0
 20
-261.99999999999909
 30
0.0
 11
4083.0
 21
-261.99999999999909
 31
0.0
1001
ACDBBLOCKREPETAG
1070
     1
1071
      127
1005
12388B
  0
ARC
  5
12388C
  8
OBJECT
 10
4083.0
 20
-258.99999999999909
 30
0.0
 40
3.0
 50
270.0
 51
0.0
1001
ACDBBLOCKREPETAG
1070
     1
1071
      128
1005
12388C
  0
LINE
  5
12388D
  8
OBJECT
 10
4086.0
 20
-258.99999999999909
 30
0.0
 11
4086.0
 21
-222.44994432063581
 31
0.0
1001
ACDBBLOCKREPETAG
1070
     1
1071
      129
1005
12388D
  0
LINE
  5
12388E
  8
OBJECT
 10
4086.0
 20
-177.55005567935859
 30
0.0
 11
4086.0
 21
-140.99999999999909
 31
0.0
1001
ACDBBLOCKREPETAG
1070
     1
1071
      130
1005
12388E
  0
LINE
  5
12388F
  8
HIDDEN
 10
4167.9999999999854
 20
-155.49999999999909
 30
0.0
 11
4167.9999999999854
 21
-244.49999999999909
 31
0.0
1001
ACDBBLOCKREPETAG
1070
     1
1071
      131
1005
12388F
  0
LINE
  5
123890
  8
OBJECT
 10
4159.9999749641847
 20
-254.4999509238105
 30
0.0
 11
4159.9999749641847
 21
-145.4999509238105
 31
0.0
1001
ACDBBLOCKREPETAG
1070
     1
1071
      133
1005
123890
  0
ARC
  5
123891
  8
OBJECT
 10
4125.0000000000018
 20
-199.99999999999909
 30
0.0
 40
45.000000000000547
 50
90.0
 51
270.0
1001
ACDBBLOCKREPETAG
1070
     1
1071
      134
1005
123891
  0
LINE
  5
123892
  8
OBJECT
 10
3923.0
 20
-470.99999999999937
 30
0.0
 11
3923.0
 21
-449.99999999999937
 31
0.0
1001
ACDBBLOCKREPETAG
1070
     1
1071
        0
1005
123892
  0
LINE
  5
123893
  8
OBJECT
 10
3923.0
 20
-449.99999999999937
 30
0.0
 11
4077.0
 21
-449.99999999999937
 31
0.0
1001
ACDBBLOCKREPETAG
1070
     1
1071
        1
1005
123893
  0
LINE
  5
123894
  8
HIDDEN
 10
3943.0
 20
-519.99999999999955
 30
0.0
 11
4057.0
 21
-519.99999999999955
 31
0.0
1001
ACDBBLOCKREPETAG
1070
     1
1071
        2
1005
123894
  0
LINE
  5
123895
  8
OBJECT
 10
4077.0
 20
-449.99999999999937
 30
0.0
 11
4077.0
 21
-470.99999999999937
 31
0.0
1001
ACDBBLOCKREPETAG
1070
     1
1071
        3
1005
123895
  0
LINE
  5
123896
  8
OBJECT
 10
4077.0
 20
-470.99999999999937
 30
0.0
 11
3923.0
 21
-470.99999999999937
 31
0.0
1001
ACDBBLOCKREPETAG
1070
     1
1071
        4
1005
123896
  0
LINE
  5
123897
  8
CENTER
 10
4000.0
 20
-434.99999999999949
 30
0.0
 11
4000.0
 21
-789.99999999999955
 31
0.0
1001
ACDBBLOCKREPETAG
1070
     1
1071
        5
1005
123897
  0
LINE
  5
123898
  8
OBJECT
 10
3925.0
 20
-533.99999999999955
 30
0.0
 11
3925.0
 21
-777.99999999999955
 31
0.0
1001
ACDBBLOCKREPETAG
1070
     1
1071
        6
1005
123898
  0
LINE
  5
123899
  8
OBJECT
 10
3928.0
 20
-470.99999999999937
 30
0.0
 11
3928.0
 21
-533.99999999999955
 31
0.0
1001
ACDBBLOCKREPETAG
1070
     1
1071
        7
1005
123899
  0
LINE
  5
12389A
  8
OBJECT
 10
4072.0
 20
-533.99999999999955
 30
0.0
 11
4072.0
 21
-470.99999999999937
 31
0.0
1001
ACDBBLOCKREPETAG
1070
     1
1071
        8
1005
12389A
  0
LINE
  5
12389B
  8
OBJECT
 10
3920.0
 20
-777.99999999999955
 30
0.0
 11
4080.0
 21
-777.99999999999955
 31
0.0
1001
ACDBBLOCKREPETAG
1070
     1
1071
        9
1005
12389B
  0
LINE
  5
12389C
  8
OBJECT
 10
4080.0
 20
-533.99999999999955
 30
0.0
 11
3925.0
 21
-533.99999999999955
 31
0.0
1001
ACDBBLOCKREPETAG
1070
     1
1071
       10
1005
12389C
  0
LINE
  5
12389D
  8
OBJECT
 10
3920.0
 20
-777.99999999999955
 30
0.0
 11
3920.0
 21
-789.99999999999955
 31
0.0
1001
ACDBBLOCKREPETAG
1070
     1
1071
       11
1005
12389D
  0
LINE
  5
12389E
  8
OBJECT
 10
3920.0
 20
-789.99999999999955
 30
0.0
 11
4080.0
 21
-789.99999999999955
 31
0.0
1001
ACDBBLOCKREPETAG
1070
     1
1071
       12
1005
12389E
  0
LINE
  5
12389F
  8
OBJECT
 10
4080.0
 20
-789.99999999999955
 30
0.0
 11
4080.0
 21
-777.99999999999955
 31
0.0
1001
ACDBBLOCKREPETAG
1070
     1
1071
       13
1005
12389F
  0
LINE
  5
1238A0
  8
OBJECT
 10
4074.9999999998631
 20
-657.99999999985039
 30
0.0
 11
4075.0
 21
-777.99999999999955
 31
0.0
1001
ACDBBLOCKREPETAG
1070
     1
1071
       15
1005
1238A0
  0
LINE
  5
1238A1
  8
OBJECT
 10
4074.9999908029849
 20
-657.99998602702135
 30
0.0
 11
4080.0
 21
-657.99998602702135
 31
0.0
1001
ACDBBLOCKREPETAG
1070
     1
1071
       16
1005
1238A1
  0
ARC
  5
1238A2
  8
OBJECT
 10
4200.6872746716726
 20
-649.40809941010718
 30
0.0
 40
170.6350503965856
 50
137.44134459184301
 51
149.91949581337221
1001
ACDBBLOCKREPETAG
1070
     1
1071
       17
1005
1238A2
  0
ARC
  5
1238A3
  8
OBJECT
 10
4118.8455987040506
 20
-605.88272669536445
 30
0.0
 40
78.072222021763665
 50
147.4551531038623
 51
164.6636599771798
1001
ACDBBLOCKREPETAG
1070
     1
1071
       18
1005
1238A3
  0
ARC
  5
1238A4
  8
OBJECT
 10
4085.7554349608722
 20
-595.99999999999955
 30
0.0
 40
43.55353926885617
 50
165.6884523007466
 51
194.3115476992534
1001
ACDBBLOCKREPETAG
1070
     1
1071
       19
1005
1238A4
  0
ARC
  5
1238A5
  8
OBJECT
 10
4200.6872746716726
 20
-542.59190058989179
 30
0.0
 40
170.6350503965856
 50
210.08050418662771
 51
222.55865540815699
1001
ACDBBLOCKREPETAG
1070
     1
1071
       20
1005
1238A5
  0
ARC
  5
1238A6
  8
OBJECT
 10
4118.8455987040506
 20
-586.11727330463452
 30
0.0
 40
78.072222021763665
 50
195.3363400228202
 51
212.5448468961377
1001
ACDBBLOCKREPETAG
1070
     1
1071
       21
1005
1238A6
  0
POINT
  5
1238A7
  8
DOTS
 10
4000.0
 20
-654.99999999999966
 30
0.0
1001
ACDBBLOCKREPETAG
1070
     1
1071
      187
1005
1238A7
  0
LINE
  5
1238A8
  8
OBJECT
 10
2024.102933093302
 20
-243.80694712371681
 30
0.0
 11
2020.659656999997
 21
-232.55462199999889
 31
0.0
1001
ACDBBLOCKREPETAG
1070
     1
1071
      300
1005
1238A8
  0
LINE
  5
1238A9
  8
OBJECT
 10
1986.7927499013749
 20
-218.22553374208019
 30
0.0
 11
2020.659656999997
 21
-232.5546219999969
 31
0.0
1001
ACDBBLOCKREPETAG
1070
     1
1071
      302
1005
1238A9
  0
ARC
  5
1238AA
  8
OBJECT
 10
1982.8961697619
 20
-227.4351299990567
 30
0.0
 40
10.0
 50
67.066778292923374
 51
154.0147343702935
1001
ACDBBLOCKREPETAG
1070
     1
1071
      303
1005
1238AA
  0
ARC
  5
1238AB
  8
OBJECT
 10
1986.1488390381271
 20
-225.55386256729159
 30
0.0
 40
7.0
 50
67.066778292923374
 51
154.01473377497121
1001
ACDBBLOCKREPETAG
1070
     1
1071
      304
1005
1238AB
  0
LINE
  5
1238AC
  8
OBJECT
 10
1969.4199755553
 20
-243.89888500818171
 30
0.0
 11
1979.856491823236
 21
-222.48688253356801
 31
0.0
1001
ACDBBLOCKREPETAG
1070
     1
1071
      341
1005
1238AC
  0
LINE
  5
1238AD
  8
OBJECT
 10
1965.2972169006091
 20
-240.71813901882729
 30
0.0
 11
1973.907102266508
 21
-223.05373004430751
 31
0.0
1001
ACDBBLOCKREPETAG
1070
     1
1071
      342
1005
1238AD
  0
ARC
  5
1238AE
  8
OBJECT
 10
1976.579695307315
 20
-207.1289369828437
 30
0.0
 40
60.031113246032611
 50
314.07020130418567
 51
322.33936106091278
1001
ACDBBLOCKREPETAG
1070
     1
1071
      343
1005
1238AE
  0
CIRCLE
  5
1238AF
  8
OBJECT
 10
2000.0
 20
-199.99999999999909
 30
0.0
 40
53.5
1001
ACDBBLOCKREPETAG
1070
     1
1071
      344
1005
1238AF
  0
POINT
  5
1238B0
  8
DOTS
 10
2000.0
 20
-199.99999999999909
 30
0.0
 50
270.0
1001
ACDBBLOCKREPETAG
1070
     1
1071
      362
1005
1238B0
  0
ARC
  5
1238B1
  8
OBJECT
 10
2000.0
 20
-199.99999999999909
 30
0.0
 40
50.0
 50
298.81994300000417
 51
228.52376955967449
1001
ACDBBLOCKREPETAG
1070
     1
1071
        7
1005
1238B1
  0
LINE
  5
1238B2
  8
CENTER
 10
2080.0
 20
-199.99999999999909
 30
0.0
 11
1905.0
 21
-199.99999999999909
 31
0.0
1001
ACDBBLOCKREPETAG
1070
     1
1071
       14
1005
1238B2
  0
LINE
  5
1238B3
  8
CENTER
 10
2000.0
 20
-294.99999999999898
 30
0.0
 11
2000.0
 21
-104.9999999999991
 31
0.0
1001
ACDBBLOCKREPETAG
1070
     1
1071
       15
1005
1238B3
  0
CIRCLE
  5
1238B4
  8
OBJECT
 10
2000.0
 20
-199.99999999999909
 30
0.0
 40
70.0
1001
ACDBBLOCKREPETAG
1070
     1
1071
       16
1005
1238B4
  0
CIRCLE
  5
1238B5
  8
OBJECT
 10
2000.0
 20
-199.99999999999909
 30
0.0
 40
77.0
1001
ACDBBLOCKREPETAG
1070
     1
1071
       17
1005
1238B5
  0
ARC
  5
1238B6
  8
OBJECT
 10
2000.0
 20
-199.99999999999909
 30
0.0
 40
80.0
 50
50.805032573864182
 51
309.1949674261358
1001
ACDBBLOCKREPETAG
1070
     1
1071
       18
1005
1238B6
  0
LINE
  5
1238B7
  8
OBJECT
 10
2045.6618002273251
 20
-137.99999999999909
 30
0.0
 11
2080.0
 21
-137.99999999999909
 31
0.0
1001
ACDBBLOCKREPETAG
1070
     1
1071
       19
1005
1238B7
  0
LINE
  5
1238B8
  8
OBJECT
 10
2045.6618002273251
 20
-261.99999999999909
 30
0.0
 11
2080.0
 21
-261.99999999999909
 31
0.0
1001
ACDBBLOCKREPETAG
1070
     1
1071
       20
1005
1238B8
  0
LINE
  5
1238B9
  8
OBJECT
 10
2212.999999999985
 20
-453.0000000000008
 30
0.0
 11
2219.999999999985
 21
-453.0000000000008
 31
0.0
1001
ACDBBLOCKREPETAG
1070
     1
1071
      106
1005
1238B9
  0
LINE
  5
1238BA
  8
OBJECT
 10
2219.999999999985
 20
-453.0000000000008
 30
0.0
 11
2219.999999999985
 21
-577.0000000000008
 31
0.0
1001
ACDBBLOCKREPETAG
1070
     1
1071
      107
1005
1238BA
  0
LINE
  5
1238BB
  8
OBJECT
 10
2085.9999999999859
 20
-553.3502637757274
 30
0.0
 11
2085.9999999999859
 21
-655.00000000000068
 31
0.0
1001
ACDBBLOCKREPETAG
1070
     1
1071
      108
1005
1238BB
  0
LINE
  5
1238BC
  8
OBJECT
 10
2219.999999999985
 20
-577.0000000000008
 30
0.0
 11
2212.999999999985
 21
-577.0000000000008
 31
0.0
1001
ACDBBLOCKREPETAG
1070
     1
1071
      109
1005
1238BC
  0
LINE
  5
1238BD
  8
OBJECT
 10
2212.999999999985
 20
-577.0000000000008
 30
0.0
 11
2212.999999999985
 21
-453.0000000000008
 31
0.0
1001
ACDBBLOCKREPETAG
1070
     1
1071
      110
1005
1238BD
  0
LINE
  5
1238BE
  8
CENTER
 10
2144.999999999985
 20
-515.0000000000008
 30
0.0
 11
2234.9999999999859
 21
-515.0000000000008
 31
0.0
1001
ACDBBLOCKREPETAG
1070
     1
1071
      111
1005
1238BE
  0
LINE
  5
1238BF
  8
OBJECT
 10
2079.9999999999809
 20
-658.0
 30
0.0
 11
2082.999999999985
 21
-658.0000000000008
 31
0.0
1001
ACDBBLOCKREPETAG
1070
     1
1071
      112
1005
1238BF
  0
ARC
  5
1238C0
  8
OBJECT
 10
2082.999999999985
 20
-655.00000000000068
 30
0.0
 40
3.0
 50
270.0
 51
0.0
1001
ACDBBLOCKREPETAG
1070
     1
1071
      113
1005
1238C0
  0
LINE
  5
1238C1
  8
OBJECT
 10
2212.999999999985
 20
-456.0000000000008
 30
0.0
 11
2176.999999999985
 21
-456.0000000000008
 31
0.0
1001
ACDBBLOCKREPETAG
1070
     1
1071
      114
1005
1238C1
  0
LINE
  5
1238C2
  8
OBJECT
 10
2176.999999999985
 20
-456.0000000000008
 30
0.0
 11
2176.999999999985
 21
-553.15756805667843
 31
0.0
1001
ACDBBLOCKREPETAG
1070
     1
1071
      115
1005
1238C2
  0
LINE
  5
1238C3
  8
OBJECT
 10
2172.999999999985
 20
-460.5000000000008
 30
0.0
 11
2172.9999999999818
 21
-545.74491827928705
 31
0.0
1001
ACDBBLOCKREPETAG
1070
     1
1071
      116
1005
1238C3
  0
LINE
  5
1238C4
  8
OBJECT
 10
2172.999999999985
 20
-460.5000000000008
 30
0.0
 11
2159.999999999985
 21
-460.5000000000008
 31
0.0
1001
ACDBBLOCKREPETAG
1070
     1
1071
      117
1005
1238C4
  0
LINE
  5
1238C5
  8
OBJECT
 10
2168.6563168254688
 20
-574.0000000000008
 30
0.0
 11
2212.999999999985
 21
-574.0000000000008
 31
0.0
1001
ACDBBLOCKREPETAG
1070
     1
1071
      118
1005
1238C5
  0
LINE
  5
1238C6
  8
OBJECT
 10
2176.999999999985
 20
-456.0000000000008
 30
0.0
 11
2172.999999999985
 21
-460.5000000000008
 31
0.0
1001
ACDBBLOCKREPETAG
1070
     1
1071
      119
1005
1238C6
  0
LINE
  5
1238C7
  8
OBJECT
 10
2159.999999999985
 20
-460.5000000000008
 30
0.0
 11
2159.999999999985
 21
-545.74491827928784
 31
0.0
1001
ACDBBLOCKREPETAG
1070
     1
1071
      120
1005
1238C7
  0
ARC
  5
1238C8
  8
OBJECT
 10
2091.9999999999859
 20
-537.27386365609345
 30
0.0
 40
85.0
 50
308.59099323720869
 51
334.40086127812339
1001
ACDBBLOCKREPETAG
1070
     1
1071
      121
1005
1238C8
  0
ARC
  5
1238C9
  8
OBJECT
 10
2162.7999999999852
 20
-555.00000000000068
 30
0.0
 40
85.0
 50
91.887731891831123
 51
160.07406787456929
1001
ACDBBLOCKREPETAG
1070
     1
1071
      122
1005
1238C9
  0
LINE
  5
1238CA
  8
OBJECT
 10
2085.9999999999859
 20
-650.81075719270927
 30
0.0
 11
2145.0193225436019
 21
-603.71143914629465
 31
0.0
1001
ACDBBLOCKREPETAG
1070
     1
1071
      123
1005
1238CA
  0
LINE
  5
1238CB
  8
OBJECT
 10
2172.9999999999818
 20
-545.74491827928705
 30
0.0
 11
2159.999999999985
 21
-545.74491827928784
 31
0.0
1001
ACDBBLOCKREPETAG
1070
     1
1071
      124
1005
1238CB
  0
LINE
  5
1238CC
  8
OBJECT
 10
2176.999999999985
 20
-553.15756805667843
 30
0.0
 11
2172.9999999999818
 21
-545.74491827928705
 31
0.0
1001
ACDBBLOCKREPETAG
1070
     1
1071
      125
1005
1238CC
  0
LINE
  5
1238CD
  8
OBJECT
 10
2080.0000000000191
 20
-534.0
 30
0.0
 11
2082.8886121596229
 21
-526.03156729425325
 31
0.0
1001
ACDBBLOCKREPETAG
1070
     1
1071
      126
1005
1238CD
  0
LINE
  5
1238CE
  8
OBJECT
 10
2080.0000000000191
 20
-534.0
 30
0.0
 11
2085.9999999999859
 21
-553.3502637757274
 31
0.0
1001
ACDBBLOCKREPETAG
1070
     1
1071
      127
1005
1238CE
  0
LINE
  5
1238CF
  8
HIDDEN
 10
2167.999999999985
 20
-470.5000000000008
 30
0.0
 11
2167.999999999985
 21
-559.50000000000068
 31
0.0
1001
ACDBBLOCKREPETAG
1070
     1
1071
      129
1005
1238CF
  0
LINE
  5
1238D0
  8
OBJECT
 10
2212.999999999985
 20
-137.99999999999909
 30
0.0
 11
2219.999999999985
 21
-137.99999999999909
 31
0.0
1001
ACDBBLOCKREPETAG
1070
     1
1071
      110
1005
1238D0
  0
LINE
  5
1238D1
  8
OBJECT
 10
2219.999999999985
 20
-137.99999999999909
 30
0.0
 11
2219.999999999985
 21
-261.99999999999909
 31
0.0
1001
ACDBBLOCKREPETAG
1070
     1
1071
      111
1005
1238D1
  0
LINE
  5
1238D2
  8
OBJECT
 10
2219.999999999985
 20
-261.99999999999909
 30
0.0
 11
2212.999999999985
 21
-261.99999999999909
 31
0.0
1001
ACDBBLOCKREPETAG
1070
     1
1071
      112
1005
1238D2
  0
LINE
  5
1238D3
  8
OBJECT
 10
2212.999999999985
 20
-261.99999999999909
 30
0.0
 11
2212.999999999985
 21
-137.99999999999909
 31
0.0
1001
ACDBBLOCKREPETAG
1070
     1
1071
      113
1005
1238D3
  0
LINE
  5
1238D4
  8
CENTER
 10
2234.9999999999859
 20
-199.99999999999909
 30
0.0
 11
2080.0000000000041
 21
-199.99999999999909
 31
0.0
1001
ACDBBLOCKREPETAG
1070
     1
1071
      114
1005
1238D4
  0
LINE
  5
1238D5
  8
OBJECT
 10
2159.999974964187
 20
-245.0000000000027
 30
0.0
 11
2086.0
 21
-244.99999999999909
 31
0.0
1001
ACDBBLOCKREPETAG
1070
     1
1071
      115
1005
1238D5
  0
LINE
  5
1238D6
  8
OBJECT
 10
2159.999974964187
 20
-154.99999999999909
 30
0.0
 11
2086.0
 21
-154.99999999999909
 31
0.0
1001
ACDBBLOCKREPETAG
1070
     1
1071
      116
1005
1238D6
  0
LINE
  5
1238D7
  8
OBJECT
 10
2212.999999999985
 20
-140.99999999999909
 30
0.0
 11
2176.999999999985
 21
-140.99999999999909
 31
0.0
1001
ACDBBLOCKREPETAG
1070
     1
1071
      117
1005
1238D7
  0
LINE
  5
1238D8
  8
OBJECT
 10
2176.999999999985
 20
-140.99999999999909
 30
0.0
 11
2176.999999999985
 21
-258.99999999999909
 31
0.0
1001
ACDBBLOCKREPETAG
1070
     1
1071
      118
1005
1238D8
  0
LINE
  5
1238D9
  8
OBJECT
 10
2176.999999999985
 20
-258.99999999999909
 30
0.0
 11
2212.999999999985
 21
-258.99999999999909
 31
0.0
1001
ACDBBLOCKREPETAG
1070
     1
1071
      119
1005
1238D9
  0
LINE
  5
1238DA
  8
OBJECT
 10
2172.999999999985
 20
-145.49999999999909
 30
0.0
 11
2159.999999999985
 21
-145.49999999999909
 31
0.0
1001
ACDBBLOCKREPETAG
1070
     1
1071
      120
1005
1238DA
  0
LINE
  5
1238DB
  8
OBJECT
 10
2159.999999999985
 20
-254.49999999999909
 30
0.0
 11
2172.999999999985
 21
-254.49999999999909
 31
0.0
1001
ACDBBLOCKREPETAG
1070
     1
1071
      121
1005
1238DB
  0
LINE
  5
1238DC
  8
OBJECT
 10
2172.999999999985
 20
-254.49999999999909
 30
0.0
 11
2172.999999999985
 21
-145.49999999999909
 31
0.0
1001
ACDBBLOCKREPETAG
1070
     1
1071
      122
1005
1238DC
  0
LINE
  5
1238DD
  8
OBJECT
 10
2176.999999999985
 20
-140.99999999999909
 30
0.0
 11
2172.999999999985
 21
-145.49999999999909
 31
0.0
1001
ACDBBLOCKREPETAG
1070
     1
1071
      123
1005
1238DD
  0
LINE
  5
1238DE
  8
OBJECT
 10
2176.999999999985
 20
-258.99999999999909
 30
0.0
 11
2172.999999999985
 21
-254.49999999999909
 31
0.0
1001
ACDBBLOCKREPETAG
1070
     1
1071
      124
1005
1238DE
  0
LINE
  5
1238DF
  8
OBJECT
 10
2083.0
 20
-137.99999999999909
 30
0.0
 11
2080.0
 21
-137.99999999999909
 31
0.0
1001
ACDBBLOCKREPETAG
1070
     1
1071
      125
1005
1238DF
  0
ARC
  5
1238E0
  8
OBJECT
 10
2083.0
 20
-140.99999999999909
 30
0.0
 40
3.0
 50
0.0
 51
90.0
1001
ACDBBLOCKREPETAG
1070
     1
1071
      126
1005
1238E0
  0
LINE
  5
1238E1
  8
OBJECT
 10
2080.0
 20
-261.99999999999909
 30
0.0
 11
2083.0
 21
-261.99999999999909
 31
0.0
1001
ACDBBLOCKREPETAG
1070
     1
1071
      127
1005
1238E1
  0
ARC
  5
1238E2
  8
OBJECT
 10
2083.0
 20
-258.99999999999909
 30
0.0
 40
3.0
 50
270.0
 51
0.0
1001
ACDBBLOCKREPETAG
1070
     1
1071
      128
1005
1238E2
  0
LINE
  5
1238E3
  8
OBJECT
 10
2086.0
 20
-258.99999999999909
 30
0.0
 11
2086.0
 21
-222.44994432063581
 31
0.0
1001
ACDBBLOCKREPETAG
1070
     1
1071
      129
1005
1238E3
  0
LINE
  5
1238E4
  8
OBJECT
 10
2086.0
 20
-177.55005567935859
 30
0.0
 11
2086.0
 21
-140.99999999999909
 31
0.0
1001
ACDBBLOCKREPETAG
1070
     1
1071
      130
1005
1238E4
  0
LINE
  5
1238E5
  8
HIDDEN
 10
2167.999999999985
 20
-155.49999999999909
 30
0.0
 11
2167.999999999985
 21
-244.49999999999909
 31
0.0
1001
ACDBBLOCKREPETAG
1070
     1
1071
      131
1005
1238E5
  0
LINE
  5
1238E6
  8
OBJECT
 10
2159.999974964187
 20
-254.4999509238105
 30
0.0
 11
2159.999974964187
 21
-145.4999509238105
 31
0.0
1001
ACDBBLOCKREPETAG
1070
     1
1071
      133
1005
1238E6
  0
ARC
  5
1238E7
  8
OBJECT
 10
2125.0000000000032
 20
-199.99999999999909
 30
0.0
 40
45.000000000000547
 50
90.0
 51
270.0
1001
ACDBBLOCKREPETAG
1070
     1
1071
      134
1005
1238E7
  0
LINE
  5
1238E8
  8
SLIM
 10
11914.999999999991
 20
-659.47385309434696
 30
0.0
 11
11919.47385309434
 21
-654.99999999999966
 31
0.0
1001
ACAD
1010
0.0
1020
0.0
1030
0.0
1001
ACDBBLOCKREPETAG
1070
     1
1071
        0
1005
0
  0
LINE
  5
1238E9
  8
SLIM
 10
11914.999999999991
 20
-677.43436533648514
 30
0.0
 11
11937.434365336479
 21
-654.99999999999966
 31
0.0
1001
ACAD
1010
0.0
1020
0.0
1030
0.0
1001
ACDBBLOCKREPETAG
1070
     1
1071
       10
1005
1238E9
  0
LINE
  5
1238EA
  8
SLIM
 10
11914.999999999991
 20
-695.39487757862321
 30
0.0
 11
11955.39487757861
 21
-654.99999999999966
 31
0.0
1001
ACAD
1010
0.0
1020
0.0
1030
0.0
1001
ACDBBLOCKREPETAG
1070
     1
1071
       11
1005
1238EA
  0
LINE
  5
1238EB
  8
SLIM
 10
11914.999999999991
 20
-713.35538982076127
 30
0.0
 11
11973.35538982075
 21
-654.99999999999966
 31
0.0
1001
ACAD
1010
0.0
1020
0.0
1030
0.0
1001
ACDBBLOCKREPETAG
1070
     1
1071
       12
1005
1238EB
  0
LINE
  5
1238EC
  8
SLIM
 10
11914.999999999991
 20
-731.31590206289934
 30
0.0
 11
11991.31590206289
 21
-654.99999999999966
 31
0.0
1001
ACAD
1010
0.0
1020
0.0
1030
0.0
1001
ACDBBLOCKREPETAG
1070
     1
1071
       13
1005
1238EC
  0
LINE
  5
1238ED
  8
SLIM
 10
11914.999999999991
 20
-749.27641430503695
 30
0.0
 11
12009.27641430503
 21
-654.99999999999966
 31
0.0
1001
ACAD
1010
0.0
1020
0.0
1030
0.0
1001
ACDBBLOCKREPETAG
1070
     1
1071
       14
1005
1238ED
  0
LINE
  5
1238EE
  8
SLIM
 10
11914.999999999991
 20
-767.23692654717524
 30
0.0
 11
12027.23692654717
 21
-654.99999999999966
 31
0.0
1001
ACAD
1010
0.0
1020
0.0
1030
0.0
1001
ACDBBLOCKREPETAG
1070
     1
1071
       15
1005
1238EE
  0
LINE
  5
1238EF
  8
SLIM
 10
11914.999999999991
 20
-785.19743878931354
 30
0.0
 11
12045.19743878931
 21
-654.99999999999966
 31
0.0
1001
ACAD
1010
0.0
1020
0.0
1030
0.0
1001
ACDBBLOCKREPETAG
1070
     1
1071
       16
1005
1238EF
  0
LINE
  5
1238F0
  8
SLIM
 10
11914.999999999991
 20
-803.1579510314516
 30
0.0
 11
12063.15795103144
 21
-654.99999999999966
 31
0.0
1001
ACAD
1010
0.0
1020
0.0
1030
0.0
1001
ACDBBLOCKREPETAG
1070
     1
1071
       17
1005
1238F0
  0
LINE
  5
1238F1
  8
SLIM
 10
11914.999999999991
 20
-821.11846327358955
 30
0.0
 11
12081.11846327358
 21
-654.99999999999966
 31
0.0
1001
ACAD
1010
0.0
1020
0.0
1030
0.0
1001
ACDBBLOCKREPETAG
1070
     1
1071
       18
1005
1238F1
  0
LINE
  5
1238F2
  8
SLIM
 10
11914.999999999991
 20
-839.07897551572751
 30
0.0
 11
12085.000000000009
 21
-669.07897551571614
 31
0.0
1001
ACAD
1010
0.0
1020
0.0
1030
0.0
1001
ACDBBLOCKREPETAG
1070
     1
1071
       19
1005
1238F2
  0
LINE
  5
1238F3
  8
SLIM
 10
11915.0
 20
-857.03948775786546
 30
0.0
 11
12085.000000000009
 21
-687.03948775785454
 31
0.0
1001
ACAD
1010
0.0
1020
0.0
1030
0.0
1001
ACDBBLOCKREPETAG
1070
     1
1071
       20
1005
1238F3
  0
LINE
  5
1238F4
  8
SLIM
 10
11915.0
 20
-875.00000000000375
 30
0.0
 11
12085.0
 21
-704.99999999999329
 31
0.0
1001
ACAD
1010
0.0
1020
0.0
1030
0.0
1001
ACDBBLOCKREPETAG
1070
     1
1071
       21
1005
1238F4
  0
LINE
  5
1238F5
  8
SLIM
 10
11915.0
 20
-892.9605122421417
 30
0.0
 11
12085.0
 21
-722.96051224213159
 31
0.0
1001
ACAD
1010
0.0
1020
0.0
1030
0.0
1001
ACDBBLOCKREPETAG
1070
     1
1071
       22
1005
1238F5
  0
LINE
  5
1238F6
  8
SLIM
 10
11915.0
 20
-910.92102448427966
 30
0.0
 11
12085.0
 21
-740.92102448427033
 31
0.0
1001
ACAD
1010
0.0
1020
0.0
1030
0.0
1001
ACDBBLOCKREPETAG
1070
     1
1071
       23
1005
1238F6
  0
LINE
  5
1238F7
  8
SLIM
 10
11915.0
 20
-928.88153672641772
 30
0.0
 11
12085.0
 21
-758.88153672640874
 31
0.0
1001
ACAD
1010
0.0
1020
0.0
1030
0.0
1001
ACDBBLOCKREPETAG
1070
     1
1071
       24
1005
1238F7
  0
LINE
  5
1238F8
  8
SLIM
 10
11915.0
 20
-946.8420489685559
 30
0.0
 11
12085.0
 21
-776.84204896854737
 31
0.0
1001
ACAD
1010
0.0
1020
0.0
1030
0.0
1001
ACDBBLOCKREPETAG
1070
     1
1071
       25
1005
1238F8
  0
LINE
  5
1238F9
  8
SLIM
 10
11915.0
 20
-964.80256121069385
 30
0.0
 11
12085.0
 21
-794.80256121068624
 31
0.0
1001
ACAD
1010
0.0
1020
0.0
1030
0.0
1001
ACDBBLOCKREPETAG
1070
     1
1071
       26
1005
1238F9
  0
LINE
  5
1238FA
  8
SLIM
 10
11915.0
 20
-982.76307345283203
 30
0.0
 11
12085.0
 21
-812.76307345282464
 31
0.0
1001
ACAD
1010
0.0
1020
0.0
1030
0.0
1001
ACDBBLOCKREPETAG
1070
     1
1071
       27
1005
1238FA
  0
LINE
  5
1238FB
  8
SLIM
 10
11915.0
 20
-1000.72358569497
 30
0.0
 11
12085.0
 21
-830.72358569496294
 31
0.0
1001
ACAD
1010
0.0
1020
0.0
1030
0.0
1001
ACDBBLOCKREPETAG
1070
     1
1071
       28
1005
1238FB
  0
LINE
  5
1238FC
  8
SLIM
 10
11915.0
 20
-1018.684097937108
 30
0.0
 11
12085.0
 21
-848.68409793710146
 31
0.0
1001
ACAD
1010
0.0
1020
0.0
1030
0.0
1001
ACDBBLOCKREPETAG
1070
     1
1071
       29
1005
1238FC
  0
LINE
  5
1238FD
  8
SLIM
 10
11915.0
 20
-1036.644610179246
 30
0.0
 11
12085.0
 21
-866.64461017923998
 31
0.0
1001
ACAD
1010
0.0
1020
0.0
1030
0.0
1001
ACDBBLOCKREPETAG
1070
     1
1071
       30
1005
1238FD
  0
LINE
  5
1238FE
  8
SLIM
 10
11915.0
 20
-1054.6051224213841
 30
0.0
 11
12085.0
 21
-884.60512242137895
 31
0.0
1001
ACAD
1010
0.0
1020
0.0
1030
0.0
1001
ACDBBLOCKREPETAG
1070
     1
1071
       31
1005
1238FE
  0
LINE
  5
1238FF
  8
SLIM
 10
11915.0
 20
-1072.5656346635219
 30
0.0
 11
12085.0
 21
-902.56563466351713
 31
0.0
1001
ACAD
1010
0.0
1020
0.0
1030
0.0
1001
ACDBBLOCKREPETAG
1070
     1
1071
       32
1005
1238FF
  0
LINE
  5
123900
  8
SLIM
 10
11915.0
 20
-1090.52614690566
 30
0.0
 11
12085.0
 21
-920.52614690565599
 31
0.0
1001
ACAD
1010
0.0
1020
0.0
1030
0.0
1001
ACDBBLOCKREPETAG
1070
     1
1071
       33
1005
123900
  0
LINE
  5
123901
  8
SLIM
 10
11915.0
 20
-1108.486659147798
 30
0.0
 11
12085.0
 21
-938.4866591477944
 31
0.0
1001
ACAD
1010
0.0
1020
0.0
1030
0.0
1001
ACDBBLOCKREPETAG
1070
     1
1071
       34
1005
123901
  0
LINE
  5
123902
  8
SLIM
 10
11915.0
 20
-1126.4471713899361
 30
0.0
 11
12085.0
 21
-956.44717138993303
 31
0.0
1001
ACAD
1010
0.0
1020
0.0
1030
0.0
1001
ACDBBLOCKREPETAG
1070
     1
1071
       35
1005
123902
  0
LINE
  5
123903
  8
SLIM
 10
11915.0
 20
-1144.4076836320739
 30
0.0
 11
12085.0
 21
-974.4076836320711
 31
0.0
1001
ACAD
1010
0.0
1020
0.0
1030
0.0
1001
ACDBBLOCKREPETAG
1070
     1
1071
       36
1005
123903
  0
LINE
  5
123904
  8
SLIM
 10
11915.575570103911
 20
-1161.7926257702991
 30
0.0
 11
12085.0
 21
-992.36819587420985
 31
0.0
1001
ACAD
1010
0.0
1020
0.0
1030
0.0
1001
ACDBBLOCKREPETAG
1070
     1
1071
       37
1005
123904
  0
LINE
  5
123905
  8
SLIM
 10
11917.789879832389
 20
-1177.538828283954
 30
0.0
 11
12085.0
 21
-1010.328708116349
 31
0.0
1001
ACAD
1010
0.0
1020
0.0
1030
0.0
1001
ACDBBLOCKREPETAG
1070
     1
1071
       38
1005
123905
  0
LINE
  5
123906
  8
SLIM
 10
11920.004189560879
 20
-1193.28503079761
 30
0.0
 11
12085.0
 21
-1028.289220358487
 31
0.0
1001
ACAD
1010
0.0
1020
0.0
1030
0.0
1001
ACDBBLOCKREPETAG
1070
     1
1071
       39
1005
123906
  0
LINE
  5
123907
  8
SLIM
 10
11922.21849928936
 20
-1209.0312333112661
 30
0.0
 11
12085.0
 21
-1046.2497326006251
 31
0.0
1001
ACAD
1010
0.0
1020
0.0
1030
0.0
1001
ACDBBLOCKREPETAG
1070
     1
1071
       40
1005
123907
  0
LINE
  5
123908
  8
SLIM
 10
11924.432809017841
 20
-1224.777435824921
 30
0.0
 11
12085.0
 21
-1064.210244842764
 31
0.0
1001
ACAD
1010
0.0
1020
0.0
1030
0.0
1001
ACDBBLOCKREPETAG
1070
     1
1071
       41
1005
123908
  0
LINE
  5
123909
  8
SLIM
 10
11926.64711874633
 20
-1240.5236383385759
 30
0.0
 11
12085.0
 21
-1082.170757084903
 31
0.0
1001
ACAD
1010
0.0
1020
0.0
1030
0.0
1001
ACDBBLOCKREPETAG
1070
     1
1071
       42
1005
123909
  0
LINE
  5
12390A
  8
SLIM
 10
11928.861428474809
 20
-1256.2698408522319
 30
0.0
 11
12085.0
 21
-1100.1312693270411
 31
0.0
1001
ACAD
1010
0.0
1020
0.0
1030
0.0
1001
ACDBBLOCKREPETAG
1070
     1
1071
       43
1005
12390A
  0
LINE
  5
12390B
  8
SLIM
 10
11931.07573820329
 20
-1272.0160433658871
 30
0.0
 11
12085.0
 21
-1118.0917815691801
 31
0.0
1001
ACAD
1010
0.0
1020
0.0
1030
0.0
1001
ACDBBLOCKREPETAG
1070
     1
1071
       44
1005
12390B
  0
LINE
  5
12390C
  8
SLIM
 10
11932.999999999991
 20
-1288.0522938113261
 30
0.0
 11
12085.0
 21
-1136.0522938113179
 31
0.0
1001
ACAD
1010
0.0
1020
0.0
1030
0.0
1001
ACDBBLOCKREPETAG
1070
     1
1071
       45
1005
12390C
  0
LINE
  5
12390D
  8
SLIM
 10
11932.999999999991
 20
-1306.0128060534639
 30
0.0
 11
12085.0
 21
-1154.0128060534571
 31
0.0
1001
ACAD
1010
0.0
1020
0.0
1030
0.0
1001
ACDBBLOCKREPETAG
1070
     1
1071
       46
1005
12390D
  0
LINE
  5
12390E
  8
SLIM
 10
11932.999999999991
 20
-1323.9733182956029
 30
0.0
 11
12082.664314193131
 21
-1174.3090041024641
 31
0.0
1001
ACAD
1010
0.0
1020
0.0
1030
0.0
1001
ACDBBLOCKREPETAG
1070
     1
1071
       47
1005
12390E
  0
LINE
  5
12390F
  8
SLIM
 10
11949.93383053773
 20
-1324.9999999999959
 30
0.0
 11
12079.725321280779
 21
-1195.2085092569509
 31
0.0
1001
ACAD
1010
0.0
1020
0.0
1030
0.0
1001
ACDBBLOCKREPETAG
1070
     1
1071
       48
1005
12390F
  0
LINE
  5
123910
  8
SLIM
 10
11967.89434277986
 20
-1324.999999999997
 30
0.0
 11
12076.78632836842
 21
-1216.1080144114389
 31
0.0
1001
ACAD
1010
0.0
1020
0.0
1030
0.0
1001
ACDBBLOCKREPETAG
1070
     1
1071
       49
1005
123910
  0
LINE
  5
123911
  8
SLIM
 10
11985.854855022009
 20
-1324.999999999997
 30
0.0
 11
12073.847335456079
 21
-1237.007519565926
 31
0.0
1001
ACAD
1010
0.0
1020
0.0
1030
0.0
1001
ACDBBLOCKREPETAG
1070
     1
1071
       50
1005
123911
  0
LINE
  5
123912
  8
SLIM
 10
12003.815367264149
 20
-1324.999999999997
 30
0.0
 11
12070.908342543729
 21
-1257.907024720412
 31
0.0
1001
ACAD
1010
0.0
1020
0.0
1030
0.0
1001
ACDBBLOCKREPETAG
1070
     1
1071
       51
1005
123912
  0
LINE
  5
123913
  8
SLIM
 10
12021.775879506289
 20
-1324.999999999998
 30
0.0
 11
12067.969349631379
 21
-1278.8065298749
 31
0.0
1001
ACAD
1010
0.0
1020
0.0
1030
0.0
1001
ACDBBLOCKREPETAG
1070
     1
1071
       52
1005
123913
  0
LINE
  5
123914
  8
SLIM
 10
12039.736391748431
 20
-1324.999999999998
 30
0.0
 11
12067.0
 21
-1297.736391748414
 31
0.0
1001
ACAD
1010
0.0
1020
0.0
1030
0.0
1001
ACDBBLOCKREPETAG
1070
     1
1071
       53
1005
123914
  0
LINE
  5
123915
  8
SLIM
 10
12057.69690399056
 20
-1324.9999999999991
 30
0.0
 11
12067.0
 21
-1315.696903990553
 31
0.0
1001
ACAD
1010
0.0
1020
0.0
1030
0.0
1001
ACDBBLOCKREPETAG
1070
     1
1071
       54
1005
123915
  0
LINE
  5
123916
  8
OBJECT
 10
11932.999999999991
 20
-1324.9999999999959
 30
0.0
 11
12067.0
 21
-1324.9999999999991
 31
0.0
1001
ACDBBLOCKREPETAG
1070
     1
1071
        1
1005
123916
  0
LINE
  5
123917
  8
OBJECT
 10
11914.999999999991
 20
-654.99999999999966
 30
0.0
 11
11915.0
 21
-1157.699682809141
 31
0.0
1001
ACDBBLOCKREPETAG
1070
     1
1071
        2
1005
123917
  0
LINE
  5
123918
  8
OBJECT
 10
12085.000000000009
 20
-654.99999999999966
 30
0.0
 11
12085.0
 21
-1157.6996828091719
 31
0.0
1001
ACDBBLOCKREPETAG
1070
     1
1071
        3
1005
123918
  0
LINE
  5
123919
  8
OBJECT
 10
11915.0
 20
-1157.699682809141
 30
0.0
 11
11932.999999999991
 21
-1285.699682809081
 31
0.0
1001
ACDBBLOCKREPETAG
1070
     1
1071
        4
1005
123919
  0
LINE
  5
12391A
  8
OBJECT
 10
12067.0
 20
-1285.699682809128
 30
0.0
 11
12085.0
 21
-1157.6996828091719
 31
0.0
1001
ACDBBLOCKREPETAG
1070
     1
1071
        5
1005
12391A
  0
LINE
  5
12391B
  8
OBJECT
 10
12085.000000000009
 20
-654.99999999999966
 30
0.0
 11
11914.999999999991
 21
-654.99999999999966
 31
0.0
1001
ACDBBLOCKREPETAG
1070
     1
1071
        6
1005
12391B
  0
LINE
  5
12391C
  8
OBJECT
 10
11932.999999999991
 20
-1285.699682809081
 30
0.0
 11
11932.999999999991
 21
-1324.9999999999959
 31
0.0
1001
ACDBBLOCKREPETAG
1070
     1
1071
        8
1005
12391C
  0
LINE
  5
12391D
  8
OBJECT
 10
12067.0
 20
-1285.699682809128
 30
0.0
 11
12067.0
 21
-1324.9999999999991
 31
0.0
1001
ACDBBLOCKREPETAG
1070
     1
1071
        9
1005
12391D
  0
LINE
  5
12391E
  8
SLIM
 10
9914.9999999999927
 20
-659.47385309434696
 30
0.0
 11
9919.4738530943396
 21
-654.99999999999966
 31
0.0
1001
ACAD
1010
0.0
1020
0.0
1030
0.0
1001
ACDBBLOCKREPETAG
1070
     1
1071
        0
1005
0
  0
LINE
  5
12391F
  8
SLIM
 10
9914.9999999999927
 20
-677.43436533648514
 30
0.0
 11
9937.4343653364795
 21
-654.99999999999966
 31
0.0
1001
ACAD
1010
0.0
1020
0.0
1030
0.0
1001
ACDBBLOCKREPETAG
1070
     1
1071
       10
1005
12391F
  0
LINE
  5
123920
  8
SLIM
 10
9914.9999999999927
 20
-695.39487757862321
 30
0.0
 11
9955.3948775786212
 21
-654.99999999999966
 31
0.0
1001
ACAD
1010
0.0
1020
0.0
1030
0.0
1001
ACDBBLOCKREPETAG
1070
     1
1071
       11
1005
123920
  0
LINE
  5
123921
  8
SLIM
 10
9914.9999999999927
 20
-713.35538982076127
 30
0.0
 11
9973.3553898207556
 21
-654.99999999999966
 31
0.0
1001
ACAD
1010
0.0
1020
0.0
1030
0.0
1001
ACDBBLOCKREPETAG
1070
     1
1071
       12
1005
123921
  0
LINE
  5
123922
  8
SLIM
 10
9914.9999999999945
 20
-731.31590206289934
 30
0.0
 11
9991.3159020628937
 21
-654.99999999999966
 31
0.0
1001
ACAD
1010
0.0
1020
0.0
1030
0.0
1001
ACDBBLOCKREPETAG
1070
     1
1071
       13
1005
123922
  0
LINE
  5
123923
  8
SLIM
 10
9914.9999999999945
 20
-749.27641430503695
 30
0.0
 11
10009.27641430503
 21
-654.99999999999966
 31
0.0
1001
ACAD
1010
0.0
1020
0.0
1030
0.0
1001
ACDBBLOCKREPETAG
1070
     1
1071
       14
1005
123923
  0
LINE
  5
123924
  8
SLIM
 10
9914.9999999999945
 20
-767.23692654717524
 30
0.0
 11
10027.23692654717
 21
-654.99999999999966
 31
0.0
1001
ACAD
1010
0.0
1020
0.0
1030
0.0
1001
ACDBBLOCKREPETAG
1070
     1
1071
       15
1005
123924
  0
LINE
  5
123925
  8
SLIM
 10
9914.9999999999945
 20
-785.19743878931354
 30
0.0
 11
10045.19743878931
 21
-654.99999999999966
 31
0.0
1001
ACAD
1010
0.0
1020
0.0
1030
0.0
1001
ACDBBLOCKREPETAG
1070
     1
1071
       16
1005
123925
  0
LINE
  5
123926
  8
SLIM
 10
9914.9999999999945
 20
-803.1579510314516
 30
0.0
 11
10063.15795103144
 21
-654.99999999999966
 31
0.0
1001
ACAD
1010
0.0
1020
0.0
1030
0.0
1001
ACDBBLOCKREPETAG
1070
     1
1071
       17
1005
123926
  0
LINE
  5
123927
  8
SLIM
 10
9914.9999999999945
 20
-821.11846327358955
 30
0.0
 11
10081.11846327358
 21
-654.99999999999966
 31
0.0
1001
ACAD
1010
0.0
1020
0.0
1030
0.0
1001
ACDBBLOCKREPETAG
1070
     1
1071
       18
1005
123927
  0
LINE
  5
123928
  8
SLIM
 10
9914.9999999999945
 20
-839.07897551572751
 30
0.0
 11
10085.000000000009
 21
-669.07897551571614
 31
0.0
1001
ACAD
1010
0.0
1020
0.0
1030
0.0
1001
ACDBBLOCKREPETAG
1070
     1
1071
       19
1005
123928
  0
LINE
  5
123929
  8
SLIM
 10
9914.9999999999964
 20
-857.03948775786546
 30
0.0
 11
10085.000000000009
 21
-687.03948775785454
 31
0.0
1001
ACAD
1010
0.0
1020
0.0
1030
0.0
1001
ACDBBLOCKREPETAG
1070
     1
1071
       20
1005
123929
  0
LINE
  5
12392A
  8
SLIM
 10
9914.9999999999964
 20
-875.00000000000375
 30
0.0
 11
10085.0
 21
-704.99999999999329
 31
0.0
1001
ACAD
1010
0.0
1020
0.0
1030
0.0
1001
ACDBBLOCKREPETAG
1070
     1
1071
       21
1005
12392A
  0
LINE
  5
12392B
  8
SLIM
 10
9914.9999999999964
 20
-892.9605122421417
 30
0.0
 11
10085.0
 21
-722.96051224213159
 31
0.0
1001
ACAD
1010
0.0
1020
0.0
1030
0.0
1001
ACDBBLOCKREPETAG
1070
     1
1071
       22
1005
12392B
  0
LINE
  5
12392C
  8
SLIM
 10
9914.9999999999964
 20
-910.92102448427966
 30
0.0
 11
10085.0
 21
-740.92102448427033
 31
0.0
1001
ACAD
1010
0.0
1020
0.0
1030
0.0
1001
ACDBBLOCKREPETAG
1070
     1
1071
       23
1005
12392C
  0
LINE
  5
12392D
  8
SLIM
 10
9914.9999999999964
 20
-928.88153672641772
 30
0.0
 11
10085.0
 21
-758.88153672640874
 31
0.0
1001
ACAD
1010
0.0
1020
0.0
1030
0.0
1001
ACDBBLOCKREPETAG
1070
     1
1071
       24
1005
12392D
  0
LINE
  5
12392E
  8
SLIM
 10
9914.9999999999964
 20
-946.8420489685559
 30
0.0
 11
10085.0
 21
-776.84204896854737
 31
0.0
1001
ACAD
1010
0.0
1020
0.0
1030
0.0
1001
ACDBBLOCKREPETAG
1070
     1
1071
       25
1005
12392E
  0
LINE
  5
12392F
  8
SLIM
 10
9914.9999999999964
 20
-964.80256121069385
 30
0.0
 11
10085.0
 21
-794.80256121068624
 31
0.0
1001
ACAD
1010
0.0
1020
0.0
1030
0.0
1001
ACDBBLOCKREPETAG
1070
     1
1071
       26
1005
12392F
  0
LINE
  5
123930
  8
SLIM
 10
9914.9999999999982
 20
-982.76307345283203
 30
0.0
 11
10085.0
 21
-812.76307345282464
 31
0.0
1001
ACAD
1010
0.0
1020
0.0
1030
0.0
1001
ACDBBLOCKREPETAG
1070
     1
1071
       27
1005
123930
  0
LINE
  5
123931
  8
SLIM
 10
9914.9999999999982
 20
-1000.72358569497
 30
0.0
 11
10085.0
 21
-830.72358569496294
 31
0.0
1001
ACAD
1010
0.0
1020
0.0
1030
0.0
1001
ACDBBLOCKREPETAG
1070
     1
1071
       28
1005
123931
  0
LINE
  5
123932
  8
SLIM
 10
9914.9999999999982
 20
-1018.684097937108
 30
0.0
 11
10085.0
 21
-848.68409793710146
 31
0.0
1001
ACAD
1010
0.0
1020
0.0
1030
0.0
1001
ACDBBLOCKREPETAG
1070
     1
1071
       29
1005
123932
  0
LINE
  5
123933
  8
SLIM
 10
9914.9999999999982
 20
-1036.644610179246
 30
0.0
 11
10085.0
 21
-866.64461017923998
 31
0.0
1001
ACAD
1010
0.0
1020
0.0
1030
0.0
1001
ACDBBLOCKREPETAG
1070
     1
1071
       30
1005
123933
  0
LINE
  5
123934
  8
SLIM
 10
9914.9999999999982
 20
-1054.6051224213841
 30
0.0
 11
10085.0
 21
-884.60512242137895
 31
0.0
1001
ACAD
1010
0.0
1020
0.0
1030
0.0
1001
ACDBBLOCKREPETAG
1070
     1
1071
       31
1005
123934
  0
LINE
  5
123935
  8
SLIM
 10
9914.9999999999982
 20
-1072.5656346635219
 30
0.0
 11
10085.0
 21
-902.56563466351713
 31
0.0
1001
ACAD
1010
0.0
1020
0.0
1030
0.0
1001
ACDBBLOCKREPETAG
1070
     1
1071
       32
1005
123935
  0
LINE
  5
123936
  8
SLIM
 10
9914.9999999999982
 20
-1090.52614690566
 30
0.0
 11
10085.0
 21
-920.52614690565599
 31
0.0
1001
ACAD
1010
0.0
1020
0.0
1030
0.0
1001
ACDBBLOCKREPETAG
1070
     1
1071
       33
1005
123936
  0
LINE
  5
123937
  8
SLIM
 10
9915.0
 20
-1108.486659147798
 30
0.0
 11
10085.0
 21
-938.4866591477944
 31
0.0
1001
ACAD
1010
0.0
1020
0.0
1030
0.0
1001
ACDBBLOCKREPETAG
1070
     1
1071
       34
1005
123937
  0
LINE
  5
123938
  8
SLIM
 10
9915.0
 20
-1126.4471713899361
 30
0.0
 11
10085.0
 21
-956.44717138993303
 31
0.0
1001
ACAD
1010
0.0
1020
0.0
1030
0.0
1001
ACDBBLOCKREPETAG
1070
     1
1071
       35
1005
123938
  0
LINE
  5
123939
  8
SLIM
 10
9915.0
 20
-1144.4076836320739
 30
0.0
 11
10085.0
 21
-974.4076836320711
 31
0.0
1001
ACAD
1010
0.0
1020
0.0
1030
0.0
1001
ACDBBLOCKREPETAG
1070
     1
1071
       36
1005
123939
  0
LINE
  5
12393A
  8
SLIM
 10
9915.5755701039125
 20
-1161.7926257702991
 30
0.0
 11
10085.0
 21
-992.36819587420985
 31
0.0
1001
ACAD
1010
0.0
1020
0.0
1030
0.0
1001
ACDBBLOCKREPETAG
1070
     1
1071
       37
1005
12393A
  0
LINE
  5
12393B
  8
SLIM
 10
9917.7898798323986
 20
-1177.538828283954
 30
0.0
 11
10085.0
 21
-1010.328708116349
 31
0.0
1001
ACAD
1010
0.0
1020
0.0
1030
0.0
1001
ACDBBLOCKREPETAG
1070
     1
1071
       38
1005
12393B
  0
LINE
  5
12393C
  8
SLIM
 10
9920.0041895608792
 20
-1193.28503079761
 30
0.0
 11
10085.0
 21
-1028.289220358487
 31
0.0
1001
ACAD
1010
0.0
1020
0.0
1030
0.0
1001
ACDBBLOCKREPETAG
1070
     1
1071
       39
1005
12393C
  0
LINE
  5
12393D
  8
SLIM
 10
9922.2184992893599
 20
-1209.0312333112661
 30
0.0
 11
10085.0
 21
-1046.2497326006251
 31
0.0
1001
ACAD
1010
0.0
1020
0.0
1030
0.0
1001
ACDBBLOCKREPETAG
1070
     1
1071
       40
1005
12393D
  0
LINE
  5
12393E
  8
SLIM
 10
9924.4328090178442
 20
-1224.777435824921
 30
0.0
 11
10085.0
 21
-1064.210244842764
 31
0.0
1001
ACAD
1010
0.0
1020
0.0
1030
0.0
1001
ACDBBLOCKREPETAG
1070
     1
1071
       41
1005
12393E
  0
LINE
  5
12393F
  8
SLIM
 10
9926.6471187463285
 20
-1240.5236383385759
 30
0.0
 11
10085.0
 21
-1082.170757084903
 31
0.0
1001
ACAD
1010
0.0
1020
0.0
1030
0.0
1001
ACDBBLOCKREPETAG
1070
     1
1071
       42
1005
12393F
  0
LINE
  5
123940
  8
SLIM
 10
9928.8614284748091
 20
-1256.2698408522319
 30
0.0
 11
10085.0
 21
-1100.1312693270411
 31
0.0
1001
ACAD
1010
0.0
1020
0.0
1030
0.0
1001
ACDBBLOCKREPETAG
1070
     1
1071
       43
1005
123940
  0
LINE
  5
123941
  8
SLIM
 10
9931.0757382032916
 20
-1272.0160433658871
 30
0.0
 11
10085.0
 21
-1118.0917815691801
 31
0.0
1001
ACAD
1010
0.0
1020
0.0
1030
0.0
1001
ACDBBLOCKREPETAG
1070
     1
1071
       44
1005
123941
  0
LINE
  5
123942
  8
SLIM
 10
9932.9999999999927
 20
-1288.0522938113261
 30
0.0
 11
10085.0
 21
-1136.0522938113179
 31
0.0
1001
ACAD
1010
0.0
1020
0.0
1030
0.0
1001
ACDBBLOCKREPETAG
1070
     1
1071
       45
1005
123942
  0
LINE
  5
123943
  8
SLIM
 10
9932.9999999999927
 20
-1306.0128060534639
 30
0.0
 11
10085.0
 21
-1154.0128060534571
 31
0.0
1001
ACAD
1010
0.0
1020
0.0
1030
0.0
1001
ACDBBLOCKREPETAG
1070
     1
1071
       46
1005
123943
  0
LINE
  5
123944
  8
SLIM
 10
9932.9999999999927
 20
-1323.9733182956029
 30
0.0
 11
10082.664314193131
 21
-1174.3090041024641
 31
0.0
1001
ACAD
1010
0.0
1020
0.0
1030
0.0
1001
ACDBBLOCKREPETAG
1070
     1
1071
       47
1005
123944
  0
LINE
  5
123945
  8
SLIM
 10
9949.9338305377387
 20
-1324.9999999999959
 30
0.0
 11
10079.725321280779
 21
-1195.2085092569509
 31
0.0
1001
ACAD
1010
0.0
1020
0.0
1030
0.0
1001
ACDBBLOCKREPETAG
1070
     1
1071
       48
1005
123945
  0
LINE
  5
123946
  8
SLIM
 10
9967.8943427798768
 20
-1324.999999999997
 30
0.0
 11
10076.786328368429
 21
-1216.1080144114389
 31
0.0
1001
ACAD
1010
0.0
1020
0.0
1030
0.0
1001
ACDBBLOCKREPETAG
1070
     1
1071
       49
1005
123946
  0
LINE
  5
123947
  8
SLIM
 10
9985.8548550220112
 20
-1324.999999999997
 30
0.0
 11
10073.847335456079
 21
-1237.007519565926
 31
0.0
1001
ACAD
1010
0.0
1020
0.0
1030
0.0
1001
ACDBBLOCKREPETAG
1070
     1
1071
       50
1005
123947
  0
LINE
  5
123948
  8
SLIM
 10
10003.815367264149
 20
-1324.999999999997
 30
0.0
 11
10070.90834254372
 21
-1257.907024720412
 31
0.0
1001
ACAD
1010
0.0
1020
0.0
1030
0.0
1001
ACDBBLOCKREPETAG
1070
     1
1071
       51
1005
123948
  0
LINE
  5
123949
  8
SLIM
 10
10021.77587950628
 20
-1324.999999999998
 30
0.0
 11
10067.969349631379
 21
-1278.8065298749
 31
0.0
1001
ACAD
1010
0.0
1020
0.0
1030
0.0
1001
ACDBBLOCKREPETAG
1070
     1
1071
       52
1005
123949
  0
LINE
  5
12394A
  8
SLIM
 10
10039.736391748431
 20
-1324.999999999998
 30
0.0
 11
10067.000000000009
 21
-1297.736391748414
 31
0.0
1001
ACAD
1010
0.0
1020
0.0
1030
0.0
1001
ACDBBLOCKREPETAG
1070
     1
1071
       53
1005
12394A
  0
LINE
  5
12394B
  8
SLIM
 10
10057.69690399056
 20
-1324.9999999999991
 30
0.0
 11
10067.000000000009
 21
-1315.696903990553
 31
0.0
1001
ACAD
1010
0.0
1020
0.0
1030
0.0
1001
ACDBBLOCKREPETAG
1070
     1
1071
       54
1005
12394B
  0
LINE
  5
12394C
  8
OBJECT
 10
9932.9999999999927
 20
-1324.9999999999959
 30
0.0
 11
10067.000000000009
 21
-1324.9999999999991
 31
0.0
1001
ACDBBLOCKREPETAG
1070
     1
1071
        1
1005
12394C
  0
LINE
  5
12394D
  8
OBJECT
 10
9914.9999999999927
 20
-654.99999999999966
 30
0.0
 11
9915.0
 21
-1157.699682809141
 31
0.0
1001
ACDBBLOCKREPETAG
1070
     1
1071
        2
1005
12394D
  0
LINE
  5
12394E
  8
OBJECT
 10
10085.000000000009
 20
-654.99999999999966
 30
0.0
 11
10085.0
 21
-1157.6996828091719
 31
0.0
1001
ACDBBLOCKREPETAG
1070
     1
1071
        3
1005
12394E
  0
LINE
  5
12394F
  8
OBJECT
 10
9915.0
 20
-1157.699682809141
 30
0.0
 11
9932.9999999999927
 21
-1285.699682809081
 31
0.0
1001
ACDBBLOCKREPETAG
1070
     1
1071
        4
1005
12394F
  0
LINE
  5
123950
  8
OBJECT
 10
10067.000000000009
 20
-1285.699682809128
 30
0.0
 11
10085.0
 21
-1157.6996828091719
 31
0.0
1001
ACDBBLOCKREPETAG
1070
     1
1071
        5
1005
123950
  0
LINE
  5
123951
  8
OBJECT
 10
10085.000000000009
 20
-654.99999999999966
 30
0.0
 11
9914.9999999999927
 21
-654.99999999999966
 31
0.0
1001
ACDBBLOCKREPETAG
1070
     1
1071
        6
1005
123951
  0
LINE
  5
123952
  8
OBJECT
 10
9932.9999999999927
 20
-1285.699682809081
 30
0.0
 11
9932.9999999999927
 21
-1324.9999999999959
 31
0.0
1001
ACDBBLOCKREPETAG
1070
     1
1071
        8
1005
123952
  0
LINE
  5
123953
  8
OBJECT
 10
10067.000000000009
 20
-1285.699682809128
 30
0.0
 11
10067.000000000009
 21
-1324.9999999999991
 31
0.0
1001
ACDBBLOCKREPETAG
1070
     1
1071
        9
1005
123953
  0
LINE
  5
123954
  8
SLIM
 10
7914.9999999999918
 20
-659.47385309434696
 30
0.0
 11
7919.4738530943414
 21
-654.99999999999966
 31
0.0
1001
ACAD
1010
0.0
1020
0.0
1030
0.0
1001
ACDBBLOCKREPETAG
1070
     1
1071
        0
1005
0
  0
LINE
  5
123955
  8
SLIM
 10
7914.9999999999918
 20
-677.43436533648514
 30
0.0
 11
7937.4343653364776
 21
-654.99999999999966
 31
0.0
1001
ACAD
1010
0.0
1020
0.0
1030
0.0
1001
ACDBBLOCKREPETAG
1070
     1
1071
       11
1005
123955
  0
LINE
  5
123956
  8
SLIM
 10
7914.9999999999918
 20
-695.39487757862321
 30
0.0
 11
7955.3948775786157
 21
-654.99999999999966
 31
0.0
1001
ACAD
1010
0.0
1020
0.0
1030
0.0
1001
ACDBBLOCKREPETAG
1070
     1
1071
       12
1005
123956
  0
LINE
  5
123957
  8
SLIM
 10
7914.9999999999918
 20
-713.35538982076093
 30
0.0
 11
7973.3553898207538
 21
-654.99999999999966
 31
0.0
1001
ACAD
1010
0.0
1020
0.0
1030
0.0
1001
ACDBBLOCKREPETAG
1070
     1
1071
       13
1005
123957
  0
LINE
  5
123958
  8
SLIM
 10
7914.9999999999918
 20
-731.31590206289934
 30
0.0
 11
7991.3159020628918
 21
-654.99999999999966
 31
0.0
1001
ACAD
1010
0.0
1020
0.0
1030
0.0
1001
ACDBBLOCKREPETAG
1070
     1
1071
       14
1005
123958
  0
LINE
  5
123959
  8
SLIM
 10
7914.9999999999964
 20
-749.27641430503695
 30
0.0
 11
8009.2764143050308
 21
-654.99999999999966
 31
0.0
1001
ACAD
1010
0.0
1020
0.0
1030
0.0
1001
ACDBBLOCKREPETAG
1070
     1
1071
       15
1005
123959
  0
LINE
  5
12395A
  8
SLIM
 10
7914.9999999999964
 20
-767.23692654717524
 30
0.0
 11
8027.2369265471707
 21
-654.99999999999966
 31
0.0
1001
ACAD
1010
0.0
1020
0.0
1030
0.0
1001
ACDBBLOCKREPETAG
1070
     1
1071
       16
1005
12395A
  0
LINE
  5
12395B
  8
SLIM
 10
7914.9999999999964
 20
-785.1974387893132
 30
0.0
 11
8045.1974387893079
 21
-654.99999999999966
 31
0.0
1001
ACAD
1010
0.0
1020
0.0
1030
0.0
1001
ACDBBLOCKREPETAG
1070
     1
1071
       17
1005
12395B
  0
LINE
  5
12395C
  8
SLIM
 10
7914.9999999999964
 20
-803.15795103145126
 30
0.0
 11
8063.1579510314468
 21
-654.99999999999966
 31
0.0
1001
ACAD
1010
0.0
1020
0.0
1030
0.0
1001
ACDBBLOCKREPETAG
1070
     1
1071
       18
1005
12395C
  0
LINE
  5
12395D
  8
SLIM
 10
7914.9999999999982
 20
-821.11846327358955
 30
0.0
 11
8081.118463273584
 21
-654.99999999999966
 31
0.0
1001
ACAD
1010
0.0
1020
0.0
1030
0.0
1001
ACDBBLOCKREPETAG
1070
     1
1071
       19
1005
12395D
  0
LINE
  5
12395E
  8
SLIM
 10
7914.9999999999982
 20
-839.07897551572751
 30
0.0
 11
8085.0000000000064
 21
-669.07897551571602
 31
0.0
1001
ACAD
1010
0.0
1020
0.0
1030
0.0
1001
ACDBBLOCKREPETAG
1070
     1
1071
       20
1005
12395E
  0
LINE
  5
12395F
  8
SLIM
 10
7914.9999999999982
 20
-857.03948775786546
 30
0.0
 11
8085.0000000000064
 21
-687.03948775785454
 31
0.0
1001
ACAD
1010
0.0
1020
0.0
1030
0.0
1001
ACDBBLOCKREPETAG
1070
     1
1071
       21
1005
12395F
  0
LINE
  5
123960
  8
SLIM
 10
7914.9999999999982
 20
-875.00000000000375
 30
0.0
 11
8085.0000000000064
 21
-704.99999999999329
 31
0.0
1001
ACAD
1010
0.0
1020
0.0
1030
0.0
1001
ACDBBLOCKREPETAG
1070
     1
1071
       22
1005
123960
  0
LINE
  5
123961
  8
SLIM
 10
7914.9999999999982
 20
-892.9605122421417
 30
0.0
 11
8085.0000000000064
 21
-722.96051224213159
 31
0.0
1001
ACAD
1010
0.0
1020
0.0
1030
0.0
1001
ACDBBLOCKREPETAG
1070
     1
1071
       23
1005
123961
  0
LINE
  5
123962
  8
SLIM
 10
7914.9999999999982
 20
-910.92102448427966
 30
0.0
 11
8085.0000000000064
 21
-740.92102448427033
 31
0.0
1001
ACAD
1010
0.0
1020
0.0
1030
0.0
1001
ACDBBLOCKREPETAG
1070
     1
1071
       24
1005
123962
  0
LINE
  5
123963
  8
SLIM
 10
7914.9999999999982
 20
-928.88153672641772
 30
0.0
 11
8085.0000000000064
 21
-758.88153672640874
 31
0.0
1001
ACAD
1010
0.0
1020
0.0
1030
0.0
1001
ACDBBLOCKREPETAG
1070
     1
1071
       25
1005
123963
  0
LINE
  5
123964
  8
SLIM
 10
7914.9999999999982
 20
-946.84204896855545
 30
0.0
 11
8085.0000000000064
 21
-776.84204896854737
 31
0.0
1001
ACAD
1010
0.0
1020
0.0
1030
0.0
1001
ACDBBLOCKREPETAG
1070
     1
1071
       26
1005
123964
  0
LINE
  5
123965
  8
SLIM
 10
7914.9999999999982
 20
-964.80256121069385
 30
0.0
 11
8085.0000000000064
 21
-794.80256121068567
 31
0.0
1001
ACAD
1010
0.0
1020
0.0
1030
0.0
1001
ACDBBLOCKREPETAG
1070
     1
1071
       27
1005
123965
  0
LINE
  5
123966
  8
SLIM
 10
7914.9999999999982
 20
-982.76307345283203
 30
0.0
 11
8085.0000000000064
 21
-812.76307345282441
 31
0.0
1001
ACAD
1010
0.0
1020
0.0
1030
0.0
1001
ACDBBLOCKREPETAG
1070
     1
1071
       28
1005
123966
  0
LINE
  5
123967
  8
SLIM
 10
7914.9999999999982
 20
-1000.72358569497
 30
0.0
 11
8085.0000000000064
 21
-830.72358569496294
 31
0.0
1001
ACAD
1010
0.0
1020
0.0
1030
0.0
1001
ACDBBLOCKREPETAG
1070
     1
1071
       29
1005
123967
  0
LINE
  5
123968
  8
SLIM
 10
7914.9999999999982
 20
-1018.684097937108
 30
0.0
 11
8085.0000000000064
 21
-848.68409793710146
 31
0.0
1001
ACAD
1010
0.0
1020
0.0
1030
0.0
1001
ACDBBLOCKREPETAG
1070
     1
1071
       30
1005
123968
  0
LINE
  5
123969
  8
SLIM
 10
7914.9999999999982
 20
-1036.644610179246
 30
0.0
 11
8085.0000000000064
 21
-866.64461017923998
 31
0.0
1001
ACAD
1010
0.0
1020
0.0
1030
0.0
1001
ACDBBLOCKREPETAG
1070
     1
1071
       31
1005
123969
  0
LINE
  5
12396A
  8
SLIM
 10
7914.9999999999982
 20
-1054.6051224213841
 30
0.0
 11
8085.0000000000018
 21
-884.60512242137838
 31
0.0
1001
ACAD
1010
0.0
1020
0.0
1030
0.0
1001
ACDBBLOCKREPETAG
1070
     1
1071
       32
1005
12396A
  0
LINE
  5
12396B
  8
SLIM
 10
7914.9999999999982
 20
-1072.5656346635219
 30
0.0
 11
8085.0000000000018
 21
-902.56563466351713
 31
0.0
1001
ACAD
1010
0.0
1020
0.0
1030
0.0
1001
ACDBBLOCKREPETAG
1070
     1
1071
       33
1005
12396B
  0
LINE
  5
12396C
  8
SLIM
 10
7914.9999999999982
 20
-1090.52614690566
 30
0.0
 11
8085.0000000000018
 21
-920.52614690565565
 31
0.0
1001
ACAD
1010
0.0
1020
0.0
1030
0.0
1001
ACDBBLOCKREPETAG
1070
     1
1071
       34
1005
12396C
  0
LINE
  5
12396D
  8
SLIM
 10
7914.9999999999982
 20
-1108.486659147798
 30
0.0
 11
8085.0000000000018
 21
-938.4866591477944
 31
0.0
1001
ACAD
1010
0.0
1020
0.0
1030
0.0
1001
ACDBBLOCKREPETAG
1070
     1
1071
       35
1005
12396D
  0
LINE
  5
12396E
  8
SLIM
 10
7914.9999999999982
 20
-1126.4471713899361
 30
0.0
 11
8085.0000000000018
 21
-956.44717138993303
 31
0.0
1001
ACAD
1010
0.0
1020
0.0
1030
0.0
1001
ACDBBLOCKREPETAG
1070
     1
1071
       36
1005
12396E
  0
LINE
  5
12396F
  8
SLIM
 10
7915.0
 20
-1144.4076836320739
 30
0.0
 11
8085.0000000000018
 21
-974.4076836320711
 31
0.0
1001
ACAD
1010
0.0
1020
0.0
1030
0.0
1001
ACDBBLOCKREPETAG
1070
     1
1071
       37
1005
12396F
  0
LINE
  5
123970
  8
SLIM
 10
7915.5755701039097
 20
-1161.7926257702991
 30
0.0
 11
8085.0000000000018
 21
-992.36819587420985
 31
0.0
1001
ACAD
1010
0.0
1020
0.0
1030
0.0
1001
ACDBBLOCKREPETAG
1070
     1
1071
       38
1005
123970
  0
LINE
  5
123971
  8
SLIM
 10
7917.7898798323949
 20
-1177.538828283954
 30
0.0
 11
8085.0000000000018
 21
-1010.328708116349
 31
0.0
1001
ACAD
1010
0.0
1020
0.0
1030
0.0
1001
ACDBBLOCKREPETAG
1070
     1
1071
       39
1005
123971
  0
LINE
  5
123972
  8
SLIM
 10
7920.0041895608774
 20
-1193.2850307976109
 30
0.0
 11
8085.0000000000018
 21
-1028.289220358487
 31
0.0
1001
ACAD
1010
0.0
1020
0.0
1030
0.0
1001
ACDBBLOCKREPETAG
1070
     1
1071
       40
1005
123972
  0
LINE
  5
123973
  8
SLIM
 10
7922.2184992893599
 20
-1209.0312333112661
 30
0.0
 11
8085.0000000000018
 21
-1046.2497326006251
 31
0.0
1001
ACAD
1010
0.0
1020
0.0
1030
0.0
1001
ACDBBLOCKREPETAG
1070
     1
1071
       41
1005
123973
  0
LINE
  5
123974
  8
SLIM
 10
7924.4328090178433
 20
-1224.7774358249219
 30
0.0
 11
8085.0
 21
-1064.210244842764
 31
0.0
1001
ACAD
1010
0.0
1020
0.0
1030
0.0
1001
ACDBBLOCKREPETAG
1070
     1
1071
       42
1005
123974
  0
LINE
  5
123975
  8
SLIM
 10
7926.647118746323
 20
-1240.5236383385779
 30
0.0
 11
8085.0
 21
-1082.170757084903
 31
0.0
1001
ACAD
1010
0.0
1020
0.0
1030
0.0
1001
ACDBBLOCKREPETAG
1070
     1
1071
       43
1005
123975
  0
LINE
  5
123976
  8
SLIM
 10
7928.8614284748082
 20
-1256.2698408522331
 30
0.0
 11
8085.0
 21
-1100.1312693270411
 31
0.0
1001
ACAD
1010
0.0
1020
0.0
1030
0.0
1001
ACDBBLOCKREPETAG
1070
     1
1071
       44
1005
123976
  0
LINE
  5
123977
  8
SLIM
 10
7931.0757382032898
 20
-1272.0160433658889
 30
0.0
 11
8085.0
 21
-1118.0917815691801
 31
0.0
1001
ACAD
1010
0.0
1020
0.0
1030
0.0
1001
ACDBBLOCKREPETAG
1070
     1
1071
       45
1005
123977
  0
LINE
  5
123978
  8
SLIM
 10
7936.0522938113209
 20
-1284.9999999999991
 30
0.0
 11
8085.0
 21
-1136.0522938113179
 31
0.0
1001
ACAD
1010
0.0
1020
0.0
1030
0.0
1001
ACDBBLOCKREPETAG
1070
     1
1071
       46
1005
123978
  0
LINE
  5
123979
  8
SLIM
 10
7943.0
 20
-1296.0128060534571
 30
0.0
 11
7954.0128060534598
 21
-1284.9999999999991
 31
0.0
1001
ACAD
1010
0.0
1020
0.0
1030
0.0
1001
ACDBBLOCKREPETAG
1070
     1
1071
       47
1005
123979
  0
LINE
  5
12397A
  8
SLIM
 10
7954.0128060534598
 20
-1284.9999999999991
 30
0.0
 11
8085.0
 21
-1154.0128060534571
 31
0.0
1001
ACAD
1010
0.0
1020
0.0
1030
0.0
1001
ACDBBLOCKREPETAG
1070
     1
1071
       48
1005
12397A
  0
LINE
  5
12397B
  8
SLIM
 10
7946.973318295597
 20
-1309.9999999999991
 30
0.0
 11
7971.9733182955979
 21
-1284.9999999999991
 31
0.0
1001
ACAD
1010
0.0
1020
0.0
1030
0.0
1001
ACDBBLOCKREPETAG
1070
     1
1071
       49
1005
12397B
  0
LINE
  5
12397C
  8
SLIM
 10
7971.9733182955979
 20
-1284.9999999999991
 30
0.0
 11
8082.664314193129
 21
-1174.3090041024641
 31
0.0
1001
ACAD
1010
0.0
1020
0.0
1030
0.0
1001
ACDBBLOCKREPETAG
1070
     1
1071
       50
1005
12397C
  0
LINE
  5
12397D
  8
SLIM
 10
7964.9338305377341
 20
-1309.9999999999991
 30
0.0
 11
7989.9338305377341
 21
-1284.9999999999991
 31
0.0
1001
ACAD
1010
0.0
1020
0.0
1030
0.0
1001
ACDBBLOCKREPETAG
1070
     1
1071
       51
1005
12397D
  0
LINE
  5
12397E
  8
SLIM
 10
7989.9338305377341
 20
-1284.9999999999991
 30
0.0
 11
8079.7253212807827
 21
-1195.208509256953
 31
0.0
1001
ACAD
1010
0.0
1020
0.0
1030
0.0
1001
ACDBBLOCKREPETAG
1070
     1
1071
       52
1005
12397E
  0
LINE
  5
12397F
  8
SLIM
 10
7982.8943427798713
 20
-1309.9999999999991
 30
0.0
 11
8007.8943427798722
 21
-1284.9999999999991
 31
0.0
1001
ACAD
1010
0.0
1020
0.0
1030
0.0
1001
ACDBBLOCKREPETAG
1070
     1
1071
       53
1005
12397F
  0
LINE
  5
123980
  8
SLIM
 10
8007.8943427798722
 20
-1284.9999999999991
 30
0.0
 11
8076.786328368431
 21
-1216.108014411441
 31
0.0
1001
ACAD
1010
0.0
1020
0.0
1030
0.0
1001
ACDBBLOCKREPETAG
1070
     1
1071
       54
1005
123980
  0
LINE
  5
123981
  8
SLIM
 10
8000.8548550220103
 20
-1309.9999999999991
 30
0.0
 11
8025.8548550220094
 21
-1284.9999999999991
 31
0.0
1001
ACAD
1010
0.0
1020
0.0
1030
0.0
1001
ACDBBLOCKREPETAG
1070
     1
1071
       55
1005
123981
  0
LINE
  5
123982
  8
SLIM
 10
8025.8548550220094
 20
-1284.9999999999991
 30
0.0
 11
8073.8473354560829
 21
-1237.007519565929
 31
0.0
1001
ACAD
1010
0.0
1020
0.0
1030
0.0
1001
ACDBBLOCKREPETAG
1070
     1
1071
       56
1005
123982
  0
LINE
  5
123983
  8
SLIM
 10
8018.8153672641492
 20
-1309.9999999999991
 30
0.0
 11
8043.8153672641502
 21
-1284.9999999999991
 31
0.0
1001
ACAD
1010
0.0
1020
0.0
1030
0.0
1001
ACDBBLOCKREPETAG
1070
     1
1071
       57
1005
123983
  0
LINE
  5
123984
  8
SLIM
 10
8043.8153672641502
 20
-1284.9999999999991
 30
0.0
 11
8070.9083425437329
 21
-1257.907024720417
 31
0.0
1001
ACAD
1010
0.0
1020
0.0
1030
0.0
1001
ACDBBLOCKREPETAG
1070
     1
1071
       58
1005
123984
  0
LINE
  5
123985
  8
SLIM
 10
8036.7758795062846
 20
-1309.9999999999991
 30
0.0
 11
8057.0
 21
-1289.7758795062871
 31
0.0
1001
ACAD
1010
0.0
1020
0.0
1030
0.0
1001
ACDBBLOCKREPETAG
1070
     1
1071
       59
1005
123985
  0
LINE
  5
123986
  8
SLIM
 10
8061.7758795062846
 20
-1284.9999999999991
 30
0.0
 11
8067.9693496313812
 21
-1278.806529874905
 31
0.0
1001
ACAD
1010
0.0
1020
0.0
1030
0.0
1001
ACDBBLOCKREPETAG
1070
     1
1071
       60
1005
123986
  0
LINE
  5
123987
  8
SLIM
 10
8054.7363917484254
 20
-1309.9999999999991
 30
0.0
 11
8057.0
 21
-1307.7363917484249
 31
0.0
1001
ACAD
1010
0.0
1020
0.0
1030
0.0
1001
ACDBBLOCKREPETAG
1070
     1
1071
       61
1005
123987
  0
LINE
  5
123988
  8
OBJECT
 10
7943.0
 20
-1309.9999999999991
 30
0.0
 11
8057.0
 21
-1309.9999999999991
 31
0.0
1001
ACDBBLOCKREPETAG
1070
     1
1071
        1
1005
123988
  0
LINE
  5
123989
  8
OBJECT
 10
7932.9016071049627
 20
-1284.9999999999991
 30
0.0
 11
8067.09839289504
 21
-1284.9999999999991
 31
0.0
1001
ACDBBLOCKREPETAG
1070
     1
1071
        2
1005
123989
  0
LINE
  5
12398A
  8
OBJECT
 10
7943.0
 20
-1309.9999999999991
 30
0.0
 11
7943.0
 21
-1284.9999999999991
 31
0.0
1001
ACDBBLOCKREPETAG
1070
     1
1071
        3
1005
12398A
  0
LINE
  5
12398B
  8
OBJECT
 10
8057.0
 20
-1309.9999999999991
 30
0.0
 11
8057.0
 21
-1284.9999999999991
 31
0.0
1001
ACDBBLOCKREPETAG
1070
     1
1071
        4
1005
12398B
  0
LINE
  5
12398C
  8
OBJECT
 10
7914.9999999999918
 20
-654.99999999999966
 30
0.0
 11
7915.0
 21
-1157.699682809143
 31
0.0
1001
ACDBBLOCKREPETAG
1070
     1
1071
        5
1005
12398C
  0
LINE
  5
12398D
  8
OBJECT
 10
8085.0000000000064
 20
-654.99999999999966
 30
0.0
 11
8085.0
 21
-1157.6996828091719
 31
0.0
1001
ACDBBLOCKREPETAG
1070
     1
1071
        6
1005
12398D
  0
LINE
  5
12398E
  8
OBJECT
 10
7915.0
 20
-1157.699682809143
 30
0.0
 11
7932.9016071049627
 21
-1284.9999999999991
 31
0.0
1001
ACDBBLOCKREPETAG
1070
     1
1071
        7
1005
12398E
  0
LINE
  5
12398F
  8
OBJECT
 10
8067.09839289504
 20
-1284.9999999999991
 30
0.0
 11
8085.0
 21
-1157.6996828091719
 31
0.0
1001
ACDBBLOCKREPETAG
1070
     1
1071
        8
1005
12398F
  0
LINE
  5
123990
  8
OBJECT
 10
8085.0000000000064
 20
-654.99999999999966
 30
0.0
 11
7914.9999999999918
 21
-654.99999999999966
 31
0.0
1001
ACDBBLOCKREPETAG
1070
     1
1071
        9
1005
123990
  0
LINE
  5
123991
  8
OBJECT
 10
11925.0
 20
-789.99999999999955
 30
0.0
 11
11925.0
 21
-1062.9999999999991
 31
0.0
1001
ACDBBLOCKREPETAG
1070
     1
1071
        1
1005
123991
  0
LINE
  5
123992
  8
OBJECT
 10
12075.0
 20
-789.99999999999375
 30
0.0
 11
12075.0
 21
-1062.9999999999991
 31
0.0
1001
ACDBBLOCKREPETAG
1070
     1
1071
        3
1005
123992
  0
LINE
  5
123993
  8
CENTER
 10
12000.0
 20
-789.99999999999955
 30
0.0
 11
12000.0
 21
-1074.9999999999991
 31
0.0
1001
ACDBBLOCKREPETAG
1070
     1
1071
        6
1005
123993
  0
LINE
  5
123994
  8
OBJECT
 10
11920.0
 20
-1074.9999999999991
 30
0.0
 11
12080.0
 21
-1074.9999999999991
 31
0.0
1001
ACDBBLOCKREPETAG
1070
     1
1071
        7
1005
123994
  0
LINE
  5
123995
  8
OBJECT
 10
11920.0
 20
-1062.9999999999991
 30
0.0
 11
12080.0
 21
-1062.9999999999991
 31
0.0
1001
ACDBBLOCKREPETAG
1070
     1
1071
        8
1005
123995
  0
LINE
  5
123996
  8
OBJECT
 10
11920.0
 20
-1062.9999999999991
 30
0.0
 11
11920.0
 21
-1074.9999999999991
 31
0.0
1001
ACDBBLOCKREPETAG
1070
     1
1071
        9
1005
123996
  0
LINE
  5
123997
  8
OBJECT
 10
12080.0
 20
-1062.9999999999991
 30
0.0
 11
12080.0
 21
-1074.9999999999991
 31
0.0
1001
ACDBBLOCKREPETAG
1070
     1
1071
       10
1005
123997
  0
LINE
  5
123998
  8
OBJECT
 10
9925.0
 20
-789.99999999999955
 30
0.0
 11
9925.0
 21
-1062.9999999999991
 31
0.0
1001
ACDBBLOCKREPETAG
1070
     1
1071
        1
1005
123998
  0
LINE
  5
123999
  8
OBJECT
 10
10075.0
 20
-789.99999999999375
 30
0.0
 11
10075.0
 21
-1062.9999999999991
 31
0.0
1001
ACDBBLOCKREPETAG
1070
     1
1071
        3
1005
123999
  0
LINE
  5
12399A
  8
CENTER
 10
10000.0
 20
-789.99999999999955
 30
0.0
 11
10000.0
 21
-1074.9999999999991
 31
0.0
1001
ACDBBLOCKREPETAG
1070
     1
1071
        6
1005
12399A
  0
LINE
  5
12399B
  8
OBJECT
 10
9920.0
 20
-1074.9999999999991
 30
0.0
 11
10080.0
 21
-1074.9999999999991
 31
0.0
1001
ACDBBLOCKREPETAG
1070
     1
1071
        7
1005
12399B
  0
LINE
  5
12399C
  8
OBJECT
 10
9920.0
 20
-1062.9999999999991
 30
0.0
 11
10080.0
 21
-1062.9999999999991
 31
0.0
1001
ACDBBLOCKREPETAG
1070
     1
1071
        8
1005
12399C
  0
LINE
  5
12399D
  8
OBJECT
 10
9920.0
 20
-1062.9999999999991
 30
0.0
 11
9920.0
 21
-1074.9999999999991
 31
0.0
1001
ACDBBLOCKREPETAG
1070
     1
1071
        9
1005
12399D
  0
LINE
  5
12399E
  8
OBJECT
 10
10080.0
 20
-1062.9999999999991
 30
0.0
 11
10080.0
 21
-1074.9999999999991
 31
0.0
1001
ACDBBLOCKREPETAG
1070
     1
1071
       10
1005
12399E
  0
LINE
  5
12399F
  8
OBJECT
 10
7925.0
 20
-789.99999999999955
 30
0.0
 11
7925.0
 21
-1062.9999999999991
 31
0.0
1001
ACDBBLOCKREPETAG
1070
     1
1071
        1
1005
12399F
  0
LINE
  5
1239A0
  8
OBJECT
 10
8075.0
 20
-789.99999999999375
 30
0.0
 11
8075.0
 21
-1062.9999999999991
 31
0.0
1001
ACDBBLOCKREPETAG
1070
     1
1071
        3
1005
1239A0
  0
LINE
  5
1239A1
  8
CENTER
 10
8000.0
 20
-789.99999999999955
 30
0.0
 11
8000.0
 21
-1074.9999999999991
 31
0.0
1001
ACDBBLOCKREPETAG
1070
     1
1071
        6
1005
1239A1
  0
LINE
  5
1239A2
  8
OBJECT
 10
7920.0
 20
-1074.9999999999991
 30
0.0
 11
8080.0
 21
-1074.9999999999991
 31
0.0
1001
ACDBBLOCKREPETAG
1070
     1
1071
        7
1005
1239A2
  0
LINE
  5
1239A3
  8
OBJECT
 10
7920.0
 20
-1062.9999999999991
 30
0.0
 11
8080.0
 21
-1062.9999999999991
 31
0.0
1001
ACDBBLOCKREPETAG
1070
     1
1071
        8
1005
1239A3
  0
LINE
  5
1239A4
  8
OBJECT
 10
7920.0
 20
-1062.9999999999991
 30
0.0
 11
7920.0
 21
-1074.9999999999991
 31
0.0
1001
ACDBBLOCKREPETAG
1070
     1
1071
        9
1005
1239A4
  0
LINE
  5
1239A5
  8
OBJECT
 10
8080.0
 20
-1062.9999999999991
 30
0.0
 11
8080.0
 21
-1074.9999999999991
 31
0.0
1001
ACDBBLOCKREPETAG
1070
     1
1071
       10
1005
1239A5
  0
LINE
  5
1239A6
  8
OBJECT
 10
5925.0
 20
-789.99999999999955
 30
0.0
 11
5925.0
 21
-1062.9999999999991
 31
0.0
1001
ACDBBLOCKREPETAG
1070
     1
1071
        1
1005
1239A6
  0
LINE
  5
1239A7
  8
OBJECT
 10
6075.0
 20
-789.99999999999375
 30
0.0
 11
6075.0
 21
-1062.9999999999991
 31
0.0
1001
ACDBBLOCKREPETAG
1070
     1
1071
        3
1005
1239A7
  0
LINE
  5
1239A8
  8
CENTER
 10
6000.0
 20
-789.99999999999955
 30
0.0
 11
6000.0
 21
-1074.9999999999991
 31
0.0
1001
ACDBBLOCKREPETAG
1070
     1
1071
        6
1005
1239A8
  0
LINE
  5
1239A9
  8
OBJECT
 10
5920.0
 20
-1074.9999999999991
 30
0.0
 11
6080.0
 21
-1074.9999999999991
 31
0.0
1001
ACDBBLOCKREPETAG
1070
     1
1071
        7
1005
1239A9
  0
LINE
  5
1239AA
  8
OBJECT
 10
5920.0
 20
-1062.9999999999991
 30
0.0
 11
6080.0
 21
-1062.9999999999991
 31
0.0
1001
ACDBBLOCKREPETAG
1070
     1
1071
        8
1005
1239AA
  0
LINE
  5
1239AB
  8
OBJECT
 10
5920.0
 20
-1062.9999999999991
 30
0.0
 11
5920.0
 21
-1074.9999999999991
 31
0.0
1001
ACDBBLOCKREPETAG
1070
     1
1071
        9
1005
1239AB
  0
LINE
  5
1239AC
  8
OBJECT
 10
6080.0
 20
-1062.9999999999991
 30
0.0
 11
6080.0
 21
-1074.9999999999991
 31
0.0
1001
ACDBBLOCKREPETAG
1070
     1
1071
       10
1005
1239AC
  0
LINE
  5
1239AD
  8
OBJECT
 10
3925.0
 20
-789.99999999999955
 30
0.0
 11
3925.0
 21
-1062.9999999999991
 31
0.0
1001
ACDBBLOCKREPETAG
1070
     1
1071
        1
1005
1239AD
  0
LINE
  5
1239AE
  8
OBJECT
 10
4075.0
 20
-789.99999999999375
 30
0.0
 11
4075.0
 21
-1062.9999999999991
 31
0.0
1001
ACDBBLOCKREPETAG
1070
     1
1071
        3
1005
1239AE
  0
LINE
  5
1239AF
  8
CENTER
 10
4000.0
 20
-789.99999999999955
 30
0.0
 11
4000.0
 21
-1074.9999999999991
 31
0.0
1001
ACDBBLOCKREPETAG
1070
     1
1071
        6
1005
1239AF
  0
LINE
  5
1239B0
  8
OBJECT
 10
3920.0
 20
-1074.9999999999991
 30
0.0
 11
4080.0
 21
-1074.9999999999991
 31
0.0
1001
ACDBBLOCKREPETAG
1070
     1
1071
        7
1005
1239B0
  0
LINE
  5
1239B1
  8
OBJECT
 10
3920.0
 20
-1062.9999999999991
 30
0.0
 11
4080.0
 21
-1062.9999999999991
 31
0.0
1001
ACDBBLOCKREPETAG
1070
     1
1071
        8
1005
1239B1
  0
LINE
  5
1239B2
  8
OBJECT
 10
3920.0
 20
-1062.9999999999991
 30
0.0
 11
3920.0
 21
-1074.9999999999991
 31
0.0
1001
ACDBBLOCKREPETAG
1070
     1
1071
        9
1005
1239B2
  0
LINE
  5
1239B3
  8
OBJECT
 10
4080.0
 20
-1062.9999999999991
 30
0.0
 11
4080.0
 21
-1074.9999999999991
 31
0.0
1001
ACDBBLOCKREPETAG
1070
     1
1071
       10
1005
1239B3
  0
LINE
  5
1239B4
  8
OBJECT
 10
1925.0
 20
-789.99999999999955
 30
0.0
 11
1925.0
 21
-1062.9999999999991
 31
0.0
1001
ACDBBLOCKREPETAG
1070
     1
1071
        1
1005
1239B4
  0
LINE
  5
1239B5
  8
OBJECT
 10
2075.0
 20
-789.99999999999375
 30
0.0
 11
2075.0
 21
-1062.9999999999991
 31
0.0
1001
ACDBBLOCKREPETAG
1070
     1
1071
        3
1005
1239B5
  0
LINE
  5
1239B6
  8
CENTER
 10
2000.0
 20
-789.99999999999955
 30
0.0
 11
2000.0
 21
-1074.9999999999991
 31
0.0
1001
ACDBBLOCKREPETAG
1070
     1
1071
        6
1005
1239B6
  0
LINE
  5
1239B7
  8
OBJECT
 10
1920.0
 20
-1074.9999999999991
 30
0.0
 11
2080.0
 21
-1074.9999999999991
 31
0.0
1001
ACDBBLOCKREPETAG
1070
     1
1071
        7
1005
1239B7
  0
LINE
  5
1239B8
  8
OBJECT
 10
1920.0
 20
-1062.9999999999991
 30
0.0
 11
2080.0
 21
-1062.9999999999991
 31
0.0
1001
ACDBBLOCKREPETAG
1070
     1
1071
        8
1005
1239B8
  0
LINE
  5
1239B9
  8
OBJECT
 10
1920.0
 20
-1062.9999999999991
 30
0.0
 11
1920.0
 21
-1074.9999999999991
 31
0.0
1001
ACDBBLOCKREPETAG
1070
     1
1071
        9
1005
1239B9
  0
LINE
  5
1239BA
  8
OBJECT
 10
2080.0
 20
-1062.9999999999991
 30
0.0
 11
2080.0
 21
-1074.9999999999991
 31
0.0
1001
ACDBBLOCKREPETAG
1070
     1
1071
       10
1005
1239BA
  0
LINE
  5
1239BB
  8
OBJECT
 10
1923.0
 20
-470.99999999999937
 30
0.0
 11
1923.0
 21
-449.99999999999937
 31
0.0
1001
ACDBBLOCKREPETAG
1070
     1
1071
        0
1005
1239BB
  0
LINE
  5
1239BC
  8
OBJECT
 10
1923.0
 20
-449.99999999999937
 30
0.0
 11
2077.0
 21
-449.99999999999937
 31
0.0
1001
ACDBBLOCKREPETAG
1070
     1
1071
        1
1005
1239BC
  0
LINE
  5
1239BD
  8
HIDDEN
 10
1943.0
 20
-519.99999999999955
 30
0.0
 11
2057.0
 21
-519.99999999999955
 31
0.0
1001
ACDBBLOCKREPETAG
1070
     1
1071
        2
1005
1239BD
  0
LINE
  5
1239BE
  8
OBJECT
 10
2077.0
 20
-449.99999999999937
 30
0.0
 11
2077.0
 21
-470.99999999999937
 31
0.0
1001
ACDBBLOCKREPETAG
1070
     1
1071
        3
1005
1239BE
  0
LINE
  5
1239BF
  8
OBJECT
 10
2077.0
 20
-470.99999999999937
 30
0.0
 11
1923.0
 21
-470.99999999999937
 31
0.0
1001
ACDBBLOCKREPETAG
1070
     1
1071
        4
1005
1239BF
  0
LINE
  5
1239C0
  8
CENTER
 10
2000.0
 20
-434.99999999999949
 30
0.0
 11
2000.0
 21
-789.99999999999955
 31
0.0
1001
ACDBBLOCKREPETAG
1070
     1
1071
        5
1005
1239C0
  0
LINE
  5
1239C1
  8
OBJECT
 10
1925.0
 20
-533.99999999999955
 30
0.0
 11
1925.0
 21
-777.99999999999955
 31
0.0
1001
ACDBBLOCKREPETAG
1070
     1
1071
        6
1005
1239C1
  0
LINE
  5
1239C2
  8
OBJECT
 10
1928.0
 20
-470.99999999999937
 30
0.0
 11
1928.0
 21
-533.99999999999955
 31
0.0
1001
ACDBBLOCKREPETAG
1070
     1
1071
        7
1005
1239C2
  0
LINE
  5
1239C3
  8
OBJECT
 10
2072.0
 20
-533.99999999999955
 30
0.0
 11
2072.0
 21
-470.99999999999937
 31
0.0
1001
ACDBBLOCKREPETAG
1070
     1
1071
        8
1005
1239C3
  0
LINE
  5
1239C4
  8
OBJECT
 10
1920.0
 20
-777.99999999999955
 30
0.0
 11
2080.0
 21
-777.99999999999955
 31
0.0
1001
ACDBBLOCKREPETAG
1070
     1
1071
        9
1005
1239C4
  0
LINE
  5
1239C5
  8
OBJECT
 10
2080.0
 20
-533.99999999999955
 30
0.0
 11
1925.0
 21
-533.99999999999955
 31
0.0
1001
ACDBBLOCKREPETAG
1070
     1
1071
       10
1005
1239C5
  0
LINE
  5
1239C6
  8
OBJECT
 10
1920.0
 20
-777.99999999999955
 30
0.0
 11
1920.0
 21
-789.99999999999955
 31
0.0
1001
ACDBBLOCKREPETAG
1070
     1
1071
       11
1005
1239C6
  0
LINE
  5
1239C7
  8
OBJECT
 10
1920.0
 20
-789.99999999999955
 30
0.0
 11
2080.0
 21
-789.99999999999955
 31
0.0
1001
ACDBBLOCKREPETAG
1070
     1
1071
       12
1005
1239C7
  0
LINE
  5
1239C8
  8
OBJECT
 10
2080.0
 20
-789.99999999999955
 30
0.0
 11
2080.0
 21
-777.99999999999955
 31
0.0
1001
ACDBBLOCKREPETAG
1070
     1
1071
       13
1005
1239C8
  0
LINE
  5
1239C9
  8
OBJECT
 10
2074.9999999998622
 20
-657.99999999985039
 30
0.0
 11
2075.0
 21
-777.99999999999955
 31
0.0
1001
ACDBBLOCKREPETAG
1070
     1
1071
       15
1005
1239C9
  0
LINE
  5
1239CA
  8
OBJECT
 10
2074.9999908029849
 20
-657.99998602702135
 30
0.0
 11
2080.0
 21
-657.99998602702135
 31
0.0
1001
ACDBBLOCKREPETAG
1070
     1
1071
       16
1005
1239CA
  0
ARC
  5
1239CB
  8
OBJECT
 10
2200.6872746716731
 20
-649.40809941010718
 30
0.0
 40
170.6350503965856
 50
137.44134459184301
 51
149.91949581336559
1001
ACDBBLOCKREPETAG
1070
     1
1071
       17
1005
1239CB
  0
ARC
  5
1239CC
  8
OBJECT
 10
2118.8455987040511
 20
-605.88272669536445
 30
0.0
 40
78.072222021763665
 50
147.4551531038623
 51
164.6636599771798
1001
ACDBBLOCKREPETAG
1070
     1
1071
       18
1005
1239CC
  0
ARC
  5
1239CD
  8
OBJECT
 10
2085.7554349608731
 20
-595.99999999999955
 30
0.0
 40
43.55353926885617
 50
165.6884523007466
 51
194.3115476992534
1001
ACDBBLOCKREPETAG
1070
     1
1071
       19
1005
1239CD
  0
ARC
  5
1239CE
  8
OBJECT
 10
2200.6872746716731
 20
-542.59190058989179
 30
0.0
 40
170.6350503965856
 50
210.0805041866343
 51
222.55865540815699
1001
ACDBBLOCKREPETAG
1070
     1
1071
       20
1005
1239CE
  0
ARC
  5
1239CF
  8
OBJECT
 10
2118.8455987040511
 20
-586.11727330463452
 30
0.0
 40
78.072222021763665
 50
195.3363400228202
 51
212.5448468961377
1001
ACDBBLOCKREPETAG
1070
     1
1071
       21
1005
1239CF
  0
POINT
  5
1239D0
  8
DOTS
 10
2000.0
 20
-654.99999999999966
 30
0.0
1001
ACDBBLOCKREPETAG
1070
     1
1071
      187
1005
1239D0
  0
LINE
  5
1239D1
  8
OBJECT
 10
12085.999999999991
 20
-1408.9999999999991
 30
0.0
 11
12085.999999999991
 21
-1418.9999999999991
 31
0.0
1001
ACDBBLOCKREPETAG
1070
     1
1071
      121
1005
1239D1
  0
LINE
  5
1239D2
  8
OBJECT
 10
12069.999999999991
 20
-1408.9999999999991
 30
0.0
 11
12069.999999999991
 21
-1418.9999999999991
 31
0.0
1001
ACDBBLOCKREPETAG
1070
     1
1071
      122
1005
1239D2
  0
LINE
  5
1239D3
  8
OBJECT
 10
12085.999999999991
 20
-1418.9999999999991
 30
0.0
 11
12069.999999999991
 21
-1418.9999999999991
 31
0.0
1001
ACDBBLOCKREPETAG
1070
     1
1071
      123
1005
1239D3
  0
LINE
  5
1239D4
  8
OBJECT
 10
12090.0
 20
-1369.9999999999959
 30
0.0
 11
11924.0
 21
-1369.9999999999959
 31
0.0
1001
ACDBBLOCKREPETAG
1070
     1
1071
      124
1005
1239D4
  0
LINE
  5
1239D5
  8
OBJECT
 10
12090.0
 20
-1385.0
 30
0.0
 11
12090.0
 21
-1369.9999999999959
 31
0.0
1001
ACDBBLOCKREPETAG
1070
     1
1071
      125
1005
1239D5
  0
LINE
  5
1239D6
  8
OBJECT
 10
11924.0
 20
-1385.0
 30
0.0
 11
12090.0
 21
-1385.0
 31
0.0
1001
ACDBBLOCKREPETAG
1070
     1
1071
      126
1005
1239D6
  0
LINE
  5
1239D7
  8
OBJECT
 10
12067.49999999998
 20
-1385.0
 30
0.0
 11
12067.49999999998
 21
-1394.9999999999991
 31
0.0
1001
ACDBBLOCKREPETAG
1070
     1
1071
      127
1005
1239D7
  0
LINE
  5
1239D8
  8
OBJECT
 10
12072.999999999991
 20
-1394.9999999999991
 30
0.0
 11
12072.999999999991
 21
-1385.0
 31
0.0
1001
ACDBBLOCKREPETAG
1070
     1
1071
      128
1005
1239D8
  0
LINE
  5
1239D9
  8
OBJECT
 10
12082.999999999991
 20
-1394.9999999999991
 30
0.0
 11
12082.999999999991
 21
-1385.0
 31
0.0
1001
ACDBBLOCKREPETAG
1070
     1
1071
      129
1005
1239D9
  0
LINE
  5
1239DA
  8
OBJECT
 10
11924.0
 20
-1394.9999999999991
 30
0.0
 11
11924.0
 21
-1408.9999999999959
 31
0.0
1001
ACDBBLOCKREPETAG
1070
     1
1071
      130
1005
1239DA
  0
LINE
  5
1239DB
  8
OBJECT
 10
12090.0
 20
-1394.9999999999991
 30
0.0
 11
12090.0
 21
-1408.9999999999959
 31
0.0
1001
ACDBBLOCKREPETAG
1070
     1
1071
      131
1005
1239DB
  0
LINE
  5
1239DC
  8
OBJECT
 10
11924.0
 20
-1408.9999999999959
 30
0.0
 11
12090.0
 21
-1408.9999999999959
 31
0.0
1001
ACDBBLOCKREPETAG
1070
     1
1071
      132
1005
1239DC
  0
LINE
  5
1239DD
  8
OBJECT
 10
11924.0
 20
-1394.9999999999991
 30
0.0
 11
12090.0
 21
-1394.9999999999991
 31
0.0
1001
ACDBBLOCKREPETAG
1070
     1
1071
      133
1005
1239DD
  0
LINE
  5
1239DE
  8
OBJECT
 10
11932.49999999998
 20
-1385.0
 30
0.0
 11
11932.49999999998
 21
-1394.9999999999991
 31
0.0
1001
ACDBBLOCKREPETAG
1070
     1
1071
      134
1005
1239DE
  0
LINE
  5
1239DF
  8
OBJECT
 10
11934.0
 20
-1333.9999999999959
 30
0.0
 11
12065.999999999991
 21
-1333.9999999999959
 31
0.0
1001
ACDBBLOCKREPETAG
1070
     1
1071
      135
1005
1239DF
  0
LINE
  5
1239E0
  8
OBJECT
 10
11924.0
 20
-1385.0
 30
0.0
 11
11924.0
 21
-1369.9999999999959
 31
0.0
1001
ACDBBLOCKREPETAG
1070
     1
1071
      136
1005
1239E0
  0
LINE
  5
1239E1
  8
HIDDEN
 10
11943.0
 20
-1344.9999999999991
 30
0.0
 11
12057.0
 21
-1344.9999999999991
 31
0.0
1001
ACDBBLOCKREPETAG
1070
     1
1071
      137
1005
1239E1
  0
LINE
  5
1239E2
  8
OBJECT
 10
12086.999999999991
 20
-1368.2
 30
0.0
 11
12086.999999999991
 21
-1369.9999999999991
 31
0.0
1001
ACDBBLOCKREPETAG
1070
     1
1071
      138
1005
1239E2
  0
LINE
  5
1239E3
  8
OBJECT
 10
12068.999999999991
 20
-1368.2
 30
0.0
 11
12068.999999999991
 21
-1369.9999999999991
 31
0.0
1001
ACDBBLOCKREPETAG
1070
     1
1071
      139
1005
1239E3
  0
LINE
  5
1239E4
  8
OBJECT
 10
12072.249999999991
 20
-1358.4999999999991
 30
0.0
 11
12083.749999999991
 21
-1358.4999999999991
 31
0.0
1001
ACDBBLOCKREPETAG
1070
     1
1071
      140
1005
1239E4
  0
LINE
  5
1239E5
  8
OBJECT
 10
12072.249999999991
 20
-1358.4999999999991
 30
0.0
 11
12072.249999999991
 21
-1368.2
 31
0.0
1001
ACDBBLOCKREPETAG
1070
     1
1071
      141
1005
1239E5
  0
LINE
  5
1239E6
  8
OBJECT
 10
12083.749999999991
 20
-1358.4999999999991
 30
0.0
 11
12083.749999999991
 21
-1368.2
 31
0.0
1001
ACDBBLOCKREPETAG
1070
     1
1071
      142
1005
1239E6
  0
LINE
  5
1239E7
  8
OBJECT
 10
11931.99999999998
 20
-1450.0
 30
0.0
 11
12067.99999999998
 21
-1450.0
 31
0.0
1001
ACDBBLOCKREPETAG
1070
     1
1071
      143
1005
1239E7
  0
LINE
  5
1239E8
  8
OBJECT
 10
11931.99999999998
 20
-1450.0
 30
0.0
 11
11931.99999999998
 21
-1408.9999999999991
 31
0.0
1001
ACDBBLOCKREPETAG
1070
     1
1071
      144
1005
1239E8
  0
LINE
  5
1239E9
  8
OBJECT
 10
12067.99999999998
 20
-1450.0
 30
0.0
 11
12067.99999999998
 21
-1408.9999999999991
 31
0.0
1001
ACDBBLOCKREPETAG
1070
     1
1071
      145
1005
1239E9
  0
LINE
  5
1239EA
  8
OBJECT
 10
12086.999999999991
 20
-1368.2
 30
0.0
 11
12068.999999999991
 21
-1368.2
 31
0.0
1001
ACDBBLOCKREPETAG
1070
     1
1071
      146
1005
1239EA
  0
LINE
  5
1239EB
  8
CENTER
 10
12000.0
 20
-1074.9999999999991
 30
0.0
 11
12000.0
 21
-1464.9999999999991
 31
0.0
1001
ACDBBLOCKREPETAG
1070
     1
1071
      147
1005
1239EB
  0
LINE
  5
1239EC
  8
OBJECT
 10
11925.0
 20
-1074.9999999999991
 30
0.0
 11
11925.0
 21
-1156.9999999999959
 31
0.0
1001
ACDBBLOCKREPETAG
1070
     1
1071
      148
1005
1239EC
  0
LINE
  5
1239ED
  8
OBJECT
 10
12075.0
 20
-1074.9999999999991
 30
0.0
 11
12075.0
 21
-1156.999999999992
 31
0.0
1001
ACDBBLOCKREPETAG
1070
     1
1071
      149
1005
1239ED
  0
LINE
  5
1239EE
  8
OBJECT
 10
11925.0
 20
-1156.9999999999959
 30
0.0
 11
12075.0
 21
-1156.999999999992
 31
0.0
1001
ACDBBLOCKREPETAG
1070
     1
1071
      150
1005
1239EE
  0
LINE
  5
1239EF
  8
OBJECT
 10
11943.0
 20
-1333.9999999999959
 30
0.0
 11
11943.0
 21
-1284.999999999992
 31
0.0
1001
ACDBBLOCKREPETAG
1070
     1
1071
      151
1005
1239EF
  0
LINE
  5
1239F0
  8
OBJECT
 10
12057.0
 20
-1284.999999999992
 30
0.0
 11
11943.0
 21
-1284.999999999992
 31
0.0
1001
ACDBBLOCKREPETAG
1070
     1
1071
      152
1005
1239F0
  0
LINE
  5
1239F1
  8
OBJECT
 10
12057.0
 20
-1284.999999999992
 30
0.0
 11
12057.0
 21
-1333.9999999999959
 31
0.0
1001
ACDBBLOCKREPETAG
1070
     1
1071
      153
1005
1239F1
  0
LINE
  5
1239F2
  8
OBJECT
 10
11925.0
 20
-1156.9999999999959
 30
0.0
 11
11943.0
 21
-1284.999999999992
 31
0.0
1001
ACDBBLOCKREPETAG
1070
     1
1071
      154
1005
1239F2
  0
LINE
  5
1239F3
  8
OBJECT
 10
12057.0
 20
-1284.999999999992
 30
0.0
 11
12075.0
 21
-1156.999999999992
 31
0.0
1001
ACDBBLOCKREPETAG
1070
     1
1071
      155
1005
1239F3
  0
LINE
  5
1239F4
  8
OBJECT
 10
11934.0
 20
-1369.9999999999959
 30
0.0
 11
11934.0
 21
-1333.9999999999959
 31
0.0
1001
ACDBBLOCKREPETAG
1070
     1
1071
      156
1005
1239F4
  0
LINE
  5
1239F5
  8
OBJECT
 10
12066.0
 20
-1369.9999999999959
 30
0.0
 11
12065.999999999991
 21
-1333.9999999999959
 31
0.0
1001
ACDBBLOCKREPETAG
1070
     1
1071
      157
1005
1239F5
  0
LINE
  5
1239F6
  8
OBJECT
 10
11954.75
 20
-1359.699999999993
 30
0.0
 11
11967.25
 21
-1359.699999999993
 31
0.0
1001
ACDBBLOCKREPETAG
1070
     1
1071
      158
1005
1239F6
  0
LINE
  5
1239F7
  8
OBJECT
 10
11946.0
 20
-1369.9999999999959
 30
0.0
 11
11946.0
 21
-1367.699999999996
 31
0.0
1001
ACDBBLOCKREPETAG
1070
     1
1071
      159
1005
1239F7
  0
LINE
  5
1239F8
  8
OBJECT
 10
11976.0
 20
-1369.9999999999959
 30
0.0
 11
11976.0
 21
-1367.699999999996
 31
0.0
1001
ACDBBLOCKREPETAG
1070
     1
1071
      160
1005
1239F8
  0
LINE
  5
1239F9
  8
OBJECT
 10
11954.75
 20
-1359.699999999993
 30
0.0
 11
11954.75
 21
-1367.699999999996
 31
0.0
1001
ACDBBLOCKREPETAG
1070
     1
1071
      161
1005
1239F9
  0
LINE
  5
1239FA
  8
OBJECT
 10
11967.25
 20
-1359.699999999993
 30
0.0
 11
11967.25
 21
-1367.699999999996
 31
0.0
1001
ACDBBLOCKREPETAG
1070
     1
1071
      162
1005
1239FA
  0
LINE
  5
1239FB
  8
OBJECT
 10
11946.0
 20
-1367.699999999996
 30
0.0
 11
11976.0
 21
-1367.699999999996
 31
0.0
1001
ACDBBLOCKREPETAG
1070
     1
1071
      163
1005
1239FB
  0
LINE
  5
1239FC
  8
OBJECT
 10
11953.0
 20
-1408.9999999999959
 30
0.0
 11
11953.0
 21
-1418.9999999999959
 31
0.0
1001
ACDBBLOCKREPETAG
1070
     1
1071
      164
1005
1239FC
  0
LINE
  5
1239FD
  8
OBJECT
 10
11969.0
 20
-1408.9999999999959
 30
0.0
 11
11969.0
 21
-1418.9999999999959
 31
0.0
1001
ACDBBLOCKREPETAG
1070
     1
1071
      165
1005
1239FD
  0
LINE
  5
1239FE
  8
OBJECT
 10
11953.0
 20
-1418.9999999999959
 30
0.0
 11
11969.0
 21
-1418.9999999999959
 31
0.0
1001
ACDBBLOCKREPETAG
1070
     1
1071
      166
1005
1239FE
  0
LINE
  5
1239FF
  8
OBJECT
 10
11966.0
 20
-1394.9999999999959
 30
0.0
 11
11966.0
 21
-1384.9999999999959
 31
0.0
1001
ACDBBLOCKREPETAG
1070
     1
1071
      167
1005
1239FF
  0
LINE
  5
123A00
  8
OBJECT
 10
11956.0
 20
-1394.9999999999959
 30
0.0
 11
11956.0
 21
-1384.9999999999959
 31
0.0
1001
ACDBBLOCKREPETAG
1070
     1
1071
      168
1005
123A00
  0
LINE
  5
123A01
  8
OBJECT
 10
10090.0
 20
-1369.9999999999959
 30
0.0
 11
9924.0
 21
-1369.9999999999959
 31
0.0
1001
ACDBBLOCKREPETAG
1070
     1
1071
       12
1005
123A01
  0
LINE
  5
123A02
  8
OBJECT
 10
10066.0
 20
-1333.9999999999959
 30
0.0
 11
9934.0
 21
-1333.9999999999959
 31
0.0
1001
ACDBBLOCKREPETAG
1070
     1
1071
       13
1005
123A02
  0
LINE
  5
123A03
  8
OBJECT
 10
10090.0
 20
-1385.0
 30
0.0
 11
10090.0
 21
-1369.9999999999959
 31
0.0
1001
ACDBBLOCKREPETAG
1070
     1
1071
       14
1005
123A03
  0
LINE
  5
123A04
  8
OBJECT
 10
9924.0
 20
-1385.0
 30
0.0
 11
10090.0
 21
-1385.0
 31
0.0
1001
ACDBBLOCKREPETAG
1070
     1
1071
       15
1005
123A04
  0
LINE
  5
123A05
  8
OBJECT
 10
10067.49999999998
 20
-1385.0
 30
0.0
 11
10067.49999999998
 21
-1394.9999999999991
 31
0.0
1001
ACDBBLOCKREPETAG
1070
     1
1071
       16
1005
123A05
  0
LINE
  5
123A06
  8
OBJECT
 10
9924.0
 20
-1394.9999999999991
 30
0.0
 11
9924.0
 21
-1408.9999999999959
 31
0.0
1001
ACDBBLOCKREPETAG
1070
     1
1071
       17
1005
123A06
  0
LINE
  5
123A07
  8
OBJECT
 10
10090.0
 20
-1394.9999999999991
 30
0.0
 11
10090.0
 21
-1408.9999999999959
 31
0.0
1001
ACDBBLOCKREPETAG
1070
     1
1071
       18
1005
123A07
  0
LINE
  5
123A08
  8
OBJECT
 10
9924.0
 20
-1408.9999999999959
 30
0.0
 11
10090.0
 21
-1408.9999999999959
 31
0.0
1001
ACDBBLOCKREPETAG
1070
     1
1071
       19
1005
123A08
  0
LINE
  5
123A09
  8
OBJECT
 10
9924.0
 20
-1394.9999999999991
 30
0.0
 11
10090.0
 21
-1394.9999999999991
 31
0.0
1001
ACDBBLOCKREPETAG
1070
     1
1071
       20
1005
123A09
  0
LINE
  5
123A0A
  8
OBJECT
 10
9932.4999999999836
 20
-1385.0
 30
0.0
 11
9932.4999999999836
 21
-1394.9999999999991
 31
0.0
1001
ACDBBLOCKREPETAG
1070
     1
1071
       21
1005
123A0A
  0
LINE
  5
123A0B
  8
OBJECT
 10
9924.0
 20
-1385.0
 30
0.0
 11
9924.0
 21
-1369.9999999999959
 31
0.0
1001
ACDBBLOCKREPETAG
1070
     1
1071
       22
1005
123A0B
  0
LINE
  5
123A0C
  8
HIDDEN
 10
9943.0
 20
-1344.9999999999991
 30
0.0
 11
10057.0
 21
-1344.9999999999991
 31
0.0
1001
ACDBBLOCKREPETAG
1070
     1
1071
       23
1005
123A0C
  0
LINE
  5
123A0D
  8
CENTER
 10
10000.0
 20
-1074.9999999999991
 30
0.0
 11
10000.0
 21
-1423.9999999999959
 31
0.0
1001
ACDBBLOCKREPETAG
1070
     1
1071
       24
1005
123A0D
  0
LINE
  5
123A0E
  8
OBJECT
 10
9925.0
 20
-1074.9999999999991
 30
0.0
 11
9925.0
 21
-1156.9999999999959
 31
0.0
1001
ACDBBLOCKREPETAG
1070
     1
1071
       25
1005
123A0E
  0
LINE
  5
123A0F
  8
OBJECT
 10
10075.0
 20
-1074.9999999999991
 30
0.0
 11
10075.0
 21
-1156.999999999992
 31
0.0
1001
ACDBBLOCKREPETAG
1070
     1
1071
       26
1005
123A0F
  0
LINE
  5
123A10
  8
OBJECT
 10
9925.0
 20
-1156.9999999999959
 30
0.0
 11
10075.0
 21
-1156.999999999992
 31
0.0
1001
ACDBBLOCKREPETAG
1070
     1
1071
       27
1005
123A10
  0
LINE
  5
123A11
  8
OBJECT
 10
10057.0
 20
-1333.9999999999959
 30
0.0
 11
10057.0
 21
-1284.999999999992
 31
0.0
1001
ACDBBLOCKREPETAG
1070
     1
1071
       28
1005
123A11
  0
LINE
  5
123A12
  8
OBJECT
 10
9943.0
 20
-1333.9999999999959
 30
0.0
 11
9943.0
 21
-1284.999999999992
 31
0.0
1001
ACDBBLOCKREPETAG
1070
     1
1071
       29
1005
123A12
  0
LINE
  5
123A13
  8
OBJECT
 10
10057.0
 20
-1284.999999999992
 30
0.0
 11
9943.0
 21
-1284.999999999992
 31
0.0
1001
ACDBBLOCKREPETAG
1070
     1
1071
       30
1005
123A13
  0
LINE
  5
123A14
  8
OBJECT
 10
9925.0
 20
-1156.9999999999959
 30
0.0
 11
9943.0
 21
-1284.999999999992
 31
0.0
1001
ACDBBLOCKREPETAG
1070
     1
1071
       31
1005
123A14
  0
LINE
  5
123A15
  8
OBJECT
 10
10057.0
 20
-1284.999999999992
 30
0.0
 11
10075.0
 21
-1156.999999999992
 31
0.0
1001
ACDBBLOCKREPETAG
1070
     1
1071
       32
1005
123A15
  0
LINE
  5
123A16
  8
OBJECT
 10
9934.0
 20
-1333.9999999999959
 30
0.0
 11
9934.0
 21
-1369.9999999999959
 31
0.0
1001
ACDBBLOCKREPETAG
1070
     1
1071
       33
1005
123A16
  0
LINE
  5
123A17
  8
OBJECT
 10
10066.0
 20
-1333.9999999999959
 30
0.0
 11
10066.0
 21
-1369.9999999999959
 31
0.0
1001
ACDBBLOCKREPETAG
1070
     1
1071
       34
1005
123A17
  0
LINE
  5
123A18
  8
OBJECT
 10
10082.999999999991
 20
-1394.9999999999959
 30
0.0
 11
10082.999999999991
 21
-1384.9999999999959
 31
0.0
1001
ACDBBLOCKREPETAG
1070
     1
1071
       35
1005
123A18
  0
LINE
  5
123A19
  8
OBJECT
 10
10072.999999999991
 20
-1394.9999999999959
 30
0.0
 11
10072.999999999991
 21
-1384.9999999999959
 31
0.0
1001
ACDBBLOCKREPETAG
1070
     1
1071
       36
1005
123A19
  0
LINE
  5
123A1A
  8
OBJECT
 10
10068.99999999998
 20
-1364.9999999999959
 30
0.0
 11
10068.99999999998
 21
-1369.9999999999959
 31
0.0
1001
ACDBBLOCKREPETAG
1070
     1
1071
       37
1005
123A1A
  0
LINE
  5
123A1B
  8
OBJECT
 10
10087.0
 20
-1364.9999999999959
 30
0.0
 11
10087.0
 21
-1369.9999999999959
 31
0.0
1001
ACDBBLOCKREPETAG
1070
     1
1071
       38
1005
123A1B
  0
LINE
  5
123A1C
  8
OBJECT
 10
10087.0
 20
-1364.9999999999959
 30
0.0
 11
10068.99999999998
 21
-1364.9999999999959
 31
0.0
1001
ACDBBLOCKREPETAG
1070
     1
1071
       39
1005
123A1C
  0
LINE
  5
123A1D
  8
OBJECT
 10
10073.0
 20
-1416.9999999999959
 30
0.0
 11
10073.0
 21
-1419.9999999999959
 31
0.0
1001
ACDBBLOCKREPETAG
1070
     1
1071
       40
1005
123A1D
  0
LINE
  5
123A1E
  8
OBJECT
 10
10073.0
 20
-1419.9999999999959
 30
0.0
 11
10083.0
 21
-1419.9999999999959
 31
0.0
1001
ACDBBLOCKREPETAG
1070
     1
1071
       41
1005
123A1E
  0
LINE
  5
123A1F
  8
OBJECT
 10
10083.0
 20
-1419.9999999999959
 30
0.0
 11
10083.0
 21
-1416.9999999999959
 31
0.0
1001
ACDBBLOCKREPETAG
1070
     1
1071
       43
1005
123A1F
  0
LINE
  5
123A20
  8
OBJECT
 10
9968.5
 20
-1364.9999999999959
 30
0.0
 11
9951.9999999999909
 21
-1364.9999999999959
 31
0.0
1001
ACDBBLOCKREPETAG
1070
     1
1071
       48
1005
123A20
  0
LINE
  5
123A21
  8
OBJECT
 10
9976.0
 20
-1369.9999999999959
 30
0.0
 11
9976.0
 21
-1367.9999999999959
 31
0.0
1001
ACDBBLOCKREPETAG
1070
     1
1071
       49
1005
123A21
  0
LINE
  5
123A22
  8
OBJECT
 10
9966.0
 20
-1394.9999999999959
 30
0.0
 11
9966.0
 21
-1384.9999999999959
 31
0.0
1001
ACDBBLOCKREPETAG
1070
     1
1071
       50
1005
123A22
  0
LINE
  5
123A23
  8
OBJECT
 10
9956.0
 20
-1394.9999999999959
 30
0.0
 11
9956.0
 21
-1384.9999999999959
 31
0.0
1001
ACDBBLOCKREPETAG
1070
     1
1071
       51
1005
123A23
  0
LINE
  5
123A24
  8
OBJECT
 10
9951.9999999999909
 20
-1364.9999999999959
 30
0.0
 11
9951.9999999999909
 21
-1369.9999999999959
 31
0.0
1001
ACDBBLOCKREPETAG
1070
     1
1071
       52
1005
123A24
  0
LINE
  5
123A25
  8
OBJECT
 10
9956.0
 20
-1416.9999999999959
 30
0.0
 11
9956.0
 21
-1419.9999999999959
 31
0.0
1001
ACDBBLOCKREPETAG
1070
     1
1071
       53
1005
123A25
  0
LINE
  5
123A26
  8
OBJECT
 10
9956.0
 20
-1419.9999999999959
 30
0.0
 11
9966.0
 21
-1419.9999999999959
 31
0.0
1001
ACDBBLOCKREPETAG
1070
     1
1071
       54
1005
123A26
  0
LINE
  5
123A27
  8
OBJECT
 10
9951.185045423772
 20
-1416.9999999999959
 30
0.0
 11
9970.814954576219
 21
-1416.9999999999959
 31
0.0
1001
ACDBBLOCKREPETAG
1070
     1
1071
       55
1005
123A27
  0
LINE
  5
123A28
  8
OBJECT
 10
9966.0
 20
-1419.9999999999959
 30
0.0
 11
9966.0
 21
-1416.9999999999959
 31
0.0
1001
ACDBBLOCKREPETAG
1070
     1
1071
       56
1005
123A28
  0
LINE
  5
123A29
  8
OBJECT
 10
9976.0
 20
-1367.9999999999959
 30
0.0
 11
9968.5
 21
-1364.9999999999959
 31
0.0
1001
ACDBBLOCKREPETAG
1070
     1
1071
       57
1005
123A29
  0
LINE
  5
123A2A
  8
OBJECT
 10
9951.1850454237774
 20
-1408.9999999999959
 30
0.0
 11
9951.1850454237774
 21
-1416.9999999999959
 31
0.0
1001
ACDBBLOCKREPETAG
1070
     1
1071
      630
1005
123A2A
  0
LINE
  5
123A2B
  8
OBJECT
 10
9956.0925227118896
 20
-1408.9999999999959
 30
0.0
 11
9956.0925227118896
 21
-1416.9999999999959
 31
0.0
1001
ACDBBLOCKREPETAG
1070
     1
1071
      631
1005
123A2B
  0
LINE
  5
123A2C
  8
OBJECT
 10
9965.9074772881122
 20
-1408.9999999999959
 30
0.0
 11
9965.9074772881122
 21
-1416.9999999999959
 31
0.0
1001
ACDBBLOCKREPETAG
1070
     1
1071
      632
1005
123A2C
  0
LINE
  5
123A2D
  8
OBJECT
 10
9970.8149545762244
 20
-1408.9999999999959
 30
0.0
 11
9970.8149545762244
 21
-1416.9999999999959
 31
0.0
1001
ACDBBLOCKREPETAG
1070
     1
1071
      633
1005
123A2D
  0
LINE
  5
123A2E
  8
OBJECT
 10
10068.18504542377
 20
-1416.9999999999959
 30
0.0
 11
10087.814954576221
 21
-1416.9999999999959
 31
0.0
1001
ACDBBLOCKREPETAG
1070
     1
1071
      634
1005
123A2E
  0
LINE
  5
123A2F
  8
OBJECT
 10
10068.18504542377
 20
-1408.9999999999959
 30
0.0
 11
10068.18504542377
 21
-1416.9999999999959
 31
0.0
1001
ACDBBLOCKREPETAG
1070
     1
1071
      635
1005
123A2F
  0
LINE
  5
123A30
  8
OBJECT
 10
10073.09252271189
 20
-1408.9999999999959
 30
0.0
 11
10073.09252271189
 21
-1416.9999999999959
 31
0.0
1001
ACDBBLOCKREPETAG
1070
     1
1071
      636
1005
123A30
  0
LINE
  5
123A31
  8
OBJECT
 10
10082.90747728811
 20
-1408.9999999999959
 30
0.0
 11
10082.90747728811
 21
-1416.9999999999959
 31
0.0
1001
ACDBBLOCKREPETAG
1070
     1
1071
      637
1005
123A31
  0
LINE
  5
123A32
  8
OBJECT
 10
10087.814954576221
 20
-1408.9999999999959
 30
0.0
 11
10087.814954576221
 21
-1416.9999999999959
 31
0.0
1001
ACDBBLOCKREPETAG
1070
     1
1071
      638
1005
123A32
  0
LINE
  5
123A33
  8
OBJECT
 10
7943.0
 20
-1384.9999999999959
 30
0.0
 11
8057.0
 21
-1384.9999999999959
 31
0.0
1001
ACDBBLOCKREPETAG
1070
     1
1071
        0
1005
123A33
  0
LINE
  5
123A34
  8
OBJECT
 10
7943.0
 20
-1384.9999999999959
 30
0.0
 11
7943.0
 21
-1284.9999999999959
 31
0.0
1001
ACDBBLOCKREPETAG
1070
     1
1071
        1
1005
123A34
  0
LINE
  5
123A35
  8
OBJECT
 10
8057.0
 20
-1384.9999999999959
 30
0.0
 11
8057.0
 21
-1284.9999999999959
 31
0.0
1001
ACDBBLOCKREPETAG
1070
     1
1071
        2
1005
123A35
  0
LINE
  5
123A36
  8
OBJECT
 10
7943.0
 20
-1284.9999999999959
 30
0.0
 11
8057.0
 21
-1284.9999999999959
 31
0.0
1001
ACDBBLOCKREPETAG
1070
     1
1071
        3
1005
123A36
  0
LINE
  5
123A37
  8
HIDDEN
 10
7950.0
 20
-1284.9999999999959
 30
0.0
 11
7950.0
 21
-1384.9999999999959
 31
0.0
1001
ACDBBLOCKREPETAG
1070
     1
1071
        4
1005
123A37
  0
LINE
  5
123A38
  8
HIDDEN
 10
8050.0
 20
-1284.9999999999959
 30
0.0
 11
8050.0
 21
-1384.9999999999959
 31
0.0
1001
ACDBBLOCKREPETAG
1070
     1
1071
        5
1005
123A38
  0
LINE
  5
123A39
  8
CENTER
 10
8000.0
 20
-1074.9999999999991
 30
0.0
 11
8000.0
 21
-1399.9999999999959
 31
0.0
1001
ACDBBLOCKREPETAG
1070
     1
1071
        6
1005
123A39
  0
LINE
  5
123A3A
  8
OBJECT
 10
7925.0
 20
-1074.9999999999991
 30
0.0
 11
7925.0
 21
-1156.9999999999959
 31
0.0
1001
ACDBBLOCKREPETAG
1070
     1
1071
        7
1005
123A3A
  0
LINE
  5
123A3B
  8
OBJECT
 10
8075.0
 20
-1074.9999999999991
 30
0.0
 11
8075.0
 21
-1156.9999999999959
 31
0.0
1001
ACDBBLOCKREPETAG
1070
     1
1071
        8
1005
123A3B
  0
LINE
  5
123A3C
  8
OBJECT
 10
7925.0
 20
-1156.9999999999959
 30
0.0
 11
8075.0
 21
-1156.9999999999959
 31
0.0
1001
ACDBBLOCKREPETAG
1070
     1
1071
        9
1005
123A3C
  0
LINE
  5
123A3D
  8
OBJECT
 10
7925.0
 20
-1156.9999999999959
 30
0.0
 11
7943.0
 21
-1284.9999999999959
 31
0.0
1001
ACDBBLOCKREPETAG
1070
     1
1071
       10
1005
123A3D
  0
LINE
  5
123A3E
  8
OBJECT
 10
8057.0
 20
-1284.9999999999959
 30
0.0
 11
8075.0
 21
-1156.9999999999959
 31
0.0
1001
ACDBBLOCKREPETAG
1070
     1
1071
       11
1005
123A3E
  0
LINE
  5
123A3F
  8
OBJECT
 10
6085.9999999999927
 20
-1408.9999999999991
 30
0.0
 11
6085.9999999999927
 21
-1418.9999999999991
 31
0.0
1001
ACDBBLOCKREPETAG
1070
     1
1071
      121
1005
123A3F
  0
LINE
  5
123A40
  8
OBJECT
 10
6069.9999999999927
 20
-1408.9999999999991
 30
0.0
 11
6069.9999999999927
 21
-1418.9999999999991
 31
0.0
1001
ACDBBLOCKREPETAG
1070
     1
1071
      122
1005
123A40
  0
LINE
  5
123A41
  8
OBJECT
 10
6085.9999999999927
 20
-1418.9999999999991
 30
0.0
 11
6069.9999999999927
 21
-1418.9999999999991
 31
0.0
1001
ACDBBLOCKREPETAG
1070
     1
1071
      123
1005
123A41
  0
LINE
  5
123A42
  8
OBJECT
 10
6090.0
 20
-1369.9999999999959
 30
0.0
 11
5924.0
 21
-1369.9999999999959
 31
0.0
1001
ACDBBLOCKREPETAG
1070
     1
1071
      124
1005
123A42
  0
LINE
  5
123A43
  8
OBJECT
 10
6090.0
 20
-1385.0
 30
0.0
 11
6090.0
 21
-1369.9999999999959
 31
0.0
1001
ACDBBLOCKREPETAG
1070
     1
1071
      125
1005
123A43
  0
LINE
  5
123A44
  8
OBJECT
 10
5924.0
 20
-1385.0
 30
0.0
 11
6090.0
 21
-1385.0
 31
0.0
1001
ACDBBLOCKREPETAG
1070
     1
1071
      126
1005
123A44
  0
LINE
  5
123A45
  8
OBJECT
 10
6067.4999999999864
 20
-1385.0
 30
0.0
 11
6067.4999999999864
 21
-1394.9999999999991
 31
0.0
1001
ACDBBLOCKREPETAG
1070
     1
1071
      127
1005
123A45
  0
LINE
  5
123A46
  8
OBJECT
 10
6072.9999999999927
 20
-1394.9999999999991
 30
0.0
 11
6072.9999999999927
 21
-1385.0
 31
0.0
1001
ACDBBLOCKREPETAG
1070
     1
1071
      128
1005
123A46
  0
LINE
  5
123A47
  8
OBJECT
 10
6082.9999999999927
 20
-1394.9999999999991
 30
0.0
 11
6082.9999999999927
 21
-1385.0
 31
0.0
1001
ACDBBLOCKREPETAG
1070
     1
1071
      129
1005
123A47
  0
LINE
  5
123A48
  8
OBJECT
 10
5924.0
 20
-1394.9999999999991
 30
0.0
 11
5924.0
 21
-1408.9999999999959
 31
0.0
1001
ACDBBLOCKREPETAG
1070
     1
1071
      130
1005
123A48
  0
LINE
  5
123A49
  8
OBJECT
 10
6090.0
 20
-1394.9999999999991
 30
0.0
 11
6090.0
 21
-1408.9999999999959
 31
0.0
1001
ACDBBLOCKREPETAG
1070
     1
1071
      131
1005
123A49
  0
LINE
  5
123A4A
  8
OBJECT
 10
5924.0
 20
-1408.9999999999959
 30
0.0
 11
6090.0
 21
-1408.9999999999959
 31
0.0
1001
ACDBBLOCKREPETAG
1070
     1
1071
      132
1005
123A4A
  0
LINE
  5
123A4B
  8
OBJECT
 10
5924.0
 20
-1394.9999999999991
 30
0.0
 11
6090.0
 21
-1394.9999999999991
 31
0.0
1001
ACDBBLOCKREPETAG
1070
     1
1071
      133
1005
123A4B
  0
LINE
  5
123A4C
  8
OBJECT
 10
5932.4999999999864
 20
-1385.0
 30
0.0
 11
5932.4999999999864
 21
-1394.9999999999991
 31
0.0
1001
ACDBBLOCKREPETAG
1070
     1
1071
      134
1005
123A4C
  0
LINE
  5
123A4D
  8
OBJECT
 10
5934.0
 20
-1333.9999999999959
 30
0.0
 11
6065.9999999999909
 21
-1333.9999999999959
 31
0.0
1001
ACDBBLOCKREPETAG
1070
     1
1071
      135
1005
123A4D
  0
LINE
  5
123A4E
  8
OBJECT
 10
5924.0
 20
-1385.0
 30
0.0
 11
5924.0
 21
-1369.9999999999959
 31
0.0
1001
ACDBBLOCKREPETAG
1070
     1
1071
      136
1005
123A4E
  0
LINE
  5
123A4F
  8
HIDDEN
 10
5943.0
 20
-1344.9999999999991
 30
0.0
 11
6057.0
 21
-1344.9999999999991
 31
0.0
1001
ACDBBLOCKREPETAG
1070
     1
1071
      137
1005
123A4F
  0
LINE
  5
123A50
  8
OBJECT
 10
6086.9999999999918
 20
-1368.2
 30
0.0
 11
6086.9999999999918
 21
-1369.9999999999991
 31
0.0
1001
ACDBBLOCKREPETAG
1070
     1
1071
      138
1005
123A50
  0
LINE
  5
123A51
  8
OBJECT
 10
6068.9999999999909
 20
-1368.2
 30
0.0
 11
6068.9999999999909
 21
-1369.9999999999991
 31
0.0
1001
ACDBBLOCKREPETAG
1070
     1
1071
      139
1005
123A51
  0
LINE
  5
123A52
  8
OBJECT
 10
6072.2499999999927
 20
-1358.4999999999991
 30
0.0
 11
6083.7499999999927
 21
-1358.4999999999991
 31
0.0
1001
ACDBBLOCKREPETAG
1070
     1
1071
      140
1005
123A52
  0
LINE
  5
123A53
  8
OBJECT
 10
6072.2499999999927
 20
-1358.4999999999991
 30
0.0
 11
6072.2499999999927
 21
-1368.2
 31
0.0
1001
ACDBBLOCKREPETAG
1070
     1
1071
      141
1005
123A53
  0
LINE
  5
123A54
  8
OBJECT
 10
6083.7499999999927
 20
-1358.4999999999991
 30
0.0
 11
6083.7499999999927
 21
-1368.2
 31
0.0
1001
ACDBBLOCKREPETAG
1070
     1
1071
      142
1005
123A54
  0
LINE
  5
123A55
  8
OBJECT
 10
5931.9999999999873
 20
-1450.0
 30
0.0
 11
6067.9999999999873
 21
-1450.0
 31
0.0
1001
ACDBBLOCKREPETAG
1070
     1
1071
      143
1005
123A55
  0
LINE
  5
123A56
  8
OBJECT
 10
5931.9999999999873
 20
-1450.0
 30
0.0
 11
5931.9999999999873
 21
-1408.9999999999991
 31
0.0
1001
ACDBBLOCKREPETAG
1070
     1
1071
      144
1005
123A56
  0
LINE
  5
123A57
  8
OBJECT
 10
6067.9999999999873
 20
-1450.0
 30
0.0
 11
6067.9999999999873
 21
-1408.9999999999991
 31
0.0
1001
ACDBBLOCKREPETAG
1070
     1
1071
      145
1005
123A57
  0
LINE
  5
123A58
  8
OBJECT
 10
6086.9999999999918
 20
-1368.2
 30
0.0
 11
6068.9999999999909
 21
-1368.2
 31
0.0
1001
ACDBBLOCKREPETAG
1070
     1
1071
      146
1005
123A58
  0
LINE
  5
123A59
  8
CENTER
 10
6000.0
 20
-1074.9999999999991
 30
0.0
 11
6000.0
 21
-1464.9999999999991
 31
0.0
1001
ACDBBLOCKREPETAG
1070
     1
1071
      147
1005
123A59
  0
LINE
  5
123A5A
  8
OBJECT
 10
5925.0
 20
-1074.9999999999991
 30
0.0
 11
5925.0
 21
-1156.9999999999959
 31
0.0
1001
ACDBBLOCKREPETAG
1070
     1
1071
      148
1005
123A5A
  0
LINE
  5
123A5B
  8
OBJECT
 10
6075.0
 20
-1074.9999999999991
 30
0.0
 11
6075.0
 21
-1156.999999999992
 31
0.0
1001
ACDBBLOCKREPETAG
1070
     1
1071
      149
1005
123A5B
  0
LINE
  5
123A5C
  8
OBJECT
 10
5925.0
 20
-1156.9999999999959
 30
0.0
 11
6075.0
 21
-1156.999999999992
 31
0.0
1001
ACDBBLOCKREPETAG
1070
     1
1071
      150
1005
123A5C
  0
LINE
  5
123A5D
  8
OBJECT
 10
5943.0
 20
-1333.9999999999959
 30
0.0
 11
5943.0
 21
-1284.999999999992
 31
0.0
1001
ACDBBLOCKREPETAG
1070
     1
1071
      151
1005
123A5D
  0
LINE
  5
123A5E
  8
OBJECT
 10
6057.0
 20
-1284.999999999992
 30
0.0
 11
5943.0
 21
-1284.999999999992
 31
0.0
1001
ACDBBLOCKREPETAG
1070
     1
1071
      152
1005
123A5E
  0
LINE
  5
123A5F
  8
OBJECT
 10
6057.0
 20
-1284.999999999992
 30
0.0
 11
6057.0
 21
-1333.9999999999959
 31
0.0
1001
ACDBBLOCKREPETAG
1070
     1
1071
      153
1005
123A5F
  0
LINE
  5
123A60
  8
OBJECT
 10
5925.0
 20
-1156.9999999999959
 30
0.0
 11
5943.0
 21
-1284.999999999992
 31
0.0
1001
ACDBBLOCKREPETAG
1070
     1
1071
      154
1005
123A60
  0
LINE
  5
123A61
  8
OBJECT
 10
6057.0
 20
-1284.999999999992
 30
0.0
 11
6075.0
 21
-1156.999999999992
 31
0.0
1001
ACDBBLOCKREPETAG
1070
     1
1071
      155
1005
123A61
  0
LINE
  5
123A62
  8
OBJECT
 10
5934.0
 20
-1369.9999999999959
 30
0.0
 11
5934.0
 21
-1333.9999999999959
 31
0.0
1001
ACDBBLOCKREPETAG
1070
     1
1071
      156
1005
123A62
  0
LINE
  5
123A63
  8
OBJECT
 10
6066.0
 20
-1369.9999999999959
 30
0.0
 11
6065.9999999999909
 21
-1333.9999999999959
 31
0.0
1001
ACDBBLOCKREPETAG
1070
     1
1071
      157
1005
123A63
  0
LINE
  5
123A64
  8
OBJECT
 10
5954.75
 20
-1359.699999999993
 30
0.0
 11
5967.2499999999991
 21
-1359.699999999993
 31
0.0
1001
ACDBBLOCKREPETAG
1070
     1
1071
      158
1005
123A64
  0
LINE
  5
123A65
  8
OBJECT
 10
5946.0
 20
-1369.9999999999959
 30
0.0
 11
5946.0
 21
-1367.699999999996
 31
0.0
1001
ACDBBLOCKREPETAG
1070
     1
1071
      159
1005
123A65
  0
LINE
  5
123A66
  8
OBJECT
 10
5976.0
 20
-1369.9999999999959
 30
0.0
 11
5976.0
 21
-1367.699999999996
 31
0.0
1001
ACDBBLOCKREPETAG
1070
     1
1071
      160
1005
123A66
  0
LINE
  5
123A67
  8
OBJECT
 10
5954.75
 20
-1359.699999999993
 30
0.0
 11
5954.75
 21
-1367.699999999996
 31
0.0
1001
ACDBBLOCKREPETAG
1070
     1
1071
      161
1005
123A67
  0
LINE
  5
123A68
  8
OBJECT
 10
5967.2499999999991
 20
-1359.699999999993
 30
0.0
 11
5967.2499999999991
 21
-1367.699999999996
 31
0.0
1001
ACDBBLOCKREPETAG
1070
     1
1071
      162
1005
123A68
  0
LINE
  5
123A69
  8
OBJECT
 10
5946.0
 20
-1367.699999999996
 30
0.0
 11
5976.0
 21
-1367.699999999996
 31
0.0
1001
ACDBBLOCKREPETAG
1070
     1
1071
      163
1005
123A69
  0
LINE
  5
123A6A
  8
OBJECT
 10
5953.0
 20
-1408.9999999999959
 30
0.0
 11
5953.0
 21
-1418.9999999999959
 31
0.0
1001
ACDBBLOCKREPETAG
1070
     1
1071
      164
1005
123A6A
  0
LINE
  5
123A6B
  8
OBJECT
 10
5969.0
 20
-1408.9999999999959
 30
0.0
 11
5969.0
 21
-1418.9999999999959
 31
0.0
1001
ACDBBLOCKREPETAG
1070
     1
1071
      165
1005
123A6B
  0
LINE
  5
123A6C
  8
OBJECT
 10
5953.0
 20
-1418.9999999999959
 30
0.0
 11
5969.0
 21
-1418.9999999999959
 31
0.0
1001
ACDBBLOCKREPETAG
1070
     1
1071
      166
1005
123A6C
  0
LINE
  5
123A6D
  8
OBJECT
 10
5966.0
 20
-1394.9999999999959
 30
0.0
 11
5966.0
 21
-1384.9999999999959
 31
0.0
1001
ACDBBLOCKREPETAG
1070
     1
1071
      167
1005
123A6D
  0
LINE
  5
123A6E
  8
OBJECT
 10
5956.0
 20
-1394.9999999999959
 30
0.0
 11
5956.0
 21
-1384.9999999999959
 31
0.0
1001
ACDBBLOCKREPETAG
1070
     1
1071
      168
1005
123A6E
  0
LINE
  5
123A6F
  8
OBJECT
 10
4090.0
 20
-1369.9999999999959
 30
0.0
 11
3924.0
 21
-1369.9999999999959
 31
0.0
1001
ACDBBLOCKREPETAG
1070
     1
1071
       12
1005
123A6F
  0
LINE
  5
123A70
  8
OBJECT
 10
4066.0
 20
-1333.9999999999959
 30
0.0
 11
3934.0
 21
-1333.9999999999959
 31
0.0
1001
ACDBBLOCKREPETAG
1070
     1
1071
       13
1005
123A70
  0
LINE
  5
123A71
  8
OBJECT
 10
4090.0
 20
-1385.0
 30
0.0
 11
4090.0
 21
-1369.9999999999959
 31
0.0
1001
ACDBBLOCKREPETAG
1070
     1
1071
       14
1005
123A71
  0
LINE
  5
123A72
  8
OBJECT
 10
3924.0
 20
-1385.0
 30
0.0
 11
4090.0
 21
-1385.0
 31
0.0
1001
ACDBBLOCKREPETAG
1070
     1
1071
       15
1005
123A72
  0
LINE
  5
123A73
  8
OBJECT
 10
4067.4999999999841
 20
-1385.0
 30
0.0
 11
4067.4999999999841
 21
-1394.9999999999991
 31
0.0
1001
ACDBBLOCKREPETAG
1070
     1
1071
       16
1005
123A73
  0
LINE
  5
123A74
  8
OBJECT
 10
3924.0
 20
-1394.9999999999991
 30
0.0
 11
3924.0
 21
-1408.9999999999959
 31
0.0
1001
ACDBBLOCKREPETAG
1070
     1
1071
       17
1005
123A74
  0
LINE
  5
123A75
  8
OBJECT
 10
4090.0
 20
-1394.9999999999991
 30
0.0
 11
4090.0
 21
-1408.9999999999959
 31
0.0
1001
ACDBBLOCKREPETAG
1070
     1
1071
       18
1005
123A75
  0
LINE
  5
123A76
  8
OBJECT
 10
3924.0
 20
-1408.9999999999959
 30
0.0
 11
4090.0
 21
-1408.9999999999959
 31
0.0
1001
ACDBBLOCKREPETAG
1070
     1
1071
       19
1005
123A76
  0
LINE
  5
123A77
  8
OBJECT
 10
3924.0
 20
-1394.9999999999991
 30
0.0
 11
4090.0
 21
-1394.9999999999991
 31
0.0
1001
ACDBBLOCKREPETAG
1070
     1
1071
       20
1005
123A77
  0
LINE
  5
123A78
  8
OBJECT
 10
3932.499999999985
 20
-1385.0
 30
0.0
 11
3932.499999999985
 21
-1394.9999999999991
 31
0.0
1001
ACDBBLOCKREPETAG
1070
     1
1071
       21
1005
123A78
  0
LINE
  5
123A79
  8
OBJECT
 10
3924.0
 20
-1385.0
 30
0.0
 11
3924.0
 21
-1369.9999999999959
 31
0.0
1001
ACDBBLOCKREPETAG
1070
     1
1071
       22
1005
123A79
  0
LINE
  5
123A7A
  8
HIDDEN
 10
3943.0
 20
-1344.9999999999991
 30
0.0
 11
4057.0
 21
-1344.9999999999991
 31
0.0
1001
ACDBBLOCKREPETAG
1070
     1
1071
       23
1005
123A7A
  0
LINE
  5
123A7B
  8
CENTER
 10
4000.0
 20
-1074.9999999999991
 30
0.0
 11
4000.0
 21
-1423.9999999999959
 31
0.0
1001
ACDBBLOCKREPETAG
1070
     1
1071
       24
1005
123A7B
  0
LINE
  5
123A7C
  8
OBJECT
 10
3925.0
 20
-1074.9999999999991
 30
0.0
 11
3925.0
 21
-1156.9999999999959
 31
0.0
1001
ACDBBLOCKREPETAG
1070
     1
1071
       25
1005
123A7C
  0
LINE
  5
123A7D
  8
OBJECT
 10
4075.0
 20
-1074.9999999999991
 30
0.0
 11
4075.0
 21
-1156.999999999992
 31
0.0
1001
ACDBBLOCKREPETAG
1070
     1
1071
       26
1005
123A7D
  0
LINE
  5
123A7E
  8
OBJECT
 10
3925.0
 20
-1156.9999999999959
 30
0.0
 11
4075.0
 21
-1156.999999999992
 31
0.0
1001
ACDBBLOCKREPETAG
1070
     1
1071
       27
1005
123A7E
  0
LINE
  5
123A7F
  8
OBJECT
 10
4057.0
 20
-1333.9999999999959
 30
0.0
 11
4057.0
 21
-1284.999999999992
 31
0.0
1001
ACDBBLOCKREPETAG
1070
     1
1071
       28
1005
123A7F
  0
LINE
  5
123A80
  8
OBJECT
 10
3943.0
 20
-1333.9999999999959
 30
0.0
 11
3943.0
 21
-1284.999999999992
 31
0.0
1001
ACDBBLOCKREPETAG
1070
     1
1071
       29
1005
123A80
  0
LINE
  5
123A81
  8
OBJECT
 10
4057.0
 20
-1284.999999999992
 30
0.0
 11
3943.0
 21
-1284.999999999992
 31
0.0
1001
ACDBBLOCKREPETAG
1070
     1
1071
       30
1005
123A81
  0
LINE
  5
123A82
  8
OBJECT
 10
3925.0
 20
-1156.9999999999959
 30
0.0
 11
3943.0
 21
-1284.999999999992
 31
0.0
1001
ACDBBLOCKREPETAG
1070
     1
1071
       31
1005
123A82
  0
LINE
  5
123A83
  8
OBJECT
 10
4057.0
 20
-1284.999999999992
 30
0.0
 11
4075.0
 21
-1156.999999999992
 31
0.0
1001
ACDBBLOCKREPETAG
1070
     1
1071
       32
1005
123A83
  0
LINE
  5
123A84
  8
OBJECT
 10
3934.0
 20
-1333.9999999999959
 30
0.0
 11
3934.0
 21
-1369.9999999999959
 31
0.0
1001
ACDBBLOCKREPETAG
1070
     1
1071
       33
1005
123A84
  0
LINE
  5
123A85
  8
OBJECT
 10
4066.0
 20
-1333.9999999999959
 30
0.0
 11
4066.0
 21
-1369.9999999999959
 31
0.0
1001
ACDBBLOCKREPETAG
1070
     1
1071
       34
1005
123A85
  0
LINE
  5
123A86
  8
OBJECT
 10
4082.9999999999932
 20
-1394.9999999999959
 30
0.0
 11
4082.9999999999932
 21
-1384.9999999999959
 31
0.0
1001
ACDBBLOCKREPETAG
1070
     1
1071
       35
1005
123A86
  0
LINE
  5
123A87
  8
OBJECT
 10
4072.9999999999918
 20
-1394.9999999999959
 30
0.0
 11
4072.9999999999918
 21
-1384.9999999999959
 31
0.0
1001
ACDBBLOCKREPETAG
1070
     1
1071
       36
1005
123A87
  0
LINE
  5
123A88
  8
OBJECT
 10
4068.9999999999841
 20
-1364.9999999999959
 30
0.0
 11
4068.9999999999841
 21
-1369.9999999999959
 31
0.0
1001
ACDBBLOCKREPETAG
1070
     1
1071
       37
1005
123A88
  0
LINE
  5
123A89
  8
OBJECT
 10
4087.0
 20
-1364.9999999999959
 30
0.0
 11
4087.0
 21
-1369.9999999999959
 31
0.0
1001
ACDBBLOCKREPETAG
1070
     1
1071
       38
1005
123A89
  0
LINE
  5
123A8A
  8
OBJECT
 10
4087.0
 20
-1364.9999999999959
 30
0.0
 11
4068.9999999999841
 21
-1364.9999999999959
 31
0.0
1001
ACDBBLOCKREPETAG
1070
     1
1071
       39
1005
123A8A
  0
LINE
  5
123A8B
  8
OBJECT
 10
4073.0
 20
-1416.9999999999959
 30
0.0
 11
4073.0
 21
-1419.9999999999959
 31
0.0
1001
ACDBBLOCKREPETAG
1070
     1
1071
       40
1005
123A8B
  0
LINE
  5
123A8C
  8
OBJECT
 10
4073.0
 20
-1419.9999999999959
 30
0.0
 11
4083.0
 21
-1419.9999999999959
 31
0.0
1001
ACDBBLOCKREPETAG
1070
     1
1071
       41
1005
123A8C
  0
LINE
  5
123A8D
  8
OBJECT
 10
4083.0
 20
-1419.9999999999959
 30
0.0
 11
4083.0
 21
-1416.9999999999959
 31
0.0
1001
ACDBBLOCKREPETAG
1070
     1
1071
       43
1005
123A8D
  0
LINE
  5
123A8E
  8
OBJECT
 10
3968.5
 20
-1364.9999999999959
 30
0.0
 11
3951.9999999999932
 21
-1364.9999999999959
 31
0.0
1001
ACDBBLOCKREPETAG
1070
     1
1071
       48
1005
123A8E
  0
LINE
  5
123A8F
  8
OBJECT
 10
3976.0
 20
-1369.9999999999959
 30
0.0
 11
3976.0
 21
-1367.9999999999959
 31
0.0
1001
ACDBBLOCKREPETAG
1070
     1
1071
       49
1005
123A8F
  0
LINE
  5
123A90
  8
OBJECT
 10
3966.0
 20
-1394.9999999999959
 30
0.0
 11
3966.0
 21
-1384.9999999999959
 31
0.0
1001
ACDBBLOCKREPETAG
1070
     1
1071
       50
1005
123A90
  0
LINE
  5
123A91
  8
OBJECT
 10
3956.0
 20
-1394.9999999999959
 30
0.0
 11
3956.0
 21
-1384.9999999999959
 31
0.0
1001
ACDBBLOCKREPETAG
1070
     1
1071
       51
1005
123A91
  0
LINE
  5
123A92
  8
OBJECT
 10
3951.9999999999932
 20
-1364.9999999999959
 30
0.0
 11
3951.9999999999932
 21
-1369.9999999999959
 31
0.0
1001
ACDBBLOCKREPETAG
1070
     1
1071
       52
1005
123A92
  0
LINE
  5
123A93
  8
OBJECT
 10
3956.0
 20
-1416.9999999999959
 30
0.0
 11
3956.0
 21
-1419.9999999999959
 31
0.0
1001
ACDBBLOCKREPETAG
1070
     1
1071
       53
1005
123A93
  0
LINE
  5
123A94
  8
OBJECT
 10
3956.0
 20
-1419.9999999999959
 30
0.0
 11
3966.0
 21
-1419.9999999999959
 31
0.0
1001
ACDBBLOCKREPETAG
1070
     1
1071
       54
1005
123A94
  0
LINE
  5
123A95
  8
OBJECT
 10
3951.185045423772
 20
-1416.9999999999959
 30
0.0
 11
3970.8149545762212
 21
-1416.9999999999959
 31
0.0
1001
ACDBBLOCKREPETAG
1070
     1
1071
       55
1005
123A95
  0
LINE
  5
123A96
  8
OBJECT
 10
3966.0
 20
-1419.9999999999959
 30
0.0
 11
3966.0
 21
-1416.9999999999959
 31
0.0
1001
ACDBBLOCKREPETAG
1070
     1
1071
       56
1005
123A96
  0
LINE
  5
123A97
  8
OBJECT
 10
3976.0
 20
-1367.9999999999959
 30
0.0
 11
3968.5
 21
-1364.9999999999959
 31
0.0
1001
ACDBBLOCKREPETAG
1070
     1
1071
       57
1005
123A97
  0
LINE
  5
123A98
  8
OBJECT
 10
3951.185045423777
 20
-1408.9999999999959
 30
0.0
 11
3951.185045423777
 21
-1416.9999999999959
 31
0.0
1001
ACDBBLOCKREPETAG
1070
     1
1071
      630
1005
123A98
  0
LINE
  5
123A99
  8
OBJECT
 10
3956.0925227118901
 20
-1408.9999999999959
 30
0.0
 11
3956.0925227118901
 21
-1416.9999999999959
 31
0.0
1001
ACDBBLOCKREPETAG
1070
     1
1071
      631
1005
123A99
  0
LINE
  5
123A9A
  8
OBJECT
 10
3965.9074772881122
 20
-1408.9999999999959
 30
0.0
 11
3965.9074772881122
 21
-1416.9999999999959
 31
0.0
1001
ACDBBLOCKREPETAG
1070
     1
1071
      632
1005
123A9A
  0
LINE
  5
123A9B
  8
OBJECT
 10
3970.814954576223
 20
-1408.9999999999959
 30
0.0
 11
3970.814954576223
 21
-1416.9999999999959
 31
0.0
1001
ACDBBLOCKREPETAG
1070
     1
1071
      633
1005
123A9B
  0
LINE
  5
123A9C
  8
OBJECT
 10
4068.185045423772
 20
-1416.9999999999959
 30
0.0
 11
4087.8149545762199
 21
-1416.9999999999959
 31
0.0
1001
ACDBBLOCKREPETAG
1070
     1
1071
      634
1005
123A9C
  0
LINE
  5
123A9D
  8
OBJECT
 10
4068.185045423777
 20
-1408.9999999999959
 30
0.0
 11
4068.185045423777
 21
-1416.9999999999959
 31
0.0
1001
ACDBBLOCKREPETAG
1070
     1
1071
      635
1005
123A9D
  0
LINE
  5
123A9E
  8
OBJECT
 10
4073.0925227118869
 20
-1408.9999999999959
 30
0.0
 11
4073.0925227118869
 21
-1416.9999999999959
 31
0.0
1001
ACDBBLOCKREPETAG
1070
     1
1071
      636
1005
123A9E
  0
LINE
  5
123A9F
  8
OBJECT
 10
4082.9074772881122
 20
-1408.9999999999959
 30
0.0
 11
4082.9074772881122
 21
-1416.9999999999959
 31
0.0
1001
ACDBBLOCKREPETAG
1070
     1
1071
      637
1005
123A9F
  0
LINE
  5
123AA0
  8
OBJECT
 10
4087.814954576223
 20
-1408.9999999999959
 30
0.0
 11
4087.814954576223
 21
-1416.9999999999959
 31
0.0
1001
ACDBBLOCKREPETAG
1070
     1
1071
      638
1005
123AA0
  0
LINE
  5
123AA1
  8
OBJECT
 10
1943.0
 20
-1384.9999999999959
 30
0.0
 11
2057.0
 21
-1384.9999999999959
 31
0.0
1001
ACDBBLOCKREPETAG
1070
     1
1071
        0
1005
123AA1
  0
LINE
  5
123AA2
  8
OBJECT
 10
1943.0
 20
-1384.9999999999959
 30
0.0
 11
1943.0
 21
-1284.9999999999959
 31
0.0
1001
ACDBBLOCKREPETAG
1070
     1
1071
        1
1005
123AA2
  0
LINE
  5
123AA3
  8
OBJECT
 10
2057.0
 20
-1384.9999999999959
 30
0.0
 11
2057.0
 21
-1284.9999999999959
 31
0.0
1001
ACDBBLOCKREPETAG
1070
     1
1071
        2
1005
123AA3
  0
LINE
  5
123AA4
  8
OBJECT
 10
1943.0
 20
-1284.9999999999959
 30
0.0
 11
2057.0
 21
-1284.9999999999959
 31
0.0
1001
ACDBBLOCKREPETAG
1070
     1
1071
        3
1005
123AA4
  0
LINE
  5
123AA5
  8
HIDDEN
 10
1950.0
 20
-1284.9999999999959
 30
0.0
 11
1950.0
 21
-1384.9999999999959
 31
0.0
1001
ACDBBLOCKREPETAG
1070
     1
1071
        4
1005
123AA5
  0
LINE
  5
123AA6
  8
HIDDEN
 10
2050.0
 20
-1284.9999999999959
 30
0.0
 11
2050.0
 21
-1384.9999999999959
 31
0.0
1001
ACDBBLOCKREPETAG
1070
     1
1071
        5
1005
123AA6
  0
LINE
  5
123AA7
  8
CENTER
 10
2000.0
 20
-1074.9999999999991
 30
0.0
 11
2000.0
 21
-1399.9999999999959
 31
0.0
1001
ACDBBLOCKREPETAG
1070
     1
1071
        6
1005
123AA7
  0
LINE
  5
123AA8
  8
OBJECT
 10
1925.0
 20
-1074.9999999999991
 30
0.0
 11
1925.0
 21
-1156.9999999999959
 31
0.0
1001
ACDBBLOCKREPETAG
1070
     1
1071
        7
1005
123AA8
  0
LINE
  5
123AA9
  8
OBJECT
 10
2075.0
 20
-1074.9999999999991
 30
0.0
 11
2075.0
 21
-1156.9999999999959
 31
0.0
1001
ACDBBLOCKREPETAG
1070
     1
1071
        8
1005
123AA9
  0
LINE
  5
123AAA
  8
OBJECT
 10
1925.0
 20
-1156.9999999999959
 30
0.0
 11
2075.0
 21
-1156.9999999999959
 31
0.0
1001
ACDBBLOCKREPETAG
1070
     1
1071
        9
1005
123AAA
  0
LINE
  5
123AAB
  8
OBJECT
 10
1925.0
 20
-1156.9999999999959
 30
0.0
 11
1943.0
 21
-1284.9999999999959
 31
0.0
1001
ACDBBLOCKREPETAG
1070
     1
1071
       10
1005
123AAB
  0
LINE
  5
123AAC
  8
OBJECT
 10
2057.0
 20
-1284.9999999999959
 30
0.0
 11
2075.0
 21
-1156.9999999999959
 31
0.0
1001
ACDBBLOCKREPETAG
1070
     1
1071
       11
1005
123AAC
  0
TEXT
  5
123AAD
  8
SLIM
 10
0.0
 20
670.0
 30
0.0
 40
100.0
  1
4SLT2-Z6-P140-0-S
 41
0.75
  0
TEXT
  5
123AAE
  8
SLIM
 10
0.0
 20
520.0
 30
0.0
 40
100.0
  1
4SLT2-Z6-P140-0-W
 41
0.75
  0
LINE
  5
123AAF
  8
CENTER
 10
11909.0
 20
-1658.9999999999959
 30
0.0
 11
12105.0
 21
-1658.9999999999959
 31
0.0
1001
ACDBBLOCKREPETAG
1070
     1
1071
       10
1005
123AAF
  0
LINE
  5
123AB0
  8
CENTER
 10
12000.0
 20
-1567.725335570779
 30
0.0
 11
12000.0
 21
-1750.274664429212
 31
0.0
1001
ACDBBLOCKREPETAG
1070
     1
1071
       11
1005
123AB0
  0
CIRCLE
  5
123AB1
  8
OBJECT
 10
12000.0
 20
-1658.9999999999959
 30
0.0
 40
50.0
1001
ACDBBLOCKREPETAG
1070
     1
1071
       12
1005
123AB1
  0
CIRCLE
  5
123AB2
  8
OBJECT
 10
12000.0
 20
-1658.9999999999959
 30
0.0
 40
60.0
1001
ACDBBLOCKREPETAG
1070
     1
1071
       13
1005
123AB2
  0
CIRCLE
  5
123AB3
  8
OBJECT
 10
12000.0
 20
-1658.9999999999959
 30
0.0
 40
68.0
1001
ACDBBLOCKREPETAG
1070
     1
1071
       14
1005
123AB3
  0
ARC
  5
123AB4
  8
OBJECT
 10
12077.5
 20
-1658.9999999999959
 30
0.0
 40
12.0
 50
272.10542627221611
 51
87.894573727783893
1001
ACDBBLOCKREPETAG
1070
     1
1071
       15
1005
123AB4
  0
ARC
  5
123AB5
  8
OBJECT
 10
12078.49193548386
 20
-1632.0182271895239
 30
0.0
 40
15.0
 50
198.97051877965251
 51
267.89457372778372
1001
ACDBBLOCKREPETAG
1070
     1
1071
       16
1005
123AB5
  0
ARC
  5
123AB6
  8
OBJECT
 10
12078.49193548386
 20
-1685.981772810464
 30
0.0
 40
15.0
 50
92.105426272216135
 51
161.02948122034729
1001
ACDBBLOCKREPETAG
1070
     1
1071
       17
1005
123AB6
  0
CIRCLE
  5
123AB7
  8
SLIM
 10
12078.0
 20
-1658.9999999999959
 30
0.0
 40
8.0
1001
ACDBBLOCKREPETAG
1070
     1
1071
       18
1005
123AB7
  0
POLYLINE
  5
123AB8
  8
SLIM
 66
     1
 10
0.0
 20
0.0
 30
0.0
 70
     1
1001
ACDBBLOCKREPETAG
1070
     1
1071
       19
1005
123AB8
  0
VERTEX
  5
123C94
  8
SLIM
 10
12075.69059892322
 20
-1654.999999999995
 30
0.0
  0
VERTEX
  5
123C95
  8
SLIM
 10
12073.38119784648
 20
-1658.9999999999959
 30
0.0
  0
VERTEX
  5
123C96
  8
SLIM
 10
12075.69059892322
 20
-1662.9999999999959
 30
0.0
  0
VERTEX
  5
123C97
  8
SLIM
 10
12080.309401076751
 20
-1662.9999999999959
 30
0.0
  0
VERTEX
  5
123C98
  8
SLIM
 10
12082.618802153511
 20
-1658.9999999999959
 30
0.0
  0
VERTEX
  5
123C99
  8
SLIM
 10
12080.309401076751
 20
-1654.999999999995
 30
0.0
  0
SEQEND
  5
123C9A
  8
SLIM
  0
ARC
  5
123AB9
  8
OBJECT
 10
11961.25
 20
-1591.8830312067
 30
0.0
 40
12.0
 50
32.105426272130188
 51
207.89457372768319
1001
ACDBBLOCKREPETAG
1070
     1
1071
       20
1005
123AB9
  0
ARC
  5
123ABA
  8
OBJECT
 10
11937.38713156505
 20
-1604.5148762839881
 30
0.0
 40
15.0
 50
318.97051877944762
 51
27.89457372768311
1001
ACDBBLOCKREPETAG
1070
     1
1071
       21
1005
123ABA
  0
ARC
  5
123ABB
  8
OBJECT
 10
11984.120932951069
 20
-1577.533103473517
 30
0.0
 40
15.0
 50
212.10542627213019
 51
281.02948122044069
1001
ACDBBLOCKREPETAG
1070
     1
1071
       22
1005
123ABB
  0
CIRCLE
  5
123ABC
  8
SLIM
 10
11961.0
 20
-1591.4500185048089
 30
0.0
 40
7.9999999999999982
1001
ACDBBLOCKREPETAG
1070
     1
1071
       23
1005
123ABC
  0
POLYLINE
  5
123ABD
  8
SLIM
 66
     1
 10
0.0
 20
0.0
 30
0.0
 70
     1
1001
ACDBBLOCKREPETAG
1070
     1
1071
       24
1005
123ABD
  0
VERTEX
  5
123C9B
  8
SLIM
 10
11958.69059892324
 20
-1595.4500185048089
 30
0.0
  0
VERTEX
  5
123C9C
  8
SLIM
 10
11963.309401076751
 20
-1595.4500185048089
 30
0.0
  0
VERTEX
  5
123C9D
  8
SLIM
 10
11965.618802153511
 20
-1591.4500185048089
 30
0.0
  0
VERTEX
  5
123C9E
  8
SLIM
 10
11963.309401076751
 20
-1587.4500185048089
 30
0.0
  0
VERTEX
  5
123C9F
  8
SLIM
 10
11958.69059892324
 20
-1587.4500185048089
 30
0.0
  0
VERTEX
  5
123CA0
  8
SLIM
 10
11956.38119784648
 20
-1591.4500185048089
 30
0.0
  0
SEQEND
  5
123CA1
  8
SLIM
  0
ARC
  5
123ABE
  8
OBJECT
 10
11961.25
 20
-1726.1169687932879
 30
0.0
 40
12.0
 50
152.10542627231681
 51
327.89457372786978
1001
ACDBBLOCKREPETAG
1070
     1
1071
       25
1005
123ABE
  0
ARC
  5
123ABF
  8
OBJECT
 10
11984.120932951069
 20
-1740.4668965264709
 30
0.0
 40
15.0
 50
78.970518779559228
 51
147.89457372786981
1001
ACDBBLOCKREPETAG
1070
     1
1071
       26
1005
123ABF
  0
ARC
  5
123AC0
  8
OBJECT
 10
11937.38713156505
 20
-1713.485123716003
 30
0.0
 40
15.0
 50
332.10542627231678
 51
41.029481220552412
1001
ACDBBLOCKREPETAG
1070
     1
1071
       27
1005
123AC0
  0
CIRCLE
  5
123AC1
  8
SLIM
 10
11961.0
 20
-1726.5499814951829
 30
0.0
 40
8.0
1001
ACDBBLOCKREPETAG
1070
     1
1071
       28
1005
123AC1
  0
POLYLINE
  5
123AC2
  8
SLIM
 66
     1
 10
0.0
 20
0.0
 30
0.0
 70
     1
1001
ACDBBLOCKREPETAG
1070
     1
1071
       29
1005
123AC2
  0
VERTEX
  5
123CA2
  8
SLIM
 10
11965.618802153511
 20
-1726.5499814951791
 30
0.0
  0
VERTEX
  5
123CA3
  8
SLIM
 10
11963.309401076751
 20
-1722.549981495182
 30
0.0
  0
VERTEX
  5
123CA4
  8
SLIM
 10
11958.69059892324
 20
-1722.5499814951791
 30
0.0
  0
VERTEX
  5
123CA5
  8
SLIM
 10
11956.38119784648
 20
-1726.5499814951829
 30
0.0
  0
VERTEX
  5
123CA6
  8
SLIM
 10
11958.69059892322
 20
-1730.5499814951791
 30
0.0
  0
VERTEX
  5
123CA7
  8
SLIM
 10
11963.309401076751
 20
-1730.549981495182
 30
0.0
  0
SEQEND
  5
123CA8
  8
SLIM
  0
ARC
  5
123AC3
  8
OBJECT
 10
12000.0
 20
-1658.9999999999959
 30
0.0
 40
76.0
 50
34.863837954171863
 51
85.136162045732945
1001
ACDBBLOCKREPETAG
1070
     1
1071
       42
1005
123AC3
  0
ARC
  5
123AC4
  8
OBJECT
 10
12000.0
 20
-1658.9999999999959
 30
0.0
 40
76.0
 50
154.86383795430939
 51
205.1361620456905
1001
ACDBBLOCKREPETAG
1070
     1
1071
       43
1005
123AC4
  0
ARC
  5
123AC5
  8
OBJECT
 10
12000.0
 20
-1658.9999999999959
 30
0.0
 40
76.0
 50
274.86383795426718
 51
325.13616204582797
1001
ACDBBLOCKREPETAG
1070
     1
1071
       44
1005
123AC5
  0
ARC
  5
123AC6
  8
OBJECT
 10
12078.0
 20
-1658.9999999999959
 30
0.0
 40
12.0
 50
325.13616204582797
 51
34.863837954171863
1001
ACDBBLOCKREPETAG
1070
     1
1071
       45
1005
123AC6
  0
LINE
  5
123AC7
  8
OBJECT
 10
12087.84615384616
 20
-1652.140462520133
 30
0.0
 11
12062.358974359049
 21
-1615.556262627535
 31
0.0
1001
ACDBBLOCKREPETAG
1070
     1
1071
       46
1005
123AC7
  0
LINE
  5
123AC8
  8
OBJECT
 10
12087.846153846171
 20
-1665.859537479856
 30
0.0
 11
12062.358974359049
 21
-1702.4437373724591
 31
0.0
1001
ACDBBLOCKREPETAG
1070
     1
1071
       47
1005
123AC8
  0
ARC
  5
123AC9
  8
OBJECT
 10
11961.0
 20
-1591.45001850481
 30
0.0
 40
12.0
 50
85.136162045942811
 51
154.86383795410001
1001
ACDBBLOCKREPETAG
1070
     1
1071
       48
1005
123AC9
  0
LINE
  5
123ACA
  8
OBJECT
 10
11950.13638936114
 20
-1586.35276788439
 30
0.0
 11
11931.19713262058
 21
-1626.7174127373471
 31
0.0
1001
ACDBBLOCKREPETAG
1070
     1
1071
       49
1005
123ACA
  0
LINE
  5
123ACB
  8
OBJECT
 10
11962.017456792681
 20
-1579.493230404526
 30
0.0
 11
12006.443893020371
 21
-1583.2736753648851
 31
0.0
1001
ACDBBLOCKREPETAG
1070
     1
1071
       50
1005
123ACB
  0
ARC
  5
123ACC
  8
OBJECT
 10
11961.0
 20
-1726.5499814951811
 30
0.0
 40
12.0
 50
205.13616204589991
 51
274.8638379540572
1001
ACDBBLOCKREPETAG
1070
     1
1071
       51
1005
123ACC
  0
LINE
  5
123ACD
  8
OBJECT
 10
11962.01745679269
 20
-1738.5067695954631
 30
0.0
 11
12006.44389302036
 21
-1734.726324635106
 31
0.0
1001
ACDBBLOCKREPETAG
1070
     1
1071
       52
1005
123ACD
  0
LINE
  5
123ACE
  8
OBJECT
 10
11950.13638936114
 20
-1731.647232115605
 30
0.0
 11
11931.19713262058
 21
-1691.2825872626429
 31
0.0
1001
ACDBBLOCKREPETAG
1070
     1
1071
       53
1005
123ACE
  0
LINE
  5
123ACF
  8
CENTER
 10
9909.0
 20
-1658.9999999999959
 30
0.0
 11
10105.0
 21
-1658.9999999999959
 31
0.0
1001
ACDBBLOCKREPETAG
1070
     1
1071
        0
1005
123ACF
  0
LINE
  5
123AD0
  8
CENTER
 10
10000.0
 20
-1567.725335570779
 30
0.0
 11
10000.0
 21
-1750.274664429212
 31
0.0
1001
ACDBBLOCKREPETAG
1070
     1
1071
        1
1005
123AD0
  0
CIRCLE
  5
123AD1
  8
OBJECT
 10
10000.0
 20
-1658.9999999999959
 30
0.0
 40
50.0
1001
ACDBBLOCKREPETAG
1070
     1
1071
        2
1005
123AD1
  0
CIRCLE
  5
123AD2
  8
OBJECT
 10
10000.0
 20
-1658.9999999999959
 30
0.0
 40
62.0
1001
ACDBBLOCKREPETAG
1070
     1
1071
        3
1005
123AD2
  0
CIRCLE
  5
123AD3
  8
SLIM
 10
10078.0
 20
-1658.9999999999959
 30
0.0
 40
5.0
1001
ACDBBLOCKREPETAG
1070
     1
1071
        4
1005
123AD3
  0
POLYLINE
  5
123AD4
  8
SLIM
 66
     1
 10
0.0
 20
0.0
 30
0.0
 70
     1
1001
ACDBBLOCKREPETAG
1070
     1
1071
        5
1005
123AD4
  0
VERTEX
  5
123CA9
  8
SLIM
 10
10073.092522711881
 20
-1650.4999999999959
 30
0.0
  0
VERTEX
  5
123CAA
  8
SLIM
 10
10068.18504542377
 20
-1658.9999999999959
 30
0.0
  0
VERTEX
  5
123CAB
  8
SLIM
 10
10073.092522711881
 20
-1667.4999999999959
 30
0.0
  0
VERTEX
  5
123CAC
  8
SLIM
 10
10082.907477288099
 20
-1667.4999999999959
 30
0.0
  0
VERTEX
  5
123CAD
  8
SLIM
 10
10087.814954576221
 20
-1658.9999999999959
 30
0.0
  0
VERTEX
  5
123CAE
  8
SLIM
 10
10082.907477288099
 20
-1650.4999999999959
 30
0.0
  0
SEQEND
  5
123CAF
  8
SLIM
  0
CIRCLE
  5
123AD5
  8
SLIM
 10
9961.0
 20
-1591.4500185048089
 30
0.0
 40
4.9999999999999991
1001
ACDBBLOCKREPETAG
1070
     1
1071
        6
1005
123AD5
  0
POLYLINE
  5
123AD6
  8
SLIM
 66
     1
 10
0.0
 20
0.0
 30
0.0
 70
     1
1001
ACDBBLOCKREPETAG
1070
     1
1071
        7
1005
123AD6
  0
VERTEX
  5
123CB0
  8
SLIM
 10
9956.092522711886
 20
-1599.9500185048089
 30
0.0
  0
VERTEX
  5
123CB1
  8
SLIM
 10
9965.907477288114
 20
-1599.9500185048089
 30
0.0
  0
VERTEX
  5
123CB2
  8
SLIM
 10
9970.814954576219
 20
-1591.4500185048089
 30
0.0
  0
VERTEX
  5
123CB3
  8
SLIM
 10
9965.907477288114
 20
-1582.950018504808
 30
0.0
  0
VERTEX
  5
123CB4
  8
SLIM
 10
9956.092522711886
 20
-1582.950018504808
 30
0.0
  0
VERTEX
  5
123CB5
  8
SLIM
 10
9951.185045423772
 20
-1591.4500185048089
 30
0.0
  0
SEQEND
  5
123CB6
  8
SLIM
  0
CIRCLE
  5
123AD7
  8
SLIM
 10
9961.0
 20
-1726.5499814951829
 30
0.0
 40
5.0
1001
ACDBBLOCKREPETAG
1070
     1
1071
        8
1005
123AD7
  0
POLYLINE
  5
123AD8
  8
SLIM
 66
     1
 10
0.0
 20
0.0
 30
0.0
 70
     1
1001
ACDBBLOCKREPETAG
1070
     1
1071
        9
1005
123AD8
  0
VERTEX
  5
123CB7
  8
SLIM
 10
9970.814954576219
 20
-1726.5499814951829
 30
0.0
  0
VERTEX
  5
123CB8
  8
SLIM
 10
9965.9074772881049
 20
-1718.0499814951791
 30
0.0
  0
VERTEX
  5
123CB9
  8
SLIM
 10
9956.092522711886
 20
-1718.049981495182
 30
0.0
  0
VERTEX
  5
123CBA
  8
SLIM
 10
9951.185045423772
 20
-1726.5499814951791
 30
0.0
  0
VERTEX
  5
123CBB
  8
SLIM
 10
9956.092522711886
 20
-1735.0499814951829
 30
0.0
  0
VERTEX
  5
123CBC
  8
SLIM
 10
9965.907477288114
 20
-1735.0499814951791
 30
0.0
  0
SEQEND
  5
123CBD
  8
SLIM
  0
ARC
  5
123AD9
  8
OBJECT
 10
10000.0
 20
-1658.9999999999959
 30
0.0
 40
76.0
 50
34.863837954171863
 51
85.136162045732945
1001
ACDBBLOCKREPETAG
1070
     1
1071
       30
1005
123AD9
  0
ARC
  5
123ADA
  8
OBJECT
 10
10000.0
 20
-1658.9999999999959
 30
0.0
 40
76.0
 50
154.86383795430939
 51
205.1361620456905
1001
ACDBBLOCKREPETAG
1070
     1
1071
       31
1005
123ADA
  0
ARC
  5
123ADB
  8
OBJECT
 10
10000.0
 20
-1658.9999999999959
 30
0.0
 40
76.0
 50
274.86383795426718
 51
325.13616204582797
1001
ACDBBLOCKREPETAG
1070
     1
1071
       32
1005
123ADB
  0
ARC
  5
123ADC
  8
OBJECT
 10
10078.0
 20
-1658.9999999999959
 30
0.0
 40
12.0
 50
325.13616204582797
 51
34.863837954171863
1001
ACDBBLOCKREPETAG
1070
     1
1071
       33
1005
123ADC
  0
LINE
  5
123ADD
  8
OBJECT
 10
10087.84615384616
 20
-1652.140462520133
 30
0.0
 11
10062.35897435904
 21
-1615.556262627535
 31
0.0
1001
ACDBBLOCKREPETAG
1070
     1
1071
       34
1005
123ADD
  0
LINE
  5
123ADE
  8
OBJECT
 10
10087.846153846171
 20
-1665.859537479856
 30
0.0
 11
10062.35897435904
 21
-1702.4437373724591
 31
0.0
1001
ACDBBLOCKREPETAG
1070
     1
1071
       35
1005
123ADE
  0
ARC
  5
123ADF
  8
OBJECT
 10
9961.0
 20
-1591.45001850481
 30
0.0
 40
12.0
 50
85.136162045942811
 51
154.86383795410001
1001
ACDBBLOCKREPETAG
1070
     1
1071
       36
1005
123ADF
  0
LINE
  5
123AE0
  8
OBJECT
 10
9950.1363893611433
 20
-1586.35276788439
 30
0.0
 11
9931.1971326205894
 21
-1626.7174127373471
 31
0.0
1001
ACDBBLOCKREPETAG
1070
     1
1071
       37
1005
123AE0
  0
LINE
  5
123AE1
  8
OBJECT
 10
9962.0174567926842
 20
-1579.493230404526
 30
0.0
 11
10006.443893020371
 21
-1583.2736753648851
 31
0.0
1001
ACDBBLOCKREPETAG
1070
     1
1071
       38
1005
123AE1
  0
ARC
  5
123AE2
  8
OBJECT
 10
9961.0
 20
-1726.5499814951811
 30
0.0
 40
12.0
 50
205.13616204589991
 51
274.8638379540572
1001
ACDBBLOCKREPETAG
1070
     1
1071
       39
1005
123AE2
  0
LINE
  5
123AE3
  8
OBJECT
 10
9962.0174567926897
 20
-1738.5067695954631
 30
0.0
 11
10006.44389302036
 21
-1734.726324635106
 31
0.0
1001
ACDBBLOCKREPETAG
1070
     1
1071
       40
1005
123AE3
  0
LINE
  5
123AE4
  8
OBJECT
 10
9950.1363893611433
 20
-1731.647232115605
 30
0.0
 11
9931.1971326205821
 21
-1691.2825872626429
 31
0.0
1001
ACDBBLOCKREPETAG
1070
     1
1071
       41
1005
123AE4
  0
LINE
  5
123AE5
  8
CENTER
 10
5909.0
 20
-1699.9999999999991
 30
0.0
 11
6105.0
 21
-1699.9999999999991
 31
0.0
1001
ACDBBLOCKREPETAG
1070
     1
1071
       10
1005
123AE5
  0
LINE
  5
123AE6
  8
CENTER
 10
6000.0
 20
-1608.7253355707819
 30
0.0
 11
6000.0
 21
-1791.2746644292149
 31
0.0
1001
ACDBBLOCKREPETAG
1070
     1
1071
       11
1005
123AE6
  0
CIRCLE
  5
123AE7
  8
OBJECT
 10
6000.0
 20
-1699.9999999999991
 30
0.0
 40
50.0
1001
ACDBBLOCKREPETAG
1070
     1
1071
       12
1005
123AE7
  0
CIRCLE
  5
123AE8
  8
OBJECT
 10
6000.0
 20
-1699.9999999999991
 30
0.0
 40
60.0
1001
ACDBBLOCKREPETAG
1070
     1
1071
       13
1005
123AE8
  0
CIRCLE
  5
123AE9
  8
OBJECT
 10
6000.0
 20
-1699.9999999999991
 30
0.0
 40
68.0
1001
ACDBBLOCKREPETAG
1070
     1
1071
       14
1005
123AE9
  0
ARC
  5
123AEA
  8
OBJECT
 10
6077.5
 20
-1699.9999999999991
 30
0.0
 40
12.0
 50
272.10542627221611
 51
87.894573727783893
1001
ACDBBLOCKREPETAG
1070
     1
1071
       15
1005
123AEA
  0
ARC
  5
123AEB
  8
OBJECT
 10
6078.4919354838639
 20
-1673.018227189526
 30
0.0
 40
15.0
 50
198.9705187796356
 51
267.89457372778372
1001
ACDBBLOCKREPETAG
1070
     1
1071
       16
1005
123AEB
  0
ARC
  5
123AEC
  8
OBJECT
 10
6078.4919354838639
 20
-1726.981772810467
 30
0.0
 40
15.0
 50
92.105426272216135
 51
161.02948122036429
1001
ACDBBLOCKREPETAG
1070
     1
1071
       17
1005
123AEC
  0
CIRCLE
  5
123AED
  8
SLIM
 10
6078.0
 20
-1699.9999999999991
 30
0.0
 40
8.0
1001
ACDBBLOCKREPETAG
1070
     1
1071
       18
1005
123AED
  0
POLYLINE
  5
123AEE
  8
SLIM
 66
     1
 10
0.0
 20
0.0
 30
0.0
 70
     1
1001
ACDBBLOCKREPETAG
1070
     1
1071
       19
1005
123AEE
  0
VERTEX
  5
123CBE
  8
SLIM
 10
6075.6905989232328
 20
-1695.9999999999991
 30
0.0
  0
VERTEX
  5
123CBF
  8
SLIM
 10
6073.3811978464801
 20
-1699.9999999999991
 30
0.0
  0
VERTEX
  5
123CC0
  8
SLIM
 10
6075.6905989232328
 20
-1703.9999999999991
 30
0.0
  0
VERTEX
  5
123CC1
  8
SLIM
 10
6080.3094010767527
 20
-1703.9999999999991
 30
0.0
  0
VERTEX
  5
123CC2
  8
SLIM
 10
6082.6188021535136
 20
-1699.9999999999991
 30
0.0
  0
VERTEX
  5
123CC3
  8
SLIM
 10
6080.3094010767527
 20
-1695.9999999999991
 30
0.0
  0
SEQEND
  5
123CC4
  8
SLIM
  0
ARC
  5
123AEF
  8
OBJECT
 10
5961.25
 20
-1632.883031206703
 30
0.0
 40
12.0
 50
32.105426272157878
 51
207.89457372770741
1001
ACDBBLOCKREPETAG
1070
     1
1071
       20
1005
123AEF
  0
ARC
  5
123AF0
  8
OBJECT
 10
5937.387131565054
 20
-1645.514876283992
 30
0.0
 40
15.0
 50
318.97051877944762
 51
27.894573727707481
1001
ACDBBLOCKREPETAG
1070
     1
1071
       21
1005
123AF0
  0
ARC
  5
123AF1
  8
OBJECT
 10
5984.1209329510702
 20
-1618.53310347352
 30
0.0
 40
15.0
 50
212.1054262721579
 51
281.02948122044069
1001
ACDBBLOCKREPETAG
1070
     1
1071
       22
1005
123AF1
  0
CIRCLE
  5
123AF2
  8
SLIM
 10
5961.0
 20
-1632.4500185048121
 30
0.0
 40
7.9999999999999982
1001
ACDBBLOCKREPETAG
1070
     1
1071
       23
1005
123AF2
  0
POLYLINE
  5
123AF3
  8
SLIM
 66
     1
 10
0.0
 20
0.0
 30
0.0
 70
     1
1001
ACDBBLOCKREPETAG
1070
     1
1071
       24
1005
123AF3
  0
VERTEX
  5
123CC5
  8
SLIM
 10
5958.69059892324
 20
-1636.4500185048121
 30
0.0
  0
VERTEX
  5
123CC6
  8
SLIM
 10
5963.3094010767518
 20
-1636.4500185048121
 30
0.0
  0
VERTEX
  5
123CC7
  8
SLIM
 10
5965.6188021535136
 20
-1632.4500185048121
 30
0.0
  0
VERTEX
  5
123CC8
  8
SLIM
 10
5963.3094010767518
 20
-1628.4500185048121
 30
0.0
  0
VERTEX
  5
123CC9
  8
SLIM
 10
5958.69059892324
 20
-1628.4500185048121
 30
0.0
  0
VERTEX
  5
123CCA
  8
SLIM
 10
5956.3811978464792
 20
-1632.4500185048121
 30
0.0
  0
SEQEND
  5
123CCB
  8
SLIM
  0
ARC
  5
123AF4
  8
OBJECT
 10
5961.25
 20
-1767.1169687932911
 30
0.0
 40
12.0
 50
152.1054262722925
 51
327.89457372784221
1001
ACDBBLOCKREPETAG
1070
     1
1071
       25
1005
123AF4
  0
ARC
  5
123AF5
  8
OBJECT
 10
5984.1209329510702
 20
-1781.466896526475
 30
0.0
 40
15.0
 50
78.970518779559228
 51
147.8945737278421
1001
ACDBBLOCKREPETAG
1070
     1
1071
       26
1005
123AF5
  0
ARC
  5
123AF6
  8
OBJECT
 10
5937.387131565054
 20
-1754.485123716006
 30
0.0
 40
15.0
 50
332.1054262722925
 51
41.029481220552412
1001
ACDBBLOCKREPETAG
1070
     1
1071
       27
1005
123AF6
  0
CIRCLE
  5
123AF7
  8
SLIM
 10
5961.0
 20
-1767.5499814951861
 30
0.0
 40
8.0
1001
ACDBBLOCKREPETAG
1070
     1
1071
       28
1005
123AF7
  0
POLYLINE
  5
123AF8
  8
SLIM
 66
     1
 10
0.0
 20
0.0
 30
0.0
 70
     1
1001
ACDBBLOCKREPETAG
1070
     1
1071
       29
1005
123AF8
  0
VERTEX
  5
123CCC
  8
SLIM
 10
5965.6188021535136
 20
-1767.549981495182
 30
0.0
  0
VERTEX
  5
123CCD
  8
SLIM
 10
5963.3094010767518
 20
-1763.5499814951861
 30
0.0
  0
VERTEX
  5
123CCE
  8
SLIM
 10
5958.69059892324
 20
-1763.5499814951829
 30
0.0
  0
VERTEX
  5
123CCF
  8
SLIM
 10
5956.3811978464792
 20
-1767.5499814951861
 30
0.0
  0
VERTEX
  5
123CD0
  8
SLIM
 10
5958.6905989232328
 20
-1771.549981495182
 30
0.0
  0
VERTEX
  5
123CD1
  8
SLIM
 10
5963.3094010767518
 20
-1771.5499814951861
 30
0.0
  0
SEQEND
  5
123CD2
  8
SLIM
  0
ARC
  5
123AF9
  8
OBJECT
 10
6000.0
 20
-1699.9999999999991
 30
0.0
 40
76.0
 50
34.863837954142063
 51
85.136162045732945
1001
ACDBBLOCKREPETAG
1070
     1
1071
       42
1005
123AF9
  0
ARC
  5
123AFA
  8
OBJECT
 10
6000.0
 20
-1699.9999999999991
 30
0.0
 40
76.0
 50
154.86383795430939
 51
205.1361620456905
1001
ACDBBLOCKREPETAG
1070
     1
1071
       43
1005
123AFA
  0
ARC
  5
123AFB
  8
OBJECT
 10
6000.0
 20
-1699.9999999999991
 30
0.0
 40
76.0
 50
274.86383795426718
 51
325.13616204585799
1001
ACDBBLOCKREPETAG
1070
     1
1071
       44
1005
123AFB
  0
ARC
  5
123AFC
  8
OBJECT
 10
6078.0
 20
-1699.9999999999991
 30
0.0
 40
12.0
 50
325.13616204585799
 51
34.863837954142063
1001
ACDBBLOCKREPETAG
1070
     1
1071
       45
1005
123AFC
  0
LINE
  5
123AFD
  8
OBJECT
 10
6087.846153846167
 20
-1693.140462520136
 30
0.0
 11
6062.3589743590501
 21
-1656.5562626275371
 31
0.0
1001
ACDBBLOCKREPETAG
1070
     1
1071
       46
1005
123AFD
  0
LINE
  5
123AFE
  8
OBJECT
 10
6087.8461538461697
 20
-1706.8595374798599
 30
0.0
 11
6062.3589743590501
 21
-1743.443737372462
 31
0.0
1001
ACDBBLOCKREPETAG
1070
     1
1071
       47
1005
123AFE
  0
ARC
  5
123AFF
  8
OBJECT
 10
5961.0
 20
-1632.4500185048139
 30
0.0
 40
12.0
 50
85.136162045942811
 51
154.86383795410001
1001
ACDBBLOCKREPETAG
1070
     1
1071
       48
1005
123AFF
  0
LINE
  5
123B00
  8
OBJECT
 10
5950.1363893611451
 20
-1627.3527678843941
 30
0.0
 11
5931.1971326205849
 21
-1667.7174127373489
 31
0.0
1001
ACDBBLOCKREPETAG
1070
     1
1071
       49
1005
123B00
  0
LINE
  5
123B01
  8
OBJECT
 10
5962.0174567926842
 20
-1620.4932304045301
 30
0.0
 11
6006.4438930203669
 21
-1624.273675364889
 31
0.0
1001
ACDBBLOCKREPETAG
1070
     1
1071
       50
1005
123B01
  0
ARC
  5
123B02
  8
OBJECT
 10
5961.0
 20
-1767.5499814951841
 30
0.0
 40
12.0
 50
205.13616204589991
 51
274.8638379540572
1001
ACDBBLOCKREPETAG
1070
     1
1071
       51
1005
123B02
  0
LINE
  5
123B03
  8
OBJECT
 10
5962.0174567926879
 20
-1779.5067695954669
 30
0.0
 11
6006.4438930203651
 21
-1775.726324635109
 31
0.0
1001
ACDBBLOCKREPETAG
1070
     1
1071
       52
1005
123B03
  0
LINE
  5
123B04
  8
OBJECT
 10
5950.1363893611451
 20
-1772.6472321156079
 30
0.0
 11
5931.1971326205821
 21
-1732.2825872626461
 31
0.0
1001
ACDBBLOCKREPETAG
1070
     1
1071
       53
1005
123B04
  0
LINE
  5
123B05
  8
CENTER
 10
3909.0
 20
-1658.9999999999959
 30
0.0
 11
4105.0
 21
-1658.9999999999959
 31
0.0
1001
ACDBBLOCKREPETAG
1070
     1
1071
        0
1005
123B05
  0
LINE
  5
123B06
  8
CENTER
 10
4000.0
 20
-1567.725335570779
 30
0.0
 11
4000.0
 21
-1750.274664429212
 31
0.0
1001
ACDBBLOCKREPETAG
1070
     1
1071
        1
1005
123B06
  0
CIRCLE
  5
123B07
  8
OBJECT
 10
4000.0
 20
-1658.9999999999959
 30
0.0
 40
50.0
1001
ACDBBLOCKREPETAG
1070
     1
1071
        2
1005
123B07
  0
CIRCLE
  5
123B08
  8
OBJECT
 10
4000.0
 20
-1658.9999999999959
 30
0.0
 40
62.0
1001
ACDBBLOCKREPETAG
1070
     1
1071
        3
1005
123B08
  0
CIRCLE
  5
123B09
  8
SLIM
 10
4078.0
 20
-1658.9999999999959
 30
0.0
 40
5.0
1001
ACDBBLOCKREPETAG
1070
     1
1071
        4
1005
123B09
  0
POLYLINE
  5
123B0A
  8
SLIM
 66
     1
 10
0.0
 20
0.0
 30
0.0
 70
     1
1001
ACDBBLOCKREPETAG
1070
     1
1071
        5
1005
123B0A
  0
VERTEX
  5
123CD3
  8
SLIM
 10
4073.092522711886
 20
-1650.4999999999959
 30
0.0
  0
VERTEX
  5
123CD4
  8
SLIM
 10
4068.185045423772
 20
-1658.9999999999959
 30
0.0
  0
VERTEX
  5
123CD5
  8
SLIM
 10
4073.092522711886
 20
-1667.4999999999959
 30
0.0
  0
VERTEX
  5
123CD6
  8
SLIM
 10
4082.9074772881072
 20
-1667.4999999999959
 30
0.0
  0
VERTEX
  5
123CD7
  8
SLIM
 10
4087.8149545762199
 20
-1658.9999999999959
 30
0.0
  0
VERTEX
  5
123CD8
  8
SLIM
 10
4082.9074772881072
 20
-1650.4999999999959
 30
0.0
  0
SEQEND
  5
123CD9
  8
SLIM
  0
CIRCLE
  5
123B0B
  8
SLIM
 10
3961.0
 20
-1591.4500185048089
 30
0.0
 40
4.9999999999999991
1001
ACDBBLOCKREPETAG
1070
     1
1071
        6
1005
123B0B
  0
POLYLINE
  5
123B0C
  8
SLIM
 66
     1
 10
0.0
 20
0.0
 30
0.0
 70
     1
1001
ACDBBLOCKREPETAG
1070
     1
1071
        7
1005
123B0C
  0
VERTEX
  5
123CDA
  8
SLIM
 10
3956.092522711886
 20
-1599.9500185048089
 30
0.0
  0
VERTEX
  5
123CDB
  8
SLIM
 10
3965.907477288114
 20
-1599.9500185048089
 30
0.0
  0
VERTEX
  5
123CDC
  8
SLIM
 10
3970.8149545762212
 20
-1591.4500185048089
 30
0.0
  0
VERTEX
  5
123CDD
  8
SLIM
 10
3965.907477288114
 20
-1582.950018504808
 30
0.0
  0
VERTEX
  5
123CDE
  8
SLIM
 10
3956.092522711886
 20
-1582.950018504808
 30
0.0
  0
VERTEX
  5
123CDF
  8
SLIM
 10
3951.185045423772
 20
-1591.4500185048089
 30
0.0
  0
SEQEND
  5
123CE0
  8
SLIM
  0
CIRCLE
  5
123B0D
  8
SLIM
 10
3961.0
 20
-1726.5499814951829
 30
0.0
 40
5.0
1001
ACDBBLOCKREPETAG
1070
     1
1071
        8
1005
123B0D
  0
POLYLINE
  5
123B0E
  8
SLIM
 66
     1
 10
0.0
 20
0.0
 30
0.0
 70
     1
1001
ACDBBLOCKREPETAG
1070
     1
1071
        9
1005
123B0E
  0
VERTEX
  5
123CE1
  8
SLIM
 10
3970.8149545762212
 20
-1726.5499814951829
 30
0.0
  0
VERTEX
  5
123CE2
  8
SLIM
 10
3965.9074772881072
 20
-1718.0499814951791
 30
0.0
  0
VERTEX
  5
123CE3
  8
SLIM
 10
3956.092522711886
 20
-1718.049981495182
 30
0.0
  0
VERTEX
  5
123CE4
  8
SLIM
 10
3951.185045423772
 20
-1726.5499814951791
 30
0.0
  0
VERTEX
  5
123CE5
  8
SLIM
 10
3956.092522711886
 20
-1735.0499814951829
 30
0.0
  0
VERTEX
  5
123CE6
  8
SLIM
 10
3965.907477288114
 20
-1735.0499814951791
 30
0.0
  0
SEQEND
  5
123CE7
  8
SLIM
  0
ARC
  5
123B0F
  8
OBJECT
 10
4000.0
 20
-1658.9999999999959
 30
0.0
 40
76.0
 50
34.863837954142063
 51
85.136162045732945
1001
ACDBBLOCKREPETAG
1070
     1
1071
       30
1005
123B0F
  0
ARC
  5
123B10
  8
OBJECT
 10
4000.0
 20
-1658.9999999999959
 30
0.0
 40
76.0
 50
154.86383795430939
 51
205.1361620456905
1001
ACDBBLOCKREPETAG
1070
     1
1071
       31
1005
123B10
  0
ARC
  5
123B11
  8
OBJECT
 10
4000.0
 20
-1658.9999999999959
 30
0.0
 40
76.0
 50
274.86383795426718
 51
325.13616204585799
1001
ACDBBLOCKREPETAG
1070
     1
1071
       32
1005
123B11
  0
ARC
  5
123B12
  8
OBJECT
 10
4078.0
 20
-1658.9999999999959
 30
0.0
 40
12.0
 50
325.13616204585799
 51
34.863837954142063
1001
ACDBBLOCKREPETAG
1070
     1
1071
       33
1005
123B12
  0
LINE
  5
123B13
  8
OBJECT
 10
4087.846153846167
 20
-1652.140462520133
 30
0.0
 11
4062.3589743590492
 21
-1615.556262627535
 31
0.0
1001
ACDBBLOCKREPETAG
1070
     1
1071
       34
1005
123B13
  0
LINE
  5
123B14
  8
OBJECT
 10
4087.8461538461711
 20
-1665.859537479856
 30
0.0
 11
4062.3589743590492
 21
-1702.4437373724591
 31
0.0
1001
ACDBBLOCKREPETAG
1070
     1
1071
       35
1005
123B14
  0
ARC
  5
123B15
  8
OBJECT
 10
3961.0
 20
-1591.45001850481
 30
0.0
 40
12.0
 50
85.136162045942811
 51
154.86383795411109
1001
ACDBBLOCKREPETAG
1070
     1
1071
       36
1005
123B15
  0
LINE
  5
123B16
  8
OBJECT
 10
3950.136389361146
 20
-1586.35276788439
 30
0.0
 11
3931.1971326205862
 21
-1626.7174127373471
 31
0.0
1001
ACDBBLOCKREPETAG
1070
     1
1071
       37
1005
123B16
  0
LINE
  5
123B17
  8
OBJECT
 10
3962.0174567926852
 20
-1579.493230404526
 30
0.0
 11
4006.4438930203678
 21
-1583.2736753648851
 31
0.0
1001
ACDBBLOCKREPETAG
1070
     1
1071
       38
1005
123B17
  0
ARC
  5
123B18
  8
OBJECT
 10
3961.0
 20
-1726.5499814951811
 30
0.0
 40
12.0
 50
205.13616204588891
 51
274.8638379540572
1001
ACDBBLOCKREPETAG
1070
     1
1071
       39
1005
123B18
  0
LINE
  5
123B19
  8
OBJECT
 10
3962.0174567926879
 20
-1738.5067695954631
 30
0.0
 11
4006.4438930203651
 21
-1734.726324635106
 31
0.0
1001
ACDBBLOCKREPETAG
1070
     1
1071
       40
1005
123B19
  0
LINE
  5
123B1A
  8
OBJECT
 10
3950.136389361146
 20
-1731.647232115605
 30
0.0
 11
3931.1971326205821
 21
-1691.2825872626429
 31
0.0
1001
ACDBBLOCKREPETAG
1070
     1
1071
       41
1005
123B1A
  0
TEXT
  5
123B1B
  8
SLIM
 10
3853.75
 20
-1926.4999999999959
 30
0.0
 40
35.0
  1
両受けスタイル（W）
 41
0.75
  0
TEXT
  5
123B1C
  8
SLIM
 10
5811.8000000000002
 20
-2024.0
 30
0.0
 40
28.0
  1
※ 対応スラブ厚　150mm以上
 41
0.75
  0
TEXT
  5
123B1D
  8
SLIM
 10
5598.8999999999996
 20
-2117.3333333333321
 30
0.0
 40
28.0
  1
国土交通大臣認定・（一財）日本消防設備安全センター性能評定取得品
 41
0.75
  0
TEXT
  5
123B1E
  8
SLIM
 10
5631.1000000000004
 20
-2164.0
 30
0.0
 40
28.0
  1
注）ご採用にあたり、認定書及び評定書の内容をご確認ください。
 41
0.75
  0
TEXT
  5
123B1F
  8
SLIM
 10
11824.6
 20
-1982.9999999999959
 30
0.0
 40
28.0
  1
※ 対応スラブ厚　150～660
 41
0.75
  0
TEXT
  5
123B20
  8
SLIM
 10
11598.9
 20
-2076.3333333333289
 30
0.0
 40
28.0
  1
国土交通大臣認定・（一財）日本消防設備安全センター性能評定取得品
 41
0.75
  0
TEXT
  5
123B21
  8
SLIM
 10
11631.1
 20
-2122.9999999999959
 30
0.0
 40
28.0
  1
注）ご採用にあたり、認定書及び評定書の内容をご確認ください。
 41
0.75
  0
TEXT
  5
123B22
  8
SLIM
 10
9824.6000000000004
 20
-1982.9999999999959
 30
0.0
 40
28.0
  1
※ 対応スラブ厚　180～660
 41
0.75
  0
TEXT
  5
123B23
  8
SLIM
 10
9598.8999999999996
 20
-2076.3333333333289
 30
0.0
 40
28.0
  1
国土交通大臣認定・（一財）日本消防設備安全センター性能評定取得品
 41
0.75
  0
TEXT
  5
123B24
  8
SLIM
 10
9631.1000000000004
 20
-2122.9999999999959
 30
0.0
 40
28.0
  1
注）ご採用にあたり、認定書及び評定書の内容をご確認ください。
 41
0.75
  0
TEXT
  5
123B25
  8
SLIM
 10
7771.3999999999987
 20
-1715.666666666664
 30
0.0
 40
28.0
  1
※ 対応スラブ厚　180｛150｝～620
 41
0.75
  0
TEXT
  5
123B26
  8
SLIM
 10
7733.2999999999975
 20
-1762.333333333331
 30
0.0
 40
28.0
  1
｛｝内はカンペイ立て管との組み合わせの場合
 41
0.75
  0
TEXT
  5
123B27
  8
SLIM
 10
7598.8999999999969
 20
-1855.6666666666649
 30
0.0
 40
28.0
  1
国土交通大臣認定・（一財）日本消防設備安全センター性能評定取得品
 41
0.75
  0
TEXT
  5
123B28
  8
SLIM
 10
7631.1000000000004
 20
-1902.333333333331
 30
0.0
 40
28.0
  1
注）ご採用にあたり、認定書及び評定書の内容をご確認ください。
 41
0.75
  0
TEXT
  5
123B29
  8
SLIM
 10
9739.1250000000018
 20
-1926.4999999999959
 30
0.0
 40
35.0
  1
両受けスタイル（W）＋シンドカット
 41
0.75
  0
TEXT
  5
123B2A
  8
SLIM
 10
11743.5
 20
-1926.4999999999959
 30
0.0
 40
35.0
  1
カンペイ君（WKP）＋シンドカット
 41
0.75
  0
TEXT
  5
123B2B
  8
SLIM
 10
7741.625
 20
-1652.499999999998
 30
0.0
 40
35.0
  1
片受けスタイル（S）＋シンドカット
 41
0.75
  0
TEXT
  5
123B2C
  8
SLIM
 10
5858.1250000000009
 20
-1967.4999999999991
 30
0.0
 40
35.0
  1
カンペイ君（WKP）
 41
0.75
  0
TEXT
  5
123B2D
  8
SLIM
 10
1856.25
 20
-1652.499999999998
 30
0.0
 40
35.0
  1
片受けスタイル（S）
 41
0.75
  0
TEXT
  5
123B2E
  8
SLIM
 10
0.0
 20
369.99999999999989
 30
0.0
 40
100.0
  1
4SLT2-Z6-P140-0-WKP
 41
0.75
  0
VIEWPORT
  5
F6BA7
 67
     1
  8
0
 10
163.0024027789494
 20
101.8328354358673
 30
0.0
 40
369.34663245053321
 41
222.19657968139651
 68
     1
 69
     1
1001
ACAD
1000
MVIEW
1002
{
1070
    16
1010
0.0
1020
0.0
1030
0.0
1010
0.0
1020
0.0
1030
1.0
1040
0.0
1040
222.19657968139651
1040
163.0024027789494
1040
101.8328354358673
1040
50.0
1040
0.0
1040
0.0
1070
     0
1070
     0
1070
     1
1070
     1
1070
     0
1070
     0
1070
     0
1070
     0
1040
0.0
1040
0.0
1040
0.0
1040
10.0
1040
10.0
1040
10.0
1040
10.0
1070
     0
1002
{
1002
}
1002
}
  0
VIEWPORT
  5
F6BA9
 67
     1
  8
OBJECT
 10
145.3303314447403
 20
101.8328338861465
 30
0.0
 40
232.5285303115844
 41
162.93253421783439
 68
     2
 69
     2
1001
ACAD
1000
MVIEW
1002
{
1070
    16
1010
0.0
1020
0.0
1030
0.0
1010
0.0
1020
0.0
1030
1.0
1040
0.0
1040
25942.55904403147
1040
2377.604457077377
1040
-7591.5176687056619
1040
50.0
1040
0.0
1040
0.0
1070
     0
1070
   600
1070
     1
1070
     1
1070
     0
1070
     0
1070
     0
1070
     0
1040
0.0
1040
0.0
1040
0.0
1040
1.0
1040
1.0
1040
0.0
1040
0.0
1070
     0
1002
{
1002
}
1002
}
  0
ENDSEC
  0
EOF
