  0
SECTION
  2
HEADER
  9
$ACADVER
  1
AC1009
  9
$INSBASE
 10
0.0
 20
0.0
 30
0.0
  9
$EXTMIN
 10
0.0
 20
-2263.9999999999991
 30
0.0
  9
$EXTMAX
 10
12399.70000000001
 20
770.0
 30
0.0
  9
$LIMMIN
 10
0.0
 20
0.0
  9
$LIMMAX
 10
210.0
 20
297.0
  9
$ORTHOMODE
 70
     0
  9
$REGENMODE
 70
     1
  9
$FILLMODE
 70
     1
  9
$QTEXTMODE
 70
     0
  9
$MIRRTEXT
 70
     0
  9
$DRAGMODE
 70
     2
  9
$LTSCALE
 40
1.0
  9
$OSMODE
 70
   125
  9
$ATTMODE
 70
     1
  9
$TEXTSIZE
 40
4.0
  9
$TRACEWID
 40
0.05
  9
$TEXTSTYLE
  7
STANDARD
  9
$CLAYER
  8
OBJECT
  9
$CELTYPE
  6
BYLAYER
  9
$CECOLOR
 62
   256
  9
$DIMSCALE
 40
10.0
  9
$DIMASZ
 40
2.0
  9
$DIMEXO
 40
1.0
  9
$DIMDLI
 40
10.0
  9
$DIMRND
 40
0.0
  9
$DIMDLE
 40
0.0
  9
$DIMEXE
 40
1.0
  9
$DIMTP
 40
0.0
  9
$DIMTM
 40
0.0
  9
$DIMTXT
 40
3.2000000000000002
  9
$DIMCEN
 40
0.0
  9
$DIMTSZ
 40
0.0
  9
$DIMTOL
 70
     0
  9
$DIMLIM
 70
     0
  9
$DIMTIH
 70
     0
  9
$DIMTOH
 70
     0
  9
$DIMSE1
 70
     0
  9
$DIMSE2
 70
     0
  9
$DIMTAD
 70
     1
  9
$DIMZIN
 70
     8
  9
$DIMBLK
  1
OPEN30
  9
$DIMASO
 70
     1
  9
$DIMSHO
 70
     1
  9
$DIMPOST
  1

  9
$DIMAPOST
  1

  9
$DIMALT
 70
     0
  9
$DIMALTD
 70
     2
  9
$DIMALTF
 40
25.399999999999999
  9
$DIMLFAC
 40
1.0
  9
$DIMTOFL
 70
     1
  9
$DIMTVP
 40
0.0
  9
$DIMTIX
 70
     0
  9
$DIMSOXD
 70
     0
  9
$DIMSAH
 70
     0
  9
$DIMBLK1
  1

  9
$DIMBLK2
  1

  9
$DIMSTYLE
  2
S10
  9
$DIMCLRD
 70
   256
  9
$DIMCLRE
 70
   256
  9
$DIMCLRT
 70
   256
  9
$DIMTFAC
 40
1.0
  9
$DIMGAP
 40
0.9
  9
$LUNITS
 70
     2
  9
$LUPREC
 70
     2
  9
$SKETCHINC
 40
0.1
  9
$FILLETRAD
 40
0.0
  9
$AUNITS
 70
     0
  9
$AUPREC
 70
     2
  9
$MENU
  1
ACAD
  9
$ELEVATION
 40
0.0
  9
$PELEVATION
 40
0.0
  9
$THICKNESS
 40
0.0
  9
$LIMCHECK
 70
     0
  9
$BLIPMODE
 70
     0
  9
$CHAMFERA
 40
2.0
  9
$CHAMFERB
 40
2.0
  9
$SKPOLY
 70
     0
  9
$TDCREATE
 40
2453095.4929404748
  9
$TDUPDATE
 40
2457303.4234507759
  9
$TDINDWG
 40
18.481066759299999
  9
$TDUSRTIMER
 40
18.4810661227
  9
$USRTIMER
 70
     1
  9
$ANGBASE
 50
0.0
  9
$ANGDIR
 70
     0
  9
$PDMODE
 70
    35
  9
$PDSIZE
 40
2.0
  9
$PLINEWID
 40
0.0
  9
$COORDS
 70
     1
  9
$SPLFRAME
 70
     0
  9
$SPLINETYPE
 70
     6
  9
$SPLINESEGS
 70
     8
  9
$ATTDIA
 70
     1
  9
$ATTREQ
 70
     1
  9
$HANDLING
 70
     1
  9
$HANDSEED
  5
11EA74
  9
$SURFTAB1
 70
     6
  9
$SURFTAB2
 70
     6
  9
$SURFTYPE
 70
     6
  9
$SURFU
 70
     6
  9
$SURFV
 70
     6
  9
$UCSNAME
  2

  9
$UCSORG
 10
0.0
 20
0.0
 30
0.0
  9
$UCSXDIR
 10
1.0
 20
0.0
 30
0.0
  9
$UCSYDIR
 10
0.0
 20
1.0
 30
0.0
  9
$PUCSNAME
  2

  9
$PUCSORG
 10
0.0
 20
0.0
 30
0.0
  9
$PUCSXDIR
 10
1.0
 20
0.0
 30
0.0
  9
$PUCSYDIR
 10
0.0
 20
1.0
 30
0.0
  9
$USERI1
 70
     0
  9
$USERI2
 70
     0
  9
$USERI3
 70
     0
  9
$USERI4
 70
     0
  9
$USERI5
 70
     0
  9
$USERR1
 40
0.0
  9
$USERR2
 40
0.0
  9
$USERR3
 40
0.0
  9
$USERR4
 40
0.0
  9
$USERR5
 40
0.0
  9
$WORLDVIEW
 70
     1
  9
$SHADEDGE
 70
     3
  9
$SHADEDIF
 70
    70
  9
$TILEMODE
 70
     1
  9
$MAXACTVP
 70
    64
  9
$PLIMCHECK
 70
     0
  9
$PEXTMIN
 10
29.066066288948051
 20
20.366566777229309
 30
0.0
  9
$PEXTMAX
 10
261.5945966005325
 20
183.29910099506381
 30
0.0
  9
$PLIMMIN
 10
-3.17498779296875
 20
-3.1749999523162842
  9
$PLIMMAX
 10
293.83566284179687
 20
206.8406708240509
  9
$UNITMODE
 70
     0
  9
$VISRETAIN
 70
     1
  9
$PLINEGEN
 70
     0
  9
$PSLTSCALE
 70
     1
  0
ENDSEC
  0
SECTION
  2
TABLES
  0
TABLE
  2
VPORT
 70
     1
  0
VPORT
  2
*ACTIVE
 70
     0
 10
0.0
 20
0.0
 11
1.0
 21
1.0
 12
6893.820474597951
 22
-866.05175953287016
 13
0.0
 23
0.0
 14
1.0
 24
1.0
 15
0.0
 25
0.0
 16
0.0
 26
0.0
 36
1.0
 17
0.0
 27
0.0
 37
0.0
 40
9644.6619400432846
 41
1.70911528150134
 42
50.0
 43
0.0
 44
0.0
 50
0.0
 51
0.0
 71
     0
 72
   600
 73
     1
 74
     1
 75
     0
 76
     0
 77
     0
 78
     0
  0
ENDTAB
  0
TABLE
  2
LTYPE
 70
     3
  0
LTYPE
  2
CONTINUOUS
 70
     0
  3
Solid line
 72
    65
 73
     0
 40
0.0
  0
LTYPE
  2
ACAD_ISO08W100
 70
     0
  3
ISO long-dash short-dash ____ __ ____ __ ____ _
 72
    65
 73
     4
 40
36.0
 49
24.0
 49
-3.0
 49
6.0
 49
-3.0
  0
LTYPE
  2
ACAD_ISO02W100
 70
     0
  3
ISO dash __ __ __ __ __ __ __ __ __ __ __ __ __
 72
    65
 73
     2
 40
15.0
 49
12.0
 49
-3.0
  0
ENDTAB
  0
TABLE
  2
LAYER
 70
     7
  0
LAYER
  2
0
 70
     0
 62
     7
  6
CONTINUOUS
  0
LAYER
  2
OBJECT
 70
     0
 62
     4
  6
CONTINUOUS
  0
LAYER
  2
DEFPOINTS
 70
     0
 62
     7
  6
CONTINUOUS
  0
LAYER
  2
HIDDEN
 70
     0
 62
     2
  6
ACAD_ISO02W100
  0
LAYER
  2
CENTER
 70
     0
 62
     2
  6
ACAD_ISO08W100
  0
LAYER
  2
DOTS
 70
     0
 62
     1
  6
CONTINUOUS
  0
LAYER
  2
SLIM
 70
     0
 62
     2
  6
CONTINUOUS
  0
ENDTAB
  0
TABLE
  2
STYLE
 70
     2
  0
STYLE
  2
STANDARD
 70
     0
 40
0.0
 41
0.75
 50
0.0
 71
     0
 42
4.0
  3
simplex.shx
  4
bigfont.shx
  0
ENDTAB
  0
TABLE
  2
VIEW
 70
     0
  0
ENDTAB
  0
TABLE
  2
UCS
 70
     0
  0
ENDTAB
  0
TABLE
  2
APPID
 70
    18
  0
APPID
  2
ACAD
 70
     0
  0
APPID
  2
ACADANNOTATIVE
 70
     0
  0
APPID
  2
ACAD_PSEXT
 70
     0
  0
APPID
  2
ACAD_EXEMPT_FROM_CAD_STANDARDS
 70
     0
  0
APPID
  2
ACAECLAYERSTANDARD
 70
     0
  0
APPID
  2
ACAUTHENVIRON
 70
     0
  0
APPID
  2
ACDBDYNAMICBLOCKTRUENAME
 70
     0
  0
APPID
  2
ACDBDYNAMICBLOCKGUID
 70
     0
  0
APPID
  2
ACDBBLOCKREPETAG
 70
     0
  0
APPID
  2
ACDBBLOCKREPBTAG
 70
     0
  0
APPID
  2
ACAD_NAV_VCDISPLAY
 70
     0
  0
APPID
  2
ACAD_DSTYLE_DIMRADIAL_EXTENSION
 70
     0
  0
APPID
  2
ACAD_DSTYLE_DIMJAG
 70
     0
  0
APPID
  2
ACAD_DSTYLE_DIMTALN
 70
     0
  0
APPID
  2
ACADANNOPO
 70
     0
  0
APPID
  2
GRADIENTCOLOR1ACI
 70
     0
  0
APPID
  2
GRADIENTCOLOR2ACI
 70
     0
  0
APPID
  2
ACAD_MLEADERVER
 70
     0
  0
ENDTAB
  0
TABLE
  2
DIMSTYLE
 70
     3
  0
DIMSTYLE
  2
STANDARD
 70
     0
  3

  4

  5

  6

  7

 40
1.0
 41
0.18
 42
0.0625
 43
0.38
 44
0.18
 45
0.0
 46
0.0
 47
0.0
 48
0.0
140
0.18
141
0.09
142
0.0
143
25.399999999999999
144
1.0
145
0.0
146
1.0
147
0.09
 71
     0
 72
     0
 73
     1
 74
     1
 75
     0
 76
     0
 77
     0
 78
     0
170
     0
171
     2
172
     0
173
     0
174
     0
175
     0
176
     0
177
     0
178
     0
  0
DIMSTYLE
  2
S10
 70
     0
  3

  4

  5

  6

  7

 40
10.0
 41
2.0
 42
1.0
 43
10.0
 44
1.0
 45
0.0
 46
0.0
 47
0.0
 48
0.0
140
3.2000000000000002
141
0.0
142
0.0
143
25.399999999999999
144
1.0
145
0.0
146
1.0
147
0.9
 71
     0
 72
     0
 73
     0
 74
     0
 75
     0
 76
     0
 77
     1
 78
     8
170
     0
171
     2
172
     1
173
     0
174
     0
175
     0
176
   256
177
   256
178
   256
  0
ENDTAB
  0
ENDSEC
  0
SECTION
  2
BLOCKS
  0
BLOCK
  8
0
  2
$MODEL_SPACE
 70
     0
 10
0.0
 20
0.0
 30
0.0
  3
$MODEL_SPACE
  1

  0
ENDBLK
  5
11E999
  8
0
  0
BLOCK
 67
     1
  8
0
  2
$PAPER_SPACE
 70
     0
 10
0.0
 20
0.0
 30
0.0
  3
$PAPER_SPACE
  1

  0
ENDBLK
  5
11E995
 67
     1
  8
0
  0
BLOCK
  8
0
  2
_OPEN30
 70
     0
 10
0.0
 20
0.0
 30
0.0
  3
_OPEN30
  1

  0
LINE
  5
202
  8
0
  6
BYBLOCK
 62
     0
 10
-1.0
 20
0.26794919
 30
0.0
 11
0.0
 21
0.0
 31
0.0
  0
LINE
  5
203
  8
0
  6
BYBLOCK
 62
     0
 10
0.0
 20
0.0
 30
0.0
 11
-1.0
 21
-0.26794919
 31
0.0
  0
LINE
  5
204
  8
0
  6
BYBLOCK
 62
     0
 10
0.0
 20
0.0
 30
0.0
 11
-1.0
 21
0.0
 31
0.0
  0
ENDBLK
  5
206
  8
0
  0
ENDSEC
  0
SECTION
  2
ENTITIES
  0
LINE
  5
11E2C1
  8
OBJECT
 10
11923.0
 20
-571.0
 30
0.0
 11
11923.0
 21
-550.0
 31
0.0
1001
ACDBBLOCKREPETAG
1070
     1
1071
       38
1005
11E2C1
  0
LINE
  5
11E2C2
  8
OBJECT
 10
11923.0
 20
-550.0
 30
0.0
 11
12077.0
 21
-550.0
 31
0.0
1001
ACDBBLOCKREPETAG
1070
     1
1071
       39
1005
11E2C2
  0
LINE
  5
11E2C3
  8
HIDDEN
 10
11943.0
 20
-620.0
 30
0.0
 11
12057.0
 21
-620.0
 31
0.0
1001
ACDBBLOCKREPETAG
1070
     1
1071
       40
1005
11E2C3
  0
LINE
  5
11E2C4
  8
OBJECT
 10
12077.0
 20
-550.0
 30
0.0
 11
12077.0
 21
-571.0
 31
0.0
1001
ACDBBLOCKREPETAG
1070
     1
1071
       41
1005
11E2C4
  0
LINE
  5
11E2C5
  8
OBJECT
 10
12077.0
 20
-571.0
 30
0.0
 11
11923.0
 21
-571.0
 31
0.0
1001
ACDBBLOCKREPETAG
1070
     1
1071
       42
1005
11E2C5
  0
LINE
  5
11E2C6
  8
CENTER
 10
12000.0
 20
-535.0
 30
0.0
 11
12000.0
 21
-890.0
 31
0.0
1001
ACDBBLOCKREPETAG
1070
     1
1071
       43
1005
11E2C6
  0
LINE
  5
11E2C7
  8
OBJECT
 10
11928.0
 20
-571.0
 30
0.0
 11
11928.0
 21
-634.0
 31
0.0
1001
ACDBBLOCKREPETAG
1070
     1
1071
       44
1005
11E2C7
  0
LINE
  5
11E2C8
  8
OBJECT
 10
12072.0
 20
-634.0
 30
0.0
 11
12072.0
 21
-571.0
 31
0.0
1001
ACDBBLOCKREPETAG
1070
     1
1071
       45
1005
11E2C8
  0
LINE
  5
11E2C9
  8
OBJECT
 10
11920.0
 20
-878.0
 30
0.0
 11
12080.0
 21
-878.0
 31
0.0
1001
ACDBBLOCKREPETAG
1070
     1
1071
       46
1005
11E2C9
  0
LINE
  5
11E2CA
  8
OBJECT
 10
12080.0
 20
-634.0
 30
0.0
 11
11920.0
 21
-634.0
 31
0.0
1001
ACDBBLOCKREPETAG
1070
     1
1071
       47
1005
11E2CA
  0
LINE
  5
11E2CB
  8
OBJECT
 10
11920.0
 20
-878.0
 30
0.0
 11
11920.0
 21
-890.0
 31
0.0
1001
ACDBBLOCKREPETAG
1070
     1
1071
       48
1005
11E2CB
  0
LINE
  5
11E2CC
  8
OBJECT
 10
11920.0
 20
-890.0
 30
0.0
 11
12080.0
 21
-890.0
 31
0.0
1001
ACDBBLOCKREPETAG
1070
     1
1071
       49
1005
11E2CC
  0
LINE
  5
11E2CD
  8
OBJECT
 10
12080.0
 20
-890.0
 30
0.0
 11
12080.0
 21
-878.0
 31
0.0
1001
ACDBBLOCKREPETAG
1070
     1
1071
       50
1005
11E2CD
  0
LINE
  5
11E2CE
  8
OBJECT
 10
12074.99999999986
 20
-757.99999999985096
 30
0.0
 11
12075.0
 21
-878.0
 31
0.0
1001
ACDBBLOCKREPETAG
1070
     1
1071
       54
1005
11E2CE
  0
LINE
  5
11E2CF
  8
OBJECT
 10
12074.99999080298
 20
-757.99998602702181
 30
0.0
 11
12080.0
 21
-757.99998602702181
 31
0.0
1001
ACDBBLOCKREPETAG
1070
     1
1071
       55
1005
11E2CF
  0
LINE
  5
11E2D0
  8
OBJECT
 10
11925.00000000014
 20
-757.99999999985096
 30
0.0
 11
11925.0
 21
-878.0
 31
0.0
1001
ACDBBLOCKREPETAG
1070
     1
1071
       56
1005
11E2D0
  0
LINE
  5
11E2D1
  8
OBJECT
 10
11925.000009197011
 20
-757.99998602702181
 30
0.0
 11
11920.0
 21
-757.99998602702181
 31
0.0
1001
ACDBBLOCKREPETAG
1070
     1
1071
       57
1005
11E2D1
  0
ARC
  5
11E2D2
  8
OBJECT
 10
12200.687274671671
 20
-749.40809941010752
 30
0.0
 40
170.6350503965856
 50
137.44134459184301
 51
149.91949581337221
1001
ACDBBLOCKREPETAG
1070
     1
1071
       58
1005
11E2D2
  0
ARC
  5
11E2D3
  8
OBJECT
 10
12200.687274671671
 20
-642.59190058989225
 30
0.0
 40
170.6350503965856
 50
210.08050418662771
 51
222.55865540815699
1001
ACDBBLOCKREPETAG
1070
     1
1071
       59
1005
11E2D3
  0
ARC
  5
11E2D4
  8
OBJECT
 10
11799.312725328329
 20
-749.40809941010752
 30
0.0
 40
170.6350503965856
 50
30.080504186787142
 51
42.558655408347391
1001
ACDBBLOCKREPETAG
1070
     1
1071
       60
1005
11E2D4
  0
ARC
  5
11E2D5
  8
OBJECT
 10
11799.312725328329
 20
-642.59190058989225
 30
0.0
 40
170.6350503965856
 50
317.44134459165258
 51
329.9194958132129
1001
ACDBBLOCKREPETAG
1070
     1
1071
       61
1005
11E2D5
  0
POINT
  5
11E2D6
  8
DOTS
 10
12000.0
 20
-755.0
 30
0.0
1001
ACDBBLOCKREPETAG
1070
     1
1071
      185
1005
11E2D6
  0
LINE
  5
11E2D7
  8
OBJECT
 10
9923.0
 20
-571.0
 30
0.0
 11
9923.0
 21
-550.0
 31
0.0
1001
ACDBBLOCKREPETAG
1070
     1
1071
       38
1005
11E2D7
  0
LINE
  5
11E2D8
  8
OBJECT
 10
9923.0
 20
-550.0
 30
0.0
 11
10077.0
 21
-550.0
 31
0.0
1001
ACDBBLOCKREPETAG
1070
     1
1071
       39
1005
11E2D8
  0
LINE
  5
11E2D9
  8
HIDDEN
 10
9943.0
 20
-620.0
 30
0.0
 11
10057.0
 21
-620.0
 31
0.0
1001
ACDBBLOCKREPETAG
1070
     1
1071
       40
1005
11E2D9
  0
LINE
  5
11E2DA
  8
OBJECT
 10
10077.0
 20
-550.0
 30
0.0
 11
10077.0
 21
-571.0
 31
0.0
1001
ACDBBLOCKREPETAG
1070
     1
1071
       41
1005
11E2DA
  0
LINE
  5
11E2DB
  8
OBJECT
 10
10077.0
 20
-571.0
 30
0.0
 11
9923.0
 21
-571.0
 31
0.0
1001
ACDBBLOCKREPETAG
1070
     1
1071
       42
1005
11E2DB
  0
LINE
  5
11E2DC
  8
CENTER
 10
10000.0
 20
-535.0
 30
0.0
 11
10000.0
 21
-890.0
 31
0.0
1001
ACDBBLOCKREPETAG
1070
     1
1071
       43
1005
11E2DC
  0
LINE
  5
11E2DD
  8
OBJECT
 10
9928.0
 20
-571.0
 30
0.0
 11
9928.0
 21
-634.0
 31
0.0
1001
ACDBBLOCKREPETAG
1070
     1
1071
       44
1005
11E2DD
  0
LINE
  5
11E2DE
  8
OBJECT
 10
10072.0
 20
-634.0
 30
0.0
 11
10072.0
 21
-571.0
 31
0.0
1001
ACDBBLOCKREPETAG
1070
     1
1071
       45
1005
11E2DE
  0
LINE
  5
11E2DF
  8
OBJECT
 10
9920.0
 20
-878.0
 30
0.0
 11
10080.0
 21
-878.0
 31
0.0
1001
ACDBBLOCKREPETAG
1070
     1
1071
       46
1005
11E2DF
  0
LINE
  5
11E2E0
  8
OBJECT
 10
10080.0
 20
-634.0
 30
0.0
 11
9920.0
 21
-634.0
 31
0.0
1001
ACDBBLOCKREPETAG
1070
     1
1071
       47
1005
11E2E0
  0
LINE
  5
11E2E1
  8
OBJECT
 10
9920.0
 20
-878.0
 30
0.0
 11
9920.0
 21
-890.0
 31
0.0
1001
ACDBBLOCKREPETAG
1070
     1
1071
       48
1005
11E2E1
  0
LINE
  5
11E2E2
  8
OBJECT
 10
9920.0
 20
-890.0
 30
0.0
 11
10080.0
 21
-890.0
 31
0.0
1001
ACDBBLOCKREPETAG
1070
     1
1071
       49
1005
11E2E2
  0
LINE
  5
11E2E3
  8
OBJECT
 10
10080.0
 20
-890.0
 30
0.0
 11
10080.0
 21
-878.0
 31
0.0
1001
ACDBBLOCKREPETAG
1070
     1
1071
       50
1005
11E2E3
  0
LINE
  5
11E2E4
  8
OBJECT
 10
10074.99999999986
 20
-757.99999999985096
 30
0.0
 11
10075.0
 21
-878.0
 31
0.0
1001
ACDBBLOCKREPETAG
1070
     1
1071
       54
1005
11E2E4
  0
LINE
  5
11E2E5
  8
OBJECT
 10
10074.99999080298
 20
-757.99998602702181
 30
0.0
 11
10080.0
 21
-757.99998602702181
 31
0.0
1001
ACDBBLOCKREPETAG
1070
     1
1071
       55
1005
11E2E5
  0
LINE
  5
11E2E6
  8
OBJECT
 10
9925.0000000001382
 20
-757.99999999985096
 30
0.0
 11
9925.0
 21
-878.0
 31
0.0
1001
ACDBBLOCKREPETAG
1070
     1
1071
       56
1005
11E2E6
  0
LINE
  5
11E2E7
  8
OBJECT
 10
9925.0000091970142
 20
-757.99998602702181
 30
0.0
 11
9920.0
 21
-757.99998602702181
 31
0.0
1001
ACDBBLOCKREPETAG
1070
     1
1071
       57
1005
11E2E7
  0
ARC
  5
11E2E8
  8
OBJECT
 10
10200.687274671671
 20
-749.40809941010752
 30
0.0
 40
170.6350503965856
 50
137.44134459184301
 51
149.91949581337221
1001
ACDBBLOCKREPETAG
1070
     1
1071
       58
1005
11E2E8
  0
ARC
  5
11E2E9
  8
OBJECT
 10
10200.687274671671
 20
-642.59190058989225
 30
0.0
 40
170.6350503965856
 50
210.08050418662771
 51
222.55865540815699
1001
ACDBBLOCKREPETAG
1070
     1
1071
       59
1005
11E2E9
  0
ARC
  5
11E2EA
  8
OBJECT
 10
9799.3127253283274
 20
-749.40809941010752
 30
0.0
 40
170.6350503965856
 50
30.080504186787142
 51
42.558655408347391
1001
ACDBBLOCKREPETAG
1070
     1
1071
       60
1005
11E2EA
  0
ARC
  5
11E2EB
  8
OBJECT
 10
9799.3127253283274
 20
-642.59190058989225
 30
0.0
 40
170.6350503965856
 50
317.44134459165258
 51
329.9194958132129
1001
ACDBBLOCKREPETAG
1070
     1
1071
       61
1005
11E2EB
  0
POINT
  5
11E2EC
  8
DOTS
 10
10000.0
 20
-755.0
 30
0.0
1001
ACDBBLOCKREPETAG
1070
     1
1071
      185
1005
11E2EC
  0
LINE
  5
11E2ED
  8
SLIM
 10
11945.256670426101
 20
-137.99999999999909
 30
0.0
 11
11955.954840369581
 21
-127.30183005652231
 31
0.0
1001
GRADIENTCOLOR1ACI
1070
     5
1001
GRADIENTCOLOR2ACI
1070
     2
1001
ACAD
1010
0.0
1020
0.0
1030
0.0
1001
ACDBBLOCKREPETAG
1070
     1
1071
      428
1005
11E2ED
  0
LINE
  5
11E2EE
  8
SLIM
 10
11954.23692654717
 20
-137.99999999999909
 30
0.0
 11
11972.75077447633
 21
-119.4861520708364
 31
0.0
1001
GRADIENTCOLOR1ACI
1070
     5
1001
GRADIENTCOLOR2ACI
1070
     2
1001
ACAD
1010
0.0
1020
0.0
1030
0.0
1001
ACDBBLOCKREPETAG
1070
     1
1071
      429
1005
11E2EE
  0
LINE
  5
11E2EF
  8
SLIM
 10
11973.521224312461
 20
-127.6959583557812
 30
0.0
 11
11984.857514674861
 21
-116.359667993377
 31
0.0
1001
GRADIENTCOLOR1ACI
1070
     5
1001
GRADIENTCOLOR2ACI
1070
     2
1001
ACAD
1010
0.0
1020
0.0
1030
0.0
1001
ACDBBLOCKREPETAG
1070
     1
1071
      430
1005
11E2EF
  0
LINE
  5
11E2F0
  8
SLIM
 10
11985.894417146121
 20
-124.30302164318159
 30
0.0
 11
11995.05338120025
 21
-115.1440575890517
 31
0.0
1001
GRADIENTCOLOR1ACI
1070
     5
1001
GRADIENTCOLOR2ACI
1070
     2
1001
ACAD
1010
0.0
1020
0.0
1030
0.0
1001
ACDBBLOCKREPETAG
1070
     1
1071
      431
1005
11E2F0
  0
LINE
  5
11E2F1
  8
SLIM
 10
11996.077732749211
 20
-123.0999621611699
 30
0.0
 11
12000.0
 21
-119.1776949103767
 31
0.0
1001
GRADIENTCOLOR1ACI
1070
     5
1001
GRADIENTCOLOR2ACI
1070
     2
1001
ACAD
1010
0.0
1020
0.0
1030
0.0
1001
ACDBBLOCKREPETAG
1070
     1
1071
      432
1005
11E2F1
  0
LINE
  5
11E2F2
  8
SLIM
 10
12000.0
 20
-119.1776949103767
 30
0.0
 11
12004.0797313529
 21
-115.0979635574724
 31
0.0
1001
GRADIENTCOLOR1ACI
1070
     5
1001
GRADIENTCOLOR2ACI
1070
     2
1001
ACAD
1010
0.0
1020
0.0
1030
0.0
1001
ACDBBLOCKREPETAG
1070
     1
1071
      433
1005
11E2F2
  0
LINE
  5
11E2F3
  8
SLIM
 10
12004.995720254279
 20
-123.1622307771683
 30
0.0
 11
12012.267978410569
 21
-115.88997262087101
 31
0.0
1001
GRADIENTCOLOR1ACI
1070
     5
1001
GRADIENTCOLOR2ACI
1070
     2
1001
ACAD
1010
0.0
1020
0.0
1030
0.0
1001
ACDBBLOCKREPETAG
1070
     1
1071
      434
1005
11E2F3
  0
LINE
  5
11E2F4
  8
SLIM
 10
12013.028059366959
 20
-124.1101477855505
 30
0.0
 11
12019.799941457361
 21
-117.3382656951526
 31
0.0
1001
GRADIENTCOLOR1ACI
1070
     5
1001
GRADIENTCOLOR2ACI
1070
     2
1001
ACAD
1010
0.0
1020
0.0
1030
0.0
1001
ACDBBLOCKREPETAG
1070
     1
1071
      435
1005
11E2F4
  0
LINE
  5
11E2F5
  8
SLIM
 10
12020.374081314239
 20
-125.7443819593383
 30
0.0
 11
12026.787203867279
 21
-119.3312594063044
 31
0.0
1001
GRADIENTCOLOR1ACI
1070
     5
1001
GRADIENTCOLOR2ACI
1070
     2
1001
ACAD
1010
0.0
1020
0.0
1030
0.0
1001
ACDBBLOCKREPETAG
1070
     1
1071
      436
1005
11E2F5
  0
LINE
  5
11E2F6
  8
SLIM
 10
12027.15247199887
 20
-127.946247395778
 30
0.0
 11
12033.303003076029
 21
-121.7957163186195
 31
0.0
1001
GRADIENTCOLOR1ACI
1070
     5
1001
GRADIENTCOLOR2ACI
1070
     2
1001
ACAD
1010
0.0
1020
0.0
1030
0.0
1001
ACDBBLOCKREPETAG
1070
     1
1071
      437
1005
11E2F6
  0
LINE
  5
11E2F7
  8
SLIM
 10
12033.43909865133
 20
-130.63987686439191
 30
0.0
 11
12039.397311984379
 21
-124.6816635313439
 31
0.0
1001
GRADIENTCOLOR1ACI
1070
     5
1001
GRADIENTCOLOR2ACI
1070
     2
1001
ACAD
1010
0.0
1020
0.0
1030
0.0
1001
ACDBBLOCKREPETAG
1070
     1
1071
      438
1005
11E2F7
  0
LINE
  5
11E2F8
  8
SLIM
 10
12039.284224621801
 20
-133.77500701499321
 30
0.0
 11
12045.10477053437
 21
-127.95446110242381
 31
0.0
1001
GRADIENTCOLOR1ACI
1070
     5
1001
GRADIENTCOLOR2ACI
1070
     2
1001
ACAD
1010
0.0
1020
0.0
1030
0.0
1001
ACDBBLOCKREPETAG
1070
     1
1071
      439
1005
11E2F8
  0
LINE
  5
11E2F9
  8
SLIM
 10
12044.721280169801
 20
-137.31820758805651
 30
0.0
 11
12050.449155789191
 21
-131.59033196866449
 31
0.0
1001
GRADIENTCOLOR1ACI
1070
     5
1001
GRADIENTCOLOR2ACI
1070
     2
1001
ACAD
1010
0.0
1020
0.0
1030
0.0
1001
ACDBBLOCKREPETAG
1070
     1
1071
      440
1005
11E2F9
  0
LINE
  5
11E2FA
  8
SLIM
 10
12053.01974387892
 20
-137.99999999999909
 30
0.0
 11
12055.445994186401
 21
-135.57374969252561
 31
0.0
1001
GRADIENTCOLOR1ACI
1070
     5
1001
GRADIENTCOLOR2ACI
1070
     2
1001
ACAD
1010
0.0
1020
0.0
1030
0.0
1001
ACDBBLOCKREPETAG
1070
     1
1071
      441
1005
11E2FA
  0
LINE
  5
11E2FB
  8
CENTER
 10
12000.0
 20
-279.99999999999909
 30
0.0
 11
12000.0
 21
-99.999999999999091
 31
0.0
1001
ACDBBLOCKREPETAG
1070
     1
1071
      160
1005
11E2FB
  0
CIRCLE
  5
11E2FC
  8
OBJECT
 10
12000.0
 20
-199.99999999999909
 30
0.0
 40
70.0
1001
ACDBBLOCKREPETAG
1070
     1
1071
      161
1005
11E2FC
  0
CIRCLE
  5
11E2FD
  8
OBJECT
 10
12000.0
 20
-199.99999999999909
 30
0.0
 40
77.0
1001
ACDBBLOCKREPETAG
1070
     1
1071
      162
1005
11E2FD
  0
LINE
  5
11E2FE
  8
OBJECT
 10
12045.661800227321
 20
-137.99999999999909
 30
0.0
 11
12080.0
 21
-137.99999999999909
 31
0.0
1001
ACDBBLOCKREPETAG
1070
     1
1071
      164
1005
11E2FE
  0
LINE
  5
11E2FF
  8
OBJECT
 10
12062.0
 20
-261.99999999999909
 30
0.0
 11
12080.0
 21
-261.99999999999909
 31
0.0
1001
ACDBBLOCKREPETAG
1070
     1
1071
      165
1005
11E2FF
  0
LINE
  5
11E300
  8
OBJECT
 10
12062.0
 20
-261.99999999999909
 30
0.0
 11
12062.0
 21
-279.99999999999909
 31
0.0
1001
ACDBBLOCKREPETAG
1070
     1
1071
      167
1005
11E300
  0
LINE
  5
11E301
  8
OBJECT
 10
11938.0
 20
-261.99999999999909
 30
0.0
 11
11938.0
 21
-279.99999999999909
 31
0.0
1001
ACDBBLOCKREPETAG
1070
     1
1071
      168
1005
11E301
  0
LINE
  5
11E302
  8
OBJECT
 10
11938.0
 20
-261.99999999999909
 30
0.0
 11
11920.0
 21
-261.99999999999909
 31
0.0
1001
ACDBBLOCKREPETAG
1070
     1
1071
      170
1005
11E302
  0
LINE
  5
11E303
  8
OBJECT
 10
11954.33819977267
 20
-137.99999999999909
 30
0.0
 11
11920.0
 21
-137.99999999999909
 31
0.0
1001
ACDBBLOCKREPETAG
1070
     1
1071
      171
1005
11E303
  0
LINE
  5
11E304
  8
OBJECT
 10
11945.55277784863
 20
-254.44722215136329
 30
0.0
 11
11938.0
 21
-261.99999999999909
 31
0.0
1001
ACDBBLOCKREPETAG
1070
     1
1071
      180
1005
11E304
  0
LINE
  5
11E305
  8
OBJECT
 10
12054.447222151361
 20
-254.44722215136329
 30
0.0
 11
12062.0
 21
-261.99999999999909
 31
0.0
1001
ACDBBLOCKREPETAG
1070
     1
1071
      181
1005
11E305
  0
ARC
  5
11E306
  8
OBJECT
 10
12000.0
 20
-199.99999999999909
 30
0.0
 40
85.0
 50
46.837102859844251
 51
133.16289714015571
1001
ACDBBLOCKREPETAG
1070
     1
1071
      183
1005
11E306
  0
LINE
  5
11E307
  8
OBJECT
 10
12024.1029330933
 20
-243.80694712371681
 30
0.0
 11
12020.659656999989
 21
-232.55462199999889
 31
0.0
1001
ACDBBLOCKREPETAG
1070
     1
1071
      314
1005
11E307
  0
LINE
  5
11E308
  8
OBJECT
 10
11986.79274990136
 20
-218.22553374208019
 30
0.0
 11
12020.659656999989
 21
-232.5546219999969
 31
0.0
1001
ACDBBLOCKREPETAG
1070
     1
1071
      316
1005
11E308
  0
ARC
  5
11E309
  8
OBJECT
 10
11982.8961697619
 20
-227.4351299990567
 30
0.0
 40
10.0
 50
67.066778292911366
 51
154.01473437031629
1001
ACDBBLOCKREPETAG
1070
     1
1071
      317
1005
11E309
  0
ARC
  5
11E30A
  8
OBJECT
 10
11986.148839038129
 20
-225.55386256729159
 30
0.0
 40
7.0
 50
67.066778292911366
 51
154.0147337749826
1001
ACDBBLOCKREPETAG
1070
     1
1071
      318
1005
11E30A
  0
LINE
  5
11E30B
  8
OBJECT
 10
11969.4199755553
 20
-243.89888500818171
 30
0.0
 11
11979.85649182323
 21
-222.48688253356801
 31
0.0
1001
ACDBBLOCKREPETAG
1070
     1
1071
      349
1005
11E30B
  0
LINE
  5
11E30C
  8
OBJECT
 10
11965.29721690061
 20
-240.71813901882729
 30
0.0
 11
11973.90710226651
 21
-223.05373004430751
 31
0.0
1001
ACDBBLOCKREPETAG
1070
     1
1071
      350
1005
11E30C
  0
ARC
  5
11E30D
  8
OBJECT
 10
11976.57969530731
 20
-207.1289369828437
 30
0.0
 40
60.031113246032611
 50
314.07020130422319
 51
322.33936106089681
1001
ACDBBLOCKREPETAG
1070
     1
1071
      351
1005
11E30D
  0
CIRCLE
  5
11E30E
  8
OBJECT
 10
12000.0
 20
-199.99999999999909
 30
0.0
 40
53.5
1001
ACDBBLOCKREPETAG
1070
     1
1071
      352
1005
11E30E
  0
POINT
  5
11E30F
  8
DOTS
 10
12000.0
 20
-199.99999999999909
 30
0.0
 50
270.0
1001
ACDBBLOCKREPETAG
1070
     1
1071
      364
1005
11E30F
  0
ARC
  5
11E310
  8
OBJECT
 10
12000.0
 20
-199.99999999999909
 30
0.0
 40
50.0
 50
298.81994300000417
 51
228.5237695596397
1001
ACDBBLOCKREPETAG
1070
     1
1071
      157
1005
11E310
  0
LINE
  5
11E311
  8
CENTER
 10
12080.0
 20
-199.99999999999909
 30
0.0
 11
11920.0
 21
-199.99999999999909
 31
0.0
1001
ACDBBLOCKREPETAG
1070
     1
1071
      158
1005
11E311
  0
LINE
  5
11E312
  8
OBJECT
 10
11797.000000000009
 20
-261.99999999999909
 30
0.0
 11
11790.0
 21
-261.99999999999909
 31
0.0
1001
ACDBBLOCKREPETAG
1070
     1
1071
       85
1005
11E312
  0
LINE
  5
11E313
  8
OBJECT
 10
11790.0
 20
-261.99999999999909
 30
0.0
 11
11790.0
 21
-137.99999999999909
 31
0.0
1001
ACDBBLOCKREPETAG
1070
     1
1071
       86
1005
11E313
  0
LINE
  5
11E314
  8
OBJECT
 10
11790.0
 20
-137.99999999999909
 30
0.0
 11
11797.000000000009
 21
-137.99999999999909
 31
0.0
1001
ACDBBLOCKREPETAG
1070
     1
1071
       87
1005
11E314
  0
LINE
  5
11E315
  8
OBJECT
 10
11797.000000000009
 20
-137.99999999999909
 30
0.0
 11
11797.000000000009
 21
-261.99999999999909
 31
0.0
1001
ACDBBLOCKREPETAG
1070
     1
1071
       88
1005
11E315
  0
LINE
  5
11E316
  8
CENTER
 10
11775.000000000009
 20
-199.99999999999909
 30
0.0
 11
11920.0
 21
-199.99999999999909
 31
0.0
1001
ACDBBLOCKREPETAG
1070
     1
1071
       89
1005
11E316
  0
LINE
  5
11E317
  8
OBJECT
 10
11850.00002503581
 20
-154.9999999999954
 30
0.0
 11
11914.0
 21
-154.99999999999909
 31
0.0
1001
ACDBBLOCKREPETAG
1070
     1
1071
       90
1005
11E317
  0
LINE
  5
11E318
  8
OBJECT
 10
11850.00002503581
 20
-244.99999999999909
 30
0.0
 11
11914.0
 21
-244.99999999999909
 31
0.0
1001
ACDBBLOCKREPETAG
1070
     1
1071
       91
1005
11E318
  0
LINE
  5
11E319
  8
OBJECT
 10
11797.000000000009
 20
-258.99999999999909
 30
0.0
 11
11833.0
 21
-258.99999999999909
 31
0.0
1001
ACDBBLOCKREPETAG
1070
     1
1071
       92
1005
11E319
  0
LINE
  5
11E31A
  8
OBJECT
 10
11833.0
 20
-258.99999999999909
 30
0.0
 11
11833.0
 21
-140.99999999999909
 31
0.0
1001
ACDBBLOCKREPETAG
1070
     1
1071
       93
1005
11E31A
  0
LINE
  5
11E31B
  8
OBJECT
 10
11833.0
 20
-140.99999999999909
 30
0.0
 11
11797.000000000009
 21
-140.99999999999909
 31
0.0
1001
ACDBBLOCKREPETAG
1070
     1
1071
       94
1005
11E31B
  0
LINE
  5
11E31C
  8
OBJECT
 10
11837.000000000009
 20
-254.49999999999909
 30
0.0
 11
11850.0
 21
-254.49999999999909
 31
0.0
1001
ACDBBLOCKREPETAG
1070
     1
1071
       95
1005
11E31C
  0
LINE
  5
11E31D
  8
OBJECT
 10
11850.0
 20
-145.49999999999909
 30
0.0
 11
11837.000000000009
 21
-145.49999999999909
 31
0.0
1001
ACDBBLOCKREPETAG
1070
     1
1071
       96
1005
11E31D
  0
LINE
  5
11E31E
  8
OBJECT
 10
11837.000000000009
 20
-145.49999999999909
 30
0.0
 11
11837.000000000009
 21
-254.49999999999909
 31
0.0
1001
ACDBBLOCKREPETAG
1070
     1
1071
       97
1005
11E31E
  0
LINE
  5
11E31F
  8
OBJECT
 10
11833.0
 20
-258.99999999999909
 30
0.0
 11
11837.000000000009
 21
-254.49999999999909
 31
0.0
1001
ACDBBLOCKREPETAG
1070
     1
1071
       98
1005
11E31F
  0
LINE
  5
11E320
  8
OBJECT
 10
11833.0
 20
-140.99999999999909
 30
0.0
 11
11837.000000000009
 21
-145.49999999999909
 31
0.0
1001
ACDBBLOCKREPETAG
1070
     1
1071
       99
1005
11E320
  0
LINE
  5
11E321
  8
OBJECT
 10
11917.0
 20
-261.99999999999909
 30
0.0
 11
11920.0
 21
-261.99999999999909
 31
0.0
1001
ACDBBLOCKREPETAG
1070
     1
1071
      100
1005
11E321
  0
ARC
  5
11E322
  8
OBJECT
 10
11917.0
 20
-258.99999999999909
 30
0.0
 40
3.0
 50
180.0
 51
270.0
1001
ACDBBLOCKREPETAG
1070
     1
1071
      101
1005
11E322
  0
LINE
  5
11E323
  8
OBJECT
 10
11920.0
 20
-137.99999999999909
 30
0.0
 11
11917.0
 21
-137.99999999999909
 31
0.0
1001
ACDBBLOCKREPETAG
1070
     1
1071
      102
1005
11E323
  0
ARC
  5
11E324
  8
OBJECT
 10
11917.0
 20
-140.99999999999909
 30
0.0
 40
3.0
 50
90.0
 51
180.0
1001
ACDBBLOCKREPETAG
1070
     1
1071
      103
1005
11E324
  0
LINE
  5
11E325
  8
OBJECT
 10
11914.0
 20
-140.99999999999909
 30
0.0
 11
11914.0
 21
-189.6772096796403
 31
0.0
1001
ACDBBLOCKREPETAG
1070
     1
1071
      104
1005
11E325
  0
LINE
  5
11E326
  8
OBJECT
 10
11914.0
 20
-210.3227903203578
 30
0.0
 11
11914.0
 21
-258.99999999999909
 31
0.0
1001
ACDBBLOCKREPETAG
1070
     1
1071
      105
1005
11E326
  0
LINE
  5
11E327
  8
HIDDEN
 10
11842.000000000009
 20
-244.49999999999909
 30
0.0
 11
11842.000000000009
 21
-155.49999999999909
 31
0.0
1001
ACDBBLOCKREPETAG
1070
     1
1071
      106
1005
11E327
  0
LINE
  5
11E328
  8
OBJECT
 10
11850.00002503581
 20
-145.50004907618759
 30
0.0
 11
11850.00002503581
 21
-254.50004907618771
 31
0.0
1001
ACDBBLOCKREPETAG
1070
     1
1071
      108
1005
11E328
  0
ARC
  5
11E329
  8
OBJECT
 10
11870.19999999997
 20
-199.99999999999909
 30
0.0
 40
45.000000000000547
 50
270.0
 51
90.0
1001
ACDBBLOCKREPETAG
1070
     1
1071
      109
1005
11E329
  0
LINE
  5
11E32A
  8
CENTER
 10
12000.0
 20
-300.99999999999898
 30
0.0
 11
12000.0
 21
-279.99999999999909
 31
0.0
1001
ACDBBLOCKREPETAG
1070
     1
1071
        0
1005
11E32A
  0
LINE
  5
11E32B
  8
OBJECT
 10
12062.0
 20
-283.0
 30
0.0
 11
12062.0
 21
-279.99999999999909
 31
0.0
1001
ACDBBLOCKREPETAG
1070
     1
1071
        1
1005
11E32B
  0
ARC
  5
11E32C
  8
OBJECT
 10
12059.0
 20
-283.0
 30
0.0
 40
3.0
 50
270.0
 51
0.0
1001
ACDBBLOCKREPETAG
1070
     1
1071
        2
1005
11E32C
  0
LINE
  5
11E32D
  8
OBJECT
 10
11938.0
 20
-279.99999999999909
 30
0.0
 11
11938.0
 21
-282.99999999999818
 31
0.0
1001
ACDBBLOCKREPETAG
1070
     1
1071
        3
1005
11E32D
  0
ARC
  5
11E32E
  8
OBJECT
 10
11941.0
 20
-282.99999999999818
 30
0.0
 40
3.0
 50
180.0
 51
270.0
1001
ACDBBLOCKREPETAG
1070
     1
1071
        4
1005
11E32E
  0
LINE
  5
11E32F
  8
OBJECT
 10
11941.0
 20
-285.99999999999818
 30
0.0
 11
12059.0
 21
-286.0
 31
0.0
1001
ACDBBLOCKREPETAG
1070
     1
1071
        5
1005
11E32F
  0
LINE
  5
11E330
  8
OBJECT
 10
12202.99999999998
 20
-137.99999999999909
 30
0.0
 11
12209.99999999998
 21
-137.99999999999909
 31
0.0
1001
ACDBBLOCKREPETAG
1070
     1
1071
       85
1005
11E330
  0
LINE
  5
11E331
  8
OBJECT
 10
12209.99999999998
 20
-137.99999999999909
 30
0.0
 11
12209.99999999998
 21
-261.99999999999909
 31
0.0
1001
ACDBBLOCKREPETAG
1070
     1
1071
       86
1005
11E331
  0
LINE
  5
11E332
  8
OBJECT
 10
12209.99999999998
 20
-261.99999999999909
 30
0.0
 11
12202.99999999998
 21
-261.99999999999909
 31
0.0
1001
ACDBBLOCKREPETAG
1070
     1
1071
       87
1005
11E332
  0
LINE
  5
11E333
  8
OBJECT
 10
12202.99999999998
 20
-261.99999999999909
 30
0.0
 11
12202.99999999998
 21
-137.99999999999909
 31
0.0
1001
ACDBBLOCKREPETAG
1070
     1
1071
       88
1005
11E333
  0
LINE
  5
11E334
  8
CENTER
 10
12224.99999999998
 20
-199.99999999999909
 30
0.0
 11
12080.0
 21
-199.99999999999909
 31
0.0
1001
ACDBBLOCKREPETAG
1070
     1
1071
       89
1005
11E334
  0
LINE
  5
11E335
  8
OBJECT
 10
12149.999974964179
 20
-245.0000000000027
 30
0.0
 11
12086.0
 21
-244.99999999999909
 31
0.0
1001
ACDBBLOCKREPETAG
1070
     1
1071
       90
1005
11E335
  0
LINE
  5
11E336
  8
OBJECT
 10
12149.999974964179
 20
-154.99999999999909
 30
0.0
 11
12086.0
 21
-154.99999999999909
 31
0.0
1001
ACDBBLOCKREPETAG
1070
     1
1071
       91
1005
11E336
  0
LINE
  5
11E337
  8
OBJECT
 10
12202.99999999998
 20
-140.99999999999909
 30
0.0
 11
12166.99999999998
 21
-140.99999999999909
 31
0.0
1001
ACDBBLOCKREPETAG
1070
     1
1071
       92
1005
11E337
  0
LINE
  5
11E338
  8
OBJECT
 10
12166.99999999998
 20
-140.99999999999909
 30
0.0
 11
12166.99999999998
 21
-258.99999999999909
 31
0.0
1001
ACDBBLOCKREPETAG
1070
     1
1071
       93
1005
11E338
  0
LINE
  5
11E339
  8
OBJECT
 10
12166.99999999998
 20
-258.99999999999909
 30
0.0
 11
12202.99999999998
 21
-258.99999999999909
 31
0.0
1001
ACDBBLOCKREPETAG
1070
     1
1071
       94
1005
11E339
  0
LINE
  5
11E33A
  8
OBJECT
 10
12162.99999999998
 20
-145.49999999999909
 30
0.0
 11
12149.99999999998
 21
-145.49999999999909
 31
0.0
1001
ACDBBLOCKREPETAG
1070
     1
1071
       95
1005
11E33A
  0
LINE
  5
11E33B
  8
OBJECT
 10
12149.99999999998
 20
-254.49999999999909
 30
0.0
 11
12162.99999999998
 21
-254.49999999999909
 31
0.0
1001
ACDBBLOCKREPETAG
1070
     1
1071
       96
1005
11E33B
  0
LINE
  5
11E33C
  8
OBJECT
 10
12162.99999999998
 20
-254.49999999999909
 30
0.0
 11
12162.99999999998
 21
-145.49999999999909
 31
0.0
1001
ACDBBLOCKREPETAG
1070
     1
1071
       97
1005
11E33C
  0
LINE
  5
11E33D
  8
OBJECT
 10
12166.99999999998
 20
-140.99999999999909
 30
0.0
 11
12162.99999999998
 21
-145.49999999999909
 31
0.0
1001
ACDBBLOCKREPETAG
1070
     1
1071
       98
1005
11E33D
  0
LINE
  5
11E33E
  8
OBJECT
 10
12166.99999999998
 20
-258.99999999999909
 30
0.0
 11
12162.99999999998
 21
-254.49999999999909
 31
0.0
1001
ACDBBLOCKREPETAG
1070
     1
1071
       99
1005
11E33E
  0
LINE
  5
11E33F
  8
OBJECT
 10
12083.0
 20
-137.99999999999909
 30
0.0
 11
12080.0
 21
-137.99999999999909
 31
0.0
1001
ACDBBLOCKREPETAG
1070
     1
1071
      100
1005
11E33F
  0
ARC
  5
11E340
  8
OBJECT
 10
12083.0
 20
-140.99999999999909
 30
0.0
 40
3.0
 50
0.0
 51
90.0
1001
ACDBBLOCKREPETAG
1070
     1
1071
      101
1005
11E340
  0
LINE
  5
11E341
  8
OBJECT
 10
12080.0
 20
-261.99999999999909
 30
0.0
 11
12083.0
 21
-261.99999999999909
 31
0.0
1001
ACDBBLOCKREPETAG
1070
     1
1071
      102
1005
11E341
  0
ARC
  5
11E342
  8
OBJECT
 10
12083.0
 20
-258.99999999999909
 30
0.0
 40
3.0
 50
270.0
 51
0.0
1001
ACDBBLOCKREPETAG
1070
     1
1071
      103
1005
11E342
  0
LINE
  5
11E343
  8
OBJECT
 10
12086.0
 20
-258.99999999999909
 30
0.0
 11
12086.0
 21
-210.3227903203578
 31
0.0
1001
ACDBBLOCKREPETAG
1070
     1
1071
      104
1005
11E343
  0
LINE
  5
11E344
  8
OBJECT
 10
12086.0
 20
-189.6772096796403
 30
0.0
 11
12086.0
 21
-140.99999999999909
 31
0.0
1001
ACDBBLOCKREPETAG
1070
     1
1071
      105
1005
11E344
  0
LINE
  5
11E345
  8
HIDDEN
 10
12157.99999999998
 20
-155.49999999999909
 30
0.0
 11
12157.99999999998
 21
-244.49999999999909
 31
0.0
1001
ACDBBLOCKREPETAG
1070
     1
1071
      106
1005
11E345
  0
LINE
  5
11E346
  8
OBJECT
 10
12149.999974964179
 20
-254.4999509238105
 30
0.0
 11
12149.999974964179
 21
-145.4999509238105
 31
0.0
1001
ACDBBLOCKREPETAG
1070
     1
1071
      108
1005
11E346
  0
ARC
  5
11E347
  8
OBJECT
 10
12129.800000000019
 20
-199.99999999999909
 30
0.0
 40
45.000000000000547
 50
90.0
 51
270.0
1001
ACDBBLOCKREPETAG
1070
     1
1071
      109
1005
11E347
  0
LINE
  5
11E348
  8
OBJECT
 10
11797.000000000009
 20
-583.0
 30
0.0
 11
11790.0
 21
-583.0
 31
0.0
1001
ACDBBLOCKREPETAG
1070
     1
1071
       83
1005
11E348
  0
LINE
  5
11E349
  8
OBJECT
 10
11790.0
 20
-583.0
 30
0.0
 11
11790.0
 21
-707.0
 31
0.0
1001
ACDBBLOCKREPETAG
1070
     1
1071
       84
1005
11E349
  0
LINE
  5
11E34A
  8
OBJECT
 10
11914.0
 20
-653.3502637757274
 30
0.0
 11
11914.0
 21
-755.00000000000102
 31
0.0
1001
ACDBBLOCKREPETAG
1070
     1
1071
       85
1005
11E34A
  0
LINE
  5
11E34B
  8
OBJECT
 10
11790.0
 20
-707.0
 30
0.0
 11
11797.000000000009
 21
-707.0
 31
0.0
1001
ACDBBLOCKREPETAG
1070
     1
1071
       86
1005
11E34B
  0
LINE
  5
11E34C
  8
OBJECT
 10
11797.000000000009
 20
-707.0
 30
0.0
 11
11797.000000000009
 21
-583.0
 31
0.0
1001
ACDBBLOCKREPETAG
1070
     1
1071
       87
1005
11E34C
  0
LINE
  5
11E34D
  8
CENTER
 10
11865.0
 20
-645.0000000000008
 30
0.0
 11
11775.000000000009
 21
-645.0
 31
0.0
1001
ACDBBLOCKREPETAG
1070
     1
1071
       88
1005
11E34D
  0
LINE
  5
11E34E
  8
OBJECT
 10
11920.00000000002
 20
-758.0
 30
0.0
 11
11917.000000000009
 21
-758.0000000000008
 31
0.0
1001
ACDBBLOCKREPETAG
1070
     1
1071
       89
1005
11E34E
  0
ARC
  5
11E34F
  8
OBJECT
 10
11917.000000000009
 20
-755.00000000000102
 30
0.0
 40
3.0
 50
180.0
 51
270.0
1001
ACDBBLOCKREPETAG
1070
     1
1071
       90
1005
11E34F
  0
LINE
  5
11E350
  8
OBJECT
 10
11797.000000000009
 20
-586.0
 30
0.0
 11
11833.0
 21
-586.0000000000008
 31
0.0
1001
ACDBBLOCKREPETAG
1070
     1
1071
       91
1005
11E350
  0
LINE
  5
11E351
  8
OBJECT
 10
11833.0
 20
-586.0000000000008
 30
0.0
 11
11833.0
 21
-704.0000000000008
 31
0.0
1001
ACDBBLOCKREPETAG
1070
     1
1071
       92
1005
11E351
  0
LINE
  5
11E352
  8
OBJECT
 10
11837.000000000009
 20
-590.5000000000008
 30
0.0
 11
11837.000000000009
 21
-699.5000000000008
 31
0.0
1001
ACDBBLOCKREPETAG
1070
     1
1071
       93
1005
11E352
  0
LINE
  5
11E353
  8
OBJECT
 10
11837.000000000009
 20
-590.5000000000008
 30
0.0
 11
11850.0
 21
-590.5000000000008
 31
0.0
1001
ACDBBLOCKREPETAG
1070
     1
1071
       94
1005
11E353
  0
LINE
  5
11E354
  8
OBJECT
 10
11833.0
 20
-704.0000000000008
 30
0.0
 11
11797.000000000009
 21
-704.0
 31
0.0
1001
ACDBBLOCKREPETAG
1070
     1
1071
       95
1005
11E354
  0
LINE
  5
11E355
  8
OBJECT
 10
11833.0
 20
-586.0000000000008
 30
0.0
 11
11837.000000000009
 21
-590.5000000000008
 31
0.0
1001
ACDBBLOCKREPETAG
1070
     1
1071
       96
1005
11E355
  0
LINE
  5
11E356
  8
OBJECT
 10
11850.0
 20
-590.5000000000008
 30
0.0
 11
11850.0
 21
-675.74491827928784
 31
0.0
1001
ACDBBLOCKREPETAG
1070
     1
1071
       97
1005
11E356
  0
ARC
  5
11E357
  8
OBJECT
 10
11847.20000000001
 20
-685.0000000000008
 30
0.0
 40
85.0
 50
36.869897645906562
 51
88.112268108168848
1001
ACDBBLOCKREPETAG
1070
     1
1071
       98
1005
11E357
  0
LINE
  5
11E358
  8
HIDDEN
 10
11842.000000000009
 20
-600.50000000000068
 30
0.0
 11
11842.000000000009
 21
-689.50000000000091
 31
0.0
1001
ACDBBLOCKREPETAG
1070
     1
1071
      100
1005
11E358
  0
LINE
  5
11E359
  8
OBJECT
 10
11914.0
 20
-751.07945073181781
 30
0.0
 11
11843.36868007896
 21
-699.5000000000008
 31
0.0
1001
ACDBBLOCKREPETAG
1070
     1
1071
      101
1005
11E359
  0
LINE
  5
11E35A
  8
OBJECT
 10
11920.00000000002
 20
-634.0
 30
0.0
 11
11915.20000000001
 21
-634.0
 31
0.0
1001
ACDBBLOCKREPETAG
1070
     1
1071
      102
1005
11E35A
  0
LINE
  5
11E35B
  8
OBJECT
 10
11914.0
 20
-653.35026377573013
 30
0.0
 11
11915.20000000001
 21
-634.0
 31
0.0
1001
ACDBBLOCKREPETAG
1070
     1
1071
      103
1005
11E35B
  0
LINE
  5
11E35C
  8
OBJECT
 10
11837.000000000009
 20
-699.5000000000008
 30
0.0
 11
11843.36868007896
 21
-699.5000000000008
 31
0.0
1001
ACDBBLOCKREPETAG
1070
     1
1071
      104
1005
11E35C
  0
LINE
  5
11E35D
  8
OBJECT
 10
11833.0
 20
-704.0000000000008
 30
0.0
 11
11837.000000000009
 21
-699.5000000000008
 31
0.0
1001
ACDBBLOCKREPETAG
1070
     1
1071
      105
1005
11E35D
  0
CIRCLE
  5
11E35E
  8
OBJECT
 10
12000.0
 20
-696.0
 30
0.0
 40
62.0
1001
ACDBBLOCKREPETAG
1070
     1
1071
        0
1005
11E35E
  0
LINE
  5
11E35F
  8
OBJECT
 10
12202.99999999998
 20
-583.0000000000008
 30
0.0
 11
12209.99999999998
 21
-583.0000000000008
 31
0.0
1001
ACDBBLOCKREPETAG
1070
     1
1071
       83
1005
11E35F
  0
LINE
  5
11E360
  8
OBJECT
 10
12209.99999999998
 20
-583.0000000000008
 30
0.0
 11
12209.99999999998
 21
-707.00000000000091
 31
0.0
1001
ACDBBLOCKREPETAG
1070
     1
1071
       84
1005
11E360
  0
LINE
  5
11E361
  8
OBJECT
 10
12085.99999999998
 20
-653.3502637757274
 30
0.0
 11
12085.99999999998
 21
-755.00000000000102
 31
0.0
1001
ACDBBLOCKREPETAG
1070
     1
1071
       85
1005
11E361
  0
LINE
  5
11E362
  8
OBJECT
 10
12209.99999999998
 20
-707.00000000000091
 30
0.0
 11
12202.99999999998
 21
-707.00000000000091
 31
0.0
1001
ACDBBLOCKREPETAG
1070
     1
1071
       86
1005
11E362
  0
LINE
  5
11E363
  8
OBJECT
 10
12202.99999999998
 20
-707.00000000000091
 30
0.0
 11
12202.99999999998
 21
-583.0000000000008
 31
0.0
1001
ACDBBLOCKREPETAG
1070
     1
1071
       87
1005
11E363
  0
LINE
  5
11E364
  8
CENTER
 10
12134.99999999998
 20
-645.0000000000008
 30
0.0
 11
12224.99999999998
 21
-645.0000000000008
 31
0.0
1001
ACDBBLOCKREPETAG
1070
     1
1071
       88
1005
11E364
  0
LINE
  5
11E365
  8
OBJECT
 10
12079.99999999998
 20
-758.0
 30
0.0
 11
12082.99999999998
 21
-758.0000000000008
 31
0.0
1001
ACDBBLOCKREPETAG
1070
     1
1071
       89
1005
11E365
  0
ARC
  5
11E366
  8
OBJECT
 10
12082.99999999998
 20
-755.00000000000102
 30
0.0
 40
3.0
 50
270.0
 51
0.0
1001
ACDBBLOCKREPETAG
1070
     1
1071
       90
1005
11E366
  0
LINE
  5
11E367
  8
OBJECT
 10
12202.99999999998
 20
-586.0000000000008
 30
0.0
 11
12166.99999999998
 21
-586.0000000000008
 31
0.0
1001
ACDBBLOCKREPETAG
1070
     1
1071
       91
1005
11E367
  0
LINE
  5
11E368
  8
OBJECT
 10
12166.99999999998
 20
-586.0000000000008
 30
0.0
 11
12166.99999999998
 21
-704.0000000000008
 31
0.0
1001
ACDBBLOCKREPETAG
1070
     1
1071
       92
1005
11E368
  0
LINE
  5
11E369
  8
OBJECT
 10
12162.99999999998
 20
-590.5000000000008
 30
0.0
 11
12162.99999999998
 21
-699.5000000000008
 31
0.0
1001
ACDBBLOCKREPETAG
1070
     1
1071
       93
1005
11E369
  0
LINE
  5
11E36A
  8
OBJECT
 10
12162.99999999998
 20
-590.5000000000008
 30
0.0
 11
12149.99999999998
 21
-590.5000000000008
 31
0.0
1001
ACDBBLOCKREPETAG
1070
     1
1071
       94
1005
11E36A
  0
LINE
  5
11E36B
  8
OBJECT
 10
12166.99999999998
 20
-704.0000000000008
 30
0.0
 11
12202.99999999998
 21
-704.0000000000008
 31
0.0
1001
ACDBBLOCKREPETAG
1070
     1
1071
       95
1005
11E36B
  0
LINE
  5
11E36C
  8
OBJECT
 10
12166.99999999998
 20
-586.0000000000008
 30
0.0
 11
12162.99999999998
 21
-590.5000000000008
 31
0.0
1001
ACDBBLOCKREPETAG
1070
     1
1071
       96
1005
11E36C
  0
LINE
  5
11E36D
  8
OBJECT
 10
12149.99999999998
 20
-590.5000000000008
 30
0.0
 11
12149.99999999998
 21
-675.74491827928784
 31
0.0
1001
ACDBBLOCKREPETAG
1070
     1
1071
       97
1005
11E36D
  0
ARC
  5
11E36E
  8
OBJECT
 10
12152.799999999979
 20
-685.0000000000008
 30
0.0
 40
85.0
 50
91.887731891831123
 51
143.1301023540934
1001
ACDBBLOCKREPETAG
1070
     1
1071
       98
1005
11E36E
  0
LINE
  5
11E36F
  8
HIDDEN
 10
12157.99999999998
 20
-600.50000000000068
 30
0.0
 11
12157.99999999998
 21
-689.50000000000091
 31
0.0
1001
ACDBBLOCKREPETAG
1070
     1
1071
      100
1005
11E36F
  0
LINE
  5
11E370
  8
OBJECT
 10
12085.99999999998
 20
-751.07945073181781
 30
0.0
 11
12156.631319921031
 21
-699.5000000000008
 31
0.0
1001
ACDBBLOCKREPETAG
1070
     1
1071
      101
1005
11E370
  0
LINE
  5
11E371
  8
OBJECT
 10
12079.99999999998
 20
-634.0
 30
0.0
 11
12084.799999999979
 21
-634.0
 31
0.0
1001
ACDBBLOCKREPETAG
1070
     1
1071
      102
1005
11E371
  0
LINE
  5
11E372
  8
OBJECT
 10
12085.99999999998
 20
-653.35026377573013
 30
0.0
 11
12084.799999999979
 21
-634.0
 31
0.0
1001
ACDBBLOCKREPETAG
1070
     1
1071
      103
1005
11E372
  0
LINE
  5
11E373
  8
OBJECT
 10
12162.99999999998
 20
-699.5000000000008
 30
0.0
 11
12156.631319921031
 21
-699.5000000000008
 31
0.0
1001
ACDBBLOCKREPETAG
1070
     1
1071
      104
1005
11E373
  0
LINE
  5
11E374
  8
OBJECT
 10
12166.99999999998
 20
-704.0000000000008
 30
0.0
 11
12162.99999999998
 21
-699.5000000000008
 31
0.0
1001
ACDBBLOCKREPETAG
1070
     1
1071
      105
1005
11E374
  0
LINE
  5
11E375
  8
SLIM
 10
9945.2566704261044
 20
-137.99999999999909
 30
0.0
 11
9955.9548403695771
 21
-127.30183005652231
 31
0.0
1001
GRADIENTCOLOR1ACI
1070
     5
1001
GRADIENTCOLOR2ACI
1070
     2
1001
ACAD
1010
0.0
1020
0.0
1030
0.0
1001
ACDBBLOCKREPETAG
1070
     1
1071
      428
1005
11E375
  0
LINE
  5
11E376
  8
SLIM
 10
9954.2369265471734
 20
-137.99999999999909
 30
0.0
 11
9972.7507744763316
 21
-119.4861520708364
 31
0.0
1001
GRADIENTCOLOR1ACI
1070
     5
1001
GRADIENTCOLOR2ACI
1070
     2
1001
ACAD
1010
0.0
1020
0.0
1030
0.0
1001
ACDBBLOCKREPETAG
1070
     1
1071
      429
1005
11E376
  0
LINE
  5
11E377
  8
SLIM
 10
9973.5212243124606
 20
-127.6959583557812
 30
0.0
 11
9984.8575146748644
 21
-116.359667993377
 31
0.0
1001
GRADIENTCOLOR1ACI
1070
     5
1001
GRADIENTCOLOR2ACI
1070
     2
1001
ACAD
1010
0.0
1020
0.0
1030
0.0
1001
ACDBBLOCKREPETAG
1070
     1
1071
      430
1005
11E377
  0
LINE
  5
11E378
  8
SLIM
 10
9985.8944171461262
 20
-124.30302164318159
 30
0.0
 11
9995.0533812002577
 21
-115.1440575890517
 31
0.0
1001
GRADIENTCOLOR1ACI
1070
     5
1001
GRADIENTCOLOR2ACI
1070
     2
1001
ACAD
1010
0.0
1020
0.0
1030
0.0
1001
ACDBBLOCKREPETAG
1070
     1
1071
      431
1005
11E378
  0
LINE
  5
11E379
  8
SLIM
 10
9996.0777327492033
 20
-123.0999621611699
 30
0.0
 11
10000.0
 21
-119.1776949103767
 31
0.0
1001
GRADIENTCOLOR1ACI
1070
     5
1001
GRADIENTCOLOR2ACI
1070
     2
1001
ACAD
1010
0.0
1020
0.0
1030
0.0
1001
ACDBBLOCKREPETAG
1070
     1
1071
      432
1005
11E379
  0
LINE
  5
11E37A
  8
SLIM
 10
10000.0
 20
-119.1776949103767
 30
0.0
 11
10004.0797313529
 21
-115.0979635574724
 31
0.0
1001
GRADIENTCOLOR1ACI
1070
     5
1001
GRADIENTCOLOR2ACI
1070
     2
1001
ACAD
1010
0.0
1020
0.0
1030
0.0
1001
ACDBBLOCKREPETAG
1070
     1
1071
      433
1005
11E37A
  0
LINE
  5
11E37B
  8
SLIM
 10
10004.99572025427
 20
-123.1622307771683
 30
0.0
 11
10012.26797841056
 21
-115.88997262087101
 31
0.0
1001
GRADIENTCOLOR1ACI
1070
     5
1001
GRADIENTCOLOR2ACI
1070
     2
1001
ACAD
1010
0.0
1020
0.0
1030
0.0
1001
ACDBBLOCKREPETAG
1070
     1
1071
      434
1005
11E37B
  0
LINE
  5
11E37C
  8
SLIM
 10
10013.028059366959
 20
-124.1101477855505
 30
0.0
 11
10019.799941457361
 21
-117.3382656951526
 31
0.0
1001
GRADIENTCOLOR1ACI
1070
     5
1001
GRADIENTCOLOR2ACI
1070
     2
1001
ACAD
1010
0.0
1020
0.0
1030
0.0
1001
ACDBBLOCKREPETAG
1070
     1
1071
      435
1005
11E37C
  0
LINE
  5
11E37D
  8
SLIM
 10
10020.374081314239
 20
-125.7443819593383
 30
0.0
 11
10026.787203867279
 21
-119.3312594063044
 31
0.0
1001
GRADIENTCOLOR1ACI
1070
     5
1001
GRADIENTCOLOR2ACI
1070
     2
1001
ACAD
1010
0.0
1020
0.0
1030
0.0
1001
ACDBBLOCKREPETAG
1070
     1
1071
      436
1005
11E37D
  0
LINE
  5
11E37E
  8
SLIM
 10
10027.15247199887
 20
-127.946247395778
 30
0.0
 11
10033.303003076029
 21
-121.7957163186195
 31
0.0
1001
GRADIENTCOLOR1ACI
1070
     5
1001
GRADIENTCOLOR2ACI
1070
     2
1001
ACAD
1010
0.0
1020
0.0
1030
0.0
1001
ACDBBLOCKREPETAG
1070
     1
1071
      437
1005
11E37E
  0
LINE
  5
11E37F
  8
SLIM
 10
10033.43909865133
 20
-130.63987686439191
 30
0.0
 11
10039.39731198437
 21
-124.6816635313439
 31
0.0
1001
GRADIENTCOLOR1ACI
1070
     5
1001
GRADIENTCOLOR2ACI
1070
     2
1001
ACAD
1010
0.0
1020
0.0
1030
0.0
1001
ACDBBLOCKREPETAG
1070
     1
1071
      438
1005
11E37F
  0
LINE
  5
11E380
  8
SLIM
 10
10039.284224621801
 20
-133.77500701499321
 30
0.0
 11
10045.104770534361
 21
-127.95446110242381
 31
0.0
1001
GRADIENTCOLOR1ACI
1070
     5
1001
GRADIENTCOLOR2ACI
1070
     2
1001
ACAD
1010
0.0
1020
0.0
1030
0.0
1001
ACDBBLOCKREPETAG
1070
     1
1071
      439
1005
11E380
  0
LINE
  5
11E381
  8
SLIM
 10
10044.721280169801
 20
-137.31820758805651
 30
0.0
 11
10050.449155789191
 21
-131.59033196866449
 31
0.0
1001
GRADIENTCOLOR1ACI
1070
     5
1001
GRADIENTCOLOR2ACI
1070
     2
1001
ACAD
1010
0.0
1020
0.0
1030
0.0
1001
ACDBBLOCKREPETAG
1070
     1
1071
      440
1005
11E381
  0
LINE
  5
11E382
  8
SLIM
 10
10053.019743878929
 20
-137.99999999999909
 30
0.0
 11
10055.445994186401
 21
-135.57374969252561
 31
0.0
1001
GRADIENTCOLOR1ACI
1070
     5
1001
GRADIENTCOLOR2ACI
1070
     2
1001
ACAD
1010
0.0
1020
0.0
1030
0.0
1001
ACDBBLOCKREPETAG
1070
     1
1071
      441
1005
11E382
  0
LINE
  5
11E383
  8
CENTER
 10
10000.0
 20
-279.99999999999909
 30
0.0
 11
10000.0
 21
-99.999999999999091
 31
0.0
1001
ACDBBLOCKREPETAG
1070
     1
1071
      160
1005
11E383
  0
CIRCLE
  5
11E384
  8
OBJECT
 10
10000.0
 20
-199.99999999999909
 30
0.0
 40
70.0
1001
ACDBBLOCKREPETAG
1070
     1
1071
      161
1005
11E384
  0
CIRCLE
  5
11E385
  8
OBJECT
 10
10000.0
 20
-199.99999999999909
 30
0.0
 40
77.0
1001
ACDBBLOCKREPETAG
1070
     1
1071
      162
1005
11E385
  0
LINE
  5
11E386
  8
OBJECT
 10
10045.661800227321
 20
-137.99999999999909
 30
0.0
 11
10080.0
 21
-137.99999999999909
 31
0.0
1001
ACDBBLOCKREPETAG
1070
     1
1071
      164
1005
11E386
  0
LINE
  5
11E387
  8
OBJECT
 10
10062.0
 20
-261.99999999999909
 30
0.0
 11
10080.0
 21
-261.99999999999909
 31
0.0
1001
ACDBBLOCKREPETAG
1070
     1
1071
      165
1005
11E387
  0
LINE
  5
11E388
  8
OBJECT
 10
10062.0
 20
-261.99999999999909
 30
0.0
 11
10062.0
 21
-279.99999999999909
 31
0.0
1001
ACDBBLOCKREPETAG
1070
     1
1071
      167
1005
11E388
  0
LINE
  5
11E389
  8
OBJECT
 10
9938.0
 20
-261.99999999999909
 30
0.0
 11
9938.0
 21
-279.99999999999909
 31
0.0
1001
ACDBBLOCKREPETAG
1070
     1
1071
      168
1005
11E389
  0
LINE
  5
11E38A
  8
OBJECT
 10
9938.0
 20
-261.99999999999909
 30
0.0
 11
9920.0
 21
-261.99999999999909
 31
0.0
1001
ACDBBLOCKREPETAG
1070
     1
1071
      170
1005
11E38A
  0
LINE
  5
11E38B
  8
OBJECT
 10
9954.3381997726756
 20
-137.99999999999909
 30
0.0
 11
9920.0
 21
-137.99999999999909
 31
0.0
1001
ACDBBLOCKREPETAG
1070
     1
1071
      171
1005
11E38B
  0
LINE
  5
11E38C
  8
OBJECT
 10
9945.5527778486357
 20
-254.44722215136329
 30
0.0
 11
9938.0
 21
-261.99999999999909
 31
0.0
1001
ACDBBLOCKREPETAG
1070
     1
1071
      180
1005
11E38C
  0
LINE
  5
11E38D
  8
OBJECT
 10
10054.447222151361
 20
-254.44722215136329
 30
0.0
 11
10062.0
 21
-261.99999999999909
 31
0.0
1001
ACDBBLOCKREPETAG
1070
     1
1071
      181
1005
11E38D
  0
ARC
  5
11E38E
  8
OBJECT
 10
10000.0
 20
-199.99999999999909
 30
0.0
 40
85.0
 50
46.837102859844251
 51
133.16289714015571
1001
ACDBBLOCKREPETAG
1070
     1
1071
      183
1005
11E38E
  0
LINE
  5
11E38F
  8
OBJECT
 10
10024.1029330933
 20
-243.80694712371681
 30
0.0
 11
10020.659656999989
 21
-232.55462199999889
 31
0.0
1001
ACDBBLOCKREPETAG
1070
     1
1071
      314
1005
11E38F
  0
LINE
  5
11E390
  8
OBJECT
 10
9986.7927499013749
 20
-218.22553374208019
 30
0.0
 11
10020.659656999989
 21
-232.5546219999969
 31
0.0
1001
ACDBBLOCKREPETAG
1070
     1
1071
      316
1005
11E390
  0
ARC
  5
11E391
  8
OBJECT
 10
9982.8961697618997
 20
-227.4351299990567
 30
0.0
 40
10.0
 50
67.066778292911366
 51
154.01473437031629
1001
ACDBBLOCKREPETAG
1070
     1
1071
      317
1005
11E391
  0
ARC
  5
11E392
  8
OBJECT
 10
9986.1488390381292
 20
-225.55386256729159
 30
0.0
 40
7.0
 50
67.066778292911366
 51
154.0147337749826
1001
ACDBBLOCKREPETAG
1070
     1
1071
      318
1005
11E392
  0
LINE
  5
11E393
  8
OBJECT
 10
9969.4199755553
 20
-243.89888500818171
 30
0.0
 11
9979.8564918232369
 21
-222.48688253356801
 31
0.0
1001
ACDBBLOCKREPETAG
1070
     1
1071
      349
1005
11E393
  0
LINE
  5
11E394
  8
OBJECT
 10
9965.2972169006098
 20
-240.71813901882729
 30
0.0
 11
9973.9071022665084
 21
-223.05373004430751
 31
0.0
1001
ACDBBLOCKREPETAG
1070
     1
1071
      350
1005
11E394
  0
ARC
  5
11E395
  8
OBJECT
 10
9976.5796953073132
 20
-207.1289369828437
 30
0.0
 40
60.031113246032611
 50
314.07020130422319
 51
322.33936106089681
1001
ACDBBLOCKREPETAG
1070
     1
1071
      351
1005
11E395
  0
CIRCLE
  5
11E396
  8
OBJECT
 10
10000.0
 20
-199.99999999999909
 30
0.0
 40
53.5
1001
ACDBBLOCKREPETAG
1070
     1
1071
      352
1005
11E396
  0
POINT
  5
11E397
  8
DOTS
 10
10000.0
 20
-199.99999999999909
 30
0.0
 50
270.0
1001
ACDBBLOCKREPETAG
1070
     1
1071
      364
1005
11E397
  0
ARC
  5
11E398
  8
OBJECT
 10
10000.0
 20
-199.99999999999909
 30
0.0
 40
50.0
 50
298.81994300000417
 51
228.5237695596397
1001
ACDBBLOCKREPETAG
1070
     1
1071
      157
1005
11E398
  0
LINE
  5
11E399
  8
CENTER
 10
10080.0
 20
-199.99999999999909
 30
0.0
 11
9920.0
 21
-199.99999999999909
 31
0.0
1001
ACDBBLOCKREPETAG
1070
     1
1071
      158
1005
11E399
  0
LINE
  5
11E39A
  8
OBJECT
 10
9797.0000000000127
 20
-261.99999999999909
 30
0.0
 11
9790.0000000000127
 21
-261.99999999999909
 31
0.0
1001
ACDBBLOCKREPETAG
1070
     1
1071
       85
1005
11E39A
  0
LINE
  5
11E39B
  8
OBJECT
 10
9790.0000000000127
 20
-261.99999999999909
 30
0.0
 11
9790.0000000000127
 21
-137.99999999999909
 31
0.0
1001
ACDBBLOCKREPETAG
1070
     1
1071
       86
1005
11E39B
  0
LINE
  5
11E39C
  8
OBJECT
 10
9790.0000000000127
 20
-137.99999999999909
 30
0.0
 11
9797.0000000000127
 21
-137.99999999999909
 31
0.0
1001
ACDBBLOCKREPETAG
1070
     1
1071
       87
1005
11E39C
  0
LINE
  5
11E39D
  8
OBJECT
 10
9797.0000000000127
 20
-137.99999999999909
 30
0.0
 11
9797.0000000000127
 21
-261.99999999999909
 31
0.0
1001
ACDBBLOCKREPETAG
1070
     1
1071
       88
1005
11E39D
  0
LINE
  5
11E39E
  8
CENTER
 10
9775.0000000000127
 20
-199.99999999999909
 30
0.0
 11
9920.0
 21
-199.99999999999909
 31
0.0
1001
ACDBBLOCKREPETAG
1070
     1
1071
       89
1005
11E39E
  0
LINE
  5
11E39F
  8
OBJECT
 10
9850.0000250358116
 20
-154.9999999999954
 30
0.0
 11
9914.0
 21
-154.99999999999909
 31
0.0
1001
ACDBBLOCKREPETAG
1070
     1
1071
       90
1005
11E39F
  0
LINE
  5
11E3A0
  8
OBJECT
 10
9850.0000250358116
 20
-244.99999999999909
 30
0.0
 11
9914.0
 21
-244.99999999999909
 31
0.0
1001
ACDBBLOCKREPETAG
1070
     1
1071
       91
1005
11E3A0
  0
LINE
  5
11E3A1
  8
OBJECT
 10
9797.0000000000127
 20
-258.99999999999909
 30
0.0
 11
9833.0000000000164
 21
-258.99999999999909
 31
0.0
1001
ACDBBLOCKREPETAG
1070
     1
1071
       92
1005
11E3A1
  0
LINE
  5
11E3A2
  8
OBJECT
 10
9833.0000000000164
 20
-258.99999999999909
 30
0.0
 11
9833.0000000000164
 21
-140.99999999999909
 31
0.0
1001
ACDBBLOCKREPETAG
1070
     1
1071
       93
1005
11E3A2
  0
LINE
  5
11E3A3
  8
OBJECT
 10
9833.0000000000164
 20
-140.99999999999909
 30
0.0
 11
9797.0000000000127
 21
-140.99999999999909
 31
0.0
1001
ACDBBLOCKREPETAG
1070
     1
1071
       94
1005
11E3A3
  0
LINE
  5
11E3A4
  8
OBJECT
 10
9837.0000000000127
 20
-254.49999999999909
 30
0.0
 11
9850.0000000000127
 21
-254.49999999999909
 31
0.0
1001
ACDBBLOCKREPETAG
1070
     1
1071
       95
1005
11E3A4
  0
LINE
  5
11E3A5
  8
OBJECT
 10
9850.0000000000127
 20
-145.49999999999909
 30
0.0
 11
9837.0000000000127
 21
-145.49999999999909
 31
0.0
1001
ACDBBLOCKREPETAG
1070
     1
1071
       96
1005
11E3A5
  0
LINE
  5
11E3A6
  8
OBJECT
 10
9837.0000000000127
 20
-145.49999999999909
 30
0.0
 11
9837.0000000000127
 21
-254.49999999999909
 31
0.0
1001
ACDBBLOCKREPETAG
1070
     1
1071
       97
1005
11E3A6
  0
LINE
  5
11E3A7
  8
OBJECT
 10
9833.0000000000164
 20
-258.99999999999909
 30
0.0
 11
9837.0000000000127
 21
-254.49999999999909
 31
0.0
1001
ACDBBLOCKREPETAG
1070
     1
1071
       98
1005
11E3A7
  0
LINE
  5
11E3A8
  8
OBJECT
 10
9833.0000000000164
 20
-140.99999999999909
 30
0.0
 11
9837.0000000000127
 21
-145.49999999999909
 31
0.0
1001
ACDBBLOCKREPETAG
1070
     1
1071
       99
1005
11E3A8
  0
LINE
  5
11E3A9
  8
OBJECT
 10
9917.0
 20
-261.99999999999909
 30
0.0
 11
9920.0
 21
-261.99999999999909
 31
0.0
1001
ACDBBLOCKREPETAG
1070
     1
1071
      100
1005
11E3A9
  0
ARC
  5
11E3AA
  8
OBJECT
 10
9917.0
 20
-258.99999999999909
 30
0.0
 40
3.0
 50
180.0
 51
270.0
1001
ACDBBLOCKREPETAG
1070
     1
1071
      101
1005
11E3AA
  0
LINE
  5
11E3AB
  8
OBJECT
 10
9920.0
 20
-137.99999999999909
 30
0.0
 11
9917.0
 21
-137.99999999999909
 31
0.0
1001
ACDBBLOCKREPETAG
1070
     1
1071
      102
1005
11E3AB
  0
ARC
  5
11E3AC
  8
OBJECT
 10
9917.0
 20
-140.99999999999909
 30
0.0
 40
3.0
 50
90.0
 51
180.0
1001
ACDBBLOCKREPETAG
1070
     1
1071
      103
1005
11E3AC
  0
LINE
  5
11E3AD
  8
OBJECT
 10
9914.0
 20
-140.99999999999909
 30
0.0
 11
9914.0
 21
-189.6772096796403
 31
0.0
1001
ACDBBLOCKREPETAG
1070
     1
1071
      104
1005
11E3AD
  0
LINE
  5
11E3AE
  8
OBJECT
 10
9914.0
 20
-210.3227903203578
 30
0.0
 11
9914.0
 21
-258.99999999999909
 31
0.0
1001
ACDBBLOCKREPETAG
1070
     1
1071
      105
1005
11E3AE
  0
LINE
  5
11E3AF
  8
HIDDEN
 10
9842.0000000000127
 20
-244.49999999999909
 30
0.0
 11
9842.0000000000127
 21
-155.49999999999909
 31
0.0
1001
ACDBBLOCKREPETAG
1070
     1
1071
      106
1005
11E3AF
  0
LINE
  5
11E3B0
  8
OBJECT
 10
9850.0000250358116
 20
-145.50004907618759
 30
0.0
 11
9850.0000250358116
 21
-254.50004907618771
 31
0.0
1001
ACDBBLOCKREPETAG
1070
     1
1071
      108
1005
11E3B0
  0
ARC
  5
11E3B1
  8
OBJECT
 10
9870.1999999999753
 20
-199.99999999999909
 30
0.0
 40
45.000000000000547
 50
270.0
 51
90.0
1001
ACDBBLOCKREPETAG
1070
     1
1071
      109
1005
11E3B1
  0
LINE
  5
11E3B2
  8
CENTER
 10
10000.0
 20
-300.99999999999898
 30
0.0
 11
10000.0
 21
-279.99999999999909
 31
0.0
1001
ACDBBLOCKREPETAG
1070
     1
1071
        0
1005
11E3B2
  0
LINE
  5
11E3B3
  8
OBJECT
 10
10062.0
 20
-283.0
 30
0.0
 11
10062.0
 21
-279.99999999999909
 31
0.0
1001
ACDBBLOCKREPETAG
1070
     1
1071
        1
1005
11E3B3
  0
ARC
  5
11E3B4
  8
OBJECT
 10
10059.0
 20
-283.0
 30
0.0
 40
3.0
 50
270.0
 51
0.0
1001
ACDBBLOCKREPETAG
1070
     1
1071
        2
1005
11E3B4
  0
LINE
  5
11E3B5
  8
OBJECT
 10
9938.0
 20
-279.99999999999909
 30
0.0
 11
9938.0
 21
-282.99999999999818
 31
0.0
1001
ACDBBLOCKREPETAG
1070
     1
1071
        3
1005
11E3B5
  0
ARC
  5
11E3B6
  8
OBJECT
 10
9941.0
 20
-282.99999999999818
 30
0.0
 40
3.0
 50
180.0
 51
270.0
1001
ACDBBLOCKREPETAG
1070
     1
1071
        4
1005
11E3B6
  0
LINE
  5
11E3B7
  8
OBJECT
 10
9941.0
 20
-285.99999999999818
 30
0.0
 11
10059.0
 21
-286.0
 31
0.0
1001
ACDBBLOCKREPETAG
1070
     1
1071
        5
1005
11E3B7
  0
LINE
  5
11E3B8
  8
OBJECT
 10
10202.99999999998
 20
-137.99999999999909
 30
0.0
 11
10209.99999999998
 21
-137.99999999999909
 31
0.0
1001
ACDBBLOCKREPETAG
1070
     1
1071
       85
1005
11E3B8
  0
LINE
  5
11E3B9
  8
OBJECT
 10
10209.99999999998
 20
-137.99999999999909
 30
0.0
 11
10209.99999999998
 21
-261.99999999999909
 31
0.0
1001
ACDBBLOCKREPETAG
1070
     1
1071
       86
1005
11E3B9
  0
LINE
  5
11E3BA
  8
OBJECT
 10
10209.99999999998
 20
-261.99999999999909
 30
0.0
 11
10202.99999999998
 21
-261.99999999999909
 31
0.0
1001
ACDBBLOCKREPETAG
1070
     1
1071
       87
1005
11E3BA
  0
LINE
  5
11E3BB
  8
OBJECT
 10
10202.99999999998
 20
-261.99999999999909
 30
0.0
 11
10202.99999999998
 21
-137.99999999999909
 31
0.0
1001
ACDBBLOCKREPETAG
1070
     1
1071
       88
1005
11E3BB
  0
LINE
  5
11E3BC
  8
CENTER
 10
10224.99999999998
 20
-199.99999999999909
 30
0.0
 11
10080.0
 21
-199.99999999999909
 31
0.0
1001
ACDBBLOCKREPETAG
1070
     1
1071
       89
1005
11E3BC
  0
LINE
  5
11E3BD
  8
OBJECT
 10
10149.99997496419
 20
-245.0000000000027
 30
0.0
 11
10086.0
 21
-244.99999999999909
 31
0.0
1001
ACDBBLOCKREPETAG
1070
     1
1071
       90
1005
11E3BD
  0
LINE
  5
11E3BE
  8
OBJECT
 10
10149.99997496419
 20
-154.99999999999909
 30
0.0
 11
10086.0
 21
-154.99999999999909
 31
0.0
1001
ACDBBLOCKREPETAG
1070
     1
1071
       91
1005
11E3BE
  0
LINE
  5
11E3BF
  8
OBJECT
 10
10202.99999999998
 20
-140.99999999999909
 30
0.0
 11
10166.99999999998
 21
-140.99999999999909
 31
0.0
1001
ACDBBLOCKREPETAG
1070
     1
1071
       92
1005
11E3BF
  0
LINE
  5
11E3C0
  8
OBJECT
 10
10166.99999999998
 20
-140.99999999999909
 30
0.0
 11
10166.99999999998
 21
-258.99999999999909
 31
0.0
1001
ACDBBLOCKREPETAG
1070
     1
1071
       93
1005
11E3C0
  0
LINE
  5
11E3C1
  8
OBJECT
 10
10166.99999999998
 20
-258.99999999999909
 30
0.0
 11
10202.99999999998
 21
-258.99999999999909
 31
0.0
1001
ACDBBLOCKREPETAG
1070
     1
1071
       94
1005
11E3C1
  0
LINE
  5
11E3C2
  8
OBJECT
 10
10162.99999999998
 20
-145.49999999999909
 30
0.0
 11
10149.99999999998
 21
-145.49999999999909
 31
0.0
1001
ACDBBLOCKREPETAG
1070
     1
1071
       95
1005
11E3C2
  0
LINE
  5
11E3C3
  8
OBJECT
 10
10149.99999999998
 20
-254.49999999999909
 30
0.0
 11
10162.99999999998
 21
-254.49999999999909
 31
0.0
1001
ACDBBLOCKREPETAG
1070
     1
1071
       96
1005
11E3C3
  0
LINE
  5
11E3C4
  8
OBJECT
 10
10162.99999999998
 20
-254.49999999999909
 30
0.0
 11
10162.99999999998
 21
-145.49999999999909
 31
0.0
1001
ACDBBLOCKREPETAG
1070
     1
1071
       97
1005
11E3C4
  0
LINE
  5
11E3C5
  8
OBJECT
 10
10166.99999999998
 20
-140.99999999999909
 30
0.0
 11
10162.99999999998
 21
-145.49999999999909
 31
0.0
1001
ACDBBLOCKREPETAG
1070
     1
1071
       98
1005
11E3C5
  0
LINE
  5
11E3C6
  8
OBJECT
 10
10166.99999999998
 20
-258.99999999999909
 30
0.0
 11
10162.99999999998
 21
-254.49999999999909
 31
0.0
1001
ACDBBLOCKREPETAG
1070
     1
1071
       99
1005
11E3C6
  0
LINE
  5
11E3C7
  8
OBJECT
 10
10083.0
 20
-137.99999999999909
 30
0.0
 11
10080.0
 21
-137.99999999999909
 31
0.0
1001
ACDBBLOCKREPETAG
1070
     1
1071
      100
1005
11E3C7
  0
ARC
  5
11E3C8
  8
OBJECT
 10
10083.0
 20
-140.99999999999909
 30
0.0
 40
3.0
 50
0.0
 51
90.0
1001
ACDBBLOCKREPETAG
1070
     1
1071
      101
1005
11E3C8
  0
LINE
  5
11E3C9
  8
OBJECT
 10
10080.0
 20
-261.99999999999909
 30
0.0
 11
10083.0
 21
-261.99999999999909
 31
0.0
1001
ACDBBLOCKREPETAG
1070
     1
1071
      102
1005
11E3C9
  0
ARC
  5
11E3CA
  8
OBJECT
 10
10083.0
 20
-258.99999999999909
 30
0.0
 40
3.0
 50
270.0
 51
0.0
1001
ACDBBLOCKREPETAG
1070
     1
1071
      103
1005
11E3CA
  0
LINE
  5
11E3CB
  8
OBJECT
 10
10086.0
 20
-258.99999999999909
 30
0.0
 11
10086.0
 21
-210.3227903203578
 31
0.0
1001
ACDBBLOCKREPETAG
1070
     1
1071
      104
1005
11E3CB
  0
LINE
  5
11E3CC
  8
OBJECT
 10
10086.0
 20
-189.6772096796403
 30
0.0
 11
10086.0
 21
-140.99999999999909
 31
0.0
1001
ACDBBLOCKREPETAG
1070
     1
1071
      105
1005
11E3CC
  0
LINE
  5
11E3CD
  8
HIDDEN
 10
10157.99999999998
 20
-155.49999999999909
 30
0.0
 11
10157.99999999998
 21
-244.49999999999909
 31
0.0
1001
ACDBBLOCKREPETAG
1070
     1
1071
      106
1005
11E3CD
  0
LINE
  5
11E3CE
  8
OBJECT
 10
10149.99997496419
 20
-254.4999509238105
 30
0.0
 11
10149.99997496419
 21
-145.4999509238105
 31
0.0
1001
ACDBBLOCKREPETAG
1070
     1
1071
      108
1005
11E3CE
  0
ARC
  5
11E3CF
  8
OBJECT
 10
10129.800000000019
 20
-199.99999999999909
 30
0.0
 40
45.000000000000547
 50
90.0
 51
270.0
1001
ACDBBLOCKREPETAG
1070
     1
1071
      109
1005
11E3CF
  0
LINE
  5
11E3D0
  8
OBJECT
 10
9797.0000000000127
 20
-583.0
 30
0.0
 11
9790.0000000000127
 21
-583.0
 31
0.0
1001
ACDBBLOCKREPETAG
1070
     1
1071
       83
1005
11E3D0
  0
LINE
  5
11E3D1
  8
OBJECT
 10
9790.0000000000127
 20
-583.0
 30
0.0
 11
9790.0000000000127
 21
-707.0
 31
0.0
1001
ACDBBLOCKREPETAG
1070
     1
1071
       84
1005
11E3D1
  0
LINE
  5
11E3D2
  8
OBJECT
 10
9914.0000000000127
 20
-653.3502637757274
 30
0.0
 11
9914.0000000000127
 21
-755.00000000000102
 31
0.0
1001
ACDBBLOCKREPETAG
1070
     1
1071
       85
1005
11E3D2
  0
LINE
  5
11E3D3
  8
OBJECT
 10
9790.0000000000127
 20
-707.0
 30
0.0
 11
9797.0000000000127
 21
-707.0
 31
0.0
1001
ACDBBLOCKREPETAG
1070
     1
1071
       86
1005
11E3D3
  0
LINE
  5
11E3D4
  8
OBJECT
 10
9797.0000000000127
 20
-707.0
 30
0.0
 11
9797.0000000000127
 21
-583.0
 31
0.0
1001
ACDBBLOCKREPETAG
1070
     1
1071
       87
1005
11E3D4
  0
LINE
  5
11E3D5
  8
CENTER
 10
9865.0000000000164
 20
-645.0000000000008
 30
0.0
 11
9775.0000000000127
 21
-645.0
 31
0.0
1001
ACDBBLOCKREPETAG
1070
     1
1071
       88
1005
11E3D5
  0
LINE
  5
11E3D6
  8
OBJECT
 10
9920.0000000000182
 20
-758.0
 30
0.0
 11
9917.0000000000146
 21
-758.0000000000008
 31
0.0
1001
ACDBBLOCKREPETAG
1070
     1
1071
       89
1005
11E3D6
  0
ARC
  5
11E3D7
  8
OBJECT
 10
9917.0000000000146
 20
-755.00000000000102
 30
0.0
 40
3.0
 50
180.0
 51
270.0
1001
ACDBBLOCKREPETAG
1070
     1
1071
       90
1005
11E3D7
  0
LINE
  5
11E3D8
  8
OBJECT
 10
9797.0000000000127
 20
-586.0
 30
0.0
 11
9833.0000000000164
 21
-586.0000000000008
 31
0.0
1001
ACDBBLOCKREPETAG
1070
     1
1071
       91
1005
11E3D8
  0
LINE
  5
11E3D9
  8
OBJECT
 10
9833.0000000000164
 20
-586.0000000000008
 30
0.0
 11
9833.0000000000164
 21
-704.0000000000008
 31
0.0
1001
ACDBBLOCKREPETAG
1070
     1
1071
       92
1005
11E3D9
  0
LINE
  5
11E3DA
  8
OBJECT
 10
9837.0000000000127
 20
-590.5000000000008
 30
0.0
 11
9837.0000000000127
 21
-699.5000000000008
 31
0.0
1001
ACDBBLOCKREPETAG
1070
     1
1071
       93
1005
11E3DA
  0
LINE
  5
11E3DB
  8
OBJECT
 10
9837.0000000000127
 20
-590.5000000000008
 30
0.0
 11
9850.0000000000127
 21
-590.5000000000008
 31
0.0
1001
ACDBBLOCKREPETAG
1070
     1
1071
       94
1005
11E3DB
  0
LINE
  5
11E3DC
  8
OBJECT
 10
9833.0000000000164
 20
-704.0000000000008
 30
0.0
 11
9797.0000000000127
 21
-704.0
 31
0.0
1001
ACDBBLOCKREPETAG
1070
     1
1071
       95
1005
11E3DC
  0
LINE
  5
11E3DD
  8
OBJECT
 10
9833.0000000000164
 20
-586.0000000000008
 30
0.0
 11
9837.0000000000127
 21
-590.5000000000008
 31
0.0
1001
ACDBBLOCKREPETAG
1070
     1
1071
       96
1005
11E3DD
  0
LINE
  5
11E3DE
  8
OBJECT
 10
9850.0000000000127
 20
-590.5000000000008
 30
0.0
 11
9850.0000000000127
 21
-675.74491827928784
 31
0.0
1001
ACDBBLOCKREPETAG
1070
     1
1071
       97
1005
11E3DE
  0
ARC
  5
11E3DF
  8
OBJECT
 10
9847.2000000000153
 20
-685.0000000000008
 30
0.0
 40
85.0
 50
36.869897645906562
 51
88.112268108168848
1001
ACDBBLOCKREPETAG
1070
     1
1071
       98
1005
11E3DF
  0
LINE
  5
11E3E0
  8
HIDDEN
 10
9842.0000000000127
 20
-600.50000000000068
 30
0.0
 11
9842.0000000000127
 21
-689.50000000000091
 31
0.0
1001
ACDBBLOCKREPETAG
1070
     1
1071
      100
1005
11E3E0
  0
LINE
  5
11E3E1
  8
OBJECT
 10
9914.0000000000127
 20
-751.07945073181781
 30
0.0
 11
9843.3686800789692
 21
-699.5000000000008
 31
0.0
1001
ACDBBLOCKREPETAG
1070
     1
1071
      101
1005
11E3E1
  0
LINE
  5
11E3E2
  8
OBJECT
 10
9920.0000000000182
 20
-634.0
 30
0.0
 11
9915.2000000000153
 21
-634.0
 31
0.0
1001
ACDBBLOCKREPETAG
1070
     1
1071
      102
1005
11E3E2
  0
LINE
  5
11E3E3
  8
OBJECT
 10
9914.0000000000127
 20
-653.35026377573013
 30
0.0
 11
9915.2000000000153
 21
-634.0
 31
0.0
1001
ACDBBLOCKREPETAG
1070
     1
1071
      103
1005
11E3E3
  0
LINE
  5
11E3E4
  8
OBJECT
 10
9837.0000000000127
 20
-699.5000000000008
 30
0.0
 11
9843.3686800789692
 21
-699.5000000000008
 31
0.0
1001
ACDBBLOCKREPETAG
1070
     1
1071
      104
1005
11E3E4
  0
LINE
  5
11E3E5
  8
OBJECT
 10
9833.0000000000164
 20
-704.0000000000008
 30
0.0
 11
9837.0000000000127
 21
-699.5000000000008
 31
0.0
1001
ACDBBLOCKREPETAG
1070
     1
1071
      105
1005
11E3E5
  0
CIRCLE
  5
11E3E6
  8
OBJECT
 10
10000.0
 20
-696.0
 30
0.0
 40
62.0
1001
ACDBBLOCKREPETAG
1070
     1
1071
        0
1005
11E3E6
  0
LINE
  5
11E3E7
  8
OBJECT
 10
10202.99999999998
 20
-583.0000000000008
 30
0.0
 11
10209.99999999998
 21
-583.0000000000008
 31
0.0
1001
ACDBBLOCKREPETAG
1070
     1
1071
       83
1005
11E3E7
  0
LINE
  5
11E3E8
  8
OBJECT
 10
10209.99999999998
 20
-583.0000000000008
 30
0.0
 11
10209.99999999998
 21
-707.00000000000091
 31
0.0
1001
ACDBBLOCKREPETAG
1070
     1
1071
       84
1005
11E3E8
  0
LINE
  5
11E3E9
  8
OBJECT
 10
10085.99999999998
 20
-653.3502637757274
 30
0.0
 11
10085.99999999998
 21
-755.00000000000102
 31
0.0
1001
ACDBBLOCKREPETAG
1070
     1
1071
       85
1005
11E3E9
  0
LINE
  5
11E3EA
  8
OBJECT
 10
10209.99999999998
 20
-707.00000000000091
 30
0.0
 11
10202.99999999998
 21
-707.00000000000091
 31
0.0
1001
ACDBBLOCKREPETAG
1070
     1
1071
       86
1005
11E3EA
  0
LINE
  5
11E3EB
  8
OBJECT
 10
10202.99999999998
 20
-707.00000000000091
 30
0.0
 11
10202.99999999998
 21
-583.0000000000008
 31
0.0
1001
ACDBBLOCKREPETAG
1070
     1
1071
       87
1005
11E3EB
  0
LINE
  5
11E3EC
  8
CENTER
 10
10134.99999999998
 20
-645.0000000000008
 30
0.0
 11
10224.99999999998
 21
-645.0000000000008
 31
0.0
1001
ACDBBLOCKREPETAG
1070
     1
1071
       88
1005
11E3EC
  0
LINE
  5
11E3ED
  8
OBJECT
 10
10079.99999999998
 20
-758.0
 30
0.0
 11
10082.99999999998
 21
-758.0000000000008
 31
0.0
1001
ACDBBLOCKREPETAG
1070
     1
1071
       89
1005
11E3ED
  0
ARC
  5
11E3EE
  8
OBJECT
 10
10082.99999999998
 20
-755.00000000000102
 30
0.0
 40
3.0
 50
270.0
 51
0.0
1001
ACDBBLOCKREPETAG
1070
     1
1071
       90
1005
11E3EE
  0
LINE
  5
11E3EF
  8
OBJECT
 10
10202.99999999998
 20
-586.0000000000008
 30
0.0
 11
10166.99999999998
 21
-586.0000000000008
 31
0.0
1001
ACDBBLOCKREPETAG
1070
     1
1071
       91
1005
11E3EF
  0
LINE
  5
11E3F0
  8
OBJECT
 10
10166.99999999998
 20
-586.0000000000008
 30
0.0
 11
10166.99999999998
 21
-704.0000000000008
 31
0.0
1001
ACDBBLOCKREPETAG
1070
     1
1071
       92
1005
11E3F0
  0
LINE
  5
11E3F1
  8
OBJECT
 10
10162.99999999998
 20
-590.5000000000008
 30
0.0
 11
10162.99999999998
 21
-699.5000000000008
 31
0.0
1001
ACDBBLOCKREPETAG
1070
     1
1071
       93
1005
11E3F1
  0
LINE
  5
11E3F2
  8
OBJECT
 10
10162.99999999998
 20
-590.5000000000008
 30
0.0
 11
10149.99999999998
 21
-590.5000000000008
 31
0.0
1001
ACDBBLOCKREPETAG
1070
     1
1071
       94
1005
11E3F2
  0
LINE
  5
11E3F3
  8
OBJECT
 10
10166.99999999998
 20
-704.0000000000008
 30
0.0
 11
10202.99999999998
 21
-704.0000000000008
 31
0.0
1001
ACDBBLOCKREPETAG
1070
     1
1071
       95
1005
11E3F3
  0
LINE
  5
11E3F4
  8
OBJECT
 10
10166.99999999998
 20
-586.0000000000008
 30
0.0
 11
10162.99999999998
 21
-590.5000000000008
 31
0.0
1001
ACDBBLOCKREPETAG
1070
     1
1071
       96
1005
11E3F4
  0
LINE
  5
11E3F5
  8
OBJECT
 10
10149.99999999998
 20
-590.5000000000008
 30
0.0
 11
10149.99999999998
 21
-675.74491827928784
 31
0.0
1001
ACDBBLOCKREPETAG
1070
     1
1071
       97
1005
11E3F5
  0
ARC
  5
11E3F6
  8
OBJECT
 10
10152.799999999979
 20
-685.0000000000008
 30
0.0
 40
85.0
 50
91.887731891831123
 51
143.1301023540934
1001
ACDBBLOCKREPETAG
1070
     1
1071
       98
1005
11E3F6
  0
LINE
  5
11E3F7
  8
HIDDEN
 10
10157.99999999998
 20
-600.50000000000068
 30
0.0
 11
10157.99999999998
 21
-689.50000000000091
 31
0.0
1001
ACDBBLOCKREPETAG
1070
     1
1071
      100
1005
11E3F7
  0
LINE
  5
11E3F8
  8
OBJECT
 10
10085.99999999998
 20
-751.07945073181781
 30
0.0
 11
10156.631319921031
 21
-699.5000000000008
 31
0.0
1001
ACDBBLOCKREPETAG
1070
     1
1071
      101
1005
11E3F8
  0
LINE
  5
11E3F9
  8
OBJECT
 10
10079.99999999998
 20
-634.0
 30
0.0
 11
10084.799999999979
 21
-634.0
 31
0.0
1001
ACDBBLOCKREPETAG
1070
     1
1071
      102
1005
11E3F9
  0
LINE
  5
11E3FA
  8
OBJECT
 10
10085.99999999998
 20
-653.35026377573013
 30
0.0
 11
10084.799999999979
 21
-634.0
 31
0.0
1001
ACDBBLOCKREPETAG
1070
     1
1071
      103
1005
11E3FA
  0
LINE
  5
11E3FB
  8
OBJECT
 10
10162.99999999998
 20
-699.5000000000008
 30
0.0
 11
10156.631319921031
 21
-699.5000000000008
 31
0.0
1001
ACDBBLOCKREPETAG
1070
     1
1071
      104
1005
11E3FB
  0
LINE
  5
11E3FC
  8
OBJECT
 10
10166.99999999998
 20
-704.0000000000008
 30
0.0
 11
10162.99999999998
 21
-699.5000000000008
 31
0.0
1001
ACDBBLOCKREPETAG
1070
     1
1071
      105
1005
11E3FC
  0
LINE
  5
11E3FD
  8
OBJECT
 10
7923.0
 20
-571.0
 30
0.0
 11
7923.0
 21
-550.0
 31
0.0
1001
ACDBBLOCKREPETAG
1070
     1
1071
       38
1005
11E3FD
  0
LINE
  5
11E3FE
  8
OBJECT
 10
7923.0
 20
-550.0
 30
0.0
 11
8077.0
 21
-550.0
 31
0.0
1001
ACDBBLOCKREPETAG
1070
     1
1071
       39
1005
11E3FE
  0
LINE
  5
11E3FF
  8
HIDDEN
 10
7943.0
 20
-620.0
 30
0.0
 11
8057.0
 21
-620.0
 31
0.0
1001
ACDBBLOCKREPETAG
1070
     1
1071
       40
1005
11E3FF
  0
LINE
  5
11E400
  8
OBJECT
 10
8077.0
 20
-550.0
 30
0.0
 11
8077.0
 21
-571.0
 31
0.0
1001
ACDBBLOCKREPETAG
1070
     1
1071
       41
1005
11E400
  0
LINE
  5
11E401
  8
OBJECT
 10
8077.0
 20
-571.0
 30
0.0
 11
7923.0
 21
-571.0
 31
0.0
1001
ACDBBLOCKREPETAG
1070
     1
1071
       42
1005
11E401
  0
LINE
  5
11E402
  8
CENTER
 10
8000.0
 20
-535.0
 30
0.0
 11
8000.0
 21
-890.0
 31
0.0
1001
ACDBBLOCKREPETAG
1070
     1
1071
       43
1005
11E402
  0
LINE
  5
11E403
  8
OBJECT
 10
7928.0
 20
-571.0
 30
0.0
 11
7928.0
 21
-634.0
 31
0.0
1001
ACDBBLOCKREPETAG
1070
     1
1071
       44
1005
11E403
  0
LINE
  5
11E404
  8
OBJECT
 10
8072.0
 20
-634.0
 30
0.0
 11
8072.0
 21
-571.0
 31
0.0
1001
ACDBBLOCKREPETAG
1070
     1
1071
       45
1005
11E404
  0
LINE
  5
11E405
  8
OBJECT
 10
7920.0
 20
-878.0
 30
0.0
 11
8080.0
 21
-878.0
 31
0.0
1001
ACDBBLOCKREPETAG
1070
     1
1071
       46
1005
11E405
  0
LINE
  5
11E406
  8
OBJECT
 10
8080.0
 20
-634.0
 30
0.0
 11
7920.0
 21
-634.0
 31
0.0
1001
ACDBBLOCKREPETAG
1070
     1
1071
       47
1005
11E406
  0
LINE
  5
11E407
  8
OBJECT
 10
7920.0
 20
-878.0
 30
0.0
 11
7920.0
 21
-890.0
 31
0.0
1001
ACDBBLOCKREPETAG
1070
     1
1071
       48
1005
11E407
  0
LINE
  5
11E408
  8
OBJECT
 10
7920.0
 20
-890.0
 30
0.0
 11
8080.0
 21
-890.0
 31
0.0
1001
ACDBBLOCKREPETAG
1070
     1
1071
       49
1005
11E408
  0
LINE
  5
11E409
  8
OBJECT
 10
8080.0
 20
-890.0
 30
0.0
 11
8080.0
 21
-878.0
 31
0.0
1001
ACDBBLOCKREPETAG
1070
     1
1071
       50
1005
11E409
  0
LINE
  5
11E40A
  8
OBJECT
 10
8074.9999999998618
 20
-757.99999999985096
 30
0.0
 11
8075.0
 21
-878.0
 31
0.0
1001
ACDBBLOCKREPETAG
1070
     1
1071
       54
1005
11E40A
  0
LINE
  5
11E40B
  8
OBJECT
 10
8074.9999908029858
 20
-757.99998602702181
 30
0.0
 11
8080.0
 21
-757.99998602702181
 31
0.0
1001
ACDBBLOCKREPETAG
1070
     1
1071
       55
1005
11E40B
  0
LINE
  5
11E40C
  8
OBJECT
 10
7925.0000000001382
 20
-757.99999999985096
 30
0.0
 11
7925.0
 21
-878.0
 31
0.0
1001
ACDBBLOCKREPETAG
1070
     1
1071
       56
1005
11E40C
  0
LINE
  5
11E40D
  8
OBJECT
 10
7925.0000091970132
 20
-757.99998602702181
 30
0.0
 11
7920.0
 21
-757.99998602702181
 31
0.0
1001
ACDBBLOCKREPETAG
1070
     1
1071
       57
1005
11E40D
  0
ARC
  5
11E40E
  8
OBJECT
 10
8200.6872746716726
 20
-749.40809941010752
 30
0.0
 40
170.6350503965856
 50
137.44134459184301
 51
149.91949581337221
1001
ACDBBLOCKREPETAG
1070
     1
1071
       58
1005
11E40E
  0
ARC
  5
11E40F
  8
OBJECT
 10
8200.6872746716726
 20
-642.59190058989225
 30
0.0
 40
170.6350503965856
 50
210.08050418662771
 51
222.55865540815699
1001
ACDBBLOCKREPETAG
1070
     1
1071
       59
1005
11E40F
  0
ARC
  5
11E410
  8
OBJECT
 10
7799.3127253283265
 20
-749.40809941010752
 30
0.0
 40
170.6350503965856
 50
30.080504186787142
 51
42.558655408382641
1001
ACDBBLOCKREPETAG
1070
     1
1071
       60
1005
11E410
  0
ARC
  5
11E411
  8
OBJECT
 10
7799.3127253283265
 20
-642.59190058989225
 30
0.0
 40
170.6350503965856
 50
317.44134459161722
 51
329.9194958132129
1001
ACDBBLOCKREPETAG
1070
     1
1071
       61
1005
11E411
  0
POINT
  5
11E412
  8
DOTS
 10
8000.0
 20
-755.0
 30
0.0
1001
ACDBBLOCKREPETAG
1070
     1
1071
      185
1005
11E412
  0
LINE
  5
11E413
  8
SLIM
 10
7945.2566704260989
 20
-137.99999999999909
 30
0.0
 11
7955.9548403695781
 21
-127.30183005652231
 31
0.0
1001
GRADIENTCOLOR1ACI
1070
     5
1001
GRADIENTCOLOR2ACI
1070
     2
1001
ACAD
1010
0.0
1020
0.0
1030
0.0
1001
ACDBBLOCKREPETAG
1070
     1
1071
      428
1005
11E413
  0
LINE
  5
11E414
  8
SLIM
 10
7954.2369265471707
 20
-137.99999999999909
 30
0.0
 11
7972.7507744763334
 21
-119.4861520708364
 31
0.0
1001
GRADIENTCOLOR1ACI
1070
     5
1001
GRADIENTCOLOR2ACI
1070
     2
1001
ACAD
1010
0.0
1020
0.0
1030
0.0
1001
ACDBBLOCKREPETAG
1070
     1
1071
      429
1005
11E414
  0
LINE
  5
11E415
  8
SLIM
 10
7973.5212243124561
 20
-127.6959583557812
 30
0.0
 11
7984.8575146748608
 21
-116.359667993377
 31
0.0
1001
GRADIENTCOLOR1ACI
1070
     5
1001
GRADIENTCOLOR2ACI
1070
     2
1001
ACAD
1010
0.0
1020
0.0
1030
0.0
1001
ACDBBLOCKREPETAG
1070
     1
1071
      430
1005
11E415
  0
LINE
  5
11E416
  8
SLIM
 10
7985.8944171461262
 20
-124.30302164318159
 30
0.0
 11
7995.0533812002559
 21
-115.1440575890517
 31
0.0
1001
GRADIENTCOLOR1ACI
1070
     5
1001
GRADIENTCOLOR2ACI
1070
     2
1001
ACAD
1010
0.0
1020
0.0
1030
0.0
1001
ACDBBLOCKREPETAG
1070
     1
1071
      431
1005
11E416
  0
LINE
  5
11E417
  8
SLIM
 10
7996.077732749206
 20
-123.0999621611699
 30
0.0
 11
8000.0
 21
-119.1776949103767
 31
0.0
1001
GRADIENTCOLOR1ACI
1070
     5
1001
GRADIENTCOLOR2ACI
1070
     2
1001
ACAD
1010
0.0
1020
0.0
1030
0.0
1001
ACDBBLOCKREPETAG
1070
     1
1071
      432
1005
11E417
  0
LINE
  5
11E418
  8
SLIM
 10
8000.0
 20
-119.1776949103767
 30
0.0
 11
8004.0797313529074
 21
-115.0979635574724
 31
0.0
1001
GRADIENTCOLOR1ACI
1070
     5
1001
GRADIENTCOLOR2ACI
1070
     2
1001
ACAD
1010
0.0
1020
0.0
1030
0.0
1001
ACDBBLOCKREPETAG
1070
     1
1071
      433
1005
11E418
  0
LINE
  5
11E419
  8
SLIM
 10
8004.9957202542737
 20
-123.1622307771683
 30
0.0
 11
8012.2679784105749
 21
-115.88997262087101
 31
0.0
1001
GRADIENTCOLOR1ACI
1070
     5
1001
GRADIENTCOLOR2ACI
1070
     2
1001
ACAD
1010
0.0
1020
0.0
1030
0.0
1001
ACDBBLOCKREPETAG
1070
     1
1071
      434
1005
11E419
  0
LINE
  5
11E41A
  8
SLIM
 10
8013.028059366964
 20
-124.1101477855505
 30
0.0
 11
8019.7999414573624
 21
-117.3382656951526
 31
0.0
1001
GRADIENTCOLOR1ACI
1070
     5
1001
GRADIENTCOLOR2ACI
1070
     2
1001
ACAD
1010
0.0
1020
0.0
1030
0.0
1001
ACDBBLOCKREPETAG
1070
     1
1071
      435
1005
11E41A
  0
LINE
  5
11E41B
  8
SLIM
 10
8020.3740813142458
 20
-125.7443819593383
 30
0.0
 11
8026.7872038672767
 21
-119.3312594063044
 31
0.0
1001
GRADIENTCOLOR1ACI
1070
     5
1001
GRADIENTCOLOR2ACI
1070
     2
1001
ACAD
1010
0.0
1020
0.0
1030
0.0
1001
ACDBBLOCKREPETAG
1070
     1
1071
      436
1005
11E41B
  0
LINE
  5
11E41C
  8
SLIM
 10
8027.1524719988738
 20
-127.946247395778
 30
0.0
 11
8033.3030030760328
 21
-121.7957163186195
 31
0.0
1001
GRADIENTCOLOR1ACI
1070
     5
1001
GRADIENTCOLOR2ACI
1070
     2
1001
ACAD
1010
0.0
1020
0.0
1030
0.0
1001
ACDBBLOCKREPETAG
1070
     1
1071
      437
1005
11E41C
  0
LINE
  5
11E41D
  8
SLIM
 10
8033.4390986513308
 20
-130.63987686439191
 30
0.0
 11
8039.3973119843777
 21
-124.6816635313439
 31
0.0
1001
GRADIENTCOLOR1ACI
1070
     5
1001
GRADIENTCOLOR2ACI
1070
     2
1001
ACAD
1010
0.0
1020
0.0
1030
0.0
1001
ACDBBLOCKREPETAG
1070
     1
1071
      438
1005
11E41D
  0
LINE
  5
11E41E
  8
SLIM
 10
8039.2842246217979
 20
-133.77500701499321
 30
0.0
 11
8045.1047705343699
 21
-127.95446110242381
 31
0.0
1001
GRADIENTCOLOR1ACI
1070
     5
1001
GRADIENTCOLOR2ACI
1070
     2
1001
ACAD
1010
0.0
1020
0.0
1030
0.0
1001
ACDBBLOCKREPETAG
1070
     1
1071
      439
1005
11E41E
  0
LINE
  5
11E41F
  8
SLIM
 10
8044.7212801698061
 20
-137.31820758805651
 30
0.0
 11
8050.449155789197
 21
-131.59033196866449
 31
0.0
1001
GRADIENTCOLOR1ACI
1070
     5
1001
GRADIENTCOLOR2ACI
1070
     2
1001
ACAD
1010
0.0
1020
0.0
1030
0.0
1001
ACDBBLOCKREPETAG
1070
     1
1071
      440
1005
11E41F
  0
LINE
  5
11E420
  8
SLIM
 10
8053.0197438789319
 20
-137.99999999999909
 30
0.0
 11
8055.4459941864034
 21
-135.57374969252561
 31
0.0
1001
GRADIENTCOLOR1ACI
1070
     5
1001
GRADIENTCOLOR2ACI
1070
     2
1001
ACAD
1010
0.0
1020
0.0
1030
0.0
1001
ACDBBLOCKREPETAG
1070
     1
1071
      441
1005
11E420
  0
LINE
  5
11E421
  8
CENTER
 10
8000.0
 20
-279.99999999999909
 30
0.0
 11
8000.0
 21
-99.999999999999091
 31
0.0
1001
ACDBBLOCKREPETAG
1070
     1
1071
      160
1005
11E421
  0
CIRCLE
  5
11E422
  8
OBJECT
 10
8000.0
 20
-199.99999999999909
 30
0.0
 40
70.0
1001
ACDBBLOCKREPETAG
1070
     1
1071
      161
1005
11E422
  0
CIRCLE
  5
11E423
  8
OBJECT
 10
8000.0
 20
-199.99999999999909
 30
0.0
 40
77.0
1001
ACDBBLOCKREPETAG
1070
     1
1071
      162
1005
11E423
  0
LINE
  5
11E424
  8
OBJECT
 10
8045.6618002273271
 20
-137.99999999999909
 30
0.0
 11
8080.0
 21
-137.99999999999909
 31
0.0
1001
ACDBBLOCKREPETAG
1070
     1
1071
      164
1005
11E424
  0
LINE
  5
11E425
  8
OBJECT
 10
8062.0
 20
-261.99999999999909
 30
0.0
 11
8080.0
 21
-261.99999999999909
 31
0.0
1001
ACDBBLOCKREPETAG
1070
     1
1071
      165
1005
11E425
  0
LINE
  5
11E426
  8
OBJECT
 10
8062.0
 20
-261.99999999999909
 30
0.0
 11
8062.0
 21
-279.99999999999909
 31
0.0
1001
ACDBBLOCKREPETAG
1070
     1
1071
      167
1005
11E426
  0
LINE
  5
11E427
  8
OBJECT
 10
7938.0
 20
-261.99999999999909
 30
0.0
 11
7938.0
 21
-279.99999999999909
 31
0.0
1001
ACDBBLOCKREPETAG
1070
     1
1071
      168
1005
11E427
  0
LINE
  5
11E428
  8
OBJECT
 10
7938.0
 20
-261.99999999999909
 30
0.0
 11
7920.0
 21
-261.99999999999909
 31
0.0
1001
ACDBBLOCKREPETAG
1070
     1
1071
      170
1005
11E428
  0
LINE
  5
11E429
  8
OBJECT
 10
7954.3381997726747
 20
-137.99999999999909
 30
0.0
 11
7920.0
 21
-137.99999999999909
 31
0.0
1001
ACDBBLOCKREPETAG
1070
     1
1071
      171
1005
11E429
  0
LINE
  5
11E42A
  8
OBJECT
 10
7945.5527778486357
 20
-254.44722215136329
 30
0.0
 11
7938.0
 21
-261.99999999999909
 31
0.0
1001
ACDBBLOCKREPETAG
1070
     1
1071
      180
1005
11E42A
  0
LINE
  5
11E42B
  8
OBJECT
 10
8054.4472221513652
 20
-254.44722215136329
 30
0.0
 11
8062.0
 21
-261.99999999999909
 31
0.0
1001
ACDBBLOCKREPETAG
1070
     1
1071
      181
1005
11E42B
  0
ARC
  5
11E42C
  8
OBJECT
 10
8000.0
 20
-199.99999999999909
 30
0.0
 40
85.0
 50
46.837102859806208
 51
133.16289714019371
1001
ACDBBLOCKREPETAG
1070
     1
1071
      183
1005
11E42C
  0
LINE
  5
11E42D
  8
OBJECT
 10
8024.1029330933006
 20
-243.80694712371681
 30
0.0
 11
8020.6596569999974
 21
-232.55462199999889
 31
0.0
1001
ACDBBLOCKREPETAG
1070
     1
1071
      314
1005
11E42D
  0
LINE
  5
11E42E
  8
OBJECT
 10
7986.7927499013749
 20
-218.22553374208019
 30
0.0
 11
8020.6596569999974
 21
-232.5546219999969
 31
0.0
1001
ACDBBLOCKREPETAG
1070
     1
1071
      316
1005
11E42E
  0
ARC
  5
11E42F
  8
OBJECT
 10
7982.8961697618997
 20
-227.4351299990567
 30
0.0
 40
10.0
 50
67.066778292911366
 51
154.0147343702935
1001
ACDBBLOCKREPETAG
1070
     1
1071
      317
1005
11E42F
  0
ARC
  5
11E430
  8
OBJECT
 10
7986.1488390381273
 20
-225.55386256729159
 30
0.0
 40
7.0
 50
67.066778292911366
 51
154.0147337749826
1001
ACDBBLOCKREPETAG
1070
     1
1071
      318
1005
11E430
  0
LINE
  5
11E431
  8
OBJECT
 10
7969.4199755553009
 20
-243.89888500818171
 30
0.0
 11
7979.8564918232369
 21
-222.48688253356801
 31
0.0
1001
ACDBBLOCKREPETAG
1070
     1
1071
      349
1005
11E431
  0
LINE
  5
11E432
  8
OBJECT
 10
7965.2972169006098
 20
-240.71813901882729
 30
0.0
 11
7973.9071022665084
 21
-223.05373004430751
 31
0.0
1001
ACDBBLOCKREPETAG
1070
     1
1071
      350
1005
11E432
  0
ARC
  5
11E433
  8
OBJECT
 10
7976.5796953073141
 20
-207.1289369828437
 30
0.0
 40
60.031113246032611
 50
314.07020130418567
 51
322.33936106089681
1001
ACDBBLOCKREPETAG
1070
     1
1071
      351
1005
11E433
  0
CIRCLE
  5
11E434
  8
OBJECT
 10
8000.0
 20
-199.99999999999909
 30
0.0
 40
53.5
1001
ACDBBLOCKREPETAG
1070
     1
1071
      352
1005
11E434
  0
POINT
  5
11E435
  8
DOTS
 10
8000.0
 20
-199.99999999999909
 30
0.0
 50
270.0
1001
ACDBBLOCKREPETAG
1070
     1
1071
      364
1005
11E435
  0
ARC
  5
11E436
  8
OBJECT
 10
8000.0
 20
-199.99999999999909
 30
0.0
 40
50.0
 50
298.81994300000417
 51
228.5237695596397
1001
ACDBBLOCKREPETAG
1070
     1
1071
      157
1005
11E436
  0
LINE
  5
11E437
  8
CENTER
 10
8080.0
 20
-199.99999999999909
 30
0.0
 11
7920.0
 21
-199.99999999999909
 31
0.0
1001
ACDBBLOCKREPETAG
1070
     1
1071
      158
1005
11E437
  0
LINE
  5
11E438
  8
OBJECT
 10
7797.0000000000136
 20
-261.99999999999909
 30
0.0
 11
7790.0000000000127
 21
-261.99999999999909
 31
0.0
1001
ACDBBLOCKREPETAG
1070
     1
1071
       85
1005
11E438
  0
LINE
  5
11E439
  8
OBJECT
 10
7790.0000000000127
 20
-261.99999999999909
 30
0.0
 11
7790.0000000000127
 21
-137.99999999999909
 31
0.0
1001
ACDBBLOCKREPETAG
1070
     1
1071
       86
1005
11E439
  0
LINE
  5
11E43A
  8
OBJECT
 10
7790.0000000000127
 20
-137.99999999999909
 30
0.0
 11
7797.0000000000136
 21
-137.99999999999909
 31
0.0
1001
ACDBBLOCKREPETAG
1070
     1
1071
       87
1005
11E43A
  0
LINE
  5
11E43B
  8
OBJECT
 10
7797.0000000000136
 20
-137.99999999999909
 30
0.0
 11
7797.0000000000136
 21
-261.99999999999909
 31
0.0
1001
ACDBBLOCKREPETAG
1070
     1
1071
       88
1005
11E43B
  0
LINE
  5
11E43C
  8
CENTER
 10
7775.0000000000136
 20
-199.99999999999909
 30
0.0
 11
7920.0
 21
-199.99999999999909
 31
0.0
1001
ACDBBLOCKREPETAG
1070
     1
1071
       89
1005
11E43C
  0
LINE
  5
11E43D
  8
OBJECT
 10
7850.0000250358144
 20
-154.9999999999954
 30
0.0
 11
7914.0
 21
-154.99999999999909
 31
0.0
1001
ACDBBLOCKREPETAG
1070
     1
1071
       90
1005
11E43D
  0
LINE
  5
11E43E
  8
OBJECT
 10
7850.0000250358144
 20
-244.99999999999909
 30
0.0
 11
7914.0
 21
-244.99999999999909
 31
0.0
1001
ACDBBLOCKREPETAG
1070
     1
1071
       91
1005
11E43E
  0
LINE
  5
11E43F
  8
OBJECT
 10
7797.0000000000136
 20
-258.99999999999909
 30
0.0
 11
7833.0000000000136
 21
-258.99999999999909
 31
0.0
1001
ACDBBLOCKREPETAG
1070
     1
1071
       92
1005
11E43F
  0
LINE
  5
11E440
  8
OBJECT
 10
7833.0000000000136
 20
-258.99999999999909
 30
0.0
 11
7833.0000000000136
 21
-140.99999999999909
 31
0.0
1001
ACDBBLOCKREPETAG
1070
     1
1071
       93
1005
11E440
  0
LINE
  5
11E441
  8
OBJECT
 10
7833.0000000000136
 20
-140.99999999999909
 30
0.0
 11
7797.0000000000136
 21
-140.99999999999909
 31
0.0
1001
ACDBBLOCKREPETAG
1070
     1
1071
       94
1005
11E441
  0
LINE
  5
11E442
  8
OBJECT
 10
7837.0000000000127
 20
-254.49999999999909
 30
0.0
 11
7850.0000000000136
 21
-254.49999999999909
 31
0.0
1001
ACDBBLOCKREPETAG
1070
     1
1071
       95
1005
11E442
  0
LINE
  5
11E443
  8
OBJECT
 10
7850.0000000000136
 20
-145.49999999999909
 30
0.0
 11
7837.0000000000127
 21
-145.49999999999909
 31
0.0
1001
ACDBBLOCKREPETAG
1070
     1
1071
       96
1005
11E443
  0
LINE
  5
11E444
  8
OBJECT
 10
7837.0000000000127
 20
-145.49999999999909
 30
0.0
 11
7837.0000000000127
 21
-254.49999999999909
 31
0.0
1001
ACDBBLOCKREPETAG
1070
     1
1071
       97
1005
11E444
  0
LINE
  5
11E445
  8
OBJECT
 10
7833.0000000000136
 20
-258.99999999999909
 30
0.0
 11
7837.0000000000127
 21
-254.49999999999909
 31
0.0
1001
ACDBBLOCKREPETAG
1070
     1
1071
       98
1005
11E445
  0
LINE
  5
11E446
  8
OBJECT
 10
7833.0000000000136
 20
-140.99999999999909
 30
0.0
 11
7837.0000000000127
 21
-145.49999999999909
 31
0.0
1001
ACDBBLOCKREPETAG
1070
     1
1071
       99
1005
11E446
  0
LINE
  5
11E447
  8
OBJECT
 10
7917.0
 20
-261.99999999999909
 30
0.0
 11
7920.0
 21
-261.99999999999909
 31
0.0
1001
ACDBBLOCKREPETAG
1070
     1
1071
      100
1005
11E447
  0
ARC
  5
11E448
  8
OBJECT
 10
7917.0
 20
-258.99999999999909
 30
0.0
 40
3.0
 50
180.0
 51
270.0
1001
ACDBBLOCKREPETAG
1070
     1
1071
      101
1005
11E448
  0
LINE
  5
11E449
  8
OBJECT
 10
7920.0
 20
-137.99999999999909
 30
0.0
 11
7917.0
 21
-137.99999999999909
 31
0.0
1001
ACDBBLOCKREPETAG
1070
     1
1071
      102
1005
11E449
  0
ARC
  5
11E44A
  8
OBJECT
 10
7917.0
 20
-140.99999999999909
 30
0.0
 40
3.0
 50
90.0
 51
180.0
1001
ACDBBLOCKREPETAG
1070
     1
1071
      103
1005
11E44A
  0
LINE
  5
11E44B
  8
OBJECT
 10
7914.0
 20
-140.99999999999909
 30
0.0
 11
7914.0
 21
-189.6772096796403
 31
0.0
1001
ACDBBLOCKREPETAG
1070
     1
1071
      104
1005
11E44B
  0
LINE
  5
11E44C
  8
OBJECT
 10
7914.0
 20
-210.3227903203578
 30
0.0
 11
7914.0
 21
-258.99999999999909
 31
0.0
1001
ACDBBLOCKREPETAG
1070
     1
1071
      105
1005
11E44C
  0
LINE
  5
11E44D
  8
HIDDEN
 10
7842.0000000000136
 20
-244.49999999999909
 30
0.0
 11
7842.0000000000136
 21
-155.49999999999909
 31
0.0
1001
ACDBBLOCKREPETAG
1070
     1
1071
      106
1005
11E44D
  0
LINE
  5
11E44E
  8
OBJECT
 10
7850.0000250358144
 20
-145.50004907618759
 30
0.0
 11
7850.0000250358144
 21
-254.50004907618771
 31
0.0
1001
ACDBBLOCKREPETAG
1070
     1
1071
      108
1005
11E44E
  0
ARC
  5
11E44F
  8
OBJECT
 10
7870.1999999999744
 20
-199.99999999999909
 30
0.0
 40
45.000000000000547
 50
270.0
 51
90.0
1001
ACDBBLOCKREPETAG
1070
     1
1071
      109
1005
11E44F
  0
LINE
  5
11E450
  8
CENTER
 10
8000.0
 20
-300.99999999999898
 30
0.0
 11
8000.0
 21
-279.99999999999909
 31
0.0
1001
ACDBBLOCKREPETAG
1070
     1
1071
        0
1005
11E450
  0
LINE
  5
11E451
  8
OBJECT
 10
8062.0
 20
-283.0
 30
0.0
 11
8062.0
 21
-279.99999999999909
 31
0.0
1001
ACDBBLOCKREPETAG
1070
     1
1071
        1
1005
11E451
  0
ARC
  5
11E452
  8
OBJECT
 10
8059.0
 20
-283.0
 30
0.0
 40
3.0
 50
270.0
 51
0.0
1001
ACDBBLOCKREPETAG
1070
     1
1071
        2
1005
11E452
  0
LINE
  5
11E453
  8
OBJECT
 10
7938.0
 20
-279.99999999999909
 30
0.0
 11
7938.0
 21
-282.99999999999818
 31
0.0
1001
ACDBBLOCKREPETAG
1070
     1
1071
        3
1005
11E453
  0
ARC
  5
11E454
  8
OBJECT
 10
7941.0
 20
-282.99999999999818
 30
0.0
 40
3.0
 50
180.0
 51
270.0
1001
ACDBBLOCKREPETAG
1070
     1
1071
        4
1005
11E454
  0
LINE
  5
11E455
  8
OBJECT
 10
7941.0
 20
-285.99999999999818
 30
0.0
 11
8059.0
 21
-286.0
 31
0.0
1001
ACDBBLOCKREPETAG
1070
     1
1071
        5
1005
11E455
  0
LINE
  5
11E456
  8
OBJECT
 10
8202.9999999999854
 20
-137.99999999999909
 30
0.0
 11
8209.9999999999836
 21
-137.99999999999909
 31
0.0
1001
ACDBBLOCKREPETAG
1070
     1
1071
       85
1005
11E456
  0
LINE
  5
11E457
  8
OBJECT
 10
8209.9999999999836
 20
-137.99999999999909
 30
0.0
 11
8209.9999999999836
 21
-261.99999999999909
 31
0.0
1001
ACDBBLOCKREPETAG
1070
     1
1071
       86
1005
11E457
  0
LINE
  5
11E458
  8
OBJECT
 10
8209.9999999999836
 20
-261.99999999999909
 30
0.0
 11
8202.9999999999854
 21
-261.99999999999909
 31
0.0
1001
ACDBBLOCKREPETAG
1070
     1
1071
       87
1005
11E458
  0
LINE
  5
11E459
  8
OBJECT
 10
8202.9999999999854
 20
-261.99999999999909
 30
0.0
 11
8202.9999999999854
 21
-137.99999999999909
 31
0.0
1001
ACDBBLOCKREPETAG
1070
     1
1071
       88
1005
11E459
  0
LINE
  5
11E45A
  8
CENTER
 10
8224.9999999999873
 20
-199.99999999999909
 30
0.0
 11
8080.0
 21
-199.99999999999909
 31
0.0
1001
ACDBBLOCKREPETAG
1070
     1
1071
       89
1005
11E45A
  0
LINE
  5
11E45B
  8
OBJECT
 10
8149.9999749641856
 20
-245.0000000000027
 30
0.0
 11
8086.0
 21
-244.99999999999909
 31
0.0
1001
ACDBBLOCKREPETAG
1070
     1
1071
       90
1005
11E45B
  0
LINE
  5
11E45C
  8
OBJECT
 10
8149.9999749641856
 20
-154.99999999999909
 30
0.0
 11
8086.0
 21
-154.99999999999909
 31
0.0
1001
ACDBBLOCKREPETAG
1070
     1
1071
       91
1005
11E45C
  0
LINE
  5
11E45D
  8
OBJECT
 10
8202.9999999999854
 20
-140.99999999999909
 30
0.0
 11
8166.9999999999854
 21
-140.99999999999909
 31
0.0
1001
ACDBBLOCKREPETAG
1070
     1
1071
       92
1005
11E45D
  0
LINE
  5
11E45E
  8
OBJECT
 10
8166.9999999999854
 20
-140.99999999999909
 30
0.0
 11
8166.9999999999854
 21
-258.99999999999909
 31
0.0
1001
ACDBBLOCKREPETAG
1070
     1
1071
       93
1005
11E45E
  0
LINE
  5
11E45F
  8
OBJECT
 10
8166.9999999999854
 20
-258.99999999999909
 30
0.0
 11
8202.9999999999854
 21
-258.99999999999909
 31
0.0
1001
ACDBBLOCKREPETAG
1070
     1
1071
       94
1005
11E45F
  0
LINE
  5
11E460
  8
OBJECT
 10
8162.9999999999873
 20
-145.49999999999909
 30
0.0
 11
8149.9999999999873
 21
-145.49999999999909
 31
0.0
1001
ACDBBLOCKREPETAG
1070
     1
1071
       95
1005
11E460
  0
LINE
  5
11E461
  8
OBJECT
 10
8149.9999999999873
 20
-254.49999999999909
 30
0.0
 11
8162.9999999999873
 21
-254.49999999999909
 31
0.0
1001
ACDBBLOCKREPETAG
1070
     1
1071
       96
1005
11E461
  0
LINE
  5
11E462
  8
OBJECT
 10
8162.9999999999873
 20
-254.49999999999909
 30
0.0
 11
8162.9999999999873
 21
-145.49999999999909
 31
0.0
1001
ACDBBLOCKREPETAG
1070
     1
1071
       97
1005
11E462
  0
LINE
  5
11E463
  8
OBJECT
 10
8166.9999999999854
 20
-140.99999999999909
 30
0.0
 11
8162.9999999999873
 21
-145.49999999999909
 31
0.0
1001
ACDBBLOCKREPETAG
1070
     1
1071
       98
1005
11E463
  0
LINE
  5
11E464
  8
OBJECT
 10
8166.9999999999854
 20
-258.99999999999909
 30
0.0
 11
8162.9999999999873
 21
-254.49999999999909
 31
0.0
1001
ACDBBLOCKREPETAG
1070
     1
1071
       99
1005
11E464
  0
LINE
  5
11E465
  8
OBJECT
 10
8083.0
 20
-137.99999999999909
 30
0.0
 11
8080.0
 21
-137.99999999999909
 31
0.0
1001
ACDBBLOCKREPETAG
1070
     1
1071
      100
1005
11E465
  0
ARC
  5
11E466
  8
OBJECT
 10
8083.0
 20
-140.99999999999909
 30
0.0
 40
3.0
 50
0.0
 51
90.0
1001
ACDBBLOCKREPETAG
1070
     1
1071
      101
1005
11E466
  0
LINE
  5
11E467
  8
OBJECT
 10
8080.0
 20
-261.99999999999909
 30
0.0
 11
8083.0
 21
-261.99999999999909
 31
0.0
1001
ACDBBLOCKREPETAG
1070
     1
1071
      102
1005
11E467
  0
ARC
  5
11E468
  8
OBJECT
 10
8083.0
 20
-258.99999999999909
 30
0.0
 40
3.0
 50
270.0
 51
0.0
1001
ACDBBLOCKREPETAG
1070
     1
1071
      103
1005
11E468
  0
LINE
  5
11E469
  8
OBJECT
 10
8086.0
 20
-258.99999999999909
 30
0.0
 11
8086.0
 21
-210.3227903203578
 31
0.0
1001
ACDBBLOCKREPETAG
1070
     1
1071
      104
1005
11E469
  0
LINE
  5
11E46A
  8
OBJECT
 10
8086.0
 20
-189.6772096796403
 30
0.0
 11
8086.0
 21
-140.99999999999909
 31
0.0
1001
ACDBBLOCKREPETAG
1070
     1
1071
      105
1005
11E46A
  0
LINE
  5
11E46B
  8
HIDDEN
 10
8157.9999999999873
 20
-155.49999999999909
 30
0.0
 11
8157.9999999999873
 21
-244.49999999999909
 31
0.0
1001
ACDBBLOCKREPETAG
1070
     1
1071
      106
1005
11E46B
  0
LINE
  5
11E46C
  8
OBJECT
 10
8149.9999749641856
 20
-254.4999509238105
 30
0.0
 11
8149.9999749641856
 21
-145.4999509238105
 31
0.0
1001
ACDBBLOCKREPETAG
1070
     1
1071
      108
1005
11E46C
  0
ARC
  5
11E46D
  8
OBJECT
 10
8129.800000000022
 20
-199.99999999999909
 30
0.0
 40
45.000000000000547
 50
90.0
 51
270.0
1001
ACDBBLOCKREPETAG
1070
     1
1071
      109
1005
11E46D
  0
LINE
  5
11E46E
  8
OBJECT
 10
7797.0000000000136
 20
-583.0
 30
0.0
 11
7790.0000000000127
 21
-583.0
 31
0.0
1001
ACDBBLOCKREPETAG
1070
     1
1071
       83
1005
11E46E
  0
LINE
  5
11E46F
  8
OBJECT
 10
7790.0000000000127
 20
-583.0
 30
0.0
 11
7790.0000000000127
 21
-707.0
 31
0.0
1001
ACDBBLOCKREPETAG
1070
     1
1071
       84
1005
11E46F
  0
LINE
  5
11E470
  8
OBJECT
 10
7914.0000000000136
 20
-653.3502637757274
 30
0.0
 11
7914.0000000000136
 21
-755.00000000000102
 31
0.0
1001
ACDBBLOCKREPETAG
1070
     1
1071
       85
1005
11E470
  0
LINE
  5
11E471
  8
OBJECT
 10
7790.0000000000127
 20
-707.0
 30
0.0
 11
7797.0000000000136
 21
-707.0
 31
0.0
1001
ACDBBLOCKREPETAG
1070
     1
1071
       86
1005
11E471
  0
LINE
  5
11E472
  8
OBJECT
 10
7797.0000000000136
 20
-707.0
 30
0.0
 11
7797.0000000000136
 21
-583.0
 31
0.0
1001
ACDBBLOCKREPETAG
1070
     1
1071
       87
1005
11E472
  0
LINE
  5
11E473
  8
CENTER
 10
7865.0000000000127
 20
-645.0000000000008
 30
0.0
 11
7775.0000000000136
 21
-645.0
 31
0.0
1001
ACDBBLOCKREPETAG
1070
     1
1071
       88
1005
11E473
  0
LINE
  5
11E474
  8
OBJECT
 10
7920.0000000000191
 20
-758.0
 30
0.0
 11
7917.0000000000136
 21
-758.0000000000008
 31
0.0
1001
ACDBBLOCKREPETAG
1070
     1
1071
       89
1005
11E474
  0
ARC
  5
11E475
  8
OBJECT
 10
7917.0000000000136
 20
-755.00000000000102
 30
0.0
 40
3.0
 50
180.0
 51
270.0
1001
ACDBBLOCKREPETAG
1070
     1
1071
       90
1005
11E475
  0
LINE
  5
11E476
  8
OBJECT
 10
7797.0000000000136
 20
-586.0
 30
0.0
 11
7833.0000000000136
 21
-586.0000000000008
 31
0.0
1001
ACDBBLOCKREPETAG
1070
     1
1071
       91
1005
11E476
  0
LINE
  5
11E477
  8
OBJECT
 10
7833.0000000000136
 20
-586.0000000000008
 30
0.0
 11
7833.0000000000136
 21
-704.0000000000008
 31
0.0
1001
ACDBBLOCKREPETAG
1070
     1
1071
       92
1005
11E477
  0
LINE
  5
11E478
  8
OBJECT
 10
7837.0000000000127
 20
-590.5000000000008
 30
0.0
 11
7837.0000000000127
 21
-699.5000000000008
 31
0.0
1001
ACDBBLOCKREPETAG
1070
     1
1071
       93
1005
11E478
  0
LINE
  5
11E479
  8
OBJECT
 10
7837.0000000000127
 20
-590.5000000000008
 30
0.0
 11
7850.0000000000136
 21
-590.5000000000008
 31
0.0
1001
ACDBBLOCKREPETAG
1070
     1
1071
       94
1005
11E479
  0
LINE
  5
11E47A
  8
OBJECT
 10
7833.0000000000136
 20
-704.0000000000008
 30
0.0
 11
7797.0000000000136
 21
-704.0
 31
0.0
1001
ACDBBLOCKREPETAG
1070
     1
1071
       95
1005
11E47A
  0
LINE
  5
11E47B
  8
OBJECT
 10
7833.0000000000136
 20
-586.0000000000008
 30
0.0
 11
7837.0000000000127
 21
-590.5000000000008
 31
0.0
1001
ACDBBLOCKREPETAG
1070
     1
1071
       96
1005
11E47B
  0
LINE
  5
11E47C
  8
OBJECT
 10
7850.0000000000136
 20
-590.5000000000008
 30
0.0
 11
7850.0000000000136
 21
-675.74491827928784
 31
0.0
1001
ACDBBLOCKREPETAG
1070
     1
1071
       97
1005
11E47C
  0
ARC
  5
11E47D
  8
OBJECT
 10
7847.2000000000144
 20
-685.0000000000008
 30
0.0
 40
85.0
 50
36.869897645906562
 51
88.112268108168848
1001
ACDBBLOCKREPETAG
1070
     1
1071
       98
1005
11E47D
  0
LINE
  5
11E47E
  8
HIDDEN
 10
7842.0000000000136
 20
-600.50000000000068
 30
0.0
 11
7842.0000000000136
 21
-689.50000000000091
 31
0.0
1001
ACDBBLOCKREPETAG
1070
     1
1071
      100
1005
11E47E
  0
LINE
  5
11E47F
  8
OBJECT
 10
7914.0000000000136
 20
-751.07945073181781
 30
0.0
 11
7843.3686800789701
 21
-699.5000000000008
 31
0.0
1001
ACDBBLOCKREPETAG
1070
     1
1071
      101
1005
11E47F
  0
LINE
  5
11E480
  8
OBJECT
 10
7920.0000000000191
 20
-634.0
 30
0.0
 11
7915.2000000000162
 21
-634.0
 31
0.0
1001
ACDBBLOCKREPETAG
1070
     1
1071
      102
1005
11E480
  0
LINE
  5
11E481
  8
OBJECT
 10
7914.0000000000136
 20
-653.35026377573013
 30
0.0
 11
7915.2000000000162
 21
-634.0
 31
0.0
1001
ACDBBLOCKREPETAG
1070
     1
1071
      103
1005
11E481
  0
LINE
  5
11E482
  8
OBJECT
 10
7837.0000000000127
 20
-699.5000000000008
 30
0.0
 11
7843.3686800789701
 21
-699.5000000000008
 31
0.0
1001
ACDBBLOCKREPETAG
1070
     1
1071
      104
1005
11E482
  0
LINE
  5
11E483
  8
OBJECT
 10
7833.0000000000136
 20
-704.0000000000008
 30
0.0
 11
7837.0000000000127
 21
-699.5000000000008
 31
0.0
1001
ACDBBLOCKREPETAG
1070
     1
1071
      105
1005
11E483
  0
CIRCLE
  5
11E484
  8
OBJECT
 10
8000.0
 20
-696.0
 30
0.0
 40
62.0
1001
ACDBBLOCKREPETAG
1070
     1
1071
        0
1005
11E484
  0
LINE
  5
11E485
  8
OBJECT
 10
8202.9999999999854
 20
-583.0000000000008
 30
0.0
 11
8209.9999999999836
 21
-583.0000000000008
 31
0.0
1001
ACDBBLOCKREPETAG
1070
     1
1071
       83
1005
11E485
  0
LINE
  5
11E486
  8
OBJECT
 10
8209.9999999999836
 20
-583.0000000000008
 30
0.0
 11
8209.9999999999836
 21
-707.00000000000091
 31
0.0
1001
ACDBBLOCKREPETAG
1070
     1
1071
       84
1005
11E486
  0
LINE
  5
11E487
  8
OBJECT
 10
8085.9999999999873
 20
-653.3502637757274
 30
0.0
 11
8085.9999999999873
 21
-755.00000000000102
 31
0.0
1001
ACDBBLOCKREPETAG
1070
     1
1071
       85
1005
11E487
  0
LINE
  5
11E488
  8
OBJECT
 10
8209.9999999999836
 20
-707.00000000000091
 30
0.0
 11
8202.9999999999854
 21
-707.00000000000091
 31
0.0
1001
ACDBBLOCKREPETAG
1070
     1
1071
       86
1005
11E488
  0
LINE
  5
11E489
  8
OBJECT
 10
8202.9999999999854
 20
-707.00000000000091
 30
0.0
 11
8202.9999999999854
 21
-583.0000000000008
 31
0.0
1001
ACDBBLOCKREPETAG
1070
     1
1071
       87
1005
11E489
  0
LINE
  5
11E48A
  8
CENTER
 10
8134.9999999999873
 20
-645.0000000000008
 30
0.0
 11
8224.9999999999873
 21
-645.0000000000008
 31
0.0
1001
ACDBBLOCKREPETAG
1070
     1
1071
       88
1005
11E48A
  0
LINE
  5
11E48B
  8
OBJECT
 10
8079.9999999999818
 20
-758.0
 30
0.0
 11
8082.9999999999873
 21
-758.0000000000008
 31
0.0
1001
ACDBBLOCKREPETAG
1070
     1
1071
       89
1005
11E48B
  0
ARC
  5
11E48C
  8
OBJECT
 10
8082.9999999999873
 20
-755.00000000000102
 30
0.0
 40
3.0
 50
270.0
 51
0.0
1001
ACDBBLOCKREPETAG
1070
     1
1071
       90
1005
11E48C
  0
LINE
  5
11E48D
  8
OBJECT
 10
8202.9999999999854
 20
-586.0000000000008
 30
0.0
 11
8166.9999999999854
 21
-586.0000000000008
 31
0.0
1001
ACDBBLOCKREPETAG
1070
     1
1071
       91
1005
11E48D
  0
LINE
  5
11E48E
  8
OBJECT
 10
8166.9999999999854
 20
-586.0000000000008
 30
0.0
 11
8166.9999999999854
 21
-704.0000000000008
 31
0.0
1001
ACDBBLOCKREPETAG
1070
     1
1071
       92
1005
11E48E
  0
LINE
  5
11E48F
  8
OBJECT
 10
8162.9999999999873
 20
-590.5000000000008
 30
0.0
 11
8162.9999999999873
 21
-699.5000000000008
 31
0.0
1001
ACDBBLOCKREPETAG
1070
     1
1071
       93
1005
11E48F
  0
LINE
  5
11E490
  8
OBJECT
 10
8162.9999999999873
 20
-590.5000000000008
 30
0.0
 11
8149.9999999999873
 21
-590.5000000000008
 31
0.0
1001
ACDBBLOCKREPETAG
1070
     1
1071
       94
1005
11E490
  0
LINE
  5
11E491
  8
OBJECT
 10
8166.9999999999854
 20
-704.0000000000008
 30
0.0
 11
8202.9999999999854
 21
-704.0000000000008
 31
0.0
1001
ACDBBLOCKREPETAG
1070
     1
1071
       95
1005
11E491
  0
LINE
  5
11E492
  8
OBJECT
 10
8166.9999999999854
 20
-586.0000000000008
 30
0.0
 11
8162.9999999999873
 21
-590.5000000000008
 31
0.0
1001
ACDBBLOCKREPETAG
1070
     1
1071
       96
1005
11E492
  0
LINE
  5
11E493
  8
OBJECT
 10
8149.9999999999873
 20
-590.5000000000008
 30
0.0
 11
8149.9999999999873
 21
-675.74491827928784
 31
0.0
1001
ACDBBLOCKREPETAG
1070
     1
1071
       97
1005
11E493
  0
ARC
  5
11E494
  8
OBJECT
 10
8152.7999999999829
 20
-685.0000000000008
 30
0.0
 40
85.0
 50
91.887731891831123
 51
143.1301023540934
1001
ACDBBLOCKREPETAG
1070
     1
1071
       98
1005
11E494
  0
LINE
  5
11E495
  8
HIDDEN
 10
8157.9999999999873
 20
-600.50000000000068
 30
0.0
 11
8157.9999999999873
 21
-689.50000000000091
 31
0.0
1001
ACDBBLOCKREPETAG
1070
     1
1071
      100
1005
11E495
  0
LINE
  5
11E496
  8
OBJECT
 10
8085.9999999999873
 20
-751.07945073181781
 30
0.0
 11
8156.6313199210299
 21
-699.5000000000008
 31
0.0
1001
ACDBBLOCKREPETAG
1070
     1
1071
      101
1005
11E496
  0
LINE
  5
11E497
  8
OBJECT
 10
8079.9999999999818
 20
-634.0
 30
0.0
 11
8084.7999999999847
 21
-634.0
 31
0.0
1001
ACDBBLOCKREPETAG
1070
     1
1071
      102
1005
11E497
  0
LINE
  5
11E498
  8
OBJECT
 10
8085.9999999999873
 20
-653.35026377573013
 30
0.0
 11
8084.7999999999847
 21
-634.0
 31
0.0
1001
ACDBBLOCKREPETAG
1070
     1
1071
      103
1005
11E498
  0
LINE
  5
11E499
  8
OBJECT
 10
8162.9999999999873
 20
-699.5000000000008
 30
0.0
 11
8156.6313199210299
 21
-699.5000000000008
 31
0.0
1001
ACDBBLOCKREPETAG
1070
     1
1071
      104
1005
11E499
  0
LINE
  5
11E49A
  8
OBJECT
 10
8166.9999999999854
 20
-704.0000000000008
 30
0.0
 11
8162.9999999999873
 21
-699.5000000000008
 31
0.0
1001
ACDBBLOCKREPETAG
1070
     1
1071
      105
1005
11E49A
  0
LINE
  5
11E49B
  8
OBJECT
 10
5923.0
 20
-571.0
 30
0.0
 11
5923.0
 21
-550.0
 31
0.0
1001
ACDBBLOCKREPETAG
1070
     1
1071
       38
1005
11E49B
  0
LINE
  5
11E49C
  8
OBJECT
 10
5923.0
 20
-550.0
 30
0.0
 11
6077.0
 21
-550.0
 31
0.0
1001
ACDBBLOCKREPETAG
1070
     1
1071
       39
1005
11E49C
  0
LINE
  5
11E49D
  8
HIDDEN
 10
5943.0
 20
-620.0
 30
0.0
 11
6057.0
 21
-620.0
 31
0.0
1001
ACDBBLOCKREPETAG
1070
     1
1071
       40
1005
11E49D
  0
LINE
  5
11E49E
  8
OBJECT
 10
6077.0
 20
-550.0
 30
0.0
 11
6077.0
 21
-571.0
 31
0.0
1001
ACDBBLOCKREPETAG
1070
     1
1071
       41
1005
11E49E
  0
LINE
  5
11E49F
  8
OBJECT
 10
6077.0
 20
-571.0
 30
0.0
 11
5923.0
 21
-571.0
 31
0.0
1001
ACDBBLOCKREPETAG
1070
     1
1071
       42
1005
11E49F
  0
LINE
  5
11E4A0
  8
CENTER
 10
6000.0
 20
-535.0
 30
0.0
 11
6000.0
 21
-890.0
 31
0.0
1001
ACDBBLOCKREPETAG
1070
     1
1071
       43
1005
11E4A0
  0
LINE
  5
11E4A1
  8
OBJECT
 10
5928.0
 20
-571.0
 30
0.0
 11
5928.0
 21
-634.0
 31
0.0
1001
ACDBBLOCKREPETAG
1070
     1
1071
       44
1005
11E4A1
  0
LINE
  5
11E4A2
  8
OBJECT
 10
6072.0
 20
-634.0
 30
0.0
 11
6072.0
 21
-571.0
 31
0.0
1001
ACDBBLOCKREPETAG
1070
     1
1071
       45
1005
11E4A2
  0
LINE
  5
11E4A3
  8
OBJECT
 10
5920.0
 20
-878.0
 30
0.0
 11
6080.0
 21
-878.0
 31
0.0
1001
ACDBBLOCKREPETAG
1070
     1
1071
       46
1005
11E4A3
  0
LINE
  5
11E4A4
  8
OBJECT
 10
6080.0
 20
-634.0
 30
0.0
 11
5920.0
 21
-634.0
 31
0.0
1001
ACDBBLOCKREPETAG
1070
     1
1071
       47
1005
11E4A4
  0
LINE
  5
11E4A5
  8
OBJECT
 10
5920.0
 20
-878.0
 30
0.0
 11
5920.0
 21
-890.0
 31
0.0
1001
ACDBBLOCKREPETAG
1070
     1
1071
       48
1005
11E4A5
  0
LINE
  5
11E4A6
  8
OBJECT
 10
5920.0
 20
-890.0
 30
0.0
 11
6080.0
 21
-890.0
 31
0.0
1001
ACDBBLOCKREPETAG
1070
     1
1071
       49
1005
11E4A6
  0
LINE
  5
11E4A7
  8
OBJECT
 10
6080.0
 20
-890.0
 30
0.0
 11
6080.0
 21
-878.0
 31
0.0
1001
ACDBBLOCKREPETAG
1070
     1
1071
       50
1005
11E4A7
  0
LINE
  5
11E4A8
  8
OBJECT
 10
6074.9999999998618
 20
-757.99999999985096
 30
0.0
 11
6075.0
 21
-878.0
 31
0.0
1001
ACDBBLOCKREPETAG
1070
     1
1071
       54
1005
11E4A8
  0
LINE
  5
11E4A9
  8
OBJECT
 10
6074.9999908029858
 20
-757.99998602702181
 30
0.0
 11
6080.0
 21
-757.99998602702181
 31
0.0
1001
ACDBBLOCKREPETAG
1070
     1
1071
       55
1005
11E4A9
  0
LINE
  5
11E4AA
  8
OBJECT
 10
5925.0000000001392
 20
-757.99999999985096
 30
0.0
 11
5925.0
 21
-878.0
 31
0.0
1001
ACDBBLOCKREPETAG
1070
     1
1071
       56
1005
11E4AA
  0
LINE
  5
11E4AB
  8
OBJECT
 10
5925.0000091970142
 20
-757.99998602702181
 30
0.0
 11
5920.0
 21
-757.99998602702181
 31
0.0
1001
ACDBBLOCKREPETAG
1070
     1
1071
       57
1005
11E4AB
  0
ARC
  5
11E4AC
  8
OBJECT
 10
6200.6872746716735
 20
-749.40809941010752
 30
0.0
 40
170.6350503965856
 50
137.44134459184301
 51
149.91949581337221
1001
ACDBBLOCKREPETAG
1070
     1
1071
       58
1005
11E4AC
  0
ARC
  5
11E4AD
  8
OBJECT
 10
6200.6872746716735
 20
-642.59190058989225
 30
0.0
 40
170.6350503965856
 50
210.08050418662771
 51
222.55865540815699
1001
ACDBBLOCKREPETAG
1070
     1
1071
       59
1005
11E4AD
  0
ARC
  5
11E4AE
  8
OBJECT
 10
5799.3127253283274
 20
-749.40809941010752
 30
0.0
 40
170.6350503965856
 50
30.080504186787142
 51
42.558655408382641
1001
ACDBBLOCKREPETAG
1070
     1
1071
       60
1005
11E4AE
  0
ARC
  5
11E4AF
  8
OBJECT
 10
5799.3127253283274
 20
-642.59190058989225
 30
0.0
 40
170.6350503965856
 50
317.44134459161722
 51
329.9194958132129
1001
ACDBBLOCKREPETAG
1070
     1
1071
       61
1005
11E4AF
  0
POINT
  5
11E4B0
  8
DOTS
 10
6000.0
 20
-755.0
 30
0.0
1001
ACDBBLOCKREPETAG
1070
     1
1071
      185
1005
11E4B0
  0
LINE
  5
11E4B1
  8
OBJECT
 10
5969.4199755553018
 20
-243.89888500818171
 30
0.0
 11
5979.8564918232369
 21
-222.48688253356801
 31
0.0
1001
ACDBBLOCKREPETAG
1070
     1
1071
      305
1005
11E4B1
  0
LINE
  5
11E4B2
  8
OBJECT
 10
5965.2972169006089
 20
-240.71813901882729
 30
0.0
 11
5973.9071022665084
 21
-223.05373004430751
 31
0.0
1001
ACDBBLOCKREPETAG
1070
     1
1071
      306
1005
11E4B2
  0
LINE
  5
11E4B3
  8
OBJECT
 10
6024.1029330933034
 20
-243.80694712371681
 30
0.0
 11
6020.6596569999956
 21
-232.55462199999889
 31
0.0
1001
ACDBBLOCKREPETAG
1070
     1
1071
      307
1005
11E4B3
  0
ARC
  5
11E4B4
  8
OBJECT
 10
5976.5796953073141
 20
-207.1289369828437
 30
0.0
 40
60.031113246032611
 50
314.07020130418567
 51
322.33936106089681
1001
ACDBBLOCKREPETAG
1070
     1
1071
      308
1005
11E4B4
  0
LINE
  5
11E4B5
  8
OBJECT
 10
5986.7927499013749
 20
-218.22553374208019
 30
0.0
 11
6020.6596569999956
 21
-232.5546219999969
 31
0.0
1001
ACDBBLOCKREPETAG
1070
     1
1071
      309
1005
11E4B5
  0
ARC
  5
11E4B6
  8
OBJECT
 10
5982.8961697618997
 20
-227.4351299990567
 30
0.0
 40
10.0
 50
67.066778292911366
 51
154.0147343702935
1001
ACDBBLOCKREPETAG
1070
     1
1071
      310
1005
11E4B6
  0
ARC
  5
11E4B7
  8
OBJECT
 10
5986.1488390381273
 20
-225.55386256729159
 30
0.0
 40
7.0
 50
67.066778292911366
 51
154.0147337749826
1001
ACDBBLOCKREPETAG
1070
     1
1071
      311
1005
11E4B7
  0
CIRCLE
  5
11E4B8
  8
OBJECT
 10
6000.0
 20
-199.99999999999909
 30
0.0
 40
53.5
1001
ACDBBLOCKREPETAG
1070
     1
1071
      340
1005
11E4B8
  0
POINT
  5
11E4B9
  8
DOTS
 10
6000.0
 20
-199.99999999999909
 30
0.0
 50
270.0
1001
ACDBBLOCKREPETAG
1070
     1
1071
      153
1005
11E4B9
  0
ARC
  5
11E4BA
  8
OBJECT
 10
6000.0
 20
-199.99999999999909
 30
0.0
 40
50.0
 50
298.81994300000417
 51
228.52376955965491
1001
ACDBBLOCKREPETAG
1070
     1
1071
       48
1005
11E4BA
  0
LINE
  5
11E4BB
  8
CENTER
 10
6080.0
 20
-199.99999999999909
 30
0.0
 11
5920.0
 21
-199.99999999999909
 31
0.0
1001
ACDBBLOCKREPETAG
1070
     1
1071
       49
1005
11E4BB
  0
LINE
  5
11E4BC
  8
CENTER
 10
6000.0
 20
-279.99999999999909
 30
0.0
 11
6000.0
 21
-104.9999999999991
 31
0.0
1001
ACDBBLOCKREPETAG
1070
     1
1071
       50
1005
11E4BC
  0
CIRCLE
  5
11E4BD
  8
OBJECT
 10
6000.0
 20
-199.99999999999909
 30
0.0
 40
70.0
1001
ACDBBLOCKREPETAG
1070
     1
1071
       51
1005
11E4BD
  0
CIRCLE
  5
11E4BE
  8
OBJECT
 10
6000.0
 20
-199.99999999999909
 30
0.0
 40
77.0
1001
ACDBBLOCKREPETAG
1070
     1
1071
       52
1005
11E4BE
  0
ARC
  5
11E4BF
  8
OBJECT
 10
6000.0
 20
-199.99999999999909
 30
0.0
 40
80.0
 50
50.80503257388439
 51
129.1949674261156
1001
ACDBBLOCKREPETAG
1070
     1
1071
       53
1005
11E4BF
  0
LINE
  5
11E4C0
  8
OBJECT
 10
6045.6618002273253
 20
-137.99999999999909
 30
0.0
 11
6080.0
 21
-137.99999999999909
 31
0.0
1001
ACDBBLOCKREPETAG
1070
     1
1071
       54
1005
11E4C0
  0
LINE
  5
11E4C1
  8
OBJECT
 10
6062.0
 20
-261.99999999999909
 30
0.0
 11
6080.0
 21
-261.99999999999909
 31
0.0
1001
ACDBBLOCKREPETAG
1070
     1
1071
       55
1005
11E4C1
  0
LINE
  5
11E4C2
  8
OBJECT
 10
6062.0
 20
-261.99999999999909
 30
0.0
 11
6062.0
 21
-279.99999999999909
 31
0.0
1001
ACDBBLOCKREPETAG
1070
     1
1071
       57
1005
11E4C2
  0
LINE
  5
11E4C3
  8
OBJECT
 10
5938.0
 20
-261.99999999999909
 30
0.0
 11
5938.0
 21
-279.99999999999909
 31
0.0
1001
ACDBBLOCKREPETAG
1070
     1
1071
       58
1005
11E4C3
  0
LINE
  5
11E4C4
  8
OBJECT
 10
5938.0
 20
-261.99999999999909
 30
0.0
 11
5920.0
 21
-261.99999999999909
 31
0.0
1001
ACDBBLOCKREPETAG
1070
     1
1071
       60
1005
11E4C4
  0
LINE
  5
11E4C5
  8
OBJECT
 10
5954.3381997726738
 20
-137.99999999999909
 30
0.0
 11
5920.0
 21
-137.99999999999909
 31
0.0
1001
ACDBBLOCKREPETAG
1070
     1
1071
       61
1005
11E4C5
  0
LINE
  5
11E4C6
  8
OBJECT
 10
5945.5527778486367
 20
-254.44722215136329
 30
0.0
 11
5938.0
 21
-261.99999999999909
 31
0.0
1001
ACDBBLOCKREPETAG
1070
     1
1071
       42
1005
11E4C6
  0
LINE
  5
11E4C7
  8
OBJECT
 10
6054.4472221513633
 20
-254.44722215136329
 30
0.0
 11
6062.0
 21
-261.99999999999909
 31
0.0
1001
ACDBBLOCKREPETAG
1070
     1
1071
       43
1005
11E4C7
  0
LINE
  5
11E4C8
  8
OBJECT
 10
5797.0000000000136
 20
-261.99999999999909
 30
0.0
 11
5790.0000000000146
 21
-261.99999999999909
 31
0.0
1001
ACDBBLOCKREPETAG
1070
     1
1071
       85
1005
11E4C8
  0
LINE
  5
11E4C9
  8
OBJECT
 10
5790.0000000000146
 20
-261.99999999999909
 30
0.0
 11
5790.0000000000146
 21
-137.99999999999909
 31
0.0
1001
ACDBBLOCKREPETAG
1070
     1
1071
       86
1005
11E4C9
  0
LINE
  5
11E4CA
  8
OBJECT
 10
5790.0000000000146
 20
-137.99999999999909
 30
0.0
 11
5797.0000000000136
 21
-137.99999999999909
 31
0.0
1001
ACDBBLOCKREPETAG
1070
     1
1071
       87
1005
11E4CA
  0
LINE
  5
11E4CB
  8
OBJECT
 10
5797.0000000000136
 20
-137.99999999999909
 30
0.0
 11
5797.0000000000136
 21
-261.99999999999909
 31
0.0
1001
ACDBBLOCKREPETAG
1070
     1
1071
       88
1005
11E4CB
  0
LINE
  5
11E4CC
  8
CENTER
 10
5775.0000000000146
 20
-199.99999999999909
 30
0.0
 11
5920.0
 21
-199.99999999999909
 31
0.0
1001
ACDBBLOCKREPETAG
1070
     1
1071
       89
1005
11E4CC
  0
LINE
  5
11E4CD
  8
OBJECT
 10
5850.0000250358144
 20
-154.9999999999954
 30
0.0
 11
5914.0
 21
-154.99999999999909
 31
0.0
1001
ACDBBLOCKREPETAG
1070
     1
1071
       90
1005
11E4CD
  0
LINE
  5
11E4CE
  8
OBJECT
 10
5850.0000250358144
 20
-244.99999999999909
 30
0.0
 11
5914.0
 21
-244.99999999999909
 31
0.0
1001
ACDBBLOCKREPETAG
1070
     1
1071
       91
1005
11E4CE
  0
LINE
  5
11E4CF
  8
OBJECT
 10
5797.0000000000136
 20
-258.99999999999909
 30
0.0
 11
5833.0000000000146
 21
-258.99999999999909
 31
0.0
1001
ACDBBLOCKREPETAG
1070
     1
1071
       92
1005
11E4CF
  0
LINE
  5
11E4D0
  8
OBJECT
 10
5833.0000000000146
 20
-258.99999999999909
 30
0.0
 11
5833.0000000000146
 21
-140.99999999999909
 31
0.0
1001
ACDBBLOCKREPETAG
1070
     1
1071
       93
1005
11E4D0
  0
LINE
  5
11E4D1
  8
OBJECT
 10
5833.0000000000146
 20
-140.99999999999909
 30
0.0
 11
5797.0000000000136
 21
-140.99999999999909
 31
0.0
1001
ACDBBLOCKREPETAG
1070
     1
1071
       94
1005
11E4D1
  0
LINE
  5
11E4D2
  8
OBJECT
 10
5837.0000000000127
 20
-254.49999999999909
 30
0.0
 11
5850.0000000000146
 21
-254.49999999999909
 31
0.0
1001
ACDBBLOCKREPETAG
1070
     1
1071
       95
1005
11E4D2
  0
LINE
  5
11E4D3
  8
OBJECT
 10
5850.0000000000146
 20
-145.49999999999909
 30
0.0
 11
5837.0000000000127
 21
-145.49999999999909
 31
0.0
1001
ACDBBLOCKREPETAG
1070
     1
1071
       96
1005
11E4D3
  0
LINE
  5
11E4D4
  8
OBJECT
 10
5837.0000000000127
 20
-145.49999999999909
 30
0.0
 11
5837.0000000000127
 21
-254.49999999999909
 31
0.0
1001
ACDBBLOCKREPETAG
1070
     1
1071
       97
1005
11E4D4
  0
LINE
  5
11E4D5
  8
OBJECT
 10
5833.0000000000146
 20
-258.99999999999909
 30
0.0
 11
5837.0000000000127
 21
-254.49999999999909
 31
0.0
1001
ACDBBLOCKREPETAG
1070
     1
1071
       98
1005
11E4D5
  0
LINE
  5
11E4D6
  8
OBJECT
 10
5833.0000000000146
 20
-140.99999999999909
 30
0.0
 11
5837.0000000000127
 21
-145.49999999999909
 31
0.0
1001
ACDBBLOCKREPETAG
1070
     1
1071
       99
1005
11E4D6
  0
LINE
  5
11E4D7
  8
OBJECT
 10
5917.0
 20
-261.99999999999909
 30
0.0
 11
5920.0
 21
-261.99999999999909
 31
0.0
1001
ACDBBLOCKREPETAG
1070
     1
1071
      100
1005
11E4D7
  0
ARC
  5
11E4D8
  8
OBJECT
 10
5917.0
 20
-258.99999999999909
 30
0.0
 40
3.0
 50
180.0
 51
270.0
1001
ACDBBLOCKREPETAG
1070
     1
1071
      101
1005
11E4D8
  0
LINE
  5
11E4D9
  8
OBJECT
 10
5920.0
 20
-137.99999999999909
 30
0.0
 11
5917.0
 21
-137.99999999999909
 31
0.0
1001
ACDBBLOCKREPETAG
1070
     1
1071
      102
1005
11E4D9
  0
ARC
  5
11E4DA
  8
OBJECT
 10
5917.0
 20
-140.99999999999909
 30
0.0
 40
3.0
 50
90.0
 51
180.0
1001
ACDBBLOCKREPETAG
1070
     1
1071
      103
1005
11E4DA
  0
LINE
  5
11E4DB
  8
OBJECT
 10
5914.0
 20
-140.99999999999909
 30
0.0
 11
5914.0
 21
-189.6772096796403
 31
0.0
1001
ACDBBLOCKREPETAG
1070
     1
1071
      104
1005
11E4DB
  0
LINE
  5
11E4DC
  8
OBJECT
 10
5914.0
 20
-210.3227903203578
 30
0.0
 11
5914.0
 21
-258.99999999999909
 31
0.0
1001
ACDBBLOCKREPETAG
1070
     1
1071
      105
1005
11E4DC
  0
LINE
  5
11E4DD
  8
HIDDEN
 10
5842.0000000000127
 20
-244.49999999999909
 30
0.0
 11
5842.0000000000127
 21
-155.49999999999909
 31
0.0
1001
ACDBBLOCKREPETAG
1070
     1
1071
      106
1005
11E4DD
  0
LINE
  5
11E4DE
  8
OBJECT
 10
5850.0000250358144
 20
-145.50004907618759
 30
0.0
 11
5850.0000250358144
 21
-254.50004907618771
 31
0.0
1001
ACDBBLOCKREPETAG
1070
     1
1071
      108
1005
11E4DE
  0
ARC
  5
11E4DF
  8
OBJECT
 10
5870.1999999999753
 20
-199.99999999999909
 30
0.0
 40
45.000000000000547
 50
270.0
 51
90.0
1001
ACDBBLOCKREPETAG
1070
     1
1071
      109
1005
11E4DF
  0
LINE
  5
11E4E0
  8
CENTER
 10
6000.0
 20
-300.99999999999898
 30
0.0
 11
6000.0
 21
-279.99999999999909
 31
0.0
1001
ACDBBLOCKREPETAG
1070
     1
1071
        0
1005
11E4E0
  0
LINE
  5
11E4E1
  8
OBJECT
 10
6062.0
 20
-283.0
 30
0.0
 11
6062.0
 21
-279.99999999999909
 31
0.0
1001
ACDBBLOCKREPETAG
1070
     1
1071
        1
1005
11E4E1
  0
ARC
  5
11E4E2
  8
OBJECT
 10
6059.0
 20
-283.0
 30
0.0
 40
3.0
 50
270.0
 51
0.0
1001
ACDBBLOCKREPETAG
1070
     1
1071
        2
1005
11E4E2
  0
LINE
  5
11E4E3
  8
OBJECT
 10
5938.0
 20
-279.99999999999909
 30
0.0
 11
5938.0
 21
-282.99999999999818
 31
0.0
1001
ACDBBLOCKREPETAG
1070
     1
1071
        3
1005
11E4E3
  0
ARC
  5
11E4E4
  8
OBJECT
 10
5941.0
 20
-282.99999999999818
 30
0.0
 40
3.0
 50
180.0
 51
270.0
1001
ACDBBLOCKREPETAG
1070
     1
1071
        4
1005
11E4E4
  0
LINE
  5
11E4E5
  8
OBJECT
 10
5941.0
 20
-285.99999999999818
 30
0.0
 11
6059.0
 21
-286.0
 31
0.0
1001
ACDBBLOCKREPETAG
1070
     1
1071
        5
1005
11E4E5
  0
LINE
  5
11E4E6
  8
OBJECT
 10
6202.9999999999864
 20
-137.99999999999909
 30
0.0
 11
6209.9999999999864
 21
-137.99999999999909
 31
0.0
1001
ACDBBLOCKREPETAG
1070
     1
1071
       85
1005
11E4E6
  0
LINE
  5
11E4E7
  8
OBJECT
 10
6209.9999999999864
 20
-137.99999999999909
 30
0.0
 11
6209.9999999999864
 21
-261.99999999999909
 31
0.0
1001
ACDBBLOCKREPETAG
1070
     1
1071
       86
1005
11E4E7
  0
LINE
  5
11E4E8
  8
OBJECT
 10
6209.9999999999864
 20
-261.99999999999909
 30
0.0
 11
6202.9999999999864
 21
-261.99999999999909
 31
0.0
1001
ACDBBLOCKREPETAG
1070
     1
1071
       87
1005
11E4E8
  0
LINE
  5
11E4E9
  8
OBJECT
 10
6202.9999999999864
 20
-261.99999999999909
 30
0.0
 11
6202.9999999999864
 21
-137.99999999999909
 31
0.0
1001
ACDBBLOCKREPETAG
1070
     1
1071
       88
1005
11E4E9
  0
LINE
  5
11E4EA
  8
CENTER
 10
6224.9999999999873
 20
-199.99999999999909
 30
0.0
 11
6080.0
 21
-199.99999999999909
 31
0.0
1001
ACDBBLOCKREPETAG
1070
     1
1071
       89
1005
11E4EA
  0
LINE
  5
11E4EB
  8
OBJECT
 10
6149.9999749641856
 20
-245.0000000000027
 30
0.0
 11
6086.0
 21
-244.99999999999909
 31
0.0
1001
ACDBBLOCKREPETAG
1070
     1
1071
       90
1005
11E4EB
  0
LINE
  5
11E4EC
  8
OBJECT
 10
6149.9999749641856
 20
-154.99999999999909
 30
0.0
 11
6086.0
 21
-154.99999999999909
 31
0.0
1001
ACDBBLOCKREPETAG
1070
     1
1071
       91
1005
11E4EC
  0
LINE
  5
11E4ED
  8
OBJECT
 10
6202.9999999999864
 20
-140.99999999999909
 30
0.0
 11
6166.9999999999873
 21
-140.99999999999909
 31
0.0
1001
ACDBBLOCKREPETAG
1070
     1
1071
       92
1005
11E4ED
  0
LINE
  5
11E4EE
  8
OBJECT
 10
6166.9999999999873
 20
-140.99999999999909
 30
0.0
 11
6166.9999999999873
 21
-258.99999999999909
 31
0.0
1001
ACDBBLOCKREPETAG
1070
     1
1071
       93
1005
11E4EE
  0
LINE
  5
11E4EF
  8
OBJECT
 10
6166.9999999999873
 20
-258.99999999999909
 30
0.0
 11
6202.9999999999864
 21
-258.99999999999909
 31
0.0
1001
ACDBBLOCKREPETAG
1070
     1
1071
       94
1005
11E4EF
  0
LINE
  5
11E4F0
  8
OBJECT
 10
6162.9999999999864
 20
-145.49999999999909
 30
0.0
 11
6149.9999999999873
 21
-145.49999999999909
 31
0.0
1001
ACDBBLOCKREPETAG
1070
     1
1071
       95
1005
11E4F0
  0
LINE
  5
11E4F1
  8
OBJECT
 10
6149.9999999999873
 20
-254.49999999999909
 30
0.0
 11
6162.9999999999864
 21
-254.49999999999909
 31
0.0
1001
ACDBBLOCKREPETAG
1070
     1
1071
       96
1005
11E4F1
  0
LINE
  5
11E4F2
  8
OBJECT
 10
6162.9999999999864
 20
-254.49999999999909
 30
0.0
 11
6162.9999999999864
 21
-145.49999999999909
 31
0.0
1001
ACDBBLOCKREPETAG
1070
     1
1071
       97
1005
11E4F2
  0
LINE
  5
11E4F3
  8
OBJECT
 10
6166.9999999999873
 20
-140.99999999999909
 30
0.0
 11
6162.9999999999864
 21
-145.49999999999909
 31
0.0
1001
ACDBBLOCKREPETAG
1070
     1
1071
       98
1005
11E4F3
  0
LINE
  5
11E4F4
  8
OBJECT
 10
6166.9999999999873
 20
-258.99999999999909
 30
0.0
 11
6162.9999999999864
 21
-254.49999999999909
 31
0.0
1001
ACDBBLOCKREPETAG
1070
     1
1071
       99
1005
11E4F4
  0
LINE
  5
11E4F5
  8
OBJECT
 10
6083.0
 20
-137.99999999999909
 30
0.0
 11
6080.0
 21
-137.99999999999909
 31
0.0
1001
ACDBBLOCKREPETAG
1070
     1
1071
      100
1005
11E4F5
  0
ARC
  5
11E4F6
  8
OBJECT
 10
6083.0
 20
-140.99999999999909
 30
0.0
 40
3.0
 50
0.0
 51
90.0
1001
ACDBBLOCKREPETAG
1070
     1
1071
      101
1005
11E4F6
  0
LINE
  5
11E4F7
  8
OBJECT
 10
6080.0
 20
-261.99999999999909
 30
0.0
 11
6083.0
 21
-261.99999999999909
 31
0.0
1001
ACDBBLOCKREPETAG
1070
     1
1071
      102
1005
11E4F7
  0
ARC
  5
11E4F8
  8
OBJECT
 10
6083.0
 20
-258.99999999999909
 30
0.0
 40
3.0
 50
270.0
 51
0.0
1001
ACDBBLOCKREPETAG
1070
     1
1071
      103
1005
11E4F8
  0
LINE
  5
11E4F9
  8
OBJECT
 10
6086.0
 20
-258.99999999999909
 30
0.0
 11
6086.0
 21
-210.3227903203578
 31
0.0
1001
ACDBBLOCKREPETAG
1070
     1
1071
      104
1005
11E4F9
  0
LINE
  5
11E4FA
  8
OBJECT
 10
6086.0
 20
-189.6772096796403
 30
0.0
 11
6086.0
 21
-140.99999999999909
 31
0.0
1001
ACDBBLOCKREPETAG
1070
     1
1071
      105
1005
11E4FA
  0
LINE
  5
11E4FB
  8
HIDDEN
 10
6157.9999999999873
 20
-155.49999999999909
 30
0.0
 11
6157.9999999999873
 21
-244.49999999999909
 31
0.0
1001
ACDBBLOCKREPETAG
1070
     1
1071
      106
1005
11E4FB
  0
LINE
  5
11E4FC
  8
OBJECT
 10
6149.9999749641856
 20
-254.4999509238105
 30
0.0
 11
6149.9999749641856
 21
-145.4999509238105
 31
0.0
1001
ACDBBLOCKREPETAG
1070
     1
1071
      108
1005
11E4FC
  0
ARC
  5
11E4FD
  8
OBJECT
 10
6129.8000000000247
 20
-199.99999999999909
 30
0.0
 40
45.000000000000547
 50
90.0
 51
270.0
1001
ACDBBLOCKREPETAG
1070
     1
1071
      109
1005
11E4FD
  0
LINE
  5
11E4FE
  8
OBJECT
 10
5797.0000000000136
 20
-583.0
 30
0.0
 11
5790.0000000000146
 21
-583.0
 31
0.0
1001
ACDBBLOCKREPETAG
1070
     1
1071
       83
1005
11E4FE
  0
LINE
  5
11E4FF
  8
OBJECT
 10
5790.0000000000146
 20
-583.0
 30
0.0
 11
5790.0000000000146
 21
-707.0
 31
0.0
1001
ACDBBLOCKREPETAG
1070
     1
1071
       84
1005
11E4FF
  0
LINE
  5
11E500
  8
OBJECT
 10
5914.0000000000146
 20
-653.3502637757274
 30
0.0
 11
5914.0000000000146
 21
-755.00000000000102
 31
0.0
1001
ACDBBLOCKREPETAG
1070
     1
1071
       85
1005
11E500
  0
LINE
  5
11E501
  8
OBJECT
 10
5790.0000000000146
 20
-707.0
 30
0.0
 11
5797.0000000000136
 21
-707.0
 31
0.0
1001
ACDBBLOCKREPETAG
1070
     1
1071
       86
1005
11E501
  0
LINE
  5
11E502
  8
OBJECT
 10
5797.0000000000136
 20
-707.0
 30
0.0
 11
5797.0000000000136
 21
-583.0
 31
0.0
1001
ACDBBLOCKREPETAG
1070
     1
1071
       87
1005
11E502
  0
LINE
  5
11E503
  8
CENTER
 10
5865.0000000000146
 20
-645.0000000000008
 30
0.0
 11
5775.0000000000146
 21
-645.0
 31
0.0
1001
ACDBBLOCKREPETAG
1070
     1
1071
       88
1005
11E503
  0
LINE
  5
11E504
  8
OBJECT
 10
5920.0000000000182
 20
-758.0
 30
0.0
 11
5917.0000000000136
 21
-758.0000000000008
 31
0.0
1001
ACDBBLOCKREPETAG
1070
     1
1071
       89
1005
11E504
  0
ARC
  5
11E505
  8
OBJECT
 10
5917.0000000000136
 20
-755.00000000000102
 30
0.0
 40
3.0
 50
180.0
 51
270.0
1001
ACDBBLOCKREPETAG
1070
     1
1071
       90
1005
11E505
  0
LINE
  5
11E506
  8
OBJECT
 10
5797.0000000000136
 20
-586.0
 30
0.0
 11
5833.0000000000146
 21
-586.0000000000008
 31
0.0
1001
ACDBBLOCKREPETAG
1070
     1
1071
       91
1005
11E506
  0
LINE
  5
11E507
  8
OBJECT
 10
5833.0000000000146
 20
-586.0000000000008
 30
0.0
 11
5833.0000000000146
 21
-704.0000000000008
 31
0.0
1001
ACDBBLOCKREPETAG
1070
     1
1071
       92
1005
11E507
  0
LINE
  5
11E508
  8
OBJECT
 10
5837.0000000000127
 20
-590.5000000000008
 30
0.0
 11
5837.0000000000127
 21
-699.5000000000008
 31
0.0
1001
ACDBBLOCKREPETAG
1070
     1
1071
       93
1005
11E508
  0
LINE
  5
11E509
  8
OBJECT
 10
5837.0000000000127
 20
-590.5000000000008
 30
0.0
 11
5850.0000000000146
 21
-590.5000000000008
 31
0.0
1001
ACDBBLOCKREPETAG
1070
     1
1071
       94
1005
11E509
  0
LINE
  5
11E50A
  8
OBJECT
 10
5833.0000000000146
 20
-704.0000000000008
 30
0.0
 11
5797.0000000000136
 21
-704.0
 31
0.0
1001
ACDBBLOCKREPETAG
1070
     1
1071
       95
1005
11E50A
  0
LINE
  5
11E50B
  8
OBJECT
 10
5833.0000000000146
 20
-586.0000000000008
 30
0.0
 11
5837.0000000000127
 21
-590.5000000000008
 31
0.0
1001
ACDBBLOCKREPETAG
1070
     1
1071
       96
1005
11E50B
  0
LINE
  5
11E50C
  8
OBJECT
 10
5850.0000000000146
 20
-590.5000000000008
 30
0.0
 11
5850.0000000000146
 21
-675.74491827928784
 31
0.0
1001
ACDBBLOCKREPETAG
1070
     1
1071
       97
1005
11E50C
  0
ARC
  5
11E50D
  8
OBJECT
 10
5847.2000000000153
 20
-685.0000000000008
 30
0.0
 40
85.0
 50
36.869897645906562
 51
88.112268108168848
1001
ACDBBLOCKREPETAG
1070
     1
1071
       98
1005
11E50D
  0
LINE
  5
11E50E
  8
HIDDEN
 10
5842.0000000000127
 20
-600.50000000000068
 30
0.0
 11
5842.0000000000127
 21
-689.50000000000091
 31
0.0
1001
ACDBBLOCKREPETAG
1070
     1
1071
      100
1005
11E50E
  0
LINE
  5
11E50F
  8
OBJECT
 10
5914.0000000000146
 20
-751.07945073181781
 30
0.0
 11
5843.3686800789692
 21
-699.5000000000008
 31
0.0
1001
ACDBBLOCKREPETAG
1070
     1
1071
      101
1005
11E50F
  0
LINE
  5
11E510
  8
OBJECT
 10
5920.0000000000182
 20
-634.0
 30
0.0
 11
5915.2000000000162
 21
-634.0
 31
0.0
1001
ACDBBLOCKREPETAG
1070
     1
1071
      102
1005
11E510
  0
LINE
  5
11E511
  8
OBJECT
 10
5914.0000000000146
 20
-653.35026377573013
 30
0.0
 11
5915.2000000000162
 21
-634.0
 31
0.0
1001
ACDBBLOCKREPETAG
1070
     1
1071
      103
1005
11E511
  0
LINE
  5
11E512
  8
OBJECT
 10
5837.0000000000127
 20
-699.5000000000008
 30
0.0
 11
5843.3686800789692
 21
-699.5000000000008
 31
0.0
1001
ACDBBLOCKREPETAG
1070
     1
1071
      104
1005
11E512
  0
LINE
  5
11E513
  8
OBJECT
 10
5833.0000000000146
 20
-704.0000000000008
 30
0.0
 11
5837.0000000000127
 21
-699.5000000000008
 31
0.0
1001
ACDBBLOCKREPETAG
1070
     1
1071
      105
1005
11E513
  0
CIRCLE
  5
11E514
  8
OBJECT
 10
6000.0
 20
-696.0
 30
0.0
 40
62.0
1001
ACDBBLOCKREPETAG
1070
     1
1071
        0
1005
11E514
  0
LINE
  5
11E515
  8
OBJECT
 10
6202.9999999999864
 20
-583.0000000000008
 30
0.0
 11
6209.9999999999864
 21
-583.0000000000008
 31
0.0
1001
ACDBBLOCKREPETAG
1070
     1
1071
       83
1005
11E515
  0
LINE
  5
11E516
  8
OBJECT
 10
6209.9999999999864
 20
-583.0000000000008
 30
0.0
 11
6209.9999999999864
 21
-707.00000000000091
 31
0.0
1001
ACDBBLOCKREPETAG
1070
     1
1071
       84
1005
11E516
  0
LINE
  5
11E517
  8
OBJECT
 10
6085.9999999999864
 20
-653.3502637757274
 30
0.0
 11
6085.9999999999864
 21
-755.00000000000102
 31
0.0
1001
ACDBBLOCKREPETAG
1070
     1
1071
       85
1005
11E517
  0
LINE
  5
11E518
  8
OBJECT
 10
6209.9999999999864
 20
-707.00000000000091
 30
0.0
 11
6202.9999999999864
 21
-707.00000000000091
 31
0.0
1001
ACDBBLOCKREPETAG
1070
     1
1071
       86
1005
11E518
  0
LINE
  5
11E519
  8
OBJECT
 10
6202.9999999999864
 20
-707.00000000000091
 30
0.0
 11
6202.9999999999864
 21
-583.0000000000008
 31
0.0
1001
ACDBBLOCKREPETAG
1070
     1
1071
       87
1005
11E519
  0
LINE
  5
11E51A
  8
CENTER
 10
6134.9999999999873
 20
-645.0000000000008
 30
0.0
 11
6224.9999999999873
 21
-645.0000000000008
 31
0.0
1001
ACDBBLOCKREPETAG
1070
     1
1071
       88
1005
11E51A
  0
LINE
  5
11E51B
  8
OBJECT
 10
6079.9999999999818
 20
-758.0
 30
0.0
 11
6082.9999999999864
 21
-758.0000000000008
 31
0.0
1001
ACDBBLOCKREPETAG
1070
     1
1071
       89
1005
11E51B
  0
ARC
  5
11E51C
  8
OBJECT
 10
6082.9999999999864
 20
-755.00000000000102
 30
0.0
 40
3.0
 50
270.0
 51
0.0
1001
ACDBBLOCKREPETAG
1070
     1
1071
       90
1005
11E51C
  0
LINE
  5
11E51D
  8
OBJECT
 10
6202.9999999999864
 20
-586.0000000000008
 30
0.0
 11
6166.9999999999873
 21
-586.0000000000008
 31
0.0
1001
ACDBBLOCKREPETAG
1070
     1
1071
       91
1005
11E51D
  0
LINE
  5
11E51E
  8
OBJECT
 10
6166.9999999999873
 20
-586.0000000000008
 30
0.0
 11
6166.9999999999873
 21
-704.0000000000008
 31
0.0
1001
ACDBBLOCKREPETAG
1070
     1
1071
       92
1005
11E51E
  0
LINE
  5
11E51F
  8
OBJECT
 10
6162.9999999999864
 20
-590.5000000000008
 30
0.0
 11
6162.9999999999864
 21
-699.5000000000008
 31
0.0
1001
ACDBBLOCKREPETAG
1070
     1
1071
       93
1005
11E51F
  0
LINE
  5
11E520
  8
OBJECT
 10
6162.9999999999864
 20
-590.5000000000008
 30
0.0
 11
6149.9999999999873
 21
-590.5000000000008
 31
0.0
1001
ACDBBLOCKREPETAG
1070
     1
1071
       94
1005
11E520
  0
LINE
  5
11E521
  8
OBJECT
 10
6166.9999999999873
 20
-704.0000000000008
 30
0.0
 11
6202.9999999999864
 21
-704.0000000000008
 31
0.0
1001
ACDBBLOCKREPETAG
1070
     1
1071
       95
1005
11E521
  0
LINE
  5
11E522
  8
OBJECT
 10
6166.9999999999873
 20
-586.0000000000008
 30
0.0
 11
6162.9999999999864
 21
-590.5000000000008
 31
0.0
1001
ACDBBLOCKREPETAG
1070
     1
1071
       96
1005
11E522
  0
LINE
  5
11E523
  8
OBJECT
 10
6149.9999999999873
 20
-590.5000000000008
 30
0.0
 11
6149.9999999999873
 21
-675.74491827928784
 31
0.0
1001
ACDBBLOCKREPETAG
1070
     1
1071
       97
1005
11E523
  0
ARC
  5
11E524
  8
OBJECT
 10
6152.7999999999838
 20
-685.0000000000008
 30
0.0
 40
85.0
 50
91.887731891831123
 51
143.1301023540934
1001
ACDBBLOCKREPETAG
1070
     1
1071
       98
1005
11E524
  0
LINE
  5
11E525
  8
HIDDEN
 10
6157.9999999999873
 20
-600.50000000000068
 30
0.0
 11
6157.9999999999873
 21
-689.50000000000091
 31
0.0
1001
ACDBBLOCKREPETAG
1070
     1
1071
      100
1005
11E525
  0
LINE
  5
11E526
  8
OBJECT
 10
6085.9999999999864
 20
-751.07945073181781
 30
0.0
 11
6156.6313199210299
 21
-699.5000000000008
 31
0.0
1001
ACDBBLOCKREPETAG
1070
     1
1071
      101
1005
11E526
  0
LINE
  5
11E527
  8
OBJECT
 10
6079.9999999999818
 20
-634.0
 30
0.0
 11
6084.7999999999856
 21
-634.0
 31
0.0
1001
ACDBBLOCKREPETAG
1070
     1
1071
      102
1005
11E527
  0
LINE
  5
11E528
  8
OBJECT
 10
6085.9999999999864
 20
-653.35026377573013
 30
0.0
 11
6084.7999999999856
 21
-634.0
 31
0.0
1001
ACDBBLOCKREPETAG
1070
     1
1071
      103
1005
11E528
  0
LINE
  5
11E529
  8
OBJECT
 10
6162.9999999999864
 20
-699.5000000000008
 30
0.0
 11
6156.6313199210299
 21
-699.5000000000008
 31
0.0
1001
ACDBBLOCKREPETAG
1070
     1
1071
      104
1005
11E529
  0
LINE
  5
11E52A
  8
OBJECT
 10
6166.9999999999873
 20
-704.0000000000008
 30
0.0
 11
6162.9999999999864
 21
-699.5000000000008
 31
0.0
1001
ACDBBLOCKREPETAG
1070
     1
1071
      105
1005
11E52A
  0
LINE
  5
11E52B
  8
OBJECT
 10
3923.0
 20
-571.0
 30
0.0
 11
3923.0
 21
-550.0
 31
0.0
1001
ACDBBLOCKREPETAG
1070
     1
1071
       38
1005
11E52B
  0
LINE
  5
11E52C
  8
OBJECT
 10
3923.0
 20
-550.0
 30
0.0
 11
4077.0
 21
-550.0
 31
0.0
1001
ACDBBLOCKREPETAG
1070
     1
1071
       39
1005
11E52C
  0
LINE
  5
11E52D
  8
HIDDEN
 10
3943.0
 20
-620.0
 30
0.0
 11
4057.0
 21
-620.0
 31
0.0
1001
ACDBBLOCKREPETAG
1070
     1
1071
       40
1005
11E52D
  0
LINE
  5
11E52E
  8
OBJECT
 10
4077.0
 20
-550.0
 30
0.0
 11
4077.0
 21
-571.0
 31
0.0
1001
ACDBBLOCKREPETAG
1070
     1
1071
       41
1005
11E52E
  0
LINE
  5
11E52F
  8
OBJECT
 10
4077.0
 20
-571.0
 30
0.0
 11
3923.0
 21
-571.0
 31
0.0
1001
ACDBBLOCKREPETAG
1070
     1
1071
       42
1005
11E52F
  0
LINE
  5
11E530
  8
CENTER
 10
4000.0
 20
-535.0
 30
0.0
 11
4000.0
 21
-890.0
 31
0.0
1001
ACDBBLOCKREPETAG
1070
     1
1071
       43
1005
11E530
  0
LINE
  5
11E531
  8
OBJECT
 10
3928.0
 20
-571.0
 30
0.0
 11
3928.0
 21
-634.0
 31
0.0
1001
ACDBBLOCKREPETAG
1070
     1
1071
       44
1005
11E531
  0
LINE
  5
11E532
  8
OBJECT
 10
4072.0
 20
-634.0
 30
0.0
 11
4072.0
 21
-571.0
 31
0.0
1001
ACDBBLOCKREPETAG
1070
     1
1071
       45
1005
11E532
  0
LINE
  5
11E533
  8
OBJECT
 10
3920.0
 20
-878.0
 30
0.0
 11
4080.0
 21
-878.0
 31
0.0
1001
ACDBBLOCKREPETAG
1070
     1
1071
       46
1005
11E533
  0
LINE
  5
11E534
  8
OBJECT
 10
4080.0
 20
-634.0
 30
0.0
 11
3920.0
 21
-634.0
 31
0.0
1001
ACDBBLOCKREPETAG
1070
     1
1071
       47
1005
11E534
  0
LINE
  5
11E535
  8
OBJECT
 10
3920.0
 20
-878.0
 30
0.0
 11
3920.0
 21
-890.0
 31
0.0
1001
ACDBBLOCKREPETAG
1070
     1
1071
       48
1005
11E535
  0
LINE
  5
11E536
  8
OBJECT
 10
3920.0
 20
-890.0
 30
0.0
 11
4080.0
 21
-890.0
 31
0.0
1001
ACDBBLOCKREPETAG
1070
     1
1071
       49
1005
11E536
  0
LINE
  5
11E537
  8
OBJECT
 10
4080.0
 20
-890.0
 30
0.0
 11
4080.0
 21
-878.0
 31
0.0
1001
ACDBBLOCKREPETAG
1070
     1
1071
       50
1005
11E537
  0
LINE
  5
11E538
  8
OBJECT
 10
4074.9999999998631
 20
-757.99999999985096
 30
0.0
 11
4075.0
 21
-878.0
 31
0.0
1001
ACDBBLOCKREPETAG
1070
     1
1071
       54
1005
11E538
  0
LINE
  5
11E539
  8
OBJECT
 10
4074.9999908029849
 20
-757.99998602702181
 30
0.0
 11
4080.0
 21
-757.99998602702181
 31
0.0
1001
ACDBBLOCKREPETAG
1070
     1
1071
       55
1005
11E539
  0
LINE
  5
11E53A
  8
OBJECT
 10
3925.0000000001392
 20
-757.99999999985096
 30
0.0
 11
3925.0
 21
-878.0
 31
0.0
1001
ACDBBLOCKREPETAG
1070
     1
1071
       56
1005
11E53A
  0
LINE
  5
11E53B
  8
OBJECT
 10
3925.0000091970151
 20
-757.99998602702181
 30
0.0
 11
3920.0
 21
-757.99998602702181
 31
0.0
1001
ACDBBLOCKREPETAG
1070
     1
1071
       57
1005
11E53B
  0
ARC
  5
11E53C
  8
OBJECT
 10
4200.6872746716726
 20
-749.40809941010752
 30
0.0
 40
170.6350503965856
 50
137.44134459184301
 51
149.91949581337221
1001
ACDBBLOCKREPETAG
1070
     1
1071
       58
1005
11E53C
  0
ARC
  5
11E53D
  8
OBJECT
 10
4200.6872746716726
 20
-642.59190058989225
 30
0.0
 40
170.6350503965856
 50
210.08050418662771
 51
222.55865540815699
1001
ACDBBLOCKREPETAG
1070
     1
1071
       59
1005
11E53D
  0
ARC
  5
11E53E
  8
OBJECT
 10
3799.3127253283278
 20
-749.40809941010752
 30
0.0
 40
170.6350503965856
 50
30.080504186774089
 51
42.558655408382641
1001
ACDBBLOCKREPETAG
1070
     1
1071
       60
1005
11E53E
  0
ARC
  5
11E53F
  8
OBJECT
 10
3799.3127253283278
 20
-642.59190058989225
 30
0.0
 40
170.6350503965856
 50
317.44134459161722
 51
329.91949581322592
1001
ACDBBLOCKREPETAG
1070
     1
1071
       61
1005
11E53F
  0
POINT
  5
11E540
  8
DOTS
 10
4000.0
 20
-755.0
 30
0.0
1001
ACDBBLOCKREPETAG
1070
     1
1071
      185
1005
11E540
  0
LINE
  5
11E541
  8
OBJECT
 10
3969.4199755553018
 20
-243.89888500818171
 30
0.0
 11
3979.8564918232369
 21
-222.48688253356801
 31
0.0
1001
ACDBBLOCKREPETAG
1070
     1
1071
      305
1005
11E541
  0
LINE
  5
11E542
  8
OBJECT
 10
3965.2972169006089
 20
-240.71813901882729
 30
0.0
 11
3973.9071022665089
 21
-223.05373004430751
 31
0.0
1001
ACDBBLOCKREPETAG
1070
     1
1071
      306
1005
11E542
  0
LINE
  5
11E543
  8
OBJECT
 10
4024.102933093302
 20
-243.80694712371681
 30
0.0
 11
4020.6596569999951
 21
-232.55462199999889
 31
0.0
1001
ACDBBLOCKREPETAG
1070
     1
1071
      307
1005
11E543
  0
ARC
  5
11E544
  8
OBJECT
 10
3976.579695307315
 20
-207.1289369828437
 30
0.0
 40
60.031113246032611
 50
314.07020130418567
 51
322.33936106091278
1001
ACDBBLOCKREPETAG
1070
     1
1071
      308
1005
11E544
  0
LINE
  5
11E545
  8
OBJECT
 10
3986.7927499013749
 20
-218.22553374208019
 30
0.0
 11
4020.6596569999951
 21
-232.5546219999969
 31
0.0
1001
ACDBBLOCKREPETAG
1070
     1
1071
      309
1005
11E545
  0
ARC
  5
11E546
  8
OBJECT
 10
3982.896169761902
 20
-227.4351299990567
 30
0.0
 40
10.0
 50
67.066778292911366
 51
154.0147343702935
1001
ACDBBLOCKREPETAG
1070
     1
1071
      310
1005
11E546
  0
ARC
  5
11E547
  8
OBJECT
 10
3986.1488390381278
 20
-225.55386256729159
 30
0.0
 40
7.0
 50
67.066778292911366
 51
154.01473377497121
1001
ACDBBLOCKREPETAG
1070
     1
1071
      311
1005
11E547
  0
CIRCLE
  5
11E548
  8
OBJECT
 10
4000.0
 20
-199.99999999999909
 30
0.0
 40
53.5
1001
ACDBBLOCKREPETAG
1070
     1
1071
      340
1005
11E548
  0
POINT
  5
11E549
  8
DOTS
 10
4000.0
 20
-199.99999999999909
 30
0.0
 50
270.0
1001
ACDBBLOCKREPETAG
1070
     1
1071
      153
1005
11E549
  0
ARC
  5
11E54A
  8
OBJECT
 10
4000.0
 20
-199.99999999999909
 30
0.0
 40
50.0
 50
298.81994300000417
 51
228.52376955967449
1001
ACDBBLOCKREPETAG
1070
     1
1071
       48
1005
11E54A
  0
LINE
  5
11E54B
  8
CENTER
 10
4080.0
 20
-199.99999999999909
 30
0.0
 11
3920.0
 21
-199.99999999999909
 31
0.0
1001
ACDBBLOCKREPETAG
1070
     1
1071
       49
1005
11E54B
  0
LINE
  5
11E54C
  8
CENTER
 10
4000.0
 20
-279.99999999999909
 30
0.0
 11
4000.0
 21
-104.9999999999991
 31
0.0
1001
ACDBBLOCKREPETAG
1070
     1
1071
       50
1005
11E54C
  0
CIRCLE
  5
11E54D
  8
OBJECT
 10
4000.0
 20
-199.99999999999909
 30
0.0
 40
70.0
1001
ACDBBLOCKREPETAG
1070
     1
1071
       51
1005
11E54D
  0
CIRCLE
  5
11E54E
  8
OBJECT
 10
4000.0
 20
-199.99999999999909
 30
0.0
 40
77.0
1001
ACDBBLOCKREPETAG
1070
     1
1071
       52
1005
11E54E
  0
ARC
  5
11E54F
  8
OBJECT
 10
4000.0
 20
-199.99999999999909
 30
0.0
 40
80.0
 50
50.805032573864182
 51
129.1949674261358
1001
ACDBBLOCKREPETAG
1070
     1
1071
       53
1005
11E54F
  0
LINE
  5
11E550
  8
OBJECT
 10
4045.661800227324
 20
-137.99999999999909
 30
0.0
 11
4080.0
 21
-137.99999999999909
 31
0.0
1001
ACDBBLOCKREPETAG
1070
     1
1071
       54
1005
11E550
  0
LINE
  5
11E551
  8
OBJECT
 10
4062.0
 20
-261.99999999999909
 30
0.0
 11
4080.0
 21
-261.99999999999909
 31
0.0
1001
ACDBBLOCKREPETAG
1070
     1
1071
       55
1005
11E551
  0
LINE
  5
11E552
  8
OBJECT
 10
4062.0
 20
-261.99999999999909
 30
0.0
 11
4062.0
 21
-279.99999999999909
 31
0.0
1001
ACDBBLOCKREPETAG
1070
     1
1071
       57
1005
11E552
  0
LINE
  5
11E553
  8
OBJECT
 10
3938.0
 20
-261.99999999999909
 30
0.0
 11
3938.0
 21
-279.99999999999909
 31
0.0
1001
ACDBBLOCKREPETAG
1070
     1
1071
       58
1005
11E553
  0
LINE
  5
11E554
  8
OBJECT
 10
3938.0
 20
-261.99999999999909
 30
0.0
 11
3920.0
 21
-261.99999999999909
 31
0.0
1001
ACDBBLOCKREPETAG
1070
     1
1071
       60
1005
11E554
  0
LINE
  5
11E555
  8
OBJECT
 10
3954.338199772676
 20
-137.99999999999909
 30
0.0
 11
3920.0
 21
-137.99999999999909
 31
0.0
1001
ACDBBLOCKREPETAG
1070
     1
1071
       61
1005
11E555
  0
LINE
  5
11E556
  8
OBJECT
 10
3945.5527778486362
 20
-254.44722215136329
 30
0.0
 11
3938.0
 21
-261.99999999999909
 31
0.0
1001
ACDBBLOCKREPETAG
1070
     1
1071
       42
1005
11E556
  0
LINE
  5
11E557
  8
OBJECT
 10
4054.4472221513638
 20
-254.44722215136329
 30
0.0
 11
4062.0
 21
-261.99999999999909
 31
0.0
1001
ACDBBLOCKREPETAG
1070
     1
1071
       43
1005
11E557
  0
LINE
  5
11E558
  8
OBJECT
 10
3797.0000000000159
 20
-261.99999999999909
 30
0.0
 11
3790.0000000000159
 21
-261.99999999999909
 31
0.0
1001
ACDBBLOCKREPETAG
1070
     1
1071
       85
1005
11E558
  0
LINE
  5
11E559
  8
OBJECT
 10
3790.0000000000159
 20
-261.99999999999909
 30
0.0
 11
3790.0000000000159
 21
-137.99999999999909
 31
0.0
1001
ACDBBLOCKREPETAG
1070
     1
1071
       86
1005
11E559
  0
LINE
  5
11E55A
  8
OBJECT
 10
3790.0000000000159
 20
-137.99999999999909
 30
0.0
 11
3797.0000000000159
 21
-137.99999999999909
 31
0.0
1001
ACDBBLOCKREPETAG
1070
     1
1071
       87
1005
11E55A
  0
LINE
  5
11E55B
  8
OBJECT
 10
3797.0000000000159
 20
-137.99999999999909
 30
0.0
 11
3797.0000000000159
 21
-261.99999999999909
 31
0.0
1001
ACDBBLOCKREPETAG
1070
     1
1071
       88
1005
11E55B
  0
LINE
  5
11E55C
  8
CENTER
 10
3775.0000000000159
 20
-199.99999999999909
 30
0.0
 11
3920.0
 21
-199.99999999999909
 31
0.0
1001
ACDBBLOCKREPETAG
1070
     1
1071
       89
1005
11E55C
  0
LINE
  5
11E55D
  8
OBJECT
 10
3850.000025035813
 20
-154.9999999999954
 30
0.0
 11
3914.0
 21
-154.99999999999909
 31
0.0
1001
ACDBBLOCKREPETAG
1070
     1
1071
       90
1005
11E55D
  0
LINE
  5
11E55E
  8
OBJECT
 10
3850.000025035813
 20
-244.99999999999909
 30
0.0
 11
3914.0
 21
-244.99999999999909
 31
0.0
1001
ACDBBLOCKREPETAG
1070
     1
1071
       91
1005
11E55E
  0
LINE
  5
11E55F
  8
OBJECT
 10
3797.0000000000159
 20
-258.99999999999909
 30
0.0
 11
3833.0000000000159
 21
-258.99999999999909
 31
0.0
1001
ACDBBLOCKREPETAG
1070
     1
1071
       92
1005
11E55F
  0
LINE
  5
11E560
  8
OBJECT
 10
3833.0000000000159
 20
-258.99999999999909
 30
0.0
 11
3833.0000000000159
 21
-140.99999999999909
 31
0.0
1001
ACDBBLOCKREPETAG
1070
     1
1071
       93
1005
11E560
  0
LINE
  5
11E561
  8
OBJECT
 10
3833.0000000000159
 20
-140.99999999999909
 30
0.0
 11
3797.0000000000159
 21
-140.99999999999909
 31
0.0
1001
ACDBBLOCKREPETAG
1070
     1
1071
       94
1005
11E561
  0
LINE
  5
11E562
  8
OBJECT
 10
3837.0000000000159
 20
-254.49999999999909
 30
0.0
 11
3850.000000000015
 21
-254.49999999999909
 31
0.0
1001
ACDBBLOCKREPETAG
1070
     1
1071
       95
1005
11E562
  0
LINE
  5
11E563
  8
OBJECT
 10
3850.000000000015
 20
-145.49999999999909
 30
0.0
 11
3837.0000000000159
 21
-145.49999999999909
 31
0.0
1001
ACDBBLOCKREPETAG
1070
     1
1071
       96
1005
11E563
  0
LINE
  5
11E564
  8
OBJECT
 10
3837.0000000000159
 20
-145.49999999999909
 30
0.0
 11
3837.0000000000159
 21
-254.49999999999909
 31
0.0
1001
ACDBBLOCKREPETAG
1070
     1
1071
       97
1005
11E564
  0
LINE
  5
11E565
  8
OBJECT
 10
3833.0000000000159
 20
-258.99999999999909
 30
0.0
 11
3837.0000000000159
 21
-254.49999999999909
 31
0.0
1001
ACDBBLOCKREPETAG
1070
     1
1071
       98
1005
11E565
  0
LINE
  5
11E566
  8
OBJECT
 10
3833.0000000000159
 20
-140.99999999999909
 30
0.0
 11
3837.0000000000159
 21
-145.49999999999909
 31
0.0
1001
ACDBBLOCKREPETAG
1070
     1
1071
       99
1005
11E566
  0
LINE
  5
11E567
  8
OBJECT
 10
3917.0
 20
-261.99999999999909
 30
0.0
 11
3920.0
 21
-261.99999999999909
 31
0.0
1001
ACDBBLOCKREPETAG
1070
     1
1071
      100
1005
11E567
  0
ARC
  5
11E568
  8
OBJECT
 10
3917.0
 20
-258.99999999999909
 30
0.0
 40
3.0
 50
180.0
 51
270.0
1001
ACDBBLOCKREPETAG
1070
     1
1071
      101
1005
11E568
  0
LINE
  5
11E569
  8
OBJECT
 10
3920.0
 20
-137.99999999999909
 30
0.0
 11
3917.0
 21
-137.99999999999909
 31
0.0
1001
ACDBBLOCKREPETAG
1070
     1
1071
      102
1005
11E569
  0
ARC
  5
11E56A
  8
OBJECT
 10
3917.0
 20
-140.99999999999909
 30
0.0
 40
3.0
 50
90.0
 51
180.0
1001
ACDBBLOCKREPETAG
1070
     1
1071
      103
1005
11E56A
  0
LINE
  5
11E56B
  8
OBJECT
 10
3914.0
 20
-140.99999999999909
 30
0.0
 11
3914.0
 21
-189.6772096796403
 31
0.0
1001
ACDBBLOCKREPETAG
1070
     1
1071
      104
1005
11E56B
  0
LINE
  5
11E56C
  8
OBJECT
 10
3914.0
 20
-210.3227903203578
 30
0.0
 11
3914.0
 21
-258.99999999999909
 31
0.0
1001
ACDBBLOCKREPETAG
1070
     1
1071
      105
1005
11E56C
  0
LINE
  5
11E56D
  8
HIDDEN
 10
3842.0000000000159
 20
-244.49999999999909
 30
0.0
 11
3842.0000000000159
 21
-155.49999999999909
 31
0.0
1001
ACDBBLOCKREPETAG
1070
     1
1071
      106
1005
11E56D
  0
LINE
  5
11E56E
  8
OBJECT
 10
3850.000025035813
 20
-145.50004907618759
 30
0.0
 11
3850.000025035813
 21
-254.50004907618771
 31
0.0
1001
ACDBBLOCKREPETAG
1070
     1
1071
      108
1005
11E56E
  0
ARC
  5
11E56F
  8
OBJECT
 10
3870.1999999999771
 20
-199.99999999999909
 30
0.0
 40
45.000000000000547
 50
270.0
 51
90.0
1001
ACDBBLOCKREPETAG
1070
     1
1071
      109
1005
11E56F
  0
LINE
  5
11E570
  8
CENTER
 10
4000.0
 20
-300.99999999999898
 30
0.0
 11
4000.0
 21
-279.99999999999909
 31
0.0
1001
ACDBBLOCKREPETAG
1070
     1
1071
        0
1005
11E570
  0
LINE
  5
11E571
  8
OBJECT
 10
4062.0
 20
-283.0
 30
0.0
 11
4062.0
 21
-279.99999999999909
 31
0.0
1001
ACDBBLOCKREPETAG
1070
     1
1071
        1
1005
11E571
  0
ARC
  5
11E572
  8
OBJECT
 10
4059.0
 20
-283.0
 30
0.0
 40
3.0
 50
270.0
 51
0.0
1001
ACDBBLOCKREPETAG
1070
     1
1071
        2
1005
11E572
  0
LINE
  5
11E573
  8
OBJECT
 10
3938.0
 20
-279.99999999999909
 30
0.0
 11
3938.0
 21
-282.99999999999818
 31
0.0
1001
ACDBBLOCKREPETAG
1070
     1
1071
        3
1005
11E573
  0
ARC
  5
11E574
  8
OBJECT
 10
3941.0
 20
-282.99999999999818
 30
0.0
 40
3.0
 50
180.0
 51
270.0
1001
ACDBBLOCKREPETAG
1070
     1
1071
        4
1005
11E574
  0
LINE
  5
11E575
  8
OBJECT
 10
3941.0
 20
-285.99999999999818
 30
0.0
 11
4059.0
 21
-286.0
 31
0.0
1001
ACDBBLOCKREPETAG
1070
     1
1071
        5
1005
11E575
  0
LINE
  5
11E576
  8
OBJECT
 10
4202.9999999999854
 20
-137.99999999999909
 30
0.0
 11
4209.9999999999854
 21
-137.99999999999909
 31
0.0
1001
ACDBBLOCKREPETAG
1070
     1
1071
       85
1005
11E576
  0
LINE
  5
11E577
  8
OBJECT
 10
4209.9999999999854
 20
-137.99999999999909
 30
0.0
 11
4209.9999999999854
 21
-261.99999999999909
 31
0.0
1001
ACDBBLOCKREPETAG
1070
     1
1071
       86
1005
11E577
  0
LINE
  5
11E578
  8
OBJECT
 10
4209.9999999999854
 20
-261.99999999999909
 30
0.0
 11
4202.9999999999854
 21
-261.99999999999909
 31
0.0
1001
ACDBBLOCKREPETAG
1070
     1
1071
       87
1005
11E578
  0
LINE
  5
11E579
  8
OBJECT
 10
4202.9999999999854
 20
-261.99999999999909
 30
0.0
 11
4202.9999999999854
 21
-137.99999999999909
 31
0.0
1001
ACDBBLOCKREPETAG
1070
     1
1071
       88
1005
11E579
  0
LINE
  5
11E57A
  8
CENTER
 10
4224.9999999999864
 20
-199.99999999999909
 30
0.0
 11
4080.0
 21
-199.99999999999909
 31
0.0
1001
ACDBBLOCKREPETAG
1070
     1
1071
       89
1005
11E57A
  0
LINE
  5
11E57B
  8
OBJECT
 10
4149.9999749641856
 20
-245.0000000000027
 30
0.0
 11
4086.0
 21
-244.99999999999909
 31
0.0
1001
ACDBBLOCKREPETAG
1070
     1
1071
       90
1005
11E57B
  0
LINE
  5
11E57C
  8
OBJECT
 10
4149.9999749641856
 20
-154.99999999999909
 30
0.0
 11
4086.0
 21
-154.99999999999909
 31
0.0
1001
ACDBBLOCKREPETAG
1070
     1
1071
       91
1005
11E57C
  0
LINE
  5
11E57D
  8
OBJECT
 10
4202.9999999999854
 20
-140.99999999999909
 30
0.0
 11
4166.9999999999854
 21
-140.99999999999909
 31
0.0
1001
ACDBBLOCKREPETAG
1070
     1
1071
       92
1005
11E57D
  0
LINE
  5
11E57E
  8
OBJECT
 10
4166.9999999999854
 20
-140.99999999999909
 30
0.0
 11
4166.9999999999854
 21
-258.99999999999909
 31
0.0
1001
ACDBBLOCKREPETAG
1070
     1
1071
       93
1005
11E57E
  0
LINE
  5
11E57F
  8
OBJECT
 10
4166.9999999999854
 20
-258.99999999999909
 30
0.0
 11
4202.9999999999854
 21
-258.99999999999909
 31
0.0
1001
ACDBBLOCKREPETAG
1070
     1
1071
       94
1005
11E57F
  0
LINE
  5
11E580
  8
OBJECT
 10
4162.9999999999854
 20
-145.49999999999909
 30
0.0
 11
4149.9999999999864
 21
-145.49999999999909
 31
0.0
1001
ACDBBLOCKREPETAG
1070
     1
1071
       95
1005
11E580
  0
LINE
  5
11E581
  8
OBJECT
 10
4149.9999999999864
 20
-254.49999999999909
 30
0.0
 11
4162.9999999999854
 21
-254.49999999999909
 31
0.0
1001
ACDBBLOCKREPETAG
1070
     1
1071
       96
1005
11E581
  0
LINE
  5
11E582
  8
OBJECT
 10
4162.9999999999854
 20
-254.49999999999909
 30
0.0
 11
4162.9999999999854
 21
-145.49999999999909
 31
0.0
1001
ACDBBLOCKREPETAG
1070
     1
1071
       97
1005
11E582
  0
LINE
  5
11E583
  8
OBJECT
 10
4166.9999999999854
 20
-140.99999999999909
 30
0.0
 11
4162.9999999999854
 21
-145.49999999999909
 31
0.0
1001
ACDBBLOCKREPETAG
1070
     1
1071
       98
1005
11E583
  0
LINE
  5
11E584
  8
OBJECT
 10
4166.9999999999854
 20
-258.99999999999909
 30
0.0
 11
4162.9999999999854
 21
-254.49999999999909
 31
0.0
1001
ACDBBLOCKREPETAG
1070
     1
1071
       99
1005
11E584
  0
LINE
  5
11E585
  8
OBJECT
 10
4083.0
 20
-137.99999999999909
 30
0.0
 11
4080.0
 21
-137.99999999999909
 31
0.0
1001
ACDBBLOCKREPETAG
1070
     1
1071
      100
1005
11E585
  0
ARC
  5
11E586
  8
OBJECT
 10
4083.0
 20
-140.99999999999909
 30
0.0
 40
3.0
 50
0.0
 51
90.0
1001
ACDBBLOCKREPETAG
1070
     1
1071
      101
1005
11E586
  0
LINE
  5
11E587
  8
OBJECT
 10
4080.0
 20
-261.99999999999909
 30
0.0
 11
4083.0
 21
-261.99999999999909
 31
0.0
1001
ACDBBLOCKREPETAG
1070
     1
1071
      102
1005
11E587
  0
ARC
  5
11E588
  8
OBJECT
 10
4083.0
 20
-258.99999999999909
 30
0.0
 40
3.0
 50
270.0
 51
0.0
1001
ACDBBLOCKREPETAG
1070
     1
1071
      103
1005
11E588
  0
LINE
  5
11E589
  8
OBJECT
 10
4086.0
 20
-258.99999999999909
 30
0.0
 11
4086.0
 21
-210.3227903203578
 31
0.0
1001
ACDBBLOCKREPETAG
1070
     1
1071
      104
1005
11E589
  0
LINE
  5
11E58A
  8
OBJECT
 10
4086.0
 20
-189.6772096796403
 30
0.0
 11
4086.0
 21
-140.99999999999909
 31
0.0
1001
ACDBBLOCKREPETAG
1070
     1
1071
      105
1005
11E58A
  0
LINE
  5
11E58B
  8
HIDDEN
 10
4157.9999999999864
 20
-155.49999999999909
 30
0.0
 11
4157.9999999999864
 21
-244.49999999999909
 31
0.0
1001
ACDBBLOCKREPETAG
1070
     1
1071
      106
1005
11E58B
  0
LINE
  5
11E58C
  8
OBJECT
 10
4149.9999749641856
 20
-254.4999509238105
 30
0.0
 11
4149.9999749641856
 21
-145.4999509238105
 31
0.0
1001
ACDBBLOCKREPETAG
1070
     1
1071
      108
1005
11E58C
  0
ARC
  5
11E58D
  8
OBJECT
 10
4129.8000000000247
 20
-199.99999999999909
 30
0.0
 40
45.000000000000547
 50
90.0
 51
270.0
1001
ACDBBLOCKREPETAG
1070
     1
1071
      109
1005
11E58D
  0
LINE
  5
11E58E
  8
OBJECT
 10
3797.0000000000159
 20
-583.0
 30
0.0
 11
3790.0000000000159
 21
-583.0
 31
0.0
1001
ACDBBLOCKREPETAG
1070
     1
1071
       83
1005
11E58E
  0
LINE
  5
11E58F
  8
OBJECT
 10
3790.0000000000159
 20
-583.0
 30
0.0
 11
3790.0000000000159
 21
-707.0
 31
0.0
1001
ACDBBLOCKREPETAG
1070
     1
1071
       84
1005
11E58F
  0
LINE
  5
11E590
  8
OBJECT
 10
3914.0000000000159
 20
-653.3502637757274
 30
0.0
 11
3914.0000000000159
 21
-755.00000000000102
 31
0.0
1001
ACDBBLOCKREPETAG
1070
     1
1071
       85
1005
11E590
  0
LINE
  5
11E591
  8
OBJECT
 10
3790.0000000000159
 20
-707.0
 30
0.0
 11
3797.0000000000159
 21
-707.0
 31
0.0
1001
ACDBBLOCKREPETAG
1070
     1
1071
       86
1005
11E591
  0
LINE
  5
11E592
  8
OBJECT
 10
3797.0000000000159
 20
-707.0
 30
0.0
 11
3797.0000000000159
 21
-583.0
 31
0.0
1001
ACDBBLOCKREPETAG
1070
     1
1071
       87
1005
11E592
  0
LINE
  5
11E593
  8
CENTER
 10
3865.0000000000159
 20
-645.0000000000008
 30
0.0
 11
3775.0000000000159
 21
-645.0
 31
0.0
1001
ACDBBLOCKREPETAG
1070
     1
1071
       88
1005
11E593
  0
LINE
  5
11E594
  8
OBJECT
 10
3920.0000000000182
 20
-758.0
 30
0.0
 11
3917.0000000000141
 21
-758.0000000000008
 31
0.0
1001
ACDBBLOCKREPETAG
1070
     1
1071
       89
1005
11E594
  0
ARC
  5
11E595
  8
OBJECT
 10
3917.0000000000141
 20
-755.00000000000102
 30
0.0
 40
3.0
 50
180.0
 51
270.0
1001
ACDBBLOCKREPETAG
1070
     1
1071
       90
1005
11E595
  0
LINE
  5
11E596
  8
OBJECT
 10
3797.0000000000159
 20
-586.0
 30
0.0
 11
3833.0000000000159
 21
-586.0000000000008
 31
0.0
1001
ACDBBLOCKREPETAG
1070
     1
1071
       91
1005
11E596
  0
LINE
  5
11E597
  8
OBJECT
 10
3833.0000000000159
 20
-586.0000000000008
 30
0.0
 11
3833.0000000000159
 21
-704.0000000000008
 31
0.0
1001
ACDBBLOCKREPETAG
1070
     1
1071
       92
1005
11E597
  0
LINE
  5
11E598
  8
OBJECT
 10
3837.0000000000159
 20
-590.5000000000008
 30
0.0
 11
3837.0000000000159
 21
-699.5000000000008
 31
0.0
1001
ACDBBLOCKREPETAG
1070
     1
1071
       93
1005
11E598
  0
LINE
  5
11E599
  8
OBJECT
 10
3837.0000000000159
 20
-590.5000000000008
 30
0.0
 11
3850.000000000015
 21
-590.5000000000008
 31
0.0
1001
ACDBBLOCKREPETAG
1070
     1
1071
       94
1005
11E599
  0
LINE
  5
11E59A
  8
OBJECT
 10
3833.0000000000159
 20
-704.0000000000008
 30
0.0
 11
3797.0000000000159
 21
-704.0
 31
0.0
1001
ACDBBLOCKREPETAG
1070
     1
1071
       95
1005
11E59A
  0
LINE
  5
11E59B
  8
OBJECT
 10
3833.0000000000159
 20
-586.0000000000008
 30
0.0
 11
3837.0000000000159
 21
-590.5000000000008
 31
0.0
1001
ACDBBLOCKREPETAG
1070
     1
1071
       96
1005
11E59B
  0
LINE
  5
11E59C
  8
OBJECT
 10
3850.000000000015
 20
-590.5000000000008
 30
0.0
 11
3850.000000000015
 21
-675.74491827928784
 31
0.0
1001
ACDBBLOCKREPETAG
1070
     1
1071
       97
1005
11E59C
  0
ARC
  5
11E59D
  8
OBJECT
 10
3847.2000000000148
 20
-685.0000000000008
 30
0.0
 40
85.0
 50
36.869897645906562
 51
88.112268108168848
1001
ACDBBLOCKREPETAG
1070
     1
1071
       98
1005
11E59D
  0
LINE
  5
11E59E
  8
HIDDEN
 10
3842.0000000000159
 20
-600.50000000000068
 30
0.0
 11
3842.0000000000159
 21
-689.50000000000091
 31
0.0
1001
ACDBBLOCKREPETAG
1070
     1
1071
      100
1005
11E59E
  0
LINE
  5
11E59F
  8
OBJECT
 10
3914.0000000000159
 20
-751.07945073181781
 30
0.0
 11
3843.3686800789692
 21
-699.5000000000008
 31
0.0
1001
ACDBBLOCKREPETAG
1070
     1
1071
      101
1005
11E59F
  0
LINE
  5
11E5A0
  8
OBJECT
 10
3920.0000000000182
 20
-634.0
 30
0.0
 11
3915.2000000000148
 21
-634.0
 31
0.0
1001
ACDBBLOCKREPETAG
1070
     1
1071
      102
1005
11E5A0
  0
LINE
  5
11E5A1
  8
OBJECT
 10
3914.0000000000159
 20
-653.35026377573013
 30
0.0
 11
3915.2000000000148
 21
-634.0
 31
0.0
1001
ACDBBLOCKREPETAG
1070
     1
1071
      103
1005
11E5A1
  0
LINE
  5
11E5A2
  8
OBJECT
 10
3837.0000000000159
 20
-699.5000000000008
 30
0.0
 11
3843.3686800789692
 21
-699.5000000000008
 31
0.0
1001
ACDBBLOCKREPETAG
1070
     1
1071
      104
1005
11E5A2
  0
LINE
  5
11E5A3
  8
OBJECT
 10
3833.0000000000159
 20
-704.0000000000008
 30
0.0
 11
3837.0000000000159
 21
-699.5000000000008
 31
0.0
1001
ACDBBLOCKREPETAG
1070
     1
1071
      105
1005
11E5A3
  0
CIRCLE
  5
11E5A4
  8
OBJECT
 10
4000.0
 20
-696.0
 30
0.0
 40
62.0
1001
ACDBBLOCKREPETAG
1070
     1
1071
        0
1005
11E5A4
  0
LINE
  5
11E5A5
  8
OBJECT
 10
4202.9999999999854
 20
-583.0000000000008
 30
0.0
 11
4209.9999999999854
 21
-583.0000000000008
 31
0.0
1001
ACDBBLOCKREPETAG
1070
     1
1071
       83
1005
11E5A5
  0
LINE
  5
11E5A6
  8
OBJECT
 10
4209.9999999999854
 20
-583.0000000000008
 30
0.0
 11
4209.9999999999854
 21
-707.00000000000091
 31
0.0
1001
ACDBBLOCKREPETAG
1070
     1
1071
       84
1005
11E5A6
  0
LINE
  5
11E5A7
  8
OBJECT
 10
4085.9999999999859
 20
-653.3502637757274
 30
0.0
 11
4085.9999999999859
 21
-755.00000000000102
 31
0.0
1001
ACDBBLOCKREPETAG
1070
     1
1071
       85
1005
11E5A7
  0
LINE
  5
11E5A8
  8
OBJECT
 10
4209.9999999999854
 20
-707.00000000000091
 30
0.0
 11
4202.9999999999854
 21
-707.00000000000091
 31
0.0
1001
ACDBBLOCKREPETAG
1070
     1
1071
       86
1005
11E5A8
  0
LINE
  5
11E5A9
  8
OBJECT
 10
4202.9999999999854
 20
-707.00000000000091
 30
0.0
 11
4202.9999999999854
 21
-583.0000000000008
 31
0.0
1001
ACDBBLOCKREPETAG
1070
     1
1071
       87
1005
11E5A9
  0
LINE
  5
11E5AA
  8
CENTER
 10
4134.9999999999854
 20
-645.0000000000008
 30
0.0
 11
4224.9999999999864
 21
-645.0000000000008
 31
0.0
1001
ACDBBLOCKREPETAG
1070
     1
1071
       88
1005
11E5AA
  0
LINE
  5
11E5AB
  8
OBJECT
 10
4079.9999999999818
 20
-758.0
 30
0.0
 11
4082.999999999985
 21
-758.0000000000008
 31
0.0
1001
ACDBBLOCKREPETAG
1070
     1
1071
       89
1005
11E5AB
  0
ARC
  5
11E5AC
  8
OBJECT
 10
4082.999999999985
 20
-755.00000000000102
 30
0.0
 40
3.0
 50
270.0
 51
0.0
1001
ACDBBLOCKREPETAG
1070
     1
1071
       90
1005
11E5AC
  0
LINE
  5
11E5AD
  8
OBJECT
 10
4202.9999999999854
 20
-586.0000000000008
 30
0.0
 11
4166.9999999999854
 21
-586.0000000000008
 31
0.0
1001
ACDBBLOCKREPETAG
1070
     1
1071
       91
1005
11E5AD
  0
LINE
  5
11E5AE
  8
OBJECT
 10
4166.9999999999854
 20
-586.0000000000008
 30
0.0
 11
4166.9999999999854
 21
-704.0000000000008
 31
0.0
1001
ACDBBLOCKREPETAG
1070
     1
1071
       92
1005
11E5AE
  0
LINE
  5
11E5AF
  8
OBJECT
 10
4162.9999999999854
 20
-590.5000000000008
 30
0.0
 11
4162.9999999999854
 21
-699.5000000000008
 31
0.0
1001
ACDBBLOCKREPETAG
1070
     1
1071
       93
1005
11E5AF
  0
LINE
  5
11E5B0
  8
OBJECT
 10
4162.9999999999854
 20
-590.5000000000008
 30
0.0
 11
4149.9999999999864
 21
-590.5000000000008
 31
0.0
1001
ACDBBLOCKREPETAG
1070
     1
1071
       94
1005
11E5B0
  0
LINE
  5
11E5B1
  8
OBJECT
 10
4166.9999999999854
 20
-704.0000000000008
 30
0.0
 11
4202.9999999999854
 21
-704.0000000000008
 31
0.0
1001
ACDBBLOCKREPETAG
1070
     1
1071
       95
1005
11E5B1
  0
LINE
  5
11E5B2
  8
OBJECT
 10
4166.9999999999854
 20
-586.0000000000008
 30
0.0
 11
4162.9999999999854
 21
-590.5000000000008
 31
0.0
1001
ACDBBLOCKREPETAG
1070
     1
1071
       96
1005
11E5B2
  0
LINE
  5
11E5B3
  8
OBJECT
 10
4149.9999999999864
 20
-590.5000000000008
 30
0.0
 11
4149.9999999999864
 21
-675.74491827928784
 31
0.0
1001
ACDBBLOCKREPETAG
1070
     1
1071
       97
1005
11E5B3
  0
ARC
  5
11E5B4
  8
OBJECT
 10
4152.7999999999838
 20
-685.0000000000008
 30
0.0
 40
85.0
 50
91.887731891831123
 51
143.1301023540934
1001
ACDBBLOCKREPETAG
1070
     1
1071
       98
1005
11E5B4
  0
LINE
  5
11E5B5
  8
HIDDEN
 10
4157.9999999999864
 20
-600.50000000000068
 30
0.0
 11
4157.9999999999864
 21
-689.50000000000091
 31
0.0
1001
ACDBBLOCKREPETAG
1070
     1
1071
      100
1005
11E5B5
  0
LINE
  5
11E5B6
  8
OBJECT
 10
4085.9999999999859
 20
-751.07945073181781
 30
0.0
 11
4156.6313199210299
 21
-699.5000000000008
 31
0.0
1001
ACDBBLOCKREPETAG
1070
     1
1071
      101
1005
11E5B6
  0
LINE
  5
11E5B7
  8
OBJECT
 10
4079.9999999999818
 20
-634.0
 30
0.0
 11
4084.7999999999852
 21
-634.0
 31
0.0
1001
ACDBBLOCKREPETAG
1070
     1
1071
      102
1005
11E5B7
  0
LINE
  5
11E5B8
  8
OBJECT
 10
4085.9999999999859
 20
-653.35026377573013
 30
0.0
 11
4084.7999999999852
 21
-634.0
 31
0.0
1001
ACDBBLOCKREPETAG
1070
     1
1071
      103
1005
11E5B8
  0
LINE
  5
11E5B9
  8
OBJECT
 10
4162.9999999999854
 20
-699.5000000000008
 30
0.0
 11
4156.6313199210299
 21
-699.5000000000008
 31
0.0
1001
ACDBBLOCKREPETAG
1070
     1
1071
      104
1005
11E5B9
  0
LINE
  5
11E5BA
  8
OBJECT
 10
4166.9999999999854
 20
-704.0000000000008
 30
0.0
 11
4162.9999999999854
 21
-699.5000000000008
 31
0.0
1001
ACDBBLOCKREPETAG
1070
     1
1071
      105
1005
11E5BA
  0
LINE
  5
11E5BB
  8
SLIM
 10
11914.999999999991
 20
-759.47385309434753
 30
0.0
 11
11919.47385309434
 21
-755.0
 31
0.0
1001
ACAD
1010
0.0
1020
0.0
1030
0.0
1001
ACDBBLOCKREPETAG
1070
     1
1071
        0
1005
0
  0
LINE
  5
11E5BC
  8
SLIM
 10
11914.999999999991
 20
-777.4343653364856
 30
0.0
 11
11937.434365336479
 21
-755.0
 31
0.0
1001
ACAD
1010
0.0
1020
0.0
1030
0.0
1001
ACDBBLOCKREPETAG
1070
     1
1071
       10
1005
11E5BC
  0
LINE
  5
11E5BD
  8
SLIM
 10
11914.999999999991
 20
-795.39487757862355
 30
0.0
 11
11955.39487757861
 21
-755.0
 31
0.0
1001
ACAD
1010
0.0
1020
0.0
1030
0.0
1001
ACDBBLOCKREPETAG
1070
     1
1071
       11
1005
11E5BD
  0
LINE
  5
11E5BE
  8
SLIM
 10
11914.999999999991
 20
-813.35538982076173
 30
0.0
 11
11973.35538982075
 21
-755.0
 31
0.0
1001
ACAD
1010
0.0
1020
0.0
1030
0.0
1001
ACDBBLOCKREPETAG
1070
     1
1071
       12
1005
11E5BE
  0
LINE
  5
11E5BF
  8
SLIM
 10
11914.999999999991
 20
-831.31590206289945
 30
0.0
 11
11991.31590206289
 21
-755.0
 31
0.0
1001
ACAD
1010
0.0
1020
0.0
1030
0.0
1001
ACDBBLOCKREPETAG
1070
     1
1071
       13
1005
11E5BF
  0
LINE
  5
11E5C0
  8
SLIM
 10
11914.999999999991
 20
-849.27641430503763
 30
0.0
 11
12009.27641430503
 21
-755.0
 31
0.0
1001
ACAD
1010
0.0
1020
0.0
1030
0.0
1001
ACDBBLOCKREPETAG
1070
     1
1071
       14
1005
11E5C0
  0
LINE
  5
11E5C1
  8
SLIM
 10
11914.999999999991
 20
-867.23692654717593
 30
0.0
 11
12027.23692654717
 21
-755.0
 31
0.0
1001
ACAD
1010
0.0
1020
0.0
1030
0.0
1001
ACDBBLOCKREPETAG
1070
     1
1071
       15
1005
11E5C1
  0
LINE
  5
11E5C2
  8
SLIM
 10
11914.999999999991
 20
-885.19743878931376
 30
0.0
 11
12045.19743878931
 21
-755.0
 31
0.0
1001
ACAD
1010
0.0
1020
0.0
1030
0.0
1001
ACDBBLOCKREPETAG
1070
     1
1071
       16
1005
11E5C2
  0
LINE
  5
11E5C3
  8
SLIM
 10
11914.999999999991
 20
-903.15795103145194
 30
0.0
 11
12063.15795103144
 21
-755.0
 31
0.0
1001
ACAD
1010
0.0
1020
0.0
1030
0.0
1001
ACDBBLOCKREPETAG
1070
     1
1071
       17
1005
11E5C3
  0
LINE
  5
11E5C4
  8
SLIM
 10
11914.999999999991
 20
-921.11846327358978
 30
0.0
 11
12081.11846327358
 21
-755.0
 31
0.0
1001
ACAD
1010
0.0
1020
0.0
1030
0.0
1001
ACDBBLOCKREPETAG
1070
     1
1071
       18
1005
11E5C4
  0
LINE
  5
11E5C5
  8
SLIM
 10
11914.999999999991
 20
-939.07897551572796
 30
0.0
 11
12085.000000000009
 21
-769.07897551571648
 31
0.0
1001
ACAD
1010
0.0
1020
0.0
1030
0.0
1001
ACDBBLOCKREPETAG
1070
     1
1071
       19
1005
11E5C5
  0
LINE
  5
11E5C6
  8
SLIM
 10
11915.0
 20
-957.0394877578658
 30
0.0
 11
12085.000000000009
 21
-787.03948775785511
 31
0.0
1001
ACAD
1010
0.0
1020
0.0
1030
0.0
1001
ACDBBLOCKREPETAG
1070
     1
1071
       20
1005
11E5C6
  0
LINE
  5
11E5C7
  8
SLIM
 10
11915.0
 20
-975.00000000000398
 30
0.0
 11
12085.0
 21
-804.99999999999363
 31
0.0
1001
ACAD
1010
0.0
1020
0.0
1030
0.0
1001
ACDBBLOCKREPETAG
1070
     1
1071
       21
1005
11E5C7
  0
LINE
  5
11E5C8
  8
SLIM
 10
11915.0
 20
-992.96051224214204
 30
0.0
 11
12085.0
 21
-822.96051224213215
 31
0.0
1001
ACAD
1010
0.0
1020
0.0
1030
0.0
1001
ACDBBLOCKREPETAG
1070
     1
1071
       22
1005
11E5C8
  0
LINE
  5
11E5C9
  8
SLIM
 10
11915.0
 20
-1010.92102448428
 30
0.0
 11
12085.0
 21
-840.92102448427045
 31
0.0
1001
ACAD
1010
0.0
1020
0.0
1030
0.0
1001
ACDBBLOCKREPETAG
1070
     1
1071
       23
1005
11E5C9
  0
LINE
  5
11E5CA
  8
SLIM
 10
11915.0
 20
-1028.8815367264181
 30
0.0
 11
12085.0
 21
-858.88153672640931
 31
0.0
1001
ACAD
1010
0.0
1020
0.0
1030
0.0
1001
ACDBBLOCKREPETAG
1070
     1
1071
       24
1005
11E5CA
  0
LINE
  5
11E5CB
  8
SLIM
 10
11915.0
 20
-1046.8420489685559
 30
0.0
 11
12085.0
 21
-876.84204896854783
 31
0.0
1001
ACAD
1010
0.0
1020
0.0
1030
0.0
1001
ACDBBLOCKREPETAG
1070
     1
1071
       25
1005
11E5CB
  0
LINE
  5
11E5CC
  8
SLIM
 10
11915.0
 20
-1064.802561210694
 30
0.0
 11
12085.0
 21
-894.80256121068624
 31
0.0
1001
ACAD
1010
0.0
1020
0.0
1030
0.0
1001
ACDBBLOCKREPETAG
1070
     1
1071
       26
1005
11E5CC
  0
LINE
  5
11E5CD
  8
SLIM
 10
11915.0
 20
-1082.763073452832
 30
0.0
 11
12085.0
 21
-912.76307345282476
 31
0.0
1001
ACAD
1010
0.0
1020
0.0
1030
0.0
1001
ACDBBLOCKREPETAG
1070
     1
1071
       27
1005
11E5CD
  0
LINE
  5
11E5CE
  8
SLIM
 10
11915.0
 20
-1100.7235856949701
 30
0.0
 11
12085.0
 21
-930.72358569496362
 31
0.0
1001
ACAD
1010
0.0
1020
0.0
1030
0.0
1001
ACDBBLOCKREPETAG
1070
     1
1071
       28
1005
11E5CE
  0
LINE
  5
11E5CF
  8
SLIM
 10
11915.0
 20
-1118.6840979371079
 30
0.0
 11
12085.0
 21
-948.68409793710202
 31
0.0
1001
ACAD
1010
0.0
1020
0.0
1030
0.0
1001
ACDBBLOCKREPETAG
1070
     1
1071
       29
1005
11E5CF
  0
LINE
  5
11E5D0
  8
SLIM
 10
11915.0
 20
-1136.644610179246
 30
0.0
 11
12085.0
 21
-966.64461017924043
 31
0.0
1001
ACAD
1010
0.0
1020
0.0
1030
0.0
1001
ACDBBLOCKREPETAG
1070
     1
1071
       30
1005
11E5D0
  0
LINE
  5
11E5D1
  8
SLIM
 10
11915.0
 20
-1154.6051224213841
 30
0.0
 11
12085.0
 21
-984.60512242137895
 31
0.0
1001
ACAD
1010
0.0
1020
0.0
1030
0.0
1001
ACDBBLOCKREPETAG
1070
     1
1071
       31
1005
11E5D1
  0
LINE
  5
11E5D2
  8
SLIM
 10
11915.0
 20
-1172.5656346635219
 30
0.0
 11
12085.0
 21
-1002.565634663517
 31
0.0
1001
ACAD
1010
0.0
1020
0.0
1030
0.0
1001
ACDBBLOCKREPETAG
1070
     1
1071
       32
1005
11E5D2
  0
LINE
  5
11E5D3
  8
SLIM
 10
11915.0
 20
-1190.52614690566
 30
0.0
 11
12085.0
 21
-1020.526146905656
 31
0.0
1001
ACAD
1010
0.0
1020
0.0
1030
0.0
1001
ACDBBLOCKREPETAG
1070
     1
1071
       33
1005
11E5D3
  0
LINE
  5
11E5D4
  8
SLIM
 10
11915.0
 20
-1208.4866591477989
 30
0.0
 11
12085.0
 21
-1038.4866591477951
 31
0.0
1001
ACAD
1010
0.0
1020
0.0
1030
0.0
1001
ACDBBLOCKREPETAG
1070
     1
1071
       34
1005
11E5D4
  0
LINE
  5
11E5D5
  8
SLIM
 10
11915.0
 20
-1226.447171389937
 30
0.0
 11
12085.0
 21
-1056.447171389932
 31
0.0
1001
ACAD
1010
0.0
1020
0.0
1030
0.0
1001
ACDBBLOCKREPETAG
1070
     1
1071
       35
1005
11E5D5
  0
LINE
  5
11E5D6
  8
SLIM
 10
11915.0
 20
-1244.4076836320751
 30
0.0
 11
12085.0
 21
-1074.4076836320719
 31
0.0
1001
ACAD
1010
0.0
1020
0.0
1030
0.0
1001
ACDBBLOCKREPETAG
1070
     1
1071
       36
1005
11E5D6
  0
LINE
  5
11E5D7
  8
SLIM
 10
11915.575570103911
 20
-1261.7926257703
 30
0.0
 11
12085.0
 21
-1092.36819587421
 31
0.0
1001
ACAD
1010
0.0
1020
0.0
1030
0.0
1001
ACDBBLOCKREPETAG
1070
     1
1071
       37
1005
11E5D7
  0
LINE
  5
11E5D8
  8
SLIM
 10
11917.789879832389
 20
-1277.5388282839549
 30
0.0
 11
12085.0
 21
-1110.328708116348
 31
0.0
1001
ACAD
1010
0.0
1020
0.0
1030
0.0
1001
ACDBBLOCKREPETAG
1070
     1
1071
       38
1005
11E5D8
  0
LINE
  5
11E5D9
  8
SLIM
 10
11920.004189560879
 20
-1293.28503079761
 30
0.0
 11
12085.0
 21
-1128.289220358487
 31
0.0
1001
ACAD
1010
0.0
1020
0.0
1030
0.0
1001
ACDBBLOCKREPETAG
1070
     1
1071
       39
1005
11E5D9
  0
LINE
  5
11E5DA
  8
SLIM
 10
11922.21849928936
 20
-1309.0312333112661
 30
0.0
 11
12085.0
 21
-1146.249732600626
 31
0.0
1001
ACAD
1010
0.0
1020
0.0
1030
0.0
1001
ACDBBLOCKREPETAG
1070
     1
1071
       40
1005
11E5DA
  0
LINE
  5
11E5DB
  8
SLIM
 10
11924.432809017841
 20
-1324.777435824921
 30
0.0
 11
12085.0
 21
-1164.210244842765
 31
0.0
1001
ACAD
1010
0.0
1020
0.0
1030
0.0
1001
ACDBBLOCKREPETAG
1070
     1
1071
       41
1005
11E5DB
  0
LINE
  5
11E5DC
  8
SLIM
 10
11926.64711874633
 20
-1340.523638338577
 30
0.0
 11
12085.0
 21
-1182.170757084903
 31
0.0
1001
ACAD
1010
0.0
1020
0.0
1030
0.0
1001
ACDBBLOCKREPETAG
1070
     1
1071
       42
1005
11E5DC
  0
LINE
  5
11E5DD
  8
SLIM
 10
11928.861428474809
 20
-1356.2698408522319
 30
0.0
 11
12085.0
 21
-1200.131269327042
 31
0.0
1001
ACAD
1010
0.0
1020
0.0
1030
0.0
1001
ACDBBLOCKREPETAG
1070
     1
1071
       43
1005
11E5DD
  0
LINE
  5
11E5DE
  8
SLIM
 10
11931.07573820329
 20
-1372.0160433658871
 30
0.0
 11
12085.0
 21
-1218.0917815691801
 31
0.0
1001
ACAD
1010
0.0
1020
0.0
1030
0.0
1001
ACDBBLOCKREPETAG
1070
     1
1071
       44
1005
11E5DE
  0
LINE
  5
11E5DF
  8
SLIM
 10
11932.999999999991
 20
-1388.0522938113261
 30
0.0
 11
12085.0
 21
-1236.052293811319
 31
0.0
1001
ACAD
1010
0.0
1020
0.0
1030
0.0
1001
ACDBBLOCKREPETAG
1070
     1
1071
       45
1005
11E5DF
  0
LINE
  5
11E5E0
  8
SLIM
 10
11932.999999999991
 20
-1406.0128060534651
 30
0.0
 11
12085.0
 21
-1254.0128060534571
 31
0.0
1001
ACAD
1010
0.0
1020
0.0
1030
0.0
1001
ACDBBLOCKREPETAG
1070
     1
1071
       46
1005
11E5E0
  0
LINE
  5
11E5E1
  8
SLIM
 10
11932.999999999991
 20
-1423.973318295602
 30
0.0
 11
12082.664314193131
 21
-1274.3090041024641
 31
0.0
1001
ACAD
1010
0.0
1020
0.0
1030
0.0
1001
ACDBBLOCKREPETAG
1070
     1
1071
       47
1005
11E5E1
  0
LINE
  5
11E5E2
  8
SLIM
 10
11949.93383053773
 20
-1424.999999999997
 30
0.0
 11
12079.725321280779
 21
-1295.2085092569521
 31
0.0
1001
ACAD
1010
0.0
1020
0.0
1030
0.0
1001
ACDBBLOCKREPETAG
1070
     1
1071
       48
1005
11E5E2
  0
LINE
  5
11E5E3
  8
SLIM
 10
11967.89434277986
 20
-1424.999999999997
 30
0.0
 11
12076.78632836842
 21
-1316.1080144114389
 31
0.0
1001
ACAD
1010
0.0
1020
0.0
1030
0.0
1001
ACDBBLOCKREPETAG
1070
     1
1071
       49
1005
11E5E3
  0
LINE
  5
11E5E4
  8
SLIM
 10
11985.854855022009
 20
-1424.999999999998
 30
0.0
 11
12073.847335456079
 21
-1337.007519565926
 31
0.0
1001
ACAD
1010
0.0
1020
0.0
1030
0.0
1001
ACDBBLOCKREPETAG
1070
     1
1071
       50
1005
11E5E4
  0
LINE
  5
11E5E5
  8
SLIM
 10
12003.815367264149
 20
-1424.999999999998
 30
0.0
 11
12070.908342543729
 21
-1357.907024720414
 31
0.0
1001
ACAD
1010
0.0
1020
0.0
1030
0.0
1001
ACDBBLOCKREPETAG
1070
     1
1071
       51
1005
11E5E5
  0
LINE
  5
11E5E6
  8
SLIM
 10
12021.775879506289
 20
-1424.999999999998
 30
0.0
 11
12067.969349631379
 21
-1378.8065298749009
 31
0.0
1001
ACAD
1010
0.0
1020
0.0
1030
0.0
1001
ACDBBLOCKREPETAG
1070
     1
1071
       52
1005
11E5E6
  0
LINE
  5
11E5E7
  8
SLIM
 10
12039.736391748431
 20
-1424.9999999999991
 30
0.0
 11
12067.0
 21
-1397.7363917484149
 31
0.0
1001
ACAD
1010
0.0
1020
0.0
1030
0.0
1001
ACDBBLOCKREPETAG
1070
     1
1071
       53
1005
11E5E7
  0
LINE
  5
11E5E8
  8
SLIM
 10
12057.69690399056
 20
-1425.0
 30
0.0
 11
12067.0
 21
-1415.696903990553
 31
0.0
1001
ACAD
1010
0.0
1020
0.0
1030
0.0
1001
ACDBBLOCKREPETAG
1070
     1
1071
       54
1005
11E5E8
  0
LINE
  5
11E5E9
  8
OBJECT
 10
11932.999999999991
 20
-1424.9999999999959
 30
0.0
 11
12067.0
 21
-1425.0
 31
0.0
1001
ACDBBLOCKREPETAG
1070
     1
1071
        1
1005
11E5E9
  0
LINE
  5
11E5EA
  8
OBJECT
 10
11914.999999999991
 20
-755.0
 30
0.0
 11
11915.0
 21
-1257.699682809141
 31
0.0
1001
ACDBBLOCKREPETAG
1070
     1
1071
        2
1005
11E5EA
  0
LINE
  5
11E5EB
  8
OBJECT
 10
12085.000000000009
 20
-755.0
 30
0.0
 11
12085.0
 21
-1257.6996828091719
 31
0.0
1001
ACDBBLOCKREPETAG
1070
     1
1071
        3
1005
11E5EB
  0
LINE
  5
11E5EC
  8
OBJECT
 10
11915.0
 20
-1257.699682809141
 30
0.0
 11
11932.999999999991
 21
-1385.699682809081
 31
0.0
1001
ACDBBLOCKREPETAG
1070
     1
1071
        4
1005
11E5EC
  0
LINE
  5
11E5ED
  8
OBJECT
 10
12067.0
 20
-1385.6996828091289
 30
0.0
 11
12085.0
 21
-1257.6996828091719
 31
0.0
1001
ACDBBLOCKREPETAG
1070
     1
1071
        5
1005
11E5ED
  0
LINE
  5
11E5EE
  8
OBJECT
 10
12085.000000000009
 20
-755.0
 30
0.0
 11
11914.999999999991
 21
-755.0
 31
0.0
1001
ACDBBLOCKREPETAG
1070
     1
1071
        6
1005
11E5EE
  0
LINE
  5
11E5EF
  8
OBJECT
 10
11932.999999999991
 20
-1385.699682809081
 30
0.0
 11
11932.999999999991
 21
-1424.9999999999959
 31
0.0
1001
ACDBBLOCKREPETAG
1070
     1
1071
        8
1005
11E5EF
  0
LINE
  5
11E5F0
  8
OBJECT
 10
12067.0
 20
-1385.6996828091289
 30
0.0
 11
12067.0
 21
-1425.0
 31
0.0
1001
ACDBBLOCKREPETAG
1070
     1
1071
        9
1005
11E5F0
  0
LINE
  5
11E5F1
  8
SLIM
 10
9914.9999999999927
 20
-759.47385309434753
 30
0.0
 11
9919.4738530943396
 21
-755.0
 31
0.0
1001
ACAD
1010
0.0
1020
0.0
1030
0.0
1001
ACDBBLOCKREPETAG
1070
     1
1071
        0
1005
0
  0
LINE
  5
11E5F2
  8
SLIM
 10
9914.9999999999927
 20
-777.4343653364856
 30
0.0
 11
9937.4343653364795
 21
-755.0
 31
0.0
1001
ACAD
1010
0.0
1020
0.0
1030
0.0
1001
ACDBBLOCKREPETAG
1070
     1
1071
       10
1005
11E5F2
  0
LINE
  5
11E5F3
  8
SLIM
 10
9914.9999999999927
 20
-795.39487757862355
 30
0.0
 11
9955.3948775786212
 21
-755.0
 31
0.0
1001
ACAD
1010
0.0
1020
0.0
1030
0.0
1001
ACDBBLOCKREPETAG
1070
     1
1071
       11
1005
11E5F3
  0
LINE
  5
11E5F4
  8
SLIM
 10
9914.9999999999927
 20
-813.35538982076173
 30
0.0
 11
9973.3553898207556
 21
-755.0
 31
0.0
1001
ACAD
1010
0.0
1020
0.0
1030
0.0
1001
ACDBBLOCKREPETAG
1070
     1
1071
       12
1005
11E5F4
  0
LINE
  5
11E5F5
  8
SLIM
 10
9914.9999999999945
 20
-831.31590206289945
 30
0.0
 11
9991.3159020628937
 21
-755.0
 31
0.0
1001
ACAD
1010
0.0
1020
0.0
1030
0.0
1001
ACDBBLOCKREPETAG
1070
     1
1071
       13
1005
11E5F5
  0
LINE
  5
11E5F6
  8
SLIM
 10
9914.9999999999945
 20
-849.27641430503763
 30
0.0
 11
10009.27641430503
 21
-755.0
 31
0.0
1001
ACAD
1010
0.0
1020
0.0
1030
0.0
1001
ACDBBLOCKREPETAG
1070
     1
1071
       14
1005
11E5F6
  0
LINE
  5
11E5F7
  8
SLIM
 10
9914.9999999999945
 20
-867.23692654717593
 30
0.0
 11
10027.23692654717
 21
-755.0
 31
0.0
1001
ACAD
1010
0.0
1020
0.0
1030
0.0
1001
ACDBBLOCKREPETAG
1070
     1
1071
       15
1005
11E5F7
  0
LINE
  5
11E5F8
  8
SLIM
 10
9914.9999999999945
 20
-885.19743878931376
 30
0.0
 11
10045.19743878931
 21
-755.0
 31
0.0
1001
ACAD
1010
0.0
1020
0.0
1030
0.0
1001
ACDBBLOCKREPETAG
1070
     1
1071
       16
1005
11E5F8
  0
LINE
  5
11E5F9
  8
SLIM
 10
9914.9999999999945
 20
-903.15795103145194
 30
0.0
 11
10063.15795103144
 21
-755.0
 31
0.0
1001
ACAD
1010
0.0
1020
0.0
1030
0.0
1001
ACDBBLOCKREPETAG
1070
     1
1071
       17
1005
11E5F9
  0
LINE
  5
11E5FA
  8
SLIM
 10
9914.9999999999945
 20
-921.11846327358978
 30
0.0
 11
10081.11846327358
 21
-755.0
 31
0.0
1001
ACAD
1010
0.0
1020
0.0
1030
0.0
1001
ACDBBLOCKREPETAG
1070
     1
1071
       18
1005
11E5FA
  0
LINE
  5
11E5FB
  8
SLIM
 10
9914.9999999999945
 20
-939.07897551572796
 30
0.0
 11
10085.000000000009
 21
-769.07897551571648
 31
0.0
1001
ACAD
1010
0.0
1020
0.0
1030
0.0
1001
ACDBBLOCKREPETAG
1070
     1
1071
       19
1005
11E5FB
  0
LINE
  5
11E5FC
  8
SLIM
 10
9914.9999999999964
 20
-957.0394877578658
 30
0.0
 11
10085.000000000009
 21
-787.03948775785511
 31
0.0
1001
ACAD
1010
0.0
1020
0.0
1030
0.0
1001
ACDBBLOCKREPETAG
1070
     1
1071
       20
1005
11E5FC
  0
LINE
  5
11E5FD
  8
SLIM
 10
9914.9999999999964
 20
-975.00000000000398
 30
0.0
 11
10085.0
 21
-804.99999999999363
 31
0.0
1001
ACAD
1010
0.0
1020
0.0
1030
0.0
1001
ACDBBLOCKREPETAG
1070
     1
1071
       21
1005
11E5FD
  0
LINE
  5
11E5FE
  8
SLIM
 10
9914.9999999999964
 20
-992.96051224214204
 30
0.0
 11
10085.0
 21
-822.96051224213215
 31
0.0
1001
ACAD
1010
0.0
1020
0.0
1030
0.0
1001
ACDBBLOCKREPETAG
1070
     1
1071
       22
1005
11E5FE
  0
LINE
  5
11E5FF
  8
SLIM
 10
9914.9999999999964
 20
-1010.92102448428
 30
0.0
 11
10085.0
 21
-840.92102448427045
 31
0.0
1001
ACAD
1010
0.0
1020
0.0
1030
0.0
1001
ACDBBLOCKREPETAG
1070
     1
1071
       23
1005
11E5FF
  0
LINE
  5
11E600
  8
SLIM
 10
9914.9999999999964
 20
-1028.8815367264181
 30
0.0
 11
10085.0
 21
-858.88153672640931
 31
0.0
1001
ACAD
1010
0.0
1020
0.0
1030
0.0
1001
ACDBBLOCKREPETAG
1070
     1
1071
       24
1005
11E600
  0
LINE
  5
11E601
  8
SLIM
 10
9914.9999999999964
 20
-1046.8420489685559
 30
0.0
 11
10085.0
 21
-876.84204896854783
 31
0.0
1001
ACAD
1010
0.0
1020
0.0
1030
0.0
1001
ACDBBLOCKREPETAG
1070
     1
1071
       25
1005
11E601
  0
LINE
  5
11E602
  8
SLIM
 10
9914.9999999999964
 20
-1064.802561210694
 30
0.0
 11
10085.0
 21
-894.80256121068624
 31
0.0
1001
ACAD
1010
0.0
1020
0.0
1030
0.0
1001
ACDBBLOCKREPETAG
1070
     1
1071
       26
1005
11E602
  0
LINE
  5
11E603
  8
SLIM
 10
9914.9999999999982
 20
-1082.763073452832
 30
0.0
 11
10085.0
 21
-912.76307345282476
 31
0.0
1001
ACAD
1010
0.0
1020
0.0
1030
0.0
1001
ACDBBLOCKREPETAG
1070
     1
1071
       27
1005
11E603
  0
LINE
  5
11E604
  8
SLIM
 10
9914.9999999999982
 20
-1100.7235856949701
 30
0.0
 11
10085.0
 21
-930.72358569496362
 31
0.0
1001
ACAD
1010
0.0
1020
0.0
1030
0.0
1001
ACDBBLOCKREPETAG
1070
     1
1071
       28
1005
11E604
  0
LINE
  5
11E605
  8
SLIM
 10
9914.9999999999982
 20
-1118.6840979371079
 30
0.0
 11
10085.0
 21
-948.68409793710202
 31
0.0
1001
ACAD
1010
0.0
1020
0.0
1030
0.0
1001
ACDBBLOCKREPETAG
1070
     1
1071
       29
1005
11E605
  0
LINE
  5
11E606
  8
SLIM
 10
9914.9999999999982
 20
-1136.644610179246
 30
0.0
 11
10085.0
 21
-966.64461017924043
 31
0.0
1001
ACAD
1010
0.0
1020
0.0
1030
0.0
1001
ACDBBLOCKREPETAG
1070
     1
1071
       30
1005
11E606
  0
LINE
  5
11E607
  8
SLIM
 10
9914.9999999999982
 20
-1154.6051224213841
 30
0.0
 11
10085.0
 21
-984.60512242137895
 31
0.0
1001
ACAD
1010
0.0
1020
0.0
1030
0.0
1001
ACDBBLOCKREPETAG
1070
     1
1071
       31
1005
11E607
  0
LINE
  5
11E608
  8
SLIM
 10
9914.9999999999982
 20
-1172.5656346635219
 30
0.0
 11
10085.0
 21
-1002.565634663517
 31
0.0
1001
ACAD
1010
0.0
1020
0.0
1030
0.0
1001
ACDBBLOCKREPETAG
1070
     1
1071
       32
1005
11E608
  0
LINE
  5
11E609
  8
SLIM
 10
9914.9999999999982
 20
-1190.52614690566
 30
0.0
 11
10085.0
 21
-1020.526146905656
 31
0.0
1001
ACAD
1010
0.0
1020
0.0
1030
0.0
1001
ACDBBLOCKREPETAG
1070
     1
1071
       33
1005
11E609
  0
LINE
  5
11E60A
  8
SLIM
 10
9915.0
 20
-1208.4866591477989
 30
0.0
 11
10085.0
 21
-1038.4866591477951
 31
0.0
1001
ACAD
1010
0.0
1020
0.0
1030
0.0
1001
ACDBBLOCKREPETAG
1070
     1
1071
       34
1005
11E60A
  0
LINE
  5
11E60B
  8
SLIM
 10
9915.0
 20
-1226.447171389937
 30
0.0
 11
10085.0
 21
-1056.447171389932
 31
0.0
1001
ACAD
1010
0.0
1020
0.0
1030
0.0
1001
ACDBBLOCKREPETAG
1070
     1
1071
       35
1005
11E60B
  0
LINE
  5
11E60C
  8
SLIM
 10
9915.0
 20
-1244.4076836320751
 30
0.0
 11
10085.0
 21
-1074.4076836320719
 31
0.0
1001
ACAD
1010
0.0
1020
0.0
1030
0.0
1001
ACDBBLOCKREPETAG
1070
     1
1071
       36
1005
11E60C
  0
LINE
  5
11E60D
  8
SLIM
 10
9915.5755701039125
 20
-1261.7926257703
 30
0.0
 11
10085.0
 21
-1092.36819587421
 31
0.0
1001
ACAD
1010
0.0
1020
0.0
1030
0.0
1001
ACDBBLOCKREPETAG
1070
     1
1071
       37
1005
11E60D
  0
LINE
  5
11E60E
  8
SLIM
 10
9917.7898798323986
 20
-1277.5388282839549
 30
0.0
 11
10085.0
 21
-1110.328708116348
 31
0.0
1001
ACAD
1010
0.0
1020
0.0
1030
0.0
1001
ACDBBLOCKREPETAG
1070
     1
1071
       38
1005
11E60E
  0
LINE
  5
11E60F
  8
SLIM
 10
9920.0041895608792
 20
-1293.28503079761
 30
0.0
 11
10085.0
 21
-1128.289220358487
 31
0.0
1001
ACAD
1010
0.0
1020
0.0
1030
0.0
1001
ACDBBLOCKREPETAG
1070
     1
1071
       39
1005
11E60F
  0
LINE
  5
11E610
  8
SLIM
 10
9922.2184992893599
 20
-1309.0312333112661
 30
0.0
 11
10085.0
 21
-1146.249732600626
 31
0.0
1001
ACAD
1010
0.0
1020
0.0
1030
0.0
1001
ACDBBLOCKREPETAG
1070
     1
1071
       40
1005
11E610
  0
LINE
  5
11E611
  8
SLIM
 10
9924.4328090178442
 20
-1324.777435824921
 30
0.0
 11
10085.0
 21
-1164.210244842765
 31
0.0
1001
ACAD
1010
0.0
1020
0.0
1030
0.0
1001
ACDBBLOCKREPETAG
1070
     1
1071
       41
1005
11E611
  0
LINE
  5
11E612
  8
SLIM
 10
9926.6471187463285
 20
-1340.523638338577
 30
0.0
 11
10085.0
 21
-1182.170757084903
 31
0.0
1001
ACAD
1010
0.0
1020
0.0
1030
0.0
1001
ACDBBLOCKREPETAG
1070
     1
1071
       42
1005
11E612
  0
LINE
  5
11E613
  8
SLIM
 10
9928.8614284748091
 20
-1356.2698408522319
 30
0.0
 11
10085.0
 21
-1200.131269327042
 31
0.0
1001
ACAD
1010
0.0
1020
0.0
1030
0.0
1001
ACDBBLOCKREPETAG
1070
     1
1071
       43
1005
11E613
  0
LINE
  5
11E614
  8
SLIM
 10
9931.0757382032916
 20
-1372.0160433658871
 30
0.0
 11
10085.0
 21
-1218.0917815691801
 31
0.0
1001
ACAD
1010
0.0
1020
0.0
1030
0.0
1001
ACDBBLOCKREPETAG
1070
     1
1071
       44
1005
11E614
  0
LINE
  5
11E615
  8
SLIM
 10
9932.9999999999927
 20
-1388.0522938113261
 30
0.0
 11
10085.0
 21
-1236.052293811319
 31
0.0
1001
ACAD
1010
0.0
1020
0.0
1030
0.0
1001
ACDBBLOCKREPETAG
1070
     1
1071
       45
1005
11E615
  0
LINE
  5
11E616
  8
SLIM
 10
9932.9999999999927
 20
-1406.0128060534651
 30
0.0
 11
10085.0
 21
-1254.0128060534571
 31
0.0
1001
ACAD
1010
0.0
1020
0.0
1030
0.0
1001
ACDBBLOCKREPETAG
1070
     1
1071
       46
1005
11E616
  0
LINE
  5
11E617
  8
SLIM
 10
9932.9999999999927
 20
-1423.973318295602
 30
0.0
 11
10082.664314193131
 21
-1274.3090041024641
 31
0.0
1001
ACAD
1010
0.0
1020
0.0
1030
0.0
1001
ACDBBLOCKREPETAG
1070
     1
1071
       47
1005
11E617
  0
LINE
  5
11E618
  8
SLIM
 10
9949.9338305377387
 20
-1424.999999999997
 30
0.0
 11
10079.725321280779
 21
-1295.2085092569521
 31
0.0
1001
ACAD
1010
0.0
1020
0.0
1030
0.0
1001
ACDBBLOCKREPETAG
1070
     1
1071
       48
1005
11E618
  0
LINE
  5
11E619
  8
SLIM
 10
9967.8943427798768
 20
-1424.999999999997
 30
0.0
 11
10076.786328368429
 21
-1316.1080144114389
 31
0.0
1001
ACAD
1010
0.0
1020
0.0
1030
0.0
1001
ACDBBLOCKREPETAG
1070
     1
1071
       49
1005
11E619
  0
LINE
  5
11E61A
  8
SLIM
 10
9985.8548550220112
 20
-1424.999999999998
 30
0.0
 11
10073.847335456079
 21
-1337.007519565926
 31
0.0
1001
ACAD
1010
0.0
1020
0.0
1030
0.0
1001
ACDBBLOCKREPETAG
1070
     1
1071
       50
1005
11E61A
  0
LINE
  5
11E61B
  8
SLIM
 10
10003.815367264149
 20
-1424.999999999998
 30
0.0
 11
10070.90834254372
 21
-1357.907024720414
 31
0.0
1001
ACAD
1010
0.0
1020
0.0
1030
0.0
1001
ACDBBLOCKREPETAG
1070
     1
1071
       51
1005
11E61B
  0
LINE
  5
11E61C
  8
SLIM
 10
10021.77587950628
 20
-1424.999999999998
 30
0.0
 11
10067.969349631379
 21
-1378.8065298749009
 31
0.0
1001
ACAD
1010
0.0
1020
0.0
1030
0.0
1001
ACDBBLOCKREPETAG
1070
     1
1071
       52
1005
11E61C
  0
LINE
  5
11E61D
  8
SLIM
 10
10039.736391748431
 20
-1424.9999999999991
 30
0.0
 11
10067.000000000009
 21
-1397.7363917484149
 31
0.0
1001
ACAD
1010
0.0
1020
0.0
1030
0.0
1001
ACDBBLOCKREPETAG
1070
     1
1071
       53
1005
11E61D
  0
LINE
  5
11E61E
  8
SLIM
 10
10057.69690399056
 20
-1425.0
 30
0.0
 11
10067.000000000009
 21
-1415.696903990553
 31
0.0
1001
ACAD
1010
0.0
1020
0.0
1030
0.0
1001
ACDBBLOCKREPETAG
1070
     1
1071
       54
1005
11E61E
  0
LINE
  5
11E61F
  8
OBJECT
 10
9932.9999999999927
 20
-1424.9999999999959
 30
0.0
 11
10067.000000000009
 21
-1425.0
 31
0.0
1001
ACDBBLOCKREPETAG
1070
     1
1071
        1
1005
11E61F
  0
LINE
  5
11E620
  8
OBJECT
 10
9914.9999999999927
 20
-755.0
 30
0.0
 11
9915.0
 21
-1257.699682809141
 31
0.0
1001
ACDBBLOCKREPETAG
1070
     1
1071
        2
1005
11E620
  0
LINE
  5
11E621
  8
OBJECT
 10
10085.000000000009
 20
-755.0
 30
0.0
 11
10085.0
 21
-1257.6996828091719
 31
0.0
1001
ACDBBLOCKREPETAG
1070
     1
1071
        3
1005
11E621
  0
LINE
  5
11E622
  8
OBJECT
 10
9915.0
 20
-1257.699682809141
 30
0.0
 11
9932.9999999999927
 21
-1385.699682809081
 31
0.0
1001
ACDBBLOCKREPETAG
1070
     1
1071
        4
1005
11E622
  0
LINE
  5
11E623
  8
OBJECT
 10
10067.000000000009
 20
-1385.6996828091289
 30
0.0
 11
10085.0
 21
-1257.6996828091719
 31
0.0
1001
ACDBBLOCKREPETAG
1070
     1
1071
        5
1005
11E623
  0
LINE
  5
11E624
  8
OBJECT
 10
10085.000000000009
 20
-755.0
 30
0.0
 11
9914.9999999999927
 21
-755.0
 31
0.0
1001
ACDBBLOCKREPETAG
1070
     1
1071
        6
1005
11E624
  0
LINE
  5
11E625
  8
OBJECT
 10
9932.9999999999927
 20
-1385.699682809081
 30
0.0
 11
9932.9999999999927
 21
-1424.9999999999959
 31
0.0
1001
ACDBBLOCKREPETAG
1070
     1
1071
        8
1005
11E625
  0
LINE
  5
11E626
  8
OBJECT
 10
10067.000000000009
 20
-1385.6996828091289
 30
0.0
 11
10067.000000000009
 21
-1425.0
 31
0.0
1001
ACDBBLOCKREPETAG
1070
     1
1071
        9
1005
11E626
  0
LINE
  5
11E627
  8
SLIM
 10
7914.9999999999918
 20
-759.47385309434753
 30
0.0
 11
7919.4738530943414
 21
-755.0
 31
0.0
1001
ACAD
1010
0.0
1020
0.0
1030
0.0
1001
ACDBBLOCKREPETAG
1070
     1
1071
        0
1005
0
  0
LINE
  5
11E628
  8
SLIM
 10
7914.9999999999918
 20
-777.4343653364856
 30
0.0
 11
7937.4343653364776
 21
-755.0
 31
0.0
1001
ACAD
1010
0.0
1020
0.0
1030
0.0
1001
ACDBBLOCKREPETAG
1070
     1
1071
       11
1005
11E628
  0
LINE
  5
11E629
  8
SLIM
 10
7914.9999999999918
 20
-795.39487757862355
 30
0.0
 11
7955.3948775786157
 21
-755.0
 31
0.0
1001
ACAD
1010
0.0
1020
0.0
1030
0.0
1001
ACDBBLOCKREPETAG
1070
     1
1071
       12
1005
11E629
  0
LINE
  5
11E62A
  8
SLIM
 10
7914.9999999999918
 20
-813.3553898207615
 30
0.0
 11
7973.3553898207538
 21
-755.0
 31
0.0
1001
ACAD
1010
0.0
1020
0.0
1030
0.0
1001
ACDBBLOCKREPETAG
1070
     1
1071
       13
1005
11E62A
  0
LINE
  5
11E62B
  8
SLIM
 10
7914.9999999999918
 20
-831.31590206289945
 30
0.0
 11
7991.3159020628918
 21
-755.0
 31
0.0
1001
ACAD
1010
0.0
1020
0.0
1030
0.0
1001
ACDBBLOCKREPETAG
1070
     1
1071
       14
1005
11E62B
  0
LINE
  5
11E62C
  8
SLIM
 10
7914.9999999999964
 20
-849.27641430503763
 30
0.0
 11
8009.2764143050308
 21
-755.0
 31
0.0
1001
ACAD
1010
0.0
1020
0.0
1030
0.0
1001
ACDBBLOCKREPETAG
1070
     1
1071
       15
1005
11E62C
  0
LINE
  5
11E62D
  8
SLIM
 10
7914.9999999999964
 20
-867.23692654717593
 30
0.0
 11
8027.2369265471707
 21
-755.0
 31
0.0
1001
ACAD
1010
0.0
1020
0.0
1030
0.0
1001
ACDBBLOCKREPETAG
1070
     1
1071
       16
1005
11E62D
  0
LINE
  5
11E62E
  8
SLIM
 10
7914.9999999999964
 20
-885.19743878931376
 30
0.0
 11
8045.1974387893079
 21
-755.0
 31
0.0
1001
ACAD
1010
0.0
1020
0.0
1030
0.0
1001
ACDBBLOCKREPETAG
1070
     1
1071
       17
1005
11E62E
  0
LINE
  5
11E62F
  8
SLIM
 10
7914.9999999999964
 20
-903.15795103145183
 30
0.0
 11
8063.1579510314468
 21
-755.0
 31
0.0
1001
ACAD
1010
0.0
1020
0.0
1030
0.0
1001
ACDBBLOCKREPETAG
1070
     1
1071
       18
1005
11E62F
  0
LINE
  5
11E630
  8
SLIM
 10
7914.9999999999982
 20
-921.11846327358978
 30
0.0
 11
8081.118463273584
 21
-755.0
 31
0.0
1001
ACAD
1010
0.0
1020
0.0
1030
0.0
1001
ACDBBLOCKREPETAG
1070
     1
1071
       19
1005
11E630
  0
LINE
  5
11E631
  8
SLIM
 10
7914.9999999999982
 20
-939.07897551572796
 30
0.0
 11
8085.0000000000064
 21
-769.07897551571637
 31
0.0
1001
ACAD
1010
0.0
1020
0.0
1030
0.0
1001
ACDBBLOCKREPETAG
1070
     1
1071
       20
1005
11E631
  0
LINE
  5
11E632
  8
SLIM
 10
7914.9999999999982
 20
-957.0394877578658
 30
0.0
 11
8085.0000000000064
 21
-787.03948775785511
 31
0.0
1001
ACAD
1010
0.0
1020
0.0
1030
0.0
1001
ACDBBLOCKREPETAG
1070
     1
1071
       21
1005
11E632
  0
LINE
  5
11E633
  8
SLIM
 10
7914.9999999999982
 20
-975.00000000000398
 30
0.0
 11
8085.0000000000064
 21
-804.99999999999363
 31
0.0
1001
ACAD
1010
0.0
1020
0.0
1030
0.0
1001
ACDBBLOCKREPETAG
1070
     1
1071
       22
1005
11E633
  0
LINE
  5
11E634
  8
SLIM
 10
7914.9999999999982
 20
-992.96051224214204
 30
0.0
 11
8085.0000000000064
 21
-822.96051224213215
 31
0.0
1001
ACAD
1010
0.0
1020
0.0
1030
0.0
1001
ACDBBLOCKREPETAG
1070
     1
1071
       23
1005
11E634
  0
LINE
  5
11E635
  8
SLIM
 10
7914.9999999999982
 20
-1010.92102448428
 30
0.0
 11
8085.0000000000064
 21
-840.92102448427045
 31
0.0
1001
ACAD
1010
0.0
1020
0.0
1030
0.0
1001
ACDBBLOCKREPETAG
1070
     1
1071
       24
1005
11E635
  0
LINE
  5
11E636
  8
SLIM
 10
7914.9999999999982
 20
-1028.8815367264181
 30
0.0
 11
8085.0000000000064
 21
-858.88153672640931
 31
0.0
1001
ACAD
1010
0.0
1020
0.0
1030
0.0
1001
ACDBBLOCKREPETAG
1070
     1
1071
       25
1005
11E636
  0
LINE
  5
11E637
  8
SLIM
 10
7914.9999999999982
 20
-1046.8420489685559
 30
0.0
 11
8085.0000000000064
 21
-876.84204896854783
 31
0.0
1001
ACAD
1010
0.0
1020
0.0
1030
0.0
1001
ACDBBLOCKREPETAG
1070
     1
1071
       26
1005
11E637
  0
LINE
  5
11E638
  8
SLIM
 10
7914.9999999999982
 20
-1064.802561210694
 30
0.0
 11
8085.0000000000064
 21
-894.80256121068624
 31
0.0
1001
ACAD
1010
0.0
1020
0.0
1030
0.0
1001
ACDBBLOCKREPETAG
1070
     1
1071
       27
1005
11E638
  0
LINE
  5
11E639
  8
SLIM
 10
7914.9999999999982
 20
-1082.763073452832
 30
0.0
 11
8085.0000000000064
 21
-912.76307345282476
 31
0.0
1001
ACAD
1010
0.0
1020
0.0
1030
0.0
1001
ACDBBLOCKREPETAG
1070
     1
1071
       28
1005
11E639
  0
LINE
  5
11E63A
  8
SLIM
 10
7914.9999999999982
 20
-1100.7235856949701
 30
0.0
 11
8085.0000000000064
 21
-930.72358569496362
 31
0.0
1001
ACAD
1010
0.0
1020
0.0
1030
0.0
1001
ACDBBLOCKREPETAG
1070
     1
1071
       29
1005
11E63A
  0
LINE
  5
11E63B
  8
SLIM
 10
7914.9999999999982
 20
-1118.6840979371079
 30
0.0
 11
8085.0000000000064
 21
-948.68409793710202
 31
0.0
1001
ACAD
1010
0.0
1020
0.0
1030
0.0
1001
ACDBBLOCKREPETAG
1070
     1
1071
       30
1005
11E63B
  0
LINE
  5
11E63C
  8
SLIM
 10
7914.9999999999982
 20
-1136.644610179246
 30
0.0
 11
8085.0000000000064
 21
-966.64461017924043
 31
0.0
1001
ACAD
1010
0.0
1020
0.0
1030
0.0
1001
ACDBBLOCKREPETAG
1070
     1
1071
       31
1005
11E63C
  0
LINE
  5
11E63D
  8
SLIM
 10
7914.9999999999982
 20
-1154.6051224213841
 30
0.0
 11
8085.0000000000018
 21
-984.60512242137895
 31
0.0
1001
ACAD
1010
0.0
1020
0.0
1030
0.0
1001
ACDBBLOCKREPETAG
1070
     1
1071
       32
1005
11E63D
  0
LINE
  5
11E63E
  8
SLIM
 10
7914.9999999999982
 20
-1172.5656346635219
 30
0.0
 11
8085.0000000000018
 21
-1002.565634663517
 31
0.0
1001
ACAD
1010
0.0
1020
0.0
1030
0.0
1001
ACDBBLOCKREPETAG
1070
     1
1071
       33
1005
11E63E
  0
LINE
  5
11E63F
  8
SLIM
 10
7914.9999999999982
 20
-1190.52614690566
 30
0.0
 11
8085.0000000000018
 21
-1020.526146905656
 31
0.0
1001
ACAD
1010
0.0
1020
0.0
1030
0.0
1001
ACDBBLOCKREPETAG
1070
     1
1071
       34
1005
11E63F
  0
LINE
  5
11E640
  8
SLIM
 10
7914.9999999999982
 20
-1208.4866591477989
 30
0.0
 11
8085.0000000000018
 21
-1038.4866591477951
 31
0.0
1001
ACAD
1010
0.0
1020
0.0
1030
0.0
1001
ACDBBLOCKREPETAG
1070
     1
1071
       35
1005
11E640
  0
LINE
  5
11E641
  8
SLIM
 10
7914.9999999999982
 20
-1226.447171389937
 30
0.0
 11
8085.0000000000018
 21
-1056.447171389932
 31
0.0
1001
ACAD
1010
0.0
1020
0.0
1030
0.0
1001
ACDBBLOCKREPETAG
1070
     1
1071
       36
1005
11E641
  0
LINE
  5
11E642
  8
SLIM
 10
7915.0
 20
-1244.4076836320751
 30
0.0
 11
8085.0000000000018
 21
-1074.4076836320719
 31
0.0
1001
ACAD
1010
0.0
1020
0.0
1030
0.0
1001
ACDBBLOCKREPETAG
1070
     1
1071
       37
1005
11E642
  0
LINE
  5
11E643
  8
SLIM
 10
7915.5755701039097
 20
-1261.7926257703
 30
0.0
 11
8085.0000000000018
 21
-1092.36819587421
 31
0.0
1001
ACAD
1010
0.0
1020
0.0
1030
0.0
1001
ACDBBLOCKREPETAG
1070
     1
1071
       38
1005
11E643
  0
LINE
  5
11E644
  8
SLIM
 10
7917.7898798323949
 20
-1277.538828283956
 30
0.0
 11
8085.0000000000018
 21
-1110.328708116348
 31
0.0
1001
ACAD
1010
0.0
1020
0.0
1030
0.0
1001
ACDBBLOCKREPETAG
1070
     1
1071
       39
1005
11E644
  0
LINE
  5
11E645
  8
SLIM
 10
7920.0041895608774
 20
-1293.28503079761
 30
0.0
 11
8085.0000000000018
 21
-1128.289220358487
 31
0.0
1001
ACAD
1010
0.0
1020
0.0
1030
0.0
1001
ACDBBLOCKREPETAG
1070
     1
1071
       40
1005
11E645
  0
LINE
  5
11E646
  8
SLIM
 10
7922.2184992893599
 20
-1309.031233311267
 30
0.0
 11
8085.0000000000018
 21
-1146.249732600626
 31
0.0
1001
ACAD
1010
0.0
1020
0.0
1030
0.0
1001
ACDBBLOCKREPETAG
1070
     1
1071
       41
1005
11E646
  0
LINE
  5
11E647
  8
SLIM
 10
7924.4328090178433
 20
-1324.777435824923
 30
0.0
 11
8085.0
 21
-1164.210244842765
 31
0.0
1001
ACAD
1010
0.0
1020
0.0
1030
0.0
1001
ACDBBLOCKREPETAG
1070
     1
1071
       42
1005
11E647
  0
LINE
  5
11E648
  8
SLIM
 10
7926.647118746323
 20
-1340.5236383385779
 30
0.0
 11
8085.0
 21
-1182.170757084903
 31
0.0
1001
ACAD
1010
0.0
1020
0.0
1030
0.0
1001
ACDBBLOCKREPETAG
1070
     1
1071
       43
1005
11E648
  0
LINE
  5
11E649
  8
SLIM
 10
7928.8614284748082
 20
-1356.269840852234
 30
0.0
 11
8085.0
 21
-1200.131269327042
 31
0.0
1001
ACAD
1010
0.0
1020
0.0
1030
0.0
1001
ACDBBLOCKREPETAG
1070
     1
1071
       44
1005
11E649
  0
LINE
  5
11E64A
  8
SLIM
 10
7931.0757382032898
 20
-1372.01604336589
 30
0.0
 11
8085.0
 21
-1218.0917815691801
 31
0.0
1001
ACAD
1010
0.0
1020
0.0
1030
0.0
1001
ACDBBLOCKREPETAG
1070
     1
1071
       45
1005
11E64A
  0
LINE
  5
11E64B
  8
SLIM
 10
7936.0522938113209
 20
-1385.0
 30
0.0
 11
8085.0
 21
-1236.052293811319
 31
0.0
1001
ACAD
1010
0.0
1020
0.0
1030
0.0
1001
ACDBBLOCKREPETAG
1070
     1
1071
       46
1005
11E64B
  0
LINE
  5
11E64C
  8
SLIM
 10
7943.0
 20
-1396.0128060534571
 30
0.0
 11
7954.0128060534598
 21
-1385.0
 31
0.0
1001
ACAD
1010
0.0
1020
0.0
1030
0.0
1001
ACDBBLOCKREPETAG
1070
     1
1071
       47
1005
11E64C
  0
LINE
  5
11E64D
  8
SLIM
 10
7954.0128060534598
 20
-1385.0
 30
0.0
 11
8085.0
 21
-1254.0128060534571
 31
0.0
1001
ACAD
1010
0.0
1020
0.0
1030
0.0
1001
ACDBBLOCKREPETAG
1070
     1
1071
       48
1005
11E64D
  0
LINE
  5
11E64E
  8
SLIM
 10
7946.973318295597
 20
-1410.0
 30
0.0
 11
7971.9733182955979
 21
-1385.0
 31
0.0
1001
ACAD
1010
0.0
1020
0.0
1030
0.0
1001
ACDBBLOCKREPETAG
1070
     1
1071
       49
1005
11E64E
  0
LINE
  5
11E64F
  8
SLIM
 10
7971.9733182955979
 20
-1385.0
 30
0.0
 11
8082.664314193129
 21
-1274.309004102465
 31
0.0
1001
ACAD
1010
0.0
1020
0.0
1030
0.0
1001
ACDBBLOCKREPETAG
1070
     1
1071
       50
1005
11E64F
  0
LINE
  5
11E650
  8
SLIM
 10
7964.9338305377341
 20
-1410.0
 30
0.0
 11
7989.9338305377341
 21
-1385.0
 31
0.0
1001
ACAD
1010
0.0
1020
0.0
1030
0.0
1001
ACDBBLOCKREPETAG
1070
     1
1071
       51
1005
11E650
  0
LINE
  5
11E651
  8
SLIM
 10
7989.9338305377341
 20
-1385.0
 30
0.0
 11
8079.7253212807827
 21
-1295.208509256953
 31
0.0
1001
ACAD
1010
0.0
1020
0.0
1030
0.0
1001
ACDBBLOCKREPETAG
1070
     1
1071
       52
1005
11E651
  0
LINE
  5
11E652
  8
SLIM
 10
7982.8943427798713
 20
-1410.0
 30
0.0
 11
8007.8943427798722
 21
-1385.0
 31
0.0
1001
ACAD
1010
0.0
1020
0.0
1030
0.0
1001
ACDBBLOCKREPETAG
1070
     1
1071
       53
1005
11E652
  0
LINE
  5
11E653
  8
SLIM
 10
8007.8943427798722
 20
-1385.0
 30
0.0
 11
8076.786328368431
 21
-1316.108014411441
 31
0.0
1001
ACAD
1010
0.0
1020
0.0
1030
0.0
1001
ACDBBLOCKREPETAG
1070
     1
1071
       54
1005
11E653
  0
LINE
  5
11E654
  8
SLIM
 10
8000.8548550220103
 20
-1410.0
 30
0.0
 11
8025.8548550220094
 21
-1385.0
 31
0.0
1001
ACAD
1010
0.0
1020
0.0
1030
0.0
1001
ACDBBLOCKREPETAG
1070
     1
1071
       55
1005
11E654
  0
LINE
  5
11E655
  8
SLIM
 10
8025.8548550220094
 20
-1385.0
 30
0.0
 11
8073.8473354560829
 21
-1337.007519565929
 31
0.0
1001
ACAD
1010
0.0
1020
0.0
1030
0.0
1001
ACDBBLOCKREPETAG
1070
     1
1071
       56
1005
11E655
  0
LINE
  5
11E656
  8
SLIM
 10
8018.8153672641492
 20
-1410.0
 30
0.0
 11
8043.8153672641502
 21
-1385.0
 31
0.0
1001
ACAD
1010
0.0
1020
0.0
1030
0.0
1001
ACDBBLOCKREPETAG
1070
     1
1071
       57
1005
11E656
  0
LINE
  5
11E657
  8
SLIM
 10
8043.8153672641502
 20
-1385.0
 30
0.0
 11
8070.9083425437329
 21
-1357.907024720417
 31
0.0
1001
ACAD
1010
0.0
1020
0.0
1030
0.0
1001
ACDBBLOCKREPETAG
1070
     1
1071
       58
1005
11E657
  0
LINE
  5
11E658
  8
SLIM
 10
8036.7758795062846
 20
-1410.0
 30
0.0
 11
8057.0
 21
-1389.7758795062871
 31
0.0
1001
ACAD
1010
0.0
1020
0.0
1030
0.0
1001
ACDBBLOCKREPETAG
1070
     1
1071
       59
1005
11E658
  0
LINE
  5
11E659
  8
SLIM
 10
8061.7758795062846
 20
-1385.0
 30
0.0
 11
8067.9693496313812
 21
-1378.806529874905
 31
0.0
1001
ACAD
1010
0.0
1020
0.0
1030
0.0
1001
ACDBBLOCKREPETAG
1070
     1
1071
       60
1005
11E659
  0
LINE
  5
11E65A
  8
SLIM
 10
8054.7363917484254
 20
-1410.0
 30
0.0
 11
8057.0
 21
-1407.7363917484261
 31
0.0
1001
ACAD
1010
0.0
1020
0.0
1030
0.0
1001
ACDBBLOCKREPETAG
1070
     1
1071
       61
1005
11E65A
  0
LINE
  5
11E65B
  8
OBJECT
 10
7943.0
 20
-1410.0
 30
0.0
 11
8057.0
 21
-1410.0
 31
0.0
1001
ACDBBLOCKREPETAG
1070
     1
1071
        1
1005
11E65B
  0
LINE
  5
11E65C
  8
OBJECT
 10
7932.9016071049627
 20
-1385.0
 30
0.0
 11
8067.09839289504
 21
-1385.0
 31
0.0
1001
ACDBBLOCKREPETAG
1070
     1
1071
        2
1005
11E65C
  0
LINE
  5
11E65D
  8
OBJECT
 10
7943.0
 20
-1410.0
 30
0.0
 11
7943.0
 21
-1385.0
 31
0.0
1001
ACDBBLOCKREPETAG
1070
     1
1071
        3
1005
11E65D
  0
LINE
  5
11E65E
  8
OBJECT
 10
8057.0
 20
-1410.0
 30
0.0
 11
8057.0
 21
-1385.0
 31
0.0
1001
ACDBBLOCKREPETAG
1070
     1
1071
        4
1005
11E65E
  0
LINE
  5
11E65F
  8
OBJECT
 10
7914.9999999999918
 20
-755.0
 30
0.0
 11
7915.0
 21
-1257.699682809143
 31
0.0
1001
ACDBBLOCKREPETAG
1070
     1
1071
        5
1005
11E65F
  0
LINE
  5
11E660
  8
OBJECT
 10
8085.0000000000064
 20
-755.0
 30
0.0
 11
8085.0
 21
-1257.6996828091719
 31
0.0
1001
ACDBBLOCKREPETAG
1070
     1
1071
        6
1005
11E660
  0
LINE
  5
11E661
  8
OBJECT
 10
7915.0
 20
-1257.699682809143
 30
0.0
 11
7932.9016071049627
 21
-1385.0
 31
0.0
1001
ACDBBLOCKREPETAG
1070
     1
1071
        7
1005
11E661
  0
LINE
  5
11E662
  8
OBJECT
 10
8067.09839289504
 20
-1385.0
 30
0.0
 11
8085.0
 21
-1257.6996828091719
 31
0.0
1001
ACDBBLOCKREPETAG
1070
     1
1071
        8
1005
11E662
  0
LINE
  5
11E663
  8
OBJECT
 10
8085.0000000000064
 20
-755.0
 30
0.0
 11
7914.9999999999918
 21
-755.0
 31
0.0
1001
ACDBBLOCKREPETAG
1070
     1
1071
        9
1005
11E663
  0
LINE
  5
11E664
  8
OBJECT
 10
1923.0
 20
-571.0
 30
0.0
 11
1923.0
 21
-550.0
 31
0.0
1001
ACDBBLOCKREPETAG
1070
     1
1071
       38
1005
11E664
  0
LINE
  5
11E665
  8
OBJECT
 10
1923.0
 20
-550.0
 30
0.0
 11
2077.0
 21
-550.0
 31
0.0
1001
ACDBBLOCKREPETAG
1070
     1
1071
       39
1005
11E665
  0
LINE
  5
11E666
  8
HIDDEN
 10
1943.0
 20
-620.0
 30
0.0
 11
2057.0
 21
-620.0
 31
0.0
1001
ACDBBLOCKREPETAG
1070
     1
1071
       40
1005
11E666
  0
LINE
  5
11E667
  8
OBJECT
 10
2077.0
 20
-550.0
 30
0.0
 11
2077.0
 21
-571.0
 31
0.0
1001
ACDBBLOCKREPETAG
1070
     1
1071
       41
1005
11E667
  0
LINE
  5
11E668
  8
OBJECT
 10
2077.0
 20
-571.0
 30
0.0
 11
1923.0
 21
-571.0
 31
0.0
1001
ACDBBLOCKREPETAG
1070
     1
1071
       42
1005
11E668
  0
LINE
  5
11E669
  8
CENTER
 10
2000.0
 20
-535.0
 30
0.0
 11
2000.0
 21
-890.0
 31
0.0
1001
ACDBBLOCKREPETAG
1070
     1
1071
       43
1005
11E669
  0
LINE
  5
11E66A
  8
OBJECT
 10
1928.0
 20
-571.0
 30
0.0
 11
1928.0
 21
-634.0
 31
0.0
1001
ACDBBLOCKREPETAG
1070
     1
1071
       44
1005
11E66A
  0
LINE
  5
11E66B
  8
OBJECT
 10
2072.0
 20
-634.0
 30
0.0
 11
2072.0
 21
-571.0
 31
0.0
1001
ACDBBLOCKREPETAG
1070
     1
1071
       45
1005
11E66B
  0
LINE
  5
11E66C
  8
OBJECT
 10
1920.0
 20
-878.0
 30
0.0
 11
2080.0
 21
-878.0
 31
0.0
1001
ACDBBLOCKREPETAG
1070
     1
1071
       46
1005
11E66C
  0
LINE
  5
11E66D
  8
OBJECT
 10
2080.0
 20
-634.0
 30
0.0
 11
1920.0
 21
-634.0
 31
0.0
1001
ACDBBLOCKREPETAG
1070
     1
1071
       47
1005
11E66D
  0
LINE
  5
11E66E
  8
OBJECT
 10
1920.0
 20
-878.0
 30
0.0
 11
1920.0
 21
-890.0
 31
0.0
1001
ACDBBLOCKREPETAG
1070
     1
1071
       48
1005
11E66E
  0
LINE
  5
11E66F
  8
OBJECT
 10
1920.0
 20
-890.0
 30
0.0
 11
2080.0
 21
-890.0
 31
0.0
1001
ACDBBLOCKREPETAG
1070
     1
1071
       49
1005
11E66F
  0
LINE
  5
11E670
  8
OBJECT
 10
2080.0
 20
-890.0
 30
0.0
 11
2080.0
 21
-878.0
 31
0.0
1001
ACDBBLOCKREPETAG
1070
     1
1071
       50
1005
11E670
  0
LINE
  5
11E671
  8
OBJECT
 10
2074.9999999998622
 20
-757.99999999985096
 30
0.0
 11
2075.0
 21
-878.0
 31
0.0
1001
ACDBBLOCKREPETAG
1070
     1
1071
       54
1005
11E671
  0
LINE
  5
11E672
  8
OBJECT
 10
2074.9999908029849
 20
-757.99998602702181
 30
0.0
 11
2080.0
 21
-757.99998602702181
 31
0.0
1001
ACDBBLOCKREPETAG
1070
     1
1071
       55
1005
11E672
  0
LINE
  5
11E673
  8
OBJECT
 10
1925.000000000138
 20
-757.99999999985096
 30
0.0
 11
1925.0
 21
-878.0
 31
0.0
1001
ACDBBLOCKREPETAG
1070
     1
1071
       56
1005
11E673
  0
LINE
  5
11E674
  8
OBJECT
 10
1925.000009197013
 20
-757.99998602702181
 30
0.0
 11
1920.0
 21
-757.99998602702181
 31
0.0
1001
ACDBBLOCKREPETAG
1070
     1
1071
       57
1005
11E674
  0
ARC
  5
11E675
  8
OBJECT
 10
2200.6872746716731
 20
-749.40809941010752
 30
0.0
 40
170.6350503965856
 50
137.44134459184301
 51
149.91949581336559
1001
ACDBBLOCKREPETAG
1070
     1
1071
       58
1005
11E675
  0
ARC
  5
11E676
  8
OBJECT
 10
2200.6872746716731
 20
-642.59190058989225
 30
0.0
 40
170.6350503965856
 50
210.0805041866343
 51
222.55865540815699
1001
ACDBBLOCKREPETAG
1070
     1
1071
       59
1005
11E676
  0
ARC
  5
11E677
  8
OBJECT
 10
1799.312725328326
 20
-749.40809941010752
 30
0.0
 40
170.6350503965856
 50
30.080504186774089
 51
42.558655408382641
1001
ACDBBLOCKREPETAG
1070
     1
1071
       60
1005
11E677
  0
ARC
  5
11E678
  8
OBJECT
 10
1799.312725328326
 20
-642.59190058989225
 30
0.0
 40
170.6350503965856
 50
317.44134459161722
 51
329.91949581322592
1001
ACDBBLOCKREPETAG
1070
     1
1071
       61
1005
11E678
  0
POINT
  5
11E679
  8
DOTS
 10
2000.0
 20
-755.0
 30
0.0
1001
ACDBBLOCKREPETAG
1070
     1
1071
      185
1005
11E679
  0
TEXT
  5
11E67A
  8
SLIM
 10
0.0
 20
670.0
 30
0.0
 40
100.0
  1
4SLT2-Z606-P110-0-S
 41
0.75
  0
TEXT
  5
11E67B
  8
SLIM
 10
0.0
 20
520.0
 30
0.0
 40
100.0
  1
4SLT2-Z606-P110-0-W
 41
0.75
  0
LINE
  5
11E67C
  8
OBJECT
 10
1969.4199755553
 20
-243.89888500818171
 30
0.0
 11
1979.856491823236
 21
-222.48688253356801
 31
0.0
1001
ACDBBLOCKREPETAG
1070
     1
1071
      305
1005
11E67C
  0
LINE
  5
11E67D
  8
OBJECT
 10
1965.2972169006091
 20
-240.71813901882729
 30
0.0
 11
1973.907102266508
 21
-223.05373004430751
 31
0.0
1001
ACDBBLOCKREPETAG
1070
     1
1071
      306
1005
11E67D
  0
LINE
  5
11E67E
  8
OBJECT
 10
2024.102933093302
 20
-243.80694712371681
 30
0.0
 11
2020.659656999997
 21
-232.55462199999889
 31
0.0
1001
ACDBBLOCKREPETAG
1070
     1
1071
      307
1005
11E67E
  0
ARC
  5
11E67F
  8
OBJECT
 10
1976.579695307315
 20
-207.1289369828437
 30
0.0
 40
60.031113246032611
 50
314.07020130418567
 51
322.33936106091278
1001
ACDBBLOCKREPETAG
1070
     1
1071
      308
1005
11E67F
  0
LINE
  5
11E680
  8
OBJECT
 10
1986.7927499013749
 20
-218.22553374208019
 30
0.0
 11
2020.659656999997
 21
-232.5546219999969
 31
0.0
1001
ACDBBLOCKREPETAG
1070
     1
1071
      309
1005
11E680
  0
ARC
  5
11E681
  8
OBJECT
 10
1982.8961697619
 20
-227.4351299990567
 30
0.0
 40
10.0
 50
67.066778292923374
 51
154.0147343702935
1001
ACDBBLOCKREPETAG
1070
     1
1071
      310
1005
11E681
  0
ARC
  5
11E682
  8
OBJECT
 10
1986.1488390381271
 20
-225.55386256729159
 30
0.0
 40
7.0
 50
67.066778292923374
 51
154.01473377497121
1001
ACDBBLOCKREPETAG
1070
     1
1071
      311
1005
11E682
  0
CIRCLE
  5
11E683
  8
OBJECT
 10
2000.0
 20
-199.99999999999909
 30
0.0
 40
53.5
1001
ACDBBLOCKREPETAG
1070
     1
1071
      340
1005
11E683
  0
POINT
  5
11E684
  8
DOTS
 10
2000.0
 20
-199.99999999999909
 30
0.0
 50
270.0
1001
ACDBBLOCKREPETAG
1070
     1
1071
      153
1005
11E684
  0
ARC
  5
11E685
  8
OBJECT
 10
2000.0
 20
-199.99999999999909
 30
0.0
 40
50.0
 50
298.81994300000417
 51
228.52376955967449
1001
ACDBBLOCKREPETAG
1070
     1
1071
       48
1005
11E685
  0
LINE
  5
11E686
  8
CENTER
 10
2080.0
 20
-199.99999999999909
 30
0.0
 11
1920.0
 21
-199.99999999999909
 31
0.0
1001
ACDBBLOCKREPETAG
1070
     1
1071
       49
1005
11E686
  0
LINE
  5
11E687
  8
CENTER
 10
2000.0
 20
-279.99999999999909
 30
0.0
 11
2000.0
 21
-104.9999999999991
 31
0.0
1001
ACDBBLOCKREPETAG
1070
     1
1071
       50
1005
11E687
  0
CIRCLE
  5
11E688
  8
OBJECT
 10
2000.0
 20
-199.99999999999909
 30
0.0
 40
70.0
1001
ACDBBLOCKREPETAG
1070
     1
1071
       51
1005
11E688
  0
CIRCLE
  5
11E689
  8
OBJECT
 10
2000.0
 20
-199.99999999999909
 30
0.0
 40
77.0
1001
ACDBBLOCKREPETAG
1070
     1
1071
       52
1005
11E689
  0
ARC
  5
11E68A
  8
OBJECT
 10
2000.0
 20
-199.99999999999909
 30
0.0
 40
80.0
 50
50.805032573864182
 51
129.1949674261358
1001
ACDBBLOCKREPETAG
1070
     1
1071
       53
1005
11E68A
  0
LINE
  5
11E68B
  8
OBJECT
 10
2045.6618002273251
 20
-137.99999999999909
 30
0.0
 11
2080.0
 21
-137.99999999999909
 31
0.0
1001
ACDBBLOCKREPETAG
1070
     1
1071
       54
1005
11E68B
  0
LINE
  5
11E68C
  8
OBJECT
 10
2062.0
 20
-261.99999999999909
 30
0.0
 11
2080.0
 21
-261.99999999999909
 31
0.0
1001
ACDBBLOCKREPETAG
1070
     1
1071
       55
1005
11E68C
  0
LINE
  5
11E68D
  8
OBJECT
 10
2062.0
 20
-261.99999999999909
 30
0.0
 11
2062.0
 21
-279.99999999999909
 31
0.0
1001
ACDBBLOCKREPETAG
1070
     1
1071
       57
1005
11E68D
  0
LINE
  5
11E68E
  8
OBJECT
 10
1938.0
 20
-261.99999999999909
 30
0.0
 11
1938.0
 21
-279.99999999999909
 31
0.0
1001
ACDBBLOCKREPETAG
1070
     1
1071
       58
1005
11E68E
  0
LINE
  5
11E68F
  8
OBJECT
 10
1938.0
 20
-261.99999999999909
 30
0.0
 11
1920.0
 21
-261.99999999999909
 31
0.0
1001
ACDBBLOCKREPETAG
1070
     1
1071
       60
1005
11E68F
  0
LINE
  5
11E690
  8
OBJECT
 10
1954.3381997726749
 20
-137.99999999999909
 30
0.0
 11
1920.0
 21
-137.99999999999909
 31
0.0
1001
ACDBBLOCKREPETAG
1070
     1
1071
       61
1005
11E690
  0
LINE
  5
11E691
  8
OBJECT
 10
1945.5527778486351
 20
-254.44722215136329
 30
0.0
 11
1938.0
 21
-261.99999999999909
 31
0.0
1001
ACDBBLOCKREPETAG
1070
     1
1071
       42
1005
11E691
  0
LINE
  5
11E692
  8
OBJECT
 10
2054.4472221513638
 20
-254.44722215136329
 30
0.0
 11
2062.0
 21
-261.99999999999909
 31
0.0
1001
ACDBBLOCKREPETAG
1070
     1
1071
       43
1005
11E692
  0
LINE
  5
11E693
  8
OBJECT
 10
1797.0000000000141
 20
-261.99999999999909
 30
0.0
 11
1790.0000000000141
 21
-261.99999999999909
 31
0.0
1001
ACDBBLOCKREPETAG
1070
     1
1071
       85
1005
11E693
  0
LINE
  5
11E694
  8
OBJECT
 10
1790.0000000000141
 20
-261.99999999999909
 30
0.0
 11
1790.0000000000141
 21
-137.99999999999909
 31
0.0
1001
ACDBBLOCKREPETAG
1070
     1
1071
       86
1005
11E694
  0
LINE
  5
11E695
  8
OBJECT
 10
1790.0000000000141
 20
-137.99999999999909
 30
0.0
 11
1797.0000000000141
 21
-137.99999999999909
 31
0.0
1001
ACDBBLOCKREPETAG
1070
     1
1071
       87
1005
11E695
  0
LINE
  5
11E696
  8
OBJECT
 10
1797.0000000000141
 20
-137.99999999999909
 30
0.0
 11
1797.0000000000141
 21
-261.99999999999909
 31
0.0
1001
ACDBBLOCKREPETAG
1070
     1
1071
       88
1005
11E696
  0
LINE
  5
11E697
  8
CENTER
 10
1775.0000000000141
 20
-199.99999999999909
 30
0.0
 11
1920.0
 21
-199.99999999999909
 31
0.0
1001
ACDBBLOCKREPETAG
1070
     1
1071
       89
1005
11E697
  0
LINE
  5
11E698
  8
OBJECT
 10
1850.000025035813
 20
-154.9999999999954
 30
0.0
 11
1914.0
 21
-154.99999999999909
 31
0.0
1001
ACDBBLOCKREPETAG
1070
     1
1071
       90
1005
11E698
  0
LINE
  5
11E699
  8
OBJECT
 10
1850.000025035813
 20
-244.99999999999909
 30
0.0
 11
1914.0
 21
-244.99999999999909
 31
0.0
1001
ACDBBLOCKREPETAG
1070
     1
1071
       91
1005
11E699
  0
LINE
  5
11E69A
  8
OBJECT
 10
1797.0000000000141
 20
-258.99999999999909
 30
0.0
 11
1833.000000000015
 21
-258.99999999999909
 31
0.0
1001
ACDBBLOCKREPETAG
1070
     1
1071
       92
1005
11E69A
  0
LINE
  5
11E69B
  8
OBJECT
 10
1833.000000000015
 20
-258.99999999999909
 30
0.0
 11
1833.000000000015
 21
-140.99999999999909
 31
0.0
1001
ACDBBLOCKREPETAG
1070
     1
1071
       93
1005
11E69B
  0
LINE
  5
11E69C
  8
OBJECT
 10
1833.000000000015
 20
-140.99999999999909
 30
0.0
 11
1797.0000000000141
 21
-140.99999999999909
 31
0.0
1001
ACDBBLOCKREPETAG
1070
     1
1071
       94
1005
11E69C
  0
LINE
  5
11E69D
  8
OBJECT
 10
1837.000000000015
 20
-254.49999999999909
 30
0.0
 11
1850.0000000000141
 21
-254.49999999999909
 31
0.0
1001
ACDBBLOCKREPETAG
1070
     1
1071
       95
1005
11E69D
  0
LINE
  5
11E69E
  8
OBJECT
 10
1850.0000000000141
 20
-145.49999999999909
 30
0.0
 11
1837.000000000015
 21
-145.49999999999909
 31
0.0
1001
ACDBBLOCKREPETAG
1070
     1
1071
       96
1005
11E69E
  0
LINE
  5
11E69F
  8
OBJECT
 10
1837.000000000015
 20
-145.49999999999909
 30
0.0
 11
1837.000000000015
 21
-254.49999999999909
 31
0.0
1001
ACDBBLOCKREPETAG
1070
     1
1071
       97
1005
11E69F
  0
LINE
  5
11E6A0
  8
OBJECT
 10
1833.000000000015
 20
-258.99999999999909
 30
0.0
 11
1837.000000000015
 21
-254.49999999999909
 31
0.0
1001
ACDBBLOCKREPETAG
1070
     1
1071
       98
1005
11E6A0
  0
LINE
  5
11E6A1
  8
OBJECT
 10
1833.000000000015
 20
-140.99999999999909
 30
0.0
 11
1837.000000000015
 21
-145.49999999999909
 31
0.0
1001
ACDBBLOCKREPETAG
1070
     1
1071
       99
1005
11E6A1
  0
LINE
  5
11E6A2
  8
OBJECT
 10
1917.0
 20
-261.99999999999909
 30
0.0
 11
1920.0
 21
-261.99999999999909
 31
0.0
1001
ACDBBLOCKREPETAG
1070
     1
1071
      100
1005
11E6A2
  0
ARC
  5
11E6A3
  8
OBJECT
 10
1917.0
 20
-258.99999999999909
 30
0.0
 40
3.0
 50
180.0
 51
270.0
1001
ACDBBLOCKREPETAG
1070
     1
1071
      101
1005
11E6A3
  0
LINE
  5
11E6A4
  8
OBJECT
 10
1920.0
 20
-137.99999999999909
 30
0.0
 11
1917.0
 21
-137.99999999999909
 31
0.0
1001
ACDBBLOCKREPETAG
1070
     1
1071
      102
1005
11E6A4
  0
ARC
  5
11E6A5
  8
OBJECT
 10
1917.0
 20
-140.99999999999909
 30
0.0
 40
3.0
 50
90.0
 51
180.0
1001
ACDBBLOCKREPETAG
1070
     1
1071
      103
1005
11E6A5
  0
LINE
  5
11E6A6
  8
OBJECT
 10
1914.0
 20
-140.99999999999909
 30
0.0
 11
1914.0
 21
-189.6772096796403
 31
0.0
1001
ACDBBLOCKREPETAG
1070
     1
1071
      104
1005
11E6A6
  0
LINE
  5
11E6A7
  8
OBJECT
 10
1914.0
 20
-210.3227903203578
 30
0.0
 11
1914.0
 21
-258.99999999999909
 31
0.0
1001
ACDBBLOCKREPETAG
1070
     1
1071
      105
1005
11E6A7
  0
LINE
  5
11E6A8
  8
HIDDEN
 10
1842.0000000000141
 20
-244.49999999999909
 30
0.0
 11
1842.0000000000141
 21
-155.49999999999909
 31
0.0
1001
ACDBBLOCKREPETAG
1070
     1
1071
      106
1005
11E6A8
  0
LINE
  5
11E6A9
  8
OBJECT
 10
1850.000025035813
 20
-145.50004907618759
 30
0.0
 11
1850.000025035813
 21
-254.50004907618771
 31
0.0
1001
ACDBBLOCKREPETAG
1070
     1
1071
      108
1005
11E6A9
  0
ARC
  5
11E6AA
  8
OBJECT
 10
1870.199999999975
 20
-199.99999999999909
 30
0.0
 40
45.000000000000547
 50
270.0
 51
90.0
1001
ACDBBLOCKREPETAG
1070
     1
1071
      109
1005
11E6AA
  0
LINE
  5
11E6AB
  8
CENTER
 10
2000.0
 20
-300.99999999999898
 30
0.0
 11
2000.0
 21
-279.99999999999909
 31
0.0
1001
ACDBBLOCKREPETAG
1070
     1
1071
        0
1005
11E6AB
  0
LINE
  5
11E6AC
  8
OBJECT
 10
2062.0
 20
-283.0
 30
0.0
 11
2062.0
 21
-279.99999999999909
 31
0.0
1001
ACDBBLOCKREPETAG
1070
     1
1071
        1
1005
11E6AC
  0
ARC
  5
11E6AD
  8
OBJECT
 10
2059.0
 20
-283.0
 30
0.0
 40
3.0
 50
270.0
 51
0.0
1001
ACDBBLOCKREPETAG
1070
     1
1071
        2
1005
11E6AD
  0
LINE
  5
11E6AE
  8
OBJECT
 10
1938.0
 20
-279.99999999999909
 30
0.0
 11
1938.0
 21
-282.99999999999818
 31
0.0
1001
ACDBBLOCKREPETAG
1070
     1
1071
        3
1005
11E6AE
  0
ARC
  5
11E6AF
  8
OBJECT
 10
1941.0
 20
-282.99999999999818
 30
0.0
 40
3.0
 50
180.0
 51
270.0
1001
ACDBBLOCKREPETAG
1070
     1
1071
        4
1005
11E6AF
  0
LINE
  5
11E6B0
  8
OBJECT
 10
1941.0
 20
-285.99999999999818
 30
0.0
 11
2059.0
 21
-286.0
 31
0.0
1001
ACDBBLOCKREPETAG
1070
     1
1071
        5
1005
11E6B0
  0
LINE
  5
11E6B1
  8
OBJECT
 10
2202.9999999999859
 20
-137.99999999999909
 30
0.0
 11
2209.9999999999859
 21
-137.99999999999909
 31
0.0
1001
ACDBBLOCKREPETAG
1070
     1
1071
       85
1005
11E6B1
  0
LINE
  5
11E6B2
  8
OBJECT
 10
2209.9999999999859
 20
-137.99999999999909
 30
0.0
 11
2209.9999999999859
 21
-261.99999999999909
 31
0.0
1001
ACDBBLOCKREPETAG
1070
     1
1071
       86
1005
11E6B2
  0
LINE
  5
11E6B3
  8
OBJECT
 10
2209.9999999999859
 20
-261.99999999999909
 30
0.0
 11
2202.9999999999859
 21
-261.99999999999909
 31
0.0
1001
ACDBBLOCKREPETAG
1070
     1
1071
       87
1005
11E6B3
  0
LINE
  5
11E6B4
  8
OBJECT
 10
2202.9999999999859
 20
-261.99999999999909
 30
0.0
 11
2202.9999999999859
 21
-137.99999999999909
 31
0.0
1001
ACDBBLOCKREPETAG
1070
     1
1071
       88
1005
11E6B4
  0
LINE
  5
11E6B5
  8
CENTER
 10
2224.999999999985
 20
-199.99999999999909
 30
0.0
 11
2080.0
 21
-199.99999999999909
 31
0.0
1001
ACDBBLOCKREPETAG
1070
     1
1071
       89
1005
11E6B5
  0
LINE
  5
11E6B6
  8
OBJECT
 10
2149.9999749641861
 20
-245.0000000000027
 30
0.0
 11
2086.0
 21
-244.99999999999909
 31
0.0
1001
ACDBBLOCKREPETAG
1070
     1
1071
       90
1005
11E6B6
  0
LINE
  5
11E6B7
  8
OBJECT
 10
2149.9999749641861
 20
-154.99999999999909
 30
0.0
 11
2086.0
 21
-154.99999999999909
 31
0.0
1001
ACDBBLOCKREPETAG
1070
     1
1071
       91
1005
11E6B7
  0
LINE
  5
11E6B8
  8
OBJECT
 10
2202.9999999999859
 20
-140.99999999999909
 30
0.0
 11
2166.9999999999859
 21
-140.99999999999909
 31
0.0
1001
ACDBBLOCKREPETAG
1070
     1
1071
       92
1005
11E6B8
  0
LINE
  5
11E6B9
  8
OBJECT
 10
2166.9999999999859
 20
-140.99999999999909
 30
0.0
 11
2166.9999999999859
 21
-258.99999999999909
 31
0.0
1001
ACDBBLOCKREPETAG
1070
     1
1071
       93
1005
11E6B9
  0
LINE
  5
11E6BA
  8
OBJECT
 10
2166.9999999999859
 20
-258.99999999999909
 30
0.0
 11
2202.9999999999859
 21
-258.99999999999909
 31
0.0
1001
ACDBBLOCKREPETAG
1070
     1
1071
       94
1005
11E6BA
  0
LINE
  5
11E6BB
  8
OBJECT
 10
2162.9999999999859
 20
-145.49999999999909
 30
0.0
 11
2149.9999999999859
 21
-145.49999999999909
 31
0.0
1001
ACDBBLOCKREPETAG
1070
     1
1071
       95
1005
11E6BB
  0
LINE
  5
11E6BC
  8
OBJECT
 10
2149.9999999999859
 20
-254.49999999999909
 30
0.0
 11
2162.9999999999859
 21
-254.49999999999909
 31
0.0
1001
ACDBBLOCKREPETAG
1070
     1
1071
       96
1005
11E6BC
  0
LINE
  5
11E6BD
  8
OBJECT
 10
2162.9999999999859
 20
-254.49999999999909
 30
0.0
 11
2162.9999999999859
 21
-145.49999999999909
 31
0.0
1001
ACDBBLOCKREPETAG
1070
     1
1071
       97
1005
11E6BD
  0
LINE
  5
11E6BE
  8
OBJECT
 10
2166.9999999999859
 20
-140.99999999999909
 30
0.0
 11
2162.9999999999859
 21
-145.49999999999909
 31
0.0
1001
ACDBBLOCKREPETAG
1070
     1
1071
       98
1005
11E6BE
  0
LINE
  5
11E6BF
  8
OBJECT
 10
2166.9999999999859
 20
-258.99999999999909
 30
0.0
 11
2162.9999999999859
 21
-254.49999999999909
 31
0.0
1001
ACDBBLOCKREPETAG
1070
     1
1071
       99
1005
11E6BF
  0
LINE
  5
11E6C0
  8
OBJECT
 10
2083.0
 20
-137.99999999999909
 30
0.0
 11
2080.0
 21
-137.99999999999909
 31
0.0
1001
ACDBBLOCKREPETAG
1070
     1
1071
      100
1005
11E6C0
  0
ARC
  5
11E6C1
  8
OBJECT
 10
2083.0
 20
-140.99999999999909
 30
0.0
 40
3.0
 50
0.0
 51
90.0
1001
ACDBBLOCKREPETAG
1070
     1
1071
      101
1005
11E6C1
  0
LINE
  5
11E6C2
  8
OBJECT
 10
2080.0
 20
-261.99999999999909
 30
0.0
 11
2083.0
 21
-261.99999999999909
 31
0.0
1001
ACDBBLOCKREPETAG
1070
     1
1071
      102
1005
11E6C2
  0
ARC
  5
11E6C3
  8
OBJECT
 10
2083.0
 20
-258.99999999999909
 30
0.0
 40
3.0
 50
270.0
 51
0.0
1001
ACDBBLOCKREPETAG
1070
     1
1071
      103
1005
11E6C3
  0
LINE
  5
11E6C4
  8
OBJECT
 10
2086.0
 20
-258.99999999999909
 30
0.0
 11
2086.0
 21
-210.3227903203578
 31
0.0
1001
ACDBBLOCKREPETAG
1070
     1
1071
      104
1005
11E6C4
  0
LINE
  5
11E6C5
  8
OBJECT
 10
2086.0
 20
-189.6772096796403
 30
0.0
 11
2086.0
 21
-140.99999999999909
 31
0.0
1001
ACDBBLOCKREPETAG
1070
     1
1071
      105
1005
11E6C5
  0
LINE
  5
11E6C6
  8
HIDDEN
 10
2157.9999999999859
 20
-155.49999999999909
 30
0.0
 11
2157.9999999999859
 21
-244.49999999999909
 31
0.0
1001
ACDBBLOCKREPETAG
1070
     1
1071
      106
1005
11E6C6
  0
LINE
  5
11E6C7
  8
OBJECT
 10
2149.9999749641861
 20
-254.4999509238105
 30
0.0
 11
2149.9999749641861
 21
-145.4999509238105
 31
0.0
1001
ACDBBLOCKREPETAG
1070
     1
1071
      108
1005
11E6C7
  0
ARC
  5
11E6C8
  8
OBJECT
 10
2129.8000000000252
 20
-199.99999999999909
 30
0.0
 40
45.000000000000547
 50
90.0
 51
270.0
1001
ACDBBLOCKREPETAG
1070
     1
1071
      109
1005
11E6C8
  0
LINE
  5
11E6C9
  8
OBJECT
 10
12085.999999999991
 20
-1508.9999999999991
 30
0.0
 11
12085.999999999991
 21
-1518.9999999999991
 31
0.0
1001
ACDBBLOCKREPETAG
1070
     1
1071
      121
1005
11E6C9
  0
LINE
  5
11E6CA
  8
OBJECT
 10
12069.999999999991
 20
-1508.9999999999991
 30
0.0
 11
12069.999999999991
 21
-1518.9999999999991
 31
0.0
1001
ACDBBLOCKREPETAG
1070
     1
1071
      122
1005
11E6CA
  0
LINE
  5
11E6CB
  8
OBJECT
 10
12085.999999999991
 20
-1518.9999999999991
 30
0.0
 11
12069.999999999991
 21
-1518.9999999999991
 31
0.0
1001
ACDBBLOCKREPETAG
1070
     1
1071
      123
1005
11E6CB
  0
LINE
  5
11E6CC
  8
OBJECT
 10
12090.0
 20
-1469.9999999999959
 30
0.0
 11
11924.0
 21
-1469.9999999999959
 31
0.0
1001
ACDBBLOCKREPETAG
1070
     1
1071
      124
1005
11E6CC
  0
LINE
  5
11E6CD
  8
OBJECT
 10
12090.0
 20
-1484.9999999999991
 30
0.0
 11
12090.0
 21
-1469.9999999999959
 31
0.0
1001
ACDBBLOCKREPETAG
1070
     1
1071
      125
1005
11E6CD
  0
LINE
  5
11E6CE
  8
OBJECT
 10
11924.0
 20
-1484.9999999999991
 30
0.0
 11
12090.0
 21
-1484.9999999999991
 31
0.0
1001
ACDBBLOCKREPETAG
1070
     1
1071
      126
1005
11E6CE
  0
LINE
  5
11E6CF
  8
OBJECT
 10
12067.49999999998
 20
-1484.9999999999991
 30
0.0
 11
12067.49999999998
 21
-1494.9999999999991
 31
0.0
1001
ACDBBLOCKREPETAG
1070
     1
1071
      127
1005
11E6CF
  0
LINE
  5
11E6D0
  8
OBJECT
 10
12072.999999999991
 20
-1494.9999999999991
 30
0.0
 11
12072.999999999991
 21
-1484.9999999999991
 31
0.0
1001
ACDBBLOCKREPETAG
1070
     1
1071
      128
1005
11E6D0
  0
LINE
  5
11E6D1
  8
OBJECT
 10
12082.999999999991
 20
-1494.9999999999991
 30
0.0
 11
12082.999999999991
 21
-1484.9999999999991
 31
0.0
1001
ACDBBLOCKREPETAG
1070
     1
1071
      129
1005
11E6D1
  0
LINE
  5
11E6D2
  8
OBJECT
 10
11924.0
 20
-1494.9999999999991
 30
0.0
 11
11924.0
 21
-1508.9999999999959
 31
0.0
1001
ACDBBLOCKREPETAG
1070
     1
1071
      130
1005
11E6D2
  0
LINE
  5
11E6D3
  8
OBJECT
 10
12090.0
 20
-1494.9999999999991
 30
0.0
 11
12090.0
 21
-1508.9999999999959
 31
0.0
1001
ACDBBLOCKREPETAG
1070
     1
1071
      131
1005
11E6D3
  0
LINE
  5
11E6D4
  8
OBJECT
 10
11924.0
 20
-1508.9999999999959
 30
0.0
 11
12090.0
 21
-1508.9999999999959
 31
0.0
1001
ACDBBLOCKREPETAG
1070
     1
1071
      132
1005
11E6D4
  0
LINE
  5
11E6D5
  8
OBJECT
 10
11924.0
 20
-1494.9999999999991
 30
0.0
 11
12090.0
 21
-1494.9999999999991
 31
0.0
1001
ACDBBLOCKREPETAG
1070
     1
1071
      133
1005
11E6D5
  0
LINE
  5
11E6D6
  8
OBJECT
 10
11932.49999999998
 20
-1484.9999999999991
 30
0.0
 11
11932.49999999998
 21
-1494.9999999999991
 31
0.0
1001
ACDBBLOCKREPETAG
1070
     1
1071
      134
1005
11E6D6
  0
LINE
  5
11E6D7
  8
OBJECT
 10
11934.0
 20
-1433.9999999999959
 30
0.0
 11
12065.999999999991
 21
-1433.9999999999959
 31
0.0
1001
ACDBBLOCKREPETAG
1070
     1
1071
      135
1005
11E6D7
  0
LINE
  5
11E6D8
  8
OBJECT
 10
11924.0
 20
-1484.9999999999991
 30
0.0
 11
11924.0
 21
-1469.9999999999959
 31
0.0
1001
ACDBBLOCKREPETAG
1070
     1
1071
      136
1005
11E6D8
  0
LINE
  5
11E6D9
  8
HIDDEN
 10
11943.0
 20
-1444.9999999999991
 30
0.0
 11
12057.0
 21
-1444.9999999999991
 31
0.0
1001
ACDBBLOCKREPETAG
1070
     1
1071
      137
1005
11E6D9
  0
LINE
  5
11E6DA
  8
OBJECT
 10
12086.999999999991
 20
-1468.2
 30
0.0
 11
12086.999999999991
 21
-1469.9999999999991
 31
0.0
1001
ACDBBLOCKREPETAG
1070
     1
1071
      138
1005
11E6DA
  0
LINE
  5
11E6DB
  8
OBJECT
 10
12068.999999999991
 20
-1468.2
 30
0.0
 11
12068.999999999991
 21
-1469.9999999999991
 31
0.0
1001
ACDBBLOCKREPETAG
1070
     1
1071
      139
1005
11E6DB
  0
LINE
  5
11E6DC
  8
OBJECT
 10
12072.249999999991
 20
-1458.4999999999991
 30
0.0
 11
12083.749999999991
 21
-1458.4999999999991
 31
0.0
1001
ACDBBLOCKREPETAG
1070
     1
1071
      140
1005
11E6DC
  0
LINE
  5
11E6DD
  8
OBJECT
 10
12072.249999999991
 20
-1458.4999999999991
 30
0.0
 11
12072.249999999991
 21
-1468.2
 31
0.0
1001
ACDBBLOCKREPETAG
1070
     1
1071
      141
1005
11E6DD
  0
LINE
  5
11E6DE
  8
OBJECT
 10
12083.749999999991
 20
-1458.4999999999991
 30
0.0
 11
12083.749999999991
 21
-1468.2
 31
0.0
1001
ACDBBLOCKREPETAG
1070
     1
1071
      142
1005
11E6DE
  0
LINE
  5
11E6DF
  8
OBJECT
 10
11931.99999999998
 20
-1550.0
 30
0.0
 11
12067.99999999998
 21
-1550.0
 31
0.0
1001
ACDBBLOCKREPETAG
1070
     1
1071
      143
1005
11E6DF
  0
LINE
  5
11E6E0
  8
OBJECT
 10
11931.99999999998
 20
-1550.0
 30
0.0
 11
11931.99999999998
 21
-1508.9999999999991
 31
0.0
1001
ACDBBLOCKREPETAG
1070
     1
1071
      144
1005
11E6E0
  0
LINE
  5
11E6E1
  8
OBJECT
 10
12067.99999999998
 20
-1550.0
 30
0.0
 11
12067.99999999998
 21
-1508.9999999999991
 31
0.0
1001
ACDBBLOCKREPETAG
1070
     1
1071
      145
1005
11E6E1
  0
LINE
  5
11E6E2
  8
OBJECT
 10
12086.999999999991
 20
-1468.2
 30
0.0
 11
12068.999999999991
 21
-1468.2
 31
0.0
1001
ACDBBLOCKREPETAG
1070
     1
1071
      146
1005
11E6E2
  0
LINE
  5
11E6E3
  8
CENTER
 10
12000.0
 20
-1174.9999999999991
 30
0.0
 11
12000.0
 21
-1564.9999999999991
 31
0.0
1001
ACDBBLOCKREPETAG
1070
     1
1071
      147
1005
11E6E3
  0
LINE
  5
11E6E4
  8
OBJECT
 10
11925.0
 20
-1174.9999999999991
 30
0.0
 11
11925.0
 21
-1256.9999999999959
 31
0.0
1001
ACDBBLOCKREPETAG
1070
     1
1071
      148
1005
11E6E4
  0
LINE
  5
11E6E5
  8
OBJECT
 10
12075.0
 20
-1174.9999999999991
 30
0.0
 11
12075.0
 21
-1256.999999999992
 31
0.0
1001
ACDBBLOCKREPETAG
1070
     1
1071
      149
1005
11E6E5
  0
LINE
  5
11E6E6
  8
OBJECT
 10
11925.0
 20
-1256.9999999999959
 30
0.0
 11
12075.0
 21
-1256.999999999992
 31
0.0
1001
ACDBBLOCKREPETAG
1070
     1
1071
      150
1005
11E6E6
  0
LINE
  5
11E6E7
  8
OBJECT
 10
11943.0
 20
-1433.9999999999959
 30
0.0
 11
11943.0
 21
-1384.999999999992
 31
0.0
1001
ACDBBLOCKREPETAG
1070
     1
1071
      151
1005
11E6E7
  0
LINE
  5
11E6E8
  8
OBJECT
 10
12057.0
 20
-1384.999999999992
 30
0.0
 11
11943.0
 21
-1384.999999999992
 31
0.0
1001
ACDBBLOCKREPETAG
1070
     1
1071
      152
1005
11E6E8
  0
LINE
  5
11E6E9
  8
OBJECT
 10
12057.0
 20
-1384.999999999992
 30
0.0
 11
12057.0
 21
-1433.9999999999959
 31
0.0
1001
ACDBBLOCKREPETAG
1070
     1
1071
      153
1005
11E6E9
  0
LINE
  5
11E6EA
  8
OBJECT
 10
11925.0
 20
-1256.9999999999959
 30
0.0
 11
11943.0
 21
-1384.999999999992
 31
0.0
1001
ACDBBLOCKREPETAG
1070
     1
1071
      154
1005
11E6EA
  0
LINE
  5
11E6EB
  8
OBJECT
 10
12057.0
 20
-1384.999999999992
 30
0.0
 11
12075.0
 21
-1256.999999999992
 31
0.0
1001
ACDBBLOCKREPETAG
1070
     1
1071
      155
1005
11E6EB
  0
LINE
  5
11E6EC
  8
OBJECT
 10
11934.0
 20
-1469.9999999999959
 30
0.0
 11
11934.0
 21
-1433.9999999999959
 31
0.0
1001
ACDBBLOCKREPETAG
1070
     1
1071
      156
1005
11E6EC
  0
LINE
  5
11E6ED
  8
OBJECT
 10
12066.0
 20
-1469.9999999999959
 30
0.0
 11
12065.999999999991
 21
-1433.9999999999959
 31
0.0
1001
ACDBBLOCKREPETAG
1070
     1
1071
      157
1005
11E6ED
  0
LINE
  5
11E6EE
  8
OBJECT
 10
11954.75
 20
-1459.699999999993
 30
0.0
 11
11967.25
 21
-1459.699999999993
 31
0.0
1001
ACDBBLOCKREPETAG
1070
     1
1071
      158
1005
11E6EE
  0
LINE
  5
11E6EF
  8
OBJECT
 10
11946.0
 20
-1469.9999999999959
 30
0.0
 11
11946.0
 21
-1467.699999999996
 31
0.0
1001
ACDBBLOCKREPETAG
1070
     1
1071
      159
1005
11E6EF
  0
LINE
  5
11E6F0
  8
OBJECT
 10
11976.0
 20
-1469.9999999999959
 30
0.0
 11
11976.0
 21
-1467.699999999996
 31
0.0
1001
ACDBBLOCKREPETAG
1070
     1
1071
      160
1005
11E6F0
  0
LINE
  5
11E6F1
  8
OBJECT
 10
11954.75
 20
-1459.699999999993
 30
0.0
 11
11954.75
 21
-1467.699999999996
 31
0.0
1001
ACDBBLOCKREPETAG
1070
     1
1071
      161
1005
11E6F1
  0
LINE
  5
11E6F2
  8
OBJECT
 10
11967.25
 20
-1459.699999999993
 30
0.0
 11
11967.25
 21
-1467.699999999996
 31
0.0
1001
ACDBBLOCKREPETAG
1070
     1
1071
      162
1005
11E6F2
  0
LINE
  5
11E6F3
  8
OBJECT
 10
11946.0
 20
-1467.699999999996
 30
0.0
 11
11976.0
 21
-1467.699999999996
 31
0.0
1001
ACDBBLOCKREPETAG
1070
     1
1071
      163
1005
11E6F3
  0
LINE
  5
11E6F4
  8
OBJECT
 10
11953.0
 20
-1508.9999999999959
 30
0.0
 11
11953.0
 21
-1518.9999999999959
 31
0.0
1001
ACDBBLOCKREPETAG
1070
     1
1071
      164
1005
11E6F4
  0
LINE
  5
11E6F5
  8
OBJECT
 10
11969.0
 20
-1508.9999999999959
 30
0.0
 11
11969.0
 21
-1518.9999999999959
 31
0.0
1001
ACDBBLOCKREPETAG
1070
     1
1071
      165
1005
11E6F5
  0
LINE
  5
11E6F6
  8
OBJECT
 10
11953.0
 20
-1518.9999999999959
 30
0.0
 11
11969.0
 21
-1518.9999999999959
 31
0.0
1001
ACDBBLOCKREPETAG
1070
     1
1071
      166
1005
11E6F6
  0
LINE
  5
11E6F7
  8
OBJECT
 10
11966.0
 20
-1494.9999999999959
 30
0.0
 11
11966.0
 21
-1484.9999999999959
 31
0.0
1001
ACDBBLOCKREPETAG
1070
     1
1071
      167
1005
11E6F7
  0
LINE
  5
11E6F8
  8
OBJECT
 10
11956.0
 20
-1494.9999999999959
 30
0.0
 11
11956.0
 21
-1484.9999999999959
 31
0.0
1001
ACDBBLOCKREPETAG
1070
     1
1071
      168
1005
11E6F8
  0
LINE
  5
11E6F9
  8
OBJECT
 10
10090.0
 20
-1469.9999999999959
 30
0.0
 11
9924.0
 21
-1469.9999999999959
 31
0.0
1001
ACDBBLOCKREPETAG
1070
     1
1071
       12
1005
11E6F9
  0
LINE
  5
11E6FA
  8
OBJECT
 10
10066.0
 20
-1433.9999999999959
 30
0.0
 11
9934.0
 21
-1433.9999999999959
 31
0.0
1001
ACDBBLOCKREPETAG
1070
     1
1071
       13
1005
11E6FA
  0
LINE
  5
11E6FB
  8
OBJECT
 10
10090.0
 20
-1485.0
 30
0.0
 11
10090.0
 21
-1469.9999999999959
 31
0.0
1001
ACDBBLOCKREPETAG
1070
     1
1071
       14
1005
11E6FB
  0
LINE
  5
11E6FC
  8
OBJECT
 10
9924.0
 20
-1485.0
 30
0.0
 11
10090.0
 21
-1485.0
 31
0.0
1001
ACDBBLOCKREPETAG
1070
     1
1071
       15
1005
11E6FC
  0
LINE
  5
11E6FD
  8
OBJECT
 10
10067.49999999998
 20
-1485.0
 30
0.0
 11
10067.49999999998
 21
-1495.0
 31
0.0
1001
ACDBBLOCKREPETAG
1070
     1
1071
       16
1005
11E6FD
  0
LINE
  5
11E6FE
  8
OBJECT
 10
9924.0
 20
-1495.0
 30
0.0
 11
9924.0
 21
-1508.9999999999959
 31
0.0
1001
ACDBBLOCKREPETAG
1070
     1
1071
       17
1005
11E6FE
  0
LINE
  5
11E6FF
  8
OBJECT
 10
10090.0
 20
-1495.0
 30
0.0
 11
10090.0
 21
-1508.9999999999959
 31
0.0
1001
ACDBBLOCKREPETAG
1070
     1
1071
       18
1005
11E6FF
  0
LINE
  5
11E700
  8
OBJECT
 10
9924.0
 20
-1508.9999999999959
 30
0.0
 11
10090.0
 21
-1508.9999999999959
 31
0.0
1001
ACDBBLOCKREPETAG
1070
     1
1071
       19
1005
11E700
  0
LINE
  5
11E701
  8
OBJECT
 10
9924.0
 20
-1495.0
 30
0.0
 11
10090.0
 21
-1495.0
 31
0.0
1001
ACDBBLOCKREPETAG
1070
     1
1071
       20
1005
11E701
  0
LINE
  5
11E702
  8
OBJECT
 10
9932.4999999999836
 20
-1485.0
 30
0.0
 11
9932.4999999999836
 21
-1495.0
 31
0.0
1001
ACDBBLOCKREPETAG
1070
     1
1071
       21
1005
11E702
  0
LINE
  5
11E703
  8
OBJECT
 10
9924.0
 20
-1485.0
 30
0.0
 11
9924.0
 21
-1469.9999999999959
 31
0.0
1001
ACDBBLOCKREPETAG
1070
     1
1071
       22
1005
11E703
  0
LINE
  5
11E704
  8
HIDDEN
 10
9943.0
 20
-1445.0
 30
0.0
 11
10057.0
 21
-1445.0
 31
0.0
1001
ACDBBLOCKREPETAG
1070
     1
1071
       23
1005
11E704
  0
LINE
  5
11E705
  8
CENTER
 10
10000.0
 20
-1175.0
 30
0.0
 11
10000.0
 21
-1523.9999999999959
 31
0.0
1001
ACDBBLOCKREPETAG
1070
     1
1071
       24
1005
11E705
  0
LINE
  5
11E706
  8
OBJECT
 10
9925.0
 20
-1175.0
 30
0.0
 11
9925.0
 21
-1256.9999999999959
 31
0.0
1001
ACDBBLOCKREPETAG
1070
     1
1071
       25
1005
11E706
  0
LINE
  5
11E707
  8
OBJECT
 10
10075.0
 20
-1175.0
 30
0.0
 11
10075.0
 21
-1256.999999999993
 31
0.0
1001
ACDBBLOCKREPETAG
1070
     1
1071
       26
1005
11E707
  0
LINE
  5
11E708
  8
OBJECT
 10
9925.0
 20
-1256.9999999999959
 30
0.0
 11
10075.0
 21
-1256.999999999993
 31
0.0
1001
ACDBBLOCKREPETAG
1070
     1
1071
       27
1005
11E708
  0
LINE
  5
11E709
  8
OBJECT
 10
10057.0
 20
-1433.9999999999959
 30
0.0
 11
10057.0
 21
-1384.999999999992
 31
0.0
1001
ACDBBLOCKREPETAG
1070
     1
1071
       28
1005
11E709
  0
LINE
  5
11E70A
  8
OBJECT
 10
9943.0
 20
-1433.9999999999959
 30
0.0
 11
9943.0
 21
-1384.999999999992
 31
0.0
1001
ACDBBLOCKREPETAG
1070
     1
1071
       29
1005
11E70A
  0
LINE
  5
11E70B
  8
OBJECT
 10
10057.0
 20
-1384.999999999992
 30
0.0
 11
9943.0
 21
-1384.999999999992
 31
0.0
1001
ACDBBLOCKREPETAG
1070
     1
1071
       30
1005
11E70B
  0
LINE
  5
11E70C
  8
OBJECT
 10
9925.0
 20
-1256.9999999999959
 30
0.0
 11
9943.0
 21
-1384.999999999992
 31
0.0
1001
ACDBBLOCKREPETAG
1070
     1
1071
       31
1005
11E70C
  0
LINE
  5
11E70D
  8
OBJECT
 10
10057.0
 20
-1384.999999999992
 30
0.0
 11
10075.0
 21
-1256.999999999993
 31
0.0
1001
ACDBBLOCKREPETAG
1070
     1
1071
       32
1005
11E70D
  0
LINE
  5
11E70E
  8
OBJECT
 10
9934.0
 20
-1433.9999999999959
 30
0.0
 11
9934.0
 21
-1469.9999999999959
 31
0.0
1001
ACDBBLOCKREPETAG
1070
     1
1071
       33
1005
11E70E
  0
LINE
  5
11E70F
  8
OBJECT
 10
10066.0
 20
-1433.9999999999959
 30
0.0
 11
10066.0
 21
-1469.9999999999959
 31
0.0
1001
ACDBBLOCKREPETAG
1070
     1
1071
       34
1005
11E70F
  0
LINE
  5
11E710
  8
OBJECT
 10
10082.999999999991
 20
-1494.9999999999959
 30
0.0
 11
10082.999999999991
 21
-1484.9999999999959
 31
0.0
1001
ACDBBLOCKREPETAG
1070
     1
1071
       35
1005
11E710
  0
LINE
  5
11E711
  8
OBJECT
 10
10072.999999999991
 20
-1494.9999999999959
 30
0.0
 11
10072.999999999991
 21
-1484.9999999999959
 31
0.0
1001
ACDBBLOCKREPETAG
1070
     1
1071
       36
1005
11E711
  0
LINE
  5
11E712
  8
OBJECT
 10
10068.99999999998
 20
-1464.9999999999959
 30
0.0
 11
10068.99999999998
 21
-1469.9999999999959
 31
0.0
1001
ACDBBLOCKREPETAG
1070
     1
1071
       37
1005
11E712
  0
LINE
  5
11E713
  8
OBJECT
 10
10087.0
 20
-1464.9999999999959
 30
0.0
 11
10087.0
 21
-1469.9999999999959
 31
0.0
1001
ACDBBLOCKREPETAG
1070
     1
1071
       38
1005
11E713
  0
LINE
  5
11E714
  8
OBJECT
 10
10087.0
 20
-1464.9999999999959
 30
0.0
 11
10068.99999999998
 21
-1464.9999999999959
 31
0.0
1001
ACDBBLOCKREPETAG
1070
     1
1071
       39
1005
11E714
  0
LINE
  5
11E715
  8
OBJECT
 10
10073.0
 20
-1516.9999999999959
 30
0.0
 11
10073.0
 21
-1519.9999999999959
 31
0.0
1001
ACDBBLOCKREPETAG
1070
     1
1071
       40
1005
11E715
  0
LINE
  5
11E716
  8
OBJECT
 10
10073.0
 20
-1519.9999999999959
 30
0.0
 11
10083.0
 21
-1519.9999999999959
 31
0.0
1001
ACDBBLOCKREPETAG
1070
     1
1071
       41
1005
11E716
  0
LINE
  5
11E717
  8
OBJECT
 10
10083.0
 20
-1519.9999999999959
 30
0.0
 11
10083.0
 21
-1516.9999999999959
 31
0.0
1001
ACDBBLOCKREPETAG
1070
     1
1071
       43
1005
11E717
  0
LINE
  5
11E718
  8
OBJECT
 10
9968.5
 20
-1464.9999999999959
 30
0.0
 11
9951.9999999999909
 21
-1464.9999999999959
 31
0.0
1001
ACDBBLOCKREPETAG
1070
     1
1071
       48
1005
11E718
  0
LINE
  5
11E719
  8
OBJECT
 10
9976.0
 20
-1469.9999999999959
 30
0.0
 11
9976.0
 21
-1467.9999999999959
 31
0.0
1001
ACDBBLOCKREPETAG
1070
     1
1071
       49
1005
11E719
  0
LINE
  5
11E71A
  8
OBJECT
 10
9966.0
 20
-1494.9999999999959
 30
0.0
 11
9966.0
 21
-1484.9999999999959
 31
0.0
1001
ACDBBLOCKREPETAG
1070
     1
1071
       50
1005
11E71A
  0
LINE
  5
11E71B
  8
OBJECT
 10
9956.0
 20
-1494.9999999999959
 30
0.0
 11
9956.0
 21
-1484.9999999999959
 31
0.0
1001
ACDBBLOCKREPETAG
1070
     1
1071
       51
1005
11E71B
  0
LINE
  5
11E71C
  8
OBJECT
 10
9951.9999999999909
 20
-1464.9999999999959
 30
0.0
 11
9951.9999999999909
 21
-1469.9999999999959
 31
0.0
1001
ACDBBLOCKREPETAG
1070
     1
1071
       52
1005
11E71C
  0
LINE
  5
11E71D
  8
OBJECT
 10
9956.0
 20
-1516.9999999999959
 30
0.0
 11
9956.0
 21
-1519.9999999999959
 31
0.0
1001
ACDBBLOCKREPETAG
1070
     1
1071
       53
1005
11E71D
  0
LINE
  5
11E71E
  8
OBJECT
 10
9956.0
 20
-1519.9999999999959
 30
0.0
 11
9966.0
 21
-1519.9999999999959
 31
0.0
1001
ACDBBLOCKREPETAG
1070
     1
1071
       54
1005
11E71E
  0
LINE
  5
11E71F
  8
OBJECT
 10
9951.185045423772
 20
-1516.9999999999959
 30
0.0
 11
9970.814954576219
 21
-1516.9999999999959
 31
0.0
1001
ACDBBLOCKREPETAG
1070
     1
1071
       55
1005
11E71F
  0
LINE
  5
11E720
  8
OBJECT
 10
9966.0
 20
-1519.9999999999959
 30
0.0
 11
9966.0
 21
-1516.9999999999959
 31
0.0
1001
ACDBBLOCKREPETAG
1070
     1
1071
       56
1005
11E720
  0
LINE
  5
11E721
  8
OBJECT
 10
9976.0
 20
-1467.9999999999959
 30
0.0
 11
9968.5
 21
-1464.9999999999959
 31
0.0
1001
ACDBBLOCKREPETAG
1070
     1
1071
       57
1005
11E721
  0
LINE
  5
11E722
  8
OBJECT
 10
9951.1850454237774
 20
-1508.9999999999959
 30
0.0
 11
9951.1850454237774
 21
-1516.9999999999959
 31
0.0
1001
ACDBBLOCKREPETAG
1070
     1
1071
      630
1005
11E722
  0
LINE
  5
11E723
  8
OBJECT
 10
9956.0925227118896
 20
-1508.9999999999959
 30
0.0
 11
9956.0925227118896
 21
-1516.9999999999959
 31
0.0
1001
ACDBBLOCKREPETAG
1070
     1
1071
      631
1005
11E723
  0
LINE
  5
11E724
  8
OBJECT
 10
9965.9074772881122
 20
-1508.9999999999959
 30
0.0
 11
9965.9074772881122
 21
-1516.9999999999959
 31
0.0
1001
ACDBBLOCKREPETAG
1070
     1
1071
      632
1005
11E724
  0
LINE
  5
11E725
  8
OBJECT
 10
9970.8149545762244
 20
-1508.9999999999959
 30
0.0
 11
9970.8149545762244
 21
-1516.9999999999959
 31
0.0
1001
ACDBBLOCKREPETAG
1070
     1
1071
      633
1005
11E725
  0
LINE
  5
11E726
  8
OBJECT
 10
10068.18504542377
 20
-1516.9999999999959
 30
0.0
 11
10087.814954576221
 21
-1516.9999999999959
 31
0.0
1001
ACDBBLOCKREPETAG
1070
     1
1071
      634
1005
11E726
  0
LINE
  5
11E727
  8
OBJECT
 10
10068.18504542377
 20
-1508.9999999999959
 30
0.0
 11
10068.18504542377
 21
-1516.9999999999959
 31
0.0
1001
ACDBBLOCKREPETAG
1070
     1
1071
      635
1005
11E727
  0
LINE
  5
11E728
  8
OBJECT
 10
10073.09252271189
 20
-1508.9999999999959
 30
0.0
 11
10073.09252271189
 21
-1516.9999999999959
 31
0.0
1001
ACDBBLOCKREPETAG
1070
     1
1071
      636
1005
11E728
  0
LINE
  5
11E729
  8
OBJECT
 10
10082.90747728811
 20
-1508.9999999999959
 30
0.0
 11
10082.90747728811
 21
-1516.9999999999959
 31
0.0
1001
ACDBBLOCKREPETAG
1070
     1
1071
      637
1005
11E729
  0
LINE
  5
11E72A
  8
OBJECT
 10
10087.814954576221
 20
-1508.9999999999959
 30
0.0
 11
10087.814954576221
 21
-1516.9999999999959
 31
0.0
1001
ACDBBLOCKREPETAG
1070
     1
1071
      638
1005
11E72A
  0
LINE
  5
11E72B
  8
OBJECT
 10
7943.0
 20
-1484.9999999999959
 30
0.0
 11
8057.0
 21
-1484.9999999999959
 31
0.0
1001
ACDBBLOCKREPETAG
1070
     1
1071
        0
1005
11E72B
  0
LINE
  5
11E72C
  8
OBJECT
 10
7943.0
 20
-1484.9999999999959
 30
0.0
 11
7943.0
 21
-1384.9999999999959
 31
0.0
1001
ACDBBLOCKREPETAG
1070
     1
1071
        1
1005
11E72C
  0
LINE
  5
11E72D
  8
OBJECT
 10
8057.0
 20
-1484.9999999999959
 30
0.0
 11
8057.0
 21
-1384.9999999999959
 31
0.0
1001
ACDBBLOCKREPETAG
1070
     1
1071
        2
1005
11E72D
  0
LINE
  5
11E72E
  8
OBJECT
 10
7943.0
 20
-1384.9999999999959
 30
0.0
 11
8057.0
 21
-1384.9999999999959
 31
0.0
1001
ACDBBLOCKREPETAG
1070
     1
1071
        3
1005
11E72E
  0
LINE
  5
11E72F
  8
HIDDEN
 10
7950.0
 20
-1384.9999999999959
 30
0.0
 11
7950.0
 21
-1484.9999999999959
 31
0.0
1001
ACDBBLOCKREPETAG
1070
     1
1071
        4
1005
11E72F
  0
LINE
  5
11E730
  8
HIDDEN
 10
8050.0
 20
-1384.9999999999959
 30
0.0
 11
8050.0
 21
-1484.9999999999959
 31
0.0
1001
ACDBBLOCKREPETAG
1070
     1
1071
        5
1005
11E730
  0
LINE
  5
11E731
  8
CENTER
 10
8000.0
 20
-1175.0
 30
0.0
 11
8000.0
 21
-1499.9999999999959
 31
0.0
1001
ACDBBLOCKREPETAG
1070
     1
1071
        6
1005
11E731
  0
LINE
  5
11E732
  8
OBJECT
 10
7925.0
 20
-1175.0
 30
0.0
 11
7925.0
 21
-1256.9999999999959
 31
0.0
1001
ACDBBLOCKREPETAG
1070
     1
1071
        7
1005
11E732
  0
LINE
  5
11E733
  8
OBJECT
 10
8075.0
 20
-1175.0
 30
0.0
 11
8075.0
 21
-1256.9999999999959
 31
0.0
1001
ACDBBLOCKREPETAG
1070
     1
1071
        8
1005
11E733
  0
LINE
  5
11E734
  8
OBJECT
 10
7925.0
 20
-1256.9999999999959
 30
0.0
 11
8075.0
 21
-1256.9999999999959
 31
0.0
1001
ACDBBLOCKREPETAG
1070
     1
1071
        9
1005
11E734
  0
LINE
  5
11E735
  8
OBJECT
 10
7925.0
 20
-1256.9999999999959
 30
0.0
 11
7943.0
 21
-1384.9999999999959
 31
0.0
1001
ACDBBLOCKREPETAG
1070
     1
1071
       10
1005
11E735
  0
LINE
  5
11E736
  8
OBJECT
 10
8057.0
 20
-1384.9999999999959
 30
0.0
 11
8075.0
 21
-1256.9999999999959
 31
0.0
1001
ACDBBLOCKREPETAG
1070
     1
1071
       11
1005
11E736
  0
LINE
  5
11E737
  8
OBJECT
 10
6085.9999999999927
 20
-1508.9999999999991
 30
0.0
 11
6085.9999999999927
 21
-1518.9999999999991
 31
0.0
1001
ACDBBLOCKREPETAG
1070
     1
1071
      121
1005
11E737
  0
LINE
  5
11E738
  8
OBJECT
 10
6069.9999999999927
 20
-1508.9999999999991
 30
0.0
 11
6069.9999999999927
 21
-1518.9999999999991
 31
0.0
1001
ACDBBLOCKREPETAG
1070
     1
1071
      122
1005
11E738
  0
LINE
  5
11E739
  8
OBJECT
 10
6085.9999999999927
 20
-1518.9999999999991
 30
0.0
 11
6069.9999999999927
 21
-1518.9999999999991
 31
0.0
1001
ACDBBLOCKREPETAG
1070
     1
1071
      123
1005
11E739
  0
LINE
  5
11E73A
  8
OBJECT
 10
6090.0
 20
-1469.9999999999959
 30
0.0
 11
5924.0
 21
-1469.9999999999959
 31
0.0
1001
ACDBBLOCKREPETAG
1070
     1
1071
      124
1005
11E73A
  0
LINE
  5
11E73B
  8
OBJECT
 10
6090.0
 20
-1484.9999999999991
 30
0.0
 11
6090.0
 21
-1469.9999999999959
 31
0.0
1001
ACDBBLOCKREPETAG
1070
     1
1071
      125
1005
11E73B
  0
LINE
  5
11E73C
  8
OBJECT
 10
5924.0
 20
-1484.9999999999991
 30
0.0
 11
6090.0
 21
-1484.9999999999991
 31
0.0
1001
ACDBBLOCKREPETAG
1070
     1
1071
      126
1005
11E73C
  0
LINE
  5
11E73D
  8
OBJECT
 10
6067.4999999999864
 20
-1484.9999999999991
 30
0.0
 11
6067.4999999999864
 21
-1494.9999999999991
 31
0.0
1001
ACDBBLOCKREPETAG
1070
     1
1071
      127
1005
11E73D
  0
LINE
  5
11E73E
  8
OBJECT
 10
6072.9999999999927
 20
-1494.9999999999991
 30
0.0
 11
6072.9999999999927
 21
-1484.9999999999991
 31
0.0
1001
ACDBBLOCKREPETAG
1070
     1
1071
      128
1005
11E73E
  0
LINE
  5
11E73F
  8
OBJECT
 10
6082.9999999999927
 20
-1494.9999999999991
 30
0.0
 11
6082.9999999999927
 21
-1484.9999999999991
 31
0.0
1001
ACDBBLOCKREPETAG
1070
     1
1071
      129
1005
11E73F
  0
LINE
  5
11E740
  8
OBJECT
 10
5924.0
 20
-1494.9999999999991
 30
0.0
 11
5924.0
 21
-1508.9999999999959
 31
0.0
1001
ACDBBLOCKREPETAG
1070
     1
1071
      130
1005
11E740
  0
LINE
  5
11E741
  8
OBJECT
 10
6090.0
 20
-1494.9999999999991
 30
0.0
 11
6090.0
 21
-1508.9999999999959
 31
0.0
1001
ACDBBLOCKREPETAG
1070
     1
1071
      131
1005
11E741
  0
LINE
  5
11E742
  8
OBJECT
 10
5924.0
 20
-1508.9999999999959
 30
0.0
 11
6090.0
 21
-1508.9999999999959
 31
0.0
1001
ACDBBLOCKREPETAG
1070
     1
1071
      132
1005
11E742
  0
LINE
  5
11E743
  8
OBJECT
 10
5924.0
 20
-1494.9999999999991
 30
0.0
 11
6090.0
 21
-1494.9999999999991
 31
0.0
1001
ACDBBLOCKREPETAG
1070
     1
1071
      133
1005
11E743
  0
LINE
  5
11E744
  8
OBJECT
 10
5932.4999999999864
 20
-1484.9999999999991
 30
0.0
 11
5932.4999999999864
 21
-1494.9999999999991
 31
0.0
1001
ACDBBLOCKREPETAG
1070
     1
1071
      134
1005
11E744
  0
LINE
  5
11E745
  8
OBJECT
 10
5934.0
 20
-1433.9999999999959
 30
0.0
 11
6065.9999999999909
 21
-1433.9999999999959
 31
0.0
1001
ACDBBLOCKREPETAG
1070
     1
1071
      135
1005
11E745
  0
LINE
  5
11E746
  8
OBJECT
 10
5924.0
 20
-1484.9999999999991
 30
0.0
 11
5924.0
 21
-1469.9999999999959
 31
0.0
1001
ACDBBLOCKREPETAG
1070
     1
1071
      136
1005
11E746
  0
LINE
  5
11E747
  8
HIDDEN
 10
5943.0
 20
-1444.9999999999991
 30
0.0
 11
6057.0
 21
-1444.9999999999991
 31
0.0
1001
ACDBBLOCKREPETAG
1070
     1
1071
      137
1005
11E747
  0
LINE
  5
11E748
  8
OBJECT
 10
6086.9999999999918
 20
-1468.2
 30
0.0
 11
6086.9999999999918
 21
-1469.9999999999991
 31
0.0
1001
ACDBBLOCKREPETAG
1070
     1
1071
      138
1005
11E748
  0
LINE
  5
11E749
  8
OBJECT
 10
6068.9999999999909
 20
-1468.2
 30
0.0
 11
6068.9999999999909
 21
-1469.9999999999991
 31
0.0
1001
ACDBBLOCKREPETAG
1070
     1
1071
      139
1005
11E749
  0
LINE
  5
11E74A
  8
OBJECT
 10
6072.2499999999927
 20
-1458.4999999999991
 30
0.0
 11
6083.7499999999927
 21
-1458.4999999999991
 31
0.0
1001
ACDBBLOCKREPETAG
1070
     1
1071
      140
1005
11E74A
  0
LINE
  5
11E74B
  8
OBJECT
 10
6072.2499999999927
 20
-1458.4999999999991
 30
0.0
 11
6072.2499999999927
 21
-1468.2
 31
0.0
1001
ACDBBLOCKREPETAG
1070
     1
1071
      141
1005
11E74B
  0
LINE
  5
11E74C
  8
OBJECT
 10
6083.7499999999927
 20
-1458.4999999999991
 30
0.0
 11
6083.7499999999927
 21
-1468.2
 31
0.0
1001
ACDBBLOCKREPETAG
1070
     1
1071
      142
1005
11E74C
  0
LINE
  5
11E74D
  8
OBJECT
 10
5931.9999999999873
 20
-1550.0
 30
0.0
 11
6067.9999999999873
 21
-1550.0
 31
0.0
1001
ACDBBLOCKREPETAG
1070
     1
1071
      143
1005
11E74D
  0
LINE
  5
11E74E
  8
OBJECT
 10
5931.9999999999873
 20
-1550.0
 30
0.0
 11
5931.9999999999873
 21
-1508.9999999999991
 31
0.0
1001
ACDBBLOCKREPETAG
1070
     1
1071
      144
1005
11E74E
  0
LINE
  5
11E74F
  8
OBJECT
 10
6067.9999999999873
 20
-1550.0
 30
0.0
 11
6067.9999999999873
 21
-1508.9999999999991
 31
0.0
1001
ACDBBLOCKREPETAG
1070
     1
1071
      145
1005
11E74F
  0
LINE
  5
11E750
  8
OBJECT
 10
6086.9999999999918
 20
-1468.2
 30
0.0
 11
6068.9999999999909
 21
-1468.2
 31
0.0
1001
ACDBBLOCKREPETAG
1070
     1
1071
      146
1005
11E750
  0
LINE
  5
11E751
  8
CENTER
 10
6000.0
 20
-1174.9999999999991
 30
0.0
 11
6000.0
 21
-1564.9999999999991
 31
0.0
1001
ACDBBLOCKREPETAG
1070
     1
1071
      147
1005
11E751
  0
LINE
  5
11E752
  8
OBJECT
 10
5925.0
 20
-1174.9999999999991
 30
0.0
 11
5925.0
 21
-1256.9999999999959
 31
0.0
1001
ACDBBLOCKREPETAG
1070
     1
1071
      148
1005
11E752
  0
LINE
  5
11E753
  8
OBJECT
 10
6075.0
 20
-1174.9999999999991
 30
0.0
 11
6075.0
 21
-1256.999999999992
 31
0.0
1001
ACDBBLOCKREPETAG
1070
     1
1071
      149
1005
11E753
  0
LINE
  5
11E754
  8
OBJECT
 10
5925.0
 20
-1256.9999999999959
 30
0.0
 11
6075.0
 21
-1256.999999999992
 31
0.0
1001
ACDBBLOCKREPETAG
1070
     1
1071
      150
1005
11E754
  0
LINE
  5
11E755
  8
OBJECT
 10
5943.0
 20
-1433.9999999999959
 30
0.0
 11
5943.0
 21
-1384.999999999992
 31
0.0
1001
ACDBBLOCKREPETAG
1070
     1
1071
      151
1005
11E755
  0
LINE
  5
11E756
  8
OBJECT
 10
6057.0
 20
-1384.999999999992
 30
0.0
 11
5943.0
 21
-1384.999999999992
 31
0.0
1001
ACDBBLOCKREPETAG
1070
     1
1071
      152
1005
11E756
  0
LINE
  5
11E757
  8
OBJECT
 10
6057.0
 20
-1384.999999999992
 30
0.0
 11
6057.0
 21
-1433.9999999999959
 31
0.0
1001
ACDBBLOCKREPETAG
1070
     1
1071
      153
1005
11E757
  0
LINE
  5
11E758
  8
OBJECT
 10
5925.0
 20
-1256.9999999999959
 30
0.0
 11
5943.0
 21
-1384.999999999992
 31
0.0
1001
ACDBBLOCKREPETAG
1070
     1
1071
      154
1005
11E758
  0
LINE
  5
11E759
  8
OBJECT
 10
6057.0
 20
-1384.999999999992
 30
0.0
 11
6075.0
 21
-1256.999999999992
 31
0.0
1001
ACDBBLOCKREPETAG
1070
     1
1071
      155
1005
11E759
  0
LINE
  5
11E75A
  8
OBJECT
 10
5934.0
 20
-1469.9999999999959
 30
0.0
 11
5934.0
 21
-1433.9999999999959
 31
0.0
1001
ACDBBLOCKREPETAG
1070
     1
1071
      156
1005
11E75A
  0
LINE
  5
11E75B
  8
OBJECT
 10
6066.0
 20
-1469.9999999999959
 30
0.0
 11
6065.9999999999909
 21
-1433.9999999999959
 31
0.0
1001
ACDBBLOCKREPETAG
1070
     1
1071
      157
1005
11E75B
  0
LINE
  5
11E75C
  8
OBJECT
 10
5954.75
 20
-1459.699999999993
 30
0.0
 11
5967.2499999999991
 21
-1459.699999999993
 31
0.0
1001
ACDBBLOCKREPETAG
1070
     1
1071
      158
1005
11E75C
  0
LINE
  5
11E75D
  8
OBJECT
 10
5946.0
 20
-1469.9999999999959
 30
0.0
 11
5946.0
 21
-1467.699999999996
 31
0.0
1001
ACDBBLOCKREPETAG
1070
     1
1071
      159
1005
11E75D
  0
LINE
  5
11E75E
  8
OBJECT
 10
5976.0
 20
-1469.9999999999959
 30
0.0
 11
5976.0
 21
-1467.699999999996
 31
0.0
1001
ACDBBLOCKREPETAG
1070
     1
1071
      160
1005
11E75E
  0
LINE
  5
11E75F
  8
OBJECT
 10
5954.75
 20
-1459.699999999993
 30
0.0
 11
5954.75
 21
-1467.699999999996
 31
0.0
1001
ACDBBLOCKREPETAG
1070
     1
1071
      161
1005
11E75F
  0
LINE
  5
11E760
  8
OBJECT
 10
5967.2499999999991
 20
-1459.699999999993
 30
0.0
 11
5967.2499999999991
 21
-1467.699999999996
 31
0.0
1001
ACDBBLOCKREPETAG
1070
     1
1071
      162
1005
11E760
  0
LINE
  5
11E761
  8
OBJECT
 10
5946.0
 20
-1467.699999999996
 30
0.0
 11
5976.0
 21
-1467.699999999996
 31
0.0
1001
ACDBBLOCKREPETAG
1070
     1
1071
      163
1005
11E761
  0
LINE
  5
11E762
  8
OBJECT
 10
5953.0
 20
-1508.9999999999959
 30
0.0
 11
5953.0
 21
-1518.9999999999959
 31
0.0
1001
ACDBBLOCKREPETAG
1070
     1
1071
      164
1005
11E762
  0
LINE
  5
11E763
  8
OBJECT
 10
5969.0
 20
-1508.9999999999959
 30
0.0
 11
5969.0
 21
-1518.9999999999959
 31
0.0
1001
ACDBBLOCKREPETAG
1070
     1
1071
      165
1005
11E763
  0
LINE
  5
11E764
  8
OBJECT
 10
5953.0
 20
-1518.9999999999959
 30
0.0
 11
5969.0
 21
-1518.9999999999959
 31
0.0
1001
ACDBBLOCKREPETAG
1070
     1
1071
      166
1005
11E764
  0
LINE
  5
11E765
  8
OBJECT
 10
5966.0
 20
-1494.9999999999959
 30
0.0
 11
5966.0
 21
-1484.9999999999959
 31
0.0
1001
ACDBBLOCKREPETAG
1070
     1
1071
      167
1005
11E765
  0
LINE
  5
11E766
  8
OBJECT
 10
5956.0
 20
-1494.9999999999959
 30
0.0
 11
5956.0
 21
-1484.9999999999959
 31
0.0
1001
ACDBBLOCKREPETAG
1070
     1
1071
      168
1005
11E766
  0
LINE
  5
11E767
  8
OBJECT
 10
4090.0
 20
-1469.9999999999959
 30
0.0
 11
3924.0
 21
-1469.9999999999959
 31
0.0
1001
ACDBBLOCKREPETAG
1070
     1
1071
       12
1005
11E767
  0
LINE
  5
11E768
  8
OBJECT
 10
4066.0
 20
-1433.9999999999959
 30
0.0
 11
3934.0
 21
-1433.9999999999959
 31
0.0
1001
ACDBBLOCKREPETAG
1070
     1
1071
       13
1005
11E768
  0
LINE
  5
11E769
  8
OBJECT
 10
4090.0
 20
-1485.0
 30
0.0
 11
4090.0
 21
-1469.9999999999959
 31
0.0
1001
ACDBBLOCKREPETAG
1070
     1
1071
       14
1005
11E769
  0
LINE
  5
11E76A
  8
OBJECT
 10
3924.0
 20
-1485.0
 30
0.0
 11
4090.0
 21
-1485.0
 31
0.0
1001
ACDBBLOCKREPETAG
1070
     1
1071
       15
1005
11E76A
  0
LINE
  5
11E76B
  8
OBJECT
 10
4067.4999999999841
 20
-1485.0
 30
0.0
 11
4067.4999999999841
 21
-1495.0
 31
0.0
1001
ACDBBLOCKREPETAG
1070
     1
1071
       16
1005
11E76B
  0
LINE
  5
11E76C
  8
OBJECT
 10
3924.0
 20
-1495.0
 30
0.0
 11
3924.0
 21
-1508.9999999999959
 31
0.0
1001
ACDBBLOCKREPETAG
1070
     1
1071
       17
1005
11E76C
  0
LINE
  5
11E76D
  8
OBJECT
 10
4090.0
 20
-1495.0
 30
0.0
 11
4090.0
 21
-1508.9999999999959
 31
0.0
1001
ACDBBLOCKREPETAG
1070
     1
1071
       18
1005
11E76D
  0
LINE
  5
11E76E
  8
OBJECT
 10
3924.0
 20
-1508.9999999999959
 30
0.0
 11
4090.0
 21
-1508.9999999999959
 31
0.0
1001
ACDBBLOCKREPETAG
1070
     1
1071
       19
1005
11E76E
  0
LINE
  5
11E76F
  8
OBJECT
 10
3924.0
 20
-1495.0
 30
0.0
 11
4090.0
 21
-1495.0
 31
0.0
1001
ACDBBLOCKREPETAG
1070
     1
1071
       20
1005
11E76F
  0
LINE
  5
11E770
  8
OBJECT
 10
3932.499999999985
 20
-1485.0
 30
0.0
 11
3932.499999999985
 21
-1495.0
 31
0.0
1001
ACDBBLOCKREPETAG
1070
     1
1071
       21
1005
11E770
  0
LINE
  5
11E771
  8
OBJECT
 10
3924.0
 20
-1485.0
 30
0.0
 11
3924.0
 21
-1469.9999999999959
 31
0.0
1001
ACDBBLOCKREPETAG
1070
     1
1071
       22
1005
11E771
  0
LINE
  5
11E772
  8
HIDDEN
 10
3943.0
 20
-1445.0
 30
0.0
 11
4057.0
 21
-1445.0
 31
0.0
1001
ACDBBLOCKREPETAG
1070
     1
1071
       23
1005
11E772
  0
LINE
  5
11E773
  8
CENTER
 10
4000.0
 20
-1175.0
 30
0.0
 11
4000.0
 21
-1523.9999999999959
 31
0.0
1001
ACDBBLOCKREPETAG
1070
     1
1071
       24
1005
11E773
  0
LINE
  5
11E774
  8
OBJECT
 10
3925.0
 20
-1175.0
 30
0.0
 11
3925.0
 21
-1256.9999999999959
 31
0.0
1001
ACDBBLOCKREPETAG
1070
     1
1071
       25
1005
11E774
  0
LINE
  5
11E775
  8
OBJECT
 10
4075.0
 20
-1175.0
 30
0.0
 11
4075.0
 21
-1256.999999999993
 31
0.0
1001
ACDBBLOCKREPETAG
1070
     1
1071
       26
1005
11E775
  0
LINE
  5
11E776
  8
OBJECT
 10
3925.0
 20
-1256.9999999999959
 30
0.0
 11
4075.0
 21
-1256.999999999993
 31
0.0
1001
ACDBBLOCKREPETAG
1070
     1
1071
       27
1005
11E776
  0
LINE
  5
11E777
  8
OBJECT
 10
4057.0
 20
-1433.9999999999959
 30
0.0
 11
4057.0
 21
-1384.999999999992
 31
0.0
1001
ACDBBLOCKREPETAG
1070
     1
1071
       28
1005
11E777
  0
LINE
  5
11E778
  8
OBJECT
 10
3943.0
 20
-1433.9999999999959
 30
0.0
 11
3943.0
 21
-1384.999999999992
 31
0.0
1001
ACDBBLOCKREPETAG
1070
     1
1071
       29
1005
11E778
  0
LINE
  5
11E779
  8
OBJECT
 10
4057.0
 20
-1384.999999999992
 30
0.0
 11
3943.0
 21
-1384.999999999992
 31
0.0
1001
ACDBBLOCKREPETAG
1070
     1
1071
       30
1005
11E779
  0
LINE
  5
11E77A
  8
OBJECT
 10
3925.0
 20
-1256.9999999999959
 30
0.0
 11
3943.0
 21
-1384.999999999992
 31
0.0
1001
ACDBBLOCKREPETAG
1070
     1
1071
       31
1005
11E77A
  0
LINE
  5
11E77B
  8
OBJECT
 10
4057.0
 20
-1384.999999999992
 30
0.0
 11
4075.0
 21
-1256.999999999993
 31
0.0
1001
ACDBBLOCKREPETAG
1070
     1
1071
       32
1005
11E77B
  0
LINE
  5
11E77C
  8
OBJECT
 10
3934.0
 20
-1433.9999999999959
 30
0.0
 11
3934.0
 21
-1469.9999999999959
 31
0.0
1001
ACDBBLOCKREPETAG
1070
     1
1071
       33
1005
11E77C
  0
LINE
  5
11E77D
  8
OBJECT
 10
4066.0
 20
-1433.9999999999959
 30
0.0
 11
4066.0
 21
-1469.9999999999959
 31
0.0
1001
ACDBBLOCKREPETAG
1070
     1
1071
       34
1005
11E77D
  0
LINE
  5
11E77E
  8
OBJECT
 10
4082.9999999999932
 20
-1494.9999999999959
 30
0.0
 11
4082.9999999999932
 21
-1484.9999999999959
 31
0.0
1001
ACDBBLOCKREPETAG
1070
     1
1071
       35
1005
11E77E
  0
LINE
  5
11E77F
  8
OBJECT
 10
4072.9999999999918
 20
-1494.9999999999959
 30
0.0
 11
4072.9999999999918
 21
-1484.9999999999959
 31
0.0
1001
ACDBBLOCKREPETAG
1070
     1
1071
       36
1005
11E77F
  0
LINE
  5
11E780
  8
OBJECT
 10
4068.9999999999841
 20
-1464.9999999999959
 30
0.0
 11
4068.9999999999841
 21
-1469.9999999999959
 31
0.0
1001
ACDBBLOCKREPETAG
1070
     1
1071
       37
1005
11E780
  0
LINE
  5
11E781
  8
OBJECT
 10
4087.0
 20
-1464.9999999999959
 30
0.0
 11
4087.0
 21
-1469.9999999999959
 31
0.0
1001
ACDBBLOCKREPETAG
1070
     1
1071
       38
1005
11E781
  0
LINE
  5
11E782
  8
OBJECT
 10
4087.0
 20
-1464.9999999999959
 30
0.0
 11
4068.9999999999841
 21
-1464.9999999999959
 31
0.0
1001
ACDBBLOCKREPETAG
1070
     1
1071
       39
1005
11E782
  0
LINE
  5
11E783
  8
OBJECT
 10
4073.0
 20
-1516.9999999999959
 30
0.0
 11
4073.0
 21
-1519.9999999999959
 31
0.0
1001
ACDBBLOCKREPETAG
1070
     1
1071
       40
1005
11E783
  0
LINE
  5
11E784
  8
OBJECT
 10
4073.0
 20
-1519.9999999999959
 30
0.0
 11
4083.0
 21
-1519.9999999999959
 31
0.0
1001
ACDBBLOCKREPETAG
1070
     1
1071
       41
1005
11E784
  0
LINE
  5
11E785
  8
OBJECT
 10
4083.0
 20
-1519.9999999999959
 30
0.0
 11
4083.0
 21
-1516.9999999999959
 31
0.0
1001
ACDBBLOCKREPETAG
1070
     1
1071
       43
1005
11E785
  0
LINE
  5
11E786
  8
OBJECT
 10
3968.5
 20
-1464.9999999999959
 30
0.0
 11
3951.9999999999932
 21
-1464.9999999999959
 31
0.0
1001
ACDBBLOCKREPETAG
1070
     1
1071
       48
1005
11E786
  0
LINE
  5
11E787
  8
OBJECT
 10
3976.0
 20
-1469.9999999999959
 30
0.0
 11
3976.0
 21
-1467.9999999999959
 31
0.0
1001
ACDBBLOCKREPETAG
1070
     1
1071
       49
1005
11E787
  0
LINE
  5
11E788
  8
OBJECT
 10
3966.0
 20
-1494.9999999999959
 30
0.0
 11
3966.0
 21
-1484.9999999999959
 31
0.0
1001
ACDBBLOCKREPETAG
1070
     1
1071
       50
1005
11E788
  0
LINE
  5
11E789
  8
OBJECT
 10
3956.0
 20
-1494.9999999999959
 30
0.0
 11
3956.0
 21
-1484.9999999999959
 31
0.0
1001
ACDBBLOCKREPETAG
1070
     1
1071
       51
1005
11E789
  0
LINE
  5
11E78A
  8
OBJECT
 10
3951.9999999999932
 20
-1464.9999999999959
 30
0.0
 11
3951.9999999999932
 21
-1469.9999999999959
 31
0.0
1001
ACDBBLOCKREPETAG
1070
     1
1071
       52
1005
11E78A
  0
LINE
  5
11E78B
  8
OBJECT
 10
3956.0
 20
-1516.9999999999959
 30
0.0
 11
3956.0
 21
-1519.9999999999959
 31
0.0
1001
ACDBBLOCKREPETAG
1070
     1
1071
       53
1005
11E78B
  0
LINE
  5
11E78C
  8
OBJECT
 10
3956.0
 20
-1519.9999999999959
 30
0.0
 11
3966.0
 21
-1519.9999999999959
 31
0.0
1001
ACDBBLOCKREPETAG
1070
     1
1071
       54
1005
11E78C
  0
LINE
  5
11E78D
  8
OBJECT
 10
3951.185045423772
 20
-1516.9999999999959
 30
0.0
 11
3970.8149545762212
 21
-1516.9999999999959
 31
0.0
1001
ACDBBLOCKREPETAG
1070
     1
1071
       55
1005
11E78D
  0
LINE
  5
11E78E
  8
OBJECT
 10
3966.0
 20
-1519.9999999999959
 30
0.0
 11
3966.0
 21
-1516.9999999999959
 31
0.0
1001
ACDBBLOCKREPETAG
1070
     1
1071
       56
1005
11E78E
  0
LINE
  5
11E78F
  8
OBJECT
 10
3976.0
 20
-1467.9999999999959
 30
0.0
 11
3968.5
 21
-1464.9999999999959
 31
0.0
1001
ACDBBLOCKREPETAG
1070
     1
1071
       57
1005
11E78F
  0
LINE
  5
11E790
  8
OBJECT
 10
3951.185045423777
 20
-1508.9999999999959
 30
0.0
 11
3951.185045423777
 21
-1516.9999999999959
 31
0.0
1001
ACDBBLOCKREPETAG
1070
     1
1071
      630
1005
11E790
  0
LINE
  5
11E791
  8
OBJECT
 10
3956.0925227118901
 20
-1508.9999999999959
 30
0.0
 11
3956.0925227118901
 21
-1516.9999999999959
 31
0.0
1001
ACDBBLOCKREPETAG
1070
     1
1071
      631
1005
11E791
  0
LINE
  5
11E792
  8
OBJECT
 10
3965.9074772881122
 20
-1508.9999999999959
 30
0.0
 11
3965.9074772881122
 21
-1516.9999999999959
 31
0.0
1001
ACDBBLOCKREPETAG
1070
     1
1071
      632
1005
11E792
  0
LINE
  5
11E793
  8
OBJECT
 10
3970.814954576223
 20
-1508.9999999999959
 30
0.0
 11
3970.814954576223
 21
-1516.9999999999959
 31
0.0
1001
ACDBBLOCKREPETAG
1070
     1
1071
      633
1005
11E793
  0
LINE
  5
11E794
  8
OBJECT
 10
4068.185045423772
 20
-1516.9999999999959
 30
0.0
 11
4087.8149545762199
 21
-1516.9999999999959
 31
0.0
1001
ACDBBLOCKREPETAG
1070
     1
1071
      634
1005
11E794
  0
LINE
  5
11E795
  8
OBJECT
 10
4068.185045423777
 20
-1508.9999999999959
 30
0.0
 11
4068.185045423777
 21
-1516.9999999999959
 31
0.0
1001
ACDBBLOCKREPETAG
1070
     1
1071
      635
1005
11E795
  0
LINE
  5
11E796
  8
OBJECT
 10
4073.0925227118869
 20
-1508.9999999999959
 30
0.0
 11
4073.0925227118869
 21
-1516.9999999999959
 31
0.0
1001
ACDBBLOCKREPETAG
1070
     1
1071
      636
1005
11E796
  0
LINE
  5
11E797
  8
OBJECT
 10
4082.9074772881122
 20
-1508.9999999999959
 30
0.0
 11
4082.9074772881122
 21
-1516.9999999999959
 31
0.0
1001
ACDBBLOCKREPETAG
1070
     1
1071
      637
1005
11E797
  0
LINE
  5
11E798
  8
OBJECT
 10
4087.814954576223
 20
-1508.9999999999959
 30
0.0
 11
4087.814954576223
 21
-1516.9999999999959
 31
0.0
1001
ACDBBLOCKREPETAG
1070
     1
1071
      638
1005
11E798
  0
LINE
  5
11E799
  8
OBJECT
 10
7925.0
 20
-890.0
 30
0.0
 11
7925.0
 21
-1163.0
 31
0.0
1001
ACDBBLOCKREPETAG
1070
     1
1071
        1
1005
11E799
  0
LINE
  5
11E79A
  8
OBJECT
 10
8075.0
 20
-889.99999999999409
 30
0.0
 11
8075.0
 21
-1163.0
 31
0.0
1001
ACDBBLOCKREPETAG
1070
     1
1071
        3
1005
11E79A
  0
LINE
  5
11E79B
  8
CENTER
 10
8000.0
 20
-890.0
 30
0.0
 11
8000.0
 21
-1175.0
 31
0.0
1001
ACDBBLOCKREPETAG
1070
     1
1071
        6
1005
11E79B
  0
LINE
  5
11E79C
  8
OBJECT
 10
7920.0
 20
-1175.0
 30
0.0
 11
8080.0
 21
-1175.0
 31
0.0
1001
ACDBBLOCKREPETAG
1070
     1
1071
        7
1005
11E79C
  0
LINE
  5
11E79D
  8
OBJECT
 10
7920.0
 20
-1163.0
 30
0.0
 11
8080.0
 21
-1163.0
 31
0.0
1001
ACDBBLOCKREPETAG
1070
     1
1071
        8
1005
11E79D
  0
LINE
  5
11E79E
  8
OBJECT
 10
7920.0
 20
-1163.0
 30
0.0
 11
7920.0
 21
-1175.0
 31
0.0
1001
ACDBBLOCKREPETAG
1070
     1
1071
        9
1005
11E79E
  0
LINE
  5
11E79F
  8
OBJECT
 10
8080.0
 20
-1163.0
 30
0.0
 11
8080.0
 21
-1175.0
 31
0.0
1001
ACDBBLOCKREPETAG
1070
     1
1071
       10
1005
11E79F
  0
LINE
  5
11E7A0
  8
OBJECT
 10
9925.0
 20
-890.0
 30
0.0
 11
9925.0
 21
-1163.0
 31
0.0
1001
ACDBBLOCKREPETAG
1070
     1
1071
        1
1005
11E7A0
  0
LINE
  5
11E7A1
  8
OBJECT
 10
10075.0
 20
-889.99999999999409
 30
0.0
 11
10075.0
 21
-1163.0
 31
0.0
1001
ACDBBLOCKREPETAG
1070
     1
1071
        3
1005
11E7A1
  0
LINE
  5
11E7A2
  8
CENTER
 10
10000.0
 20
-890.0
 30
0.0
 11
10000.0
 21
-1175.0
 31
0.0
1001
ACDBBLOCKREPETAG
1070
     1
1071
        6
1005
11E7A2
  0
LINE
  5
11E7A3
  8
OBJECT
 10
9920.0
 20
-1175.0
 30
0.0
 11
10080.0
 21
-1175.0
 31
0.0
1001
ACDBBLOCKREPETAG
1070
     1
1071
        7
1005
11E7A3
  0
LINE
  5
11E7A4
  8
OBJECT
 10
9920.0
 20
-1163.0
 30
0.0
 11
10080.0
 21
-1163.0
 31
0.0
1001
ACDBBLOCKREPETAG
1070
     1
1071
        8
1005
11E7A4
  0
LINE
  5
11E7A5
  8
OBJECT
 10
9920.0
 20
-1163.0
 30
0.0
 11
9920.0
 21
-1175.0
 31
0.0
1001
ACDBBLOCKREPETAG
1070
     1
1071
        9
1005
11E7A5
  0
LINE
  5
11E7A6
  8
OBJECT
 10
10080.0
 20
-1163.0
 30
0.0
 11
10080.0
 21
-1175.0
 31
0.0
1001
ACDBBLOCKREPETAG
1070
     1
1071
       10
1005
11E7A6
  0
LINE
  5
11E7A7
  8
OBJECT
 10
11925.0
 20
-890.0
 30
0.0
 11
11925.0
 21
-1163.0
 31
0.0
1001
ACDBBLOCKREPETAG
1070
     1
1071
        1
1005
11E7A7
  0
LINE
  5
11E7A8
  8
OBJECT
 10
12075.0
 20
-889.99999999999409
 30
0.0
 11
12075.0
 21
-1163.0
 31
0.0
1001
ACDBBLOCKREPETAG
1070
     1
1071
        3
1005
11E7A8
  0
LINE
  5
11E7A9
  8
CENTER
 10
12000.0
 20
-890.0
 30
0.0
 11
12000.0
 21
-1175.0
 31
0.0
1001
ACDBBLOCKREPETAG
1070
     1
1071
        6
1005
11E7A9
  0
LINE
  5
11E7AA
  8
OBJECT
 10
11920.0
 20
-1175.0
 30
0.0
 11
12080.0
 21
-1175.0
 31
0.0
1001
ACDBBLOCKREPETAG
1070
     1
1071
        7
1005
11E7AA
  0
LINE
  5
11E7AB
  8
OBJECT
 10
11920.0
 20
-1163.0
 30
0.0
 11
12080.0
 21
-1163.0
 31
0.0
1001
ACDBBLOCKREPETAG
1070
     1
1071
        8
1005
11E7AB
  0
LINE
  5
11E7AC
  8
OBJECT
 10
11920.0
 20
-1163.0
 30
0.0
 11
11920.0
 21
-1175.0
 31
0.0
1001
ACDBBLOCKREPETAG
1070
     1
1071
        9
1005
11E7AC
  0
LINE
  5
11E7AD
  8
OBJECT
 10
12080.0
 20
-1163.0
 30
0.0
 11
12080.0
 21
-1175.0
 31
0.0
1001
ACDBBLOCKREPETAG
1070
     1
1071
       10
1005
11E7AD
  0
LINE
  5
11E7AE
  8
CENTER
 10
11909.0
 20
-1758.9999999999959
 30
0.0
 11
12105.0
 21
-1758.9999999999959
 31
0.0
1001
ACDBBLOCKREPETAG
1070
     1
1071
       10
1005
11E7AE
  0
LINE
  5
11E7AF
  8
CENTER
 10
12000.0
 20
-1667.7253355707801
 30
0.0
 11
12000.0
 21
-1850.274664429212
 31
0.0
1001
ACDBBLOCKREPETAG
1070
     1
1071
       11
1005
11E7AF
  0
CIRCLE
  5
11E7B0
  8
OBJECT
 10
12000.0
 20
-1758.9999999999959
 30
0.0
 40
50.0
1001
ACDBBLOCKREPETAG
1070
     1
1071
       12
1005
11E7B0
  0
CIRCLE
  5
11E7B1
  8
OBJECT
 10
12000.0
 20
-1758.9999999999959
 30
0.0
 40
60.0
1001
ACDBBLOCKREPETAG
1070
     1
1071
       13
1005
11E7B1
  0
CIRCLE
  5
11E7B2
  8
OBJECT
 10
12000.0
 20
-1758.9999999999959
 30
0.0
 40
68.0
1001
ACDBBLOCKREPETAG
1070
     1
1071
       14
1005
11E7B2
  0
ARC
  5
11E7B3
  8
OBJECT
 10
12077.5
 20
-1758.9999999999959
 30
0.0
 40
12.0
 50
272.10542627221611
 51
87.894573727783893
1001
ACDBBLOCKREPETAG
1070
     1
1071
       15
1005
11E7B3
  0
ARC
  5
11E7B4
  8
OBJECT
 10
12078.49193548386
 20
-1732.0182271895239
 30
0.0
 40
15.0
 50
198.97051877965251
 51
267.89457372778372
1001
ACDBBLOCKREPETAG
1070
     1
1071
       16
1005
11E7B4
  0
ARC
  5
11E7B5
  8
OBJECT
 10
12078.49193548386
 20
-1785.981772810464
 30
0.0
 40
15.0
 50
92.105426272216135
 51
161.02948122034729
1001
ACDBBLOCKREPETAG
1070
     1
1071
       17
1005
11E7B5
  0
CIRCLE
  5
11E7B6
  8
SLIM
 10
12078.0
 20
-1758.9999999999959
 30
0.0
 40
8.0
1001
ACDBBLOCKREPETAG
1070
     1
1071
       18
1005
11E7B6
  0
POLYLINE
  5
11E7B7
  8
SLIM
 66
     1
 10
0.0
 20
0.0
 30
0.0
 70
     1
1001
ACDBBLOCKREPETAG
1070
     1
1071
       19
1005
11E7B7
  0
VERTEX
  5
11E9E0
  8
SLIM
 10
12075.69059892322
 20
-1754.9999999999959
 30
0.0
  0
VERTEX
  5
11E9E1
  8
SLIM
 10
12073.38119784648
 20
-1758.9999999999959
 30
0.0
  0
VERTEX
  5
11E9E2
  8
SLIM
 10
12075.69059892322
 20
-1762.9999999999959
 30
0.0
  0
VERTEX
  5
11E9E3
  8
SLIM
 10
12080.309401076751
 20
-1762.9999999999959
 30
0.0
  0
VERTEX
  5
11E9E4
  8
SLIM
 10
12082.618802153511
 20
-1758.9999999999959
 30
0.0
  0
VERTEX
  5
11E9E5
  8
SLIM
 10
12080.309401076751
 20
-1754.9999999999959
 30
0.0
  0
SEQEND
  5
11E9E6
  8
SLIM
  0
ARC
  5
11E7B8
  8
OBJECT
 10
11961.25
 20
-1691.8830312067
 30
0.0
 40
12.0
 50
32.105426272130188
 51
207.89457372768319
1001
ACDBBLOCKREPETAG
1070
     1
1071
       20
1005
11E7B8
  0
ARC
  5
11E7B9
  8
OBJECT
 10
11937.38713156505
 20
-1704.514876283989
 30
0.0
 40
15.0
 50
318.97051877944762
 51
27.89457372768311
1001
ACDBBLOCKREPETAG
1070
     1
1071
       21
1005
11E7B9
  0
ARC
  5
11E7BA
  8
OBJECT
 10
11984.120932951069
 20
-1677.533103473517
 30
0.0
 40
15.0
 50
212.10542627213019
 51
281.02948122044069
1001
ACDBBLOCKREPETAG
1070
     1
1071
       22
1005
11E7BA
  0
CIRCLE
  5
11E7BB
  8
SLIM
 10
11961.0
 20
-1691.4500185048089
 30
0.0
 40
7.9999999999999982
1001
ACDBBLOCKREPETAG
1070
     1
1071
       23
1005
11E7BB
  0
POLYLINE
  5
11E7BC
  8
SLIM
 66
     1
 10
0.0
 20
0.0
 30
0.0
 70
     1
1001
ACDBBLOCKREPETAG
1070
     1
1071
       24
1005
11E7BC
  0
VERTEX
  5
11E9E7
  8
SLIM
 10
11958.69059892324
 20
-1695.450018504808
 30
0.0
  0
VERTEX
  5
11E9E8
  8
SLIM
 10
11963.309401076751
 20
-1695.450018504808
 30
0.0
  0
VERTEX
  5
11E9E9
  8
SLIM
 10
11965.618802153511
 20
-1691.4500185048089
 30
0.0
  0
VERTEX
  5
11E9EA
  8
SLIM
 10
11963.309401076751
 20
-1687.4500185048089
 30
0.0
  0
VERTEX
  5
11E9EB
  8
SLIM
 10
11958.69059892324
 20
-1687.4500185048089
 30
0.0
  0
VERTEX
  5
11E9EC
  8
SLIM
 10
11956.38119784648
 20
-1691.4500185048089
 30
0.0
  0
SEQEND
  5
11E9ED
  8
SLIM
  0
ARC
  5
11E7BD
  8
OBJECT
 10
11961.25
 20
-1826.1169687932891
 30
0.0
 40
12.0
 50
152.10542627231681
 51
327.89457372786978
1001
ACDBBLOCKREPETAG
1070
     1
1071
       25
1005
11E7BD
  0
ARC
  5
11E7BE
  8
OBJECT
 10
11984.120932951069
 20
-1840.4668965264721
 30
0.0
 40
15.0
 50
78.970518779559228
 51
147.89457372786981
1001
ACDBBLOCKREPETAG
1070
     1
1071
       26
1005
11E7BE
  0
ARC
  5
11E7BF
  8
OBJECT
 10
11937.38713156505
 20
-1813.485123716004
 30
0.0
 40
15.0
 50
332.10542627231678
 51
41.029481220552412
1001
ACDBBLOCKREPETAG
1070
     1
1071
       27
1005
11E7BF
  0
CIRCLE
  5
11E7C0
  8
SLIM
 10
11961.0
 20
-1826.5499814951829
 30
0.0
 40
8.0
1001
ACDBBLOCKREPETAG
1070
     1
1071
       28
1005
11E7C0
  0
POLYLINE
  5
11E7C1
  8
SLIM
 66
     1
 10
0.0
 20
0.0
 30
0.0
 70
     1
1001
ACDBBLOCKREPETAG
1070
     1
1071
       29
1005
11E7C1
  0
VERTEX
  5
11E9EE
  8
SLIM
 10
11965.618802153511
 20
-1826.54998149518
 30
0.0
  0
VERTEX
  5
11E9EF
  8
SLIM
 10
11963.309401076751
 20
-1822.5499814951829
 30
0.0
  0
VERTEX
  5
11E9F0
  8
SLIM
 10
11958.69059892324
 20
-1822.54998149518
 30
0.0
  0
VERTEX
  5
11E9F1
  8
SLIM
 10
11956.38119784648
 20
-1826.5499814951829
 30
0.0
  0
VERTEX
  5
11E9F2
  8
SLIM
 10
11958.69059892322
 20
-1830.54998149518
 30
0.0
  0
VERTEX
  5
11E9F3
  8
SLIM
 10
11963.309401076751
 20
-1830.5499814951841
 30
0.0
  0
SEQEND
  5
11E9F4
  8
SLIM
  0
ARC
  5
11E7C2
  8
OBJECT
 10
12000.0
 20
-1758.9999999999959
 30
0.0
 40
76.0
 50
34.863837954171863
 51
85.136162045732945
1001
ACDBBLOCKREPETAG
1070
     1
1071
       42
1005
11E7C2
  0
ARC
  5
11E7C3
  8
OBJECT
 10
12000.0
 20
-1758.9999999999959
 30
0.0
 40
76.0
 50
154.86383795430939
 51
205.1361620456905
1001
ACDBBLOCKREPETAG
1070
     1
1071
       43
1005
11E7C3
  0
ARC
  5
11E7C4
  8
OBJECT
 10
12000.0
 20
-1758.9999999999959
 30
0.0
 40
76.0
 50
274.86383795426718
 51
325.13616204582797
1001
ACDBBLOCKREPETAG
1070
     1
1071
       44
1005
11E7C4
  0
ARC
  5
11E7C5
  8
OBJECT
 10
12078.0
 20
-1758.9999999999959
 30
0.0
 40
12.0
 50
325.13616204582797
 51
34.863837954171863
1001
ACDBBLOCKREPETAG
1070
     1
1071
       45
1005
11E7C5
  0
LINE
  5
11E7C6
  8
OBJECT
 10
12087.84615384616
 20
-1752.140462520134
 30
0.0
 11
12062.358974359049
 21
-1715.556262627535
 31
0.0
1001
ACDBBLOCKREPETAG
1070
     1
1071
       46
1005
11E7C6
  0
LINE
  5
11E7C7
  8
OBJECT
 10
12087.846153846171
 20
-1765.859537479857
 30
0.0
 11
12062.358974359049
 21
-1802.4437373724591
 31
0.0
1001
ACDBBLOCKREPETAG
1070
     1
1071
       47
1005
11E7C7
  0
ARC
  5
11E7C8
  8
OBJECT
 10
11961.0
 20
-1691.4500185048109
 30
0.0
 40
12.0
 50
85.136162045942811
 51
154.86383795410001
1001
ACDBBLOCKREPETAG
1070
     1
1071
       48
1005
11E7C8
  0
LINE
  5
11E7C9
  8
OBJECT
 10
11950.13638936114
 20
-1686.3527678843909
 30
0.0
 11
11931.19713262058
 21
-1726.7174127373471
 31
0.0
1001
ACDBBLOCKREPETAG
1070
     1
1071
       49
1005
11E7C9
  0
LINE
  5
11E7CA
  8
OBJECT
 10
11962.017456792681
 20
-1679.4932304045269
 30
0.0
 11
12006.443893020371
 21
-1683.273675364886
 31
0.0
1001
ACDBBLOCKREPETAG
1070
     1
1071
       50
1005
11E7CA
  0
ARC
  5
11E7CB
  8
OBJECT
 10
11961.0
 20
-1826.549981495182
 30
0.0
 40
12.0
 50
205.13616204589991
 51
274.8638379540572
1001
ACDBBLOCKREPETAG
1070
     1
1071
       51
1005
11E7CB
  0
LINE
  5
11E7CC
  8
OBJECT
 10
11962.01745679269
 20
-1838.506769595464
 30
0.0
 11
12006.44389302036
 21
-1834.7263246351069
 31
0.0
1001
ACDBBLOCKREPETAG
1070
     1
1071
       52
1005
11E7CC
  0
LINE
  5
11E7CD
  8
OBJECT
 10
11950.13638936114
 20
-1831.647232115605
 30
0.0
 11
11931.19713262058
 21
-1791.282587262642
 31
0.0
1001
ACDBBLOCKREPETAG
1070
     1
1071
       53
1005
11E7CD
  0
LINE
  5
11E7CE
  8
CENTER
 10
9909.0
 20
-1758.9999999999959
 30
0.0
 11
10105.0
 21
-1758.9999999999959
 31
0.0
1001
ACDBBLOCKREPETAG
1070
     1
1071
        0
1005
11E7CE
  0
LINE
  5
11E7CF
  8
CENTER
 10
10000.0
 20
-1667.7253355707801
 30
0.0
 11
10000.0
 21
-1850.274664429212
 31
0.0
1001
ACDBBLOCKREPETAG
1070
     1
1071
        1
1005
11E7CF
  0
CIRCLE
  5
11E7D0
  8
OBJECT
 10
10000.0
 20
-1758.9999999999959
 30
0.0
 40
50.0
1001
ACDBBLOCKREPETAG
1070
     1
1071
        2
1005
11E7D0
  0
CIRCLE
  5
11E7D1
  8
OBJECT
 10
10000.0
 20
-1758.9999999999959
 30
0.0
 40
62.0
1001
ACDBBLOCKREPETAG
1070
     1
1071
        3
1005
11E7D1
  0
CIRCLE
  5
11E7D2
  8
SLIM
 10
10078.0
 20
-1758.9999999999959
 30
0.0
 40
5.0
1001
ACDBBLOCKREPETAG
1070
     1
1071
        4
1005
11E7D2
  0
POLYLINE
  5
11E7D3
  8
SLIM
 66
     1
 10
0.0
 20
0.0
 30
0.0
 70
     1
1001
ACDBBLOCKREPETAG
1070
     1
1071
        5
1005
11E7D3
  0
VERTEX
  5
11E9F5
  8
SLIM
 10
10073.092522711881
 20
-1750.4999999999959
 30
0.0
  0
VERTEX
  5
11E9F6
  8
SLIM
 10
10068.18504542377
 20
-1758.9999999999959
 30
0.0
  0
VERTEX
  5
11E9F7
  8
SLIM
 10
10073.092522711881
 20
-1767.4999999999959
 30
0.0
  0
VERTEX
  5
11E9F8
  8
SLIM
 10
10082.907477288099
 20
-1767.4999999999959
 30
0.0
  0
VERTEX
  5
11E9F9
  8
SLIM
 10
10087.814954576221
 20
-1758.9999999999959
 30
0.0
  0
VERTEX
  5
11E9FA
  8
SLIM
 10
10082.907477288099
 20
-1750.4999999999959
 30
0.0
  0
SEQEND
  5
11E9FB
  8
SLIM
  0
CIRCLE
  5
11E7D4
  8
SLIM
 10
9961.0
 20
-1691.4500185048089
 30
0.0
 40
4.9999999999999991
1001
ACDBBLOCKREPETAG
1070
     1
1071
        6
1005
11E7D4
  0
POLYLINE
  5
11E7D5
  8
SLIM
 66
     1
 10
0.0
 20
0.0
 30
0.0
 70
     1
1001
ACDBBLOCKREPETAG
1070
     1
1071
        7
1005
11E7D5
  0
VERTEX
  5
11E9FC
  8
SLIM
 10
9956.092522711886
 20
-1699.9500185048089
 30
0.0
  0
VERTEX
  5
11E9FD
  8
SLIM
 10
9965.907477288114
 20
-1699.9500185048089
 30
0.0
  0
VERTEX
  5
11E9FE
  8
SLIM
 10
9970.814954576219
 20
-1691.4500185048089
 30
0.0
  0
VERTEX
  5
11E9FF
  8
SLIM
 10
9965.907477288114
 20
-1682.9500185048089
 30
0.0
  0
VERTEX
  5
11EA00
  8
SLIM
 10
9956.092522711886
 20
-1682.9500185048089
 30
0.0
  0
VERTEX
  5
11EA01
  8
SLIM
 10
9951.185045423772
 20
-1691.4500185048089
 30
0.0
  0
SEQEND
  5
11EA02
  8
SLIM
  0
CIRCLE
  5
11E7D6
  8
SLIM
 10
9961.0
 20
-1826.5499814951829
 30
0.0
 40
5.0
1001
ACDBBLOCKREPETAG
1070
     1
1071
        8
1005
11E7D6
  0
POLYLINE
  5
11E7D7
  8
SLIM
 66
     1
 10
0.0
 20
0.0
 30
0.0
 70
     1
1001
ACDBBLOCKREPETAG
1070
     1
1071
        9
1005
11E7D7
  0
VERTEX
  5
11EA03
  8
SLIM
 10
9970.814954576219
 20
-1826.5499814951829
 30
0.0
  0
VERTEX
  5
11EA04
  8
SLIM
 10
9965.9074772881049
 20
-1818.04998149518
 30
0.0
  0
VERTEX
  5
11EA05
  8
SLIM
 10
9956.092522711886
 20
-1818.0499814951841
 30
0.0
  0
VERTEX
  5
11EA06
  8
SLIM
 10
9951.185045423772
 20
-1826.54998149518
 30
0.0
  0
VERTEX
  5
11EA07
  8
SLIM
 10
9956.092522711886
 20
-1835.0499814951829
 30
0.0
  0
VERTEX
  5
11EA08
  8
SLIM
 10
9965.907477288114
 20
-1835.04998149518
 30
0.0
  0
SEQEND
  5
11EA09
  8
SLIM
  0
ARC
  5
11E7D8
  8
OBJECT
 10
10000.0
 20
-1758.9999999999959
 30
0.0
 40
76.0
 50
34.863837954171863
 51
85.136162045732945
1001
ACDBBLOCKREPETAG
1070
     1
1071
       30
1005
11E7D8
  0
ARC
  5
11E7D9
  8
OBJECT
 10
10000.0
 20
-1758.9999999999959
 30
0.0
 40
76.0
 50
154.86383795430939
 51
205.1361620456905
1001
ACDBBLOCKREPETAG
1070
     1
1071
       31
1005
11E7D9
  0
ARC
  5
11E7DA
  8
OBJECT
 10
10000.0
 20
-1758.9999999999959
 30
0.0
 40
76.0
 50
274.86383795426718
 51
325.13616204582797
1001
ACDBBLOCKREPETAG
1070
     1
1071
       32
1005
11E7DA
  0
ARC
  5
11E7DB
  8
OBJECT
 10
10078.0
 20
-1758.9999999999959
 30
0.0
 40
12.0
 50
325.13616204582797
 51
34.863837954171863
1001
ACDBBLOCKREPETAG
1070
     1
1071
       33
1005
11E7DB
  0
LINE
  5
11E7DC
  8
OBJECT
 10
10087.84615384616
 20
-1752.140462520134
 30
0.0
 11
10062.35897435904
 21
-1715.556262627535
 31
0.0
1001
ACDBBLOCKREPETAG
1070
     1
1071
       34
1005
11E7DC
  0
LINE
  5
11E7DD
  8
OBJECT
 10
10087.846153846171
 20
-1765.859537479857
 30
0.0
 11
10062.35897435904
 21
-1802.4437373724591
 31
0.0
1001
ACDBBLOCKREPETAG
1070
     1
1071
       35
1005
11E7DD
  0
ARC
  5
11E7DE
  8
OBJECT
 10
9961.0
 20
-1691.4500185048109
 30
0.0
 40
12.0
 50
85.136162045942811
 51
154.86383795410001
1001
ACDBBLOCKREPETAG
1070
     1
1071
       36
1005
11E7DE
  0
LINE
  5
11E7DF
  8
OBJECT
 10
9950.1363893611433
 20
-1686.3527678843909
 30
0.0
 11
9931.1971326205894
 21
-1726.7174127373471
 31
0.0
1001
ACDBBLOCKREPETAG
1070
     1
1071
       37
1005
11E7DF
  0
LINE
  5
11E7E0
  8
OBJECT
 10
9962.0174567926842
 20
-1679.4932304045269
 30
0.0
 11
10006.443893020371
 21
-1683.273675364886
 31
0.0
1001
ACDBBLOCKREPETAG
1070
     1
1071
       38
1005
11E7E0
  0
ARC
  5
11E7E1
  8
OBJECT
 10
9961.0
 20
-1826.549981495182
 30
0.0
 40
12.0
 50
205.13616204589991
 51
274.8638379540572
1001
ACDBBLOCKREPETAG
1070
     1
1071
       39
1005
11E7E1
  0
LINE
  5
11E7E2
  8
OBJECT
 10
9962.0174567926897
 20
-1838.506769595464
 30
0.0
 11
10006.44389302036
 21
-1834.7263246351069
 31
0.0
1001
ACDBBLOCKREPETAG
1070
     1
1071
       40
1005
11E7E2
  0
LINE
  5
11E7E3
  8
OBJECT
 10
9950.1363893611433
 20
-1831.647232115605
 30
0.0
 11
9931.1971326205821
 21
-1791.282587262642
 31
0.0
1001
ACDBBLOCKREPETAG
1070
     1
1071
       41
1005
11E7E3
  0
LINE
  5
11E7E4
  8
CENTER
 10
5909.0
 20
-1800.0
 30
0.0
 11
6105.0
 21
-1800.0
 31
0.0
1001
ACDBBLOCKREPETAG
1070
     1
1071
       10
1005
11E7E4
  0
LINE
  5
11E7E5
  8
CENTER
 10
6000.0
 20
-1708.725335570783
 30
0.0
 11
6000.0
 21
-1891.274664429216
 31
0.0
1001
ACDBBLOCKREPETAG
1070
     1
1071
       11
1005
11E7E5
  0
CIRCLE
  5
11E7E6
  8
OBJECT
 10
6000.0
 20
-1800.0
 30
0.0
 40
50.0
1001
ACDBBLOCKREPETAG
1070
     1
1071
       12
1005
11E7E6
  0
CIRCLE
  5
11E7E7
  8
OBJECT
 10
6000.0
 20
-1800.0
 30
0.0
 40
60.0
1001
ACDBBLOCKREPETAG
1070
     1
1071
       13
1005
11E7E7
  0
CIRCLE
  5
11E7E8
  8
OBJECT
 10
6000.0
 20
-1800.0
 30
0.0
 40
68.0
1001
ACDBBLOCKREPETAG
1070
     1
1071
       14
1005
11E7E8
  0
ARC
  5
11E7E9
  8
OBJECT
 10
6077.5
 20
-1800.0
 30
0.0
 40
12.0
 50
272.10542627221611
 51
87.894573727783893
1001
ACDBBLOCKREPETAG
1070
     1
1071
       15
1005
11E7E9
  0
ARC
  5
11E7EA
  8
OBJECT
 10
6078.4919354838639
 20
-1773.018227189528
 30
0.0
 40
15.0
 50
198.9705187796356
 51
267.89457372778372
1001
ACDBBLOCKREPETAG
1070
     1
1071
       16
1005
11E7EA
  0
ARC
  5
11E7EB
  8
OBJECT
 10
6078.4919354838639
 20
-1826.9817728104681
 30
0.0
 40
15.0
 50
92.105426272216135
 51
161.02948122036429
1001
ACDBBLOCKREPETAG
1070
     1
1071
       17
1005
11E7EB
  0
CIRCLE
  5
11E7EC
  8
SLIM
 10
6078.0
 20
-1800.0
 30
0.0
 40
8.0
1001
ACDBBLOCKREPETAG
1070
     1
1071
       18
1005
11E7EC
  0
POLYLINE
  5
11E7ED
  8
SLIM
 66
     1
 10
0.0
 20
0.0
 30
0.0
 70
     1
1001
ACDBBLOCKREPETAG
1070
     1
1071
       19
1005
11E7ED
  0
VERTEX
  5
11EA0A
  8
SLIM
 10
6075.6905989232328
 20
-1796.0
 30
0.0
  0
VERTEX
  5
11EA0B
  8
SLIM
 10
6073.3811978464801
 20
-1800.0
 30
0.0
  0
VERTEX
  5
11EA0C
  8
SLIM
 10
6075.6905989232328
 20
-1803.9999999999991
 30
0.0
  0
VERTEX
  5
11EA0D
  8
SLIM
 10
6080.3094010767527
 20
-1803.9999999999991
 30
0.0
  0
VERTEX
  5
11EA0E
  8
SLIM
 10
6082.6188021535136
 20
-1800.0
 30
0.0
  0
VERTEX
  5
11EA0F
  8
SLIM
 10
6080.3094010767527
 20
-1796.0
 30
0.0
  0
SEQEND
  5
11EA10
  8
SLIM
  0
ARC
  5
11E7EE
  8
OBJECT
 10
5961.25
 20
-1732.883031206703
 30
0.0
 40
12.0
 50
32.105426272157878
 51
207.89457372770741
1001
ACDBBLOCKREPETAG
1070
     1
1071
       20
1005
11E7EE
  0
ARC
  5
11E7EF
  8
OBJECT
 10
5937.387131565054
 20
-1745.514876283992
 30
0.0
 40
15.0
 50
318.97051877944762
 51
27.894573727707481
1001
ACDBBLOCKREPETAG
1070
     1
1071
       21
1005
11E7EF
  0
ARC
  5
11E7F0
  8
OBJECT
 10
5984.1209329510702
 20
-1718.53310347352
 30
0.0
 40
15.0
 50
212.1054262721579
 51
281.02948122044069
1001
ACDBBLOCKREPETAG
1070
     1
1071
       22
1005
11E7F0
  0
CIRCLE
  5
11E7F1
  8
SLIM
 10
5961.0
 20
-1732.4500185048121
 30
0.0
 40
7.9999999999999982
1001
ACDBBLOCKREPETAG
1070
     1
1071
       23
1005
11E7F1
  0
POLYLINE
  5
11E7F2
  8
SLIM
 66
     1
 10
0.0
 20
0.0
 30
0.0
 70
     1
1001
ACDBBLOCKREPETAG
1070
     1
1071
       24
1005
11E7F2
  0
VERTEX
  5
11EA11
  8
SLIM
 10
5958.69059892324
 20
-1736.4500185048121
 30
0.0
  0
VERTEX
  5
11EA12
  8
SLIM
 10
5963.3094010767518
 20
-1736.4500185048121
 30
0.0
  0
VERTEX
  5
11EA13
  8
SLIM
 10
5965.6188021535136
 20
-1732.4500185048121
 30
0.0
  0
VERTEX
  5
11EA14
  8
SLIM
 10
5963.3094010767518
 20
-1728.4500185048121
 30
0.0
  0
VERTEX
  5
11EA15
  8
SLIM
 10
5958.69059892324
 20
-1728.4500185048121
 30
0.0
  0
VERTEX
  5
11EA16
  8
SLIM
 10
5956.3811978464792
 20
-1732.4500185048121
 30
0.0
  0
SEQEND
  5
11EA17
  8
SLIM
  0
ARC
  5
11E7F3
  8
OBJECT
 10
5961.25
 20
-1867.116968793292
 30
0.0
 40
12.0
 50
152.1054262722925
 51
327.89457372784221
1001
ACDBBLOCKREPETAG
1070
     1
1071
       25
1005
11E7F3
  0
ARC
  5
11E7F4
  8
OBJECT
 10
5984.1209329510702
 20
-1881.466896526475
 30
0.0
 40
15.0
 50
78.970518779559228
 51
147.8945737278421
1001
ACDBBLOCKREPETAG
1070
     1
1071
       26
1005
11E7F4
  0
ARC
  5
11E7F5
  8
OBJECT
 10
5937.387131565054
 20
-1854.485123716006
 30
0.0
 40
15.0
 50
332.1054262722925
 51
41.029481220552412
1001
ACDBBLOCKREPETAG
1070
     1
1071
       27
1005
11E7F5
  0
CIRCLE
  5
11E7F6
  8
SLIM
 10
5961.0
 20
-1867.549981495187
 30
0.0
 40
8.0
1001
ACDBBLOCKREPETAG
1070
     1
1071
       28
1005
11E7F6
  0
POLYLINE
  5
11E7F7
  8
SLIM
 66
     1
 10
0.0
 20
0.0
 30
0.0
 70
     1
1001
ACDBBLOCKREPETAG
1070
     1
1071
       29
1005
11E7F7
  0
VERTEX
  5
11EA18
  8
SLIM
 10
5965.6188021535136
 20
-1867.5499814951829
 30
0.0
  0
VERTEX
  5
11EA19
  8
SLIM
 10
5963.3094010767518
 20
-1863.549981495187
 30
0.0
  0
VERTEX
  5
11EA1A
  8
SLIM
 10
5958.69059892324
 20
-1863.549981495182
 30
0.0
  0
VERTEX
  5
11EA1B
  8
SLIM
 10
5956.3811978464792
 20
-1867.549981495187
 30
0.0
  0
VERTEX
  5
11EA1C
  8
SLIM
 10
5958.6905989232328
 20
-1871.549981495182
 30
0.0
  0
VERTEX
  5
11EA1D
  8
SLIM
 10
5963.3094010767518
 20
-1871.549981495187
 30
0.0
  0
SEQEND
  5
11EA1E
  8
SLIM
  0
ARC
  5
11E7F8
  8
OBJECT
 10
6000.0
 20
-1800.0
 30
0.0
 40
76.0
 50
34.863837954142063
 51
85.136162045732945
1001
ACDBBLOCKREPETAG
1070
     1
1071
       42
1005
11E7F8
  0
ARC
  5
11E7F9
  8
OBJECT
 10
6000.0
 20
-1800.0
 30
0.0
 40
76.0
 50
154.86383795430939
 51
205.1361620456905
1001
ACDBBLOCKREPETAG
1070
     1
1071
       43
1005
11E7F9
  0
ARC
  5
11E7FA
  8
OBJECT
 10
6000.0
 20
-1800.0
 30
0.0
 40
76.0
 50
274.86383795426718
 51
325.13616204585799
1001
ACDBBLOCKREPETAG
1070
     1
1071
       44
1005
11E7FA
  0
ARC
  5
11E7FB
  8
OBJECT
 10
6078.0
 20
-1800.0
 30
0.0
 40
12.0
 50
325.13616204585799
 51
34.863837954142063
1001
ACDBBLOCKREPETAG
1070
     1
1071
       45
1005
11E7FB
  0
LINE
  5
11E7FC
  8
OBJECT
 10
6087.846153846167
 20
-1793.1404625201369
 30
0.0
 11
6062.3589743590501
 21
-1756.556262627538
 31
0.0
1001
ACDBBLOCKREPETAG
1070
     1
1071
       46
1005
11E7FC
  0
LINE
  5
11E7FD
  8
OBJECT
 10
6087.8461538461697
 20
-1806.8595374798599
 30
0.0
 11
6062.3589743590501
 21
-1843.4437373724629
 31
0.0
1001
ACDBBLOCKREPETAG
1070
     1
1071
       47
1005
11E7FD
  0
ARC
  5
11E7FE
  8
OBJECT
 10
5961.0
 20
-1732.4500185048139
 30
0.0
 40
12.0
 50
85.136162045942811
 51
154.86383795410001
1001
ACDBBLOCKREPETAG
1070
     1
1071
       48
1005
11E7FE
  0
LINE
  5
11E7FF
  8
OBJECT
 10
5950.1363893611451
 20
-1727.3527678843941
 30
0.0
 11
5931.1971326205849
 21
-1767.7174127373501
 31
0.0
1001
ACDBBLOCKREPETAG
1070
     1
1071
       49
1005
11E7FF
  0
LINE
  5
11E800
  8
OBJECT
 10
5962.0174567926842
 20
-1720.4932304045301
 30
0.0
 11
6006.4438930203669
 21
-1724.273675364889
 31
0.0
1001
ACDBBLOCKREPETAG
1070
     1
1071
       50
1005
11E800
  0
ARC
  5
11E801
  8
OBJECT
 10
5961.0
 20
-1867.549981495185
 30
0.0
 40
12.0
 50
205.13616204589991
 51
274.8638379540572
1001
ACDBBLOCKREPETAG
1070
     1
1071
       51
1005
11E801
  0
LINE
  5
11E802
  8
OBJECT
 10
5962.0174567926879
 20
-1879.5067695954669
 30
0.0
 11
6006.4438930203651
 21
-1875.726324635109
 31
0.0
1001
ACDBBLOCKREPETAG
1070
     1
1071
       52
1005
11E802
  0
LINE
  5
11E803
  8
OBJECT
 10
5950.1363893611451
 20
-1872.6472321156079
 30
0.0
 11
5931.1971326205821
 21
-1832.2825872626461
 31
0.0
1001
ACDBBLOCKREPETAG
1070
     1
1071
       53
1005
11E803
  0
LINE
  5
11E804
  8
CENTER
 10
3909.0
 20
-1758.9999999999959
 30
0.0
 11
4105.0
 21
-1758.9999999999959
 31
0.0
1001
ACDBBLOCKREPETAG
1070
     1
1071
        0
1005
11E804
  0
LINE
  5
11E805
  8
CENTER
 10
4000.0
 20
-1667.7253355707801
 30
0.0
 11
4000.0
 21
-1850.274664429212
 31
0.0
1001
ACDBBLOCKREPETAG
1070
     1
1071
        1
1005
11E805
  0
CIRCLE
  5
11E806
  8
OBJECT
 10
4000.0
 20
-1758.9999999999959
 30
0.0
 40
50.0
1001
ACDBBLOCKREPETAG
1070
     1
1071
        2
1005
11E806
  0
CIRCLE
  5
11E807
  8
OBJECT
 10
4000.0
 20
-1758.9999999999959
 30
0.0
 40
62.0
1001
ACDBBLOCKREPETAG
1070
     1
1071
        3
1005
11E807
  0
CIRCLE
  5
11E808
  8
SLIM
 10
4078.0
 20
-1758.9999999999959
 30
0.0
 40
5.0
1001
ACDBBLOCKREPETAG
1070
     1
1071
        4
1005
11E808
  0
POLYLINE
  5
11E809
  8
SLIM
 66
     1
 10
0.0
 20
0.0
 30
0.0
 70
     1
1001
ACDBBLOCKREPETAG
1070
     1
1071
        5
1005
11E809
  0
VERTEX
  5
11EA1F
  8
SLIM
 10
4073.092522711886
 20
-1750.4999999999959
 30
0.0
  0
VERTEX
  5
11EA20
  8
SLIM
 10
4068.185045423772
 20
-1758.9999999999959
 30
0.0
  0
VERTEX
  5
11EA21
  8
SLIM
 10
4073.092522711886
 20
-1767.4999999999959
 30
0.0
  0
VERTEX
  5
11EA22
  8
SLIM
 10
4082.9074772881072
 20
-1767.4999999999959
 30
0.0
  0
VERTEX
  5
11EA23
  8
SLIM
 10
4087.8149545762199
 20
-1758.9999999999959
 30
0.0
  0
VERTEX
  5
11EA24
  8
SLIM
 10
4082.9074772881072
 20
-1750.4999999999959
 30
0.0
  0
SEQEND
  5
11EA25
  8
SLIM
  0
CIRCLE
  5
11E80A
  8
SLIM
 10
3961.0
 20
-1691.4500185048089
 30
0.0
 40
4.9999999999999991
1001
ACDBBLOCKREPETAG
1070
     1
1071
        6
1005
11E80A
  0
POLYLINE
  5
11E80B
  8
SLIM
 66
     1
 10
0.0
 20
0.0
 30
0.0
 70
     1
1001
ACDBBLOCKREPETAG
1070
     1
1071
        7
1005
11E80B
  0
VERTEX
  5
11EA26
  8
SLIM
 10
3956.092522711886
 20
-1699.9500185048089
 30
0.0
  0
VERTEX
  5
11EA27
  8
SLIM
 10
3965.907477288114
 20
-1699.9500185048089
 30
0.0
  0
VERTEX
  5
11EA28
  8
SLIM
 10
3970.8149545762212
 20
-1691.4500185048089
 30
0.0
  0
VERTEX
  5
11EA29
  8
SLIM
 10
3965.907477288114
 20
-1682.9500185048089
 30
0.0
  0
VERTEX
  5
11EA2A
  8
SLIM
 10
3956.092522711886
 20
-1682.9500185048089
 30
0.0
  0
VERTEX
  5
11EA2B
  8
SLIM
 10
3951.185045423772
 20
-1691.4500185048089
 30
0.0
  0
SEQEND
  5
11EA2C
  8
SLIM
  0
CIRCLE
  5
11E80C
  8
SLIM
 10
3961.0
 20
-1826.5499814951829
 30
0.0
 40
5.0
1001
ACDBBLOCKREPETAG
1070
     1
1071
        8
1005
11E80C
  0
POLYLINE
  5
11E80D
  8
SLIM
 66
     1
 10
0.0
 20
0.0
 30
0.0
 70
     1
1001
ACDBBLOCKREPETAG
1070
     1
1071
        9
1005
11E80D
  0
VERTEX
  5
11EA2D
  8
SLIM
 10
3970.8149545762212
 20
-1826.5499814951829
 30
0.0
  0
VERTEX
  5
11EA2E
  8
SLIM
 10
3965.9074772881072
 20
-1818.04998149518
 30
0.0
  0
VERTEX
  5
11EA2F
  8
SLIM
 10
3956.092522711886
 20
-1818.0499814951841
 30
0.0
  0
VERTEX
  5
11EA30
  8
SLIM
 10
3951.185045423772
 20
-1826.54998149518
 30
0.0
  0
VERTEX
  5
11EA31
  8
SLIM
 10
3956.092522711886
 20
-1835.0499814951829
 30
0.0
  0
VERTEX
  5
11EA32
  8
SLIM
 10
3965.907477288114
 20
-1835.04998149518
 30
0.0
  0
SEQEND
  5
11EA33
  8
SLIM
  0
ARC
  5
11E80E
  8
OBJECT
 10
4000.0
 20
-1758.9999999999959
 30
0.0
 40
76.0
 50
34.863837954142063
 51
85.136162045732945
1001
ACDBBLOCKREPETAG
1070
     1
1071
       30
1005
11E80E
  0
ARC
  5
11E80F
  8
OBJECT
 10
4000.0
 20
-1758.9999999999959
 30
0.0
 40
76.0
 50
154.86383795430939
 51
205.1361620456905
1001
ACDBBLOCKREPETAG
1070
     1
1071
       31
1005
11E80F
  0
ARC
  5
11E810
  8
OBJECT
 10
4000.0
 20
-1758.9999999999959
 30
0.0
 40
76.0
 50
274.86383795426718
 51
325.13616204585799
1001
ACDBBLOCKREPETAG
1070
     1
1071
       32
1005
11E810
  0
ARC
  5
11E811
  8
OBJECT
 10
4078.0
 20
-1758.9999999999959
 30
0.0
 40
12.0
 50
325.13616204585799
 51
34.863837954142063
1001
ACDBBLOCKREPETAG
1070
     1
1071
       33
1005
11E811
  0
LINE
  5
11E812
  8
OBJECT
 10
4087.846153846167
 20
-1752.140462520134
 30
0.0
 11
4062.3589743590492
 21
-1715.556262627535
 31
0.0
1001
ACDBBLOCKREPETAG
1070
     1
1071
       34
1005
11E812
  0
LINE
  5
11E813
  8
OBJECT
 10
4087.8461538461711
 20
-1765.859537479857
 30
0.0
 11
4062.3589743590492
 21
-1802.4437373724591
 31
0.0
1001
ACDBBLOCKREPETAG
1070
     1
1071
       35
1005
11E813
  0
ARC
  5
11E814
  8
OBJECT
 10
3961.0
 20
-1691.4500185048109
 30
0.0
 40
12.0
 50
85.136162045942811
 51
154.86383795411109
1001
ACDBBLOCKREPETAG
1070
     1
1071
       36
1005
11E814
  0
LINE
  5
11E815
  8
OBJECT
 10
3950.136389361146
 20
-1686.3527678843909
 30
0.0
 11
3931.1971326205862
 21
-1726.7174127373471
 31
0.0
1001
ACDBBLOCKREPETAG
1070
     1
1071
       37
1005
11E815
  0
LINE
  5
11E816
  8
OBJECT
 10
3962.0174567926852
 20
-1679.4932304045269
 30
0.0
 11
4006.4438930203678
 21
-1683.273675364886
 31
0.0
1001
ACDBBLOCKREPETAG
1070
     1
1071
       38
1005
11E816
  0
ARC
  5
11E817
  8
OBJECT
 10
3961.0
 20
-1826.549981495182
 30
0.0
 40
12.0
 50
205.13616204588891
 51
274.8638379540572
1001
ACDBBLOCKREPETAG
1070
     1
1071
       39
1005
11E817
  0
LINE
  5
11E818
  8
OBJECT
 10
3962.0174567926879
 20
-1838.506769595464
 30
0.0
 11
4006.4438930203651
 21
-1834.7263246351069
 31
0.0
1001
ACDBBLOCKREPETAG
1070
     1
1071
       40
1005
11E818
  0
LINE
  5
11E819
  8
OBJECT
 10
3950.136389361146
 20
-1831.647232115605
 30
0.0
 11
3931.1971326205821
 21
-1791.282587262642
 31
0.0
1001
ACDBBLOCKREPETAG
1070
     1
1071
       41
1005
11E819
  0
LINE
  5
11E81A
  8
OBJECT
 10
1943.0
 20
-1484.9999999999959
 30
0.0
 11
2057.0
 21
-1484.9999999999959
 31
0.0
1001
ACDBBLOCKREPETAG
1070
     1
1071
        0
1005
11E81A
  0
LINE
  5
11E81B
  8
OBJECT
 10
1943.0
 20
-1484.9999999999959
 30
0.0
 11
1943.0
 21
-1384.9999999999959
 31
0.0
1001
ACDBBLOCKREPETAG
1070
     1
1071
        1
1005
11E81B
  0
LINE
  5
11E81C
  8
OBJECT
 10
2057.0
 20
-1484.9999999999959
 30
0.0
 11
2057.0
 21
-1384.9999999999959
 31
0.0
1001
ACDBBLOCKREPETAG
1070
     1
1071
        2
1005
11E81C
  0
LINE
  5
11E81D
  8
OBJECT
 10
1943.0
 20
-1384.9999999999959
 30
0.0
 11
2057.0
 21
-1384.9999999999959
 31
0.0
1001
ACDBBLOCKREPETAG
1070
     1
1071
        3
1005
11E81D
  0
LINE
  5
11E81E
  8
HIDDEN
 10
1950.0
 20
-1384.9999999999959
 30
0.0
 11
1950.0
 21
-1484.9999999999959
 31
0.0
1001
ACDBBLOCKREPETAG
1070
     1
1071
        4
1005
11E81E
  0
LINE
  5
11E81F
  8
HIDDEN
 10
2050.0
 20
-1384.9999999999959
 30
0.0
 11
2050.0
 21
-1484.9999999999959
 31
0.0
1001
ACDBBLOCKREPETAG
1070
     1
1071
        5
1005
11E81F
  0
LINE
  5
11E820
  8
CENTER
 10
2000.0
 20
-1175.0
 30
0.0
 11
2000.0
 21
-1499.9999999999959
 31
0.0
1001
ACDBBLOCKREPETAG
1070
     1
1071
        6
1005
11E820
  0
LINE
  5
11E821
  8
OBJECT
 10
1925.0
 20
-1175.0
 30
0.0
 11
1925.0
 21
-1256.9999999999959
 31
0.0
1001
ACDBBLOCKREPETAG
1070
     1
1071
        7
1005
11E821
  0
LINE
  5
11E822
  8
OBJECT
 10
2075.0
 20
-1175.0
 30
0.0
 11
2075.0
 21
-1256.9999999999959
 31
0.0
1001
ACDBBLOCKREPETAG
1070
     1
1071
        8
1005
11E822
  0
LINE
  5
11E823
  8
OBJECT
 10
1925.0
 20
-1256.9999999999959
 30
0.0
 11
2075.0
 21
-1256.9999999999959
 31
0.0
1001
ACDBBLOCKREPETAG
1070
     1
1071
        9
1005
11E823
  0
LINE
  5
11E824
  8
OBJECT
 10
1925.0
 20
-1256.9999999999959
 30
0.0
 11
1943.0
 21
-1384.9999999999959
 31
0.0
1001
ACDBBLOCKREPETAG
1070
     1
1071
       10
1005
11E824
  0
LINE
  5
11E825
  8
OBJECT
 10
2057.0
 20
-1384.9999999999959
 30
0.0
 11
2075.0
 21
-1256.9999999999959
 31
0.0
1001
ACDBBLOCKREPETAG
1070
     1
1071
       11
1005
11E825
  0
TEXT
  5
11E826
  8
SLIM
 10
3853.75
 20
-2026.4999999999959
 30
0.0
 40
35.0
  1
両受けスタイル（W）
 41
0.75
  0
LINE
  5
11E827
  8
OBJECT
 10
1925.0
 20
-890.0
 30
0.0
 11
1925.0
 21
-1163.0
 31
0.0
1001
ACDBBLOCKREPETAG
1070
     1
1071
        1
1005
11E827
  0
LINE
  5
11E828
  8
OBJECT
 10
2075.0
 20
-889.99999999999409
 30
0.0
 11
2075.0
 21
-1163.0
 31
0.0
1001
ACDBBLOCKREPETAG
1070
     1
1071
        3
1005
11E828
  0
LINE
  5
11E829
  8
CENTER
 10
2000.0
 20
-890.0
 30
0.0
 11
2000.0
 21
-1175.0
 31
0.0
1001
ACDBBLOCKREPETAG
1070
     1
1071
        6
1005
11E829
  0
LINE
  5
11E82A
  8
OBJECT
 10
1920.0
 20
-1175.0
 30
0.0
 11
2080.0
 21
-1175.0
 31
0.0
1001
ACDBBLOCKREPETAG
1070
     1
1071
        7
1005
11E82A
  0
LINE
  5
11E82B
  8
OBJECT
 10
1920.0
 20
-1163.0
 30
0.0
 11
2080.0
 21
-1163.0
 31
0.0
1001
ACDBBLOCKREPETAG
1070
     1
1071
        8
1005
11E82B
  0
LINE
  5
11E82C
  8
OBJECT
 10
1920.0
 20
-1163.0
 30
0.0
 11
1920.0
 21
-1175.0
 31
0.0
1001
ACDBBLOCKREPETAG
1070
     1
1071
        9
1005
11E82C
  0
LINE
  5
11E82D
  8
OBJECT
 10
2080.0
 20
-1163.0
 30
0.0
 11
2080.0
 21
-1175.0
 31
0.0
1001
ACDBBLOCKREPETAG
1070
     1
1071
       10
1005
11E82D
  0
LINE
  5
11E82E
  8
OBJECT
 10
3925.0
 20
-890.0
 30
0.0
 11
3925.0
 21
-1163.0
 31
0.0
1001
ACDBBLOCKREPETAG
1070
     1
1071
        1
1005
11E82E
  0
LINE
  5
11E82F
  8
OBJECT
 10
4075.0
 20
-889.99999999999409
 30
0.0
 11
4075.0
 21
-1163.0
 31
0.0
1001
ACDBBLOCKREPETAG
1070
     1
1071
        3
1005
11E82F
  0
LINE
  5
11E830
  8
CENTER
 10
4000.0
 20
-890.0
 30
0.0
 11
4000.0
 21
-1175.0
 31
0.0
1001
ACDBBLOCKREPETAG
1070
     1
1071
        6
1005
11E830
  0
LINE
  5
11E831
  8
OBJECT
 10
3920.0
 20
-1175.0
 30
0.0
 11
4080.0
 21
-1175.0
 31
0.0
1001
ACDBBLOCKREPETAG
1070
     1
1071
        7
1005
11E831
  0
LINE
  5
11E832
  8
OBJECT
 10
3920.0
 20
-1163.0
 30
0.0
 11
4080.0
 21
-1163.0
 31
0.0
1001
ACDBBLOCKREPETAG
1070
     1
1071
        8
1005
11E832
  0
LINE
  5
11E833
  8
OBJECT
 10
3920.0
 20
-1163.0
 30
0.0
 11
3920.0
 21
-1175.0
 31
0.0
1001
ACDBBLOCKREPETAG
1070
     1
1071
        9
1005
11E833
  0
LINE
  5
11E834
  8
OBJECT
 10
4080.0
 20
-1163.0
 30
0.0
 11
4080.0
 21
-1175.0
 31
0.0
1001
ACDBBLOCKREPETAG
1070
     1
1071
       10
1005
11E834
  0
LINE
  5
11E835
  8
OBJECT
 10
5925.0
 20
-890.0
 30
0.0
 11
5925.0
 21
-1163.0
 31
0.0
1001
ACDBBLOCKREPETAG
1070
     1
1071
        1
1005
11E835
  0
LINE
  5
11E836
  8
OBJECT
 10
6075.0
 20
-889.99999999999409
 30
0.0
 11
6075.0
 21
-1163.0
 31
0.0
1001
ACDBBLOCKREPETAG
1070
     1
1071
        3
1005
11E836
  0
LINE
  5
11E837
  8
CENTER
 10
6000.0
 20
-890.0
 30
0.0
 11
6000.0
 21
-1175.0
 31
0.0
1001
ACDBBLOCKREPETAG
1070
     1
1071
        6
1005
11E837
  0
LINE
  5
11E838
  8
OBJECT
 10
5920.0
 20
-1175.0
 30
0.0
 11
6080.0
 21
-1175.0
 31
0.0
1001
ACDBBLOCKREPETAG
1070
     1
1071
        7
1005
11E838
  0
LINE
  5
11E839
  8
OBJECT
 10
5920.0
 20
-1163.0
 30
0.0
 11
6080.0
 21
-1163.0
 31
0.0
1001
ACDBBLOCKREPETAG
1070
     1
1071
        8
1005
11E839
  0
LINE
  5
11E83A
  8
OBJECT
 10
5920.0
 20
-1163.0
 30
0.0
 11
5920.0
 21
-1175.0
 31
0.0
1001
ACDBBLOCKREPETAG
1070
     1
1071
        9
1005
11E83A
  0
LINE
  5
11E83B
  8
OBJECT
 10
6080.0
 20
-1163.0
 30
0.0
 11
6080.0
 21
-1175.0
 31
0.0
1001
ACDBBLOCKREPETAG
1070
     1
1071
       10
1005
11E83B
  0
TEXT
  5
11E83C
  8
SLIM
 10
5811.8000000000002
 20
-2124.0
 30
0.0
 40
28.0
  1
※ 対応スラブ厚　150mm以上
 41
0.75
  0
TEXT
  5
11E83D
  8
SLIM
 10
5598.8999999999996
 20
-2217.3333333333321
 30
0.0
 40
28.0
  1
国土交通大臣認定・（一財）日本消防設備安全センター性能評定取得品
 41
0.75
  0
TEXT
  5
11E83E
  8
SLIM
 10
5631.1000000000004
 20
-2263.9999999999991
 30
0.0
 40
28.0
  1
注）ご採用にあたり、認定書及び評定書の内容をご確認ください。
 41
0.75
  0
LINE
  5
11E83F
  8
OBJECT
 10
1797.0000000000141
 20
-583.0
 30
0.0
 11
1790.0000000000141
 21
-583.0
 31
0.0
1001
ACDBBLOCKREPETAG
1070
     1
1071
       83
1005
11E83F
  0
LINE
  5
11E840
  8
OBJECT
 10
1790.0000000000141
 20
-583.0
 30
0.0
 11
1790.0000000000141
 21
-707.0
 31
0.0
1001
ACDBBLOCKREPETAG
1070
     1
1071
       84
1005
11E840
  0
LINE
  5
11E841
  8
OBJECT
 10
1914.0000000000141
 20
-653.3502637757274
 30
0.0
 11
1914.0000000000141
 21
-755.00000000000102
 31
0.0
1001
ACDBBLOCKREPETAG
1070
     1
1071
       85
1005
11E841
  0
LINE
  5
11E842
  8
OBJECT
 10
1790.0000000000141
 20
-707.0
 30
0.0
 11
1797.0000000000141
 21
-707.0
 31
0.0
1001
ACDBBLOCKREPETAG
1070
     1
1071
       86
1005
11E842
  0
LINE
  5
11E843
  8
OBJECT
 10
1797.0000000000141
 20
-707.0
 30
0.0
 11
1797.0000000000141
 21
-583.0
 31
0.0
1001
ACDBBLOCKREPETAG
1070
     1
1071
       87
1005
11E843
  0
LINE
  5
11E844
  8
CENTER
 10
1865.0000000000141
 20
-645.0000000000008
 30
0.0
 11
1775.0000000000141
 21
-645.0
 31
0.0
1001
ACDBBLOCKREPETAG
1070
     1
1071
       88
1005
11E844
  0
LINE
  5
11E845
  8
OBJECT
 10
1920.000000000018
 20
-758.0
 30
0.0
 11
1917.000000000015
 21
-758.0000000000008
 31
0.0
1001
ACDBBLOCKREPETAG
1070
     1
1071
       89
1005
11E845
  0
ARC
  5
11E846
  8
OBJECT
 10
1917.000000000015
 20
-755.00000000000102
 30
0.0
 40
3.0
 50
180.0
 51
270.0
1001
ACDBBLOCKREPETAG
1070
     1
1071
       90
1005
11E846
  0
LINE
  5
11E847
  8
OBJECT
 10
1797.0000000000141
 20
-586.0
 30
0.0
 11
1833.000000000015
 21
-586.0000000000008
 31
0.0
1001
ACDBBLOCKREPETAG
1070
     1
1071
       91
1005
11E847
  0
LINE
  5
11E848
  8
OBJECT
 10
1833.000000000015
 20
-586.0000000000008
 30
0.0
 11
1833.000000000015
 21
-704.0000000000008
 31
0.0
1001
ACDBBLOCKREPETAG
1070
     1
1071
       92
1005
11E848
  0
LINE
  5
11E849
  8
OBJECT
 10
1837.000000000015
 20
-590.5000000000008
 30
0.0
 11
1837.000000000015
 21
-699.5000000000008
 31
0.0
1001
ACDBBLOCKREPETAG
1070
     1
1071
       93
1005
11E849
  0
LINE
  5
11E84A
  8
OBJECT
 10
1837.000000000015
 20
-590.5000000000008
 30
0.0
 11
1850.0000000000141
 21
-590.5000000000008
 31
0.0
1001
ACDBBLOCKREPETAG
1070
     1
1071
       94
1005
11E84A
  0
LINE
  5
11E84B
  8
OBJECT
 10
1833.000000000015
 20
-704.0000000000008
 30
0.0
 11
1797.0000000000141
 21
-704.0
 31
0.0
1001
ACDBBLOCKREPETAG
1070
     1
1071
       95
1005
11E84B
  0
LINE
  5
11E84C
  8
OBJECT
 10
1833.000000000015
 20
-586.0000000000008
 30
0.0
 11
1837.000000000015
 21
-590.5000000000008
 31
0.0
1001
ACDBBLOCKREPETAG
1070
     1
1071
       96
1005
11E84C
  0
LINE
  5
11E84D
  8
OBJECT
 10
1850.0000000000141
 20
-590.5000000000008
 30
0.0
 11
1850.0000000000141
 21
-675.74491827928784
 31
0.0
1001
ACDBBLOCKREPETAG
1070
     1
1071
       97
1005
11E84D
  0
ARC
  5
11E84E
  8
OBJECT
 10
1847.2000000000151
 20
-685.0000000000008
 30
0.0
 40
85.0
 50
36.869897645898732
 51
88.112268108168848
1001
ACDBBLOCKREPETAG
1070
     1
1071
       98
1005
11E84E
  0
LINE
  5
11E84F
  8
HIDDEN
 10
1842.0000000000141
 20
-600.50000000000068
 30
0.0
 11
1842.0000000000141
 21
-689.50000000000091
 31
0.0
1001
ACDBBLOCKREPETAG
1070
     1
1071
      100
1005
11E84F
  0
LINE
  5
11E850
  8
OBJECT
 10
1914.0000000000141
 20
-751.07945073181781
 30
0.0
 11
1843.368680078969
 21
-699.5000000000008
 31
0.0
1001
ACDBBLOCKREPETAG
1070
     1
1071
      101
1005
11E850
  0
LINE
  5
11E851
  8
OBJECT
 10
1920.000000000018
 20
-634.0
 30
0.0
 11
1915.2000000000151
 21
-634.0
 31
0.0
1001
ACDBBLOCKREPETAG
1070
     1
1071
      102
1005
11E851
  0
LINE
  5
11E852
  8
OBJECT
 10
1914.0000000000141
 20
-653.35026377573013
 30
0.0
 11
1915.2000000000151
 21
-634.0
 31
0.0
1001
ACDBBLOCKREPETAG
1070
     1
1071
      103
1005
11E852
  0
LINE
  5
11E853
  8
OBJECT
 10
1837.000000000015
 20
-699.5000000000008
 30
0.0
 11
1843.368680078969
 21
-699.5000000000008
 31
0.0
1001
ACDBBLOCKREPETAG
1070
     1
1071
      104
1005
11E853
  0
LINE
  5
11E854
  8
OBJECT
 10
1833.000000000015
 20
-704.0000000000008
 30
0.0
 11
1837.000000000015
 21
-699.5000000000008
 31
0.0
1001
ACDBBLOCKREPETAG
1070
     1
1071
      105
1005
11E854
  0
CIRCLE
  5
11E855
  8
OBJECT
 10
2000.0
 20
-696.0
 30
0.0
 40
62.0
1001
ACDBBLOCKREPETAG
1070
     1
1071
        0
1005
11E855
  0
LINE
  5
11E856
  8
OBJECT
 10
2202.9999999999859
 20
-583.0000000000008
 30
0.0
 11
2209.9999999999859
 21
-583.0000000000008
 31
0.0
1001
ACDBBLOCKREPETAG
1070
     1
1071
       83
1005
11E856
  0
LINE
  5
11E857
  8
OBJECT
 10
2209.9999999999859
 20
-583.0000000000008
 30
0.0
 11
2209.9999999999859
 21
-707.00000000000091
 31
0.0
1001
ACDBBLOCKREPETAG
1070
     1
1071
       84
1005
11E857
  0
LINE
  5
11E858
  8
OBJECT
 10
2085.9999999999859
 20
-653.3502637757274
 30
0.0
 11
2085.9999999999859
 21
-755.00000000000102
 31
0.0
1001
ACDBBLOCKREPETAG
1070
     1
1071
       85
1005
11E858
  0
LINE
  5
11E859
  8
OBJECT
 10
2209.9999999999859
 20
-707.00000000000091
 30
0.0
 11
2202.9999999999859
 21
-707.00000000000091
 31
0.0
1001
ACDBBLOCKREPETAG
1070
     1
1071
       86
1005
11E859
  0
LINE
  5
11E85A
  8
OBJECT
 10
2202.9999999999859
 20
-707.00000000000091
 30
0.0
 11
2202.9999999999859
 21
-583.0000000000008
 31
0.0
1001
ACDBBLOCKREPETAG
1070
     1
1071
       87
1005
11E85A
  0
LINE
  5
11E85B
  8
CENTER
 10
2134.9999999999859
 20
-645.0000000000008
 30
0.0
 11
2224.999999999985
 21
-645.0000000000008
 31
0.0
1001
ACDBBLOCKREPETAG
1070
     1
1071
       88
1005
11E85B
  0
LINE
  5
11E85C
  8
OBJECT
 10
2079.9999999999809
 20
-758.0
 30
0.0
 11
2082.999999999985
 21
-758.0000000000008
 31
0.0
1001
ACDBBLOCKREPETAG
1070
     1
1071
       89
1005
11E85C
  0
ARC
  5
11E85D
  8
OBJECT
 10
2082.999999999985
 20
-755.00000000000102
 30
0.0
 40
3.0
 50
270.0
 51
0.0
1001
ACDBBLOCKREPETAG
1070
     1
1071
       90
1005
11E85D
  0
LINE
  5
11E85E
  8
OBJECT
 10
2202.9999999999859
 20
-586.0000000000008
 30
0.0
 11
2166.9999999999859
 21
-586.0000000000008
 31
0.0
1001
ACDBBLOCKREPETAG
1070
     1
1071
       91
1005
11E85E
  0
LINE
  5
11E85F
  8
OBJECT
 10
2166.9999999999859
 20
-586.0000000000008
 30
0.0
 11
2166.9999999999859
 21
-704.0000000000008
 31
0.0
1001
ACDBBLOCKREPETAG
1070
     1
1071
       92
1005
11E85F
  0
LINE
  5
11E860
  8
OBJECT
 10
2162.9999999999859
 20
-590.5000000000008
 30
0.0
 11
2162.9999999999859
 21
-699.5000000000008
 31
0.0
1001
ACDBBLOCKREPETAG
1070
     1
1071
       93
1005
11E860
  0
LINE
  5
11E861
  8
OBJECT
 10
2162.9999999999859
 20
-590.5000000000008
 30
0.0
 11
2149.9999999999859
 21
-590.5000000000008
 31
0.0
1001
ACDBBLOCKREPETAG
1070
     1
1071
       94
1005
11E861
  0
LINE
  5
11E862
  8
OBJECT
 10
2166.9999999999859
 20
-704.0000000000008
 30
0.0
 11
2202.9999999999859
 21
-704.0000000000008
 31
0.0
1001
ACDBBLOCKREPETAG
1070
     1
1071
       95
1005
11E862
  0
LINE
  5
11E863
  8
OBJECT
 10
2166.9999999999859
 20
-586.0000000000008
 30
0.0
 11
2162.9999999999859
 21
-590.5000000000008
 31
0.0
1001
ACDBBLOCKREPETAG
1070
     1
1071
       96
1005
11E863
  0
LINE
  5
11E864
  8
OBJECT
 10
2149.9999999999859
 20
-590.5000000000008
 30
0.0
 11
2149.9999999999859
 21
-675.74491827928784
 31
0.0
1001
ACDBBLOCKREPETAG
1070
     1
1071
       97
1005
11E864
  0
ARC
  5
11E865
  8
OBJECT
 10
2152.7999999999838
 20
-685.0000000000008
 30
0.0
 40
85.0
 50
91.887731891831123
 51
143.1301023540934
1001
ACDBBLOCKREPETAG
1070
     1
1071
       98
1005
11E865
  0
LINE
  5
11E866
  8
HIDDEN
 10
2157.9999999999859
 20
-600.50000000000068
 30
0.0
 11
2157.9999999999859
 21
-689.50000000000091
 31
0.0
1001
ACDBBLOCKREPETAG
1070
     1
1071
      100
1005
11E866
  0
LINE
  5
11E867
  8
OBJECT
 10
2085.9999999999859
 20
-751.07945073181781
 30
0.0
 11
2156.6313199210308
 21
-699.5000000000008
 31
0.0
1001
ACDBBLOCKREPETAG
1070
     1
1071
      101
1005
11E867
  0
LINE
  5
11E868
  8
OBJECT
 10
2079.9999999999809
 20
-634.0
 30
0.0
 11
2084.7999999999852
 21
-634.0
 31
0.0
1001
ACDBBLOCKREPETAG
1070
     1
1071
      102
1005
11E868
  0
LINE
  5
11E869
  8
OBJECT
 10
2085.9999999999859
 20
-653.35026377573013
 30
0.0
 11
2084.7999999999852
 21
-634.0
 31
0.0
1001
ACDBBLOCKREPETAG
1070
     1
1071
      103
1005
11E869
  0
LINE
  5
11E86A
  8
OBJECT
 10
2162.9999999999859
 20
-699.5000000000008
 30
0.0
 11
2156.6313199210308
 21
-699.5000000000008
 31
0.0
1001
ACDBBLOCKREPETAG
1070
     1
1071
      104
1005
11E86A
  0
LINE
  5
11E86B
  8
OBJECT
 10
2166.9999999999859
 20
-704.0000000000008
 30
0.0
 11
2162.9999999999859
 21
-699.5000000000008
 31
0.0
1001
ACDBBLOCKREPETAG
1070
     1
1071
      105
1005
11E86B
  0
TEXT
  5
11E86C
  8
SLIM
 10
11824.6
 20
-2082.9999999999959
 30
0.0
 40
28.0
  1
※ 対応スラブ厚　150～660
 41
0.75
  0
TEXT
  5
11E86D
  8
SLIM
 10
11598.9
 20
-2176.3333333333289
 30
0.0
 40
28.0
  1
国土交通大臣認定・（一財）日本消防設備安全センター性能評定取得品
 41
0.75
  0
TEXT
  5
11E86E
  8
SLIM
 10
11631.1
 20
-2222.9999999999959
 30
0.0
 40
28.0
  1
注）ご採用にあたり、認定書及び評定書の内容をご確認ください。
 41
0.75
  0
TEXT
  5
11E86F
  8
SLIM
 10
9824.6000000000004
 20
-2082.9999999999959
 30
0.0
 40
28.0
  1
※ 対応スラブ厚　180～660
 41
0.75
  0
TEXT
  5
11E870
  8
SLIM
 10
9598.8999999999996
 20
-2176.3333333333289
 30
0.0
 40
28.0
  1
国土交通大臣認定・（一財）日本消防設備安全センター性能評定取得品
 41
0.75
  0
TEXT
  5
11E871
  8
SLIM
 10
9631.1000000000004
 20
-2222.9999999999959
 30
0.0
 40
28.0
  1
注）ご採用にあたり、認定書及び評定書の内容をご確認ください。
 41
0.75
  0
TEXT
  5
11E872
  8
SLIM
 10
7771.3999999999987
 20
-1815.6666666666649
 30
0.0
 40
28.0
  1
※ 対応スラブ厚　180｛150｝～620
 41
0.75
  0
TEXT
  5
11E873
  8
SLIM
 10
7733.2999999999975
 20
-1862.3333333333319
 30
0.0
 40
28.0
  1
｛｝内はカンペイ立て管との組み合わせの場合
 41
0.75
  0
TEXT
  5
11E874
  8
SLIM
 10
7598.8999999999969
 20
-1955.6666666666649
 30
0.0
 40
28.0
  1
国土交通大臣認定・（一財）日本消防設備安全センター性能評定取得品
 41
0.75
  0
TEXT
  5
11E875
  8
SLIM
 10
7631.1000000000004
 20
-2002.3333333333319
 30
0.0
 40
28.0
  1
注）ご採用にあたり、認定書及び評定書の内容をご確認ください。
 41
0.75
  0
TEXT
  5
11E876
  8
SLIM
 10
9739.1250000000018
 20
-2026.4999999999959
 30
0.0
 40
35.0
  1
両受けスタイル（W）＋シンドカット
 41
0.75
  0
TEXT
  5
11E877
  8
SLIM
 10
11743.5
 20
-2026.4999999999959
 30
0.0
 40
35.0
  1
カンペイ君（WKP）＋シンドカット
 41
0.75
  0
TEXT
  5
11E878
  8
SLIM
 10
7741.625
 20
-1752.499999999998
 30
0.0
 40
35.0
  1
片受けスタイル（S）＋シンドカット
 41
0.75
  0
TEXT
  5
11E879
  8
SLIM
 10
5858.1250000000009
 20
-2067.5
 30
0.0
 40
35.0
  1
カンペイ君（WKP）
 41
0.75
  0
TEXT
  5
11E87A
  8
SLIM
 10
1856.25
 20
-1752.499999999998
 30
0.0
 40
35.0
  1
片受けスタイル（S）
 41
0.75
  0
TEXT
  5
11E87B
  8
SLIM
 10
0.0
 20
370.0
 30
0.0
 40
100.0
  1
4SLT2-Z606-P110-0-WKP
 41
0.75
  0
VIEWPORT
  5
F6BA7
 67
     1
  8
0
 10
145.33033752441401
 20
101.8328354358673
 30
0.0
 40
334.0025019414623
 41
222.19657968139651
 68
     1
 69
     1
1001
ACAD
1000
MVIEW
1002
{
1070
    16
1010
0.0
1020
0.0
1030
0.0
1010
0.0
1020
0.0
1030
1.0
1040
0.0
1040
222.19657968139651
1040
145.33033752441401
1040
101.8328354358673
1040
50.0
1040
0.0
1040
0.0
1070
     0
1070
     0
1070
     1
1070
     1
1070
     0
1070
     0
1070
     0
1070
     0
1040
0.0
1040
0.0
1040
0.0
1040
10.0
1040
10.0
1040
10.0
1040
10.0
1070
     0
1002
{
1002
}
1002
}
  0
VIEWPORT
  5
F6BA9
 67
     1
  8
OBJECT
 10
145.3303314447403
 20
101.8328338861465
 30
0.0
 40
232.5285303115844
 41
162.93253421783439
 68
     2
 69
     2
1001
ACAD
1000
MVIEW
1002
{
1070
    16
1010
0.0
1020
0.0
1030
0.0
1010
0.0
1020
0.0
1030
1.0
1040
0.0
1040
25942.55904403147
1040
2377.604457077377
1040
-7591.5176687056619
1040
50.0
1040
0.0
1040
0.0
1070
     0
1070
   600
1070
     1
1070
     1
1070
     0
1070
     0
1070
     0
1070
     0
1040
0.0
1040
0.0
1040
0.0
1040
1.0
1040
1.0
1040
0.0
1040
0.0
1070
     0
1002
{
1002
}
1002
}
  0
ENDSEC
  0
EOF
