  0
SECTION
  2
HEADER
  9
$ACADVER
  1
AC1009
  9
$INSBASE
 10
0.0
 20
0.0
 30
0.0
  9
$EXTMIN
 10
0.0
 20
-1602.3333333333319
 30
0.0
  9
$EXTMAX
 10
4602.0
 20
470.0
 30
0.0
  9
$LIMMIN
 10
0.0
 20
0.0
  9
$LIMMAX
 10
210.0
 20
297.0
  9
$ORTHOMODE
 70
     0
  9
$REGENMODE
 70
     1
  9
$FILLMODE
 70
     1
  9
$QTEXTMODE
 70
     0
  9
$MIRRTEXT
 70
     0
  9
$DRAGMODE
 70
     2
  9
$LTSCALE
 40
1.0
  9
$OSMODE
 70
    37
  9
$ATTMODE
 70
     1
  9
$TEXTSIZE
 40
4.0
  9
$TRACEWID
 40
0.05
  9
$TEXTSTYLE
  7
STANDARD
  9
$CLAYER
  8
OBJECT
  9
$CELTYPE
  6
BYLAYER
  9
$CECOLOR
 62
   256
  9
$DIMSCALE
 40
10.0
  9
$DIMASZ
 40
2.0
  9
$DIMEXO
 40
1.0
  9
$DIMDLI
 40
10.0
  9
$DIMRND
 40
0.0
  9
$DIMDLE
 40
0.0
  9
$DIMEXE
 40
1.0
  9
$DIMTP
 40
0.0
  9
$DIMTM
 40
0.0
  9
$DIMTXT
 40
3.2000000000000002
  9
$DIMCEN
 40
0.0
  9
$DIMTSZ
 40
0.0
  9
$DIMTOL
 70
     0
  9
$DIMLIM
 70
     0
  9
$DIMTIH
 70
     0
  9
$DIMTOH
 70
     0
  9
$DIMSE1
 70
     0
  9
$DIMSE2
 70
     0
  9
$DIMTAD
 70
     1
  9
$DIMZIN
 70
     8
  9
$DIMBLK
  1
OPEN30
  9
$DIMASO
 70
     1
  9
$DIMSHO
 70
     1
  9
$DIMPOST
  1

  9
$DIMAPOST
  1

  9
$DIMALT
 70
     0
  9
$DIMALTD
 70
     2
  9
$DIMALTF
 40
25.399999999999999
  9
$DIMLFAC
 40
1.0
  9
$DIMTOFL
 70
     1
  9
$DIMTVP
 40
0.0
  9
$DIMTIX
 70
     0
  9
$DIMSOXD
 70
     0
  9
$DIMSAH
 70
     0
  9
$DIMBLK1
  1

  9
$DIMBLK2
  1

  9
$DIMSTYLE
  2
S10
  9
$DIMCLRD
 70
   256
  9
$DIMCLRE
 70
   256
  9
$DIMCLRT
 70
   256
  9
$DIMTFAC
 40
1.0
  9
$DIMGAP
 40
0.9
  9
$LUNITS
 70
     2
  9
$LUPREC
 70
     2
  9
$SKETCHINC
 40
0.1
  9
$FILLETRAD
 40
0.0
  9
$AUNITS
 70
     0
  9
$AUPREC
 70
     2
  9
$MENU
  1
ACAD
  9
$ELEVATION
 40
0.0
  9
$PELEVATION
 40
0.0
  9
$THICKNESS
 40
0.0
  9
$LIMCHECK
 70
     0
  9
$BLIPMODE
 70
     0
  9
$CHAMFERA
 40
2.0
  9
$CHAMFERB
 40
2.0
  9
$SKPOLY
 70
     0
  9
$TDCREATE
 40
2453095.4929404748
  9
$TDUPDATE
 40
2457603.7213943638
  9
$TDINDWG
 40
18.351629780100001
  9
$TDUSRTIMER
 40
18.351629050900002
  9
$USRTIMER
 70
     1
  9
$ANGBASE
 50
0.0
  9
$ANGDIR
 70
     0
  9
$PDMODE
 70
    35
  9
$PDSIZE
 40
2.0
  9
$PLINEWID
 40
0.0
  9
$COORDS
 70
     1
  9
$SPLFRAME
 70
     0
  9
$SPLINETYPE
 70
     6
  9
$SPLINESEGS
 70
     8
  9
$ATTDIA
 70
     0
  9
$ATTREQ
 70
     1
  9
$HANDLING
 70
     1
  9
$HANDSEED
  5
12F0BB
  9
$SURFTAB1
 70
     6
  9
$SURFTAB2
 70
     6
  9
$SURFTYPE
 70
     6
  9
$SURFU
 70
     6
  9
$SURFV
 70
     6
  9
$UCSNAME
  2

  9
$UCSORG
 10
0.0
 20
0.0
 30
0.0
  9
$UCSXDIR
 10
1.0
 20
0.0
 30
0.0
  9
$UCSYDIR
 10
0.0
 20
1.0
 30
0.0
  9
$PUCSNAME
  2

  9
$PUCSORG
 10
0.0
 20
0.0
 30
0.0
  9
$PUCSXDIR
 10
1.0
 20
0.0
 30
0.0
  9
$PUCSYDIR
 10
0.0
 20
1.0
 30
0.0
  9
$USERI1
 70
     0
  9
$USERI2
 70
     0
  9
$USERI3
 70
     0
  9
$USERI4
 70
     0
  9
$USERI5
 70
     0
  9
$USERR1
 40
0.0
  9
$USERR2
 40
0.0
  9
$USERR3
 40
0.0
  9
$USERR4
 40
0.0
  9
$USERR5
 40
0.0
  9
$WORLDVIEW
 70
     1
  9
$SHADEDGE
 70
     3
  9
$SHADEDIF
 70
    70
  9
$TILEMODE
 70
     1
  9
$MAXACTVP
 70
    64
  9
$PLIMCHECK
 70
     0
  9
$PEXTMIN
 10
29.066066288948051
 20
20.366566777229309
 30
0.0
  9
$PEXTMAX
 10
261.5945966005325
 20
183.29910099506381
 30
0.0
  9
$PLIMMIN
 10
-3.17498779296875
 20
-3.1749999523162842
  9
$PLIMMAX
 10
293.83566284179687
 20
206.8406708240509
  9
$UNITMODE
 70
     0
  9
$VISRETAIN
 70
     1
  9
$PLINEGEN
 70
     0
  9
$PSLTSCALE
 70
     1
  0
ENDSEC
  0
SECTION
  2
TABLES
  0
TABLE
  2
VPORT
 70
     1
  0
VPORT
  2
*ACTIVE
 70
     0
 10
0.0
 20
0.0
 11
1.0
 21
1.0
 12
4677.6299021100176
 22
-558.84854571923586
 13
0.0
 23
0.0
 14
1.0
 24
1.0
 15
0.0
 25
0.0
 16
0.0
 26
0.0
 36
1.0
 17
0.0
 27
0.0
 37
0.0
 40
3159.6242290984901
 41
1.6494178525226391
 42
50.0
 43
0.0
 44
0.0
 50
0.0
 51
0.0
 71
     0
 72
   600
 73
     1
 74
     1
 75
     0
 76
     0
 77
     0
 78
     0
  0
ENDTAB
  0
TABLE
  2
LTYPE
 70
     4
  0
LTYPE
  2
CONTINUOUS
 70
     0
  3
Solid line
 72
    65
 73
     0
 40
0.0
  0
LTYPE
  2
PHANTOM2
 70
     0
  3
___ _ _ ___ _ _ ___ _ _ ___ _ _
 72
    65
 73
     6
 40
1.25
 49
0.625
 49
-0.125
 49
0.125
 49
-0.125
 49
0.125
 49
-0.125
  0
LTYPE
  2
ACAD_ISO08W100
 70
     0
  3
ISO long-dash short-dash ____ __ ____ __ ____ _
 72
    65
 73
     4
 40
36.0
 49
24.0
 49
-3.0
 49
6.0
 49
-3.0
  0
LTYPE
  2
ACAD_ISO02W100
 70
     0
  3
ISO dash __ __ __ __ __ __ __ __ __ __ __ __ __
 72
    65
 73
     2
 40
15.0
 49
12.0
 49
-3.0
  0
ENDTAB
  0
TABLE
  2
LAYER
 70
     8
  0
LAYER
  2
0
 70
     0
 62
     7
  6
CONTINUOUS
  0
LAYER
  2
OBJECT
 70
     0
 62
     4
  6
CONTINUOUS
  0
LAYER
  2
DEFPOINTS
 70
     0
 62
     7
  6
CONTINUOUS
  0
LAYER
  2
DIM
 70
     0
 62
     7
  6
CONTINUOUS
  0
LAYER
  2
HIDDEN
 70
     0
 62
     2
  6
ACAD_ISO02W100
  0
LAYER
  2
CENTER
 70
     0
 62
     2
  6
ACAD_ISO08W100
  0
LAYER
  2
DOTS
 70
     0
 62
     1
  6
CONTINUOUS
  0
LAYER
  2
SLIM
 70
     0
 62
     2
  6
CONTINUOUS
  0
ENDTAB
  0
TABLE
  2
STYLE
 70
     2
  0
STYLE
  2
STANDARD
 70
     0
 40
0.0
 41
0.75
 50
0.0
 71
     0
 42
4.0
  3
simplex.shx
  4
bigfont.shx
  0
ENDTAB
  0
TABLE
  2
VIEW
 70
     0
  0
ENDTAB
  0
TABLE
  2
UCS
 70
     0
  0
ENDTAB
  0
TABLE
  2
APPID
 70
    18
  0
APPID
  2
ACAD
 70
     0
  0
APPID
  2
ACADANNOTATIVE
 70
     0
  0
APPID
  2
ACAD_PSEXT
 70
     0
  0
APPID
  2
ACAD_EXEMPT_FROM_CAD_STANDARDS
 70
     0
  0
APPID
  2
ACAECLAYERSTANDARD
 70
     0
  0
APPID
  2
ACAUTHENVIRON
 70
     0
  0
APPID
  2
ACDBDYNAMICBLOCKTRUENAME
 70
     0
  0
APPID
  2
ACDBDYNAMICBLOCKGUID
 70
     0
  0
APPID
  2
ACDBBLOCKREPETAG
 70
     0
  0
APPID
  2
ACDBBLOCKREPBTAG
 70
     0
  0
APPID
  2
ACAD_NAV_VCDISPLAY
 70
     0
  0
APPID
  2
ACAD_DSTYLE_DIMRADIAL_EXTENSION
 70
     0
  0
APPID
  2
ACAD_DSTYLE_DIMJAG
 70
     0
  0
APPID
  2
ACAD_DSTYLE_DIMTALN
 70
     0
  0
APPID
  2
ACADANNOPO
 70
     0
  0
APPID
  2
GRADIENTCOLOR1ACI
 70
     0
  0
APPID
  2
GRADIENTCOLOR2ACI
 70
     0
  0
APPID
  2
ACAD_MLEADERVER
 70
     0
  0
ENDTAB
  0
TABLE
  2
DIMSTYLE
 70
     3
  0
DIMSTYLE
  2
STANDARD
 70
     0
  3

  4

  5

  6

  7

 40
1.0
 41
0.18
 42
0.0625
 43
0.38
 44
0.18
 45
0.0
 46
0.0
 47
0.0
 48
0.0
140
0.18
141
0.09
142
0.0
143
25.399999999999999
144
1.0
145
0.0
146
1.0
147
0.09
 71
     0
 72
     0
 73
     1
 74
     1
 75
     0
 76
     0
 77
     0
 78
     0
170
     0
171
     2
172
     0
173
     0
174
     0
175
     0
176
     0
177
     0
178
     0
  0
DIMSTYLE
  2
S10
 70
     0
  3

  4

  5

  6

  7

 40
10.0
 41
2.0
 42
1.0
 43
10.0
 44
1.0
 45
0.0
 46
0.0
 47
0.0
 48
0.0
140
3.2000000000000002
141
0.0
142
0.0
143
25.399999999999999
144
1.0
145
0.0
146
1.0
147
0.9
 71
     0
 72
     0
 73
     0
 74
     0
 75
     0
 76
     0
 77
     1
 78
     8
170
     0
171
     2
172
     1
173
     0
174
     0
175
     0
176
   256
177
   256
178
   256
  0
ENDTAB
  0
ENDSEC
  0
SECTION
  2
BLOCKS
  0
BLOCK
  8
0
  2
$MODEL_SPACE
 70
     0
 10
0.0
 20
0.0
 30
0.0
  3
$MODEL_SPACE
  1

  0
ENDBLK
  5
12EFDD
  8
0
  0
BLOCK
 67
     1
  8
0
  2
$PAPER_SPACE
 70
     0
 10
0.0
 20
0.0
 30
0.0
  3
$PAPER_SPACE
  1

  0
ENDBLK
  5
12EFD9
 67
     1
  8
0
  0
BLOCK
  8
0
  2
_OPEN30
 70
     0
 10
0.0
 20
0.0
 30
0.0
  3
_OPEN30
  1

  0
LINE
  5
202
  8
0
  6
BYBLOCK
 62
     0
 10
-1.0
 20
0.26794919
 30
0.0
 11
0.0
 21
0.0
 31
0.0
  0
LINE
  5
203
  8
0
  6
BYBLOCK
 62
     0
 10
0.0
 20
0.0
 30
0.0
 11
-1.0
 21
-0.26794919
 31
0.0
  0
LINE
  5
204
  8
0
  6
BYBLOCK
 62
     0
 10
0.0
 20
0.0
 30
0.0
 11
-1.0
 21
0.0
 31
0.0
  0
ENDBLK
  5
206
  8
0
  0
BLOCK
  8
0
  2
*U4
 70
     1
 10
0.0
 20
0.0
 30
0.0
  3
*U4
  1

  0
TEXT
  5
12EF15
  8
DIM
 10
3840.6616440113212
 20
-982.74285714285645
 30
0.0
 40
32.0
  1
m（シンドカット）
 50
90.0
 41
0.75
  0
ENDBLK
  5
12EF17
  8
0
  0
ENDSEC
  0
SECTION
  2
ENTITIES
  0
LINE
  5
12EC74
  8
SLIM
 10
4350.0
 20
-887.99999999999682
 30
0.0
 11
4350.0
 21
-1079.999999999997
 31
0.0
  0
LINE
  5
12EC75
  8
SLIM
 10
4454.0
 20
-1079.999999999997
 30
0.0
 11
4454.0
 21
-887.99999999999682
 31
0.0
  0
LINE
  5
12EC76
  8
SLIM
 10
4602.0
 20
-887.99999999999682
 30
0.0
 11
4350.0
 21
-887.99999999999682
 31
0.0
  0
LINE
  5
12EC77
  8
SLIM
 10
4602.0
 20
-983.99999999999693
 30
0.0
 11
4350.0
 21
-983.99999999999693
 31
0.0
  0
LINE
  5
12EC79
  8
SLIM
 10
4602.0
 20
-1031.999999999997
 30
0.0
 11
4350.0
 21
-1031.999999999997
 31
0.0
  0
LINE
  5
12EC7A
  8
SLIM
 10
4602.0
 20
-1079.999999999997
 30
0.0
 11
4350.0
 21
-1079.999999999997
 31
0.0
  0
LINE
  5
12EC7E
  8
SLIM
 10
4602.0
 20
-935.99999999999693
 30
0.0
 11
4350.0
 21
-935.99999999999693
 31
0.0
  0
LINE
  5
12EC80
  8
SLIM
 10
4602.0
 20
-887.99999999999682
 30
0.0
 11
4602.0
 21
-1079.999999999997
 31
0.0
  0
LINE
  5
12ECBA
  8
DIM
 10
3904.9999999999941
 20
-755.0
 30
0.0
 11
3839.6616440113221
 21
-754.99999999999966
 31
0.0
  0
LINE
  5
12ECBB
  8
DIM
 10
3910.0
 20
-965.0
 30
0.0
 11
3839.6616440113221
 21
-964.99999999999955
 31
0.0
  0
LINE
  5
12ECBC
  8
DIM
 10
3849.6616440113221
 20
-775.0
 30
0.0
 11
3849.6616440113221
 21
-945.0
 31
0.0
  0
INSERT
  5
12ECBD
  8
DIM
  2
_OPEN30
 10
3849.6616440113221
 20
-755.0
 30
0.0
 41
20.0
 42
20.0
 43
20.0
 50
90.0
  0
INSERT
  5
12ECBE
  8
DIM
  2
_OPEN30
 10
3849.6616440113221
 20
-965.0
 30
0.0
 41
20.0
 42
20.0
 43
20.0
 50
270.0
  0
INSERT
  5
12ECBF
  8
OBJECT
  2
*U4
 10
0.0
 20
0.0
 30
0.0
  0
TEXT
  5
12ECC0
  8
SLIM
 10
3554.6000000000008
 20
-1415.6666666666649
 30
0.0
 40
28.0
  1
※ 対応スラブ厚　180～（m-10）
 41
0.75
  0
TEXT
  5
12ECC1
  8
SLIM
 10
3554.6000000000008
 20
-1462.3333333333319
 30
0.0
 40
28.0
  1
※ 足切り可能寸法（最大）　210-m（コンパクトＬベンド使用なら+20）
 41
0.75
  0
TEXT
  5
12ECC2
  8
SLIM
 10
3598.9000000000001
 20
-1555.666666666664
 30
0.0
 40
28.0
  1
国土交通大臣認定・（一財）日本消防設備安全センター性能評定取得品
 41
0.75
  0
TEXT
  5
12ECC3
  8
SLIM
 10
3631.1000000000022
 20
-1602.3333333333319
 30
0.0
 40
28.0
  1
注）ご採用にあたり、認定書及び評定書の内容をご確認ください。
 41
0.75
  0
TEXT
  5
12ECC4
  8
SLIM
 10
4506.5714285714294
 20
-971.99999999999682
 30
0.0
 40
24.0
  1
180
 41
0.75
  0
TEXT
  5
12ECC5
  8
SLIM
 10
4470.057142857142
 20
-1067.999999999997
 30
0.0
 40
24.0
  1
180～200
 41
0.75
  0
TEXT
  5
12ECC6
  8
SLIM
 10
4471.7714285714283
 20
-1019.999999999997
 30
0.0
 40
24.0
  1
180～190
 41
0.75
  0
TEXT
  5
12ECC7
  8
SLIM
 10
4465.6000000000013
 20
-923.99999999999704
 30
0.0
 40
24.0
  1
対応スラブ厚
 41
0.75
  0
TEXT
  5
12ECC8
  8
SLIM
 10
4398.1714285714288
 20
-1125.999999999997
 30
0.0
 40
24.0
  1
標準：m=210
 41
0.75
  0
TEXT
  5
12ECC9
  8
SLIM
 10
4380.5714285714284
 20
-971.99999999999682
 30
0.0
 40
24.0
  1
190
 41
0.75
  0
TEXT
  5
12ECCA
  8
SLIM
 10
4380.5714285714284
 20
-1067.999999999997
 30
0.0
 40
24.0
  1
210
 41
0.75
  0
TEXT
  5
12ECCB
  8
SLIM
 10
4369.9428571428571
 20
-923.99999999999704
 30
0.0
 40
24.0
  1
m寸法
 41
0.75
  0
TEXT
  5
12ECCC
  8
SLIM
 10
4378.8571428571431
 20
-1019.999999999997
 30
0.0
 40
24.0
  1
200
 41
0.75
  0
LINE
  5
12ECCD
  8
OBJECT
 10
3923.0
 20
-570.99999999999955
 30
0.0
 11
3923.0
 21
-549.99999999999955
 31
0.0
1001
ACDBBLOCKREPETAG
1070
     1
1071
       36
1005
12ECCD
  0
LINE
  5
12ECCE
  8
OBJECT
 10
3923.0
 20
-549.99999999999955
 30
0.0
 11
4077.0
 21
-549.99999999999955
 31
0.0
1001
ACDBBLOCKREPETAG
1070
     1
1071
       37
1005
12ECCE
  0
LINE
  5
12ECCF
  8
HIDDEN
 10
3943.0
 20
-619.99999999999955
 30
0.0
 11
4057.0
 21
-619.99999999999955
 31
0.0
1001
ACDBBLOCKREPETAG
1070
     1
1071
       38
1005
12ECCF
  0
LINE
  5
12ECD0
  8
OBJECT
 10
4077.0
 20
-549.99999999999955
 30
0.0
 11
4077.0
 21
-570.99999999999955
 31
0.0
1001
ACDBBLOCKREPETAG
1070
     1
1071
       39
1005
12ECD0
  0
LINE
  5
12ECD1
  8
OBJECT
 10
4077.0
 20
-570.99999999999955
 30
0.0
 11
3923.0
 21
-570.99999999999955
 31
0.0
1001
ACDBBLOCKREPETAG
1070
     1
1071
       40
1005
12ECD1
  0
LINE
  5
12ECD2
  8
CENTER
 10
4000.0
 20
-534.99999999999955
 30
0.0
 11
4000.0
 21
-769.99999999999955
 31
0.0
1001
ACDBBLOCKREPETAG
1070
     1
1071
       41
1005
12ECD2
  0
LINE
  5
12ECD3
  8
OBJECT
 10
3928.0
 20
-570.99999999999955
 30
0.0
 11
3928.0
 21
-633.99999999999955
 31
0.0
1001
ACDBBLOCKREPETAG
1070
     1
1071
       42
1005
12ECD3
  0
LINE
  5
12ECD4
  8
OBJECT
 10
4072.0
 20
-633.99999999999955
 30
0.0
 11
4072.0
 21
-570.99999999999955
 31
0.0
1001
ACDBBLOCKREPETAG
1070
     1
1071
       43
1005
12ECD4
  0
LINE
  5
12ECD5
  8
OBJECT
 10
3920.0
 20
-757.99999999999955
 30
0.0
 11
4080.0
 21
-757.99999999999955
 31
0.0
1001
ACDBBLOCKREPETAG
1070
     1
1071
       44
1005
12ECD5
  0
LINE
  5
12ECD6
  8
OBJECT
 10
4080.0
 20
-633.99999999999955
 30
0.0
 11
3920.0
 21
-633.99999999999955
 31
0.0
1001
ACDBBLOCKREPETAG
1070
     1
1071
       45
1005
12ECD6
  0
LINE
  5
12ECD7
  8
OBJECT
 10
3920.0
 20
-757.99999999999955
 30
0.0
 11
3920.0
 21
-769.99999999999955
 31
0.0
1001
ACDBBLOCKREPETAG
1070
     1
1071
       46
1005
12ECD7
  0
LINE
  5
12ECD8
  8
OBJECT
 10
3920.0
 20
-769.99999999999955
 30
0.0
 11
4080.0
 21
-769.99999999999955
 31
0.0
1001
ACDBBLOCKREPETAG
1070
     1
1071
       47
1005
12ECD8
  0
LINE
  5
12ECD9
  8
OBJECT
 10
4080.0
 20
-769.99999999999955
 30
0.0
 11
4080.0
 21
-757.99999999999955
 31
0.0
1001
ACDBBLOCKREPETAG
1070
     1
1071
       48
1005
12ECD9
  0
ARC
  5
12ECDA
  8
OBJECT
 10
4200.6872746716726
 20
-749.40809941010718
 30
0.0
 40
170.6350503965856
 50
137.44134459184301
 51
149.91949581337221
1001
ACDBBLOCKREPETAG
1070
     1
1071
       52
1005
12ECDA
  0
ARC
  5
12ECDB
  8
OBJECT
 10
4200.6872746716726
 20
-642.59190058989179
 30
0.0
 40
170.6350503965856
 50
210.08050418662771
 51
222.55865540815699
1001
ACDBBLOCKREPETAG
1070
     1
1071
       53
1005
12ECDB
  0
ARC
  5
12ECDC
  8
OBJECT
 10
3799.3127253283278
 20
-749.40809941010718
 30
0.0
 40
170.6350503965856
 50
30.080504186774089
 51
42.558655408456282
1001
ACDBBLOCKREPETAG
1070
     1
1071
       54
1005
12ECDC
  0
ARC
  5
12ECDD
  8
OBJECT
 10
3799.3127253283278
 20
-642.59190058989179
 30
0.0
 40
170.6350503965856
 50
317.44134459154373
 51
329.91949581322592
1001
ACDBBLOCKREPETAG
1070
     1
1071
       55
1005
12ECDD
  0
POINT
  5
12ECDE
  8
DOTS
 10
4000.0
 20
-754.99999999999955
 30
0.0
1001
ACDBBLOCKREPETAG
1070
     1
1071
      184
1005
12ECDE
  0
LINE
  5
12ECDF
  8
SLIM
 10
3945.2566704261012
 20
-137.99999999999909
 30
0.0
 11
3955.9548403695781
 21
-127.30183005652231
 31
0.0
1001
GRADIENTCOLOR1ACI
1070
     5
1001
GRADIENTCOLOR2ACI
1070
     2
1001
ACAD
1010
0.0
1020
0.0
1030
0.0
1001
ACDBBLOCKREPETAG
1070
     1
1071
      422
1005
12ECDF
  0
LINE
  5
12ECE0
  8
SLIM
 10
3954.2369265471712
 20
-137.99999999999909
 30
0.0
 11
3972.7507744763329
 21
-119.4861520708364
 31
0.0
1001
GRADIENTCOLOR1ACI
1070
     5
1001
GRADIENTCOLOR2ACI
1070
     2
1001
ACAD
1010
0.0
1020
0.0
1030
0.0
1001
ACDBBLOCKREPETAG
1070
     1
1071
      423
1005
12ECE0
  0
LINE
  5
12ECE1
  8
SLIM
 10
3973.521224312457
 20
-127.6959583557812
 30
0.0
 11
3984.8575146748631
 21
-116.359667993377
 31
0.0
1001
GRADIENTCOLOR1ACI
1070
     5
1001
GRADIENTCOLOR2ACI
1070
     2
1001
ACAD
1010
0.0
1020
0.0
1030
0.0
1001
ACDBBLOCKREPETAG
1070
     1
1071
      424
1005
12ECE1
  0
LINE
  5
12ECE2
  8
SLIM
 10
3985.8944171461271
 20
-124.30302164318159
 30
0.0
 11
3995.0533812002559
 21
-115.1440575890517
 31
0.0
1001
GRADIENTCOLOR1ACI
1070
     5
1001
GRADIENTCOLOR2ACI
1070
     2
1001
ACAD
1010
0.0
1020
0.0
1030
0.0
1001
ACDBBLOCKREPETAG
1070
     1
1071
      425
1005
12ECE2
  0
LINE
  5
12ECE3
  8
SLIM
 10
3996.0777327492078
 20
-123.0999621611699
 30
0.0
 11
4000.0
 21
-119.1776949103767
 31
0.0
1001
GRADIENTCOLOR1ACI
1070
     5
1001
GRADIENTCOLOR2ACI
1070
     2
1001
ACAD
1010
0.0
1020
0.0
1030
0.0
1001
ACDBBLOCKREPETAG
1070
     1
1071
      426
1005
12ECE3
  0
LINE
  5
12ECE4
  8
SLIM
 10
4000.0
 20
-119.1776949103767
 30
0.0
 11
4004.0797313529042
 21
-115.0979635574724
 31
0.0
1001
GRADIENTCOLOR1ACI
1070
     5
1001
GRADIENTCOLOR2ACI
1070
     2
1001
ACAD
1010
0.0
1020
0.0
1030
0.0
1001
ACDBBLOCKREPETAG
1070
     1
1071
      427
1005
12ECE4
  0
LINE
  5
12ECE5
  8
SLIM
 10
4004.9957202542769
 20
-123.1622307771683
 30
0.0
 11
4012.2679784105749
 21
-115.88997262087101
 31
0.0
1001
GRADIENTCOLOR1ACI
1070
     5
1001
GRADIENTCOLOR2ACI
1070
     2
1001
ACAD
1010
0.0
1020
0.0
1030
0.0
1001
ACDBBLOCKREPETAG
1070
     1
1071
      428
1005
12ECE5
  0
LINE
  5
12ECE6
  8
SLIM
 10
4013.028059366964
 20
-124.1101477855505
 30
0.0
 11
4019.799941457361
 21
-117.3382656951526
 31
0.0
1001
GRADIENTCOLOR1ACI
1070
     5
1001
GRADIENTCOLOR2ACI
1070
     2
1001
ACAD
1010
0.0
1020
0.0
1030
0.0
1001
ACDBBLOCKREPETAG
1070
     1
1071
      429
1005
12ECE6
  0
LINE
  5
12ECE7
  8
SLIM
 10
4020.3740813142458
 20
-125.7443819593383
 30
0.0
 11
4026.7872038672799
 21
-119.3312594063044
 31
0.0
1001
GRADIENTCOLOR1ACI
1070
     5
1001
GRADIENTCOLOR2ACI
1070
     2
1001
ACAD
1010
0.0
1020
0.0
1030
0.0
1001
ACDBBLOCKREPETAG
1070
     1
1071
      430
1005
12ECE7
  0
LINE
  5
12ECE8
  8
SLIM
 10
4027.1524719988752
 20
-127.946247395778
 30
0.0
 11
4033.3030030760328
 21
-121.7957163186195
 31
0.0
1001
GRADIENTCOLOR1ACI
1070
     5
1001
GRADIENTCOLOR2ACI
1070
     2
1001
ACAD
1010
0.0
1020
0.0
1030
0.0
1001
ACDBBLOCKREPETAG
1070
     1
1071
      431
1005
12ECE8
  0
LINE
  5
12ECE9
  8
SLIM
 10
4033.4390986513308
 20
-130.63987686439191
 30
0.0
 11
4039.3973119843781
 21
-124.6816635313439
 31
0.0
1001
GRADIENTCOLOR1ACI
1070
     5
1001
GRADIENTCOLOR2ACI
1070
     2
1001
ACAD
1010
0.0
1020
0.0
1030
0.0
1001
ACDBBLOCKREPETAG
1070
     1
1071
      432
1005
12ECE9
  0
LINE
  5
12ECEA
  8
SLIM
 10
4039.284224621797
 20
-133.77500701499321
 30
0.0
 11
4045.1047705343681
 21
-127.95446110242381
 31
0.0
1001
GRADIENTCOLOR1ACI
1070
     5
1001
GRADIENTCOLOR2ACI
1070
     2
1001
ACAD
1010
0.0
1020
0.0
1030
0.0
1001
ACDBBLOCKREPETAG
1070
     1
1071
      433
1005
12ECEA
  0
LINE
  5
12ECEB
  8
SLIM
 10
4044.7212801698038
 20
-137.31820758805651
 30
0.0
 11
4050.4491557891961
 21
-131.59033196866449
 31
0.0
1001
GRADIENTCOLOR1ACI
1070
     5
1001
GRADIENTCOLOR2ACI
1070
     2
1001
ACAD
1010
0.0
1020
0.0
1030
0.0
1001
ACDBBLOCKREPETAG
1070
     1
1071
      434
1005
12ECEB
  0
LINE
  5
12ECEC
  8
SLIM
 10
4053.0197438789291
 20
-137.99999999999909
 30
0.0
 11
4055.4459941864038
 21
-135.57374969252561
 31
0.0
1001
GRADIENTCOLOR1ACI
1070
     5
1001
GRADIENTCOLOR2ACI
1070
     2
1001
ACAD
1010
0.0
1020
0.0
1030
0.0
1001
ACDBBLOCKREPETAG
1070
     1
1071
      435
1005
12ECEC
  0
LINE
  5
12ECED
  8
CENTER
 10
4000.0
 20
-279.99999999999909
 30
0.0
 11
4000.0
 21
-99.999999999999091
 31
0.0
1001
ACDBBLOCKREPETAG
1070
     1
1071
      160
1005
12ECED
  0
CIRCLE
  5
12ECEE
  8
OBJECT
 10
4000.0
 20
-199.99999999999909
 30
0.0
 40
70.0
1001
ACDBBLOCKREPETAG
1070
     1
1071
      161
1005
12ECEE
  0
CIRCLE
  5
12ECEF
  8
OBJECT
 10
4000.0
 20
-199.99999999999909
 30
0.0
 40
77.0
1001
ACDBBLOCKREPETAG
1070
     1
1071
      162
1005
12ECEF
  0
LINE
  5
12ECF0
  8
OBJECT
 10
4045.661800227324
 20
-137.99999999999909
 30
0.0
 11
4080.0
 21
-137.99999999999909
 31
0.0
1001
ACDBBLOCKREPETAG
1070
     1
1071
      164
1005
12ECF0
  0
LINE
  5
12ECF1
  8
OBJECT
 10
4062.0
 20
-261.99999999999909
 30
0.0
 11
4080.0
 21
-261.99999999999909
 31
0.0
1001
ACDBBLOCKREPETAG
1070
     1
1071
      165
1005
12ECF1
  0
LINE
  5
12ECF2
  8
OBJECT
 10
4062.0
 20
-261.99999999999909
 30
0.0
 11
4062.0
 21
-279.99999999999909
 31
0.0
1001
ACDBBLOCKREPETAG
1070
     1
1071
      167
1005
12ECF2
  0
LINE
  5
12ECF3
  8
OBJECT
 10
3938.0
 20
-261.99999999999909
 30
0.0
 11
3938.0
 21
-279.99999999999909
 31
0.0
1001
ACDBBLOCKREPETAG
1070
     1
1071
      168
1005
12ECF3
  0
LINE
  5
12ECF4
  8
OBJECT
 10
3938.0
 20
-261.99999999999909
 30
0.0
 11
3920.0
 21
-261.99999999999909
 31
0.0
1001
ACDBBLOCKREPETAG
1070
     1
1071
      170
1005
12ECF4
  0
LINE
  5
12ECF5
  8
OBJECT
 10
3954.338199772676
 20
-137.99999999999909
 30
0.0
 11
3920.0
 21
-137.99999999999909
 31
0.0
1001
ACDBBLOCKREPETAG
1070
     1
1071
      171
1005
12ECF5
  0
LINE
  5
12ECF6
  8
OBJECT
 10
3945.5527778486362
 20
-254.44722215136329
 30
0.0
 11
3938.0
 21
-261.99999999999909
 31
0.0
1001
ACDBBLOCKREPETAG
1070
     1
1071
      180
1005
12ECF6
  0
LINE
  5
12ECF7
  8
OBJECT
 10
4054.4472221513638
 20
-254.44722215136329
 30
0.0
 11
4062.0
 21
-261.99999999999909
 31
0.0
1001
ACDBBLOCKREPETAG
1070
     1
1071
      181
1005
12ECF7
  0
POINT
  5
12ECF8
  8
DOTS
 10
4000.0
 20
-199.99999999999909
 30
0.0
 50
270.0
1001
ACDBBLOCKREPETAG
1070
     1
1071
      182
1005
12ECF8
  0
ARC
  5
12ECF9
  8
OBJECT
 10
4000.0
 20
-199.99999999999909
 30
0.0
 40
85.0
 50
46.837102859806208
 51
133.16289714019371
1001
ACDBBLOCKREPETAG
1070
     1
1071
      183
1005
12ECF9
  0
CIRCLE
  5
12ECFA
  8
OBJECT
 10
4000.0
 20
-199.99999999999909
 30
0.0
 40
53.5
1001
ACDBBLOCKREPETAG
1070
     1
1071
      352
1005
12ECFA
  0
LINE
  5
12ECFB
  8
CENTER
 10
4080.0
 20
-199.99999999999909
 30
0.0
 11
3920.0
 21
-199.99999999999909
 31
0.0
1001
ACDBBLOCKREPETAG
1070
     1
1071
      158
1005
12ECFB
  0
LINE
  5
12ECFC
  8
CENTER
 10
3920.0
 20
-199.99999999999909
 30
0.0
 11
3761.0
 21
-199.99999999999909
 31
0.0
1001
ACDBBLOCKREPETAG
1070
     1
1071
      155
1005
12ECFC
  0
LINE
  5
12ECFD
  8
OBJECT
 10
3920.0
 20
-261.99999999999909
 30
0.0
 11
3917.0
 21
-261.99999999999909
 31
0.0
1001
ACDBBLOCKREPETAG
1070
     1
1071
      156
1005
12ECFD
  0
ARC
  5
12ECFE
  8
OBJECT
 10
3917.0
 20
-258.99999999999909
 30
0.0
 40
3.0
 50
180.0
 51
270.0
1001
ACDBBLOCKREPETAG
1070
     1
1071
      157
1005
12ECFE
  0
LINE
  5
12ECFF
  8
OBJECT
 10
3920.0
 20
-138.0000000000027
 30
0.0
 11
3917.0
 21
-138.0000000000027
 31
0.0
1001
ACDBBLOCKREPETAG
1070
     1
1071
      158
1005
12ECFF
  0
LINE
  5
12ED00
  8
OBJECT
 10
3914.0
 20
-140.99999999999909
 30
0.0
 11
3891.3452724064659
 21
-140.9999999999954
 31
0.0
1001
ACDBBLOCKREPETAG
1070
     1
1071
      159
1005
12ED00
  0
LINE
  5
12ED01
  8
OBJECT
 10
3914.0
 20
-259.00000000000267
 30
0.0
 11
3891.3452724064659
 21
-258.99999999999909
 31
0.0
1001
ACDBBLOCKREPETAG
1070
     1
1071
      160
1005
12ED01
  0
LINE
  5
12ED02
  8
CENTER
 10
3850.0
 20
-123.5195984073716
 30
0.0
 11
3850.0
 21
-276.48040159262649
 31
0.0
1001
ACDBBLOCKREPETAG
1070
     1
1071
      161
1005
12ED02
  0
LINE
  5
12ED03
  8
OBJECT
 10
3914.0
 20
-141.0000000000027
 30
0.0
 11
3914.0
 21
-258.99999999999909
 31
0.0
1001
ACDBBLOCKREPETAG
1070
     1
1071
      162
1005
12ED03
  0
ARC
  5
12ED04
  8
OBJECT
 10
3917.0
 20
-141.0000000000027
 30
0.0
 40
3.0
 50
90.0
 51
180.0
1001
ACDBBLOCKREPETAG
1070
     1
1071
      163
1005
12ED04
  0
ARC
  5
12ED05
  8
OBJECT
 10
3850.0
 20
-199.99999999999909
 30
0.0
 40
61.0
 50
97.16728546129427
 51
142.83271453872419
1001
ACDBBLOCKREPETAG
1070
     1
1071
      165
1005
12ED05
  0
ARC
  5
12ED06
  8
OBJECT
 10
3850.0
 20
-199.99999999999909
 30
0.0
 40
61.0
 50
337.16728546124438
 51
22.832714538755649
1001
ACDBBLOCKREPETAG
1070
     1
1071
      166
1005
12ED06
  0
ARC
  5
12ED07
  8
OBJECT
 10
3850.0
 20
-199.99999999999909
 30
0.0
 40
61.0
 50
217.16728546127581
 51
262.83271453870572
1001
ACDBBLOCKREPETAG
1070
     1
1071
      167
1005
12ED07
  0
CIRCLE
  5
12ED08
  8
SLIM
 10
3786.0
 20
-199.99999999999909
 30
0.0
 40
4.0
1001
ACDBBLOCKREPETAG
1070
     1
1071
      168
1005
12ED08
  0
ARC
  5
12ED09
  8
OBJECT
 10
3786.0
 20
-199.99999999999909
 30
0.0
 40
10.0
 50
142.83271453872419
 51
217.16728546127581
1001
ACDBBLOCKREPETAG
1070
     1
1071
      169
1005
12ED09
  0
LINE
  5
12ED0A
  8
OBJECT
 10
3801.3906250000041
 20
-163.14720279124501
 30
0.0
 11
3778.03125
 21
-193.9585578346296
 31
0.0
1001
ACDBBLOCKREPETAG
1070
     1
1071
      170
1005
12ED0A
  0
LINE
  5
12ED0B
  8
OBJECT
 10
3801.3906250000041
 20
-236.8527972087532
 30
0.0
 11
3778.03125
 21
-206.04144216536861
 31
0.0
1001
ACDBBLOCKREPETAG
1070
     1
1071
      171
1005
12ED0B
  0
CIRCLE
  5
12ED0C
  8
SLIM
 10
3882.0
 20
-144.5743741577962
 30
0.0
 40
3.9999999999999991
1001
ACDBBLOCKREPETAG
1070
     1
1071
      172
1005
12ED0C
  0
ARC
  5
12ED0D
  8
OBJECT
 10
3882.0
 20
-144.5743741577962
 30
0.0
 40
9.9999999999999982
 50
22.832714538755649
 51
97.16728546129427
1001
ACDBBLOCKREPETAG
1070
     1
1071
      173
1005
12ED0D
  0
LINE
  5
12ED0E
  8
OBJECT
 10
3906.2201460832948
 20
-176.32944499229319
 30
0.0
 11
3891.2164173907049
 21
-140.6939553040711
 31
0.0
1001
ACDBBLOCKREPETAG
1070
     1
1071
      174
1005
12ED0E
  0
LINE
  5
12ED0F
  8
OBJECT
 10
3842.3892289167011
 20
-139.47664778353919
 30
0.0
 11
3880.752332609296
 21
-134.65251313870161
 31
0.0
1001
ACDBBLOCKREPETAG
1070
     1
1071
      175
1005
12ED0F
  0
CIRCLE
  5
12ED10
  8
SLIM
 10
3882.0
 20
-255.4256258422019
 30
0.0
 40
4.0
1001
ACDBBLOCKREPETAG
1070
     1
1071
      176
1005
12ED10
  0
ARC
  5
12ED11
  8
OBJECT
 10
3882.0
 20
-255.4256258422019
 30
0.0
 40
10.0
 50
262.83271453870572
 51
337.16728546124438
1001
ACDBBLOCKREPETAG
1070
     1
1071
      177
1005
12ED11
  0
LINE
  5
12ED12
  8
OBJECT
 10
3842.3892289167011
 20
-260.52335221645899
 30
0.0
 11
3880.752332609296
 21
-265.3474868612966
 31
0.0
1001
ACDBBLOCKREPETAG
1070
     1
1071
      178
1005
12ED12
  0
LINE
  5
12ED13
  8
OBJECT
 10
3906.2201460832948
 20
-223.67055500770491
 30
0.0
 11
3891.2164173907049
 21
-259.30604469592708
 31
0.0
1001
ACDBBLOCKREPETAG
1070
     1
1071
      179
1005
12ED13
  0
CIRCLE
  5
12ED14
  8
OBJECT
 10
3850.0
 20
-199.99999999999909
 30
0.0
 40
46.0
1001
ACDBBLOCKREPETAG
1070
     1
1071
      180
1005
12ED14
  0
POLYLINE
  5
12ED15
  8
SLIM
 66
     1
 10
0.0
 20
0.0
 30
0.0
 70
     1
1001
ACDBBLOCKREPETAG
1070
     1
1071
      181
1005
12ED15
  0
VERTEX
  5
12F02B
  8
SLIM
 10
3789.7527767497349
 20
-193.49999999999909
 30
0.0
  0
VERTEX
  5
12F02C
  8
SLIM
 10
3793.5055534994649
 20
-199.99999999999909
 30
0.0
  0
VERTEX
  5
12F02D
  8
SLIM
 10
3789.7527767497349
 20
-206.49999999999909
 30
0.0
  0
VERTEX
  5
12F02E
  8
SLIM
 10
3782.247223250266
 20
-206.49999999999909
 30
0.0
  0
VERTEX
  5
12F02F
  8
SLIM
 10
3778.494446500536
 20
-199.99999999999909
 30
0.0
  0
VERTEX
  5
12F030
  8
SLIM
 10
3782.247223250266
 20
-193.49999999999909
 30
0.0
  0
SEQEND
  5
12F031
  8
SLIM
  0
POLYLINE
  5
12ED16
  8
SLIM
 66
     1
 10
0.0
 20
0.0
 30
0.0
 70
     1
1001
ACDBBLOCKREPETAG
1070
     1
1071
      182
1005
12ED16
  0
VERTEX
  5
12F032
  8
SLIM
 10
3885.752776749729
 20
-151.0743741577962
 30
0.0
  0
VERTEX
  5
12F033
  8
SLIM
 10
3878.247223250266
 20
-151.0743741577962
 30
0.0
  0
VERTEX
  5
12F034
  8
SLIM
 10
3874.494446500536
 20
-144.5743741577962
 30
0.0
  0
VERTEX
  5
12F035
  8
SLIM
 10
3878.247223250271
 20
-138.07437415779259
 30
0.0
  0
VERTEX
  5
12F036
  8
SLIM
 10
3885.752776749729
 20
-138.0743741577962
 30
0.0
  0
VERTEX
  5
12F037
  8
SLIM
 10
3889.5055534994649
 20
-144.57437415779259
 30
0.0
  0
SEQEND
  5
12F038
  8
SLIM
  0
POLYLINE
  5
12ED17
  8
SLIM
 66
     1
 10
0.0
 20
0.0
 30
0.0
 70
     1
1001
ACDBBLOCKREPETAG
1070
     1
1071
      183
1005
12ED17
  0
VERTEX
  5
12F039
  8
SLIM
 10
3874.494446500536
 20
-255.4256258422019
 30
0.0
  0
VERTEX
  5
12F03A
  8
SLIM
 10
3878.247223250271
 20
-248.9256258422019
 30
0.0
  0
VERTEX
  5
12F03B
  8
SLIM
 10
3885.752776749729
 20
-248.9256258422019
 30
0.0
  0
VERTEX
  5
12F03C
  8
SLIM
 10
3889.5055534994649
 20
-255.42562584220559
 30
0.0
  0
VERTEX
  5
12F03D
  8
SLIM
 10
3885.752776749734
 20
-261.9256258422019
 30
0.0
  0
VERTEX
  5
12F03E
  8
SLIM
 10
3878.247223250271
 20
-261.92562584220559
 30
0.0
  0
SEQEND
  5
12F03F
  8
SLIM
  0
LINE
  5
12ED18
  8
CENTER
 10
4000.0
 20
-300.99999999999898
 30
0.0
 11
4000.0
 21
-279.99999999999909
 31
0.0
1001
ACDBBLOCKREPETAG
1070
     1
1071
        0
1005
12ED18
  0
LINE
  5
12ED19
  8
OBJECT
 10
4062.0
 20
-283.0
 30
0.0
 11
4062.0
 21
-279.99999999999909
 31
0.0
1001
ACDBBLOCKREPETAG
1070
     1
1071
        1
1005
12ED19
  0
ARC
  5
12ED1A
  8
OBJECT
 10
4059.0
 20
-283.0
 30
0.0
 40
3.0
 50
270.0
 51
0.0
1001
ACDBBLOCKREPETAG
1070
     1
1071
        2
1005
12ED1A
  0
LINE
  5
12ED1B
  8
OBJECT
 10
3938.0
 20
-279.99999999999909
 30
0.0
 11
3938.0
 21
-282.99999999999818
 31
0.0
1001
ACDBBLOCKREPETAG
1070
     1
1071
        3
1005
12ED1B
  0
ARC
  5
12ED1C
  8
OBJECT
 10
3941.0
 20
-282.99999999999818
 30
0.0
 40
3.0
 50
180.0
 51
270.0
1001
ACDBBLOCKREPETAG
1070
     1
1071
        4
1005
12ED1C
  0
LINE
  5
12ED1D
  8
OBJECT
 10
3941.0
 20
-285.99999999999818
 30
0.0
 11
4059.0
 21
-286.0
 31
0.0
1001
ACDBBLOCKREPETAG
1070
     1
1071
        5
1005
12ED1D
  0
LINE
  5
12ED1E
  8
CENTER
 10
4080.0
 20
-199.99999999999909
 30
0.0
 11
4239.0
 21
-199.99999999999909
 31
0.0
1001
ACDBBLOCKREPETAG
1070
     1
1071
      155
1005
12ED1E
  0
LINE
  5
12ED1F
  8
OBJECT
 10
4080.0
 20
-261.99999999999909
 30
0.0
 11
4083.0
 21
-261.99999999999909
 31
0.0
1001
ACDBBLOCKREPETAG
1070
     1
1071
      156
1005
12ED1F
  0
ARC
  5
12ED20
  8
OBJECT
 10
4083.0
 20
-258.99999999999909
 30
0.0
 40
3.0
 50
270.0
 51
0.0
1001
ACDBBLOCKREPETAG
1070
     1
1071
      157
1005
12ED20
  0
LINE
  5
12ED21
  8
OBJECT
 10
4080.0
 20
-138.0000000000027
 30
0.0
 11
4083.0
 21
-138.0000000000027
 31
0.0
1001
ACDBBLOCKREPETAG
1070
     1
1071
      158
1005
12ED21
  0
LINE
  5
12ED22
  8
OBJECT
 10
4086.0
 20
-140.99999999999909
 30
0.0
 11
4108.6547275935336
 21
-140.9999999999954
 31
0.0
1001
ACDBBLOCKREPETAG
1070
     1
1071
      159
1005
12ED22
  0
LINE
  5
12ED23
  8
OBJECT
 10
4086.0
 20
-259.00000000000267
 30
0.0
 11
4108.6547275935336
 21
-258.99999999999909
 31
0.0
1001
ACDBBLOCKREPETAG
1070
     1
1071
      160
1005
12ED23
  0
LINE
  5
12ED24
  8
CENTER
 10
4150.0
 20
-123.5195984073716
 30
0.0
 11
4150.0
 21
-276.48040159262649
 31
0.0
1001
ACDBBLOCKREPETAG
1070
     1
1071
      161
1005
12ED24
  0
LINE
  5
12ED25
  8
OBJECT
 10
4086.0
 20
-141.0000000000027
 30
0.0
 11
4086.0
 21
-258.99999999999909
 31
0.0
1001
ACDBBLOCKREPETAG
1070
     1
1071
      162
1005
12ED25
  0
ARC
  5
12ED26
  8
OBJECT
 10
4083.0
 20
-141.0000000000027
 30
0.0
 40
3.0
 50
0.0
 51
90.0
1001
ACDBBLOCKREPETAG
1070
     1
1071
      163
1005
12ED26
  0
ARC
  5
12ED27
  8
OBJECT
 10
4150.0
 20
-199.99999999999909
 30
0.0
 40
61.0
 50
37.167285461274467
 51
82.832714538705744
1001
ACDBBLOCKREPETAG
1070
     1
1071
      165
1005
12ED27
  0
ARC
  5
12ED28
  8
OBJECT
 10
4150.0
 20
-199.99999999999909
 30
0.0
 40
61.0
 50
157.16728546126831
 51
202.83271453873161
1001
ACDBBLOCKREPETAG
1070
     1
1071
      166
1005
12ED28
  0
ARC
  5
12ED29
  8
OBJECT
 10
4150.0
 20
-199.99999999999909
 30
0.0
 40
61.0
 50
277.16728546129423
 51
322.83271453872419
1001
ACDBBLOCKREPETAG
1070
     1
1071
      167
1005
12ED29
  0
CIRCLE
  5
12ED2A
  8
SLIM
 10
4214.0
 20
-199.99999999999909
 30
0.0
 40
4.0
1001
ACDBBLOCKREPETAG
1070
     1
1071
      168
1005
12ED2A
  0
ARC
  5
12ED2B
  8
OBJECT
 10
4214.0
 20
-199.99999999999909
 30
0.0
 40
10.0
 50
322.83271453872419
 51
37.167285461274467
1001
ACDBBLOCKREPETAG
1070
     1
1071
      169
1005
12ED2B
  0
LINE
  5
12ED2C
  8
OBJECT
 10
4198.6093749999973
 20
-163.14720279124501
 30
0.0
 11
4221.96875
 21
-193.9585578346296
 31
0.0
1001
ACDBBLOCKREPETAG
1070
     1
1071
      170
1005
12ED2C
  0
LINE
  5
12ED2D
  8
OBJECT
 10
4198.6093749999973
 20
-236.8527972087532
 30
0.0
 11
4221.96875
 21
-206.04144216536861
 31
0.0
1001
ACDBBLOCKREPETAG
1070
     1
1071
      171
1005
12ED2D
  0
CIRCLE
  5
12ED2E
  8
SLIM
 10
4118.0
 20
-144.5743741577962
 30
0.0
 40
3.9999999999999991
1001
ACDBBLOCKREPETAG
1070
     1
1071
      172
1005
12ED2E
  0
ARC
  5
12ED2F
  8
OBJECT
 10
4118.0
 20
-144.5743741577962
 30
0.0
 40
9.9999999999999982
 50
82.832714538705744
 51
157.16728546126831
1001
ACDBBLOCKREPETAG
1070
     1
1071
      173
1005
12ED2F
  0
LINE
  5
12ED30
  8
OBJECT
 10
4093.7798539167038
 20
-176.32944499229319
 30
0.0
 11
4108.783582609296
 21
-140.6939553040711
 31
0.0
1001
ACDBBLOCKREPETAG
1070
     1
1071
      174
1005
12ED30
  0
LINE
  5
12ED31
  8
OBJECT
 10
4157.6107710832966
 20
-139.47664778353919
 30
0.0
 11
4119.247667390704
 21
-134.65251313870161
 31
0.0
1001
ACDBBLOCKREPETAG
1070
     1
1071
      175
1005
12ED31
  0
CIRCLE
  5
12ED32
  8
SLIM
 10
4118.0
 20
-255.4256258422019
 30
0.0
 40
4.0
1001
ACDBBLOCKREPETAG
1070
     1
1071
      176
1005
12ED32
  0
ARC
  5
12ED33
  8
OBJECT
 10
4118.0
 20
-255.4256258422019
 30
0.0
 40
10.0
 50
202.83271453873161
 51
277.16728546129423
1001
ACDBBLOCKREPETAG
1070
     1
1071
      177
1005
12ED33
  0
LINE
  5
12ED34
  8
OBJECT
 10
4157.6107710832966
 20
-260.52335221645899
 30
0.0
 11
4119.247667390704
 21
-265.3474868612966
 31
0.0
1001
ACDBBLOCKREPETAG
1070
     1
1071
      178
1005
12ED34
  0
LINE
  5
12ED35
  8
OBJECT
 10
4093.7798539167038
 20
-223.67055500770491
 30
0.0
 11
4108.783582609296
 21
-259.30604469592708
 31
0.0
1001
ACDBBLOCKREPETAG
1070
     1
1071
      179
1005
12ED35
  0
CIRCLE
  5
12ED36
  8
OBJECT
 10
4150.0
 20
-199.99999999999909
 30
0.0
 40
46.0
1001
ACDBBLOCKREPETAG
1070
     1
1071
      180
1005
12ED36
  0
POLYLINE
  5
12ED37
  8
SLIM
 66
     1
 10
0.0
 20
0.0
 30
0.0
 70
     1
1001
ACDBBLOCKREPETAG
1070
     1
1071
      181
1005
12ED37
  0
VERTEX
  5
12F040
  8
SLIM
 10
4210.247223250266
 20
-193.49999999999909
 30
0.0
  0
VERTEX
  5
12F041
  8
SLIM
 10
4206.4944465005347
 20
-199.99999999999909
 30
0.0
  0
VERTEX
  5
12F042
  8
SLIM
 10
4210.247223250266
 20
-206.49999999999909
 30
0.0
  0
VERTEX
  5
12F043
  8
SLIM
 10
4217.7527767497322
 20
-206.49999999999909
 30
0.0
  0
VERTEX
  5
12F044
  8
SLIM
 10
4221.5055534994644
 20
-199.99999999999909
 30
0.0
  0
VERTEX
  5
12F045
  8
SLIM
 10
4217.7527767497322
 20
-193.49999999999909
 30
0.0
  0
SEQEND
  5
12F046
  8
SLIM
  0
POLYLINE
  5
12ED38
  8
SLIM
 66
     1
 10
0.0
 20
0.0
 30
0.0
 70
     1
1001
ACDBBLOCKREPETAG
1070
     1
1071
      182
1005
12ED38
  0
VERTEX
  5
12F047
  8
SLIM
 10
4114.2472232502687
 20
-151.0743741577962
 30
0.0
  0
VERTEX
  5
12F048
  8
SLIM
 10
4121.752776749734
 20
-151.0743741577962
 30
0.0
  0
VERTEX
  5
12F049
  8
SLIM
 10
4125.5055534994644
 20
-144.5743741577962
 30
0.0
  0
VERTEX
  5
12F04A
  8
SLIM
 10
4121.7527767497286
 20
-138.07437415779259
 30
0.0
  0
VERTEX
  5
12F04B
  8
SLIM
 10
4114.2472232502687
 20
-138.0743741577962
 30
0.0
  0
VERTEX
  5
12F04C
  8
SLIM
 10
4110.4944465005347
 20
-144.57437415779259
 30
0.0
  0
SEQEND
  5
12F04D
  8
SLIM
  0
POLYLINE
  5
12ED39
  8
SLIM
 66
     1
 10
0.0
 20
0.0
 30
0.0
 70
     1
1001
ACDBBLOCKREPETAG
1070
     1
1071
      183
1005
12ED39
  0
VERTEX
  5
12F04E
  8
SLIM
 10
4125.5055534994644
 20
-255.4256258422019
 30
0.0
  0
VERTEX
  5
12F04F
  8
SLIM
 10
4121.7527767497286
 20
-248.9256258422019
 30
0.0
  0
VERTEX
  5
12F050
  8
SLIM
 10
4114.2472232502687
 20
-248.9256258422019
 30
0.0
  0
VERTEX
  5
12F051
  8
SLIM
 10
4110.4944465005347
 20
-255.42562584220559
 30
0.0
  0
VERTEX
  5
12F052
  8
SLIM
 10
4114.247223250266
 20
-261.9256258422019
 30
0.0
  0
VERTEX
  5
12F053
  8
SLIM
 10
4121.7527767497286
 20
-261.92562584220559
 30
0.0
  0
SEQEND
  5
12F054
  8
SLIM
  0
LINE
  5
12ED3A
  8
OBJECT
 10
3886.0
 20
-588.0
 30
0.0
 11
3886.0
 21
-586.0
 31
0.0
1001
ACDBBLOCKREPETAG
1070
     1
1071
      157
1005
12ED3A
  0
ARC
  5
12ED3B
  8
OBJECT
 10
3844.8134425017452
 20
-606.0
 30
0.0
 40
59.0
 50
270.0
 51
310.7972311667607
1001
ACDBBLOCKREPETAG
1070
     1
1071
      158
1005
12ED3B
  0
LINE
  5
12ED3C
  8
OBJECT
 10
3776.0
 20
-594.5
 30
0.0
 11
3911.0
 21
-594.5
 31
0.0
1001
ACDBBLOCKREPETAG
1070
     1
1071
      159
1005
12ED3C
  0
LINE
  5
12ED3D
  8
OBJECT
 10
3911.0
 20
-607.5
 30
0.0
 11
3776.0
 21
-607.5
 31
0.0
1001
ACDBBLOCKREPETAG
1070
     1
1071
      160
1005
12ED3D
  0
LINE
  5
12ED3E
  8
OBJECT
 10
3911.0
 20
-594.5
 30
0.0
 11
3911.0
 21
-607.5
 31
0.0
1001
ACDBBLOCKREPETAG
1070
     1
1071
      161
1005
12ED3E
  0
LINE
  5
12ED3F
  8
OBJECT
 10
3904.0
 20
-616.5
 30
0.0
 11
3904.0
 21
-607.5
 31
0.0
1001
ACDBBLOCKREPETAG
1070
     1
1071
      162
1005
12ED3F
  0
LINE
  5
12ED40
  8
OBJECT
 10
3886.0
 20
-620.0
 30
0.0
 11
3886.0
 21
-607.5
 31
0.0
1001
ACDBBLOCKREPETAG
1070
     1
1071
      163
1005
12ED40
  0
LINE
  5
12ED41
  8
OBJECT
 10
3796.0
 20
-616.5
 30
0.0
 11
3796.0
 21
-607.5
 31
0.0
1001
ACDBBLOCKREPETAG
1070
     1
1071
      164
1005
12ED41
  0
LINE
  5
12ED42
  8
OBJECT
 10
3776.0
 20
-594.5
 30
0.0
 11
3776.0
 21
-607.5
 31
0.0
1001
ACDBBLOCKREPETAG
1070
     1
1071
      165
1005
12ED42
  0
LINE
  5
12ED43
  8
OBJECT
 10
3878.0
 20
-620.0
 30
0.0
 11
3878.0
 21
-607.5
 31
0.0
1001
ACDBBLOCKREPETAG
1070
     1
1071
      166
1005
12ED43
  0
LINE
  5
12ED44
  8
OBJECT
 10
3886.0
 20
-616.5
 30
0.0
 11
3905.0
 21
-616.5
 31
0.0
1001
ACDBBLOCKREPETAG
1070
     1
1071
      167
1005
12ED44
  0
LINE
  5
12ED45
  8
OBJECT
 10
3905.0
 20
-620.0
 30
0.0
 11
3905.0
 21
-616.5
 31
0.0
1001
ACDBBLOCKREPETAG
1070
     1
1071
      168
1005
12ED45
  0
LINE
  5
12ED46
  8
OBJECT
 10
3878.0
 20
-616.5
 30
0.0
 11
3795.0
 21
-616.5
 31
0.0
1001
ACDBBLOCKREPETAG
1070
     1
1071
      169
1005
12ED46
  0
LINE
  5
12ED47
  8
OBJECT
 10
3795.0
 20
-616.5
 30
0.0
 11
3795.0
 21
-620.0
 31
0.0
1001
ACDBBLOCKREPETAG
1070
     1
1071
      170
1005
12ED47
  0
LINE
  5
12ED48
  8
OBJECT
 10
3889.5055534994649
 20
-594.5
 30
0.0
 11
3889.5055534994649
 21
-588.0
 31
0.0
1001
ACDBBLOCKREPETAG
1070
     1
1071
      171
1005
12ED48
  0
LINE
  5
12ED49
  8
OBJECT
 10
3891.0
 20
-633.0
 30
0.0
 11
3891.0
 21
-638.0
 31
0.0
1001
ACDBBLOCKREPETAG
1070
     1
1071
      172
1005
12ED49
  0
LINE
  5
12ED4A
  8
OBJECT
 10
3891.0
 20
-638.0
 30
0.0
 11
3873.0
 21
-638.0
 31
0.0
1001
ACDBBLOCKREPETAG
1070
     1
1071
      173
1005
12ED4A
  0
LINE
  5
12ED4B
  8
OBJECT
 10
3873.0
 20
-633.0
 30
0.0
 11
3873.0
 21
-638.0
 31
0.0
1001
ACDBBLOCKREPETAG
1070
     1
1071
      174
1005
12ED4B
  0
LINE
  5
12ED4C
  8
OBJECT
 10
3910.9999999999959
 20
-620.0
 30
0.0
 11
3776.0
 21
-620.0
 31
0.0
1001
ACDBBLOCKREPETAG
1070
     1
1071
      175
1005
12ED4C
  0
LINE
  5
12ED4D
  8
OBJECT
 10
3776.0
 20
-620.0
 30
0.0
 11
3776.0
 21
-633.0
 31
0.0
1001
ACDBBLOCKREPETAG
1070
     1
1071
      176
1005
12ED4D
  0
LINE
  5
12ED4E
  8
OBJECT
 10
3883.3630997552359
 20
-650.6645712577473
 30
0.0
 11
3903.8297019999991
 21
-633.0
 31
0.0
1001
ACDBBLOCKREPETAG
1070
     1
1071
      177
1005
12ED4E
  0
LINE
  5
12ED4F
  8
OBJECT
 10
3798.9999999999968
 20
-640.65708264965724
 30
0.0
 11
3798.9999999999968
 21
-665.0
 31
0.0
1001
ACDBBLOCKREPETAG
1070
     1
1071
      178
1005
12ED4F
  0
LINE
  5
12ED50
  8
OBJECT
 10
3844.8134425017452
 20
-665.0
 30
0.0
 11
3798.9999999999968
 21
-665.0
 31
0.0
1001
ACDBBLOCKREPETAG
1070
     1
1071
      179
1005
12ED50
  0
ARC
  5
12ED51
  8
OBJECT
 10
3889.5
 20
-666.5
 30
0.0
 40
84.0
 50
178.97680669632871
 51
262.94651512902959
1001
ACDBBLOCKREPETAG
1070
     1
1071
      180
1005
12ED51
  0
LINE
  5
12ED52
  8
OBJECT
 10
3914.0
 20
-754.1720031702107
 30
0.0
 11
3879.1851511871168
 21
-749.86428428270381
 31
0.0
1001
ACDBBLOCKREPETAG
1070
     1
1071
      181
1005
12ED52
  0
LINE
  5
12ED53
  8
OBJECT
 10
3913.9999999999968
 20
-755.00000000000102
 30
0.0
 11
3913.9999999999968
 21
-634.0
 31
0.0
1001
ACDBBLOCKREPETAG
1070
     1
1071
      182
1005
12ED53
  0
ARC
  5
12ED54
  8
OBJECT
 10
3916.9999999999968
 20
-755.00000000000102
 30
0.0
 40
3.0
 50
180.0
 51
270.0
1001
ACDBBLOCKREPETAG
1070
     1
1071
      183
1005
12ED54
  0
LINE
  5
12ED55
  8
OBJECT
 10
3903.8297019999991
 20
-633.0
 30
0.0
 11
3776.0
 21
-633.0
 31
0.0
1001
ACDBBLOCKREPETAG
1070
     1
1071
      184
1005
12ED55
  0
LINE
  5
12ED56
  8
OBJECT
 10
3894.9460861482771
 20
-640.65708264965724
 30
0.0
 11
3798.9999999999968
 21
-640.65708264965724
 31
0.0
1001
ACDBBLOCKREPETAG
1070
     1
1071
      185
1005
12ED56
  0
LINE
  5
12ED57
  8
OBJECT
 10
3795.0
 20
-635.89006764214901
 30
0.0
 11
3798.9999999999968
 21
-640.65708264965724
 31
0.0
1001
ACDBBLOCKREPETAG
1070
     1
1071
      186
1005
12ED57
  0
LINE
  5
12ED58
  8
OBJECT
 10
3910.9999999999959
 20
-620.0
 30
0.0
 11
3910.9999999999941
 21
-634.0
 31
0.0
1001
ACDBBLOCKREPETAG
1070
     1
1071
      187
1005
12ED58
  0
LINE
  5
12ED59
  8
HIDDEN
 10
3894.5
 20
-660.0
 30
0.0
 11
3805.5
 21
-660.0
 31
0.0
1001
ACDBBLOCKREPETAG
1070
     1
1071
      188
1005
12ED59
  0
LINE
  5
12ED5A
  8
OBJECT
 10
3886.0
 20
-586.0
 30
0.0
 11
3878.0
 21
-586.0
 31
0.0
1001
ACDBBLOCKREPETAG
1070
     1
1071
      189
1005
12ED5A
  0
LINE
  5
12ED5B
  8
OBJECT
 10
3878.0
 20
-588.0
 30
0.0
 11
3878.0
 21
-586.0
 31
0.0
1001
ACDBBLOCKREPETAG
1070
     1
1071
      190
1005
12ED5B
  0
LINE
  5
12ED5C
  8
OBJECT
 10
3889.5055534994649
 20
-588.0
 30
0.0
 11
3874.494446500536
 21
-588.0
 31
0.0
1001
ACDBBLOCKREPETAG
1070
     1
1071
      191
1005
12ED5C
  0
LINE
  5
12ED5D
  8
CENTER
 10
3850.0
 20
-679.77158855533253
 30
0.0
 11
3850.0
 21
-579.49999999999989
 31
0.0
1001
ACDBBLOCKREPETAG
1070
     1
1071
      193
1005
12ED5D
  0
LINE
  5
12ED5E
  8
OBJECT
 10
3920.0
 20
-758.0
 30
0.0
 11
3916.9999999999968
 21
-758.0000000000008
 31
0.0
1001
ACDBBLOCKREPETAG
1070
     1
1071
      194
1005
12ED5E
  0
LINE
  5
12ED5F
  8
OBJECT
 10
3920.0
 20
-634.0
 30
0.0
 11
3910.9999999999941
 21
-634.0
 31
0.0
1001
ACDBBLOCKREPETAG
1070
     1
1071
      195
1005
12ED5F
  0
LINE
  5
12ED60
  8
OBJECT
 10
3885.7528030216049
 20
-594.49998110541117
 30
0.0
 11
3885.7528030216049
 21
-587.99998110541117
 31
0.0
1001
ACDBBLOCKREPETAG
1070
     1
1071
      196
1005
12ED60
  0
LINE
  5
12ED61
  8
OBJECT
 10
3874.494446500536
 20
-594.5
 30
0.0
 11
3874.494446500536
 21
-588.0
 31
0.0
1001
ACDBBLOCKREPETAG
1070
     1
1071
      197
1005
12ED61
  0
LINE
  5
12ED62
  8
OBJECT
 10
3878.2471969783951
 20
-594.49998110541117
 30
0.0
 11
3878.2471969783951
 21
-587.99998110541117
 31
0.0
1001
ACDBBLOCKREPETAG
1070
     1
1071
      198
1005
12ED62
  0
LINE
  5
12ED63
  8
OBJECT
 10
3790.0
 20
-588.0
 30
0.0
 11
3790.0
 21
-586.0
 31
0.0
1001
ACDBBLOCKREPETAG
1070
     1
1071
      199
1005
12ED63
  0
LINE
  5
12ED64
  8
OBJECT
 10
3790.0
 20
-620.0
 30
0.0
 11
3790.0
 21
-607.5
 31
0.0
1001
ACDBBLOCKREPETAG
1070
     1
1071
      200
1005
12ED64
  0
LINE
  5
12ED65
  8
OBJECT
 10
3782.0
 20
-620.0
 30
0.0
 11
3782.0
 21
-607.5
 31
0.0
1001
ACDBBLOCKREPETAG
1070
     1
1071
      201
1005
12ED65
  0
LINE
  5
12ED66
  8
OBJECT
 10
3793.5055534994649
 20
-594.5
 30
0.0
 11
3793.5055534994649
 21
-588.0
 31
0.0
1001
ACDBBLOCKREPETAG
1070
     1
1071
      202
1005
12ED66
  0
LINE
  5
12ED67
  8
OBJECT
 10
3795.0
 20
-633.0
 30
0.0
 11
3795.0
 21
-638.0
 31
0.0
1001
ACDBBLOCKREPETAG
1070
     1
1071
      203
1005
12ED67
  0
LINE
  5
12ED68
  8
OBJECT
 10
3795.0
 20
-638.0
 30
0.0
 11
3777.0
 21
-638.0
 31
0.0
1001
ACDBBLOCKREPETAG
1070
     1
1071
      204
1005
12ED68
  0
LINE
  5
12ED69
  8
OBJECT
 10
3777.0
 20
-633.0
 30
0.0
 11
3777.0
 21
-638.0
 31
0.0
1001
ACDBBLOCKREPETAG
1070
     1
1071
      205
1005
12ED69
  0
LINE
  5
12ED6A
  8
OBJECT
 10
3790.0
 20
-586.0
 30
0.0
 11
3782.0
 21
-586.0
 31
0.0
1001
ACDBBLOCKREPETAG
1070
     1
1071
      206
1005
12ED6A
  0
LINE
  5
12ED6B
  8
OBJECT
 10
3782.0
 20
-588.0
 30
0.0
 11
3782.0
 21
-586.0
 31
0.0
1001
ACDBBLOCKREPETAG
1070
     1
1071
      207
1005
12ED6B
  0
LINE
  5
12ED6C
  8
OBJECT
 10
3793.5055534994649
 20
-588.0
 30
0.0
 11
3778.494446500536
 21
-588.0
 31
0.0
1001
ACDBBLOCKREPETAG
1070
     1
1071
      208
1005
12ED6C
  0
LINE
  5
12ED6D
  8
OBJECT
 10
3789.7528030216049
 20
-594.49998110541117
 30
0.0
 11
3789.7528030216049
 21
-587.99998110541117
 31
0.0
1001
ACDBBLOCKREPETAG
1070
     1
1071
      209
1005
12ED6D
  0
LINE
  5
12ED6E
  8
OBJECT
 10
3778.494446500536
 20
-594.5
 30
0.0
 11
3778.494446500536
 21
-588.0
 31
0.0
1001
ACDBBLOCKREPETAG
1070
     1
1071
      210
1005
12ED6E
  0
LINE
  5
12ED6F
  8
OBJECT
 10
3782.2471969783951
 20
-594.49998110541117
 30
0.0
 11
3782.2471969783951
 21
-587.99998110541117
 31
0.0
1001
ACDBBLOCKREPETAG
1070
     1
1071
      211
1005
12ED6F
  0
CIRCLE
  5
12ED70
  8
OBJECT
 10
4000.0
 20
-696.0
 30
0.0
 40
62.0
1001
ACDBBLOCKREPETAG
1070
     1
1071
        0
1005
12ED70
  0
LINE
  5
12ED71
  8
OBJECT
 10
4114.0
 20
-588.0
 30
0.0
 11
4114.0
 21
-586.0
 31
0.0
1001
ACDBBLOCKREPETAG
1070
     1
1071
      157
1005
12ED71
  0
ARC
  5
12ED72
  8
OBJECT
 10
4155.1865574982548
 20
-606.0
 30
0.0
 40
59.0
 50
229.20276883323919
 51
270.0
1001
ACDBBLOCKREPETAG
1070
     1
1071
      158
1005
12ED72
  0
LINE
  5
12ED73
  8
OBJECT
 10
4224.0
 20
-594.5
 30
0.0
 11
4089.0
 21
-594.5
 31
0.0
1001
ACDBBLOCKREPETAG
1070
     1
1071
      159
1005
12ED73
  0
LINE
  5
12ED74
  8
OBJECT
 10
4089.0
 20
-607.5
 30
0.0
 11
4224.0
 21
-607.5
 31
0.0
1001
ACDBBLOCKREPETAG
1070
     1
1071
      160
1005
12ED74
  0
LINE
  5
12ED75
  8
OBJECT
 10
4089.0
 20
-594.5
 30
0.0
 11
4089.0
 21
-607.5
 31
0.0
1001
ACDBBLOCKREPETAG
1070
     1
1071
      161
1005
12ED75
  0
LINE
  5
12ED76
  8
OBJECT
 10
4096.0
 20
-616.5
 30
0.0
 11
4096.0
 21
-607.5
 31
0.0
1001
ACDBBLOCKREPETAG
1070
     1
1071
      162
1005
12ED76
  0
LINE
  5
12ED77
  8
OBJECT
 10
4114.0
 20
-620.0
 30
0.0
 11
4114.0
 21
-607.5
 31
0.0
1001
ACDBBLOCKREPETAG
1070
     1
1071
      163
1005
12ED77
  0
LINE
  5
12ED78
  8
OBJECT
 10
4204.0
 20
-616.5
 30
0.0
 11
4204.0
 21
-607.5
 31
0.0
1001
ACDBBLOCKREPETAG
1070
     1
1071
      164
1005
12ED78
  0
LINE
  5
12ED79
  8
OBJECT
 10
4224.0
 20
-594.5
 30
0.0
 11
4224.0
 21
-607.5
 31
0.0
1001
ACDBBLOCKREPETAG
1070
     1
1071
      165
1005
12ED79
  0
LINE
  5
12ED7A
  8
OBJECT
 10
4122.0
 20
-620.0
 30
0.0
 11
4122.0
 21
-607.5
 31
0.0
1001
ACDBBLOCKREPETAG
1070
     1
1071
      166
1005
12ED7A
  0
LINE
  5
12ED7B
  8
OBJECT
 10
4114.0
 20
-616.5
 30
0.0
 11
4095.0
 21
-616.5
 31
0.0
1001
ACDBBLOCKREPETAG
1070
     1
1071
      167
1005
12ED7B
  0
LINE
  5
12ED7C
  8
OBJECT
 10
4095.0
 20
-620.0
 30
0.0
 11
4095.0
 21
-616.5
 31
0.0
1001
ACDBBLOCKREPETAG
1070
     1
1071
      168
1005
12ED7C
  0
LINE
  5
12ED7D
  8
OBJECT
 10
4122.0
 20
-616.5
 30
0.0
 11
4205.0
 21
-616.5
 31
0.0
1001
ACDBBLOCKREPETAG
1070
     1
1071
      169
1005
12ED7D
  0
LINE
  5
12ED7E
  8
OBJECT
 10
4205.0
 20
-616.5
 30
0.0
 11
4205.0
 21
-620.0
 31
0.0
1001
ACDBBLOCKREPETAG
1070
     1
1071
      170
1005
12ED7E
  0
LINE
  5
12ED7F
  8
OBJECT
 10
4110.4944465005347
 20
-594.5
 30
0.0
 11
4110.4944465005347
 21
-588.0
 31
0.0
1001
ACDBBLOCKREPETAG
1070
     1
1071
      171
1005
12ED7F
  0
LINE
  5
12ED80
  8
OBJECT
 10
4109.0
 20
-633.0
 30
0.0
 11
4109.0
 21
-638.0
 31
0.0
1001
ACDBBLOCKREPETAG
1070
     1
1071
      172
1005
12ED80
  0
LINE
  5
12ED81
  8
OBJECT
 10
4109.0
 20
-638.0
 30
0.0
 11
4127.0
 21
-638.0
 31
0.0
1001
ACDBBLOCKREPETAG
1070
     1
1071
      173
1005
12ED81
  0
LINE
  5
12ED82
  8
OBJECT
 10
4127.0
 20
-633.0
 30
0.0
 11
4127.0
 21
-638.0
 31
0.0
1001
ACDBBLOCKREPETAG
1070
     1
1071
      174
1005
12ED82
  0
LINE
  5
12ED83
  8
OBJECT
 10
4089.0000000000032
 20
-620.0
 30
0.0
 11
4224.0
 21
-620.0
 31
0.0
1001
ACDBBLOCKREPETAG
1070
     1
1071
      175
1005
12ED83
  0
LINE
  5
12ED84
  8
OBJECT
 10
4224.0
 20
-620.0
 30
0.0
 11
4224.0
 21
-633.0
 31
0.0
1001
ACDBBLOCKREPETAG
1070
     1
1071
      176
1005
12ED84
  0
LINE
  5
12ED85
  8
OBJECT
 10
4116.6369002447627
 20
-650.6645712577473
 30
0.0
 11
4096.1702980000009
 21
-633.0
 31
0.0
1001
ACDBBLOCKREPETAG
1070
     1
1071
      177
1005
12ED85
  0
LINE
  5
12ED86
  8
OBJECT
 10
4201.0000000000036
 20
-640.65708264965724
 30
0.0
 11
4201.0000000000036
 21
-665.0
 31
0.0
1001
ACDBBLOCKREPETAG
1070
     1
1071
      178
1005
12ED86
  0
LINE
  5
12ED87
  8
OBJECT
 10
4155.1865574982548
 20
-665.0
 30
0.0
 11
4201.0000000000036
 21
-665.0
 31
0.0
1001
ACDBBLOCKREPETAG
1070
     1
1071
      179
1005
12ED87
  0
ARC
  5
12ED88
  8
OBJECT
 10
4110.5
 20
-666.5
 30
0.0
 40
84.0
 50
277.05348487097029
 51
1.023193303671255
1001
ACDBBLOCKREPETAG
1070
     1
1071
      180
1005
12ED88
  0
LINE
  5
12ED89
  8
OBJECT
 10
4086.0
 20
-754.1720031702107
 30
0.0
 11
4120.8148488128827
 21
-749.86428428270381
 31
0.0
1001
ACDBBLOCKREPETAG
1070
     1
1071
      181
1005
12ED89
  0
LINE
  5
12ED8A
  8
OBJECT
 10
4086.0000000000032
 20
-755.00000000000102
 30
0.0
 11
4086.0000000000032
 21
-634.0
 31
0.0
1001
ACDBBLOCKREPETAG
1070
     1
1071
      182
1005
12ED8A
  0
ARC
  5
12ED8B
  8
OBJECT
 10
4083.0000000000032
 20
-755.00000000000102
 30
0.0
 40
3.0
 50
270.0
 51
0.0
1001
ACDBBLOCKREPETAG
1070
     1
1071
      183
1005
12ED8B
  0
LINE
  5
12ED8C
  8
OBJECT
 10
4096.1702980000009
 20
-633.0
 30
0.0
 11
4224.0
 21
-633.0
 31
0.0
1001
ACDBBLOCKREPETAG
1070
     1
1071
      184
1005
12ED8C
  0
LINE
  5
12ED8D
  8
OBJECT
 10
4105.0539138517233
 20
-640.65708264965724
 30
0.0
 11
4201.0000000000036
 21
-640.65708264965724
 31
0.0
1001
ACDBBLOCKREPETAG
1070
     1
1071
      185
1005
12ED8D
  0
LINE
  5
12ED8E
  8
OBJECT
 10
4205.0
 20
-635.89006764214901
 30
0.0
 11
4201.0000000000036
 21
-640.65708264965724
 31
0.0
1001
ACDBBLOCKREPETAG
1070
     1
1071
      186
1005
12ED8E
  0
LINE
  5
12ED8F
  8
OBJECT
 10
4089.0000000000032
 20
-620.0
 30
0.0
 11
4089.0000000000068
 21
-634.0
 31
0.0
1001
ACDBBLOCKREPETAG
1070
     1
1071
      187
1005
12ED8F
  0
LINE
  5
12ED90
  8
HIDDEN
 10
4105.5
 20
-660.0
 30
0.0
 11
4194.5
 21
-660.0
 31
0.0
1001
ACDBBLOCKREPETAG
1070
     1
1071
      188
1005
12ED90
  0
LINE
  5
12ED91
  8
OBJECT
 10
4114.0
 20
-586.0
 30
0.0
 11
4122.0
 21
-586.0
 31
0.0
1001
ACDBBLOCKREPETAG
1070
     1
1071
      189
1005
12ED91
  0
LINE
  5
12ED92
  8
OBJECT
 10
4122.0
 20
-588.0
 30
0.0
 11
4122.0
 21
-586.0
 31
0.0
1001
ACDBBLOCKREPETAG
1070
     1
1071
      190
1005
12ED92
  0
LINE
  5
12ED93
  8
OBJECT
 10
4110.4944465005347
 20
-588.0
 30
0.0
 11
4125.5055534994644
 21
-588.0
 31
0.0
1001
ACDBBLOCKREPETAG
1070
     1
1071
      191
1005
12ED93
  0
LINE
  5
12ED94
  8
CENTER
 10
4150.0
 20
-679.77158855533253
 30
0.0
 11
4150.0
 21
-579.49999999999989
 31
0.0
1001
ACDBBLOCKREPETAG
1070
     1
1071
      193
1005
12ED94
  0
LINE
  5
12ED95
  8
OBJECT
 10
4080.0
 20
-758.0
 30
0.0
 11
4083.0000000000032
 21
-758.0000000000008
 31
0.0
1001
ACDBBLOCKREPETAG
1070
     1
1071
      194
1005
12ED95
  0
LINE
  5
12ED96
  8
OBJECT
 10
4080.0
 20
-634.0
 30
0.0
 11
4089.0000000000068
 21
-634.0
 31
0.0
1001
ACDBBLOCKREPETAG
1070
     1
1071
      195
1005
12ED96
  0
LINE
  5
12ED97
  8
OBJECT
 10
4114.2471969783946
 20
-594.49998110541117
 30
0.0
 11
4114.2471969783946
 21
-587.99998110541117
 31
0.0
1001
ACDBBLOCKREPETAG
1070
     1
1071
      196
1005
12ED97
  0
LINE
  5
12ED98
  8
OBJECT
 10
4125.5055534994644
 20
-594.5
 30
0.0
 11
4125.5055534994644
 21
-588.0
 31
0.0
1001
ACDBBLOCKREPETAG
1070
     1
1071
      197
1005
12ED98
  0
LINE
  5
12ED99
  8
OBJECT
 10
4121.7528030216054
 20
-594.49998110541117
 30
0.0
 11
4121.7528030216054
 21
-587.99998110541117
 31
0.0
1001
ACDBBLOCKREPETAG
1070
     1
1071
      198
1005
12ED99
  0
LINE
  5
12ED9A
  8
OBJECT
 10
4210.0
 20
-588.0
 30
0.0
 11
4210.0
 21
-586.0
 31
0.0
1001
ACDBBLOCKREPETAG
1070
     1
1071
      199
1005
12ED9A
  0
LINE
  5
12ED9B
  8
OBJECT
 10
4210.0
 20
-620.0
 30
0.0
 11
4210.0
 21
-607.5
 31
0.0
1001
ACDBBLOCKREPETAG
1070
     1
1071
      200
1005
12ED9B
  0
LINE
  5
12ED9C
  8
OBJECT
 10
4218.0
 20
-620.0
 30
0.0
 11
4218.0
 21
-607.5
 31
0.0
1001
ACDBBLOCKREPETAG
1070
     1
1071
      201
1005
12ED9C
  0
LINE
  5
12ED9D
  8
OBJECT
 10
4206.4944465005347
 20
-594.5
 30
0.0
 11
4206.4944465005347
 21
-588.0
 31
0.0
1001
ACDBBLOCKREPETAG
1070
     1
1071
      202
1005
12ED9D
  0
LINE
  5
12ED9E
  8
OBJECT
 10
4205.0
 20
-633.0
 30
0.0
 11
4205.0
 21
-638.0
 31
0.0
1001
ACDBBLOCKREPETAG
1070
     1
1071
      203
1005
12ED9E
  0
LINE
  5
12ED9F
  8
OBJECT
 10
4205.0
 20
-638.0
 30
0.0
 11
4223.0
 21
-638.0
 31
0.0
1001
ACDBBLOCKREPETAG
1070
     1
1071
      204
1005
12ED9F
  0
LINE
  5
12EDA0
  8
OBJECT
 10
4223.0
 20
-633.0
 30
0.0
 11
4223.0
 21
-638.0
 31
0.0
1001
ACDBBLOCKREPETAG
1070
     1
1071
      205
1005
12EDA0
  0
LINE
  5
12EDA1
  8
OBJECT
 10
4210.0
 20
-586.0
 30
0.0
 11
4218.0
 21
-586.0
 31
0.0
1001
ACDBBLOCKREPETAG
1070
     1
1071
      206
1005
12EDA1
  0
LINE
  5
12EDA2
  8
OBJECT
 10
4218.0
 20
-588.0
 30
0.0
 11
4218.0
 21
-586.0
 31
0.0
1001
ACDBBLOCKREPETAG
1070
     1
1071
      207
1005
12EDA2
  0
LINE
  5
12EDA3
  8
OBJECT
 10
4206.4944465005347
 20
-588.0
 30
0.0
 11
4221.5055534994644
 21
-588.0
 31
0.0
1001
ACDBBLOCKREPETAG
1070
     1
1071
      208
1005
12EDA3
  0
LINE
  5
12EDA4
  8
OBJECT
 10
4210.2471969783946
 20
-594.49998110541117
 30
0.0
 11
4210.2471969783946
 21
-587.99998110541117
 31
0.0
1001
ACDBBLOCKREPETAG
1070
     1
1071
      209
1005
12EDA4
  0
LINE
  5
12EDA5
  8
OBJECT
 10
4221.5055534994644
 20
-594.5
 30
0.0
 11
4221.5055534994644
 21
-588.0
 31
0.0
1001
ACDBBLOCKREPETAG
1070
     1
1071
      210
1005
12EDA5
  0
LINE
  5
12EDA6
  8
OBJECT
 10
4217.7528030216054
 20
-594.49998110541117
 30
0.0
 11
4217.7528030216054
 21
-587.99998110541117
 31
0.0
1001
ACDBBLOCKREPETAG
1070
     1
1071
      211
1005
12EDA6
  0
LINE
  5
12EDA7
  8
SLIM
 10
3914.9999999999941
 20
-765.19743878931376
 30
0.0
 11
3925.1974387893092
 21
-754.99999999999875
 31
0.0
1001
ACDBBLOCKREPETAG
1070
     1
1071
        0
1005
0
1001
ACAD
1010
0.0
1020
0.0
1030
0.0
  0
LINE
  5
12EDA8
  8
SLIM
 10
3914.999999999995
 20
-783.15795103145035
 30
0.0
 11
3943.1579510314468
 21
-754.99999999999875
 31
0.0
1001
ACAD
1010
0.0
1020
0.0
1030
0.0
1001
ACDBBLOCKREPETAG
1070
     1
1071
       14
1005
12EDA8
  0
LINE
  5
12EDA9
  8
SLIM
 10
3915.1454972543161
 20
-800.97296601926837
 30
0.0
 11
3961.1184632735849
 21
-754.99999999999875
 31
0.0
1001
ACAD
1010
0.0
1020
0.0
1030
0.0
1001
ACDBBLOCKREPETAG
1070
     1
1071
       15
1005
12EDA9
  0
LINE
  5
12EDAA
  8
SLIM
 10
3917.104627495245
 20
-816.97434802047826
 30
0.0
 11
3979.0789755157239
 21
-754.99999999999875
 31
0.0
1001
ACAD
1010
0.0
1020
0.0
1030
0.0
1001
ACDBBLOCKREPETAG
1070
     1
1071
       16
1005
12EDAA
  0
LINE
  5
12EDAB
  8
SLIM
 10
3919.0637577361722
 20
-832.97573002168861
 30
0.0
 11
3997.0394877578619
 21
-754.99999999999875
 31
0.0
1001
ACAD
1010
0.0
1020
0.0
1030
0.0
1001
ACDBBLOCKREPETAG
1070
     1
1071
       17
1005
12EDAB
  0
LINE
  5
12EDAC
  8
SLIM
 10
3920.0
 20
-849.99999999999875
 30
0.0
 11
4015.0
 21
-754.99999999999875
 31
0.0
1001
ACAD
1010
0.0
1020
0.0
1030
0.0
1001
ACDBBLOCKREPETAG
1070
     1
1071
       18
1005
12EDAC
  0
LINE
  5
12EDAD
  8
SLIM
 10
3920.0
 20
-867.96051224213716
 30
0.0
 11
4032.9605122421372
 21
-754.99999999999875
 31
0.0
1001
ACAD
1010
0.0
1020
0.0
1030
0.0
1001
ACDBBLOCKREPETAG
1070
     1
1071
       19
1005
12EDAD
  0
LINE
  5
12EDAE
  8
SLIM
 10
3920.0
 20
-885.92102448427534
 30
0.0
 11
4050.921024484277
 21
-754.99999999999875
 31
0.0
1001
ACAD
1010
0.0
1020
0.0
1030
0.0
1001
ACDBBLOCKREPETAG
1070
     1
1071
       20
1005
12EDAE
  0
LINE
  5
12EDAF
  8
SLIM
 10
3920.0
 20
-903.88153672641363
 30
0.0
 11
4068.8815367264142
 21
-754.99999999999875
 31
0.0
1001
ACAD
1010
0.0
1020
0.0
1030
0.0
1001
ACDBBLOCKREPETAG
1070
     1
1071
       21
1005
12EDAF
  0
LINE
  5
12EDB0
  8
SLIM
 10
3920.0
 20
-921.84204896855181
 30
0.0
 11
4085.0000000000068
 21
-756.8420489685451
 31
0.0
1001
ACAD
1010
0.0
1020
0.0
1030
0.0
1001
ACDBBLOCKREPETAG
1070
     1
1071
       22
1005
12EDB0
  0
LINE
  5
12EDB1
  8
SLIM
 10
3920.0
 20
-939.80256121069044
 30
0.0
 11
4085.0000000000059
 21
-774.80256121068464
 31
0.0
1001
ACAD
1010
0.0
1020
0.0
1030
0.0
1001
ACDBBLOCKREPETAG
1070
     1
1071
       23
1005
12EDB1
  0
LINE
  5
12EDB2
  8
SLIM
 10
3920.0
 20
-957.76307345282862
 30
0.0
 11
4085.0000000000041
 21
-792.76307345282453
 31
0.0
1001
ACAD
1010
0.0
1020
0.0
1030
0.0
1001
ACDBBLOCKREPETAG
1070
     1
1071
       24
1005
12EDB2
  0
LINE
  5
12EDB3
  8
SLIM
 10
3930.0
 20
-965.72358569496657
 30
0.0
 11
3930.7235856949678
 21
-964.99999999999875
 31
0.0
1001
ACAD
1010
0.0
1020
0.0
1030
0.0
1001
ACDBBLOCKREPETAG
1070
     1
1071
       25
1005
12EDB3
  0
LINE
  5
12EDB4
  8
SLIM
 10
3930.7235856949678
 20
-964.99999999999875
 30
0.0
 11
4083.4738280308079
 21
-812.24975766415855
 31
0.0
1001
ACAD
1010
0.0
1020
0.0
1030
0.0
1001
ACDBBLOCKREPETAG
1070
     1
1071
       26
1005
12EDB4
  0
LINE
  5
12EDB5
  8
SLIM
 10
3930.0
 20
-983.68409793710521
 30
0.0
 11
3948.6840979371068
 21
-964.99999999999875
 31
0.0
1001
ACAD
1010
0.0
1020
0.0
1030
0.0
1001
ACDBBLOCKREPETAG
1070
     1
1071
       27
1005
12EDB5
  0
LINE
  5
12EDB6
  8
SLIM
 10
3948.6840979371068
 20
-964.99999999999875
 30
0.0
 11
4080.9680345671368
 21
-832.71606336996786
 31
0.0
1001
ACAD
1010
0.0
1020
0.0
1030
0.0
1001
ACDBBLOCKREPETAG
1070
     1
1071
       28
1005
12EDB6
  0
LINE
  5
12EDB7
  8
SLIM
 10
3946.6446101792449
 20
-984.99999999999875
 30
0.0
 11
3966.6446101792449
 21
-964.99999999999875
 31
0.0
1001
ACAD
1010
0.0
1020
0.0
1030
0.0
1001
ACDBBLOCKREPETAG
1070
     1
1071
       29
1005
12EDB7
  0
LINE
  5
12EDB8
  8
SLIM
 10
3966.6446101792449
 20
-964.99999999999875
 30
0.0
 11
4080.0
 21
-851.6446101792435
 31
0.0
1001
ACAD
1010
0.0
1020
0.0
1030
0.0
1001
ACDBBLOCKREPETAG
1070
     1
1071
       30
1005
12EDB8
  0
LINE
  5
12EDB9
  8
SLIM
 10
3964.6051224213829
 20
-984.99999999999875
 30
0.0
 11
3984.6051224213829
 21
-964.99999999999875
 31
0.0
1001
ACAD
1010
0.0
1020
0.0
1030
0.0
1001
ACDBBLOCKREPETAG
1070
     1
1071
       31
1005
12EDB9
  0
LINE
  5
12EDBA
  8
SLIM
 10
3984.6051224213829
 20
-964.99999999999875
 30
0.0
 11
4080.0
 21
-869.60512242138225
 31
0.0
1001
ACAD
1010
0.0
1020
0.0
1030
0.0
1001
ACDBBLOCKREPETAG
1070
     1
1071
       32
1005
12EDBA
  0
LINE
  5
12EDBB
  8
SLIM
 10
3982.565634663521
 20
-984.99999999999875
 30
0.0
 11
4002.565634663521
 21
-964.99999999999875
 31
0.0
1001
ACAD
1010
0.0
1020
0.0
1030
0.0
1001
ACDBBLOCKREPETAG
1070
     1
1071
       33
1005
12EDBB
  0
LINE
  5
12EDBC
  8
SLIM
 10
4002.565634663521
 20
-964.99999999999875
 30
0.0
 11
4079.9999999999991
 21
-887.56563466352065
 31
0.0
1001
ACAD
1010
0.0
1020
0.0
1030
0.0
1001
ACDBBLOCKREPETAG
1070
     1
1071
       34
1005
12EDBC
  0
LINE
  5
12EDBD
  8
SLIM
 10
4000.5261469056582
 20
-984.99999999999875
 30
0.0
 11
4020.52614690566
 21
-964.99999999999875
 31
0.0
1001
ACAD
1010
0.0
1020
0.0
1030
0.0
1001
ACDBBLOCKREPETAG
1070
     1
1071
       35
1005
12EDBD
  0
LINE
  5
12EDBE
  8
SLIM
 10
4020.52614690566
 20
-964.99999999999875
 30
0.0
 11
4079.9999999999991
 21
-905.52614690565963
 31
0.0
1001
ACAD
1010
0.0
1020
0.0
1030
0.0
1001
ACDBBLOCKREPETAG
1070
     1
1071
       36
1005
12EDBE
  0
LINE
  5
12EDBF
  8
SLIM
 10
4018.486659147798
 20
-984.99999999999875
 30
0.0
 11
4038.486659147798
 21
-964.99999999999864
 31
0.0
1001
ACAD
1010
0.0
1020
0.0
1030
0.0
1001
ACDBBLOCKREPETAG
1070
     1
1071
       37
1005
12EDBF
  0
LINE
  5
12EDC0
  8
SLIM
 10
4038.486659147798
 20
-964.99999999999864
 30
0.0
 11
4079.9999999999991
 21
-923.48665914779815
 31
0.0
1001
ACAD
1010
0.0
1020
0.0
1030
0.0
1001
ACDBBLOCKREPETAG
1070
     1
1071
       38
1005
12EDC0
  0
LINE
  5
12EDC1
  8
SLIM
 10
4036.4471713899361
 20
-984.99999999999875
 30
0.0
 11
4056.4471713899361
 21
-964.99999999999864
 31
0.0
1001
ACAD
1010
0.0
1020
0.0
1030
0.0
1001
ACDBBLOCKREPETAG
1070
     1
1071
       39
1005
12EDC1
  0
LINE
  5
12EDC2
  8
SLIM
 10
4056.4471713899361
 20
-964.99999999999864
 30
0.0
 11
4079.9999999999991
 21
-941.44717138993633
 31
0.0
1001
ACAD
1010
0.0
1020
0.0
1030
0.0
1001
ACDBBLOCKREPETAG
1070
     1
1071
       40
1005
12EDC2
  0
LINE
  5
12EDC3
  8
SLIM
 10
4054.4076836320728
 20
-984.99999999999875
 30
0.0
 11
4070.0
 21
-969.40768363207314
 31
0.0
1001
ACAD
1010
0.0
1020
0.0
1030
0.0
1001
ACDBBLOCKREPETAG
1070
     1
1071
       41
1005
12EDC3
  0
LINE
  5
12EDC4
  8
SLIM
 10
4074.4076836320728
 20
-964.99999999999864
 30
0.0
 11
4079.9999999999991
 21
-959.40768363207519
 31
0.0
1001
ACAD
1010
0.0
1020
0.0
1030
0.0
1001
ACDBBLOCKREPETAG
1070
     1
1071
       42
1005
12EDC4
  0
LINE
  5
12EDC5
  8
OBJECT
 10
3914.9999999999941
 20
-754.99999999999875
 30
0.0
 11
3914.9999999999968
 21
-799.78460339903359
 31
0.0
1001
ACDBBLOCKREPETAG
1070
     1
1071
        1
1005
12EDC5
  0
LINE
  5
12EDC6
  8
OBJECT
 10
4085.0000000000068
 20
-754.99999999999875
 30
0.0
 11
4085.0000000000032
 21
-799.78460339904063
 31
0.0
1001
ACDBBLOCKREPETAG
1070
     1
1071
        2
1005
12EDC6
  0
LINE
  5
12EDC7
  8
OBJECT
 10
4085.0000000000068
 20
-754.99999999999875
 30
0.0
 11
3914.9999999999941
 21
-754.99999999999875
 31
0.0
1001
ACDBBLOCKREPETAG
1070
     1
1071
        3
1005
12EDC7
  0
LINE
  5
12EDC8
  8
OBJECT
 10
4079.9999999999991
 20
-964.99999999999864
 30
0.0
 11
3920.0
 21
-964.99999999999875
 31
0.0
1001
ACDBBLOCKREPETAG
1070
     1
1071
        4
1005
12EDC8
  0
LINE
  5
12EDC9
  8
OBJECT
 10
3914.9999999999968
 20
-799.78460339903415
 30
0.0
 11
3920.0
 21
-840.62257748298555
 31
0.0
1001
ACDBBLOCKREPETAG
1070
     1
1071
        6
1005
12EDC9
  0
LINE
  5
12EDCA
  8
OBJECT
 10
3920.0
 20
-840.62257748298555
 30
0.0
 11
3920.0
 21
-964.99999999999875
 31
0.0
1001
ACDBBLOCKREPETAG
1070
     1
1071
        7
1005
12EDCA
  0
LINE
  5
12EDCB
  8
OBJECT
 10
4085.0000000000032
 20
-799.78460339904063
 30
0.0
 11
4080.0
 21
-840.62257748298555
 31
0.0
1001
ACDBBLOCKREPETAG
1070
     1
1071
        8
1005
12EDCB
  0
LINE
  5
12EDCC
  8
OBJECT
 10
4080.0
 20
-840.62257748298555
 30
0.0
 11
4079.9999999999991
 21
-964.99999999999864
 31
0.0
1001
ACDBBLOCKREPETAG
1070
     1
1071
        9
1005
12EDCC
  0
LINE
  5
12EDCD
  8
OBJECT
 10
3930.0
 20
-964.99999999999875
 30
0.0
 11
3930.0
 21
-984.99999999999875
 31
0.0
1001
ACDBBLOCKREPETAG
1070
     1
1071
       10
1005
12EDCD
  0
LINE
  5
12EDCE
  8
OBJECT
 10
3930.0
 20
-984.99999999999875
 30
0.0
 11
4070.0
 21
-984.99999999999875
 31
0.0
1001
ACDBBLOCKREPETAG
1070
     1
1071
       11
1005
12EDCE
  0
LINE
  5
12EDCF
  8
OBJECT
 10
4070.0
 20
-984.99999999999875
 30
0.0
 11
4070.0
 21
-964.99999999999864
 31
0.0
1001
ACDBBLOCKREPETAG
1070
     1
1071
       12
1005
12EDCF
  0
LINE
  5
12EDD0
  8
OBJECT
 10
1923.0
 20
-570.99999999999955
 30
0.0
 11
1923.0
 21
-549.99999999999955
 31
0.0
1001
ACDBBLOCKREPETAG
1070
     1
1071
       36
1005
12EDD0
  0
LINE
  5
12EDD1
  8
OBJECT
 10
1923.0
 20
-549.99999999999955
 30
0.0
 11
2077.0
 21
-549.99999999999955
 31
0.0
1001
ACDBBLOCKREPETAG
1070
     1
1071
       37
1005
12EDD1
  0
LINE
  5
12EDD2
  8
HIDDEN
 10
1943.0
 20
-619.99999999999955
 30
0.0
 11
2057.0
 21
-619.99999999999955
 31
0.0
1001
ACDBBLOCKREPETAG
1070
     1
1071
       38
1005
12EDD2
  0
LINE
  5
12EDD3
  8
OBJECT
 10
2077.0
 20
-549.99999999999955
 30
0.0
 11
2077.0
 21
-570.99999999999955
 31
0.0
1001
ACDBBLOCKREPETAG
1070
     1
1071
       39
1005
12EDD3
  0
LINE
  5
12EDD4
  8
OBJECT
 10
2077.0
 20
-570.99999999999955
 30
0.0
 11
1923.0
 21
-570.99999999999955
 31
0.0
1001
ACDBBLOCKREPETAG
1070
     1
1071
       40
1005
12EDD4
  0
LINE
  5
12EDD5
  8
CENTER
 10
2000.0
 20
-534.99999999999955
 30
0.0
 11
2000.0
 21
-769.99999999999955
 31
0.0
1001
ACDBBLOCKREPETAG
1070
     1
1071
       41
1005
12EDD5
  0
LINE
  5
12EDD6
  8
OBJECT
 10
1928.0
 20
-570.99999999999955
 30
0.0
 11
1928.0
 21
-633.99999999999955
 31
0.0
1001
ACDBBLOCKREPETAG
1070
     1
1071
       42
1005
12EDD6
  0
LINE
  5
12EDD7
  8
OBJECT
 10
2072.0
 20
-633.99999999999955
 30
0.0
 11
2072.0
 21
-570.99999999999955
 31
0.0
1001
ACDBBLOCKREPETAG
1070
     1
1071
       43
1005
12EDD7
  0
LINE
  5
12EDD8
  8
OBJECT
 10
1920.0
 20
-757.99999999999955
 30
0.0
 11
2080.0
 21
-757.99999999999955
 31
0.0
1001
ACDBBLOCKREPETAG
1070
     1
1071
       44
1005
12EDD8
  0
LINE
  5
12EDD9
  8
OBJECT
 10
2080.0
 20
-633.99999999999955
 30
0.0
 11
1920.0
 21
-633.99999999999955
 31
0.0
1001
ACDBBLOCKREPETAG
1070
     1
1071
       45
1005
12EDD9
  0
LINE
  5
12EDDA
  8
OBJECT
 10
1920.0
 20
-757.99999999999955
 30
0.0
 11
1920.0
 21
-769.99999999999955
 31
0.0
1001
ACDBBLOCKREPETAG
1070
     1
1071
       46
1005
12EDDA
  0
LINE
  5
12EDDB
  8
OBJECT
 10
1920.0
 20
-769.99999999999955
 30
0.0
 11
2080.0
 21
-769.99999999999955
 31
0.0
1001
ACDBBLOCKREPETAG
1070
     1
1071
       47
1005
12EDDB
  0
LINE
  5
12EDDC
  8
OBJECT
 10
2080.0
 20
-769.99999999999955
 30
0.0
 11
2080.0
 21
-757.99999999999955
 31
0.0
1001
ACDBBLOCKREPETAG
1070
     1
1071
       48
1005
12EDDC
  0
ARC
  5
12EDDD
  8
OBJECT
 10
2200.6872746716731
 20
-749.40809941010718
 30
0.0
 40
170.6350503965856
 50
137.44134459184301
 51
149.91949581336559
1001
ACDBBLOCKREPETAG
1070
     1
1071
       52
1005
12EDDD
  0
ARC
  5
12EDDE
  8
OBJECT
 10
2200.6872746716731
 20
-642.59190058989179
 30
0.0
 40
170.6350503965856
 50
210.0805041866343
 51
222.55865540815699
1001
ACDBBLOCKREPETAG
1070
     1
1071
       53
1005
12EDDE
  0
ARC
  5
12EDDF
  8
OBJECT
 10
1799.312725328326
 20
-749.40809941010718
 30
0.0
 40
170.6350503965856
 50
30.080504186774089
 51
42.558655408447443
1001
ACDBBLOCKREPETAG
1070
     1
1071
       54
1005
12EDDF
  0
ARC
  5
12EDE0
  8
OBJECT
 10
1799.312725328326
 20
-642.59190058989179
 30
0.0
 40
170.6350503965856
 50
317.44134459155248
 51
329.91949581322592
1001
ACDBBLOCKREPETAG
1070
     1
1071
       55
1005
12EDE0
  0
POINT
  5
12EDE1
  8
DOTS
 10
2000.0
 20
-754.99999999999955
 30
0.0
1001
ACDBBLOCKREPETAG
1070
     1
1071
      184
1005
12EDE1
  0
CIRCLE
  5
12EDE2
  8
OBJECT
 10
2000.0
 20
-199.99999999999909
 30
0.0
 40
53.5
1001
ACDBBLOCKREPETAG
1070
     1
1071
      340
1005
12EDE2
  0
LINE
  5
12EDE3
  8
CENTER
 10
2080.0
 20
-199.99999999999909
 30
0.0
 11
1920.0
 21
-199.99999999999909
 31
0.0
1001
ACDBBLOCKREPETAG
1070
     1
1071
       49
1005
12EDE3
  0
LINE
  5
12EDE4
  8
CENTER
 10
2000.0
 20
-279.99999999999909
 30
0.0
 11
2000.0
 21
-104.9999999999991
 31
0.0
1001
ACDBBLOCKREPETAG
1070
     1
1071
       50
1005
12EDE4
  0
CIRCLE
  5
12EDE5
  8
OBJECT
 10
2000.0
 20
-199.99999999999909
 30
0.0
 40
70.0
1001
ACDBBLOCKREPETAG
1070
     1
1071
       51
1005
12EDE5
  0
CIRCLE
  5
12EDE6
  8
OBJECT
 10
2000.0
 20
-199.99999999999909
 30
0.0
 40
77.0
1001
ACDBBLOCKREPETAG
1070
     1
1071
       52
1005
12EDE6
  0
ARC
  5
12EDE7
  8
OBJECT
 10
2000.0
 20
-199.99999999999909
 30
0.0
 40
80.0
 50
50.805032573864182
 51
129.1949674261358
1001
ACDBBLOCKREPETAG
1070
     1
1071
       53
1005
12EDE7
  0
LINE
  5
12EDE8
  8
OBJECT
 10
2045.6618002273251
 20
-137.99999999999909
 30
0.0
 11
2080.0
 21
-137.99999999999909
 31
0.0
1001
ACDBBLOCKREPETAG
1070
     1
1071
       54
1005
12EDE8
  0
LINE
  5
12EDE9
  8
OBJECT
 10
2062.0
 20
-261.99999999999909
 30
0.0
 11
2080.0
 21
-261.99999999999909
 31
0.0
1001
ACDBBLOCKREPETAG
1070
     1
1071
       55
1005
12EDE9
  0
LINE
  5
12EDEA
  8
OBJECT
 10
2062.0
 20
-261.99999999999909
 30
0.0
 11
2062.0
 21
-279.99999999999909
 31
0.0
1001
ACDBBLOCKREPETAG
1070
     1
1071
       57
1005
12EDEA
  0
LINE
  5
12EDEB
  8
OBJECT
 10
1938.0
 20
-261.99999999999909
 30
0.0
 11
1938.0
 21
-279.99999999999909
 31
0.0
1001
ACDBBLOCKREPETAG
1070
     1
1071
       58
1005
12EDEB
  0
POINT
  5
12EDEC
  8
DOTS
 10
2000.0
 20
-199.99999999999909
 30
0.0
 50
90.0
1001
ACDBBLOCKREPETAG
1070
     1
1071
       59
1005
12EDEC
  0
LINE
  5
12EDED
  8
OBJECT
 10
1938.0
 20
-261.99999999999909
 30
0.0
 11
1920.0
 21
-261.99999999999909
 31
0.0
1001
ACDBBLOCKREPETAG
1070
     1
1071
       60
1005
12EDED
  0
LINE
  5
12EDEE
  8
OBJECT
 10
1954.3381997726749
 20
-137.99999999999909
 30
0.0
 11
1920.0
 21
-137.99999999999909
 31
0.0
1001
ACDBBLOCKREPETAG
1070
     1
1071
       61
1005
12EDEE
  0
LINE
  5
12EDEF
  8
OBJECT
 10
1945.5527778486351
 20
-254.44722215136329
 30
0.0
 11
1938.0
 21
-261.99999999999909
 31
0.0
1001
ACDBBLOCKREPETAG
1070
     1
1071
       42
1005
12EDEF
  0
LINE
  5
12EDF0
  8
OBJECT
 10
2054.4472221513638
 20
-254.44722215136329
 30
0.0
 11
2062.0
 21
-261.99999999999909
 31
0.0
1001
ACDBBLOCKREPETAG
1070
     1
1071
       43
1005
12EDF0
  0
LINE
  5
12EDF1
  8
CENTER
 10
1920.0
 20
-199.99999999999909
 30
0.0
 11
1761.0
 21
-199.99999999999909
 31
0.0
1001
ACDBBLOCKREPETAG
1070
     1
1071
      155
1005
12EDF1
  0
LINE
  5
12EDF2
  8
OBJECT
 10
1920.0
 20
-261.99999999999909
 30
0.0
 11
1917.0
 21
-261.99999999999909
 31
0.0
1001
ACDBBLOCKREPETAG
1070
     1
1071
      156
1005
12EDF2
  0
ARC
  5
12EDF3
  8
OBJECT
 10
1917.0
 20
-258.99999999999909
 30
0.0
 40
3.0
 50
180.0
 51
270.0
1001
ACDBBLOCKREPETAG
1070
     1
1071
      157
1005
12EDF3
  0
LINE
  5
12EDF4
  8
OBJECT
 10
1920.0
 20
-138.0000000000027
 30
0.0
 11
1917.0
 21
-138.0000000000027
 31
0.0
1001
ACDBBLOCKREPETAG
1070
     1
1071
      158
1005
12EDF4
  0
LINE
  5
12EDF5
  8
OBJECT
 10
1914.0
 20
-140.99999999999909
 30
0.0
 11
1891.345272406465
 21
-140.9999999999954
 31
0.0
1001
ACDBBLOCKREPETAG
1070
     1
1071
      159
1005
12EDF5
  0
LINE
  5
12EDF6
  8
OBJECT
 10
1914.0
 20
-259.00000000000267
 30
0.0
 11
1891.345272406465
 21
-258.99999999999909
 31
0.0
1001
ACDBBLOCKREPETAG
1070
     1
1071
      160
1005
12EDF6
  0
LINE
  5
12EDF7
  8
CENTER
 10
1850.0
 20
-123.5195984073716
 30
0.0
 11
1850.0
 21
-276.48040159262649
 31
0.0
1001
ACDBBLOCKREPETAG
1070
     1
1071
      161
1005
12EDF7
  0
LINE
  5
12EDF8
  8
OBJECT
 10
1914.0
 20
-141.0000000000027
 30
0.0
 11
1914.0
 21
-258.99999999999909
 31
0.0
1001
ACDBBLOCKREPETAG
1070
     1
1071
      162
1005
12EDF8
  0
ARC
  5
12EDF9
  8
OBJECT
 10
1917.0
 20
-141.0000000000027
 30
0.0
 40
3.0
 50
90.0
 51
180.0
1001
ACDBBLOCKREPETAG
1070
     1
1071
      163
1005
12EDF9
  0
ARC
  5
12EDFA
  8
OBJECT
 10
1850.0
 20
-199.99999999999909
 30
0.0
 40
61.0
 50
97.16728546129427
 51
142.83271453872419
1001
ACDBBLOCKREPETAG
1070
     1
1071
      165
1005
12EDFA
  0
ARC
  5
12EDFB
  8
OBJECT
 10
1850.0
 20
-199.99999999999909
 30
0.0
 40
61.0
 50
337.16728546124438
 51
22.832714538755649
1001
ACDBBLOCKREPETAG
1070
     1
1071
      166
1005
12EDFB
  0
ARC
  5
12EDFC
  8
OBJECT
 10
1850.0
 20
-199.99999999999909
 30
0.0
 40
61.0
 50
217.16728546127581
 51
262.83271453870572
1001
ACDBBLOCKREPETAG
1070
     1
1071
      167
1005
12EDFC
  0
CIRCLE
  5
12EDFD
  8
SLIM
 10
1786.0
 20
-199.99999999999909
 30
0.0
 40
4.0
1001
ACDBBLOCKREPETAG
1070
     1
1071
      168
1005
12EDFD
  0
ARC
  5
12EDFE
  8
OBJECT
 10
1786.0
 20
-199.99999999999909
 30
0.0
 40
10.0
 50
142.83271453872419
 51
217.16728546127581
1001
ACDBBLOCKREPETAG
1070
     1
1071
      169
1005
12EDFE
  0
LINE
  5
12EDFF
  8
OBJECT
 10
1801.3906250000041
 20
-163.14720279124501
 30
0.0
 11
1778.03125
 21
-193.9585578346296
 31
0.0
1001
ACDBBLOCKREPETAG
1070
     1
1071
      170
1005
12EDFF
  0
LINE
  5
12EE00
  8
OBJECT
 10
1801.3906250000041
 20
-236.8527972087532
 30
0.0
 11
1778.03125
 21
-206.04144216536861
 31
0.0
1001
ACDBBLOCKREPETAG
1070
     1
1071
      171
1005
12EE00
  0
CIRCLE
  5
12EE01
  8
SLIM
 10
1882.0
 20
-144.5743741577962
 30
0.0
 40
3.9999999999999991
1001
ACDBBLOCKREPETAG
1070
     1
1071
      172
1005
12EE01
  0
ARC
  5
12EE02
  8
OBJECT
 10
1882.0
 20
-144.5743741577962
 30
0.0
 40
9.9999999999999982
 50
22.832714538755649
 51
97.16728546129427
1001
ACDBBLOCKREPETAG
1070
     1
1071
      173
1005
12EE02
  0
LINE
  5
12EE03
  8
OBJECT
 10
1906.220146083295
 20
-176.32944499229319
 30
0.0
 11
1891.216417390704
 21
-140.6939553040711
 31
0.0
1001
ACDBBLOCKREPETAG
1070
     1
1071
      174
1005
12EE03
  0
LINE
  5
12EE04
  8
OBJECT
 10
1842.3892289167011
 20
-139.47664778353919
 30
0.0
 11
1880.752332609296
 21
-134.65251313870161
 31
0.0
1001
ACDBBLOCKREPETAG
1070
     1
1071
      175
1005
12EE04
  0
CIRCLE
  5
12EE05
  8
SLIM
 10
1882.0
 20
-255.4256258422019
 30
0.0
 40
4.0
1001
ACDBBLOCKREPETAG
1070
     1
1071
      176
1005
12EE05
  0
ARC
  5
12EE06
  8
OBJECT
 10
1882.0
 20
-255.4256258422019
 30
0.0
 40
10.0
 50
262.83271453870572
 51
337.16728546124438
1001
ACDBBLOCKREPETAG
1070
     1
1071
      177
1005
12EE06
  0
LINE
  5
12EE07
  8
OBJECT
 10
1842.3892289167011
 20
-260.52335221645899
 30
0.0
 11
1880.752332609296
 21
-265.3474868612966
 31
0.0
1001
ACDBBLOCKREPETAG
1070
     1
1071
      178
1005
12EE07
  0
LINE
  5
12EE08
  8
OBJECT
 10
1906.220146083295
 20
-223.67055500770491
 30
0.0
 11
1891.216417390704
 21
-259.30604469592708
 31
0.0
1001
ACDBBLOCKREPETAG
1070
     1
1071
      179
1005
12EE08
  0
CIRCLE
  5
12EE09
  8
OBJECT
 10
1850.0
 20
-199.99999999999909
 30
0.0
 40
46.0
1001
ACDBBLOCKREPETAG
1070
     1
1071
      180
1005
12EE09
  0
POLYLINE
  5
12EE0A
  8
SLIM
 66
     1
 10
0.0
 20
0.0
 30
0.0
 70
     1
1001
ACDBBLOCKREPETAG
1070
     1
1071
      181
1005
12EE0A
  0
VERTEX
  5
12F055
  8
SLIM
 10
1789.752776749734
 20
-193.49999999999909
 30
0.0
  0
VERTEX
  5
12F056
  8
SLIM
 10
1793.505553499464
 20
-199.99999999999909
 30
0.0
  0
VERTEX
  5
12F057
  8
SLIM
 10
1789.752776749734
 20
-206.49999999999909
 30
0.0
  0
VERTEX
  5
12F058
  8
SLIM
 10
1782.247223250266
 20
-206.49999999999909
 30
0.0
  0
VERTEX
  5
12F059
  8
SLIM
 10
1778.4944465005351
 20
-199.99999999999909
 30
0.0
  0
VERTEX
  5
12F05A
  8
SLIM
 10
1782.247223250266
 20
-193.49999999999909
 30
0.0
  0
SEQEND
  5
12F05B
  8
SLIM
  0
POLYLINE
  5
12EE0B
  8
SLIM
 66
     1
 10
0.0
 20
0.0
 30
0.0
 70
     1
1001
ACDBBLOCKREPETAG
1070
     1
1071
      182
1005
12EE0B
  0
VERTEX
  5
12F05C
  8
SLIM
 10
1885.7527767497299
 20
-151.0743741577962
 30
0.0
  0
VERTEX
  5
12F05D
  8
SLIM
 10
1878.247223250266
 20
-151.0743741577962
 30
0.0
  0
VERTEX
  5
12F05E
  8
SLIM
 10
1874.494446500536
 20
-144.5743741577962
 30
0.0
  0
VERTEX
  5
12F05F
  8
SLIM
 10
1878.2472232502689
 20
-138.07437415779259
 30
0.0
  0
VERTEX
  5
12F060
  8
SLIM
 10
1885.7527767497299
 20
-138.0743741577962
 30
0.0
  0
VERTEX
  5
12F061
  8
SLIM
 10
1889.505553499464
 20
-144.57437415779259
 30
0.0
  0
SEQEND
  5
12F062
  8
SLIM
  0
POLYLINE
  5
12EE0C
  8
SLIM
 66
     1
 10
0.0
 20
0.0
 30
0.0
 70
     1
1001
ACDBBLOCKREPETAG
1070
     1
1071
      183
1005
12EE0C
  0
VERTEX
  5
12F063
  8
SLIM
 10
1874.494446500536
 20
-255.4256258422019
 30
0.0
  0
VERTEX
  5
12F064
  8
SLIM
 10
1878.2472232502689
 20
-248.9256258422019
 30
0.0
  0
VERTEX
  5
12F065
  8
SLIM
 10
1885.7527767497299
 20
-248.9256258422019
 30
0.0
  0
VERTEX
  5
12F066
  8
SLIM
 10
1889.505553499464
 20
-255.42562584220559
 30
0.0
  0
VERTEX
  5
12F067
  8
SLIM
 10
1885.752776749734
 20
-261.9256258422019
 30
0.0
  0
VERTEX
  5
12F068
  8
SLIM
 10
1878.2472232502689
 20
-261.92562584220559
 30
0.0
  0
SEQEND
  5
12F069
  8
SLIM
  0
LINE
  5
12EE0D
  8
CENTER
 10
2000.0
 20
-300.99999999999898
 30
0.0
 11
2000.0
 21
-279.99999999999909
 31
0.0
1001
ACDBBLOCKREPETAG
1070
     1
1071
        0
1005
12EE0D
  0
LINE
  5
12EE0E
  8
OBJECT
 10
2062.0
 20
-283.0
 30
0.0
 11
2062.0
 21
-279.99999999999909
 31
0.0
1001
ACDBBLOCKREPETAG
1070
     1
1071
        1
1005
12EE0E
  0
ARC
  5
12EE0F
  8
OBJECT
 10
2059.0
 20
-283.0
 30
0.0
 40
3.0
 50
270.0
 51
0.0
1001
ACDBBLOCKREPETAG
1070
     1
1071
        2
1005
12EE0F
  0
LINE
  5
12EE10
  8
OBJECT
 10
1938.0
 20
-279.99999999999909
 30
0.0
 11
1938.0
 21
-282.99999999999818
 31
0.0
1001
ACDBBLOCKREPETAG
1070
     1
1071
        3
1005
12EE10
  0
ARC
  5
12EE11
  8
OBJECT
 10
1941.0
 20
-282.99999999999818
 30
0.0
 40
3.0
 50
180.0
 51
270.0
1001
ACDBBLOCKREPETAG
1070
     1
1071
        4
1005
12EE11
  0
LINE
  5
12EE12
  8
OBJECT
 10
1941.0
 20
-285.99999999999818
 30
0.0
 11
2059.0
 21
-286.0
 31
0.0
1001
ACDBBLOCKREPETAG
1070
     1
1071
        5
1005
12EE12
  0
LINE
  5
12EE13
  8
CENTER
 10
2080.0
 20
-199.99999999999909
 30
0.0
 11
2239.0
 21
-199.99999999999909
 31
0.0
1001
ACDBBLOCKREPETAG
1070
     1
1071
      155
1005
12EE13
  0
LINE
  5
12EE14
  8
OBJECT
 10
2080.0
 20
-261.99999999999909
 30
0.0
 11
2083.0
 21
-261.99999999999909
 31
0.0
1001
ACDBBLOCKREPETAG
1070
     1
1071
      156
1005
12EE14
  0
ARC
  5
12EE15
  8
OBJECT
 10
2083.0
 20
-258.99999999999909
 30
0.0
 40
3.0
 50
270.0
 51
0.0
1001
ACDBBLOCKREPETAG
1070
     1
1071
      157
1005
12EE15
  0
LINE
  5
12EE16
  8
OBJECT
 10
2080.0
 20
-138.0000000000027
 30
0.0
 11
2083.0
 21
-138.0000000000027
 31
0.0
1001
ACDBBLOCKREPETAG
1070
     1
1071
      158
1005
12EE16
  0
LINE
  5
12EE17
  8
OBJECT
 10
2086.0
 20
-140.99999999999909
 30
0.0
 11
2108.6547275935341
 21
-140.9999999999954
 31
0.0
1001
ACDBBLOCKREPETAG
1070
     1
1071
      159
1005
12EE17
  0
LINE
  5
12EE18
  8
OBJECT
 10
2086.0
 20
-259.00000000000267
 30
0.0
 11
2108.6547275935341
 21
-258.99999999999909
 31
0.0
1001
ACDBBLOCKREPETAG
1070
     1
1071
      160
1005
12EE18
  0
LINE
  5
12EE19
  8
CENTER
 10
2150.0
 20
-123.5195984073716
 30
0.0
 11
2150.0
 21
-276.48040159262649
 31
0.0
1001
ACDBBLOCKREPETAG
1070
     1
1071
      161
1005
12EE19
  0
LINE
  5
12EE1A
  8
OBJECT
 10
2086.0
 20
-141.0000000000027
 30
0.0
 11
2086.0
 21
-258.99999999999909
 31
0.0
1001
ACDBBLOCKREPETAG
1070
     1
1071
      162
1005
12EE1A
  0
ARC
  5
12EE1B
  8
OBJECT
 10
2083.0
 20
-141.0000000000027
 30
0.0
 40
3.0
 50
0.0
 51
90.0
1001
ACDBBLOCKREPETAG
1070
     1
1071
      163
1005
12EE1B
  0
ARC
  5
12EE1C
  8
OBJECT
 10
2150.0
 20
-199.99999999999909
 30
0.0
 40
61.0
 50
37.167285461274467
 51
82.832714538705744
1001
ACDBBLOCKREPETAG
1070
     1
1071
      165
1005
12EE1C
  0
ARC
  5
12EE1D
  8
OBJECT
 10
2150.0
 20
-199.99999999999909
 30
0.0
 40
61.0
 50
157.16728546126831
 51
202.83271453873161
1001
ACDBBLOCKREPETAG
1070
     1
1071
      166
1005
12EE1D
  0
ARC
  5
12EE1E
  8
OBJECT
 10
2150.0
 20
-199.99999999999909
 30
0.0
 40
61.0
 50
277.16728546129423
 51
322.83271453872419
1001
ACDBBLOCKREPETAG
1070
     1
1071
      167
1005
12EE1E
  0
CIRCLE
  5
12EE1F
  8
SLIM
 10
2214.0
 20
-199.99999999999909
 30
0.0
 40
4.0
1001
ACDBBLOCKREPETAG
1070
     1
1071
      168
1005
12EE1F
  0
ARC
  5
12EE20
  8
OBJECT
 10
2214.0
 20
-199.99999999999909
 30
0.0
 40
10.0
 50
322.83271453872419
 51
37.167285461274467
1001
ACDBBLOCKREPETAG
1070
     1
1071
      169
1005
12EE20
  0
LINE
  5
12EE21
  8
OBJECT
 10
2198.6093749999959
 20
-163.14720279124501
 30
0.0
 11
2221.96875
 21
-193.9585578346296
 31
0.0
1001
ACDBBLOCKREPETAG
1070
     1
1071
      170
1005
12EE21
  0
LINE
  5
12EE22
  8
OBJECT
 10
2198.6093749999959
 20
-236.8527972087532
 30
0.0
 11
2221.96875
 21
-206.04144216536861
 31
0.0
1001
ACDBBLOCKREPETAG
1070
     1
1071
      171
1005
12EE22
  0
CIRCLE
  5
12EE23
  8
SLIM
 10
2118.0
 20
-144.5743741577962
 30
0.0
 40
3.9999999999999991
1001
ACDBBLOCKREPETAG
1070
     1
1071
      172
1005
12EE23
  0
ARC
  5
12EE24
  8
OBJECT
 10
2118.0
 20
-144.5743741577962
 30
0.0
 40
9.9999999999999982
 50
82.832714538705744
 51
157.16728546126831
1001
ACDBBLOCKREPETAG
1070
     1
1071
      173
1005
12EE24
  0
LINE
  5
12EE25
  8
OBJECT
 10
2093.7798539167052
 20
-176.32944499229319
 30
0.0
 11
2108.783582609296
 21
-140.6939553040711
 31
0.0
1001
ACDBBLOCKREPETAG
1070
     1
1071
      174
1005
12EE25
  0
LINE
  5
12EE26
  8
OBJECT
 10
2157.6107710832989
 20
-139.47664778353919
 30
0.0
 11
2119.247667390704
 21
-134.65251313870161
 31
0.0
1001
ACDBBLOCKREPETAG
1070
     1
1071
      175
1005
12EE26
  0
CIRCLE
  5
12EE27
  8
SLIM
 10
2118.0
 20
-255.4256258422019
 30
0.0
 40
4.0
1001
ACDBBLOCKREPETAG
1070
     1
1071
      176
1005
12EE27
  0
ARC
  5
12EE28
  8
OBJECT
 10
2118.0
 20
-255.4256258422019
 30
0.0
 40
10.0
 50
202.83271453873161
 51
277.16728546129423
1001
ACDBBLOCKREPETAG
1070
     1
1071
      177
1005
12EE28
  0
LINE
  5
12EE29
  8
OBJECT
 10
2157.6107710832989
 20
-260.52335221645899
 30
0.0
 11
2119.247667390704
 21
-265.3474868612966
 31
0.0
1001
ACDBBLOCKREPETAG
1070
     1
1071
      178
1005
12EE29
  0
LINE
  5
12EE2A
  8
OBJECT
 10
2093.7798539167052
 20
-223.67055500770491
 30
0.0
 11
2108.783582609296
 21
-259.30604469592708
 31
0.0
1001
ACDBBLOCKREPETAG
1070
     1
1071
      179
1005
12EE2A
  0
CIRCLE
  5
12EE2B
  8
OBJECT
 10
2150.0
 20
-199.99999999999909
 30
0.0
 40
46.0
1001
ACDBBLOCKREPETAG
1070
     1
1071
      180
1005
12EE2B
  0
POLYLINE
  5
12EE2C
  8
SLIM
 66
     1
 10
0.0
 20
0.0
 30
0.0
 70
     1
1001
ACDBBLOCKREPETAG
1070
     1
1071
      181
1005
12EE2C
  0
VERTEX
  5
12F06A
  8
SLIM
 10
2210.247223250266
 20
-193.49999999999909
 30
0.0
  0
VERTEX
  5
12F06B
  8
SLIM
 10
2206.494446500536
 20
-199.99999999999909
 30
0.0
  0
VERTEX
  5
12F06C
  8
SLIM
 10
2210.247223250266
 20
-206.49999999999909
 30
0.0
  0
VERTEX
  5
12F06D
  8
SLIM
 10
2217.752776749734
 20
-206.49999999999909
 30
0.0
  0
VERTEX
  5
12F06E
  8
SLIM
 10
2221.505553499464
 20
-199.99999999999909
 30
0.0
  0
VERTEX
  5
12F06F
  8
SLIM
 10
2217.752776749734
 20
-193.49999999999909
 30
0.0
  0
SEQEND
  5
12F070
  8
SLIM
  0
POLYLINE
  5
12EE2D
  8
SLIM
 66
     1
 10
0.0
 20
0.0
 30
0.0
 70
     1
1001
ACDBBLOCKREPETAG
1070
     1
1071
      182
1005
12EE2D
  0
VERTEX
  5
12F071
  8
SLIM
 10
2114.2472232502701
 20
-151.0743741577962
 30
0.0
  0
VERTEX
  5
12F072
  8
SLIM
 10
2121.752776749734
 20
-151.0743741577962
 30
0.0
  0
VERTEX
  5
12F073
  8
SLIM
 10
2125.5055534994649
 20
-144.5743741577962
 30
0.0
  0
VERTEX
  5
12F074
  8
SLIM
 10
2121.7527767497309
 20
-138.07437415779259
 30
0.0
  0
VERTEX
  5
12F075
  8
SLIM
 10
2114.2472232502701
 20
-138.0743741577962
 30
0.0
  0
VERTEX
  5
12F076
  8
SLIM
 10
2110.494446500536
 20
-144.57437415779259
 30
0.0
  0
SEQEND
  5
12F077
  8
SLIM
  0
POLYLINE
  5
12EE2E
  8
SLIM
 66
     1
 10
0.0
 20
0.0
 30
0.0
 70
     1
1001
ACDBBLOCKREPETAG
1070
     1
1071
      183
1005
12EE2E
  0
VERTEX
  5
12F078
  8
SLIM
 10
2125.5055534994649
 20
-255.4256258422019
 30
0.0
  0
VERTEX
  5
12F079
  8
SLIM
 10
2121.7527767497309
 20
-248.9256258422019
 30
0.0
  0
VERTEX
  5
12F07A
  8
SLIM
 10
2114.2472232502701
 20
-248.9256258422019
 30
0.0
  0
VERTEX
  5
12F07B
  8
SLIM
 10
2110.494446500536
 20
-255.42562584220559
 30
0.0
  0
VERTEX
  5
12F07C
  8
SLIM
 10
2114.247223250266
 20
-261.9256258422019
 30
0.0
  0
VERTEX
  5
12F07D
  8
SLIM
 10
2121.7527767497309
 20
-261.92562584220559
 30
0.0
  0
SEQEND
  5
12F07E
  8
SLIM
  0
LINE
  5
12EE2F
  8
OBJECT
 10
1886.0
 20
-588.0
 30
0.0
 11
1886.0
 21
-586.0
 31
0.0
1001
ACDBBLOCKREPETAG
1070
     1
1071
      157
1005
12EE2F
  0
ARC
  5
12EE30
  8
OBJECT
 10
1844.8134425017449
 20
-606.0
 30
0.0
 40
59.0
 50
270.0
 51
310.7972311667607
1001
ACDBBLOCKREPETAG
1070
     1
1071
      158
1005
12EE30
  0
LINE
  5
12EE31
  8
OBJECT
 10
1776.0
 20
-594.5
 30
0.0
 11
1911.0
 21
-594.5
 31
0.0
1001
ACDBBLOCKREPETAG
1070
     1
1071
      159
1005
12EE31
  0
LINE
  5
12EE32
  8
OBJECT
 10
1911.0
 20
-607.5
 30
0.0
 11
1776.0
 21
-607.5
 31
0.0
1001
ACDBBLOCKREPETAG
1070
     1
1071
      160
1005
12EE32
  0
LINE
  5
12EE33
  8
OBJECT
 10
1911.0
 20
-594.5
 30
0.0
 11
1911.0
 21
-607.5
 31
0.0
1001
ACDBBLOCKREPETAG
1070
     1
1071
      161
1005
12EE33
  0
LINE
  5
12EE34
  8
OBJECT
 10
1904.0
 20
-616.5
 30
0.0
 11
1904.0
 21
-607.5
 31
0.0
1001
ACDBBLOCKREPETAG
1070
     1
1071
      162
1005
12EE34
  0
LINE
  5
12EE35
  8
OBJECT
 10
1886.0
 20
-620.0
 30
0.0
 11
1886.0
 21
-607.5
 31
0.0
1001
ACDBBLOCKREPETAG
1070
     1
1071
      163
1005
12EE35
  0
LINE
  5
12EE36
  8
OBJECT
 10
1796.0
 20
-616.5
 30
0.0
 11
1796.0
 21
-607.5
 31
0.0
1001
ACDBBLOCKREPETAG
1070
     1
1071
      164
1005
12EE36
  0
LINE
  5
12EE37
  8
OBJECT
 10
1776.0
 20
-594.5
 30
0.0
 11
1776.0
 21
-607.5
 31
0.0
1001
ACDBBLOCKREPETAG
1070
     1
1071
      165
1005
12EE37
  0
LINE
  5
12EE38
  8
OBJECT
 10
1878.0
 20
-620.0
 30
0.0
 11
1878.0
 21
-607.5
 31
0.0
1001
ACDBBLOCKREPETAG
1070
     1
1071
      166
1005
12EE38
  0
LINE
  5
12EE39
  8
OBJECT
 10
1886.0
 20
-616.5
 30
0.0
 11
1905.0
 21
-616.5
 31
0.0
1001
ACDBBLOCKREPETAG
1070
     1
1071
      167
1005
12EE39
  0
LINE
  5
12EE3A
  8
OBJECT
 10
1905.0
 20
-620.0
 30
0.0
 11
1905.0
 21
-616.5
 31
0.0
1001
ACDBBLOCKREPETAG
1070
     1
1071
      168
1005
12EE3A
  0
LINE
  5
12EE3B
  8
OBJECT
 10
1878.0
 20
-616.5
 30
0.0
 11
1795.0
 21
-616.5
 31
0.0
1001
ACDBBLOCKREPETAG
1070
     1
1071
      169
1005
12EE3B
  0
LINE
  5
12EE3C
  8
OBJECT
 10
1795.0
 20
-616.5
 30
0.0
 11
1795.0
 21
-620.0
 31
0.0
1001
ACDBBLOCKREPETAG
1070
     1
1071
      170
1005
12EE3C
  0
LINE
  5
12EE3D
  8
OBJECT
 10
1889.505553499464
 20
-594.5
 30
0.0
 11
1889.505553499464
 21
-588.0
 31
0.0
1001
ACDBBLOCKREPETAG
1070
     1
1071
      171
1005
12EE3D
  0
LINE
  5
12EE3E
  8
OBJECT
 10
1891.0
 20
-633.0
 30
0.0
 11
1891.0
 21
-638.0
 31
0.0
1001
ACDBBLOCKREPETAG
1070
     1
1071
      172
1005
12EE3E
  0
LINE
  5
12EE3F
  8
OBJECT
 10
1891.0
 20
-638.0
 30
0.0
 11
1873.0
 21
-638.0
 31
0.0
1001
ACDBBLOCKREPETAG
1070
     1
1071
      173
1005
12EE3F
  0
LINE
  5
12EE40
  8
OBJECT
 10
1873.0
 20
-633.0
 30
0.0
 11
1873.0
 21
-638.0
 31
0.0
1001
ACDBBLOCKREPETAG
1070
     1
1071
      174
1005
12EE40
  0
LINE
  5
12EE41
  8
OBJECT
 10
1910.9999999999959
 20
-620.0
 30
0.0
 11
1776.0
 21
-620.0
 31
0.0
1001
ACDBBLOCKREPETAG
1070
     1
1071
      175
1005
12EE41
  0
LINE
  5
12EE42
  8
OBJECT
 10
1776.0
 20
-620.0
 30
0.0
 11
1776.0
 21
-633.0
 31
0.0
1001
ACDBBLOCKREPETAG
1070
     1
1071
      176
1005
12EE42
  0
LINE
  5
12EE43
  8
OBJECT
 10
1883.363099755235
 20
-650.6645712577473
 30
0.0
 11
1903.8297019999991
 21
-633.0
 31
0.0
1001
ACDBBLOCKREPETAG
1070
     1
1071
      177
1005
12EE43
  0
LINE
  5
12EE44
  8
OBJECT
 10
1798.9999999999959
 20
-640.65708264965724
 30
0.0
 11
1798.9999999999959
 21
-665.0
 31
0.0
1001
ACDBBLOCKREPETAG
1070
     1
1071
      178
1005
12EE44
  0
LINE
  5
12EE45
  8
OBJECT
 10
1844.8134425017449
 20
-665.0
 30
0.0
 11
1798.9999999999959
 21
-665.0
 31
0.0
1001
ACDBBLOCKREPETAG
1070
     1
1071
      179
1005
12EE45
  0
ARC
  5
12EE46
  8
OBJECT
 10
1889.5
 20
-666.5
 30
0.0
 40
84.0
 50
178.97680669632871
 51
262.94651512902959
1001
ACDBBLOCKREPETAG
1070
     1
1071
      180
1005
12EE46
  0
LINE
  5
12EE47
  8
OBJECT
 10
1914.0
 20
-754.1720031702107
 30
0.0
 11
1879.1851511871159
 21
-749.86428428270381
 31
0.0
1001
ACDBBLOCKREPETAG
1070
     1
1071
      181
1005
12EE47
  0
LINE
  5
12EE48
  8
OBJECT
 10
1913.9999999999959
 20
-755.00000000000102
 30
0.0
 11
1913.9999999999959
 21
-634.0
 31
0.0
1001
ACDBBLOCKREPETAG
1070
     1
1071
      182
1005
12EE48
  0
ARC
  5
12EE49
  8
OBJECT
 10
1916.9999999999959
 20
-755.00000000000102
 30
0.0
 40
3.0
 50
180.0
 51
270.0
1001
ACDBBLOCKREPETAG
1070
     1
1071
      183
1005
12EE49
  0
LINE
  5
12EE4A
  8
OBJECT
 10
1903.8297019999991
 20
-633.0
 30
0.0
 11
1776.0
 21
-633.0
 31
0.0
1001
ACDBBLOCKREPETAG
1070
     1
1071
      184
1005
12EE4A
  0
LINE
  5
12EE4B
  8
OBJECT
 10
1894.946086148276
 20
-640.65708264965724
 30
0.0
 11
1798.9999999999959
 21
-640.65708264965724
 31
0.0
1001
ACDBBLOCKREPETAG
1070
     1
1071
      185
1005
12EE4B
  0
LINE
  5
12EE4C
  8
OBJECT
 10
1795.0
 20
-635.89006764214901
 30
0.0
 11
1798.9999999999959
 21
-640.65708264965724
 31
0.0
1001
ACDBBLOCKREPETAG
1070
     1
1071
      186
1005
12EE4C
  0
LINE
  5
12EE4D
  8
OBJECT
 10
1910.9999999999959
 20
-620.0
 30
0.0
 11
1910.999999999993
 21
-634.0
 31
0.0
1001
ACDBBLOCKREPETAG
1070
     1
1071
      187
1005
12EE4D
  0
LINE
  5
12EE4E
  8
HIDDEN
 10
1894.5
 20
-660.0
 30
0.0
 11
1805.5
 21
-660.0
 31
0.0
1001
ACDBBLOCKREPETAG
1070
     1
1071
      188
1005
12EE4E
  0
LINE
  5
12EE4F
  8
OBJECT
 10
1886.0
 20
-586.0
 30
0.0
 11
1878.0
 21
-586.0
 31
0.0
1001
ACDBBLOCKREPETAG
1070
     1
1071
      189
1005
12EE4F
  0
LINE
  5
12EE50
  8
OBJECT
 10
1878.0
 20
-588.0
 30
0.0
 11
1878.0
 21
-586.0
 31
0.0
1001
ACDBBLOCKREPETAG
1070
     1
1071
      190
1005
12EE50
  0
LINE
  5
12EE51
  8
OBJECT
 10
1889.505553499464
 20
-588.0
 30
0.0
 11
1874.494446500536
 21
-588.0
 31
0.0
1001
ACDBBLOCKREPETAG
1070
     1
1071
      191
1005
12EE51
  0
LINE
  5
12EE52
  8
CENTER
 10
1850.0
 20
-679.77158855533253
 30
0.0
 11
1850.0
 21
-579.49999999999989
 31
0.0
1001
ACDBBLOCKREPETAG
1070
     1
1071
      193
1005
12EE52
  0
LINE
  5
12EE53
  8
OBJECT
 10
1920.0
 20
-758.0
 30
0.0
 11
1916.9999999999959
 21
-758.0000000000008
 31
0.0
1001
ACDBBLOCKREPETAG
1070
     1
1071
      194
1005
12EE53
  0
LINE
  5
12EE54
  8
OBJECT
 10
1920.0
 20
-634.0
 30
0.0
 11
1910.999999999993
 21
-634.0
 31
0.0
1001
ACDBBLOCKREPETAG
1070
     1
1071
      195
1005
12EE54
  0
LINE
  5
12EE55
  8
OBJECT
 10
1885.7528030216049
 20
-594.49998110541117
 30
0.0
 11
1885.7528030216049
 21
-587.99998110541117
 31
0.0
1001
ACDBBLOCKREPETAG
1070
     1
1071
      196
1005
12EE55
  0
LINE
  5
12EE56
  8
OBJECT
 10
1874.494446500536
 20
-594.5
 30
0.0
 11
1874.494446500536
 21
-588.0
 31
0.0
1001
ACDBBLOCKREPETAG
1070
     1
1071
      197
1005
12EE56
  0
LINE
  5
12EE57
  8
OBJECT
 10
1878.2471969783951
 20
-594.49998110541117
 30
0.0
 11
1878.2471969783951
 21
-587.99998110541117
 31
0.0
1001
ACDBBLOCKREPETAG
1070
     1
1071
      198
1005
12EE57
  0
LINE
  5
12EE58
  8
OBJECT
 10
1790.0
 20
-588.0
 30
0.0
 11
1790.0
 21
-586.0
 31
0.0
1001
ACDBBLOCKREPETAG
1070
     1
1071
      199
1005
12EE58
  0
LINE
  5
12EE59
  8
OBJECT
 10
1790.0
 20
-620.0
 30
0.0
 11
1790.0
 21
-607.5
 31
0.0
1001
ACDBBLOCKREPETAG
1070
     1
1071
      200
1005
12EE59
  0
LINE
  5
12EE5A
  8
OBJECT
 10
1782.0
 20
-620.0
 30
0.0
 11
1782.0
 21
-607.5
 31
0.0
1001
ACDBBLOCKREPETAG
1070
     1
1071
      201
1005
12EE5A
  0
LINE
  5
12EE5B
  8
OBJECT
 10
1793.505553499464
 20
-594.5
 30
0.0
 11
1793.505553499464
 21
-588.0
 31
0.0
1001
ACDBBLOCKREPETAG
1070
     1
1071
      202
1005
12EE5B
  0
LINE
  5
12EE5C
  8
OBJECT
 10
1795.0
 20
-633.0
 30
0.0
 11
1795.0
 21
-638.0
 31
0.0
1001
ACDBBLOCKREPETAG
1070
     1
1071
      203
1005
12EE5C
  0
LINE
  5
12EE5D
  8
OBJECT
 10
1795.0
 20
-638.0
 30
0.0
 11
1777.0
 21
-638.0
 31
0.0
1001
ACDBBLOCKREPETAG
1070
     1
1071
      204
1005
12EE5D
  0
LINE
  5
12EE5E
  8
OBJECT
 10
1777.0
 20
-633.0
 30
0.0
 11
1777.0
 21
-638.0
 31
0.0
1001
ACDBBLOCKREPETAG
1070
     1
1071
      205
1005
12EE5E
  0
LINE
  5
12EE5F
  8
OBJECT
 10
1790.0
 20
-586.0
 30
0.0
 11
1782.0
 21
-586.0
 31
0.0
1001
ACDBBLOCKREPETAG
1070
     1
1071
      206
1005
12EE5F
  0
LINE
  5
12EE60
  8
OBJECT
 10
1782.0
 20
-588.0
 30
0.0
 11
1782.0
 21
-586.0
 31
0.0
1001
ACDBBLOCKREPETAG
1070
     1
1071
      207
1005
12EE60
  0
LINE
  5
12EE61
  8
OBJECT
 10
1793.505553499464
 20
-588.0
 30
0.0
 11
1778.4944465005351
 21
-588.0
 31
0.0
1001
ACDBBLOCKREPETAG
1070
     1
1071
      208
1005
12EE61
  0
LINE
  5
12EE62
  8
OBJECT
 10
1789.752803021604
 20
-594.49998110541117
 30
0.0
 11
1789.752803021604
 21
-587.99998110541117
 31
0.0
1001
ACDBBLOCKREPETAG
1070
     1
1071
      209
1005
12EE62
  0
LINE
  5
12EE63
  8
OBJECT
 10
1778.4944465005351
 20
-594.5
 30
0.0
 11
1778.4944465005351
 21
-588.0
 31
0.0
1001
ACDBBLOCKREPETAG
1070
     1
1071
      210
1005
12EE63
  0
LINE
  5
12EE64
  8
OBJECT
 10
1782.2471969783951
 20
-594.49998110541117
 30
0.0
 11
1782.2471969783951
 21
-587.99998110541117
 31
0.0
1001
ACDBBLOCKREPETAG
1070
     1
1071
      211
1005
12EE64
  0
CIRCLE
  5
12EE65
  8
OBJECT
 10
2000.0
 20
-696.0
 30
0.0
 40
62.0
1001
ACDBBLOCKREPETAG
1070
     1
1071
        0
1005
12EE65
  0
LINE
  5
12EE66
  8
OBJECT
 10
2114.0
 20
-588.0
 30
0.0
 11
2114.0
 21
-586.0
 31
0.0
1001
ACDBBLOCKREPETAG
1070
     1
1071
      157
1005
12EE66
  0
ARC
  5
12EE67
  8
OBJECT
 10
2155.1865574982548
 20
-606.0
 30
0.0
 40
59.0
 50
229.20276883323919
 51
270.0
1001
ACDBBLOCKREPETAG
1070
     1
1071
      158
1005
12EE67
  0
LINE
  5
12EE68
  8
OBJECT
 10
2224.0
 20
-594.5
 30
0.0
 11
2089.0
 21
-594.5
 31
0.0
1001
ACDBBLOCKREPETAG
1070
     1
1071
      159
1005
12EE68
  0
LINE
  5
12EE69
  8
OBJECT
 10
2089.0
 20
-607.5
 30
0.0
 11
2224.0
 21
-607.5
 31
0.0
1001
ACDBBLOCKREPETAG
1070
     1
1071
      160
1005
12EE69
  0
LINE
  5
12EE6A
  8
OBJECT
 10
2089.0
 20
-594.5
 30
0.0
 11
2089.0
 21
-607.5
 31
0.0
1001
ACDBBLOCKREPETAG
1070
     1
1071
      161
1005
12EE6A
  0
LINE
  5
12EE6B
  8
OBJECT
 10
2096.0
 20
-616.5
 30
0.0
 11
2096.0
 21
-607.5
 31
0.0
1001
ACDBBLOCKREPETAG
1070
     1
1071
      162
1005
12EE6B
  0
LINE
  5
12EE6C
  8
OBJECT
 10
2114.0
 20
-620.0
 30
0.0
 11
2114.0
 21
-607.5
 31
0.0
1001
ACDBBLOCKREPETAG
1070
     1
1071
      163
1005
12EE6C
  0
LINE
  5
12EE6D
  8
OBJECT
 10
2204.0
 20
-616.5
 30
0.0
 11
2204.0
 21
-607.5
 31
0.0
1001
ACDBBLOCKREPETAG
1070
     1
1071
      164
1005
12EE6D
  0
LINE
  5
12EE6E
  8
OBJECT
 10
2224.0
 20
-594.5
 30
0.0
 11
2224.0
 21
-607.5
 31
0.0
1001
ACDBBLOCKREPETAG
1070
     1
1071
      165
1005
12EE6E
  0
LINE
  5
12EE6F
  8
OBJECT
 10
2122.0
 20
-620.0
 30
0.0
 11
2122.0
 21
-607.5
 31
0.0
1001
ACDBBLOCKREPETAG
1070
     1
1071
      166
1005
12EE6F
  0
LINE
  5
12EE70
  8
OBJECT
 10
2114.0
 20
-616.5
 30
0.0
 11
2095.0
 21
-616.5
 31
0.0
1001
ACDBBLOCKREPETAG
1070
     1
1071
      167
1005
12EE70
  0
LINE
  5
12EE71
  8
OBJECT
 10
2095.0
 20
-620.0
 30
0.0
 11
2095.0
 21
-616.5
 31
0.0
1001
ACDBBLOCKREPETAG
1070
     1
1071
      168
1005
12EE71
  0
LINE
  5
12EE72
  8
OBJECT
 10
2122.0
 20
-616.5
 30
0.0
 11
2205.0
 21
-616.5
 31
0.0
1001
ACDBBLOCKREPETAG
1070
     1
1071
      169
1005
12EE72
  0
LINE
  5
12EE73
  8
OBJECT
 10
2205.0
 20
-616.5
 30
0.0
 11
2205.0
 21
-620.0
 31
0.0
1001
ACDBBLOCKREPETAG
1070
     1
1071
      170
1005
12EE73
  0
LINE
  5
12EE74
  8
OBJECT
 10
2110.494446500536
 20
-594.5
 30
0.0
 11
2110.494446500536
 21
-588.0
 31
0.0
1001
ACDBBLOCKREPETAG
1070
     1
1071
      171
1005
12EE74
  0
LINE
  5
12EE75
  8
OBJECT
 10
2109.0
 20
-633.0
 30
0.0
 11
2109.0
 21
-638.0
 31
0.0
1001
ACDBBLOCKREPETAG
1070
     1
1071
      172
1005
12EE75
  0
LINE
  5
12EE76
  8
OBJECT
 10
2109.0
 20
-638.0
 30
0.0
 11
2127.0
 21
-638.0
 31
0.0
1001
ACDBBLOCKREPETAG
1070
     1
1071
      173
1005
12EE76
  0
LINE
  5
12EE77
  8
OBJECT
 10
2127.0
 20
-633.0
 30
0.0
 11
2127.0
 21
-638.0
 31
0.0
1001
ACDBBLOCKREPETAG
1070
     1
1071
      174
1005
12EE77
  0
LINE
  5
12EE78
  8
OBJECT
 10
2089.0000000000032
 20
-620.0
 30
0.0
 11
2224.0
 21
-620.0
 31
0.0
1001
ACDBBLOCKREPETAG
1070
     1
1071
      175
1005
12EE78
  0
LINE
  5
12EE79
  8
OBJECT
 10
2224.0
 20
-620.0
 30
0.0
 11
2224.0
 21
-633.0
 31
0.0
1001
ACDBBLOCKREPETAG
1070
     1
1071
      176
1005
12EE79
  0
LINE
  5
12EE7A
  8
OBJECT
 10
2116.636900244765
 20
-650.6645712577473
 30
0.0
 11
2096.170298
 21
-633.0
 31
0.0
1001
ACDBBLOCKREPETAG
1070
     1
1071
      177
1005
12EE7A
  0
LINE
  5
12EE7B
  8
OBJECT
 10
2201.0000000000041
 20
-640.65708264965724
 30
0.0
 11
2201.0000000000041
 21
-665.0
 31
0.0
1001
ACDBBLOCKREPETAG
1070
     1
1071
      178
1005
12EE7B
  0
LINE
  5
12EE7C
  8
OBJECT
 10
2155.1865574982548
 20
-665.0
 30
0.0
 11
2201.0000000000041
 21
-665.0
 31
0.0
1001
ACDBBLOCKREPETAG
1070
     1
1071
      179
1005
12EE7C
  0
ARC
  5
12EE7D
  8
OBJECT
 10
2110.5
 20
-666.5
 30
0.0
 40
84.0
 50
277.05348487097029
 51
1.023193303671255
1001
ACDBBLOCKREPETAG
1070
     1
1071
      180
1005
12EE7D
  0
LINE
  5
12EE7E
  8
OBJECT
 10
2086.0
 20
-754.1720031702107
 30
0.0
 11
2120.8148488128832
 21
-749.86428428270381
 31
0.0
1001
ACDBBLOCKREPETAG
1070
     1
1071
      181
1005
12EE7E
  0
LINE
  5
12EE7F
  8
OBJECT
 10
2086.0000000000041
 20
-755.00000000000102
 30
0.0
 11
2086.0000000000041
 21
-634.0
 31
0.0
1001
ACDBBLOCKREPETAG
1070
     1
1071
      182
1005
12EE7F
  0
ARC
  5
12EE80
  8
OBJECT
 10
2083.0000000000041
 20
-755.00000000000102
 30
0.0
 40
3.0
 50
270.0
 51
0.0
1001
ACDBBLOCKREPETAG
1070
     1
1071
      183
1005
12EE80
  0
LINE
  5
12EE81
  8
OBJECT
 10
2096.170298
 20
-633.0
 30
0.0
 11
2224.0
 21
-633.0
 31
0.0
1001
ACDBBLOCKREPETAG
1070
     1
1071
      184
1005
12EE81
  0
LINE
  5
12EE82
  8
OBJECT
 10
2105.0539138517229
 20
-640.65708264965724
 30
0.0
 11
2201.0000000000041
 21
-640.65708264965724
 31
0.0
1001
ACDBBLOCKREPETAG
1070
     1
1071
      185
1005
12EE82
  0
LINE
  5
12EE83
  8
OBJECT
 10
2205.0
 20
-635.89006764214901
 30
0.0
 11
2201.0000000000041
 21
-640.65708264965724
 31
0.0
1001
ACDBBLOCKREPETAG
1070
     1
1071
      186
1005
12EE83
  0
LINE
  5
12EE84
  8
OBJECT
 10
2089.0000000000032
 20
-620.0
 30
0.0
 11
2089.0000000000068
 21
-634.0
 31
0.0
1001
ACDBBLOCKREPETAG
1070
     1
1071
      187
1005
12EE84
  0
LINE
  5
12EE85
  8
HIDDEN
 10
2105.5
 20
-660.0
 30
0.0
 11
2194.5
 21
-660.0
 31
0.0
1001
ACDBBLOCKREPETAG
1070
     1
1071
      188
1005
12EE85
  0
LINE
  5
12EE86
  8
OBJECT
 10
2114.0
 20
-586.0
 30
0.0
 11
2122.0
 21
-586.0
 31
0.0
1001
ACDBBLOCKREPETAG
1070
     1
1071
      189
1005
12EE86
  0
LINE
  5
12EE87
  8
OBJECT
 10
2122.0
 20
-588.0
 30
0.0
 11
2122.0
 21
-586.0
 31
0.0
1001
ACDBBLOCKREPETAG
1070
     1
1071
      190
1005
12EE87
  0
LINE
  5
12EE88
  8
OBJECT
 10
2110.494446500536
 20
-588.0
 30
0.0
 11
2125.5055534994649
 21
-588.0
 31
0.0
1001
ACDBBLOCKREPETAG
1070
     1
1071
      191
1005
12EE88
  0
LINE
  5
12EE89
  8
CENTER
 10
2150.0
 20
-679.77158855533253
 30
0.0
 11
2150.0
 21
-579.49999999999989
 31
0.0
1001
ACDBBLOCKREPETAG
1070
     1
1071
      193
1005
12EE89
  0
LINE
  5
12EE8A
  8
OBJECT
 10
2080.0
 20
-758.0
 30
0.0
 11
2083.0000000000041
 21
-758.0000000000008
 31
0.0
1001
ACDBBLOCKREPETAG
1070
     1
1071
      194
1005
12EE8A
  0
LINE
  5
12EE8B
  8
OBJECT
 10
2080.0
 20
-634.0
 30
0.0
 11
2089.0000000000068
 21
-634.0
 31
0.0
1001
ACDBBLOCKREPETAG
1070
     1
1071
      195
1005
12EE8B
  0
LINE
  5
12EE8C
  8
OBJECT
 10
2114.247196978396
 20
-594.49998110541117
 30
0.0
 11
2114.247196978396
 21
-587.99998110541117
 31
0.0
1001
ACDBBLOCKREPETAG
1070
     1
1071
      196
1005
12EE8C
  0
LINE
  5
12EE8D
  8
OBJECT
 10
2125.5055534994649
 20
-594.5
 30
0.0
 11
2125.5055534994649
 21
-588.0
 31
0.0
1001
ACDBBLOCKREPETAG
1070
     1
1071
      197
1005
12EE8D
  0
LINE
  5
12EE8E
  8
OBJECT
 10
2121.7528030216049
 20
-594.49998110541117
 30
0.0
 11
2121.7528030216049
 21
-587.99998110541117
 31
0.0
1001
ACDBBLOCKREPETAG
1070
     1
1071
      198
1005
12EE8E
  0
LINE
  5
12EE8F
  8
OBJECT
 10
2210.0
 20
-588.0
 30
0.0
 11
2210.0
 21
-586.0
 31
0.0
1001
ACDBBLOCKREPETAG
1070
     1
1071
      199
1005
12EE8F
  0
LINE
  5
12EE90
  8
OBJECT
 10
2210.0
 20
-620.0
 30
0.0
 11
2210.0
 21
-607.5
 31
0.0
1001
ACDBBLOCKREPETAG
1070
     1
1071
      200
1005
12EE90
  0
LINE
  5
12EE91
  8
OBJECT
 10
2218.0
 20
-620.0
 30
0.0
 11
2218.0
 21
-607.5
 31
0.0
1001
ACDBBLOCKREPETAG
1070
     1
1071
      201
1005
12EE91
  0
LINE
  5
12EE92
  8
OBJECT
 10
2206.494446500536
 20
-594.5
 30
0.0
 11
2206.494446500536
 21
-588.0
 31
0.0
1001
ACDBBLOCKREPETAG
1070
     1
1071
      202
1005
12EE92
  0
LINE
  5
12EE93
  8
OBJECT
 10
2205.0
 20
-633.0
 30
0.0
 11
2205.0
 21
-638.0
 31
0.0
1001
ACDBBLOCKREPETAG
1070
     1
1071
      203
1005
12EE93
  0
LINE
  5
12EE94
  8
OBJECT
 10
2205.0
 20
-638.0
 30
0.0
 11
2223.0
 21
-638.0
 31
0.0
1001
ACDBBLOCKREPETAG
1070
     1
1071
      204
1005
12EE94
  0
LINE
  5
12EE95
  8
OBJECT
 10
2223.0
 20
-633.0
 30
0.0
 11
2223.0
 21
-638.0
 31
0.0
1001
ACDBBLOCKREPETAG
1070
     1
1071
      205
1005
12EE95
  0
LINE
  5
12EE96
  8
OBJECT
 10
2210.0
 20
-586.0
 30
0.0
 11
2218.0
 21
-586.0
 31
0.0
1001
ACDBBLOCKREPETAG
1070
     1
1071
      206
1005
12EE96
  0
LINE
  5
12EE97
  8
OBJECT
 10
2218.0
 20
-588.0
 30
0.0
 11
2218.0
 21
-586.0
 31
0.0
1001
ACDBBLOCKREPETAG
1070
     1
1071
      207
1005
12EE97
  0
LINE
  5
12EE98
  8
OBJECT
 10
2206.494446500536
 20
-588.0
 30
0.0
 11
2221.505553499464
 21
-588.0
 31
0.0
1001
ACDBBLOCKREPETAG
1070
     1
1071
      208
1005
12EE98
  0
LINE
  5
12EE99
  8
OBJECT
 10
2210.247196978396
 20
-594.49998110541117
 30
0.0
 11
2210.247196978396
 21
-587.99998110541117
 31
0.0
1001
ACDBBLOCKREPETAG
1070
     1
1071
      209
1005
12EE99
  0
LINE
  5
12EE9A
  8
OBJECT
 10
2221.505553499464
 20
-594.5
 30
0.0
 11
2221.505553499464
 21
-588.0
 31
0.0
1001
ACDBBLOCKREPETAG
1070
     1
1071
      210
1005
12EE9A
  0
LINE
  5
12EE9B
  8
OBJECT
 10
2217.7528030216049
 20
-594.49998110541117
 30
0.0
 11
2217.7528030216049
 21
-587.99998110541117
 31
0.0
1001
ACDBBLOCKREPETAG
1070
     1
1071
      211
1005
12EE9B
  0
TEXT
  5
12EE9C
  8
SLIM
 10
0.0
 20
369.99999999999989
 30
0.0
 40
100.0
  1
4SR-U707-S
 41
0.75
  0
LINE
  5
12EE9D
  8
OBJECT
 10
3930.0
 20
-1079.999999999997
 30
0.0
 11
4070.0
 21
-1079.999999999997
 31
0.0
1001
ACDBBLOCKREPETAG
1070
     1
1071
        0
1005
12EE9D
  0
LINE
  5
12EE9E
  8
OBJECT
 10
3930.0
 20
-1079.999999999997
 30
0.0
 11
3930.0
 21
-839.99999999999704
 31
0.0
1001
ACDBBLOCKREPETAG
1070
     1
1071
        1
1005
12EE9E
  0
LINE
  5
12EE9F
  8
OBJECT
 10
4070.0
 20
-1079.999999999997
 30
0.0
 11
4070.0
 21
-839.99999999999704
 31
0.0
1001
ACDBBLOCKREPETAG
1070
     1
1071
        2
1005
12EE9F
  0
LINE
  5
12EEA0
  8
OBJECT
 10
3930.0
 20
-839.99999999999704
 30
0.0
 11
4070.0
 21
-839.99999999999704
 31
0.0
1001
ACDBBLOCKREPETAG
1070
     1
1071
        3
1005
12EEA0
  0
LINE
  5
12EEA1
  8
HIDDEN
 10
3937.5
 20
-839.99999999999704
 30
0.0
 11
3937.5
 21
-1079.999999999997
 31
0.0
1001
ACDBBLOCKREPETAG
1070
     1
1071
        4
1005
12EEA1
  0
LINE
  5
12EEA2
  8
HIDDEN
 10
4062.5
 20
-839.99999999999704
 30
0.0
 11
4062.5
 21
-1079.999999999997
 31
0.0
1001
ACDBBLOCKREPETAG
1070
     1
1071
        5
1005
12EEA2
  0
LINE
  5
12EEA3
  8
CENTER
 10
4000.0
 20
-769.99999999999875
 30
0.0
 11
4000.0
 21
-1094.999999999997
 31
0.0
1001
ACDBBLOCKREPETAG
1070
     1
1071
        6
1005
12EEA3
  0
LINE
  5
12EEA4
  8
OBJECT
 10
3925.0
 20
-769.99999999999875
 30
0.0
 11
3925.0
 21
-799.99999999999693
 31
0.0
1001
ACDBBLOCKREPETAG
1070
     1
1071
        7
1005
12EEA4
  0
LINE
  5
12EEA5
  8
OBJECT
 10
4075.0000000000032
 20
-769.99999999999875
 30
0.0
 11
4075.0
 21
-799.99999999999693
 31
0.0
1001
ACDBBLOCKREPETAG
1070
     1
1071
        8
1005
12EEA5
  0
LINE
  5
12EEA6
  8
OBJECT
 10
3925.0
 20
-799.99999999999693
 30
0.0
 11
4075.0
 21
-799.99999999999693
 31
0.0
1001
ACDBBLOCKREPETAG
1070
     1
1071
        9
1005
12EEA6
  0
LINE
  5
12EEA7
  8
OBJECT
 10
3925.0
 20
-799.99999999999693
 30
0.0
 11
3930.0
 21
-839.99999999999704
 31
0.0
1001
ACDBBLOCKREPETAG
1070
     1
1071
       10
1005
12EEA7
  0
LINE
  5
12EEA8
  8
OBJECT
 10
4070.0
 20
-839.99999999999704
 30
0.0
 11
4075.0
 21
-799.99999999999693
 31
0.0
1001
ACDBBLOCKREPETAG
1070
     1
1071
       11
1005
12EEA8
  0
LINE
  5
12EEA9
  8
OBJECT
 10
1930.0
 20
-1079.999999999998
 30
0.0
 11
2070.0
 21
-1079.999999999998
 31
0.0
1001
ACDBBLOCKREPETAG
1070
     1
1071
        0
1005
12EEA9
  0
LINE
  5
12EEAA
  8
OBJECT
 10
1930.0
 20
-1079.999999999998
 30
0.0
 11
1930.0
 21
-839.99999999999795
 31
0.0
1001
ACDBBLOCKREPETAG
1070
     1
1071
        1
1005
12EEAA
  0
LINE
  5
12EEAB
  8
OBJECT
 10
2070.0
 20
-1079.999999999998
 30
0.0
 11
2070.0
 21
-839.99999999999795
 31
0.0
1001
ACDBBLOCKREPETAG
1070
     1
1071
        2
1005
12EEAB
  0
LINE
  5
12EEAC
  8
OBJECT
 10
1930.0
 20
-839.99999999999795
 30
0.0
 11
2070.0
 21
-839.99999999999795
 31
0.0
1001
ACDBBLOCKREPETAG
1070
     1
1071
        3
1005
12EEAC
  0
LINE
  5
12EEAD
  8
HIDDEN
 10
1937.5
 20
-839.99999999999795
 30
0.0
 11
1937.5
 21
-1079.999999999998
 31
0.0
1001
ACDBBLOCKREPETAG
1070
     1
1071
        4
1005
12EEAD
  0
LINE
  5
12EEAE
  8
HIDDEN
 10
2062.5
 20
-839.99999999999795
 30
0.0
 11
2062.5
 21
-1079.999999999998
 31
0.0
1001
ACDBBLOCKREPETAG
1070
     1
1071
        5
1005
12EEAE
  0
LINE
  5
12EEAF
  8
CENTER
 10
2000.0
 20
-769.99999999999955
 30
0.0
 11
2000.0
 21
-1094.999999999997
 31
0.0
1001
ACDBBLOCKREPETAG
1070
     1
1071
        6
1005
12EEAF
  0
LINE
  5
12EEB0
  8
OBJECT
 10
1925.0
 20
-769.99999999999955
 30
0.0
 11
1925.0
 21
-799.99999999999773
 31
0.0
1001
ACDBBLOCKREPETAG
1070
     1
1071
        7
1005
12EEB0
  0
LINE
  5
12EEB1
  8
OBJECT
 10
2075.0000000000041
 20
-769.99999999999955
 30
0.0
 11
2075.0
 21
-799.99999999999773
 31
0.0
1001
ACDBBLOCKREPETAG
1070
     1
1071
        8
1005
12EEB1
  0
LINE
  5
12EEB2
  8
OBJECT
 10
1925.0
 20
-799.99999999999773
 30
0.0
 11
2075.0
 21
-799.99999999999773
 31
0.0
1001
ACDBBLOCKREPETAG
1070
     1
1071
        9
1005
12EEB2
  0
LINE
  5
12EEB3
  8
OBJECT
 10
1925.0
 20
-799.99999999999773
 30
0.0
 11
1930.0
 21
-839.99999999999795
 31
0.0
1001
ACDBBLOCKREPETAG
1070
     1
1071
       10
1005
12EEB3
  0
LINE
  5
12EEB4
  8
OBJECT
 10
2070.0
 20
-839.99999999999795
 30
0.0
 11
2075.0
 21
-799.99999999999773
 31
0.0
1001
ACDBBLOCKREPETAG
1070
     1
1071
       11
1005
12EEB4
  0
TEXT
  5
12EEB5
  8
SLIM
 10
3741.6250000000009
 20
-1347.499999999997
 30
0.0
 40
35.0
  1
片受けスタイル（S）＋シンドカット
 41
0.75
  0
TEXT
  5
12EEB6
  8
SLIM
 10
1856.25
 20
-1347.499999999998
 30
0.0
 40
35.0
  1
片受けスタイル（S）
 41
0.75
  0
VIEWPORT
  5
F6BA7
 67
     1
  8
0
 10
145.33033752441401
 20
101.8328354358673
 30
0.0
 40
334.0025019414623
 41
222.19657968139651
 68
     1
 69
     1
1001
ACAD
1000
MVIEW
1002
{
1070
    16
1010
0.0
1020
0.0
1030
0.0
1010
0.0
1020
0.0
1030
1.0
1040
0.0
1040
222.19657968139651
1040
145.33033752441401
1040
101.8328354358673
1040
50.0
1040
0.0
1040
0.0
1070
     0
1070
     0
1070
     1
1070
     1
1070
     0
1070
     0
1070
     0
1070
     0
1040
0.0
1040
0.0
1040
0.0
1040
10.0
1040
10.0
1040
10.0
1040
10.0
1070
     0
1002
{
1002
}
1002
}
  0
VIEWPORT
  5
F6BA9
 67
     1
  8
OBJECT
 10
145.3303314447403
 20
101.8328338861465
 30
0.0
 40
232.5285303115844
 41
162.93253421783439
 68
     2
 69
     2
1001
ACAD
1000
MVIEW
1002
{
1070
    16
1010
0.0
1020
0.0
1030
0.0
1010
0.0
1020
0.0
1030
1.0
1040
0.0
1040
25942.55904403147
1040
2377.604457077377
1040
-7591.5176687056619
1040
50.0
1040
0.0
1040
0.0
1070
     0
1070
   600
1070
     1
1070
     1
1070
     0
1070
     0
1070
     0
1070
     0
1040
0.0
1040
0.0
1040
0.0
1040
1.0
1040
1.0
1040
0.0
1040
0.0
1070
     0
1002
{
1002
}
1002
}
  0
ENDSEC
  0
EOF
