  0
SECTION
  2
HEADER
  9
$ACADVER
  1
AC1009
  9
$INSBASE
 10
0.0
 20
0.0
 30
0.0
  9
$EXTMIN
 10
-0.0000000000002274
 20
-3982.4999999999968168
 30
0.0
  9
$EXTMAX
 10
5607.5428571428556097
 20
607.5
 30
0.0
  9
$LIMMIN
 10
0.0
 20
0.0
  9
$LIMMAX
 10
210.0
 20
297.0
  9
$ORTHOMODE
 70
     0
  9
$REGENMODE
 70
     1
  9
$FILLMODE
 70
     1
  9
$QTEXTMODE
 70
     0
  9
$MIRRTEXT
 70
     0
  9
$DRAGMODE
 70
     2
  9
$LTSCALE
 40
1.0
  9
$OSMODE
 70
   295
  9
$ATTMODE
 70
     1
  9
$TEXTSIZE
 40
4.0
  9
$TRACEWID
 40
0.05
  9
$TEXTSTYLE
  7
STANDARD
  9
$CLAYER
  8
SLIM
  9
$CELTYPE
  6
BYLAYER
  9
$CECOLOR
 62
   256
  9
$DIMSCALE
 40
10.0
  9
$DIMASZ
 40
2.0
  9
$DIMEXO
 40
1.0
  9
$DIMDLI
 40
10.0
  9
$DIMRND
 40
0.0
  9
$DIMDLE
 40
0.0
  9
$DIMEXE
 40
1.0
  9
$DIMTP
 40
0.0
  9
$DIMTM
 40
0.0
  9
$DIMTXT
 40
3.2000000000000002
  9
$DIMCEN
 40
0.0
  9
$DIMTSZ
 40
0.0
  9
$DIMTOL
 70
     0
  9
$DIMLIM
 70
     0
  9
$DIMTIH
 70
     0
  9
$DIMTOH
 70
     0
  9
$DIMSE1
 70
     0
  9
$DIMSE2
 70
     0
  9
$DIMTAD
 70
     1
  9
$DIMZIN
 70
     8
  9
$DIMBLK
  1
OPEN30
  9
$DIMASO
 70
     1
  9
$DIMSHO
 70
     1
  9
$DIMPOST
  1

  9
$DIMAPOST
  1

  9
$DIMALT
 70
     0
  9
$DIMALTD
 70
     2
  9
$DIMALTF
 40
25.3999999999999986
  9
$DIMLFAC
 40
1.0
  9
$DIMTOFL
 70
     1
  9
$DIMTVP
 40
0.0
  9
$DIMTIX
 70
     0
  9
$DIMSOXD
 70
     0
  9
$DIMSAH
 70
     0
  9
$DIMBLK1
  1

  9
$DIMBLK2
  1

  9
$DIMSTYLE
  2
S10
  9
$DIMCLRD
 70
   256
  9
$DIMCLRE
 70
   256
  9
$DIMCLRT
 70
   256
  9
$DIMTFAC
 40
1.0
  9
$DIMGAP
 40
0.9
  9
$LUNITS
 70
     2
  9
$LUPREC
 70
     2
  9
$SKETCHINC
 40
0.1
  9
$FILLETRAD
 40
0.0
  9
$AUNITS
 70
     0
  9
$AUPREC
 70
     2
  9
$MENU
  1
ACAD
  9
$ELEVATION
 40
0.0
  9
$PELEVATION
 40
0.0
  9
$THICKNESS
 40
0.0
  9
$LIMCHECK
 70
     0
  9
$BLIPMODE
 70
     0
  9
$CHAMFERA
 40
2.0
  9
$CHAMFERB
 40
2.0
  9
$SKPOLY
 70
     0
  9
$TDCREATE
 40
2453095.4929398149251938
  9
$TDUPDATE
 40
2459942.5617476850748062
  9
$TDINDWG
 40
21.4799487730999985
  9
$TDUSRTIMER
 40
21.4799482292000015
  9
$USRTIMER
 70
     1
  9
$ANGBASE
 50
0.0
  9
$ANGDIR
 70
     0
  9
$PDMODE
 70
    35
  9
$PDSIZE
 40
2.0
  9
$PLINEWID
 40
0.0
  9
$COORDS
 70
     1
  9
$SPLFRAME
 70
     0
  9
$SPLINETYPE
 70
     6
  9
$SPLINESEGS
 70
     8
  9
$ATTDIA
 70
     1
  9
$ATTREQ
 70
     1
  9
$HANDLING
 70
     1
  9
$HANDSEED
  5
128A57
  9
$SURFTAB1
 70
     6
  9
$SURFTAB2
 70
     6
  9
$SURFTYPE
 70
     6
  9
$SURFU
 70
     6
  9
$SURFV
 70
     6
  9
$UCSNAME
  2

  9
$UCSORG
 10
0.0
 20
0.0
 30
0.0
  9
$UCSXDIR
 10
1.0
 20
0.0
 30
0.0
  9
$UCSYDIR
 10
0.0
 20
1.0
 30
0.0
  9
$PUCSNAME
  2

  9
$PUCSORG
 10
0.0
 20
0.0
 30
0.0
  9
$PUCSXDIR
 10
1.0
 20
0.0
 30
0.0
  9
$PUCSYDIR
 10
0.0
 20
1.0
 30
0.0
  9
$USERI1
 70
     0
  9
$USERI2
 70
     0
  9
$USERI3
 70
     0
  9
$USERI4
 70
     0
  9
$USERI5
 70
     0
  9
$USERR1
 40
0.0
  9
$USERR2
 40
0.0
  9
$USERR3
 40
0.0
  9
$USERR4
 40
0.0
  9
$USERR5
 40
0.0
  9
$WORLDVIEW
 70
     1
  9
$SHADEDGE
 70
     3
  9
$SHADEDIF
 70
    70
  9
$TILEMODE
 70
     1
  9
$MAXACTVP
 70
    64
  9
$PLIMCHECK
 70
     0
  9
$PEXTMIN
 10
29.0660662889480506
 20
20.3665667772293091
 30
0.0
  9
$PEXTMAX
 10
261.5945966005324976
 20
183.2991009950638102
 30
0.0
  9
$PLIMMIN
 10
-3.17498779296875
 20
-3.1749999523162842
  9
$PLIMMAX
 10
293.835662841796875
 20
206.8406708240509033
  9
$UNITMODE
 70
     0
  9
$VISRETAIN
 70
     1
  9
$PLINEGEN
 70
     0
  9
$PSLTSCALE
 70
     1
  0
ENDSEC
  0
SECTION
  2
TABLES
  0
TABLE
  2
VPORT
 70
     1
  0
VPORT
  2
*ACTIVE
 70
     0
 10
0.0
 20
0.0
 11
1.0
 21
1.0
 12
2848.8085942796319614
 22
-1305.7949059519260118
 13
0.0
 23
0.0
 14
1.0
 24
1.0
 15
0.0
 25
0.0
 16
0.0
 26
0.0
 36
1.0
 17
0.0
 27
0.0
 37
0.0
 40
5923.8473510967578477
 41
2.1135135135135128
 42
50.0
 43
0.0
 44
0.0
 50
0.0
 51
0.0
 71
     0
 72
   600
 73
     1
 74
     1
 75
     0
 76
     0
 77
     0
 78
     0
  0
ENDTAB
  0
TABLE
  2
LTYPE
 70
     5
  0
LTYPE
  2
CONTINUOUS
 70
     0
  3
Solid line
 72
    65
 73
     0
 40
0.0
  0
LTYPE
  2
ACAD_ISO08W100
 70
     0
  3
ISO long-dash short-dash ____ __ ____ __ ____ _
 72
    65
 73
     4
 40
36.0
 49
24.0
 49
-3.0
 49
6.0
 49
-3.0
  0
LTYPE
  2
ACAD_ISO02W100
 70
     0
  3
ISO dash __ __ __ __ __ __ __ __ __ __ __ __ __
 72
    65
 73
     2
 40
15.0
 49
12.0
 49
-3.0
  0
ENDTAB
  0
TABLE
  2
LAYER
 70
    11
  0
LAYER
  2
0
 70
     0
 62
     7
  6
CONTINUOUS
  0
LAYER
  2
DEFPOINTS
 70
     0
 62
     7
  6
CONTINUOUS
  0
LAYER
  2
DIM
 70
     0
 62
     7
  6
CONTINUOUS
  0
LAYER
  2
OBJECT
 70
     0
 62
     4
  6
CONTINUOUS
  0
LAYER
  2
HIDDEN
 70
     0
 62
     2
  6
ACAD_ISO02W100
  0
LAYER
  2
CENTER
 70
     0
 62
     2
  6
ACAD_ISO08W100
  0
LAYER
  2
DOTS
 70
     0
 62
     1
  6
CONTINUOUS
  0
LAYER
  2
SLIM
 70
     0
 62
     2
  6
CONTINUOUS
  0
ENDTAB
  0
TABLE
  2
STYLE
 70
     4
  0
STYLE
  2
STANDARD
 70
     0
 40
0.0
 41
0.75
 50
0.0
 71
     0
 42
4.0
  3
simplex.shx
  4
bigfont.shx
  0
ENDTAB
  0
TABLE
  2
VIEW
 70
     4
  0
ENDTAB
  0
TABLE
  2
UCS
 70
     0
  0
ENDTAB
  0
TABLE
  2
APPID
 70
    20
  0
APPID
  2
ACAD
 70
     0
  0
APPID
  2
ACAD_PSEXT
 70
     0
  0
APPID
  2
ACAD_EXEMPT_FROM_CAD_STANDARDS
 70
     0
  0
APPID
  2
ACAECLAYERSTANDARD
 70
     0
  0
APPID
  2
ACAUTHENVIRON
 70
     0
  0
APPID
  2
ACDBDYNAMICBLOCKTRUENAME
 70
     0
  0
APPID
  2
ACDBDYNAMICBLOCKGUID
 70
     0
  0
APPID
  2
ACDBBLOCKREPETAG
 70
     0
  0
APPID
  2
ACDBBLOCKREPBTAG
 70
     0
  0
APPID
  2
ACAD_NAV_VCDISPLAY
 70
     0
  0
APPID
  2
ACAD_DSTYLE_DIMRADIAL_EXTENSION
 70
     0
  0
APPID
  2
ACAD_DSTYLE_DIMJAG
 70
     0
  0
APPID
  2
ACAD_DSTYLE_DIMTALN
 70
     0
  0
APPID
  2
ACADANNOTATIVE
 70
     0
  0
APPID
  2
ACADANNOPO
 70
     0
  0
APPID
  2
GRADIENTCOLOR1ACI
 70
     0
  0
APPID
  2
GRADIENTCOLOR2ACI
 70
     0
  0
APPID
  2
ACADANNOMONITORALERTICONDI
 70
     0
  0
APPID
  2
CONTENTBLOCKICON
 70
     0
  0
APPID
  2
ACAD_MLEADERVER
 70
     0
  0
ENDTAB
  0
TABLE
  2
DIMSTYLE
 70
     3
  0
DIMSTYLE
  2
STANDARD
 70
     0
  3

  4

  5

  6

  7

 40
1.0
 41
0.18
 42
0.0625
 43
0.38
 44
0.18
 45
0.0
 46
0.0
 47
0.0
 48
0.0
140
0.18
141
0.09
142
0.0
143
25.3999999999999986
144
1.0
145
0.0
146
1.0
147
0.09
 71
     0
 72
     0
 73
     1
 74
     1
 75
     0
 76
     0
 77
     0
 78
     0
170
     0
171
     2
172
     0
173
     0
174
     0
175
     0
176
     0
177
     0
178
     0
  0
DIMSTYLE
  2
S10
 70
     0
  3

  4

  5
OPEN30
  6

  7

 40
10.0
 41
2.0
 42
1.0
 43
10.0
 44
1.0
 45
0.0
 46
0.0
 47
0.0
 48
0.0
140
3.2000000000000002
141
0.0
142
0.0
143
25.3999999999999986
144
1.0
145
0.0
146
1.0
147
0.9
 71
     0
 72
     0
 73
     0
 74
     0
 75
     0
 76
     0
 77
     1
 78
     8
170
     0
171
     2
172
     1
173
     0
174
     0
175
     0
176
   256
177
   256
178
   256
  0
ENDTAB
  0
ENDSEC
  0
SECTION
  2
BLOCKS
  0
BLOCK
  8
0
  2
$MODEL_SPACE
 70
     0
 10
0.0
 20
0.0
 30
0.0
  3
$MODEL_SPACE
  1

  0
ENDBLK
  5
20
  8
0
  0
BLOCK
 67
     1
  8
0
  2
$PAPER_SPACE
 70
     0
 10
0.0
 20
0.0
 30
0.0
  3
$PAPER_SPACE
  1

  0
ENDBLK
  5
F6BA3
 67
     1
  8
0
  0
BLOCK
  8
0
  2
_OPEN30
 70
     0
 10
0.0
 20
0.0
 30
0.0
  3
_OPEN30
  1

  0
LINE
  5
202
  8
0
  6
BYBLOCK
 62
     0
 10
-1.0
 20
0.26794919
 30
0.0
 11
0.0
 21
0.0
 31
0.0
  0
LINE
  5
203
  8
0
  6
BYBLOCK
 62
     0
 10
0.0
 20
0.0
 30
0.0
 11
-1.0
 21
-0.26794919
 31
0.0
  0
LINE
  5
204
  8
0
  6
BYBLOCK
 62
     0
 10
0.0
 20
0.0
 30
0.0
 11
-1.0
 21
0.0
 31
0.0
  0
ENDBLK
  5
206
  8
0
  0
BLOCK
  8
0
  2
*U108
 70
     1
 10
0.0
 20
0.0
 30
0.0
  3
*U108
  1

  0
TEXT
  5
1289C2
  8
SLIM
 10
-27.0
 20
-21.047619047619051
 30
0.0
 40
26.0
  1
50
 50
90.0
  0
ENDBLK
  5
1289C4
  8
0
  0
BLOCK
  8
0
  2
*U109
 70
     1
 10
0.0
 20
0.0
 30
0.0
  3
*U109
  1

  0
TEXT
  5
1289C6
  8
SLIM
 10
-27.0
 20
-21.047619047619051
 30
0.0
 40
26.0
  1
65
 50
90.0
  0
ENDBLK
  5
1289C8
  8
0
  0
BLOCK
  8
0
  2
*U110
 70
     1
 10
0.0
 20
0.0
 30
0.0
  3
*U110
  1

  0
TEXT
  5
1289CA
  8
SLIM
 10
-27.0
 20
-21.047619047619051
 30
0.0
 40
26.0
  1
75
 50
90.0
  0
ENDBLK
  5
1289CC
  8
0
  0
BLOCK
  8
0
  2
*U111
 70
     1
 10
0.0
 20
0.0
 30
0.0
  3
*U111
  1

  0
TEXT
  5
1289CE
  8
SLIM
 10
-27.0
 20
-21.047619047619051
 30
0.0
 40
26.0
  1
50
 50
90.0
  0
ENDBLK
  5
1289D0
  8
0
  0
BLOCK
  8
0
  2
*U112
 70
     1
 10
0.0
 20
0.0
 30
0.0
  3
*U112
  1

  0
TEXT
  5
1289D2
  8
SLIM
 10
-27.0
 20
-21.047619047619051
 30
0.0
 40
26.0
  1
65
 50
90.0
  0
ENDBLK
  5
1289D4
  8
0
  0
BLOCK
  8
0
  2
*U113
 70
     1
 10
0.0
 20
0.0
 30
0.0
  3
*U113
  1

  0
TEXT
  5
1289D6
  8
SLIM
 10
-27.0
 20
-21.047619047619051
 30
0.0
 40
26.0
  1
75
 50
90.0
  0
ENDBLK
  5
1289D8
  8
0
  0
BLOCK
  8
0
  2
*U114
 70
     1
 10
0.0
 20
0.0
 30
0.0
  3
*U114
  1

  0
TEXT
  5
1289DA
  8
SLIM
 10
27.0
 20
21.0476190476190403
 30
0.0
 40
26.0
  1
50
 50
270.0
  0
ENDBLK
  5
1289DC
  8
0
  0
BLOCK
  8
0
  2
*U115
 70
     1
 10
0.0
 20
0.0
 30
0.0
  3
*U115
  1

  0
TEXT
  5
1289DE
  8
SLIM
 10
27.0
 20
21.047619047619051
 30
0.0
 40
26.0
  1
75
 50
270.0
  0
ENDBLK
  5
1289E0
  8
0
  0
BLOCK
  8
0
  2
*U116
 70
     1
 10
0.0
 20
0.0
 30
0.0
  3
*U116
  1

  0
TEXT
  5
1289E2
  8
SLIM
 10
27.0
 20
21.0476190476190403
 30
0.0
 40
26.0
  1
65
 50
270.0
  0
ENDBLK
  5
1289E4
  8
0
  0
BLOCK
  8
0
  2
*U117
 70
     1
 10
0.0
 20
0.0
 30
0.0
  3
*U117
  1

  0
TEXT
  5
1289E6
  8
SLIM
 10
27.0
 20
21.0476190476190403
 30
0.0
 40
26.0
  1
50
 50
270.0
  0
ENDBLK
  5
1289E8
  8
0
  0
BLOCK
  8
0
  2
*U118
 70
     1
 10
0.0
 20
0.0
 30
0.0
  3
*U118
  1

  0
TEXT
  5
1289EA
  8
SLIM
 10
27.0
 20
21.047619047619051
 30
0.0
 40
26.0
  1
75
 50
270.0
  0
ENDBLK
  5
1289EC
  8
0
  0
BLOCK
  8
0
  2
*U119
 70
     1
 10
0.0
 20
0.0
 30
0.0
  3
*U119
  1

  0
TEXT
  5
1289EE
  8
SLIM
 10
27.0
 20
21.0476190476190403
 30
0.0
 40
26.0
  1
65
 50
270.0
  0
ENDBLK
  5
1289F0
  8
0
  0
BLOCK
  8
0
  2
*U120
 70
     1
 10
0.0
 20
0.0
 30
0.0
  3
*U120
  1

  0
TEXT
  5
128A1C
  8
DIM
 10
2561.4285714285711038
 20
-3323.2081219844440056
 30
0.0
 40
32.0
  1
C
 41
0.75
  0
ENDBLK
  5
128A1E
  8
0
  0
BLOCK
  8
0
  2
*U121
 70
     1
 10
0.0
 20
0.0
 30
0.0
  3
*U121
  1

  0
TEXT
  5
128A20
  8
DIM
 10
2707.8409284037338693
 20
-3850.9999999999968168
 30
0.0
 40
32.0
  1
B
 50
90.0
 41
0.75
  0
ENDBLK
  5
128A22
  8
0
  0
BLOCK
  8
0
  2
*U122
 70
     1
 10
0.0
 20
0.0
 30
0.0
  3
*U122
  1

  0
TEXT
  5
128A24
  8
DIM
 10
2709.4796205944589929
 20
-3469.1428571428527903
 30
0.0
 40
32.0
  1
A
 50
90.0
 41
0.75
  0
ENDBLK
  5
128A26
  8
0
  0
BLOCK
  8
0
  2
*U123
 70
     1
 10
0.0
 20
0.0
 30
0.0
  3
*U123
  1

  0
TEXT
  5
128A28
  8
DIM
 10
4334.1164560757752042
 20
-1253.7428571428561099
 30
0.0
 40
32.0
  1
m（シンドカット）
 50
90.0
 41
0.75
  0
ENDBLK
  5
128A2A
  8
0
  0
BLOCK
  8
0
  2
*U124
 70
     1
 10
0.0
 20
0.0
 30
0.0
  3
*U124
  1

  0
TEXT
  5
128A2C
  8
SLIM
 10
158.9523809524228
 20
-130.0000000001718945
 30
0.0
 40
26.0
  1
50
  0
ENDBLK
  5
128A2E
  8
0
  0
BLOCK
  8
0
  2
*U125
 70
     1
 10
0.0
 20
0.0
 30
0.0
  3
*U125
  1

  0
TEXT
  5
128A44
  8
DIM
 10
2700.4245816727589045
 20
-868.9999999999951115
 30
0.0
 40
32.0
  1
P
 50
90.0
 41
0.75
  0
ENDBLK
  5
128A46
  8
0
  0
BLOCK
  8
0
  2
*U126
 70
     1
 10
0.0
 20
0.0
 30
0.0
  3
*U126
  1

  0
TEXT
  5
128A48
  8
DIM
 10
4700.4245816727607234
 20
-868.9999999999957936
 30
0.0
 40
32.0
  1
P
 50
90.0
 41
0.75
  0
ENDBLK
  5
128A4A
  8
0
  0
BLOCK
  8
0
  2
*U127
 70
     1
 10
0.0
 20
0.0
 30
0.0
  3
*U127
  1

  0
TEXT
  5
128A4C
  8
SLIM
 10
617.9999999998781277
 20
-974.952380952381759
 30
0.0
 40
26.0
  1
65
 50
270.0
  0
ENDBLK
  5
128A4E
  8
0
  0
BLOCK
  8
0
  2
*U128
 70
     1
 10
0.0
 20
0.0
 30
0.0
  3
*U128
  1

  0
TEXT
  5
128A50
  8
SLIM
 10
258.0
 20
-1438.9523809522229385
 30
0.0
 40
26.0
  1
75
 50
270.0
  0
ENDBLK
  5
128A52
  8
0
  0
BLOCK
  8
0
  2
*U129
 70
     1
 10
0.0
 20
0.0
 30
0.0
  3
*U129
  1

  0
TEXT
  5
128A54
  8
SLIM
 10
258.0
 20
-974.952380952381759
 30
0.0
 40
26.0
  1
50
 50
270.0
  0
ENDBLK
  5
128A56
  8
0
  0
ENDSEC
  0
SECTION
  2
ENTITIES
  0
LINE
  5
11273E
  8
OBJECT
 10
2325.0
 20
-3864.9999999999968168
 30
0.0
 11
5075.0
 21
-3864.9999999999968168
 31
0.0
  0
LINE
  5
11412B
  8
SLIM
 10
3256.0
 20
-2922.5000160472709467
 30
0.0
 11
3256.0
 21
-3252.5000160472709467
 31
0.0
  0
LINE
  5
11412C
  8
SLIM
 10
3380.0
 20
-2922.5000160472709467
 30
0.0
 11
3380.0
 21
-3252.5000160472709467
 31
0.0
  0
LINE
  5
11412D
  8
SLIM
 10
3510.0
 20
-2982.5000160472700372
 30
0.0
 11
3510.0
 21
-3252.5000160472709467
 31
0.0
  0
LINE
  5
11412E
  8
SLIM
 10
3640.0
 20
-2982.5000160472700372
 30
0.0
 11
3640.0
 21
-3252.5000160472709467
 31
0.0
  0
LINE
  5
11412F
  8
SLIM
 10
3770.0
 20
-3252.5000160472709467
 30
0.0
 11
3770.0
 21
-2922.5000160472709467
 31
0.0
  0
LINE
  5
114131
  8
SLIM
 10
3770.0
 20
-2922.5000160472709467
 30
0.0
 11
3256.0
 21
-2922.5000160472709467
 31
0.0
  0
LINE
  5
114132
  8
SLIM
 10
3769.9999999999990905
 20
-2982.5000160472700372
 30
0.0
 11
3380.0
 21
-2982.5000160472700372
 31
0.0
  0
LINE
  5
114133
  8
SLIM
 10
3770.0
 20
-3042.5000160472709467
 30
0.0
 11
3256.0
 21
-3042.5000160472709467
 31
0.0
  0
LINE
  5
114134
  8
SLIM
 10
3770.0
 20
-3112.5000160472709467
 30
0.0
 11
3256.0
 21
-3112.5000160472709467
 31
0.0
  0
LINE
  5
114135
  8
SLIM
 10
3770.0
 20
-3182.5000160472709467
 30
0.0
 11
3256.0
 21
-3182.5000160472709467
 31
0.0
  0
LINE
  5
114136
  8
SLIM
 10
3770.0
 20
-3252.5000160472709467
 30
0.0
 11
3256.0
 21
-3252.5000160472709467
 31
0.0
  0
LINE
  5
11414B
  8
SLIM
 10
3380.0
 20
-3042.5000160472709467
 30
0.0
 11
3255.9999722746579209
 21
-2922.5000000000009095
 31
0.0
  0
LINE
  5
1238B4
  8
CENTER
 10
2579.9999999999990905
 20
-3459.9999999999968168
 30
0.0
 11
2409.9999999999990905
 21
-3459.9999999999968168
 31
0.0
1001
ACDBBLOCKREPETAG
1070
     1
1071
       14
1005
122545
  0
LINE
  5
1238B5
  8
CENTER
 10
2500.0
 20
-3549.9999999999968168
 30
0.0
 11
2500.0
 21
-3369.9999999999968168
 31
0.0
1001
ACDBBLOCKREPETAG
1070
     1
1071
       15
1005
122546
  0
CIRCLE
  5
1238B6
  8
OBJECT
 10
2500.0
 20
-3459.9999999999968168
 30
0.0
 40
70.0
1001
ACDBBLOCKREPETAG
1070
     1
1071
       16
1005
122547
  0
CIRCLE
  5
1238B7
  8
OBJECT
 10
2500.0
 20
-3459.9999999999968168
 30
0.0
 40
75.0
1001
ACDBBLOCKREPETAG
1070
     1
1071
       17
1005
122548
  0
LINE
  5
123927
  8
CENTER
 10
2500.0
 20
-3644.999999999998181
 30
0.0
 11
2500.0
 21
-3891.999999999998181
 31
0.0
1001
ACDBBLOCKREPETAG
1070
     1
1071
       25
1005
123927
  0
LINE
  5
123928
  8
OBJECT
 10
2425.0
 20
-3659.9999999999968168
 30
0.0
 11
2425.0
 21
-3879.999999999998181
 31
0.0
1001
ACDBBLOCKREPETAG
1070
     1
1071
       26
1005
123928
  0
LINE
  5
12392C
  8
OBJECT
 10
2575.0
 20
-3659.9999999999968168
 30
0.0
 11
2575.0
 21
-3756.5000000000618456
 31
0.0
1001
ACDBBLOCKREPETAG
1070
     1
1071
       34
1005
12392C
  0
LINE
  5
123A5C
  8
OBJECT
 10
2575.0
 20
-3862.4999999999990905
 30
0.0
 11
2575.0
 21
-3879.999999999998181
 31
0.0
1001
ACDBBLOCKREPETAG
1070
     1
1071
       34
1005
12392C
  0
LINE
  5
123A5E
  8
CENTER
 10
2900.0
 20
-3644.999999999998181
 30
0.0
 11
2900.0
 21
-3891.999999999998181
 31
0.0
1001
ACDBBLOCKREPETAG
1070
     1
1071
       25
1005
123927
  0
LINE
  5
123A5F
  8
OBJECT
 10
2825.0
 20
-3659.9999999999968168
 30
0.0
 11
2825.0
 21
-3879.999999999998181
 31
0.0
1001
ACDBBLOCKREPETAG
1070
     1
1071
       26
1005
123928
  0
LINE
  5
123A60
  8
OBJECT
 10
2975.0
 20
-3659.9999999999968168
 30
0.0
 11
2975.0
 21
-3879.999999999998181
 31
0.0
1001
ACDBBLOCKREPETAG
1070
     1
1071
       34
1005
12392C
  0
LINE
  5
123AD2
  8
CENTER
 10
3579.9999999999990905
 20
-3459.9999999999968168
 30
0.0
 11
3410.0
 21
-3459.9999999999968168
 31
0.0
1001
ACDBBLOCKREPETAG
1070
     1
1071
       14
1005
122545
  0
LINE
  5
123AD3
  8
CENTER
 10
3500.0
 20
-3549.9999999999968168
 30
0.0
 11
3500.0
 21
-3369.9999999999968168
 31
0.0
1001
ACDBBLOCKREPETAG
1070
     1
1071
       15
1005
122546
  0
CIRCLE
  5
123AD4
  8
OBJECT
 10
3500.0
 20
-3459.9999999999968168
 30
0.0
 40
70.0
1001
ACDBBLOCKREPETAG
1070
     1
1071
       16
1005
122547
  0
CIRCLE
  5
123AD5
  8
OBJECT
 10
3500.0
 20
-3459.9999999999968168
 30
0.0
 40
75.0
1001
ACDBBLOCKREPETAG
1070
     1
1071
       17
1005
122548
  0
LINE
  5
123ADD
  8
CENTER
 10
3500.0
 20
-3644.999999999998181
 30
0.0
 11
3500.0
 21
-3891.999999999998181
 31
0.0
1001
ACDBBLOCKREPETAG
1070
     1
1071
       25
1005
123927
  0
LINE
  5
123ADE
  8
OBJECT
 10
3424.9999999999990905
 20
-3659.9999999999968168
 30
0.0
 11
3424.9999999999990905
 21
-3879.999999999998181
 31
0.0
1001
ACDBBLOCKREPETAG
1070
     1
1071
       26
1005
123928
  0
LINE
  5
123ADF
  8
OBJECT
 10
3574.9999999999990905
 20
-3659.9999999999968168
 30
0.0
 11
3574.9999999999990905
 21
-3756.5000000000618456
 31
0.0
1001
ACDBBLOCKREPETAG
1070
     1
1071
       34
1005
12392C
  0
LINE
  5
123AE0
  8
OBJECT
 10
3574.9999999999990905
 20
-3862.4999999999990905
 30
0.0
 11
3574.9999999999990905
 21
-3879.999999999998181
 31
0.0
1001
ACDBBLOCKREPETAG
1070
     1
1071
       34
1005
12392C
  0
LINE
  5
123AE8
  8
CENTER
 10
3900.0
 20
-3644.999999999998181
 30
0.0
 11
3900.0
 21
-3891.999999999998181
 31
0.0
1001
ACDBBLOCKREPETAG
1070
     1
1071
       25
1005
123927
  0
LINE
  5
123AE9
  8
OBJECT
 10
3824.9999999999990905
 20
-3659.9999999999968168
 30
0.0
 11
3824.9999999999990905
 21
-3879.999999999998181
 31
0.0
1001
ACDBBLOCKREPETAG
1070
     1
1071
       26
1005
123928
  0
LINE
  5
123AEA
  8
OBJECT
 10
3975.0
 20
-3659.9999999999968168
 30
0.0
 11
3975.0
 21
-3879.999999999998181
 31
0.0
1001
ACDBBLOCKREPETAG
1070
     1
1071
       34
1005
12392C
  0
LINE
  5
123B38
  8
CENTER
 10
4579.9999999999990905
 20
-3459.9999999999968168
 30
0.0
 11
4409.9999999999990905
 21
-3459.9999999999968168
 31
0.0
1001
ACDBBLOCKREPETAG
1070
     1
1071
       14
1005
122545
  0
LINE
  5
123B39
  8
CENTER
 10
4499.9999999999990905
 20
-3549.9999999999968168
 30
0.0
 11
4499.9999999999990905
 21
-3369.9999999999968168
 31
0.0
1001
ACDBBLOCKREPETAG
1070
     1
1071
       15
1005
122546
  0
CIRCLE
  5
123B3A
  8
OBJECT
 10
4499.9999999999990905
 20
-3459.9999999999968168
 30
0.0
 40
70.0
1001
ACDBBLOCKREPETAG
1070
     1
1071
       16
1005
122547
  0
CIRCLE
  5
123B3B
  8
OBJECT
 10
4499.9999999999990905
 20
-3459.9999999999968168
 30
0.0
 40
75.0
1001
ACDBBLOCKREPETAG
1070
     1
1071
       17
1005
122548
  0
LINE
  5
123B43
  8
CENTER
 10
4500.0
 20
-3644.999999999998181
 30
0.0
 11
4500.0
 21
-3891.999999999998181
 31
0.0
1001
ACDBBLOCKREPETAG
1070
     1
1071
       25
1005
123927
  0
LINE
  5
123B44
  8
OBJECT
 10
4425.0
 20
-3659.9999999999968168
 30
0.0
 11
4425.0
 21
-3879.999999999998181
 31
0.0
1001
ACDBBLOCKREPETAG
1070
     1
1071
       26
1005
123928
  0
LINE
  5
123B45
  8
OBJECT
 10
4575.0
 20
-3659.9999999999968168
 30
0.0
 11
4575.0
 21
-3756.5000000000618456
 31
0.0
1001
ACDBBLOCKREPETAG
1070
     1
1071
       34
1005
12392C
  0
LINE
  5
123B46
  8
OBJECT
 10
4575.0
 20
-3862.4999999999990905
 30
0.0
 11
4575.0
 21
-3879.999999999998181
 31
0.0
1001
ACDBBLOCKREPETAG
1070
     1
1071
       34
1005
12392C
  0
LINE
  5
123B4E
  8
CENTER
 10
4900.0
 20
-3644.999999999998181
 30
0.0
 11
4900.0
 21
-3891.999999999998181
 31
0.0
1001
ACDBBLOCKREPETAG
1070
     1
1071
       25
1005
123927
  0
LINE
  5
123B4F
  8
OBJECT
 10
4825.0
 20
-3659.9999999999968168
 30
0.0
 11
4825.0
 21
-3879.999999999998181
 31
0.0
1001
ACDBBLOCKREPETAG
1070
     1
1071
       26
1005
123928
  0
LINE
  5
123B50
  8
OBJECT
 10
4975.0
 20
-3659.9999999999968168
 30
0.0
 11
4974.9999999999990905
 21
-3879.999999999998181
 31
0.0
1001
ACDBBLOCKREPETAG
1070
     1
1071
       34
1005
12392C
  0
POINT
  5
124C02
  8
DOTS
 10
2500.0
 20
-3459.9999999999968168
 30
0.0
  0
POINT
  5
124C03
  8
DOTS
 10
2500.0
 20
-3864.9999999999968168
 30
0.0
  0
POINT
  5
124C05
  8
DOTS
 10
3500.0
 20
-3864.9999999999968168
 30
0.0
  0
POINT
  5
124C07
  8
DOTS
 10
3500.0
 20
-3459.9999999999968168
 30
0.0
  0
POINT
  5
124C08
  8
DOTS
 10
4499.9999999999990905
 20
-3459.9999999999968168
 30
0.0
  0
POINT
  5
124C09
  8
DOTS
 10
4499.9999999999990905
 20
-3864.9999999999968168
 30
0.0
  0
LINE
  5
127280
  8
SLIM
 10
5454.0
 20
-692.9999999999957936
 30
0.0
 11
5454.0
 21
-1364.9999999999959073
 31
0.0
  0
LINE
  5
127281
  8
SLIM
 10
5602.0
 20
-692.9999999999957936
 30
0.0
 11
5602.0
 21
-1364.9999999999959073
 31
0.0
  0
LINE
  5
127282
  8
SLIM
 10
5350.0
 20
-1364.9999999999959073
 30
0.0
 11
5350.0
 21
-692.9999999999957936
 31
0.0
  0
LINE
  5
127283
  8
SLIM
 10
5602.0
 20
-692.9999999999957936
 30
0.0
 11
5350.0
 21
-692.9999999999957936
 31
0.0
  0
LINE
  5
127286
  8
SLIM
 10
5602.0
 20
-740.9999999999962483
 30
0.0
 11
5350.0
 21
-740.9999999999962483
 31
0.0
  0
LINE
  5
127287
  8
SLIM
 10
5602.0
 20
-788.999999999996362
 30
0.0
 11
5350.0
 21
-788.999999999996362
 31
0.0
  0
LINE
  5
127288
  8
SLIM
 10
5602.0
 20
-836.9999999999962483
 30
0.0
 11
5350.0
 21
-836.9999999999962483
 31
0.0
  0
LINE
  5
12728E
  8
SLIM
 10
5602.0
 20
-884.999999999996362
 30
0.0
 11
5350.0
 21
-884.999999999996362
 31
0.0
  0
LINE
  5
127291
  8
SLIM
 10
5602.0
 20
-932.999999999996362
 30
0.0
 11
5350.0
 21
-932.999999999996362
 31
0.0
  0
LINE
  5
127294
  8
SLIM
 10
5602.0
 20
-980.9999999999962483
 30
0.0
 11
5350.0
 21
-980.9999999999962483
 31
0.0
  0
LINE
  5
127297
  8
SLIM
 10
5602.0
 20
-1028.9999999999959073
 30
0.0
 11
5350.0
 21
-1028.9999999999959073
 31
0.0
  0
LINE
  5
12729A
  8
SLIM
 10
5602.0
 20
-1076.9999999999959073
 30
0.0
 11
5350.0
 21
-1076.9999999999959073
 31
0.0
  0
LINE
  5
12729C
  8
SLIM
 10
5602.0
 20
-1124.9999999999959073
 30
0.0
 11
5350.0
 21
-1124.9999999999959073
 31
0.0
  0
LINE
  5
12729E
  8
SLIM
 10
5602.0
 20
-1172.9999999999959073
 30
0.0
 11
5350.0
 21
-1172.9999999999959073
 31
0.0
  0
LINE
  5
1272A0
  8
SLIM
 10
5602.0
 20
-1220.9999999999959073
 30
0.0
 11
5350.0
 21
-1220.9999999999959073
 31
0.0
  0
LINE
  5
1272A1
  8
SLIM
 10
5602.0
 20
-1268.9999999999959073
 30
0.0
 11
5350.0
 21
-1268.9999999999959073
 31
0.0
  0
LINE
  5
1272A3
  8
SLIM
 10
5602.0
 20
-1316.9999999999959073
 30
0.0
 11
5350.0
 21
-1316.9999999999959073
 31
0.0
  0
LINE
  5
1272A4
  8
SLIM
 10
5602.0
 20
-1364.9999999999959073
 30
0.0
 11
5350.0
 21
-1364.9999999999959073
 31
0.0
  0
LINE
  5
1284BA
  8
CENTER
 10
4580.0
 20
-199.9999999999990905
 30
0.0
 11
4400.0
 21
-199.9999999999990905
 31
0.0
1001
ACDBBLOCKREPETAG
1070
     1
1071
       14
1005
0
  0
LINE
  5
1284BB
  8
CENTER
 10
4500.0
 20
-294.9999999999990905
 30
0.0
 11
4500.0
 21
-99.9999999999990905
 31
0.0
1001
ACDBBLOCKREPETAG
1070
     1
1071
       15
1005
0
  0
CIRCLE
  5
1284BC
  8
OBJECT
 10
4500.0
 20
-199.9999999999990905
 30
0.0
 40
53.5
1001
ACDBBLOCKREPETAG
1070
     1
1071
      344
1005
0
  0
POINT
  5
1284BD
  8
DOTS
 10
4500.0
 20
-199.9999999999990905
 30
0.0
 50
270.0
1001
ACDBBLOCKREPETAG
1070
     1
1071
      362
1005
0
  0
CIRCLE
  5
1284BE
  8
OBJECT
 10
4500.0
 20
-199.9999999999990905
 30
0.0
 40
70.0
1001
ACDBBLOCKREPETAG
1070
     1
1071
       16
1005
0
  0
ARC
  5
1284BF
  8
OBJECT
 10
4500.0
 20
-199.9999999999990905
 30
0.0
 40
80.0
 50
50.8050325738946924
 51
309.1949674259710719
1001
ACDBBLOCKREPETAG
1070
     1
1071
       18
1005
0
  0
CIRCLE
  5
1284C0
  8
OBJECT
 10
4500.0
 20
-199.9999999999990905
 30
0.0
 40
77.0
1001
ACDBBLOCKREPETAG
1070
     1
1071
       17
1005
0
  0
LINE
  5
1284C1
  8
OBJECT
 10
4545.6618002273244201
 20
-261.9999999999990905
 30
0.0
 11
4580.0
 21
-261.9999999999990905
 31
0.0
1001
ACDBBLOCKREPETAG
1070
     1
1071
       20
1005
0
  0
LINE
  5
1284C2
  8
OBJECT
 10
4545.6618002273244201
 20
-137.9999999999990905
 30
0.0
 11
4580.0
 21
-137.9999999999990905
 31
0.0
1001
ACDBBLOCKREPETAG
1070
     1
1071
       19
1005
0
  0
ARC
  5
1284D4
  8
OBJECT
 10
4500.0
 20
-199.9999999999990905
 30
0.0
 40
85.0
 50
46.8371028597314591
 51
234.3837932714974102
1001
ACDBBLOCKREPETAG
1070
     1
1071
       18
1005
0
  0
ARC
  5
1284D5
  8
OBJECT
 10
4500.0
 20
-199.9999999999990905
 30
0.0
 40
85.0
 50
305.6162067285026183
 51
313.1628971402686261
1001
ACDBBLOCKREPETAG
1070
     1
1071
       18
1005
0
  0
CIRCLE
  5
1284EE
  8
OBJECT
 10
2500.0
 20
-199.9999999999990905
 30
0.0
 40
53.5
1001
ACDBBLOCKREPETAG
1070
     1
1071
      344
1005
0
  0
POINT
  5
1284EF
  8
DOTS
 10
2500.0
 20
-199.9999999999990905
 30
0.0
 50
270.0
1001
ACDBBLOCKREPETAG
1070
     1
1071
      362
1005
0
  0
LINE
  5
1284F0
  8
CENTER
 10
2580.0
 20
-199.9999999999990905
 30
0.0
 11
2405.0
 21
-199.9999999999990905
 31
0.0
1001
ACDBBLOCKREPETAG
1070
     1
1071
       14
1005
0
  0
LINE
  5
1284F1
  8
CENTER
 10
2500.0
 20
-294.9999999999990905
 30
0.0
 11
2500.0
 21
-104.9999999999991047
 31
0.0
1001
ACDBBLOCKREPETAG
1070
     1
1071
       15
1005
0
  0
CIRCLE
  5
1284F2
  8
OBJECT
 10
2500.0
 20
-199.9999999999990905
 30
0.0
 40
70.0
1001
ACDBBLOCKREPETAG
1070
     1
1071
       16
1005
0
  0
CIRCLE
  5
1284F3
  8
OBJECT
 10
2500.0
 20
-199.9999999999990905
 30
0.0
 40
77.0
1001
ACDBBLOCKREPETAG
1070
     1
1071
       17
1005
0
  0
ARC
  5
1284F4
  8
OBJECT
 10
2500.0
 20
-199.9999999999990905
 30
0.0
 40
80.0
 50
50.8050325738946924
 51
309.1949674259710719
1001
ACDBBLOCKREPETAG
1070
     1
1071
       18
1005
0
  0
LINE
  5
1284F5
  8
OBJECT
 10
2545.6618002273248749
 20
-137.9999999999990905
 30
0.0
 11
2580.0
 21
-137.9999999999990905
 31
0.0
1001
ACDBBLOCKREPETAG
1070
     1
1071
       19
1005
0
  0
LINE
  5
1284F6
  8
OBJECT
 10
2545.6618002273248749
 20
-261.9999999999990905
 30
0.0
 11
2580.0
 21
-261.9999999999990905
 31
0.0
1001
ACDBBLOCKREPETAG
1070
     1
1071
       20
1005
0
  0
LINE
  5
128500
  8
OBJECT
 10
2562.0
 20
-332.9999999999990905
 30
0.0
 11
2562.0
 21
-339.9999999999990905
 31
0.0
1001
ACDBBLOCKREPETAG
1070
     1
1071
       38
1005
128500
  0
LINE
  5
128501
  8
OBJECT
 10
2562.0
 20
-339.9999999999990905
 30
0.0
 11
2438.0
 21
-339.9999999999990905
 31
0.0
1001
ACDBBLOCKREPETAG
1070
     1
1071
       39
1005
128501
  0
LINE
  5
128502
  8
OBJECT
 10
2438.0
 20
-339.9999999999990905
 30
0.0
 11
2438.0
 21
-332.9999999999990905
 31
0.0
1001
ACDBBLOCKREPETAG
1070
     1
1071
       40
1005
128502
  0
LINE
  5
128503
  8
OBJECT
 10
2438.0
 20
-332.9999999999990905
 30
0.0
 11
2562.0
 21
-332.9999999999990905
 31
0.0
1001
ACDBBLOCKREPETAG
1070
     1
1071
       41
1005
128503
  0
LINE
  5
128504
  8
CENTER
 10
2500.0
 20
-354.9999999999990905
 30
0.0
 11
2500.0
 21
-279.9999999999973284
 31
0.0
1001
ACDBBLOCKREPETAG
1070
     1
1071
       42
1005
128504
  0
LINE
  5
128505
  8
OBJECT
 10
2559.0
 20
-332.9999999999990905
 30
0.0
 11
2559.0
 21
-296.9999999999973284
 31
0.0
1001
ACDBBLOCKREPETAG
1070
     1
1071
       43
1005
128505
  0
LINE
  5
128506
  8
OBJECT
 10
2559.0
 20
-296.9999999999973284
 30
0.0
 11
2441.0
 21
-296.9999999999990905
 31
0.0
1001
ACDBBLOCKREPETAG
1070
     1
1071
       44
1005
128506
  0
LINE
  5
128507
  8
OBJECT
 10
2441.0
 20
-296.9999999999990905
 30
0.0
 11
2441.0
 21
-332.9999999999990905
 31
0.0
1001
ACDBBLOCKREPETAG
1070
     1
1071
       45
1005
128507
  0
LINE
  5
128508
  8
OBJECT
 10
2554.5
 20
-292.9999999999973284
 30
0.0
 11
2554.5
 21
-282.4999999999972147
 31
0.0
1001
ACDBBLOCKREPETAG
1070
     1
1071
       46
1005
128508
  0
LINE
  5
128509
  8
OBJECT
 10
2445.5
 20
-282.4999999999990905
 30
0.0
 11
2445.5
 21
-292.9999999999990905
 31
0.0
1001
ACDBBLOCKREPETAG
1070
     1
1071
       47
1005
128509
  0
LINE
  5
12850A
  8
OBJECT
 10
2445.5
 20
-292.9999999999990905
 30
0.0
 11
2554.5
 21
-292.9999999999973284
 31
0.0
1001
ACDBBLOCKREPETAG
1070
     1
1071
       48
1005
12850A
  0
LINE
  5
12850B
  8
OBJECT
 10
2559.0
 20
-296.9999999999973284
 30
0.0
 11
2554.5
 21
-292.9999999999973284
 31
0.0
1001
ACDBBLOCKREPETAG
1070
     1
1071
       49
1005
12850B
  0
LINE
  5
12850C
  8
OBJECT
 10
2441.0
 20
-296.9999999999990905
 30
0.0
 11
2445.5
 21
-292.9999999999990905
 31
0.0
1001
ACDBBLOCKREPETAG
1070
     1
1071
       50
1005
12850C
  0
LINE
  5
12850D
  8
HIDDEN
 10
2544.5
 20
-287.9999999999973284
 30
0.0
 11
2455.5
 21
-287.9999999999990905
 31
0.0
1001
ACDBBLOCKREPETAG
1070
     1
1071
       51
1005
12850D
  0
LINE
  5
12850E
  8
OBJECT
 10
2549.5
 20
-277.4999999999973284
 30
0.0
 11
2549.5
 21
-262.8470365252005081
 31
0.0
1001
ACDBBLOCKREPETAG
1070
     1
1071
       52
1005
12850E
  0
LINE
  5
12850F
  8
OBJECT
 10
2450.5
 20
-277.4999999999990905
 30
0.0
 11
2450.5
 21
-262.8470365252005081
 31
0.0
1001
ACDBBLOCKREPETAG
1070
     1
1071
       53
1005
12850F
  0
LINE
  5
128510
  8
OBJECT
 10
2554.5
 20
-282.4999999999972147
 30
0.0
 11
2445.5
 21
-282.4999999999990905
 31
0.0
1001
ACDBBLOCKREPETAG
1070
     1
1071
       54
1005
128510
  0
LINE
  5
128511
  8
OBJECT
 10
2549.5
 20
-277.4999999999973284
 30
0.0
 11
2519.843134832989108
 21
-277.4999999999978968
 31
0.0
1001
ACDBBLOCKREPETAG
1070
     1
1071
       55
1005
128511
  0
LINE
  5
128512
  8
OBJECT
 10
2554.5
 20
-282.4999999999972147
 30
0.0
 11
2549.5
 21
-277.4999999999973284
 31
0.0
1001
ACDBBLOCKREPETAG
1070
     1
1071
       56
1005
128512
  0
LINE
  5
128513
  8
OBJECT
 10
2450.5
 20
-277.4999999999990905
 30
0.0
 11
2445.5000000000040927
 21
-282.4999999999990905
 31
0.0
1001
ACDBBLOCKREPETAG
1070
     1
1071
       57
1005
128513
  0
LINE
  5
128514
  8
OBJECT
 10
2480.1568651670140753
 20
-277.4999999999985789
 30
0.0
 11
2450.5
 21
-277.4999999999990905
 31
0.0
1001
ACDBBLOCKREPETAG
1070
     1
1071
       55
1005
128511
  0
LINE
  5
128515
  8
OBJECT
 10
4562.0
 20
-332.9999999999990905
 30
0.0
 11
4562.0
 21
-339.9999999999990905
 31
0.0
1001
ACDBBLOCKREPETAG
1070
     1
1071
       38
1005
128500
  0
LINE
  5
128516
  8
OBJECT
 10
4562.0
 20
-339.9999999999990905
 30
0.0
 11
4438.0
 21
-339.9999999999990905
 31
0.0
1001
ACDBBLOCKREPETAG
1070
     1
1071
       39
1005
128501
  0
LINE
  5
128517
  8
OBJECT
 10
4438.0
 20
-339.9999999999990905
 30
0.0
 11
4438.0
 21
-332.9999999999990905
 31
0.0
1001
ACDBBLOCKREPETAG
1070
     1
1071
       40
1005
128502
  0
LINE
  5
128518
  8
OBJECT
 10
4438.0
 20
-332.9999999999990905
 30
0.0
 11
4562.0
 21
-332.9999999999990905
 31
0.0
1001
ACDBBLOCKREPETAG
1070
     1
1071
       41
1005
128503
  0
LINE
  5
128519
  8
CENTER
 10
4500.0
 20
-354.9999999999990905
 30
0.0
 11
4500.0
 21
-279.9999999999973284
 31
0.0
1001
ACDBBLOCKREPETAG
1070
     1
1071
       42
1005
128504
  0
LINE
  5
12851A
  8
OBJECT
 10
4559.0
 20
-332.9999999999990905
 30
0.0
 11
4559.0
 21
-296.9999999999973284
 31
0.0
1001
ACDBBLOCKREPETAG
1070
     1
1071
       43
1005
128505
  0
LINE
  5
12851B
  8
OBJECT
 10
4559.0
 20
-296.9999999999973284
 30
0.0
 11
4441.0
 21
-296.9999999999990905
 31
0.0
1001
ACDBBLOCKREPETAG
1070
     1
1071
       44
1005
128506
  0
LINE
  5
12851C
  8
OBJECT
 10
4441.0
 20
-296.9999999999990905
 30
0.0
 11
4441.0
 21
-332.9999999999990905
 31
0.0
1001
ACDBBLOCKREPETAG
1070
     1
1071
       45
1005
128507
  0
LINE
  5
12851D
  8
OBJECT
 10
4554.4999999999990905
 20
-292.9999999999973284
 30
0.0
 11
4554.4999999999990905
 21
-282.4999999999972147
 31
0.0
1001
ACDBBLOCKREPETAG
1070
     1
1071
       46
1005
128508
  0
LINE
  5
12851E
  8
OBJECT
 10
4445.5
 20
-282.4999999999990905
 30
0.0
 11
4445.5
 21
-292.9999999999990905
 31
0.0
1001
ACDBBLOCKREPETAG
1070
     1
1071
       47
1005
128509
  0
LINE
  5
12851F
  8
OBJECT
 10
4445.5
 20
-292.9999999999990905
 30
0.0
 11
4554.4999999999990905
 21
-292.9999999999973284
 31
0.0
1001
ACDBBLOCKREPETAG
1070
     1
1071
       48
1005
12850A
  0
LINE
  5
128520
  8
OBJECT
 10
4559.0
 20
-296.9999999999973284
 30
0.0
 11
4554.4999999999990905
 21
-292.9999999999973284
 31
0.0
1001
ACDBBLOCKREPETAG
1070
     1
1071
       49
1005
12850B
  0
LINE
  5
128521
  8
OBJECT
 10
4441.0
 20
-296.9999999999990905
 30
0.0
 11
4445.5
 21
-292.9999999999990905
 31
0.0
1001
ACDBBLOCKREPETAG
1070
     1
1071
       50
1005
12850C
  0
LINE
  5
128522
  8
HIDDEN
 10
4544.5
 20
-287.9999999999973284
 30
0.0
 11
4455.4999999999990905
 21
-287.9999999999990905
 31
0.0
1001
ACDBBLOCKREPETAG
1070
     1
1071
       51
1005
12850D
  0
LINE
  5
128523
  8
OBJECT
 10
4549.5
 20
-277.4999999999973284
 30
0.0
 11
4549.5
 21
-262.8470365252005081
 31
0.0
1001
ACDBBLOCKREPETAG
1070
     1
1071
       52
1005
12850E
  0
LINE
  5
128524
  8
OBJECT
 10
4450.5
 20
-277.4999999999990905
 30
0.0
 11
4450.5
 21
-262.8470365252005081
 31
0.0
1001
ACDBBLOCKREPETAG
1070
     1
1071
       53
1005
12850F
  0
LINE
  5
128525
  8
OBJECT
 10
4554.4999999999990905
 20
-282.4999999999972147
 30
0.0
 11
4445.5
 21
-282.4999999999990905
 31
0.0
1001
ACDBBLOCKREPETAG
1070
     1
1071
       54
1005
128510
  0
LINE
  5
128526
  8
OBJECT
 10
4549.5
 20
-277.4999999999973284
 30
0.0
 11
4519.8431348329886532
 21
-277.4999999999978968
 31
0.0
1001
ACDBBLOCKREPETAG
1070
     1
1071
       55
1005
128511
  0
LINE
  5
128527
  8
OBJECT
 10
4480.1568651670131658
 20
-277.4999999999985789
 30
0.0
 11
4450.5
 21
-277.4999999999990905
 31
0.0
1001
ACDBBLOCKREPETAG
1070
     1
1071
       55
1005
128511
  0
LINE
  5
128528
  8
OBJECT
 10
4554.4999999999990905
 20
-282.4999999999972147
 30
0.0
 11
4549.5
 21
-277.4999999999973284
 31
0.0
1001
ACDBBLOCKREPETAG
1070
     1
1071
       56
1005
128512
  0
LINE
  5
128529
  8
OBJECT
 10
4450.5
 20
-277.4999999999990905
 30
0.0
 11
4445.5000000000027285
 21
-282.4999999999990905
 31
0.0
1001
ACDBBLOCKREPETAG
1070
     1
1071
       57
1005
128513
  0
LINE
  5
12852A
  8
OBJECT
 10
2425.0
 20
-769.9999999999943157
 30
0.0
 11
2425.0
 21
-1042.9999999999940883
 31
0.0
1001
ACDBBLOCKREPETAG
1070
     1
1071
        1
1005
12852A
  0
LINE
  5
12852B
  8
OBJECT
 10
2575.0
 20
-769.9999999999886313
 30
0.0
 11
2575.0
 21
-1042.9999999999940883
 31
0.0
1001
ACDBBLOCKREPETAG
1070
     1
1071
        3
1005
12852B
  0
LINE
  5
12852C
  8
CENTER
 10
2500.0
 20
-769.9999999999943157
 30
0.0
 11
2500.0
 21
-1054.9999999999940883
 31
0.0
1001
ACDBBLOCKREPETAG
1070
     1
1071
        6
1005
12852C
  0
LINE
  5
12852D
  8
OBJECT
 10
2420.0
 20
-1054.9999999999940883
 30
0.0
 11
2580.0
 21
-1054.9999999999940883
 31
0.0
1001
ACDBBLOCKREPETAG
1070
     1
1071
        7
1005
12852D
  0
LINE
  5
12852E
  8
OBJECT
 10
2420.0
 20
-1042.9999999999940883
 30
0.0
 11
2580.0
 21
-1042.9999999999940883
 31
0.0
1001
ACDBBLOCKREPETAG
1070
     1
1071
        8
1005
12852E
  0
LINE
  5
12852F
  8
OBJECT
 10
2420.0
 20
-1042.9999999999940883
 30
0.0
 11
2420.0
 21
-1054.9999999999940883
 31
0.0
1001
ACDBBLOCKREPETAG
1070
     1
1071
        9
1005
12852F
  0
LINE
  5
128530
  8
OBJECT
 10
2580.0
 20
-1042.9999999999940883
 30
0.0
 11
2580.0
 21
-1054.9999999999940883
 31
0.0
1001
ACDBBLOCKREPETAG
1070
     1
1071
       10
1005
128530
  0
POINT
  5
128536
  8
DOTS
 10
2500.0
 20
-1010.9999999999939746
 30
0.0
1001
ACDBBLOCKREPETAG
1070
     1
1071
       23
1005
128536
  0
LINE
  5
128537
  8
OBJECT
 10
2925.0
 20
-769.9999999999943157
 30
0.0
 11
2925.0
 21
-902.5000000000597993
 31
0.0
1001
ACDBBLOCKREPETAG
1070
     1
1071
        1
1005
128537
  0
LINE
  5
128538
  8
OBJECT
 10
3075.0
 20
-769.9999999999886313
 30
0.0
 11
3075.0
 21
-1042.9999999999940883
 31
0.0
1001
ACDBBLOCKREPETAG
1070
     1
1071
        3
1005
128538
  0
LINE
  5
128539
  8
CENTER
 10
3000.0
 20
-769.9999999999943157
 30
0.0
 11
3000.0
 21
-1054.9999999999940883
 31
0.0
1001
ACDBBLOCKREPETAG
1070
     1
1071
        6
1005
128539
  0
LINE
  5
12853A
  8
OBJECT
 10
2920.0
 20
-1054.9999999999940883
 30
0.0
 11
3080.0
 21
-1054.9999999999940883
 31
0.0
1001
ACDBBLOCKREPETAG
1070
     1
1071
        7
1005
12853A
  0
LINE
  5
12853B
  8
OBJECT
 10
2920.0
 20
-1042.9999999999940883
 30
0.0
 11
3080.0
 21
-1042.9999999999940883
 31
0.0
1001
ACDBBLOCKREPETAG
1070
     1
1071
        8
1005
12853B
  0
LINE
  5
12853C
  8
OBJECT
 10
2920.0
 20
-1042.9999999999940883
 30
0.0
 11
2920.0
 21
-1054.9999999999940883
 31
0.0
1001
ACDBBLOCKREPETAG
1070
     1
1071
        9
1005
12853C
  0
LINE
  5
12853D
  8
OBJECT
 10
3080.0
 20
-1042.9999999999940883
 30
0.0
 11
3080.0
 21
-1054.9999999999940883
 31
0.0
1001
ACDBBLOCKREPETAG
1070
     1
1071
       10
1005
12853D
  0
LINE
  5
12853E
  8
OBJECT
 10
2925.0
 20
-1008.4999999999939746
 30
0.0
 11
2925.0
 21
-1042.9999999999940883
 31
0.0
1001
ACDBBLOCKREPETAG
1070
     1
1071
        1
1005
128537
  0
POINT
  5
12853F
  8
DOTS
 10
3000.0
 20
-1010.9999999999939746
 30
0.0
  0
LINE
  5
128540
  8
OBJECT
 10
2867.0
 20
-889.9999999999943157
 30
0.0
 11
2860.0
 21
-889.9999999999943157
 31
0.0
1001
ACDBBLOCKREPETAG
1070
     1
1071
       46
1005
128540
  0
LINE
  5
128541
  8
OBJECT
 10
2860.0
 20
-889.9999999999943157
 30
0.0
 11
2860.0
 21
-1010.9999999999939746
 31
0.0
1001
ACDBBLOCKREPETAG
1070
     1
1071
       47
1005
128541
  0
LINE
  5
128542
  8
OBJECT
 10
2867.0
 20
-1010.9999999999939746
 30
0.0
 11
2867.0
 21
-889.9999999999943157
 31
0.0
1001
ACDBBLOCKREPETAG
1070
     1
1071
       48
1005
128542
  0
LINE
  5
128543
  8
CENTER
 10
2845.0
 20
-951.999999999994202
 30
0.0
 11
2958.6550800869949853
 21
-952.0000000000597993
 31
0.0
1001
ACDBBLOCKREPETAG
1070
     1
1071
       49
1005
128543
  0
LINE
  5
128544
  8
OBJECT
 10
2867.0
 20
-892.999999999994202
 30
0.0
 11
2903.0
 21
-892.999999999994202
 31
0.0
1001
ACDBBLOCKREPETAG
1070
     1
1071
       50
1005
128544
  0
LINE
  5
128545
  8
OBJECT
 10
2903.0
 20
-892.999999999994202
 30
0.0
 11
2903.0
 21
-1010.9999999999939746
 31
0.0
1001
ACDBBLOCKREPETAG
1070
     1
1071
       51
1005
128545
  0
LINE
  5
128546
  8
OBJECT
 10
2903.0
 20
-1010.9999999999939746
 30
0.0
 11
2860.0
 21
-1010.9999999999939746
 31
0.0
1001
ACDBBLOCKREPETAG
1070
     1
1071
       52
1005
128546
  0
LINE
  5
128547
  8
OBJECT
 10
2907.0
 20
-897.499999999994202
 30
0.0
 11
2917.5
 21
-897.499999999994202
 31
0.0
1001
ACDBBLOCKREPETAG
1070
     1
1071
       53
1005
128547
  0
LINE
  5
128548
  8
OBJECT
 10
2917.5
 20
-1006.4999999999939746
 30
0.0
 11
2907.0
 21
-1006.4999999999939746
 31
0.0
1001
ACDBBLOCKREPETAG
1070
     1
1071
       54
1005
128548
  0
LINE
  5
128549
  8
OBJECT
 10
2907.0
 20
-1006.4999999999939746
 30
0.0
 11
2907.0
 21
-897.499999999994202
 31
0.0
1001
ACDBBLOCKREPETAG
1070
     1
1071
       55
1005
128549
  0
LINE
  5
12854A
  8
OBJECT
 10
2903.0
 20
-892.999999999994202
 30
0.0
 11
2907.0
 21
-897.499999999994202
 31
0.0
1001
ACDBBLOCKREPETAG
1070
     1
1071
       56
1005
12854A
  0
LINE
  5
12854B
  8
OBJECT
 10
2903.0
 20
-1010.9999999999939746
 30
0.0
 11
2907.0
 21
-1006.4999999999939746
 31
0.0
1001
ACDBBLOCKREPETAG
1070
     1
1071
       57
1005
12854B
  0
LINE
  5
12854C
  8
HIDDEN
 10
2912.0
 20
-907.4999999999944293
 30
0.0
 11
2912.0
 21
-996.4999999999943157
 31
0.0
1001
ACDBBLOCKREPETAG
1070
     1
1071
       58
1005
12854C
  0
ARC
  5
12854D
  8
OBJECT
 10
2835.1217271212258311
 20
-967.4095072612233253
 30
0.0
 40
110.866352283089995
 50
16.9596461956559708
 51
35.836572580700917
1001
ACDBBLOCKREPETAG
1070
     1
1071
       59
1005
12854D
  0
ARC
  5
12854E
  8
OBJECT
 10
2882.8640112230928025
 20
-952.2877497184432514
 30
0.0
 40
60.7917498803589709
 50
0.2712030171733364
 51
16.4527953477867683
1001
ACDBBLOCKREPETAG
1070
     1
1071
       60
1005
12854E
  0
ARC
  5
12854F
  8
OBJECT
 10
2882.8640043437521854
 20
-958.7122497598953714
 30
0.0
 40
60.7917567620948773
 50
343.5472205394784169
 51
359.7287965218548038
1001
ACDBBLOCKREPETAG
1070
     1
1071
       61
1005
12854F
  0
ARC
  5
128550
  8
OBJECT
 10
2835.1217271212258311
 20
-943.590492738830676
 30
0.0
 40
110.8663522830916008
 50
324.1634274192991256
 51
343.0403538043440221
1001
ACDBBLOCKREPETAG
1070
     1
1071
       62
1005
128550
  0
LINE
  5
128551
  8
OBJECT
 10
2943.6550800869958948
 20
-952.0000000000305818
 30
0.0
 11
2943.6550800869958948
 21
-959.0000000000270575
 31
0.0
1001
ACDBBLOCKREPETAG
1070
     1
1071
       63
1005
128551
  0
LINE
  5
128552
  8
OBJECT
 10
2925.0000000001641638
 20
-902.5000000002889919
 30
0.0
 11
2922.5000000001641638
 21
-902.5000000002889919
 31
0.0
1001
ACDBBLOCKREPETAG
1070
     1
1071
       65
1005
128552
  0
LINE
  5
128553
  8
OBJECT
 10
2925.0000000001678018
 20
-1008.4999999997650093
 30
0.0
 11
2920.5000000001668923
 21
-1008.4999999997650093
 31
0.0
1001
ACDBBLOCKREPETAG
1070
     1
1071
       66
1005
128553
  0
LINE
  5
128554
  8
OBJECT
 10
2920.5000000001668923
 20
-1008.4999999997650093
 30
0.0
 11
2922.5000000001641638
 21
-902.5000000002889919
 31
0.0
1001
ACDBBLOCKREPETAG
1070
     1
1071
       67
1005
128554
  0
LINE
  5
128555
  8
OBJECT
 10
2920.5000000001668923
 20
-1008.4999999997650093
 30
0.0
 11
2917.5
 21
-1006.4999999999939746
 31
0.0
1001
ACDBBLOCKREPETAG
1070
     1
1071
       68
1005
128555
  0
LINE
  5
128556
  8
OBJECT
 10
2917.5
 20
-1006.4999999999939746
 30
0.0
 11
2917.5
 21
-897.499999999994202
 31
0.0
1001
ACDBBLOCKREPETAG
1070
     1
1071
       69
1005
128556
  0
LINE
  5
128557
  8
OBJECT
 10
2917.5
 20
-897.499999999994202
 30
0.0
 11
2922.5000000001641638
 21
-902.5000000002889919
 31
0.0
1001
ACDBBLOCKREPETAG
1070
     1
1071
       70
1005
128557
  0
LINE
  5
1285AF
  8
CENTER
 10
2577.0
 20
-951.999999999994202
 30
0.0
 11
2423.0
 21
-951.999999999994202
 31
0.0
1001
ACDBBLOCKREPETAG
1070
     1
1071
       17
1005
1285AF
  0
CIRCLE
  5
1285B0
  8
OBJECT
 10
2500.0
 20
-951.999999999994202
 30
0.0
 40
41.5
1001
ACDBBLOCKREPETAG
1070
     1
1071
       18
1005
1285B0
  0
CIRCLE
  5
1285B1
  8
OBJECT
 10
2500.0
 20
-951.999999999994202
 30
0.0
 40
54.0
1001
ACDBBLOCKREPETAG
1070
     1
1071
       19
1005
1285B1
  0
ARC
  5
1285B2
  8
OBJECT
 10
2500.0
 20
-951.999999999994202
 30
0.0
 40
62.0
 50
287.8965511292091719
 51
252.1034488707907997
1001
ACDBBLOCKREPETAG
1070
     1
1071
       20
1005
1285B2
  0
LINE
  5
1285B3
  8
OBJECT
 10
2480.9474411167429935
 20
-1010.9999999999939746
 30
0.0
 11
2519.0525588832570065
 21
-1010.9999999999939746
 31
0.0
1001
ACDBBLOCKREPETAG
1070
     1
1071
       21
1005
1285B3
  0
LINE
  5
1285B5
  8
OBJECT
 10
4425.0
 20
-769.9999999999943157
 30
0.0
 11
4425.0
 21
-1042.9999999999940883
 31
0.0
1001
ACDBBLOCKREPETAG
1070
     1
1071
        1
1005
12852A
  0
LINE
  5
1285B6
  8
OBJECT
 10
4575.0
 20
-769.9999999999886313
 30
0.0
 11
4575.0
 21
-1042.9999999999940883
 31
0.0
1001
ACDBBLOCKREPETAG
1070
     1
1071
        3
1005
12852B
  0
LINE
  5
1285B7
  8
CENTER
 10
4500.0
 20
-769.9999999999943157
 30
0.0
 11
4500.0
 21
-1054.9999999999940883
 31
0.0
1001
ACDBBLOCKREPETAG
1070
     1
1071
        6
1005
12852C
  0
LINE
  5
1285B8
  8
OBJECT
 10
4420.0
 20
-1054.9999999999940883
 30
0.0
 11
4580.0
 21
-1054.9999999999940883
 31
0.0
1001
ACDBBLOCKREPETAG
1070
     1
1071
        7
1005
12852D
  0
LINE
  5
1285B9
  8
OBJECT
 10
4420.0
 20
-1042.9999999999940883
 30
0.0
 11
4580.0
 21
-1042.9999999999940883
 31
0.0
1001
ACDBBLOCKREPETAG
1070
     1
1071
        8
1005
12852E
  0
LINE
  5
1285BA
  8
OBJECT
 10
4420.0
 20
-1042.9999999999940883
 30
0.0
 11
4420.0
 21
-1054.9999999999940883
 31
0.0
1001
ACDBBLOCKREPETAG
1070
     1
1071
        9
1005
12852F
  0
LINE
  5
1285BB
  8
OBJECT
 10
4580.0
 20
-1042.9999999999940883
 30
0.0
 11
4580.0
 21
-1054.9999999999940883
 31
0.0
1001
ACDBBLOCKREPETAG
1070
     1
1071
       10
1005
128530
  0
POINT
  5
1285BC
  8
DOTS
 10
4500.0
 20
-1010.9999999999939746
 30
0.0
1001
ACDBBLOCKREPETAG
1070
     1
1071
       23
1005
128536
  0
LINE
  5
1285BD
  8
OBJECT
 10
4925.0
 20
-769.9999999999943157
 30
0.0
 11
4925.0
 21
-902.5000000000597993
 31
0.0
1001
ACDBBLOCKREPETAG
1070
     1
1071
        1
1005
128537
  0
LINE
  5
1285BE
  8
OBJECT
 10
5075.0
 20
-769.9999999999886313
 30
0.0
 11
5075.0
 21
-1042.9999999999940883
 31
0.0
1001
ACDBBLOCKREPETAG
1070
     1
1071
        3
1005
128538
  0
LINE
  5
1285BF
  8
CENTER
 10
5000.0
 20
-769.9999999999943157
 30
0.0
 11
5000.0
 21
-1054.9999999999940883
 31
0.0
1001
ACDBBLOCKREPETAG
1070
     1
1071
        6
1005
128539
  0
LINE
  5
1285C0
  8
OBJECT
 10
4920.0
 20
-1054.9999999999940883
 30
0.0
 11
5080.0
 21
-1054.9999999999940883
 31
0.0
1001
ACDBBLOCKREPETAG
1070
     1
1071
        7
1005
12853A
  0
LINE
  5
1285C1
  8
OBJECT
 10
4920.0
 20
-1042.9999999999940883
 30
0.0
 11
5080.0
 21
-1042.9999999999940883
 31
0.0
1001
ACDBBLOCKREPETAG
1070
     1
1071
        8
1005
12853B
  0
LINE
  5
1285C2
  8
OBJECT
 10
4920.0
 20
-1042.9999999999940883
 30
0.0
 11
4920.0
 21
-1054.9999999999940883
 31
0.0
1001
ACDBBLOCKREPETAG
1070
     1
1071
        9
1005
12853C
  0
LINE
  5
1285C3
  8
OBJECT
 10
5080.0
 20
-1042.9999999999940883
 30
0.0
 11
5080.0
 21
-1054.9999999999940883
 31
0.0
1001
ACDBBLOCKREPETAG
1070
     1
1071
       10
1005
12853D
  0
LINE
  5
1285C4
  8
OBJECT
 10
4925.0
 20
-1008.4999999999939746
 30
0.0
 11
4925.0
 21
-1042.9999999999940883
 31
0.0
1001
ACDBBLOCKREPETAG
1070
     1
1071
        1
1005
128537
  0
POINT
  5
1285C5
  8
DOTS
 10
5000.0
 20
-1010.9999999999939746
 30
0.0
  0
LINE
  5
1285C6
  8
OBJECT
 10
4867.0
 20
-889.9999999999943157
 30
0.0
 11
4860.0
 21
-889.9999999999943157
 31
0.0
1001
ACDBBLOCKREPETAG
1070
     1
1071
       46
1005
128540
  0
LINE
  5
1285C7
  8
OBJECT
 10
4860.0
 20
-889.9999999999943157
 30
0.0
 11
4860.0
 21
-1010.9999999999939746
 31
0.0
1001
ACDBBLOCKREPETAG
1070
     1
1071
       47
1005
128541
  0
LINE
  5
1285C8
  8
OBJECT
 10
4867.0
 20
-1010.9999999999939746
 30
0.0
 11
4867.0
 21
-889.9999999999943157
 31
0.0
1001
ACDBBLOCKREPETAG
1070
     1
1071
       48
1005
128542
  0
LINE
  5
1285C9
  8
CENTER
 10
4845.0
 20
-951.999999999994202
 30
0.0
 11
4958.6550800869954401
 21
-952.0000000000597993
 31
0.0
1001
ACDBBLOCKREPETAG
1070
     1
1071
       49
1005
128543
  0
LINE
  5
1285CA
  8
OBJECT
 10
4867.0
 20
-892.999999999994202
 30
0.0
 11
4903.0
 21
-892.999999999994202
 31
0.0
1001
ACDBBLOCKREPETAG
1070
     1
1071
       50
1005
128544
  0
LINE
  5
1285CB
  8
OBJECT
 10
4903.0
 20
-892.999999999994202
 30
0.0
 11
4903.0
 21
-1010.9999999999939746
 31
0.0
1001
ACDBBLOCKREPETAG
1070
     1
1071
       51
1005
128545
  0
LINE
  5
1285CC
  8
OBJECT
 10
4903.0
 20
-1010.9999999999939746
 30
0.0
 11
4860.0
 21
-1010.9999999999939746
 31
0.0
1001
ACDBBLOCKREPETAG
1070
     1
1071
       52
1005
128546
  0
LINE
  5
1285CD
  8
OBJECT
 10
4907.0
 20
-897.499999999994202
 30
0.0
 11
4917.5
 21
-897.499999999994202
 31
0.0
1001
ACDBBLOCKREPETAG
1070
     1
1071
       53
1005
128547
  0
LINE
  5
1285CE
  8
OBJECT
 10
4917.5
 20
-1006.4999999999939746
 30
0.0
 11
4907.0
 21
-1006.4999999999939746
 31
0.0
1001
ACDBBLOCKREPETAG
1070
     1
1071
       54
1005
128548
  0
LINE
  5
1285CF
  8
OBJECT
 10
4907.0
 20
-1006.4999999999939746
 30
0.0
 11
4907.0
 21
-897.499999999994202
 31
0.0
1001
ACDBBLOCKREPETAG
1070
     1
1071
       55
1005
128549
  0
LINE
  5
1285D0
  8
OBJECT
 10
4903.0
 20
-892.999999999994202
 30
0.0
 11
4907.0
 21
-897.499999999994202
 31
0.0
1001
ACDBBLOCKREPETAG
1070
     1
1071
       56
1005
12854A
  0
LINE
  5
1285D1
  8
OBJECT
 10
4903.0
 20
-1010.9999999999939746
 30
0.0
 11
4907.0
 21
-1006.4999999999939746
 31
0.0
1001
ACDBBLOCKREPETAG
1070
     1
1071
       57
1005
12854B
  0
LINE
  5
1285D2
  8
HIDDEN
 10
4912.0
 20
-907.4999999999944293
 30
0.0
 11
4912.0
 21
-996.4999999999943157
 31
0.0
1001
ACDBBLOCKREPETAG
1070
     1
1071
       58
1005
12854C
  0
ARC
  5
1285D3
  8
OBJECT
 10
4835.1217271212262858
 20
-967.4095072612233253
 30
0.0
 40
110.866352283089995
 50
16.959646195654269
 51
35.8365725806977409
1001
ACDBBLOCKREPETAG
1070
     1
1071
       59
1005
12854D
  0
ARC
  5
1285D4
  8
OBJECT
 10
4882.8640112230941668
 20
-952.2877497184432514
 30
0.0
 40
60.7917498803589709
 50
0.2712030171733211
 51
16.4527953477860898
1001
ACDBBLOCKREPETAG
1070
     1
1071
       60
1005
12854E
  0
ARC
  5
1285D5
  8
OBJECT
 10
4882.8640043437508211
 20
-958.7122497598953714
 30
0.0
 40
60.7917567620948773
 50
343.547220539480179
 51
359.7287965218546901
1001
ACDBBLOCKREPETAG
1070
     1
1071
       61
1005
12854F
  0
ARC
  5
1285D6
  8
OBJECT
 10
4835.1217271212262858
 20
-943.590492738830676
 30
0.0
 40
110.8663522830916008
 50
324.1634274193021952
 51
343.0403538043457274
1001
ACDBBLOCKREPETAG
1070
     1
1071
       62
1005
128550
  0
LINE
  5
1285D7
  8
OBJECT
 10
4943.6550800869954401
 20
-952.0000000000305818
 30
0.0
 11
4943.6550800869954401
 21
-959.0000000000270575
 31
0.0
1001
ACDBBLOCKREPETAG
1070
     1
1071
       63
1005
128551
  0
LINE
  5
1285D8
  8
OBJECT
 10
4925.000000000163709
 20
-902.5000000002889919
 30
0.0
 11
4922.5000000001627996
 21
-902.5000000002889919
 31
0.0
1001
ACDBBLOCKREPETAG
1070
     1
1071
       65
1005
128552
  0
LINE
  5
1285D9
  8
OBJECT
 10
4925.000000000167347
 20
-1008.4999999997650093
 30
0.0
 11
4920.500000000167347
 21
-1008.4999999997650093
 31
0.0
1001
ACDBBLOCKREPETAG
1070
     1
1071
       66
1005
128553
  0
LINE
  5
1285DA
  8
OBJECT
 10
4920.500000000167347
 20
-1008.4999999997650093
 30
0.0
 11
4922.5000000001627996
 21
-902.5000000002889919
 31
0.0
1001
ACDBBLOCKREPETAG
1070
     1
1071
       67
1005
128554
  0
LINE
  5
1285DB
  8
OBJECT
 10
4920.500000000167347
 20
-1008.4999999997650093
 30
0.0
 11
4917.5
 21
-1006.4999999999939746
 31
0.0
1001
ACDBBLOCKREPETAG
1070
     1
1071
       68
1005
128555
  0
LINE
  5
1285DC
  8
OBJECT
 10
4917.5
 20
-1006.4999999999939746
 30
0.0
 11
4917.5
 21
-897.499999999994202
 31
0.0
1001
ACDBBLOCKREPETAG
1070
     1
1071
       69
1005
128556
  0
LINE
  5
1285DD
  8
OBJECT
 10
4917.5
 20
-897.499999999994202
 30
0.0
 11
4922.5000000001627996
 21
-902.5000000002889919
 31
0.0
1001
ACDBBLOCKREPETAG
1070
     1
1071
       70
1005
128557
  0
LINE
  5
1285DE
  8
CENTER
 10
4577.0
 20
-951.999999999994202
 30
0.0
 11
4423.0
 21
-951.999999999994202
 31
0.0
1001
ACDBBLOCKREPETAG
1070
     1
1071
       17
1005
1285AF
  0
CIRCLE
  5
1285DF
  8
OBJECT
 10
4500.0
 20
-951.999999999994202
 30
0.0
 40
41.5
1001
ACDBBLOCKREPETAG
1070
     1
1071
       18
1005
1285B0
  0
CIRCLE
  5
1285E0
  8
OBJECT
 10
4500.0
 20
-951.999999999994202
 30
0.0
 40
54.0
1001
ACDBBLOCKREPETAG
1070
     1
1071
       19
1005
1285B1
  0
ARC
  5
1285E1
  8
OBJECT
 10
4500.0
 20
-951.999999999994202
 30
0.0
 40
62.0
 50
287.8965511292078077
 51
252.1034488707921923
1001
ACDBBLOCKREPETAG
1070
     1
1071
       20
1005
1285B2
  0
LINE
  5
1285E2
  8
OBJECT
 10
4480.947441116742084
 20
-1010.9999999999939746
 30
0.0
 11
4519.0525588832570065
 21
-1010.9999999999939746
 31
0.0
1001
ACDBBLOCKREPETAG
1070
     1
1071
       21
1005
1285B3
  0
TEXT
  5
1286AF
  8
SLIM
 10
0.0
 20
370.0
 30
0.0
 40
100.0
  1
4SR2-A1-A0X00-PXXX-S
 41
0.75
  0
TEXT
  5
1286B0
  8
SLIM
 10
2356.25
 20
-1632.4999999999979536
 30
0.0
 40
35.0
  1
片受けスタイル（S）
 41
0.75
  0
TEXT
  5
1286B1
  8
SLIM
 10
4241.6249999999990905
 20
-1632.4999999999979536
 30
0.0
 40
35.0
  1
片受けスタイル（S）＋シンドカット
 41
0.75
  0
TEXT
  5
1286B2
  8
SLIM
 10
2350.0
 20
369.9999999999998863
 30
0.0
 40
100.0
  1
4SR2-A1-A0300-P300
 41
0.75
  0
TEXT
  5
1286B3
  8
SLIM
 10
2350.0
 20
532.5
 30
0.0
 40
75.0
  1
側面図の代表機種
 41
0.75
  0
TEXT
  5
1286B4
  8
SLIM
 10
2337.75
 20
282.5000000000001137
 30
0.0
 40
35.0
  1
（枝管サイズ毎に寸法が異なります。管底の位置は全サイズで同じです）
 41
0.75
  0
TEXT
  5
1286B5
  8
SLIM
 10
2396.75
 20
-3982.4999999999968168
 30
0.0
 40
35.0
  1
通常枝50（1）
 41
0.75
  0
TEXT
  5
1286B6
  8
SLIM
 10
3394.2499999999990905
 20
-3982.4999999999968168
 30
0.0
 40
35.0
  1
通常枝65（2）
 41
0.75
  0
TEXT
  5
1286B7
  8
SLIM
 10
4394.25
 20
-3982.4999999999968168
 30
0.0
 40
35.0
  1
通常枝75（3）
 41
0.75
  0
TEXT
  5
1286B8
  8
SLIM
 10
2349.9999999999990905
 20
-2997.5
 30
0.0
 40
75.0
  1
下部枝管サイズ毎の形状
 41
0.75
  0
TEXT
  5
1286B9
  8
SLIM
 10
3542.1428571428559735
 20
-3097.5000160472709467
 30
0.0
 40
40.0
  1
110
 41
0.75
  0
TEXT
  5
1286BA
  8
SLIM
 10
3420.0
 20
-3097.5000160472709467
 30
0.0
 40
40.0
  1
94
 41
0.75
  0
TEXT
  5
1286BB
  8
SLIM
 10
3668.5714285714288962
 20
-3097.5000160472709467
 30
0.0
 40
40.0
  1
124
 41
0.75
  0
TEXT
  5
1286BC
  8
SLIM
 10
3397.0
 20
-3027.5000160472700372
 30
0.0
 40
30.0
  1
50（1）
 41
0.75
  0
TEXT
  5
1286BD
  8
SLIM
 10
3524.8571428571422075
 20
-3027.5000160472700372
 30
0.0
 40
30.0
  1
65（2）
 41
0.75
  0
TEXT
  5
1286BE
  8
SLIM
 10
3654.8571428571422075
 20
-3027.5000160472700372
 30
0.0
 40
30.0
  1
75（3）
 41
0.75
  0
TEXT
  5
1286BF
  8
SLIM
 10
3471.0
 20
-2972.5000160472709467
 30
0.0
 40
40.0
  1
横枝管サイズ
 41
0.75
  0
TEXT
  5
1286C0
  8
SLIM
 10
3550.7142857142848698
 20
-3167.5000160472709467
 30
0.0
 40
40.0
  1
52
 41
0.75
  0
TEXT
  5
1286C1
  8
SLIM
 10
3420.0
 20
-3167.5000160472709467
 30
0.0
 40
40.0
  1
44
 41
0.75
  0
TEXT
  5
1286C2
  8
SLIM
 10
3681.4285714285711038
 20
-3167.5000160472709467
 30
0.0
 40
40.0
  1
59
 41
0.75
  0
TEXT
  5
1286C3
  8
SLIM
 10
3539.2857142857142208
 20
-3237.5000160472709467
 30
0.0
 40
40.0
  1
140
 41
0.75
  0
TEXT
  5
1286C4
  8
SLIM
 10
3409.2857142857142208
 20
-3237.5000160472709467
 30
0.0
 40
40.0
  1
140
 41
0.75
  0
TEXT
  5
1286C5
  8
SLIM
 10
3669.2857142857142208
 20
-3237.5000160472709467
 30
0.0
 40
40.0
  1
140
 41
0.75
  0
TEXT
  5
1286C6
  8
SLIM
 10
3270.2857142857142208
 20
-3097.5000160472709467
 30
0.0
 40
40.0
  1
A寸法
 41
0.75
  0
TEXT
  5
1286C7
  8
SLIM
 10
3270.9999999999990905
 20
-3167.5000160472709467
 30
0.0
 40
40.0
  1
B寸法
 41
0.75
  0
TEXT
  5
1286C8
  8
SLIM
 10
3270.9999999999990905
 20
-3237.5000160472709467
 30
0.0
 40
40.0
  1
C寸法
 41
0.75
  0
LINE
  5
1286C9
  8
DIM
 10
2500.0
 20
-3359.9999999999968168
 30
0.0
 11
2500.0
 21
-3322.2081219844440056
 31
0.0
  0
LINE
  5
1286CA
  8
DIM
 10
2640.0
 20
-3402.9999999999968168
 30
0.0
 11
2640.0
 21
-3322.2081219844440056
 31
0.0
  0
LINE
  5
1286CB
  8
DIM
 10
2520.0
 20
-3332.2081219844440056
 30
0.0
 11
2620.0
 21
-3332.2081219844440056
 31
0.0
  0
INSERT
  5
1286CC
  8
DIM
  2
_OPEN30
 10
2500.0
 20
-3332.2081219844440056
 30
0.0
 41
20.0
 42
20.0
 43
20.0
 50
180.0
  0
INSERT
  5
1286CD
  8
DIM
  2
_OPEN30
 10
2640.0
 20
-3332.2081219844440056
 30
0.0
 41
20.0
 42
20.0
 43
20.0
  0
INSERT
  5
1286CE
  8
SLIM
  2
*U120
 10
0.0
 20
0.0
 30
0.0
  0
LINE
  5
1286CF
  8
DIM
 10
2650.0
 20
-3864.9999999999968168
 30
0.0
 11
2726.8409284037338693
 21
-3864.9999999999968168
 31
0.0
  0
LINE
  5
1286D0
  8
DIM
 10
2665.0
 20
-3820.9999999999968168
 30
0.0
 11
2726.8409284037338693
 21
-3820.9999999999968168
 31
0.0
  0
LINE
  5
1286D1
  8
DIM
 10
2716.8409284037338693
 20
-3884.999999999998181
 30
0.0
 11
2716.8409284037338693
 21
-3904.9999999999968168
 31
0.0
  0
LINE
  5
1286D2
  8
DIM
 10
2716.8409284037338693
 20
-3800.999999999998181
 30
0.0
 11
2716.8409284037338693
 21
-3780.9999999999968168
 31
0.0
  0
LINE
  5
1286D3
  8
DIM
 10
2716.8409284037338693
 20
-3864.9999999999968168
 30
0.0
 11
2716.8409284037338693
 21
-3820.9999999999968168
 31
0.0
  0
INSERT
  5
1286D4
  8
DIM
  2
_OPEN30
 10
2716.8409284037338693
 20
-3864.9999999999968168
 30
0.0
 41
20.0
 42
20.0
 43
20.0
 50
90.0
  0
INSERT
  5
1286D5
  8
DIM
  2
_OPEN30
 10
2716.8409284037338693
 20
-3820.9999999999968168
 30
0.0
 41
20.0
 42
20.0
 43
20.0
 50
270.0
  0
INSERT
  5
1286D6
  8
SLIM
  2
*U121
 10
0.0
 20
0.0
 30
0.0
  0
LINE
  5
1286D7
  8
DIM
 10
2650.0
 20
-3506.9999999999968168
 30
0.0
 11
2728.4796205944589929
 21
-3506.9999999999968168
 31
0.0
  0
LINE
  5
1286D8
  8
DIM
 10
2650.0
 20
-3412.9999999999968168
 30
0.0
 11
2728.4796205944589929
 21
-3412.9999999999968168
 31
0.0
  0
LINE
  5
1286D9
  8
DIM
 10
2718.4796205944589929
 20
-3486.9999999999959073
 30
0.0
 11
2718.4796205944589929
 21
-3432.9999999999959073
 31
0.0
  0
INSERT
  5
1286DA
  8
DIM
  2
_OPEN30
 10
2718.4796205944589929
 20
-3506.9999999999968168
 30
0.0
 41
20.0
 42
20.0
 43
20.0
 50
270.0
  0
INSERT
  5
1286DB
  8
DIM
  2
_OPEN30
 10
2718.4796205944589929
 20
-3412.9999999999968168
 30
0.0
 41
20.0
 42
20.0
 43
20.0
 50
90.0
  0
INSERT
  5
1286DC
  8
SLIM
  2
*U122
 10
0.0
 20
0.0
 30
0.0
  0
TEXT
  5
1286DD
  8
SLIM
 10
0.0000035665234464
 20
24.0000045853176083
 30
0.0
 40
79.9999999999727152
  1
上部枝管
 41
0.75
1001
ACDBBLOCKREPETAG
1070
     1
1071
      119
1005
120BCB
  0
LINE
  5
1286DE
  8
OBJECT
 10
2633.0
 20
-664.0
 30
0.0
 11
2640.0
 21
-664.0
 31
0.0
1001
ACDBBLOCKREPETAG
1070
     1
1071
        7
1005
1286DE
  0
LINE
  5
1286DF
  8
OBJECT
 10
2640.0
 20
-664.0
 30
0.0
 11
2640.0
 21
-755.0
 31
0.0
1001
ACDBBLOCKREPETAG
1070
     1
1071
        8
1005
1286DF
  0
LINE
  5
1286E0
  8
OBJECT
 10
2633.0
 20
-755.0
 30
0.0
 11
2633.0
 21
-664.0
 31
0.0
1001
ACDBBLOCKREPETAG
1070
     1
1071
        9
1005
1286E0
  0
LINE
  5
1286E1
  8
CENTER
 10
2655.0
 20
-711.0
 30
0.0
 11
2571.0
 21
-711.0
 31
0.0
1001
ACDBBLOCKREPETAG
1070
     1
1071
       10
1005
1286E1
  0
LINE
  5
1286E2
  8
OBJECT
 10
2633.0
 20
-667.0
 30
0.0
 11
2597.0
 21
-667.0
 31
0.0
1001
ACDBBLOCKREPETAG
1070
     1
1071
       11
1005
1286E2
  0
LINE
  5
1286E3
  8
OBJECT
 10
2597.0
 20
-667.0
 30
0.0
 11
2597.0
 21
-755.0
 31
0.0
1001
ACDBBLOCKREPETAG
1070
     1
1071
       12
1005
1286E3
  0
LINE
  5
1286E4
  8
OBJECT
 10
2597.0
 20
-755.0
 30
0.0
 11
2640.0
 21
-755.0
 31
0.0
1001
ACDBBLOCKREPETAG
1070
     1
1071
       13
1005
1286E4
  0
LINE
  5
1286E5
  8
OBJECT
 10
2593.0
 20
-671.4999999999998863
 30
0.0
 11
2586.0
 21
-671.4999999999998863
 31
0.0
1001
ACDBBLOCKREPETAG
1070
     1
1071
       14
1005
1286E5
  0
LINE
  5
1286E6
  8
OBJECT
 10
2586.0
 20
-750.4999999999998863
 30
0.0
 11
2593.0
 21
-750.4999999999998863
 31
0.0
1001
ACDBBLOCKREPETAG
1070
     1
1071
       15
1005
1286E6
  0
LINE
  5
1286E7
  8
OBJECT
 10
2593.0
 20
-750.4999999999998863
 30
0.0
 11
2593.0
 21
-671.4999999999998863
 31
0.0
1001
ACDBBLOCKREPETAG
1070
     1
1071
       16
1005
1286E7
  0
LINE
  5
1286E8
  8
OBJECT
 10
2597.0
 20
-667.0
 30
0.0
 11
2593.0
 21
-671.4999999999998863
 31
0.0
1001
ACDBBLOCKREPETAG
1070
     1
1071
       17
1005
1286E8
  0
LINE
  5
1286E9
  8
OBJECT
 10
2597.0
 20
-755.0
 30
0.0
 11
2593.0
 21
-750.4999999999998863
 31
0.0
1001
ACDBBLOCKREPETAG
1070
     1
1071
       18
1005
1286E9
  0
LINE
  5
1286EA
  8
OBJECT
 10
2583.0
 20
-634.0
 30
0.0
 11
2580.0
 21
-634.0
 31
0.0
1001
ACDBBLOCKREPETAG
1070
     1
1071
       19
1005
1286EA
  0
ARC
  5
1286EB
  8
OBJECT
 10
2583.0
 20
-637.0
 30
0.0
 40
3.0
 50
0.0
 51
90.0
1001
ACDBBLOCKREPETAG
1070
     1
1071
       20
1005
1286EB
  0
LINE
  5
1286EC
  8
OBJECT
 10
2580.0
 20
-758.0
 30
0.0
 11
2583.0
 21
-758.0
 31
0.0
1001
ACDBBLOCKREPETAG
1070
     1
1071
       21
1005
1286EC
  0
ARC
  5
1286ED
  8
OBJECT
 10
2583.0
 20
-755.0
 30
0.0
 40
3.0
 50
270.0
 51
0.0
1001
ACDBBLOCKREPETAG
1070
     1
1071
       22
1005
1286ED
  0
LINE
  5
1286EE
  8
OBJECT
 10
2586.0
 20
-755.0
 30
0.0
 11
2586.0
 21
-637.0
 31
0.0
1001
ACDBBLOCKREPETAG
1070
     1
1071
       23
1005
1286EE
  0
LINE
  5
1286EF
  8
HIDDEN
 10
2588.0
 20
-681.0
 30
0.0
 11
2588.0
 21
-741.0
 31
0.0
1001
ACDBBLOCKREPETAG
1070
     1
1071
       24
1005
1286EF
  0
LINE
  5
1286F0
  8
OBJECT
 10
2423.0
 20
-570.9999999999943157
 30
0.0
 11
2423.0
 21
-549.9999999999943157
 31
0.0
1001
ACDBBLOCKREPETAG
1070
     1
1071
        0
1005
1286F0
  0
LINE
  5
1286F1
  8
OBJECT
 10
2423.0
 20
-549.9999999999943157
 30
0.0
 11
2577.0
 21
-549.9999999999943157
 31
0.0
1001
ACDBBLOCKREPETAG
1070
     1
1071
        1
1005
1286F1
  0
LINE
  5
1286F2
  8
HIDDEN
 10
2443.0
 20
-619.9999999999943157
 30
0.0
 11
2557.0
 21
-619.9999999999943157
 31
0.0
1001
ACDBBLOCKREPETAG
1070
     1
1071
        2
1005
1286F2
  0
LINE
  5
1286F3
  8
OBJECT
 10
2577.0
 20
-549.9999999999943157
 30
0.0
 11
2577.0
 21
-570.9999999999943157
 31
0.0
1001
ACDBBLOCKREPETAG
1070
     1
1071
        3
1005
1286F3
  0
LINE
  5
1286F4
  8
OBJECT
 10
2577.0
 20
-570.9999999999943157
 30
0.0
 11
2423.0
 21
-570.9999999999943157
 31
0.0
1001
ACDBBLOCKREPETAG
1070
     1
1071
        4
1005
1286F4
  0
LINE
  5
1286F5
  8
CENTER
 10
2500.0
 20
-534.9999999999943157
 30
0.0
 11
2500.0
 21
-769.9999999999943157
 31
0.0
1001
ACDBBLOCKREPETAG
1070
     1
1071
        5
1005
1286F5
  0
LINE
  5
1286F6
  8
OBJECT
 10
2425.0
 20
-633.9999999999943157
 30
0.0
 11
2425.0
 21
-757.9999999999943157
 31
0.0
1001
ACDBBLOCKREPETAG
1070
     1
1071
        6
1005
1286F6
  0
LINE
  5
1286F7
  8
OBJECT
 10
2428.0
 20
-570.9999999999943157
 30
0.0
 11
2428.0
 21
-633.9999999999943157
 31
0.0
1001
ACDBBLOCKREPETAG
1070
     1
1071
        7
1005
1286F7
  0
LINE
  5
1286F8
  8
OBJECT
 10
2572.0
 20
-633.9999999999943157
 30
0.0
 11
2572.0
 21
-570.9999999999943157
 31
0.0
1001
ACDBBLOCKREPETAG
1070
     1
1071
        8
1005
1286F8
  0
LINE
  5
1286F9
  8
OBJECT
 10
2420.0
 20
-757.9999999999943157
 30
0.0
 11
2580.0
 21
-757.9999999999943157
 31
0.0
1001
ACDBBLOCKREPETAG
1070
     1
1071
        9
1005
1286F9
  0
LINE
  5
1286FA
  8
OBJECT
 10
2580.0
 20
-633.9999999999943157
 30
0.0
 11
2425.0
 21
-633.9999999999943157
 31
0.0
1001
ACDBBLOCKREPETAG
1070
     1
1071
       10
1005
1286FA
  0
LINE
  5
1286FB
  8
OBJECT
 10
2420.0
 20
-757.9999999999943157
 30
0.0
 11
2420.0
 21
-769.9999999999943157
 31
0.0
1001
ACDBBLOCKREPETAG
1070
     1
1071
       11
1005
1286FB
  0
LINE
  5
1286FC
  8
OBJECT
 10
2420.0
 20
-769.9999999999943157
 30
0.0
 11
2580.0
 21
-769.9999999999943157
 31
0.0
1001
ACDBBLOCKREPETAG
1070
     1
1071
       12
1005
1286FC
  0
LINE
  5
1286FD
  8
OBJECT
 10
2580.0
 20
-769.9999999999943157
 30
0.0
 11
2580.0
 21
-757.9999999999943157
 31
0.0
1001
ACDBBLOCKREPETAG
1070
     1
1071
       13
1005
1286FD
  0
ARC
  5
1286FE
  8
OBJECT
 10
2700.6872746716730944
 20
-749.4080994101019542
 30
0.0
 40
170.6350503965855978
 50
137.4413445918430057
 51
149.9194958133722082
1001
ACDBBLOCKREPETAG
1070
     1
1071
       15
1005
1286FE
  0
ARC
  5
1286FF
  8
OBJECT
 10
2618.845598704051099
 20
-705.8827266953592243
 30
0.0
 40
78.0722220217636647
 50
147.4551531037683958
 51
164.6636599771798046
1001
ACDBBLOCKREPETAG
1070
     1
1071
       16
1005
1286FF
  0
ARC
  5
128700
  8
OBJECT
 10
2585.7554349608731172
 20
-695.9999999999943157
 30
0.0
 40
43.5535392688561771
 50
165.6884523008477004
 51
194.3115476991521859
1001
ACDBBLOCKREPETAG
1070
     1
1071
       17
1005
128700
  0
ARC
  5
128701
  8
OBJECT
 10
2700.6872746716730944
 20
-642.5919005898864498
 30
0.0
 40
170.6350503965855978
 50
210.0805041866277918
 51
222.5586554081569943
1001
ACDBBLOCKREPETAG
1070
     1
1071
       18
1005
128701
  0
ARC
  5
128702
  8
OBJECT
 10
2618.845598704051099
 20
-686.117273304629407
 30
0.0
 40
78.0722220217636647
 50
195.3363400228201954
 51
212.5448468962316042
1001
ACDBBLOCKREPETAG
1070
     1
1071
       19
1005
128702
  0
TEXT
  5
128703
  8
SLIM
 10
156.8571428570824082
 20
-443.9999999998498197
 30
0.0
 40
48.0
  1
A1
 41
0.75
1001
ACDBBLOCKREPETAG
1070
     1
1071
      119
1005
0
  0
LINE
  5
128704
  8
OBJECT
 10
4633.0
 20
-664.0
 30
0.0
 11
4640.0
 21
-664.0
 31
0.0
1001
ACDBBLOCKREPETAG
1070
     1
1071
        7
1005
128704
  0
LINE
  5
128705
  8
OBJECT
 10
4640.0
 20
-664.0
 30
0.0
 11
4640.0
 21
-755.0
 31
0.0
1001
ACDBBLOCKREPETAG
1070
     1
1071
        8
1005
128705
  0
LINE
  5
128706
  8
OBJECT
 10
4633.0
 20
-755.0
 30
0.0
 11
4633.0
 21
-664.0
 31
0.0
1001
ACDBBLOCKREPETAG
1070
     1
1071
        9
1005
128706
  0
LINE
  5
128707
  8
CENTER
 10
4655.0
 20
-711.0
 30
0.0
 11
4571.0
 21
-711.0
 31
0.0
1001
ACDBBLOCKREPETAG
1070
     1
1071
       10
1005
128707
  0
LINE
  5
128708
  8
OBJECT
 10
4633.0
 20
-667.0
 30
0.0
 11
4597.0
 21
-667.0
 31
0.0
1001
ACDBBLOCKREPETAG
1070
     1
1071
       11
1005
128708
  0
LINE
  5
128709
  8
OBJECT
 10
4597.0
 20
-667.0
 30
0.0
 11
4597.0
 21
-755.0
 31
0.0
1001
ACDBBLOCKREPETAG
1070
     1
1071
       12
1005
128709
  0
LINE
  5
12870A
  8
OBJECT
 10
4597.0
 20
-755.0
 30
0.0
 11
4640.0
 21
-755.0
 31
0.0
1001
ACDBBLOCKREPETAG
1070
     1
1071
       13
1005
12870A
  0
LINE
  5
12870B
  8
OBJECT
 10
4593.0
 20
-671.4999999999998863
 30
0.0
 11
4586.0
 21
-671.4999999999998863
 31
0.0
1001
ACDBBLOCKREPETAG
1070
     1
1071
       14
1005
12870B
  0
LINE
  5
12870C
  8
OBJECT
 10
4586.0
 20
-750.4999999999998863
 30
0.0
 11
4593.0
 21
-750.4999999999998863
 31
0.0
1001
ACDBBLOCKREPETAG
1070
     1
1071
       15
1005
12870C
  0
LINE
  5
12870D
  8
OBJECT
 10
4593.0
 20
-750.4999999999998863
 30
0.0
 11
4593.0
 21
-671.4999999999998863
 31
0.0
1001
ACDBBLOCKREPETAG
1070
     1
1071
       16
1005
12870D
  0
LINE
  5
12870E
  8
OBJECT
 10
4597.0
 20
-667.0
 30
0.0
 11
4593.0
 21
-671.4999999999998863
 31
0.0
1001
ACDBBLOCKREPETAG
1070
     1
1071
       17
1005
12870E
  0
LINE
  5
12870F
  8
OBJECT
 10
4597.0
 20
-755.0
 30
0.0
 11
4593.0
 21
-750.4999999999998863
 31
0.0
1001
ACDBBLOCKREPETAG
1070
     1
1071
       18
1005
12870F
  0
LINE
  5
128710
  8
OBJECT
 10
4583.0
 20
-634.0
 30
0.0
 11
4580.0
 21
-634.0
 31
0.0
1001
ACDBBLOCKREPETAG
1070
     1
1071
       19
1005
128710
  0
ARC
  5
128711
  8
OBJECT
 10
4583.0
 20
-637.0
 30
0.0
 40
3.0
 50
0.0
 51
90.0
1001
ACDBBLOCKREPETAG
1070
     1
1071
       20
1005
128711
  0
LINE
  5
128712
  8
OBJECT
 10
4580.0
 20
-758.0
 30
0.0
 11
4583.0
 21
-758.0
 31
0.0
1001
ACDBBLOCKREPETAG
1070
     1
1071
       21
1005
128712
  0
ARC
  5
128713
  8
OBJECT
 10
4583.0
 20
-755.0
 30
0.0
 40
3.0
 50
270.0
 51
0.0
1001
ACDBBLOCKREPETAG
1070
     1
1071
       22
1005
128713
  0
LINE
  5
128714
  8
OBJECT
 10
4586.0
 20
-755.0
 30
0.0
 11
4586.0
 21
-637.0
 31
0.0
1001
ACDBBLOCKREPETAG
1070
     1
1071
       23
1005
128714
  0
LINE
  5
128715
  8
HIDDEN
 10
4588.0
 20
-681.0
 30
0.0
 11
4588.0
 21
-741.0
 31
0.0
1001
ACDBBLOCKREPETAG
1070
     1
1071
       24
1005
128715
  0
LINE
  5
128716
  8
OBJECT
 10
4423.0
 20
-570.9999999999943157
 30
0.0
 11
4423.0
 21
-549.9999999999943157
 31
0.0
1001
ACDBBLOCKREPETAG
1070
     1
1071
        0
1005
128716
  0
LINE
  5
128717
  8
OBJECT
 10
4423.0
 20
-549.9999999999943157
 30
0.0
 11
4577.0
 21
-549.9999999999943157
 31
0.0
1001
ACDBBLOCKREPETAG
1070
     1
1071
        1
1005
128717
  0
LINE
  5
128718
  8
HIDDEN
 10
4443.0
 20
-619.9999999999943157
 30
0.0
 11
4557.0
 21
-619.9999999999943157
 31
0.0
1001
ACDBBLOCKREPETAG
1070
     1
1071
        2
1005
128718
  0
LINE
  5
128719
  8
OBJECT
 10
4577.0
 20
-549.9999999999943157
 30
0.0
 11
4577.0
 21
-570.9999999999943157
 31
0.0
1001
ACDBBLOCKREPETAG
1070
     1
1071
        3
1005
128719
  0
LINE
  5
12871A
  8
OBJECT
 10
4577.0
 20
-570.9999999999943157
 30
0.0
 11
4423.0
 21
-570.9999999999943157
 31
0.0
1001
ACDBBLOCKREPETAG
1070
     1
1071
        4
1005
12871A
  0
LINE
  5
12871B
  8
CENTER
 10
4500.0
 20
-534.9999999999943157
 30
0.0
 11
4500.0
 21
-769.9999999999943157
 31
0.0
1001
ACDBBLOCKREPETAG
1070
     1
1071
        5
1005
12871B
  0
LINE
  5
12871C
  8
OBJECT
 10
4425.0
 20
-633.9999999999943157
 30
0.0
 11
4425.0
 21
-757.9999999999943157
 31
0.0
1001
ACDBBLOCKREPETAG
1070
     1
1071
        6
1005
12871C
  0
LINE
  5
12871D
  8
OBJECT
 10
4428.0
 20
-570.9999999999943157
 30
0.0
 11
4428.0
 21
-633.9999999999943157
 31
0.0
1001
ACDBBLOCKREPETAG
1070
     1
1071
        7
1005
12871D
  0
LINE
  5
12871E
  8
OBJECT
 10
4572.0
 20
-633.9999999999943157
 30
0.0
 11
4572.0
 21
-570.9999999999943157
 31
0.0
1001
ACDBBLOCKREPETAG
1070
     1
1071
        8
1005
12871E
  0
LINE
  5
12871F
  8
OBJECT
 10
4420.0
 20
-757.9999999999943157
 30
0.0
 11
4580.0
 21
-757.9999999999943157
 31
0.0
1001
ACDBBLOCKREPETAG
1070
     1
1071
        9
1005
12871F
  0
LINE
  5
128720
  8
OBJECT
 10
4580.0
 20
-633.9999999999943157
 30
0.0
 11
4425.0
 21
-633.9999999999943157
 31
0.0
1001
ACDBBLOCKREPETAG
1070
     1
1071
       10
1005
128720
  0
LINE
  5
128721
  8
OBJECT
 10
4420.0
 20
-757.9999999999943157
 30
0.0
 11
4420.0
 21
-769.9999999999943157
 31
0.0
1001
ACDBBLOCKREPETAG
1070
     1
1071
       11
1005
128721
  0
LINE
  5
128722
  8
OBJECT
 10
4420.0
 20
-769.9999999999943157
 30
0.0
 11
4580.0
 21
-769.9999999999943157
 31
0.0
1001
ACDBBLOCKREPETAG
1070
     1
1071
       12
1005
128722
  0
LINE
  5
128723
  8
OBJECT
 10
4580.0
 20
-769.9999999999943157
 30
0.0
 11
4580.0
 21
-757.9999999999943157
 31
0.0
1001
ACDBBLOCKREPETAG
1070
     1
1071
       13
1005
128723
  0
ARC
  5
128724
  8
OBJECT
 10
4700.6872746716726397
 20
-749.4080994101019542
 30
0.0
 40
170.6350503965855978
 50
137.4413445918430057
 51
149.9194958133722082
1001
ACDBBLOCKREPETAG
1070
     1
1071
       15
1005
128724
  0
ARC
  5
128725
  8
OBJECT
 10
4618.8455987040506443
 20
-705.8827266953592243
 30
0.0
 40
78.0722220217636647
 50
147.4551531037683958
 51
164.6636599771867111
1001
ACDBBLOCKREPETAG
1070
     1
1071
       16
1005
128725
  0
ARC
  5
128726
  8
OBJECT
 10
4585.755434960871753
 20
-695.9999999999943157
 30
0.0
 40
43.5535392688561771
 50
165.6884523008477004
 51
194.3115476991521859
1001
ACDBBLOCKREPETAG
1070
     1
1071
       17
1005
128726
  0
ARC
  5
128727
  8
OBJECT
 10
4700.6872746716726397
 20
-642.5919005898864498
 30
0.0
 40
170.6350503965855978
 50
210.0805041866277918
 51
222.5586554081569943
1001
ACDBBLOCKREPETAG
1070
     1
1071
       18
1005
128727
  0
ARC
  5
128728
  8
OBJECT
 10
4618.8455987040506443
 20
-686.117273304629407
 30
0.0
 40
78.0722220217636647
 50
195.3363400228132889
 51
212.5448468962316042
1001
ACDBBLOCKREPETAG
1070
     1
1071
       19
1005
128728
  0
TEXT
  5
128729
  8
SLIM
 10
2233.6999999999998181
 20
-1708.9999999999979536
 30
0.0
 40
28.0
  1
※ 対応P寸法　　180～330（10mm単位）
 41
0.75
  0
LINE
  5
12872A
  8
OBJECT
 10
2633.0
 20
-3412.9999999999968168
 30
0.0
 11
2640.0
 21
-3412.9999999999968168
 31
0.0
1001
ACDBBLOCKREPETAG
1070
     1
1071
        0
1005
12872A
  0
LINE
  5
12872B
  8
OBJECT
 10
2640.0
 20
-3412.9999999999968168
 30
0.0
 11
2640.0
 21
-3506.9999999999968168
 31
0.0
1001
ACDBBLOCKREPETAG
1070
     1
1071
        1
1005
12872B
  0
LINE
  5
12872C
  8
OBJECT
 10
2640.0
 20
-3506.9999999999968168
 30
0.0
 11
2633.0
 21
-3506.9999999999968168
 31
0.0
1001
ACDBBLOCKREPETAG
1070
     1
1071
        2
1005
12872C
  0
LINE
  5
12872D
  8
OBJECT
 10
2633.0
 20
-3506.9999999999968168
 30
0.0
 11
2633.0
 21
-3412.9999999999968168
 31
0.0
1001
ACDBBLOCKREPETAG
1070
     1
1071
        3
1005
12872D
  0
LINE
  5
12872E
  8
CENTER
 10
2655.0
 20
-3459.9999999999968168
 30
0.0
 11
2580.0
 21
-3459.9999999999968168
 31
0.0
1001
ACDBBLOCKREPETAG
1070
     1
1071
        4
1005
12872E
  0
LINE
  5
12872F
  8
OBJECT
 10
2633.0
 20
-3415.9999999999959073
 30
0.0
 11
2596.9999999999990905
 21
-3415.9999999999959073
 31
0.0
1001
ACDBBLOCKREPETAG
1070
     1
1071
        5
1005
12872F
  0
LINE
  5
128730
  8
OBJECT
 10
2596.9999999999990905
 20
-3415.9999999999959073
 30
0.0
 11
2596.9999999999990905
 21
-3503.9999999999959073
 31
0.0
1001
ACDBBLOCKREPETAG
1070
     1
1071
        6
1005
128730
  0
LINE
  5
128731
  8
OBJECT
 10
2596.9999999999990905
 20
-3503.9999999999959073
 30
0.0
 11
2633.0
 21
-3503.9999999999959073
 31
0.0
1001
ACDBBLOCKREPETAG
1070
     1
1071
        7
1005
128731
  0
LINE
  5
128732
  8
OBJECT
 10
2593.0
 20
-3420.4999999999959073
 30
0.0
 11
2584.5
 21
-3420.4999999999959073
 31
0.0
1001
ACDBBLOCKREPETAG
1070
     1
1071
        8
1005
128732
  0
LINE
  5
128733
  8
OBJECT
 10
2584.5
 20
-3499.4999999999959073
 30
0.0
 11
2593.0
 21
-3499.4999999999959073
 31
0.0
1001
ACDBBLOCKREPETAG
1070
     1
1071
        9
1005
128733
  0
LINE
  5
128734
  8
OBJECT
 10
2593.0
 20
-3499.4999999999959073
 30
0.0
 11
2593.0
 21
-3420.4999999999959073
 31
0.0
1001
ACDBBLOCKREPETAG
1070
     1
1071
       10
1005
128734
  0
LINE
  5
128735
  8
OBJECT
 10
2596.9999999999990905
 20
-3415.9999999999959073
 30
0.0
 11
2593.0
 21
-3420.4999999999959073
 31
0.0
1001
ACDBBLOCKREPETAG
1070
     1
1071
       11
1005
128735
  0
LINE
  5
128736
  8
OBJECT
 10
2596.9999999999990905
 20
-3503.9999999999959073
 30
0.0
 11
2593.0
 21
-3499.4999999999959073
 31
0.0
1001
ACDBBLOCKREPETAG
1070
     1
1071
       12
1005
128736
  0
LINE
  5
128737
  8
OBJECT
 10
2584.499999999998181
 20
-3506.4999999999959073
 30
0.0
 11
2584.5
 21
-3413.4999999999959073
 31
0.0
1001
ACDBBLOCKREPETAG
1070
     1
1071
       13
1005
128737
  0
ARC
  5
128738
  8
OBJECT
 10
2581.5
 20
-3413.4999999999959073
 30
0.0
 40
3.0
 50
0.0
 51
90.0
1001
ACDBBLOCKREPETAG
1070
     1
1071
       14
1005
128738
  0
LINE
  5
128739
  8
HIDDEN
 10
2588.0
 20
-3429.9999999999959073
 30
0.0
 11
2588.0
 21
-3489.9999999999968168
 31
0.0
1001
ACDBBLOCKREPETAG
1070
     1
1071
       15
1005
128739
  0
LINE
  5
12873A
  8
OBJECT
 10
2581.5
 20
-3410.4999999999959073
 30
0.0
 11
2556.3449199129790941
 21
-3410.4999999999959073
 31
0.0
1001
ACDBBLOCKREPETAG
1070
     1
1071
       17
1005
12873A
  0
LINE
  5
12873B
  8
OBJECT
 10
2581.499999999998181
 20
-3509.4999999999959073
 30
0.0
 11
2556.3449199129790941
 21
-3509.4999999999959073
 31
0.0
1001
ACDBBLOCKREPETAG
1070
     1
1071
       18
1005
12873B
  0
ARC
  5
12873C
  8
OBJECT
 10
2581.499999999998181
 20
-3506.4999999999959073
 30
0.0
 40
3.0
 50
270.0
 51
0.0
1001
ACDBBLOCKREPETAG
1070
     1
1071
       19
1005
12873C
  0
LINE
  5
12873D
  8
OBJECT
 10
2633.0
 20
-3773.9999999999968168
 30
0.0
 11
2640.0
 21
-3773.9999999999968168
 31
0.0
1001
ACDBBLOCKREPETAG
1070
     1
1071
        0
1005
12873D
  0
LINE
  5
12873E
  8
OBJECT
 10
2640.0
 20
-3773.9999999999968168
 30
0.0
 11
2640.0
 21
-3864.9999999999968168
 31
0.0
1001
ACDBBLOCKREPETAG
1070
     1
1071
        1
1005
12873E
  0
LINE
  5
12873F
  8
OBJECT
 10
2584.5
 20
-3759.5000000000618456
 30
0.0
 11
2584.5
 21
-3862.4999999999968168
 31
0.0
1001
ACDBBLOCKREPETAG
1070
     1
1071
        2
1005
12873F
  0
ARC
  5
128740
  8
OBJECT
 10
2581.5
 20
-3759.5000000000618456
 30
0.0
 40
3.0
 50
0.0
 51
90.0
1001
ACDBBLOCKREPETAG
1070
     1
1071
        3
1005
128740
  0
LINE
  5
128741
  8
OBJECT
 10
2633.0
 20
-3864.9999999999968168
 30
0.0
 11
2633.0
 21
-3773.9999999999968168
 31
0.0
1001
ACDBBLOCKREPETAG
1070
     1
1071
        4
1005
128741
  0
LINE
  5
128742
  8
CENTER
 10
2655.0
 20
-3820.9999999999968168
 30
0.0
 11
2541.9118237135839991
 21
-3820.9999999999968168
 31
0.0
1001
ACDBBLOCKREPETAG
1070
     1
1071
        5
1005
128742
  0
LINE
  5
128743
  8
OBJECT
 10
2633.0
 20
-3776.9999999999968168
 30
0.0
 11
2596.9999999999990905
 21
-3776.9999999999968168
 31
0.0
1001
ACDBBLOCKREPETAG
1070
     1
1071
        6
1005
128743
  0
LINE
  5
128744
  8
OBJECT
 10
2596.9999999999990905
 20
-3776.9999999999968168
 30
0.0
 11
2596.9999999999990905
 21
-3864.9999999999968168
 31
0.0
1001
ACDBBLOCKREPETAG
1070
     1
1071
        7
1005
128744
  0
LINE
  5
128745
  8
OBJECT
 10
2596.9999999999990905
 20
-3864.9999999999968168
 30
0.0
 11
2640.0
 21
-3864.9999999999968168
 31
0.0
1001
ACDBBLOCKREPETAG
1070
     1
1071
        8
1005
128745
  0
LINE
  5
128746
  8
OBJECT
 10
2593.0
 20
-3781.4999999999959073
 30
0.0
 11
2584.5
 21
-3781.4999999999959073
 31
0.0
1001
ACDBBLOCKREPETAG
1070
     1
1071
        9
1005
128746
  0
LINE
  5
128747
  8
OBJECT
 10
2584.5
 20
-3860.4999999999959073
 30
0.0
 11
2593.0
 21
-3860.4999999999959073
 31
0.0
1001
ACDBBLOCKREPETAG
1070
     1
1071
       10
1005
128747
  0
LINE
  5
128748
  8
OBJECT
 10
2593.0
 20
-3860.4999999999959073
 30
0.0
 11
2593.0
 21
-3781.4999999999959073
 31
0.0
1001
ACDBBLOCKREPETAG
1070
     1
1071
       11
1005
128748
  0
LINE
  5
128749
  8
OBJECT
 10
2596.9999999999990905
 20
-3776.9999999999968168
 30
0.0
 11
2593.0
 21
-3781.4999999999959073
 31
0.0
1001
ACDBBLOCKREPETAG
1070
     1
1071
       12
1005
128749
  0
LINE
  5
12874A
  8
OBJECT
 10
2596.9999999999990905
 20
-3864.9999999999968168
 30
0.0
 11
2593.0
 21
-3860.4999999999959073
 31
0.0
1001
ACDBBLOCKREPETAG
1070
     1
1071
       13
1005
12874A
  0
LINE
  5
12874B
  8
HIDDEN
 10
2588.0
 20
-3790.9999999999959073
 30
0.0
 11
2588.0
 21
-3850.9999999999959073
 31
0.0
1001
ACDBBLOCKREPETAG
1070
     1
1071
       14
1005
12874B
  0
ARC
  5
12874C
  8
OBJECT
 10
2664.8782728787741689
 20
-3821.4095072612249169
 30
0.0
 40
110.866352283089995
 50
144.1634274191434031
 51
163.0403538043316871
1001
ACDBBLOCKREPETAG
1070
     1
1071
       15
1005
12874C
  0
ARC
  5
12874D
  8
OBJECT
 10
2617.1359887769071975
 20
-3806.2877497184449567
 30
0.0
 40
60.7917498803589709
 50
163.5472046522266965
 51
179.7287969828267933
1001
ACDBBLOCKREPETAG
1070
     1
1071
       16
1005
12874D
  0
ARC
  5
12874E
  8
OBJECT
 10
2617.1359956562478146
 20
-3812.7122497598970767
 30
0.0
 40
60.7917567620948773
 50
180.2712034781453099
 51
196.4527794605338045
1001
ACDBBLOCKREPETAG
1070
     1
1071
       17
1005
12874E
  0
ARC
  5
12874F
  8
OBJECT
 10
2664.8782728787741689
 20
-3797.590492738832836
 30
0.0
 40
110.8663522830916008
 50
196.9596461956681992
 51
215.8365725808565969
1001
ACDBBLOCKREPETAG
1070
     1
1071
       18
1005
12874F
  0
LINE
  5
128750
  8
OBJECT
 10
2556.3449199130041052
 20
-3806.0000000000331966
 30
0.0
 11
2556.3449199130041052
 21
-3813.0000000000291038
 31
0.0
1001
ACDBBLOCKREPETAG
1070
     1
1071
       19
1005
128750
  0
LINE
  5
128751
  8
OBJECT
 10
2575.0
 20
-3756.5000000000618456
 30
0.0
 11
2581.5
 21
-3756.5000000000618456
 31
0.0
1001
ACDBBLOCKREPETAG
1070
     1
1071
       20
1005
128751
  0
LINE
  5
128752
  8
OBJECT
 10
2575.0
 20
-3862.4999999999968168
 30
0.0
 11
2584.5
 21
-3862.4999999999968168
 31
0.0
1001
ACDBBLOCKREPETAG
1070
     1
1071
       21
1005
128752
  0
LINE
  5
128753
  8
CENTER
 10
2838.0
 20
-3820.9999999999968168
 30
0.0
 11
2962.0
 21
-3820.9999999999968168
 31
0.0
1001
ACDBBLOCKREPETAG
1070
     1
1071
        0
1005
128753
  0
CIRCLE
  5
128754
  8
OBJECT
 10
2900.0
 20
-3820.9999999999968168
 30
0.0
 40
28.0
1001
ACDBBLOCKREPETAG
1070
     1
1071
        2
1005
128754
  0
CIRCLE
  5
128755
  8
OBJECT
 10
2900.0
 20
-3820.9999999999968168
 30
0.0
 40
39.0
1001
ACDBBLOCKREPETAG
1070
     1
1071
        3
1005
128755
  0
ARC
  5
128756
  8
OBJECT
 10
2900.0
 20
-3820.9999999999968168
 30
0.0
 40
47.0
 50
290.5819692114441182
 51
249.4180307885559102
1001
ACDBBLOCKREPETAG
1070
     1
1071
        4
1005
128756
  0
LINE
  5
128757
  8
OBJECT
 10
2883.4772883581417773
 20
-3864.9999999999968168
 30
0.0
 11
2916.5227116418568585
 21
-3864.9999999999968168
 31
0.0
1001
ACDBBLOCKREPETAG
1070
     1
1071
        5
1005
128757
  0
ARC
  5
128758
  8
OBJECT
 10
2900.0
 20
-3805.9999999999931788
 30
0.0
 40
49.5
 50
0.0
 51
180.0
1001
ACDBBLOCKREPETAG
1070
     1
1071
        6
1005
128758
  0
LINE
  5
128759
  8
OBJECT
 10
2850.5000000000031832
 20
-3805.9999999999931788
 30
0.0
 11
2850.5000000000031832
 21
-3812.9999999999968168
 31
0.0
1001
ACDBBLOCKREPETAG
1070
     1
1071
        7
1005
128759
  0
LINE
  5
12875A
  8
OBJECT
 10
2949.5000000000068212
 20
-3805.9999999999931788
 30
0.0
 11
2949.5000000000068212
 21
-3812.9999999999968168
 31
0.0
1001
ACDBBLOCKREPETAG
1070
     1
1071
        8
1005
12875A
  0
ARC
  5
12875B
  8
OBJECT
 10
2900.0
 20
-3812.9999999999968168
 30
0.0
 40
49.5
 50
180.0
 51
202.6695638510487925
1001
ACDBBLOCKREPETAG
1070
     1
1071
        9
1005
12875B
  0
ARC
  5
12875C
  8
OBJECT
 10
2900.0
 20
-3812.9999999999968168
 30
0.0
 40
49.5
 50
337.3304361489512075
 51
0.0
1001
ACDBBLOCKREPETAG
1070
     1
1071
       10
1005
12875C
  0
POINT
  5
12875D
  8
DOTS
 10
2900.0
 20
-3864.9999999999968168
 30
0.0
1001
ACDBBLOCKREPETAG
1070
     1
1071
       25
1005
12875D
  0
LINE
  5
12875E
  8
OBJECT
 10
3633.0
 20
-3404.9999999999959073
 30
0.0
 11
3640.0
 21
-3404.9999999999959073
 31
0.0
1001
ACDBBLOCKREPETAG
1070
     1
1071
       20
1005
12875E
  0
LINE
  5
12875F
  8
OBJECT
 10
3640.0
 20
-3404.9999999999959073
 30
0.0
 11
3640.0
 21
-3514.9999999999968168
 31
0.0
1001
ACDBBLOCKREPETAG
1070
     1
1071
       21
1005
12875F
  0
LINE
  5
128760
  8
OBJECT
 10
3640.0
 20
-3514.9999999999968168
 30
0.0
 11
3633.0
 21
-3514.9999999999968168
 31
0.0
1001
ACDBBLOCKREPETAG
1070
     1
1071
       22
1005
128760
  0
LINE
  5
128761
  8
OBJECT
 10
3633.0
 20
-3514.9999999999968168
 30
0.0
 11
3633.0
 21
-3404.9999999999959073
 31
0.0
1001
ACDBBLOCKREPETAG
1070
     1
1071
       23
1005
128761
  0
LINE
  5
128762
  8
CENTER
 10
3655.0
 20
-3459.9999999999968168
 30
0.0
 11
3580.0
 21
-3459.9999999999968168
 31
0.0
1001
ACDBBLOCKREPETAG
1070
     1
1071
       24
1005
128762
  0
LINE
  5
128763
  8
OBJECT
 10
3633.0
 20
-3407.9999999999959073
 30
0.0
 11
3597.0
 21
-3407.9999999999959073
 31
0.0
1001
ACDBBLOCKREPETAG
1070
     1
1071
       25
1005
128763
  0
LINE
  5
128764
  8
OBJECT
 10
3597.0
 20
-3407.9999999999959073
 30
0.0
 11
3597.0
 21
-3511.9999999999959073
 31
0.0
1001
ACDBBLOCKREPETAG
1070
     1
1071
       26
1005
128764
  0
LINE
  5
128765
  8
OBJECT
 10
3597.0
 20
-3511.9999999999959073
 30
0.0
 11
3633.0
 21
-3511.9999999999959073
 31
0.0
1001
ACDBBLOCKREPETAG
1070
     1
1071
       27
1005
128765
  0
LINE
  5
128766
  8
OBJECT
 10
3593.0
 20
-3412.4999999999959073
 30
0.0
 11
3584.5
 21
-3412.4999999999959073
 31
0.0
1001
ACDBBLOCKREPETAG
1070
     1
1071
       28
1005
128766
  0
LINE
  5
128767
  8
OBJECT
 10
3584.5
 20
-3507.4999999999968168
 30
0.0
 11
3593.0
 21
-3507.4999999999968168
 31
0.0
1001
ACDBBLOCKREPETAG
1070
     1
1071
       29
1005
128767
  0
LINE
  5
128768
  8
OBJECT
 10
3593.0
 20
-3507.4999999999968168
 30
0.0
 11
3593.0
 21
-3412.4999999999959073
 31
0.0
1001
ACDBBLOCKREPETAG
1070
     1
1071
       30
1005
128768
  0
LINE
  5
128769
  8
OBJECT
 10
3597.0
 20
-3407.9999999999959073
 30
0.0
 11
3593.0
 21
-3412.4999999999959073
 31
0.0
1001
ACDBBLOCKREPETAG
1070
     1
1071
       31
1005
128769
  0
LINE
  5
12876A
  8
OBJECT
 10
3597.0
 20
-3511.9999999999959073
 30
0.0
 11
3593.0
 21
-3507.4999999999968168
 31
0.0
1001
ACDBBLOCKREPETAG
1070
     1
1071
       32
1005
12876A
  0
LINE
  5
12876B
  8
OBJECT
 10
3584.499999999998181
 20
-3509.4999999999959073
 30
0.0
 11
3584.5
 21
-3410.4999999999959073
 31
0.0
1001
ACDBBLOCKREPETAG
1070
     1
1071
       33
1005
12876B
  0
LINE
  5
12876C
  8
HIDDEN
 10
3588.0
 20
-3421.9999999999968168
 30
0.0
 11
3588.0
 21
-3497.9999999999959073
 31
0.0
1001
ACDBBLOCKREPETAG
1070
     1
1071
       34
1005
12876C
  0
LINE
  5
12876D
  8
OBJECT
 10
3584.5
 20
-3410.4999999999959073
 30
0.0
 11
3556.3449199129790941
 21
-3410.4999999999959073
 31
0.0
1001
ACDBBLOCKREPETAG
1070
     1
1071
       35
1005
12876D
  0
LINE
  5
12876E
  8
OBJECT
 10
3584.499999999998181
 20
-3509.4999999999959073
 30
0.0
 11
3556.3449199129790941
 21
-3509.4999999999959073
 31
0.0
1001
ACDBBLOCKREPETAG
1070
     1
1071
       36
1005
12876E
  0
LINE
  5
12876F
  8
OBJECT
 10
3633.0
 20
-3757.9999999999959073
 30
0.0
 11
3640.0
 21
-3757.9999999999959073
 31
0.0
1001
ACDBBLOCKREPETAG
1070
     1
1071
       23
1005
12876F
  0
LINE
  5
128770
  8
OBJECT
 10
3640.0
 20
-3757.9999999999959073
 30
0.0
 11
3640.0
 21
-3864.9999999999968168
 31
0.0
1001
ACDBBLOCKREPETAG
1070
     1
1071
       24
1005
128770
  0
LINE
  5
128771
  8
OBJECT
 10
3584.5
 20
-3759.5000000000618456
 30
0.0
 11
3584.5
 21
-3862.4999999999968168
 31
0.0
1001
ACDBBLOCKREPETAG
1070
     1
1071
       25
1005
128771
  0
ARC
  5
128772
  8
OBJECT
 10
3581.5
 20
-3759.5000000000618456
 30
0.0
 40
3.0
 50
0.0
 51
90.0
1001
ACDBBLOCKREPETAG
1070
     1
1071
       26
1005
128772
  0
LINE
  5
128773
  8
OBJECT
 10
3633.0
 20
-3864.9999999999968168
 30
0.0
 11
3633.0
 21
-3757.9999999999959073
 31
0.0
1001
ACDBBLOCKREPETAG
1070
     1
1071
       27
1005
128773
  0
LINE
  5
128774
  8
CENTER
 10
3655.0
 20
-3812.9999999999968168
 30
0.0
 11
3541.3449199130041052
 21
-3813.0000000000618456
 31
0.0
1001
ACDBBLOCKREPETAG
1070
     1
1071
       28
1005
128774
  0
LINE
  5
128775
  8
OBJECT
 10
3633.0
 20
-3760.9999999999968168
 30
0.0
 11
3597.0
 21
-3760.9999999999968168
 31
0.0
1001
ACDBBLOCKREPETAG
1070
     1
1071
       29
1005
128775
  0
LINE
  5
128776
  8
OBJECT
 10
3597.0
 20
-3760.9999999999968168
 30
0.0
 11
3597.0
 21
-3864.9999999999968168
 31
0.0
1001
ACDBBLOCKREPETAG
1070
     1
1071
       30
1005
128776
  0
LINE
  5
128777
  8
OBJECT
 10
3597.0
 20
-3864.9999999999968168
 30
0.0
 11
3640.0
 21
-3864.9999999999968168
 31
0.0
1001
ACDBBLOCKREPETAG
1070
     1
1071
       31
1005
128777
  0
LINE
  5
128778
  8
OBJECT
 10
3593.0
 20
-3765.4999999999968168
 30
0.0
 11
3584.5
 21
-3765.4999999999968168
 31
0.0
1001
ACDBBLOCKREPETAG
1070
     1
1071
       32
1005
128778
  0
LINE
  5
128779
  8
OBJECT
 10
3584.5
 20
-3860.4999999999959073
 30
0.0
 11
3593.0
 21
-3860.4999999999959073
 31
0.0
1001
ACDBBLOCKREPETAG
1070
     1
1071
       33
1005
128779
  0
LINE
  5
12877A
  8
OBJECT
 10
3593.0
 20
-3860.4999999999959073
 30
0.0
 11
3593.0
 21
-3765.4999999999968168
 31
0.0
1001
ACDBBLOCKREPETAG
1070
     1
1071
       34
1005
12877A
  0
LINE
  5
12877B
  8
OBJECT
 10
3597.0
 20
-3760.9999999999968168
 30
0.0
 11
3593.0
 21
-3765.4999999999968168
 31
0.0
1001
ACDBBLOCKREPETAG
1070
     1
1071
       35
1005
12877B
  0
LINE
  5
12877C
  8
OBJECT
 10
3597.0
 20
-3864.9999999999968168
 30
0.0
 11
3593.0
 21
-3860.4999999999959073
 31
0.0
1001
ACDBBLOCKREPETAG
1070
     1
1071
       36
1005
12877C
  0
LINE
  5
12877D
  8
HIDDEN
 10
3588.0
 20
-3774.9999999999968168
 30
0.0
 11
3588.0
 21
-3850.9999999999959073
 31
0.0
1001
ACDBBLOCKREPETAG
1070
     1
1071
       37
1005
12877D
  0
ARC
  5
12877E
  8
OBJECT
 10
3664.8782728787741689
 20
-3821.4095072612249169
 30
0.0
 40
110.866352283089995
 50
144.1634274192888938
 51
163.0403538043316871
1001
ACDBBLOCKREPETAG
1070
     1
1071
       38
1005
12877E
  0
ARC
  5
12877F
  8
OBJECT
 10
3617.1359887769071975
 20
-3806.2877497184449567
 30
0.0
 40
60.7917498803589709
 50
163.5472046522266965
 51
179.7287969828267933
1001
ACDBBLOCKREPETAG
1070
     1
1071
       39
1005
12877F
  0
ARC
  5
128780
  8
OBJECT
 10
3617.1359956562478146
 20
-3812.7122497598970767
 30
0.0
 40
60.7917567620948773
 50
180.2712034781453099
 51
196.4527794605338045
1001
ACDBBLOCKREPETAG
1070
     1
1071
       40
1005
128780
  0
ARC
  5
128781
  8
OBJECT
 10
3664.8782728787741689
 20
-3797.590492738832836
 30
0.0
 40
110.8663522830916008
 50
196.9596461956681992
 51
215.8365725807111062
1001
ACDBBLOCKREPETAG
1070
     1
1071
       41
1005
128781
  0
LINE
  5
128782
  8
OBJECT
 10
3556.3449199130041052
 20
-3806.0000000000331966
 30
0.0
 11
3556.3449199130041052
 21
-3813.0000000000291038
 31
0.0
1001
ACDBBLOCKREPETAG
1070
     1
1071
       42
1005
128782
  0
LINE
  5
128783
  8
OBJECT
 10
3574.9999999999990905
 20
-3756.5000000000618456
 30
0.0
 11
3581.5
 21
-3756.5000000000618456
 31
0.0
1001
ACDBBLOCKREPETAG
1070
     1
1071
       43
1005
128783
  0
LINE
  5
128784
  8
OBJECT
 10
3574.9999999999990905
 20
-3862.4999999999968168
 30
0.0
 11
3584.5
 21
-3862.4999999999968168
 31
0.0
1001
ACDBBLOCKREPETAG
1070
     1
1071
       44
1005
128784
  0
CIRCLE
  5
128785
  8
OBJECT
 10
3900.0
 20
-3812.9999999999968168
 30
0.0
 40
35.5
1001
ACDBBLOCKREPETAG
1070
     1
1071
       11
1005
128785
  0
LINE
  5
128786
  8
CENTER
 10
3830.0
 20
-3812.9999999999968168
 30
0.0
 11
3970.0
 21
-3812.9999999999968168
 31
0.0
1001
ACDBBLOCKREPETAG
1070
     1
1071
       12
1005
128786
  0
CIRCLE
  5
128787
  8
OBJECT
 10
3900.0
 20
-3812.9999999999968168
 30
0.0
 40
47.0
1001
ACDBBLOCKREPETAG
1070
     1
1071
       14
1005
128787
  0
ARC
  5
128788
  8
OBJECT
 10
3900.0
 20
-3812.9999999999968168
 30
0.0
 40
55.0
 50
289.0112652600889191
 51
250.9887347399111093
1001
ACDBBLOCKREPETAG
1070
     1
1071
       15
1005
128788
  0
LINE
  5
128789
  8
OBJECT
 10
3882.0835271328319322
 20
-3864.9999999999968168
 30
0.0
 11
3917.9164728671671583
 21
-3864.9999999999968168
 31
0.0
1001
ACDBBLOCKREPETAG
1070
     1
1071
       16
1005
128789
  0
POINT
  5
12878A
  8
DOTS
 10
3900.0
 20
-3864.9999999999968168
 30
0.0
1001
ACDBBLOCKREPETAG
1070
     1
1071
       24
1005
12878A
  0
LINE
  5
12878B
  8
OBJECT
 10
4633.0000000000009095
 20
-3397.9999999999959073
 30
0.0
 11
4640.000000000001819
 21
-3397.9999999999959073
 31
0.0
1001
ACDBBLOCKREPETAG
1070
     1
1071
       38
1005
12878B
  0
LINE
  5
12878C
  8
OBJECT
 10
4640.000000000001819
 20
-3397.9999999999959073
 30
0.0
 11
4640.0
 21
-3521.9999999999968168
 31
0.0
1001
ACDBBLOCKREPETAG
1070
     1
1071
       39
1005
12878C
  0
LINE
  5
12878D
  8
OBJECT
 10
4640.0
 20
-3521.9999999999968168
 30
0.0
 11
4633.0
 21
-3521.9999999999968168
 31
0.0
1001
ACDBBLOCKREPETAG
1070
     1
1071
       40
1005
12878D
  0
LINE
  5
12878E
  8
OBJECT
 10
4633.0
 20
-3521.9999999999968168
 30
0.0
 11
4633.0000000000009095
 21
-3397.9999999999959073
 31
0.0
1001
ACDBBLOCKREPETAG
1070
     1
1071
       41
1005
12878E
  0
LINE
  5
12878F
  8
CENTER
 10
4655.0
 20
-3459.9999999999968168
 30
0.0
 11
4580.0
 21
-3459.9999999999968168
 31
0.0
1001
ACDBBLOCKREPETAG
1070
     1
1071
       42
1005
12878F
  0
LINE
  5
128790
  8
OBJECT
 10
4633.0000000000009095
 20
-3400.9999999999959073
 30
0.0
 11
4597.000000000001819
 21
-3400.9999999999959073
 31
0.0
1001
ACDBBLOCKREPETAG
1070
     1
1071
       43
1005
128790
  0
LINE
  5
128791
  8
OBJECT
 10
4597.000000000001819
 20
-3400.9999999999959073
 30
0.0
 11
4597.0
 21
-3518.9999999999968168
 31
0.0
1001
ACDBBLOCKREPETAG
1070
     1
1071
       44
1005
128791
  0
LINE
  5
128792
  8
OBJECT
 10
4597.0
 20
-3518.9999999999968168
 30
0.0
 11
4633.0
 21
-3518.9999999999968168
 31
0.0
1001
ACDBBLOCKREPETAG
1070
     1
1071
       45
1005
128792
  0
LINE
  5
128793
  8
OBJECT
 10
4593.000000000001819
 20
-3405.4999999999959073
 30
0.0
 11
4582.500000000001819
 21
-3405.4999999999959073
 31
0.0
1001
ACDBBLOCKREPETAG
1070
     1
1071
       46
1005
128793
  0
LINE
  5
128794
  8
OBJECT
 10
4582.5
 20
-3514.4999999999968168
 30
0.0
 11
4593.0
 21
-3514.4999999999968168
 31
0.0
1001
ACDBBLOCKREPETAG
1070
     1
1071
       47
1005
128794
  0
LINE
  5
128795
  8
OBJECT
 10
4593.0
 20
-3514.4999999999968168
 30
0.0
 11
4593.000000000001819
 21
-3405.4999999999959073
 31
0.0
1001
ACDBBLOCKREPETAG
1070
     1
1071
       48
1005
128795
  0
LINE
  5
128796
  8
OBJECT
 10
4597.000000000001819
 20
-3400.9999999999959073
 30
0.0
 11
4593.000000000001819
 21
-3405.4999999999959073
 31
0.0
1001
ACDBBLOCKREPETAG
1070
     1
1071
       49
1005
128796
  0
LINE
  5
128797
  8
OBJECT
 10
4597.0
 20
-3518.9999999999968168
 30
0.0
 11
4593.0
 21
-3514.4999999999968168
 31
0.0
1001
ACDBBLOCKREPETAG
1070
     1
1071
       50
1005
128797
  0
LINE
  5
128798
  8
HIDDEN
 10
4588.0000000000009095
 20
-3415.4999999999968168
 30
0.0
 11
4588.0
 21
-3504.4999999999968168
 31
0.0
1001
ACDBBLOCKREPETAG
1070
     1
1071
       51
1005
128798
  0
LINE
  5
128799
  8
OBJECT
 10
4577.500000000001819
 20
-3410.4999999999959073
 30
0.0
 11
4556.3449199129790941
 21
-3410.4999999999959073
 31
0.0
1001
ACDBBLOCKREPETAG
1070
     1
1071
       52
1005
128799
  0
LINE
  5
12879A
  8
OBJECT
 10
4577.4999999999990905
 20
-3509.4999999999959073
 30
0.0
 11
4556.3449199129790941
 21
-3509.4999999999959073
 31
0.0
1001
ACDBBLOCKREPETAG
1070
     1
1071
       53
1005
12879A
  0
LINE
  5
12879B
  8
OBJECT
 10
4582.500000000001819
 20
-3405.4999999999959073
 30
0.0
 11
4582.5
 21
-3514.4999999999968168
 31
0.0
1001
ACDBBLOCKREPETAG
1070
     1
1071
       54
1005
12879B
  0
LINE
  5
12879C
  8
OBJECT
 10
4577.500000000001819
 20
-3410.4999999999959073
 30
0.0
 11
4577.4999999999990905
 21
-3509.4999999999959073
 31
0.0
1001
ACDBBLOCKREPETAG
1070
     1
1071
       55
1005
12879C
  0
LINE
  5
12879D
  8
OBJECT
 10
4582.500000000001819
 20
-3405.4999999999959073
 30
0.0
 11
4577.500000000001819
 21
-3410.4999999999959073
 31
0.0
1001
ACDBBLOCKREPETAG
1070
     1
1071
       56
1005
12879D
  0
LINE
  5
12879E
  8
OBJECT
 10
4577.4999999999990905
 20
-3509.4999999999959073
 30
0.0
 11
4582.5
 21
-3514.4999999999931788
 31
0.0
1001
ACDBBLOCKREPETAG
1070
     1
1071
       57
1005
12879E
  0
LINE
  5
12879F
  8
OBJECT
 10
4633.0
 20
-3743.9999999999959073
 30
0.0
 11
4640.0
 21
-3743.9999999999959073
 31
0.0
1001
ACDBBLOCKREPETAG
1070
     1
1071
       46
1005
12879F
  0
LINE
  5
1287A0
  8
OBJECT
 10
4640.0
 20
-3743.9999999999959073
 30
0.0
 11
4640.0
 21
-3864.9999999999968168
 31
0.0
1001
ACDBBLOCKREPETAG
1070
     1
1071
       47
1005
1287A0
  0
LINE
  5
1287A1
  8
OBJECT
 10
4633.0
 20
-3864.9999999999968168
 30
0.0
 11
4633.0
 21
-3743.9999999999959073
 31
0.0
1001
ACDBBLOCKREPETAG
1070
     1
1071
       48
1005
1287A1
  0
LINE
  5
1287A2
  8
CENTER
 10
4655.0
 20
-3805.9999999999968168
 30
0.0
 11
4541.3449199130036504
 21
-3806.0000000000618456
 31
0.0
1001
ACDBBLOCKREPETAG
1070
     1
1071
       49
1005
1287A2
  0
LINE
  5
1287A3
  8
OBJECT
 10
4633.0
 20
-3746.9999999999959073
 30
0.0
 11
4597.0
 21
-3746.9999999999959073
 31
0.0
1001
ACDBBLOCKREPETAG
1070
     1
1071
       50
1005
1287A3
  0
LINE
  5
1287A4
  8
OBJECT
 10
4597.0
 20
-3746.9999999999959073
 30
0.0
 11
4597.0
 21
-3864.9999999999968168
 31
0.0
1001
ACDBBLOCKREPETAG
1070
     1
1071
       51
1005
1287A4
  0
LINE
  5
1287A5
  8
OBJECT
 10
4597.0
 20
-3864.9999999999968168
 30
0.0
 11
4640.0
 21
-3864.9999999999968168
 31
0.0
1001
ACDBBLOCKREPETAG
1070
     1
1071
       52
1005
1287A5
  0
LINE
  5
1287A6
  8
OBJECT
 10
4593.0
 20
-3751.4999999999959073
 30
0.0
 11
4582.5
 21
-3751.4999999999959073
 31
0.0
1001
ACDBBLOCKREPETAG
1070
     1
1071
       53
1005
1287A6
  0
LINE
  5
1287A7
  8
OBJECT
 10
4582.5
 20
-3860.4999999999959073
 30
0.0
 11
4593.0
 21
-3860.4999999999959073
 31
0.0
1001
ACDBBLOCKREPETAG
1070
     1
1071
       54
1005
1287A7
  0
LINE
  5
1287A8
  8
OBJECT
 10
4593.0
 20
-3860.4999999999959073
 30
0.0
 11
4593.0
 21
-3751.4999999999959073
 31
0.0
1001
ACDBBLOCKREPETAG
1070
     1
1071
       55
1005
1287A8
  0
LINE
  5
1287A9
  8
OBJECT
 10
4597.0
 20
-3746.9999999999959073
 30
0.0
 11
4593.0
 21
-3751.4999999999959073
 31
0.0
1001
ACDBBLOCKREPETAG
1070
     1
1071
       56
1005
1287A9
  0
LINE
  5
1287AA
  8
OBJECT
 10
4597.0
 20
-3864.9999999999968168
 30
0.0
 11
4593.0
 21
-3860.4999999999959073
 31
0.0
1001
ACDBBLOCKREPETAG
1070
     1
1071
       57
1005
1287AA
  0
LINE
  5
1287AB
  8
HIDDEN
 10
4588.0
 20
-3761.4999999999968168
 30
0.0
 11
4588.0
 21
-3850.4999999999968168
 31
0.0
1001
ACDBBLOCKREPETAG
1070
     1
1071
       58
1005
1287AB
  0
ARC
  5
1287AC
  8
OBJECT
 10
4664.8782728787728047
 20
-3821.4095072612249169
 30
0.0
 40
110.866352283089995
 50
144.1634274192888938
 51
163.0403538043393894
1001
ACDBBLOCKREPETAG
1070
     1
1071
       59
1005
1287AC
  0
ARC
  5
1287AD
  8
OBJECT
 10
4617.1359887769067427
 20
-3806.2877497184449567
 30
0.0
 40
60.7917498803589709
 50
163.5472046522193068
 51
179.7287969828265943
1001
ACDBBLOCKREPETAG
1070
     1
1071
       60
1005
1287AD
  0
ARC
  5
1287AE
  8
OBJECT
 10
4617.1359956562482694
 20
-3812.7122497598970767
 30
0.0
 40
60.7917567620948773
 50
180.2712034781451962
 51
196.4527794605265001
1001
ACDBBLOCKREPETAG
1070
     1
1071
       61
1005
1287AE
  0
ARC
  5
1287AF
  8
OBJECT
 10
4664.8782728787728047
 20
-3797.590492738832836
 30
0.0
 40
110.8663522830916008
 50
196.9596461956606106
 51
215.8365725807111062
1001
ACDBBLOCKREPETAG
1070
     1
1071
       62
1005
1287AF
  0
LINE
  5
1287B0
  8
OBJECT
 10
4556.3449199130036504
 20
-3806.0000000000331966
 30
0.0
 11
4556.3449199130036504
 21
-3813.0000000000291038
 31
0.0
1001
ACDBBLOCKREPETAG
1070
     1
1071
       63
1005
1287B0
  0
LINE
  5
1287B1
  8
OBJECT
 10
4574.999999999836291
 20
-3756.5000000002910383
 30
0.0
 11
4577.499999999836291
 21
-3756.5000000002910383
 31
0.0
1001
ACDBBLOCKREPETAG
1070
     1
1071
       65
1005
1287B1
  0
LINE
  5
1287B2
  8
OBJECT
 10
4574.999999999832653
 20
-3862.4999999997671694
 30
0.0
 11
4579.4999999998317435
 21
-3862.4999999997671694
 31
0.0
1001
ACDBBLOCKREPETAG
1070
     1
1071
       66
1005
1287B2
  0
LINE
  5
1287B3
  8
OBJECT
 10
4579.4999999998317435
 20
-3862.4999999997671694
 30
0.0
 11
4577.499999999836291
 21
-3756.5000000002910383
 31
0.0
1001
ACDBBLOCKREPETAG
1070
     1
1071
       67
1005
1287B3
  0
LINE
  5
1287B4
  8
OBJECT
 10
4579.4999999998317435
 20
-3862.4999999997671694
 30
0.0
 11
4582.5
 21
-3860.4999999999959073
 31
0.0
1001
ACDBBLOCKREPETAG
1070
     1
1071
       68
1005
1287B4
  0
LINE
  5
1287B5
  8
OBJECT
 10
4582.5
 20
-3860.4999999999959073
 30
0.0
 11
4582.5
 21
-3751.4999999999959073
 31
0.0
1001
ACDBBLOCKREPETAG
1070
     1
1071
       69
1005
1287B5
  0
LINE
  5
1287B6
  8
OBJECT
 10
4582.5
 20
-3751.4999999999959073
 30
0.0
 11
4577.499999999836291
 21
-3756.5000000002910383
 31
0.0
1001
ACDBBLOCKREPETAG
1070
     1
1071
       70
1005
1287B6
  0
LINE
  5
1287B7
  8
CENTER
 10
4977.0
 20
-3805.9999999999968168
 30
0.0
 11
4823.0
 21
-3805.9999999999968168
 31
0.0
1001
ACDBBLOCKREPETAG
1070
     1
1071
       17
1005
1287B7
  0
CIRCLE
  5
1287B8
  8
OBJECT
 10
4900.0
 20
-3805.9999999999968168
 30
0.0
 40
41.5
1001
ACDBBLOCKREPETAG
1070
     1
1071
       18
1005
1287B8
  0
CIRCLE
  5
1287B9
  8
OBJECT
 10
4900.0
 20
-3805.9999999999968168
 30
0.0
 40
54.0
1001
ACDBBLOCKREPETAG
1070
     1
1071
       19
1005
1287B9
  0
ARC
  5
1287BA
  8
OBJECT
 10
4900.0
 20
-3805.9999999999968168
 30
0.0
 40
62.0
 50
287.8965511292112751
 51
252.1034488707886965
1001
ACDBBLOCKREPETAG
1070
     1
1071
       20
1005
1287BA
  0
LINE
  5
1287BB
  8
OBJECT
 10
4880.9474411167429935
 20
-3864.9999999999968168
 30
0.0
 11
4919.0525588832570065
 21
-3864.9999999999968168
 31
0.0
1001
ACDBBLOCKREPETAG
1070
     1
1071
       21
1005
1287BB
  0
POINT
  5
1287BC
  8
DOTS
 10
4900.0
 20
-3864.9999999999968168
 30
0.0
1001
ACDBBLOCKREPETAG
1070
     1
1071
       23
1005
1287BC
  0
LINE
  5
1287BD
  8
DIM
 10
4404.999999999992724
 20
-1011.0
 30
0.0
 11
4333.1164560757752042
 21
-1011.0
 31
0.0
  0
LINE
  5
1287BE
  8
DIM
 10
4410.0
 20
-1251.0
 30
0.0
 11
4333.1164560757752042
 21
-1251.0
 31
0.0
  0
LINE
  5
1287BF
  8
DIM
 10
4343.1164560757752042
 20
-1031.0
 30
0.0
 11
4343.1164560757752042
 21
-1231.0
 31
0.0
  0
INSERT
  5
1287C0
  8
DIM
  2
_OPEN30
 10
4343.1164560757752042
 20
-1011.0
 30
0.0
 41
20.0
 42
20.0
 43
20.0
 50
90.0
  0
INSERT
  5
1287C1
  8
DIM
  2
_OPEN30
 10
4343.1164560757752042
 20
-1251.0
 30
0.0
 41
20.0
 42
20.0
 43
20.0
 50
270.0
  0
INSERT
  5
1287C2
  8
SLIM
  2
*U123
 10
0.0
 20
0.0
 30
0.0
  0
TEXT
  5
1287C3
  8
SLIM
 10
0.000003566523219
 20
-775.9999954146824166
 30
0.0
 40
79.9999999999727152
  1
下部枝管バリエーション
 41
0.75
1001
ACDBBLOCKREPETAG
1070
     1
1071
      119
1005
120BCB
  0
INSERT
  5
1287C4
  8
SLIM
  2
*U124
 10
0.0
 20
0.0
 30
0.0
  0
LINE
  5
1287C5
  8
OBJECT
 10
133.0000000000418083
 20
-99.0000000001718945
 30
0.0
 11
133.0000000000418083
 21
-92.0000000001718945
 31
0.0
1001
ACDBBLOCKREPETAG
1070
     1
1071
        1
1005
1287C5
  0
LINE
  5
1287C6
  8
OBJECT
 10
133.0000000000418083
 20
-92.0000000001718945
 30
0.0
 11
227.0000000000418083
 21
-92.0000000001718945
 31
0.0
1001
ACDBBLOCKREPETAG
1070
     1
1071
        2
1005
1287C6
  0
LINE
  5
1287C7
  8
OBJECT
 10
227.0000000000418083
 20
-92.0000000001718945
 30
0.0
 11
227.0000000000418083
 21
-99.0000000001718945
 31
0.0
1001
ACDBBLOCKREPETAG
1070
     1
1071
        3
1005
1287C7
  0
LINE
  5
1287C8
  8
OBJECT
 10
227.0000000000418083
 20
-99.0000000001718945
 30
0.0
 11
133.0000000000418083
 21
-99.0000000001718945
 31
0.0
1001
ACDBBLOCKREPETAG
1070
     1
1071
        4
1005
1287C8
  0
LINE
  5
1287C9
  8
OBJECT
 10
136.0000000000418083
 20
-99.0000000001718945
 30
0.0
 11
136.0000000000418083
 21
-135.0000000001718945
 31
0.0
1001
ACDBBLOCKREPETAG
1070
     1
1071
        5
1005
1287C9
  0
LINE
  5
1287CA
  8
OBJECT
 10
136.0000000000418083
 20
-135.0000000001718945
 30
0.0
 11
224.0000000000418083
 21
-135.0000000001718945
 31
0.0
1001
ACDBBLOCKREPETAG
1070
     1
1071
        6
1005
1287CA
  0
LINE
  5
1287CB
  8
OBJECT
 10
224.0000000000418083
 20
-135.0000000001718945
 30
0.0
 11
224.0000000000418083
 21
-99.0000000001718945
 31
0.0
1001
ACDBBLOCKREPETAG
1070
     1
1071
        7
1005
1287CB
  0
LINE
  5
1287CC
  8
OBJECT
 10
140.5000000000418083
 20
-139.0000000001718945
 30
0.0
 11
140.5000000000418083
 21
-146.0000000001718945
 31
0.0
1001
ACDBBLOCKREPETAG
1070
     1
1071
        8
1005
1287CC
  0
LINE
  5
1287CD
  8
OBJECT
 10
219.5000000000418936
 20
-146.0000000001718945
 30
0.0
 11
219.5000000000418936
 21
-139.0000000001718945
 31
0.0
1001
ACDBBLOCKREPETAG
1070
     1
1071
        9
1005
1287CD
  0
LINE
  5
1287CE
  8
OBJECT
 10
219.5000000000418936
 20
-139.0000000001718945
 30
0.0
 11
140.5000000000418083
 21
-139.0000000001718945
 31
0.0
1001
ACDBBLOCKREPETAG
1070
     1
1071
       10
1005
1287CE
  0
LINE
  5
1287CF
  8
OBJECT
 10
136.0000000000418083
 20
-135.0000000001718945
 30
0.0
 11
140.5000000000418083
 21
-139.0000000001718945
 31
0.0
1001
ACDBBLOCKREPETAG
1070
     1
1071
       11
1005
1287CF
  0
LINE
  5
1287D0
  8
OBJECT
 10
224.0000000000418083
 20
-135.0000000001718945
 30
0.0
 11
219.5000000000418936
 21
-139.0000000001718945
 31
0.0
1001
ACDBBLOCKREPETAG
1070
     1
1071
       12
1005
1287D0
  0
LINE
  5
1287D1
  8
OBJECT
 10
118.0000000000417941
 20
-149.0000000001710134
 30
0.0
 11
118.0000000000417941
 21
-152.0000000001718945
 31
0.0
1001
ACDBBLOCKREPETAG
1070
     1
1071
       13
1005
1287D1
  0
ARC
  5
1287D2
  8
OBJECT
 10
121.0000000000417941
 20
-149.0000000001710134
 30
0.0
 40
3.0
 50
90.0
 51
180.0
1001
ACDBBLOCKREPETAG
1070
     1
1071
       14
1005
1287D2
  0
LINE
  5
1287D3
  8
OBJECT
 10
242.0000000000418083
 20
-152.0000000001718945
 30
0.0
 11
242.0000000000418083
 21
-149.000000000172804
 31
0.0
1001
ACDBBLOCKREPETAG
1070
     1
1071
       15
1005
1287D3
  0
ARC
  5
1287D4
  8
OBJECT
 10
239.0000000000418083
 20
-149.000000000172804
 30
0.0
 40
3.0
 50
0.0
 51
90.0
1001
ACDBBLOCKREPETAG
1070
     1
1071
       16
1005
1287D4
  0
LINE
  5
1287D5
  8
OBJECT
 10
239.0000000000418083
 20
-146.000000000172804
 30
0.0
 11
121.0000000000417941
 21
-146.0000000001710134
 31
0.0
1001
ACDBBLOCKREPETAG
1070
     1
1071
       17
1005
1287D5
  0
LINE
  5
1287D6
  8
HIDDEN
 10
150.0000000000418083
 20
-144.0000000001718945
 30
0.0
 11
210.0000000000418083
 21
-144.0000000001718945
 31
0.0
1001
ACDBBLOCKREPETAG
1070
     1
1071
      420
1005
1287D6
  0
CIRCLE
  5
1287D7
  8
OBJECT
 10
180.0000000000418083
 20
-232.0000000001718945
 30
0.0
 40
70.0
1001
ACDBBLOCKREPETAG
1070
     1
1071
       50
1005
1287D7
  0
CIRCLE
  5
1287D8
  8
OBJECT
 10
180.0000000000418083
 20
-232.0000000001718945
 30
0.0
 40
77.0
1001
ACDBBLOCKREPETAG
1070
     1
1071
       51
1005
1287D8
  0
ARC
  5
1287D9
  8
OBJECT
 10
180.0000000000418083
 20
-232.0000000001718945
 30
0.0
 40
80.0
 50
140.8050325737796982
 51
39.1949674262202521
1001
ACDBBLOCKREPETAG
1070
     1
1071
       52
1005
1287D9
  0
LINE
  5
1287DA
  8
OBJECT
 10
118.0000000000417941
 20
-186.3381997728473891
 30
0.0
 11
118.0000000000417941
 21
-152.0000000001718945
 31
0.0
1001
ACDBBLOCKREPETAG
1070
     1
1071
       53
1005
1287DA
  0
LINE
  5
1287DB
  8
OBJECT
 10
242.0000000000418083
 20
-186.3381997728473891
 30
0.0
 11
242.0000000000418083
 21
-152.0000000001718945
 31
0.0
1001
ACDBBLOCKREPETAG
1070
     1
1071
       54
1005
1287DB
  0
POINT
  5
1287DC
  8
DOTS
 10
180.0000000000418083
 20
-232.0000000001718945
 30
0.0
1001
ACDBBLOCKREPETAG
1070
     1
1071
       63
1005
1287DC
  0
CIRCLE
  5
1287DD
  8
OBJECT
 10
180.0000000000418083
 20
-232.0000000001718945
 30
0.0
 40
53.5
1001
ACDBBLOCKREPETAG
1070
     1
1071
      157
1005
1287DD
  0
LINE
  5
1287DE
  8
OBJECT
 10
2430.0
 20
-1364.9999999999979536
 30
0.0
 11
2570.0
 21
-1364.9999999999979536
 31
0.0
1001
ACDBBLOCKREPETAG
1070
     1
1071
        0
1005
1287DE
  0
LINE
  5
1287DF
  8
OBJECT
 10
2430.0
 20
-1364.9999999999979536
 30
0.0
 11
2430.0
 21
-1124.9999999999979536
 31
0.0
1001
ACDBBLOCKREPETAG
1070
     1
1071
        1
1005
1287DF
  0
LINE
  5
1287E0
  8
OBJECT
 10
2570.0
 20
-1364.9999999999979536
 30
0.0
 11
2570.0
 21
-1124.9999999999979536
 31
0.0
1001
ACDBBLOCKREPETAG
1070
     1
1071
        2
1005
1287E0
  0
LINE
  5
1287E1
  8
OBJECT
 10
2430.0
 20
-1124.9999999999979536
 30
0.0
 11
2570.0
 21
-1124.9999999999979536
 31
0.0
1001
ACDBBLOCKREPETAG
1070
     1
1071
        3
1005
1287E1
  0
LINE
  5
1287E2
  8
HIDDEN
 10
2437.5
 20
-1124.9999999999979536
 30
0.0
 11
2437.5
 21
-1364.9999999999979536
 31
0.0
1001
ACDBBLOCKREPETAG
1070
     1
1071
        4
1005
1287E2
  0
LINE
  5
1287E3
  8
HIDDEN
 10
2562.5
 20
-1124.9999999999979536
 30
0.0
 11
2562.5
 21
-1364.9999999999979536
 31
0.0
1001
ACDBBLOCKREPETAG
1070
     1
1071
        5
1005
1287E3
  0
LINE
  5
1287E4
  8
CENTER
 10
2500.0
 20
-1055.0
 30
0.0
 11
2500.0
 21
-1379.9999999999979536
 31
0.0
1001
ACDBBLOCKREPETAG
1070
     1
1071
        6
1005
1287E4
  0
LINE
  5
1287E5
  8
OBJECT
 10
2425.0
 20
-1055.0
 30
0.0
 11
2425.0
 21
-1084.9999999999979536
 31
0.0
1001
ACDBBLOCKREPETAG
1070
     1
1071
        7
1005
1287E5
  0
LINE
  5
1287E6
  8
OBJECT
 10
2575.0000000000040927
 20
-1055.0
 30
0.0
 11
2575.0
 21
-1084.9999999999979536
 31
0.0
1001
ACDBBLOCKREPETAG
1070
     1
1071
        8
1005
1287E6
  0
LINE
  5
1287E7
  8
OBJECT
 10
2425.0
 20
-1084.9999999999979536
 30
0.0
 11
2575.0
 21
-1084.9999999999979536
 31
0.0
1001
ACDBBLOCKREPETAG
1070
     1
1071
        9
1005
1287E7
  0
LINE
  5
1287E8
  8
OBJECT
 10
2425.0
 20
-1084.9999999999979536
 30
0.0
 11
2430.0
 21
-1124.9999999999979536
 31
0.0
1001
ACDBBLOCKREPETAG
1070
     1
1071
       10
1005
1287E8
  0
LINE
  5
1287E9
  8
OBJECT
 10
2570.0
 20
-1124.9999999999979536
 30
0.0
 11
2575.0
 21
-1084.9999999999979536
 31
0.0
1001
ACDBBLOCKREPETAG
1070
     1
1071
       11
1005
1287E9
  0
LINE
  5
1287EA
  8
OBJECT
 10
4430.0
 20
-1364.9999999999979536
 30
0.0
 11
4570.0
 21
-1364.9999999999979536
 31
0.0
1001
ACDBBLOCKREPETAG
1070
     1
1071
        0
1005
1287EA
  0
LINE
  5
1287EB
  8
OBJECT
 10
4430.0
 20
-1364.9999999999979536
 30
0.0
 11
4430.0
 21
-1124.9999999999979536
 31
0.0
1001
ACDBBLOCKREPETAG
1070
     1
1071
        1
1005
1287EB
  0
LINE
  5
1287EC
  8
OBJECT
 10
4570.0
 20
-1364.9999999999979536
 30
0.0
 11
4570.0
 21
-1124.9999999999979536
 31
0.0
1001
ACDBBLOCKREPETAG
1070
     1
1071
        2
1005
1287EC
  0
LINE
  5
1287ED
  8
OBJECT
 10
4430.0
 20
-1124.9999999999979536
 30
0.0
 11
4570.0
 21
-1124.9999999999979536
 31
0.0
1001
ACDBBLOCKREPETAG
1070
     1
1071
        3
1005
1287ED
  0
LINE
  5
1287EE
  8
HIDDEN
 10
4437.5
 20
-1124.9999999999979536
 30
0.0
 11
4437.5
 21
-1364.9999999999979536
 31
0.0
1001
ACDBBLOCKREPETAG
1070
     1
1071
        4
1005
1287EE
  0
LINE
  5
1287EF
  8
HIDDEN
 10
4562.5
 20
-1124.9999999999979536
 30
0.0
 11
4562.5
 21
-1364.9999999999979536
 31
0.0
1001
ACDBBLOCKREPETAG
1070
     1
1071
        5
1005
1287EF
  0
LINE
  5
1287F0
  8
CENTER
 10
4500.0
 20
-1055.0
 30
0.0
 11
4500.0
 21
-1379.9999999999979536
 31
0.0
1001
ACDBBLOCKREPETAG
1070
     1
1071
        6
1005
1287F0
  0
LINE
  5
1287F1
  8
OBJECT
 10
4425.0
 20
-1055.0
 30
0.0
 11
4425.0
 21
-1084.9999999999979536
 31
0.0
1001
ACDBBLOCKREPETAG
1070
     1
1071
        7
1005
1287F1
  0
LINE
  5
1287F2
  8
OBJECT
 10
4575.0000000000027285
 20
-1055.0
 30
0.0
 11
4575.0
 21
-1084.9999999999979536
 31
0.0
1001
ACDBBLOCKREPETAG
1070
     1
1071
        8
1005
1287F2
  0
LINE
  5
1287F3
  8
OBJECT
 10
4425.0
 20
-1084.9999999999979536
 30
0.0
 11
4575.0
 21
-1084.9999999999979536
 31
0.0
1001
ACDBBLOCKREPETAG
1070
     1
1071
        9
1005
1287F3
  0
LINE
  5
1287F4
  8
OBJECT
 10
4425.0
 20
-1084.9999999999979536
 30
0.0
 11
4430.0
 21
-1124.9999999999979536
 31
0.0
1001
ACDBBLOCKREPETAG
1070
     1
1071
       10
1005
1287F4
  0
LINE
  5
1287F5
  8
OBJECT
 10
4570.0
 20
-1124.9999999999979536
 30
0.0
 11
4575.0
 21
-1084.9999999999979536
 31
0.0
1001
ACDBBLOCKREPETAG
1070
     1
1071
       11
1005
1287F5
  0
LINE
  5
1287F6
  8
SLIM
 10
4414.9999999999918145
 20
-1014.2764143050389976
 30
0.0
 11
4418.2764143050317216
 21
-1011.0
 31
0.0
1001
GRADIENTCOLOR1ACI
1070
     5
1001
GRADIENTCOLOR2ACI
1070
     2
1001
ACAD
1010
0.0
1020
0.0
1030
0.0
  0
LINE
  5
1287F7
  8
SLIM
 10
4414.999999999992724
 20
-1032.2369265471759263
 30
0.0
 11
4436.2369265471688777
 21
-1011.0
 31
0.0
1001
GRADIENTCOLOR1ACI
1070
     5
1001
GRADIENTCOLOR2ACI
1070
     2
1001
ACAD
1010
0.0
1020
0.0
1030
0.0
  0
LINE
  5
1287F8
  8
SLIM
 10
4414.9999999999936335
 20
-1050.1974387893139919
 30
0.0
 11
4454.1974387893087624
 21
-1011.0
 31
0.0
1001
GRADIENTCOLOR1ACI
1070
     5
1001
GRADIENTCOLOR2ACI
1070
     2
1001
ACAD
1010
0.0
1020
0.0
1030
0.0
  0
LINE
  5
1287F9
  8
SLIM
 10
4414.9999999999954525
 20
-1068.1579510314509207
 30
0.0
 11
4472.157951031446828
 21
-1011.0
 31
0.0
1001
GRADIENTCOLOR1ACI
1070
     5
1001
GRADIENTCOLOR2ACI
1070
     2
1001
ACAD
1010
0.0
1020
0.0
1030
0.0
  0
LINE
  5
1287FA
  8
SLIM
 10
4415.1454972543142503
 20
-1085.9729660192690517
 30
0.0
 11
4490.1184632735839841
 21
-1011.0
 31
0.0
1001
GRADIENTCOLOR1ACI
1070
     5
1001
GRADIENTCOLOR2ACI
1070
     2
1001
ACAD
1010
0.0
1020
0.0
1030
0.0
  0
LINE
  5
1287FB
  8
SLIM
 10
4417.1046274952441308
 20
-1101.9743480204790558
 30
0.0
 11
4508.0789755157229592
 21
-1011.0
 31
0.0
1001
GRADIENTCOLOR1ACI
1070
     5
1001
GRADIENTCOLOR2ACI
1070
     2
1001
ACAD
1010
0.0
1020
0.0
1030
0.0
  0
LINE
  5
1287FC
  8
SLIM
 10
4419.0637577361712829
 20
-1117.9757300216890599
 30
0.0
 11
4526.0394877578619344
 21
-1011.0
 31
0.0
1001
GRADIENTCOLOR1ACI
1070
     5
1001
GRADIENTCOLOR2ACI
1070
     2
1001
ACAD
1010
0.0
1020
0.0
1030
0.0
  0
LINE
  5
1287FD
  8
SLIM
 10
4420.0
 20
-1170.9210244842759039
 30
0.0
 11
4579.9210244842770408
 21
-1011.0
 31
0.0
1001
GRADIENTCOLOR1ACI
1070
     5
1001
GRADIENTCOLOR2ACI
1070
     2
1001
ACAD
1010
0.0
1020
0.0
1030
0.0
  0
LINE
  5
1287FE
  8
SLIM
 10
4420.0
 20
-1188.8815367264151064
 30
0.0
 11
4585.000000000007276
 21
-1023.8815367264079441
 31
0.0
1001
GRADIENTCOLOR1ACI
1070
     5
1001
GRADIENTCOLOR2ACI
1070
     2
1001
ACAD
1010
0.0
1020
0.0
1030
0.0
  0
LINE
  5
1287FF
  8
SLIM
 10
4420.0
 20
-1206.8420489685529446
 30
0.0
 11
4585.0000000000063665
 21
-1041.8420489685470329
 31
0.0
1001
GRADIENTCOLOR1ACI
1070
     5
1001
GRADIENTCOLOR2ACI
1070
     2
1001
ACAD
1010
0.0
1020
0.0
1030
0.0
  0
LINE
  5
128800
  8
SLIM
 10
4420.0
 20
-1224.8025612106910103
 30
0.0
 11
4585.000000000003638
 21
-1059.8025612106860081
 31
0.0
1001
GRADIENTCOLOR1ACI
1070
     5
1001
GRADIENTCOLOR2ACI
1070
     2
1001
ACAD
1010
0.0
1020
0.0
1030
0.0
  0
LINE
  5
128801
  8
SLIM
 10
4420.0
 20
-1242.7630734528299854
 30
0.0
 11
4585.0000000000027285
 21
-1077.7630734528258927
 31
0.0
1001
GRADIENTCOLOR1ACI
1070
     5
1001
GRADIENTCOLOR2ACI
1070
     2
1001
ACAD
1010
0.0
1020
0.0
1030
0.0
  0
LINE
  5
128802
  8
SLIM
 10
4429.7235856949682784
 20
-1251.0
 30
0.0
 11
4583.4738280308083631
 21
-1097.2497576641590058
 31
0.0
1001
GRADIENTCOLOR1ACI
1070
     5
1001
GRADIENTCOLOR2ACI
1070
     2
1001
ACAD
1010
0.0
1020
0.0
1030
0.0
  0
LINE
  5
128803
  8
SLIM
 10
4430.0
 20
-1268.6840979371058893
 30
0.0
 11
4447.684097937106344
 21
-1251.0
 31
0.0
1001
GRADIENTCOLOR1ACI
1070
     5
1001
GRADIENTCOLOR2ACI
1070
     2
1001
ACAD
1010
0.0
1020
0.0
1030
0.0
  0
LINE
  5
128804
  8
SLIM
 10
4447.684097937106344
 20
-1251.0
 30
0.0
 11
4580.9680345671367832
 21
-1117.7160633699691061
 31
0.0
1001
GRADIENTCOLOR1ACI
1070
     5
1001
GRADIENTCOLOR2ACI
1070
     2
1001
ACAD
1010
0.0
1020
0.0
1030
0.0
  0
LINE
  5
128805
  8
SLIM
 10
4446.6446101792444097
 20
-1270.0
 30
0.0
 11
4465.6446101792453192
 21
-1251.0
 31
0.0
1001
GRADIENTCOLOR1ACI
1070
     5
1001
GRADIENTCOLOR2ACI
1070
     2
1001
ACAD
1010
0.0
1020
0.0
1030
0.0
  0
LINE
  5
128806
  8
SLIM
 10
4465.6446101792453192
 20
-1251.0
 30
0.0
 11
4580.0
 21
-1136.6446101792450918
 31
0.0
1001
GRADIENTCOLOR1ACI
1070
     5
1001
GRADIENTCOLOR2ACI
1070
     2
1001
ACAD
1010
0.0
1020
0.0
1030
0.0
  0
LINE
  5
128807
  8
SLIM
 10
4464.6051224213833848
 20
-1270.0
 30
0.0
 11
4483.6051224213833848
 21
-1251.0
 31
0.0
1001
GRADIENTCOLOR1ACI
1070
     5
1001
GRADIENTCOLOR2ACI
1070
     2
1001
ACAD
1010
0.0
1020
0.0
1030
0.0
  0
LINE
  5
128808
  8
SLIM
 10
4420.0
 20
-1135.0
 30
0.0
 11
4544.0
 21
-1011.0
 31
0.0
1001
GRADIENTCOLOR1ACI
1070
     5
1001
GRADIENTCOLOR2ACI
1070
     2
1001
ACAD
1010
0.0
1020
0.0
1030
0.0
  0
LINE
  5
128809
  8
SLIM
 10
4483.6051224213833848
 20
-1251.0
 30
0.0
 11
4580.0
 21
-1154.60512242138293
 31
0.0
1001
GRADIENTCOLOR1ACI
1070
     5
1001
GRADIENTCOLOR2ACI
1070
     2
1001
ACAD
1010
0.0
1020
0.0
1030
0.0
  0
LINE
  5
12880A
  8
SLIM
 10
4420.0
 20
-1152.9605122421380656
 30
0.0
 11
4561.9605122421380656
 21
-1011.0
 31
0.0
1001
GRADIENTCOLOR1ACI
1070
     5
1001
GRADIENTCOLOR2ACI
1070
     2
1001
ACAD
1010
0.0
1020
0.0
1030
0.0
  0
LINE
  5
12880B
  8
SLIM
 10
4482.5656346635214504
 20
-1270.0
 30
0.0
 11
4501.5656346635214504
 21
-1251.0
 31
0.0
1001
GRADIENTCOLOR1ACI
1070
     5
1001
GRADIENTCOLOR2ACI
1070
     2
1001
ACAD
1010
0.0
1020
0.0
1030
0.0
  0
LINE
  5
12880C
  8
SLIM
 10
4501.5656346635214504
 20
-1251.0
 30
0.0
 11
4579.9999999999990905
 21
-1172.5656346635219052
 31
0.0
1001
GRADIENTCOLOR1ACI
1070
     5
1001
GRADIENTCOLOR2ACI
1070
     2
1001
ACAD
1010
0.0
1020
0.0
1030
0.0
  0
LINE
  5
12880D
  8
SLIM
 10
4500.5261469056586066
 20
-1270.0
 30
0.0
 11
4519.5261469056604255
 21
-1251.0
 31
0.0
1001
GRADIENTCOLOR1ACI
1070
     5
1001
GRADIENTCOLOR2ACI
1070
     2
1001
ACAD
1010
0.0
1020
0.0
1030
0.0
  0
LINE
  5
12880E
  8
SLIM
 10
4519.5261469056604255
 20
-1251.0
 30
0.0
 11
4579.9999999999990905
 21
-1190.5261469056599708
 31
0.0
1001
GRADIENTCOLOR1ACI
1070
     5
1001
GRADIENTCOLOR2ACI
1070
     2
1001
ACAD
1010
0.0
1020
0.0
1030
0.0
  0
LINE
  5
12880F
  8
SLIM
 10
4518.4866591477966722
 20
-1270.0
 30
0.0
 11
4537.4866591477975817
 21
-1251.0
 31
0.0
1001
GRADIENTCOLOR1ACI
1070
     5
1001
GRADIENTCOLOR2ACI
1070
     2
1001
ACAD
1010
0.0
1020
0.0
1030
0.0
  0
LINE
  5
128810
  8
SLIM
 10
4537.4866591477975817
 20
-1251.0
 30
0.0
 11
4579.9999999999990905
 21
-1208.4866591477989459
 31
0.0
1001
GRADIENTCOLOR1ACI
1070
     5
1001
GRADIENTCOLOR2ACI
1070
     2
1001
ACAD
1010
0.0
1020
0.0
1030
0.0
  0
LINE
  5
128811
  8
SLIM
 10
4536.4471713899356473
 20
-1270.0
 30
0.0
 11
4555.4471713899356473
 21
-1251.0
 31
0.0
1001
GRADIENTCOLOR1ACI
1070
     5
1001
GRADIENTCOLOR2ACI
1070
     2
1001
ACAD
1010
0.0
1020
0.0
1030
0.0
  0
LINE
  5
128812
  8
SLIM
 10
4555.4471713899356473
 20
-1251.0
 30
0.0
 11
4579.999999999998181
 21
-1226.447171389937921
 31
0.0
1001
GRADIENTCOLOR1ACI
1070
     5
1001
GRADIENTCOLOR2ACI
1070
     2
1001
ACAD
1010
0.0
1020
0.0
1030
0.0
  0
LINE
  5
128813
  8
SLIM
 10
4554.4076836320737129
 20
-1270.0
 30
0.0
 11
4570.0
 21
-1254.4076836320739403
 31
0.0
1001
GRADIENTCOLOR1ACI
1070
     5
1001
GRADIENTCOLOR2ACI
1070
     2
1001
ACAD
1010
0.0
1020
0.0
1030
0.0
  0
LINE
  5
128814
  8
SLIM
 10
4573.4076836320737129
 20
-1251.0
 30
0.0
 11
4579.999999999998181
 21
-1244.4076836320759867
 31
0.0
1001
GRADIENTCOLOR1ACI
1070
     5
1001
GRADIENTCOLOR2ACI
1070
     2
1001
ACAD
1010
0.0
1020
0.0
1030
0.0
  0
LINE
  5
128815
  8
OBJECT
 10
4414.9999999999918145
 20
-1011.0
 30
0.0
 11
4414.999999999996362
 21
-1084.7846033990349497
 31
0.0
1001
ACDBBLOCKREPETAG
1070
     1
1071
        1
1005
128815
  0
LINE
  5
128816
  8
OBJECT
 10
4585.000000000007276
 20
-1011.0
 30
0.0
 11
4585.0000000000027285
 21
-1084.7846033990419983
 31
0.0
1001
ACDBBLOCKREPETAG
1070
     1
1071
        2
1005
128816
  0
LINE
  5
128817
  8
OBJECT
 10
4585.000000000007276
 20
-1011.0
 30
0.0
 11
4414.9999999999918145
 21
-1011.0
 31
0.0
1001
ACDBBLOCKREPETAG
1070
     1
1071
        3
1005
128817
  0
LINE
  5
128818
  8
OBJECT
 10
4579.999999999998181
 20
-1251.0
 30
0.0
 11
4420.0
 21
-1251.0
 31
0.0
1001
ACDBBLOCKREPETAG
1070
     1
1071
        4
1005
128818
  0
LINE
  5
128819
  8
OBJECT
 10
4414.999999999996362
 20
-1084.7846033990349497
 30
0.0
 11
4420.0
 21
-1125.6225774829870261
 31
0.0
1001
ACDBBLOCKREPETAG
1070
     1
1071
        6
1005
128819
  0
LINE
  5
12881A
  8
OBJECT
 10
4420.0
 20
-1125.6225774829870261
 30
0.0
 11
4420.0
 21
-1251.0
 31
0.0
1001
ACDBBLOCKREPETAG
1070
     1
1071
        7
1005
12881A
  0
LINE
  5
12881B
  8
OBJECT
 10
4585.0000000000027285
 20
-1084.7846033990419983
 30
0.0
 11
4580.0
 21
-1125.6225774829870261
 31
0.0
1001
ACDBBLOCKREPETAG
1070
     1
1071
        8
1005
12881B
  0
LINE
  5
12881C
  8
OBJECT
 10
4430.0
 20
-1251.0
 30
0.0
 11
4430.0
 21
-1270.0
 31
0.0
1001
ACDBBLOCKREPETAG
1070
     1
1071
       10
1005
12881C
  0
LINE
  5
12881D
  8
OBJECT
 10
4580.0
 20
-1125.6225774829870261
 30
0.0
 11
4579.999999999998181
 21
-1251.0
 31
0.0
1001
ACDBBLOCKREPETAG
1070
     1
1071
        9
1005
12881D
  0
LINE
  5
12881E
  8
OBJECT
 10
4570.0
 20
-1270.0
 30
0.0
 11
4570.0
 21
-1251.0
 31
0.0
1001
ACDBBLOCKREPETAG
1070
     1
1071
       12
1005
12881E
  0
LINE
  5
12881F
  8
OBJECT
 10
4430.0
 20
-1270.0
 30
0.0
 11
4570.0
 21
-1270.0
 31
0.0
1001
ACDBBLOCKREPETAG
1070
     1
1071
       11
1005
12881F
  0
TEXT
  5
128820
  8
SLIM
 10
4054.5999999999989996
 20
-1698.0000266666650077
 30
0.0
 40
28.0
  1
※ 対応P寸法　　180～300（10mm単位）
 41
0.75
  0
TEXT
  5
128821
  8
SLIM
 10
4054.5999999999989996
 20
-1744.6666933333310681
 30
0.0
 40
28.0
  1
※ 最大対応スラブ厚　m-10
 41
0.75
  0
TEXT
  5
128822
  8
SLIM
 10
4054.5999999999989996
 20
-1791.3333599999980379
 30
0.0
 40
28.0
  1
※ 足切り可能寸法（最大）　540-P-m（コンパクトLベンド使用なら+20）
 41
0.75
  0
TEXT
  5
128823
  8
SLIM
 10
4098.8999999999996362
 20
-1863.3333066666650666
 30
0.0
 40
28.0
  1
国土交通大臣認定・（一財）日本消防設備安全センター性能評定取得品
 41
0.75
  0
TEXT
  5
128824
  8
SLIM
 10
4131.1000000000003638
 20
-1909.9999733333320364
 30
0.0
 40
28.0
  1
注）ご採用にあたり、認定書及び評定書の内容をご確認ください。
 41
0.75
  0
TEXT
  5
128825
  8
SLIM
 10
5448.4571428571443903
 20
-1410.9999999999959073
 30
0.0
 40
24.0
  1
標準：m=240
 41
0.75
  0
POLYLINE
  5
128826
  8
HIDDEN
 66
     1
 10
0.0
 20
0.0
 30
0.0
 70
     1
1001
ACDBBLOCKREPETAG
1070
     1
1071
      105
1005
0
  0
VERTEX
  5
128A2F
  8
HIDDEN
 10
359.9999999998779003
 20
-799.9999999999990905
 30
0.0
  0
VERTEX
  5
128A30
  8
HIDDEN
 10
719.999999999756028
 20
-799.9999999999990905
 30
0.0
  0
VERTEX
  5
128A31
  8
HIDDEN
 10
719.999999999756028
 20
-1263.9999999998410658
 30
0.0
  0
VERTEX
  5
128A32
  8
HIDDEN
 10
359.9999999998779003
 20
-1263.9999999998410658
 30
0.0
  0
SEQEND
  5
128A33
  8
HIDDEN
  0
POLYLINE
  5
128827
  8
HIDDEN
 66
     1
 10
0.0
 20
0.0
 30
0.0
 70
     1
1001
ACDBBLOCKREPETAG
1070
     1
1071
      110
1005
0
  0
VERTEX
  5
128A34
  8
HIDDEN
 10
-0.0000000000002274
 20
-799.9999999999990905
 30
0.0
  0
VERTEX
  5
128A35
  8
HIDDEN
 10
359.9999999998779003
 20
-799.9999999999990905
 30
0.0
  0
VERTEX
  5
128A36
  8
HIDDEN
 10
359.9999999998779003
 20
-1263.9999999998410658
 30
0.0
  0
VERTEX
  5
128A37
  8
HIDDEN
 10
-0.0000000000002274
 20
-1263.9999999998410658
 30
0.0
  0
SEQEND
  5
128A38
  8
HIDDEN
  0
POLYLINE
  5
128828
  8
HIDDEN
 66
     1
 10
0.0
 20
0.0
 30
0.0
 70
     1
1001
ACDBBLOCKREPETAG
1070
     1
1071
      125
1005
0
  0
VERTEX
  5
128A39
  8
HIDDEN
 10
-0.0000000000002274
 20
-1263.9999999998410658
 30
0.0
  0
VERTEX
  5
128A3A
  8
HIDDEN
 10
359.9999999998779003
 20
-1263.9999999998410658
 30
0.0
  0
VERTEX
  5
128A3B
  8
HIDDEN
 10
359.9999999998779003
 20
-1727.9999999996819042
 30
0.0
  0
VERTEX
  5
128A3C
  8
HIDDEN
 10
-0.0000000000002274
 20
-1727.9999999996819042
 30
0.0
  0
SEQEND
  5
128A3D
  8
HIDDEN
  0
POLYLINE
  5
128829
  8
HIDDEN
 66
     1
 10
0.0
 20
0.0
 30
0.0
 70
     1
1001
ACDBBLOCKREPETAG
1070
     1
1071
      110
1005
0
  0
VERTEX
  5
128A3E
  8
HIDDEN
 10
-0.0000000000002274
 20
0.0
 30
0.0
  0
VERTEX
  5
128A3F
  8
HIDDEN
 10
359.9999999998779003
 20
0.0
 30
0.0
  0
VERTEX
  5
128A40
  8
HIDDEN
 10
359.9999999998779003
 20
-463.9999999998416911
 30
0.0
  0
VERTEX
  5
128A41
  8
HIDDEN
 10
-0.0000000000002274
 20
-463.9999999998416911
 30
0.0
  0
SEQEND
  5
128A42
  8
HIDDEN
  0
TEXT
  5
12882A
  8
SLIM
 10
5474.3428571428567011
 20
-728.9999999999959073
 30
0.0
 40
24.0
  1
対応m寸法
 41
0.75
  0
TEXT
  5
12882B
  8
SLIM
 10
5380.5714285714284415
 20
-824.9999999999959073
 30
0.0
 40
24.0
  1
190
 41
0.75
  0
TEXT
  5
12882C
  8
SLIM
 10
5373.8000000000001819
 20
-728.9999999999959073
 30
0.0
 40
24.0
  1
P寸法
 41
0.75
  0
TEXT
  5
12882D
  8
SLIM
 10
5468.3428571428567011
 20
-776.999999999996362
 30
0.0
 40
24.0
  1
230～360
 41
0.75
  0
TEXT
  5
12882E
  8
SLIM
 10
5378.857142857143117
 20
-872.9999999999962483
 30
0.0
 40
24.0
  1
200
 41
0.75
  0
TEXT
  5
12882F
  8
SLIM
 10
5468.3428571428567011
 20
-824.999999999996362
 30
0.0
 40
24.0
  1
220～350
 41
0.75
  0
TEXT
  5
128830
  8
SLIM
 10
5380.5714285714284415
 20
-920.9999999999962483
 30
0.0
 40
24.0
  1
210
 41
0.75
  0
TEXT
  5
128831
  8
SLIM
 10
5470.0571428571429351
 20
-872.9999999999962483
 30
0.0
 40
24.0
  1
210～340
 41
0.75
  0
TEXT
  5
128832
  8
SLIM
 10
5378.857142857143117
 20
-968.9999999999962483
 30
0.0
 40
24.0
  1
220
 41
0.75
  0
TEXT
  5
128833
  8
SLIM
 10
5468.3428571428567011
 20
-920.9999999999962483
 30
0.0
 40
24.0
  1
200～330
 41
0.75
  0
TEXT
  5
128834
  8
SLIM
 10
5378.857142857143117
 20
-1016.999999999996021
 30
0.0
 40
24.0
  1
230
 41
0.75
  0
TEXT
  5
128835
  8
SLIM
 10
5470.0571428571429351
 20
-968.9999999999962483
 30
0.0
 40
24.0
  1
190～320
 41
0.75
  0
TEXT
  5
128836
  8
SLIM
 10
5378.857142857143117
 20
-1064.9999999999959073
 30
0.0
 40
24.0
  1
240
 41
0.75
  0
TEXT
  5
128837
  8
SLIM
 10
5471.7714285714291691
 20
-1016.999999999996021
 30
0.0
 40
24.0
  1
190～310
 41
0.75
  0
TEXT
  5
128838
  8
SLIM
 10
5378.857142857143117
 20
-1112.9999999999959073
 30
0.0
 40
24.0
  1
250
 41
0.75
  0
TEXT
  5
128839
  8
SLIM
 10
5378.857142857143117
 20
-1160.9999999999959073
 30
0.0
 40
24.0
  1
260
 41
0.75
  0
TEXT
  5
12883A
  8
SLIM
 10
5378.857142857143117
 20
-1208.9999999999959073
 30
0.0
 40
24.0
  1
270
 41
0.75
  0
TEXT
  5
12883B
  8
SLIM
 10
5378.857142857143117
 20
-1256.9999999999959073
 30
0.0
 40
24.0
  1
280
 41
0.75
  0
TEXT
  5
12883C
  8
SLIM
 10
5378.857142857143117
 20
-1304.9999999999959073
 30
0.0
 40
24.0
  1
290
 41
0.75
  0
TEXT
  5
12883D
  8
SLIM
 10
5378.857142857143117
 20
-1352.9999999999959073
 30
0.0
 40
24.0
  1
300
 41
0.75
  0
TEXT
  5
12883E
  8
SLIM
 10
5470.0571428571429351
 20
-1064.9999999999959073
 30
0.0
 40
24.0
  1
190～300
 41
0.75
  0
TEXT
  5
12883F
  8
SLIM
 10
5470.0571428571429351
 20
-1112.9999999999959073
 30
0.0
 40
24.0
  1
190～290
 41
0.75
  0
TEXT
  5
128840
  8
SLIM
 10
5470.0571428571429351
 20
-1160.9999999999959073
 30
0.0
 40
24.0
  1
190～280
 41
0.75
  0
TEXT
  5
128841
  8
SLIM
 10
5470.0571428571429351
 20
-1208.9999999999959073
 30
0.0
 40
24.0
  1
190～270
 41
0.75
  0
TEXT
  5
128842
  8
SLIM
 10
5470.0571428571429351
 20
-1256.9999999999959073
 30
0.0
 40
24.0
  1
190～260
 41
0.75
  0
TEXT
  5
128843
  8
SLIM
 10
5470.0571428571429351
 20
-1304.9999999999959073
 30
0.0
 40
24.0
  1
190～250
 41
0.75
  0
TEXT
  5
128844
  8
SLIM
 10
5470.0571428571429351
 20
-1352.9999999999959073
 30
0.0
 40
24.0
  1
190～240
 41
0.75
  0
TEXT
  5
128845
  8
SLIM
 10
5380.5714285714284415
 20
-776.9999999999959073
 30
0.0
 40
24.0
  1
180
 41
0.75
  0
LINE
  5
128846
  8
OBJECT
 10
2923.0
 20
-570.9999999999886313
 30
0.0
 11
2923.0
 21
-549.9999999999886313
 31
0.0
1001
ACDBBLOCKREPETAG
1070
     1
1071
       20
1005
128846
  0
LINE
  5
128847
  8
OBJECT
 10
2923.0
 20
-549.9999999999886313
 30
0.0
 11
3077.0
 21
-549.9999999999886313
 31
0.0
1001
ACDBBLOCKREPETAG
1070
     1
1071
       21
1005
128847
  0
LINE
  5
128848
  8
HIDDEN
 10
2943.0
 20
-619.9999999999886313
 30
0.0
 11
3057.0
 21
-619.9999999999886313
 31
0.0
1001
ACDBBLOCKREPETAG
1070
     1
1071
       22
1005
128848
  0
LINE
  5
128849
  8
OBJECT
 10
3077.0
 20
-549.9999999999886313
 30
0.0
 11
3077.0
 21
-570.9999999999886313
 31
0.0
1001
ACDBBLOCKREPETAG
1070
     1
1071
       23
1005
128849
  0
LINE
  5
12884A
  8
OBJECT
 10
3077.0
 20
-570.9999999999886313
 30
0.0
 11
2923.0
 21
-570.9999999999886313
 31
0.0
1001
ACDBBLOCKREPETAG
1070
     1
1071
       24
1005
12884A
  0
LINE
  5
12884B
  8
CENTER
 10
3000.0
 20
-534.9999999999886313
 30
0.0
 11
3000.0
 21
-769.9999999999886313
 31
0.0
1001
ACDBBLOCKREPETAG
1070
     1
1071
       25
1005
12884B
  0
LINE
  5
12884C
  8
OBJECT
 10
2925.0
 20
-633.9999999999886313
 30
0.0
 11
2925.0
 21
-757.9999999999886313
 31
0.0
1001
ACDBBLOCKREPETAG
1070
     1
1071
       26
1005
12884C
  0
LINE
  5
12884D
  8
OBJECT
 10
2928.0
 20
-570.9999999999886313
 30
0.0
 11
2928.0
 21
-633.9999999999886313
 31
0.0
1001
ACDBBLOCKREPETAG
1070
     1
1071
       27
1005
12884D
  0
LINE
  5
12884E
  8
OBJECT
 10
3072.0
 20
-633.9999999999886313
 30
0.0
 11
3072.0
 21
-570.9999999999886313
 31
0.0
1001
ACDBBLOCKREPETAG
1070
     1
1071
       28
1005
12884E
  0
LINE
  5
12884F
  8
OBJECT
 10
2920.0
 20
-757.9999999999886313
 30
0.0
 11
3080.0
 21
-757.9999999999886313
 31
0.0
1001
ACDBBLOCKREPETAG
1070
     1
1071
       29
1005
12884F
  0
LINE
  5
128850
  8
OBJECT
 10
3075.0
 20
-633.9999999999886313
 30
0.0
 11
2925.0
 21
-633.9999999999886313
 31
0.0
1001
ACDBBLOCKREPETAG
1070
     1
1071
       30
1005
128850
  0
LINE
  5
128851
  8
OBJECT
 10
2920.0
 20
-757.9999999999886313
 30
0.0
 11
2920.0
 21
-769.9999999999886313
 31
0.0
1001
ACDBBLOCKREPETAG
1070
     1
1071
       31
1005
128851
  0
LINE
  5
128852
  8
OBJECT
 10
2920.0
 20
-769.9999999999886313
 30
0.0
 11
3080.0
 21
-769.9999999999886313
 31
0.0
1001
ACDBBLOCKREPETAG
1070
     1
1071
       32
1005
128852
  0
LINE
  5
128853
  8
OBJECT
 10
3080.0
 20
-769.9999999999886313
 30
0.0
 11
3080.0
 21
-757.9999999999886313
 31
0.0
1001
ACDBBLOCKREPETAG
1070
     1
1071
       33
1005
128853
  0
LINE
  5
128854
  8
OBJECT
 10
3075.0
 20
-633.9999999999886313
 30
0.0
 11
3075.0
 21
-757.9999999999886313
 31
0.0
1001
ACDBBLOCKREPETAG
1070
     1
1071
       34
1005
128854
  0
CIRCLE
  5
128855
  8
OBJECT
 10
3000.0
 20
-695.9999999999886313
 30
0.0
 40
62.0
1001
ACDBBLOCKREPETAG
1070
     1
1071
        3
1005
128855
  0
LINE
  5
128856
  8
CENTER
 10
2938.0
 20
-710.9999999999886313
 30
0.0
 11
3062.0
 21
-710.9999999999886313
 31
0.0
1001
ACDBBLOCKREPETAG
1070
     1
1071
        4
1005
128856
  0
CIRCLE
  5
128857
  8
OBJECT
 10
3000.0
 20
-710.9999999999886313
 30
0.0
 40
28.0
1001
ACDBBLOCKREPETAG
1070
     1
1071
        6
1005
128857
  0
CIRCLE
  5
128858
  8
OBJECT
 10
3000.0
 20
-710.9999999999886313
 30
0.0
 40
39.0
1001
ACDBBLOCKREPETAG
1070
     1
1071
        7
1005
128858
  0
ARC
  5
128859
  8
OBJECT
 10
3000.0
 20
-710.9999999999886313
 30
0.0
 40
47.0
 50
290.5819692114417876
 51
249.4180307885582124
1001
ACDBBLOCKREPETAG
1070
     1
1071
        8
1005
128859
  0
LINE
  5
12885A
  8
OBJECT
 10
2983.4772883581431415
 20
-754.9999999999886313
 30
0.0
 11
3016.5227116418582227
 21
-754.9999999999886313
 31
0.0
1001
ACDBBLOCKREPETAG
1070
     1
1071
        9
1005
12885A
  0
LINE
  5
12885B
  8
DIM
 10
2665.0000000000009095
 20
-710.999999999994543
 30
0.0
 11
2719.4245816727589045
 21
-710.999999999994543
 31
0.0
  0
LINE
  5
12885C
  8
DIM
 10
2529.052558883257916
 20
-1010.9999999999949978
 30
0.0
 11
2719.4245816727589045
 21
-1010.9999999999949978
 31
0.0
  0
LINE
  5
12885D
  8
DIM
 10
2709.4245816727589045
 20
-730.999999999994543
 30
0.0
 11
2709.4245816727589045
 21
-990.9999999999947704
 31
0.0
  0
INSERT
  5
12885E
  8
DIM
  2
_OPEN30
 10
2709.4245816727589045
 20
-710.999999999994543
 30
0.0
 41
20.0
 42
20.0
 43
20.0
 50
90.0
  0
INSERT
  5
12885F
  8
DIM
  2
_OPEN30
 10
2709.4245816727589045
 20
-1010.9999999999949978
 30
0.0
 41
20.0
 42
20.0
 43
20.0
 50
270.0
  0
INSERT
  5
128860
  8
SLIM
  2
*U125
 10
0.0
 20
0.0
 30
0.0
  0
LINE
  5
128861
  8
OBJECT
 10
2930.0
 20
-1364.9999999999920419
 30
0.0
 11
3070.0
 21
-1364.9999999999920419
 31
0.0
1001
ACDBBLOCKREPETAG
1070
     1
1071
        0
1005
128861
  0
LINE
  5
128862
  8
OBJECT
 10
2930.0
 20
-1364.9999999999920419
 30
0.0
 11
2930.0
 21
-1124.9999999999920419
 31
0.0
1001
ACDBBLOCKREPETAG
1070
     1
1071
        1
1005
128862
  0
LINE
  5
128863
  8
OBJECT
 10
3070.0
 20
-1364.9999999999920419
 30
0.0
 11
3070.0
 21
-1124.9999999999920419
 31
0.0
1001
ACDBBLOCKREPETAG
1070
     1
1071
        2
1005
128863
  0
LINE
  5
128864
  8
OBJECT
 10
2930.0
 20
-1124.9999999999920419
 30
0.0
 11
3070.0
 21
-1124.9999999999920419
 31
0.0
1001
ACDBBLOCKREPETAG
1070
     1
1071
        3
1005
128864
  0
LINE
  5
128865
  8
HIDDEN
 10
2937.5
 20
-1124.9999999999920419
 30
0.0
 11
2937.5
 21
-1364.9999999999920419
 31
0.0
1001
ACDBBLOCKREPETAG
1070
     1
1071
        4
1005
128865
  0
LINE
  5
128866
  8
HIDDEN
 10
3062.5
 20
-1124.9999999999920419
 30
0.0
 11
3062.5
 21
-1364.9999999999920419
 31
0.0
1001
ACDBBLOCKREPETAG
1070
     1
1071
        5
1005
128866
  0
LINE
  5
128867
  8
CENTER
 10
3000.0
 20
-1054.9999999999940883
 30
0.0
 11
3000.0
 21
-1379.9999999999929514
 31
0.0
1001
ACDBBLOCKREPETAG
1070
     1
1071
        6
1005
128867
  0
LINE
  5
128868
  8
OBJECT
 10
2925.0
 20
-1054.9999999999940883
 30
0.0
 11
2925.0
 21
-1084.9999999999920419
 31
0.0
1001
ACDBBLOCKREPETAG
1070
     1
1071
        7
1005
128868
  0
LINE
  5
128869
  8
OBJECT
 10
3075.0000000000040927
 20
-1054.9999999999940883
 30
0.0
 11
3075.0
 21
-1084.9999999999920419
 31
0.0
1001
ACDBBLOCKREPETAG
1070
     1
1071
        8
1005
128869
  0
LINE
  5
12886A
  8
OBJECT
 10
2925.0
 20
-1084.9999999999920419
 30
0.0
 11
3075.0
 21
-1084.9999999999920419
 31
0.0
1001
ACDBBLOCKREPETAG
1070
     1
1071
        9
1005
12886A
  0
LINE
  5
12886B
  8
OBJECT
 10
2925.0
 20
-1084.9999999999920419
 30
0.0
 11
2930.0
 21
-1124.9999999999920419
 31
0.0
1001
ACDBBLOCKREPETAG
1070
     1
1071
       10
1005
12886B
  0
LINE
  5
12886C
  8
OBJECT
 10
3070.0
 20
-1124.9999999999920419
 30
0.0
 11
3075.0
 21
-1084.9999999999920419
 31
0.0
1001
ACDBBLOCKREPETAG
1070
     1
1071
       11
1005
12886C
  0
LINE
  5
12886D
  8
OBJECT
 10
4923.0
 20
-570.9999999999886313
 30
0.0
 11
4923.0
 21
-549.9999999999886313
 31
0.0
1001
ACDBBLOCKREPETAG
1070
     1
1071
       20
1005
12886D
  0
LINE
  5
12886E
  8
OBJECT
 10
4923.0
 20
-549.9999999999886313
 30
0.0
 11
5077.0
 21
-549.9999999999886313
 31
0.0
1001
ACDBBLOCKREPETAG
1070
     1
1071
       21
1005
12886E
  0
LINE
  5
12886F
  8
HIDDEN
 10
4943.0
 20
-619.9999999999886313
 30
0.0
 11
5057.0
 21
-619.9999999999886313
 31
0.0
1001
ACDBBLOCKREPETAG
1070
     1
1071
       22
1005
12886F
  0
LINE
  5
128870
  8
OBJECT
 10
5077.0
 20
-549.9999999999886313
 30
0.0
 11
5077.0
 21
-570.9999999999886313
 31
0.0
1001
ACDBBLOCKREPETAG
1070
     1
1071
       23
1005
128870
  0
LINE
  5
128871
  8
OBJECT
 10
5077.0
 20
-570.9999999999886313
 30
0.0
 11
4923.0
 21
-570.9999999999886313
 31
0.0
1001
ACDBBLOCKREPETAG
1070
     1
1071
       24
1005
128871
  0
LINE
  5
128872
  8
CENTER
 10
5000.0
 20
-534.9999999999886313
 30
0.0
 11
5000.0
 21
-769.9999999999886313
 31
0.0
1001
ACDBBLOCKREPETAG
1070
     1
1071
       25
1005
128872
  0
LINE
  5
128873
  8
OBJECT
 10
4925.0
 20
-633.9999999999886313
 30
0.0
 11
4925.0
 21
-757.9999999999886313
 31
0.0
1001
ACDBBLOCKREPETAG
1070
     1
1071
       26
1005
128873
  0
LINE
  5
128874
  8
OBJECT
 10
4928.0
 20
-570.9999999999886313
 30
0.0
 11
4928.0
 21
-633.9999999999886313
 31
0.0
1001
ACDBBLOCKREPETAG
1070
     1
1071
       27
1005
128874
  0
LINE
  5
128875
  8
OBJECT
 10
5072.0
 20
-633.9999999999886313
 30
0.0
 11
5072.0
 21
-570.9999999999886313
 31
0.0
1001
ACDBBLOCKREPETAG
1070
     1
1071
       28
1005
128875
  0
LINE
  5
128876
  8
OBJECT
 10
4920.0
 20
-757.9999999999886313
 30
0.0
 11
5080.0
 21
-757.9999999999886313
 31
0.0
1001
ACDBBLOCKREPETAG
1070
     1
1071
       29
1005
128876
  0
LINE
  5
128877
  8
OBJECT
 10
5075.0
 20
-633.9999999999886313
 30
0.0
 11
4925.0
 21
-633.9999999999886313
 31
0.0
1001
ACDBBLOCKREPETAG
1070
     1
1071
       30
1005
128877
  0
LINE
  5
128878
  8
OBJECT
 10
4920.0
 20
-757.9999999999886313
 30
0.0
 11
4920.0
 21
-769.9999999999886313
 31
0.0
1001
ACDBBLOCKREPETAG
1070
     1
1071
       31
1005
128878
  0
LINE
  5
128879
  8
OBJECT
 10
4920.0
 20
-769.9999999999886313
 30
0.0
 11
5080.0
 21
-769.9999999999886313
 31
0.0
1001
ACDBBLOCKREPETAG
1070
     1
1071
       32
1005
128879
  0
LINE
  5
12887A
  8
OBJECT
 10
5080.0
 20
-769.9999999999886313
 30
0.0
 11
5080.0
 21
-757.9999999999886313
 31
0.0
1001
ACDBBLOCKREPETAG
1070
     1
1071
       33
1005
12887A
  0
LINE
  5
12887B
  8
OBJECT
 10
5075.0
 20
-633.9999999999886313
 30
0.0
 11
5075.0
 21
-757.9999999999886313
 31
0.0
1001
ACDBBLOCKREPETAG
1070
     1
1071
       34
1005
12887B
  0
CIRCLE
  5
12887C
  8
OBJECT
 10
5000.0
 20
-695.9999999999886313
 30
0.0
 40
62.0
1001
ACDBBLOCKREPETAG
1070
     1
1071
        3
1005
12887C
  0
LINE
  5
12887D
  8
CENTER
 10
4938.0
 20
-710.9999999999886313
 30
0.0
 11
5062.0
 21
-710.9999999999886313
 31
0.0
1001
ACDBBLOCKREPETAG
1070
     1
1071
        4
1005
12887D
  0
CIRCLE
  5
12887E
  8
OBJECT
 10
5000.0
 20
-710.9999999999886313
 30
0.0
 40
28.0
1001
ACDBBLOCKREPETAG
1070
     1
1071
        6
1005
12887E
  0
CIRCLE
  5
12887F
  8
OBJECT
 10
5000.0
 20
-710.9999999999886313
 30
0.0
 40
39.0
1001
ACDBBLOCKREPETAG
1070
     1
1071
        7
1005
12887F
  0
ARC
  5
128880
  8
OBJECT
 10
5000.0
 20
-710.9999999999886313
 30
0.0
 40
47.0
 50
290.5819692114417876
 51
249.4180307885582124
1001
ACDBBLOCKREPETAG
1070
     1
1071
        8
1005
128880
  0
LINE
  5
128881
  8
OBJECT
 10
4983.4772883581426868
 20
-754.9999999999886313
 30
0.0
 11
5016.5227116418582227
 21
-754.9999999999886313
 31
0.0
1001
ACDBBLOCKREPETAG
1070
     1
1071
        9
1005
128881
  0
LINE
  5
128882
  8
OBJECT
 10
4930.0
 20
-1364.9999999999920419
 30
0.0
 11
5070.0
 21
-1364.9999999999920419
 31
0.0
1001
ACDBBLOCKREPETAG
1070
     1
1071
        0
1005
128882
  0
LINE
  5
128883
  8
OBJECT
 10
4930.0
 20
-1364.9999999999920419
 30
0.0
 11
4930.0
 21
-1124.9999999999920419
 31
0.0
1001
ACDBBLOCKREPETAG
1070
     1
1071
        1
1005
128883
  0
LINE
  5
128884
  8
OBJECT
 10
5070.0
 20
-1364.9999999999920419
 30
0.0
 11
5070.0
 21
-1124.9999999999920419
 31
0.0
1001
ACDBBLOCKREPETAG
1070
     1
1071
        2
1005
128884
  0
LINE
  5
128885
  8
OBJECT
 10
4930.0
 20
-1124.9999999999920419
 30
0.0
 11
5070.0
 21
-1124.9999999999920419
 31
0.0
1001
ACDBBLOCKREPETAG
1070
     1
1071
        3
1005
128885
  0
LINE
  5
128886
  8
HIDDEN
 10
4937.5
 20
-1124.9999999999920419
 30
0.0
 11
4937.5
 21
-1364.9999999999920419
 31
0.0
1001
ACDBBLOCKREPETAG
1070
     1
1071
        4
1005
128886
  0
LINE
  5
128887
  8
HIDDEN
 10
5062.5
 20
-1124.9999999999920419
 30
0.0
 11
5062.5
 21
-1364.9999999999920419
 31
0.0
1001
ACDBBLOCKREPETAG
1070
     1
1071
        5
1005
128887
  0
LINE
  5
128888
  8
CENTER
 10
5000.0
 20
-1054.9999999999940883
 30
0.0
 11
5000.0
 21
-1379.9999999999929514
 31
0.0
1001
ACDBBLOCKREPETAG
1070
     1
1071
        6
1005
128888
  0
LINE
  5
128889
  8
OBJECT
 10
4925.0
 20
-1054.9999999999940883
 30
0.0
 11
4925.0
 21
-1084.9999999999920419
 31
0.0
1001
ACDBBLOCKREPETAG
1070
     1
1071
        7
1005
128889
  0
LINE
  5
12888A
  8
OBJECT
 10
5075.0000000000027285
 20
-1054.9999999999940883
 30
0.0
 11
5075.0
 21
-1084.9999999999920419
 31
0.0
1001
ACDBBLOCKREPETAG
1070
     1
1071
        8
1005
12888A
  0
LINE
  5
12888B
  8
OBJECT
 10
4925.0
 20
-1084.9999999999920419
 30
0.0
 11
5075.0
 21
-1084.9999999999920419
 31
0.0
1001
ACDBBLOCKREPETAG
1070
     1
1071
        9
1005
12888B
  0
LINE
  5
12888C
  8
OBJECT
 10
4925.0
 20
-1084.9999999999920419
 30
0.0
 11
4930.0
 21
-1124.9999999999920419
 31
0.0
1001
ACDBBLOCKREPETAG
1070
     1
1071
       10
1005
12888C
  0
LINE
  5
12888D
  8
OBJECT
 10
5070.0
 20
-1124.9999999999920419
 30
0.0
 11
5075.0
 21
-1084.9999999999920419
 31
0.0
1001
ACDBBLOCKREPETAG
1070
     1
1071
       11
1005
12888D
  0
LINE
  5
12888E
  8
SLIM
 10
4914.9999999999918145
 20
-1014.2764143050389976
 30
0.0
 11
4918.2764143050317216
 21
-1011.0
 31
0.0
1001
GRADIENTCOLOR1ACI
1070
     5
1001
GRADIENTCOLOR2ACI
1070
     2
1001
ACAD
1010
0.0
1020
0.0
1030
0.0
  0
LINE
  5
12888F
  8
SLIM
 10
4914.999999999992724
 20
-1032.2369265471759263
 30
0.0
 11
4936.2369265471697872
 21
-1011.0
 31
0.0
1001
GRADIENTCOLOR1ACI
1070
     5
1001
GRADIENTCOLOR2ACI
1070
     2
1001
ACAD
1010
0.0
1020
0.0
1030
0.0
  0
LINE
  5
128890
  8
SLIM
 10
4914.9999999999954525
 20
-1050.1974387893139919
 30
0.0
 11
4954.1974387893087624
 21
-1011.0
 31
0.0
1001
GRADIENTCOLOR1ACI
1070
     5
1001
GRADIENTCOLOR2ACI
1070
     2
1001
ACAD
1010
0.0
1020
0.0
1030
0.0
  0
LINE
  5
128891
  8
SLIM
 10
4914.9999999999954525
 20
-1068.1579510314509207
 30
0.0
 11
4972.157951031446828
 21
-1011.0
 31
0.0
1001
GRADIENTCOLOR1ACI
1070
     5
1001
GRADIENTCOLOR2ACI
1070
     2
1001
ACAD
1010
0.0
1020
0.0
1030
0.0
  0
LINE
  5
128892
  8
SLIM
 10
4915.1454972543142503
 20
-1085.9729660192690517
 30
0.0
 11
4990.1184632735848936
 21
-1011.0
 31
0.0
1001
GRADIENTCOLOR1ACI
1070
     5
1001
GRADIENTCOLOR2ACI
1070
     2
1001
ACAD
1010
0.0
1020
0.0
1030
0.0
  0
LINE
  5
128893
  8
SLIM
 10
4917.1046274952450403
 20
-1101.9743480204790558
 30
0.0
 11
5008.0789755157229592
 21
-1011.0
 31
0.0
1001
GRADIENTCOLOR1ACI
1070
     5
1001
GRADIENTCOLOR2ACI
1070
     2
1001
ACAD
1010
0.0
1020
0.0
1030
0.0
  0
LINE
  5
128894
  8
SLIM
 10
4919.0637577361712829
 20
-1117.9757300216890599
 30
0.0
 11
5026.0394877578619344
 21
-1011.0
 31
0.0
1001
GRADIENTCOLOR1ACI
1070
     5
1001
GRADIENTCOLOR2ACI
1070
     2
1001
ACAD
1010
0.0
1020
0.0
1030
0.0
  0
LINE
  5
128895
  8
SLIM
 10
4920.0
 20
-1170.9210244842759039
 30
0.0
 11
5079.9210244842770408
 21
-1011.0
 31
0.0
1001
GRADIENTCOLOR1ACI
1070
     5
1001
GRADIENTCOLOR2ACI
1070
     2
1001
ACAD
1010
0.0
1020
0.0
1030
0.0
  0
LINE
  5
128896
  8
SLIM
 10
4920.0
 20
-1188.8815367264151064
 30
0.0
 11
5085.000000000007276
 21
-1023.8815367264079441
 31
0.0
1001
GRADIENTCOLOR1ACI
1070
     5
1001
GRADIENTCOLOR2ACI
1070
     2
1001
ACAD
1010
0.0
1020
0.0
1030
0.0
  0
LINE
  5
128897
  8
SLIM
 10
4920.0
 20
-1206.8420489685529446
 30
0.0
 11
5085.0000000000063665
 21
-1041.8420489685470329
 31
0.0
1001
GRADIENTCOLOR1ACI
1070
     5
1001
GRADIENTCOLOR2ACI
1070
     2
1001
ACAD
1010
0.0
1020
0.0
1030
0.0
  0
LINE
  5
128898
  8
SLIM
 10
4920.0
 20
-1224.8025612106910103
 30
0.0
 11
5085.000000000003638
 21
-1059.8025612106860081
 31
0.0
1001
GRADIENTCOLOR1ACI
1070
     5
1001
GRADIENTCOLOR2ACI
1070
     2
1001
ACAD
1010
0.0
1020
0.0
1030
0.0
  0
LINE
  5
128899
  8
SLIM
 10
4920.0
 20
-1242.7630734528299854
 30
0.0
 11
5085.000000000003638
 21
-1077.7630734528258927
 31
0.0
1001
GRADIENTCOLOR1ACI
1070
     5
1001
GRADIENTCOLOR2ACI
1070
     2
1001
ACAD
1010
0.0
1020
0.0
1030
0.0
  0
LINE
  5
12889A
  8
SLIM
 10
4929.7235856949691879
 20
-1251.0
 30
0.0
 11
5083.4738280308083631
 21
-1097.2497576641590058
 31
0.0
1001
GRADIENTCOLOR1ACI
1070
     5
1001
GRADIENTCOLOR2ACI
1070
     2
1001
ACAD
1010
0.0
1020
0.0
1030
0.0
  0
LINE
  5
12889B
  8
SLIM
 10
4930.0
 20
-1268.6840979371058893
 30
0.0
 11
4947.684097937106344
 21
-1251.0
 31
0.0
1001
GRADIENTCOLOR1ACI
1070
     5
1001
GRADIENTCOLOR2ACI
1070
     2
1001
ACAD
1010
0.0
1020
0.0
1030
0.0
  0
LINE
  5
12889C
  8
SLIM
 10
4947.684097937106344
 20
-1251.0
 30
0.0
 11
5080.9680345671376926
 21
-1117.7160633699691061
 31
0.0
1001
GRADIENTCOLOR1ACI
1070
     5
1001
GRADIENTCOLOR2ACI
1070
     2
1001
ACAD
1010
0.0
1020
0.0
1030
0.0
  0
LINE
  5
12889D
  8
SLIM
 10
4946.6446101792444097
 20
-1270.0
 30
0.0
 11
4965.6446101792453192
 21
-1251.0
 31
0.0
1001
GRADIENTCOLOR1ACI
1070
     5
1001
GRADIENTCOLOR2ACI
1070
     2
1001
ACAD
1010
0.0
1020
0.0
1030
0.0
  0
LINE
  5
12889E
  8
SLIM
 10
4965.6446101792453192
 20
-1251.0
 30
0.0
 11
5080.0
 21
-1136.6446101792450918
 31
0.0
1001
GRADIENTCOLOR1ACI
1070
     5
1001
GRADIENTCOLOR2ACI
1070
     2
1001
ACAD
1010
0.0
1020
0.0
1030
0.0
  0
LINE
  5
12889F
  8
SLIM
 10
4964.6051224213833848
 20
-1270.0
 30
0.0
 11
4983.6051224213833848
 21
-1251.0
 31
0.0
1001
GRADIENTCOLOR1ACI
1070
     5
1001
GRADIENTCOLOR2ACI
1070
     2
1001
ACAD
1010
0.0
1020
0.0
1030
0.0
  0
LINE
  5
1288A0
  8
SLIM
 10
4920.0
 20
-1135.0
 30
0.0
 11
5044.0
 21
-1011.0
 31
0.0
1001
GRADIENTCOLOR1ACI
1070
     5
1001
GRADIENTCOLOR2ACI
1070
     2
1001
ACAD
1010
0.0
1020
0.0
1030
0.0
  0
LINE
  5
1288A1
  8
SLIM
 10
4983.6051224213833848
 20
-1251.0
 30
0.0
 11
5080.0
 21
-1154.60512242138293
 31
0.0
1001
GRADIENTCOLOR1ACI
1070
     5
1001
GRADIENTCOLOR2ACI
1070
     2
1001
ACAD
1010
0.0
1020
0.0
1030
0.0
  0
LINE
  5
1288A2
  8
SLIM
 10
4920.0
 20
-1152.9605122421380656
 30
0.0
 11
5061.9605122421380656
 21
-1011.0
 31
0.0
1001
GRADIENTCOLOR1ACI
1070
     5
1001
GRADIENTCOLOR2ACI
1070
     2
1001
ACAD
1010
0.0
1020
0.0
1030
0.0
  0
LINE
  5
1288A3
  8
SLIM
 10
4982.5656346635214504
 20
-1270.0
 30
0.0
 11
5001.5656346635214504
 21
-1251.0
 31
0.0
1001
GRADIENTCOLOR1ACI
1070
     5
1001
GRADIENTCOLOR2ACI
1070
     2
1001
ACAD
1010
0.0
1020
0.0
1030
0.0
  0
LINE
  5
1288A4
  8
SLIM
 10
5001.5656346635214504
 20
-1251.0
 30
0.0
 11
5079.9999999999990905
 21
-1172.5656346635219052
 31
0.0
1001
GRADIENTCOLOR1ACI
1070
     5
1001
GRADIENTCOLOR2ACI
1070
     2
1001
ACAD
1010
0.0
1020
0.0
1030
0.0
  0
LINE
  5
1288A5
  8
SLIM
 10
5000.5261469056586066
 20
-1270.0
 30
0.0
 11
5019.5261469056604255
 21
-1251.0
 31
0.0
1001
GRADIENTCOLOR1ACI
1070
     5
1001
GRADIENTCOLOR2ACI
1070
     2
1001
ACAD
1010
0.0
1020
0.0
1030
0.0
  0
LINE
  5
1288A6
  8
SLIM
 10
5019.5261469056604255
 20
-1251.0
 30
0.0
 11
5079.9999999999990905
 21
-1190.5261469056599708
 31
0.0
1001
GRADIENTCOLOR1ACI
1070
     5
1001
GRADIENTCOLOR2ACI
1070
     2
1001
ACAD
1010
0.0
1020
0.0
1030
0.0
  0
LINE
  5
1288A7
  8
SLIM
 10
5018.4866591477966722
 20
-1270.0
 30
0.0
 11
5037.4866591477975817
 21
-1251.0
 31
0.0
1001
GRADIENTCOLOR1ACI
1070
     5
1001
GRADIENTCOLOR2ACI
1070
     2
1001
ACAD
1010
0.0
1020
0.0
1030
0.0
  0
LINE
  5
1288A8
  8
SLIM
 10
5037.4866591477975817
 20
-1251.0
 30
0.0
 11
5079.9999999999990905
 21
-1208.4866591477989459
 31
0.0
1001
GRADIENTCOLOR1ACI
1070
     5
1001
GRADIENTCOLOR2ACI
1070
     2
1001
ACAD
1010
0.0
1020
0.0
1030
0.0
  0
LINE
  5
1288A9
  8
SLIM
 10
5036.4471713899365568
 20
-1270.0
 30
0.0
 11
5055.4471713899356473
 21
-1251.0
 31
0.0
1001
GRADIENTCOLOR1ACI
1070
     5
1001
GRADIENTCOLOR2ACI
1070
     2
1001
ACAD
1010
0.0
1020
0.0
1030
0.0
  0
LINE
  5
1288AA
  8
SLIM
 10
5055.4471713899356473
 20
-1251.0
 30
0.0
 11
5079.999999999998181
 21
-1226.447171389937921
 31
0.0
1001
GRADIENTCOLOR1ACI
1070
     5
1001
GRADIENTCOLOR2ACI
1070
     2
1001
ACAD
1010
0.0
1020
0.0
1030
0.0
  0
LINE
  5
1288AB
  8
SLIM
 10
5054.4076836320737129
 20
-1270.0
 30
0.0
 11
5070.0
 21
-1254.4076836320739403
 31
0.0
1001
GRADIENTCOLOR1ACI
1070
     5
1001
GRADIENTCOLOR2ACI
1070
     2
1001
ACAD
1010
0.0
1020
0.0
1030
0.0
  0
LINE
  5
1288AC
  8
SLIM
 10
5073.4076836320737129
 20
-1251.0
 30
0.0
 11
5079.999999999998181
 21
-1244.4076836320759867
 31
0.0
1001
GRADIENTCOLOR1ACI
1070
     5
1001
GRADIENTCOLOR2ACI
1070
     2
1001
ACAD
1010
0.0
1020
0.0
1030
0.0
  0
LINE
  5
1288AD
  8
OBJECT
 10
4914.9999999999918145
 20
-1011.0
 30
0.0
 11
4914.999999999996362
 21
-1084.7846033990349497
 31
0.0
1001
ACDBBLOCKREPETAG
1070
     1
1071
        1
1005
1288AD
  0
LINE
  5
1288AE
  8
OBJECT
 10
5085.000000000007276
 20
-1011.0
 30
0.0
 11
5085.000000000003638
 21
-1084.7846033990419983
 31
0.0
1001
ACDBBLOCKREPETAG
1070
     1
1071
        2
1005
1288AE
  0
LINE
  5
1288AF
  8
OBJECT
 10
5085.000000000007276
 20
-1011.0
 30
0.0
 11
4914.9999999999918145
 21
-1011.0
 31
0.0
1001
ACDBBLOCKREPETAG
1070
     1
1071
        3
1005
1288AF
  0
LINE
  5
1288B0
  8
OBJECT
 10
5079.999999999998181
 20
-1251.0
 30
0.0
 11
4920.0
 21
-1251.0
 31
0.0
1001
ACDBBLOCKREPETAG
1070
     1
1071
        4
1005
1288B0
  0
LINE
  5
1288B1
  8
OBJECT
 10
4914.999999999996362
 20
-1084.7846033990349497
 30
0.0
 11
4920.0
 21
-1125.6225774829870261
 31
0.0
1001
ACDBBLOCKREPETAG
1070
     1
1071
        6
1005
1288B1
  0
LINE
  5
1288B2
  8
OBJECT
 10
4920.0
 20
-1125.6225774829870261
 30
0.0
 11
4920.0
 21
-1251.0
 31
0.0
1001
ACDBBLOCKREPETAG
1070
     1
1071
        7
1005
1288B2
  0
LINE
  5
1288B3
  8
OBJECT
 10
5085.000000000003638
 20
-1084.7846033990419983
 30
0.0
 11
5080.0
 21
-1125.6225774829870261
 31
0.0
1001
ACDBBLOCKREPETAG
1070
     1
1071
        8
1005
1288B3
  0
LINE
  5
1288B4
  8
OBJECT
 10
4930.0
 20
-1251.0
 30
0.0
 11
4930.0
 21
-1270.0
 31
0.0
1001
ACDBBLOCKREPETAG
1070
     1
1071
       10
1005
1288B4
  0
LINE
  5
1288B5
  8
OBJECT
 10
5080.0
 20
-1125.6225774829870261
 30
0.0
 11
5079.999999999998181
 21
-1251.0
 31
0.0
1001
ACDBBLOCKREPETAG
1070
     1
1071
        9
1005
1288B5
  0
LINE
  5
1288B6
  8
OBJECT
 10
5070.0
 20
-1270.0
 30
0.0
 11
5070.0
 21
-1251.0
 31
0.0
1001
ACDBBLOCKREPETAG
1070
     1
1071
       12
1005
1288B6
  0
LINE
  5
1288B7
  8
OBJECT
 10
4930.0
 20
-1270.0
 30
0.0
 11
5070.0
 21
-1270.0
 31
0.0
1001
ACDBBLOCKREPETAG
1070
     1
1071
       11
1005
1288B7
  0
LINE
  5
1288B8
  8
DIM
 10
4665.0000000000009095
 20
-710.999999999994543
 30
0.0
 11
4719.4245816727607234
 21
-710.999999999994543
 31
0.0
  0
LINE
  5
1288B9
  8
DIM
 10
4529.052558883257916
 20
-1010.9999999999949978
 30
0.0
 11
4719.4245816727607234
 21
-1010.9999999999949978
 31
0.0
  0
LINE
  5
1288BA
  8
DIM
 10
4709.4245816727607234
 20
-730.999999999994543
 30
0.0
 11
4709.4245816727607234
 21
-990.9999999999947704
 31
0.0
  0
INSERT
  5
1288BB
  8
DIM
  2
_OPEN30
 10
4709.4245816727607234
 20
-710.999999999994543
 30
0.0
 41
20.0
 42
20.0
 43
20.0
 50
90.0
  0
INSERT
  5
1288BC
  8
DIM
  2
_OPEN30
 10
4709.4245816727607234
 20
-1010.9999999999949978
 30
0.0
 41
20.0
 42
20.0
 43
20.0
 50
270.0
  0
INSERT
  5
1288BD
  8
SLIM
  2
*U126
 10
0.0
 20
0.0
 30
0.0
  0
TEXT
  5
1288BE
  8
SLIM
 10
101.1428571427967
 20
-1243.9999999998510702
 30
0.0
 40
48.0
  1
A0100
 41
0.75
1001
ACDBBLOCKREPETAG
1070
     1
1071
      119
1005
0
  0
TEXT
  5
1288BF
  8
SLIM
 10
457.7142857141033119
 20
-1243.9999999998510702
 30
0.0
 40
48.0
  1
A0200
 41
0.75
1001
ACDBBLOCKREPETAG
1070
     1
1071
      119
1005
0
  0
TEXT
  5
1288C0
  8
SLIM
 10
97.7142857142252552
 20
-1707.9999999996919087
 30
0.0
 40
48.0
  1
A0300
 41
0.75
1001
ACDBBLOCKREPETAG
1070
     1
1071
      119
1005
0
  0
CIRCLE
  5
1288C1
  8
OBJECT
 10
156.0
 20
-996.0000000000009095
 30
0.0
 40
70.0
1001
ACDBBLOCKREPETAG
1070
     1
1071
       50
1005
1288C1
  0
CIRCLE
  5
1288C2
  8
OBJECT
 10
156.0
 20
-996.0000000000009095
 30
0.0
 40
75.0
1001
ACDBBLOCKREPETAG
1070
     1
1071
       51
1005
1288C2
  0
POINT
  5
1288C3
  8
DOTS
 10
156.0
 20
-996.0000000000009095
 30
0.0
1001
ACDBBLOCKREPETAG
1070
     1
1071
       63
1005
1288C3
  0
CIRCLE
  5
1288C4
  8
OBJECT
 10
156.0
 20
-996.0000000000009095
 30
0.0
 40
55.0
1001
ACDBBLOCKREPETAG
1070
     1
1071
       50
1005
1288C1
  0
CIRCLE
  5
1288C5
  8
OBJECT
 10
515.9999999998781277
 20
-996.0000000000009095
 30
0.0
 40
70.0
1001
ACDBBLOCKREPETAG
1070
     1
1071
       50
1005
1288C5
  0
CIRCLE
  5
1288C6
  8
OBJECT
 10
515.9999999998781277
 20
-996.0000000000009095
 30
0.0
 40
75.0
1001
ACDBBLOCKREPETAG
1070
     1
1071
       51
1005
1288C6
  0
POINT
  5
1288C7
  8
DOTS
 10
515.9999999998781277
 20
-996.0000000000009095
 30
0.0
1001
ACDBBLOCKREPETAG
1070
     1
1071
       63
1005
1288C7
  0
CIRCLE
  5
1288C8
  8
OBJECT
 10
515.9999999998781277
 20
-996.0000000000009095
 30
0.0
 40
55.0
1001
ACDBBLOCKREPETAG
1070
     1
1071
       50
1005
1288C5
  0
LINE
  5
1288C9
  8
OBJECT
 10
648.9999999998781277
 20
-941.0000000000009095
 30
0.0
 11
655.9999999998781277
 21
-941.0000000000009095
 31
0.0
1001
ACDBBLOCKREPETAG
1070
     1
1071
       18
1005
1288C9
  0
LINE
  5
1288CA
  8
OBJECT
 10
655.9999999998781277
 20
-941.0000000000009095
 30
0.0
 11
655.9999999998781277
 21
-1051.0000000000009095
 31
0.0
1001
ACDBBLOCKREPETAG
1070
     1
1071
       19
1005
1288CA
  0
LINE
  5
1288CB
  8
OBJECT
 10
655.9999999998781277
 20
-1051.0000000000009095
 30
0.0
 11
648.9999999998781277
 21
-1051.0000000000009095
 31
0.0
1001
ACDBBLOCKREPETAG
1070
     1
1071
       20
1005
1288CB
  0
LINE
  5
1288CC
  8
OBJECT
 10
648.9999999998781277
 20
-1051.0000000000009095
 30
0.0
 11
648.9999999998781277
 21
-941.0000000000009095
 31
0.0
1001
ACDBBLOCKREPETAG
1070
     1
1071
       21
1005
1288CC
  0
LINE
  5
1288CD
  8
OBJECT
 10
648.9999999998781277
 20
-944.0000000000010232
 30
0.0
 11
612.9999999998781277
 21
-944.0000000000010232
 31
0.0
1001
ACDBBLOCKREPETAG
1070
     1
1071
       22
1005
1288CD
  0
LINE
  5
1288CE
  8
OBJECT
 10
612.9999999998781277
 20
-944.0000000000010232
 30
0.0
 11
612.9999999998781277
 21
-1048.0000000000009095
 31
0.0
1001
ACDBBLOCKREPETAG
1070
     1
1071
       23
1005
1288CE
  0
LINE
  5
1288CF
  8
OBJECT
 10
612.9999999998781277
 20
-1048.0000000000009095
 30
0.0
 11
648.9999999998781277
 21
-1048.0000000000009095
 31
0.0
1001
ACDBBLOCKREPETAG
1070
     1
1071
       24
1005
1288CF
  0
LINE
  5
1288D0
  8
OBJECT
 10
608.9999999998781277
 20
-948.5000000000010232
 30
0.0
 11
600.4999999998784688
 21
-948.5000000000010232
 31
0.0
1001
ACDBBLOCKREPETAG
1070
     1
1071
       25
1005
1288D0
  0
LINE
  5
1288D1
  8
OBJECT
 10
600.4999999998775593
 20
-1043.5000000000009095
 30
0.0
 11
608.9999999998781277
 21
-1043.5000000000009095
 31
0.0
1001
ACDBBLOCKREPETAG
1070
     1
1071
       26
1005
1288D1
  0
LINE
  5
1288D2
  8
OBJECT
 10
608.9999999998781277
 20
-1043.5000000000009095
 30
0.0
 11
608.9999999998781277
 21
-948.5000000000010232
 31
0.0
1001
ACDBBLOCKREPETAG
1070
     1
1071
       27
1005
1288D2
  0
LINE
  5
1288D3
  8
OBJECT
 10
612.9999999998781277
 20
-944.0000000000010232
 30
0.0
 11
608.9999999998781277
 21
-948.5000000000010232
 31
0.0
1001
ACDBBLOCKREPETAG
1070
     1
1071
       28
1005
1288D3
  0
LINE
  5
1288D4
  8
OBJECT
 10
612.9999999998781277
 20
-1048.0000000000009095
 30
0.0
 11
608.9999999998781277
 21
-1043.5000000000009095
 31
0.0
1001
ACDBBLOCKREPETAG
1070
     1
1071
       29
1005
1288D4
  0
LINE
  5
1288D5
  8
OBJECT
 10
600.4999999998766498
 20
-1045.5000000000009095
 30
0.0
 11
600.4999999998784688
 21
-946.5000000000007958
 31
0.0
1001
ACDBBLOCKREPETAG
1070
     1
1071
       30
1005
1288D5
  0
LINE
  5
1288D6
  8
OBJECT
 10
600.4999999998784688
 20
-946.5000000000007958
 30
0.0
 11
572.3449199128576765
 21
-946.5000000000017053
 31
0.0
1001
ACDBBLOCKREPETAG
1070
     1
1071
       31
1005
1288D6
  0
LINE
  5
1288D7
  8
OBJECT
 10
600.4999999998766498
 20
-1045.5000000000009095
 30
0.0
 11
572.3449199128565397
 21
-1045.5000000000020464
 31
0.0
1001
ACDBBLOCKREPETAG
1070
     1
1071
       32
1005
1288D7
  0
INSERT
  5
1288D8
  8
SLIM
  2
*U127
 10
0.0
 20
0.0
 30
0.0
  0
LINE
  5
1288D9
  8
HIDDEN
 10
603.9999999998781277
 20
-958.0000000000007958
 30
0.0
 11
603.9999999998781277
 21
-1034.0000000000009095
 31
0.0
1001
ACDBBLOCKREPETAG
1070
     1
1071
       57
1005
1288D9
  0
CIRCLE
  5
1288DA
  8
OBJECT
 10
156.0
 20
-1459.9999999998419753
 30
0.0
 40
70.0
1001
ACDBBLOCKREPETAG
1070
     1
1071
       50
1005
1288DA
  0
CIRCLE
  5
1288DB
  8
OBJECT
 10
156.0
 20
-1459.9999999998419753
 30
0.0
 40
75.0
1001
ACDBBLOCKREPETAG
1070
     1
1071
       51
1005
1288DB
  0
POINT
  5
1288DC
  8
DOTS
 10
156.0
 20
-1459.9999999998419753
 30
0.0
1001
ACDBBLOCKREPETAG
1070
     1
1071
       63
1005
1288DC
  0
CIRCLE
  5
1288DD
  8
OBJECT
 10
156.0
 20
-1459.9999999998419753
 30
0.0
 40
55.0
1001
ACDBBLOCKREPETAG
1070
     1
1071
       50
1005
1288DA
  0
LINE
  5
1288DE
  8
OBJECT
 10
289.0
 20
-1397.9999999998419753
 30
0.0
 11
296.0
 21
-1397.9999999998419753
 31
0.0
1001
ACDBBLOCKREPETAG
1070
     1
1071
       34
1005
1288DE
  0
LINE
  5
1288DF
  8
OBJECT
 10
296.0
 20
-1397.9999999998419753
 30
0.0
 11
296.0
 21
-1521.9999999998431122
 31
0.0
1001
ACDBBLOCKREPETAG
1070
     1
1071
       35
1005
1288DF
  0
LINE
  5
1288E0
  8
OBJECT
 10
296.0
 20
-1521.9999999998431122
 30
0.0
 11
289.0
 21
-1521.9999999998431122
 31
0.0
1001
ACDBBLOCKREPETAG
1070
     1
1071
       36
1005
1288E0
  0
LINE
  5
1288E1
  8
OBJECT
 10
289.0
 20
-1521.9999999998431122
 30
0.0
 11
289.0
 21
-1397.9999999998419753
 31
0.0
1001
ACDBBLOCKREPETAG
1070
     1
1071
       37
1005
1288E1
  0
LINE
  5
1288E2
  8
OBJECT
 10
289.0
 20
-1400.9999999998431122
 30
0.0
 11
253.0
 21
-1400.9999999998431122
 31
0.0
1001
ACDBBLOCKREPETAG
1070
     1
1071
       38
1005
1288E2
  0
LINE
  5
1288E3
  8
OBJECT
 10
253.0
 20
-1400.9999999998431122
 30
0.0
 11
253.0
 21
-1518.9999999998431122
 31
0.0
1001
ACDBBLOCKREPETAG
1070
     1
1071
       39
1005
1288E3
  0
LINE
  5
1288E4
  8
OBJECT
 10
253.0
 20
-1518.9999999998431122
 30
0.0
 11
289.0
 21
-1518.9999999998431122
 31
0.0
1001
ACDBBLOCKREPETAG
1070
     1
1071
       40
1005
1288E4
  0
LINE
  5
1288E5
  8
OBJECT
 10
249.0
 20
-1405.4999999998419753
 30
0.0
 11
238.5
 21
-1405.4999999998419753
 31
0.0
1001
ACDBBLOCKREPETAG
1070
     1
1071
       41
1005
1288E5
  0
LINE
  5
1288E6
  8
OBJECT
 10
238.5
 20
-1514.4999999998419753
 30
0.0
 11
249.0
 21
-1514.4999999998419753
 31
0.0
1001
ACDBBLOCKREPETAG
1070
     1
1071
       42
1005
1288E6
  0
LINE
  5
1288E7
  8
OBJECT
 10
249.0
 20
-1514.4999999998419753
 30
0.0
 11
249.0
 21
-1405.4999999998419753
 31
0.0
1001
ACDBBLOCKREPETAG
1070
     1
1071
       43
1005
1288E7
  0
LINE
  5
1288E8
  8
OBJECT
 10
253.0
 20
-1400.9999999998431122
 30
0.0
 11
249.0
 21
-1405.4999999998419753
 31
0.0
1001
ACDBBLOCKREPETAG
1070
     1
1071
       44
1005
1288E8
  0
LINE
  5
1288E9
  8
OBJECT
 10
253.0
 20
-1518.9999999998431122
 30
0.0
 11
249.0
 21
-1514.4999999998419753
 31
0.0
1001
ACDBBLOCKREPETAG
1070
     1
1071
       45
1005
1288E9
  0
LINE
  5
1288EA
  8
OBJECT
 10
233.5
 20
-1410.4999999998419753
 30
0.0
 11
212.3449199129786109
 21
-1410.4999999998431122
 31
0.0
1001
ACDBBLOCKREPETAG
1070
     1
1071
       46
1005
1288EA
  0
LINE
  5
1288EB
  8
OBJECT
 10
233.5
 20
-1509.4999999998431122
 30
0.0
 11
212.3449199129777014
 21
-1509.4999999998431122
 31
0.0
1001
ACDBBLOCKREPETAG
1070
     1
1071
       47
1005
1288EB
  0
LINE
  5
1288EC
  8
OBJECT
 10
238.5
 20
-1405.4999999998419753
 30
0.0
 11
238.5
 21
-1514.4999999998419753
 31
0.0
1001
ACDBBLOCKREPETAG
1070
     1
1071
       48
1005
1288EC
  0
LINE
  5
1288ED
  8
OBJECT
 10
233.5
 20
-1410.4999999998419753
 30
0.0
 11
233.5
 21
-1509.4999999998431122
 31
0.0
1001
ACDBBLOCKREPETAG
1070
     1
1071
       49
1005
1288ED
  0
LINE
  5
1288EE
  8
OBJECT
 10
238.5
 20
-1405.4999999998419753
 30
0.0
 11
233.5
 21
-1410.4999999998419753
 31
0.0
1001
ACDBBLOCKREPETAG
1070
     1
1071
       50
1005
1288EE
  0
LINE
  5
1288EF
  8
OBJECT
 10
233.5
 20
-1509.4999999998431122
 30
0.0
 11
238.5
 21
-1514.4999999998390194
 31
0.0
1001
ACDBBLOCKREPETAG
1070
     1
1071
       51
1005
1288EF
  0
INSERT
  5
1288F0
  8
SLIM
  2
*U128
 10
0.0
 20
0.0
 30
0.0
  0
LINE
  5
1288F1
  8
HIDDEN
 10
244.0
 20
-1415.4999999998419753
 30
0.0
 11
244.0
 21
-1504.4999999998419753
 31
0.0
1001
ACDBBLOCKREPETAG
1070
     1
1071
       65
1005
1288F1
  0
LINE
  5
1288F2
  8
OBJECT
 10
289.0
 20
-949.0000000000009095
 30
0.0
 11
296.0
 21
-949.0000000000009095
 31
0.0
1001
ACDBBLOCKREPETAG
1070
     1
1071
        0
1005
1288F2
  0
LINE
  5
1288F3
  8
OBJECT
 10
296.0
 20
-949.0000000000009095
 30
0.0
 11
296.0
 21
-1043.0000000000009095
 31
0.0
1001
ACDBBLOCKREPETAG
1070
     1
1071
        1
1005
1288F3
  0
LINE
  5
1288F4
  8
OBJECT
 10
296.0
 20
-1043.0000000000009095
 30
0.0
 11
289.0
 21
-1043.0000000000009095
 31
0.0
1001
ACDBBLOCKREPETAG
1070
     1
1071
        2
1005
1288F4
  0
LINE
  5
1288F5
  8
OBJECT
 10
289.0
 20
-1043.0000000000009095
 30
0.0
 11
289.0
 21
-949.0000000000009095
 31
0.0
1001
ACDBBLOCKREPETAG
1070
     1
1071
        3
1005
1288F5
  0
LINE
  5
1288F6
  8
OBJECT
 10
289.0
 20
-952.0000000000007958
 30
0.0
 11
253.0
 21
-952.0000000000007958
 31
0.0
1001
ACDBBLOCKREPETAG
1070
     1
1071
        4
1005
1288F6
  0
LINE
  5
1288F7
  8
OBJECT
 10
253.0
 20
-952.0000000000007958
 30
0.0
 11
253.0
 21
-1040.0000000000009095
 31
0.0
1001
ACDBBLOCKREPETAG
1070
     1
1071
        5
1005
1288F7
  0
LINE
  5
1288F8
  8
OBJECT
 10
253.0
 20
-1040.0000000000009095
 30
0.0
 11
289.0
 21
-1040.0000000000009095
 31
0.0
1001
ACDBBLOCKREPETAG
1070
     1
1071
        6
1005
1288F8
  0
LINE
  5
1288F9
  8
OBJECT
 10
249.0
 20
-956.5000000000010232
 30
0.0
 11
240.5000000000005116
 21
-956.5000000000010232
 31
0.0
1001
ACDBBLOCKREPETAG
1070
     1
1071
        7
1005
1288F9
  0
LINE
  5
1288FA
  8
OBJECT
 10
240.4999999999994884
 20
-1035.5000000000009095
 30
0.0
 11
249.0
 21
-1035.5000000000009095
 31
0.0
1001
ACDBBLOCKREPETAG
1070
     1
1071
        8
1005
1288FA
  0
LINE
  5
1288FB
  8
OBJECT
 10
249.0
 20
-1035.5000000000009095
 30
0.0
 11
249.0
 21
-956.5000000000010232
 31
0.0
1001
ACDBBLOCKREPETAG
1070
     1
1071
        9
1005
1288FB
  0
LINE
  5
1288FC
  8
OBJECT
 10
253.0
 20
-952.0000000000007958
 30
0.0
 11
249.0
 21
-956.5000000000010232
 31
0.0
1001
ACDBBLOCKREPETAG
1070
     1
1071
       10
1005
1288FC
  0
LINE
  5
1288FD
  8
OBJECT
 10
253.0
 20
-1040.0000000000009095
 30
0.0
 11
249.0
 21
-1035.5000000000009095
 31
0.0
1001
ACDBBLOCKREPETAG
1070
     1
1071
       11
1005
1288FD
  0
LINE
  5
1288FE
  8
OBJECT
 10
240.4999999999990905
 20
-1042.5000000000009095
 30
0.0
 11
240.5000000000005116
 21
-949.5000000000009095
 31
0.0
1001
ACDBBLOCKREPETAG
1070
     1
1071
       12
1005
1288FE
  0
ARC
  5
1288FF
  8
OBJECT
 10
237.5000000000003979
 20
-949.5000000000009095
 30
0.0
 40
3.0
 50
0.0
 51
90.0
1001
ACDBBLOCKREPETAG
1070
     1
1071
       13
1005
1288FF
  0
LINE
  5
128900
  8
OBJECT
 10
237.5000000000003979
 20
-946.5000000000007958
 30
0.0
 11
212.344919912978412
 21
-946.4999999999998863
 31
0.0
1001
ACDBBLOCKREPETAG
1070
     1
1071
       15
1005
128900
  0
LINE
  5
128901
  8
OBJECT
 10
237.4999999999990905
 20
-1045.5000000000009095
 30
0.0
 11
212.344919912979293
 21
-1045.5
 31
0.0
1001
ACDBBLOCKREPETAG
1070
     1
1071
       16
1005
128901
  0
ARC
  5
128902
  8
OBJECT
 10
237.4999999999990905
 20
-1042.5000000000009095
 30
0.0
 40
3.0
 50
270.0
 51
0.0
1001
ACDBBLOCKREPETAG
1070
     1
1071
       17
1005
128902
  0
INSERT
  5
128903
  8
SLIM
  2
*U129
 10
0.0
 20
0.0
 30
0.0
  0
LINE
  5
128904
  8
HIDDEN
 10
244.0
 20
-966.0000000000009095
 30
0.0
 11
244.0
 21
-1026.0000000000009095
 31
0.0
1001
ACDBBLOCKREPETAG
1070
     1
1071
       56
1005
128904
  0
LINE
  5
128905
  8
SLIM
  6
CONTINUOUS
 10
4424.8586105144177054
 20
-160.2662412276922055
 30
0.0
 11
4460.2662412276940813
 21
-124.8586105144159006
 31
0.0
1001
GRADIENTCOLOR1ACI
1070
     5
1001
GRADIENTCOLOR2ACI
1070
     2
1001
ACAD
1010
0.0
1020
0.0
1030
0.0
  0
LINE
  5
128906
  8
SLIM
  6
CONTINUOUS
 10
4418.6084340676770807
 20
-175.4966737955037104
 30
0.0
 11
4427.1385399004420833
 21
-166.9665679627377983
 31
0.0
1001
GRADIENTCOLOR1ACI
1070
     5
1001
GRADIENTCOLOR2ACI
1070
     2
1001
ACAD
1010
0.0
1020
0.0
1030
0.0
  0
LINE
  5
128907
  8
SLIM
  6
CONTINUOUS
 10
4466.9665679627405552
 20
-127.1385399004401933
 30
0.0
 11
4475.4966737955073768
 21
-118.6084340676742954
 31
0.0
1001
GRADIENTCOLOR1ACI
1070
     5
1001
GRADIENTCOLOR2ACI
1070
     2
1001
ACAD
1010
0.0
1020
0.0
1030
0.0
  0
LINE
  5
128908
  8
SLIM
  6
CONTINUOUS
 10
4415.9844434040905981
 20
-187.100920580158288
 30
0.0
 11
4422.3555558663219927
 21
-180.7298081179278029
 31
0.0
1001
GRADIENTCOLOR1ACI
1070
     5
1001
GRADIENTCOLOR2ACI
1070
     2
1001
ACAD
1010
0.0
1020
0.0
1030
0.0
  0
LINE
  5
128909
  8
SLIM
  6
CONTINUOUS
 10
4480.7298081179296787
 20
-122.3555558663191931
 30
0.0
 11
4487.1009205801610733
 21
-115.9844434040886938
 31
0.0
1001
GRADIENTCOLOR1ACI
1070
     5
1001
GRADIENTCOLOR2ACI
1070
     2
1001
ACAD
1010
0.0
1020
0.0
1030
0.0
  0
LINE
  5
12890A
  8
SLIM
  6
CONTINUOUS
 10
4415.0524951669203801
 20
-197.0131249383975955
 30
0.0
 11
4416.0656201053188852
 21
-196.0
 31
0.0
1001
GRADIENTCOLOR1ACI
1070
     5
1001
GRADIENTCOLOR2ACI
1070
     2
1001
ACAD
1010
0.0
1020
0.0
1030
0.0
  0
LINE
  5
12890B
  8
SLIM
  6
CONTINUOUS
 10
4491.6261550504887055
 20
-120.4394650548301939
 30
0.0
 11
4497.013124938400324
 21
-115.0524951669185043
 31
0.0
1001
GRADIENTCOLOR1ACI
1070
     5
1001
GRADIENTCOLOR2ACI
1070
     2
1001
ACAD
1010
0.0
1020
0.0
1030
0.0
  0
LINE
  5
12890C
  8
SLIM
  6
CONTINUOUS
 10
4416.0656201053188852
 20
-196.0
 30
0.0
 11
4420.4394650548319987
 21
-191.6261550504868012
 31
0.0
1001
GRADIENTCOLOR1ACI
1070
     5
1001
GRADIENTCOLOR2ACI
1070
     2
1001
ACAD
1010
0.0
1020
0.0
1030
0.0
  0
LINE
  5
12890D
  8
SLIM
  6
CONTINUOUS
 10
4415.2011819161407402
 20
-205.8446943102472062
 30
0.0
 11
4420.0067489441089492
 21
-201.0391272822789119
 31
0.0
1001
GRADIENTCOLOR1ACI
1070
     5
1001
GRADIENTCOLOR2ACI
1070
     2
1001
ACAD
1010
0.0
1020
0.0
1030
0.0
  0
LINE
  5
12890E
  8
SLIM
  6
CONTINUOUS
 10
4501.0391272822816973
 20
-120.0067489441062065
 30
0.0
 11
4505.8446943102489968
 21
-115.201181916138907
 31
0.0
1001
GRADIENTCOLOR1ACI
1070
     5
1001
GRADIENTCOLOR2ACI
1070
     2
1001
ACAD
1010
0.0
1020
0.0
1030
0.0
  0
LINE
  5
12890F
  8
SLIM
  6
CONTINUOUS
 10
4416.1416587718949813
 20
-213.8844735755619979
 30
0.0
 11
4420.5618067828409039
 21
-209.4643255646161037
 31
0.0
1001
GRADIENTCOLOR1ACI
1070
     5
1001
GRADIENTCOLOR2ACI
1070
     2
1001
ACAD
1010
0.0
1020
0.0
1030
0.0
  0
LINE
  5
128910
  8
SLIM
  6
CONTINUOUS
 10
4509.4643255646178659
 20
-120.5618067828390991
 30
0.0
 11
4513.8844735755637885
 21
-116.1416587718931055
 31
0.0
1001
GRADIENTCOLOR1ACI
1070
     5
1001
GRADIENTCOLOR2ACI
1070
     2
1001
ACAD
1010
0.0
1020
0.0
1030
0.0
  0
LINE
  5
128911
  8
SLIM
  6
CONTINUOUS
 10
4417.7108701110219044
 20
-221.2955183575031981
 30
0.0
 11
4419.0063884685268931
 21
-219.9999999999990905
 31
0.0
1001
GRADIENTCOLOR1ACI
1070
     5
1001
GRADIENTCOLOR2ACI
1070
     2
1001
ACAD
1010
0.0
1020
0.0
1030
0.0
  0
LINE
  5
128912
  8
SLIM
  6
CONTINUOUS
 10
4517.1471323385685537
 20
-121.8592561299565062
 30
0.0
 11
4521.2955183575058982
 21
-117.7108701110200997
 31
0.0
1001
GRADIENTCOLOR1ACI
1070
     5
1001
GRADIENTCOLOR2ACI
1070
     2
1001
ACAD
1010
0.0
1020
0.0
1030
0.0
  0
LINE
  5
128913
  8
SLIM
  6
CONTINUOUS
 10
4419.0063884685268931
 20
-219.9999999999990905
 30
0.0
 11
4421.8592561299592489
 21
-217.1471323385667063
 31
0.0
1001
GRADIENTCOLOR1ACI
1070
     5
1001
GRADIENTCOLOR2ACI
1070
     2
1001
ACAD
1010
0.0
1020
0.0
1030
0.0
  0
LINE
  5
128914
  8
SLIM
  6
CONTINUOUS
 10
4419.8070443755896122
 20
-228.1796002140044948
 30
0.0
 11
4423.7573519673760529
 21
-224.2292926222189919
 31
0.0
1001
GRADIENTCOLOR1ACI
1070
     5
1001
GRADIENTCOLOR2ACI
1070
     2
1001
ACAD
1010
0.0
1020
0.0
1030
0.0
  0
LINE
  5
128915
  8
SLIM
  6
CONTINUOUS
 10
4524.229292622221692
 20
-123.757351967373296
 30
0.0
 11
4528.1796002140081328
 21
-119.8070443755877932
 31
0.0
1001
GRADIENTCOLOR1ACI
1070
     5
1001
GRADIENTCOLOR2ACI
1070
     2
1001
ACAD
1010
0.0
1020
0.0
1030
0.0
  0
LINE
  5
128916
  8
SLIM
  6
CONTINUOUS
 10
4422.3627047135605608
 20
-234.6041959971030053
 30
0.0
 11
4424.9669007106631398
 21
-232.0000000000009095
 31
0.0
1001
GRADIENTCOLOR1ACI
1070
     5
1001
GRADIENTCOLOR2ACI
1070
     2
1001
ACAD
1010
0.0
1020
0.0
1030
0.0
  0
LINE
  5
128917
  8
SLIM
  6
CONTINUOUS
 10
4530.8001598408181962
 20
-126.1667408698467057
 30
0.0
 11
4534.604195997106217
 21
-122.3627047135578039
 31
0.0
1001
GRADIENTCOLOR1ACI
1070
     5
1001
GRADIENTCOLOR2ACI
1070
     2
1001
ACAD
1010
0.0
1020
0.0
1030
0.0
  0
LINE
  5
128918
  8
SLIM
  6
CONTINUOUS
 10
4424.9669007106631398
 20
-232.0000000000009095
 30
0.0
 11
4426.1667408698485815
 21
-230.8001598408145867
 31
0.0
1001
GRADIENTCOLOR1ACI
1070
     5
1001
GRADIENTCOLOR2ACI
1070
     2
1001
ACAD
1010
0.0
1020
0.0
1030
0.0
  0
LINE
  5
128919
  8
SLIM
  6
CONTINUOUS
 10
4425.3315714414457034
 20
-240.6155853902874071
 30
0.0
 11
4429.0282267343809508
 21
-236.9189300973521028
 31
0.0
1001
GRADIENTCOLOR1ACI
1070
     5
1001
GRADIENTCOLOR2ACI
1070
     2
1001
ACAD
1010
0.0
1020
0.0
1030
0.0
  0
LINE
  5
12891A
  8
SLIM
  6
CONTINUOUS
 10
4536.9189300973548598
 20
-129.0282267343781939
 30
0.0
 11
4540.6155853902901072
 21
-125.3315714414430033
 31
0.0
1001
GRADIENTCOLOR1ACI
1070
     5
1001
GRADIENTCOLOR2ACI
1070
     2
1001
ACAD
1010
0.0
1020
0.0
1030
0.0
  0
LINE
  5
12891B
  8
SLIM
  6
CONTINUOUS
 10
4428.6815548937138374
 20
-246.2458580590883059
 30
0.0
 11
4432.3017508847979116
 21
-242.6256620680042033
 31
0.0
1001
GRADIENTCOLOR1ACI
1070
     5
1001
GRADIENTCOLOR2ACI
1070
     2
1001
ACAD
1010
0.0
1020
0.0
1030
0.0
  0
LINE
  5
12891C
  8
SLIM
  6
CONTINUOUS
 10
4542.6256620680069318
 20
-132.3017508847952115
 30
0.0
 11
4546.245858059091006
 21
-128.6815548937111089
 31
0.0
1001
GRADIENTCOLOR1ACI
1070
     5
1001
GRADIENTCOLOR2ACI
1070
     2
1001
ACAD
1010
0.0
1020
0.0
1030
0.0
  0
LINE
  5
12891D
  8
SLIM
  6
CONTINUOUS
 10
4432.3907652629222866
 20
-251.5169038109484063
 30
0.0
 11
4435.9604490227438873
 21
-247.9472200511268056
 31
0.0
1001
GRADIENTCOLOR1ACI
1070
     5
1001
GRADIENTCOLOR2ACI
1070
     2
1001
ACAD
1010
0.0
1020
0.0
1030
0.0
  0
LINE
  5
12891E
  8
SLIM
  6
CONTINUOUS
 10
4547.9472200511299889
 20
-135.960449022741102
 30
0.0
 11
4551.5169038109497706
 21
-132.3907652629204108
 31
0.0
1001
GRADIENTCOLOR1ACI
1070
     5
1001
GRADIENTCOLOR2ACI
1070
     2
1001
ACAD
1010
0.0
1020
0.0
1030
0.0
  0
LINE
  5
12891F
  8
SLIM
  6
CONTINUOUS
 10
4436.4451742931078115
 20
-256.4427509018319142
 30
0.0
 11
4439.9873013608048495
 21
-252.9006238341358141
 31
0.0
1001
GRADIENTCOLOR1ACI
1070
     5
1001
GRADIENTCOLOR2ACI
1070
     2
1001
ACAD
1010
0.0
1020
0.0
1030
0.0
  0
LINE
  5
128920
  8
SLIM
  6
CONTINUOUS
 10
4554.88792519494109
 20
-137.9999999999990905
 30
0.0
 11
4556.4427509018350975
 21
-136.4451742931049978
 31
0.0
1001
GRADIENTCOLOR1ACI
1070
     5
1001
GRADIENTCOLOR2ACI
1070
     2
1001
ACAD
1010
0.0
1020
0.0
1030
0.0
  0
LINE
  5
128921
  8
SLIM
  6
CONTINUOUS
 10
4440.8372731495674088
 20
-261.030908166442714
 30
0.0
 11
4444.3732607963193004
 21
-257.4949205196899129
 31
0.0
1001
GRADIENTCOLOR1ACI
1070
     5
1001
GRADIENTCOLOR2ACI
1070
     2
1001
ACAD
1010
0.0
1020
0.0
1030
0.0
  0
LINE
  5
128922
  8
SLIM
  6
CONTINUOUS
 10
4445.5654027321415924
 20
-265.283034704936199
 30
0.0
 11
4449.1163342680174537
 21
-261.7321031690607924
 31
0.0
1001
GRADIENTCOLOR1ACI
1070
     5
1001
GRADIENTCOLOR2ACI
1070
     2
1001
ACAD
1010
0.0
1020
0.0
1030
0.0
  0
LINE
  5
128923
  8
SLIM
  6
CONTINUOUS
 10
4549.5421817599099086
 20
-269.0693291299976977
 30
0.0
 11
4556.6115108899075494
 21
-262.0
 31
0.0
1001
GRADIENTCOLOR1ACI
1070
     5
1001
GRADIENTCOLOR2ACI
1070
     2
1001
ACAD
1010
0.0
1020
0.0
1030
0.0
  0
LINE
  5
128924
  8
OBJECT
 10
4633.0
 20
-152.9999999999990905
 30
0.0
 11
4640.0
 21
-152.9999999999990905
 31
0.0
1001
ACDBBLOCKREPETAG
1070
     1
1071
        7
1005
128924
  0
LINE
  5
128925
  8
OBJECT
 10
4640.0
 20
-152.9999999999990905
 30
0.0
 11
4640.0
 21
-246.9999999999990905
 31
0.0
1001
ACDBBLOCKREPETAG
1070
     1
1071
        8
1005
128925
  0
LINE
  5
128926
  8
OBJECT
 10
4640.0
 20
-246.9999999999990905
 30
0.0
 11
4633.0
 21
-246.9999999999990905
 31
0.0
1001
ACDBBLOCKREPETAG
1070
     1
1071
        9
1005
128926
  0
LINE
  5
128927
  8
OBJECT
 10
4633.0
 20
-246.9999999999990905
 30
0.0
 11
4633.0
 21
-152.9999999999990905
 31
0.0
1001
ACDBBLOCKREPETAG
1070
     1
1071
       10
1005
128927
  0
LINE
  5
128928
  8
CENTER
 10
4655.0
 20
-199.9999999999990905
 30
0.0
 11
4580.0
 21
-199.9999999999990905
 31
0.0
1001
ACDBBLOCKREPETAG
1070
     1
1071
       11
1005
128928
  0
LINE
  5
128929
  8
OBJECT
 10
4633.0
 20
-155.9999999999990905
 30
0.0
 11
4597.0
 21
-155.9999999999990905
 31
0.0
1001
ACDBBLOCKREPETAG
1070
     1
1071
       12
1005
128929
  0
LINE
  5
12892A
  8
OBJECT
 10
4597.0
 20
-155.9999999999990905
 30
0.0
 11
4597.0
 21
-243.9999999999990905
 31
0.0
1001
ACDBBLOCKREPETAG
1070
     1
1071
       13
1005
12892A
  0
LINE
  5
12892B
  8
OBJECT
 10
4597.0
 20
-243.9999999999990905
 30
0.0
 11
4633.0
 21
-243.9999999999990905
 31
0.0
1001
ACDBBLOCKREPETAG
1070
     1
1071
       14
1005
12892B
  0
LINE
  5
12892C
  8
OBJECT
 10
4593.0
 20
-160.4999999999990905
 30
0.0
 11
4586.0
 21
-160.4999999999990905
 31
0.0
1001
ACDBBLOCKREPETAG
1070
     1
1071
       15
1005
12892C
  0
LINE
  5
12892D
  8
OBJECT
 10
4586.0
 20
-239.4999999999990905
 30
0.0
 11
4593.0
 21
-239.4999999999990905
 31
0.0
1001
ACDBBLOCKREPETAG
1070
     1
1071
       16
1005
12892D
  0
LINE
  5
12892E
  8
OBJECT
 10
4593.0
 20
-239.4999999999990905
 30
0.0
 11
4593.0
 21
-160.4999999999990905
 31
0.0
1001
ACDBBLOCKREPETAG
1070
     1
1071
       17
1005
12892E
  0
LINE
  5
12892F
  8
OBJECT
 10
4597.0
 20
-155.9999999999990905
 30
0.0
 11
4593.0
 21
-160.4999999999990905
 31
0.0
1001
ACDBBLOCKREPETAG
1070
     1
1071
       18
1005
12892F
  0
LINE
  5
128930
  8
OBJECT
 10
4597.0
 20
-243.9999999999990905
 30
0.0
 11
4593.0
 21
-239.4999999999990905
 31
0.0
1001
ACDBBLOCKREPETAG
1070
     1
1071
       19
1005
128930
  0
LINE
  5
128931
  8
OBJECT
 10
4583.0
 20
-137.9999999999990905
 30
0.0
 11
4580.0
 21
-137.9999999999990905
 31
0.0
1001
ACDBBLOCKREPETAG
1070
     1
1071
       20
1005
128931
  0
ARC
  5
128932
  8
OBJECT
 10
4583.0
 20
-140.9999999999990905
 30
0.0
 40
3.0
 50
0.0
 51
90.0
1001
ACDBBLOCKREPETAG
1070
     1
1071
       21
1005
128932
  0
LINE
  5
128933
  8
OBJECT
 10
4580.0
 20
-261.9999999999990905
 30
0.0
 11
4583.0
 21
-261.9999999999990905
 31
0.0
1001
ACDBBLOCKREPETAG
1070
     1
1071
       22
1005
128933
  0
ARC
  5
128934
  8
OBJECT
 10
4583.0
 20
-258.9999999999990905
 30
0.0
 40
3.0
 50
270.0
 51
0.0
1001
ACDBBLOCKREPETAG
1070
     1
1071
       23
1005
128934
  0
LINE
  5
128935
  8
OBJECT
 10
4586.0
 20
-258.9999999999990905
 30
0.0
 11
4586.0
 21
-140.9999999999990905
 31
0.0
1001
ACDBBLOCKREPETAG
1070
     1
1071
       24
1005
128935
  0
LINE
  5
128936
  8
HIDDEN
 10
4588.0
 20
-169.9999999999990905
 30
0.0
 11
4588.0
 21
-229.9999999999990905
 31
0.0
1001
ACDBBLOCKREPETAG
1070
     1
1071
       25
1005
128936
  0
LINE
  5
128937
  8
OBJECT
 10
2633.0
 20
-152.9999999999990905
 30
0.0
 11
2640.0
 21
-152.9999999999990905
 31
0.0
1001
ACDBBLOCKREPETAG
1070
     1
1071
        7
1005
128937
  0
LINE
  5
128938
  8
OBJECT
 10
2640.0
 20
-152.9999999999990905
 30
0.0
 11
2640.0
 21
-246.9999999999990905
 31
0.0
1001
ACDBBLOCKREPETAG
1070
     1
1071
        8
1005
128938
  0
LINE
  5
128939
  8
OBJECT
 10
2640.0
 20
-246.9999999999990905
 30
0.0
 11
2633.0
 21
-246.9999999999990905
 31
0.0
1001
ACDBBLOCKREPETAG
1070
     1
1071
        9
1005
128939
  0
LINE
  5
12893A
  8
OBJECT
 10
2633.0
 20
-246.9999999999990905
 30
0.0
 11
2633.0
 21
-152.9999999999990905
 31
0.0
1001
ACDBBLOCKREPETAG
1070
     1
1071
       10
1005
12893A
  0
LINE
  5
12893B
  8
CENTER
 10
2655.0
 20
-199.9999999999990905
 30
0.0
 11
2580.0
 21
-199.9999999999990905
 31
0.0
1001
ACDBBLOCKREPETAG
1070
     1
1071
       11
1005
12893B
  0
LINE
  5
12893C
  8
OBJECT
 10
2633.0
 20
-155.9999999999990905
 30
0.0
 11
2597.0
 21
-155.9999999999990905
 31
0.0
1001
ACDBBLOCKREPETAG
1070
     1
1071
       12
1005
12893C
  0
LINE
  5
12893D
  8
OBJECT
 10
2597.0
 20
-155.9999999999990905
 30
0.0
 11
2597.0
 21
-243.9999999999990905
 31
0.0
1001
ACDBBLOCKREPETAG
1070
     1
1071
       13
1005
12893D
  0
LINE
  5
12893E
  8
OBJECT
 10
2597.0
 20
-243.9999999999990905
 30
0.0
 11
2633.0
 21
-243.9999999999990905
 31
0.0
1001
ACDBBLOCKREPETAG
1070
     1
1071
       14
1005
12893E
  0
LINE
  5
12893F
  8
OBJECT
 10
2593.0
 20
-160.4999999999990905
 30
0.0
 11
2586.0
 21
-160.4999999999990905
 31
0.0
1001
ACDBBLOCKREPETAG
1070
     1
1071
       15
1005
12893F
  0
LINE
  5
128940
  8
OBJECT
 10
2586.0
 20
-239.4999999999990905
 30
0.0
 11
2593.0
 21
-239.4999999999990905
 31
0.0
1001
ACDBBLOCKREPETAG
1070
     1
1071
       16
1005
128940
  0
LINE
  5
128941
  8
OBJECT
 10
2593.0
 20
-239.4999999999990905
 30
0.0
 11
2593.0
 21
-160.4999999999990905
 31
0.0
1001
ACDBBLOCKREPETAG
1070
     1
1071
       17
1005
128941
  0
LINE
  5
128942
  8
OBJECT
 10
2597.0
 20
-155.9999999999990905
 30
0.0
 11
2593.0
 21
-160.4999999999990905
 31
0.0
1001
ACDBBLOCKREPETAG
1070
     1
1071
       18
1005
128942
  0
LINE
  5
128943
  8
OBJECT
 10
2597.0
 20
-243.9999999999990905
 30
0.0
 11
2593.0
 21
-239.4999999999990905
 31
0.0
1001
ACDBBLOCKREPETAG
1070
     1
1071
       19
1005
128943
  0
LINE
  5
128944
  8
OBJECT
 10
2583.0
 20
-137.9999999999990905
 30
0.0
 11
2580.0
 21
-137.9999999999990905
 31
0.0
1001
ACDBBLOCKREPETAG
1070
     1
1071
       20
1005
128944
  0
ARC
  5
128945
  8
OBJECT
 10
2583.0
 20
-140.9999999999990905
 30
0.0
 40
3.0
 50
0.0
 51
90.0
1001
ACDBBLOCKREPETAG
1070
     1
1071
       21
1005
128945
  0
LINE
  5
128946
  8
OBJECT
 10
2580.0
 20
-261.9999999999990905
 30
0.0
 11
2583.0
 21
-261.9999999999990905
 31
0.0
1001
ACDBBLOCKREPETAG
1070
     1
1071
       22
1005
128946
  0
ARC
  5
128947
  8
OBJECT
 10
2583.0
 20
-258.9999999999990905
 30
0.0
 40
3.0
 50
270.0
 51
0.0
1001
ACDBBLOCKREPETAG
1070
     1
1071
       23
1005
128947
  0
LINE
  5
128948
  8
OBJECT
 10
2586.0
 20
-258.9999999999990905
 30
0.0
 11
2586.0
 21
-140.9999999999990905
 31
0.0
1001
ACDBBLOCKREPETAG
1070
     1
1071
       24
1005
128948
  0
LINE
  5
128949
  8
HIDDEN
 10
2588.0
 20
-169.9999999999990905
 30
0.0
 11
2588.0
 21
-229.9999999999990905
 31
0.0
1001
ACDBBLOCKREPETAG
1070
     1
1071
       25
1005
128949
  0
VIEWPORT
  5
F6BA7
 67
     1
  8
0
 10
195.9179030619629032
 20
101.8328354358672954
 30
0.0
 40
435.1776330165599802
 41
222.1965796813965142
 68
     1
 69
     1
1001
ACAD
1000
MVIEW
1002
{
1070
    16
1010
0.0
1020
0.0
1030
0.0
1010
0.0
1020
0.0
1030
1.0
1040
0.0
1040
222.1965796813965142
1040
195.9179030619629032
1040
101.8328354358672954
1040
50.0
1040
0.0
1040
0.0
1070
     0
1070
     0
1070
     1
1070
     1
1070
     0
1070
     0
1070
     0
1070
     0
1040
0.0
1040
0.0
1040
0.0
1040
10.0
1040
10.0
1040
10.0
1040
10.0
1070
     0
1002
{
1002
}
1002
}
  0
VIEWPORT
  5
F6BA9
 67
     1
  8
OBJECT
 10
145.3303314447402954
 20
101.8328338861465028
 30
0.0
 40
232.5285303115844897
 41
162.9325342178343874
 68
     2
 69
     2
1001
ACAD
1000
MVIEW
1002
{
1070
    16
1010
0.0
1020
0.0
1030
0.0
1010
0.0
1020
0.0
1030
1.0
1040
0.0
1040
25942.5590440314699663
1040
2377.6044570773769919
1040
-7591.5176687056618903
1040
50.0
1040
0.0
1040
0.0
1070
     0
1070
   600
1070
     1
1070
     1
1070
     0
1070
     0
1070
     0
1070
     0
1040
0.0
1040
0.0
1040
0.0
1040
1.0
1040
1.0
1040
0.0
1040
0.0
1070
     0
1002
{
1002
}
1002
}
  0
ENDSEC
  0
EOF
