  0
SECTION
  2
HEADER
  9
$ACADVER
  1
AC1009
  9
$INSBASE
 10
0.0
 20
0.0
 30
0.0
  9
$EXTMIN
 10
-0.0000000000002274
 20
-3982.4999999999982
 30
0.0
  9
$EXTMAX
 10
5607.5428571428556
 20
607.5
 30
0.0
  9
$LIMMIN
 10
0.0
 20
0.0
  9
$LIMMAX
 10
210.0
 20
297.0
  9
$ORTHOMODE
 70
     0
  9
$REGENMODE
 70
     1
  9
$FILLMODE
 70
     1
  9
$QTEXTMODE
 70
     0
  9
$MIRRTEXT
 70
     0
  9
$DRAGMODE
 70
     2
  9
$LTSCALE
 40
1.0
  9
$OSMODE
 70
    37
  9
$ATTMODE
 70
     1
  9
$TEXTSIZE
 40
4.0
  9
$TRACEWID
 40
0.05
  9
$TEXTSTYLE
  7
STANDARD
  9
$CLAYER
  8
SLIM
  9
$CELTYPE
  6
BYLAYER
  9
$CECOLOR
 62
   256
  9
$DIMSCALE
 40
10.0
  9
$DIMASZ
 40
2.0
  9
$DIMEXO
 40
1.0
  9
$DIMDLI
 40
10.0
  9
$DIMRND
 40
0.0
  9
$DIMDLE
 40
0.0
  9
$DIMEXE
 40
1.0
  9
$DIMTP
 40
0.0
  9
$DIMTM
 40
0.0
  9
$DIMTXT
 40
3.2000000000000002
  9
$DIMCEN
 40
0.0
  9
$DIMTSZ
 40
0.0
  9
$DIMTOL
 70
     0
  9
$DIMLIM
 70
     0
  9
$DIMTIH
 70
     0
  9
$DIMTOH
 70
     0
  9
$DIMSE1
 70
     0
  9
$DIMSE2
 70
     0
  9
$DIMTAD
 70
     1
  9
$DIMZIN
 70
     8
  9
$DIMBLK
  1
OPEN30
  9
$DIMASO
 70
     1
  9
$DIMSHO
 70
     1
  9
$DIMPOST
  1

  9
$DIMAPOST
  1

  9
$DIMALT
 70
     0
  9
$DIMALTD
 70
     2
  9
$DIMALTF
 40
25.399999999999999
  9
$DIMLFAC
 40
1.0
  9
$DIMTOFL
 70
     1
  9
$DIMTVP
 40
0.0
  9
$DIMTIX
 70
     0
  9
$DIMSOXD
 70
     0
  9
$DIMSAH
 70
     0
  9
$DIMBLK1
  1

  9
$DIMBLK2
  1

  9
$DIMSTYLE
  2
S10
  9
$DIMCLRD
 70
   256
  9
$DIMCLRE
 70
   256
  9
$DIMCLRT
 70
   256
  9
$DIMTFAC
 40
1.0
  9
$DIMGAP
 40
0.9
  9
$LUNITS
 70
     2
  9
$LUPREC
 70
     2
  9
$SKETCHINC
 40
0.1
  9
$FILLETRAD
 40
0.0
  9
$AUNITS
 70
     0
  9
$AUPREC
 70
     2
  9
$MENU
  1
ACAD
  9
$ELEVATION
 40
0.0
  9
$PELEVATION
 40
0.0
  9
$THICKNESS
 40
0.0
  9
$LIMCHECK
 70
     0
  9
$BLIPMODE
 70
     0
  9
$CHAMFERA
 40
2.0
  9
$CHAMFERB
 40
2.0
  9
$SKPOLY
 70
     0
  9
$TDCREATE
 40
2453095.4929404748
  9
$TDUPDATE
 40
2457604.6308289352
  9
$TDINDWG
 40
21.337544409700001
  9
$TDUSRTIMER
 40
21.337543726900002
  9
$USRTIMER
 70
     1
  9
$ANGBASE
 50
0.0
  9
$ANGDIR
 70
     0
  9
$PDMODE
 70
    35
  9
$PDSIZE
 40
2.0
  9
$PLINEWID
 40
0.0
  9
$COORDS
 70
     1
  9
$SPLFRAME
 70
     0
  9
$SPLINETYPE
 70
     6
  9
$SPLINESEGS
 70
     8
  9
$ATTDIA
 70
     0
  9
$ATTREQ
 70
     1
  9
$HANDLING
 70
     1
  9
$HANDSEED
  5
126B5A
  9
$SURFTAB1
 70
     6
  9
$SURFTAB2
 70
     6
  9
$SURFTYPE
 70
     6
  9
$SURFU
 70
     6
  9
$SURFV
 70
     6
  9
$UCSNAME
  2

  9
$UCSORG
 10
0.0
 20
0.0
 30
0.0
  9
$UCSXDIR
 10
1.0
 20
0.0
 30
0.0
  9
$UCSYDIR
 10
0.0
 20
1.0
 30
0.0
  9
$PUCSNAME
  2

  9
$PUCSORG
 10
0.0
 20
0.0
 30
0.0
  9
$PUCSXDIR
 10
1.0
 20
0.0
 30
0.0
  9
$PUCSYDIR
 10
0.0
 20
1.0
 30
0.0
  9
$USERI1
 70
     0
  9
$USERI2
 70
     0
  9
$USERI3
 70
     0
  9
$USERI4
 70
     0
  9
$USERI5
 70
     0
  9
$USERR1
 40
0.0
  9
$USERR2
 40
0.0
  9
$USERR3
 40
0.0
  9
$USERR4
 40
0.0
  9
$USERR5
 40
0.0
  9
$WORLDVIEW
 70
     1
  9
$SHADEDGE
 70
     3
  9
$SHADEDIF
 70
    70
  9
$TILEMODE
 70
     1
  9
$MAXACTVP
 70
    64
  9
$PLIMCHECK
 70
     0
  9
$PEXTMIN
 10
29.066066288948051
 20
20.366566777229309
 30
0.0
  9
$PEXTMAX
 10
261.5945966005325
 20
183.29910099506381
 30
0.0
  9
$PLIMMIN
 10
-3.17498779296875
 20
-3.1749999523162842
  9
$PLIMMAX
 10
293.83566284179687
 20
206.8406708240509
  9
$UNITMODE
 70
     0
  9
$VISRETAIN
 70
     1
  9
$PLINEGEN
 70
     0
  9
$PSLTSCALE
 70
     1
  0
ENDSEC
  0
SECTION
  2
TABLES
  0
TABLE
  2
VPORT
 70
     1
  0
VPORT
  2
*ACTIVE
 70
     0
 10
0.0
 20
0.0
 11
1.0
 21
1.0
 12
4771.5394881133288
 22
-965.46153233989571
 13
0.0
 23
0.0
 14
1.0
 24
1.0
 15
0.0
 25
0.0
 16
0.0
 26
0.0
 36
1.0
 17
0.0
 27
0.0
 37
0.0
 40
10687.67415067322
 41
1.6494178525226391
 42
50.0
 43
0.0
 44
0.0
 50
0.0
 51
0.0
 71
     0
 72
   600
 73
     1
 74
     1
 75
     0
 76
     0
 77
     0
 78
     0
  0
ENDTAB
  0
TABLE
  2
LTYPE
 70
     4
  0
LTYPE
  2
CONTINUOUS
 70
     0
  3
Solid line
 72
    65
 73
     0
 40
0.0
  0
LTYPE
  2
PHANTOM2
 70
     0
  3
___ _ _ ___ _ _ ___ _ _ ___ _ _
 72
    65
 73
     6
 40
1.25
 49
0.625
 49
-0.125
 49
0.125
 49
-0.125
 49
0.125
 49
-0.125
  0
LTYPE
  2
ACAD_ISO08W100
 70
     0
  3
ISO long-dash short-dash ____ __ ____ __ ____ _
 72
    65
 73
     4
 40
36.0
 49
24.0
 49
-3.0
 49
6.0
 49
-3.0
  0
LTYPE
  2
ACAD_ISO02W100
 70
     0
  3
ISO dash __ __ __ __ __ __ __ __ __ __ __ __ __
 72
    65
 73
     2
 40
15.0
 49
12.0
 49
-3.0
  0
ENDTAB
  0
TABLE
  2
LAYER
 70
     8
  0
LAYER
  2
0
 70
     0
 62
     7
  6
CONTINUOUS
  0
LAYER
  2
SLIM
 70
     0
 62
     2
  6
CONTINUOUS
  0
LAYER
  2
DEFPOINTS
 70
     0
 62
     7
  6
CONTINUOUS
  0
LAYER
  2
DIM
 70
     0
 62
     7
  6
CONTINUOUS
  0
LAYER
  2
OBJECT
 70
     0
 62
     4
  6
CONTINUOUS
  0
LAYER
  2
HIDDEN
 70
     0
 62
     2
  6
ACAD_ISO02W100
  0
LAYER
  2
CENTER
 70
     0
 62
     2
  6
ACAD_ISO08W100
  0
LAYER
  2
DOTS
 70
     0
 62
     1
  6
CONTINUOUS
  0
ENDTAB
  0
TABLE
  2
STYLE
 70
     2
  0
STYLE
  2
STANDARD
 70
     0
 40
0.0
 41
0.75
 50
0.0
 71
     0
 42
4.0
  3
simplex.shx
  4
bigfont.shx
  0
ENDTAB
  0
TABLE
  2
VIEW
 70
     0
  0
ENDTAB
  0
TABLE
  2
UCS
 70
     0
  0
ENDTAB
  0
TABLE
  2
APPID
 70
    20
  0
APPID
  2
ACAD
 70
     0
  0
APPID
  2
ACADANNOTATIVE
 70
     0
  0
APPID
  2
ACAD_PSEXT
 70
     0
  0
APPID
  2
ACAD_EXEMPT_FROM_CAD_STANDARDS
 70
     0
  0
APPID
  2
ACAECLAYERSTANDARD
 70
     0
  0
APPID
  2
ACAUTHENVIRON
 70
     0
  0
APPID
  2
ACDBDYNAMICBLOCKTRUENAME
 70
     0
  0
APPID
  2
ACDBDYNAMICBLOCKGUID
 70
     0
  0
APPID
  2
ACDBBLOCKREPETAG
 70
     0
  0
APPID
  2
ACDBBLOCKREPBTAG
 70
     0
  0
APPID
  2
ACAD_NAV_VCDISPLAY
 70
     0
  0
APPID
  2
ACAD_DSTYLE_DIMRADIAL_EXTENSION
 70
     0
  0
APPID
  2
ACAD_DSTYLE_DIMJAG
 70
     0
  0
APPID
  2
ACAD_DSTYLE_DIMTALN
 70
     0
  0
APPID
  2
ACADANNOPO
 70
     0
  0
APPID
  2
GRADIENTCOLOR1ACI
 70
     0
  0
APPID
  2
GRADIENTCOLOR2ACI
 70
     0
  0
APPID
  2
ACADANNOMONITORALERTICONDI
 70
     0
  0
APPID
  2
CONTENTBLOCKICON
 70
     0
  0
APPID
  2
ACAD_MLEADERVER
 70
     0
  0
ENDTAB
  0
TABLE
  2
DIMSTYLE
 70
     3
  0
DIMSTYLE
  2
STANDARD
 70
     0
  3

  4

  5

  6

  7

 40
1.0
 41
0.18
 42
0.0625
 43
0.38
 44
0.18
 45
0.0
 46
0.0
 47
0.0
 48
0.0
140
0.18
141
0.09
142
0.0
143
25.399999999999999
144
1.0
145
0.0
146
1.0
147
0.09
 71
     0
 72
     0
 73
     1
 74
     1
 75
     0
 76
     0
 77
     0
 78
     0
170
     0
171
     2
172
     0
173
     0
174
     0
175
     0
176
     0
177
     0
178
     0
  0
DIMSTYLE
  2
S10
 70
     0
  3

  4

  5

  6

  7

 40
10.0
 41
2.0
 42
1.0
 43
10.0
 44
1.0
 45
0.0
 46
0.0
 47
0.0
 48
0.0
140
3.2000000000000002
141
0.0
142
0.0
143
25.399999999999999
144
1.0
145
0.0
146
1.0
147
0.9
 71
     0
 72
     0
 73
     0
 74
     0
 75
     0
 76
     0
 77
     1
 78
     8
170
     0
171
     2
172
     1
173
     0
174
     0
175
     0
176
   256
177
   256
178
   256
  0
ENDTAB
  0
ENDSEC
  0
SECTION
  2
BLOCKS
  0
BLOCK
  8
0
  2
$MODEL_SPACE
 70
     0
 10
0.0
 20
0.0
 30
0.0
  3
$MODEL_SPACE
  1

  0
ENDBLK
  5
126AAA
  8
0
  0
BLOCK
 67
     1
  8
0
  2
$PAPER_SPACE
 70
     0
 10
0.0
 20
0.0
 30
0.0
  3
$PAPER_SPACE
  1

  0
ENDBLK
  5
126AA6
 67
     1
  8
0
  0
BLOCK
  8
0
  2
_OPEN30
 70
     0
 10
0.0
 20
0.0
 30
0.0
  3
_OPEN30
  1

  0
LINE
  5
202
  8
0
  6
BYBLOCK
 62
     0
 10
-1.0
 20
0.26794919
 30
0.0
 11
0.0
 21
0.0
 31
0.0
  0
LINE
  5
203
  8
0
  6
BYBLOCK
 62
     0
 10
0.0
 20
0.0
 30
0.0
 11
-1.0
 21
-0.26794919
 31
0.0
  0
LINE
  5
204
  8
0
  6
BYBLOCK
 62
     0
 10
0.0
 20
0.0
 30
0.0
 11
-1.0
 21
0.0
 31
0.0
  0
ENDBLK
  5
206
  8
0
  0
BLOCK
  8
0
  2
*U3
 70
     1
 10
0.0
 20
0.0
 30
0.0
  3
*U3
  1

  0
TEXT
  5
1269FE
  8
SLIM
 10
258.0
 20
-974.95238095238165
 30
0.0
 40
26.0
  1
50
 50
270.0
  0
ENDBLK
  5
126A00
  8
0
  0
BLOCK
  8
0
  2
*U4
 70
     1
 10
0.0
 20
0.0
 30
0.0
  3
*U4
  1

  0
TEXT
  5
126A16
  8
SLIM
 10
258.0
 20
-1438.9523809522229
 30
0.0
 40
26.0
  1
75
 50
270.0
  0
ENDBLK
  5
126A18
  8
0
  0
BLOCK
  8
0
  2
*U5
 70
     1
 10
0.0
 20
0.0
 30
0.0
  3
*U5
  1

  0
TEXT
  5
126A1A
  8
SLIM
 10
617.99999999987813
 20
-974.95238095238165
 30
0.0
 40
26.0
  1
65
 50
270.0
  0
ENDBLK
  5
126A1C
  8
0
  0
BLOCK
  8
0
  2
*U6
 70
     1
 10
0.0
 20
0.0
 30
0.0
  3
*U6
  1

  0
TEXT
  5
126A1E
  8
SLIM
 10
158.9523809524228
 20
-130.00000000017181
 30
0.0
 40
26.0
  1
75
  0
ENDBLK
  5
126A20
  8
0
  0
BLOCK
  8
0
  2
*U7
 70
     1
 10
0.0
 20
0.0
 30
0.0
  3
*U7
  1

  0
TEXT
  5
126A22
  8
DIM
 10
4334.1164560757752
 20
-1258.7428571428561
 30
0.0
 40
32.0
  1
m（シンドカット）
 50
90.0
 41
0.75
  0
ENDBLK
  5
126A24
  8
0
  0
BLOCK
  8
0
  2
*U8
 70
     1
 10
0.0
 20
0.0
 30
0.0
  3
*U8
  1

  0
TEXT
  5
126A26
  8
DIM
 10
4700.4245816727562
 20
-864.00000000000125
 30
0.0
 40
32.0
  1
P
 50
90.0
 41
0.75
  0
ENDBLK
  5
126A28
  8
0
  0
BLOCK
  8
0
  2
*U9
 70
     1
 10
0.0
 20
0.0
 30
0.0
  3
*U9
  1

  0
TEXT
  5
126A2A
  8
DIM
 10
2700.4245816727562
 20
-863.99999999999955
 30
0.0
 40
32.0
  1
P
 50
90.0
 41
0.75
  0
ENDBLK
  5
126A2C
  8
0
  0
BLOCK
  8
0
  2
*U10
 70
     1
 10
0.0
 20
0.0
 30
0.0
  3
*U10
  1

  0
TEXT
  5
126A2E
  8
DIM
 10
2709.479620594459
 20
-3469.1428571428528
 30
0.0
 40
32.0
  1
A
 50
90.0
 41
0.75
  0
ENDBLK
  5
126A30
  8
0
  0
BLOCK
  8
0
  2
*U11
 70
     1
 10
0.0
 20
0.0
 30
0.0
  3
*U11
  1

  0
TEXT
  5
126A32
  8
DIM
 10
2707.840928403733
 20
-3850.9999999999968
 30
0.0
 40
32.0
  1
B
 50
90.0
 41
0.75
  0
ENDBLK
  5
126A34
  8
0
  0
BLOCK
  8
0
  2
*U12
 70
     1
 10
0.0
 20
0.0
 30
0.0
  3
*U12
  1

  0
TEXT
  5
126A36
  8
DIM
 10
2561.4285714285711
 20
-3323.208121984444
 30
0.0
 40
32.0
  1
C
 41
0.75
  0
ENDBLK
  5
126A38
  8
0
  0
ENDSEC
  0
SECTION
  2
ENTITIES
  0
LINE
  5
11273E
  8
OBJECT
 10
2325.0
 20
-3864.9999999999968
 30
0.0
 11
5075.0
 21
-3864.9999999999968
 31
0.0
  0
LINE
  5
11412B
  8
SLIM
 10
3256.0
 20
-2922.5000160472709
 30
0.0
 11
3256.0
 21
-3252.5000160472709
 31
0.0
  0
LINE
  5
11412C
  8
SLIM
 10
3380.0
 20
-2922.5000160472709
 30
0.0
 11
3380.0
 21
-3252.5000160472709
 31
0.0
  0
LINE
  5
11412D
  8
SLIM
 10
3510.0
 20
-2982.50001604727
 30
0.0
 11
3510.0
 21
-3252.5000160472709
 31
0.0
  0
LINE
  5
11412E
  8
SLIM
 10
3640.0
 20
-2982.50001604727
 30
0.0
 11
3640.0
 21
-3252.5000160472709
 31
0.0
  0
LINE
  5
11412F
  8
SLIM
 10
3770.0
 20
-3252.5000160472709
 30
0.0
 11
3770.0
 21
-2922.5000160472709
 31
0.0
  0
LINE
  5
114131
  8
SLIM
 10
3770.0
 20
-2922.5000160472709
 30
0.0
 11
3256.0
 21
-2922.5000160472709
 31
0.0
  0
LINE
  5
114132
  8
SLIM
 10
3769.9999999999991
 20
-2982.50001604727
 30
0.0
 11
3380.0
 21
-2982.50001604727
 31
0.0
  0
LINE
  5
114133
  8
SLIM
 10
3770.0
 20
-3042.5000160472709
 30
0.0
 11
3256.0
 21
-3042.5000160472709
 31
0.0
  0
LINE
  5
114134
  8
SLIM
 10
3770.0
 20
-3112.5000160472709
 30
0.0
 11
3256.0
 21
-3112.5000160472709
 31
0.0
  0
LINE
  5
114135
  8
SLIM
 10
3770.0
 20
-3182.5000160472709
 30
0.0
 11
3256.0
 21
-3182.5000160472709
 31
0.0
  0
LINE
  5
114136
  8
SLIM
 10
3770.0
 20
-3252.5000160472709
 30
0.0
 11
3256.0
 21
-3252.5000160472709
 31
0.0
  0
LINE
  5
11414B
  8
SLIM
 10
3380.0
 20
-3042.5000160472709
 30
0.0
 11
3255.9999722746579
 21
-2922.5000000000018
 31
0.0
  0
LINE
  5
1238B4
  8
CENTER
 10
2579.9999999999991
 20
-3459.9999999999968
 30
0.0
 11
2409.9999999999991
 21
-3459.9999999999968
 31
0.0
1001
ACDBBLOCKREPETAG
1070
     1
1071
       14
1005
122545
  0
LINE
  5
1238B5
  8
CENTER
 10
2500.0
 20
-3549.9999999999968
 30
0.0
 11
2500.0
 21
-3369.9999999999968
 31
0.0
1001
ACDBBLOCKREPETAG
1070
     1
1071
       15
1005
122546
  0
CIRCLE
  5
1238B6
  8
OBJECT
 10
2500.0
 20
-3459.9999999999968
 30
0.0
 40
70.0
1001
ACDBBLOCKREPETAG
1070
     1
1071
       16
1005
122547
  0
CIRCLE
  5
1238B7
  8
OBJECT
 10
2500.0
 20
-3459.9999999999968
 30
0.0
 40
75.0
1001
ACDBBLOCKREPETAG
1070
     1
1071
       17
1005
122548
  0
LINE
  5
123927
  8
CENTER
 10
2500.0
 20
-3644.9999999999991
 30
0.0
 11
2500.0
 21
-3891.9999999999991
 31
0.0
1001
ACDBBLOCKREPETAG
1070
     1
1071
       25
1005
123927
  0
LINE
  5
123928
  8
OBJECT
 10
2425.0
 20
-3659.9999999999968
 30
0.0
 11
2425.0
 21
-3879.9999999999991
 31
0.0
1001
ACDBBLOCKREPETAG
1070
     1
1071
       26
1005
123928
  0
LINE
  5
12392C
  8
OBJECT
 10
2575.0
 20
-3659.9999999999968
 30
0.0
 11
2575.0
 21
-3756.5000000000618
 31
0.0
1001
ACDBBLOCKREPETAG
1070
     1
1071
       34
1005
12392C
  0
LINE
  5
123A5C
  8
OBJECT
 10
2575.0
 20
-3862.4999999999991
 30
0.0
 11
2575.0
 21
-3879.9999999999991
 31
0.0
1001
ACDBBLOCKREPETAG
1070
     1
1071
       34
1005
12392C
  0
LINE
  5
123A5E
  8
CENTER
 10
2900.0
 20
-3644.9999999999991
 30
0.0
 11
2900.0
 21
-3891.9999999999991
 31
0.0
1001
ACDBBLOCKREPETAG
1070
     1
1071
       25
1005
123927
  0
LINE
  5
123A5F
  8
OBJECT
 10
2825.0
 20
-3659.9999999999968
 30
0.0
 11
2825.0
 21
-3879.9999999999991
 31
0.0
1001
ACDBBLOCKREPETAG
1070
     1
1071
       26
1005
123928
  0
LINE
  5
123A60
  8
OBJECT
 10
2975.0
 20
-3659.9999999999968
 30
0.0
 11
2975.0
 21
-3879.9999999999991
 31
0.0
1001
ACDBBLOCKREPETAG
1070
     1
1071
       34
1005
12392C
  0
LINE
  5
123AD2
  8
CENTER
 10
3579.9999999999991
 20
-3459.9999999999968
 30
0.0
 11
3410.0
 21
-3459.9999999999968
 31
0.0
1001
ACDBBLOCKREPETAG
1070
     1
1071
       14
1005
122545
  0
LINE
  5
123AD3
  8
CENTER
 10
3500.0
 20
-3549.9999999999968
 30
0.0
 11
3500.0
 21
-3369.9999999999968
 31
0.0
1001
ACDBBLOCKREPETAG
1070
     1
1071
       15
1005
122546
  0
CIRCLE
  5
123AD4
  8
OBJECT
 10
3500.0
 20
-3459.9999999999968
 30
0.0
 40
70.0
1001
ACDBBLOCKREPETAG
1070
     1
1071
       16
1005
122547
  0
CIRCLE
  5
123AD5
  8
OBJECT
 10
3500.0
 20
-3459.9999999999968
 30
0.0
 40
75.0
1001
ACDBBLOCKREPETAG
1070
     1
1071
       17
1005
122548
  0
LINE
  5
123ADD
  8
CENTER
 10
3500.0
 20
-3644.9999999999991
 30
0.0
 11
3500.0
 21
-3891.9999999999991
 31
0.0
1001
ACDBBLOCKREPETAG
1070
     1
1071
       25
1005
123927
  0
LINE
  5
123ADE
  8
OBJECT
 10
3424.9999999999991
 20
-3659.9999999999968
 30
0.0
 11
3424.9999999999991
 21
-3879.9999999999991
 31
0.0
1001
ACDBBLOCKREPETAG
1070
     1
1071
       26
1005
123928
  0
LINE
  5
123ADF
  8
OBJECT
 10
3574.9999999999991
 20
-3659.9999999999968
 30
0.0
 11
3574.9999999999991
 21
-3756.5000000000618
 31
0.0
1001
ACDBBLOCKREPETAG
1070
     1
1071
       34
1005
12392C
  0
LINE
  5
123AE0
  8
OBJECT
 10
3574.9999999999991
 20
-3862.4999999999991
 30
0.0
 11
3574.9999999999991
 21
-3879.9999999999991
 31
0.0
1001
ACDBBLOCKREPETAG
1070
     1
1071
       34
1005
12392C
  0
LINE
  5
123AE8
  8
CENTER
 10
3900.0
 20
-3644.9999999999991
 30
0.0
 11
3900.0
 21
-3891.9999999999991
 31
0.0
1001
ACDBBLOCKREPETAG
1070
     1
1071
       25
1005
123927
  0
LINE
  5
123AE9
  8
OBJECT
 10
3824.9999999999991
 20
-3659.9999999999968
 30
0.0
 11
3824.9999999999991
 21
-3879.9999999999991
 31
0.0
1001
ACDBBLOCKREPETAG
1070
     1
1071
       26
1005
123928
  0
LINE
  5
123AEA
  8
OBJECT
 10
3975.0
 20
-3659.9999999999968
 30
0.0
 11
3975.0
 21
-3879.9999999999991
 31
0.0
1001
ACDBBLOCKREPETAG
1070
     1
1071
       34
1005
12392C
  0
LINE
  5
123B38
  8
CENTER
 10
4579.9999999999991
 20
-3459.9999999999968
 30
0.0
 11
4409.9999999999991
 21
-3459.9999999999968
 31
0.0
1001
ACDBBLOCKREPETAG
1070
     1
1071
       14
1005
122545
  0
LINE
  5
123B39
  8
CENTER
 10
4499.9999999999991
 20
-3549.9999999999968
 30
0.0
 11
4499.9999999999991
 21
-3369.9999999999968
 31
0.0
1001
ACDBBLOCKREPETAG
1070
     1
1071
       15
1005
122546
  0
CIRCLE
  5
123B3A
  8
OBJECT
 10
4499.9999999999991
 20
-3459.9999999999968
 30
0.0
 40
70.0
1001
ACDBBLOCKREPETAG
1070
     1
1071
       16
1005
122547
  0
CIRCLE
  5
123B3B
  8
OBJECT
 10
4499.9999999999991
 20
-3459.9999999999968
 30
0.0
 40
75.0
1001
ACDBBLOCKREPETAG
1070
     1
1071
       17
1005
122548
  0
LINE
  5
123B43
  8
CENTER
 10
4500.0
 20
-3644.9999999999991
 30
0.0
 11
4500.0
 21
-3891.9999999999991
 31
0.0
1001
ACDBBLOCKREPETAG
1070
     1
1071
       25
1005
123927
  0
LINE
  5
123B44
  8
OBJECT
 10
4425.0
 20
-3659.9999999999968
 30
0.0
 11
4425.0
 21
-3879.9999999999991
 31
0.0
1001
ACDBBLOCKREPETAG
1070
     1
1071
       26
1005
123928
  0
LINE
  5
123B45
  8
OBJECT
 10
4575.0
 20
-3659.9999999999968
 30
0.0
 11
4575.0
 21
-3756.5000000000618
 31
0.0
1001
ACDBBLOCKREPETAG
1070
     1
1071
       34
1005
12392C
  0
LINE
  5
123B46
  8
OBJECT
 10
4575.0
 20
-3862.4999999999991
 30
0.0
 11
4575.0
 21
-3879.9999999999991
 31
0.0
1001
ACDBBLOCKREPETAG
1070
     1
1071
       34
1005
12392C
  0
LINE
  5
123B4E
  8
CENTER
 10
4900.0
 20
-3644.9999999999991
 30
0.0
 11
4900.0
 21
-3891.9999999999991
 31
0.0
1001
ACDBBLOCKREPETAG
1070
     1
1071
       25
1005
123927
  0
LINE
  5
123B4F
  8
OBJECT
 10
4825.0
 20
-3659.9999999999968
 30
0.0
 11
4825.0
 21
-3879.9999999999991
 31
0.0
1001
ACDBBLOCKREPETAG
1070
     1
1071
       26
1005
123928
  0
LINE
  5
123B50
  8
OBJECT
 10
4975.0
 20
-3659.9999999999968
 30
0.0
 11
4974.9999999999991
 21
-3879.9999999999991
 31
0.0
1001
ACDBBLOCKREPETAG
1070
     1
1071
       34
1005
12392C
  0
POINT
  5
124C02
  8
DOTS
 10
2500.0
 20
-3459.9999999999968
 30
0.0
  0
POINT
  5
124C03
  8
DOTS
 10
2500.0
 20
-3864.9999999999968
 30
0.0
  0
POINT
  5
124C05
  8
DOTS
 10
3500.0
 20
-3864.9999999999968
 30
0.0
  0
POINT
  5
124C07
  8
DOTS
 10
3500.0
 20
-3459.9999999999968
 30
0.0
  0
POINT
  5
124C08
  8
DOTS
 10
4499.9999999999991
 20
-3459.9999999999968
 30
0.0
  0
POINT
  5
124C09
  8
DOTS
 10
4499.9999999999991
 20
-3864.9999999999968
 30
0.0
  0
LINE
  5
125A75
  8
SLIM
 10
5454.0
 20
-644.99999999999591
 30
0.0
 11
5454.0
 21
-1364.9999999999959
 31
0.0
  0
LINE
  5
125A76
  8
SLIM
 10
5602.0
 20
-644.99999999999591
 30
0.0
 11
5602.0
 21
-1364.9999999999959
 31
0.0
  0
LINE
  5
125A77
  8
SLIM
 10
5350.0
 20
-1364.9999999999959
 30
0.0
 11
5350.0
 21
-644.99999999999591
 31
0.0
  0
LINE
  5
125A78
  8
SLIM
 10
5602.0
 20
-644.99999999999591
 30
0.0
 11
5350.0
 21
-644.99999999999591
 31
0.0
  0
LINE
  5
125A79
  8
SLIM
 10
5602.0
 20
-692.99999999999568
 30
0.0
 11
5350.0
 21
-692.99999999999568
 31
0.0
  0
LINE
  5
125A7D
  8
SLIM
 10
5602.0
 20
-740.99999999999613
 30
0.0
 11
5350.0
 21
-740.99999999999613
 31
0.0
  0
LINE
  5
125A7E
  8
SLIM
 10
5602.0
 20
-788.99999999999636
 30
0.0
 11
5350.0
 21
-788.99999999999636
 31
0.0
  0
LINE
  5
125A7F
  8
SLIM
 10
5602.0
 20
-836.99999999999613
 30
0.0
 11
5350.0
 21
-836.99999999999613
 31
0.0
  0
LINE
  5
125A85
  8
SLIM
 10
5602.0
 20
-884.99999999999636
 30
0.0
 11
5350.0
 21
-884.99999999999636
 31
0.0
  0
LINE
  5
125A88
  8
SLIM
 10
5602.0
 20
-932.99999999999636
 30
0.0
 11
5350.0
 21
-932.99999999999636
 31
0.0
  0
LINE
  5
125A8B
  8
SLIM
 10
5602.0
 20
-980.99999999999613
 30
0.0
 11
5350.0
 21
-980.99999999999613
 31
0.0
  0
LINE
  5
125A8E
  8
SLIM
 10
5602.0
 20
-1028.9999999999959
 30
0.0
 11
5350.0
 21
-1028.9999999999959
 31
0.0
  0
LINE
  5
125A91
  8
SLIM
 10
5602.0
 20
-1076.9999999999959
 30
0.0
 11
5350.0
 21
-1076.9999999999959
 31
0.0
  0
LINE
  5
125A93
  8
SLIM
 10
5602.0
 20
-1124.9999999999959
 30
0.0
 11
5350.0
 21
-1124.9999999999959
 31
0.0
  0
LINE
  5
125A95
  8
SLIM
 10
5602.0
 20
-1172.9999999999959
 30
0.0
 11
5350.0
 21
-1172.9999999999959
 31
0.0
  0
LINE
  5
125A97
  8
SLIM
 10
5602.0
 20
-1220.9999999999959
 30
0.0
 11
5350.0
 21
-1220.9999999999959
 31
0.0
  0
LINE
  5
125A99
  8
SLIM
 10
5602.0
 20
-1268.9999999999959
 30
0.0
 11
5350.0
 21
-1268.9999999999959
 31
0.0
  0
LINE
  5
125A9B
  8
SLIM
 10
5602.0
 20
-1316.9999999999959
 30
0.0
 11
5350.0
 21
-1316.9999999999959
 31
0.0
  0
LINE
  5
125A9D
  8
SLIM
 10
5602.0
 20
-1364.9999999999959
 30
0.0
 11
5350.0
 21
-1364.9999999999959
 31
0.0
  0
LINE
  5
12616F
  8
CENTER
 10
4580.0
 20
-199.99999999999909
 30
0.0
 11
4400.0
 21
-199.99999999999909
 31
0.0
1001
ACDBBLOCKREPETAG
1070
     1
1071
       14
1005
0
  0
LINE
  5
126170
  8
CENTER
 10
4500.0
 20
-294.99999999999898
 30
0.0
 11
4500.0
 21
-99.999999999999091
 31
0.0
1001
ACDBBLOCKREPETAG
1070
     1
1071
       15
1005
0
  0
CIRCLE
  5
126171
  8
OBJECT
 10
4500.0
 20
-199.99999999999909
 30
0.0
 40
53.5
1001
ACDBBLOCKREPETAG
1070
     1
1071
      344
1005
0
  0
POINT
  5
126172
  8
DOTS
 10
4500.0
 20
-199.99999999999909
 30
0.0
 50
270.0
1001
ACDBBLOCKREPETAG
1070
     1
1071
      362
1005
0
  0
CIRCLE
  5
126173
  8
OBJECT
 10
4500.0
 20
-199.99999999999909
 30
0.0
 40
70.0
1001
ACDBBLOCKREPETAG
1070
     1
1071
       16
1005
0
  0
ARC
  5
126174
  8
OBJECT
 10
4500.0
 20
-199.99999999999909
 30
0.0
 40
80.0
 50
50.805032573890557
 51
309.19496742597107
1001
ACDBBLOCKREPETAG
1070
     1
1071
       18
1005
0
  0
CIRCLE
  5
126175
  8
OBJECT
 10
4500.0
 20
-199.99999999999909
 30
0.0
 40
77.0
1001
ACDBBLOCKREPETAG
1070
     1
1071
       17
1005
0
  0
LINE
  5
126176
  8
OBJECT
 10
4545.6618002273244
 20
-261.99999999999909
 30
0.0
 11
4580.0
 21
-261.99999999999909
 31
0.0
1001
ACDBBLOCKREPETAG
1070
     1
1071
       20
1005
0
  0
LINE
  5
126177
  8
OBJECT
 10
4545.6618002273244
 20
-137.99999999999909
 30
0.0
 11
4580.0
 21
-137.99999999999909
 31
0.0
1001
ACDBBLOCKREPETAG
1070
     1
1071
       19
1005
0
  0
LINE
  5
126178
  8
OBJECT
 10
4555.0
 20
-332.99999999999898
 30
0.0
 11
4555.0
 21
-339.99999999999909
 31
0.0
1001
ACDBBLOCKREPETAG
1070
     1
1071
       20
1005
0
  0
LINE
  5
126179
  8
OBJECT
 10
4555.0
 20
-339.99999999999909
 30
0.0
 11
4445.0
 21
-339.99999999999909
 31
0.0
1001
ACDBBLOCKREPETAG
1070
     1
1071
       21
1005
0
  0
LINE
  5
12617A
  8
OBJECT
 10
4445.0
 20
-339.99999999999909
 30
0.0
 11
4445.0
 21
-332.99999999999898
 31
0.0
1001
ACDBBLOCKREPETAG
1070
     1
1071
       22
1005
0
  0
LINE
  5
12617B
  8
OBJECT
 10
4445.0
 20
-332.99999999999898
 30
0.0
 11
4555.0
 21
-332.99999999999898
 31
0.0
1001
ACDBBLOCKREPETAG
1070
     1
1071
       23
1005
0
  0
LINE
  5
12617C
  8
CENTER
 10
4500.0
 20
-354.99999999999909
 30
0.0
 11
4500.0
 21
-279.99999999999909
 31
0.0
1001
ACDBBLOCKREPETAG
1070
     1
1071
       24
1005
0
  0
LINE
  5
12617D
  8
OBJECT
 10
4552.0
 20
-332.99999999999898
 30
0.0
 11
4552.0
 21
-296.99999999999898
 31
0.0
1001
ACDBBLOCKREPETAG
1070
     1
1071
       25
1005
0
  0
LINE
  5
12617E
  8
OBJECT
 10
4552.0
 20
-296.99999999999898
 30
0.0
 11
4448.0
 21
-296.99999999999898
 31
0.0
1001
ACDBBLOCKREPETAG
1070
     1
1071
       26
1005
0
  0
LINE
  5
12617F
  8
OBJECT
 10
4448.0
 20
-296.99999999999898
 30
0.0
 11
4448.0
 21
-332.99999999999898
 31
0.0
1001
ACDBBLOCKREPETAG
1070
     1
1071
       27
1005
0
  0
LINE
  5
126180
  8
OBJECT
 10
4547.5
 20
-292.99999999999898
 30
0.0
 11
4547.5
 21
-284.49999999999898
 31
0.0
1001
ACDBBLOCKREPETAG
1070
     1
1071
       28
1005
0
  0
LINE
  5
126181
  8
OBJECT
 10
4452.4999999999991
 20
-284.49999999999898
 30
0.0
 11
4452.4999999999991
 21
-292.99999999999898
 31
0.0
1001
ACDBBLOCKREPETAG
1070
     1
1071
       29
1005
0
  0
LINE
  5
126182
  8
OBJECT
 10
4452.4999999999991
 20
-292.99999999999898
 30
0.0
 11
4547.5
 21
-292.99999999999898
 31
0.0
1001
ACDBBLOCKREPETAG
1070
     1
1071
       30
1005
0
  0
LINE
  5
126183
  8
OBJECT
 10
4552.0
 20
-296.99999999999898
 30
0.0
 11
4547.5
 21
-292.99999999999898
 31
0.0
1001
ACDBBLOCKREPETAG
1070
     1
1071
       31
1005
0
  0
LINE
  5
126184
  8
OBJECT
 10
4448.0
 20
-296.99999999999898
 30
0.0
 11
4452.4999999999991
 21
-292.99999999999898
 31
0.0
1001
ACDBBLOCKREPETAG
1070
     1
1071
       32
1005
0
  0
LINE
  5
126185
  8
OBJECT
 10
4450.5
 20
-284.49999999999733
 30
0.0
 11
4549.5
 21
-284.49999999999898
 31
0.0
1001
ACDBBLOCKREPETAG
1070
     1
1071
       33
1005
0
  0
LINE
  5
126186
  8
HIDDEN
 10
4538.0
 20
-287.99999999999909
 30
0.0
 11
4462.0
 21
-287.99999999999909
 31
0.0
1001
ACDBBLOCKREPETAG
1070
     1
1071
       34
1005
0
  0
LINE
  5
126187
  8
OBJECT
 10
4549.5
 20
-284.49999999999898
 30
0.0
 11
4549.5
 21
-262.84703652520051
 31
0.0
1001
ACDBBLOCKREPETAG
1070
     1
1071
       35
1005
0
  0
LINE
  5
126188
  8
OBJECT
 10
4450.5
 20
-284.49999999999733
 30
0.0
 11
4450.5
 21
-262.84703652520051
 31
0.0
1001
ACDBBLOCKREPETAG
1070
     1
1071
       36
1005
0
  0
ARC
  5
126189
  8
OBJECT
 10
4500.0
 20
-199.99999999999909
 30
0.0
 40
85.0
 50
46.837102859727011
 51
234.38379327149741
1001
ACDBBLOCKREPETAG
1070
     1
1071
       18
1005
0
  0
ARC
  5
12618A
  8
OBJECT
 10
4500.0
 20
-199.99999999999909
 30
0.0
 40
85.0
 50
305.61620672850262
 51
313.162897140273
1001
ACDBBLOCKREPETAG
1070
     1
1071
       18
1005
0
  0
LINE
  5
126192
  8
OBJECT
 10
2555.0
 20
-332.99999999999898
 30
0.0
 11
2555.0
 21
-339.99999999999909
 31
0.0
1001
ACDBBLOCKREPETAG
1070
     1
1071
       20
1005
0
  0
LINE
  5
126193
  8
OBJECT
 10
2555.0
 20
-339.99999999999909
 30
0.0
 11
2445.0
 21
-339.99999999999909
 31
0.0
1001
ACDBBLOCKREPETAG
1070
     1
1071
       21
1005
0
  0
LINE
  5
126194
  8
OBJECT
 10
2445.0
 20
-339.99999999999909
 30
0.0
 11
2445.0
 21
-332.99999999999898
 31
0.0
1001
ACDBBLOCKREPETAG
1070
     1
1071
       22
1005
0
  0
LINE
  5
126195
  8
OBJECT
 10
2445.0
 20
-332.99999999999898
 30
0.0
 11
2555.0
 21
-332.99999999999898
 31
0.0
1001
ACDBBLOCKREPETAG
1070
     1
1071
       23
1005
0
  0
LINE
  5
126196
  8
CENTER
 10
2500.0
 20
-354.99999999999909
 30
0.0
 11
2500.0
 21
-279.99999999999909
 31
0.0
1001
ACDBBLOCKREPETAG
1070
     1
1071
       24
1005
0
  0
LINE
  5
126197
  8
OBJECT
 10
2552.0
 20
-332.99999999999898
 30
0.0
 11
2552.0
 21
-296.99999999999898
 31
0.0
1001
ACDBBLOCKREPETAG
1070
     1
1071
       25
1005
0
  0
LINE
  5
126198
  8
OBJECT
 10
2552.0
 20
-296.99999999999898
 30
0.0
 11
2448.0
 21
-296.99999999999898
 31
0.0
1001
ACDBBLOCKREPETAG
1070
     1
1071
       26
1005
0
  0
LINE
  5
126199
  8
OBJECT
 10
2448.0
 20
-296.99999999999898
 30
0.0
 11
2448.0
 21
-332.99999999999898
 31
0.0
1001
ACDBBLOCKREPETAG
1070
     1
1071
       27
1005
0
  0
LINE
  5
12619A
  8
OBJECT
 10
2547.5
 20
-292.99999999999898
 30
0.0
 11
2547.5
 21
-284.49999999999898
 31
0.0
1001
ACDBBLOCKREPETAG
1070
     1
1071
       28
1005
0
  0
LINE
  5
12619B
  8
OBJECT
 10
2452.5000000000009
 20
-284.49999999999898
 30
0.0
 11
2452.5000000000009
 21
-292.99999999999898
 31
0.0
1001
ACDBBLOCKREPETAG
1070
     1
1071
       29
1005
0
  0
LINE
  5
12619C
  8
OBJECT
 10
2452.5000000000009
 20
-292.99999999999898
 30
0.0
 11
2547.5
 21
-292.99999999999898
 31
0.0
1001
ACDBBLOCKREPETAG
1070
     1
1071
       30
1005
0
  0
LINE
  5
12619D
  8
OBJECT
 10
2552.0
 20
-296.99999999999898
 30
0.0
 11
2547.5
 21
-292.99999999999898
 31
0.0
1001
ACDBBLOCKREPETAG
1070
     1
1071
       31
1005
0
  0
LINE
  5
12619E
  8
OBJECT
 10
2448.0
 20
-296.99999999999898
 30
0.0
 11
2452.5000000000009
 21
-292.99999999999898
 31
0.0
1001
ACDBBLOCKREPETAG
1070
     1
1071
       32
1005
0
  0
LINE
  5
12619F
  8
OBJECT
 10
2450.5
 20
-284.49999999999733
 30
0.0
 11
2549.5
 21
-284.49999999999898
 31
0.0
1001
ACDBBLOCKREPETAG
1070
     1
1071
       33
1005
0
  0
LINE
  5
1261A0
  8
HIDDEN
 10
2538.0
 20
-287.99999999999909
 30
0.0
 11
2462.0
 21
-287.99999999999909
 31
0.0
1001
ACDBBLOCKREPETAG
1070
     1
1071
       34
1005
0
  0
LINE
  5
1261A1
  8
OBJECT
 10
2549.5
 20
-284.49999999999898
 30
0.0
 11
2549.5
 21
-262.84703652520051
 31
0.0
1001
ACDBBLOCKREPETAG
1070
     1
1071
       35
1005
0
  0
LINE
  5
1261A2
  8
OBJECT
 10
2450.5
 20
-284.49999999999733
 30
0.0
 11
2450.5
 21
-262.84703652520051
 31
0.0
1001
ACDBBLOCKREPETAG
1070
     1
1071
       36
1005
0
  0
CIRCLE
  5
1261AA
  8
OBJECT
 10
2500.0
 20
-199.99999999999909
 30
0.0
 40
53.5
1001
ACDBBLOCKREPETAG
1070
     1
1071
      344
1005
0
  0
POINT
  5
1261AB
  8
DOTS
 10
2500.0
 20
-199.99999999999909
 30
0.0
 50
270.0
1001
ACDBBLOCKREPETAG
1070
     1
1071
      362
1005
0
  0
LINE
  5
1261AD
  8
CENTER
 10
2580.0
 20
-199.99999999999909
 30
0.0
 11
2405.0
 21
-199.99999999999909
 31
0.0
1001
ACDBBLOCKREPETAG
1070
     1
1071
       14
1005
0
  0
LINE
  5
1261AE
  8
CENTER
 10
2500.0
 20
-294.99999999999898
 30
0.0
 11
2500.0
 21
-104.9999999999991
 31
0.0
1001
ACDBBLOCKREPETAG
1070
     1
1071
       15
1005
0
  0
CIRCLE
  5
1261AF
  8
OBJECT
 10
2500.0
 20
-199.99999999999909
 30
0.0
 40
70.0
1001
ACDBBLOCKREPETAG
1070
     1
1071
       16
1005
0
  0
CIRCLE
  5
1261B0
  8
OBJECT
 10
2500.0
 20
-199.99999999999909
 30
0.0
 40
77.0
1001
ACDBBLOCKREPETAG
1070
     1
1071
       17
1005
0
  0
ARC
  5
1261B1
  8
OBJECT
 10
2500.0
 20
-199.99999999999909
 30
0.0
 40
80.0
 50
50.805032573890557
 51
309.19496742597107
1001
ACDBBLOCKREPETAG
1070
     1
1071
       18
1005
0
  0
LINE
  5
1261B2
  8
OBJECT
 10
2545.6618002273249
 20
-137.99999999999909
 30
0.0
 11
2580.0
 21
-137.99999999999909
 31
0.0
1001
ACDBBLOCKREPETAG
1070
     1
1071
       19
1005
0
  0
LINE
  5
1261B3
  8
OBJECT
 10
2545.6618002273249
 20
-261.99999999999909
 30
0.0
 11
2580.0
 21
-261.99999999999909
 31
0.0
1001
ACDBBLOCKREPETAG
1070
     1
1071
       20
1005
0
  0
LINE
  5
1266B0
  8
OBJECT
 10
2633.0
 20
-137.99999999999909
 30
0.0
 11
2640.0
 21
-137.99999999999909
 31
0.0
1001
ACDBBLOCKREPETAG
1070
     1
1071
       47
1005
1266B0
  0
LINE
  5
1266B1
  8
OBJECT
 10
2640.0
 20
-137.99999999999909
 30
0.0
 11
2640.0
 21
-261.99999999999909
 31
0.0
1001
ACDBBLOCKREPETAG
1070
     1
1071
       48
1005
1266B1
  0
LINE
  5
1266B2
  8
OBJECT
 10
2640.0
 20
-261.99999999999909
 30
0.0
 11
2633.0
 21
-261.99999999999909
 31
0.0
1001
ACDBBLOCKREPETAG
1070
     1
1071
       49
1005
1266B2
  0
LINE
  5
1266B3
  8
OBJECT
 10
2633.0
 20
-261.99999999999909
 30
0.0
 11
2633.0
 21
-137.99999999999909
 31
0.0
1001
ACDBBLOCKREPETAG
1070
     1
1071
       50
1005
1266B3
  0
LINE
  5
1266B4
  8
CENTER
 10
2655.0
 20
-199.99999999999909
 30
0.0
 11
2580.0
 21
-199.99999999999909
 31
0.0
1001
ACDBBLOCKREPETAG
1070
     1
1071
       51
1005
1266B4
  0
LINE
  5
1266B5
  8
OBJECT
 10
2633.0
 20
-140.99999999999909
 30
0.0
 11
2597.0
 21
-140.99999999999909
 31
0.0
1001
ACDBBLOCKREPETAG
1070
     1
1071
       52
1005
1266B5
  0
LINE
  5
1266B6
  8
OBJECT
 10
2597.0
 20
-140.99999999999909
 30
0.0
 11
2597.0
 21
-258.99999999999909
 31
0.0
1001
ACDBBLOCKREPETAG
1070
     1
1071
       53
1005
1266B6
  0
LINE
  5
1266B7
  8
OBJECT
 10
2597.0
 20
-258.99999999999909
 30
0.0
 11
2633.0
 21
-258.99999999999909
 31
0.0
1001
ACDBBLOCKREPETAG
1070
     1
1071
       54
1005
1266B7
  0
LINE
  5
1266B8
  8
OBJECT
 10
2593.0
 20
-145.49999999999909
 30
0.0
 11
2586.0
 21
-145.49999999999909
 31
0.0
1001
ACDBBLOCKREPETAG
1070
     1
1071
       55
1005
1266B8
  0
LINE
  5
1266B9
  8
OBJECT
 10
2586.0
 20
-254.49999999999909
 30
0.0
 11
2593.0
 21
-254.49999999999909
 31
0.0
1001
ACDBBLOCKREPETAG
1070
     1
1071
       56
1005
1266B9
  0
LINE
  5
1266BA
  8
OBJECT
 10
2593.0
 20
-254.49999999999909
 30
0.0
 11
2593.0
 21
-145.49999999999909
 31
0.0
1001
ACDBBLOCKREPETAG
1070
     1
1071
       57
1005
1266BA
  0
LINE
  5
1266BB
  8
OBJECT
 10
2597.0
 20
-140.99999999999909
 30
0.0
 11
2593.0
 21
-145.49999999999909
 31
0.0
1001
ACDBBLOCKREPETAG
1070
     1
1071
       58
1005
1266BB
  0
LINE
  5
1266BC
  8
OBJECT
 10
2597.0
 20
-258.99999999999909
 30
0.0
 11
2593.0
 21
-254.49999999999909
 31
0.0
1001
ACDBBLOCKREPETAG
1070
     1
1071
       59
1005
1266BC
  0
LINE
  5
1266BD
  8
OBJECT
 10
2583.0
 20
-137.99999999999909
 30
0.0
 11
2580.0
 21
-137.99999999999909
 31
0.0
1001
ACDBBLOCKREPETAG
1070
     1
1071
       60
1005
1266BD
  0
ARC
  5
1266BE
  8
OBJECT
 10
2583.0
 20
-140.99999999999909
 30
0.0
 40
3.0
 50
0.0
 51
90.0
1001
ACDBBLOCKREPETAG
1070
     1
1071
       61
1005
1266BE
  0
LINE
  5
1266BF
  8
OBJECT
 10
2580.0
 20
-261.99999999999909
 30
0.0
 11
2583.0
 21
-261.99999999999909
 31
0.0
1001
ACDBBLOCKREPETAG
1070
     1
1071
       62
1005
1266BF
  0
ARC
  5
1266C0
  8
OBJECT
 10
2583.0
 20
-258.99999999999909
 30
0.0
 40
3.0
 50
270.0
 51
0.0
1001
ACDBBLOCKREPETAG
1070
     1
1071
       63
1005
1266C0
  0
LINE
  5
1266C1
  8
OBJECT
 10
2586.0
 20
-258.99999999999909
 30
0.0
 11
2586.0
 21
-140.99999999999909
 31
0.0
1001
ACDBBLOCKREPETAG
1070
     1
1071
       64
1005
1266C1
  0
LINE
  5
1266C2
  8
HIDDEN
 10
2588.0
 20
-155.49999999999909
 30
0.0
 11
2588.0
 21
-244.49999999999909
 31
0.0
1001
ACDBBLOCKREPETAG
1070
     1
1071
       65
1005
1266C2
  0
LINE
  5
1266C3
  8
OBJECT
 10
4633.0
 20
-137.99999999999909
 30
0.0
 11
4640.0
 21
-137.99999999999909
 31
0.0
1001
ACDBBLOCKREPETAG
1070
     1
1071
       47
1005
1266C3
  0
LINE
  5
1266C4
  8
OBJECT
 10
4640.0
 20
-137.99999999999909
 30
0.0
 11
4640.0
 21
-261.99999999999909
 31
0.0
1001
ACDBBLOCKREPETAG
1070
     1
1071
       48
1005
1266C4
  0
LINE
  5
1266C5
  8
OBJECT
 10
4640.0
 20
-261.99999999999909
 30
0.0
 11
4633.0
 21
-261.99999999999909
 31
0.0
1001
ACDBBLOCKREPETAG
1070
     1
1071
       49
1005
1266C5
  0
LINE
  5
1266C6
  8
OBJECT
 10
4633.0
 20
-261.99999999999909
 30
0.0
 11
4633.0
 21
-137.99999999999909
 31
0.0
1001
ACDBBLOCKREPETAG
1070
     1
1071
       50
1005
1266C6
  0
LINE
  5
1266C7
  8
CENTER
 10
4655.0
 20
-199.99999999999909
 30
0.0
 11
4580.0
 21
-199.99999999999909
 31
0.0
1001
ACDBBLOCKREPETAG
1070
     1
1071
       51
1005
1266C7
  0
LINE
  5
1266C8
  8
OBJECT
 10
4633.0
 20
-140.99999999999909
 30
0.0
 11
4597.0
 21
-140.99999999999909
 31
0.0
1001
ACDBBLOCKREPETAG
1070
     1
1071
       52
1005
1266C8
  0
LINE
  5
1266C9
  8
OBJECT
 10
4597.0
 20
-140.99999999999909
 30
0.0
 11
4597.0
 21
-258.99999999999909
 31
0.0
1001
ACDBBLOCKREPETAG
1070
     1
1071
       53
1005
1266C9
  0
LINE
  5
1266CA
  8
OBJECT
 10
4597.0
 20
-258.99999999999909
 30
0.0
 11
4633.0
 21
-258.99999999999909
 31
0.0
1001
ACDBBLOCKREPETAG
1070
     1
1071
       54
1005
1266CA
  0
LINE
  5
1266CB
  8
OBJECT
 10
4593.0
 20
-145.49999999999909
 30
0.0
 11
4586.0
 21
-145.49999999999909
 31
0.0
1001
ACDBBLOCKREPETAG
1070
     1
1071
       55
1005
1266CB
  0
LINE
  5
1266CC
  8
OBJECT
 10
4586.0
 20
-254.49999999999909
 30
0.0
 11
4593.0
 21
-254.49999999999909
 31
0.0
1001
ACDBBLOCKREPETAG
1070
     1
1071
       56
1005
1266CC
  0
LINE
  5
1266CD
  8
OBJECT
 10
4593.0
 20
-254.49999999999909
 30
0.0
 11
4593.0
 21
-145.49999999999909
 31
0.0
1001
ACDBBLOCKREPETAG
1070
     1
1071
       57
1005
1266CD
  0
LINE
  5
1266CE
  8
OBJECT
 10
4597.0
 20
-140.99999999999909
 30
0.0
 11
4593.0
 21
-145.49999999999909
 31
0.0
1001
ACDBBLOCKREPETAG
1070
     1
1071
       58
1005
1266CE
  0
LINE
  5
1266CF
  8
OBJECT
 10
4597.0
 20
-258.99999999999909
 30
0.0
 11
4593.0
 21
-254.49999999999909
 31
0.0
1001
ACDBBLOCKREPETAG
1070
     1
1071
       59
1005
1266CF
  0
LINE
  5
1266D0
  8
OBJECT
 10
4583.0
 20
-137.99999999999909
 30
0.0
 11
4580.0
 21
-137.99999999999909
 31
0.0
1001
ACDBBLOCKREPETAG
1070
     1
1071
       60
1005
1266D0
  0
ARC
  5
1266D1
  8
OBJECT
 10
4583.0
 20
-140.99999999999909
 30
0.0
 40
3.0
 50
0.0
 51
90.0
1001
ACDBBLOCKREPETAG
1070
     1
1071
       61
1005
1266D1
  0
LINE
  5
1266D2
  8
OBJECT
 10
4580.0
 20
-261.99999999999909
 30
0.0
 11
4583.0
 21
-261.99999999999909
 31
0.0
1001
ACDBBLOCKREPETAG
1070
     1
1071
       62
1005
1266D2
  0
ARC
  5
1266D3
  8
OBJECT
 10
4583.0
 20
-258.99999999999909
 30
0.0
 40
3.0
 50
270.0
 51
0.0
1001
ACDBBLOCKREPETAG
1070
     1
1071
       63
1005
1266D3
  0
LINE
  5
1266D4
  8
OBJECT
 10
4586.0
 20
-258.99999999999909
 30
0.0
 11
4586.0
 21
-140.99999999999909
 31
0.0
1001
ACDBBLOCKREPETAG
1070
     1
1071
       64
1005
1266D4
  0
LINE
  5
1266D5
  8
HIDDEN
 10
4588.0
 20
-155.49999999999909
 30
0.0
 11
4588.0
 21
-244.49999999999909
 31
0.0
1001
ACDBBLOCKREPETAG
1070
     1
1071
       65
1005
1266D5
  0
LINE
  5
1266D6
  8
SLIM
 10
4424.8586105144159
 20
-160.26624122769411
 30
0.0
 11
4460.2662412276968
 21
-124.858610514414
 31
0.0
1001
GRADIENTCOLOR1ACI
1070
     5
1001
GRADIENTCOLOR2ACI
1070
     2
1001
ACAD
1010
0.0
1020
0.0
1030
0.0
  0
LINE
  5
1266D7
  8
SLIM
 10
4418.6084340676744
 20
-175.4966737955055
 30
0.0
 11
4427.1385399004412
 21
-166.96656796273959
 31
0.0
1001
GRADIENTCOLOR1ACI
1070
     5
1001
GRADIENTCOLOR2ACI
1070
     2
1001
ACAD
1010
0.0
1020
0.0
1030
0.0
  0
LINE
  5
1266D8
  8
SLIM
 10
4466.9665679627406
 20
-127.1385399004393
 30
0.0
 11
4475.4966737955074
 21
-118.6084340676734
 31
0.0
1001
GRADIENTCOLOR1ACI
1070
     5
1001
GRADIENTCOLOR2ACI
1070
     2
1001
ACAD
1010
0.0
1020
0.0
1030
0.0
  0
LINE
  5
1266D9
  8
SLIM
 10
4415.9844434040897
 20
-187.1009205801592
 30
0.0
 11
4422.3555558663202
 21
-180.7298081179288
 31
0.0
1001
GRADIENTCOLOR1ACI
1070
     5
1001
GRADIENTCOLOR2ACI
1070
     2
1001
ACAD
1010
0.0
1020
0.0
1030
0.0
  0
LINE
  5
1266DA
  8
SLIM
 10
4480.7298081179297
 20
-122.35555586631919
 30
0.0
 11
4487.1009205801611
 21
-115.98444340408869
 31
0.0
1001
GRADIENTCOLOR1ACI
1070
     5
1001
GRADIENTCOLOR2ACI
1070
     2
1001
ACAD
1010
0.0
1020
0.0
1030
0.0
  0
LINE
  5
1266DB
  8
SLIM
 10
4415.0524951669204
 20
-197.01312493839851
 30
0.0
 11
4416.0656201053189
 21
-196.0
 31
0.0
1001
GRADIENTCOLOR1ACI
1070
     5
1001
GRADIENTCOLOR2ACI
1070
     2
1001
ACAD
1010
0.0
1020
0.0
1030
0.0
  0
LINE
  5
1266DC
  8
SLIM
 10
4491.6261550504887
 20
-120.43946505483019
 30
0.0
 11
4497.0131249384003
 21
-115.0524951669185
 31
0.0
1001
GRADIENTCOLOR1ACI
1070
     5
1001
GRADIENTCOLOR2ACI
1070
     2
1001
ACAD
1010
0.0
1020
0.0
1030
0.0
  0
LINE
  5
1266DD
  8
SLIM
 10
4416.0656201053189
 20
-196.0
 30
0.0
 11
4420.4394650548311
 21
-191.6261550504878
 31
0.0
1001
GRADIENTCOLOR1ACI
1070
     5
1001
GRADIENTCOLOR2ACI
1070
     2
1001
ACAD
1010
0.0
1020
0.0
1030
0.0
  0
LINE
  5
1266DE
  8
SLIM
 10
4415.2011819161371
 20
-205.844694310249
 30
0.0
 11
4420.0067489441053
 21
-201.0391272822817
 31
0.0
1001
GRADIENTCOLOR1ACI
1070
     5
1001
GRADIENTCOLOR2ACI
1070
     2
1001
ACAD
1010
0.0
1020
0.0
1030
0.0
  0
LINE
  5
1266DF
  8
SLIM
 10
4501.0391272822817
 20
-120.00674894410621
 30
0.0
 11
4505.844694310249
 21
-115.20118191613891
 31
0.0
1001
GRADIENTCOLOR1ACI
1070
     5
1001
GRADIENTCOLOR2ACI
1070
     2
1001
ACAD
1010
0.0
1020
0.0
1030
0.0
  0
LINE
  5
1266E0
  8
SLIM
 10
4416.141658771895
 20
-213.88447357556291
 30
0.0
 11
4420.56180678284
 21
-209.46432556461701
 31
0.0
1001
GRADIENTCOLOR1ACI
1070
     5
1001
GRADIENTCOLOR2ACI
1070
     2
1001
ACAD
1010
0.0
1020
0.0
1030
0.0
  0
LINE
  5
1266E1
  8
SLIM
 10
4509.4643255646179
 20
-120.5618067828391
 30
0.0
 11
4513.8844735755611
 21
-116.14165877189311
 31
0.0
1001
GRADIENTCOLOR1ACI
1070
     5
1001
GRADIENTCOLOR2ACI
1070
     2
1001
ACAD
1010
0.0
1020
0.0
1030
0.0
  0
LINE
  5
1266E2
  8
SLIM
 10
4417.710870111021
 20
-221.2955183575032
 30
0.0
 11
4419.006388468526
 21
-220.0
 31
0.0
1001
GRADIENTCOLOR1ACI
1070
     5
1001
GRADIENTCOLOR2ACI
1070
     2
1001
ACAD
1010
0.0
1020
0.0
1030
0.0
  0
LINE
  5
1266E3
  8
SLIM
 10
4517.1471323385686
 20
-121.85925612995651
 30
0.0
 11
4521.2955183575032
 21
-117.7108701110201
 31
0.0
1001
GRADIENTCOLOR1ACI
1070
     5
1001
GRADIENTCOLOR2ACI
1070
     2
1001
ACAD
1010
0.0
1020
0.0
1030
0.0
  0
LINE
  5
1266E4
  8
SLIM
 10
4419.006388468526
 20
-220.0
 30
0.0
 11
4421.8592561299583
 21
-217.14713233856759
 31
0.0
1001
GRADIENTCOLOR1ACI
1070
     5
1001
GRADIENTCOLOR2ACI
1070
     2
1001
ACAD
1010
0.0
1020
0.0
1030
0.0
  0
LINE
  5
1266E5
  8
SLIM
 10
4419.8070443755887
 20
-228.17960021400481
 30
0.0
 11
4423.7573519673751
 21
-224.22929262221899
 31
0.0
1001
GRADIENTCOLOR1ACI
1070
     5
1001
GRADIENTCOLOR2ACI
1070
     2
1001
ACAD
1010
0.0
1020
0.0
1030
0.0
  0
LINE
  5
1266E6
  8
SLIM
 10
4524.229292622219
 20
-123.7573519673733
 30
0.0
 11
4528.1796002140081
 21
-119.80704437558779
 31
0.0
1001
GRADIENTCOLOR1ACI
1070
     5
1001
GRADIENTCOLOR2ACI
1070
     2
1001
ACAD
1010
0.0
1020
0.0
1030
0.0
  0
LINE
  5
1266E7
  8
SLIM
 10
4422.3627047135597
 20
-234.6041959971044
 30
0.0
 11
4424.9669007106631
 21
-232.00000000000091
 31
0.0
1001
GRADIENTCOLOR1ACI
1070
     5
1001
GRADIENTCOLOR2ACI
1070
     2
1001
ACAD
1010
0.0
1020
0.0
1030
0.0
  0
LINE
  5
1266E8
  8
SLIM
 10
4530.8001598408164
 20
-126.16674086984671
 30
0.0
 11
4534.6041959971053
 21
-122.3627047135587
 31
0.0
1001
GRADIENTCOLOR1ACI
1070
     5
1001
GRADIENTCOLOR2ACI
1070
     2
1001
ACAD
1010
0.0
1020
0.0
1030
0.0
  0
LINE
  5
1266E9
  8
SLIM
 10
4424.9669007106631
 20
-232.00000000000091
 30
0.0
 11
4426.1667408698477
 21
-230.80015984081541
 31
0.0
1001
GRADIENTCOLOR1ACI
1070
     5
1001
GRADIENTCOLOR2ACI
1070
     2
1001
ACAD
1010
0.0
1020
0.0
1030
0.0
  0
LINE
  5
1266EA
  8
SLIM
 10
4425.3315714414439
 20
-240.61558539028869
 30
0.0
 11
4429.02822673438
 21
-236.91893009735301
 31
0.0
1001
GRADIENTCOLOR1ACI
1070
     5
1001
GRADIENTCOLOR2ACI
1070
     2
1001
ACAD
1010
0.0
1020
0.0
1030
0.0
  0
LINE
  5
1266EB
  8
SLIM
 10
4536.9189300973521
 20
-129.02822673437819
 30
0.0
 11
4540.6155853902883
 21
-125.3315714414439
 31
0.0
1001
GRADIENTCOLOR1ACI
1070
     5
1001
GRADIENTCOLOR2ACI
1070
     2
1001
ACAD
1010
0.0
1020
0.0
1030
0.0
  0
LINE
  5
1266EC
  8
SLIM
 10
4428.6815548937129
 20
-246.2458580590887
 30
0.0
 11
4432.3017508847952
 21
-242.6256620680046
 31
0.0
1001
GRADIENTCOLOR1ACI
1070
     5
1001
GRADIENTCOLOR2ACI
1070
     2
1001
ACAD
1010
0.0
1020
0.0
1030
0.0
  0
LINE
  5
1266ED
  8
SLIM
 10
4542.625662068006
 20
-132.30175088479609
 30
0.0
 11
4546.2458580590901
 21
-128.68155489371199
 31
0.0
1001
GRADIENTCOLOR1ACI
1070
     5
1001
GRADIENTCOLOR2ACI
1070
     2
1001
ACAD
1010
0.0
1020
0.0
1030
0.0
  0
LINE
  5
1266EE
  8
SLIM
 10
4432.3907652629223
 20
-251.51690381094889
 30
0.0
 11
4435.960449022743
 21
-247.94722005112769
 31
0.0
1001
GRADIENTCOLOR1ACI
1070
     5
1001
GRADIENTCOLOR2ACI
1070
     2
1001
ACAD
1010
0.0
1020
0.0
1030
0.0
  0
LINE
  5
1266EF
  8
SLIM
 10
4547.9472200511291
 20
-135.96044902274201
 30
0.0
 11
4551.5169038109489
 21
-132.39076526292041
 31
0.0
1001
GRADIENTCOLOR1ACI
1070
     5
1001
GRADIENTCOLOR2ACI
1070
     2
1001
ACAD
1010
0.0
1020
0.0
1030
0.0
  0
LINE
  5
1266F0
  8
SLIM
 10
4436.4451742931069
 20
-256.44275090183282
 30
0.0
 11
4439.987301360803
 21
-252.9006238341367
 31
0.0
1001
GRADIENTCOLOR1ACI
1070
     5
1001
GRADIENTCOLOR2ACI
1070
     2
1001
ACAD
1010
0.0
1020
0.0
1030
0.0
  0
LINE
  5
1266F1
  8
SLIM
 10
4554.8879251949411
 20
-137.99999999999909
 30
0.0
 11
4556.4427509018342
 21
-136.44517429310599
 31
0.0
1001
GRADIENTCOLOR1ACI
1070
     5
1001
GRADIENTCOLOR2ACI
1070
     2
1001
ACAD
1010
0.0
1020
0.0
1030
0.0
  0
LINE
  5
1266F2
  8
SLIM
 10
4440.8372731495638
 20
-261.03090816644323
 30
0.0
 11
4444.3732607963184
 21
-257.49492051969042
 31
0.0
1001
GRADIENTCOLOR1ACI
1070
     5
1001
GRADIENTCOLOR2ACI
1070
     2
1001
ACAD
1010
0.0
1020
0.0
1030
0.0
  0
LINE
  5
1266F3
  8
SLIM
 10
4445.5654027321416
 20
-265.2830347049366
 30
0.0
 11
4449.1163342680156
 21
-261.73210316906119
 31
0.0
1001
GRADIENTCOLOR1ACI
1070
     5
1001
GRADIENTCOLOR2ACI
1070
     2
1001
ACAD
1010
0.0
1020
0.0
1030
0.0
  0
LINE
  5
1266F4
  8
SLIM
 10
4549.5421817599126
 20
-269.06932912999491
 30
0.0
 11
4556.6115108899112
 21
-261.99999999999909
 31
0.0
1001
GRADIENTCOLOR1ACI
1070
     5
1001
GRADIENTCOLOR2ACI
1070
     2
1001
ACAD
1010
0.0
1020
0.0
1030
0.0
  0
LINE
  5
1266F5
  8
OBJECT
 10
289.0
 20
-949.00000000000068
 30
0.0
 11
296.0
 21
-949.00000000000068
 31
0.0
1001
ACDBBLOCKREPETAG
1070
     1
1071
        0
1005
1266F5
  0
LINE
  5
1266F6
  8
OBJECT
 10
296.0
 20
-949.00000000000068
 30
0.0
 11
296.0
 21
-1043.0000000000009
 31
0.0
1001
ACDBBLOCKREPETAG
1070
     1
1071
        1
1005
1266F6
  0
LINE
  5
1266F7
  8
OBJECT
 10
296.0
 20
-1043.0000000000009
 30
0.0
 11
289.0
 21
-1043.0000000000009
 31
0.0
1001
ACDBBLOCKREPETAG
1070
     1
1071
        2
1005
1266F7
  0
LINE
  5
1266F8
  8
OBJECT
 10
289.0
 20
-1043.0000000000009
 30
0.0
 11
289.0
 21
-949.00000000000068
 31
0.0
1001
ACDBBLOCKREPETAG
1070
     1
1071
        3
1005
1266F8
  0
LINE
  5
1266F9
  8
OBJECT
 10
289.0
 20
-952.0000000000008
 30
0.0
 11
253.0
 21
-952.0000000000008
 31
0.0
1001
ACDBBLOCKREPETAG
1070
     1
1071
        4
1005
1266F9
  0
LINE
  5
1266FA
  8
OBJECT
 10
253.0
 20
-952.0000000000008
 30
0.0
 11
253.0
 21
-1040.0
 31
0.0
1001
ACDBBLOCKREPETAG
1070
     1
1071
        5
1005
1266FA
  0
LINE
  5
1266FB
  8
OBJECT
 10
253.0
 20
-1040.0
 30
0.0
 11
289.0
 21
-1040.0
 31
0.0
1001
ACDBBLOCKREPETAG
1070
     1
1071
        6
1005
1266FB
  0
LINE
  5
1266FC
  8
OBJECT
 10
249.0
 20
-956.50000000000102
 30
0.0
 11
240.50000000000051
 21
-956.50000000000102
 31
0.0
1001
ACDBBLOCKREPETAG
1070
     1
1071
        7
1005
1266FC
  0
LINE
  5
1266FD
  8
OBJECT
 10
240.4999999999994
 20
-1035.5
 30
0.0
 11
249.0
 21
-1035.5
 31
0.0
1001
ACDBBLOCKREPETAG
1070
     1
1071
        8
1005
1266FD
  0
LINE
  5
1266FE
  8
OBJECT
 10
249.0
 20
-1035.5
 30
0.0
 11
249.0
 21
-956.50000000000102
 31
0.0
1001
ACDBBLOCKREPETAG
1070
     1
1071
        9
1005
1266FE
  0
LINE
  5
1266FF
  8
OBJECT
 10
253.0
 20
-952.0000000000008
 30
0.0
 11
249.0
 21
-956.50000000000102
 31
0.0
1001
ACDBBLOCKREPETAG
1070
     1
1071
       10
1005
1266FF
  0
LINE
  5
126700
  8
OBJECT
 10
253.0
 20
-1040.0
 30
0.0
 11
249.0
 21
-1035.5
 31
0.0
1001
ACDBBLOCKREPETAG
1070
     1
1071
       11
1005
126700
  0
LINE
  5
126701
  8
OBJECT
 10
240.49999999999909
 20
-1042.5000000000009
 30
0.0
 11
240.50000000000051
 21
-949.5000000000008
 31
0.0
1001
ACDBBLOCKREPETAG
1070
     1
1071
       12
1005
126701
  0
ARC
  5
126702
  8
OBJECT
 10
237.5000000000004
 20
-949.5000000000008
 30
0.0
 40
3.0
 50
0.0
 51
90.0
1001
ACDBBLOCKREPETAG
1070
     1
1071
       13
1005
126702
  0
LINE
  5
126703
  8
OBJECT
 10
237.5000000000004
 20
-946.5000000000008
 30
0.0
 11
212.34491991297841
 21
-946.49999999999989
 31
0.0
1001
ACDBBLOCKREPETAG
1070
     1
1071
       15
1005
126703
  0
LINE
  5
126704
  8
OBJECT
 10
237.49999999999909
 20
-1045.5
 30
0.0
 11
212.34491991297929
 21
-1045.5
 31
0.0
1001
ACDBBLOCKREPETAG
1070
     1
1071
       16
1005
126704
  0
ARC
  5
126705
  8
OBJECT
 10
237.49999999999909
 20
-1042.5000000000009
 30
0.0
 40
3.0
 50
270.0
 51
0.0
1001
ACDBBLOCKREPETAG
1070
     1
1071
       17
1005
126705
  0
INSERT
  5
126706
  8
SLIM
  2
*U3
 10
0.0
 20
0.0
 30
0.0
  0
LINE
  5
126707
  8
HIDDEN
 10
244.0
 20
-966.00000000000091
 30
0.0
 11
244.0
 21
-1026.0
 31
0.0
1001
ACDBBLOCKREPETAG
1070
     1
1071
       56
1005
126707
  0
POLYLINE
  5
126708
  8
HIDDEN
 66
     1
 10
0.0
 20
0.0
 30
0.0
 70
     1
1001
ACDBBLOCKREPETAG
1070
     1
1071
      105
1005
0
  0
VERTEX
  5
126B0A
  8
HIDDEN
 10
359.99999999987779
 20
-799.9999999999992
 30
0.0
  0
VERTEX
  5
126B0B
  8
HIDDEN
 10
719.99999999975603
 20
-799.9999999999992
 30
0.0
  0
VERTEX
  5
126B0C
  8
HIDDEN
 10
719.99999999975603
 20
-1263.9999999998411
 30
0.0
  0
VERTEX
  5
126B0D
  8
HIDDEN
 10
359.99999999987779
 20
-1263.9999999998411
 30
0.0
  0
SEQEND
  5
126B0E
  8
HIDDEN
  0
POLYLINE
  5
126709
  8
HIDDEN
 66
     1
 10
0.0
 20
0.0
 30
0.0
 70
     1
1001
ACDBBLOCKREPETAG
1070
     1
1071
      110
1005
0
  0
VERTEX
  5
126B0F
  8
HIDDEN
 10
-0.0000000000002274
 20
-799.9999999999992
 30
0.0
  0
VERTEX
  5
126B10
  8
HIDDEN
 10
359.99999999987779
 20
-799.9999999999992
 30
0.0
  0
VERTEX
  5
126B11
  8
HIDDEN
 10
359.99999999987779
 20
-1263.9999999998411
 30
0.0
  0
VERTEX
  5
126B12
  8
HIDDEN
 10
-0.0000000000002274
 20
-1263.9999999998411
 30
0.0
  0
SEQEND
  5
126B13
  8
HIDDEN
  0
POLYLINE
  5
12670A
  8
HIDDEN
 66
     1
 10
0.0
 20
0.0
 30
0.0
 70
     1
1001
ACDBBLOCKREPETAG
1070
     1
1071
      125
1005
0
  0
VERTEX
  5
126B14
  8
HIDDEN
 10
-0.0000000000002274
 20
-1263.9999999998411
 30
0.0
  0
VERTEX
  5
126B15
  8
HIDDEN
 10
359.99999999987779
 20
-1263.9999999998411
 30
0.0
  0
VERTEX
  5
126B16
  8
HIDDEN
 10
359.99999999987779
 20
-1727.999999999681
 30
0.0
  0
VERTEX
  5
126B17
  8
HIDDEN
 10
-0.0000000000002274
 20
-1727.999999999681
 30
0.0
  0
SEQEND
  5
126B18
  8
HIDDEN
  0
POLYLINE
  5
12670B
  8
HIDDEN
 66
     1
 10
0.0
 20
0.0
 30
0.0
 70
     1
1001
ACDBBLOCKREPETAG
1070
     1
1071
      110
1005
0
  0
VERTEX
  5
126B19
  8
HIDDEN
 10
-0.0000000000002274
 20
0.0
 30
0.0
  0
VERTEX
  5
126B1A
  8
HIDDEN
 10
359.99999999987779
 20
0.0
 30
0.0
  0
VERTEX
  5
126B1B
  8
HIDDEN
 10
359.99999999987779
 20
-463.99999999984158
 30
0.0
  0
VERTEX
  5
126B1C
  8
HIDDEN
 10
-0.0000000000002274
 20
-463.99999999984158
 30
0.0
  0
SEQEND
  5
126B1D
  8
HIDDEN
  0
LINE
  5
12670C
  8
OBJECT
 10
289.0
 20
-1397.999999999842
 30
0.0
 11
296.0
 21
-1397.999999999842
 31
0.0
1001
ACDBBLOCKREPETAG
1070
     1
1071
       34
1005
12670C
  0
LINE
  5
12670D
  8
OBJECT
 10
296.0
 20
-1397.999999999842
 30
0.0
 11
296.0
 21
-1521.9999999998431
 31
0.0
1001
ACDBBLOCKREPETAG
1070
     1
1071
       35
1005
12670D
  0
LINE
  5
12670E
  8
OBJECT
 10
296.0
 20
-1521.9999999998431
 30
0.0
 11
289.0
 21
-1521.9999999998431
 31
0.0
1001
ACDBBLOCKREPETAG
1070
     1
1071
       36
1005
12670E
  0
LINE
  5
12670F
  8
OBJECT
 10
289.0
 20
-1521.9999999998431
 30
0.0
 11
289.0
 21
-1397.999999999842
 31
0.0
1001
ACDBBLOCKREPETAG
1070
     1
1071
       37
1005
12670F
  0
LINE
  5
126710
  8
OBJECT
 10
289.0
 20
-1400.9999999998431
 30
0.0
 11
253.0
 21
-1400.9999999998431
 31
0.0
1001
ACDBBLOCKREPETAG
1070
     1
1071
       38
1005
126710
  0
LINE
  5
126711
  8
OBJECT
 10
253.0
 20
-1400.9999999998431
 30
0.0
 11
253.0
 21
-1518.9999999998431
 31
0.0
1001
ACDBBLOCKREPETAG
1070
     1
1071
       39
1005
126711
  0
LINE
  5
126712
  8
OBJECT
 10
253.0
 20
-1518.9999999998431
 30
0.0
 11
289.0
 21
-1518.9999999998431
 31
0.0
1001
ACDBBLOCKREPETAG
1070
     1
1071
       40
1005
126712
  0
LINE
  5
126713
  8
OBJECT
 10
249.0
 20
-1405.499999999842
 30
0.0
 11
238.5
 21
-1405.499999999842
 31
0.0
1001
ACDBBLOCKREPETAG
1070
     1
1071
       41
1005
126713
  0
LINE
  5
126714
  8
OBJECT
 10
238.5
 20
-1514.499999999842
 30
0.0
 11
249.0
 21
-1514.499999999842
 31
0.0
1001
ACDBBLOCKREPETAG
1070
     1
1071
       42
1005
126714
  0
LINE
  5
126715
  8
OBJECT
 10
249.0
 20
-1514.499999999842
 30
0.0
 11
249.0
 21
-1405.499999999842
 31
0.0
1001
ACDBBLOCKREPETAG
1070
     1
1071
       43
1005
126715
  0
LINE
  5
126716
  8
OBJECT
 10
253.0
 20
-1400.9999999998431
 30
0.0
 11
249.0
 21
-1405.499999999842
 31
0.0
1001
ACDBBLOCKREPETAG
1070
     1
1071
       44
1005
126716
  0
LINE
  5
126717
  8
OBJECT
 10
253.0
 20
-1518.9999999998431
 30
0.0
 11
249.0
 21
-1514.499999999842
 31
0.0
1001
ACDBBLOCKREPETAG
1070
     1
1071
       45
1005
126717
  0
LINE
  5
126718
  8
OBJECT
 10
233.5
 20
-1410.499999999842
 30
0.0
 11
212.34491991297861
 21
-1410.4999999998431
 31
0.0
1001
ACDBBLOCKREPETAG
1070
     1
1071
       46
1005
126718
  0
LINE
  5
126719
  8
OBJECT
 10
233.5
 20
-1509.4999999998431
 30
0.0
 11
212.3449199129777
 21
-1509.4999999998431
 31
0.0
1001
ACDBBLOCKREPETAG
1070
     1
1071
       47
1005
126719
  0
LINE
  5
12671A
  8
OBJECT
 10
238.5
 20
-1405.499999999842
 30
0.0
 11
238.5
 21
-1514.499999999842
 31
0.0
1001
ACDBBLOCKREPETAG
1070
     1
1071
       48
1005
12671A
  0
LINE
  5
12671B
  8
OBJECT
 10
233.5
 20
-1410.499999999842
 30
0.0
 11
233.5
 21
-1509.4999999998431
 31
0.0
1001
ACDBBLOCKREPETAG
1070
     1
1071
       49
1005
12671B
  0
LINE
  5
12671C
  8
OBJECT
 10
238.5
 20
-1405.499999999842
 30
0.0
 11
233.5
 21
-1410.499999999842
 31
0.0
1001
ACDBBLOCKREPETAG
1070
     1
1071
       50
1005
12671C
  0
LINE
  5
12671D
  8
OBJECT
 10
233.5
 20
-1509.4999999998431
 30
0.0
 11
238.5
 21
-1514.499999999839
 31
0.0
1001
ACDBBLOCKREPETAG
1070
     1
1071
       51
1005
12671D
  0
INSERT
  5
12671E
  8
SLIM
  2
*U4
 10
0.0
 20
0.0
 30
0.0
  0
LINE
  5
12671F
  8
HIDDEN
 10
244.0
 20
-1415.499999999842
 30
0.0
 11
244.0
 21
-1504.499999999842
 31
0.0
1001
ACDBBLOCKREPETAG
1070
     1
1071
       65
1005
12671F
  0
CIRCLE
  5
126720
  8
OBJECT
 10
156.0
 20
-1459.999999999842
 30
0.0
 40
70.0
1001
ACDBBLOCKREPETAG
1070
     1
1071
       50
1005
126720
  0
CIRCLE
  5
126721
  8
OBJECT
 10
156.0
 20
-1459.999999999842
 30
0.0
 40
75.0
1001
ACDBBLOCKREPETAG
1070
     1
1071
       51
1005
126721
  0
POINT
  5
126722
  8
DOTS
 10
156.0
 20
-1459.999999999842
 30
0.0
1001
ACDBBLOCKREPETAG
1070
     1
1071
       63
1005
126722
  0
CIRCLE
  5
126723
  8
OBJECT
 10
156.0
 20
-1459.999999999842
 30
0.0
 40
55.0
1001
ACDBBLOCKREPETAG
1070
     1
1071
       50
1005
126720
  0
LINE
  5
126724
  8
OBJECT
 10
648.99999999987813
 20
-941.00000000000091
 30
0.0
 11
655.99999999987813
 21
-941.00000000000091
 31
0.0
1001
ACDBBLOCKREPETAG
1070
     1
1071
       18
1005
126724
  0
LINE
  5
126725
  8
OBJECT
 10
655.99999999987813
 20
-941.00000000000091
 30
0.0
 11
655.99999999987813
 21
-1051.0000000000009
 31
0.0
1001
ACDBBLOCKREPETAG
1070
     1
1071
       19
1005
126725
  0
LINE
  5
126726
  8
OBJECT
 10
655.99999999987813
 20
-1051.0000000000009
 30
0.0
 11
648.99999999987813
 21
-1051.0000000000009
 31
0.0
1001
ACDBBLOCKREPETAG
1070
     1
1071
       20
1005
126726
  0
LINE
  5
126727
  8
OBJECT
 10
648.99999999987813
 20
-1051.0000000000009
 30
0.0
 11
648.99999999987813
 21
-941.00000000000091
 31
0.0
1001
ACDBBLOCKREPETAG
1070
     1
1071
       21
1005
126727
  0
LINE
  5
126728
  8
OBJECT
 10
648.99999999987813
 20
-944.00000000000102
 30
0.0
 11
612.99999999987813
 21
-944.00000000000102
 31
0.0
1001
ACDBBLOCKREPETAG
1070
     1
1071
       22
1005
126728
  0
LINE
  5
126729
  8
OBJECT
 10
612.99999999987813
 20
-944.00000000000102
 30
0.0
 11
612.99999999987813
 21
-1048.0
 31
0.0
1001
ACDBBLOCKREPETAG
1070
     1
1071
       23
1005
126729
  0
LINE
  5
12672A
  8
OBJECT
 10
612.99999999987813
 20
-1048.0
 30
0.0
 11
648.99999999987813
 21
-1048.0
 31
0.0
1001
ACDBBLOCKREPETAG
1070
     1
1071
       24
1005
12672A
  0
LINE
  5
12672B
  8
OBJECT
 10
608.99999999987813
 20
-948.50000000000102
 30
0.0
 11
600.49999999987836
 21
-948.50000000000102
 31
0.0
1001
ACDBBLOCKREPETAG
1070
     1
1071
       25
1005
12672B
  0
LINE
  5
12672C
  8
OBJECT
 10
600.49999999987756
 20
-1043.5
 30
0.0
 11
608.99999999987813
 21
-1043.5
 31
0.0
1001
ACDBBLOCKREPETAG
1070
     1
1071
       26
1005
12672C
  0
LINE
  5
12672D
  8
OBJECT
 10
608.99999999987813
 20
-1043.5
 30
0.0
 11
608.99999999987813
 21
-948.50000000000102
 31
0.0
1001
ACDBBLOCKREPETAG
1070
     1
1071
       27
1005
12672D
  0
LINE
  5
12672E
  8
OBJECT
 10
612.99999999987813
 20
-944.00000000000102
 30
0.0
 11
608.99999999987813
 21
-948.50000000000102
 31
0.0
1001
ACDBBLOCKREPETAG
1070
     1
1071
       28
1005
12672E
  0
LINE
  5
12672F
  8
OBJECT
 10
612.99999999987813
 20
-1048.0
 30
0.0
 11
608.99999999987813
 21
-1043.5
 31
0.0
1001
ACDBBLOCKREPETAG
1070
     1
1071
       29
1005
12672F
  0
LINE
  5
126730
  8
OBJECT
 10
600.49999999987665
 20
-1045.5
 30
0.0
 11
600.49999999987836
 21
-946.5000000000008
 31
0.0
1001
ACDBBLOCKREPETAG
1070
     1
1071
       30
1005
126730
  0
LINE
  5
126731
  8
OBJECT
 10
600.49999999987836
 20
-946.5000000000008
 30
0.0
 11
572.34491991285745
 21
-946.50000000000171
 31
0.0
1001
ACDBBLOCKREPETAG
1070
     1
1071
       31
1005
126731
  0
LINE
  5
126732
  8
OBJECT
 10
600.49999999987665
 20
-1045.5
 30
0.0
 11
572.34491991285654
 21
-1045.500000000002
 31
0.0
1001
ACDBBLOCKREPETAG
1070
     1
1071
       32
1005
126732
  0
INSERT
  5
126733
  8
SLIM
  2
*U5
 10
0.0
 20
0.0
 30
0.0
  0
LINE
  5
126734
  8
HIDDEN
 10
603.99999999987813
 20
-958.0000000000008
 30
0.0
 11
603.99999999987813
 21
-1034.0
 31
0.0
1001
ACDBBLOCKREPETAG
1070
     1
1071
       57
1005
126734
  0
CIRCLE
  5
126735
  8
OBJECT
 10
515.99999999987813
 20
-996.00000000000068
 30
0.0
 40
70.0
1001
ACDBBLOCKREPETAG
1070
     1
1071
       50
1005
126735
  0
CIRCLE
  5
126736
  8
OBJECT
 10
515.99999999987813
 20
-996.00000000000068
 30
0.0
 40
75.0
1001
ACDBBLOCKREPETAG
1070
     1
1071
       51
1005
126736
  0
POINT
  5
126737
  8
DOTS
 10
515.99999999987813
 20
-996.00000000000068
 30
0.0
1001
ACDBBLOCKREPETAG
1070
     1
1071
       63
1005
126737
  0
CIRCLE
  5
126738
  8
OBJECT
 10
515.99999999987813
 20
-996.00000000000068
 30
0.0
 40
55.0
1001
ACDBBLOCKREPETAG
1070
     1
1071
       50
1005
126735
  0
CIRCLE
  5
126739
  8
OBJECT
 10
156.0
 20
-996.00000000000068
 30
0.0
 40
70.0
1001
ACDBBLOCKREPETAG
1070
     1
1071
       50
1005
126739
  0
CIRCLE
  5
12673A
  8
OBJECT
 10
156.0
 20
-996.00000000000068
 30
0.0
 40
75.0
1001
ACDBBLOCKREPETAG
1070
     1
1071
       51
1005
12673A
  0
POINT
  5
12673B
  8
DOTS
 10
156.0
 20
-996.00000000000068
 30
0.0
1001
ACDBBLOCKREPETAG
1070
     1
1071
       63
1005
12673B
  0
CIRCLE
  5
12673C
  8
OBJECT
 10
156.0
 20
-996.00000000000068
 30
0.0
 40
55.0
1001
ACDBBLOCKREPETAG
1070
     1
1071
       50
1005
126739
  0
TEXT
  5
12673D
  8
SLIM
 10
97.714285714225255
 20
-1707.9999999996919
 30
0.0
 40
48.0
  1
A0300
 41
0.75
1001
ACDBBLOCKREPETAG
1070
     1
1071
      119
1005
0
  0
TEXT
  5
12673E
  8
SLIM
 10
457.71428571410331
 20
-1243.9999999998511
 30
0.0
 40
48.0
  1
A0200
 41
0.75
1001
ACDBBLOCKREPETAG
1070
     1
1071
      119
1005
0
  0
TEXT
  5
12673F
  8
SLIM
 10
101.1428571427967
 20
-1243.9999999998511
 30
0.0
 40
48.0
  1
A0100
 41
0.75
1001
ACDBBLOCKREPETAG
1070
     1
1071
      119
1005
0
  0
TEXT
  5
126740
  8
SLIM
 10
5470.0571428571429
 20
-1352.9999999999959
 30
0.0
 40
24.0
  1
190～240
 41
0.75
  0
TEXT
  5
126741
  8
SLIM
 10
5470.0571428571429
 20
-1304.9999999999959
 30
0.0
 40
24.0
  1
190～250
 41
0.75
  0
TEXT
  5
126742
  8
SLIM
 10
5470.0571428571429
 20
-1256.9999999999959
 30
0.0
 40
24.0
  1
190～260
 41
0.75
  0
TEXT
  5
126743
  8
SLIM
 10
5470.0571428571429
 20
-1208.9999999999959
 30
0.0
 40
24.0
  1
190～270
 41
0.75
  0
TEXT
  5
126744
  8
SLIM
 10
5470.0571428571429
 20
-1160.9999999999959
 30
0.0
 40
24.0
  1
190～280
 41
0.75
  0
TEXT
  5
126745
  8
SLIM
 10
5470.0571428571429
 20
-1112.9999999999959
 30
0.0
 40
24.0
  1
190～290
 41
0.75
  0
TEXT
  5
126746
  8
SLIM
 10
5470.0571428571429
 20
-1064.9999999999959
 30
0.0
 40
24.0
  1
190～300
 41
0.75
  0
TEXT
  5
126747
  8
SLIM
 10
5448.4571428571444
 20
-1410.9999999999959
 30
0.0
 40
24.0
  1
標準：m=240
 41
0.75
  0
TEXT
  5
126748
  8
SLIM
 10
5378.8571428571431
 20
-1352.9999999999959
 30
0.0
 40
24.0
  1
320
 41
0.75
  0
TEXT
  5
126749
  8
SLIM
 10
5380.5714285714284
 20
-1304.9999999999959
 30
0.0
 40
24.0
  1
310
 41
0.75
  0
TEXT
  5
12674A
  8
SLIM
 10
5378.8571428571431
 20
-1256.9999999999959
 30
0.0
 40
24.0
  1
300
 41
0.75
  0
TEXT
  5
12674B
  8
SLIM
 10
5378.8571428571431
 20
-1208.9999999999959
 30
0.0
 40
24.0
  1
290
 41
0.75
  0
TEXT
  5
12674C
  8
SLIM
 10
5378.8571428571431
 20
-1160.9999999999959
 30
0.0
 40
24.0
  1
280
 41
0.75
  0
TEXT
  5
12674D
  8
SLIM
 10
5378.8571428571431
 20
-1112.9999999999959
 30
0.0
 40
24.0
  1
270
 41
0.75
  0
TEXT
  5
12674E
  8
SLIM
 10
5378.8571428571431
 20
-1064.9999999999959
 30
0.0
 40
24.0
  1
260
 41
0.75
  0
TEXT
  5
12674F
  8
SLIM
 10
5378.8571428571431
 20
-1016.999999999996
 30
0.0
 40
24.0
  1
250
 41
0.75
  0
TEXT
  5
126750
  8
SLIM
 10
5471.7714285714292
 20
-1016.999999999996
 30
0.0
 40
24.0
  1
190～310
 41
0.75
  0
TEXT
  5
126751
  8
SLIM
 10
5378.8571428571431
 20
-968.99999999999625
 30
0.0
 40
24.0
  1
240
 41
0.75
  0
TEXT
  5
126752
  8
SLIM
 10
5470.0571428571429
 20
-968.99999999999625
 30
0.0
 40
24.0
  1
190～320
 41
0.75
  0
TEXT
  5
126753
  8
SLIM
 10
5378.8571428571431
 20
-920.99999999999613
 30
0.0
 40
24.0
  1
230
 41
0.75
  0
TEXT
  5
126754
  8
SLIM
 10
5468.3428571428567
 20
-920.99999999999613
 30
0.0
 40
24.0
  1
200～330
 41
0.75
  0
TEXT
  5
126755
  8
SLIM
 10
5378.8571428571431
 20
-872.99999999999613
 30
0.0
 40
24.0
  1
220
 41
0.75
  0
TEXT
  5
126756
  8
SLIM
 10
5470.0571428571429
 20
-872.99999999999613
 30
0.0
 40
24.0
  1
210～340
 41
0.75
  0
TEXT
  5
126757
  8
SLIM
 10
5380.5714285714284
 20
-824.99999999999636
 30
0.0
 40
24.0
  1
210
 41
0.75
  0
TEXT
  5
126758
  8
SLIM
 10
5468.3428571428567
 20
-824.99999999999636
 30
0.0
 40
24.0
  1
220～350
 41
0.75
  0
TEXT
  5
126759
  8
SLIM
 10
5378.8571428571431
 20
-776.99999999999636
 30
0.0
 40
24.0
  1
200
 41
0.75
  0
TEXT
  5
12675A
  8
SLIM
 10
5468.3428571428567
 20
-776.99999999999636
 30
0.0
 40
24.0
  1
230～360
 41
0.75
  0
TEXT
  5
12675B
  8
SLIM
 10
5373.8000000000002
 20
-680.99999999999591
 30
0.0
 40
24.0
  1
P寸法
 41
0.75
  0
TEXT
  5
12675C
  8
SLIM
 10
5380.5714285714284
 20
-728.99999999999591
 30
0.0
 40
24.0
  1
190
 41
0.75
  0
TEXT
  5
12675D
  8
SLIM
 10
5468.3428571428567
 20
-728.99999999999591
 30
0.0
 40
24.0
  1
240～370
 41
0.75
  0
TEXT
  5
12675E
  8
SLIM
 10
5474.3428571428567
 20
-680.99999999999591
 30
0.0
 40
24.0
  1
対応m寸法
 41
0.75
  0
TEXT
  5
12675F
  8
SLIM
 10
4026.5999999999999
 20
-1698.000026666665
 30
0.0
 40
28.0
  1
※ 対応P寸法　　190＜200＞～320（10mm単位。＜＞内は下枝75の場合）
 41
0.75
  0
TEXT
  5
126760
  8
SLIM
 10
4026.5999999999999
 20
-1744.6666933333311
 30
0.0
 40
28.0
  1
※ 対応スラブ厚　180～（m-10）
 41
0.75
  0
TEXT
  5
126761
  8
SLIM
 10
4026.5999999999999
 20
-1791.333359999998
 30
0.0
 40
28.0
  1
※ 足切り可能寸法（最大）　560-P-m（コンパクトＬベンド使用なら+10）
 41
0.75
  0
TEXT
  5
126762
  8
SLIM
 10
4098.8999999999987
 20
-1863.3333066666651
 30
0.0
 40
28.0
  1
国土交通大臣認定・（一財）日本消防設備安全センター性能評定取得品
 41
0.75
  0
TEXT
  5
126763
  8
SLIM
 10
4131.1000000000004
 20
-1909.999973333332
 30
0.0
 40
28.0
  1
注）ご採用にあたり、認定書及び評定書の内容をご確認ください。
 41
0.75
  0
LINE
  5
126764
  8
SLIM
 10
4914.9999999999927
 20
-1032.2369265471759
 30
0.0
 11
4931.2369265471698
 21
-1016.0
 31
0.0
1001
GRADIENTCOLOR1ACI
1070
     5
1001
GRADIENTCOLOR2ACI
1070
     2
1001
ACAD
1010
0.0
1020
0.0
1030
0.0
  0
LINE
  5
126765
  8
SLIM
 10
4914.9999999999955
 20
-1050.197438789314
 30
0.0
 11
4949.1974387893079
 21
-1016.0
 31
0.0
1001
GRADIENTCOLOR1ACI
1070
     5
1001
GRADIENTCOLOR2ACI
1070
     2
1001
ACAD
1010
0.0
1020
0.0
1030
0.0
  0
LINE
  5
126766
  8
SLIM
 10
4914.9999999999955
 20
-1068.15795103145
 30
0.0
 11
4967.1579510314468
 21
-1016.0
 31
0.0
1001
GRADIENTCOLOR1ACI
1070
     5
1001
GRADIENTCOLOR2ACI
1070
     2
1001
ACAD
1010
0.0
1020
0.0
1030
0.0
  0
LINE
  5
126767
  8
SLIM
 10
4915.1454972543143
 20
-1085.9729660192691
 30
0.0
 11
4985.1184632735849
 21
-1016.0
 31
0.0
1001
GRADIENTCOLOR1ACI
1070
     5
1001
GRADIENTCOLOR2ACI
1070
     2
1001
ACAD
1010
0.0
1020
0.0
1030
0.0
  0
LINE
  5
126768
  8
SLIM
 10
4917.104627495245
 20
-1101.9743480204791
 30
0.0
 11
5003.078975515723
 21
-1016.0
 31
0.0
1001
GRADIENTCOLOR1ACI
1070
     5
1001
GRADIENTCOLOR2ACI
1070
     2
1001
ACAD
1010
0.0
1020
0.0
1030
0.0
  0
LINE
  5
126769
  8
SLIM
 10
4919.0637577361713
 20
-1117.9757300216891
 30
0.0
 11
5021.0394877578619
 21
-1016.0
 31
0.0
1001
GRADIENTCOLOR1ACI
1070
     5
1001
GRADIENTCOLOR2ACI
1070
     2
1001
ACAD
1010
0.0
1020
0.0
1030
0.0
  0
LINE
  5
12676A
  8
SLIM
 10
4920.0
 20
-1135.0
 30
0.0
 11
5039.0
 21
-1016.0
 31
0.0
1001
GRADIENTCOLOR1ACI
1070
     5
1001
GRADIENTCOLOR2ACI
1070
     2
1001
ACAD
1010
0.0
1020
0.0
1030
0.0
  0
LINE
  5
12676B
  8
SLIM
 10
4920.0
 20
-1152.9605122421381
 30
0.0
 11
5056.9605122421381
 21
-1016.0
 31
0.0
1001
GRADIENTCOLOR1ACI
1070
     5
1001
GRADIENTCOLOR2ACI
1070
     2
1001
ACAD
1010
0.0
1020
0.0
1030
0.0
  0
LINE
  5
12676C
  8
SLIM
 10
4920.0
 20
-1170.9210244842759
 30
0.0
 11
5074.921024484277
 21
-1016.0
 31
0.0
1001
GRADIENTCOLOR1ACI
1070
     5
1001
GRADIENTCOLOR2ACI
1070
     2
1001
ACAD
1010
0.0
1020
0.0
1030
0.0
  0
LINE
  5
12676D
  8
SLIM
 10
4920.0
 20
-1188.8815367264151
 30
0.0
 11
5085.0000000000073
 21
-1023.8815367264079
 31
0.0
1001
GRADIENTCOLOR1ACI
1070
     5
1001
GRADIENTCOLOR2ACI
1070
     2
1001
ACAD
1010
0.0
1020
0.0
1030
0.0
  0
LINE
  5
12676E
  8
SLIM
 10
4920.0
 20
-1206.842048968552
 30
0.0
 11
5085.0000000000073
 21
-1041.842048968547
 31
0.0
1001
GRADIENTCOLOR1ACI
1070
     5
1001
GRADIENTCOLOR2ACI
1070
     2
1001
ACAD
1010
0.0
1020
0.0
1030
0.0
  0
LINE
  5
12676F
  8
SLIM
 10
4920.0
 20
-1224.802561210691
 30
0.0
 11
5085.0000000000036
 21
-1059.802561210686
 31
0.0
1001
GRADIENTCOLOR1ACI
1070
     5
1001
GRADIENTCOLOR2ACI
1070
     2
1001
ACAD
1010
0.0
1020
0.0
1030
0.0
  0
LINE
  5
126770
  8
SLIM
 10
4920.0
 20
-1242.76307345283
 30
0.0
 11
5085.0000000000036
 21
-1077.7630734528259
 31
0.0
1001
GRADIENTCOLOR1ACI
1070
     5
1001
GRADIENTCOLOR2ACI
1070
     2
1001
ACAD
1010
0.0
1020
0.0
1030
0.0
  0
LINE
  5
126771
  8
SLIM
 10
4924.7235856949701
 20
-1256.0
 30
0.0
 11
5083.4738280308084
 21
-1097.249757664159
 31
0.0
1001
GRADIENTCOLOR1ACI
1070
     5
1001
GRADIENTCOLOR2ACI
1070
     2
1001
ACAD
1010
0.0
1020
0.0
1030
0.0
  0
LINE
  5
126772
  8
SLIM
 10
4930.0
 20
-1268.6840979371059
 30
0.0
 11
4942.6840979371073
 21
-1256.0
 31
0.0
1001
GRADIENTCOLOR1ACI
1070
     5
1001
GRADIENTCOLOR2ACI
1070
     2
1001
ACAD
1010
0.0
1020
0.0
1030
0.0
  0
LINE
  5
126773
  8
SLIM
 10
4942.6840979371073
 20
-1256.0
 30
0.0
 11
5080.9680345671377
 21
-1117.7160633699691
 31
0.0
1001
GRADIENTCOLOR1ACI
1070
     5
1001
GRADIENTCOLOR2ACI
1070
     2
1001
ACAD
1010
0.0
1020
0.0
1030
0.0
  0
LINE
  5
126774
  8
SLIM
 10
4941.6446101792453
 20
-1275.0
 30
0.0
 11
4960.6446101792462
 21
-1256.0
 31
0.0
1001
GRADIENTCOLOR1ACI
1070
     5
1001
GRADIENTCOLOR2ACI
1070
     2
1001
ACAD
1010
0.0
1020
0.0
1030
0.0
  0
LINE
  5
126775
  8
SLIM
 10
4960.6446101792462
 20
-1256.0
 30
0.0
 11
5080.0
 21
-1136.6446101792451
 31
0.0
1001
GRADIENTCOLOR1ACI
1070
     5
1001
GRADIENTCOLOR2ACI
1070
     2
1001
ACAD
1010
0.0
1020
0.0
1030
0.0
  0
LINE
  5
126776
  8
SLIM
 10
4959.6051224213843
 20
-1275.0
 30
0.0
 11
4978.6051224213843
 21
-1256.0
 31
0.0
1001
GRADIENTCOLOR1ACI
1070
     5
1001
GRADIENTCOLOR2ACI
1070
     2
1001
ACAD
1010
0.0
1020
0.0
1030
0.0
  0
LINE
  5
126777
  8
SLIM
 10
4978.6051224213843
 20
-1256.0
 30
0.0
 11
5080.0
 21
-1154.605122421382
 31
0.0
1001
GRADIENTCOLOR1ACI
1070
     5
1001
GRADIENTCOLOR2ACI
1070
     2
1001
ACAD
1010
0.0
1020
0.0
1030
0.0
  0
LINE
  5
126778
  8
SLIM
 10
4977.5656346635215
 20
-1275.0
 30
0.0
 11
4996.5656346635224
 21
-1256.0
 31
0.0
1001
GRADIENTCOLOR1ACI
1070
     5
1001
GRADIENTCOLOR2ACI
1070
     2
1001
ACAD
1010
0.0
1020
0.0
1030
0.0
  0
LINE
  5
126779
  8
SLIM
 10
4996.5656346635224
 20
-1256.0
 30
0.0
 11
5079.9999999999991
 21
-1172.5656346635219
 31
0.0
1001
GRADIENTCOLOR1ACI
1070
     5
1001
GRADIENTCOLOR2ACI
1070
     2
1001
ACAD
1010
0.0
1020
0.0
1030
0.0
  0
LINE
  5
12677A
  8
SLIM
 10
4995.5261469056577
 20
-1275.0
 30
0.0
 11
5014.5261469056613
 21
-1256.0
 31
0.0
1001
GRADIENTCOLOR1ACI
1070
     5
1001
GRADIENTCOLOR2ACI
1070
     2
1001
ACAD
1010
0.0
1020
0.0
1030
0.0
  0
LINE
  5
12677B
  8
SLIM
 10
5014.5261469056613
 20
-1256.0
 30
0.0
 11
5079.9999999999991
 21
-1190.52614690566
 31
0.0
1001
GRADIENTCOLOR1ACI
1070
     5
1001
GRADIENTCOLOR2ACI
1070
     2
1001
ACAD
1010
0.0
1020
0.0
1030
0.0
  0
LINE
  5
12677C
  8
SLIM
 10
5013.4866591477976
 20
-1275.0
 30
0.0
 11
5032.4866591478003
 21
-1256.0
 31
0.0
1001
GRADIENTCOLOR1ACI
1070
     5
1001
GRADIENTCOLOR2ACI
1070
     2
1001
ACAD
1010
0.0
1020
0.0
1030
0.0
  0
LINE
  5
12677D
  8
SLIM
 10
5032.4866591478003
 20
-1256.0
 30
0.0
 11
5079.9999999999991
 21
-1208.4866591477989
 31
0.0
1001
GRADIENTCOLOR1ACI
1070
     5
1001
GRADIENTCOLOR2ACI
1070
     2
1001
ACAD
1010
0.0
1020
0.0
1030
0.0
  0
LINE
  5
12677E
  8
SLIM
 10
5031.4471713899356
 20
-1275.0
 30
0.0
 11
5050.4471713899366
 21
-1256.0
 31
0.0
1001
GRADIENTCOLOR1ACI
1070
     5
1001
GRADIENTCOLOR2ACI
1070
     2
1001
ACAD
1010
0.0
1020
0.0
1030
0.0
  0
LINE
  5
12677F
  8
SLIM
 10
5050.4471713899366
 20
-1256.0
 30
0.0
 11
5079.9999999999982
 21
-1226.4471713899379
 31
0.0
1001
GRADIENTCOLOR1ACI
1070
     5
1001
GRADIENTCOLOR2ACI
1070
     2
1001
ACAD
1010
0.0
1020
0.0
1030
0.0
  0
LINE
  5
126780
  8
SLIM
 10
5049.4076836320737
 20
-1275.0
 30
0.0
 11
5068.4076836320737
 21
-1256.0
 31
0.0
1001
GRADIENTCOLOR1ACI
1070
     5
1001
GRADIENTCOLOR2ACI
1070
     2
1001
ACAD
1010
0.0
1020
0.0
1030
0.0
  0
LINE
  5
126781
  8
SLIM
 10
5068.4076836320737
 20
-1256.0
 30
0.0
 11
5079.9999999999982
 21
-1244.407683632076
 31
0.0
1001
GRADIENTCOLOR1ACI
1070
     5
1001
GRADIENTCOLOR2ACI
1070
     2
1001
ACAD
1010
0.0
1020
0.0
1030
0.0
  0
LINE
  5
126782
  8
SLIM
 10
5067.3681958742118
 20
-1275.0
 30
0.0
 11
5070.0
 21
-1272.3681958742129
 31
0.0
1001
GRADIENTCOLOR1ACI
1070
     5
1001
GRADIENTCOLOR2ACI
1070
     2
1001
ACAD
1010
0.0
1020
0.0
1030
0.0
  0
LINE
  5
126783
  8
OBJECT
 10
4914.9999999999918
 20
-1016.0
 30
0.0
 11
4914.9999999999982
 21
-1084.784603399034
 31
0.0
1001
ACDBBLOCKREPETAG
1070
     1
1071
        1
1005
126783
  0
LINE
  5
126784
  8
OBJECT
 10
5085.0000000000073
 20
-1016.0
 30
0.0
 11
5085.0000000000036
 21
-1084.784603399042
 31
0.0
1001
ACDBBLOCKREPETAG
1070
     1
1071
        2
1005
126784
  0
LINE
  5
126785
  8
OBJECT
 10
5085.0000000000073
 20
-1016.0
 30
0.0
 11
4914.9999999999918
 21
-1016.0
 31
0.0
1001
ACDBBLOCKREPETAG
1070
     1
1071
        3
1005
126785
  0
LINE
  5
126786
  8
OBJECT
 10
5079.9999999999982
 20
-1256.0
 30
0.0
 11
4920.0
 21
-1256.0
 31
0.0
1001
ACDBBLOCKREPETAG
1070
     1
1071
        4
1005
126786
  0
LINE
  5
126787
  8
OBJECT
 10
4914.9999999999982
 20
-1084.784603399034
 30
0.0
 11
4920.0
 21
-1125.622577482987
 31
0.0
1001
ACDBBLOCKREPETAG
1070
     1
1071
        6
1005
126787
  0
LINE
  5
126788
  8
OBJECT
 10
4920.0
 20
-1125.622577482987
 30
0.0
 11
4920.0
 21
-1256.0
 31
0.0
1001
ACDBBLOCKREPETAG
1070
     1
1071
        7
1005
126788
  0
LINE
  5
126789
  8
OBJECT
 10
5085.0000000000036
 20
-1084.784603399042
 30
0.0
 11
5080.0
 21
-1125.622577482987
 31
0.0
1001
ACDBBLOCKREPETAG
1070
     1
1071
        8
1005
126789
  0
LINE
  5
12678A
  8
OBJECT
 10
5080.0
 20
-1125.622577482987
 30
0.0
 11
5079.9999999999982
 21
-1256.0
 31
0.0
1001
ACDBBLOCKREPETAG
1070
     1
1071
        9
1005
12678A
  0
LINE
  5
12678B
  8
OBJECT
 10
4930.0
 20
-1256.0
 30
0.0
 11
4930.0
 21
-1275.0
 31
0.0
1001
ACDBBLOCKREPETAG
1070
     1
1071
       10
1005
12678B
  0
LINE
  5
12678C
  8
OBJECT
 10
4930.0
 20
-1275.0
 30
0.0
 11
5070.0
 21
-1275.0
 31
0.0
1001
ACDBBLOCKREPETAG
1070
     1
1071
       11
1005
12678C
  0
LINE
  5
12678D
  8
OBJECT
 10
5070.0
 20
-1275.0
 30
0.0
 11
5070.0
 21
-1256.0
 31
0.0
1001
ACDBBLOCKREPETAG
1070
     1
1071
       12
1005
12678D
  0
LINE
  5
12678E
  8
SLIM
 10
4414.9999999999927
 20
-1032.2369265471759
 30
0.0
 11
4431.2369265471698
 21
-1016.0
 31
0.0
1001
GRADIENTCOLOR1ACI
1070
     5
1001
GRADIENTCOLOR2ACI
1070
     2
1001
ACAD
1010
0.0
1020
0.0
1030
0.0
  0
LINE
  5
12678F
  8
SLIM
 10
4414.9999999999927
 20
-1050.197438789314
 30
0.0
 11
4449.1974387893069
 21
-1016.0
 31
0.0
1001
GRADIENTCOLOR1ACI
1070
     5
1001
GRADIENTCOLOR2ACI
1070
     2
1001
ACAD
1010
0.0
1020
0.0
1030
0.0
  0
LINE
  5
126790
  8
SLIM
 10
4414.9999999999955
 20
-1068.15795103145
 30
0.0
 11
4467.1579510314441
 21
-1016.0
 31
0.0
1001
GRADIENTCOLOR1ACI
1070
     5
1001
GRADIENTCOLOR2ACI
1070
     2
1001
ACAD
1010
0.0
1020
0.0
1030
0.0
  0
LINE
  5
126791
  8
SLIM
 10
4415.1454972543143
 20
-1085.9729660192691
 30
0.0
 11
4485.1184632735849
 21
-1016.0
 31
0.0
1001
GRADIENTCOLOR1ACI
1070
     5
1001
GRADIENTCOLOR2ACI
1070
     2
1001
ACAD
1010
0.0
1020
0.0
1030
0.0
  0
LINE
  5
126792
  8
SLIM
 10
4417.1046274952441
 20
-1101.9743480204791
 30
0.0
 11
4503.078975515722
 21
-1016.0
 31
0.0
1001
GRADIENTCOLOR1ACI
1070
     5
1001
GRADIENTCOLOR2ACI
1070
     2
1001
ACAD
1010
0.0
1020
0.0
1030
0.0
  0
LINE
  5
126793
  8
SLIM
 10
4419.0637577361713
 20
-1117.9757300216891
 30
0.0
 11
4521.0394877578619
 21
-1016.0
 31
0.0
1001
GRADIENTCOLOR1ACI
1070
     5
1001
GRADIENTCOLOR2ACI
1070
     2
1001
ACAD
1010
0.0
1020
0.0
1030
0.0
  0
LINE
  5
126794
  8
SLIM
 10
4420.0
 20
-1135.0
 30
0.0
 11
4539.0
 21
-1016.0
 31
0.0
1001
GRADIENTCOLOR1ACI
1070
     5
1001
GRADIENTCOLOR2ACI
1070
     2
1001
ACAD
1010
0.0
1020
0.0
1030
0.0
  0
LINE
  5
126795
  8
SLIM
 10
4420.0
 20
-1152.9605122421381
 30
0.0
 11
4556.9605122421372
 21
-1016.0
 31
0.0
1001
GRADIENTCOLOR1ACI
1070
     5
1001
GRADIENTCOLOR2ACI
1070
     2
1001
ACAD
1010
0.0
1020
0.0
1030
0.0
  0
LINE
  5
126796
  8
SLIM
 10
4420.0
 20
-1170.9210244842759
 30
0.0
 11
4574.921024484277
 21
-1016.0
 31
0.0
1001
GRADIENTCOLOR1ACI
1070
     5
1001
GRADIENTCOLOR2ACI
1070
     2
1001
ACAD
1010
0.0
1020
0.0
1030
0.0
  0
LINE
  5
126797
  8
SLIM
 10
4420.0
 20
-1188.8815367264151
 30
0.0
 11
4585.0000000000073
 21
-1023.8815367264079
 31
0.0
1001
GRADIENTCOLOR1ACI
1070
     5
1001
GRADIENTCOLOR2ACI
1070
     2
1001
ACAD
1010
0.0
1020
0.0
1030
0.0
  0
LINE
  5
126798
  8
SLIM
 10
4420.0
 20
-1206.842048968552
 30
0.0
 11
4585.0000000000073
 21
-1041.842048968547
 31
0.0
1001
GRADIENTCOLOR1ACI
1070
     5
1001
GRADIENTCOLOR2ACI
1070
     2
1001
ACAD
1010
0.0
1020
0.0
1030
0.0
  0
LINE
  5
126799
  8
SLIM
 10
4420.0
 20
-1224.802561210691
 30
0.0
 11
4585.0000000000036
 21
-1059.802561210686
 31
0.0
1001
GRADIENTCOLOR1ACI
1070
     5
1001
GRADIENTCOLOR2ACI
1070
     2
1001
ACAD
1010
0.0
1020
0.0
1030
0.0
  0
LINE
  5
12679A
  8
SLIM
 10
4420.0
 20
-1242.76307345283
 30
0.0
 11
4585.0000000000009
 21
-1077.7630734528259
 31
0.0
1001
GRADIENTCOLOR1ACI
1070
     5
1001
GRADIENTCOLOR2ACI
1070
     2
1001
ACAD
1010
0.0
1020
0.0
1030
0.0
  0
LINE
  5
12679B
  8
SLIM
 10
4424.7235856949692
 20
-1256.0
 30
0.0
 11
4583.4738280308084
 21
-1097.249757664159
 31
0.0
1001
GRADIENTCOLOR1ACI
1070
     5
1001
GRADIENTCOLOR2ACI
1070
     2
1001
ACAD
1010
0.0
1020
0.0
1030
0.0
  0
LINE
  5
12679C
  8
SLIM
 10
4430.0
 20
-1268.6840979371059
 30
0.0
 11
4442.6840979371063
 21
-1256.0
 31
0.0
1001
GRADIENTCOLOR1ACI
1070
     5
1001
GRADIENTCOLOR2ACI
1070
     2
1001
ACAD
1010
0.0
1020
0.0
1030
0.0
  0
LINE
  5
12679D
  8
SLIM
 10
4442.6840979371063
 20
-1256.0
 30
0.0
 11
4580.9680345671368
 21
-1117.7160633699691
 31
0.0
1001
GRADIENTCOLOR1ACI
1070
     5
1001
GRADIENTCOLOR2ACI
1070
     2
1001
ACAD
1010
0.0
1020
0.0
1030
0.0
  0
LINE
  5
12679E
  8
SLIM
 10
4441.6446101792453
 20
-1275.0
 30
0.0
 11
4460.6446101792462
 21
-1256.0
 31
0.0
1001
GRADIENTCOLOR1ACI
1070
     5
1001
GRADIENTCOLOR2ACI
1070
     2
1001
ACAD
1010
0.0
1020
0.0
1030
0.0
  0
LINE
  5
12679F
  8
SLIM
 10
4460.6446101792462
 20
-1256.0
 30
0.0
 11
4580.0
 21
-1136.6446101792451
 31
0.0
1001
GRADIENTCOLOR1ACI
1070
     5
1001
GRADIENTCOLOR2ACI
1070
     2
1001
ACAD
1010
0.0
1020
0.0
1030
0.0
  0
LINE
  5
1267A0
  8
SLIM
 10
4459.6051224213843
 20
-1275.0
 30
0.0
 11
4478.6051224213843
 21
-1256.0
 31
0.0
1001
GRADIENTCOLOR1ACI
1070
     5
1001
GRADIENTCOLOR2ACI
1070
     2
1001
ACAD
1010
0.0
1020
0.0
1030
0.0
  0
LINE
  5
1267A1
  8
SLIM
 10
4478.6051224213843
 20
-1256.0
 30
0.0
 11
4580.0
 21
-1154.605122421382
 31
0.0
1001
GRADIENTCOLOR1ACI
1070
     5
1001
GRADIENTCOLOR2ACI
1070
     2
1001
ACAD
1010
0.0
1020
0.0
1030
0.0
  0
LINE
  5
1267A2
  8
SLIM
 10
4477.5656346635215
 20
-1275.0
 30
0.0
 11
4496.5656346635215
 21
-1256.0
 31
0.0
1001
GRADIENTCOLOR1ACI
1070
     5
1001
GRADIENTCOLOR2ACI
1070
     2
1001
ACAD
1010
0.0
1020
0.0
1030
0.0
  0
LINE
  5
1267A3
  8
SLIM
 10
4496.5656346635215
 20
-1256.0
 30
0.0
 11
4579.9999999999991
 21
-1172.5656346635219
 31
0.0
1001
GRADIENTCOLOR1ACI
1070
     5
1001
GRADIENTCOLOR2ACI
1070
     2
1001
ACAD
1010
0.0
1020
0.0
1030
0.0
  0
LINE
  5
1267A4
  8
SLIM
 10
4495.5261469056586
 20
-1275.0
 30
0.0
 11
4514.5261469056613
 21
-1256.0
 31
0.0
1001
GRADIENTCOLOR1ACI
1070
     5
1001
GRADIENTCOLOR2ACI
1070
     2
1001
ACAD
1010
0.0
1020
0.0
1030
0.0
  0
LINE
  5
1267A5
  8
SLIM
 10
4514.5261469056613
 20
-1256.0
 30
0.0
 11
4579.9999999999991
 21
-1190.52614690566
 31
0.0
1001
GRADIENTCOLOR1ACI
1070
     5
1001
GRADIENTCOLOR2ACI
1070
     2
1001
ACAD
1010
0.0
1020
0.0
1030
0.0
  0
LINE
  5
1267A6
  8
SLIM
 10
4513.4866591477976
 20
-1275.0
 30
0.0
 11
4532.4866591478003
 21
-1256.0
 31
0.0
1001
GRADIENTCOLOR1ACI
1070
     5
1001
GRADIENTCOLOR2ACI
1070
     2
1001
ACAD
1010
0.0
1020
0.0
1030
0.0
  0
LINE
  5
1267A7
  8
SLIM
 10
4532.4866591478003
 20
-1256.0
 30
0.0
 11
4579.9999999999991
 21
-1208.4866591477989
 31
0.0
1001
GRADIENTCOLOR1ACI
1070
     5
1001
GRADIENTCOLOR2ACI
1070
     2
1001
ACAD
1010
0.0
1020
0.0
1030
0.0
  0
LINE
  5
1267A8
  8
SLIM
 10
4531.4471713899356
 20
-1275.0
 30
0.0
 11
4550.4471713899356
 21
-1256.0
 31
0.0
1001
GRADIENTCOLOR1ACI
1070
     5
1001
GRADIENTCOLOR2ACI
1070
     2
1001
ACAD
1010
0.0
1020
0.0
1030
0.0
  0
LINE
  5
1267A9
  8
SLIM
 10
4550.4471713899356
 20
-1256.0
 30
0.0
 11
4579.9999999999982
 21
-1226.4471713899379
 31
0.0
1001
GRADIENTCOLOR1ACI
1070
     5
1001
GRADIENTCOLOR2ACI
1070
     2
1001
ACAD
1010
0.0
1020
0.0
1030
0.0
  0
LINE
  5
1267AA
  8
SLIM
 10
4549.4076836320737
 20
-1275.0
 30
0.0
 11
4568.4076836320728
 21
-1256.0
 31
0.0
1001
GRADIENTCOLOR1ACI
1070
     5
1001
GRADIENTCOLOR2ACI
1070
     2
1001
ACAD
1010
0.0
1020
0.0
1030
0.0
  0
LINE
  5
1267AB
  8
SLIM
 10
4568.4076836320728
 20
-1256.0
 30
0.0
 11
4579.9999999999982
 21
-1244.407683632076
 31
0.0
1001
GRADIENTCOLOR1ACI
1070
     5
1001
GRADIENTCOLOR2ACI
1070
     2
1001
ACAD
1010
0.0
1020
0.0
1030
0.0
  0
LINE
  5
1267AC
  8
SLIM
 10
4567.3681958742118
 20
-1275.0
 30
0.0
 11
4570.0
 21
-1272.3681958742129
 31
0.0
1001
GRADIENTCOLOR1ACI
1070
     5
1001
GRADIENTCOLOR2ACI
1070
     2
1001
ACAD
1010
0.0
1020
0.0
1030
0.0
  0
LINE
  5
1267AD
  8
OBJECT
 10
4414.9999999999918
 20
-1016.0
 30
0.0
 11
4414.9999999999973
 21
-1084.784603399034
 31
0.0
1001
ACDBBLOCKREPETAG
1070
     1
1071
        1
1005
1267AD
  0
LINE
  5
1267AE
  8
OBJECT
 10
4585.0000000000073
 20
-1016.0
 30
0.0
 11
4585.0000000000009
 21
-1084.784603399042
 31
0.0
1001
ACDBBLOCKREPETAG
1070
     1
1071
        2
1005
1267AE
  0
LINE
  5
1267AF
  8
OBJECT
 10
4585.0000000000073
 20
-1016.0
 30
0.0
 11
4414.9999999999918
 21
-1016.0
 31
0.0
1001
ACDBBLOCKREPETAG
1070
     1
1071
        3
1005
1267AF
  0
LINE
  5
1267B0
  8
OBJECT
 10
4579.9999999999982
 20
-1256.0
 30
0.0
 11
4420.0
 21
-1256.0
 31
0.0
1001
ACDBBLOCKREPETAG
1070
     1
1071
        4
1005
1267B0
  0
LINE
  5
1267B1
  8
OBJECT
 10
4414.9999999999973
 20
-1084.784603399034
 30
0.0
 11
4420.0
 21
-1125.622577482987
 31
0.0
1001
ACDBBLOCKREPETAG
1070
     1
1071
        6
1005
1267B1
  0
LINE
  5
1267B2
  8
OBJECT
 10
4420.0
 20
-1125.622577482987
 30
0.0
 11
4420.0
 21
-1256.0
 31
0.0
1001
ACDBBLOCKREPETAG
1070
     1
1071
        7
1005
1267B2
  0
LINE
  5
1267B3
  8
OBJECT
 10
4585.0000000000009
 20
-1084.784603399042
 30
0.0
 11
4580.0
 21
-1125.622577482987
 31
0.0
1001
ACDBBLOCKREPETAG
1070
     1
1071
        8
1005
1267B3
  0
LINE
  5
1267B4
  8
OBJECT
 10
4580.0
 20
-1125.622577482987
 30
0.0
 11
4579.9999999999982
 21
-1256.0
 31
0.0
1001
ACDBBLOCKREPETAG
1070
     1
1071
        9
1005
1267B4
  0
LINE
  5
1267B5
  8
OBJECT
 10
4430.0
 20
-1256.0
 30
0.0
 11
4430.0
 21
-1275.0
 31
0.0
1001
ACDBBLOCKREPETAG
1070
     1
1071
       10
1005
1267B5
  0
LINE
  5
1267B6
  8
OBJECT
 10
4430.0
 20
-1275.0
 30
0.0
 11
4570.0
 21
-1275.0
 31
0.0
1001
ACDBBLOCKREPETAG
1070
     1
1071
       11
1005
1267B6
  0
LINE
  5
1267B7
  8
OBJECT
 10
4570.0
 20
-1275.0
 30
0.0
 11
4570.0
 21
-1256.0
 31
0.0
1001
ACDBBLOCKREPETAG
1070
     1
1071
       12
1005
1267B7
  0
LINE
  5
1267B8
  8
OBJECT
 10
4930.0
 20
-1364.999999999998
 30
0.0
 11
5070.0
 21
-1364.999999999998
 31
0.0
1001
ACDBBLOCKREPETAG
1070
     1
1071
        0
1005
1267B8
  0
LINE
  5
1267B9
  8
OBJECT
 10
4930.0
 20
-1364.999999999998
 30
0.0
 11
4930.0
 21
-1124.999999999998
 31
0.0
1001
ACDBBLOCKREPETAG
1070
     1
1071
        1
1005
1267B9
  0
LINE
  5
1267BA
  8
OBJECT
 10
5070.0
 20
-1364.999999999998
 30
0.0
 11
5070.0
 21
-1124.999999999998
 31
0.0
1001
ACDBBLOCKREPETAG
1070
     1
1071
        2
1005
1267BA
  0
LINE
  5
1267BB
  8
OBJECT
 10
4930.0
 20
-1124.999999999998
 30
0.0
 11
5070.0
 21
-1124.999999999998
 31
0.0
1001
ACDBBLOCKREPETAG
1070
     1
1071
        3
1005
1267BB
  0
LINE
  5
1267BC
  8
HIDDEN
 10
4937.5
 20
-1124.999999999998
 30
0.0
 11
4937.5
 21
-1364.999999999998
 31
0.0
1001
ACDBBLOCKREPETAG
1070
     1
1071
        4
1005
1267BC
  0
LINE
  5
1267BD
  8
HIDDEN
 10
5062.5
 20
-1124.999999999998
 30
0.0
 11
5062.5
 21
-1364.999999999998
 31
0.0
1001
ACDBBLOCKREPETAG
1070
     1
1071
        5
1005
1267BD
  0
LINE
  5
1267BE
  8
CENTER
 10
5000.0
 20
-1055.0
 30
0.0
 11
5000.0
 21
-1379.999999999998
 31
0.0
1001
ACDBBLOCKREPETAG
1070
     1
1071
        6
1005
1267BE
  0
LINE
  5
1267BF
  8
OBJECT
 10
4925.0
 20
-1055.0
 30
0.0
 11
4925.0
 21
-1084.999999999998
 31
0.0
1001
ACDBBLOCKREPETAG
1070
     1
1071
        7
1005
1267BF
  0
LINE
  5
1267C0
  8
OBJECT
 10
5075.0000000000018
 20
-1055.0
 30
0.0
 11
5075.0
 21
-1084.999999999998
 31
0.0
1001
ACDBBLOCKREPETAG
1070
     1
1071
        8
1005
1267C0
  0
LINE
  5
1267C1
  8
OBJECT
 10
4925.0
 20
-1084.999999999998
 30
0.0
 11
5075.0
 21
-1084.999999999998
 31
0.0
1001
ACDBBLOCKREPETAG
1070
     1
1071
        9
1005
1267C1
  0
LINE
  5
1267C2
  8
OBJECT
 10
4925.0
 20
-1084.999999999998
 30
0.0
 11
4930.0
 21
-1124.999999999998
 31
0.0
1001
ACDBBLOCKREPETAG
1070
     1
1071
       10
1005
1267C2
  0
LINE
  5
1267C3
  8
OBJECT
 10
5070.0
 20
-1124.999999999998
 30
0.0
 11
5075.0
 21
-1084.999999999998
 31
0.0
1001
ACDBBLOCKREPETAG
1070
     1
1071
       11
1005
1267C3
  0
LINE
  5
1267C4
  8
OBJECT
 10
4430.0
 20
-1364.999999999998
 30
0.0
 11
4570.0
 21
-1364.999999999998
 31
0.0
1001
ACDBBLOCKREPETAG
1070
     1
1071
        0
1005
1267C4
  0
LINE
  5
1267C5
  8
OBJECT
 10
4430.0
 20
-1364.999999999998
 30
0.0
 11
4430.0
 21
-1124.999999999998
 31
0.0
1001
ACDBBLOCKREPETAG
1070
     1
1071
        1
1005
1267C5
  0
LINE
  5
1267C6
  8
OBJECT
 10
4570.0
 20
-1364.999999999998
 30
0.0
 11
4570.0
 21
-1124.999999999998
 31
0.0
1001
ACDBBLOCKREPETAG
1070
     1
1071
        2
1005
1267C6
  0
LINE
  5
1267C7
  8
OBJECT
 10
4430.0
 20
-1124.999999999998
 30
0.0
 11
4570.0
 21
-1124.999999999998
 31
0.0
1001
ACDBBLOCKREPETAG
1070
     1
1071
        3
1005
1267C7
  0
LINE
  5
1267C8
  8
HIDDEN
 10
4437.5
 20
-1124.999999999998
 30
0.0
 11
4437.5
 21
-1364.999999999998
 31
0.0
1001
ACDBBLOCKREPETAG
1070
     1
1071
        4
1005
1267C8
  0
LINE
  5
1267C9
  8
HIDDEN
 10
4562.5
 20
-1124.999999999998
 30
0.0
 11
4562.5
 21
-1364.999999999998
 31
0.0
1001
ACDBBLOCKREPETAG
1070
     1
1071
        5
1005
1267C9
  0
LINE
  5
1267CA
  8
CENTER
 10
4500.0
 20
-1055.0
 30
0.0
 11
4500.0
 21
-1379.999999999998
 31
0.0
1001
ACDBBLOCKREPETAG
1070
     1
1071
        6
1005
1267CA
  0
LINE
  5
1267CB
  8
OBJECT
 10
4425.0
 20
-1055.0
 30
0.0
 11
4425.0
 21
-1084.999999999998
 31
0.0
1001
ACDBBLOCKREPETAG
1070
     1
1071
        7
1005
1267CB
  0
LINE
  5
1267CC
  8
OBJECT
 10
4575.0000000000009
 20
-1055.0
 30
0.0
 11
4575.0
 21
-1084.999999999998
 31
0.0
1001
ACDBBLOCKREPETAG
1070
     1
1071
        8
1005
1267CC
  0
LINE
  5
1267CD
  8
OBJECT
 10
4425.0
 20
-1084.999999999998
 30
0.0
 11
4575.0
 21
-1084.999999999998
 31
0.0
1001
ACDBBLOCKREPETAG
1070
     1
1071
        9
1005
1267CD
  0
LINE
  5
1267CE
  8
OBJECT
 10
4425.0
 20
-1084.999999999998
 30
0.0
 11
4430.0
 21
-1124.999999999998
 31
0.0
1001
ACDBBLOCKREPETAG
1070
     1
1071
       10
1005
1267CE
  0
LINE
  5
1267CF
  8
OBJECT
 10
4570.0
 20
-1124.999999999998
 30
0.0
 11
4575.0
 21
-1084.999999999998
 31
0.0
1001
ACDBBLOCKREPETAG
1070
     1
1071
       11
1005
1267CF
  0
LINE
  5
1267D0
  8
OBJECT
 10
2930.0
 20
-1364.999999999998
 30
0.0
 11
3070.0
 21
-1364.999999999998
 31
0.0
1001
ACDBBLOCKREPETAG
1070
     1
1071
        0
1005
1267D0
  0
LINE
  5
1267D1
  8
OBJECT
 10
2930.0
 20
-1364.999999999998
 30
0.0
 11
2930.0
 21
-1124.999999999998
 31
0.0
1001
ACDBBLOCKREPETAG
1070
     1
1071
        1
1005
1267D1
  0
LINE
  5
1267D2
  8
OBJECT
 10
3070.0
 20
-1364.999999999998
 30
0.0
 11
3070.0
 21
-1124.999999999998
 31
0.0
1001
ACDBBLOCKREPETAG
1070
     1
1071
        2
1005
1267D2
  0
LINE
  5
1267D3
  8
OBJECT
 10
2930.0
 20
-1124.999999999998
 30
0.0
 11
3070.0
 21
-1124.999999999998
 31
0.0
1001
ACDBBLOCKREPETAG
1070
     1
1071
        3
1005
1267D3
  0
LINE
  5
1267D4
  8
HIDDEN
 10
2937.5
 20
-1124.999999999998
 30
0.0
 11
2937.5
 21
-1364.999999999998
 31
0.0
1001
ACDBBLOCKREPETAG
1070
     1
1071
        4
1005
1267D4
  0
LINE
  5
1267D5
  8
HIDDEN
 10
3062.5
 20
-1124.999999999998
 30
0.0
 11
3062.5
 21
-1364.999999999998
 31
0.0
1001
ACDBBLOCKREPETAG
1070
     1
1071
        5
1005
1267D5
  0
LINE
  5
1267D6
  8
CENTER
 10
3000.0
 20
-1055.0
 30
0.0
 11
3000.0
 21
-1379.999999999998
 31
0.0
1001
ACDBBLOCKREPETAG
1070
     1
1071
        6
1005
1267D6
  0
LINE
  5
1267D7
  8
OBJECT
 10
2925.0
 20
-1055.0
 30
0.0
 11
2925.0
 21
-1084.999999999998
 31
0.0
1001
ACDBBLOCKREPETAG
1070
     1
1071
        7
1005
1267D7
  0
LINE
  5
1267D8
  8
OBJECT
 10
3075.000000000005
 20
-1055.0
 30
0.0
 11
3075.0
 21
-1084.999999999998
 31
0.0
1001
ACDBBLOCKREPETAG
1070
     1
1071
        8
1005
1267D8
  0
LINE
  5
1267D9
  8
OBJECT
 10
2925.0
 20
-1084.999999999998
 30
0.0
 11
3075.0
 21
-1084.999999999998
 31
0.0
1001
ACDBBLOCKREPETAG
1070
     1
1071
        9
1005
1267D9
  0
LINE
  5
1267DA
  8
OBJECT
 10
2925.0
 20
-1084.999999999998
 30
0.0
 11
2930.0
 21
-1124.999999999998
 31
0.0
1001
ACDBBLOCKREPETAG
1070
     1
1071
       10
1005
1267DA
  0
LINE
  5
1267DB
  8
OBJECT
 10
3070.0
 20
-1124.999999999998
 30
0.0
 11
3075.0
 21
-1084.999999999998
 31
0.0
1001
ACDBBLOCKREPETAG
1070
     1
1071
       11
1005
1267DB
  0
LINE
  5
1267DC
  8
OBJECT
 10
2430.0
 20
-1364.999999999998
 30
0.0
 11
2570.0
 21
-1364.999999999998
 31
0.0
1001
ACDBBLOCKREPETAG
1070
     1
1071
        0
1005
1267DC
  0
LINE
  5
1267DD
  8
OBJECT
 10
2430.0
 20
-1364.999999999998
 30
0.0
 11
2430.0
 21
-1124.999999999998
 31
0.0
1001
ACDBBLOCKREPETAG
1070
     1
1071
        1
1005
1267DD
  0
LINE
  5
1267DE
  8
OBJECT
 10
2570.0
 20
-1364.999999999998
 30
0.0
 11
2570.0
 21
-1124.999999999998
 31
0.0
1001
ACDBBLOCKREPETAG
1070
     1
1071
        2
1005
1267DE
  0
LINE
  5
1267DF
  8
OBJECT
 10
2430.0
 20
-1124.999999999998
 30
0.0
 11
2570.0
 21
-1124.999999999998
 31
0.0
1001
ACDBBLOCKREPETAG
1070
     1
1071
        3
1005
1267DF
  0
LINE
  5
1267E0
  8
HIDDEN
 10
2437.5
 20
-1124.999999999998
 30
0.0
 11
2437.5
 21
-1364.999999999998
 31
0.0
1001
ACDBBLOCKREPETAG
1070
     1
1071
        4
1005
1267E0
  0
LINE
  5
1267E1
  8
HIDDEN
 10
2562.5
 20
-1124.999999999998
 30
0.0
 11
2562.5
 21
-1364.999999999998
 31
0.0
1001
ACDBBLOCKREPETAG
1070
     1
1071
        5
1005
1267E1
  0
LINE
  5
1267E2
  8
CENTER
 10
2500.0
 20
-1055.0
 30
0.0
 11
2500.0
 21
-1379.999999999998
 31
0.0
1001
ACDBBLOCKREPETAG
1070
     1
1071
        6
1005
1267E2
  0
LINE
  5
1267E3
  8
OBJECT
 10
2425.0
 20
-1055.0
 30
0.0
 11
2425.0
 21
-1084.999999999998
 31
0.0
1001
ACDBBLOCKREPETAG
1070
     1
1071
        7
1005
1267E3
  0
LINE
  5
1267E4
  8
OBJECT
 10
2575.000000000005
 20
-1055.0
 30
0.0
 11
2575.0
 21
-1084.999999999998
 31
0.0
1001
ACDBBLOCKREPETAG
1070
     1
1071
        8
1005
1267E4
  0
LINE
  5
1267E5
  8
OBJECT
 10
2425.0
 20
-1084.999999999998
 30
0.0
 11
2575.0
 21
-1084.999999999998
 31
0.0
1001
ACDBBLOCKREPETAG
1070
     1
1071
        9
1005
1267E5
  0
LINE
  5
1267E6
  8
OBJECT
 10
2425.0
 20
-1084.999999999998
 30
0.0
 11
2430.0
 21
-1124.999999999998
 31
0.0
1001
ACDBBLOCKREPETAG
1070
     1
1071
       10
1005
1267E6
  0
LINE
  5
1267E7
  8
OBJECT
 10
2570.0
 20
-1124.999999999998
 30
0.0
 11
2575.0
 21
-1084.999999999998
 31
0.0
1001
ACDBBLOCKREPETAG
1070
     1
1071
       11
1005
1267E7
  0
CIRCLE
  5
1267E8
  8
OBJECT
 10
180.00000000004181
 20
-232.00000000017189
 30
0.0
 40
70.0
1001
ACDBBLOCKREPETAG
1070
     1
1071
       50
1005
1267E8
  0
CIRCLE
  5
1267E9
  8
OBJECT
 10
180.00000000004181
 20
-232.00000000017189
 30
0.0
 40
77.0
1001
ACDBBLOCKREPETAG
1070
     1
1071
       51
1005
1267E9
  0
ARC
  5
1267EA
  8
OBJECT
 10
180.00000000004181
 20
-232.00000000017189
 30
0.0
 40
80.0
 50
140.80503257377961
 51
39.194967426220252
1001
ACDBBLOCKREPETAG
1070
     1
1071
       52
1005
1267EA
  0
LINE
  5
1267EB
  8
OBJECT
 10
118.00000000004179
 20
-186.3381997728473
 30
0.0
 11
118.00000000004179
 21
-152.00000000017181
 31
0.0
1001
ACDBBLOCKREPETAG
1070
     1
1071
       53
1005
1267EB
  0
LINE
  5
1267EC
  8
OBJECT
 10
242.00000000004181
 20
-186.3381997728473
 30
0.0
 11
242.00000000004181
 21
-152.00000000017181
 31
0.0
1001
ACDBBLOCKREPETAG
1070
     1
1071
       54
1005
1267EC
  0
POINT
  5
1267ED
  8
DOTS
 10
180.00000000004181
 20
-232.00000000017189
 30
0.0
1001
ACDBBLOCKREPETAG
1070
     1
1071
       63
1005
1267ED
  0
CIRCLE
  5
1267EE
  8
OBJECT
 10
180.00000000004181
 20
-232.00000000017189
 30
0.0
 40
53.5
1001
ACDBBLOCKREPETAG
1070
     1
1071
      157
1005
1267EE
  0
INSERT
  5
1267EF
  8
SLIM
  2
*U6
 10
0.0
 20
0.0
 30
0.0
  0
LINE
  5
1267F0
  8
OBJECT
 10
118.00000000004179
 20
-99.000000000171866
 30
0.0
 11
118.00000000004179
 21
-92.000000000171866
 31
0.0
1001
ACDBBLOCKREPETAG
1070
     1
1071
       39
1005
1267F0
  0
LINE
  5
1267F1
  8
OBJECT
 10
118.00000000004179
 20
-92.000000000171866
 30
0.0
 11
242.00000000004181
 21
-92.000000000171866
 31
0.0
1001
ACDBBLOCKREPETAG
1070
     1
1071
       40
1005
1267F1
  0
LINE
  5
1267F2
  8
OBJECT
 10
242.00000000004181
 20
-92.000000000171866
 30
0.0
 11
242.00000000004181
 21
-99.000000000171866
 31
0.0
1001
ACDBBLOCKREPETAG
1070
     1
1071
       41
1005
1267F2
  0
LINE
  5
1267F3
  8
OBJECT
 10
242.00000000004181
 20
-99.000000000171866
 30
0.0
 11
118.00000000004179
 21
-99.000000000171866
 31
0.0
1001
ACDBBLOCKREPETAG
1070
     1
1071
       42
1005
1267F3
  0
LINE
  5
1267F4
  8
OBJECT
 10
121.00000000004179
 20
-99.000000000171866
 30
0.0
 11
121.00000000004179
 21
-135.00000000017181
 31
0.0
1001
ACDBBLOCKREPETAG
1070
     1
1071
       43
1005
1267F4
  0
LINE
  5
1267F5
  8
OBJECT
 10
121.00000000004179
 20
-135.00000000017181
 30
0.0
 11
239.00000000004181
 21
-135.00000000017181
 31
0.0
1001
ACDBBLOCKREPETAG
1070
     1
1071
       44
1005
1267F5
  0
LINE
  5
1267F6
  8
OBJECT
 10
239.00000000004181
 20
-135.00000000017181
 30
0.0
 11
239.00000000004181
 21
-99.000000000171866
 31
0.0
1001
ACDBBLOCKREPETAG
1070
     1
1071
       45
1005
1267F6
  0
LINE
  5
1267F7
  8
OBJECT
 10
125.50000000004179
 20
-139.00000000017181
 30
0.0
 11
125.50000000004179
 21
-146.00000000017181
 31
0.0
1001
ACDBBLOCKREPETAG
1070
     1
1071
       46
1005
1267F7
  0
LINE
  5
1267F8
  8
OBJECT
 10
234.50000000004181
 20
-146.00000000017181
 30
0.0
 11
234.50000000004181
 21
-139.00000000017181
 31
0.0
1001
ACDBBLOCKREPETAG
1070
     1
1071
       47
1005
1267F8
  0
LINE
  5
1267F9
  8
OBJECT
 10
234.50000000004181
 20
-139.00000000017181
 30
0.0
 11
125.50000000004179
 21
-139.00000000017181
 31
0.0
1001
ACDBBLOCKREPETAG
1070
     1
1071
       48
1005
1267F9
  0
LINE
  5
1267FA
  8
OBJECT
 10
121.00000000004179
 20
-135.00000000017181
 30
0.0
 11
125.50000000004179
 21
-139.00000000017181
 31
0.0
1001
ACDBBLOCKREPETAG
1070
     1
1071
       49
1005
1267FA
  0
LINE
  5
1267FB
  8
OBJECT
 10
239.00000000004181
 20
-135.00000000017181
 30
0.0
 11
234.50000000004181
 21
-139.00000000017181
 31
0.0
1001
ACDBBLOCKREPETAG
1070
     1
1071
       50
1005
1267FB
  0
LINE
  5
1267FC
  8
OBJECT
 10
118.00000000004179
 20
-149.00000000017101
 30
0.0
 11
118.00000000004179
 21
-152.00000000017181
 31
0.0
1001
ACDBBLOCKREPETAG
1070
     1
1071
       51
1005
1267FC
  0
ARC
  5
1267FD
  8
OBJECT
 10
121.00000000004179
 20
-149.00000000017101
 30
0.0
 40
3.0
 50
90.0
 51
180.0
1001
ACDBBLOCKREPETAG
1070
     1
1071
       52
1005
1267FD
  0
LINE
  5
1267FE
  8
OBJECT
 10
242.00000000004181
 20
-152.00000000017181
 30
0.0
 11
242.00000000004181
 21
-149.0000000001728
 31
0.0
1001
ACDBBLOCKREPETAG
1070
     1
1071
       53
1005
1267FE
  0
ARC
  5
1267FF
  8
OBJECT
 10
239.00000000004181
 20
-149.0000000001728
 30
0.0
 40
3.0
 50
0.0
 51
90.0
1001
ACDBBLOCKREPETAG
1070
     1
1071
       54
1005
1267FF
  0
LINE
  5
126800
  8
OBJECT
 10
239.00000000004181
 20
-146.0000000001728
 30
0.0
 11
121.00000000004179
 21
-146.00000000017101
 31
0.0
1001
ACDBBLOCKREPETAG
1070
     1
1071
       55
1005
126800
  0
LINE
  5
126801
  8
HIDDEN
 10
135.50000000004181
 20
-144.00000000017189
 30
0.0
 11
224.50000000004181
 21
-144.00000000017189
 31
0.0
1001
ACDBBLOCKREPETAG
1070
     1
1071
      426
1005
126801
  0
TEXT
  5
126802
  8
SLIM
 10
0.000003566523219
 20
-775.9999954146823
 30
0.0
 40
79.999999999972701
  1
下部枝管バリエーション
 41
0.75
1001
ACDBBLOCKREPETAG
1070
     1
1071
      119
1005
120BCB
  0
LINE
  5
126803
  8
DIM
 10
4404.9999999999936
 20
-1015.999999999999
 30
0.0
 11
4333.1164560757752
 21
-1015.999999999999
 31
0.0
  0
LINE
  5
126804
  8
DIM
 10
4410.0
 20
-1256.0
 30
0.0
 11
4333.1164560757752
 21
-1256.0
 31
0.0
  0
LINE
  5
126805
  8
DIM
 10
4343.1164560757752
 20
-1035.9999999999991
 30
0.0
 11
4343.1164560757752
 21
-1236.0
 31
0.0
  0
INSERT
  5
126806
  8
DIM
  2
_OPEN30
 10
4343.1164560757752
 20
-1015.999999999999
 30
0.0
 41
20.0
 42
20.0
 43
20.0
 50
90.0
  0
INSERT
  5
126807
  8
DIM
  2
_OPEN30
 10
4343.1164560757752
 20
-1256.0
 30
0.0
 41
20.0
 42
20.0
 43
20.0
 50
270.0
  0
INSERT
  5
126808
  8
SLIM
  2
*U7
 10
0.0
 20
0.0
 30
0.0
  0
LINE
  5
126809
  8
DIM
 10
4665.0
 20
-696.0
 30
0.0
 11
4719.4245816727571
 21
-696.0
 31
0.0
  0
LINE
  5
12680A
  8
DIM
 10
4595.0000000000064
 20
-1016.000000000004
 30
0.0
 11
4719.4245816727571
 21
-1016.000000000004
 31
0.0
  0
LINE
  5
12680B
  8
DIM
 10
4709.4245816727562
 20
-716.0
 30
0.0
 11
4709.4245816727562
 21
-996.00000000000375
 31
0.0
  0
INSERT
  5
12680C
  8
DIM
  2
_OPEN30
 10
4709.4245816727562
 20
-696.0
 30
0.0
 41
20.0
 42
20.0
 43
20.0
 50
90.0
  0
INSERT
  5
12680D
  8
DIM
  2
_OPEN30
 10
4709.4245816727562
 20
-1016.000000000004
 30
0.0
 41
20.0
 42
20.0
 43
20.0
 50
270.0
  0
INSERT
  5
12680E
  8
SLIM
  2
*U8
 10
0.0
 20
0.0
 30
0.0
  0
LINE
  5
12680F
  8
OBJECT
 10
4925.0
 20
-770.0
 30
0.0
 11
4925.0
 21
-907.50000000006526
 31
0.0
1001
ACDBBLOCKREPETAG
1070
     1
1071
        1
1005
12680F
  0
LINE
  5
126810
  8
OBJECT
 10
5075.0
 20
-769.9999999999942
 30
0.0
 11
5075.0
 21
-1043.0
 31
0.0
1001
ACDBBLOCKREPETAG
1070
     1
1071
        3
1005
126810
  0
LINE
  5
126811
  8
CENTER
 10
5000.0
 20
-770.0
 30
0.0
 11
5000.0
 21
-1055.0
 31
0.0
1001
ACDBBLOCKREPETAG
1070
     1
1071
        6
1005
126811
  0
LINE
  5
126812
  8
OBJECT
 10
4920.0
 20
-1055.0
 30
0.0
 11
5080.0
 21
-1055.0
 31
0.0
1001
ACDBBLOCKREPETAG
1070
     1
1071
        7
1005
126812
  0
LINE
  5
126813
  8
OBJECT
 10
4920.0
 20
-1043.0
 30
0.0
 11
5080.0
 21
-1043.0
 31
0.0
1001
ACDBBLOCKREPETAG
1070
     1
1071
        8
1005
126813
  0
LINE
  5
126814
  8
OBJECT
 10
4920.0
 20
-1043.0
 30
0.0
 11
4920.0
 21
-1055.0
 31
0.0
1001
ACDBBLOCKREPETAG
1070
     1
1071
        9
1005
126814
  0
LINE
  5
126815
  8
OBJECT
 10
5080.0
 20
-1043.0
 30
0.0
 11
5080.0
 21
-1055.0
 31
0.0
1001
ACDBBLOCKREPETAG
1070
     1
1071
       10
1005
126815
  0
LINE
  5
126816
  8
OBJECT
 10
4867.0
 20
-909.0
 30
0.0
 11
4860.0
 21
-909.0
 31
0.0
1001
ACDBBLOCKREPETAG
1070
     1
1071
       23
1005
126816
  0
LINE
  5
126817
  8
OBJECT
 10
4860.0
 20
-909.0
 30
0.0
 11
4860.0
 21
-1016.0
 31
0.0
1001
ACDBBLOCKREPETAG
1070
     1
1071
       24
1005
126817
  0
LINE
  5
126818
  8
OBJECT
 10
4915.5
 20
-910.50000000006548
 30
0.0
 11
4915.5
 21
-1013.5
 31
0.0
1001
ACDBBLOCKREPETAG
1070
     1
1071
       25
1005
126818
  0
ARC
  5
126819
  8
OBJECT
 10
4918.5
 20
-910.50000000006548
 30
0.0
 40
3.0
 50
90.0
 51
180.0
1001
ACDBBLOCKREPETAG
1070
     1
1071
       26
1005
126819
  0
LINE
  5
12681A
  8
OBJECT
 10
4867.0
 20
-1016.0
 30
0.0
 11
4867.0
 21
-909.0
 31
0.0
1001
ACDBBLOCKREPETAG
1070
     1
1071
       27
1005
12681A
  0
LINE
  5
12681B
  8
CENTER
 10
4845.0
 20
-964.0
 30
0.0
 11
4958.6550800869954
 21
-964.00000000006526
 31
0.0
1001
ACDBBLOCKREPETAG
1070
     1
1071
       28
1005
12681B
  0
LINE
  5
12681C
  8
OBJECT
 10
4867.0
 20
-912.0
 30
0.0
 11
4903.0
 21
-912.0
 31
0.0
1001
ACDBBLOCKREPETAG
1070
     1
1071
       29
1005
12681C
  0
LINE
  5
12681D
  8
OBJECT
 10
4903.0
 20
-912.0
 30
0.0
 11
4903.0
 21
-1016.0
 31
0.0
1001
ACDBBLOCKREPETAG
1070
     1
1071
       30
1005
12681D
  0
LINE
  5
12681E
  8
OBJECT
 10
4903.0
 20
-1016.0
 30
0.0
 11
4860.0
 21
-1016.0
 31
0.0
1001
ACDBBLOCKREPETAG
1070
     1
1071
       31
1005
12681E
  0
LINE
  5
12681F
  8
OBJECT
 10
4907.0
 20
-916.5
 30
0.0
 11
4915.5
 21
-916.5
 31
0.0
1001
ACDBBLOCKREPETAG
1070
     1
1071
       32
1005
12681F
  0
LINE
  5
126820
  8
OBJECT
 10
4915.5
 20
-1011.5
 30
0.0
 11
4907.0
 21
-1011.5
 31
0.0
1001
ACDBBLOCKREPETAG
1070
     1
1071
       33
1005
126820
  0
LINE
  5
126821
  8
OBJECT
 10
4907.0
 20
-1011.5
 30
0.0
 11
4907.0
 21
-916.5
 31
0.0
1001
ACDBBLOCKREPETAG
1070
     1
1071
       34
1005
126821
  0
LINE
  5
126822
  8
OBJECT
 10
4903.0
 20
-912.0
 30
0.0
 11
4907.0
 21
-916.5
 31
0.0
1001
ACDBBLOCKREPETAG
1070
     1
1071
       35
1005
126822
  0
LINE
  5
126823
  8
OBJECT
 10
4903.0
 20
-1016.0
 30
0.0
 11
4907.0
 21
-1011.5
 31
0.0
1001
ACDBBLOCKREPETAG
1070
     1
1071
       36
1005
126823
  0
LINE
  5
126824
  8
HIDDEN
 10
4912.0
 20
-926.0
 30
0.0
 11
4912.0
 21
-1002.0
 31
0.0
1001
ACDBBLOCKREPETAG
1070
     1
1071
       37
1005
126824
  0
ARC
  5
126825
  8
OBJECT
 10
4835.1217271212263
 20
-972.40950726122867
 30
0.0
 40
110.86635228309
 50
16.95964619565439
 51
35.836572580695218
1001
ACDBBLOCKREPETAG
1070
     1
1071
       38
1005
126825
  0
ARC
  5
126826
  8
OBJECT
 10
4882.8640112230942
 20
-957.28774971844894
 30
0.0
 40
60.791749880358971
 50
0.2712030171733432
 51
16.452795347786878
1001
ACDBBLOCKREPETAG
1070
     1
1071
       39
1005
126826
  0
ARC
  5
126827
  8
OBJECT
 10
4882.8640043437508
 20
-963.71224975990117
 30
0.0
 40
60.79175676209487
 50
343.54722053947972
 51
359.7287965218548
1001
ACDBBLOCKREPETAG
1070
     1
1071
       40
1005
126827
  0
ARC
  5
126828
  8
OBJECT
 10
4835.1217271212263
 20
-948.59049273883636
 30
0.0
 40
110.8663522830916
 50
324.16342741930481
 51
343.04035380434561
1001
ACDBBLOCKREPETAG
1070
     1
1071
       41
1005
126828
  0
LINE
  5
126829
  8
OBJECT
 10
4943.6550800869954
 20
-957.00000000003638
 30
0.0
 11
4943.6550800869954
 21
-964.00000000003286
 31
0.0
1001
ACDBBLOCKREPETAG
1070
     1
1071
       42
1005
126829
  0
LINE
  5
12682A
  8
OBJECT
 10
4925.0
 20
-907.50000000006526
 30
0.0
 11
4918.5
 21
-907.50000000006526
 31
0.0
1001
ACDBBLOCKREPETAG
1070
     1
1071
       43
1005
12682A
  0
LINE
  5
12682B
  8
OBJECT
 10
4925.0
 20
-1013.5
 30
0.0
 11
4915.5
 21
-1013.5
 31
0.0
1001
ACDBBLOCKREPETAG
1070
     1
1071
       44
1005
12682B
  0
LINE
  5
12682C
  8
OBJECT
 10
4925.0
 20
-1013.5
 30
0.0
 11
4925.0
 21
-1043.0
 31
0.0
1001
ACDBBLOCKREPETAG
1070
     1
1071
        1
1005
12680F
  0
POINT
  5
12682D
  8
DOTS
 10
5000.0
 20
-1016.0
 30
0.0
  0
LINE
  5
12682E
  8
OBJECT
 10
4425.0
 20
-770.0
 30
0.0
 11
4425.0
 21
-1043.0
 31
0.0
1001
ACDBBLOCKREPETAG
1070
     1
1071
        1
1005
12682E
  0
LINE
  5
12682F
  8
OBJECT
 10
4575.0
 20
-769.9999999999942
 30
0.0
 11
4575.0
 21
-1043.0
 31
0.0
1001
ACDBBLOCKREPETAG
1070
     1
1071
        3
1005
12682F
  0
LINE
  5
126830
  8
CENTER
 10
4500.0
 20
-770.0
 30
0.0
 11
4500.0
 21
-1055.0
 31
0.0
1001
ACDBBLOCKREPETAG
1070
     1
1071
        6
1005
126830
  0
LINE
  5
126831
  8
OBJECT
 10
4420.0
 20
-1055.0
 30
0.0
 11
4580.0
 21
-1055.0
 31
0.0
1001
ACDBBLOCKREPETAG
1070
     1
1071
        7
1005
126831
  0
LINE
  5
126832
  8
OBJECT
 10
4420.0
 20
-1043.0
 30
0.0
 11
4580.0
 21
-1043.0
 31
0.0
1001
ACDBBLOCKREPETAG
1070
     1
1071
        8
1005
126832
  0
LINE
  5
126833
  8
OBJECT
 10
4420.0
 20
-1043.0
 30
0.0
 11
4420.0
 21
-1055.0
 31
0.0
1001
ACDBBLOCKREPETAG
1070
     1
1071
        9
1005
126833
  0
LINE
  5
126834
  8
OBJECT
 10
4580.0
 20
-1043.0
 30
0.0
 11
4580.0
 21
-1055.0
 31
0.0
1001
ACDBBLOCKREPETAG
1070
     1
1071
       10
1005
126834
  0
CIRCLE
  5
126835
  8
OBJECT
 10
4500.0
 20
-964.0
 30
0.0
 40
35.5
1001
ACDBBLOCKREPETAG
1070
     1
1071
       11
1005
126835
  0
LINE
  5
126836
  8
CENTER
 10
4430.0
 20
-964.0
 30
0.0
 11
4570.0
 21
-964.0
 31
0.0
1001
ACDBBLOCKREPETAG
1070
     1
1071
       12
1005
126836
  0
CIRCLE
  5
126837
  8
OBJECT
 10
4500.0
 20
-964.0
 30
0.0
 40
47.0
1001
ACDBBLOCKREPETAG
1070
     1
1071
       14
1005
126837
  0
ARC
  5
126838
  8
OBJECT
 10
4500.0
 20
-964.0
 30
0.0
 40
55.0
 50
289.01126526010933
 51
250.9887347398907
1001
ACDBBLOCKREPETAG
1070
     1
1071
       15
1005
126838
  0
LINE
  5
126839
  8
OBJECT
 10
4482.0835271328324
 20
-1016.0
 30
0.0
 11
4517.9164728671676
 21
-1016.0
 31
0.0
1001
ACDBBLOCKREPETAG
1070
     1
1071
       16
1005
126839
  0
POINT
  5
12683A
  8
DOTS
 10
4500.0
 20
-1016.0
 30
0.0
  0
LINE
  5
12683B
  8
OBJECT
 10
2925.0
 20
-770.0
 30
0.0
 11
2925.0
 21
-907.50000000006526
 31
0.0
1001
ACDBBLOCKREPETAG
1070
     1
1071
        1
1005
12683B
  0
LINE
  5
12683C
  8
OBJECT
 10
3075.0
 20
-769.9999999999942
 30
0.0
 11
3075.0
 21
-1043.0
 31
0.0
1001
ACDBBLOCKREPETAG
1070
     1
1071
        3
1005
12683C
  0
LINE
  5
12683D
  8
CENTER
 10
3000.0
 20
-770.0
 30
0.0
 11
3000.0
 21
-1055.0
 31
0.0
1001
ACDBBLOCKREPETAG
1070
     1
1071
        6
1005
12683D
  0
LINE
  5
12683E
  8
OBJECT
 10
2920.0
 20
-1055.0
 30
0.0
 11
3080.0
 21
-1055.0
 31
0.0
1001
ACDBBLOCKREPETAG
1070
     1
1071
        7
1005
12683E
  0
LINE
  5
12683F
  8
OBJECT
 10
2920.0
 20
-1043.0
 30
0.0
 11
3080.0
 21
-1043.0
 31
0.0
1001
ACDBBLOCKREPETAG
1070
     1
1071
        8
1005
12683F
  0
LINE
  5
126840
  8
OBJECT
 10
2920.0
 20
-1043.0
 30
0.0
 11
2920.0
 21
-1055.0
 31
0.0
1001
ACDBBLOCKREPETAG
1070
     1
1071
        9
1005
126840
  0
LINE
  5
126841
  8
OBJECT
 10
3080.0
 20
-1043.0
 30
0.0
 11
3080.0
 21
-1055.0
 31
0.0
1001
ACDBBLOCKREPETAG
1070
     1
1071
       10
1005
126841
  0
LINE
  5
126842
  8
OBJECT
 10
2867.0
 20
-909.0
 30
0.0
 11
2860.0
 21
-909.0
 31
0.0
1001
ACDBBLOCKREPETAG
1070
     1
1071
       23
1005
126842
  0
LINE
  5
126843
  8
OBJECT
 10
2860.0
 20
-909.0
 30
0.0
 11
2860.0
 21
-1016.0
 31
0.0
1001
ACDBBLOCKREPETAG
1070
     1
1071
       24
1005
126843
  0
LINE
  5
126844
  8
OBJECT
 10
2915.5
 20
-910.50000000006548
 30
0.0
 11
2915.5
 21
-1013.5
 31
0.0
1001
ACDBBLOCKREPETAG
1070
     1
1071
       25
1005
126844
  0
ARC
  5
126845
  8
OBJECT
 10
2918.5
 20
-910.50000000006548
 30
0.0
 40
3.0
 50
90.0
 51
180.0
1001
ACDBBLOCKREPETAG
1070
     1
1071
       26
1005
126845
  0
LINE
  5
126846
  8
OBJECT
 10
2867.0
 20
-1016.0
 30
0.0
 11
2867.0
 21
-909.0
 31
0.0
1001
ACDBBLOCKREPETAG
1070
     1
1071
       27
1005
126846
  0
LINE
  5
126847
  8
CENTER
 10
2845.0
 20
-964.0
 30
0.0
 11
2958.655080086995
 21
-964.00000000006526
 31
0.0
1001
ACDBBLOCKREPETAG
1070
     1
1071
       28
1005
126847
  0
LINE
  5
126848
  8
OBJECT
 10
2867.0
 20
-912.0
 30
0.0
 11
2903.0
 21
-912.0
 31
0.0
1001
ACDBBLOCKREPETAG
1070
     1
1071
       29
1005
126848
  0
LINE
  5
126849
  8
OBJECT
 10
2903.0
 20
-912.0
 30
0.0
 11
2903.0
 21
-1016.0
 31
0.0
1001
ACDBBLOCKREPETAG
1070
     1
1071
       30
1005
126849
  0
LINE
  5
12684A
  8
OBJECT
 10
2903.0
 20
-1016.0
 30
0.0
 11
2860.0
 21
-1016.0
 31
0.0
1001
ACDBBLOCKREPETAG
1070
     1
1071
       31
1005
12684A
  0
LINE
  5
12684B
  8
OBJECT
 10
2907.0
 20
-916.5
 30
0.0
 11
2915.5
 21
-916.5
 31
0.0
1001
ACDBBLOCKREPETAG
1070
     1
1071
       32
1005
12684B
  0
LINE
  5
12684C
  8
OBJECT
 10
2915.5
 20
-1011.5
 30
0.0
 11
2907.0
 21
-1011.5
 31
0.0
1001
ACDBBLOCKREPETAG
1070
     1
1071
       33
1005
12684C
  0
LINE
  5
12684D
  8
OBJECT
 10
2907.0
 20
-1011.5
 30
0.0
 11
2907.0
 21
-916.5
 31
0.0
1001
ACDBBLOCKREPETAG
1070
     1
1071
       34
1005
12684D
  0
LINE
  5
12684E
  8
OBJECT
 10
2903.0
 20
-912.0
 30
0.0
 11
2907.0
 21
-916.5
 31
0.0
1001
ACDBBLOCKREPETAG
1070
     1
1071
       35
1005
12684E
  0
LINE
  5
12684F
  8
OBJECT
 10
2903.0
 20
-1016.0
 30
0.0
 11
2907.0
 21
-1011.5
 31
0.0
1001
ACDBBLOCKREPETAG
1070
     1
1071
       36
1005
12684F
  0
LINE
  5
126850
  8
HIDDEN
 10
2912.0
 20
-926.0
 30
0.0
 11
2912.0
 21
-1002.0
 31
0.0
1001
ACDBBLOCKREPETAG
1070
     1
1071
       37
1005
126850
  0
ARC
  5
126851
  8
OBJECT
 10
2835.1217271212249
 20
-972.40950726122867
 30
0.0
 40
110.86635228309
 50
16.959646195661989
 51
35.836572580695218
1001
ACDBBLOCKREPETAG
1070
     1
1071
       38
1005
126851
  0
ARC
  5
126852
  8
OBJECT
 10
2882.8640112230928
 20
-957.28774971844894
 30
0.0
 40
60.791749880358971
 50
0.2712030171732199
 51
16.452795347779499
1001
ACDBBLOCKREPETAG
1070
     1
1071
       39
1005
126852
  0
ARC
  5
126853
  8
OBJECT
 10
2882.8640043437522
 20
-963.71224975990117
 30
0.0
 40
60.79175676209487
 50
343.54722053947239
 51
359.72879652185469
1001
ACDBBLOCKREPETAG
1070
     1
1071
       40
1005
126853
  0
ARC
  5
126854
  8
OBJECT
 10
2835.1217271212249
 20
-948.59049273883636
 30
0.0
 40
110.8663522830916
 50
324.16342741930481
 51
343.040353804338
1001
ACDBBLOCKREPETAG
1070
     1
1071
       41
1005
126854
  0
LINE
  5
126855
  8
OBJECT
 10
2943.6550800869959
 20
-957.00000000003638
 30
0.0
 11
2943.6550800869959
 21
-964.00000000003286
 31
0.0
1001
ACDBBLOCKREPETAG
1070
     1
1071
       42
1005
126855
  0
LINE
  5
126856
  8
OBJECT
 10
2925.0
 20
-907.50000000006526
 30
0.0
 11
2918.5
 21
-907.50000000006526
 31
0.0
1001
ACDBBLOCKREPETAG
1070
     1
1071
       43
1005
126856
  0
LINE
  5
126857
  8
OBJECT
 10
2925.0
 20
-1013.5
 30
0.0
 11
2915.5
 21
-1013.5
 31
0.0
1001
ACDBBLOCKREPETAG
1070
     1
1071
       44
1005
126857
  0
LINE
  5
126858
  8
OBJECT
 10
2925.0
 20
-1013.5
 30
0.0
 11
2925.0
 21
-1043.0
 31
0.0
1001
ACDBBLOCKREPETAG
1070
     1
1071
        1
1005
12683B
  0
POINT
  5
126859
  8
DOTS
 10
3000.0
 20
-1016.0
 30
0.0
  0
LINE
  5
12685A
  8
OBJECT
 10
2425.0
 20
-770.0
 30
0.0
 11
2425.0
 21
-1043.0
 31
0.0
1001
ACDBBLOCKREPETAG
1070
     1
1071
        1
1005
12685A
  0
LINE
  5
12685B
  8
OBJECT
 10
2575.0
 20
-769.9999999999942
 30
0.0
 11
2575.0
 21
-1043.0
 31
0.0
1001
ACDBBLOCKREPETAG
1070
     1
1071
        3
1005
12685B
  0
LINE
  5
12685C
  8
CENTER
 10
2500.0
 20
-770.0
 30
0.0
 11
2500.0
 21
-1055.0
 31
0.0
1001
ACDBBLOCKREPETAG
1070
     1
1071
        6
1005
12685C
  0
LINE
  5
12685D
  8
OBJECT
 10
2420.0
 20
-1055.0
 30
0.0
 11
2580.0
 21
-1055.0
 31
0.0
1001
ACDBBLOCKREPETAG
1070
     1
1071
        7
1005
12685D
  0
LINE
  5
12685E
  8
OBJECT
 10
2420.0
 20
-1043.0
 30
0.0
 11
2580.0
 21
-1043.0
 31
0.0
1001
ACDBBLOCKREPETAG
1070
     1
1071
        8
1005
12685E
  0
LINE
  5
12685F
  8
OBJECT
 10
2420.0
 20
-1043.0
 30
0.0
 11
2420.0
 21
-1055.0
 31
0.0
1001
ACDBBLOCKREPETAG
1070
     1
1071
        9
1005
12685F
  0
LINE
  5
126860
  8
OBJECT
 10
2580.0
 20
-1043.0
 30
0.0
 11
2580.0
 21
-1055.0
 31
0.0
1001
ACDBBLOCKREPETAG
1070
     1
1071
       10
1005
126860
  0
CIRCLE
  5
126861
  8
OBJECT
 10
2500.0
 20
-964.0
 30
0.0
 40
35.5
1001
ACDBBLOCKREPETAG
1070
     1
1071
       11
1005
126861
  0
LINE
  5
126862
  8
CENTER
 10
2430.0
 20
-964.0
 30
0.0
 11
2570.0
 21
-964.0
 31
0.0
1001
ACDBBLOCKREPETAG
1070
     1
1071
       12
1005
126862
  0
CIRCLE
  5
126863
  8
OBJECT
 10
2500.0
 20
-964.0
 30
0.0
 40
47.0
1001
ACDBBLOCKREPETAG
1070
     1
1071
       14
1005
126863
  0
ARC
  5
126864
  8
OBJECT
 10
2500.0
 20
-964.0
 30
0.0
 40
55.0
 50
289.0112652600846
 51
250.98873473991529
1001
ACDBBLOCKREPETAG
1070
     1
1071
       15
1005
126864
  0
LINE
  5
126865
  8
OBJECT
 10
2482.0835271328328
 20
-1016.0
 30
0.0
 11
2517.9164728671681
 21
-1016.0
 31
0.0
1001
ACDBBLOCKREPETAG
1070
     1
1071
       16
1005
126865
  0
POINT
  5
126866
  8
DOTS
 10
2500.0
 20
-1016.0
 30
0.0
  0
LINE
  5
126867
  8
DIM
 10
2665.0
 20
-696.0
 30
0.0
 11
2719.4245816727562
 21
-696.0
 31
0.0
  0
LINE
  5
126868
  8
DIM
 10
2527.916472867169
 20
-1016.0
 30
0.0
 11
2719.4245816727562
 21
-1016.0
 31
0.0
  0
LINE
  5
126869
  8
DIM
 10
2709.4245816727562
 20
-716.0
 30
0.0
 11
2709.4245816727562
 21
-996.0
 31
0.0
  0
INSERT
  5
12686A
  8
DIM
  2
_OPEN30
 10
2709.4245816727562
 20
-696.0
 30
0.0
 41
20.0
 42
20.0
 43
20.0
 50
90.0
  0
INSERT
  5
12686B
  8
DIM
  2
_OPEN30
 10
2709.4245816727562
 20
-1016.0
 30
0.0
 41
20.0
 42
20.0
 43
20.0
 50
270.0
  0
INSERT
  5
12686C
  8
SLIM
  2
*U9
 10
0.0
 20
0.0
 30
0.0
  0
LINE
  5
12686D
  8
CENTER
 10
4977.0
 20
-3805.9999999999968
 30
0.0
 11
4823.0
 21
-3805.9999999999968
 31
0.0
1001
ACDBBLOCKREPETAG
1070
     1
1071
       17
1005
12686D
  0
CIRCLE
  5
12686E
  8
OBJECT
 10
4900.0
 20
-3805.9999999999968
 30
0.0
 40
41.5
1001
ACDBBLOCKREPETAG
1070
     1
1071
       18
1005
12686E
  0
CIRCLE
  5
12686F
  8
OBJECT
 10
4900.0
 20
-3805.9999999999968
 30
0.0
 40
54.0
1001
ACDBBLOCKREPETAG
1070
     1
1071
       19
1005
12686F
  0
ARC
  5
126870
  8
OBJECT
 10
4900.0
 20
-3805.9999999999968
 30
0.0
 40
62.0
 50
287.89655112921122
 51
252.1034488707887
1001
ACDBBLOCKREPETAG
1070
     1
1071
       20
1005
126870
  0
LINE
  5
126871
  8
OBJECT
 10
4880.947441116743
 20
-3864.9999999999968
 30
0.0
 11
4919.052558883257
 21
-3864.9999999999968
 31
0.0
1001
ACDBBLOCKREPETAG
1070
     1
1071
       21
1005
126871
  0
POINT
  5
126872
  8
DOTS
 10
4900.0
 20
-3864.9999999999968
 30
0.0
1001
ACDBBLOCKREPETAG
1070
     1
1071
       23
1005
126872
  0
LINE
  5
126873
  8
OBJECT
 10
4633.0
 20
-3743.9999999999959
 30
0.0
 11
4640.0
 21
-3743.9999999999959
 31
0.0
1001
ACDBBLOCKREPETAG
1070
     1
1071
       46
1005
126873
  0
LINE
  5
126874
  8
OBJECT
 10
4640.0
 20
-3743.9999999999959
 30
0.0
 11
4640.0
 21
-3864.9999999999968
 31
0.0
1001
ACDBBLOCKREPETAG
1070
     1
1071
       47
1005
126874
  0
LINE
  5
126875
  8
OBJECT
 10
4633.0
 20
-3864.9999999999968
 30
0.0
 11
4633.0
 21
-3743.9999999999959
 31
0.0
1001
ACDBBLOCKREPETAG
1070
     1
1071
       48
1005
126875
  0
LINE
  5
126876
  8
CENTER
 10
4655.0
 20
-3805.9999999999968
 30
0.0
 11
4541.3449199130037
 21
-3806.0000000000618
 31
0.0
1001
ACDBBLOCKREPETAG
1070
     1
1071
       49
1005
126876
  0
LINE
  5
126877
  8
OBJECT
 10
4633.0
 20
-3746.9999999999959
 30
0.0
 11
4597.0
 21
-3746.9999999999959
 31
0.0
1001
ACDBBLOCKREPETAG
1070
     1
1071
       50
1005
126877
  0
LINE
  5
126878
  8
OBJECT
 10
4597.0
 20
-3746.9999999999959
 30
0.0
 11
4597.0
 21
-3864.9999999999968
 31
0.0
1001
ACDBBLOCKREPETAG
1070
     1
1071
       51
1005
126878
  0
LINE
  5
126879
  8
OBJECT
 10
4597.0
 20
-3864.9999999999968
 30
0.0
 11
4640.0
 21
-3864.9999999999968
 31
0.0
1001
ACDBBLOCKREPETAG
1070
     1
1071
       52
1005
126879
  0
LINE
  5
12687A
  8
OBJECT
 10
4593.0
 20
-3751.4999999999959
 30
0.0
 11
4582.5
 21
-3751.4999999999959
 31
0.0
1001
ACDBBLOCKREPETAG
1070
     1
1071
       53
1005
12687A
  0
LINE
  5
12687B
  8
OBJECT
 10
4582.5
 20
-3860.4999999999959
 30
0.0
 11
4593.0
 21
-3860.4999999999959
 31
0.0
1001
ACDBBLOCKREPETAG
1070
     1
1071
       54
1005
12687B
  0
LINE
  5
12687C
  8
OBJECT
 10
4593.0
 20
-3860.4999999999959
 30
0.0
 11
4593.0
 21
-3751.4999999999959
 31
0.0
1001
ACDBBLOCKREPETAG
1070
     1
1071
       55
1005
12687C
  0
LINE
  5
12687D
  8
OBJECT
 10
4597.0
 20
-3746.9999999999959
 30
0.0
 11
4593.0
 21
-3751.4999999999959
 31
0.0
1001
ACDBBLOCKREPETAG
1070
     1
1071
       56
1005
12687D
  0
LINE
  5
12687E
  8
OBJECT
 10
4597.0
 20
-3864.9999999999968
 30
0.0
 11
4593.0
 21
-3860.4999999999959
 31
0.0
1001
ACDBBLOCKREPETAG
1070
     1
1071
       57
1005
12687E
  0
LINE
  5
12687F
  8
HIDDEN
 10
4588.0
 20
-3761.4999999999968
 30
0.0
 11
4588.0
 21
-3850.4999999999968
 31
0.0
1001
ACDBBLOCKREPETAG
1070
     1
1071
       58
1005
12687F
  0
ARC
  5
126880
  8
OBJECT
 10
4664.8782728787719
 20
-3821.4095072612249
 30
0.0
 40
110.86635228309
 50
144.16342741928889
 51
163.04035380433939
1001
ACDBBLOCKREPETAG
1070
     1
1071
       59
1005
126880
  0
ARC
  5
126881
  8
OBJECT
 10
4617.1359887769049
 20
-3806.287749718445
 30
0.0
 40
60.791749880358971
 50
163.54720465221931
 51
179.72879698282651
1001
ACDBBLOCKREPETAG
1070
     1
1071
       60
1005
126881
  0
ARC
  5
126882
  8
OBJECT
 10
4617.1359956562483
 20
-3812.7122497598971
 30
0.0
 40
60.79175676209487
 50
180.2712034781452
 51
196.4527794605265
1001
ACDBBLOCKREPETAG
1070
     1
1071
       61
1005
126882
  0
ARC
  5
126883
  8
OBJECT
 10
4664.8782728787719
 20
-3797.5904927388328
 30
0.0
 40
110.8663522830916
 50
196.9596461956605
 51
215.83657258071111
1001
ACDBBLOCKREPETAG
1070
     1
1071
       62
1005
126883
  0
LINE
  5
126884
  8
OBJECT
 10
4556.3449199130037
 20
-3806.0000000000332
 30
0.0
 11
4556.3449199130037
 21
-3813.0000000000291
 31
0.0
1001
ACDBBLOCKREPETAG
1070
     1
1071
       63
1005
126884
  0
LINE
  5
126885
  8
OBJECT
 10
4574.9999999998336
 20
-3756.500000000291
 30
0.0
 11
4577.4999999998363
 21
-3756.500000000291
 31
0.0
1001
ACDBBLOCKREPETAG
1070
     1
1071
       65
1005
126885
  0
LINE
  5
126886
  8
OBJECT
 10
4574.9999999998327
 20
-3862.4999999997672
 30
0.0
 11
4579.4999999998308
 21
-3862.4999999997672
 31
0.0
1001
ACDBBLOCKREPETAG
1070
     1
1071
       66
1005
126886
  0
LINE
  5
126887
  8
OBJECT
 10
4579.4999999998308
 20
-3862.4999999997672
 30
0.0
 11
4577.4999999998363
 21
-3756.500000000291
 31
0.0
1001
ACDBBLOCKREPETAG
1070
     1
1071
       67
1005
126887
  0
LINE
  5
126888
  8
OBJECT
 10
4579.4999999998308
 20
-3862.4999999997672
 30
0.0
 11
4582.5
 21
-3860.4999999999959
 31
0.0
1001
ACDBBLOCKREPETAG
1070
     1
1071
       68
1005
126888
  0
LINE
  5
126889
  8
OBJECT
 10
4582.5
 20
-3860.4999999999959
 30
0.0
 11
4582.5
 21
-3751.4999999999959
 31
0.0
1001
ACDBBLOCKREPETAG
1070
     1
1071
       69
1005
126889
  0
LINE
  5
12688A
  8
OBJECT
 10
4582.5
 20
-3751.4999999999959
 30
0.0
 11
4577.4999999998363
 21
-3756.500000000291
 31
0.0
1001
ACDBBLOCKREPETAG
1070
     1
1071
       70
1005
12688A
  0
LINE
  5
12688B
  8
OBJECT
 10
4633.0000000000009
 20
-3397.9999999999959
 30
0.0
 11
4640.0000000000018
 21
-3397.9999999999959
 31
0.0
1001
ACDBBLOCKREPETAG
1070
     1
1071
       38
1005
12688B
  0
LINE
  5
12688C
  8
OBJECT
 10
4640.0000000000018
 20
-3397.9999999999959
 30
0.0
 11
4640.0
 21
-3521.9999999999968
 31
0.0
1001
ACDBBLOCKREPETAG
1070
     1
1071
       39
1005
12688C
  0
LINE
  5
12688D
  8
OBJECT
 10
4640.0
 20
-3521.9999999999968
 30
0.0
 11
4633.0
 21
-3521.9999999999968
 31
0.0
1001
ACDBBLOCKREPETAG
1070
     1
1071
       40
1005
12688D
  0
LINE
  5
12688E
  8
OBJECT
 10
4633.0
 20
-3521.9999999999968
 30
0.0
 11
4633.0000000000009
 21
-3397.9999999999959
 31
0.0
1001
ACDBBLOCKREPETAG
1070
     1
1071
       41
1005
12688E
  0
LINE
  5
12688F
  8
CENTER
 10
4655.0
 20
-3459.9999999999968
 30
0.0
 11
4580.0
 21
-3459.9999999999968
 31
0.0
1001
ACDBBLOCKREPETAG
1070
     1
1071
       42
1005
12688F
  0
LINE
  5
126890
  8
OBJECT
 10
4633.0000000000009
 20
-3400.9999999999959
 30
0.0
 11
4597.0000000000018
 21
-3400.9999999999959
 31
0.0
1001
ACDBBLOCKREPETAG
1070
     1
1071
       43
1005
126890
  0
LINE
  5
126891
  8
OBJECT
 10
4597.0000000000018
 20
-3400.9999999999959
 30
0.0
 11
4597.0
 21
-3518.9999999999968
 31
0.0
1001
ACDBBLOCKREPETAG
1070
     1
1071
       44
1005
126891
  0
LINE
  5
126892
  8
OBJECT
 10
4597.0
 20
-3518.9999999999968
 30
0.0
 11
4633.0
 21
-3518.9999999999968
 31
0.0
1001
ACDBBLOCKREPETAG
1070
     1
1071
       45
1005
126892
  0
LINE
  5
126893
  8
OBJECT
 10
4593.0000000000018
 20
-3405.4999999999959
 30
0.0
 11
4582.5000000000018
 21
-3405.4999999999959
 31
0.0
1001
ACDBBLOCKREPETAG
1070
     1
1071
       46
1005
126893
  0
LINE
  5
126894
  8
OBJECT
 10
4582.5
 20
-3514.4999999999968
 30
0.0
 11
4593.0
 21
-3514.4999999999968
 31
0.0
1001
ACDBBLOCKREPETAG
1070
     1
1071
       47
1005
126894
  0
LINE
  5
126895
  8
OBJECT
 10
4593.0
 20
-3514.4999999999968
 30
0.0
 11
4593.0000000000018
 21
-3405.4999999999959
 31
0.0
1001
ACDBBLOCKREPETAG
1070
     1
1071
       48
1005
126895
  0
LINE
  5
126896
  8
OBJECT
 10
4597.0000000000018
 20
-3400.9999999999959
 30
0.0
 11
4593.0000000000018
 21
-3405.4999999999959
 31
0.0
1001
ACDBBLOCKREPETAG
1070
     1
1071
       49
1005
126896
  0
LINE
  5
126897
  8
OBJECT
 10
4597.0
 20
-3518.9999999999968
 30
0.0
 11
4593.0
 21
-3514.4999999999968
 31
0.0
1001
ACDBBLOCKREPETAG
1070
     1
1071
       50
1005
126897
  0
LINE
  5
126898
  8
HIDDEN
 10
4588.0
 20
-3415.4999999999968
 30
0.0
 11
4588.0
 21
-3504.4999999999968
 31
0.0
1001
ACDBBLOCKREPETAG
1070
     1
1071
       51
1005
126898
  0
LINE
  5
126899
  8
OBJECT
 10
4577.5000000000018
 20
-3410.4999999999959
 30
0.0
 11
4556.3449199129791
 21
-3410.4999999999959
 31
0.0
1001
ACDBBLOCKREPETAG
1070
     1
1071
       52
1005
126899
  0
LINE
  5
12689A
  8
OBJECT
 10
4577.4999999999991
 20
-3509.4999999999959
 30
0.0
 11
4556.3449199129791
 21
-3509.4999999999959
 31
0.0
1001
ACDBBLOCKREPETAG
1070
     1
1071
       53
1005
12689A
  0
LINE
  5
12689B
  8
OBJECT
 10
4582.5000000000018
 20
-3405.4999999999959
 30
0.0
 11
4582.5
 21
-3514.4999999999968
 31
0.0
1001
ACDBBLOCKREPETAG
1070
     1
1071
       54
1005
12689B
  0
LINE
  5
12689C
  8
OBJECT
 10
4577.5000000000018
 20
-3410.4999999999959
 30
0.0
 11
4577.4999999999991
 21
-3509.4999999999959
 31
0.0
1001
ACDBBLOCKREPETAG
1070
     1
1071
       55
1005
12689C
  0
LINE
  5
12689D
  8
OBJECT
 10
4582.5000000000018
 20
-3405.4999999999959
 30
0.0
 11
4577.5000000000018
 21
-3410.4999999999959
 31
0.0
1001
ACDBBLOCKREPETAG
1070
     1
1071
       56
1005
12689D
  0
LINE
  5
12689E
  8
OBJECT
 10
4577.4999999999991
 20
-3509.4999999999959
 30
0.0
 11
4582.5
 21
-3514.4999999999932
 31
0.0
1001
ACDBBLOCKREPETAG
1070
     1
1071
       57
1005
12689E
  0
CIRCLE
  5
12689F
  8
OBJECT
 10
3900.0
 20
-3812.9999999999968
 30
0.0
 40
35.5
1001
ACDBBLOCKREPETAG
1070
     1
1071
       11
1005
12689F
  0
LINE
  5
1268A0
  8
CENTER
 10
3830.0
 20
-3812.9999999999968
 30
0.0
 11
3970.0
 21
-3812.9999999999968
 31
0.0
1001
ACDBBLOCKREPETAG
1070
     1
1071
       12
1005
1268A0
  0
CIRCLE
  5
1268A1
  8
OBJECT
 10
3900.0
 20
-3812.9999999999968
 30
0.0
 40
47.0
1001
ACDBBLOCKREPETAG
1070
     1
1071
       14
1005
1268A1
  0
ARC
  5
1268A2
  8
OBJECT
 10
3900.0
 20
-3812.9999999999968
 30
0.0
 40
55.0
 50
289.01126526008892
 51
250.98873473991111
1001
ACDBBLOCKREPETAG
1070
     1
1071
       15
1005
1268A2
  0
LINE
  5
1268A3
  8
OBJECT
 10
3882.0835271328319
 20
-3864.9999999999968
 30
0.0
 11
3917.9164728671672
 21
-3864.9999999999968
 31
0.0
1001
ACDBBLOCKREPETAG
1070
     1
1071
       16
1005
1268A3
  0
POINT
  5
1268A4
  8
DOTS
 10
3900.0
 20
-3864.9999999999968
 30
0.0
1001
ACDBBLOCKREPETAG
1070
     1
1071
       24
1005
1268A4
  0
LINE
  5
1268A5
  8
OBJECT
 10
3633.0
 20
-3757.9999999999959
 30
0.0
 11
3640.0
 21
-3757.9999999999959
 31
0.0
1001
ACDBBLOCKREPETAG
1070
     1
1071
       23
1005
1268A5
  0
LINE
  5
1268A6
  8
OBJECT
 10
3640.0
 20
-3757.9999999999959
 30
0.0
 11
3640.0
 21
-3864.9999999999968
 31
0.0
1001
ACDBBLOCKREPETAG
1070
     1
1071
       24
1005
1268A6
  0
LINE
  5
1268A7
  8
OBJECT
 10
3584.5
 20
-3759.5000000000618
 30
0.0
 11
3584.5
 21
-3862.4999999999968
 31
0.0
1001
ACDBBLOCKREPETAG
1070
     1
1071
       25
1005
1268A7
  0
ARC
  5
1268A8
  8
OBJECT
 10
3581.5
 20
-3759.5000000000618
 30
0.0
 40
3.0
 50
0.0
 51
90.0
1001
ACDBBLOCKREPETAG
1070
     1
1071
       26
1005
1268A8
  0
LINE
  5
1268A9
  8
OBJECT
 10
3633.0
 20
-3864.9999999999968
 30
0.0
 11
3633.0
 21
-3757.9999999999959
 31
0.0
1001
ACDBBLOCKREPETAG
1070
     1
1071
       27
1005
1268A9
  0
LINE
  5
1268AA
  8
CENTER
 10
3655.0
 20
-3812.9999999999968
 30
0.0
 11
3541.3449199130041
 21
-3813.0000000000618
 31
0.0
1001
ACDBBLOCKREPETAG
1070
     1
1071
       28
1005
1268AA
  0
LINE
  5
1268AB
  8
OBJECT
 10
3633.0
 20
-3760.9999999999968
 30
0.0
 11
3597.0
 21
-3760.9999999999968
 31
0.0
1001
ACDBBLOCKREPETAG
1070
     1
1071
       29
1005
1268AB
  0
LINE
  5
1268AC
  8
OBJECT
 10
3597.0
 20
-3760.9999999999968
 30
0.0
 11
3597.0
 21
-3864.9999999999968
 31
0.0
1001
ACDBBLOCKREPETAG
1070
     1
1071
       30
1005
1268AC
  0
LINE
  5
1268AD
  8
OBJECT
 10
3597.0
 20
-3864.9999999999968
 30
0.0
 11
3640.0
 21
-3864.9999999999968
 31
0.0
1001
ACDBBLOCKREPETAG
1070
     1
1071
       31
1005
1268AD
  0
LINE
  5
1268AE
  8
OBJECT
 10
3593.0
 20
-3765.4999999999968
 30
0.0
 11
3584.5
 21
-3765.4999999999968
 31
0.0
1001
ACDBBLOCKREPETAG
1070
     1
1071
       32
1005
1268AE
  0
LINE
  5
1268AF
  8
OBJECT
 10
3584.5
 20
-3860.4999999999959
 30
0.0
 11
3593.0
 21
-3860.4999999999959
 31
0.0
1001
ACDBBLOCKREPETAG
1070
     1
1071
       33
1005
1268AF
  0
LINE
  5
1268B0
  8
OBJECT
 10
3593.0
 20
-3860.4999999999959
 30
0.0
 11
3593.0
 21
-3765.4999999999968
 31
0.0
1001
ACDBBLOCKREPETAG
1070
     1
1071
       34
1005
1268B0
  0
LINE
  5
1268B1
  8
OBJECT
 10
3597.0
 20
-3760.9999999999968
 30
0.0
 11
3593.0
 21
-3765.4999999999968
 31
0.0
1001
ACDBBLOCKREPETAG
1070
     1
1071
       35
1005
1268B1
  0
LINE
  5
1268B2
  8
OBJECT
 10
3597.0
 20
-3864.9999999999968
 30
0.0
 11
3593.0
 21
-3860.4999999999959
 31
0.0
1001
ACDBBLOCKREPETAG
1070
     1
1071
       36
1005
1268B2
  0
LINE
  5
1268B3
  8
HIDDEN
 10
3588.0
 20
-3774.9999999999968
 30
0.0
 11
3588.0
 21
-3850.9999999999959
 31
0.0
1001
ACDBBLOCKREPETAG
1070
     1
1071
       37
1005
1268B3
  0
ARC
  5
1268B4
  8
OBJECT
 10
3664.8782728787742
 20
-3821.4095072612249
 30
0.0
 40
110.86635228309
 50
144.16342741928889
 51
163.04035380433169
1001
ACDBBLOCKREPETAG
1070
     1
1071
       38
1005
1268B4
  0
ARC
  5
1268B5
  8
OBJECT
 10
3617.1359887769072
 20
-3806.287749718445
 30
0.0
 40
60.791749880358971
 50
163.5472046522267
 51
179.72879698282679
1001
ACDBBLOCKREPETAG
1070
     1
1071
       39
1005
1268B5
  0
ARC
  5
1268B6
  8
OBJECT
 10
3617.1359956562478
 20
-3812.7122497598971
 30
0.0
 40
60.79175676209487
 50
180.2712034781452
 51
196.4527794605338
1001
ACDBBLOCKREPETAG
1070
     1
1071
       40
1005
1268B6
  0
ARC
  5
1268B7
  8
OBJECT
 10
3664.8782728787742
 20
-3797.5904927388328
 30
0.0
 40
110.8663522830916
 50
196.95964619566811
 51
215.83657258071111
1001
ACDBBLOCKREPETAG
1070
     1
1071
       41
1005
1268B7
  0
LINE
  5
1268B8
  8
OBJECT
 10
3556.3449199130041
 20
-3806.0000000000332
 30
0.0
 11
3556.3449199130041
 21
-3813.0000000000291
 31
0.0
1001
ACDBBLOCKREPETAG
1070
     1
1071
       42
1005
1268B8
  0
LINE
  5
1268B9
  8
OBJECT
 10
3574.9999999999991
 20
-3756.5000000000618
 30
0.0
 11
3581.5
 21
-3756.5000000000618
 31
0.0
1001
ACDBBLOCKREPETAG
1070
     1
1071
       43
1005
1268B9
  0
LINE
  5
1268BA
  8
OBJECT
 10
3574.9999999999991
 20
-3862.4999999999968
 30
0.0
 11
3584.5
 21
-3862.4999999999968
 31
0.0
1001
ACDBBLOCKREPETAG
1070
     1
1071
       44
1005
1268BA
  0
LINE
  5
1268BB
  8
OBJECT
 10
3633.0
 20
-3404.9999999999959
 30
0.0
 11
3640.0
 21
-3404.9999999999959
 31
0.0
1001
ACDBBLOCKREPETAG
1070
     1
1071
       20
1005
1268BB
  0
LINE
  5
1268BC
  8
OBJECT
 10
3640.0
 20
-3404.9999999999959
 30
0.0
 11
3640.0
 21
-3514.9999999999968
 31
0.0
1001
ACDBBLOCKREPETAG
1070
     1
1071
       21
1005
1268BC
  0
LINE
  5
1268BD
  8
OBJECT
 10
3640.0
 20
-3514.9999999999968
 30
0.0
 11
3633.0
 21
-3514.9999999999968
 31
0.0
1001
ACDBBLOCKREPETAG
1070
     1
1071
       22
1005
1268BD
  0
LINE
  5
1268BE
  8
OBJECT
 10
3633.0
 20
-3514.9999999999968
 30
0.0
 11
3633.0
 21
-3404.9999999999959
 31
0.0
1001
ACDBBLOCKREPETAG
1070
     1
1071
       23
1005
1268BE
  0
LINE
  5
1268BF
  8
CENTER
 10
3655.0
 20
-3459.9999999999968
 30
0.0
 11
3580.0
 21
-3459.9999999999968
 31
0.0
1001
ACDBBLOCKREPETAG
1070
     1
1071
       24
1005
1268BF
  0
LINE
  5
1268C0
  8
OBJECT
 10
3633.0
 20
-3407.9999999999959
 30
0.0
 11
3597.0
 21
-3407.9999999999959
 31
0.0
1001
ACDBBLOCKREPETAG
1070
     1
1071
       25
1005
1268C0
  0
LINE
  5
1268C1
  8
OBJECT
 10
3597.0
 20
-3407.9999999999959
 30
0.0
 11
3597.0
 21
-3511.9999999999959
 31
0.0
1001
ACDBBLOCKREPETAG
1070
     1
1071
       26
1005
1268C1
  0
LINE
  5
1268C2
  8
OBJECT
 10
3597.0
 20
-3511.9999999999959
 30
0.0
 11
3633.0
 21
-3511.9999999999959
 31
0.0
1001
ACDBBLOCKREPETAG
1070
     1
1071
       27
1005
1268C2
  0
LINE
  5
1268C3
  8
OBJECT
 10
3593.0
 20
-3412.4999999999959
 30
0.0
 11
3584.5
 21
-3412.4999999999959
 31
0.0
1001
ACDBBLOCKREPETAG
1070
     1
1071
       28
1005
1268C3
  0
LINE
  5
1268C4
  8
OBJECT
 10
3584.5
 20
-3507.4999999999968
 30
0.0
 11
3593.0
 21
-3507.4999999999968
 31
0.0
1001
ACDBBLOCKREPETAG
1070
     1
1071
       29
1005
1268C4
  0
LINE
  5
1268C5
  8
OBJECT
 10
3593.0
 20
-3507.4999999999968
 30
0.0
 11
3593.0
 21
-3412.4999999999959
 31
0.0
1001
ACDBBLOCKREPETAG
1070
     1
1071
       30
1005
1268C5
  0
LINE
  5
1268C6
  8
OBJECT
 10
3597.0
 20
-3407.9999999999959
 30
0.0
 11
3593.0
 21
-3412.4999999999959
 31
0.0
1001
ACDBBLOCKREPETAG
1070
     1
1071
       31
1005
1268C6
  0
LINE
  5
1268C7
  8
OBJECT
 10
3597.0
 20
-3511.9999999999959
 30
0.0
 11
3593.0
 21
-3507.4999999999968
 31
0.0
1001
ACDBBLOCKREPETAG
1070
     1
1071
       32
1005
1268C7
  0
LINE
  5
1268C8
  8
OBJECT
 10
3584.4999999999982
 20
-3509.4999999999959
 30
0.0
 11
3584.5
 21
-3410.4999999999959
 31
0.0
1001
ACDBBLOCKREPETAG
1070
     1
1071
       33
1005
1268C8
  0
LINE
  5
1268C9
  8
HIDDEN
 10
3588.0
 20
-3421.9999999999968
 30
0.0
 11
3588.0
 21
-3497.9999999999959
 31
0.0
1001
ACDBBLOCKREPETAG
1070
     1
1071
       34
1005
1268C9
  0
LINE
  5
1268CA
  8
OBJECT
 10
3584.5
 20
-3410.4999999999959
 30
0.0
 11
3556.3449199129791
 21
-3410.4999999999959
 31
0.0
1001
ACDBBLOCKREPETAG
1070
     1
1071
       35
1005
1268CA
  0
LINE
  5
1268CB
  8
OBJECT
 10
3584.4999999999982
 20
-3509.4999999999959
 30
0.0
 11
3556.3449199129791
 21
-3509.4999999999959
 31
0.0
1001
ACDBBLOCKREPETAG
1070
     1
1071
       36
1005
1268CB
  0
LINE
  5
1268CC
  8
CENTER
 10
2838.0
 20
-3820.9999999999968
 30
0.0
 11
2962.0
 21
-3820.9999999999968
 31
0.0
1001
ACDBBLOCKREPETAG
1070
     1
1071
        0
1005
1268CC
  0
CIRCLE
  5
1268CD
  8
OBJECT
 10
2900.0
 20
-3820.9999999999968
 30
0.0
 40
28.0
1001
ACDBBLOCKREPETAG
1070
     1
1071
        2
1005
1268CD
  0
CIRCLE
  5
1268CE
  8
OBJECT
 10
2900.0
 20
-3820.9999999999968
 30
0.0
 40
39.0
1001
ACDBBLOCKREPETAG
1070
     1
1071
        3
1005
1268CE
  0
ARC
  5
1268CF
  8
OBJECT
 10
2900.0
 20
-3820.9999999999968
 30
0.0
 40
47.0
 50
290.58196921144412
 51
249.41803078855591
1001
ACDBBLOCKREPETAG
1070
     1
1071
        4
1005
1268CF
  0
LINE
  5
1268D0
  8
OBJECT
 10
2883.4772883581418
 20
-3864.9999999999968
 30
0.0
 11
2916.5227116418569
 21
-3864.9999999999968
 31
0.0
1001
ACDBBLOCKREPETAG
1070
     1
1071
        5
1005
1268D0
  0
ARC
  5
1268D1
  8
OBJECT
 10
2900.0
 20
-3805.9999999999932
 30
0.0
 40
49.5
 50
0.0
 51
180.0
1001
ACDBBLOCKREPETAG
1070
     1
1071
        6
1005
1268D1
  0
LINE
  5
1268D2
  8
OBJECT
 10
2850.5000000000032
 20
-3805.9999999999932
 30
0.0
 11
2850.5000000000032
 21
-3812.9999999999968
 31
0.0
1001
ACDBBLOCKREPETAG
1070
     1
1071
        7
1005
1268D2
  0
LINE
  5
1268D3
  8
OBJECT
 10
2949.5000000000068
 20
-3805.9999999999932
 30
0.0
 11
2949.5000000000068
 21
-3812.9999999999968
 31
0.0
1001
ACDBBLOCKREPETAG
1070
     1
1071
        8
1005
1268D3
  0
ARC
  5
1268D4
  8
OBJECT
 10
2900.0
 20
-3812.9999999999968
 30
0.0
 40
49.5
 50
180.0
 51
202.66956385104879
1001
ACDBBLOCKREPETAG
1070
     1
1071
        9
1005
1268D4
  0
ARC
  5
1268D5
  8
OBJECT
 10
2900.0
 20
-3812.9999999999968
 30
0.0
 40
49.5
 50
337.33043614895121
 51
0.0
1001
ACDBBLOCKREPETAG
1070
     1
1071
       10
1005
1268D5
  0
POINT
  5
1268D6
  8
DOTS
 10
2900.0
 20
-3864.9999999999968
 30
0.0
1001
ACDBBLOCKREPETAG
1070
     1
1071
       25
1005
1268D6
  0
LINE
  5
1268D7
  8
OBJECT
 10
2633.0
 20
-3773.9999999999968
 30
0.0
 11
2640.0
 21
-3773.9999999999968
 31
0.0
1001
ACDBBLOCKREPETAG
1070
     1
1071
        0
1005
1268D7
  0
LINE
  5
1268D8
  8
OBJECT
 10
2640.0
 20
-3773.9999999999968
 30
0.0
 11
2640.0
 21
-3864.9999999999968
 31
0.0
1001
ACDBBLOCKREPETAG
1070
     1
1071
        1
1005
1268D8
  0
LINE
  5
1268D9
  8
OBJECT
 10
2584.5
 20
-3759.5000000000618
 30
0.0
 11
2584.5
 21
-3862.4999999999968
 31
0.0
1001
ACDBBLOCKREPETAG
1070
     1
1071
        2
1005
1268D9
  0
ARC
  5
1268DA
  8
OBJECT
 10
2581.5
 20
-3759.5000000000618
 30
0.0
 40
3.0
 50
0.0
 51
90.0
1001
ACDBBLOCKREPETAG
1070
     1
1071
        3
1005
1268DA
  0
LINE
  5
1268DB
  8
OBJECT
 10
2633.0
 20
-3864.9999999999968
 30
0.0
 11
2633.0
 21
-3773.9999999999968
 31
0.0
1001
ACDBBLOCKREPETAG
1070
     1
1071
        4
1005
1268DB
  0
LINE
  5
1268DC
  8
CENTER
 10
2655.0
 20
-3820.9999999999968
 30
0.0
 11
2541.911823713584
 21
-3820.9999999999968
 31
0.0
1001
ACDBBLOCKREPETAG
1070
     1
1071
        5
1005
1268DC
  0
LINE
  5
1268DD
  8
OBJECT
 10
2633.0
 20
-3776.9999999999968
 30
0.0
 11
2596.9999999999991
 21
-3776.9999999999968
 31
0.0
1001
ACDBBLOCKREPETAG
1070
     1
1071
        6
1005
1268DD
  0
LINE
  5
1268DE
  8
OBJECT
 10
2596.9999999999991
 20
-3776.9999999999968
 30
0.0
 11
2596.9999999999991
 21
-3864.9999999999968
 31
0.0
1001
ACDBBLOCKREPETAG
1070
     1
1071
        7
1005
1268DE
  0
LINE
  5
1268DF
  8
OBJECT
 10
2596.9999999999991
 20
-3864.9999999999968
 30
0.0
 11
2640.0
 21
-3864.9999999999968
 31
0.0
1001
ACDBBLOCKREPETAG
1070
     1
1071
        8
1005
1268DF
  0
LINE
  5
1268E0
  8
OBJECT
 10
2593.0
 20
-3781.4999999999959
 30
0.0
 11
2584.5
 21
-3781.4999999999959
 31
0.0
1001
ACDBBLOCKREPETAG
1070
     1
1071
        9
1005
1268E0
  0
LINE
  5
1268E1
  8
OBJECT
 10
2584.5
 20
-3860.4999999999959
 30
0.0
 11
2593.0
 21
-3860.4999999999959
 31
0.0
1001
ACDBBLOCKREPETAG
1070
     1
1071
       10
1005
1268E1
  0
LINE
  5
1268E2
  8
OBJECT
 10
2593.0
 20
-3860.4999999999959
 30
0.0
 11
2593.0
 21
-3781.4999999999959
 31
0.0
1001
ACDBBLOCKREPETAG
1070
     1
1071
       11
1005
1268E2
  0
LINE
  5
1268E3
  8
OBJECT
 10
2596.9999999999991
 20
-3776.9999999999968
 30
0.0
 11
2593.0
 21
-3781.4999999999959
 31
0.0
1001
ACDBBLOCKREPETAG
1070
     1
1071
       12
1005
1268E3
  0
LINE
  5
1268E4
  8
OBJECT
 10
2596.9999999999991
 20
-3864.9999999999968
 30
0.0
 11
2593.0
 21
-3860.4999999999959
 31
0.0
1001
ACDBBLOCKREPETAG
1070
     1
1071
       13
1005
1268E4
  0
LINE
  5
1268E5
  8
HIDDEN
 10
2588.0
 20
-3790.9999999999959
 30
0.0
 11
2588.0
 21
-3850.9999999999959
 31
0.0
1001
ACDBBLOCKREPETAG
1070
     1
1071
       14
1005
1268E5
  0
ARC
  5
1268E6
  8
OBJECT
 10
2664.8782728787751
 20
-3821.4095072612249
 30
0.0
 40
110.86635228309
 50
144.1634274191434
 51
163.04035380433169
1001
ACDBBLOCKREPETAG
1070
     1
1071
       15
1005
1268E6
  0
ARC
  5
1268E7
  8
OBJECT
 10
2617.1359887769072
 20
-3806.287749718445
 30
0.0
 40
60.791749880358971
 50
163.5472046522267
 51
179.72879698282679
1001
ACDBBLOCKREPETAG
1070
     1
1071
       16
1005
1268E7
  0
ARC
  5
1268E8
  8
OBJECT
 10
2617.1359956562478
 20
-3812.7122497598971
 30
0.0
 40
60.79175676209487
 50
180.2712034781452
 51
196.4527794605338
1001
ACDBBLOCKREPETAG
1070
     1
1071
       17
1005
1268E8
  0
ARC
  5
1268E9
  8
OBJECT
 10
2664.8782728787751
 20
-3797.5904927388328
 30
0.0
 40
110.8663522830916
 50
196.95964619566811
 51
215.8365725808566
1001
ACDBBLOCKREPETAG
1070
     1
1071
       18
1005
1268E9
  0
LINE
  5
1268EA
  8
OBJECT
 10
2556.3449199130041
 20
-3806.0000000000332
 30
0.0
 11
2556.3449199130041
 21
-3813.0000000000291
 31
0.0
1001
ACDBBLOCKREPETAG
1070
     1
1071
       19
1005
1268EA
  0
LINE
  5
1268EB
  8
OBJECT
 10
2575.0
 20
-3756.5000000000618
 30
0.0
 11
2581.5
 21
-3756.5000000000618
 31
0.0
1001
ACDBBLOCKREPETAG
1070
     1
1071
       20
1005
1268EB
  0
LINE
  5
1268EC
  8
OBJECT
 10
2575.0
 20
-3862.4999999999968
 30
0.0
 11
2584.5
 21
-3862.4999999999968
 31
0.0
1001
ACDBBLOCKREPETAG
1070
     1
1071
       21
1005
1268EC
  0
LINE
  5
1268ED
  8
OBJECT
 10
2633.0
 20
-3412.9999999999968
 30
0.0
 11
2640.0
 21
-3412.9999999999968
 31
0.0
1001
ACDBBLOCKREPETAG
1070
     1
1071
        0
1005
1268ED
  0
LINE
  5
1268EE
  8
OBJECT
 10
2640.0
 20
-3412.9999999999968
 30
0.0
 11
2640.0
 21
-3506.9999999999968
 31
0.0
1001
ACDBBLOCKREPETAG
1070
     1
1071
        1
1005
1268EE
  0
LINE
  5
1268EF
  8
OBJECT
 10
2640.0
 20
-3506.9999999999968
 30
0.0
 11
2633.0
 21
-3506.9999999999968
 31
0.0
1001
ACDBBLOCKREPETAG
1070
     1
1071
        2
1005
1268EF
  0
LINE
  5
1268F0
  8
OBJECT
 10
2633.0
 20
-3506.9999999999968
 30
0.0
 11
2633.0
 21
-3412.9999999999968
 31
0.0
1001
ACDBBLOCKREPETAG
1070
     1
1071
        3
1005
1268F0
  0
LINE
  5
1268F1
  8
CENTER
 10
2655.0
 20
-3459.9999999999968
 30
0.0
 11
2580.0
 21
-3459.9999999999968
 31
0.0
1001
ACDBBLOCKREPETAG
1070
     1
1071
        4
1005
1268F1
  0
LINE
  5
1268F2
  8
OBJECT
 10
2633.0
 20
-3415.9999999999959
 30
0.0
 11
2596.9999999999991
 21
-3415.9999999999959
 31
0.0
1001
ACDBBLOCKREPETAG
1070
     1
1071
        5
1005
1268F2
  0
LINE
  5
1268F3
  8
OBJECT
 10
2596.9999999999991
 20
-3415.9999999999959
 30
0.0
 11
2596.9999999999991
 21
-3503.9999999999959
 31
0.0
1001
ACDBBLOCKREPETAG
1070
     1
1071
        6
1005
1268F3
  0
LINE
  5
1268F4
  8
OBJECT
 10
2596.9999999999991
 20
-3503.9999999999959
 30
0.0
 11
2633.0
 21
-3503.9999999999959
 31
0.0
1001
ACDBBLOCKREPETAG
1070
     1
1071
        7
1005
1268F4
  0
LINE
  5
1268F5
  8
OBJECT
 10
2593.0
 20
-3420.4999999999959
 30
0.0
 11
2584.5
 21
-3420.4999999999959
 31
0.0
1001
ACDBBLOCKREPETAG
1070
     1
1071
        8
1005
1268F5
  0
LINE
  5
1268F6
  8
OBJECT
 10
2584.5
 20
-3499.4999999999959
 30
0.0
 11
2593.0
 21
-3499.4999999999959
 31
0.0
1001
ACDBBLOCKREPETAG
1070
     1
1071
        9
1005
1268F6
  0
LINE
  5
1268F7
  8
OBJECT
 10
2593.0
 20
-3499.4999999999959
 30
0.0
 11
2593.0
 21
-3420.4999999999959
 31
0.0
1001
ACDBBLOCKREPETAG
1070
     1
1071
       10
1005
1268F7
  0
LINE
  5
1268F8
  8
OBJECT
 10
2596.9999999999991
 20
-3415.9999999999959
 30
0.0
 11
2593.0
 21
-3420.4999999999959
 31
0.0
1001
ACDBBLOCKREPETAG
1070
     1
1071
       11
1005
1268F8
  0
LINE
  5
1268F9
  8
OBJECT
 10
2596.9999999999991
 20
-3503.9999999999959
 30
0.0
 11
2593.0
 21
-3499.4999999999959
 31
0.0
1001
ACDBBLOCKREPETAG
1070
     1
1071
       12
1005
1268F9
  0
LINE
  5
1268FA
  8
OBJECT
 10
2584.4999999999991
 20
-3506.4999999999959
 30
0.0
 11
2584.5
 21
-3413.4999999999959
 31
0.0
1001
ACDBBLOCKREPETAG
1070
     1
1071
       13
1005
1268FA
  0
ARC
  5
1268FB
  8
OBJECT
 10
2581.5
 20
-3413.4999999999959
 30
0.0
 40
3.0
 50
0.0
 51
90.0
1001
ACDBBLOCKREPETAG
1070
     1
1071
       14
1005
1268FB
  0
LINE
  5
1268FC
  8
HIDDEN
 10
2588.0
 20
-3429.9999999999959
 30
0.0
 11
2588.0
 21
-3489.9999999999968
 31
0.0
1001
ACDBBLOCKREPETAG
1070
     1
1071
       15
1005
1268FC
  0
LINE
  5
1268FD
  8
OBJECT
 10
2581.5
 20
-3410.4999999999959
 30
0.0
 11
2556.3449199129791
 21
-3410.4999999999959
 31
0.0
1001
ACDBBLOCKREPETAG
1070
     1
1071
       17
1005
1268FD
  0
LINE
  5
1268FE
  8
OBJECT
 10
2581.4999999999991
 20
-3509.4999999999959
 30
0.0
 11
2556.3449199129791
 21
-3509.4999999999959
 31
0.0
1001
ACDBBLOCKREPETAG
1070
     1
1071
       18
1005
1268FE
  0
ARC
  5
1268FF
  8
OBJECT
 10
2581.4999999999991
 20
-3506.4999999999959
 30
0.0
 40
3.0
 50
270.0
 51
0.0
1001
ACDBBLOCKREPETAG
1070
     1
1071
       19
1005
1268FF
  0
TEXT
  5
126900
  8
SLIM
 10
2032.5
 20
-1708.999999999998
 30
0.0
 40
28.0
  1
※ 対応P寸法　　190＜200＞～340（10mm単位。＜＞内は下枝75の場合）
 41
0.75
  0
LINE
  5
126901
  8
CENTER
 10
5077.0
 20
-695.99999999999432
 30
0.0
 11
4923.0
 21
-695.99999999999432
 31
0.0
1001
ACDBBLOCKREPETAG
1070
     1
1071
       17
1005
126901
  0
CIRCLE
  5
126902
  8
OBJECT
 10
5000.0
 20
-695.99999999999432
 30
0.0
 40
41.5
1001
ACDBBLOCKREPETAG
1070
     1
1071
       19
1005
126902
  0
CIRCLE
  5
126903
  8
OBJECT
 10
5000.0
 20
-695.99999999999432
 30
0.0
 40
54.0
1001
ACDBBLOCKREPETAG
1070
     1
1071
       20
1005
126903
  0
ARC
  5
126904
  8
OBJECT
 10
5000.0
 20
-695.99999999999432
 30
0.0
 40
62.0
 50
287.89655112920718
 51
252.10344887079279
1001
ACDBBLOCKREPETAG
1070
     1
1071
       21
1005
126904
  0
LINE
  5
126905
  8
OBJECT
 10
4980.947441116743
 20
-754.9999999999942
 30
0.0
 11
5019.052558883257
 21
-754.9999999999942
 31
0.0
1001
ACDBBLOCKREPETAG
1070
     1
1071
       22
1005
126905
  0
LINE
  5
126906
  8
OBJECT
 10
4923.0
 20
-570.99999999999432
 30
0.0
 11
4923.0
 21
-549.99999999999432
 31
0.0
1001
ACDBBLOCKREPETAG
1070
     1
1071
       20
1005
126906
  0
LINE
  5
126907
  8
OBJECT
 10
4923.0
 20
-549.99999999999432
 30
0.0
 11
5077.0
 21
-549.99999999999432
 31
0.0
1001
ACDBBLOCKREPETAG
1070
     1
1071
       21
1005
126907
  0
LINE
  5
126908
  8
HIDDEN
 10
4943.0
 20
-619.99999999999432
 30
0.0
 11
5057.0
 21
-619.99999999999432
 31
0.0
1001
ACDBBLOCKREPETAG
1070
     1
1071
       22
1005
126908
  0
LINE
  5
126909
  8
OBJECT
 10
5077.0
 20
-549.99999999999432
 30
0.0
 11
5077.0
 21
-570.99999999999432
 31
0.0
1001
ACDBBLOCKREPETAG
1070
     1
1071
       23
1005
126909
  0
LINE
  5
12690A
  8
OBJECT
 10
5077.0
 20
-570.99999999999432
 30
0.0
 11
4923.0
 21
-570.99999999999432
 31
0.0
1001
ACDBBLOCKREPETAG
1070
     1
1071
       24
1005
12690A
  0
LINE
  5
12690B
  8
CENTER
 10
5000.0
 20
-534.99999999999432
 30
0.0
 11
5000.0
 21
-769.9999999999942
 31
0.0
1001
ACDBBLOCKREPETAG
1070
     1
1071
       25
1005
12690B
  0
LINE
  5
12690C
  8
OBJECT
 10
4925.0
 20
-633.99999999999432
 30
0.0
 11
4925.0
 21
-757.9999999999942
 31
0.0
1001
ACDBBLOCKREPETAG
1070
     1
1071
       26
1005
12690C
  0
LINE
  5
12690D
  8
OBJECT
 10
4928.0
 20
-570.99999999999432
 30
0.0
 11
4928.0
 21
-633.99999999999432
 31
0.0
1001
ACDBBLOCKREPETAG
1070
     1
1071
       27
1005
12690D
  0
LINE
  5
12690E
  8
OBJECT
 10
5072.0
 20
-633.99999999999432
 30
0.0
 11
5072.0
 21
-570.99999999999432
 31
0.0
1001
ACDBBLOCKREPETAG
1070
     1
1071
       28
1005
12690E
  0
LINE
  5
12690F
  8
OBJECT
 10
4920.0
 20
-757.9999999999942
 30
0.0
 11
5080.0
 21
-757.9999999999942
 31
0.0
1001
ACDBBLOCKREPETAG
1070
     1
1071
       29
1005
12690F
  0
LINE
  5
126910
  8
OBJECT
 10
5075.0
 20
-633.99999999999432
 30
0.0
 11
4925.0
 21
-633.99999999999432
 31
0.0
1001
ACDBBLOCKREPETAG
1070
     1
1071
       30
1005
126910
  0
LINE
  5
126911
  8
OBJECT
 10
4920.0
 20
-757.9999999999942
 30
0.0
 11
4920.0
 21
-769.9999999999942
 31
0.0
1001
ACDBBLOCKREPETAG
1070
     1
1071
       31
1005
126911
  0
LINE
  5
126912
  8
OBJECT
 10
4920.0
 20
-769.9999999999942
 30
0.0
 11
5080.0
 21
-769.9999999999942
 31
0.0
1001
ACDBBLOCKREPETAG
1070
     1
1071
       32
1005
126912
  0
LINE
  5
126913
  8
OBJECT
 10
5080.0
 20
-769.9999999999942
 30
0.0
 11
5080.0
 21
-757.9999999999942
 31
0.0
1001
ACDBBLOCKREPETAG
1070
     1
1071
       33
1005
126913
  0
LINE
  5
126914
  8
OBJECT
 10
5075.0
 20
-633.99999999999432
 30
0.0
 11
5075.0
 21
-757.9999999999942
 31
0.0
1001
ACDBBLOCKREPETAG
1070
     1
1071
       34
1005
126914
  0
LINE
  5
126915
  8
OBJECT
 10
4423.0
 20
-570.99999999999432
 30
0.0
 11
4423.0
 21
-549.99999999999432
 31
0.0
1001
ACDBBLOCKREPETAG
1070
     1
1071
        0
1005
126915
  0
LINE
  5
126916
  8
OBJECT
 10
4423.0
 20
-549.99999999999432
 30
0.0
 11
4577.0
 21
-549.99999999999432
 31
0.0
1001
ACDBBLOCKREPETAG
1070
     1
1071
        1
1005
126916
  0
LINE
  5
126917
  8
HIDDEN
 10
4443.0
 20
-619.99999999999432
 30
0.0
 11
4557.0
 21
-619.99999999999432
 31
0.0
1001
ACDBBLOCKREPETAG
1070
     1
1071
        2
1005
126917
  0
LINE
  5
126918
  8
OBJECT
 10
4577.0
 20
-549.99999999999432
 30
0.0
 11
4577.0
 21
-570.99999999999432
 31
0.0
1001
ACDBBLOCKREPETAG
1070
     1
1071
        3
1005
126918
  0
LINE
  5
126919
  8
OBJECT
 10
4577.0
 20
-570.99999999999432
 30
0.0
 11
4423.0
 21
-570.99999999999432
 31
0.0
1001
ACDBBLOCKREPETAG
1070
     1
1071
        4
1005
126919
  0
LINE
  5
12691A
  8
CENTER
 10
4500.0
 20
-534.99999999999432
 30
0.0
 11
4500.0
 21
-769.9999999999942
 31
0.0
1001
ACDBBLOCKREPETAG
1070
     1
1071
        5
1005
12691A
  0
LINE
  5
12691B
  8
OBJECT
 10
4425.0
 20
-633.99999999999432
 30
0.0
 11
4425.0
 21
-757.9999999999942
 31
0.0
1001
ACDBBLOCKREPETAG
1070
     1
1071
        6
1005
12691B
  0
LINE
  5
12691C
  8
OBJECT
 10
4428.0
 20
-570.99999999999432
 30
0.0
 11
4428.0
 21
-633.99999999999432
 31
0.0
1001
ACDBBLOCKREPETAG
1070
     1
1071
        7
1005
12691C
  0
LINE
  5
12691D
  8
OBJECT
 10
4572.0
 20
-633.99999999999432
 30
0.0
 11
4572.0
 21
-570.99999999999432
 31
0.0
1001
ACDBBLOCKREPETAG
1070
     1
1071
        8
1005
12691D
  0
LINE
  5
12691E
  8
OBJECT
 10
4420.0
 20
-757.9999999999942
 30
0.0
 11
4580.0
 21
-757.9999999999942
 31
0.0
1001
ACDBBLOCKREPETAG
1070
     1
1071
        9
1005
12691E
  0
LINE
  5
12691F
  8
OBJECT
 10
4580.0
 20
-633.99999999999432
 30
0.0
 11
4425.0
 21
-633.99999999999432
 31
0.0
1001
ACDBBLOCKREPETAG
1070
     1
1071
       10
1005
12691F
  0
LINE
  5
126920
  8
OBJECT
 10
4420.0
 20
-757.9999999999942
 30
0.0
 11
4420.0
 21
-769.9999999999942
 31
0.0
1001
ACDBBLOCKREPETAG
1070
     1
1071
       11
1005
126920
  0
LINE
  5
126921
  8
OBJECT
 10
4420.0
 20
-769.9999999999942
 30
0.0
 11
4580.0
 21
-769.9999999999942
 31
0.0
1001
ACDBBLOCKREPETAG
1070
     1
1071
       12
1005
126921
  0
LINE
  5
126922
  8
OBJECT
 10
4580.0
 20
-769.9999999999942
 30
0.0
 11
4580.0
 21
-757.9999999999942
 31
0.0
1001
ACDBBLOCKREPETAG
1070
     1
1071
       13
1005
126922
  0
ARC
  5
126923
  8
OBJECT
 10
4700.6872746716726
 20
-749.40809941010195
 30
0.0
 40
170.6350503965856
 50
137.44134459184301
 51
149.91949581337221
1001
ACDBBLOCKREPETAG
1070
     1
1071
       15
1005
126923
  0
ARC
  5
126924
  8
OBJECT
 10
4618.8455987040506
 20
-705.88272669535922
 30
0.0
 40
78.072222021763665
 50
147.4551531037684
 51
164.66365997718671
1001
ACDBBLOCKREPETAG
1070
     1
1071
       16
1005
126924
  0
ARC
  5
126925
  8
OBJECT
 10
4585.7554349608718
 20
-695.99999999999432
 30
0.0
 40
43.55353926885617
 50
165.6884523008477
 51
194.3115476991523
1001
ACDBBLOCKREPETAG
1070
     1
1071
       17
1005
126925
  0
ARC
  5
126926
  8
OBJECT
 10
4700.6872746716726
 20
-642.59190058988645
 30
0.0
 40
170.6350503965856
 50
210.08050418662771
 51
222.55865540815699
1001
ACDBBLOCKREPETAG
1070
     1
1071
       18
1005
126926
  0
ARC
  5
126927
  8
OBJECT
 10
4618.8455987040506
 20
-686.11727330462952
 30
0.0
 40
78.072222021763665
 50
195.3363400228132
 51
212.5448468962316
1001
ACDBBLOCKREPETAG
1070
     1
1071
       19
1005
126927
  0
LINE
  5
126928
  8
OBJECT
 10
4633.0
 20
-634.0
 30
0.0
 11
4640.0
 21
-634.0
 31
0.0
1001
ACDBBLOCKREPETAG
1070
     1
1071
       45
1005
126928
  0
LINE
  5
126929
  8
OBJECT
 10
4640.0
 20
-634.0
 30
0.0
 11
4640.0
 21
-755.0
 31
0.0
1001
ACDBBLOCKREPETAG
1070
     1
1071
       46
1005
126929
  0
LINE
  5
12692A
  8
OBJECT
 10
4633.0
 20
-755.0
 30
0.0
 11
4633.0
 21
-634.0
 31
0.0
1001
ACDBBLOCKREPETAG
1070
     1
1071
       47
1005
12692A
  0
LINE
  5
12692B
  8
CENTER
 10
4655.0
 20
-696.0
 30
0.0
 11
4571.0
 21
-696.0
 31
0.0
1001
ACDBBLOCKREPETAG
1070
     1
1071
       48
1005
12692B
  0
LINE
  5
12692C
  8
OBJECT
 10
4633.0
 20
-637.0
 30
0.0
 11
4597.0
 21
-637.0
 31
0.0
1001
ACDBBLOCKREPETAG
1070
     1
1071
       49
1005
12692C
  0
LINE
  5
12692D
  8
OBJECT
 10
4597.0
 20
-637.0
 30
0.0
 11
4597.0
 21
-755.0
 31
0.0
1001
ACDBBLOCKREPETAG
1070
     1
1071
       50
1005
12692D
  0
LINE
  5
12692E
  8
OBJECT
 10
4597.0
 20
-755.0
 30
0.0
 11
4640.0
 21
-755.0
 31
0.0
1001
ACDBBLOCKREPETAG
1070
     1
1071
       51
1005
12692E
  0
LINE
  5
12692F
  8
OBJECT
 10
4593.0
 20
-641.5
 30
0.0
 11
4586.0
 21
-641.5
 31
0.0
1001
ACDBBLOCKREPETAG
1070
     1
1071
       52
1005
12692F
  0
LINE
  5
126930
  8
OBJECT
 10
4586.0
 20
-750.49999999999989
 30
0.0
 11
4593.0
 21
-750.49999999999989
 31
0.0
1001
ACDBBLOCKREPETAG
1070
     1
1071
       53
1005
126930
  0
LINE
  5
126931
  8
OBJECT
 10
4593.0
 20
-750.49999999999989
 30
0.0
 11
4593.0
 21
-641.5
 31
0.0
1001
ACDBBLOCKREPETAG
1070
     1
1071
       54
1005
126931
  0
LINE
  5
126932
  8
OBJECT
 10
4597.0
 20
-637.0
 30
0.0
 11
4593.0
 21
-641.5
 31
0.0
1001
ACDBBLOCKREPETAG
1070
     1
1071
       55
1005
126932
  0
LINE
  5
126933
  8
OBJECT
 10
4597.0
 20
-755.0
 30
0.0
 11
4593.0
 21
-750.49999999999989
 31
0.0
1001
ACDBBLOCKREPETAG
1070
     1
1071
       56
1005
126933
  0
LINE
  5
126934
  8
OBJECT
 10
4583.0
 20
-634.0
 30
0.0
 11
4580.0
 21
-634.0
 31
0.0
1001
ACDBBLOCKREPETAG
1070
     1
1071
       57
1005
126934
  0
ARC
  5
126935
  8
OBJECT
 10
4583.0
 20
-637.0
 30
0.0
 40
3.0
 50
0.0
 51
90.0
1001
ACDBBLOCKREPETAG
1070
     1
1071
       58
1005
126935
  0
LINE
  5
126936
  8
OBJECT
 10
4580.0
 20
-758.0
 30
0.0
 11
4583.0
 21
-758.0
 31
0.0
1001
ACDBBLOCKREPETAG
1070
     1
1071
       59
1005
126936
  0
ARC
  5
126937
  8
OBJECT
 10
4583.0
 20
-755.0
 30
0.0
 40
3.0
 50
270.0
 51
0.0
1001
ACDBBLOCKREPETAG
1070
     1
1071
       60
1005
126937
  0
LINE
  5
126938
  8
OBJECT
 10
4586.0
 20
-755.0
 30
0.0
 11
4586.0
 21
-637.0
 31
0.0
1001
ACDBBLOCKREPETAG
1070
     1
1071
       61
1005
126938
  0
LINE
  5
126939
  8
HIDDEN
 10
4588.0
 20
-651.5
 30
0.0
 11
4588.0
 21
-740.5
 31
0.0
1001
ACDBBLOCKREPETAG
1070
     1
1071
       63
1005
126939
  0
LINE
  5
12693A
  8
CENTER
 10
3077.0
 20
-695.99999999999432
 30
0.0
 11
2923.0
 21
-695.99999999999432
 31
0.0
1001
ACDBBLOCKREPETAG
1070
     1
1071
       17
1005
12693A
  0
CIRCLE
  5
12693B
  8
OBJECT
 10
3000.0
 20
-695.99999999999432
 30
0.0
 40
41.5
1001
ACDBBLOCKREPETAG
1070
     1
1071
       19
1005
12693B
  0
CIRCLE
  5
12693C
  8
OBJECT
 10
3000.0
 20
-695.99999999999432
 30
0.0
 40
54.0
1001
ACDBBLOCKREPETAG
1070
     1
1071
       20
1005
12693C
  0
ARC
  5
12693D
  8
OBJECT
 10
3000.0
 20
-695.99999999999432
 30
0.0
 40
62.0
 50
287.89655112920718
 51
252.10344887079279
1001
ACDBBLOCKREPETAG
1070
     1
1071
       21
1005
12693D
  0
LINE
  5
12693E
  8
OBJECT
 10
2980.947441116743
 20
-754.9999999999942
 30
0.0
 11
3019.052558883257
 21
-754.9999999999942
 31
0.0
1001
ACDBBLOCKREPETAG
1070
     1
1071
       22
1005
12693E
  0
LINE
  5
12693F
  8
OBJECT
 10
2923.0
 20
-570.99999999999432
 30
0.0
 11
2923.0
 21
-549.99999999999432
 31
0.0
1001
ACDBBLOCKREPETAG
1070
     1
1071
       20
1005
12693F
  0
LINE
  5
126940
  8
OBJECT
 10
2923.0
 20
-549.99999999999432
 30
0.0
 11
3077.0
 21
-549.99999999999432
 31
0.0
1001
ACDBBLOCKREPETAG
1070
     1
1071
       21
1005
126940
  0
LINE
  5
126941
  8
HIDDEN
 10
2943.0
 20
-619.99999999999432
 30
0.0
 11
3057.0
 21
-619.99999999999432
 31
0.0
1001
ACDBBLOCKREPETAG
1070
     1
1071
       22
1005
126941
  0
LINE
  5
126942
  8
OBJECT
 10
3077.0
 20
-549.99999999999432
 30
0.0
 11
3077.0
 21
-570.99999999999432
 31
0.0
1001
ACDBBLOCKREPETAG
1070
     1
1071
       23
1005
126942
  0
LINE
  5
126943
  8
OBJECT
 10
3077.0
 20
-570.99999999999432
 30
0.0
 11
2923.0
 21
-570.99999999999432
 31
0.0
1001
ACDBBLOCKREPETAG
1070
     1
1071
       24
1005
126943
  0
LINE
  5
126944
  8
CENTER
 10
3000.0
 20
-534.99999999999432
 30
0.0
 11
3000.0
 21
-769.9999999999942
 31
0.0
1001
ACDBBLOCKREPETAG
1070
     1
1071
       25
1005
126944
  0
LINE
  5
126945
  8
OBJECT
 10
2925.0
 20
-633.99999999999432
 30
0.0
 11
2925.0
 21
-757.9999999999942
 31
0.0
1001
ACDBBLOCKREPETAG
1070
     1
1071
       26
1005
126945
  0
LINE
  5
126946
  8
OBJECT
 10
2928.0
 20
-570.99999999999432
 30
0.0
 11
2928.0
 21
-633.99999999999432
 31
0.0
1001
ACDBBLOCKREPETAG
1070
     1
1071
       27
1005
126946
  0
LINE
  5
126947
  8
OBJECT
 10
3072.0
 20
-633.99999999999432
 30
0.0
 11
3072.0
 21
-570.99999999999432
 31
0.0
1001
ACDBBLOCKREPETAG
1070
     1
1071
       28
1005
126947
  0
LINE
  5
126948
  8
OBJECT
 10
2920.0
 20
-757.9999999999942
 30
0.0
 11
3080.0
 21
-757.9999999999942
 31
0.0
1001
ACDBBLOCKREPETAG
1070
     1
1071
       29
1005
126948
  0
LINE
  5
126949
  8
OBJECT
 10
3075.0
 20
-633.99999999999432
 30
0.0
 11
2925.0
 21
-633.99999999999432
 31
0.0
1001
ACDBBLOCKREPETAG
1070
     1
1071
       30
1005
126949
  0
LINE
  5
12694A
  8
OBJECT
 10
2920.0
 20
-757.9999999999942
 30
0.0
 11
2920.0
 21
-769.9999999999942
 31
0.0
1001
ACDBBLOCKREPETAG
1070
     1
1071
       31
1005
12694A
  0
LINE
  5
12694B
  8
OBJECT
 10
2920.0
 20
-769.9999999999942
 30
0.0
 11
3080.0
 21
-769.9999999999942
 31
0.0
1001
ACDBBLOCKREPETAG
1070
     1
1071
       32
1005
12694B
  0
LINE
  5
12694C
  8
OBJECT
 10
3080.0
 20
-769.9999999999942
 30
0.0
 11
3080.0
 21
-757.9999999999942
 31
0.0
1001
ACDBBLOCKREPETAG
1070
     1
1071
       33
1005
12694C
  0
LINE
  5
12694D
  8
OBJECT
 10
3075.0
 20
-633.99999999999432
 30
0.0
 11
3075.0
 21
-757.9999999999942
 31
0.0
1001
ACDBBLOCKREPETAG
1070
     1
1071
       34
1005
12694D
  0
TEXT
  5
12694E
  8
SLIM
 10
149.1428571427966
 20
-443.99999999984971
 30
0.0
 40
48.0
  1
A3
 41
0.75
1001
ACDBBLOCKREPETAG
1070
     1
1071
      119
1005
0
  0
LINE
  5
12694F
  8
OBJECT
 10
2423.0
 20
-570.99999999999432
 30
0.0
 11
2423.0
 21
-549.99999999999432
 31
0.0
1001
ACDBBLOCKREPETAG
1070
     1
1071
        0
1005
12694F
  0
LINE
  5
126950
  8
OBJECT
 10
2423.0
 20
-549.99999999999432
 30
0.0
 11
2577.0
 21
-549.99999999999432
 31
0.0
1001
ACDBBLOCKREPETAG
1070
     1
1071
        1
1005
126950
  0
LINE
  5
126951
  8
HIDDEN
 10
2443.0
 20
-619.99999999999432
 30
0.0
 11
2557.0
 21
-619.99999999999432
 31
0.0
1001
ACDBBLOCKREPETAG
1070
     1
1071
        2
1005
126951
  0
LINE
  5
126952
  8
OBJECT
 10
2577.0
 20
-549.99999999999432
 30
0.0
 11
2577.0
 21
-570.99999999999432
 31
0.0
1001
ACDBBLOCKREPETAG
1070
     1
1071
        3
1005
126952
  0
LINE
  5
126953
  8
OBJECT
 10
2577.0
 20
-570.99999999999432
 30
0.0
 11
2423.0
 21
-570.99999999999432
 31
0.0
1001
ACDBBLOCKREPETAG
1070
     1
1071
        4
1005
126953
  0
LINE
  5
126954
  8
CENTER
 10
2500.0
 20
-534.99999999999432
 30
0.0
 11
2500.0
 21
-769.9999999999942
 31
0.0
1001
ACDBBLOCKREPETAG
1070
     1
1071
        5
1005
126954
  0
LINE
  5
126955
  8
OBJECT
 10
2425.0
 20
-633.99999999999432
 30
0.0
 11
2425.0
 21
-757.9999999999942
 31
0.0
1001
ACDBBLOCKREPETAG
1070
     1
1071
        6
1005
126955
  0
LINE
  5
126956
  8
OBJECT
 10
2428.0
 20
-570.99999999999432
 30
0.0
 11
2428.0
 21
-633.99999999999432
 31
0.0
1001
ACDBBLOCKREPETAG
1070
     1
1071
        7
1005
126956
  0
LINE
  5
126957
  8
OBJECT
 10
2572.0
 20
-633.99999999999432
 30
0.0
 11
2572.0
 21
-570.99999999999432
 31
0.0
1001
ACDBBLOCKREPETAG
1070
     1
1071
        8
1005
126957
  0
LINE
  5
126958
  8
OBJECT
 10
2420.0
 20
-757.9999999999942
 30
0.0
 11
2580.0
 21
-757.9999999999942
 31
0.0
1001
ACDBBLOCKREPETAG
1070
     1
1071
        9
1005
126958
  0
LINE
  5
126959
  8
OBJECT
 10
2580.0
 20
-633.99999999999432
 30
0.0
 11
2425.0
 21
-633.99999999999432
 31
0.0
1001
ACDBBLOCKREPETAG
1070
     1
1071
       10
1005
126959
  0
LINE
  5
12695A
  8
OBJECT
 10
2420.0
 20
-757.9999999999942
 30
0.0
 11
2420.0
 21
-769.9999999999942
 31
0.0
1001
ACDBBLOCKREPETAG
1070
     1
1071
       11
1005
12695A
  0
LINE
  5
12695B
  8
OBJECT
 10
2420.0
 20
-769.9999999999942
 30
0.0
 11
2580.0
 21
-769.9999999999942
 31
0.0
1001
ACDBBLOCKREPETAG
1070
     1
1071
       12
1005
12695B
  0
LINE
  5
12695C
  8
OBJECT
 10
2580.0
 20
-769.9999999999942
 30
0.0
 11
2580.0
 21
-757.9999999999942
 31
0.0
1001
ACDBBLOCKREPETAG
1070
     1
1071
       13
1005
12695C
  0
ARC
  5
12695D
  8
OBJECT
 10
2700.6872746716731
 20
-749.40809941010195
 30
0.0
 40
170.6350503965856
 50
137.44134459184301
 51
149.91949581337221
1001
ACDBBLOCKREPETAG
1070
     1
1071
       15
1005
12695D
  0
ARC
  5
12695E
  8
OBJECT
 10
2618.8455987040511
 20
-705.88272669535922
 30
0.0
 40
78.072222021763665
 50
147.4551531037684
 51
164.6636599771798
1001
ACDBBLOCKREPETAG
1070
     1
1071
       16
1005
12695E
  0
ARC
  5
12695F
  8
OBJECT
 10
2585.7554349608731
 20
-695.99999999999432
 30
0.0
 40
43.55353926885617
 50
165.6884523008477
 51
194.3115476991523
1001
ACDBBLOCKREPETAG
1070
     1
1071
       17
1005
12695F
  0
ARC
  5
126960
  8
OBJECT
 10
2700.6872746716731
 20
-642.59190058988645
 30
0.0
 40
170.6350503965856
 50
210.08050418662771
 51
222.55865540815699
1001
ACDBBLOCKREPETAG
1070
     1
1071
       18
1005
126960
  0
ARC
  5
126961
  8
OBJECT
 10
2618.8455987040511
 20
-686.11727330462952
 30
0.0
 40
78.072222021763665
 50
195.3363400228202
 51
212.5448468962316
1001
ACDBBLOCKREPETAG
1070
     1
1071
       19
1005
126961
  0
LINE
  5
126962
  8
OBJECT
 10
2633.0
 20
-634.0
 30
0.0
 11
2640.0
 21
-634.0
 31
0.0
1001
ACDBBLOCKREPETAG
1070
     1
1071
       45
1005
126962
  0
LINE
  5
126963
  8
OBJECT
 10
2640.0
 20
-634.0
 30
0.0
 11
2640.0
 21
-755.0
 31
0.0
1001
ACDBBLOCKREPETAG
1070
     1
1071
       46
1005
126963
  0
LINE
  5
126964
  8
OBJECT
 10
2633.0
 20
-755.0
 30
0.0
 11
2633.0
 21
-634.0
 31
0.0
1001
ACDBBLOCKREPETAG
1070
     1
1071
       47
1005
126964
  0
LINE
  5
126965
  8
CENTER
 10
2655.0
 20
-696.0
 30
0.0
 11
2571.0
 21
-696.0
 31
0.0
1001
ACDBBLOCKREPETAG
1070
     1
1071
       48
1005
126965
  0
LINE
  5
126966
  8
OBJECT
 10
2633.0
 20
-637.0
 30
0.0
 11
2597.0
 21
-637.0
 31
0.0
1001
ACDBBLOCKREPETAG
1070
     1
1071
       49
1005
126966
  0
LINE
  5
126967
  8
OBJECT
 10
2597.0
 20
-637.0
 30
0.0
 11
2597.0
 21
-755.0
 31
0.0
1001
ACDBBLOCKREPETAG
1070
     1
1071
       50
1005
126967
  0
LINE
  5
126968
  8
OBJECT
 10
2597.0
 20
-755.0
 30
0.0
 11
2640.0
 21
-755.0
 31
0.0
1001
ACDBBLOCKREPETAG
1070
     1
1071
       51
1005
126968
  0
LINE
  5
126969
  8
OBJECT
 10
2593.0
 20
-641.5
 30
0.0
 11
2586.0
 21
-641.5
 31
0.0
1001
ACDBBLOCKREPETAG
1070
     1
1071
       52
1005
126969
  0
LINE
  5
12696A
  8
OBJECT
 10
2586.0
 20
-750.49999999999989
 30
0.0
 11
2593.0
 21
-750.49999999999989
 31
0.0
1001
ACDBBLOCKREPETAG
1070
     1
1071
       53
1005
12696A
  0
LINE
  5
12696B
  8
OBJECT
 10
2593.0
 20
-750.49999999999989
 30
0.0
 11
2593.0
 21
-641.5
 31
0.0
1001
ACDBBLOCKREPETAG
1070
     1
1071
       54
1005
12696B
  0
LINE
  5
12696C
  8
OBJECT
 10
2597.0
 20
-637.0
 30
0.0
 11
2593.0
 21
-641.5
 31
0.0
1001
ACDBBLOCKREPETAG
1070
     1
1071
       55
1005
12696C
  0
LINE
  5
12696D
  8
OBJECT
 10
2597.0
 20
-755.0
 30
0.0
 11
2593.0
 21
-750.49999999999989
 31
0.0
1001
ACDBBLOCKREPETAG
1070
     1
1071
       56
1005
12696D
  0
LINE
  5
12696E
  8
OBJECT
 10
2583.0
 20
-634.0
 30
0.0
 11
2580.0
 21
-634.0
 31
0.0
1001
ACDBBLOCKREPETAG
1070
     1
1071
       57
1005
12696E
  0
ARC
  5
12696F
  8
OBJECT
 10
2583.0
 20
-637.0
 30
0.0
 40
3.0
 50
0.0
 51
90.0
1001
ACDBBLOCKREPETAG
1070
     1
1071
       58
1005
12696F
  0
LINE
  5
126970
  8
OBJECT
 10
2580.0
 20
-758.0
 30
0.0
 11
2583.0
 21
-758.0
 31
0.0
1001
ACDBBLOCKREPETAG
1070
     1
1071
       59
1005
126970
  0
ARC
  5
126971
  8
OBJECT
 10
2583.0
 20
-755.0
 30
0.0
 40
3.0
 50
270.0
 51
0.0
1001
ACDBBLOCKREPETAG
1070
     1
1071
       60
1005
126971
  0
LINE
  5
126972
  8
OBJECT
 10
2586.0
 20
-755.0
 30
0.0
 11
2586.0
 21
-637.0
 31
0.0
1001
ACDBBLOCKREPETAG
1070
     1
1071
       61
1005
126972
  0
LINE
  5
126973
  8
HIDDEN
 10
2588.0
 20
-651.5
 30
0.0
 11
2588.0
 21
-740.5
 31
0.0
1001
ACDBBLOCKREPETAG
1070
     1
1071
       63
1005
126973
  0
TEXT
  5
126974
  8
SLIM
 10
0.0000035665234464
 20
24.000004585317608
 30
0.0
 40
79.999999999972701
  1
上部枝管
 41
0.75
1001
ACDBBLOCKREPETAG
1070
     1
1071
      119
1005
120BCB
  0
LINE
  5
126975
  8
DIM
 10
2650.0
 20
-3506.9999999999968
 30
0.0
 11
2728.479620594459
 21
-3506.9999999999968
 31
0.0
  0
LINE
  5
126976
  8
DIM
 10
2650.0
 20
-3412.9999999999968
 30
0.0
 11
2728.479620594459
 21
-3412.9999999999968
 31
0.0
  0
LINE
  5
126977
  8
DIM
 10
2718.479620594459
 20
-3486.9999999999959
 30
0.0
 11
2718.479620594459
 21
-3432.9999999999959
 31
0.0
  0
INSERT
  5
126978
  8
DIM
  2
_OPEN30
 10
2718.479620594459
 20
-3506.9999999999968
 30
0.0
 41
20.0
 42
20.0
 43
20.0
 50
270.0
  0
INSERT
  5
126979
  8
DIM
  2
_OPEN30
 10
2718.479620594459
 20
-3412.9999999999968
 30
0.0
 41
20.0
 42
20.0
 43
20.0
 50
90.0
  0
INSERT
  5
12697A
  8
SLIM
  2
*U10
 10
0.0
 20
0.0
 30
0.0
  0
LINE
  5
12697B
  8
DIM
 10
2650.0
 20
-3864.9999999999968
 30
0.0
 11
2726.8409284037339
 21
-3864.9999999999968
 31
0.0
  0
LINE
  5
12697C
  8
DIM
 10
2665.0
 20
-3820.9999999999968
 30
0.0
 11
2726.8409284037339
 21
-3820.9999999999968
 31
0.0
  0
LINE
  5
12697D
  8
DIM
 10
2716.8409284037339
 20
-3884.9999999999991
 30
0.0
 11
2716.8409284037339
 21
-3904.9999999999968
 31
0.0
  0
LINE
  5
12697E
  8
DIM
 10
2716.8409284037339
 20
-3800.9999999999982
 30
0.0
 11
2716.8409284037339
 21
-3780.9999999999968
 31
0.0
  0
LINE
  5
12697F
  8
DIM
 10
2716.8409284037339
 20
-3864.9999999999968
 30
0.0
 11
2716.8409284037339
 21
-3820.9999999999968
 31
0.0
  0
INSERT
  5
126980
  8
DIM
  2
_OPEN30
 10
2716.8409284037339
 20
-3864.9999999999968
 30
0.0
 41
20.0
 42
20.0
 43
20.0
 50
90.0
  0
INSERT
  5
126981
  8
DIM
  2
_OPEN30
 10
2716.8409284037339
 20
-3820.9999999999968
 30
0.0
 41
20.0
 42
20.0
 43
20.0
 50
270.0
  0
INSERT
  5
126982
  8
SLIM
  2
*U11
 10
0.0
 20
0.0
 30
0.0
  0
LINE
  5
126983
  8
DIM
 10
2500.0
 20
-3359.9999999999968
 30
0.0
 11
2500.0
 21
-3322.208121984444
 31
0.0
  0
LINE
  5
126984
  8
DIM
 10
2640.0
 20
-3402.9999999999968
 30
0.0
 11
2640.0
 21
-3322.208121984444
 31
0.0
  0
LINE
  5
126985
  8
DIM
 10
2520.0
 20
-3332.208121984444
 30
0.0
 11
2620.0
 21
-3332.208121984444
 31
0.0
  0
INSERT
  5
126986
  8
DIM
  2
_OPEN30
 10
2500.0
 20
-3332.208121984444
 30
0.0
 41
20.0
 42
20.0
 43
20.0
 50
180.0
  0
INSERT
  5
126987
  8
DIM
  2
_OPEN30
 10
2640.0
 20
-3332.208121984444
 30
0.0
 41
20.0
 42
20.0
 43
20.0
  0
INSERT
  5
126988
  8
SLIM
  2
*U12
 10
0.0
 20
0.0
 30
0.0
  0
TEXT
  5
126989
  8
SLIM
 10
3270.9999999999991
 20
-3237.5000160472709
 30
0.0
 40
40.0
  1
C寸法
 41
0.75
  0
TEXT
  5
12698A
  8
SLIM
 10
3270.9999999999991
 20
-3167.5000160472709
 30
0.0
 40
40.0
  1
B寸法
 41
0.75
  0
TEXT
  5
12698B
  8
SLIM
 10
3270.2857142857151
 20
-3097.5000160472709
 30
0.0
 40
40.0
  1
A寸法
 41
0.75
  0
TEXT
  5
12698C
  8
SLIM
 10
3669.2857142857142
 20
-3237.5000160472709
 30
0.0
 40
40.0
  1
140
 41
0.75
  0
TEXT
  5
12698D
  8
SLIM
 10
3409.2857142857151
 20
-3237.5000160472709
 30
0.0
 40
40.0
  1
140
 41
0.75
  0
TEXT
  5
12698E
  8
SLIM
 10
3539.2857142857151
 20
-3237.5000160472709
 30
0.0
 40
40.0
  1
140
 41
0.75
  0
TEXT
  5
12698F
  8
SLIM
 10
3681.4285714285711
 20
-3167.5000160472709
 30
0.0
 40
40.0
  1
59
 41
0.75
  0
TEXT
  5
126990
  8
SLIM
 10
3420.0
 20
-3167.5000160472709
 30
0.0
 40
40.0
  1
44
 41
0.75
  0
TEXT
  5
126991
  8
SLIM
 10
3550.7142857142849
 20
-3167.5000160472709
 30
0.0
 40
40.0
  1
52
 41
0.75
  0
TEXT
  5
126992
  8
SLIM
 10
3471.0
 20
-2972.5000160472709
 30
0.0
 40
40.0
  1
横枝管サイズ
 41
0.75
  0
TEXT
  5
126993
  8
SLIM
 10
3654.8571428571422
 20
-3027.50001604727
 30
0.0
 40
30.0
  1
75（3）
 41
0.75
  0
TEXT
  5
126994
  8
SLIM
 10
3524.8571428571422
 20
-3027.50001604727
 30
0.0
 40
30.0
  1
65（2）
 41
0.75
  0
TEXT
  5
126995
  8
SLIM
 10
3397.0
 20
-3027.50001604727
 30
0.0
 40
30.0
  1
50（1）
 41
0.75
  0
TEXT
  5
126996
  8
SLIM
 10
3668.5714285714289
 20
-3097.5000160472709
 30
0.0
 40
40.0
  1
124
 41
0.75
  0
TEXT
  5
126997
  8
SLIM
 10
3420.0
 20
-3097.5000160472709
 30
0.0
 40
40.0
  1
94
 41
0.75
  0
TEXT
  5
126998
  8
SLIM
 10
3542.142857142856
 20
-3097.5000160472709
 30
0.0
 40
40.0
  1
110
 41
0.75
  0
TEXT
  5
126999
  8
SLIM
 10
2349.9999999999991
 20
-2997.5
 30
0.0
 40
75.0
  1
下部枝管サイズ毎の形状
 41
0.75
  0
TEXT
  5
12699A
  8
SLIM
 10
4394.25
 20
-3982.4999999999968
 30
0.0
 40
35.0
  1
通常枝75（3）
 41
0.75
  0
TEXT
  5
12699B
  8
SLIM
 10
3394.2499999999991
 20
-3982.4999999999968
 30
0.0
 40
35.0
  1
通常枝65（2）
 41
0.75
  0
TEXT
  5
12699C
  8
SLIM
 10
2396.75
 20
-3982.4999999999968
 30
0.0
 40
35.0
  1
通常枝50（1）
 41
0.75
  0
TEXT
  5
12699D
  8
SLIM
 10
2337.75
 20
282.50000000000011
 30
0.0
 40
35.0
  1
（枝管サイズ毎に寸法が異なります。管底の位置は全サイズで同じです）
 41
0.75
  0
TEXT
  5
12699E
  8
SLIM
 10
2350.0
 20
532.5
 30
0.0
 40
75.0
  1
側面図の代表機種
 41
0.75
  0
TEXT
  5
12699F
  8
SLIM
 10
2350.0
 20
369.99999999999989
 30
0.0
 40
100.0
  1
4SR2-A3-A0200-P320
 41
0.75
  0
TEXT
  5
1269A0
  8
SLIM
 10
4241.6249999999991
 20
-1632.499999999998
 30
0.0
 40
35.0
  1
片受けスタイル（S）＋シンドカット
 41
0.75
  0
TEXT
  5
1269A1
  8
SLIM
 10
2356.25
 20
-1632.499999999998
 30
0.0
 40
35.0
  1
片受けスタイル（S）
 41
0.75
  0
TEXT
  5
1269A2
  8
SLIM
 10
0.0
 20
370.0
 30
0.0
 40
100.0
  1
4SR2-A3-A0X00-PXXX-S
 41
0.75
  0
VIEWPORT
  5
F6BA7
 67
     1
  8
0
 10
195.9179030619629
 20
101.8328354358673
 30
0.0
 40
435.17763301655992
 41
222.19657968139651
 68
     1
 69
     1
1001
ACAD
1000
MVIEW
1002
{
1070
    16
1010
0.0
1020
0.0
1030
0.0
1010
0.0
1020
0.0
1030
1.0
1040
0.0
1040
222.19657968139651
1040
195.9179030619629
1040
101.8328354358673
1040
50.0
1040
0.0
1040
0.0
1070
     0
1070
     0
1070
     1
1070
     1
1070
     0
1070
     0
1070
     0
1070
     0
1040
0.0
1040
0.0
1040
0.0
1040
10.0
1040
10.0
1040
10.0
1040
10.0
1070
     0
1002
{
1002
}
1002
}
  0
VIEWPORT
  5
F6BA9
 67
     1
  8
OBJECT
 10
145.3303314447403
 20
101.8328338861465
 30
0.0
 40
232.5285303115844
 41
162.93253421783439
 68
     2
 69
     2
1001
ACAD
1000
MVIEW
1002
{
1070
    16
1010
0.0
1020
0.0
1030
0.0
1010
0.0
1020
0.0
1030
1.0
1040
0.0
1040
25942.55904403147
1040
2377.604457077377
1040
-7591.5176687056619
1040
50.0
1040
0.0
1040
0.0
1070
     0
1070
   600
1070
     1
1070
     1
1070
     0
1070
     0
1070
     0
1070
     0
1040
0.0
1040
0.0
1040
0.0
1040
1.0
1040
1.0
1040
0.0
1040
0.0
1070
     0
1002
{
1002
}
1002
}
  0
ENDSEC
  0
EOF
