  0
SECTION
  2
HEADER
  9
$ACADVER
  1
AC1009
  9
$INSBASE
 10
0.0
 20
0.0
 30
0.0
  9
$EXTMIN
 10
-0.0000000000000027
 20
-4102.4999999999954525
 30
0.0
  9
$EXTMAX
 10
5107.5428571428556097
 20
607.5
 30
0.0
  9
$LIMMIN
 10
0.0
 20
0.0
  9
$LIMMAX
 10
210.0
 20
297.0
  9
$ORTHOMODE
 70
     0
  9
$REGENMODE
 70
     1
  9
$FILLMODE
 70
     1
  9
$QTEXTMODE
 70
     0
  9
$MIRRTEXT
 70
     0
  9
$DRAGMODE
 70
     2
  9
$LTSCALE
 40
1.0
  9
$OSMODE
 70
    39
  9
$ATTMODE
 70
     1
  9
$TEXTSIZE
 40
4.0
  9
$TRACEWID
 40
0.05
  9
$TEXTSTYLE
  7
STANDARD
  9
$CLAYER
  8
SLIM
  9
$CELTYPE
  6
BYLAYER
  9
$CECOLOR
 62
   256
  9
$DIMSCALE
 40
10.0
  9
$DIMASZ
 40
2.0
  9
$DIMEXO
 40
1.0
  9
$DIMDLI
 40
10.0
  9
$DIMRND
 40
0.0
  9
$DIMDLE
 40
0.0
  9
$DIMEXE
 40
1.0
  9
$DIMTP
 40
0.0
  9
$DIMTM
 40
0.0
  9
$DIMTXT
 40
3.2000000000000002
  9
$DIMCEN
 40
0.0
  9
$DIMTSZ
 40
0.0
  9
$DIMTOL
 70
     0
  9
$DIMLIM
 70
     0
  9
$DIMTIH
 70
     0
  9
$DIMTOH
 70
     0
  9
$DIMSE1
 70
     0
  9
$DIMSE2
 70
     0
  9
$DIMTAD
 70
     1
  9
$DIMZIN
 70
     8
  9
$DIMBLK
  1
OPEN30
  9
$DIMASO
 70
     1
  9
$DIMSHO
 70
     1
  9
$DIMPOST
  1

  9
$DIMAPOST
  1

  9
$DIMALT
 70
     0
  9
$DIMALTD
 70
     2
  9
$DIMALTF
 40
25.3999999999999986
  9
$DIMLFAC
 40
1.0
  9
$DIMTOFL
 70
     1
  9
$DIMTVP
 40
0.0
  9
$DIMTIX
 70
     0
  9
$DIMSOXD
 70
     0
  9
$DIMSAH
 70
     0
  9
$DIMBLK1
  1

  9
$DIMBLK2
  1

  9
$DIMSTYLE
  2
S10
  9
$DIMCLRD
 70
   256
  9
$DIMCLRE
 70
   256
  9
$DIMCLRT
 70
   256
  9
$DIMTFAC
 40
1.0
  9
$DIMGAP
 40
0.9
  9
$LUNITS
 70
     2
  9
$LUPREC
 70
     2
  9
$SKETCHINC
 40
0.1
  9
$FILLETRAD
 40
0.0
  9
$AUNITS
 70
     0
  9
$AUPREC
 70
     2
  9
$MENU
  1
ACAD
  9
$ELEVATION
 40
0.0
  9
$PELEVATION
 40
0.0
  9
$THICKNESS
 40
0.0
  9
$LIMCHECK
 70
     0
  9
$BLIPMODE
 70
     0
  9
$CHAMFERA
 40
2.0
  9
$CHAMFERB
 40
2.0
  9
$SKPOLY
 70
     0
  9
$TDCREATE
 40
2453095.4929398149251938
  9
$TDUPDATE
 40
2459424.6599652781151235
  9
$TDINDWG
 40
19.0573588656999995
  9
$TDUSRTIMER
 40
19.0573583217999989
  9
$USRTIMER
 70
     1
  9
$ANGBASE
 50
0.0
  9
$ANGDIR
 70
     0
  9
$PDMODE
 70
    35
  9
$PDSIZE
 40
2.0
  9
$PLINEWID
 40
0.0
  9
$COORDS
 70
     1
  9
$SPLFRAME
 70
     0
  9
$SPLINETYPE
 70
     6
  9
$SPLINESEGS
 70
     8
  9
$ATTDIA
 70
     1
  9
$ATTREQ
 70
     1
  9
$HANDLING
 70
     1
  9
$HANDSEED
  5
12C12F
  9
$SURFTAB1
 70
     6
  9
$SURFTAB2
 70
     6
  9
$SURFTYPE
 70
     6
  9
$SURFU
 70
     6
  9
$SURFV
 70
     6
  9
$UCSNAME
  2

  9
$UCSORG
 10
0.0
 20
0.0
 30
0.0
  9
$UCSXDIR
 10
1.0
 20
0.0
 30
0.0
  9
$UCSYDIR
 10
0.0
 20
1.0
 30
0.0
  9
$PUCSNAME
  2

  9
$PUCSORG
 10
0.0
 20
0.0
 30
0.0
  9
$PUCSXDIR
 10
1.0
 20
0.0
 30
0.0
  9
$PUCSYDIR
 10
0.0
 20
1.0
 30
0.0
  9
$USERI1
 70
     0
  9
$USERI2
 70
     0
  9
$USERI3
 70
     0
  9
$USERI4
 70
     0
  9
$USERI5
 70
     0
  9
$USERR1
 40
0.0
  9
$USERR2
 40
0.0
  9
$USERR3
 40
0.0
  9
$USERR4
 40
0.0
  9
$USERR5
 40
0.0
  9
$WORLDVIEW
 70
     1
  9
$SHADEDGE
 70
     3
  9
$SHADEDIF
 70
    70
  9
$TILEMODE
 70
     1
  9
$MAXACTVP
 70
    64
  9
$PLIMCHECK
 70
     0
  9
$PEXTMIN
 10
29.0660662889480506
 20
20.3665667772293091
 30
0.0
  9
$PEXTMAX
 10
261.5945966005324976
 20
183.2991009950638102
 30
0.0
  9
$PLIMMIN
 10
-3.17498779296875
 20
-3.1749999523162842
  9
$PLIMMAX
 10
293.835662841796875
 20
206.8406708240509033
  9
$UNITMODE
 70
     0
  9
$VISRETAIN
 70
     1
  9
$PLINEGEN
 70
     0
  9
$PSLTSCALE
 70
     1
  0
ENDSEC
  0
SECTION
  2
TABLES
  0
TABLE
  2
VPORT
 70
     1
  0
VPORT
  2
*ACTIVE
 70
     0
 10
0.0
 20
0.0
 11
1.0
 21
1.0
 12
2520.2986457893462102
 22
-217.8433190338201086
 13
0.0
 23
0.0
 14
1.0
 24
1.0
 15
0.0
 25
0.0
 16
0.0
 26
0.0
 36
1.0
 17
0.0
 27
0.0
 37
0.0
 40
765.4004692017224443
 41
1.895294117647059
 42
50.0
 43
0.0
 44
0.0
 50
0.0
 51
0.0
 71
     0
 72
   600
 73
     1
 74
     1
 75
     0
 76
     0
 77
     0
 78
     0
  0
ENDTAB
  0
TABLE
  2
LTYPE
 70
     3
  0
LTYPE
  2
CONTINUOUS
 70
     0
  3
Solid line
 72
    65
 73
     0
 40
0.0
  0
LTYPE
  2
ACAD_ISO08W100
 70
     0
  3
ISO long-dash short-dash ____ __ ____ __ ____ _
 72
    65
 73
     4
 40
36.0
 49
24.0
 49
-3.0
 49
6.0
 49
-3.0
  0
LTYPE
  2
ACAD_ISO02W100
 70
     0
  3
ISO dash __ __ __ __ __ __ __ __ __ __ __ __ __
 72
    65
 73
     2
 40
15.0
 49
12.0
 49
-3.0
  0
ENDTAB
  0
TABLE
  2
LAYER
 70
     8
  0
LAYER
  2
0
 70
     0
 62
     7
  6
CONTINUOUS
  0
LAYER
  2
SLIM
 70
     0
 62
     2
  6
CONTINUOUS
  0
LAYER
  2
DEFPOINTS
 70
     0
 62
     7
  6
CONTINUOUS
  0
LAYER
  2
DIM
 70
     0
 62
     7
  6
CONTINUOUS
  0
LAYER
  2
OBJECT
 70
     0
 62
     4
  6
CONTINUOUS
  0
LAYER
  2
HIDDEN
 70
     0
 62
     2
  6
ACAD_ISO02W100
  0
LAYER
  2
CENTER
 70
     0
 62
     2
  6
ACAD_ISO08W100
  0
LAYER
  2
DOTS
 70
     0
 62
     1
  6
CONTINUOUS
  0
ENDTAB
  0
TABLE
  2
STYLE
 70
     2
  0
STYLE
  2
STANDARD
 70
     0
 40
0.0
 41
0.75
 50
0.0
 71
     0
 42
4.0
  3
simplex.shx
  4
bigfont.shx
  0
STYLE
  2
ANNOTATIVE
 70
     0
 40
0.0
 41
1.0
 50
0.0
 71
     0
 42
0.2
  3
txt
  4

  0
ENDTAB
  0
TABLE
  2
VIEW
 70
     0
  0
ENDTAB
  0
TABLE
  2
UCS
 70
     0
  0
ENDTAB
  0
TABLE
  2
APPID
 70
    20
  0
APPID
  2
ACAD
 70
     0
  0
APPID
  2
ACADANNOTATIVE
 70
     0
  0
APPID
  2
ACAD_PSEXT
 70
     0
  0
APPID
  2
ACAD_EXEMPT_FROM_CAD_STANDARDS
 70
     0
  0
APPID
  2
ACAECLAYERSTANDARD
 70
     0
  0
APPID
  2
ACAUTHENVIRON
 70
     0
  0
APPID
  2
ACDBDYNAMICBLOCKTRUENAME
 70
     0
  0
APPID
  2
ACDBDYNAMICBLOCKGUID
 70
     0
  0
APPID
  2
ACDBBLOCKREPETAG
 70
     0
  0
APPID
  2
ACDBBLOCKREPBTAG
 70
     0
  0
APPID
  2
ACAD_NAV_VCDISPLAY
 70
     0
  0
APPID
  2
ACAD_DSTYLE_DIMRADIAL_EXTENSION
 70
     0
  0
APPID
  2
ACAD_DSTYLE_DIMJAG
 70
     0
  0
APPID
  2
ACAD_DSTYLE_DIMTALN
 70
     0
  0
APPID
  2
ACADANNOPO
 70
     0
  0
APPID
  2
GRADIENTCOLOR1ACI
 70
     0
  0
APPID
  2
GRADIENTCOLOR2ACI
 70
     0
  0
APPID
  2
ACADANNOMONITORALERTICONDI
 70
     0
  0
APPID
  2
CONTENTBLOCKICON
 70
     0
  0
APPID
  2
ACAD_MLEADERVER
 70
     0
  0
ENDTAB
  0
TABLE
  2
DIMSTYLE
 70
     3
  0
DIMSTYLE
  2
STANDARD
 70
     0
  3

  4

  5

  6

  7

 40
1.0
 41
0.18
 42
0.0625
 43
0.38
 44
0.18
 45
0.0
 46
0.0
 47
0.0
 48
0.0
140
0.18
141
0.09
142
0.0
143
25.3999999999999986
144
1.0
145
0.0
146
1.0
147
0.09
 71
     0
 72
     0
 73
     1
 74
     1
 75
     0
 76
     0
 77
     0
 78
     0
170
     0
171
     2
172
     0
173
     0
174
     0
175
     0
176
     0
177
     0
178
     0
  0
DIMSTYLE
  2
ANNOTATIVE
 70
     0
  3

  4

  5

  6

  7

 40
1.0
 41
0.18
 42
0.0625
 43
0.38
 44
0.18
 45
0.0
 46
0.0
 47
0.0
 48
0.0
140
0.18
141
0.09
142
0.0
143
25.3999999999999986
144
1.0
145
0.0
146
1.0
147
0.09
 71
     0
 72
     0
 73
     1
 74
     1
 75
     0
 76
     0
 77
     0
 78
     0
170
     0
171
     2
172
     0
173
     0
174
     0
175
     0
176
     0
177
     0
178
     0
  0
DIMSTYLE
  2
S10
 70
     0
  3

  4

  5

  6

  7

 40
10.0
 41
2.0
 42
1.0
 43
10.0
 44
1.0
 45
0.0
 46
0.0
 47
0.0
 48
0.0
140
3.2000000000000002
141
0.0
142
0.0
143
25.3999999999999986
144
1.0
145
0.0
146
1.0
147
0.9
 71
     0
 72
     0
 73
     0
 74
     0
 75
     0
 76
     0
 77
     1
 78
     8
170
     0
171
     2
172
     1
173
     0
174
     0
175
     0
176
   256
177
   256
178
   256
  0
ENDTAB
  0
ENDSEC
  0
SECTION
  2
BLOCKS
  0
BLOCK
  8
0
  2
$MODEL_SPACE
 70
     0
 10
0.0
 20
0.0
 30
0.0
  3
$MODEL_SPACE
  1

  0
ENDBLK
  5
12C024
  8
0
  0
BLOCK
 67
     1
  8
0
  2
$PAPER_SPACE
 70
     0
 10
0.0
 20
0.0
 30
0.0
  3
$PAPER_SPACE
  1

  0
ENDBLK
  5
12C020
 67
     1
  8
0
  0
BLOCK
  8
0
  2
_OPEN30
 70
     0
 10
0.0
 20
0.0
 30
0.0
  3
_OPEN30
  1

  0
LINE
  5
202
  8
0
  6
BYBLOCK
 62
     0
 10
-1.0
 20
0.26794919
 30
0.0
 11
0.0
 21
0.0
 31
0.0
  0
LINE
  5
203
  8
0
  6
BYBLOCK
 62
     0
 10
0.0
 20
0.0
 30
0.0
 11
-1.0
 21
-0.26794919
 31
0.0
  0
LINE
  5
204
  8
0
  6
BYBLOCK
 62
     0
 10
0.0
 20
0.0
 30
0.0
 11
-1.0
 21
0.0
 31
0.0
  0
ENDBLK
  5
206
  8
0
  0
BLOCK
  8
0
  2
*U3
 70
     1
 10
0.0
 20
0.0
 30
0.0
  3
*U3
  1

  0
TEXT
  5
12BD1D
  8
DIM
 10
2561.4285714285711038
 20
-3443.2081219844449151
 30
0.0
 40
32.0
  1
C
 41
0.75
  0
ENDBLK
  5
12BD1F
  8
0
  0
BLOCK
  8
0
  2
*U4
 70
     1
 10
0.0
 20
0.0
 30
0.0
  3
*U4
  1

  0
TEXT
  5
12BD21
  8
DIM
 10
2707.8409284037338693
 20
-3970.9999999999968168
 30
0.0
 40
32.0
  1
B
 50
90.0
 41
0.75
  0
ENDBLK
  5
12BD23
  8
0
  0
BLOCK
  8
0
  2
*U5
 70
     1
 10
0.0
 20
0.0
 30
0.0
  3
*U5
  1

  0
TEXT
  5
12BD25
  8
DIM
 10
2709.4796205944589929
 20
-3589.1428571428527903
 30
0.0
 40
32.0
  1
A
 50
90.0
 41
0.75
  0
ENDBLK
  5
12BD27
  8
0
  0
BLOCK
  8
0
  2
*U6
 70
     1
 10
0.0
 20
0.0
 30
0.0
  3
*U6
  1

  0
TEXT
  5
12BD29
  8
SLIM
 10
158.9523809524228
 20
-130.0000000001718092
 30
0.0
 40
26.0
  1
75
  0
ENDBLK
  5
12BD2B
  8
0
  0
BLOCK
  8
0
  2
*U7
 70
     1
 10
0.0
 20
0.0
 30
0.0
  3
*U7
  1

  0
TEXT
  5
12BD5F
  8
SLIM
 10
154.9523809523809064
 20
-894.0
 30
0.0
 40
26.0
  1
50
  0
ENDBLK
  5
12BD61
  8
0
  0
BLOCK
  8
0
  2
*U8
 70
     1
 10
0.0
 20
0.0
 30
0.0
  3
*U8
  1

  0
TEXT
  5
12BD63
  8
SLIM
 10
154.9523809523809064
 20
-1124.0
 30
0.0
 40
26.0
  1
50
  0
ENDBLK
  5
12BD65
  8
0
  0
BLOCK
  8
0
  2
*U9
 70
     1
 10
0.0
 20
0.0
 30
0.0
  3
*U9
  1

  0
TEXT
  5
12BD67
  8
SLIM
 10
514.9523809523809632
 20
-894.0
 30
0.0
 40
26.0
  1
50
  0
ENDBLK
  5
12BD69
  8
0
  0
BLOCK
  8
0
  2
*U10
 70
     1
 10
0.0
 20
0.0
 30
0.0
  3
*U10
  1

  0
TEXT
  5
12BD6B
  8
SLIM
 10
514.9523809523809632
 20
-1124.0
 30
0.0
 40
26.0
  1
65
  0
ENDBLK
  5
12BD6D
  8
0
  0
BLOCK
  8
0
  2
*U11
 70
     1
 10
0.0
 20
0.0
 30
0.0
  3
*U11
  1

  0
TEXT
  5
12BD6F
  8
SLIM
 10
154.9523809523809064
 20
-1358.0
 30
0.0
 40
26.0
  1
50
  0
ENDBLK
  5
12BD71
  8
0
  0
BLOCK
  8
0
  2
*U12
 70
     1
 10
0.0
 20
0.0
 30
0.0
  3
*U12
  1

  0
TEXT
  5
12BD73
  8
SLIM
 10
154.9523809523809064
 20
-1588.0
 30
0.0
 40
26.0
  1
75
  0
ENDBLK
  5
12BD75
  8
0
  0
BLOCK
  8
0
  2
*U13
 70
     1
 10
0.0
 20
0.0
 30
0.0
  3
*U13
  1

  0
TEXT
  5
12BD77
  8
SLIM
 10
514.9523809523809632
 20
-1358.0
 30
0.0
 40
26.0
  1
65
  0
ENDBLK
  5
12BD79
  8
0
  0
BLOCK
  8
0
  2
*U14
 70
     1
 10
0.0
 20
0.0
 30
0.0
  3
*U14
  1

  0
TEXT
  5
12BD7B
  8
SLIM
 10
514.9523809523809632
 20
-1588.0
 30
0.0
 40
26.0
  1
50
  0
ENDBLK
  5
12BD7D
  8
0
  0
BLOCK
  8
0
  2
*U15
 70
     1
 10
0.0
 20
0.0
 30
0.0
  3
*U15
  1

  0
TEXT
  5
12BD7F
  8
SLIM
 10
154.9523809523809064
 20
-1822.0
 30
0.0
 40
26.0
  1
65
  0
ENDBLK
  5
12BD81
  8
0
  0
BLOCK
  8
0
  2
*U16
 70
     1
 10
0.0
 20
0.0
 30
0.0
  3
*U16
  1

  0
TEXT
  5
12BD83
  8
SLIM
 10
154.9523809523809064
 20
-2052.0
 30
0.0
 40
26.0
  1
65
  0
ENDBLK
  5
12BD85
  8
0
  0
BLOCK
  8
0
  2
*U17
 70
     1
 10
0.0
 20
0.0
 30
0.0
  3
*U17
  1

  0
TEXT
  5
12BD87
  8
SLIM
 10
514.9523809523809632
 20
-1822.0
 30
0.0
 40
26.0
  1
65
  0
ENDBLK
  5
12BD89
  8
0
  0
BLOCK
  8
0
  2
*U18
 70
     1
 10
0.0
 20
0.0
 30
0.0
  3
*U18
  1

  0
TEXT
  5
12BD8B
  8
SLIM
 10
514.9523809523809632
 20
-2052.0
 30
0.0
 40
26.0
  1
75
  0
ENDBLK
  5
12BD8D
  8
0
  0
BLOCK
  8
0
  2
*U19
 70
     1
 10
0.0
 20
0.0
 30
0.0
  3
*U19
  1

  0
TEXT
  5
12BD8F
  8
SLIM
 10
154.9523809523809064
 20
-2286.0
 30
0.0
 40
26.0
  1
75
  0
ENDBLK
  5
12BD91
  8
0
  0
BLOCK
  8
0
  2
*U20
 70
     1
 10
0.0
 20
0.0
 30
0.0
  3
*U20
  1

  0
TEXT
  5
12BD93
  8
SLIM
 10
154.9523809523809064
 20
-2516.0
 30
0.0
 40
26.0
  1
50
  0
ENDBLK
  5
12BD95
  8
0
  0
BLOCK
  8
0
  2
*U21
 70
     1
 10
0.0
 20
0.0
 30
0.0
  3
*U21
  1

  0
TEXT
  5
12BD97
  8
SLIM
 10
514.9523809523809632
 20
-2286.0
 30
0.0
 40
26.0
  1
75
  0
ENDBLK
  5
12BD99
  8
0
  0
BLOCK
  8
0
  2
*U22
 70
     1
 10
0.0
 20
0.0
 30
0.0
  3
*U22
  1

  0
TEXT
  5
12BD9B
  8
SLIM
 10
514.9523809523809632
 20
-2516.0
 30
0.0
 40
26.0
  1
65
  0
ENDBLK
  5
12BD9D
  8
0
  0
BLOCK
  8
0
  2
*U23
 70
     1
 10
0.0
 20
0.0
 30
0.0
  3
*U23
  1

  0
TEXT
  5
12BD9F
  8
SLIM
 10
154.9523809523809064
 20
-2750.0
 30
0.0
 40
26.0
  1
75
  0
ENDBLK
  5
12BDA1
  8
0
  0
BLOCK
  8
0
  2
*U24
 70
     1
 10
0.0
 20
0.0
 30
0.0
  3
*U24
  1

  0
TEXT
  5
12BDA3
  8
SLIM
 10
154.9523809523809064
 20
-2980.0
 30
0.0
 40
26.0
  1
75
  0
ENDBLK
  5
12BDA5
  8
0
  0
BLOCK
  8
0
  2
*U25
 70
     1
 10
0.0
 20
0.0
 30
0.0
  3
*U25
  1

  0
TEXT
  5
12BDA7
  8
DIM
 10
2700.424581672757995
 20
-864.0000000000002274
 30
0.0
 40
32.0
  1
P
 50
90.0
 41
0.75
  0
ENDBLK
  5
12BDA9
  8
0
  0
BLOCK
  8
0
  2
*U26
 70
     1
 10
0.0
 20
0.0
 30
0.0
  3
*U26
  1

  0
TEXT
  5
12BDAB
  8
DIM
 10
4700.4245816727616329
 20
-864.0000000000012506
 30
0.0
 40
32.0
  1
P
 50
90.0
 41
0.75
  0
ENDBLK
  5
12BDAD
  8
0
  0
BLOCK
  8
0
  2
*U27
 70
     1
 10
0.0
 20
0.0
 30
0.0
  3
*U27
  1

  0
TEXT
  5
12BDAF
  8
DIM
 10
4334.1164560757752042
 20
-1258.7428571428579289
 30
0.0
 40
32.0
  1
m（シンドカット）
 50
90.0
 41
0.75
  0
ENDBLK
  5
12BDB1
  8
0
  0
ENDSEC
  0
SECTION
  2
ENTITIES
  0
LINE
  5
11273E
  8
OBJECT
 10
2325.0
 20
-3984.9999999999968168
 30
0.0
 11
5075.0
 21
-3984.9999999999968168
 31
0.0
  0
LINE
  5
11412B
  8
SLIM
 10
3256.0
 20
-3042.5000160472709467
 30
0.0
 11
3256.0
 21
-3372.5000160472709467
 31
0.0
  0
LINE
  5
11412C
  8
SLIM
 10
3380.0
 20
-3042.5000160472709467
 30
0.0
 11
3380.0
 21
-3372.5000160472709467
 31
0.0
  0
LINE
  5
11412D
  8
SLIM
 10
3510.0
 20
-3102.5000160472709467
 30
0.0
 11
3510.0
 21
-3372.5000160472709467
 31
0.0
  0
LINE
  5
11412E
  8
SLIM
 10
3640.0
 20
-3102.5000160472709467
 30
0.0
 11
3640.0
 21
-3372.5000160472709467
 31
0.0
  0
LINE
  5
11412F
  8
SLIM
 10
3770.0
 20
-3372.5000160472709467
 30
0.0
 11
3770.0
 21
-3042.5000160472709467
 31
0.0
  0
LINE
  5
114131
  8
SLIM
 10
3770.0
 20
-3042.5000160472709467
 30
0.0
 11
3256.0
 21
-3042.5000160472709467
 31
0.0
  0
LINE
  5
114132
  8
SLIM
 10
3769.9999999999990905
 20
-3102.5000160472709467
 30
0.0
 11
3380.0
 21
-3102.5000160472709467
 31
0.0
  0
LINE
  5
114133
  8
SLIM
 10
3770.0
 20
-3162.5000160472709467
 30
0.0
 11
3256.0
 21
-3162.5000160472709467
 31
0.0
  0
LINE
  5
114134
  8
SLIM
 10
3770.0
 20
-3232.5000160472700372
 30
0.0
 11
3256.0
 21
-3232.5000160472700372
 31
0.0
  0
LINE
  5
114135
  8
SLIM
 10
3770.0
 20
-3302.5000160472709467
 30
0.0
 11
3256.0
 21
-3302.5000160472709467
 31
0.0
  0
LINE
  5
114136
  8
SLIM
 10
3770.0
 20
-3372.5000160472709467
 30
0.0
 11
3256.0
 21
-3372.5000160472709467
 31
0.0
  0
LINE
  5
11414B
  8
SLIM
 10
3380.0
 20
-3162.5000160472709467
 30
0.0
 11
3255.9999722746579209
 21
-3042.5
 31
0.0
  0
LINE
  5
1238B4
  8
CENTER
 10
2580.0
 20
-3579.9999999999959073
 30
0.0
 11
2410.0
 21
-3579.9999999999959073
 31
0.0
1001
ACDBBLOCKREPETAG
1070
     1
1071
       14
1005
122545
  0
LINE
  5
1238B5
  8
CENTER
 10
2500.0
 20
-3669.9999999999968168
 30
0.0
 11
2500.0
 21
-3489.9999999999968168
 31
0.0
1001
ACDBBLOCKREPETAG
1070
     1
1071
       15
1005
122546
  0
CIRCLE
  5
1238B6
  8
OBJECT
 10
2500.0
 20
-3579.9999999999959073
 30
0.0
 40
70.0
1001
ACDBBLOCKREPETAG
1070
     1
1071
       16
1005
122547
  0
CIRCLE
  5
1238B7
  8
OBJECT
 10
2500.0
 20
-3579.9999999999959073
 30
0.0
 40
75.0
1001
ACDBBLOCKREPETAG
1070
     1
1071
       17
1005
122548
  0
LINE
  5
123927
  8
CENTER
 10
2500.0
 20
-3764.9999999999968168
 30
0.0
 11
2500.0
 21
-4011.9999999999959073
 31
0.0
1001
ACDBBLOCKREPETAG
1070
     1
1071
       25
1005
123927
  0
LINE
  5
123928
  8
OBJECT
 10
2425.0
 20
-3779.9999999999990905
 30
0.0
 11
2425.0
 21
-3999.9999999999968168
 31
0.0
1001
ACDBBLOCKREPETAG
1070
     1
1071
       26
1005
123928
  0
LINE
  5
12392C
  8
OBJECT
 10
2575.0
 20
-3779.9999999999990905
 30
0.0
 11
2575.0
 21
-3876.5000000000600267
 31
0.0
1001
ACDBBLOCKREPETAG
1070
     1
1071
       34
1005
12392C
  0
LINE
  5
123A5C
  8
OBJECT
 10
2575.0
 20
-3982.4999999999990905
 30
0.0
 11
2575.0
 21
-3999.9999999999968168
 31
0.0
1001
ACDBBLOCKREPETAG
1070
     1
1071
       34
1005
12392C
  0
LINE
  5
123A5E
  8
CENTER
 10
2900.0
 20
-3764.9999999999968168
 30
0.0
 11
2900.0
 21
-4011.9999999999959073
 31
0.0
1001
ACDBBLOCKREPETAG
1070
     1
1071
       25
1005
123927
  0
LINE
  5
123A5F
  8
OBJECT
 10
2825.0
 20
-3779.9999999999990905
 30
0.0
 11
2825.0
 21
-3999.9999999999968168
 31
0.0
1001
ACDBBLOCKREPETAG
1070
     1
1071
       26
1005
123928
  0
LINE
  5
123A60
  8
OBJECT
 10
2975.0
 20
-3779.9999999999990905
 30
0.0
 11
2975.0
 21
-4000.0
 31
0.0
1001
ACDBBLOCKREPETAG
1070
     1
1071
       34
1005
12392C
  0
LINE
  5
123AD2
  8
CENTER
 10
3580.0
 20
-3579.9999999999959073
 30
0.0
 11
3410.0
 21
-3579.9999999999959073
 31
0.0
1001
ACDBBLOCKREPETAG
1070
     1
1071
       14
1005
122545
  0
LINE
  5
123AD3
  8
CENTER
 10
3500.0
 20
-3669.9999999999968168
 30
0.0
 11
3500.0
 21
-3489.9999999999968168
 31
0.0
1001
ACDBBLOCKREPETAG
1070
     1
1071
       15
1005
122546
  0
CIRCLE
  5
123AD4
  8
OBJECT
 10
3500.0
 20
-3579.9999999999959073
 30
0.0
 40
70.0
1001
ACDBBLOCKREPETAG
1070
     1
1071
       16
1005
122547
  0
CIRCLE
  5
123AD5
  8
OBJECT
 10
3500.0
 20
-3579.9999999999959073
 30
0.0
 40
75.0
1001
ACDBBLOCKREPETAG
1070
     1
1071
       17
1005
122548
  0
LINE
  5
123ADD
  8
CENTER
 10
3500.0
 20
-3764.9999999999968168
 30
0.0
 11
3500.0
 21
-4011.9999999999959073
 31
0.0
1001
ACDBBLOCKREPETAG
1070
     1
1071
       25
1005
123927
  0
LINE
  5
123ADE
  8
OBJECT
 10
3424.9999999999990905
 20
-3779.9999999999990905
 30
0.0
 11
3424.9999999999990905
 21
-3999.9999999999968168
 31
0.0
1001
ACDBBLOCKREPETAG
1070
     1
1071
       26
1005
123928
  0
LINE
  5
123ADF
  8
OBJECT
 10
3574.9999999999990905
 20
-3779.9999999999990905
 30
0.0
 11
3574.9999999999990905
 21
-3876.5000000000600267
 31
0.0
1001
ACDBBLOCKREPETAG
1070
     1
1071
       34
1005
12392C
  0
LINE
  5
123AE0
  8
OBJECT
 10
3574.9999999999990905
 20
-3982.4999999999990905
 30
0.0
 11
3574.9999999999990905
 21
-3999.9999999999968168
 31
0.0
1001
ACDBBLOCKREPETAG
1070
     1
1071
       34
1005
12392C
  0
LINE
  5
123AE8
  8
CENTER
 10
3900.0
 20
-3764.9999999999968168
 30
0.0
 11
3900.0
 21
-4011.9999999999959073
 31
0.0
1001
ACDBBLOCKREPETAG
1070
     1
1071
       25
1005
123927
  0
LINE
  5
123AE9
  8
OBJECT
 10
3824.9999999999990905
 20
-3779.9999999999990905
 30
0.0
 11
3824.9999999999990905
 21
-3999.9999999999968168
 31
0.0
1001
ACDBBLOCKREPETAG
1070
     1
1071
       26
1005
123928
  0
LINE
  5
123AEA
  8
OBJECT
 10
3975.0
 20
-3779.9999999999990905
 30
0.0
 11
3975.0
 21
-4000.0
 31
0.0
1001
ACDBBLOCKREPETAG
1070
     1
1071
       34
1005
12392C
  0
LINE
  5
123B38
  8
CENTER
 10
4579.9999999999990905
 20
-3579.9999999999959073
 30
0.0
 11
4409.9999999999990905
 21
-3579.9999999999959073
 31
0.0
1001
ACDBBLOCKREPETAG
1070
     1
1071
       14
1005
122545
  0
LINE
  5
123B39
  8
CENTER
 10
4499.9999999999990905
 20
-3669.9999999999968168
 30
0.0
 11
4499.9999999999990905
 21
-3489.9999999999968168
 31
0.0
1001
ACDBBLOCKREPETAG
1070
     1
1071
       15
1005
122546
  0
CIRCLE
  5
123B3A
  8
OBJECT
 10
4499.9999999999990905
 20
-3579.9999999999959073
 30
0.0
 40
70.0
1001
ACDBBLOCKREPETAG
1070
     1
1071
       16
1005
122547
  0
CIRCLE
  5
123B3B
  8
OBJECT
 10
4499.9999999999990905
 20
-3579.9999999999959073
 30
0.0
 40
75.0
1001
ACDBBLOCKREPETAG
1070
     1
1071
       17
1005
122548
  0
LINE
  5
123B43
  8
CENTER
 10
4500.0
 20
-3764.9999999999968168
 30
0.0
 11
4500.0
 21
-4011.9999999999959073
 31
0.0
1001
ACDBBLOCKREPETAG
1070
     1
1071
       25
1005
123927
  0
LINE
  5
123B44
  8
OBJECT
 10
4425.0
 20
-3779.9999999999990905
 30
0.0
 11
4425.0
 21
-3999.9999999999968168
 31
0.0
1001
ACDBBLOCKREPETAG
1070
     1
1071
       26
1005
123928
  0
LINE
  5
123B45
  8
OBJECT
 10
4575.0
 20
-3779.9999999999990905
 30
0.0
 11
4575.0
 21
-3876.5000000000600267
 31
0.0
1001
ACDBBLOCKREPETAG
1070
     1
1071
       34
1005
12392C
  0
LINE
  5
123B46
  8
OBJECT
 10
4575.0
 20
-3982.4999999999990905
 30
0.0
 11
4575.0
 21
-3999.9999999999968168
 31
0.0
1001
ACDBBLOCKREPETAG
1070
     1
1071
       34
1005
12392C
  0
LINE
  5
123B4E
  8
CENTER
 10
4900.0
 20
-3764.9999999999968168
 30
0.0
 11
4900.0
 21
-4011.9999999999959073
 31
0.0
1001
ACDBBLOCKREPETAG
1070
     1
1071
       25
1005
123927
  0
LINE
  5
123B4F
  8
OBJECT
 10
4825.0
 20
-3779.9999999999990905
 30
0.0
 11
4825.0
 21
-3999.9999999999968168
 31
0.0
1001
ACDBBLOCKREPETAG
1070
     1
1071
       26
1005
123928
  0
LINE
  5
123B50
  8
OBJECT
 10
4975.0
 20
-3779.9999999999990905
 30
0.0
 11
4974.9999999999990905
 21
-4000.0
 31
0.0
1001
ACDBBLOCKREPETAG
1070
     1
1071
       34
1005
12392C
  0
POINT
  5
124C02
  8
DOTS
 10
2500.0
 20
-3579.9999999999959073
 30
0.0
  0
POINT
  5
124C03
  8
DOTS
 10
2500.0
 20
-3984.9999999999968168
 30
0.0
  0
POINT
  5
124C05
  8
DOTS
 10
3500.0
 20
-3984.9999999999968168
 30
0.0
  0
POINT
  5
124C07
  8
DOTS
 10
3500.0
 20
-3579.9999999999959073
 30
0.0
  0
POINT
  5
124C08
  8
DOTS
 10
4499.9999999999990905
 20
-3579.9999999999959073
 30
0.0
  0
POINT
  5
124C09
  8
DOTS
 10
4499.9999999999990905
 20
-3984.9999999999968168
 30
0.0
  0
LINE
  5
12A6D4
  8
CENTER
 10
4580.0
 20
-199.9999999999990905
 30
0.0
 11
4400.0
 21
-199.9999999999990905
 31
0.0
1001
ACDBBLOCKREPETAG
1070
     1
1071
       14
1005
0
  0
CIRCLE
  5
12A6D5
  8
OBJECT
 10
4500.0
 20
-199.9999999999990905
 30
0.0
 40
53.5
1001
ACDBBLOCKREPETAG
1070
     1
1071
      344
1005
0
  0
LINE
  5
12A6D6
  8
CENTER
 10
4500.0
 20
-299.9999999999990905
 30
0.0
 11
4500.0
 21
-99.9999999999990763
 31
0.0
1001
ACDBBLOCKREPETAG
1070
     1
1071
       15
1005
0
  0
POINT
  5
12A6D7
  8
DOTS
 10
4500.0
 20
-199.9999999999990905
 30
0.0
 50
270.0
1001
ACDBBLOCKREPETAG
1070
     1
1071
      362
1005
0
  0
CIRCLE
  5
12A6D8
  8
OBJECT
 10
4500.0
 20
-199.9999999999990905
 30
0.0
 40
70.0
1001
ACDBBLOCKREPETAG
1070
     1
1071
       16
1005
0
  0
ARC
  5
12A6D9
  8
OBJECT
 10
4500.0
 20
-199.9999999999990905
 30
0.0
 40
80.0
 50
50.8050325738959003
 51
309.1949674259690255
1001
ACDBBLOCKREPETAG
1070
     1
1071
       18
1005
0
  0
LINE
  5
12A6DA
  8
OBJECT
 10
4403.0
 20
-148.0
 30
0.0
 11
4407.0
 21
-152.5
 31
0.0
1001
ACDBBLOCKREPETAG
1070
     1
1071
       32
1005
0
  0
CIRCLE
  5
12A6DB
  8
OBJECT
 10
4500.0
 20
-199.9999999999990905
 30
0.0
 40
77.0
1001
ACDBBLOCKREPETAG
1070
     1
1071
       17
1005
0
  0
LINE
  5
12A6DC
  8
OBJECT
 10
4545.6618002273244201
 20
-261.9999999999990905
 30
0.0
 11
4580.0
 21
-261.9999999999990905
 31
0.0
1001
ACDBBLOCKREPETAG
1070
     1
1071
       20
1005
0
  0
LINE
  5
12A6DD
  8
OBJECT
 10
4545.6618002273244201
 20
-137.9999999999990905
 30
0.0
 11
4580.0
 21
-137.9999999999990905
 31
0.0
1001
ACDBBLOCKREPETAG
1070
     1
1071
       19
1005
0
  0
LINE
  5
12A6DE
  8
OBJECT
 10
4367.0
 20
-255.0
 30
0.0
 11
4360.0
 21
-255.0
 31
0.0
1001
ACDBBLOCKREPETAG
1070
     1
1071
       20
1005
0
  0
LINE
  5
12A6DF
  8
OBJECT
 10
4360.0
 20
-255.0
 30
0.0
 11
4360.0
 21
-145.0
 31
0.0
1001
ACDBBLOCKREPETAG
1070
     1
1071
       21
1005
0
  0
LINE
  5
12A6E0
  8
OBJECT
 10
4360.0
 20
-145.0
 30
0.0
 11
4367.0
 21
-145.0
 31
0.0
1001
ACDBBLOCKREPETAG
1070
     1
1071
       22
1005
0
  0
LINE
  5
12A6E1
  8
OBJECT
 10
4367.0
 20
-145.0
 30
0.0
 11
4367.0
 21
-255.0
 31
0.0
1001
ACDBBLOCKREPETAG
1070
     1
1071
       23
1005
0
  0
LINE
  5
12A6E2
  8
CENTER
 10
4345.0
 20
-200.0
 30
0.0
 11
4420.0
 21
-200.0
 31
0.0
1001
ACDBBLOCKREPETAG
1070
     1
1071
       24
1005
0
  0
LINE
  5
12A6E3
  8
OBJECT
 10
4367.0
 20
-252.0
 30
0.0
 11
4403.0
 21
-252.0
 31
0.0
1001
ACDBBLOCKREPETAG
1070
     1
1071
       25
1005
0
  0
LINE
  5
12A6E4
  8
OBJECT
 10
4403.0
 20
-252.0
 30
0.0
 11
4403.0
 21
-148.0
 31
0.0
1001
ACDBBLOCKREPETAG
1070
     1
1071
       26
1005
0
  0
LINE
  5
12A6E5
  8
OBJECT
 10
4403.0
 20
-148.0
 30
0.0
 11
4367.0
 21
-148.0
 31
0.0
1001
ACDBBLOCKREPETAG
1070
     1
1071
       27
1005
0
  0
LINE
  5
12A6E6
  8
OBJECT
 10
4407.0
 20
-247.5
 30
0.0
 11
4415.5
 21
-247.5
 31
0.0
1001
ACDBBLOCKREPETAG
1070
     1
1071
       28
1005
0
  0
LINE
  5
12A6E7
  8
OBJECT
 10
4415.5
 20
-152.5
 30
0.0
 11
4407.0
 21
-152.5
 31
0.0
1001
ACDBBLOCKREPETAG
1070
     1
1071
       29
1005
0
  0
LINE
  5
12A6E8
  8
OBJECT
 10
4407.0
 20
-152.5
 30
0.0
 11
4407.0
 21
-247.5
 31
0.0
1001
ACDBBLOCKREPETAG
1070
     1
1071
       30
1005
0
  0
LINE
  5
12A6E9
  8
OBJECT
 10
4403.0
 20
-252.0
 30
0.0
 11
4407.0
 21
-247.5
 31
0.0
1001
ACDBBLOCKREPETAG
1070
     1
1071
       31
1005
0
  0
ARC
  5
12A6EA
  8
OBJECT
 10
4500.0
 20
-199.9999999999990905
 30
0.0
 40
85.0
 50
46.8371028597321768
 51
144.3837932714677947
1001
ACDBBLOCKREPETAG
1070
     1
1071
       18
1005
0
  0
LINE
  5
12A6EB
  8
OBJECT
 10
4415.5
 20
-150.5
 30
0.0
 11
4415.5
 21
-249.5
 31
0.0
1001
ACDBBLOCKREPETAG
1070
     1
1071
       33
1005
0
  0
LINE
  5
12A6EC
  8
HIDDEN
 10
4412.0
 20
-238.0
 30
0.0
 11
4412.0
 21
-162.0
 31
0.0
1001
ACDBBLOCKREPETAG
1070
     1
1071
       34
1005
0
  0
LINE
  5
12A6ED
  8
OBJECT
 10
4415.5
 20
-249.5
 30
0.0
 11
4437.1529634747967066
 21
-249.5
 31
0.0
1001
ACDBBLOCKREPETAG
1070
     1
1071
       35
1005
0
  0
LINE
  5
12A6EE
  8
OBJECT
 10
4415.5
 20
-150.5
 30
0.0
 11
4437.1529634747967066
 21
-150.5
 31
0.0
1001
ACDBBLOCKREPETAG
1070
     1
1071
       36
1005
0
  0
ARC
  5
12A6EF
  8
OBJECT
 10
4500.0
 20
-199.9999999999990905
 30
0.0
 40
85.0
 50
215.6162067285320916
 51
313.1628971402676029
1001
ACDBBLOCKREPETAG
1070
     1
1071
       18
1005
0
  0
LINE
  5
12A6F8
  8
CENTER
 10
2580.0
 20
-199.9999999999980105
 30
0.0
 11
2400.0
 21
-199.9999999999980105
 31
0.0
1001
ACDBBLOCKREPETAG
1070
     1
1071
       14
1005
0
  0
CIRCLE
  5
12A6F9
  8
OBJECT
 10
2500.0
 20
-199.9999999999980105
 30
0.0
 40
53.5
1001
ACDBBLOCKREPETAG
1070
     1
1071
      344
1005
0
  0
LINE
  5
12A6FA
  8
CENTER
 10
2500.0
 20
-294.9999999999980105
 30
0.0
 11
2500.0
 21
-104.9999999999979963
 31
0.0
1001
ACDBBLOCKREPETAG
1070
     1
1071
       15
1005
0
  0
POINT
  5
12A6FB
  8
DOTS
 10
2500.0
 20
-199.9999999999980105
 30
0.0
 50
270.0
1001
ACDBBLOCKREPETAG
1070
     1
1071
      362
1005
0
  0
CIRCLE
  5
12A6FC
  8
OBJECT
 10
2500.0
 20
-199.9999999999980105
 30
0.0
 40
70.0
1001
ACDBBLOCKREPETAG
1070
     1
1071
       16
1005
0
  0
ARC
  5
12A6FD
  8
OBJECT
 10
2500.0
 20
-199.9999999999980105
 30
0.0
 40
80.0
 50
50.8050325738965682
 51
309.1949674259690255
1001
ACDBBLOCKREPETAG
1070
     1
1071
       18
1005
0
  0
CIRCLE
  5
12A6FE
  8
OBJECT
 10
2500.0
 20
-199.9999999999980105
 30
0.0
 40
77.0
1001
ACDBBLOCKREPETAG
1070
     1
1071
       17
1005
0
  0
LINE
  5
12A6FF
  8
OBJECT
 10
2545.6618002273230559
 20
-261.9999999999980105
 30
0.0
 11
2580.0
 21
-261.9999999999980105
 31
0.0
1001
ACDBBLOCKREPETAG
1070
     1
1071
       20
1005
0
  0
LINE
  5
12A700
  8
OBJECT
 10
2545.6618002273230559
 20
-137.9999999999980105
 30
0.0
 11
2580.0
 21
-137.9999999999980105
 31
0.0
1001
ACDBBLOCKREPETAG
1070
     1
1071
       19
1005
0
  0
LINE
  5
12A701
  8
OBJECT
 10
2366.9999999999990905
 20
-254.9999999999988916
 30
0.0
 11
2359.9999999999990905
 21
-254.9999999999988916
 31
0.0
1001
ACDBBLOCKREPETAG
1070
     1
1071
       20
1005
0
  0
LINE
  5
12A702
  8
OBJECT
 10
2359.9999999999990905
 20
-254.9999999999988916
 30
0.0
 11
2359.9999999999990905
 21
-144.9999999999986926
 31
0.0
1001
ACDBBLOCKREPETAG
1070
     1
1071
       21
1005
0
  0
LINE
  5
12A703
  8
OBJECT
 10
2359.9999999999990905
 20
-144.9999999999986926
 30
0.0
 11
2366.9999999999990905
 21
-144.9999999999986926
 31
0.0
1001
ACDBBLOCKREPETAG
1070
     1
1071
       22
1005
0
  0
LINE
  5
12A704
  8
OBJECT
 10
2366.9999999999990905
 20
-144.9999999999986926
 30
0.0
 11
2366.9999999999990905
 21
-254.9999999999988916
 31
0.0
1001
ACDBBLOCKREPETAG
1070
     1
1071
       23
1005
0
  0
LINE
  5
12A705
  8
CENTER
 10
2345.0
 20
-199.9999999999986926
 30
0.0
 11
2420.0
 21
-199.9999999999986926
 31
0.0
1001
ACDBBLOCKREPETAG
1070
     1
1071
       24
1005
0
  0
LINE
  5
12A706
  8
OBJECT
 10
2366.9999999999990905
 20
-251.9999999999988063
 30
0.0
 11
2403.0
 21
-251.9999999999988063
 31
0.0
1001
ACDBBLOCKREPETAG
1070
     1
1071
       25
1005
0
  0
LINE
  5
12A707
  8
OBJECT
 10
2403.0
 20
-251.9999999999988063
 30
0.0
 11
2403.0
 21
-147.9999999999986926
 31
0.0
1001
ACDBBLOCKREPETAG
1070
     1
1071
       26
1005
0
  0
LINE
  5
12A708
  8
OBJECT
 10
2403.0
 20
-147.9999999999986926
 30
0.0
 11
2366.9999999999990905
 21
-147.9999999999986926
 31
0.0
1001
ACDBBLOCKREPETAG
1070
     1
1071
       27
1005
0
  0
LINE
  5
12A709
  8
OBJECT
 10
2407.0
 20
-247.4999999999988063
 30
0.0
 11
2415.5
 21
-247.4999999999988063
 31
0.0
1001
ACDBBLOCKREPETAG
1070
     1
1071
       28
1005
0
  0
LINE
  5
12A70A
  8
OBJECT
 10
2415.5
 20
-152.4999999999988063
 30
0.0
 11
2407.0
 21
-152.4999999999988063
 31
0.0
1001
ACDBBLOCKREPETAG
1070
     1
1071
       29
1005
0
  0
LINE
  5
12A70B
  8
OBJECT
 10
2407.0
 20
-152.4999999999988063
 30
0.0
 11
2407.0
 21
-247.4999999999988063
 31
0.0
1001
ACDBBLOCKREPETAG
1070
     1
1071
       30
1005
0
  0
LINE
  5
12A70C
  8
OBJECT
 10
2403.0
 20
-251.9999999999988063
 30
0.0
 11
2407.0
 21
-247.4999999999988063
 31
0.0
1001
ACDBBLOCKREPETAG
1070
     1
1071
       31
1005
0
  0
LINE
  5
12A70D
  8
OBJECT
 10
2403.0
 20
-147.9999999999986926
 30
0.0
 11
2407.0
 21
-152.4999999999988063
 31
0.0
1001
ACDBBLOCKREPETAG
1070
     1
1071
       32
1005
0
  0
LINE
  5
12A70E
  8
OBJECT
 10
2415.5000000000009095
 20
-150.4999999999988063
 30
0.0
 11
2415.5
 21
-249.4999999999988916
 31
0.0
1001
ACDBBLOCKREPETAG
1070
     1
1071
       33
1005
0
  0
LINE
  5
12A70F
  8
HIDDEN
 10
2412.0
 20
-237.9999999999988916
 30
0.0
 11
2412.0
 21
-161.9999999999988063
 31
0.0
1001
ACDBBLOCKREPETAG
1070
     1
1071
       34
1005
0
  0
LINE
  5
12A710
  8
OBJECT
 10
2415.5
 20
-249.4999999999988916
 30
0.0
 11
2437.1529634747980708
 21
-249.4999999999988916
 31
0.0
1001
ACDBBLOCKREPETAG
1070
     1
1071
       35
1005
0
  0
LINE
  5
12A711
  8
OBJECT
 10
2415.5000000000009095
 20
-150.4999999999988063
 30
0.0
 11
2437.1529634747980708
 21
-150.4999999999988063
 31
0.0
1001
ACDBBLOCKREPETAG
1070
     1
1071
       36
1005
0
  0
LINE
  5
12A714
  8
SLIM
 10
4850.0
 20
-1364.9999999999979536
 30
0.0
 11
4850.0
 21
-788.9999999999980673
 31
0.0
  0
LINE
  5
12B6EB
  8
SLIM
 10
4954.0
 20
-788.9999999999980673
 30
0.0
 11
4954.0
 21
-1364.9999999999979536
 31
0.0
  0
LINE
  5
12B6EC
  8
SLIM
 10
5102.0
 20
-788.9999999999980673
 30
0.0
 11
5102.0
 21
-1364.9999999999979536
 31
0.0
  0
LINE
  5
12B6EE
  8
SLIM
 10
5102.0
 20
-788.9999999999980673
 30
0.0
 11
4850.0
 21
-788.9999999999980673
 31
0.0
  0
LINE
  5
12B6EF
  8
SLIM
 10
5102.0
 20
-836.9999999999980673
 30
0.0
 11
4850.0
 21
-836.9999999999980673
 31
0.0
  0
LINE
  5
12B6F2
  8
SLIM
 10
5102.0
 20
-884.9999999999979536
 30
0.0
 11
4850.0
 21
-884.9999999999979536
 31
0.0
  0
LINE
  5
12B6F5
  8
SLIM
 10
5102.0
 20
-932.999999999998181
 30
0.0
 11
4850.0
 21
-932.999999999998181
 31
0.0
  0
LINE
  5
12B6F8
  8
SLIM
 10
5102.0
 20
-980.999999999998181
 30
0.0
 11
4850.0
 21
-980.999999999998181
 31
0.0
  0
LINE
  5
12B6FB
  8
SLIM
 10
5102.0
 20
-1028.9999999999979536
 30
0.0
 11
4850.0
 21
-1028.9999999999979536
 31
0.0
  0
LINE
  5
12B6FE
  8
SLIM
 10
5102.0
 20
-1076.9999999999979536
 30
0.0
 11
4850.0
 21
-1076.9999999999979536
 31
0.0
  0
LINE
  5
12B700
  8
SLIM
 10
5102.0
 20
-1124.9999999999979536
 30
0.0
 11
4850.0
 21
-1124.9999999999979536
 31
0.0
  0
LINE
  5
12B702
  8
SLIM
 10
5102.0
 20
-1172.9999999999979536
 30
0.0
 11
4850.0
 21
-1172.9999999999979536
 31
0.0
  0
LINE
  5
12B704
  8
SLIM
 10
5102.0
 20
-1220.9999999999979536
 30
0.0
 11
4850.0
 21
-1220.9999999999979536
 31
0.0
  0
LINE
  5
12B706
  8
SLIM
 10
5102.0
 20
-1268.9999999999979536
 30
0.0
 11
4850.0
 21
-1268.9999999999979536
 31
0.0
  0
LINE
  5
12B708
  8
SLIM
 10
5102.0
 20
-1316.9999999999979536
 30
0.0
 11
4850.0
 21
-1316.9999999999979536
 31
0.0
  0
LINE
  5
12B70A
  8
SLIM
 10
5102.0
 20
-1364.9999999999979536
 30
0.0
 11
4850.0
 21
-1364.9999999999979536
 31
0.0
  0
TEXT
  5
12B71C
  8
SLIM
 10
0.0
 20
369.9999999999998863
 30
0.0
 40
100.0
  1
4SR2-A3-BX0X0-PXXX-S
 41
0.75
  0
TEXT
  5
12B71D
  8
SLIM
 10
2350.0
 20
369.9999999999998863
 30
0.0
 40
100.0
  1
4SR2-A3-B2020-P320
 41
0.75
  0
TEXT
  5
12B71E
  8
SLIM
 10
2350.0
 20
532.5
 30
0.0
 40
75.0
  1
側面図の代表機種
 41
0.75
  0
TEXT
  5
12B71F
  8
SLIM
 10
2337.75
 20
282.5000000000001137
 30
0.0
 40
35.0
  1
（枝管サイズ毎に寸法が異なります。管底の位置は全サイズで同じです）
 41
0.75
  0
TEXT
  5
12B720
  8
SLIM
 10
2396.75
 20
-4102.4999999999954525
 30
0.0
 40
35.0
  1
通常枝50（1）
 41
0.75
  0
TEXT
  5
12B721
  8
SLIM
 10
3394.2499999999990905
 20
-4102.4999999999954525
 30
0.0
 40
35.0
  1
通常枝65（2）
 41
0.75
  0
TEXT
  5
12B722
  8
SLIM
 10
4394.25
 20
-4102.4999999999954525
 30
0.0
 40
35.0
  1
通常枝75（3）
 41
0.75
  0
TEXT
  5
12B723
  8
SLIM
 10
2350.0
 20
-3117.5000000000009095
 30
0.0
 40
75.0
  1
下部枝管サイズ毎の形状
 41
0.75
  0
TEXT
  5
12B724
  8
SLIM
 10
3542.1428571428559735
 20
-3217.5000160472709467
 30
0.0
 40
40.0
  1
110
 41
0.75
  0
TEXT
  5
12B725
  8
SLIM
 10
3420.0
 20
-3217.5000160472709467
 30
0.0
 40
40.0
  1
94
 41
0.75
  0
TEXT
  5
12B726
  8
SLIM
 10
3668.5714285714288962
 20
-3217.5000160472709467
 30
0.0
 40
40.0
  1
124
 41
0.75
  0
TEXT
  5
12B727
  8
SLIM
 10
3397.0
 20
-3147.5000160472709467
 30
0.0
 40
30.0
  1
50（1）
 41
0.75
  0
TEXT
  5
12B728
  8
SLIM
 10
3524.8571428571422075
 20
-3147.5000160472709467
 30
0.0
 40
30.0
  1
65（2）
 41
0.75
  0
TEXT
  5
12B729
  8
SLIM
 10
3654.8571428571422075
 20
-3147.5000160472709467
 30
0.0
 40
30.0
  1
75（3）
 41
0.75
  0
TEXT
  5
12B72A
  8
SLIM
 10
3471.0
 20
-3092.5000160472709467
 30
0.0
 40
40.0
  1
横枝管サイズ
 41
0.75
  0
TEXT
  5
12B72B
  8
SLIM
 10
3550.7142857142848698
 20
-3287.5000160472709467
 30
0.0
 40
40.0
  1
52
 41
0.75
  0
TEXT
  5
12B72C
  8
SLIM
 10
3420.0
 20
-3287.5000160472709467
 30
0.0
 40
40.0
  1
44
 41
0.75
  0
TEXT
  5
12B72D
  8
SLIM
 10
3681.4285714285711038
 20
-3287.5000160472709467
 30
0.0
 40
40.0
  1
59
 41
0.75
  0
TEXT
  5
12B72E
  8
SLIM
 10
3539.2857142857160397
 20
-3357.5000160472700372
 30
0.0
 40
40.0
  1
140
 41
0.75
  0
TEXT
  5
12B72F
  8
SLIM
 10
3409.2857142857160397
 20
-3357.5000160472700372
 30
0.0
 40
40.0
  1
140
 41
0.75
  0
TEXT
  5
12B730
  8
SLIM
 10
3669.2857142857142208
 20
-3357.5000160472700372
 30
0.0
 40
40.0
  1
140
 41
0.75
  0
TEXT
  5
12B731
  8
SLIM
 10
3270.2857142857160397
 20
-3217.5000160472709467
 30
0.0
 40
40.0
  1
A寸法
 41
0.75
  0
TEXT
  5
12B732
  8
SLIM
 10
3270.9999999999990905
 20
-3287.5000160472709467
 30
0.0
 40
40.0
  1
B寸法
 41
0.75
  0
TEXT
  5
12B733
  8
SLIM
 10
3270.9999999999990905
 20
-3357.5000160472700372
 30
0.0
 40
40.0
  1
C寸法
 41
0.75
  0
LINE
  5
12B734
  8
DIM
 10
2500.0
 20
-3479.9999999999959073
 30
0.0
 11
2500.0
 21
-3442.2081219844449151
 31
0.0
  0
LINE
  5
12B735
  8
DIM
 10
2640.0
 20
-3522.9999999999959073
 30
0.0
 11
2640.0
 21
-3442.2081219844449151
 31
0.0
  0
LINE
  5
12B736
  8
DIM
 10
2520.0
 20
-3452.2081219844440056
 30
0.0
 11
2620.0
 21
-3452.2081219844440056
 31
0.0
  0
INSERT
  5
12B737
  8
DIM
  2
_OPEN30
 10
2500.0
 20
-3452.2081219844440056
 30
0.0
 41
20.0
 42
20.0
 43
20.0
 50
180.0
  0
INSERT
  5
12B738
  8
DIM
  2
_OPEN30
 10
2640.0
 20
-3452.2081219844440056
 30
0.0
 41
20.0
 42
20.0
 43
20.0
  0
INSERT
  5
12B739
  8
SLIM
  2
*U3
 10
0.0
 20
0.0
 30
0.0
  0
LINE
  5
12B73A
  8
DIM
 10
2650.0
 20
-3984.9999999999990905
 30
0.0
 11
2726.8409284037338693
 21
-3984.9999999999990905
 31
0.0
  0
LINE
  5
12B73B
  8
DIM
 10
2665.0
 20
-3940.9999999999990905
 30
0.0
 11
2726.8409284037338693
 21
-3940.9999999999990905
 31
0.0
  0
LINE
  5
12B73C
  8
DIM
 10
2716.8409284037338693
 20
-4004.9999999999990905
 30
0.0
 11
2716.8409284037338693
 21
-4024.9999999999968168
 31
0.0
  0
LINE
  5
12B73D
  8
DIM
 10
2716.8409284037338693
 20
-3920.9999999999968168
 30
0.0
 11
2716.8409284037338693
 21
-3900.999999999998181
 31
0.0
  0
LINE
  5
12B73E
  8
DIM
 10
2716.8409284037338693
 20
-3984.9999999999990905
 30
0.0
 11
2716.8409284037338693
 21
-3940.9999999999990905
 31
0.0
  0
INSERT
  5
12B73F
  8
DIM
  2
_OPEN30
 10
2716.8409284037338693
 20
-3984.9999999999990905
 30
0.0
 41
20.0
 42
20.0
 43
20.0
 50
90.0
  0
INSERT
  5
12B740
  8
DIM
  2
_OPEN30
 10
2716.8409284037338693
 20
-3940.9999999999990905
 30
0.0
 41
20.0
 42
20.0
 43
20.0
 50
270.0
  0
INSERT
  5
12B741
  8
SLIM
  2
*U4
 10
0.0
 20
0.0
 30
0.0
  0
LINE
  5
12B742
  8
DIM
 10
2650.0
 20
-3626.9999999999968168
 30
0.0
 11
2728.4796205944589929
 21
-3626.9999999999968168
 31
0.0
  0
LINE
  5
12B743
  8
DIM
 10
2650.0
 20
-3532.9999999999959073
 30
0.0
 11
2728.4796205944589929
 21
-3532.9999999999959073
 31
0.0
  0
LINE
  5
12B744
  8
DIM
 10
2718.4796205944589929
 20
-3606.9999999999968168
 30
0.0
 11
2718.4796205944589929
 21
-3552.9999999999968168
 31
0.0
  0
INSERT
  5
12B745
  8
DIM
  2
_OPEN30
 10
2718.4796205944589929
 20
-3626.9999999999968168
 30
0.0
 41
20.0
 42
20.0
 43
20.0
 50
270.0
  0
INSERT
  5
12B746
  8
DIM
  2
_OPEN30
 10
2718.4796205944589929
 20
-3532.9999999999959073
 30
0.0
 41
20.0
 42
20.0
 43
20.0
 50
90.0
  0
INSERT
  5
12B747
  8
SLIM
  2
*U5
 10
0.0
 20
0.0
 30
0.0
  0
TEXT
  5
12B748
  8
SLIM
 10
0.0000035665234464
 20
24.0000045853176012
 30
0.0
 40
79.9999999999727152
  1
上部枝管
 41
0.75
1001
ACDBBLOCKREPETAG
1070
     1
1071
      119
1005
120BCB
  0
TEXT
  5
12B749
  8
SLIM
 10
149.1428571427966006
 20
-443.999999999849706
 30
0.0
 40
48.0
  1
A3
 41
0.75
1001
ACDBBLOCKREPETAG
1070
     1
1071
      119
1005
0
  0
LINE
  5
12B74A
  8
OBJECT
 10
2633.0
 20
-3532.9999999999959073
 30
0.0
 11
2640.0
 21
-3532.9999999999959073
 31
0.0
1001
ACDBBLOCKREPETAG
1070
     1
1071
        0
1005
12B74A
  0
LINE
  5
12B74B
  8
OBJECT
 10
2640.0
 20
-3532.9999999999959073
 30
0.0
 11
2640.0
 21
-3626.9999999999968168
 31
0.0
1001
ACDBBLOCKREPETAG
1070
     1
1071
        1
1005
12B74B
  0
LINE
  5
12B74C
  8
OBJECT
 10
2640.0
 20
-3626.9999999999968168
 30
0.0
 11
2633.0
 21
-3626.9999999999968168
 31
0.0
1001
ACDBBLOCKREPETAG
1070
     1
1071
        2
1005
12B74C
  0
LINE
  5
12B74D
  8
OBJECT
 10
2633.0
 20
-3626.9999999999968168
 30
0.0
 11
2633.0
 21
-3532.9999999999959073
 31
0.0
1001
ACDBBLOCKREPETAG
1070
     1
1071
        3
1005
12B74D
  0
LINE
  5
12B74E
  8
CENTER
 10
2655.0
 20
-3579.9999999999959073
 30
0.0
 11
2580.0
 21
-3579.9999999999959073
 31
0.0
1001
ACDBBLOCKREPETAG
1070
     1
1071
        4
1005
12B74E
  0
LINE
  5
12B74F
  8
OBJECT
 10
2633.0
 20
-3535.9999999999959073
 30
0.0
 11
2596.9999999999990905
 21
-3535.9999999999959073
 31
0.0
1001
ACDBBLOCKREPETAG
1070
     1
1071
        5
1005
12B74F
  0
LINE
  5
12B750
  8
OBJECT
 10
2596.9999999999990905
 20
-3535.9999999999959073
 30
0.0
 11
2596.9999999999990905
 21
-3623.9999999999968168
 31
0.0
1001
ACDBBLOCKREPETAG
1070
     1
1071
        6
1005
12B750
  0
LINE
  5
12B751
  8
OBJECT
 10
2596.9999999999990905
 20
-3623.9999999999968168
 30
0.0
 11
2633.0
 21
-3623.9999999999968168
 31
0.0
1001
ACDBBLOCKREPETAG
1070
     1
1071
        7
1005
12B751
  0
LINE
  5
12B752
  8
OBJECT
 10
2593.0
 20
-3540.4999999999968168
 30
0.0
 11
2584.5
 21
-3540.4999999999968168
 31
0.0
1001
ACDBBLOCKREPETAG
1070
     1
1071
        8
1005
12B752
  0
LINE
  5
12B753
  8
OBJECT
 10
2584.5
 20
-3619.4999999999968168
 30
0.0
 11
2593.0
 21
-3619.4999999999968168
 31
0.0
1001
ACDBBLOCKREPETAG
1070
     1
1071
        9
1005
12B753
  0
LINE
  5
12B754
  8
OBJECT
 10
2593.0
 20
-3619.4999999999968168
 30
0.0
 11
2593.0
 21
-3540.4999999999968168
 31
0.0
1001
ACDBBLOCKREPETAG
1070
     1
1071
       10
1005
12B754
  0
LINE
  5
12B755
  8
OBJECT
 10
2596.9999999999990905
 20
-3535.9999999999959073
 30
0.0
 11
2593.0
 21
-3540.4999999999968168
 31
0.0
1001
ACDBBLOCKREPETAG
1070
     1
1071
       11
1005
12B755
  0
LINE
  5
12B756
  8
OBJECT
 10
2596.9999999999990905
 20
-3623.9999999999968168
 30
0.0
 11
2593.0
 21
-3619.4999999999968168
 31
0.0
1001
ACDBBLOCKREPETAG
1070
     1
1071
       12
1005
12B756
  0
LINE
  5
12B757
  8
OBJECT
 10
2584.499999999998181
 20
-3626.4999999999959073
 30
0.0
 11
2584.5
 21
-3533.4999999999959073
 31
0.0
1001
ACDBBLOCKREPETAG
1070
     1
1071
       13
1005
12B757
  0
ARC
  5
12B758
  8
OBJECT
 10
2581.5
 20
-3533.4999999999959073
 30
0.0
 40
3.0
 50
0.0
 51
90.0
1001
ACDBBLOCKREPETAG
1070
     1
1071
       14
1005
12B758
  0
LINE
  5
12B759
  8
HIDDEN
 10
2588.0
 20
-3549.9999999999968168
 30
0.0
 11
2588.0
 21
-3609.9999999999968168
 31
0.0
1001
ACDBBLOCKREPETAG
1070
     1
1071
       15
1005
12B759
  0
LINE
  5
12B75A
  8
OBJECT
 10
2581.5
 20
-3530.4999999999959073
 30
0.0
 11
2556.3449199129800036
 21
-3530.4999999999959073
 31
0.0
1001
ACDBBLOCKREPETAG
1070
     1
1071
       17
1005
12B75A
  0
LINE
  5
12B75B
  8
OBJECT
 10
2581.499999999998181
 20
-3629.4999999999968168
 30
0.0
 11
2556.3449199129800036
 21
-3629.4999999999968168
 31
0.0
1001
ACDBBLOCKREPETAG
1070
     1
1071
       18
1005
12B75B
  0
ARC
  5
12B75C
  8
OBJECT
 10
2581.499999999998181
 20
-3626.4999999999959073
 30
0.0
 40
3.0
 50
270.0
 51
0.0
1001
ACDBBLOCKREPETAG
1070
     1
1071
       19
1005
12B75C
  0
LINE
  5
12B75D
  8
OBJECT
 10
2633.0
 20
-3893.9999999999959073
 30
0.0
 11
2640.0
 21
-3893.9999999999959073
 31
0.0
1001
ACDBBLOCKREPETAG
1070
     1
1071
        0
1005
12B75D
  0
LINE
  5
12B75E
  8
OBJECT
 10
2640.0
 20
-3893.9999999999959073
 30
0.0
 11
2640.0
 21
-3984.9999999999968168
 31
0.0
1001
ACDBBLOCKREPETAG
1070
     1
1071
        1
1005
12B75E
  0
LINE
  5
12B75F
  8
OBJECT
 10
2584.5
 20
-3879.5000000000600267
 30
0.0
 11
2584.5
 21
-3982.4999999999968168
 31
0.0
1001
ACDBBLOCKREPETAG
1070
     1
1071
        2
1005
12B75F
  0
ARC
  5
12B760
  8
OBJECT
 10
2581.5
 20
-3879.5000000000600267
 30
0.0
 40
3.0
 50
0.0
 51
90.0
1001
ACDBBLOCKREPETAG
1070
     1
1071
        3
1005
12B760
  0
LINE
  5
12B761
  8
OBJECT
 10
2633.0
 20
-3984.9999999999968168
 30
0.0
 11
2633.0
 21
-3893.9999999999959073
 31
0.0
1001
ACDBBLOCKREPETAG
1070
     1
1071
        4
1005
12B761
  0
LINE
  5
12B762
  8
CENTER
 10
2655.0
 20
-3940.9999999999959073
 30
0.0
 11
2541.9118237135839991
 21
-3940.9999999999959073
 31
0.0
1001
ACDBBLOCKREPETAG
1070
     1
1071
        5
1005
12B762
  0
LINE
  5
12B763
  8
OBJECT
 10
2633.0
 20
-3896.9999999999968168
 30
0.0
 11
2596.9999999999990905
 21
-3896.9999999999968168
 31
0.0
1001
ACDBBLOCKREPETAG
1070
     1
1071
        6
1005
12B763
  0
LINE
  5
12B764
  8
OBJECT
 10
2596.9999999999990905
 20
-3896.9999999999968168
 30
0.0
 11
2596.9999999999990905
 21
-3984.9999999999968168
 31
0.0
1001
ACDBBLOCKREPETAG
1070
     1
1071
        7
1005
12B764
  0
LINE
  5
12B765
  8
OBJECT
 10
2596.9999999999990905
 20
-3984.9999999999968168
 30
0.0
 11
2640.0
 21
-3984.9999999999968168
 31
0.0
1001
ACDBBLOCKREPETAG
1070
     1
1071
        8
1005
12B765
  0
LINE
  5
12B766
  8
OBJECT
 10
2593.0
 20
-3901.4999999999968168
 30
0.0
 11
2584.5
 21
-3901.4999999999968168
 31
0.0
1001
ACDBBLOCKREPETAG
1070
     1
1071
        9
1005
12B766
  0
LINE
  5
12B767
  8
OBJECT
 10
2584.5
 20
-3980.4999999999968168
 30
0.0
 11
2593.0
 21
-3980.4999999999968168
 31
0.0
1001
ACDBBLOCKREPETAG
1070
     1
1071
       10
1005
12B767
  0
LINE
  5
12B768
  8
OBJECT
 10
2593.0
 20
-3980.4999999999968168
 30
0.0
 11
2593.0
 21
-3901.4999999999968168
 31
0.0
1001
ACDBBLOCKREPETAG
1070
     1
1071
       11
1005
12B768
  0
LINE
  5
12B769
  8
OBJECT
 10
2596.9999999999990905
 20
-3896.9999999999968168
 30
0.0
 11
2593.0
 21
-3901.4999999999968168
 31
0.0
1001
ACDBBLOCKREPETAG
1070
     1
1071
       12
1005
12B769
  0
LINE
  5
12B76A
  8
OBJECT
 10
2596.9999999999990905
 20
-3984.9999999999968168
 30
0.0
 11
2593.0
 21
-3980.4999999999968168
 31
0.0
1001
ACDBBLOCKREPETAG
1070
     1
1071
       13
1005
12B76A
  0
LINE
  5
12B76B
  8
HIDDEN
 10
2588.0
 20
-3910.9999999999959073
 30
0.0
 11
2588.0
 21
-3970.9999999999959073
 31
0.0
1001
ACDBBLOCKREPETAG
1070
     1
1071
       14
1005
12B76B
  0
ARC
  5
12B76C
  8
OBJECT
 10
2664.8782728787741689
 20
-3941.4095072612258264
 30
0.0
 40
110.866352283089995
 50
144.1634274191434031
 51
163.0403538043316871
1001
ACDBBLOCKREPETAG
1070
     1
1071
       15
1005
12B76C
  0
ARC
  5
12B76D
  8
OBJECT
 10
2617.1359887769071975
 20
-3926.2877497184458662
 30
0.0
 40
60.7917498803589567
 50
163.5472046522266965
 51
179.7287969828267933
1001
ACDBBLOCKREPETAG
1070
     1
1071
       16
1005
12B76D
  0
ARC
  5
12B76E
  8
OBJECT
 10
2617.1359956562478146
 20
-3932.7122497598979862
 30
0.0
 40
60.7917567620948702
 50
180.2712034781451962
 51
196.4527794605338045
1001
ACDBBLOCKREPETAG
1070
     1
1071
       17
1005
12B76E
  0
ARC
  5
12B76F
  8
OBJECT
 10
2664.8782728787741689
 20
-3917.590492738832836
 30
0.0
 40
110.8663522830916008
 50
196.9596461956681139
 51
215.8365725808565969
1001
ACDBBLOCKREPETAG
1070
     1
1071
       18
1005
12B76F
  0
LINE
  5
12B770
  8
OBJECT
 10
2556.3449199130041052
 20
-3926.0000000000331966
 30
0.0
 11
2556.3449199130041052
 21
-3933.0000000000291038
 31
0.0
1001
ACDBBLOCKREPETAG
1070
     1
1071
       19
1005
12B770
  0
LINE
  5
12B771
  8
OBJECT
 10
2575.0
 20
-3876.5000000000600267
 30
0.0
 11
2581.5
 21
-3876.5000000000600267
 31
0.0
1001
ACDBBLOCKREPETAG
1070
     1
1071
       20
1005
12B771
  0
LINE
  5
12B772
  8
OBJECT
 10
2575.0
 20
-3982.4999999999968168
 30
0.0
 11
2584.5
 21
-3982.4999999999968168
 31
0.0
1001
ACDBBLOCKREPETAG
1070
     1
1071
       21
1005
12B772
  0
LINE
  5
12B773
  8
CENTER
 10
2838.0
 20
-3940.9999999999959073
 30
0.0
 11
2962.0
 21
-3940.9999999999959073
 31
0.0
1001
ACDBBLOCKREPETAG
1070
     1
1071
        0
1005
12B773
  0
CIRCLE
  5
12B774
  8
OBJECT
 10
2900.0
 20
-3940.9999999999959073
 30
0.0
 40
28.0
1001
ACDBBLOCKREPETAG
1070
     1
1071
        2
1005
12B774
  0
CIRCLE
  5
12B775
  8
OBJECT
 10
2900.0
 20
-3940.9999999999959073
 30
0.0
 40
39.0
1001
ACDBBLOCKREPETAG
1070
     1
1071
        3
1005
12B775
  0
ARC
  5
12B776
  8
OBJECT
 10
2900.0
 20
-3940.9999999999959073
 30
0.0
 40
47.0
 50
290.5819692114441182
 51
249.4180307885559102
1001
ACDBBLOCKREPETAG
1070
     1
1071
        4
1005
12B776
  0
LINE
  5
12B777
  8
OBJECT
 10
2883.4772883581417773
 20
-3984.9999999999968168
 30
0.0
 11
2916.5227116418568585
 21
-3984.9999999999968168
 31
0.0
1001
ACDBBLOCKREPETAG
1070
     1
1071
        5
1005
12B777
  0
ARC
  5
12B778
  8
OBJECT
 10
2900.0
 20
-3925.9999999999931788
 30
0.0
 40
49.5
 50
0.0
 51
180.0
1001
ACDBBLOCKREPETAG
1070
     1
1071
        6
1005
12B778
  0
LINE
  5
12B779
  8
OBJECT
 10
2850.5000000000031832
 20
-3925.9999999999931788
 30
0.0
 11
2850.5000000000031832
 21
-3932.9999999999959073
 31
0.0
1001
ACDBBLOCKREPETAG
1070
     1
1071
        7
1005
12B779
  0
LINE
  5
12B77A
  8
OBJECT
 10
2949.5000000000068212
 20
-3925.9999999999931788
 30
0.0
 11
2949.5000000000068212
 21
-3932.9999999999959073
 31
0.0
1001
ACDBBLOCKREPETAG
1070
     1
1071
        8
1005
12B77A
  0
ARC
  5
12B77B
  8
OBJECT
 10
2900.0
 20
-3932.9999999999959073
 30
0.0
 40
49.5
 50
180.0
 51
202.6695638510487925
1001
ACDBBLOCKREPETAG
1070
     1
1071
        9
1005
12B77B
  0
ARC
  5
12B77C
  8
OBJECT
 10
2900.0
 20
-3932.9999999999959073
 30
0.0
 40
49.5
 50
337.3304361489512075
 51
0.0
1001
ACDBBLOCKREPETAG
1070
     1
1071
       10
1005
12B77C
  0
POINT
  5
12B77D
  8
DOTS
 10
2900.0
 20
-3984.9999999999968168
 30
0.0
1001
ACDBBLOCKREPETAG
1070
     1
1071
       25
1005
12B77D
  0
LINE
  5
12B77E
  8
OBJECT
 10
3633.0
 20
-3524.9999999999968168
 30
0.0
 11
3640.0
 21
-3524.9999999999968168
 31
0.0
1001
ACDBBLOCKREPETAG
1070
     1
1071
       20
1005
12B77E
  0
LINE
  5
12B77F
  8
OBJECT
 10
3640.0
 20
-3524.9999999999968168
 30
0.0
 11
3640.0
 21
-3634.9999999999968168
 31
0.0
1001
ACDBBLOCKREPETAG
1070
     1
1071
       21
1005
12B77F
  0
LINE
  5
12B780
  8
OBJECT
 10
3640.0
 20
-3634.9999999999968168
 30
0.0
 11
3633.0
 21
-3634.9999999999968168
 31
0.0
1001
ACDBBLOCKREPETAG
1070
     1
1071
       22
1005
12B780
  0
LINE
  5
12B781
  8
OBJECT
 10
3633.0
 20
-3634.9999999999968168
 30
0.0
 11
3633.0
 21
-3524.9999999999968168
 31
0.0
1001
ACDBBLOCKREPETAG
1070
     1
1071
       23
1005
12B781
  0
LINE
  5
12B782
  8
CENTER
 10
3655.0
 20
-3579.9999999999959073
 30
0.0
 11
3580.0
 21
-3579.9999999999959073
 31
0.0
1001
ACDBBLOCKREPETAG
1070
     1
1071
       24
1005
12B782
  0
LINE
  5
12B783
  8
OBJECT
 10
3633.0
 20
-3527.9999999999968168
 30
0.0
 11
3597.0
 21
-3527.9999999999968168
 31
0.0
1001
ACDBBLOCKREPETAG
1070
     1
1071
       25
1005
12B783
  0
LINE
  5
12B784
  8
OBJECT
 10
3597.0
 20
-3527.9999999999968168
 30
0.0
 11
3597.0
 21
-3631.9999999999968168
 31
0.0
1001
ACDBBLOCKREPETAG
1070
     1
1071
       26
1005
12B784
  0
LINE
  5
12B785
  8
OBJECT
 10
3597.0
 20
-3631.9999999999968168
 30
0.0
 11
3633.0
 21
-3631.9999999999968168
 31
0.0
1001
ACDBBLOCKREPETAG
1070
     1
1071
       27
1005
12B785
  0
LINE
  5
12B786
  8
OBJECT
 10
3593.0
 20
-3532.4999999999968168
 30
0.0
 11
3584.5
 21
-3532.4999999999968168
 31
0.0
1001
ACDBBLOCKREPETAG
1070
     1
1071
       28
1005
12B786
  0
LINE
  5
12B787
  8
OBJECT
 10
3584.5
 20
-3627.4999999999959073
 30
0.0
 11
3593.0
 21
-3627.4999999999959073
 31
0.0
1001
ACDBBLOCKREPETAG
1070
     1
1071
       29
1005
12B787
  0
LINE
  5
12B788
  8
OBJECT
 10
3593.0
 20
-3627.4999999999959073
 30
0.0
 11
3593.0
 21
-3532.4999999999968168
 31
0.0
1001
ACDBBLOCKREPETAG
1070
     1
1071
       30
1005
12B788
  0
LINE
  5
12B789
  8
OBJECT
 10
3597.0
 20
-3527.9999999999968168
 30
0.0
 11
3593.0
 21
-3532.4999999999968168
 31
0.0
1001
ACDBBLOCKREPETAG
1070
     1
1071
       31
1005
12B789
  0
LINE
  5
12B78A
  8
OBJECT
 10
3597.0
 20
-3631.9999999999968168
 30
0.0
 11
3593.0
 21
-3627.4999999999959073
 31
0.0
1001
ACDBBLOCKREPETAG
1070
     1
1071
       32
1005
12B78A
  0
LINE
  5
12B78B
  8
OBJECT
 10
3584.499999999998181
 20
-3629.4999999999968168
 30
0.0
 11
3584.5
 21
-3530.4999999999959073
 31
0.0
1001
ACDBBLOCKREPETAG
1070
     1
1071
       33
1005
12B78B
  0
LINE
  5
12B78C
  8
HIDDEN
 10
3588.0
 20
-3541.9999999999968168
 30
0.0
 11
3588.0
 21
-3617.9999999999968168
 31
0.0
1001
ACDBBLOCKREPETAG
1070
     1
1071
       34
1005
12B78C
  0
LINE
  5
12B78D
  8
OBJECT
 10
3584.5
 20
-3530.4999999999959073
 30
0.0
 11
3556.3449199129800036
 21
-3530.4999999999959073
 31
0.0
1001
ACDBBLOCKREPETAG
1070
     1
1071
       35
1005
12B78D
  0
LINE
  5
12B78E
  8
OBJECT
 10
3584.499999999998181
 20
-3629.4999999999968168
 30
0.0
 11
3556.3449199129800036
 21
-3629.4999999999968168
 31
0.0
1001
ACDBBLOCKREPETAG
1070
     1
1071
       36
1005
12B78E
  0
LINE
  5
12B78F
  8
OBJECT
 10
3633.0
 20
-3877.9999999999959073
 30
0.0
 11
3640.0
 21
-3877.9999999999959073
 31
0.0
1001
ACDBBLOCKREPETAG
1070
     1
1071
       23
1005
12B78F
  0
LINE
  5
12B790
  8
OBJECT
 10
3640.0
 20
-3877.9999999999959073
 30
0.0
 11
3640.0
 21
-3984.9999999999968168
 31
0.0
1001
ACDBBLOCKREPETAG
1070
     1
1071
       24
1005
12B790
  0
LINE
  5
12B791
  8
OBJECT
 10
3584.5
 20
-3879.5000000000600267
 30
0.0
 11
3584.5
 21
-3982.4999999999968168
 31
0.0
1001
ACDBBLOCKREPETAG
1070
     1
1071
       25
1005
12B791
  0
ARC
  5
12B792
  8
OBJECT
 10
3581.5
 20
-3879.5000000000600267
 30
0.0
 40
3.0
 50
0.0
 51
90.0
1001
ACDBBLOCKREPETAG
1070
     1
1071
       26
1005
12B792
  0
LINE
  5
12B793
  8
OBJECT
 10
3633.0
 20
-3984.9999999999968168
 30
0.0
 11
3633.0
 21
-3877.9999999999959073
 31
0.0
1001
ACDBBLOCKREPETAG
1070
     1
1071
       27
1005
12B793
  0
LINE
  5
12B794
  8
CENTER
 10
3655.0
 20
-3932.9999999999959073
 30
0.0
 11
3541.3449199130041052
 21
-3933.0000000000618456
 31
0.0
1001
ACDBBLOCKREPETAG
1070
     1
1071
       28
1005
12B794
  0
LINE
  5
12B795
  8
OBJECT
 10
3633.0
 20
-3880.9999999999968168
 30
0.0
 11
3597.0
 21
-3880.9999999999968168
 31
0.0
1001
ACDBBLOCKREPETAG
1070
     1
1071
       29
1005
12B795
  0
LINE
  5
12B796
  8
OBJECT
 10
3597.0
 20
-3880.9999999999968168
 30
0.0
 11
3597.0
 21
-3984.9999999999968168
 31
0.0
1001
ACDBBLOCKREPETAG
1070
     1
1071
       30
1005
12B796
  0
LINE
  5
12B797
  8
OBJECT
 10
3597.0
 20
-3984.9999999999968168
 30
0.0
 11
3640.0
 21
-3984.9999999999968168
 31
0.0
1001
ACDBBLOCKREPETAG
1070
     1
1071
       31
1005
12B797
  0
LINE
  5
12B798
  8
OBJECT
 10
3593.0
 20
-3885.4999999999959073
 30
0.0
 11
3584.5
 21
-3885.4999999999959073
 31
0.0
1001
ACDBBLOCKREPETAG
1070
     1
1071
       32
1005
12B798
  0
LINE
  5
12B799
  8
OBJECT
 10
3584.5
 20
-3980.4999999999968168
 30
0.0
 11
3593.0
 21
-3980.4999999999968168
 31
0.0
1001
ACDBBLOCKREPETAG
1070
     1
1071
       33
1005
12B799
  0
LINE
  5
12B79A
  8
OBJECT
 10
3593.0
 20
-3980.4999999999968168
 30
0.0
 11
3593.0
 21
-3885.4999999999959073
 31
0.0
1001
ACDBBLOCKREPETAG
1070
     1
1071
       34
1005
12B79A
  0
LINE
  5
12B79B
  8
OBJECT
 10
3597.0
 20
-3880.9999999999968168
 30
0.0
 11
3593.0
 21
-3885.4999999999959073
 31
0.0
1001
ACDBBLOCKREPETAG
1070
     1
1071
       35
1005
12B79B
  0
LINE
  5
12B79C
  8
OBJECT
 10
3597.0
 20
-3984.9999999999968168
 30
0.0
 11
3593.0
 21
-3980.4999999999968168
 31
0.0
1001
ACDBBLOCKREPETAG
1070
     1
1071
       36
1005
12B79C
  0
LINE
  5
12B79D
  8
HIDDEN
 10
3588.0
 20
-3894.9999999999968168
 30
0.0
 11
3588.0
 21
-3970.9999999999959073
 31
0.0
1001
ACDBBLOCKREPETAG
1070
     1
1071
       37
1005
12B79D
  0
ARC
  5
12B79E
  8
OBJECT
 10
3664.8782728787741689
 20
-3941.4095072612258264
 30
0.0
 40
110.866352283089995
 50
144.1634274192888938
 51
163.0403538043316871
1001
ACDBBLOCKREPETAG
1070
     1
1071
       38
1005
12B79E
  0
ARC
  5
12B79F
  8
OBJECT
 10
3617.135988776908107
 20
-3926.2877497184458662
 30
0.0
 40
60.7917498803589567
 50
163.5472046522266965
 51
179.7287969828267933
1001
ACDBBLOCKREPETAG
1070
     1
1071
       39
1005
12B79F
  0
ARC
  5
12B7A0
  8
OBJECT
 10
3617.1359956562491789
 20
-3932.7122497598979862
 30
0.0
 40
60.7917567620948702
 50
180.2712034781451962
 51
196.4527794605338045
1001
ACDBBLOCKREPETAG
1070
     1
1071
       40
1005
12B7A0
  0
ARC
  5
12B7A1
  8
OBJECT
 10
3664.8782728787741689
 20
-3917.590492738832836
 30
0.0
 40
110.8663522830916008
 50
196.9596461956681139
 51
215.8365725807111062
1001
ACDBBLOCKREPETAG
1070
     1
1071
       41
1005
12B7A1
  0
LINE
  5
12B7A2
  8
OBJECT
 10
3556.3449199130041052
 20
-3926.0000000000331966
 30
0.0
 11
3556.3449199130041052
 21
-3933.0000000000291038
 31
0.0
1001
ACDBBLOCKREPETAG
1070
     1
1071
       42
1005
12B7A2
  0
LINE
  5
12B7A3
  8
OBJECT
 10
3574.9999999999990905
 20
-3876.5000000000600267
 30
0.0
 11
3581.5
 21
-3876.5000000000600267
 31
0.0
1001
ACDBBLOCKREPETAG
1070
     1
1071
       43
1005
12B7A3
  0
LINE
  5
12B7A4
  8
OBJECT
 10
3574.9999999999990905
 20
-3982.4999999999968168
 30
0.0
 11
3584.5
 21
-3982.4999999999968168
 31
0.0
1001
ACDBBLOCKREPETAG
1070
     1
1071
       44
1005
12B7A4
  0
CIRCLE
  5
12B7A5
  8
OBJECT
 10
3900.0
 20
-3932.9999999999959073
 30
0.0
 40
35.5
1001
ACDBBLOCKREPETAG
1070
     1
1071
       11
1005
12B7A5
  0
LINE
  5
12B7A6
  8
CENTER
 10
3830.0
 20
-3932.9999999999959073
 30
0.0
 11
3970.0
 21
-3932.9999999999959073
 31
0.0
1001
ACDBBLOCKREPETAG
1070
     1
1071
       12
1005
12B7A6
  0
CIRCLE
  5
12B7A7
  8
OBJECT
 10
3900.0
 20
-3932.9999999999959073
 30
0.0
 40
47.0
1001
ACDBBLOCKREPETAG
1070
     1
1071
       14
1005
12B7A7
  0
ARC
  5
12B7A8
  8
OBJECT
 10
3900.0
 20
-3932.9999999999959073
 30
0.0
 40
55.0
 50
289.0112652600889191
 51
250.9887347399111093
1001
ACDBBLOCKREPETAG
1070
     1
1071
       15
1005
12B7A8
  0
LINE
  5
12B7A9
  8
OBJECT
 10
3882.0835271328319322
 20
-3984.9999999999968168
 30
0.0
 11
3917.9164728671680678
 21
-3984.9999999999968168
 31
0.0
1001
ACDBBLOCKREPETAG
1070
     1
1071
       16
1005
12B7A9
  0
POINT
  5
12B7AA
  8
DOTS
 10
3900.0
 20
-3984.9999999999968168
 30
0.0
1001
ACDBBLOCKREPETAG
1070
     1
1071
       24
1005
12B7AA
  0
LINE
  5
12B7AB
  8
OBJECT
 10
4633.0000000000009095
 20
-3517.9999999999968168
 30
0.0
 11
4640.0000000000009095
 21
-3517.9999999999968168
 31
0.0
1001
ACDBBLOCKREPETAG
1070
     1
1071
       38
1005
12B7AB
  0
LINE
  5
12B7AC
  8
OBJECT
 10
4640.0000000000009095
 20
-3517.9999999999968168
 30
0.0
 11
4640.0
 21
-3641.9999999999968168
 31
0.0
1001
ACDBBLOCKREPETAG
1070
     1
1071
       39
1005
12B7AC
  0
LINE
  5
12B7AD
  8
OBJECT
 10
4640.0
 20
-3641.9999999999968168
 30
0.0
 11
4633.0
 21
-3641.9999999999968168
 31
0.0
1001
ACDBBLOCKREPETAG
1070
     1
1071
       40
1005
12B7AD
  0
LINE
  5
12B7AE
  8
OBJECT
 10
4633.0
 20
-3641.9999999999968168
 30
0.0
 11
4633.0000000000009095
 21
-3517.9999999999968168
 31
0.0
1001
ACDBBLOCKREPETAG
1070
     1
1071
       41
1005
12B7AE
  0
LINE
  5
12B7AF
  8
CENTER
 10
4655.0
 20
-3579.9999999999959073
 30
0.0
 11
4580.0
 21
-3579.9999999999959073
 31
0.0
1001
ACDBBLOCKREPETAG
1070
     1
1071
       42
1005
12B7AF
  0
LINE
  5
12B7B0
  8
OBJECT
 10
4633.0000000000009095
 20
-3520.9999999999968168
 30
0.0
 11
4597.0000000000009095
 21
-3520.9999999999968168
 31
0.0
1001
ACDBBLOCKREPETAG
1070
     1
1071
       43
1005
12B7B0
  0
LINE
  5
12B7B1
  8
OBJECT
 10
4597.0000000000009095
 20
-3520.9999999999968168
 30
0.0
 11
4597.0
 21
-3638.9999999999990905
 31
0.0
1001
ACDBBLOCKREPETAG
1070
     1
1071
       44
1005
12B7B1
  0
LINE
  5
12B7B2
  8
OBJECT
 10
4597.0
 20
-3638.9999999999990905
 30
0.0
 11
4633.0
 21
-3638.9999999999990905
 31
0.0
1001
ACDBBLOCKREPETAG
1070
     1
1071
       45
1005
12B7B2
  0
LINE
  5
12B7B3
  8
OBJECT
 10
4593.0
 20
-3525.4999999999968168
 30
0.0
 11
4582.5000000000009095
 21
-3525.4999999999968168
 31
0.0
1001
ACDBBLOCKREPETAG
1070
     1
1071
       46
1005
12B7B3
  0
LINE
  5
12B7B4
  8
OBJECT
 10
4582.5
 20
-3634.4999999999959073
 30
0.0
 11
4593.0
 21
-3634.4999999999959073
 31
0.0
1001
ACDBBLOCKREPETAG
1070
     1
1071
       47
1005
12B7B4
  0
LINE
  5
12B7B5
  8
OBJECT
 10
4593.0
 20
-3634.4999999999959073
 30
0.0
 11
4593.0
 21
-3525.4999999999968168
 31
0.0
1001
ACDBBLOCKREPETAG
1070
     1
1071
       48
1005
12B7B5
  0
LINE
  5
12B7B6
  8
OBJECT
 10
4597.0000000000009095
 20
-3520.9999999999968168
 30
0.0
 11
4593.0
 21
-3525.4999999999968168
 31
0.0
1001
ACDBBLOCKREPETAG
1070
     1
1071
       49
1005
12B7B6
  0
LINE
  5
12B7B7
  8
OBJECT
 10
4597.0
 20
-3638.9999999999990905
 30
0.0
 11
4593.0
 21
-3634.4999999999959073
 31
0.0
1001
ACDBBLOCKREPETAG
1070
     1
1071
       50
1005
12B7B7
  0
LINE
  5
12B7B8
  8
HIDDEN
 10
4588.0
 20
-3535.4999999999959073
 30
0.0
 11
4588.0
 21
-3624.4999999999959073
 31
0.0
1001
ACDBBLOCKREPETAG
1070
     1
1071
       51
1005
12B7B8
  0
LINE
  5
12B7B9
  8
OBJECT
 10
4577.5000000000009095
 20
-3530.4999999999959073
 30
0.0
 11
4556.3449199129790941
 21
-3530.4999999999959073
 31
0.0
1001
ACDBBLOCKREPETAG
1070
     1
1071
       52
1005
12B7B9
  0
LINE
  5
12B7BA
  8
OBJECT
 10
4577.4999999999990905
 20
-3629.4999999999968168
 30
0.0
 11
4556.3449199129790941
 21
-3629.4999999999968168
 31
0.0
1001
ACDBBLOCKREPETAG
1070
     1
1071
       53
1005
12B7BA
  0
LINE
  5
12B7BB
  8
OBJECT
 10
4582.5000000000009095
 20
-3525.4999999999968168
 30
0.0
 11
4582.5
 21
-3634.4999999999959073
 31
0.0
1001
ACDBBLOCKREPETAG
1070
     1
1071
       54
1005
12B7BB
  0
LINE
  5
12B7BC
  8
OBJECT
 10
4577.5000000000009095
 20
-3530.4999999999959073
 30
0.0
 11
4577.4999999999990905
 21
-3629.4999999999968168
 31
0.0
1001
ACDBBLOCKREPETAG
1070
     1
1071
       55
1005
12B7BC
  0
LINE
  5
12B7BD
  8
OBJECT
 10
4582.5000000000009095
 20
-3525.4999999999968168
 30
0.0
 11
4577.5000000000009095
 21
-3530.4999999999959073
 31
0.0
1001
ACDBBLOCKREPETAG
1070
     1
1071
       56
1005
12B7BD
  0
LINE
  5
12B7BE
  8
OBJECT
 10
4577.4999999999990905
 20
-3629.4999999999968168
 30
0.0
 11
4582.5
 21
-3634.4999999999931788
 31
0.0
1001
ACDBBLOCKREPETAG
1070
     1
1071
       57
1005
12B7BE
  0
LINE
  5
12B7BF
  8
OBJECT
 10
4633.0
 20
-3863.9999999999968168
 30
0.0
 11
4640.0
 21
-3863.9999999999968168
 31
0.0
1001
ACDBBLOCKREPETAG
1070
     1
1071
       46
1005
12B7BF
  0
LINE
  5
12B7C0
  8
OBJECT
 10
4640.0
 20
-3863.9999999999968168
 30
0.0
 11
4640.0
 21
-3984.9999999999968168
 31
0.0
1001
ACDBBLOCKREPETAG
1070
     1
1071
       47
1005
12B7C0
  0
LINE
  5
12B7C1
  8
OBJECT
 10
4633.0
 20
-3984.9999999999968168
 30
0.0
 11
4633.0
 21
-3863.9999999999968168
 31
0.0
1001
ACDBBLOCKREPETAG
1070
     1
1071
       48
1005
12B7C1
  0
LINE
  5
12B7C2
  8
CENTER
 10
4655.0
 20
-3925.9999999999959073
 30
0.0
 11
4541.3449199130036504
 21
-3926.0000000000618456
 31
0.0
1001
ACDBBLOCKREPETAG
1070
     1
1071
       49
1005
12B7C2
  0
LINE
  5
12B7C3
  8
OBJECT
 10
4633.0
 20
-3866.9999999999968168
 30
0.0
 11
4597.0
 21
-3866.9999999999968168
 31
0.0
1001
ACDBBLOCKREPETAG
1070
     1
1071
       50
1005
12B7C3
  0
LINE
  5
12B7C4
  8
OBJECT
 10
4597.0
 20
-3866.9999999999968168
 30
0.0
 11
4597.0
 21
-3984.9999999999968168
 31
0.0
1001
ACDBBLOCKREPETAG
1070
     1
1071
       51
1005
12B7C4
  0
LINE
  5
12B7C5
  8
OBJECT
 10
4597.0
 20
-3984.9999999999968168
 30
0.0
 11
4640.0
 21
-3984.9999999999968168
 31
0.0
1001
ACDBBLOCKREPETAG
1070
     1
1071
       52
1005
12B7C5
  0
LINE
  5
12B7C6
  8
OBJECT
 10
4593.0
 20
-3871.4999999999968168
 30
0.0
 11
4582.5
 21
-3871.4999999999968168
 31
0.0
1001
ACDBBLOCKREPETAG
1070
     1
1071
       53
1005
12B7C6
  0
LINE
  5
12B7C7
  8
OBJECT
 10
4582.5
 20
-3980.4999999999968168
 30
0.0
 11
4593.0
 21
-3980.4999999999968168
 31
0.0
1001
ACDBBLOCKREPETAG
1070
     1
1071
       54
1005
12B7C7
  0
LINE
  5
12B7C8
  8
OBJECT
 10
4593.0
 20
-3980.4999999999968168
 30
0.0
 11
4593.0
 21
-3871.4999999999968168
 31
0.0
1001
ACDBBLOCKREPETAG
1070
     1
1071
       55
1005
12B7C8
  0
LINE
  5
12B7C9
  8
OBJECT
 10
4597.0
 20
-3866.9999999999968168
 30
0.0
 11
4593.0
 21
-3871.4999999999968168
 31
0.0
1001
ACDBBLOCKREPETAG
1070
     1
1071
       56
1005
12B7C9
  0
LINE
  5
12B7CA
  8
OBJECT
 10
4597.0
 20
-3984.9999999999968168
 30
0.0
 11
4593.0
 21
-3980.4999999999968168
 31
0.0
1001
ACDBBLOCKREPETAG
1070
     1
1071
       57
1005
12B7CA
  0
LINE
  5
12B7CB
  8
HIDDEN
 10
4588.0
 20
-3881.4999999999959073
 30
0.0
 11
4588.0
 21
-3970.4999999999959073
 31
0.0
1001
ACDBBLOCKREPETAG
1070
     1
1071
       58
1005
12B7CB
  0
ARC
  5
12B7CC
  8
OBJECT
 10
4664.8782728787718952
 20
-3941.4095072612258264
 30
0.0
 40
110.866352283089995
 50
144.1634274192888938
 51
163.0403538043393894
1001
ACDBBLOCKREPETAG
1070
     1
1071
       59
1005
12B7CC
  0
ARC
  5
12B7CD
  8
OBJECT
 10
4617.1359887769067427
 20
-3926.2877497184458662
 30
0.0
 40
60.7917498803589567
 50
163.5472046522193068
 51
179.7287969828265943
1001
ACDBBLOCKREPETAG
1070
     1
1071
       60
1005
12B7CD
  0
ARC
  5
12B7CE
  8
OBJECT
 10
4617.1359956562482694
 20
-3932.7122497598979862
 30
0.0
 40
60.7917567620948702
 50
180.2712034781451962
 51
196.4527794605265001
1001
ACDBBLOCKREPETAG
1070
     1
1071
       61
1005
12B7CE
  0
ARC
  5
12B7CF
  8
OBJECT
 10
4664.8782728787718952
 20
-3917.590492738832836
 30
0.0
 40
110.8663522830916008
 50
196.9596461956604969
 51
215.8365725807111062
1001
ACDBBLOCKREPETAG
1070
     1
1071
       62
1005
12B7CF
  0
LINE
  5
12B7D0
  8
OBJECT
 10
4556.3449199130036504
 20
-3926.0000000000331966
 30
0.0
 11
4556.3449199130036504
 21
-3933.0000000000291038
 31
0.0
1001
ACDBBLOCKREPETAG
1070
     1
1071
       63
1005
12B7D0
  0
LINE
  5
12B7D1
  8
OBJECT
 10
4574.9999999998335625
 20
-3876.5000000002910383
 30
0.0
 11
4577.499999999836291
 21
-3876.5000000002910383
 31
0.0
1001
ACDBBLOCKREPETAG
1070
     1
1071
       65
1005
12B7D1
  0
LINE
  5
12B7D2
  8
OBJECT
 10
4574.999999999832653
 20
-3982.4999999997671694
 30
0.0
 11
4579.499999999830834
 21
-3982.4999999997671694
 31
0.0
1001
ACDBBLOCKREPETAG
1070
     1
1071
       66
1005
12B7D2
  0
LINE
  5
12B7D3
  8
OBJECT
 10
4579.499999999830834
 20
-3982.4999999997671694
 30
0.0
 11
4577.499999999836291
 21
-3876.5000000002910383
 31
0.0
1001
ACDBBLOCKREPETAG
1070
     1
1071
       67
1005
12B7D3
  0
LINE
  5
12B7D4
  8
OBJECT
 10
4579.499999999830834
 20
-3982.4999999997671694
 30
0.0
 11
4582.5
 21
-3980.4999999999968168
 31
0.0
1001
ACDBBLOCKREPETAG
1070
     1
1071
       68
1005
12B7D4
  0
LINE
  5
12B7D5
  8
OBJECT
 10
4582.5
 20
-3980.4999999999968168
 30
0.0
 11
4582.5
 21
-3871.4999999999968168
 31
0.0
1001
ACDBBLOCKREPETAG
1070
     1
1071
       69
1005
12B7D5
  0
LINE
  5
12B7D6
  8
OBJECT
 10
4582.5
 20
-3871.4999999999968168
 30
0.0
 11
4577.499999999836291
 21
-3876.5000000002910383
 31
0.0
1001
ACDBBLOCKREPETAG
1070
     1
1071
       70
1005
12B7D6
  0
LINE
  5
12B7D7
  8
CENTER
 10
4977.0
 20
-3925.9999999999959073
 30
0.0
 11
4823.0
 21
-3925.9999999999959073
 31
0.0
1001
ACDBBLOCKREPETAG
1070
     1
1071
       17
1005
12B7D7
  0
CIRCLE
  5
12B7D8
  8
OBJECT
 10
4900.0
 20
-3925.9999999999959073
 30
0.0
 40
41.5
1001
ACDBBLOCKREPETAG
1070
     1
1071
       18
1005
12B7D8
  0
CIRCLE
  5
12B7D9
  8
OBJECT
 10
4900.0
 20
-3925.9999999999959073
 30
0.0
 40
54.0
1001
ACDBBLOCKREPETAG
1070
     1
1071
       19
1005
12B7D9
  0
ARC
  5
12B7DA
  8
OBJECT
 10
4900.0
 20
-3925.9999999999959073
 30
0.0
 40
62.0
 50
287.8965511292112751
 51
252.1034488707886965
1001
ACDBBLOCKREPETAG
1070
     1
1071
       20
1005
12B7DA
  0
LINE
  5
12B7DB
  8
OBJECT
 10
4880.947441116742084
 20
-3984.9999999999968168
 30
0.0
 11
4919.052558883257916
 21
-3984.9999999999968168
 31
0.0
1001
ACDBBLOCKREPETAG
1070
     1
1071
       21
1005
12B7DB
  0
POINT
  5
12B7DC
  8
DOTS
 10
4900.0
 20
-3984.9999999999968168
 30
0.0
1001
ACDBBLOCKREPETAG
1070
     1
1071
       23
1005
12B7DC
  0
TEXT
  5
12B7DD
  8
SLIM
 10
0.000003566523219
 20
-775.9999954146824166
 30
0.0
 40
79.9999999999727152
  1
下部枝管バリエーション
 41
0.75
1001
ACDBBLOCKREPETAG
1070
     1
1071
      119
1005
120BCB
  0
INSERT
  5
12B7DE
  8
SLIM
  2
*U6
 10
0.0
 20
0.0
 30
0.0
  0
LINE
  5
12B7DF
  8
OBJECT
 10
118.0000000000417941
 20
-99.0000000001718803
 30
0.0
 11
118.0000000000417941
 21
-92.0000000001718945
 31
0.0
1001
ACDBBLOCKREPETAG
1070
     1
1071
       39
1005
12B7DF
  0
LINE
  5
12B7E0
  8
OBJECT
 10
118.0000000000417941
 20
-92.0000000001718945
 30
0.0
 11
242.0000000000418083
 21
-92.0000000001718945
 31
0.0
1001
ACDBBLOCKREPETAG
1070
     1
1071
       40
1005
12B7E0
  0
LINE
  5
12B7E1
  8
OBJECT
 10
242.0000000000418083
 20
-92.0000000001718945
 30
0.0
 11
242.0000000000418083
 21
-99.0000000001718803
 31
0.0
1001
ACDBBLOCKREPETAG
1070
     1
1071
       41
1005
12B7E1
  0
LINE
  5
12B7E2
  8
OBJECT
 10
242.0000000000418083
 20
-99.0000000001718803
 30
0.0
 11
118.0000000000417941
 21
-99.0000000001718803
 31
0.0
1001
ACDBBLOCKREPETAG
1070
     1
1071
       42
1005
12B7E2
  0
LINE
  5
12B7E3
  8
OBJECT
 10
121.0000000000417941
 20
-99.0000000001718803
 30
0.0
 11
121.0000000000417941
 21
-135.0000000001718092
 31
0.0
1001
ACDBBLOCKREPETAG
1070
     1
1071
       43
1005
12B7E3
  0
LINE
  5
12B7E4
  8
OBJECT
 10
121.0000000000417941
 20
-135.0000000001718092
 30
0.0
 11
239.0000000000418083
 21
-135.0000000001718092
 31
0.0
1001
ACDBBLOCKREPETAG
1070
     1
1071
       44
1005
12B7E4
  0
LINE
  5
12B7E5
  8
OBJECT
 10
239.0000000000418083
 20
-135.0000000001718092
 30
0.0
 11
239.0000000000418083
 21
-99.0000000001718803
 31
0.0
1001
ACDBBLOCKREPETAG
1070
     1
1071
       45
1005
12B7E5
  0
LINE
  5
12B7E6
  8
OBJECT
 10
125.5000000000417941
 20
-139.0000000001718092
 30
0.0
 11
125.5000000000417941
 21
-146.0000000001718092
 31
0.0
1001
ACDBBLOCKREPETAG
1070
     1
1071
       46
1005
12B7E6
  0
LINE
  5
12B7E7
  8
OBJECT
 10
234.5000000000418083
 20
-146.0000000001718092
 30
0.0
 11
234.5000000000418083
 21
-139.0000000001718092
 31
0.0
1001
ACDBBLOCKREPETAG
1070
     1
1071
       47
1005
12B7E7
  0
LINE
  5
12B7E8
  8
OBJECT
 10
234.5000000000418083
 20
-139.0000000001718092
 30
0.0
 11
125.5000000000417941
 21
-139.0000000001718092
 31
0.0
1001
ACDBBLOCKREPETAG
1070
     1
1071
       48
1005
12B7E8
  0
LINE
  5
12B7E9
  8
OBJECT
 10
121.0000000000417941
 20
-135.0000000001718092
 30
0.0
 11
125.5000000000417941
 21
-139.0000000001718092
 31
0.0
1001
ACDBBLOCKREPETAG
1070
     1
1071
       49
1005
12B7E9
  0
LINE
  5
12B7EA
  8
OBJECT
 10
239.0000000000418083
 20
-135.0000000001718092
 30
0.0
 11
234.5000000000418083
 21
-139.0000000001718092
 31
0.0
1001
ACDBBLOCKREPETAG
1070
     1
1071
       50
1005
12B7EA
  0
LINE
  5
12B7EB
  8
OBJECT
 10
118.0000000000417941
 20
-149.0000000001710134
 30
0.0
 11
118.0000000000417941
 21
-152.0000000001718092
 31
0.0
1001
ACDBBLOCKREPETAG
1070
     1
1071
       51
1005
12B7EB
  0
ARC
  5
12B7EC
  8
OBJECT
 10
121.0000000000417941
 20
-149.0000000001710134
 30
0.0
 40
3.0
 50
90.0
 51
180.0
1001
ACDBBLOCKREPETAG
1070
     1
1071
       52
1005
12B7EC
  0
LINE
  5
12B7ED
  8
OBJECT
 10
242.0000000000418083
 20
-152.0000000001718092
 30
0.0
 11
242.0000000000418083
 21
-149.000000000172804
 31
0.0
1001
ACDBBLOCKREPETAG
1070
     1
1071
       53
1005
12B7ED
  0
ARC
  5
12B7EE
  8
OBJECT
 10
239.0000000000418083
 20
-149.000000000172804
 30
0.0
 40
3.0
 50
0.0
 51
90.0
1001
ACDBBLOCKREPETAG
1070
     1
1071
       54
1005
12B7EE
  0
LINE
  5
12B7EF
  8
OBJECT
 10
239.0000000000418083
 20
-146.000000000172804
 30
0.0
 11
121.0000000000417941
 21
-146.0000000001710134
 31
0.0
1001
ACDBBLOCKREPETAG
1070
     1
1071
       55
1005
12B7EF
  0
LINE
  5
12B7F0
  8
HIDDEN
 10
135.5000000000418083
 20
-144.0000000001718945
 30
0.0
 11
224.5000000000418083
 21
-144.0000000001718945
 31
0.0
1001
ACDBBLOCKREPETAG
1070
     1
1071
      426
1005
12B7F0
  0
POLYLINE
  5
12B7F1
  8
HIDDEN
 66
     1
 10
0.0
 20
0.0
 30
0.0
 70
     1
1001
ACDBBLOCKREPETAG
1070
     1
1071
      105
1005
0
  0
VERTEX
  5
12C0B7
  8
HIDDEN
 10
359.9999999998781277
 20
-800.0
 30
0.0
  0
VERTEX
  5
12C0B8
  8
HIDDEN
 10
719.9999999997562554
 20
-800.0
 30
0.0
  0
VERTEX
  5
12C0B9
  8
HIDDEN
 10
719.9999999997562554
 20
-1263.9999999998419753
 30
0.0
  0
VERTEX
  5
12C0BA
  8
HIDDEN
 10
359.9999999998781277
 20
-1263.9999999998419753
 30
0.0
  0
SEQEND
  5
12C0BB
  8
HIDDEN
  0
POLYLINE
  5
12B7F2
  8
HIDDEN
 66
     1
 10
0.0
 20
0.0
 30
0.0
 70
     1
1001
ACDBBLOCKREPETAG
1070
     1
1071
      110
1005
0
  0
VERTEX
  5
12C0BC
  8
HIDDEN
 10
0.0
 20
-800.0
 30
0.0
  0
VERTEX
  5
12C0BD
  8
HIDDEN
 10
359.9999999998781277
 20
-800.0
 30
0.0
  0
VERTEX
  5
12C0BE
  8
HIDDEN
 10
359.9999999998781277
 20
-1263.9999999998419753
 30
0.0
  0
VERTEX
  5
12C0BF
  8
HIDDEN
 10
0.0
 20
-1263.9999999998419753
 30
0.0
  0
SEQEND
  5
12C0C0
  8
HIDDEN
  0
POLYLINE
  5
12B7F3
  8
HIDDEN
 66
     1
 10
0.0
 20
0.0
 30
0.0
 70
     1
1001
ACDBBLOCKREPETAG
1070
     1
1071
      120
1005
0
  0
VERTEX
  5
12C0C1
  8
HIDDEN
 10
359.9999999998781277
 20
-1263.9999999998419753
 30
0.0
  0
VERTEX
  5
12C0C2
  8
HIDDEN
 10
719.9999999997562554
 20
-1263.9999999998419753
 30
0.0
  0
VERTEX
  5
12C0C3
  8
HIDDEN
 10
719.9999999997562554
 20
-1727.9999999996830411
 30
0.0
  0
VERTEX
  5
12C0C4
  8
HIDDEN
 10
359.9999999998781277
 20
-1727.9999999996830411
 30
0.0
  0
SEQEND
  5
12C0C5
  8
HIDDEN
  0
POLYLINE
  5
12B7F4
  8
HIDDEN
 66
     1
 10
0.0
 20
0.0
 30
0.0
 70
     1
1001
ACDBBLOCKREPETAG
1070
     1
1071
      125
1005
0
  0
VERTEX
  5
12C0C6
  8
HIDDEN
 10
0.0
 20
-1263.9999999998419753
 30
0.0
  0
VERTEX
  5
12C0C7
  8
HIDDEN
 10
359.9999999998781277
 20
-1263.9999999998419753
 30
0.0
  0
VERTEX
  5
12C0C8
  8
HIDDEN
 10
359.9999999998781277
 20
-1727.9999999996830411
 30
0.0
  0
VERTEX
  5
12C0C9
  8
HIDDEN
 10
0.0
 20
-1727.9999999996830411
 30
0.0
  0
SEQEND
  5
12C0CA
  8
HIDDEN
  0
POLYLINE
  5
12B7F5
  8
HIDDEN
 66
     1
 10
0.0
 20
0.0
 30
0.0
 70
     1
1001
ACDBBLOCKREPETAG
1070
     1
1071
      130
1005
0
  0
VERTEX
  5
12C0CB
  8
HIDDEN
 10
359.9999999998781277
 20
-1727.9999999996830411
 30
0.0
  0
VERTEX
  5
12C0CC
  8
HIDDEN
 10
719.9999999997562554
 20
-1727.9999999996830411
 30
0.0
  0
VERTEX
  5
12C0CD
  8
HIDDEN
 10
719.9999999997562554
 20
-2191.999999999524789
 30
0.0
  0
VERTEX
  5
12C0CE
  8
HIDDEN
 10
359.9999999998781277
 20
-2191.999999999524789
 30
0.0
  0
SEQEND
  5
12C0CF
  8
HIDDEN
  0
POLYLINE
  5
12B7F6
  8
HIDDEN
 66
     1
 10
0.0
 20
0.0
 30
0.0
 70
     1
1001
ACDBBLOCKREPETAG
1070
     1
1071
      135
1005
0
  0
VERTEX
  5
12C0D0
  8
HIDDEN
 10
0.0
 20
-1727.9999999996830411
 30
0.0
  0
VERTEX
  5
12C0D1
  8
HIDDEN
 10
359.9999999998781277
 20
-1727.9999999996830411
 30
0.0
  0
VERTEX
  5
12C0D2
  8
HIDDEN
 10
359.9999999998781277
 20
-2191.999999999524789
 30
0.0
  0
VERTEX
  5
12C0D3
  8
HIDDEN
 10
0.0
 20
-2191.999999999524789
 30
0.0
  0
SEQEND
  5
12C0D4
  8
HIDDEN
  0
POLYLINE
  5
12B7F7
  8
HIDDEN
 66
     1
 10
0.0
 20
0.0
 30
0.0
 70
     1
1001
ACDBBLOCKREPETAG
1070
     1
1071
      160
1005
0
  0
VERTEX
  5
12C0D5
  8
HIDDEN
 10
359.9999999998781277
 20
-2191.999999999524789
 30
0.0
  0
VERTEX
  5
12C0D6
  8
HIDDEN
 10
719.9999999997562554
 20
-2191.999999999524789
 30
0.0
  0
VERTEX
  5
12C0D7
  8
HIDDEN
 10
719.9999999997562554
 20
-2655.9999999993660822
 30
0.0
  0
VERTEX
  5
12C0D8
  8
HIDDEN
 10
359.9999999998781277
 20
-2655.9999999993660822
 30
0.0
  0
SEQEND
  5
12C0D9
  8
HIDDEN
  0
POLYLINE
  5
12B7F8
  8
HIDDEN
 66
     1
 10
0.0
 20
0.0
 30
0.0
 70
     1
1001
ACDBBLOCKREPETAG
1070
     1
1071
      165
1005
0
  0
VERTEX
  5
12C0DA
  8
HIDDEN
 10
0.0
 20
-2191.999999999524789
 30
0.0
  0
VERTEX
  5
12C0DB
  8
HIDDEN
 10
359.9999999998781277
 20
-2191.999999999524789
 30
0.0
  0
VERTEX
  5
12C0DC
  8
HIDDEN
 10
359.9999999998781277
 20
-2655.9999999993660822
 30
0.0
  0
VERTEX
  5
12C0DD
  8
HIDDEN
 10
0.0
 20
-2655.9999999993660822
 30
0.0
  0
SEQEND
  5
12C0DE
  8
HIDDEN
  0
POLYLINE
  5
12B7F9
  8
HIDDEN
 66
     1
 10
0.0
 20
0.0
 30
0.0
 70
     1
1001
ACDBBLOCKREPETAG
1070
     1
1071
      175
1005
0
  0
VERTEX
  5
12C0DF
  8
HIDDEN
 10
0.0
 20
-2655.9999999993660822
 30
0.0
  0
VERTEX
  5
12C0E0
  8
HIDDEN
 10
359.9999999998781277
 20
-2655.9999999993660822
 30
0.0
  0
VERTEX
  5
12C0E1
  8
HIDDEN
 10
359.9999999998781277
 20
-3119.9999999992091944
 30
0.0
  0
VERTEX
  5
12C0E2
  8
HIDDEN
 10
0.0
 20
-3119.9999999992091944
 30
0.0
  0
SEQEND
  5
12C0E3
  8
HIDDEN
  0
POLYLINE
  5
12B7FA
  8
HIDDEN
 66
     1
 10
0.0
 20
0.0
 30
0.0
 70
     1
1001
ACDBBLOCKREPETAG
1070
     1
1071
      110
1005
0
  0
VERTEX
  5
12C0E4
  8
HIDDEN
 10
0.0
 20
0.0
 30
0.0
  0
VERTEX
  5
12C0E5
  8
HIDDEN
 10
359.9999999998781277
 20
0.0
 30
0.0
  0
VERTEX
  5
12C0E6
  8
HIDDEN
 10
359.9999999998781277
 20
-463.9999999998415774
 30
0.0
  0
VERTEX
  5
12C0E7
  8
HIDDEN
 10
0.0
 20
-463.9999999998415774
 30
0.0
  0
SEQEND
  5
12C0E8
  8
HIDDEN
  0
TEXT
  5
12B7FB
  8
SLIM
 10
105.4285714285109066
 20
-1243.9999999998490239
 30
0.0
 40
48.0
  1
B1010
 41
0.75
1001
ACDBBLOCKREPETAG
1070
     1
1071
      119
1005
0
  0
TEXT
  5
12B7FC
  8
SLIM
 10
461.9999999998175895
 20
-1243.9999999998499334
 30
0.0
 40
48.0
  1
B1020
 41
0.75
1001
ACDBBLOCKREPETAG
1070
     1
1071
      119
1005
0
  0
TEXT
  5
12B7FD
  8
SLIM
 10
46.4571428570823173
 20
-1707.9999999996919087
 30
0.0
 40
48.0
  1
B1030（特）
 41
0.75
1001
ACDBBLOCKREPETAG
1070
     1
1071
      119
1005
0
  0
TEXT
  5
12B7FE
  8
SLIM
 10
461.9999999998175895
 20
-1707.9999999996919087
 30
0.0
 40
48.0
  1
B2010
 41
0.75
1001
ACDBBLOCKREPETAG
1070
     1
1071
      119
1005
0
  0
TEXT
  5
12B7FF
  8
SLIM
 10
98.5714285713681448
 20
-2171.9999999995329745
 30
0.0
 40
48.0
  1
B2020
 41
0.75
1001
ACDBBLOCKREPETAG
1070
     1
1071
      119
1005
0
  0
TEXT
  5
12B800
  8
SLIM
 10
403.0285714283888865
 20
-2171.9999999995329745
 30
0.0
 40
48.0
  1
B2030（特）
 41
0.75
1001
ACDBBLOCKREPETAG
1070
     1
1071
      119
1005
0
  0
TEXT
  5
12B801
  8
SLIM
 10
46.4571428570821112
 20
-2635.9999999993760866
 30
0.0
 40
48.0
  1
B3010（特）
 41
0.75
1001
ACDBBLOCKREPETAG
1070
     1
1071
      119
1005
0
  0
TEXT
  5
12B802
  8
SLIM
 10
403.0285714283888865
 20
-2635.9999999993760866
 30
0.0
 40
48.0
  1
B3020（特）
 41
0.75
1001
ACDBBLOCKREPETAG
1070
     1
1071
      119
1005
0
  0
TEXT
  5
12B803
  8
SLIM
 10
43.0285714285105527
 20
-3099.9999999992169251
 30
0.0
 40
48.0
  1
B3030（特）
 41
0.75
1001
ACDBBLOCKREPETAG
1070
     1
1071
      119
1005
0
  0
LINE
  5
12B804
  8
OBJECT
 10
129.0
 20
-863.0
 30
0.0
 11
129.0
 21
-855.9999999999997726
 31
0.0
1001
ACDBBLOCKREPETAG
1070
     1
1071
        0
1005
12B804
  0
LINE
  5
12B805
  8
OBJECT
 10
129.0
 20
-855.9999999999997726
 30
0.0
 11
223.0
 21
-855.9999999999997726
 31
0.0
1001
ACDBBLOCKREPETAG
1070
     1
1071
        1
1005
12B805
  0
LINE
  5
12B806
  8
OBJECT
 10
223.0
 20
-855.9999999999997726
 30
0.0
 11
223.0
 21
-863.0
 31
0.0
1001
ACDBBLOCKREPETAG
1070
     1
1071
        2
1005
12B806
  0
LINE
  5
12B807
  8
OBJECT
 10
223.0
 20
-863.0
 30
0.0
 11
129.0
 21
-863.0
 31
0.0
1001
ACDBBLOCKREPETAG
1070
     1
1071
        3
1005
12B807
  0
LINE
  5
12B808
  8
OBJECT
 10
132.0
 20
-863.0
 30
0.0
 11
132.0
 21
-898.9999999999997726
 31
0.0
1001
ACDBBLOCKREPETAG
1070
     1
1071
        4
1005
12B808
  0
LINE
  5
12B809
  8
OBJECT
 10
132.0
 20
-898.9999999999997726
 30
0.0
 11
220.0
 21
-898.9999999999997726
 31
0.0
1001
ACDBBLOCKREPETAG
1070
     1
1071
        5
1005
12B809
  0
LINE
  5
12B80A
  8
OBJECT
 10
220.0
 20
-898.9999999999997726
 30
0.0
 11
220.0
 21
-863.0
 31
0.0
1001
ACDBBLOCKREPETAG
1070
     1
1071
        6
1005
12B80A
  0
LINE
  5
12B80B
  8
OBJECT
 10
136.5
 20
-903.0
 30
0.0
 11
136.5
 21
-911.4999999999994316
 31
0.0
1001
ACDBBLOCKREPETAG
1070
     1
1071
        7
1005
12B80B
  0
LINE
  5
12B80C
  8
OBJECT
 10
215.5
 20
-911.5
 30
0.0
 11
215.5
 21
-903.0
 31
0.0
1001
ACDBBLOCKREPETAG
1070
     1
1071
        8
1005
12B80C
  0
LINE
  5
12B80D
  8
OBJECT
 10
215.5
 20
-903.0
 30
0.0
 11
136.5
 21
-903.0
 31
0.0
1001
ACDBBLOCKREPETAG
1070
     1
1071
        9
1005
12B80D
  0
LINE
  5
12B80E
  8
OBJECT
 10
132.0
 20
-898.9999999999997726
 30
0.0
 11
136.5
 21
-903.0
 31
0.0
1001
ACDBBLOCKREPETAG
1070
     1
1071
       10
1005
12B80E
  0
LINE
  5
12B80F
  8
OBJECT
 10
220.0
 20
-898.9999999999997726
 30
0.0
 11
215.5
 21
-903.0
 31
0.0
1001
ACDBBLOCKREPETAG
1070
     1
1071
       11
1005
12B80F
  0
LINE
  5
12B810
  8
OBJECT
 10
222.5
 20
-911.5000000000001137
 30
0.0
 11
129.5
 21
-911.4999999999994316
 31
0.0
1001
ACDBBLOCKREPETAG
1070
     1
1071
       12
1005
12B810
  0
ARC
  5
12B811
  8
OBJECT
 10
129.5
 20
-914.4999999999994316
 30
0.0
 40
3.0
 50
90.0
 51
180.0
1001
ACDBBLOCKREPETAG
1070
     1
1071
       13
1005
12B811
  0
LINE
  5
12B812
  8
OBJECT
 10
126.5
 20
-914.4999999999994316
 30
0.0
 11
126.4999999999991047
 21
-939.655080087021247
 31
0.0
1001
ACDBBLOCKREPETAG
1070
     1
1071
       15
1005
12B812
  0
LINE
  5
12B813
  8
OBJECT
 10
225.5
 20
-914.5000000000010232
 30
0.0
 11
225.4999999999990905
 21
-939.6550800870204512
 31
0.0
1001
ACDBBLOCKREPETAG
1070
     1
1071
       16
1005
12B813
  0
ARC
  5
12B814
  8
OBJECT
 10
222.5
 20
-914.5000000000010232
 30
0.0
 40
3.0
 50
0.0
 51
90.0
1001
ACDBBLOCKREPETAG
1070
     1
1071
       17
1005
12B814
  0
INSERT
  5
12B815
  8
SLIM
  2
*U7
 10
0.0
 20
0.0
 30
0.0
  0
LINE
  5
12B816
  8
HIDDEN
 10
146.0
 20
-907.9999999999997726
 30
0.0
 11
206.0
 21
-907.9999999999997726
 31
0.0
1001
ACDBBLOCKREPETAG
1070
     1
1071
       56
1005
12B816
  0
LINE
  5
12B817
  8
OBJECT
 10
223.0
 20
-1129.0
 30
0.0
 11
223.0
 21
-1136.0
 31
0.0
1001
ACDBBLOCKREPETAG
1070
     1
1071
        0
1005
12B817
  0
LINE
  5
12B818
  8
OBJECT
 10
223.0
 20
-1136.0
 30
0.0
 11
129.0
 21
-1136.0
 31
0.0
1001
ACDBBLOCKREPETAG
1070
     1
1071
        1
1005
12B818
  0
LINE
  5
12B819
  8
OBJECT
 10
129.0
 20
-1136.0
 30
0.0
 11
129.0
 21
-1129.0
 31
0.0
1001
ACDBBLOCKREPETAG
1070
     1
1071
        2
1005
12B819
  0
LINE
  5
12B81A
  8
OBJECT
 10
129.0
 20
-1129.0
 30
0.0
 11
223.0
 21
-1129.0
 31
0.0
1001
ACDBBLOCKREPETAG
1070
     1
1071
        3
1005
12B81A
  0
LINE
  5
12B81B
  8
OBJECT
 10
220.0
 20
-1129.0
 30
0.0
 11
220.0
 21
-1093.0
 31
0.0
1001
ACDBBLOCKREPETAG
1070
     1
1071
        4
1005
12B81B
  0
LINE
  5
12B81C
  8
OBJECT
 10
220.0
 20
-1093.0
 30
0.0
 11
132.0
 21
-1093.0
 31
0.0
1001
ACDBBLOCKREPETAG
1070
     1
1071
        5
1005
12B81C
  0
LINE
  5
12B81D
  8
OBJECT
 10
132.0
 20
-1093.0
 30
0.0
 11
132.0
 21
-1129.0
 31
0.0
1001
ACDBBLOCKREPETAG
1070
     1
1071
        6
1005
12B81D
  0
LINE
  5
12B81E
  8
OBJECT
 10
215.5
 20
-1089.0
 30
0.0
 11
215.5
 21
-1080.5
 31
0.0
1001
ACDBBLOCKREPETAG
1070
     1
1071
        7
1005
12B81E
  0
LINE
  5
12B81F
  8
OBJECT
 10
136.5
 20
-1080.4999999999990905
 30
0.0
 11
136.5
 21
-1089.0
 31
0.0
1001
ACDBBLOCKREPETAG
1070
     1
1071
        8
1005
12B81F
  0
LINE
  5
12B820
  8
OBJECT
 10
136.5
 20
-1089.0
 30
0.0
 11
215.5
 21
-1089.0
 31
0.0
1001
ACDBBLOCKREPETAG
1070
     1
1071
        9
1005
12B820
  0
LINE
  5
12B821
  8
OBJECT
 10
220.0
 20
-1093.0
 30
0.0
 11
215.5
 21
-1089.0
 31
0.0
1001
ACDBBLOCKREPETAG
1070
     1
1071
       10
1005
12B821
  0
LINE
  5
12B822
  8
OBJECT
 10
132.0
 20
-1093.0
 30
0.0
 11
136.5
 21
-1089.0
 31
0.0
1001
ACDBBLOCKREPETAG
1070
     1
1071
       11
1005
12B822
  0
LINE
  5
12B823
  8
OBJECT
 10
129.5
 20
-1080.4999999999990905
 30
0.0
 11
222.5
 21
-1080.5
 31
0.0
1001
ACDBBLOCKREPETAG
1070
     1
1071
       12
1005
12B823
  0
ARC
  5
12B824
  8
OBJECT
 10
222.5
 20
-1077.5
 30
0.0
 40
3.0
 50
270.0
 51
0.0
1001
ACDBBLOCKREPETAG
1070
     1
1071
       13
1005
12B824
  0
LINE
  5
12B825
  8
OBJECT
 10
225.5
 20
-1077.5
 30
0.0
 11
225.5000000000009095
 21
-1052.3449199129779572
 31
0.0
1001
ACDBBLOCKREPETAG
1070
     1
1071
       15
1005
12B825
  0
LINE
  5
12B826
  8
OBJECT
 10
126.5
 20
-1077.4999999999990905
 30
0.0
 11
126.5000000000008953
 21
-1052.3449199129790941
 31
0.0
1001
ACDBBLOCKREPETAG
1070
     1
1071
       16
1005
12B826
  0
ARC
  5
12B827
  8
OBJECT
 10
129.5
 20
-1077.4999999999990905
 30
0.0
 40
3.0
 50
180.0
 51
270.0
1001
ACDBBLOCKREPETAG
1070
     1
1071
       17
1005
12B827
  0
INSERT
  5
12B828
  8
SLIM
  2
*U8
 10
0.0
 20
0.0
 30
0.0
  0
LINE
  5
12B829
  8
HIDDEN
 10
206.0
 20
-1084.0
 30
0.0
 11
146.0
 21
-1084.0
 31
0.0
1001
ACDBBLOCKREPETAG
1070
     1
1071
       56
1005
12B829
  0
LINE
  5
12B82A
  8
OBJECT
 10
489.0
 20
-863.0
 30
0.0
 11
489.0
 21
-855.9999999999997726
 31
0.0
1001
ACDBBLOCKREPETAG
1070
     1
1071
        0
1005
12B82A
  0
LINE
  5
12B82B
  8
OBJECT
 10
489.0
 20
-855.9999999999997726
 30
0.0
 11
583.0
 21
-855.9999999999997726
 31
0.0
1001
ACDBBLOCKREPETAG
1070
     1
1071
        1
1005
12B82B
  0
LINE
  5
12B82C
  8
OBJECT
 10
583.0
 20
-855.9999999999997726
 30
0.0
 11
583.0
 21
-863.0
 31
0.0
1001
ACDBBLOCKREPETAG
1070
     1
1071
        2
1005
12B82C
  0
LINE
  5
12B82D
  8
OBJECT
 10
583.0
 20
-863.0
 30
0.0
 11
489.0
 21
-863.0
 31
0.0
1001
ACDBBLOCKREPETAG
1070
     1
1071
        3
1005
12B82D
  0
LINE
  5
12B82E
  8
OBJECT
 10
492.0
 20
-863.0
 30
0.0
 11
492.0
 21
-898.9999999999997726
 31
0.0
1001
ACDBBLOCKREPETAG
1070
     1
1071
        4
1005
12B82E
  0
LINE
  5
12B82F
  8
OBJECT
 10
492.0
 20
-898.9999999999997726
 30
0.0
 11
580.0
 21
-898.9999999999997726
 31
0.0
1001
ACDBBLOCKREPETAG
1070
     1
1071
        5
1005
12B82F
  0
LINE
  5
12B830
  8
OBJECT
 10
580.0
 20
-898.9999999999997726
 30
0.0
 11
580.0
 21
-863.0
 31
0.0
1001
ACDBBLOCKREPETAG
1070
     1
1071
        6
1005
12B830
  0
LINE
  5
12B831
  8
OBJECT
 10
496.4999999999997726
 20
-903.0
 30
0.0
 11
496.4999999999997726
 21
-911.4999999999994316
 31
0.0
1001
ACDBBLOCKREPETAG
1070
     1
1071
        7
1005
12B831
  0
LINE
  5
12B832
  8
OBJECT
 10
575.4999999999998863
 20
-911.5
 30
0.0
 11
575.4999999999998863
 21
-903.0
 31
0.0
1001
ACDBBLOCKREPETAG
1070
     1
1071
        8
1005
12B832
  0
LINE
  5
12B833
  8
OBJECT
 10
575.4999999999998863
 20
-903.0
 30
0.0
 11
496.4999999999997726
 21
-903.0
 31
0.0
1001
ACDBBLOCKREPETAG
1070
     1
1071
        9
1005
12B833
  0
LINE
  5
12B834
  8
OBJECT
 10
492.0
 20
-898.9999999999997726
 30
0.0
 11
496.4999999999997726
 21
-903.0
 31
0.0
1001
ACDBBLOCKREPETAG
1070
     1
1071
       10
1005
12B834
  0
LINE
  5
12B835
  8
OBJECT
 10
580.0
 20
-898.9999999999997726
 30
0.0
 11
575.4999999999998863
 21
-903.0
 31
0.0
1001
ACDBBLOCKREPETAG
1070
     1
1071
       11
1005
12B835
  0
LINE
  5
12B836
  8
OBJECT
 10
582.5
 20
-911.5000000000001137
 30
0.0
 11
489.5
 21
-911.4999999999994316
 31
0.0
1001
ACDBBLOCKREPETAG
1070
     1
1071
       12
1005
12B836
  0
ARC
  5
12B837
  8
OBJECT
 10
489.5
 20
-914.4999999999994316
 30
0.0
 40
3.0
 50
90.0
 51
180.0
1001
ACDBBLOCKREPETAG
1070
     1
1071
       13
1005
12B837
  0
LINE
  5
12B838
  8
OBJECT
 10
486.5
 20
-914.4999999999994316
 30
0.0
 11
486.4999999999990905
 21
-939.655080087021247
 31
0.0
1001
ACDBBLOCKREPETAG
1070
     1
1071
       15
1005
12B838
  0
LINE
  5
12B839
  8
OBJECT
 10
585.5
 20
-914.5000000000010232
 30
0.0
 11
585.4999999999987494
 21
-939.6550800870204512
 31
0.0
1001
ACDBBLOCKREPETAG
1070
     1
1071
       16
1005
12B839
  0
ARC
  5
12B83A
  8
OBJECT
 10
582.5
 20
-914.5000000000010232
 30
0.0
 40
3.0
 50
0.0
 51
90.0
1001
ACDBBLOCKREPETAG
1070
     1
1071
       17
1005
12B83A
  0
INSERT
  5
12B83B
  8
SLIM
  2
*U9
 10
0.0
 20
0.0
 30
0.0
  0
LINE
  5
12B83C
  8
HIDDEN
 10
506.0
 20
-907.9999999999997726
 30
0.0
 11
566.0
 21
-907.9999999999997726
 31
0.0
1001
ACDBBLOCKREPETAG
1070
     1
1071
       56
1005
12B83C
  0
LINE
  5
12B83D
  8
OBJECT
 10
591.0
 20
-1129.0
 30
0.0
 11
591.0
 21
-1136.0
 31
0.0
1001
ACDBBLOCKREPETAG
1070
     1
1071
       18
1005
12B83D
  0
LINE
  5
12B83E
  8
OBJECT
 10
591.0
 20
-1136.0
 30
0.0
 11
481.0
 21
-1136.0
 31
0.0
1001
ACDBBLOCKREPETAG
1070
     1
1071
       19
1005
12B83E
  0
LINE
  5
12B83F
  8
OBJECT
 10
481.0
 20
-1136.0
 30
0.0
 11
481.0
 21
-1129.0
 31
0.0
1001
ACDBBLOCKREPETAG
1070
     1
1071
       20
1005
12B83F
  0
LINE
  5
12B840
  8
OBJECT
 10
481.0
 20
-1129.0
 30
0.0
 11
591.0
 21
-1129.0
 31
0.0
1001
ACDBBLOCKREPETAG
1070
     1
1071
       21
1005
12B840
  0
LINE
  5
12B841
  8
OBJECT
 10
588.0
 20
-1129.0
 30
0.0
 11
588.0
 21
-1093.0
 31
0.0
1001
ACDBBLOCKREPETAG
1070
     1
1071
       22
1005
12B841
  0
LINE
  5
12B842
  8
OBJECT
 10
588.0
 20
-1093.0
 30
0.0
 11
484.0
 21
-1093.0
 31
0.0
1001
ACDBBLOCKREPETAG
1070
     1
1071
       23
1005
12B842
  0
LINE
  5
12B843
  8
OBJECT
 10
484.0
 20
-1093.0
 30
0.0
 11
484.0
 21
-1129.0
 31
0.0
1001
ACDBBLOCKREPETAG
1070
     1
1071
       24
1005
12B843
  0
LINE
  5
12B844
  8
OBJECT
 10
583.4999999999998863
 20
-1089.0
 30
0.0
 11
583.4999999999998863
 21
-1080.5
 31
0.0
1001
ACDBBLOCKREPETAG
1070
     1
1071
       25
1005
12B844
  0
LINE
  5
12B845
  8
OBJECT
 10
488.4999999999997726
 20
-1080.4999999999990905
 30
0.0
 11
488.4999999999997726
 21
-1089.0
 31
0.0
1001
ACDBBLOCKREPETAG
1070
     1
1071
       26
1005
12B845
  0
LINE
  5
12B846
  8
OBJECT
 10
488.4999999999997726
 20
-1089.0
 30
0.0
 11
583.4999999999998863
 21
-1089.0
 31
0.0
1001
ACDBBLOCKREPETAG
1070
     1
1071
       27
1005
12B846
  0
LINE
  5
12B847
  8
OBJECT
 10
588.0
 20
-1093.0
 30
0.0
 11
583.4999999999998863
 21
-1089.0
 31
0.0
1001
ACDBBLOCKREPETAG
1070
     1
1071
       28
1005
12B847
  0
LINE
  5
12B848
  8
OBJECT
 10
484.0
 20
-1093.0
 30
0.0
 11
488.4999999999997726
 21
-1089.0
 31
0.0
1001
ACDBBLOCKREPETAG
1070
     1
1071
       29
1005
12B848
  0
LINE
  5
12B849
  8
OBJECT
 10
486.5
 20
-1080.4999999999979536
 30
0.0
 11
585.5
 21
-1080.5
 31
0.0
1001
ACDBBLOCKREPETAG
1070
     1
1071
       30
1005
12B849
  0
LINE
  5
12B84A
  8
OBJECT
 10
585.5
 20
-1080.5
 30
0.0
 11
585.4999999999987494
 21
-1052.3449199129790941
 31
0.0
1001
ACDBBLOCKREPETAG
1070
     1
1071
       31
1005
12B84A
  0
LINE
  5
12B84B
  8
OBJECT
 10
486.5
 20
-1080.4999999999979536
 30
0.0
 11
486.4999999999990905
 21
-1052.3449199129779572
 31
0.0
1001
ACDBBLOCKREPETAG
1070
     1
1071
       32
1005
12B84B
  0
INSERT
  5
12B84C
  8
SLIM
  2
*U10
 10
0.0
 20
0.0
 30
0.0
  0
LINE
  5
12B84D
  8
HIDDEN
 10
574.0
 20
-1084.0
 30
0.0
 11
498.0
 21
-1084.0
 31
0.0
1001
ACDBBLOCKREPETAG
1070
     1
1071
       57
1005
12B84D
  0
LINE
  5
12B84E
  8
OBJECT
 10
129.0
 20
-1327.0
 30
0.0
 11
129.0
 21
-1320.0
 31
0.0
1001
ACDBBLOCKREPETAG
1070
     1
1071
        0
1005
12B84E
  0
LINE
  5
12B84F
  8
OBJECT
 10
129.0
 20
-1320.0
 30
0.0
 11
223.0
 21
-1320.0
 31
0.0
1001
ACDBBLOCKREPETAG
1070
     1
1071
        1
1005
12B84F
  0
LINE
  5
12B850
  8
OBJECT
 10
223.0
 20
-1320.0
 30
0.0
 11
223.0
 21
-1327.0
 31
0.0
1001
ACDBBLOCKREPETAG
1070
     1
1071
        2
1005
12B850
  0
LINE
  5
12B851
  8
OBJECT
 10
223.0
 20
-1327.0
 30
0.0
 11
129.0
 21
-1327.0
 31
0.0
1001
ACDBBLOCKREPETAG
1070
     1
1071
        3
1005
12B851
  0
LINE
  5
12B852
  8
OBJECT
 10
132.0
 20
-1327.0
 30
0.0
 11
132.0
 21
-1363.0
 31
0.0
1001
ACDBBLOCKREPETAG
1070
     1
1071
        4
1005
12B852
  0
LINE
  5
12B853
  8
OBJECT
 10
132.0
 20
-1363.0
 30
0.0
 11
220.0
 21
-1363.0
 31
0.0
1001
ACDBBLOCKREPETAG
1070
     1
1071
        5
1005
12B853
  0
LINE
  5
12B854
  8
OBJECT
 10
220.0
 20
-1363.0
 30
0.0
 11
220.0
 21
-1327.0
 31
0.0
1001
ACDBBLOCKREPETAG
1070
     1
1071
        6
1005
12B854
  0
LINE
  5
12B855
  8
OBJECT
 10
136.5
 20
-1367.0
 30
0.0
 11
136.5
 21
-1375.4999999999990905
 31
0.0
1001
ACDBBLOCKREPETAG
1070
     1
1071
        7
1005
12B855
  0
LINE
  5
12B856
  8
OBJECT
 10
215.5
 20
-1375.5
 30
0.0
 11
215.5
 21
-1367.0
 31
0.0
1001
ACDBBLOCKREPETAG
1070
     1
1071
        8
1005
12B856
  0
LINE
  5
12B857
  8
OBJECT
 10
215.5
 20
-1367.0
 30
0.0
 11
136.5
 21
-1367.0
 31
0.0
1001
ACDBBLOCKREPETAG
1070
     1
1071
        9
1005
12B857
  0
LINE
  5
12B858
  8
OBJECT
 10
132.0
 20
-1363.0
 30
0.0
 11
136.5
 21
-1367.0
 31
0.0
1001
ACDBBLOCKREPETAG
1070
     1
1071
       10
1005
12B858
  0
LINE
  5
12B859
  8
OBJECT
 10
220.0
 20
-1363.0
 30
0.0
 11
215.5
 21
-1367.0
 31
0.0
1001
ACDBBLOCKREPETAG
1070
     1
1071
       11
1005
12B859
  0
LINE
  5
12B85A
  8
OBJECT
 10
222.5
 20
-1375.5000000000009095
 30
0.0
 11
129.5
 21
-1375.4999999999990905
 31
0.0
1001
ACDBBLOCKREPETAG
1070
     1
1071
       12
1005
12B85A
  0
ARC
  5
12B85B
  8
OBJECT
 10
129.5
 20
-1378.5
 30
0.0
 40
3.0
 50
90.0
 51
180.0
1001
ACDBBLOCKREPETAG
1070
     1
1071
       13
1005
12B85B
  0
LINE
  5
12B85C
  8
OBJECT
 10
126.5
 20
-1378.5
 30
0.0
 11
126.4999999999991047
 21
-1403.6550800870220428
 31
0.0
1001
ACDBBLOCKREPETAG
1070
     1
1071
       15
1005
12B85C
  0
LINE
  5
12B85D
  8
OBJECT
 10
225.5
 20
-1378.5000000000009095
 30
0.0
 11
225.4999999999990905
 21
-1403.6550800870209059
 31
0.0
1001
ACDBBLOCKREPETAG
1070
     1
1071
       16
1005
12B85D
  0
ARC
  5
12B85E
  8
OBJECT
 10
222.5
 20
-1378.5000000000009095
 30
0.0
 40
3.0
 50
0.0
 51
90.0
1001
ACDBBLOCKREPETAG
1070
     1
1071
       17
1005
12B85E
  0
INSERT
  5
12B85F
  8
SLIM
  2
*U11
 10
0.0
 20
0.0
 30
0.0
  0
LINE
  5
12B860
  8
HIDDEN
 10
146.0
 20
-1372.0
 30
0.0
 11
206.0
 21
-1372.0
 31
0.0
1001
ACDBBLOCKREPETAG
1070
     1
1071
       56
1005
12B860
  0
LINE
  5
12B861
  8
OBJECT
 10
238.0
 20
-1593.0
 30
0.0
 11
238.0
 21
-1600.0
 31
0.0
1001
ACDBBLOCKREPETAG
1070
     1
1071
       34
1005
12B861
  0
LINE
  5
12B862
  8
OBJECT
 10
238.0
 20
-1600.0
 30
0.0
 11
114.0
 21
-1600.0
 31
0.0
1001
ACDBBLOCKREPETAG
1070
     1
1071
       35
1005
12B862
  0
LINE
  5
12B863
  8
OBJECT
 10
114.0
 20
-1600.0
 30
0.0
 11
114.0
 21
-1593.0
 31
0.0
1001
ACDBBLOCKREPETAG
1070
     1
1071
       36
1005
12B863
  0
LINE
  5
12B864
  8
OBJECT
 10
114.0
 20
-1593.0
 30
0.0
 11
238.0
 21
-1593.0
 31
0.0
1001
ACDBBLOCKREPETAG
1070
     1
1071
       37
1005
12B864
  0
LINE
  5
12B865
  8
OBJECT
 10
235.0
 20
-1593.0
 30
0.0
 11
235.0
 21
-1557.0
 31
0.0
1001
ACDBBLOCKREPETAG
1070
     1
1071
       38
1005
12B865
  0
LINE
  5
12B866
  8
OBJECT
 10
235.0
 20
-1557.0
 30
0.0
 11
117.0
 21
-1557.0
 31
0.0
1001
ACDBBLOCKREPETAG
1070
     1
1071
       39
1005
12B866
  0
LINE
  5
12B867
  8
OBJECT
 10
117.0
 20
-1557.0
 30
0.0
 11
117.0
 21
-1593.0
 31
0.0
1001
ACDBBLOCKREPETAG
1070
     1
1071
       40
1005
12B867
  0
LINE
  5
12B868
  8
OBJECT
 10
230.5
 20
-1553.0
 30
0.0
 11
230.5
 21
-1542.5
 31
0.0
1001
ACDBBLOCKREPETAG
1070
     1
1071
       41
1005
12B868
  0
LINE
  5
12B869
  8
OBJECT
 10
121.5
 20
-1542.5
 30
0.0
 11
121.5
 21
-1553.0
 31
0.0
1001
ACDBBLOCKREPETAG
1070
     1
1071
       42
1005
12B869
  0
LINE
  5
12B86A
  8
OBJECT
 10
121.5
 20
-1553.0
 30
0.0
 11
230.5
 21
-1553.0
 31
0.0
1001
ACDBBLOCKREPETAG
1070
     1
1071
       43
1005
12B86A
  0
LINE
  5
12B86B
  8
OBJECT
 10
235.0
 20
-1557.0
 30
0.0
 11
230.5
 21
-1553.0
 31
0.0
1001
ACDBBLOCKREPETAG
1070
     1
1071
       44
1005
12B86B
  0
LINE
  5
12B86C
  8
OBJECT
 10
117.0
 20
-1557.0
 30
0.0
 11
121.5
 21
-1553.0
 31
0.0
1001
ACDBBLOCKREPETAG
1070
     1
1071
       45
1005
12B86C
  0
LINE
  5
12B86D
  8
OBJECT
 10
225.5
 20
-1537.5
 30
0.0
 11
225.4999999999990905
 21
-1516.3449199129779572
 31
0.0
1001
ACDBBLOCKREPETAG
1070
     1
1071
       46
1005
12B86D
  0
LINE
  5
12B86E
  8
OBJECT
 10
126.5
 20
-1537.5
 30
0.0
 11
126.5
 21
-1516.3449199129779572
 31
0.0
1001
ACDBBLOCKREPETAG
1070
     1
1071
       47
1005
12B86E
  0
LINE
  5
12B86F
  8
OBJECT
 10
230.5
 20
-1542.5
 30
0.0
 11
121.5
 21
-1542.5
 31
0.0
1001
ACDBBLOCKREPETAG
1070
     1
1071
       48
1005
12B86F
  0
LINE
  5
12B870
  8
OBJECT
 10
225.5
 20
-1537.5
 30
0.0
 11
126.5
 21
-1537.5
 31
0.0
1001
ACDBBLOCKREPETAG
1070
     1
1071
       49
1005
12B870
  0
LINE
  5
12B871
  8
OBJECT
 10
230.5
 20
-1542.5
 30
0.0
 11
225.5
 21
-1537.5
 31
0.0
1001
ACDBBLOCKREPETAG
1070
     1
1071
       50
1005
12B871
  0
LINE
  5
12B872
  8
OBJECT
 10
126.5
 20
-1537.5
 30
0.0
 11
121.5000000000035953
 21
-1542.5
 31
0.0
1001
ACDBBLOCKREPETAG
1070
     1
1071
       51
1005
12B872
  0
INSERT
  5
12B873
  8
SLIM
  2
*U12
 10
0.0
 20
0.0
 30
0.0
  0
LINE
  5
12B874
  8
HIDDEN
 10
220.5
 20
-1548.0
 30
0.0
 11
131.5
 21
-1548.0
 31
0.0
1001
ACDBBLOCKREPETAG
1070
     1
1071
       65
1005
12B874
  0
LINE
  5
12B875
  8
OBJECT
 10
481.0
 20
-1327.0
 30
0.0
 11
481.0
 21
-1320.0
 31
0.0
1001
ACDBBLOCKREPETAG
1070
     1
1071
       18
1005
12B875
  0
LINE
  5
12B876
  8
OBJECT
 10
481.0
 20
-1320.0
 30
0.0
 11
591.0
 21
-1320.0
 31
0.0
1001
ACDBBLOCKREPETAG
1070
     1
1071
       19
1005
12B876
  0
LINE
  5
12B877
  8
OBJECT
 10
591.0
 20
-1320.0
 30
0.0
 11
591.0
 21
-1327.0
 31
0.0
1001
ACDBBLOCKREPETAG
1070
     1
1071
       20
1005
12B877
  0
LINE
  5
12B878
  8
OBJECT
 10
591.0
 20
-1327.0
 30
0.0
 11
481.0
 21
-1327.0
 31
0.0
1001
ACDBBLOCKREPETAG
1070
     1
1071
       21
1005
12B878
  0
LINE
  5
12B879
  8
OBJECT
 10
484.0
 20
-1327.0
 30
0.0
 11
484.0
 21
-1363.0
 31
0.0
1001
ACDBBLOCKREPETAG
1070
     1
1071
       22
1005
12B879
  0
LINE
  5
12B87A
  8
OBJECT
 10
484.0
 20
-1363.0
 30
0.0
 11
588.0
 21
-1363.0
 31
0.0
1001
ACDBBLOCKREPETAG
1070
     1
1071
       23
1005
12B87A
  0
LINE
  5
12B87B
  8
OBJECT
 10
588.0
 20
-1363.0
 30
0.0
 11
588.0
 21
-1327.0
 31
0.0
1001
ACDBBLOCKREPETAG
1070
     1
1071
       24
1005
12B87B
  0
LINE
  5
12B87C
  8
OBJECT
 10
488.4999999999997726
 20
-1367.0
 30
0.0
 11
488.4999999999997726
 21
-1375.4999999999990905
 31
0.0
1001
ACDBBLOCKREPETAG
1070
     1
1071
       25
1005
12B87C
  0
LINE
  5
12B87D
  8
OBJECT
 10
583.4999999999998863
 20
-1375.5
 30
0.0
 11
583.4999999999998863
 21
-1367.0
 31
0.0
1001
ACDBBLOCKREPETAG
1070
     1
1071
       26
1005
12B87D
  0
LINE
  5
12B87E
  8
OBJECT
 10
583.4999999999998863
 20
-1367.0
 30
0.0
 11
488.4999999999997726
 21
-1367.0
 31
0.0
1001
ACDBBLOCKREPETAG
1070
     1
1071
       27
1005
12B87E
  0
LINE
  5
12B87F
  8
OBJECT
 10
484.0
 20
-1363.0
 30
0.0
 11
488.4999999999997726
 21
-1367.0
 31
0.0
1001
ACDBBLOCKREPETAG
1070
     1
1071
       28
1005
12B87F
  0
LINE
  5
12B880
  8
OBJECT
 10
588.0
 20
-1363.0
 30
0.0
 11
583.4999999999998863
 21
-1367.0
 31
0.0
1001
ACDBBLOCKREPETAG
1070
     1
1071
       29
1005
12B880
  0
LINE
  5
12B881
  8
OBJECT
 10
585.5
 20
-1375.5000000000009095
 30
0.0
 11
486.5
 21
-1375.4999999999990905
 31
0.0
1001
ACDBBLOCKREPETAG
1070
     1
1071
       30
1005
12B881
  0
LINE
  5
12B882
  8
OBJECT
 10
486.5
 20
-1375.4999999999990905
 30
0.0
 11
486.5000000000009095
 21
-1403.6550800870199964
 31
0.0
1001
ACDBBLOCKREPETAG
1070
     1
1071
       31
1005
12B882
  0
LINE
  5
12B883
  8
OBJECT
 10
585.5
 20
-1375.5000000000009095
 30
0.0
 11
585.5000000000009095
 21
-1403.6550800870220428
 31
0.0
1001
ACDBBLOCKREPETAG
1070
     1
1071
       32
1005
12B883
  0
INSERT
  5
12B884
  8
SLIM
  2
*U13
 10
0.0
 20
0.0
 30
0.0
  0
LINE
  5
12B885
  8
HIDDEN
 10
498.0
 20
-1372.0
 30
0.0
 11
574.0
 21
-1372.0
 31
0.0
1001
ACDBBLOCKREPETAG
1070
     1
1071
       57
1005
12B885
  0
LINE
  5
12B886
  8
OBJECT
 10
583.0
 20
-1593.0
 30
0.0
 11
583.0
 21
-1600.0
 31
0.0
1001
ACDBBLOCKREPETAG
1070
     1
1071
        0
1005
12B886
  0
LINE
  5
12B887
  8
OBJECT
 10
583.0
 20
-1600.0
 30
0.0
 11
489.0
 21
-1600.0
 31
0.0
1001
ACDBBLOCKREPETAG
1070
     1
1071
        1
1005
12B887
  0
LINE
  5
12B888
  8
OBJECT
 10
489.0
 20
-1600.0
 30
0.0
 11
489.0
 21
-1593.0
 31
0.0
1001
ACDBBLOCKREPETAG
1070
     1
1071
        2
1005
12B888
  0
LINE
  5
12B889
  8
OBJECT
 10
489.0
 20
-1593.0
 30
0.0
 11
583.0
 21
-1593.0
 31
0.0
1001
ACDBBLOCKREPETAG
1070
     1
1071
        3
1005
12B889
  0
LINE
  5
12B88A
  8
OBJECT
 10
580.0
 20
-1593.0
 30
0.0
 11
580.0
 21
-1557.0
 31
0.0
1001
ACDBBLOCKREPETAG
1070
     1
1071
        4
1005
12B88A
  0
LINE
  5
12B88B
  8
OBJECT
 10
580.0
 20
-1557.0
 30
0.0
 11
492.0
 21
-1557.0
 31
0.0
1001
ACDBBLOCKREPETAG
1070
     1
1071
        5
1005
12B88B
  0
LINE
  5
12B88C
  8
OBJECT
 10
492.0
 20
-1557.0
 30
0.0
 11
492.0
 21
-1593.0
 31
0.0
1001
ACDBBLOCKREPETAG
1070
     1
1071
        6
1005
12B88C
  0
LINE
  5
12B88D
  8
OBJECT
 10
575.4999999999998863
 20
-1553.0
 30
0.0
 11
575.4999999999998863
 21
-1544.5
 31
0.0
1001
ACDBBLOCKREPETAG
1070
     1
1071
        7
1005
12B88D
  0
LINE
  5
12B88E
  8
OBJECT
 10
496.4999999999997726
 20
-1544.4999999999990905
 30
0.0
 11
496.4999999999997726
 21
-1553.0
 31
0.0
1001
ACDBBLOCKREPETAG
1070
     1
1071
        8
1005
12B88E
  0
LINE
  5
12B88F
  8
OBJECT
 10
496.4999999999997726
 20
-1553.0
 30
0.0
 11
575.4999999999998863
 21
-1553.0
 31
0.0
1001
ACDBBLOCKREPETAG
1070
     1
1071
        9
1005
12B88F
  0
LINE
  5
12B890
  8
OBJECT
 10
580.0
 20
-1557.0
 30
0.0
 11
575.4999999999998863
 21
-1553.0
 31
0.0
1001
ACDBBLOCKREPETAG
1070
     1
1071
       10
1005
12B890
  0
LINE
  5
12B891
  8
OBJECT
 10
492.0
 20
-1557.0
 30
0.0
 11
496.4999999999997726
 21
-1553.0
 31
0.0
1001
ACDBBLOCKREPETAG
1070
     1
1071
       11
1005
12B891
  0
LINE
  5
12B892
  8
OBJECT
 10
489.5
 20
-1544.4999999999990905
 30
0.0
 11
582.5
 21
-1544.5
 31
0.0
1001
ACDBBLOCKREPETAG
1070
     1
1071
       12
1005
12B892
  0
ARC
  5
12B893
  8
OBJECT
 10
582.5
 20
-1541.5
 30
0.0
 40
3.0
 50
270.0
 51
0.0
1001
ACDBBLOCKREPETAG
1070
     1
1071
       13
1005
12B893
  0
LINE
  5
12B894
  8
OBJECT
 10
585.5
 20
-1541.5
 30
0.0
 11
585.5000000000009095
 21
-1516.3449199129779572
 31
0.0
1001
ACDBBLOCKREPETAG
1070
     1
1071
       15
1005
12B894
  0
LINE
  5
12B895
  8
OBJECT
 10
486.5
 20
-1541.4999999999990905
 30
0.0
 11
486.5000000000009095
 21
-1516.3449199129779572
 31
0.0
1001
ACDBBLOCKREPETAG
1070
     1
1071
       16
1005
12B895
  0
ARC
  5
12B896
  8
OBJECT
 10
489.5
 20
-1541.4999999999990905
 30
0.0
 40
3.0
 50
180.0
 51
270.0
1001
ACDBBLOCKREPETAG
1070
     1
1071
       17
1005
12B896
  0
INSERT
  5
12B897
  8
SLIM
  2
*U14
 10
0.0
 20
0.0
 30
0.0
  0
LINE
  5
12B898
  8
HIDDEN
 10
566.0
 20
-1548.0
 30
0.0
 11
506.0
 21
-1548.0
 31
0.0
1001
ACDBBLOCKREPETAG
1070
     1
1071
       56
1005
12B898
  0
LINE
  5
12B899
  8
OBJECT
 10
121.0
 20
-1791.0
 30
0.0
 11
121.0
 21
-1784.0
 31
0.0
1001
ACDBBLOCKREPETAG
1070
     1
1071
       18
1005
12B899
  0
LINE
  5
12B89A
  8
OBJECT
 10
121.0
 20
-1784.0
 30
0.0
 11
231.0
 21
-1784.0
 31
0.0
1001
ACDBBLOCKREPETAG
1070
     1
1071
       19
1005
12B89A
  0
LINE
  5
12B89B
  8
OBJECT
 10
231.0
 20
-1784.0
 30
0.0
 11
231.0
 21
-1791.0
 31
0.0
1001
ACDBBLOCKREPETAG
1070
     1
1071
       20
1005
12B89B
  0
LINE
  5
12B89C
  8
OBJECT
 10
231.0
 20
-1791.0
 30
0.0
 11
121.0
 21
-1791.0
 31
0.0
1001
ACDBBLOCKREPETAG
1070
     1
1071
       21
1005
12B89C
  0
LINE
  5
12B89D
  8
OBJECT
 10
124.0
 20
-1791.0
 30
0.0
 11
124.0
 21
-1827.0
 31
0.0
1001
ACDBBLOCKREPETAG
1070
     1
1071
       22
1005
12B89D
  0
LINE
  5
12B89E
  8
OBJECT
 10
124.0
 20
-1827.0
 30
0.0
 11
228.0
 21
-1827.0
 31
0.0
1001
ACDBBLOCKREPETAG
1070
     1
1071
       23
1005
12B89E
  0
LINE
  5
12B89F
  8
OBJECT
 10
228.0
 20
-1827.0
 30
0.0
 11
228.0
 21
-1791.0
 31
0.0
1001
ACDBBLOCKREPETAG
1070
     1
1071
       24
1005
12B89F
  0
LINE
  5
12B8A0
  8
OBJECT
 10
128.5
 20
-1831.0
 30
0.0
 11
128.5
 21
-1839.4999999999990905
 31
0.0
1001
ACDBBLOCKREPETAG
1070
     1
1071
       25
1005
12B8A0
  0
LINE
  5
12B8A1
  8
OBJECT
 10
223.5
 20
-1839.5000000000009095
 30
0.0
 11
223.5
 21
-1831.0
 31
0.0
1001
ACDBBLOCKREPETAG
1070
     1
1071
       26
1005
12B8A1
  0
LINE
  5
12B8A2
  8
OBJECT
 10
223.5
 20
-1831.0
 30
0.0
 11
128.5
 21
-1831.0
 31
0.0
1001
ACDBBLOCKREPETAG
1070
     1
1071
       27
1005
12B8A2
  0
LINE
  5
12B8A3
  8
OBJECT
 10
124.0
 20
-1827.0
 30
0.0
 11
128.5
 21
-1831.0
 31
0.0
1001
ACDBBLOCKREPETAG
1070
     1
1071
       28
1005
12B8A3
  0
LINE
  5
12B8A4
  8
OBJECT
 10
228.0
 20
-1827.0
 30
0.0
 11
223.5
 21
-1831.0
 31
0.0
1001
ACDBBLOCKREPETAG
1070
     1
1071
       29
1005
12B8A4
  0
LINE
  5
12B8A5
  8
OBJECT
 10
225.5
 20
-1839.5000000000009095
 30
0.0
 11
126.5
 21
-1839.4999999999990905
 31
0.0
1001
ACDBBLOCKREPETAG
1070
     1
1071
       30
1005
12B8A5
  0
LINE
  5
12B8A6
  8
OBJECT
 10
126.5
 20
-1839.4999999999990905
 30
0.0
 11
126.5000000000008953
 21
-1867.6550800870199964
 31
0.0
1001
ACDBBLOCKREPETAG
1070
     1
1071
       31
1005
12B8A6
  0
LINE
  5
12B8A7
  8
OBJECT
 10
225.5
 20
-1839.5000000000009095
 30
0.0
 11
225.5000000000009095
 21
-1867.6550800870220428
 31
0.0
1001
ACDBBLOCKREPETAG
1070
     1
1071
       32
1005
12B8A7
  0
INSERT
  5
12B8A8
  8
SLIM
  2
*U15
 10
0.0
 20
0.0
 30
0.0
  0
LINE
  5
12B8A9
  8
HIDDEN
 10
138.0
 20
-1836.0
 30
0.0
 11
214.0
 21
-1836.0
 31
0.0
1001
ACDBBLOCKREPETAG
1070
     1
1071
       57
1005
12B8A9
  0
LINE
  5
12B8AA
  8
OBJECT
 10
231.0
 20
-2057.0
 30
0.0
 11
231.0
 21
-2064.0
 31
0.0
1001
ACDBBLOCKREPETAG
1070
     1
1071
       18
1005
12B8AA
  0
LINE
  5
12B8AB
  8
OBJECT
 10
231.0
 20
-2064.0
 30
0.0
 11
121.0
 21
-2064.0
 31
0.0
1001
ACDBBLOCKREPETAG
1070
     1
1071
       19
1005
12B8AB
  0
LINE
  5
12B8AC
  8
OBJECT
 10
121.0
 20
-2064.0
 30
0.0
 11
121.0
 21
-2057.0
 31
0.0
1001
ACDBBLOCKREPETAG
1070
     1
1071
       20
1005
12B8AC
  0
LINE
  5
12B8AD
  8
OBJECT
 10
121.0
 20
-2057.0
 30
0.0
 11
231.0
 21
-2057.0
 31
0.0
1001
ACDBBLOCKREPETAG
1070
     1
1071
       21
1005
12B8AD
  0
LINE
  5
12B8AE
  8
OBJECT
 10
228.0
 20
-2057.0
 30
0.0
 11
228.0
 21
-2021.0
 31
0.0
1001
ACDBBLOCKREPETAG
1070
     1
1071
       22
1005
12B8AE
  0
LINE
  5
12B8AF
  8
OBJECT
 10
228.0
 20
-2021.0
 30
0.0
 11
124.0
 21
-2021.0
 31
0.0
1001
ACDBBLOCKREPETAG
1070
     1
1071
       23
1005
12B8AF
  0
LINE
  5
12B8B0
  8
OBJECT
 10
124.0
 20
-2021.0
 30
0.0
 11
124.0
 21
-2057.0
 31
0.0
1001
ACDBBLOCKREPETAG
1070
     1
1071
       24
1005
12B8B0
  0
LINE
  5
12B8B1
  8
OBJECT
 10
223.5
 20
-2017.0
 30
0.0
 11
223.5
 21
-2008.5000000000009095
 31
0.0
1001
ACDBBLOCKREPETAG
1070
     1
1071
       25
1005
12B8B1
  0
LINE
  5
12B8B2
  8
OBJECT
 10
128.5
 20
-2008.5
 30
0.0
 11
128.5
 21
-2017.0
 31
0.0
1001
ACDBBLOCKREPETAG
1070
     1
1071
       26
1005
12B8B2
  0
LINE
  5
12B8B3
  8
OBJECT
 10
128.5
 20
-2017.0
 30
0.0
 11
223.5
 21
-2017.0
 31
0.0
1001
ACDBBLOCKREPETAG
1070
     1
1071
       27
1005
12B8B3
  0
LINE
  5
12B8B4
  8
OBJECT
 10
228.0
 20
-2021.0
 30
0.0
 11
223.5
 21
-2017.0
 31
0.0
1001
ACDBBLOCKREPETAG
1070
     1
1071
       28
1005
12B8B4
  0
LINE
  5
12B8B5
  8
OBJECT
 10
124.0
 20
-2021.0
 30
0.0
 11
128.5
 21
-2017.0
 31
0.0
1001
ACDBBLOCKREPETAG
1070
     1
1071
       29
1005
12B8B5
  0
LINE
  5
12B8B6
  8
OBJECT
 10
126.5
 20
-2008.5
 30
0.0
 11
225.5
 21
-2008.5000000000009095
 31
0.0
1001
ACDBBLOCKREPETAG
1070
     1
1071
       30
1005
12B8B6
  0
LINE
  5
12B8B7
  8
OBJECT
 10
225.5
 20
-2008.5000000000009095
 30
0.0
 11
225.4999999999990905
 21
-1980.3449199129800036
 31
0.0
1001
ACDBBLOCKREPETAG
1070
     1
1071
       31
1005
12B8B7
  0
LINE
  5
12B8B8
  8
OBJECT
 10
126.5
 20
-2008.5
 30
0.0
 11
126.4999999999991047
 21
-1980.3449199129770477
 31
0.0
1001
ACDBBLOCKREPETAG
1070
     1
1071
       32
1005
12B8B8
  0
INSERT
  5
12B8B9
  8
SLIM
  2
*U16
 10
0.0
 20
0.0
 30
0.0
  0
LINE
  5
12B8BA
  8
HIDDEN
 10
214.0
 20
-2012.0
 30
0.0
 11
138.0
 21
-2012.0
 31
0.0
1001
ACDBBLOCKREPETAG
1070
     1
1071
       57
1005
12B8BA
  0
LINE
  5
12B8BB
  8
OBJECT
 10
481.0
 20
-1791.0
 30
0.0
 11
481.0
 21
-1784.0
 31
0.0
1001
ACDBBLOCKREPETAG
1070
     1
1071
       18
1005
12B8BB
  0
LINE
  5
12B8BC
  8
OBJECT
 10
481.0
 20
-1784.0
 30
0.0
 11
591.0
 21
-1784.0
 31
0.0
1001
ACDBBLOCKREPETAG
1070
     1
1071
       19
1005
12B8BC
  0
LINE
  5
12B8BD
  8
OBJECT
 10
591.0
 20
-1784.0
 30
0.0
 11
591.0
 21
-1791.0
 31
0.0
1001
ACDBBLOCKREPETAG
1070
     1
1071
       20
1005
12B8BD
  0
LINE
  5
12B8BE
  8
OBJECT
 10
591.0
 20
-1791.0
 30
0.0
 11
481.0
 21
-1791.0
 31
0.0
1001
ACDBBLOCKREPETAG
1070
     1
1071
       21
1005
12B8BE
  0
LINE
  5
12B8BF
  8
OBJECT
 10
484.0
 20
-1791.0
 30
0.0
 11
484.0
 21
-1827.0
 31
0.0
1001
ACDBBLOCKREPETAG
1070
     1
1071
       22
1005
12B8BF
  0
LINE
  5
12B8C0
  8
OBJECT
 10
484.0
 20
-1827.0
 30
0.0
 11
588.0
 21
-1827.0
 31
0.0
1001
ACDBBLOCKREPETAG
1070
     1
1071
       23
1005
12B8C0
  0
LINE
  5
12B8C1
  8
OBJECT
 10
588.0
 20
-1827.0
 30
0.0
 11
588.0
 21
-1791.0
 31
0.0
1001
ACDBBLOCKREPETAG
1070
     1
1071
       24
1005
12B8C1
  0
LINE
  5
12B8C2
  8
OBJECT
 10
488.4999999999997726
 20
-1831.0
 30
0.0
 11
488.4999999999997726
 21
-1839.4999999999990905
 31
0.0
1001
ACDBBLOCKREPETAG
1070
     1
1071
       25
1005
12B8C2
  0
LINE
  5
12B8C3
  8
OBJECT
 10
583.4999999999998863
 20
-1839.5000000000009095
 30
0.0
 11
583.4999999999998863
 21
-1831.0
 31
0.0
1001
ACDBBLOCKREPETAG
1070
     1
1071
       26
1005
12B8C3
  0
LINE
  5
12B8C4
  8
OBJECT
 10
583.4999999999998863
 20
-1831.0
 30
0.0
 11
488.4999999999997726
 21
-1831.0
 31
0.0
1001
ACDBBLOCKREPETAG
1070
     1
1071
       27
1005
12B8C4
  0
LINE
  5
12B8C5
  8
OBJECT
 10
484.0
 20
-1827.0
 30
0.0
 11
488.4999999999997726
 21
-1831.0
 31
0.0
1001
ACDBBLOCKREPETAG
1070
     1
1071
       28
1005
12B8C5
  0
LINE
  5
12B8C6
  8
OBJECT
 10
588.0
 20
-1827.0
 30
0.0
 11
583.4999999999998863
 21
-1831.0
 31
0.0
1001
ACDBBLOCKREPETAG
1070
     1
1071
       29
1005
12B8C6
  0
LINE
  5
12B8C7
  8
OBJECT
 10
585.5
 20
-1839.5000000000009095
 30
0.0
 11
486.5
 21
-1839.4999999999990905
 31
0.0
1001
ACDBBLOCKREPETAG
1070
     1
1071
       30
1005
12B8C7
  0
LINE
  5
12B8C8
  8
OBJECT
 10
486.5
 20
-1839.4999999999990905
 30
0.0
 11
486.5000000000009095
 21
-1867.6550800870199964
 31
0.0
1001
ACDBBLOCKREPETAG
1070
     1
1071
       31
1005
12B8C8
  0
LINE
  5
12B8C9
  8
OBJECT
 10
585.5
 20
-1839.5000000000009095
 30
0.0
 11
585.5000000000009095
 21
-1867.6550800870220428
 31
0.0
1001
ACDBBLOCKREPETAG
1070
     1
1071
       32
1005
12B8C9
  0
INSERT
  5
12B8CA
  8
SLIM
  2
*U17
 10
0.0
 20
0.0
 30
0.0
  0
LINE
  5
12B8CB
  8
HIDDEN
 10
498.0
 20
-1836.0
 30
0.0
 11
574.0
 21
-1836.0
 31
0.0
1001
ACDBBLOCKREPETAG
1070
     1
1071
       57
1005
12B8CB
  0
LINE
  5
12B8CC
  8
OBJECT
 10
598.0
 20
-2057.0
 30
0.0
 11
598.0
 21
-2064.0
 31
0.0
1001
ACDBBLOCKREPETAG
1070
     1
1071
       34
1005
12B8CC
  0
LINE
  5
12B8CD
  8
OBJECT
 10
598.0
 20
-2064.0
 30
0.0
 11
474.0
 21
-2064.0
 31
0.0
1001
ACDBBLOCKREPETAG
1070
     1
1071
       35
1005
12B8CD
  0
LINE
  5
12B8CE
  8
OBJECT
 10
474.0
 20
-2064.0
 30
0.0
 11
474.0
 21
-2057.0
 31
0.0
1001
ACDBBLOCKREPETAG
1070
     1
1071
       36
1005
12B8CE
  0
LINE
  5
12B8CF
  8
OBJECT
 10
474.0
 20
-2057.0
 30
0.0
 11
598.0
 21
-2057.0
 31
0.0
1001
ACDBBLOCKREPETAG
1070
     1
1071
       37
1005
12B8CF
  0
LINE
  5
12B8D0
  8
OBJECT
 10
595.0
 20
-2057.0
 30
0.0
 11
595.0
 21
-2021.0
 31
0.0
1001
ACDBBLOCKREPETAG
1070
     1
1071
       38
1005
12B8D0
  0
LINE
  5
12B8D1
  8
OBJECT
 10
595.0
 20
-2021.0
 30
0.0
 11
477.0
 21
-2021.0
 31
0.0
1001
ACDBBLOCKREPETAG
1070
     1
1071
       39
1005
12B8D1
  0
LINE
  5
12B8D2
  8
OBJECT
 10
477.0
 20
-2021.0
 30
0.0
 11
477.0
 21
-2057.0
 31
0.0
1001
ACDBBLOCKREPETAG
1070
     1
1071
       40
1005
12B8D2
  0
LINE
  5
12B8D3
  8
OBJECT
 10
590.5
 20
-2017.0
 30
0.0
 11
590.5
 21
-2006.5
 31
0.0
1001
ACDBBLOCKREPETAG
1070
     1
1071
       41
1005
12B8D3
  0
LINE
  5
12B8D4
  8
OBJECT
 10
481.5
 20
-2006.5
 30
0.0
 11
481.5
 21
-2017.0
 31
0.0
1001
ACDBBLOCKREPETAG
1070
     1
1071
       42
1005
12B8D4
  0
LINE
  5
12B8D5
  8
OBJECT
 10
481.5
 20
-2017.0
 30
0.0
 11
590.5
 21
-2017.0
 31
0.0
1001
ACDBBLOCKREPETAG
1070
     1
1071
       43
1005
12B8D5
  0
LINE
  5
12B8D6
  8
OBJECT
 10
595.0
 20
-2021.0
 30
0.0
 11
590.5
 21
-2017.0
 31
0.0
1001
ACDBBLOCKREPETAG
1070
     1
1071
       44
1005
12B8D6
  0
LINE
  5
12B8D7
  8
OBJECT
 10
477.0
 20
-2021.0
 30
0.0
 11
481.5
 21
-2017.0
 31
0.0
1001
ACDBBLOCKREPETAG
1070
     1
1071
       45
1005
12B8D7
  0
LINE
  5
12B8D8
  8
OBJECT
 10
585.5
 20
-2001.5
 30
0.0
 11
585.4999999999987494
 21
-1980.3449199129790941
 31
0.0
1001
ACDBBLOCKREPETAG
1070
     1
1071
       46
1005
12B8D8
  0
LINE
  5
12B8D9
  8
OBJECT
 10
486.5
 20
-2001.5
 30
0.0
 11
486.5
 21
-1980.3449199129770477
 31
0.0
1001
ACDBBLOCKREPETAG
1070
     1
1071
       47
1005
12B8D9
  0
LINE
  5
12B8DA
  8
OBJECT
 10
590.5
 20
-2006.5
 30
0.0
 11
481.5
 21
-2006.5
 31
0.0
1001
ACDBBLOCKREPETAG
1070
     1
1071
       48
1005
12B8DA
  0
LINE
  5
12B8DB
  8
OBJECT
 10
585.5
 20
-2001.5
 30
0.0
 11
486.5
 21
-2001.5
 31
0.0
1001
ACDBBLOCKREPETAG
1070
     1
1071
       49
1005
12B8DB
  0
LINE
  5
12B8DC
  8
OBJECT
 10
590.5
 20
-2006.5
 30
0.0
 11
585.5
 21
-2001.5
 31
0.0
1001
ACDBBLOCKREPETAG
1070
     1
1071
       50
1005
12B8DC
  0
LINE
  5
12B8DD
  8
OBJECT
 10
486.5
 20
-2001.5
 30
0.0
 11
481.5000000000035243
 21
-2006.5
 31
0.0
1001
ACDBBLOCKREPETAG
1070
     1
1071
       51
1005
12B8DD
  0
INSERT
  5
12B8DE
  8
SLIM
  2
*U18
 10
0.0
 20
0.0
 30
0.0
  0
LINE
  5
12B8DF
  8
HIDDEN
 10
580.4999999999996589
 20
-2012.0
 30
0.0
 11
491.5
 21
-2012.0
 31
0.0
1001
ACDBBLOCKREPETAG
1070
     1
1071
       65
1005
12B8DF
  0
LINE
  5
12B8E0
  8
OBJECT
 10
114.0
 20
-2255.0
 30
0.0
 11
114.0
 21
-2248.0
 31
0.0
1001
ACDBBLOCKREPETAG
1070
     1
1071
       34
1005
12B8E0
  0
LINE
  5
12B8E1
  8
OBJECT
 10
114.0
 20
-2248.0
 30
0.0
 11
238.0
 21
-2248.0
 31
0.0
1001
ACDBBLOCKREPETAG
1070
     1
1071
       35
1005
12B8E1
  0
LINE
  5
12B8E2
  8
OBJECT
 10
238.0
 20
-2248.0
 30
0.0
 11
238.0
 21
-2255.0
 31
0.0
1001
ACDBBLOCKREPETAG
1070
     1
1071
       36
1005
12B8E2
  0
LINE
  5
12B8E3
  8
OBJECT
 10
238.0
 20
-2255.0
 30
0.0
 11
114.0
 21
-2255.0
 31
0.0
1001
ACDBBLOCKREPETAG
1070
     1
1071
       37
1005
12B8E3
  0
LINE
  5
12B8E4
  8
OBJECT
 10
117.0
 20
-2255.0
 30
0.0
 11
117.0
 21
-2291.0
 31
0.0
1001
ACDBBLOCKREPETAG
1070
     1
1071
       38
1005
12B8E4
  0
LINE
  5
12B8E5
  8
OBJECT
 10
117.0
 20
-2291.0
 30
0.0
 11
235.0
 21
-2291.0
 31
0.0
1001
ACDBBLOCKREPETAG
1070
     1
1071
       39
1005
12B8E5
  0
LINE
  5
12B8E6
  8
OBJECT
 10
235.0
 20
-2291.0
 30
0.0
 11
235.0
 21
-2255.0
 31
0.0
1001
ACDBBLOCKREPETAG
1070
     1
1071
       40
1005
12B8E6
  0
LINE
  5
12B8E7
  8
OBJECT
 10
121.5
 20
-2295.0
 30
0.0
 11
121.5
 21
-2305.5
 31
0.0
1001
ACDBBLOCKREPETAG
1070
     1
1071
       41
1005
12B8E7
  0
LINE
  5
12B8E8
  8
OBJECT
 10
230.5
 20
-2305.5
 30
0.0
 11
230.5
 21
-2295.0
 31
0.0
1001
ACDBBLOCKREPETAG
1070
     1
1071
       42
1005
12B8E8
  0
LINE
  5
12B8E9
  8
OBJECT
 10
230.5
 20
-2295.0
 30
0.0
 11
121.5
 21
-2295.0
 31
0.0
1001
ACDBBLOCKREPETAG
1070
     1
1071
       43
1005
12B8E9
  0
LINE
  5
12B8EA
  8
OBJECT
 10
117.0
 20
-2291.0
 30
0.0
 11
121.5
 21
-2295.0
 31
0.0
1001
ACDBBLOCKREPETAG
1070
     1
1071
       44
1005
12B8EA
  0
LINE
  5
12B8EB
  8
OBJECT
 10
235.0
 20
-2291.0
 30
0.0
 11
230.5
 21
-2295.0
 31
0.0
1001
ACDBBLOCKREPETAG
1070
     1
1071
       45
1005
12B8EB
  0
LINE
  5
12B8EC
  8
OBJECT
 10
126.5
 20
-2310.5
 30
0.0
 11
126.5000000000008953
 21
-2331.6550800870209059
 31
0.0
1001
ACDBBLOCKREPETAG
1070
     1
1071
       46
1005
12B8EC
  0
LINE
  5
12B8ED
  8
OBJECT
 10
225.5
 20
-2310.5
 30
0.0
 11
225.5
 21
-2331.6550800870209059
 31
0.0
1001
ACDBBLOCKREPETAG
1070
     1
1071
       47
1005
12B8ED
  0
LINE
  5
12B8EE
  8
OBJECT
 10
121.5
 20
-2305.5
 30
0.0
 11
230.5
 21
-2305.5
 31
0.0
1001
ACDBBLOCKREPETAG
1070
     1
1071
       48
1005
12B8EE
  0
LINE
  5
12B8EF
  8
OBJECT
 10
126.5
 20
-2310.5
 30
0.0
 11
225.5
 21
-2310.5
 31
0.0
1001
ACDBBLOCKREPETAG
1070
     1
1071
       49
1005
12B8EF
  0
LINE
  5
12B8F0
  8
OBJECT
 10
121.5
 20
-2305.5
 30
0.0
 11
126.5
 21
-2310.5
 31
0.0
1001
ACDBBLOCKREPETAG
1070
     1
1071
       50
1005
12B8F0
  0
LINE
  5
12B8F1
  8
OBJECT
 10
225.5
 20
-2310.5
 30
0.0
 11
230.4999999999963904
 21
-2305.5
 31
0.0
1001
ACDBBLOCKREPETAG
1070
     1
1071
       51
1005
12B8F1
  0
INSERT
  5
12B8F2
  8
SLIM
  2
*U19
 10
0.0
 20
0.0
 30
0.0
  0
LINE
  5
12B8F3
  8
HIDDEN
 10
131.5
 20
-2300.0
 30
0.0
 11
220.5
 21
-2300.0
 31
0.0
1001
ACDBBLOCKREPETAG
1070
     1
1071
       65
1005
12B8F3
  0
LINE
  5
12B8F4
  8
OBJECT
 10
223.0
 20
-2521.0
 30
0.0
 11
223.0
 21
-2528.0
 31
0.0
1001
ACDBBLOCKREPETAG
1070
     1
1071
        0
1005
12B8F4
  0
LINE
  5
12B8F5
  8
OBJECT
 10
223.0
 20
-2528.0
 30
0.0
 11
129.0
 21
-2528.0
 31
0.0
1001
ACDBBLOCKREPETAG
1070
     1
1071
        1
1005
12B8F5
  0
LINE
  5
12B8F6
  8
OBJECT
 10
129.0
 20
-2528.0
 30
0.0
 11
129.0
 21
-2521.0
 31
0.0
1001
ACDBBLOCKREPETAG
1070
     1
1071
        2
1005
12B8F6
  0
LINE
  5
12B8F7
  8
OBJECT
 10
129.0
 20
-2521.0
 30
0.0
 11
223.0
 21
-2521.0
 31
0.0
1001
ACDBBLOCKREPETAG
1070
     1
1071
        3
1005
12B8F7
  0
LINE
  5
12B8F8
  8
OBJECT
 10
220.0
 20
-2521.0
 30
0.0
 11
220.0
 21
-2485.0
 31
0.0
1001
ACDBBLOCKREPETAG
1070
     1
1071
        4
1005
12B8F8
  0
LINE
  5
12B8F9
  8
OBJECT
 10
220.0
 20
-2485.0
 30
0.0
 11
132.0
 21
-2485.0
 31
0.0
1001
ACDBBLOCKREPETAG
1070
     1
1071
        5
1005
12B8F9
  0
LINE
  5
12B8FA
  8
OBJECT
 10
132.0
 20
-2485.0
 30
0.0
 11
132.0
 21
-2521.0
 31
0.0
1001
ACDBBLOCKREPETAG
1070
     1
1071
        6
1005
12B8FA
  0
LINE
  5
12B8FB
  8
OBJECT
 10
215.5
 20
-2481.0
 30
0.0
 11
215.5
 21
-2472.5000000000009095
 31
0.0
1001
ACDBBLOCKREPETAG
1070
     1
1071
        7
1005
12B8FB
  0
LINE
  5
12B8FC
  8
OBJECT
 10
136.5
 20
-2472.5
 30
0.0
 11
136.5
 21
-2481.0
 31
0.0
1001
ACDBBLOCKREPETAG
1070
     1
1071
        8
1005
12B8FC
  0
LINE
  5
12B8FD
  8
OBJECT
 10
136.5
 20
-2481.0
 30
0.0
 11
215.5
 21
-2481.0
 31
0.0
1001
ACDBBLOCKREPETAG
1070
     1
1071
        9
1005
12B8FD
  0
LINE
  5
12B8FE
  8
OBJECT
 10
220.0
 20
-2485.0
 30
0.0
 11
215.5
 21
-2481.0
 31
0.0
1001
ACDBBLOCKREPETAG
1070
     1
1071
       10
1005
12B8FE
  0
LINE
  5
12B8FF
  8
OBJECT
 10
132.0
 20
-2485.0
 30
0.0
 11
136.5
 21
-2481.0
 31
0.0
1001
ACDBBLOCKREPETAG
1070
     1
1071
       11
1005
12B8FF
  0
LINE
  5
12B900
  8
OBJECT
 10
129.5
 20
-2472.5
 30
0.0
 11
222.5
 21
-2472.5000000000009095
 31
0.0
1001
ACDBBLOCKREPETAG
1070
     1
1071
       12
1005
12B900
  0
ARC
  5
12B901
  8
OBJECT
 10
222.5
 20
-2469.5
 30
0.0
 40
3.0
 50
270.0
 51
0.0
1001
ACDBBLOCKREPETAG
1070
     1
1071
       13
1005
12B901
  0
LINE
  5
12B902
  8
OBJECT
 10
225.5
 20
-2469.5
 30
0.0
 11
225.5000000000009095
 21
-2444.3449199129800036
 31
0.0
1001
ACDBBLOCKREPETAG
1070
     1
1071
       15
1005
12B902
  0
LINE
  5
12B903
  8
OBJECT
 10
126.5
 20
-2469.5
 30
0.0
 11
126.5000000000008953
 21
-2444.3449199129800036
 31
0.0
1001
ACDBBLOCKREPETAG
1070
     1
1071
       16
1005
12B903
  0
ARC
  5
12B904
  8
OBJECT
 10
129.5
 20
-2469.5
 30
0.0
 40
3.0
 50
180.0
 51
270.0
1001
ACDBBLOCKREPETAG
1070
     1
1071
       17
1005
12B904
  0
INSERT
  5
12B905
  8
SLIM
  2
*U20
 10
0.0
 20
0.0
 30
0.0
  0
LINE
  5
12B906
  8
HIDDEN
 10
206.0
 20
-2476.0
 30
0.0
 11
146.0
 21
-2476.0
 31
0.0
1001
ACDBBLOCKREPETAG
1070
     1
1071
       56
1005
12B906
  0
LINE
  5
12B907
  8
OBJECT
 10
474.0
 20
-2255.0
 30
0.0
 11
474.0
 21
-2248.0
 31
0.0
1001
ACDBBLOCKREPETAG
1070
     1
1071
       34
1005
12B907
  0
LINE
  5
12B908
  8
OBJECT
 10
474.0
 20
-2248.0
 30
0.0
 11
598.0
 21
-2248.0
 31
0.0
1001
ACDBBLOCKREPETAG
1070
     1
1071
       35
1005
12B908
  0
LINE
  5
12B909
  8
OBJECT
 10
598.0
 20
-2248.0
 30
0.0
 11
598.0
 21
-2255.0
 31
0.0
1001
ACDBBLOCKREPETAG
1070
     1
1071
       36
1005
12B909
  0
LINE
  5
12B90A
  8
OBJECT
 10
598.0
 20
-2255.0
 30
0.0
 11
474.0
 21
-2255.0
 31
0.0
1001
ACDBBLOCKREPETAG
1070
     1
1071
       37
1005
12B90A
  0
LINE
  5
12B90B
  8
OBJECT
 10
477.0
 20
-2255.0
 30
0.0
 11
477.0
 21
-2291.0
 31
0.0
1001
ACDBBLOCKREPETAG
1070
     1
1071
       38
1005
12B90B
  0
LINE
  5
12B90C
  8
OBJECT
 10
477.0
 20
-2291.0
 30
0.0
 11
595.0
 21
-2291.0
 31
0.0
1001
ACDBBLOCKREPETAG
1070
     1
1071
       39
1005
12B90C
  0
LINE
  5
12B90D
  8
OBJECT
 10
595.0
 20
-2291.0
 30
0.0
 11
595.0
 21
-2255.0
 31
0.0
1001
ACDBBLOCKREPETAG
1070
     1
1071
       40
1005
12B90D
  0
LINE
  5
12B90E
  8
OBJECT
 10
481.5
 20
-2295.0
 30
0.0
 11
481.5
 21
-2305.5
 31
0.0
1001
ACDBBLOCKREPETAG
1070
     1
1071
       41
1005
12B90E
  0
LINE
  5
12B90F
  8
OBJECT
 10
590.5
 20
-2305.5
 30
0.0
 11
590.5
 21
-2295.0
 31
0.0
1001
ACDBBLOCKREPETAG
1070
     1
1071
       42
1005
12B90F
  0
LINE
  5
12B910
  8
OBJECT
 10
590.5
 20
-2295.0
 30
0.0
 11
481.5
 21
-2295.0
 31
0.0
1001
ACDBBLOCKREPETAG
1070
     1
1071
       43
1005
12B910
  0
LINE
  5
12B911
  8
OBJECT
 10
477.0
 20
-2291.0
 30
0.0
 11
481.5
 21
-2295.0
 31
0.0
1001
ACDBBLOCKREPETAG
1070
     1
1071
       44
1005
12B911
  0
LINE
  5
12B912
  8
OBJECT
 10
595.0
 20
-2291.0
 30
0.0
 11
590.5
 21
-2295.0
 31
0.0
1001
ACDBBLOCKREPETAG
1070
     1
1071
       45
1005
12B912
  0
LINE
  5
12B913
  8
OBJECT
 10
486.5
 20
-2310.5
 30
0.0
 11
486.5000000000009095
 21
-2331.6550800870209059
 31
0.0
1001
ACDBBLOCKREPETAG
1070
     1
1071
       46
1005
12B913
  0
LINE
  5
12B914
  8
OBJECT
 10
585.5
 20
-2310.5
 30
0.0
 11
585.5
 21
-2331.6550800870209059
 31
0.0
1001
ACDBBLOCKREPETAG
1070
     1
1071
       47
1005
12B914
  0
LINE
  5
12B915
  8
OBJECT
 10
481.5
 20
-2305.5
 30
0.0
 11
590.5
 21
-2305.5
 31
0.0
1001
ACDBBLOCKREPETAG
1070
     1
1071
       48
1005
12B915
  0
LINE
  5
12B916
  8
OBJECT
 10
486.5
 20
-2310.5
 30
0.0
 11
585.5
 21
-2310.5
 31
0.0
1001
ACDBBLOCKREPETAG
1070
     1
1071
       49
1005
12B916
  0
LINE
  5
12B917
  8
OBJECT
 10
481.5
 20
-2305.5
 30
0.0
 11
486.5
 21
-2310.5
 31
0.0
1001
ACDBBLOCKREPETAG
1070
     1
1071
       50
1005
12B917
  0
LINE
  5
12B918
  8
OBJECT
 10
585.5
 20
-2310.5
 30
0.0
 11
590.499999999996021
 21
-2305.5
 31
0.0
1001
ACDBBLOCKREPETAG
1070
     1
1071
       51
1005
12B918
  0
INSERT
  5
12B919
  8
SLIM
  2
*U21
 10
0.0
 20
0.0
 30
0.0
  0
LINE
  5
12B91A
  8
HIDDEN
 10
491.5
 20
-2300.0
 30
0.0
 11
580.4999999999996589
 21
-2300.0
 31
0.0
1001
ACDBBLOCKREPETAG
1070
     1
1071
       65
1005
12B91A
  0
LINE
  5
12B91B
  8
OBJECT
 10
591.0
 20
-2521.0
 30
0.0
 11
591.0
 21
-2528.0
 31
0.0
1001
ACDBBLOCKREPETAG
1070
     1
1071
       18
1005
12B91B
  0
LINE
  5
12B91C
  8
OBJECT
 10
591.0
 20
-2528.0
 30
0.0
 11
481.0
 21
-2528.0
 31
0.0
1001
ACDBBLOCKREPETAG
1070
     1
1071
       19
1005
12B91C
  0
LINE
  5
12B91D
  8
OBJECT
 10
481.0
 20
-2528.0
 30
0.0
 11
481.0
 21
-2521.0
 31
0.0
1001
ACDBBLOCKREPETAG
1070
     1
1071
       20
1005
12B91D
  0
LINE
  5
12B91E
  8
OBJECT
 10
481.0
 20
-2521.0
 30
0.0
 11
591.0
 21
-2521.0
 31
0.0
1001
ACDBBLOCKREPETAG
1070
     1
1071
       21
1005
12B91E
  0
LINE
  5
12B91F
  8
OBJECT
 10
588.0
 20
-2521.0
 30
0.0
 11
588.0
 21
-2485.0
 31
0.0
1001
ACDBBLOCKREPETAG
1070
     1
1071
       22
1005
12B91F
  0
LINE
  5
12B920
  8
OBJECT
 10
588.0
 20
-2485.0
 30
0.0
 11
484.0
 21
-2485.0
 31
0.0
1001
ACDBBLOCKREPETAG
1070
     1
1071
       23
1005
12B920
  0
LINE
  5
12B921
  8
OBJECT
 10
484.0
 20
-2485.0
 30
0.0
 11
484.0
 21
-2521.0
 31
0.0
1001
ACDBBLOCKREPETAG
1070
     1
1071
       24
1005
12B921
  0
LINE
  5
12B922
  8
OBJECT
 10
583.4999999999998863
 20
-2481.0
 30
0.0
 11
583.4999999999998863
 21
-2472.5000000000009095
 31
0.0
1001
ACDBBLOCKREPETAG
1070
     1
1071
       25
1005
12B922
  0
LINE
  5
12B923
  8
OBJECT
 10
488.4999999999997726
 20
-2472.5
 30
0.0
 11
488.4999999999997726
 21
-2481.0
 31
0.0
1001
ACDBBLOCKREPETAG
1070
     1
1071
       26
1005
12B923
  0
LINE
  5
12B924
  8
OBJECT
 10
488.4999999999997726
 20
-2481.0
 30
0.0
 11
583.4999999999998863
 21
-2481.0
 31
0.0
1001
ACDBBLOCKREPETAG
1070
     1
1071
       27
1005
12B924
  0
LINE
  5
12B925
  8
OBJECT
 10
588.0
 20
-2485.0
 30
0.0
 11
583.4999999999998863
 21
-2481.0
 31
0.0
1001
ACDBBLOCKREPETAG
1070
     1
1071
       28
1005
12B925
  0
LINE
  5
12B926
  8
OBJECT
 10
484.0
 20
-2485.0
 30
0.0
 11
488.4999999999997726
 21
-2481.0
 31
0.0
1001
ACDBBLOCKREPETAG
1070
     1
1071
       29
1005
12B926
  0
LINE
  5
12B927
  8
OBJECT
 10
486.5
 20
-2472.5
 30
0.0
 11
585.5
 21
-2472.5000000000009095
 31
0.0
1001
ACDBBLOCKREPETAG
1070
     1
1071
       30
1005
12B927
  0
LINE
  5
12B928
  8
OBJECT
 10
585.5
 20
-2472.5000000000009095
 30
0.0
 11
585.4999999999987494
 21
-2444.3449199129800036
 31
0.0
1001
ACDBBLOCKREPETAG
1070
     1
1071
       31
1005
12B928
  0
LINE
  5
12B929
  8
OBJECT
 10
486.5
 20
-2472.5
 30
0.0
 11
486.4999999999990905
 21
-2444.3449199129800036
 31
0.0
1001
ACDBBLOCKREPETAG
1070
     1
1071
       32
1005
12B929
  0
INSERT
  5
12B92A
  8
SLIM
  2
*U22
 10
0.0
 20
0.0
 30
0.0
  0
LINE
  5
12B92B
  8
HIDDEN
 10
574.0
 20
-2476.0
 30
0.0
 11
498.0
 21
-2476.0
 31
0.0
1001
ACDBBLOCKREPETAG
1070
     1
1071
       57
1005
12B92B
  0
LINE
  5
12B92C
  8
OBJECT
 10
114.0
 20
-2719.0
 30
0.0
 11
114.0
 21
-2712.0
 31
0.0
1001
ACDBBLOCKREPETAG
1070
     1
1071
       34
1005
12B92C
  0
LINE
  5
12B92D
  8
OBJECT
 10
114.0
 20
-2712.0
 30
0.0
 11
238.0
 21
-2712.0
 31
0.0
1001
ACDBBLOCKREPETAG
1070
     1
1071
       35
1005
12B92D
  0
LINE
  5
12B92E
  8
OBJECT
 10
238.0
 20
-2712.0
 30
0.0
 11
238.0
 21
-2719.0
 31
0.0
1001
ACDBBLOCKREPETAG
1070
     1
1071
       36
1005
12B92E
  0
LINE
  5
12B92F
  8
OBJECT
 10
238.0
 20
-2719.0
 30
0.0
 11
114.0
 21
-2719.0
 31
0.0
1001
ACDBBLOCKREPETAG
1070
     1
1071
       37
1005
12B92F
  0
LINE
  5
12B930
  8
OBJECT
 10
117.0
 20
-2719.0
 30
0.0
 11
117.0
 21
-2755.0
 31
0.0
1001
ACDBBLOCKREPETAG
1070
     1
1071
       38
1005
12B930
  0
LINE
  5
12B931
  8
OBJECT
 10
117.0
 20
-2755.0
 30
0.0
 11
235.0
 21
-2755.0
 31
0.0
1001
ACDBBLOCKREPETAG
1070
     1
1071
       39
1005
12B931
  0
LINE
  5
12B932
  8
OBJECT
 10
235.0
 20
-2755.0
 30
0.0
 11
235.0
 21
-2719.0
 31
0.0
1001
ACDBBLOCKREPETAG
1070
     1
1071
       40
1005
12B932
  0
LINE
  5
12B933
  8
OBJECT
 10
121.5
 20
-2759.0
 30
0.0
 11
121.5
 21
-2769.5
 31
0.0
1001
ACDBBLOCKREPETAG
1070
     1
1071
       41
1005
12B933
  0
LINE
  5
12B934
  8
OBJECT
 10
230.5
 20
-2769.5
 30
0.0
 11
230.5
 21
-2759.0
 31
0.0
1001
ACDBBLOCKREPETAG
1070
     1
1071
       42
1005
12B934
  0
LINE
  5
12B935
  8
OBJECT
 10
230.5
 20
-2759.0
 30
0.0
 11
121.5
 21
-2759.0
 31
0.0
1001
ACDBBLOCKREPETAG
1070
     1
1071
       43
1005
12B935
  0
LINE
  5
12B936
  8
OBJECT
 10
117.0
 20
-2755.0
 30
0.0
 11
121.5
 21
-2759.0
 31
0.0
1001
ACDBBLOCKREPETAG
1070
     1
1071
       44
1005
12B936
  0
LINE
  5
12B937
  8
OBJECT
 10
235.0
 20
-2755.0
 30
0.0
 11
230.5
 21
-2759.0
 31
0.0
1001
ACDBBLOCKREPETAG
1070
     1
1071
       45
1005
12B937
  0
LINE
  5
12B938
  8
OBJECT
 10
126.5
 20
-2774.5
 30
0.0
 11
126.5000000000008953
 21
-2795.6550800870209059
 31
0.0
1001
ACDBBLOCKREPETAG
1070
     1
1071
       46
1005
12B938
  0
LINE
  5
12B939
  8
OBJECT
 10
225.5
 20
-2774.5
 30
0.0
 11
225.5
 21
-2795.6550800870209059
 31
0.0
1001
ACDBBLOCKREPETAG
1070
     1
1071
       47
1005
12B939
  0
LINE
  5
12B93A
  8
OBJECT
 10
121.5
 20
-2769.5
 30
0.0
 11
230.5
 21
-2769.5
 31
0.0
1001
ACDBBLOCKREPETAG
1070
     1
1071
       48
1005
12B93A
  0
LINE
  5
12B93B
  8
OBJECT
 10
126.5
 20
-2774.5
 30
0.0
 11
225.5
 21
-2774.5
 31
0.0
1001
ACDBBLOCKREPETAG
1070
     1
1071
       49
1005
12B93B
  0
LINE
  5
12B93C
  8
OBJECT
 10
121.5
 20
-2769.5
 30
0.0
 11
126.5
 21
-2774.5
 31
0.0
1001
ACDBBLOCKREPETAG
1070
     1
1071
       50
1005
12B93C
  0
LINE
  5
12B93D
  8
OBJECT
 10
225.5
 20
-2774.5
 30
0.0
 11
230.4999999999963904
 21
-2769.5
 31
0.0
1001
ACDBBLOCKREPETAG
1070
     1
1071
       51
1005
12B93D
  0
INSERT
  5
12B93E
  8
SLIM
  2
*U23
 10
0.0
 20
0.0
 30
0.0
  0
LINE
  5
12B93F
  8
HIDDEN
 10
131.5
 20
-2764.0
 30
0.0
 11
220.5
 21
-2764.0
 31
0.0
1001
ACDBBLOCKREPETAG
1070
     1
1071
       65
1005
12B93F
  0
LINE
  5
12B940
  8
OBJECT
 10
238.0
 20
-2985.0
 30
0.0
 11
238.0
 21
-2992.0
 31
0.0
1001
ACDBBLOCKREPETAG
1070
     1
1071
       34
1005
12B940
  0
LINE
  5
12B941
  8
OBJECT
 10
238.0
 20
-2992.0
 30
0.0
 11
114.0
 21
-2992.0
 31
0.0
1001
ACDBBLOCKREPETAG
1070
     1
1071
       35
1005
12B941
  0
LINE
  5
12B942
  8
OBJECT
 10
114.0
 20
-2992.0
 30
0.0
 11
114.0
 21
-2985.0
 31
0.0
1001
ACDBBLOCKREPETAG
1070
     1
1071
       36
1005
12B942
  0
LINE
  5
12B943
  8
OBJECT
 10
114.0
 20
-2985.0
 30
0.0
 11
238.0
 21
-2985.0
 31
0.0
1001
ACDBBLOCKREPETAG
1070
     1
1071
       37
1005
12B943
  0
LINE
  5
12B944
  8
OBJECT
 10
235.0
 20
-2985.0
 30
0.0
 11
235.0
 21
-2949.0
 31
0.0
1001
ACDBBLOCKREPETAG
1070
     1
1071
       38
1005
12B944
  0
LINE
  5
12B945
  8
OBJECT
 10
235.0
 20
-2949.0
 30
0.0
 11
117.0
 21
-2949.0
 31
0.0
1001
ACDBBLOCKREPETAG
1070
     1
1071
       39
1005
12B945
  0
LINE
  5
12B946
  8
OBJECT
 10
117.0
 20
-2949.0
 30
0.0
 11
117.0
 21
-2985.0
 31
0.0
1001
ACDBBLOCKREPETAG
1070
     1
1071
       40
1005
12B946
  0
LINE
  5
12B947
  8
OBJECT
 10
230.5
 20
-2945.0
 30
0.0
 11
230.5
 21
-2934.5
 31
0.0
1001
ACDBBLOCKREPETAG
1070
     1
1071
       41
1005
12B947
  0
LINE
  5
12B948
  8
OBJECT
 10
121.5
 20
-2934.5
 30
0.0
 11
121.5
 21
-2945.0
 31
0.0
1001
ACDBBLOCKREPETAG
1070
     1
1071
       42
1005
12B948
  0
LINE
  5
12B949
  8
OBJECT
 10
121.5
 20
-2945.0
 30
0.0
 11
230.5
 21
-2945.0
 31
0.0
1001
ACDBBLOCKREPETAG
1070
     1
1071
       43
1005
12B949
  0
LINE
  5
12B94A
  8
OBJECT
 10
235.0
 20
-2949.0
 30
0.0
 11
230.5
 21
-2945.0
 31
0.0
1001
ACDBBLOCKREPETAG
1070
     1
1071
       44
1005
12B94A
  0
LINE
  5
12B94B
  8
OBJECT
 10
117.0
 20
-2949.0
 30
0.0
 11
121.5
 21
-2945.0
 31
0.0
1001
ACDBBLOCKREPETAG
1070
     1
1071
       45
1005
12B94B
  0
LINE
  5
12B94C
  8
OBJECT
 10
225.5
 20
-2929.5
 30
0.0
 11
225.4999999999990905
 21
-2908.3449199129800036
 31
0.0
1001
ACDBBLOCKREPETAG
1070
     1
1071
       46
1005
12B94C
  0
LINE
  5
12B94D
  8
OBJECT
 10
126.5
 20
-2929.5
 30
0.0
 11
126.5
 21
-2908.3449199129781846
 31
0.0
1001
ACDBBLOCKREPETAG
1070
     1
1071
       47
1005
12B94D
  0
LINE
  5
12B94E
  8
OBJECT
 10
230.5
 20
-2934.5
 30
0.0
 11
121.5
 21
-2934.5
 31
0.0
1001
ACDBBLOCKREPETAG
1070
     1
1071
       48
1005
12B94E
  0
LINE
  5
12B94F
  8
OBJECT
 10
225.5
 20
-2929.5
 30
0.0
 11
126.5
 21
-2929.5
 31
0.0
1001
ACDBBLOCKREPETAG
1070
     1
1071
       49
1005
12B94F
  0
LINE
  5
12B950
  8
OBJECT
 10
230.5
 20
-2934.5
 30
0.0
 11
225.5
 21
-2929.5
 31
0.0
1001
ACDBBLOCKREPETAG
1070
     1
1071
       50
1005
12B950
  0
LINE
  5
12B951
  8
OBJECT
 10
126.5
 20
-2929.5
 30
0.0
 11
121.5000000000035953
 21
-2934.5
 31
0.0
1001
ACDBBLOCKREPETAG
1070
     1
1071
       51
1005
12B951
  0
INSERT
  5
12B952
  8
SLIM
  2
*U24
 10
0.0
 20
0.0
 30
0.0
  0
LINE
  5
12B953
  8
HIDDEN
 10
220.5
 20
-2940.0
 30
0.0
 11
131.5
 21
-2940.0
 31
0.0
1001
ACDBBLOCKREPETAG
1070
     1
1071
       65
1005
12B953
  0
TEXT
  5
12B954
  8
SLIM
 10
-18.1999999999937891
 20
-3195.999999999182819
 30
0.0
 40
51.9999999999822577
  1
（特）：特注品。対向枝への排水の流入
 41
0.75
1001
ACDBBLOCKREPETAG
1070
     1
1071
      118
1005
128C29
  0
TEXT
  5
12B955
  8
SLIM
 10
0.0
 20
-3265.3333333324931118
 30
0.0
 40
51.9999999999822577
  1
が無いことを確認した場合のみ製作。
 41
0.75
1001
ACDBBLOCKREPETAG
1070
     1
1071
      118
1005
128C29
  0
CIRCLE
  5
12B956
  8
OBJECT
 10
180.0000000000418083
 20
-232.0000000001718945
 30
0.0
 40
70.0
1001
ACDBBLOCKREPETAG
1070
     1
1071
       50
1005
12B956
  0
CIRCLE
  5
12B957
  8
OBJECT
 10
180.0000000000418083
 20
-232.0000000001718945
 30
0.0
 40
77.0
1001
ACDBBLOCKREPETAG
1070
     1
1071
       51
1005
12B957
  0
ARC
  5
12B958
  8
OBJECT
 10
180.0000000000418083
 20
-232.0000000001718945
 30
0.0
 40
80.0
 50
140.8050325737796982
 51
39.1949674262202521
1001
ACDBBLOCKREPETAG
1070
     1
1071
       52
1005
12B958
  0
LINE
  5
12B959
  8
OBJECT
 10
118.0000000000417941
 20
-186.3381997728473038
 30
0.0
 11
118.0000000000417941
 21
-152.0000000001718092
 31
0.0
1001
ACDBBLOCKREPETAG
1070
     1
1071
       53
1005
12B959
  0
LINE
  5
12B95A
  8
OBJECT
 10
242.0000000000418083
 20
-186.3381997728473038
 30
0.0
 11
242.0000000000418083
 21
-152.0000000001718092
 31
0.0
1001
ACDBBLOCKREPETAG
1070
     1
1071
       54
1005
12B95A
  0
POINT
  5
12B95B
  8
DOTS
 10
180.0000000000418083
 20
-232.0000000001718945
 30
0.0
1001
ACDBBLOCKREPETAG
1070
     1
1071
       63
1005
12B95B
  0
CIRCLE
  5
12B95C
  8
OBJECT
 10
180.0000000000418083
 20
-232.0000000001718945
 30
0.0
 40
53.5
1001
ACDBBLOCKREPETAG
1070
     1
1071
      157
1005
12B95C
  0
CIRCLE
  5
12B95D
  8
OBJECT
 10
176.0
 20
-996.0
 30
0.0
 40
70.0
1001
ACDBBLOCKREPETAG
1070
     1
1071
       50
1005
12B95D
  0
CIRCLE
  5
12B95E
  8
OBJECT
 10
176.0
 20
-996.0
 30
0.0
 40
75.0
1001
ACDBBLOCKREPETAG
1070
     1
1071
       51
1005
12B95E
  0
POINT
  5
12B95F
  8
DOTS
 10
176.0
 20
-996.0
 30
0.0
1001
ACDBBLOCKREPETAG
1070
     1
1071
       63
1005
12B95F
  0
ARC
  5
12B960
  8
OBJECT
 10
176.0
 20
-996.0
 30
0.0
 40
55.0
 50
299.3022457642870222
 51
240.6977542359811935
1001
ACDBBLOCKREPETAG
1070
     1
1071
       50
1005
12B95D
  0
LINE
  5
12B961
  8
OBJECT
 10
152.1757960752509007
 20
-1041.6779614447550557
 30
0.0
 11
144.1876176729984138
 21
-1047.5774584435469023
 31
0.0
  0
ARC
  5
12B962
  8
OBJECT
 10
155.1461853586351936
 20
-1045.6999991752020378
 30
0.0
 40
5.0
 50
90.0
 51
126.4469224760729986
  0
LINE
  5
12B963
  8
OBJECT
 10
199.8242039246960076
 20
-1041.6779614446270443
 30
0.0
 11
207.8124539800938066
 21
-1047.5775113607780895
 31
0.0
  0
ARC
  5
12B964
  8
OBJECT
 10
196.8538146414830123
 20
-1045.6999991752020378
 30
0.0
 40
5.0
 50
53.5530775262745422
 51
90.0
  0
LINE
  5
12B965
  8
OBJECT
 10
196.8538146414830123
 20
-1040.6999991752029473
 30
0.0
 11
155.1461853586351936
 21
-1040.6999991752029473
 31
0.0
  0
ARC
  5
12B966
  8
OBJECT
 10
203.0598311269532132
 20
-1054.0127717297000345
 30
0.0
 40
8.0
 50
16.4762162479585612
 51
53.5530775262745422
  0
ARC
  5
12B967
  8
OBJECT
 10
148.9401688730449109
 20
-1054.0127717297000345
 30
0.0
 40
8.0
 50
126.4469224737253938
 51
163.5237837520413962
  0
LINE
  5
12B968
  8
OBJECT
 10
141.2686684859745014
 20
-1051.7438332529759464
 30
0.0
 11
140.0
 21
-1056.0333240792169818
 31
0.0
  0
LINE
  5
12B969
  8
OBJECT
 10
210.7313315140254133
 20
-1051.7438332529759464
 30
0.0
 11
212.0
 21
-1056.0333240792169818
 31
0.0
  0
CIRCLE
  5
12B96A
  8
OBJECT
 10
535.9999999998779003
 20
-996.0
 30
0.0
 40
70.0
1001
ACDBBLOCKREPETAG
1070
     1
1071
       50
1005
12B96A
  0
CIRCLE
  5
12B96B
  8
OBJECT
 10
535.9999999998779003
 20
-996.0
 30
0.0
 40
75.0
1001
ACDBBLOCKREPETAG
1070
     1
1071
       51
1005
12B96B
  0
POINT
  5
12B96C
  8
DOTS
 10
535.9999999998779003
 20
-996.0
 30
0.0
1001
ACDBBLOCKREPETAG
1070
     1
1071
       63
1005
12B96C
  0
ARC
  5
12B96D
  8
OBJECT
 10
535.9999999998779003
 20
-996.0
 30
0.0
 40
55.0
 50
299.3022457642854874
 51
240.6977542359825009
1001
ACDBBLOCKREPETAG
1070
     1
1071
       50
1005
12B96A
  0
LINE
  5
12B96E
  8
OBJECT
 10
512.1757960751292558
 20
-1041.6779614447550557
 30
0.0
 11
504.1876176728763994
 21
-1047.5774584435469023
 31
0.0
  0
ARC
  5
12B96F
  8
OBJECT
 10
515.1461853585129802
 20
-1045.6999991752020378
 30
0.0
 40
5.0
 50
90.0
 51
126.4469224760718049
  0
LINE
  5
12B970
  8
OBJECT
 10
559.824203924574249
 20
-1041.6779614446270443
 30
0.0
 11
567.8124539799719059
 21
-1047.5775113607780895
 31
0.0
  0
ARC
  5
12B971
  8
OBJECT
 10
556.8538146413611685
 20
-1045.6999991752020378
 30
0.0
 40
5.0
 50
53.5530775262758425
 51
90.0
  0
LINE
  5
12B972
  8
OBJECT
 10
556.8538146413611685
 20
-1040.6999991752029473
 30
0.0
 11
515.1461853585129802
 21
-1040.6999991752029473
 31
0.0
  0
ARC
  5
12B973
  8
OBJECT
 10
563.059831126831341
 20
-1054.0127717297000345
 30
0.0
 40
8.0
 50
16.4762162479585612
 51
53.5530775262758425
  0
ARC
  5
12B974
  8
OBJECT
 10
508.9401688729230955
 20
-1054.0127717297000345
 30
0.0
 40
8.0
 50
126.4469224737241007
 51
163.5237837520413962
  0
LINE
  5
12B975
  8
OBJECT
 10
501.2686684858524018
 20
-1051.7438332529759464
 30
0.0
 11
499.999999999878014
 21
-1056.0333240792169818
 31
0.0
  0
LINE
  5
12B976
  8
OBJECT
 10
570.7313315139034557
 20
-1051.7438332529759464
 30
0.0
 11
571.999999999878014
 21
-1056.0333240792169818
 31
0.0
  0
CIRCLE
  5
12B977
  8
OBJECT
 10
176.0
 20
-1459.9999999998419753
 30
0.0
 40
70.0
1001
ACDBBLOCKREPETAG
1070
     1
1071
       50
1005
12B977
  0
CIRCLE
  5
12B978
  8
OBJECT
 10
176.0
 20
-1459.9999999998419753
 30
0.0
 40
75.0
1001
ACDBBLOCKREPETAG
1070
     1
1071
       51
1005
12B978
  0
POINT
  5
12B979
  8
DOTS
 10
176.0
 20
-1459.9999999998419753
 30
0.0
1001
ACDBBLOCKREPETAG
1070
     1
1071
       63
1005
12B979
  0
ARC
  5
12B97A
  8
OBJECT
 10
176.0
 20
-1459.9999999998419753
 30
0.0
 40
55.0
 50
299.3022457642870222
 51
240.6977542359811935
1001
ACDBBLOCKREPETAG
1070
     1
1071
       50
1005
12B977
  0
LINE
  5
12B97B
  8
OBJECT
 10
152.1757960752509007
 20
-1505.677961444597031
 30
0.0
 11
144.1876176729984138
 21
-1511.577458443389105
 31
0.0
  0
ARC
  5
12B97C
  8
OBJECT
 10
155.1461853586351936
 20
-1509.6999991750449226
 30
0.0
 40
5.0
 50
90.0
 51
126.4469224760729986
  0
LINE
  5
12B97D
  8
OBJECT
 10
199.8242039246960076
 20
-1505.6779614444690196
 30
0.0
 11
207.8124539800938066
 21
-1511.5775113606189279
 31
0.0
  0
ARC
  5
12B97E
  8
OBJECT
 10
196.8538146414830123
 20
-1509.6999991750449226
 30
0.0
 40
5.0
 50
53.5530775262745422
 51
90.0
  0
LINE
  5
12B97F
  8
OBJECT
 10
196.8538146414830123
 20
-1504.6999991750449226
 30
0.0
 11
155.1461853586351936
 21
-1504.6999991750449226
 31
0.0
  0
ARC
  5
12B980
  8
OBJECT
 10
203.0598311269532132
 20
-1518.0127717295420098
 30
0.0
 40
8.0
 50
16.4762162479585612
 51
53.5530775262745422
  0
ARC
  5
12B981
  8
OBJECT
 10
148.9401688730449109
 20
-1518.0127717295420098
 30
0.0
 40
8.0
 50
126.4469224737253938
 51
163.5237837520413962
  0
LINE
  5
12B982
  8
OBJECT
 10
141.2686684859745014
 20
-1515.7438332528179217
 30
0.0
 11
140.0
 21
-1520.0333240790589571
 31
0.0
  0
LINE
  5
12B983
  8
OBJECT
 10
210.7313315140254133
 20
-1515.7438332528179217
 30
0.0
 11
212.0
 21
-1520.0333240790589571
 31
0.0
  0
CIRCLE
  5
12B984
  8
OBJECT
 10
535.9999999998779003
 20
-1459.9999999998419753
 30
0.0
 40
70.0
1001
ACDBBLOCKREPETAG
1070
     1
1071
       50
1005
12B984
  0
CIRCLE
  5
12B985
  8
OBJECT
 10
535.9999999998779003
 20
-1459.9999999998419753
 30
0.0
 40
75.0
1001
ACDBBLOCKREPETAG
1070
     1
1071
       51
1005
12B985
  0
POINT
  5
12B986
  8
DOTS
 10
535.9999999998779003
 20
-1459.9999999998419753
 30
0.0
1001
ACDBBLOCKREPETAG
1070
     1
1071
       63
1005
12B986
  0
ARC
  5
12B987
  8
OBJECT
 10
535.9999999998779003
 20
-1459.9999999998419753
 30
0.0
 40
55.0
 50
299.3022457642854874
 51
240.6977542359825009
1001
ACDBBLOCKREPETAG
1070
     1
1071
       50
1005
12B984
  0
LINE
  5
12B988
  8
OBJECT
 10
512.1757960751292558
 20
-1505.677961444597031
 30
0.0
 11
504.1876176728763994
 21
-1511.577458443389105
 31
0.0
  0
ARC
  5
12B989
  8
OBJECT
 10
515.1461853585129802
 20
-1509.6999991750449226
 30
0.0
 40
5.0
 50
90.0
 51
126.4469224760718049
  0
LINE
  5
12B98A
  8
OBJECT
 10
559.824203924574249
 20
-1505.6779614444690196
 30
0.0
 11
567.8124539799719059
 21
-1511.5775113606189279
 31
0.0
  0
ARC
  5
12B98B
  8
OBJECT
 10
556.8538146413611685
 20
-1509.6999991750449226
 30
0.0
 40
5.0
 50
53.5530775262758425
 51
90.0
  0
LINE
  5
12B98C
  8
OBJECT
 10
556.8538146413611685
 20
-1504.6999991750449226
 30
0.0
 11
515.1461853585129802
 21
-1504.6999991750449226
 31
0.0
  0
ARC
  5
12B98D
  8
OBJECT
 10
563.059831126831341
 20
-1518.0127717295420098
 30
0.0
 40
8.0
 50
16.4762162479585612
 51
53.5530775262758425
  0
ARC
  5
12B98E
  8
OBJECT
 10
508.9401688729230955
 20
-1518.0127717295420098
 30
0.0
 40
8.0
 50
126.4469224737241007
 51
163.5237837520413962
  0
LINE
  5
12B98F
  8
OBJECT
 10
501.2686684858524018
 20
-1515.7438332528179217
 30
0.0
 11
499.999999999878014
 21
-1520.0333240790589571
 31
0.0
  0
LINE
  5
12B990
  8
OBJECT
 10
570.7313315139034557
 20
-1515.7438332528179217
 30
0.0
 11
571.999999999878014
 21
-1520.0333240790589571
 31
0.0
  0
CIRCLE
  5
12B991
  8
OBJECT
 10
176.0
 20
-1923.9999999996839506
 30
0.0
 40
70.0
1001
ACDBBLOCKREPETAG
1070
     1
1071
       50
1005
12B991
  0
CIRCLE
  5
12B992
  8
OBJECT
 10
176.0
 20
-1923.9999999996839506
 30
0.0
 40
75.0
1001
ACDBBLOCKREPETAG
1070
     1
1071
       51
1005
12B992
  0
POINT
  5
12B993
  8
DOTS
 10
176.0
 20
-1923.9999999996839506
 30
0.0
1001
ACDBBLOCKREPETAG
1070
     1
1071
       63
1005
12B993
  0
ARC
  5
12B994
  8
OBJECT
 10
176.0
 20
-1923.9999999996839506
 30
0.0
 40
55.0
 50
299.3022457642870222
 51
240.6977542359811935
1001
ACDBBLOCKREPETAG
1070
     1
1071
       50
1005
12B991
  0
LINE
  5
12B995
  8
OBJECT
 10
152.1757960752509007
 20
-1969.6779614444380968
 30
0.0
 11
144.1876176729984138
 21
-1975.5774584432310803
 31
0.0
  0
ARC
  5
12B996
  8
OBJECT
 10
155.1461853586351936
 20
-1973.6999991748850789
 30
0.0
 40
5.0
 50
90.0
 51
126.4469224760729986
  0
LINE
  5
12B997
  8
OBJECT
 10
199.8242039246960076
 20
-1969.6779614443100854
 30
0.0
 11
207.8124539800938066
 21
-1975.5775113604609032
 31
0.0
  0
ARC
  5
12B998
  8
OBJECT
 10
196.8538146414830123
 20
-1973.6999991748850789
 30
0.0
 40
5.0
 50
53.5530775262745422
 51
90.0
  0
LINE
  5
12B999
  8
OBJECT
 10
196.8538146414830123
 20
-1968.6999991748859884
 30
0.0
 11
155.1461853586351936
 21
-1968.6999991748859884
 31
0.0
  0
ARC
  5
12B99A
  8
OBJECT
 10
203.0598311269532132
 20
-1982.0127717293830756
 30
0.0
 40
8.0
 50
16.4762162479585612
 51
53.5530775262745422
  0
ARC
  5
12B99B
  8
OBJECT
 10
148.9401688730449109
 20
-1982.0127717293830756
 30
0.0
 40
8.0
 50
126.4469224737253938
 51
163.5237837520413962
  0
LINE
  5
12B99C
  8
OBJECT
 10
141.2686684859745014
 20
-1979.7438332526589875
 30
0.0
 11
140.0
 21
-1984.0333240789000229
 31
0.0
  0
LINE
  5
12B99D
  8
OBJECT
 10
210.7313315140254133
 20
-1979.7438332526589875
 30
0.0
 11
212.0
 21
-1984.0333240789000229
 31
0.0
  0
CIRCLE
  5
12B99E
  8
OBJECT
 10
535.9999999998779003
 20
-1923.9999999996839506
 30
0.0
 40
70.0
1001
ACDBBLOCKREPETAG
1070
     1
1071
       50
1005
12B99E
  0
CIRCLE
  5
12B99F
  8
OBJECT
 10
535.9999999998779003
 20
-1923.9999999996839506
 30
0.0
 40
75.0
1001
ACDBBLOCKREPETAG
1070
     1
1071
       51
1005
12B99F
  0
POINT
  5
12B9A0
  8
DOTS
 10
535.9999999998779003
 20
-1923.9999999996839506
 30
0.0
1001
ACDBBLOCKREPETAG
1070
     1
1071
       63
1005
12B9A0
  0
ARC
  5
12B9A1
  8
OBJECT
 10
535.9999999998779003
 20
-1923.9999999996839506
 30
0.0
 40
55.0
 50
299.3022457642854874
 51
240.6977542359825009
1001
ACDBBLOCKREPETAG
1070
     1
1071
       50
1005
12B99E
  0
LINE
  5
12B9A2
  8
OBJECT
 10
512.1757960751292558
 20
-1969.6779614444380968
 30
0.0
 11
504.1876176728763994
 21
-1975.5774584432310803
 31
0.0
  0
ARC
  5
12B9A3
  8
OBJECT
 10
515.1461853585129802
 20
-1973.6999991748850789
 30
0.0
 40
5.0
 50
90.0
 51
126.4469224760718049
  0
LINE
  5
12B9A4
  8
OBJECT
 10
559.824203924574249
 20
-1969.6779614443100854
 30
0.0
 11
567.8124539799719059
 21
-1975.5775113604609032
 31
0.0
  0
ARC
  5
12B9A5
  8
OBJECT
 10
556.8538146413611685
 20
-1973.6999991748850789
 30
0.0
 40
5.0
 50
53.5530775262758425
 51
90.0
  0
LINE
  5
12B9A6
  8
OBJECT
 10
556.8538146413611685
 20
-1968.6999991748859884
 30
0.0
 11
515.1461853585129802
 21
-1968.6999991748859884
 31
0.0
  0
ARC
  5
12B9A7
  8
OBJECT
 10
563.059831126831341
 20
-1982.0127717293830756
 30
0.0
 40
8.0
 50
16.4762162479585612
 51
53.5530775262758425
  0
ARC
  5
12B9A8
  8
OBJECT
 10
508.9401688729230955
 20
-1982.0127717293830756
 30
0.0
 40
8.0
 50
126.4469224737241007
 51
163.5237837520413962
  0
LINE
  5
12B9A9
  8
OBJECT
 10
501.2686684858524018
 20
-1979.7438332526589875
 30
0.0
 11
499.999999999878014
 21
-1984.0333240789000229
 31
0.0
  0
LINE
  5
12B9AA
  8
OBJECT
 10
570.7313315139034557
 20
-1979.7438332526589875
 30
0.0
 11
571.999999999878014
 21
-1984.0333240789000229
 31
0.0
  0
CIRCLE
  5
12B9AB
  8
OBJECT
 10
176.0
 20
-2387.999999999524789
 30
0.0
 40
70.0
1001
ACDBBLOCKREPETAG
1070
     1
1071
       50
1005
12B9AB
  0
CIRCLE
  5
12B9AC
  8
OBJECT
 10
176.0
 20
-2387.999999999524789
 30
0.0
 40
75.0
1001
ACDBBLOCKREPETAG
1070
     1
1071
       51
1005
12B9AC
  0
POINT
  5
12B9AD
  8
DOTS
 10
176.0
 20
-2387.999999999524789
 30
0.0
1001
ACDBBLOCKREPETAG
1070
     1
1071
       63
1005
12B9AD
  0
ARC
  5
12B9AE
  8
OBJECT
 10
176.0
 20
-2387.999999999524789
 30
0.0
 40
55.0
 50
299.3022457642807126
 51
240.6977542359875883
1001
ACDBBLOCKREPETAG
1070
     1
1071
       50
1005
12B9AB
  0
LINE
  5
12B9AF
  8
OBJECT
 10
152.1757960752509007
 20
-2433.6779614442798447
 30
0.0
 11
144.1876176729984138
 21
-2439.5774584430728282
 31
0.0
  0
ARC
  5
12B9B0
  8
OBJECT
 10
155.1461853586351936
 20
-2437.6999991747288732
 30
0.0
 40
5.0
 50
90.0
 51
126.4469224760808004
  0
LINE
  5
12B9B1
  8
OBJECT
 10
199.8242039246960076
 20
-2433.6779614441529702
 30
0.0
 11
207.8124539800938066
 21
-2439.5775113603031059
 31
0.0
  0
ARC
  5
12B9B2
  8
OBJECT
 10
196.8538146414830123
 20
-2437.6999991747288732
 30
0.0
 40
5.0
 50
53.5530775262745422
 51
90.0
  0
LINE
  5
12B9B3
  8
OBJECT
 10
196.8538146414830123
 20
-2432.6999991747288732
 30
0.0
 11
155.1461853586351936
 21
-2432.6999991747288732
 31
0.0
  0
ARC
  5
12B9B4
  8
OBJECT
 10
203.0598311269532132
 20
-2446.0127717292248235
 30
0.0
 40
8.0
 50
16.4762162479710383
 51
53.5530775262745422
  0
ARC
  5
12B9B5
  8
OBJECT
 10
148.9401688730449109
 20
-2446.0127717292248235
 30
0.0
 40
8.0
 50
126.4469224737253938
 51
163.5237837520288906
  0
LINE
  5
12B9B6
  8
OBJECT
 10
141.2686684859745014
 20
-2443.7438332525020996
 30
0.0
 11
140.0
 21
-2448.033324078743135
 31
0.0
  0
LINE
  5
12B9B7
  8
OBJECT
 10
210.7313315140254133
 20
-2443.7438332525020996
 30
0.0
 11
212.0
 21
-2448.033324078743135
 31
0.0
  0
CIRCLE
  5
12B9B8
  8
OBJECT
 10
535.9999999998779003
 20
-2387.999999999524789
 30
0.0
 40
70.0
1001
ACDBBLOCKREPETAG
1070
     1
1071
       50
1005
12B9B8
  0
CIRCLE
  5
12B9B9
  8
OBJECT
 10
535.9999999998779003
 20
-2387.999999999524789
 30
0.0
 40
75.0
1001
ACDBBLOCKREPETAG
1070
     1
1071
       51
1005
12B9B9
  0
POINT
  5
12B9BA
  8
DOTS
 10
535.9999999998779003
 20
-2387.999999999524789
 30
0.0
1001
ACDBBLOCKREPETAG
1070
     1
1071
       63
1005
12B9BA
  0
ARC
  5
12B9BB
  8
OBJECT
 10
535.9999999998779003
 20
-2387.999999999524789
 30
0.0
 40
55.0
 50
299.3022457642791778
 51
240.6977542359890094
1001
ACDBBLOCKREPETAG
1070
     1
1071
       50
1005
12B9B8
  0
LINE
  5
12B9BC
  8
OBJECT
 10
512.1757960751292558
 20
-2433.6779614442798447
 30
0.0
 11
504.1876176728763994
 21
-2439.5774584430728282
 31
0.0
  0
ARC
  5
12B9BD
  8
OBJECT
 10
515.1461853585129802
 20
-2437.6999991747288732
 30
0.0
 40
5.0
 50
90.0
 51
126.4469224760793935
  0
LINE
  5
12B9BE
  8
OBJECT
 10
559.824203924574249
 20
-2433.6779614441529702
 30
0.0
 11
567.8124539799719059
 21
-2439.5775113603031059
 31
0.0
  0
ARC
  5
12B9BF
  8
OBJECT
 10
556.8538146413611685
 20
-2437.6999991747288732
 30
0.0
 40
5.0
 50
53.5530775262758425
 51
90.0
  0
LINE
  5
12B9C0
  8
OBJECT
 10
556.8538146413611685
 20
-2432.6999991747288732
 30
0.0
 11
515.1461853585129802
 21
-2432.6999991747288732
 31
0.0
  0
ARC
  5
12B9C1
  8
OBJECT
 10
563.059831126831341
 20
-2446.0127717292248235
 30
0.0
 40
8.0
 50
16.4762162479710383
 51
53.5530775262758425
  0
ARC
  5
12B9C2
  8
OBJECT
 10
508.9401688729230955
 20
-2446.0127717292248235
 30
0.0
 40
8.0
 50
126.4469224737241007
 51
163.5237837520288906
  0
LINE
  5
12B9C3
  8
OBJECT
 10
501.2686684858524018
 20
-2443.7438332525020996
 30
0.0
 11
499.999999999878014
 21
-2448.033324078743135
 31
0.0
  0
LINE
  5
12B9C4
  8
OBJECT
 10
570.7313315139034557
 20
-2443.7438332525020996
 30
0.0
 11
571.999999999878014
 21
-2448.033324078743135
 31
0.0
  0
CIRCLE
  5
12B9C5
  8
OBJECT
 10
176.0
 20
-2851.9999999993669917
 30
0.0
 40
70.0
1001
ACDBBLOCKREPETAG
1070
     1
1071
       50
1005
12B9C5
  0
CIRCLE
  5
12B9C6
  8
OBJECT
 10
176.0
 20
-2851.9999999993669917
 30
0.0
 40
75.0
1001
ACDBBLOCKREPETAG
1070
     1
1071
       51
1005
12B9C6
  0
POINT
  5
12B9C7
  8
DOTS
 10
176.0
 20
-2851.9999999993669917
 30
0.0
1001
ACDBBLOCKREPETAG
1070
     1
1071
       63
1005
12B9C7
  0
ARC
  5
12B9C8
  8
OBJECT
 10
176.0
 20
-2851.9999999993669917
 30
0.0
 40
55.0
 50
299.3022457642807126
 51
240.6977542359875883
1001
ACDBBLOCKREPETAG
1070
     1
1071
       50
1005
12B9C5
  0
LINE
  5
12B9C9
  8
OBJECT
 10
152.1757960752509007
 20
-2897.6779614441220474
 30
0.0
 11
144.1876176729984138
 21
-2903.5774584429159404
 31
0.0
  0
ARC
  5
12B9CA
  8
OBJECT
 10
155.1461853586351936
 20
-2901.6999991745719853
 30
0.0
 40
5.0
 50
90.0
 51
126.4469224760808004
  0
LINE
  5
12B9CB
  8
OBJECT
 10
199.8242039246960076
 20
-2897.6779614439951729
 30
0.0
 11
207.8124539800938066
 21
-2903.5775113601448538
 31
0.0
  0
ARC
  5
12B9CC
  8
OBJECT
 10
196.8538146414830123
 20
-2901.6999991745719853
 30
0.0
 40
5.0
 50
53.5530775262745422
 51
90.0
  0
LINE
  5
12B9CD
  8
OBJECT
 10
196.8538146414830123
 20
-2896.6999991745701664
 30
0.0
 11
155.1461853586351936
 21
-2896.6999991745701664
 31
0.0
  0
ARC
  5
12B9CE
  8
OBJECT
 10
203.0598311269532132
 20
-2910.0127717290679357
 30
0.0
 40
8.0
 50
16.4762162479710383
 51
53.5530775262745422
  0
ARC
  5
12B9CF
  8
OBJECT
 10
148.9401688730449109
 20
-2910.0127717290679357
 30
0.0
 40
8.0
 50
126.4469224737253938
 51
163.5237837520288906
  0
LINE
  5
12B9D0
  8
OBJECT
 10
141.2686684859745014
 20
-2907.7438332523429381
 30
0.0
 11
140.0
 21
-2912.033324078584883
 31
0.0
  0
LINE
  5
12B9D1
  8
OBJECT
 10
210.7313315140254133
 20
-2907.7438332523429381
 30
0.0
 11
212.0
 21
-2912.033324078584883
 31
0.0
  0
TEXT
  5
12B9D2
  8
SLIM
 10
2356.25
 20
-1632.4999999999979536
 30
0.0
 40
35.0
  1
片受けスタイル（S）
 41
0.75
  0
TEXT
  5
12B9D3
  8
SLIM
 10
4241.6249999999990905
 20
-1635.6688230119070795
 30
0.0
 40
35.0
  1
片受けスタイル（S）＋シンドカット
 41
0.75
  0
LINE
  5
12B9D4
  8
DIM
 10
2665.0000000000009095
 20
-696.0
 30
0.0
 11
2719.424581672757995
 21
-696.0
 31
0.0
  0
LINE
  5
12B9D5
  8
DIM
 10
2650.0
 20
-1016.0
 30
0.0
 11
2719.424581672757995
 21
-1016.0
 31
0.0
  0
LINE
  5
12B9D6
  8
DIM
 10
2709.4245816727589045
 20
-716.0000000000001137
 30
0.0
 11
2709.4245816727589045
 21
-996.0000000000002274
 31
0.0
  0
INSERT
  5
12B9D7
  8
DIM
  2
_OPEN30
 10
2709.4245816727589045
 20
-696.0
 30
0.0
 41
20.0
 42
20.0
 43
20.0
 50
90.0
  0
INSERT
  5
12B9D8
  8
DIM
  2
_OPEN30
 10
2709.4245816727589045
 20
-1016.0
 30
0.0
 41
20.0
 42
20.0
 43
20.0
 50
270.0
  0
INSERT
  5
12B9D9
  8
SLIM
  2
*U25
 10
0.0
 20
0.0
 30
0.0
  0
LINE
  5
12B9DA
  8
DIM
 10
4665.0000000000009095
 20
-696.0
 30
0.0
 11
4719.4245816727607234
 21
-696.0
 31
0.0
  0
LINE
  5
12B9DB
  8
DIM
 10
4650.0000000000009095
 20
-1016.0
 30
0.0
 11
4719.4245816727607234
 21
-1016.0
 31
0.0
  0
LINE
  5
12B9DC
  8
DIM
 10
4709.4245816727607234
 20
-716.0000000000001137
 30
0.0
 11
4709.4245816727607234
 21
-996.0000000000002274
 31
0.0
  0
INSERT
  5
12B9DD
  8
DIM
  2
_OPEN30
 10
4709.4245816727607234
 20
-696.0
 30
0.0
 41
20.0
 42
20.0
 43
20.0
 50
90.0
  0
INSERT
  5
12B9DE
  8
DIM
  2
_OPEN30
 10
4709.4245816727607234
 20
-1016.0
 30
0.0
 41
20.0
 42
20.0
 43
20.0
 50
270.0
  0
INSERT
  5
12B9DF
  8
SLIM
  2
*U26
 10
0.0
 20
0.0
 30
0.0
  0
LINE
  5
12B9E0
  8
DIM
 10
4404.9999999999936335
 20
-1016.0
 30
0.0
 11
4333.1164560757761137
 21
-1016.0
 31
0.0
  0
LINE
  5
12B9E1
  8
DIM
 10
4410.0000000000009095
 20
-1256.0
 30
0.0
 11
4333.1164560757761137
 21
-1256.0
 31
0.0
  0
LINE
  5
12B9E2
  8
DIM
 10
4343.1164560757761137
 20
-1036.0
 30
0.0
 11
4343.1164560757761137
 21
-1236.0
 31
0.0
  0
INSERT
  5
12B9E3
  8
DIM
  2
_OPEN30
 10
4343.1164560757761137
 20
-1016.0
 30
0.0
 41
20.0
 42
20.0
 43
20.0
 50
90.0
  0
INSERT
  5
12B9E4
  8
DIM
  2
_OPEN30
 10
4343.1164560757761137
 20
-1256.0
 30
0.0
 41
20.0
 42
20.0
 43
20.0
 50
270.0
  0
INSERT
  5
12B9E5
  8
SLIM
  2
*U27
 10
0.0
 20
0.0
 30
0.0
  0
LINE
  5
12B9E6
  8
OBJECT
 10
2430.0
 20
-1364.9999999999979536
 30
0.0
 11
2570.0
 21
-1364.9999999999979536
 31
0.0
1001
ACDBBLOCKREPETAG
1070
     1
1071
        0
1005
12B9E6
  0
LINE
  5
12B9E7
  8
OBJECT
 10
2430.0
 20
-1364.9999999999979536
 30
0.0
 11
2430.0
 21
-1124.9999999999979536
 31
0.0
1001
ACDBBLOCKREPETAG
1070
     1
1071
        1
1005
12B9E7
  0
LINE
  5
12B9E8
  8
OBJECT
 10
2570.0
 20
-1364.9999999999979536
 30
0.0
 11
2570.0
 21
-1124.9999999999979536
 31
0.0
1001
ACDBBLOCKREPETAG
1070
     1
1071
        2
1005
12B9E8
  0
LINE
  5
12B9E9
  8
OBJECT
 10
2430.0
 20
-1124.9999999999979536
 30
0.0
 11
2570.0
 21
-1124.9999999999979536
 31
0.0
1001
ACDBBLOCKREPETAG
1070
     1
1071
        3
1005
12B9E9
  0
LINE
  5
12B9EA
  8
HIDDEN
 10
2437.5
 20
-1124.9999999999979536
 30
0.0
 11
2437.5
 21
-1364.9999999999979536
 31
0.0
1001
ACDBBLOCKREPETAG
1070
     1
1071
        4
1005
12B9EA
  0
LINE
  5
12B9EB
  8
HIDDEN
 10
2562.5
 20
-1124.9999999999979536
 30
0.0
 11
2562.5
 21
-1364.9999999999979536
 31
0.0
1001
ACDBBLOCKREPETAG
1070
     1
1071
        5
1005
12B9EB
  0
LINE
  5
12B9EC
  8
CENTER
 10
2500.0
 20
-1055.0
 30
0.0
 11
2500.0
 21
-1379.9999999999979536
 31
0.0
1001
ACDBBLOCKREPETAG
1070
     1
1071
        6
1005
12B9EC
  0
LINE
  5
12B9ED
  8
OBJECT
 10
2425.0
 20
-1055.0
 30
0.0
 11
2425.0
 21
-1084.9999999999979536
 31
0.0
1001
ACDBBLOCKREPETAG
1070
     1
1071
        7
1005
12B9ED
  0
LINE
  5
12B9EE
  8
OBJECT
 10
2575.0000000000050022
 20
-1055.0
 30
0.0
 11
2575.0
 21
-1084.9999999999979536
 31
0.0
1001
ACDBBLOCKREPETAG
1070
     1
1071
        8
1005
12B9EE
  0
LINE
  5
12B9EF
  8
OBJECT
 10
2425.0
 20
-1084.9999999999979536
 30
0.0
 11
2575.0
 21
-1084.9999999999979536
 31
0.0
1001
ACDBBLOCKREPETAG
1070
     1
1071
        9
1005
12B9EF
  0
LINE
  5
12B9F0
  8
OBJECT
 10
2425.0
 20
-1084.9999999999979536
 30
0.0
 11
2430.0
 21
-1124.9999999999979536
 31
0.0
1001
ACDBBLOCKREPETAG
1070
     1
1071
       10
1005
12B9F0
  0
LINE
  5
12B9F1
  8
OBJECT
 10
2570.0
 20
-1124.9999999999979536
 30
0.0
 11
2575.0
 21
-1084.9999999999979536
 31
0.0
1001
ACDBBLOCKREPETAG
1070
     1
1071
       11
1005
12B9F1
  0
LINE
  5
12B9F2
  8
OBJECT
 10
4430.0
 20
-1364.9999999999979536
 30
0.0
 11
4570.0
 21
-1364.9999999999979536
 31
0.0
1001
ACDBBLOCKREPETAG
1070
     1
1071
        0
1005
12B9F2
  0
LINE
  5
12B9F3
  8
OBJECT
 10
4430.0
 20
-1364.9999999999979536
 30
0.0
 11
4430.0
 21
-1124.9999999999979536
 31
0.0
1001
ACDBBLOCKREPETAG
1070
     1
1071
        1
1005
12B9F3
  0
LINE
  5
12B9F4
  8
OBJECT
 10
4570.0
 20
-1364.9999999999979536
 30
0.0
 11
4570.0
 21
-1124.9999999999979536
 31
0.0
1001
ACDBBLOCKREPETAG
1070
     1
1071
        2
1005
12B9F4
  0
LINE
  5
12B9F5
  8
OBJECT
 10
4430.0
 20
-1124.9999999999979536
 30
0.0
 11
4570.0
 21
-1124.9999999999979536
 31
0.0
1001
ACDBBLOCKREPETAG
1070
     1
1071
        3
1005
12B9F5
  0
LINE
  5
12B9F6
  8
HIDDEN
 10
4437.5
 20
-1124.9999999999979536
 30
0.0
 11
4437.5
 21
-1364.9999999999979536
 31
0.0
1001
ACDBBLOCKREPETAG
1070
     1
1071
        4
1005
12B9F6
  0
LINE
  5
12B9F7
  8
HIDDEN
 10
4562.5
 20
-1124.9999999999979536
 30
0.0
 11
4562.5
 21
-1364.9999999999979536
 31
0.0
1001
ACDBBLOCKREPETAG
1070
     1
1071
        5
1005
12B9F7
  0
LINE
  5
12B9F8
  8
CENTER
 10
4500.0
 20
-1055.0
 30
0.0
 11
4500.0
 21
-1379.9999999999979536
 31
0.0
1001
ACDBBLOCKREPETAG
1070
     1
1071
        6
1005
12B9F8
  0
LINE
  5
12B9F9
  8
OBJECT
 10
4425.0
 20
-1055.0
 30
0.0
 11
4425.0
 21
-1084.9999999999979536
 31
0.0
1001
ACDBBLOCKREPETAG
1070
     1
1071
        7
1005
12B9F9
  0
LINE
  5
12B9FA
  8
OBJECT
 10
4575.0000000000009095
 20
-1055.0
 30
0.0
 11
4575.0
 21
-1084.9999999999979536
 31
0.0
1001
ACDBBLOCKREPETAG
1070
     1
1071
        8
1005
12B9FA
  0
LINE
  5
12B9FB
  8
OBJECT
 10
4425.0
 20
-1084.9999999999979536
 30
0.0
 11
4575.0
 21
-1084.9999999999979536
 31
0.0
1001
ACDBBLOCKREPETAG
1070
     1
1071
        9
1005
12B9FB
  0
LINE
  5
12B9FC
  8
OBJECT
 10
4425.0
 20
-1084.9999999999979536
 30
0.0
 11
4430.0
 21
-1124.9999999999979536
 31
0.0
1001
ACDBBLOCKREPETAG
1070
     1
1071
       10
1005
12B9FC
  0
LINE
  5
12B9FD
  8
OBJECT
 10
4570.0
 20
-1124.9999999999979536
 30
0.0
 11
4575.0
 21
-1084.9999999999979536
 31
0.0
1001
ACDBBLOCKREPETAG
1070
     1
1071
       11
1005
12B9FD
  0
LINE
  5
12B9FE
  8
SLIM
 10
4414.999999999992724
 20
-1032.2369265471759263
 30
0.0
 11
4431.2369265471679682
 21
-1016.0
 31
0.0
1001
GRADIENTCOLOR1ACI
1070
     5
1001
GRADIENTCOLOR2ACI
1070
     2
1001
ACAD
1010
0.0
1020
0.0
1030
0.0
  0
LINE
  5
12B9FF
  8
SLIM
 10
4414.999999999992724
 20
-1050.1974387893139919
 30
0.0
 11
4449.1974387893078529
 21
-1016.0
 31
0.0
1001
GRADIENTCOLOR1ACI
1070
     5
1001
GRADIENTCOLOR2ACI
1070
     2
1001
ACAD
1010
0.0
1020
0.0
1030
0.0
  0
LINE
  5
12BA00
  8
SLIM
 10
4414.9999999999954525
 20
-1068.1579510314509207
 30
0.0
 11
4467.1579510314440995
 21
-1016.0
 31
0.0
1001
GRADIENTCOLOR1ACI
1070
     5
1001
GRADIENTCOLOR2ACI
1070
     2
1001
ACAD
1010
0.0
1020
0.0
1030
0.0
  0
LINE
  5
12BA01
  8
SLIM
 10
4415.1454972543142503
 20
-1085.9729660192690517
 30
0.0
 11
4485.1184632735839841
 21
-1016.0
 31
0.0
1001
GRADIENTCOLOR1ACI
1070
     5
1001
GRADIENTCOLOR2ACI
1070
     2
1001
ACAD
1010
0.0
1020
0.0
1030
0.0
  0
LINE
  5
12BA02
  8
SLIM
 10
4417.1046274952450403
 20
-1101.9743480204790558
 30
0.0
 11
4503.0789755157220497
 21
-1016.0
 31
0.0
1001
GRADIENTCOLOR1ACI
1070
     5
1001
GRADIENTCOLOR2ACI
1070
     2
1001
ACAD
1010
0.0
1020
0.0
1030
0.0
  0
LINE
  5
12BA03
  8
SLIM
 10
4419.0637577361712829
 20
-1117.9757300216890599
 30
0.0
 11
4521.0394877578619344
 21
-1016.0
 31
0.0
1001
GRADIENTCOLOR1ACI
1070
     5
1001
GRADIENTCOLOR2ACI
1070
     2
1001
ACAD
1010
0.0
1020
0.0
1030
0.0
  0
LINE
  5
12BA04
  8
SLIM
 10
4420.0
 20
-1135.0
 30
0.0
 11
4539.0
 21
-1016.0
 31
0.0
1001
GRADIENTCOLOR1ACI
1070
     5
1001
GRADIENTCOLOR2ACI
1070
     2
1001
ACAD
1010
0.0
1020
0.0
1030
0.0
  0
LINE
  5
12BA05
  8
SLIM
 10
4420.0
 20
-1152.9605122421380656
 30
0.0
 11
4556.9605122421371561
 21
-1016.0
 31
0.0
1001
GRADIENTCOLOR1ACI
1070
     5
1001
GRADIENTCOLOR2ACI
1070
     2
1001
ACAD
1010
0.0
1020
0.0
1030
0.0
  0
LINE
  5
12BA06
  8
SLIM
 10
4420.0
 20
-1170.9210244842759039
 30
0.0
 11
4574.9210244842770408
 21
-1016.0
 31
0.0
1001
GRADIENTCOLOR1ACI
1070
     5
1001
GRADIENTCOLOR2ACI
1070
     2
1001
ACAD
1010
0.0
1020
0.0
1030
0.0
  0
LINE
  5
12BA07
  8
SLIM
 10
4420.0
 20
-1188.8815367264151064
 30
0.0
 11
4585.000000000007276
 21
-1023.8815367264079441
 31
0.0
1001
GRADIENTCOLOR1ACI
1070
     5
1001
GRADIENTCOLOR2ACI
1070
     2
1001
ACAD
1010
0.0
1020
0.0
1030
0.0
  0
LINE
  5
12BA08
  8
SLIM
 10
4420.0
 20
-1206.8420489685520351
 30
0.0
 11
4585.000000000007276
 21
-1041.8420489685470329
 31
0.0
1001
GRADIENTCOLOR1ACI
1070
     5
1001
GRADIENTCOLOR2ACI
1070
     2
1001
ACAD
1010
0.0
1020
0.0
1030
0.0
  0
LINE
  5
12BA09
  8
SLIM
 10
4420.0
 20
-1224.8025612106910103
 30
0.0
 11
4585.000000000003638
 21
-1059.8025612106860081
 31
0.0
1001
GRADIENTCOLOR1ACI
1070
     5
1001
GRADIENTCOLOR2ACI
1070
     2
1001
ACAD
1010
0.0
1020
0.0
1030
0.0
  0
LINE
  5
12BA0A
  8
SLIM
 10
4420.0
 20
-1242.7630734528299854
 30
0.0
 11
4585.0000000000027285
 21
-1077.7630734528258927
 31
0.0
1001
GRADIENTCOLOR1ACI
1070
     5
1001
GRADIENTCOLOR2ACI
1070
     2
1001
ACAD
1010
0.0
1020
0.0
1030
0.0
  0
LINE
  5
12BA0B
  8
SLIM
 10
4424.7235856949691879
 20
-1256.0
 30
0.0
 11
4583.4738280308083631
 21
-1097.2497576641590058
 31
0.0
1001
GRADIENTCOLOR1ACI
1070
     5
1001
GRADIENTCOLOR2ACI
1070
     2
1001
ACAD
1010
0.0
1020
0.0
1030
0.0
  0
LINE
  5
12BA0C
  8
SLIM
 10
4430.0
 20
-1268.6840979371058893
 30
0.0
 11
4442.684097937106344
 21
-1256.0
 31
0.0
1001
GRADIENTCOLOR1ACI
1070
     5
1001
GRADIENTCOLOR2ACI
1070
     2
1001
ACAD
1010
0.0
1020
0.0
1030
0.0
  0
LINE
  5
12BA0D
  8
SLIM
 10
4442.684097937106344
 20
-1256.0
 30
0.0
 11
4580.9680345671367832
 21
-1117.7160633699691061
 31
0.0
1001
GRADIENTCOLOR1ACI
1070
     5
1001
GRADIENTCOLOR2ACI
1070
     2
1001
ACAD
1010
0.0
1020
0.0
1030
0.0
  0
LINE
  5
12BA0E
  8
SLIM
 10
4441.6446101792453192
 20
-1275.0
 30
0.0
 11
4460.6446101792444097
 21
-1256.0
 31
0.0
1001
GRADIENTCOLOR1ACI
1070
     5
1001
GRADIENTCOLOR2ACI
1070
     2
1001
ACAD
1010
0.0
1020
0.0
1030
0.0
  0
LINE
  5
12BA0F
  8
SLIM
 10
4460.6446101792444097
 20
-1256.0
 30
0.0
 11
4580.0
 21
-1136.6446101792450918
 31
0.0
1001
GRADIENTCOLOR1ACI
1070
     5
1001
GRADIENTCOLOR2ACI
1070
     2
1001
ACAD
1010
0.0
1020
0.0
1030
0.0
  0
LINE
  5
12BA10
  8
SLIM
 10
4459.6051224213833848
 20
-1275.0
 30
0.0
 11
4478.6051224213842943
 21
-1256.0
 31
0.0
1001
GRADIENTCOLOR1ACI
1070
     5
1001
GRADIENTCOLOR2ACI
1070
     2
1001
ACAD
1010
0.0
1020
0.0
1030
0.0
  0
LINE
  5
12BA11
  8
SLIM
 10
4478.6051224213842943
 20
-1256.0
 30
0.0
 11
4580.0
 21
-1154.6051224213820205
 31
0.0
1001
GRADIENTCOLOR1ACI
1070
     5
1001
GRADIENTCOLOR2ACI
1070
     2
1001
ACAD
1010
0.0
1020
0.0
1030
0.0
  0
LINE
  5
12BA12
  8
SLIM
 10
4477.5656346635214504
 20
-1275.0
 30
0.0
 11
4496.5656346635214504
 21
-1256.0
 31
0.0
1001
GRADIENTCOLOR1ACI
1070
     5
1001
GRADIENTCOLOR2ACI
1070
     2
1001
ACAD
1010
0.0
1020
0.0
1030
0.0
  0
LINE
  5
12BA13
  8
SLIM
 10
4496.5656346635214504
 20
-1256.0
 30
0.0
 11
4579.9999999999990905
 21
-1172.5656346635219052
 31
0.0
1001
GRADIENTCOLOR1ACI
1070
     5
1001
GRADIENTCOLOR2ACI
1070
     2
1001
ACAD
1010
0.0
1020
0.0
1030
0.0
  0
LINE
  5
12BA14
  8
SLIM
 10
4495.5261469056586066
 20
-1275.0
 30
0.0
 11
4514.526146905661335
 21
-1256.0
 31
0.0
1001
GRADIENTCOLOR1ACI
1070
     5
1001
GRADIENTCOLOR2ACI
1070
     2
1001
ACAD
1010
0.0
1020
0.0
1030
0.0
  0
LINE
  5
12BA15
  8
SLIM
 10
4514.526146905661335
 20
-1256.0
 30
0.0
 11
4579.9999999999990905
 21
-1190.5261469056599708
 31
0.0
1001
GRADIENTCOLOR1ACI
1070
     5
1001
GRADIENTCOLOR2ACI
1070
     2
1001
ACAD
1010
0.0
1020
0.0
1030
0.0
  0
LINE
  5
12BA16
  8
SLIM
 10
4513.4866591477975817
 20
-1275.0
 30
0.0
 11
4532.4866591478003102
 21
-1256.0
 31
0.0
1001
GRADIENTCOLOR1ACI
1070
     5
1001
GRADIENTCOLOR2ACI
1070
     2
1001
ACAD
1010
0.0
1020
0.0
1030
0.0
  0
LINE
  5
12BA17
  8
SLIM
 10
4532.4866591478003102
 20
-1256.0
 30
0.0
 11
4579.9999999999990905
 21
-1208.4866591477989459
 31
0.0
1001
GRADIENTCOLOR1ACI
1070
     5
1001
GRADIENTCOLOR2ACI
1070
     2
1001
ACAD
1010
0.0
1020
0.0
1030
0.0
  0
LINE
  5
12BA18
  8
SLIM
 10
4531.4471713899356473
 20
-1275.0
 30
0.0
 11
4550.4471713899356473
 21
-1256.0
 31
0.0
1001
GRADIENTCOLOR1ACI
1070
     5
1001
GRADIENTCOLOR2ACI
1070
     2
1001
ACAD
1010
0.0
1020
0.0
1030
0.0
  0
LINE
  5
12BA19
  8
SLIM
 10
4550.4471713899356473
 20
-1256.0
 30
0.0
 11
4579.9999999999990905
 21
-1226.447171389937921
 31
0.0
1001
GRADIENTCOLOR1ACI
1070
     5
1001
GRADIENTCOLOR2ACI
1070
     2
1001
ACAD
1010
0.0
1020
0.0
1030
0.0
  0
LINE
  5
12BA1A
  8
SLIM
 10
4549.4076836320737129
 20
-1275.0
 30
0.0
 11
4568.407683632071894
 21
-1256.0
 31
0.0
1001
GRADIENTCOLOR1ACI
1070
     5
1001
GRADIENTCOLOR2ACI
1070
     2
1001
ACAD
1010
0.0
1020
0.0
1030
0.0
  0
LINE
  5
12BA1B
  8
SLIM
 10
4568.407683632071894
 20
-1256.0
 30
0.0
 11
4579.9999999999990905
 21
-1244.4076836320759867
 31
0.0
1001
GRADIENTCOLOR1ACI
1070
     5
1001
GRADIENTCOLOR2ACI
1070
     2
1001
ACAD
1010
0.0
1020
0.0
1030
0.0
  0
LINE
  5
12BA1C
  8
SLIM
 10
4567.3681958742117786
 20
-1275.0
 30
0.0
 11
4570.0
 21
-1272.3681958742129154
 31
0.0
1001
GRADIENTCOLOR1ACI
1070
     5
1001
GRADIENTCOLOR2ACI
1070
     2
1001
ACAD
1010
0.0
1020
0.0
1030
0.0
  0
LINE
  5
12BA1D
  8
OBJECT
 10
4414.9999999999918145
 20
-1016.0
 30
0.0
 11
4414.9999999999954525
 21
-1084.7846033990349497
 31
0.0
1001
ACDBBLOCKREPETAG
1070
     1
1071
        1
1005
12BA1D
  0
LINE
  5
12BA1E
  8
OBJECT
 10
4585.000000000007276
 20
-1016.0
 30
0.0
 11
4585.0000000000027285
 21
-1084.7846033990419983
 31
0.0
1001
ACDBBLOCKREPETAG
1070
     1
1071
        2
1005
12BA1E
  0
LINE
  5
12BA1F
  8
OBJECT
 10
4585.000000000007276
 20
-1016.0
 30
0.0
 11
4414.9999999999918145
 21
-1016.0
 31
0.0
1001
ACDBBLOCKREPETAG
1070
     1
1071
        3
1005
12BA1F
  0
LINE
  5
12BA20
  8
OBJECT
 10
4579.9999999999990905
 20
-1256.0
 30
0.0
 11
4420.0
 21
-1256.0
 31
0.0
1001
ACDBBLOCKREPETAG
1070
     1
1071
        4
1005
12BA20
  0
LINE
  5
12BA21
  8
OBJECT
 10
4414.9999999999954525
 20
-1084.7846033990349497
 30
0.0
 11
4420.0
 21
-1125.6225774829870261
 31
0.0
1001
ACDBBLOCKREPETAG
1070
     1
1071
        6
1005
12BA21
  0
LINE
  5
12BA22
  8
OBJECT
 10
4420.0
 20
-1125.6225774829870261
 30
0.0
 11
4420.0
 21
-1256.0
 31
0.0
1001
ACDBBLOCKREPETAG
1070
     1
1071
        7
1005
12BA22
  0
LINE
  5
12BA23
  8
OBJECT
 10
4585.0000000000027285
 20
-1084.7846033990419983
 30
0.0
 11
4580.0
 21
-1125.6225774829870261
 31
0.0
1001
ACDBBLOCKREPETAG
1070
     1
1071
        8
1005
12BA23
  0
LINE
  5
12BA24
  8
OBJECT
 10
4580.0
 20
-1125.6225774829870261
 30
0.0
 11
4579.9999999999990905
 21
-1256.0
 31
0.0
1001
ACDBBLOCKREPETAG
1070
     1
1071
        9
1005
12BA24
  0
LINE
  5
12BA25
  8
OBJECT
 10
4430.0
 20
-1256.0
 30
0.0
 11
4430.0
 21
-1275.0
 31
0.0
1001
ACDBBLOCKREPETAG
1070
     1
1071
       10
1005
12BA25
  0
LINE
  5
12BA26
  8
OBJECT
 10
4430.0
 20
-1275.0
 30
0.0
 11
4570.0
 21
-1275.0
 31
0.0
1001
ACDBBLOCKREPETAG
1070
     1
1071
       11
1005
12BA26
  0
LINE
  5
12BA27
  8
OBJECT
 10
4570.0
 20
-1275.0
 30
0.0
 11
4570.0
 21
-1256.0
 31
0.0
1001
ACDBBLOCKREPETAG
1070
     1
1071
       12
1005
12BA27
  0
LINE
  5
12BA28
  8
OBJECT
 10
4633.0
 20
-137.9999999999990905
 30
0.0
 11
4640.0
 21
-137.9999999999990905
 31
0.0
1001
ACDBBLOCKREPETAG
1070
     1
1071
       47
1005
12BA28
  0
LINE
  5
12BA29
  8
OBJECT
 10
4640.0
 20
-137.9999999999990905
 30
0.0
 11
4640.0
 21
-261.9999999999990905
 31
0.0
1001
ACDBBLOCKREPETAG
1070
     1
1071
       48
1005
12BA29
  0
LINE
  5
12BA2A
  8
OBJECT
 10
4640.0
 20
-261.9999999999990905
 30
0.0
 11
4633.0
 21
-261.9999999999990905
 31
0.0
1001
ACDBBLOCKREPETAG
1070
     1
1071
       49
1005
12BA2A
  0
LINE
  5
12BA2B
  8
OBJECT
 10
4633.0
 20
-261.9999999999990905
 30
0.0
 11
4633.0
 21
-137.9999999999990905
 31
0.0
1001
ACDBBLOCKREPETAG
1070
     1
1071
       50
1005
12BA2B
  0
LINE
  5
12BA2C
  8
CENTER
 10
4655.0
 20
-199.9999999999990905
 30
0.0
 11
4580.0
 21
-199.9999999999990905
 31
0.0
1001
ACDBBLOCKREPETAG
1070
     1
1071
       51
1005
12BA2C
  0
LINE
  5
12BA2D
  8
OBJECT
 10
4633.0
 20
-140.9999999999990905
 30
0.0
 11
4597.0
 21
-140.9999999999990905
 31
0.0
1001
ACDBBLOCKREPETAG
1070
     1
1071
       52
1005
12BA2D
  0
LINE
  5
12BA2E
  8
OBJECT
 10
4597.0
 20
-140.9999999999990905
 30
0.0
 11
4597.0
 21
-258.9999999999990905
 31
0.0
1001
ACDBBLOCKREPETAG
1070
     1
1071
       53
1005
12BA2E
  0
LINE
  5
12BA2F
  8
OBJECT
 10
4597.0
 20
-258.9999999999990905
 30
0.0
 11
4633.0
 21
-258.9999999999990905
 31
0.0
1001
ACDBBLOCKREPETAG
1070
     1
1071
       54
1005
12BA2F
  0
LINE
  5
12BA30
  8
OBJECT
 10
4593.0
 20
-145.4999999999990905
 30
0.0
 11
4586.0
 21
-145.4999999999990905
 31
0.0
1001
ACDBBLOCKREPETAG
1070
     1
1071
       55
1005
12BA30
  0
LINE
  5
12BA31
  8
OBJECT
 10
4586.0
 20
-254.4999999999990905
 30
0.0
 11
4593.0
 21
-254.4999999999990905
 31
0.0
1001
ACDBBLOCKREPETAG
1070
     1
1071
       56
1005
12BA31
  0
LINE
  5
12BA32
  8
OBJECT
 10
4593.0
 20
-254.4999999999990905
 30
0.0
 11
4593.0
 21
-145.4999999999990905
 31
0.0
1001
ACDBBLOCKREPETAG
1070
     1
1071
       57
1005
12BA32
  0
LINE
  5
12BA33
  8
OBJECT
 10
4597.0
 20
-140.9999999999990905
 30
0.0
 11
4593.0
 21
-145.4999999999990905
 31
0.0
1001
ACDBBLOCKREPETAG
1070
     1
1071
       58
1005
12BA33
  0
LINE
  5
12BA34
  8
OBJECT
 10
4597.0
 20
-258.9999999999990905
 30
0.0
 11
4593.0
 21
-254.4999999999990905
 31
0.0
1001
ACDBBLOCKREPETAG
1070
     1
1071
       59
1005
12BA34
  0
LINE
  5
12BA35
  8
OBJECT
 10
4583.0
 20
-137.9999999999990905
 30
0.0
 11
4580.0
 21
-137.9999999999990905
 31
0.0
1001
ACDBBLOCKREPETAG
1070
     1
1071
       60
1005
12BA35
  0
ARC
  5
12BA36
  8
OBJECT
 10
4583.0
 20
-140.9999999999990905
 30
0.0
 40
3.0
 50
0.0
 51
90.0
1001
ACDBBLOCKREPETAG
1070
     1
1071
       61
1005
12BA36
  0
LINE
  5
12BA37
  8
OBJECT
 10
4580.0
 20
-261.9999999999990905
 30
0.0
 11
4583.0
 21
-261.9999999999990905
 31
0.0
1001
ACDBBLOCKREPETAG
1070
     1
1071
       62
1005
12BA37
  0
ARC
  5
12BA38
  8
OBJECT
 10
4583.0
 20
-258.9999999999990905
 30
0.0
 40
3.0
 50
270.0
 51
0.0
1001
ACDBBLOCKREPETAG
1070
     1
1071
       63
1005
12BA38
  0
LINE
  5
12BA39
  8
OBJECT
 10
4586.0
 20
-258.9999999999990905
 30
0.0
 11
4586.0
 21
-140.9999999999990905
 31
0.0
1001
ACDBBLOCKREPETAG
1070
     1
1071
       64
1005
12BA39
  0
LINE
  5
12BA3A
  8
HIDDEN
 10
4588.0
 20
-155.4999999999990905
 30
0.0
 11
4588.0
 21
-244.4999999999990905
 31
0.0
1001
ACDBBLOCKREPETAG
1070
     1
1071
       65
1005
12BA3A
  0
LINE
  5
12BA3B
  8
SLIM
  6
CONTINUOUS
 10
4434.6248517421099677
 20
-150.4999999999990905
 30
0.0
 11
4460.2662412276949908
 21
-124.8586105144150054
 31
0.0
1001
GRADIENTCOLOR1ACI
1070
     5
1001
GRADIENTCOLOR2ACI
1070
     2
1001
ACAD
1010
0.0
1020
0.0
1030
0.0
  0
LINE
  5
12BA3C
  8
SLIM
  6
CONTINUOUS
 10
4466.9665679627396457
 20
-127.1385399004411028
 30
0.0
 11
4475.4966737955073768
 21
-118.6084340676741959
 31
0.0
1001
GRADIENTCOLOR1ACI
1070
     5
1001
GRADIENTCOLOR2ACI
1070
     2
1001
ACAD
1010
0.0
1020
0.0
1030
0.0
  0
LINE
  5
12BA3D
  8
SLIM
  6
CONTINUOUS
 10
4480.7298081179296787
 20
-122.3555558663202021
 30
0.0
 11
4487.1009205801610733
 21
-115.9844434040886938
 31
0.0
1001
GRADIENTCOLOR1ACI
1070
     5
1001
GRADIENTCOLOR2ACI
1070
     2
1001
ACAD
1010
0.0
1020
0.0
1030
0.0
  0
LINE
  5
12BA3E
  8
SLIM
  6
CONTINUOUS
 10
4491.6261550504887055
 20
-120.4394650548301939
 30
0.0
 11
4497.013124938400324
 21
-115.0524951669185043
 31
0.0
1001
GRADIENTCOLOR1ACI
1070
     5
1001
GRADIENTCOLOR2ACI
1070
     2
1001
ACAD
1010
0.0
1020
0.0
1030
0.0
  0
LINE
  5
12BA3F
  8
SLIM
  6
CONTINUOUS
 10
4501.0391272822816973
 20
-120.0067489441062065
 30
0.0
 11
4505.8446943102489968
 21
-115.201181916138907
 31
0.0
1001
GRADIENTCOLOR1ACI
1070
     5
1001
GRADIENTCOLOR2ACI
1070
     2
1001
ACAD
1010
0.0
1020
0.0
1030
0.0
  0
LINE
  5
12BA40
  8
SLIM
  6
CONTINUOUS
 10
4509.4643255646178659
 20
-120.5618067828390991
 30
0.0
 11
4513.8844735755637885
 21
-116.1416587718931055
 31
0.0
1001
GRADIENTCOLOR1ACI
1070
     5
1001
GRADIENTCOLOR2ACI
1070
     2
1001
ACAD
1010
0.0
1020
0.0
1030
0.0
  0
LINE
  5
12BA41
  8
SLIM
  6
CONTINUOUS
 10
4517.1471323385685537
 20
-121.8592561299565062
 30
0.0
 11
4521.2955183575031697
 21
-117.7108701110200997
 31
0.0
1001
GRADIENTCOLOR1ACI
1070
     5
1001
GRADIENTCOLOR2ACI
1070
     2
1001
ACAD
1010
0.0
1020
0.0
1030
0.0
  0
LINE
  5
12BA42
  8
SLIM
  6
CONTINUOUS
 10
4524.2292926222189635
 20
-123.7573519673731965
 30
0.0
 11
4528.1796002140081328
 21
-119.8070443755877932
 31
0.0
1001
GRADIENTCOLOR1ACI
1070
     5
1001
GRADIENTCOLOR2ACI
1070
     2
1001
ACAD
1010
0.0
1020
0.0
1030
0.0
  0
LINE
  5
12BA43
  8
SLIM
  6
CONTINUOUS
 10
4530.8001598408181962
 20
-126.1667408698467057
 30
0.0
 11
4534.604195997104398
 21
-122.3627047135578039
 31
0.0
1001
GRADIENTCOLOR1ACI
1070
     5
1001
GRADIENTCOLOR2ACI
1070
     2
1001
ACAD
1010
0.0
1020
0.0
1030
0.0
  0
LINE
  5
12BA44
  8
SLIM
  6
CONTINUOUS
 10
4536.9189300973521313
 20
-129.0282267343781939
 30
0.0
 11
4540.6155853902901072
 21
-125.3315714414430033
 31
0.0
1001
GRADIENTCOLOR1ACI
1070
     5
1001
GRADIENTCOLOR2ACI
1070
     2
1001
ACAD
1010
0.0
1020
0.0
1030
0.0
  0
LINE
  5
12BA45
  8
SLIM
  6
CONTINUOUS
 10
4542.6256620680069318
 20
-132.3017508847952115
 30
0.0
 11
4546.245858059091006
 21
-128.6815548937111089
 31
0.0
1001
GRADIENTCOLOR1ACI
1070
     5
1001
GRADIENTCOLOR2ACI
1070
     2
1001
ACAD
1010
0.0
1020
0.0
1030
0.0
  0
LINE
  5
12BA46
  8
SLIM
  6
CONTINUOUS
 10
4432.3907652629231961
 20
-251.5169038109480084
 30
0.0
 11
4434.4076690738720572
 21
-249.4999999999996021
 31
0.0
1001
GRADIENTCOLOR1ACI
1070
     5
1001
GRADIENTCOLOR2ACI
1070
     2
1001
ACAD
1010
0.0
1020
0.0
1030
0.0
  0
LINE
  5
12BA47
  8
SLIM
  6
CONTINUOUS
 10
4547.9472200511290794
 20
-135.960449022741102
 30
0.0
 11
4551.5169038109488611
 21
-132.3907652629204108
 31
0.0
1001
GRADIENTCOLOR1ACI
1070
     5
1001
GRADIENTCOLOR2ACI
1070
     2
1001
ACAD
1010
0.0
1020
0.0
1030
0.0
  0
LINE
  5
12BA48
  8
SLIM
  6
CONTINUOUS
 10
4436.445174293106902
 20
-256.4427509018315163
 30
0.0
 11
4439.9873013608048495
 21
-252.9006238341358141
 31
0.0
1001
GRADIENTCOLOR1ACI
1070
     5
1001
GRADIENTCOLOR2ACI
1070
     2
1001
ACAD
1010
0.0
1020
0.0
1030
0.0
  0
LINE
  5
12BA49
  8
SLIM
  6
CONTINUOUS
 10
4554.88792519494109
 20
-137.9999999999990905
 30
0.0
 11
4556.442750901836007
 21
-136.4451742931049978
 31
0.0
1001
GRADIENTCOLOR1ACI
1070
     5
1001
GRADIENTCOLOR2ACI
1070
     2
1001
ACAD
1010
0.0
1020
0.0
1030
0.0
  0
LINE
  5
12BA4A
  8
SLIM
  6
CONTINUOUS
 10
4440.8372731495674088
 20
-261.0309081664418045
 30
0.0
 11
4444.3732607963193004
 21
-257.4949205196899129
 31
0.0
1001
GRADIENTCOLOR1ACI
1070
     5
1001
GRADIENTCOLOR2ACI
1070
     2
1001
ACAD
1010
0.0
1020
0.0
1030
0.0
  0
LINE
  5
12BA4B
  8
SLIM
  6
CONTINUOUS
 10
4445.5654027321443209
 20
-265.2830347049348916
 30
0.0
 11
4449.1163342680174537
 21
-261.7321031690607924
 31
0.0
1001
GRADIENTCOLOR1ACI
1070
     5
1001
GRADIENTCOLOR2ACI
1070
     2
1001
ACAD
1010
0.0
1020
0.0
1030
0.0
  0
LINE
  5
12BA4C
  8
SLIM
  6
CONTINUOUS
 10
4450.6336102119221323
 20
-269.1950833462256014
 30
0.0
 11
4454.2213873681739642
 21
-265.6073061899733148
 31
0.0
1001
GRADIENTCOLOR1ACI
1070
     5
1001
GRADIENTCOLOR2ACI
1070
     2
1001
ACAD
1010
0.0
1020
0.0
1030
0.0
  0
LINE
  5
12BA4D
  8
SLIM
  6
CONTINUOUS
 10
4456.0520018449296913
 20
-272.7569478342888942
 30
0.0
 11
4459.7006257556995479
 21
-269.1083239235172186
 31
0.0
1001
GRADIENTCOLOR1ACI
1070
     5
1001
GRADIENTCOLOR2ACI
1070
     2
1001
ACAD
1010
0.0
1020
0.0
1030
0.0
  0
LINE
  5
12BA4E
  8
SLIM
  6
CONTINUOUS
 10
4461.8376665887199124
 20
-275.9515392115658869
 30
0.0
 11
4465.5748693932528113
 21
-272.214336407033386
 31
0.0
1001
GRADIENTCOLOR1ACI
1070
     5
1001
GRADIENTCOLOR2ACI
1070
     2
1001
ACAD
1010
0.0
1020
0.0
1030
0.0
  0
LINE
  5
12BA4F
  8
SLIM
  6
CONTINUOUS
 10
4468.0163793697502115
 20
-278.7530825516054733
 30
0.0
 11
4471.8759515352576273
 21
-274.893510386098626
 31
0.0
1001
GRADIENTCOLOR1ACI
1070
     5
1001
GRADIENTCOLOR2ACI
1070
     2
1001
ACAD
1010
0.0
1020
0.0
1030
0.0
  0
LINE
  5
12BA50
  8
SLIM
  6
CONTINUOUS
 10
4474.6255187948081584
 20
-281.1241992476171276
 30
0.0
 11
4478.6509600030767615
 21
-277.0987580393465919
 31
0.0
1001
GRADIENTCOLOR1ACI
1070
     5
1001
GRADIENTCOLOR2ACI
1070
     2
1001
ACAD
1010
0.0
1020
0.0
1030
0.0
  0
LINE
  5
12BA51
  8
SLIM
  6
CONTINUOUS
 10
4481.7190828919883643
 20
-283.0108912715048746
 30
0.0
 11
4485.9698622171854367
 21
-278.7601119463088253
 31
0.0
1001
GRADIENTCOLOR1ACI
1070
     5
1001
GRADIENTCOLOR2ACI
1070
     2
1001
ACAD
1010
0.0
1020
0.0
1030
0.0
  0
LINE
  5
12BA52
  8
SLIM
  6
CONTINUOUS
 10
4489.376693855881058
 20
-284.33353642868218
 30
0.0
 11
4493.9400771270447876
 21
-279.7701531575175977
 31
0.0
1001
GRADIENTCOLOR1ACI
1070
     5
1001
GRADIENTCOLOR2ACI
1070
     2
1001
ACAD
1010
0.0
1020
0.0
1030
0.0
  0
LINE
  5
12BA53
  8
SLIM
  6
CONTINUOUS
 10
4497.7210427574209461
 20
-284.9694436482096194
 30
0.0
 11
4500.0
 21
-282.690486405630395
 31
0.0
1001
GRADIENTCOLOR1ACI
1070
     5
1001
GRADIENTCOLOR2ACI
1070
     2
1001
ACAD
1010
0.0
1020
0.0
1030
0.0
  0
LINE
  5
12BA54
  8
SLIM
  6
CONTINUOUS
 10
4500.0
 20
-282.690486405630395
 30
0.0
 11
4502.73733126109164
 21
-279.9531551445406876
 31
0.0
1001
GRADIENTCOLOR1ACI
1070
     5
1001
GRADIENTCOLOR2ACI
1070
     2
1001
ACAD
1010
0.0
1020
0.0
1030
0.0
  0
LINE
  5
12BA55
  8
SLIM
  6
CONTINUOUS
 10
4506.9558298417923652
 20
-284.7149126849088816
 30
0.0
 11
4512.6824114987839494
 21
-278.9883310279146826
 31
0.0
1001
GRADIENTCOLOR1ACI
1070
     5
1001
GRADIENTCOLOR2ACI
1070
     2
1001
ACAD
1010
0.0
1020
0.0
1030
0.0
  0
LINE
  5
12BA56
  8
SLIM
  6
CONTINUOUS
 10
4517.4645176312833428
 20
-283.1864810164871074
 30
0.0
 11
4524.4924948954112551
 21
-276.1585037523599908
 31
0.0
1001
GRADIENTCOLOR1ACI
1070
     5
1001
GRADIENTCOLOR2ACI
1070
     2
1001
ACAD
1010
0.0
1020
0.0
1030
0.0
  0
LINE
  5
12BA57
  8
SLIM
  6
CONTINUOUS
 10
4530.1631022713127095
 20
-279.4681524975267166
 30
0.0
 11
4540.8425463192979805
 21
-268.7887084495415024
 31
0.0
1001
GRADIENTCOLOR1ACI
1070
     5
1001
GRADIENTCOLOR2ACI
1070
     2
1001
ACAD
1010
0.0
1020
0.0
1030
0.0
  0
LINE
  5
12BA58
  8
SLIM
  6
CONTINUOUS
 10
4549.5421817599126371
 20
-269.0693291299958219
 30
0.0
 11
4556.6115108899066399
 21
-262.0
 31
0.0
1001
GRADIENTCOLOR1ACI
1070
     5
1001
GRADIENTCOLOR2ACI
1070
     2
1001
ACAD
1010
0.0
1020
0.0
1030
0.0
  0
LINE
  5
12BA59
  8
OBJECT
 10
2633.0
 20
-137.9999999999980105
 30
0.0
 11
2640.0
 21
-137.9999999999980105
 31
0.0
1001
ACDBBLOCKREPETAG
1070
     1
1071
       47
1005
12BA59
  0
LINE
  5
12BA5A
  8
OBJECT
 10
2640.0
 20
-137.9999999999980105
 30
0.0
 11
2640.0
 21
-261.9999999999980105
 31
0.0
1001
ACDBBLOCKREPETAG
1070
     1
1071
       48
1005
12BA5A
  0
LINE
  5
12BA5B
  8
OBJECT
 10
2640.0
 20
-261.9999999999980105
 30
0.0
 11
2633.0
 21
-261.9999999999980105
 31
0.0
1001
ACDBBLOCKREPETAG
1070
     1
1071
       49
1005
12BA5B
  0
LINE
  5
12BA5C
  8
OBJECT
 10
2633.0
 20
-261.9999999999980105
 30
0.0
 11
2633.0
 21
-137.9999999999980105
 31
0.0
1001
ACDBBLOCKREPETAG
1070
     1
1071
       50
1005
12BA5C
  0
LINE
  5
12BA5D
  8
CENTER
 10
2655.0
 20
-199.9999999999980105
 30
0.0
 11
2580.0
 21
-199.9999999999980105
 31
0.0
1001
ACDBBLOCKREPETAG
1070
     1
1071
       51
1005
12BA5D
  0
LINE
  5
12BA5E
  8
OBJECT
 10
2633.0
 20
-140.9999999999980105
 30
0.0
 11
2596.9999999999990905
 21
-140.9999999999980105
 31
0.0
1001
ACDBBLOCKREPETAG
1070
     1
1071
       52
1005
12BA5E
  0
LINE
  5
12BA5F
  8
OBJECT
 10
2596.9999999999990905
 20
-140.9999999999980105
 30
0.0
 11
2596.9999999999990905
 21
-258.9999999999980105
 31
0.0
1001
ACDBBLOCKREPETAG
1070
     1
1071
       53
1005
12BA5F
  0
LINE
  5
12BA60
  8
OBJECT
 10
2596.9999999999990905
 20
-258.9999999999980105
 30
0.0
 11
2633.0
 21
-258.9999999999980105
 31
0.0
1001
ACDBBLOCKREPETAG
1070
     1
1071
       54
1005
12BA60
  0
LINE
  5
12BA61
  8
OBJECT
 10
2593.0
 20
-145.4999999999980105
 30
0.0
 11
2586.0
 21
-145.4999999999980105
 31
0.0
1001
ACDBBLOCKREPETAG
1070
     1
1071
       55
1005
12BA61
  0
LINE
  5
12BA62
  8
OBJECT
 10
2586.0
 20
-254.4999999999980105
 30
0.0
 11
2593.0
 21
-254.4999999999980105
 31
0.0
1001
ACDBBLOCKREPETAG
1070
     1
1071
       56
1005
12BA62
  0
LINE
  5
12BA63
  8
OBJECT
 10
2593.0
 20
-254.4999999999980105
 30
0.0
 11
2593.0
 21
-145.4999999999980105
 31
0.0
1001
ACDBBLOCKREPETAG
1070
     1
1071
       57
1005
12BA63
  0
LINE
  5
12BA64
  8
OBJECT
 10
2596.9999999999990905
 20
-140.9999999999980105
 30
0.0
 11
2593.0
 21
-145.4999999999980105
 31
0.0
1001
ACDBBLOCKREPETAG
1070
     1
1071
       58
1005
12BA64
  0
LINE
  5
12BA65
  8
OBJECT
 10
2596.9999999999990905
 20
-258.9999999999980105
 30
0.0
 11
2593.0
 21
-254.4999999999980105
 31
0.0
1001
ACDBBLOCKREPETAG
1070
     1
1071
       59
1005
12BA65
  0
LINE
  5
12BA66
  8
OBJECT
 10
2583.0
 20
-137.9999999999980105
 30
0.0
 11
2580.0
 21
-137.9999999999980105
 31
0.0
1001
ACDBBLOCKREPETAG
1070
     1
1071
       60
1005
12BA66
  0
ARC
  5
12BA67
  8
OBJECT
 10
2583.0
 20
-140.9999999999980105
 30
0.0
 40
3.0
 50
0.0
 51
90.0
1001
ACDBBLOCKREPETAG
1070
     1
1071
       61
1005
12BA67
  0
LINE
  5
12BA68
  8
OBJECT
 10
2580.0
 20
-261.9999999999980105
 30
0.0
 11
2583.0
 21
-261.9999999999980105
 31
0.0
1001
ACDBBLOCKREPETAG
1070
     1
1071
       62
1005
12BA68
  0
ARC
  5
12BA69
  8
OBJECT
 10
2583.0
 20
-258.9999999999980105
 30
0.0
 40
3.0
 50
270.0
 51
0.0
1001
ACDBBLOCKREPETAG
1070
     1
1071
       63
1005
12BA69
  0
LINE
  5
12BA6A
  8
OBJECT
 10
2586.0
 20
-258.9999999999980105
 30
0.0
 11
2586.0
 21
-140.9999999999980105
 31
0.0
1001
ACDBBLOCKREPETAG
1070
     1
1071
       64
1005
12BA6A
  0
LINE
  5
12BA6B
  8
HIDDEN
 10
2588.0
 20
-155.4999999999980105
 30
0.0
 11
2588.0
 21
-244.4999999999980105
 31
0.0
1001
ACDBBLOCKREPETAG
1070
     1
1071
       65
1005
12BA6B
  0
TEXT
  5
12BA6C
  8
SLIM
 10
4026.5999999999999091
 20
-1701.1688496785729967
 30
0.0
 40
28.0
  1
※ 対応P寸法　　220～320（10mm単位）
 41
0.75
  0
TEXT
  5
12BA6D
  8
SLIM
 10
4026.5999999999999091
 20
-1747.8355163452399665
 30
0.0
 40
28.0
  1
※ 対応スラブ厚　170～（m-10）
 41
0.75
  0
TEXT
  5
12BA6E
  8
SLIM
 10
4026.5999999999999091
 20
-1794.5021830119069364
 30
0.0
 40
28.0
  1
※ 足切り可能寸法（最大）　560-P-m（コンパクトＬベンド使用なら+10）
 41
0.75
  0
TEXT
  5
12BA6F
  8
SLIM
 10
4098.8999999999987267
 20
-1866.5021296785730556
 30
0.0
 40
28.0
  1
国土交通大臣認定・（一財）日本消防設備安全センター性能評定取得品
 41
0.75
  0
TEXT
  5
12BA70
  8
SLIM
 10
4131.1000000000003638
 20
-1913.1687963452409349
 30
0.0
 40
28.0
  1
注）ご採用にあたり、認定書及び評定書の内容をご確認ください。
 41
0.75
  0
TEXT
  5
12BA71
  8
SLIM
 10
2231.6999999999998181
 20
-1708.9999999999979536
 30
0.0
 40
28.0
  1
※ 対応P寸法　　220～340（10mm単位）
 41
0.75
  0
LINE
  5
12BA72
  8
OBJECT
 10
2575.0
 20
-770.0
 30
0.0
 11
2575.0
 21
-907.5000000000653699
 31
0.0
1001
ACDBBLOCKREPETAG
1070
     1
1071
        1
1005
12BA72
  0
LINE
  5
12BA73
  8
CENTER
 10
2500.0
 20
-770.0
 30
0.0
 11
2500.0
 21
-1055.0
 31
0.0
1001
ACDBBLOCKREPETAG
1070
     1
1071
        6
1005
12BA73
  0
LINE
  5
12BA74
  8
OBJECT
 10
2420.0
 20
-1055.0
 30
0.0
 11
2580.0
 21
-1055.0
 31
0.0
1001
ACDBBLOCKREPETAG
1070
     1
1071
        7
1005
12BA74
  0
LINE
  5
12BA75
  8
OBJECT
 10
2420.0
 20
-1043.0
 30
0.0
 11
2580.0
 21
-1043.0
 31
0.0
1001
ACDBBLOCKREPETAG
1070
     1
1071
        8
1005
12BA75
  0
LINE
  5
12BA76
  8
OBJECT
 10
2420.0
 20
-1043.0
 30
0.0
 11
2420.0
 21
-1055.0
 31
0.0
1001
ACDBBLOCKREPETAG
1070
     1
1071
        9
1005
12BA76
  0
LINE
  5
12BA77
  8
OBJECT
 10
2580.0
 20
-1043.0
 30
0.0
 11
2580.0
 21
-1055.0
 31
0.0
1001
ACDBBLOCKREPETAG
1070
     1
1071
       10
1005
12BA77
  0
LINE
  5
12BA78
  8
OBJECT
 10
2633.0
 20
-909.0
 30
0.0
 11
2640.0
 21
-909.0
 31
0.0
1001
ACDBBLOCKREPETAG
1070
     1
1071
       23
1005
12BA78
  0
LINE
  5
12BA79
  8
OBJECT
 10
2640.0
 20
-909.0
 30
0.0
 11
2640.0
 21
-1016.0
 31
0.0
1001
ACDBBLOCKREPETAG
1070
     1
1071
       24
1005
12BA79
  0
LINE
  5
12BA7A
  8
OBJECT
 10
2584.5
 20
-910.5000000000654836
 30
0.0
 11
2584.5
 21
-1013.5
 31
0.0
1001
ACDBBLOCKREPETAG
1070
     1
1071
       25
1005
12BA7A
  0
ARC
  5
12BA7B
  8
OBJECT
 10
2581.5
 20
-910.5000000000654836
 30
0.0
 40
3.0
 50
0.0
 51
90.0
1001
ACDBBLOCKREPETAG
1070
     1
1071
       26
1005
12BA7B
  0
LINE
  5
12BA7C
  8
OBJECT
 10
2633.0
 20
-1016.0
 30
0.0
 11
2633.0
 21
-909.0
 31
0.0
1001
ACDBBLOCKREPETAG
1070
     1
1071
       27
1005
12BA7C
  0
LINE
  5
12BA7D
  8
CENTER
 10
2655.0
 20
-964.0
 30
0.0
 11
2541.3449199130050147
 21
-964.0000000000653699
 31
0.0
1001
ACDBBLOCKREPETAG
1070
     1
1071
       28
1005
12BA7D
  0
LINE
  5
12BA7E
  8
OBJECT
 10
2633.0
 20
-912.0
 30
0.0
 11
2597.0
 21
-912.0
 31
0.0
1001
ACDBBLOCKREPETAG
1070
     1
1071
       29
1005
12BA7E
  0
LINE
  5
12BA7F
  8
OBJECT
 10
2597.0
 20
-912.0
 30
0.0
 11
2597.0
 21
-1016.0
 31
0.0
1001
ACDBBLOCKREPETAG
1070
     1
1071
       30
1005
12BA7F
  0
LINE
  5
12BA80
  8
OBJECT
 10
2597.0
 20
-1016.0
 30
0.0
 11
2640.0
 21
-1016.0
 31
0.0
1001
ACDBBLOCKREPETAG
1070
     1
1071
       31
1005
12BA80
  0
LINE
  5
12BA81
  8
OBJECT
 10
2593.0
 20
-916.5
 30
0.0
 11
2584.5
 21
-916.5
 31
0.0
1001
ACDBBLOCKREPETAG
1070
     1
1071
       32
1005
12BA81
  0
LINE
  5
12BA82
  8
OBJECT
 10
2584.5
 20
-1011.5
 30
0.0
 11
2593.0
 21
-1011.5
 31
0.0
1001
ACDBBLOCKREPETAG
1070
     1
1071
       33
1005
12BA82
  0
LINE
  5
12BA83
  8
OBJECT
 10
2593.0
 20
-1011.5
 30
0.0
 11
2593.0
 21
-916.5
 31
0.0
1001
ACDBBLOCKREPETAG
1070
     1
1071
       34
1005
12BA83
  0
LINE
  5
12BA84
  8
OBJECT
 10
2597.0
 20
-912.0
 30
0.0
 11
2593.0
 21
-916.5
 31
0.0
1001
ACDBBLOCKREPETAG
1070
     1
1071
       35
1005
12BA84
  0
LINE
  5
12BA85
  8
OBJECT
 10
2597.0
 20
-1016.0
 30
0.0
 11
2593.0
 21
-1011.5
 31
0.0
1001
ACDBBLOCKREPETAG
1070
     1
1071
       36
1005
12BA85
  0
LINE
  5
12BA86
  8
HIDDEN
 10
2588.0
 20
-926.0
 30
0.0
 11
2588.0
 21
-1002.0
 31
0.0
1001
ACDBBLOCKREPETAG
1070
     1
1071
       37
1005
12BA86
  0
ARC
  5
12BA87
  8
OBJECT
 10
2664.8782728787741689
 20
-972.4095072612288959
 30
0.0
 40
110.866352283089995
 50
144.16342741930481
 51
163.0403538043379115
1001
ACDBBLOCKREPETAG
1070
     1
1071
       38
1005
12BA87
  0
ARC
  5
12BA88
  8
OBJECT
 10
2617.1359887769071975
 20
-957.2877497184487083
 30
0.0
 40
60.7917498803589567
 50
163.5472046522205005
 51
179.7287969828267933
1001
ACDBBLOCKREPETAG
1070
     1
1071
       39
1005
12BA88
  0
ARC
  5
12BA89
  8
OBJECT
 10
2617.1359956562478146
 20
-963.7122497599011695
 30
0.0
 40
60.7917567620948702
 50
180.2712034781451962
 51
196.4527794605276085
1001
ACDBBLOCKREPETAG
1070
     1
1071
       40
1005
12BA89
  0
ARC
  5
12BA8A
  8
OBJECT
 10
2664.8782728787741689
 20
-948.5904927388363603
 30
0.0
 40
110.8663522830916008
 50
196.9596461956618043
 51
215.83657258069519
1001
ACDBBLOCKREPETAG
1070
     1
1071
       41
1005
12BA8A
  0
LINE
  5
12BA8B
  8
OBJECT
 10
2556.3449199130050147
 20
-957.0000000000363798
 30
0.0
 11
2556.3449199130050147
 21
-964.0000000000327418
 31
0.0
1001
ACDBBLOCKREPETAG
1070
     1
1071
       42
1005
12BA8B
  0
LINE
  5
12BA8C
  8
OBJECT
 10
2575.0
 20
-907.5000000000653699
 30
0.0
 11
2581.5
 21
-907.5000000000653699
 31
0.0
1001
ACDBBLOCKREPETAG
1070
     1
1071
       43
1005
12BA8C
  0
LINE
  5
12BA8D
  8
OBJECT
 10
2575.0
 20
-1013.5
 30
0.0
 11
2584.5
 21
-1013.5
 31
0.0
1001
ACDBBLOCKREPETAG
1070
     1
1071
       44
1005
12BA8D
  0
LINE
  5
12BA8E
  8
OBJECT
 10
2575.0
 20
-1013.5
 30
0.0
 11
2575.0
 21
-1043.0
 31
0.0
1001
ACDBBLOCKREPETAG
1070
     1
1071
        1
1005
12BA72
  0
POINT
  5
12BA8F
  8
DOTS
 10
2500.0
 20
-1016.0
 30
0.0
  0
LINE
  5
12BA90
  8
OBJECT
 10
2425.0
 20
-770.0
 30
0.0
 11
2425.0
 21
-907.5000000000653699
 31
0.0
1001
ACDBBLOCKREPETAG
1070
     1
1071
        1
1005
12BA72
  0
LINE
  5
12BA91
  8
OBJECT
 10
2367.0
 20
-909.0
 30
0.0
 11
2360.0
 21
-909.0
 31
0.0
1001
ACDBBLOCKREPETAG
1070
     1
1071
       23
1005
12BA78
  0
LINE
  5
12BA92
  8
OBJECT
 10
2360.0
 20
-909.0
 30
0.0
 11
2360.0
 21
-1016.0
 31
0.0
1001
ACDBBLOCKREPETAG
1070
     1
1071
       24
1005
12BA79
  0
LINE
  5
12BA93
  8
OBJECT
 10
2415.5
 20
-910.5000000000654836
 30
0.0
 11
2415.5
 21
-1013.5
 31
0.0
1001
ACDBBLOCKREPETAG
1070
     1
1071
       25
1005
12BA7A
  0
ARC
  5
12BA94
  8
OBJECT
 10
2418.5
 20
-910.5000000000654836
 30
0.0
 40
3.0
 50
90.0
 51
180.0
1001
ACDBBLOCKREPETAG
1070
     1
1071
       26
1005
12BA7B
  0
LINE
  5
12BA95
  8
OBJECT
 10
2367.0
 20
-1016.0
 30
0.0
 11
2367.0
 21
-909.0
 31
0.0
1001
ACDBBLOCKREPETAG
1070
     1
1071
       27
1005
12BA7C
  0
LINE
  5
12BA96
  8
CENTER
 10
2345.0
 20
-964.0
 30
0.0
 11
2458.6550800869949853
 21
-964.0000000000653699
 31
0.0
1001
ACDBBLOCKREPETAG
1070
     1
1071
       28
1005
12BA7D
  0
LINE
  5
12BA97
  8
OBJECT
 10
2367.0
 20
-912.0
 30
0.0
 11
2403.0
 21
-912.0
 31
0.0
1001
ACDBBLOCKREPETAG
1070
     1
1071
       29
1005
12BA7E
  0
LINE
  5
12BA98
  8
OBJECT
 10
2403.0
 20
-912.0
 30
0.0
 11
2403.0
 21
-1016.0
 31
0.0
1001
ACDBBLOCKREPETAG
1070
     1
1071
       30
1005
12BA7F
  0
LINE
  5
12BA99
  8
OBJECT
 10
2403.0
 20
-1016.0
 30
0.0
 11
2360.0
 21
-1016.0
 31
0.0
1001
ACDBBLOCKREPETAG
1070
     1
1071
       31
1005
12BA80
  0
LINE
  5
12BA9A
  8
OBJECT
 10
2407.0
 20
-916.5
 30
0.0
 11
2415.5
 21
-916.5
 31
0.0
1001
ACDBBLOCKREPETAG
1070
     1
1071
       32
1005
12BA81
  0
LINE
  5
12BA9B
  8
OBJECT
 10
2415.5
 20
-1011.5
 30
0.0
 11
2407.0
 21
-1011.5
 31
0.0
1001
ACDBBLOCKREPETAG
1070
     1
1071
       33
1005
12BA82
  0
LINE
  5
12BA9C
  8
OBJECT
 10
2407.0
 20
-1011.5
 30
0.0
 11
2407.0
 21
-916.5
 31
0.0
1001
ACDBBLOCKREPETAG
1070
     1
1071
       34
1005
12BA83
  0
LINE
  5
12BA9D
  8
OBJECT
 10
2403.0
 20
-912.0
 30
0.0
 11
2407.0
 21
-916.5
 31
0.0
1001
ACDBBLOCKREPETAG
1070
     1
1071
       35
1005
12BA84
  0
LINE
  5
12BA9E
  8
OBJECT
 10
2403.0
 20
-1016.0
 30
0.0
 11
2407.0
 21
-1011.5
 31
0.0
1001
ACDBBLOCKREPETAG
1070
     1
1071
       36
1005
12BA85
  0
LINE
  5
12BA9F
  8
HIDDEN
 10
2412.0
 20
-926.0
 30
0.0
 11
2412.0
 21
-1002.0
 31
0.0
1001
ACDBBLOCKREPETAG
1070
     1
1071
       37
1005
12BA86
  0
ARC
  5
12BAA0
  8
OBJECT
 10
2335.1217271212258311
 20
-972.4095072612288959
 30
0.0
 40
110.866352283089995
 50
16.9596461956619784
 51
35.8365725806952398
1001
ACDBBLOCKREPETAG
1070
     1
1071
       38
1005
12BA87
  0
ARC
  5
12BAA1
  8
OBJECT
 10
2382.8640112230928025
 20
-957.2877497184487083
 30
0.0
 40
60.7917498803589567
 50
0.2712030171732199
 51
16.4527953477794995
1001
ACDBBLOCKREPETAG
1070
     1
1071
       39
1005
12BA88
  0
ARC
  5
12BAA2
  8
OBJECT
 10
2382.8640043437530949
 20
-963.7122497599011695
 30
0.0
 40
60.7917567620948702
 50
343.5472205394723915
 51
359.7287965218546901
1001
ACDBBLOCKREPETAG
1070
     1
1071
       40
1005
12BA89
  0
ARC
  5
12BAA3
  8
OBJECT
 10
2335.1217271212258311
 20
-948.5904927388363603
 30
0.0
 40
110.8663522830916008
 50
324.16342741930481
 51
343.0403538043379967
1001
ACDBBLOCKREPETAG
1070
     1
1071
       41
1005
12BA8A
  0
LINE
  5
12BAA4
  8
OBJECT
 10
2443.6550800869958948
 20
-957.0000000000363798
 30
0.0
 11
2443.6550800869958948
 21
-964.0000000000327418
 31
0.0
1001
ACDBBLOCKREPETAG
1070
     1
1071
       42
1005
12BA8B
  0
LINE
  5
12BAA5
  8
OBJECT
 10
2425.0
 20
-907.5000000000653699
 30
0.0
 11
2418.5
 21
-907.5000000000653699
 31
0.0
1001
ACDBBLOCKREPETAG
1070
     1
1071
       43
1005
12BA8C
  0
LINE
  5
12BAA6
  8
OBJECT
 10
2425.0
 20
-1013.5
 30
0.0
 11
2415.5
 21
-1013.5
 31
0.0
1001
ACDBBLOCKREPETAG
1070
     1
1071
       44
1005
12BA8D
  0
LINE
  5
12BAA7
  8
OBJECT
 10
2425.0
 20
-1013.5
 30
0.0
 11
2425.0
 21
-1043.0
 31
0.0
1001
ACDBBLOCKREPETAG
1070
     1
1071
        1
1005
12BA72
  0
LINE
  5
12BAA8
  8
OBJECT
 10
4575.0
 20
-770.0
 30
0.0
 11
4575.0
 21
-907.5000000000653699
 31
0.0
1001
ACDBBLOCKREPETAG
1070
     1
1071
        1
1005
12BAA8
  0
LINE
  5
12BAA9
  8
CENTER
 10
4500.0
 20
-770.0
 30
0.0
 11
4500.0
 21
-1055.0
 31
0.0
1001
ACDBBLOCKREPETAG
1070
     1
1071
        6
1005
12BAA9
  0
LINE
  5
12BAAA
  8
OBJECT
 10
4420.0
 20
-1055.0
 30
0.0
 11
4580.0
 21
-1055.0
 31
0.0
1001
ACDBBLOCKREPETAG
1070
     1
1071
        7
1005
12BAAA
  0
LINE
  5
12BAAB
  8
OBJECT
 10
4420.0
 20
-1043.0
 30
0.0
 11
4580.0
 21
-1043.0
 31
0.0
1001
ACDBBLOCKREPETAG
1070
     1
1071
        8
1005
12BAAB
  0
LINE
  5
12BAAC
  8
OBJECT
 10
4420.0
 20
-1043.0
 30
0.0
 11
4420.0
 21
-1055.0
 31
0.0
1001
ACDBBLOCKREPETAG
1070
     1
1071
        9
1005
12BAAC
  0
LINE
  5
12BAAD
  8
OBJECT
 10
4580.0
 20
-1043.0
 30
0.0
 11
4580.0
 21
-1055.0
 31
0.0
1001
ACDBBLOCKREPETAG
1070
     1
1071
       10
1005
12BAAD
  0
LINE
  5
12BAAE
  8
OBJECT
 10
4633.0
 20
-909.0
 30
0.0
 11
4640.0
 21
-909.0
 31
0.0
1001
ACDBBLOCKREPETAG
1070
     1
1071
       23
1005
12BAAE
  0
LINE
  5
12BAAF
  8
OBJECT
 10
4640.0
 20
-909.0
 30
0.0
 11
4640.0
 21
-1016.0
 31
0.0
1001
ACDBBLOCKREPETAG
1070
     1
1071
       24
1005
12BAAF
  0
LINE
  5
12BAB0
  8
OBJECT
 10
4584.5
 20
-910.5000000000654836
 30
0.0
 11
4584.5
 21
-1013.5
 31
0.0
1001
ACDBBLOCKREPETAG
1070
     1
1071
       25
1005
12BAB0
  0
ARC
  5
12BAB1
  8
OBJECT
 10
4581.5
 20
-910.5000000000654836
 30
0.0
 40
3.0
 50
0.0
 51
90.0
1001
ACDBBLOCKREPETAG
1070
     1
1071
       26
1005
12BAB1
  0
LINE
  5
12BAB2
  8
OBJECT
 10
4633.0
 20
-1016.0
 30
0.0
 11
4633.0
 21
-909.0
 31
0.0
1001
ACDBBLOCKREPETAG
1070
     1
1071
       27
1005
12BAB2
  0
LINE
  5
12BAB3
  8
CENTER
 10
4655.0
 20
-964.0
 30
0.0
 11
4541.3449199130036504
 21
-964.0000000000653699
 31
0.0
1001
ACDBBLOCKREPETAG
1070
     1
1071
       28
1005
12BAB3
  0
LINE
  5
12BAB4
  8
OBJECT
 10
4633.0
 20
-912.0
 30
0.0
 11
4597.0
 21
-912.0
 31
0.0
1001
ACDBBLOCKREPETAG
1070
     1
1071
       29
1005
12BAB4
  0
LINE
  5
12BAB5
  8
OBJECT
 10
4597.0
 20
-912.0
 30
0.0
 11
4597.0
 21
-1016.0
 31
0.0
1001
ACDBBLOCKREPETAG
1070
     1
1071
       30
1005
12BAB5
  0
LINE
  5
12BAB6
  8
OBJECT
 10
4597.0
 20
-1016.0
 30
0.0
 11
4640.0
 21
-1016.0
 31
0.0
1001
ACDBBLOCKREPETAG
1070
     1
1071
       31
1005
12BAB6
  0
LINE
  5
12BAB7
  8
OBJECT
 10
4593.0
 20
-916.5
 30
0.0
 11
4584.5
 21
-916.5
 31
0.0
1001
ACDBBLOCKREPETAG
1070
     1
1071
       32
1005
12BAB7
  0
LINE
  5
12BAB8
  8
OBJECT
 10
4584.5
 20
-1011.5
 30
0.0
 11
4593.0
 21
-1011.5
 31
0.0
1001
ACDBBLOCKREPETAG
1070
     1
1071
       33
1005
12BAB8
  0
LINE
  5
12BAB9
  8
OBJECT
 10
4593.0
 20
-1011.5
 30
0.0
 11
4593.0
 21
-916.5
 31
0.0
1001
ACDBBLOCKREPETAG
1070
     1
1071
       34
1005
12BAB9
  0
LINE
  5
12BABA
  8
OBJECT
 10
4597.0
 20
-912.0
 30
0.0
 11
4593.0
 21
-916.5
 31
0.0
1001
ACDBBLOCKREPETAG
1070
     1
1071
       35
1005
12BABA
  0
LINE
  5
12BABB
  8
OBJECT
 10
4597.0
 20
-1016.0
 30
0.0
 11
4593.0
 21
-1011.5
 31
0.0
1001
ACDBBLOCKREPETAG
1070
     1
1071
       36
1005
12BABB
  0
LINE
  5
12BABC
  8
HIDDEN
 10
4588.0
 20
-926.0
 30
0.0
 11
4588.0
 21
-1002.0
 31
0.0
1001
ACDBBLOCKREPETAG
1070
     1
1071
       37
1005
12BABC
  0
ARC
  5
12BABD
  8
OBJECT
 10
4664.8782728787718952
 20
-972.4095072612288959
 30
0.0
 40
110.866352283089995
 50
144.16342741930481
 51
163.0403538043456138
1001
ACDBBLOCKREPETAG
1070
     1
1071
       38
1005
12BABD
  0
ARC
  5
12BABE
  8
OBJECT
 10
4617.1359887769067427
 20
-957.2877497184487083
 30
0.0
 40
60.7917498803589567
 50
163.5472046522131109
 51
179.7287969828265943
1001
ACDBBLOCKREPETAG
1070
     1
1071
       39
1005
12BABE
  0
ARC
  5
12BABF
  8
OBJECT
 10
4617.1359956562482694
 20
-963.7122497599011695
 30
0.0
 40
60.7917567620948702
 50
180.2712034781451962
 51
196.4527794605201052
1001
ACDBBLOCKREPETAG
1070
     1
1071
       40
1005
12BABF
  0
ARC
  5
12BAC0
  8
OBJECT
 10
4664.8782728787718952
 20
-948.5904927388363603
 30
0.0
 40
110.8663522830916008
 50
196.9596461956543862
 51
215.83657258069519
1001
ACDBBLOCKREPETAG
1070
     1
1071
       41
1005
12BAC0
  0
LINE
  5
12BAC1
  8
OBJECT
 10
4556.3449199130036504
 20
-957.0000000000363798
 30
0.0
 11
4556.3449199130036504
 21
-964.0000000000327418
 31
0.0
1001
ACDBBLOCKREPETAG
1070
     1
1071
       42
1005
12BAC1
  0
LINE
  5
12BAC2
  8
OBJECT
 10
4575.0
 20
-907.5000000000653699
 30
0.0
 11
4581.5
 21
-907.5000000000653699
 31
0.0
1001
ACDBBLOCKREPETAG
1070
     1
1071
       43
1005
12BAC2
  0
LINE
  5
12BAC3
  8
OBJECT
 10
4575.0
 20
-1013.5
 30
0.0
 11
4584.5
 21
-1013.5
 31
0.0
1001
ACDBBLOCKREPETAG
1070
     1
1071
       44
1005
12BAC3
  0
LINE
  5
12BAC4
  8
OBJECT
 10
4575.0
 20
-1013.5
 30
0.0
 11
4575.0
 21
-1043.0
 31
0.0
1001
ACDBBLOCKREPETAG
1070
     1
1071
        1
1005
12BAA8
  0
POINT
  5
12BAC5
  8
DOTS
 10
4500.0
 20
-1016.0
 30
0.0
  0
LINE
  5
12BAC6
  8
OBJECT
 10
4425.0
 20
-770.0
 30
0.0
 11
4425.0
 21
-907.5000000000653699
 31
0.0
1001
ACDBBLOCKREPETAG
1070
     1
1071
        1
1005
12BAA8
  0
LINE
  5
12BAC7
  8
OBJECT
 10
4367.0
 20
-909.0
 30
0.0
 11
4360.0
 21
-909.0
 31
0.0
1001
ACDBBLOCKREPETAG
1070
     1
1071
       23
1005
12BAAE
  0
LINE
  5
12BAC8
  8
OBJECT
 10
4360.0
 20
-909.0
 30
0.0
 11
4360.0
 21
-1016.0
 31
0.0
1001
ACDBBLOCKREPETAG
1070
     1
1071
       24
1005
12BAAF
  0
LINE
  5
12BAC9
  8
OBJECT
 10
4415.5
 20
-910.5000000000654836
 30
0.0
 11
4415.5
 21
-1013.5
 31
0.0
1001
ACDBBLOCKREPETAG
1070
     1
1071
       25
1005
12BAB0
  0
ARC
  5
12BACA
  8
OBJECT
 10
4418.5
 20
-910.5000000000654836
 30
0.0
 40
3.0
 50
90.0
 51
180.0
1001
ACDBBLOCKREPETAG
1070
     1
1071
       26
1005
12BAB1
  0
LINE
  5
12BACB
  8
OBJECT
 10
4367.0
 20
-1016.0
 30
0.0
 11
4367.0
 21
-909.0
 31
0.0
1001
ACDBBLOCKREPETAG
1070
     1
1071
       27
1005
12BAB2
  0
LINE
  5
12BACC
  8
CENTER
 10
4345.0
 20
-964.0
 30
0.0
 11
4458.6550800869936211
 21
-964.0000000000653699
 31
0.0
1001
ACDBBLOCKREPETAG
1070
     1
1071
       28
1005
12BAB3
  0
LINE
  5
12BACD
  8
OBJECT
 10
4367.0
 20
-912.0
 30
0.0
 11
4403.0
 21
-912.0
 31
0.0
1001
ACDBBLOCKREPETAG
1070
     1
1071
       29
1005
12BAB4
  0
LINE
  5
12BACE
  8
OBJECT
 10
4403.0
 20
-912.0
 30
0.0
 11
4403.0
 21
-1016.0
 31
0.0
1001
ACDBBLOCKREPETAG
1070
     1
1071
       30
1005
12BAB5
  0
LINE
  5
12BACF
  8
OBJECT
 10
4403.0
 20
-1016.0
 30
0.0
 11
4360.0
 21
-1016.0
 31
0.0
1001
ACDBBLOCKREPETAG
1070
     1
1071
       31
1005
12BAB6
  0
LINE
  5
12BAD0
  8
OBJECT
 10
4407.0
 20
-916.5
 30
0.0
 11
4415.5
 21
-916.5
 31
0.0
1001
ACDBBLOCKREPETAG
1070
     1
1071
       32
1005
12BAB7
  0
LINE
  5
12BAD1
  8
OBJECT
 10
4415.5
 20
-1011.5
 30
0.0
 11
4407.0
 21
-1011.5
 31
0.0
1001
ACDBBLOCKREPETAG
1070
     1
1071
       33
1005
12BAB8
  0
LINE
  5
12BAD2
  8
OBJECT
 10
4407.0
 20
-1011.5
 30
0.0
 11
4407.0
 21
-916.5
 31
0.0
1001
ACDBBLOCKREPETAG
1070
     1
1071
       34
1005
12BAB9
  0
LINE
  5
12BAD3
  8
OBJECT
 10
4403.0
 20
-912.0
 30
0.0
 11
4407.0
 21
-916.5
 31
0.0
1001
ACDBBLOCKREPETAG
1070
     1
1071
       35
1005
12BABA
  0
LINE
  5
12BAD4
  8
OBJECT
 10
4403.0
 20
-1016.0
 30
0.0
 11
4407.0
 21
-1011.5
 31
0.0
1001
ACDBBLOCKREPETAG
1070
     1
1071
       36
1005
12BABB
  0
LINE
  5
12BAD5
  8
HIDDEN
 10
4412.0
 20
-926.0
 30
0.0
 11
4412.0
 21
-1002.0
 31
0.0
1001
ACDBBLOCKREPETAG
1070
     1
1071
       37
1005
12BABC
  0
ARC
  5
12BAD6
  8
OBJECT
 10
4335.1217271212262858
 20
-972.4095072612288959
 30
0.0
 40
110.866352283089995
 50
16.9596461956543791
 51
35.8365725806952398
1001
ACDBBLOCKREPETAG
1070
     1
1071
       38
1005
12BABD
  0
ARC
  5
12BAD7
  8
OBJECT
 10
4382.8640112230941668
 20
-957.2877497184487083
 30
0.0
 40
60.7917498803589567
 50
0.2712030171733432
 51
16.4527953477868785
1001
ACDBBLOCKREPETAG
1070
     1
1071
       39
1005
12BABE
  0
ARC
  5
12BAD8
  8
OBJECT
 10
4382.8640043437508211
 20
-963.7122497599011695
 30
0.0
 40
60.7917567620948702
 50
343.5472205394797811
 51
359.7287965218546901
1001
ACDBBLOCKREPETAG
1070
     1
1071
       40
1005
12BABF
  0
ARC
  5
12BAD9
  8
OBJECT
 10
4335.1217271212262858
 20
-948.5904927388363603
 30
0.0
 40
110.8663522830916008
 50
324.16342741930481
 51
343.0403538043456138
1001
ACDBBLOCKREPETAG
1070
     1
1071
       41
1005
12BAC0
  0
LINE
  5
12BADA
  8
OBJECT
 10
4443.6550800869936211
 20
-957.0000000000363798
 30
0.0
 11
4443.6550800869936211
 21
-964.0000000000327418
 31
0.0
1001
ACDBBLOCKREPETAG
1070
     1
1071
       42
1005
12BAC1
  0
LINE
  5
12BADB
  8
OBJECT
 10
4425.0
 20
-907.5000000000653699
 30
0.0
 11
4418.5
 21
-907.5000000000653699
 31
0.0
1001
ACDBBLOCKREPETAG
1070
     1
1071
       43
1005
12BAC2
  0
LINE
  5
12BADC
  8
OBJECT
 10
4425.0
 20
-1013.5
 30
0.0
 11
4415.5
 21
-1013.5
 31
0.0
1001
ACDBBLOCKREPETAG
1070
     1
1071
       44
1005
12BAC3
  0
LINE
  5
12BADD
  8
OBJECT
 10
4425.0
 20
-1013.5
 30
0.0
 11
4425.0
 21
-1043.0
 31
0.0
1001
ACDBBLOCKREPETAG
1070
     1
1071
        1
1005
12BAA8
  0
LINE
  5
12BADE
  8
OBJECT
 10
2633.0
 20
-634.0000000000055707
 30
0.0
 11
2640.0
 21
-634.0000000000055707
 31
0.0
1001
ACDBBLOCKREPETAG
1070
     1
1071
       45
1005
12BADE
  0
LINE
  5
12BADF
  8
OBJECT
 10
2640.0
 20
-634.0000000000055707
 30
0.0
 11
2640.0
 21
-755.0000000000052296
 31
0.0
1001
ACDBBLOCKREPETAG
1070
     1
1071
       46
1005
12BADF
  0
LINE
  5
12BAE0
  8
OBJECT
 10
2633.0
 20
-755.0000000000052296
 30
0.0
 11
2633.0
 21
-634.0000000000055707
 31
0.0
1001
ACDBBLOCKREPETAG
1070
     1
1071
       47
1005
12BAE0
  0
LINE
  5
12BAE1
  8
CENTER
 10
2655.0
 20
-696.0000000000055707
 30
0.0
 11
2571.0
 21
-696.0000000000055707
 31
0.0
1001
ACDBBLOCKREPETAG
1070
     1
1071
       48
1005
12BAE1
  0
LINE
  5
12BAE2
  8
OBJECT
 10
2633.0
 20
-637.0000000000055707
 30
0.0
 11
2597.0
 21
-637.0000000000055707
 31
0.0
1001
ACDBBLOCKREPETAG
1070
     1
1071
       49
1005
12BAE2
  0
LINE
  5
12BAE3
  8
OBJECT
 10
2597.0
 20
-637.0000000000055707
 30
0.0
 11
2597.0
 21
-755.0000000000052296
 31
0.0
1001
ACDBBLOCKREPETAG
1070
     1
1071
       50
1005
12BAE3
  0
LINE
  5
12BAE4
  8
OBJECT
 10
2597.0
 20
-755.0000000000052296
 30
0.0
 11
2640.0
 21
-755.0000000000052296
 31
0.0
1001
ACDBBLOCKREPETAG
1070
     1
1071
       51
1005
12BAE4
  0
LINE
  5
12BAE5
  8
OBJECT
 10
2593.0
 20
-641.5000000000055707
 30
0.0
 11
2586.0
 21
-641.5000000000055707
 31
0.0
1001
ACDBBLOCKREPETAG
1070
     1
1071
       52
1005
12BAE5
  0
LINE
  5
12BAE6
  8
OBJECT
 10
2586.0
 20
-750.5000000000052296
 30
0.0
 11
2593.0
 21
-750.5000000000052296
 31
0.0
1001
ACDBBLOCKREPETAG
1070
     1
1071
       53
1005
12BAE6
  0
LINE
  5
12BAE7
  8
OBJECT
 10
2593.0
 20
-750.5000000000052296
 30
0.0
 11
2593.0
 21
-641.5000000000055707
 31
0.0
1001
ACDBBLOCKREPETAG
1070
     1
1071
       54
1005
12BAE7
  0
LINE
  5
12BAE8
  8
OBJECT
 10
2597.0
 20
-637.0000000000055707
 30
0.0
 11
2593.0
 21
-641.5000000000055707
 31
0.0
1001
ACDBBLOCKREPETAG
1070
     1
1071
       55
1005
12BAE8
  0
LINE
  5
12BAE9
  8
OBJECT
 10
2597.0
 20
-755.0000000000052296
 30
0.0
 11
2593.0
 21
-750.5000000000052296
 31
0.0
1001
ACDBBLOCKREPETAG
1070
     1
1071
       56
1005
12BAE9
  0
LINE
  5
12BAEA
  8
OBJECT
 10
2583.0
 20
-634.0000000000055707
 30
0.0
 11
2580.0
 21
-634.0000000000055707
 31
0.0
1001
ACDBBLOCKREPETAG
1070
     1
1071
       57
1005
12BAEA
  0
ARC
  5
12BAEB
  8
OBJECT
 10
2583.0
 20
-637.0000000000055707
 30
0.0
 40
3.0
 50
0.0
 51
90.0
1001
ACDBBLOCKREPETAG
1070
     1
1071
       58
1005
12BAEB
  0
LINE
  5
12BAEC
  8
OBJECT
 10
2580.0
 20
-758.0000000000052296
 30
0.0
 11
2583.0
 21
-758.0000000000052296
 31
0.0
1001
ACDBBLOCKREPETAG
1070
     1
1071
       59
1005
12BAEC
  0
ARC
  5
12BAED
  8
OBJECT
 10
2583.0
 20
-755.0000000000052296
 30
0.0
 40
3.0
 50
270.0
 51
0.0
1001
ACDBBLOCKREPETAG
1070
     1
1071
       60
1005
12BAED
  0
LINE
  5
12BAEE
  8
OBJECT
 10
2586.0
 20
-755.0000000000052296
 30
0.0
 11
2586.0
 21
-637.0000000000055707
 31
0.0
1001
ACDBBLOCKREPETAG
1070
     1
1071
       61
1005
12BAEE
  0
LINE
  5
12BAEF
  8
HIDDEN
 10
2588.0
 20
-651.5000000000056843
 30
0.0
 11
2588.0
 21
-740.5000000000056843
 31
0.0
1001
ACDBBLOCKREPETAG
1070
     1
1071
       63
1005
12BAEF
  0
LINE
  5
12BAF0
  8
OBJECT
 10
2423.0
 20
-571.0
 30
0.0
 11
2423.0
 21
-550.0
 31
0.0
1001
ACDBBLOCKREPETAG
1070
     1
1071
        0
1005
12BAF0
  0
LINE
  5
12BAF1
  8
OBJECT
 10
2423.0
 20
-550.0
 30
0.0
 11
2577.0
 21
-550.0
 31
0.0
1001
ACDBBLOCKREPETAG
1070
     1
1071
        1
1005
12BAF1
  0
LINE
  5
12BAF2
  8
HIDDEN
 10
2443.0
 20
-620.0
 30
0.0
 11
2557.0
 21
-620.0
 31
0.0
1001
ACDBBLOCKREPETAG
1070
     1
1071
        2
1005
12BAF2
  0
LINE
  5
12BAF3
  8
OBJECT
 10
2577.0
 20
-550.0
 30
0.0
 11
2577.0
 21
-571.0
 31
0.0
1001
ACDBBLOCKREPETAG
1070
     1
1071
        3
1005
12BAF3
  0
LINE
  5
12BAF4
  8
OBJECT
 10
2577.0
 20
-571.0
 30
0.0
 11
2423.0
 21
-571.0
 31
0.0
1001
ACDBBLOCKREPETAG
1070
     1
1071
        4
1005
12BAF4
  0
LINE
  5
12BAF5
  8
CENTER
 10
2500.0
 20
-535.0
 30
0.0
 11
2500.0
 21
-770.0
 31
0.0
1001
ACDBBLOCKREPETAG
1070
     1
1071
        5
1005
12BAF5
  0
LINE
  5
12BAF6
  8
OBJECT
 10
2425.0
 20
-634.0
 30
0.0
 11
2425.0
 21
-758.0
 31
0.0
1001
ACDBBLOCKREPETAG
1070
     1
1071
        6
1005
12BAF6
  0
LINE
  5
12BAF7
  8
OBJECT
 10
2428.0
 20
-571.0
 30
0.0
 11
2428.0
 21
-634.0
 31
0.0
1001
ACDBBLOCKREPETAG
1070
     1
1071
        7
1005
12BAF7
  0
LINE
  5
12BAF8
  8
OBJECT
 10
2572.0
 20
-634.0
 30
0.0
 11
2572.0
 21
-571.0
 31
0.0
1001
ACDBBLOCKREPETAG
1070
     1
1071
        8
1005
12BAF8
  0
LINE
  5
12BAF9
  8
OBJECT
 10
2420.0
 20
-758.0
 30
0.0
 11
2580.0
 21
-758.0
 31
0.0
1001
ACDBBLOCKREPETAG
1070
     1
1071
        9
1005
12BAF9
  0
LINE
  5
12BAFA
  8
OBJECT
 10
2580.0
 20
-634.0
 30
0.0
 11
2425.0
 21
-634.0
 31
0.0
1001
ACDBBLOCKREPETAG
1070
     1
1071
       10
1005
12BAFA
  0
LINE
  5
12BAFB
  8
OBJECT
 10
2420.0
 20
-758.0
 30
0.0
 11
2420.0
 21
-770.0
 31
0.0
1001
ACDBBLOCKREPETAG
1070
     1
1071
       11
1005
12BAFB
  0
LINE
  5
12BAFC
  8
OBJECT
 10
2420.0
 20
-770.0
 30
0.0
 11
2580.0
 21
-770.0
 31
0.0
1001
ACDBBLOCKREPETAG
1070
     1
1071
       12
1005
12BAFC
  0
LINE
  5
12BAFD
  8
OBJECT
 10
2580.0
 20
-770.0
 30
0.0
 11
2580.0
 21
-758.0
 31
0.0
1001
ACDBBLOCKREPETAG
1070
     1
1071
       13
1005
12BAFD
  0
ARC
  5
12BAFE
  8
OBJECT
 10
2700.6872746716730944
 20
-749.4080994101075248
 30
0.0
 40
170.6350503965855978
 50
137.4413445918430057
 51
149.9194958133722082
1001
ACDBBLOCKREPETAG
1070
     1
1071
       15
1005
12BAFE
  0
ARC
  5
12BAFF
  8
OBJECT
 10
2618.845598704051099
 20
-705.882726695364795
 30
0.0
 40
78.0722220217636647
 50
147.4551531037683105
 51
164.6636599771798046
1001
ACDBBLOCKREPETAG
1070
     1
1071
       16
1005
12BAFF
  0
ARC
  5
12BB00
  8
OBJECT
 10
2585.7554349608731172
 20
-696.0
 30
0.0
 40
43.5535392688561771
 50
165.6884523008477004
 51
194.3115476991521859
1001
ACDBBLOCKREPETAG
1070
     1
1071
       17
1005
12BB00
  0
ARC
  5
12BB01
  8
OBJECT
 10
2700.6872746716730944
 20
-642.5919005898921341
 30
0.0
 40
170.6350503965855978
 50
210.0805041866277918
 51
222.5586554081569943
1001
ACDBBLOCKREPETAG
1070
     1
1071
       18
1005
12BB01
  0
ARC
  5
12BB02
  8
OBJECT
 10
2618.845598704051099
 20
-686.117273304635205
 30
0.0
 40
78.0722220217636647
 50
195.3363400228201101
 51
212.5448468962316042
1001
ACDBBLOCKREPETAG
1070
     1
1071
       19
1005
12BB02
  0
LINE
  5
12BB03
  8
OBJECT
 10
4633.0
 20
-634.0000000000055707
 30
0.0
 11
4640.0
 21
-634.0000000000055707
 31
0.0
1001
ACDBBLOCKREPETAG
1070
     1
1071
       45
1005
12BB03
  0
LINE
  5
12BB04
  8
OBJECT
 10
4640.0
 20
-634.0000000000055707
 30
0.0
 11
4640.0
 21
-755.0000000000052296
 31
0.0
1001
ACDBBLOCKREPETAG
1070
     1
1071
       46
1005
12BB04
  0
LINE
  5
12BB05
  8
OBJECT
 10
4633.0
 20
-755.0000000000052296
 30
0.0
 11
4633.0
 21
-634.0000000000055707
 31
0.0
1001
ACDBBLOCKREPETAG
1070
     1
1071
       47
1005
12BB05
  0
LINE
  5
12BB06
  8
CENTER
 10
4655.0
 20
-696.0000000000055707
 30
0.0
 11
4571.0
 21
-696.0000000000055707
 31
0.0
1001
ACDBBLOCKREPETAG
1070
     1
1071
       48
1005
12BB06
  0
LINE
  5
12BB07
  8
OBJECT
 10
4633.0
 20
-637.0000000000055707
 30
0.0
 11
4597.0
 21
-637.0000000000055707
 31
0.0
1001
ACDBBLOCKREPETAG
1070
     1
1071
       49
1005
12BB07
  0
LINE
  5
12BB08
  8
OBJECT
 10
4597.0
 20
-637.0000000000055707
 30
0.0
 11
4597.0
 21
-755.0000000000052296
 31
0.0
1001
ACDBBLOCKREPETAG
1070
     1
1071
       50
1005
12BB08
  0
LINE
  5
12BB09
  8
OBJECT
 10
4597.0
 20
-755.0000000000052296
 30
0.0
 11
4640.0
 21
-755.0000000000052296
 31
0.0
1001
ACDBBLOCKREPETAG
1070
     1
1071
       51
1005
12BB09
  0
LINE
  5
12BB0A
  8
OBJECT
 10
4593.0
 20
-641.5000000000055707
 30
0.0
 11
4586.0
 21
-641.5000000000055707
 31
0.0
1001
ACDBBLOCKREPETAG
1070
     1
1071
       52
1005
12BB0A
  0
LINE
  5
12BB0B
  8
OBJECT
 10
4586.0
 20
-750.5000000000052296
 30
0.0
 11
4593.0
 21
-750.5000000000052296
 31
0.0
1001
ACDBBLOCKREPETAG
1070
     1
1071
       53
1005
12BB0B
  0
LINE
  5
12BB0C
  8
OBJECT
 10
4593.0
 20
-750.5000000000052296
 30
0.0
 11
4593.0
 21
-641.5000000000055707
 31
0.0
1001
ACDBBLOCKREPETAG
1070
     1
1071
       54
1005
12BB0C
  0
LINE
  5
12BB0D
  8
OBJECT
 10
4597.0
 20
-637.0000000000055707
 30
0.0
 11
4593.0
 21
-641.5000000000055707
 31
0.0
1001
ACDBBLOCKREPETAG
1070
     1
1071
       55
1005
12BB0D
  0
LINE
  5
12BB0E
  8
OBJECT
 10
4597.0
 20
-755.0000000000052296
 30
0.0
 11
4593.0
 21
-750.5000000000052296
 31
0.0
1001
ACDBBLOCKREPETAG
1070
     1
1071
       56
1005
12BB0E
  0
LINE
  5
12BB0F
  8
OBJECT
 10
4583.0
 20
-634.0000000000055707
 30
0.0
 11
4580.0
 21
-634.0000000000055707
 31
0.0
1001
ACDBBLOCKREPETAG
1070
     1
1071
       57
1005
12BB0F
  0
ARC
  5
12BB10
  8
OBJECT
 10
4583.0
 20
-637.0000000000055707
 30
0.0
 40
3.0
 50
0.0
 51
90.0
1001
ACDBBLOCKREPETAG
1070
     1
1071
       58
1005
12BB10
  0
LINE
  5
12BB11
  8
OBJECT
 10
4580.0
 20
-758.0000000000052296
 30
0.0
 11
4583.0
 21
-758.0000000000052296
 31
0.0
1001
ACDBBLOCKREPETAG
1070
     1
1071
       59
1005
12BB11
  0
ARC
  5
12BB12
  8
OBJECT
 10
4583.0
 20
-755.0000000000052296
 30
0.0
 40
3.0
 50
270.0
 51
0.0
1001
ACDBBLOCKREPETAG
1070
     1
1071
       60
1005
12BB12
  0
LINE
  5
12BB13
  8
OBJECT
 10
4586.0
 20
-755.0000000000052296
 30
0.0
 11
4586.0
 21
-637.0000000000055707
 31
0.0
1001
ACDBBLOCKREPETAG
1070
     1
1071
       61
1005
12BB13
  0
LINE
  5
12BB14
  8
HIDDEN
 10
4588.0
 20
-651.5000000000056843
 30
0.0
 11
4588.0
 21
-740.5000000000056843
 31
0.0
1001
ACDBBLOCKREPETAG
1070
     1
1071
       63
1005
12BB14
  0
LINE
  5
12BB15
  8
OBJECT
 10
4423.0
 20
-571.0
 30
0.0
 11
4423.0
 21
-550.0
 31
0.0
1001
ACDBBLOCKREPETAG
1070
     1
1071
        0
1005
12BB15
  0
LINE
  5
12BB16
  8
OBJECT
 10
4423.0
 20
-550.0
 30
0.0
 11
4577.0
 21
-550.0
 31
0.0
1001
ACDBBLOCKREPETAG
1070
     1
1071
        1
1005
12BB16
  0
LINE
  5
12BB17
  8
HIDDEN
 10
4443.0
 20
-620.0
 30
0.0
 11
4557.0
 21
-620.0
 31
0.0
1001
ACDBBLOCKREPETAG
1070
     1
1071
        2
1005
12BB17
  0
LINE
  5
12BB18
  8
OBJECT
 10
4577.0
 20
-550.0
 30
0.0
 11
4577.0
 21
-571.0
 31
0.0
1001
ACDBBLOCKREPETAG
1070
     1
1071
        3
1005
12BB18
  0
LINE
  5
12BB19
  8
OBJECT
 10
4577.0
 20
-571.0
 30
0.0
 11
4423.0
 21
-571.0
 31
0.0
1001
ACDBBLOCKREPETAG
1070
     1
1071
        4
1005
12BB19
  0
LINE
  5
12BB1A
  8
CENTER
 10
4500.0
 20
-535.0
 30
0.0
 11
4500.0
 21
-770.0
 31
0.0
1001
ACDBBLOCKREPETAG
1070
     1
1071
        5
1005
12BB1A
  0
LINE
  5
12BB1B
  8
OBJECT
 10
4425.0
 20
-634.0
 30
0.0
 11
4425.0
 21
-758.0
 31
0.0
1001
ACDBBLOCKREPETAG
1070
     1
1071
        6
1005
12BB1B
  0
LINE
  5
12BB1C
  8
OBJECT
 10
4428.0
 20
-571.0
 30
0.0
 11
4428.0
 21
-634.0
 31
0.0
1001
ACDBBLOCKREPETAG
1070
     1
1071
        7
1005
12BB1C
  0
LINE
  5
12BB1D
  8
OBJECT
 10
4572.0
 20
-634.0
 30
0.0
 11
4572.0
 21
-571.0
 31
0.0
1001
ACDBBLOCKREPETAG
1070
     1
1071
        8
1005
12BB1D
  0
LINE
  5
12BB1E
  8
OBJECT
 10
4420.0
 20
-758.0
 30
0.0
 11
4580.0
 21
-758.0
 31
0.0
1001
ACDBBLOCKREPETAG
1070
     1
1071
        9
1005
12BB1E
  0
LINE
  5
12BB1F
  8
OBJECT
 10
4580.0
 20
-634.0
 30
0.0
 11
4425.0
 21
-634.0
 31
0.0
1001
ACDBBLOCKREPETAG
1070
     1
1071
       10
1005
12BB1F
  0
LINE
  5
12BB20
  8
OBJECT
 10
4420.0
 20
-758.0
 30
0.0
 11
4420.0
 21
-770.0
 31
0.0
1001
ACDBBLOCKREPETAG
1070
     1
1071
       11
1005
12BB20
  0
LINE
  5
12BB21
  8
OBJECT
 10
4420.0
 20
-770.0
 30
0.0
 11
4580.0
 21
-770.0
 31
0.0
1001
ACDBBLOCKREPETAG
1070
     1
1071
       12
1005
12BB21
  0
LINE
  5
12BB22
  8
OBJECT
 10
4580.0
 20
-770.0
 30
0.0
 11
4580.0
 21
-758.0
 31
0.0
1001
ACDBBLOCKREPETAG
1070
     1
1071
       13
1005
12BB22
  0
ARC
  5
12BB23
  8
OBJECT
 10
4700.6872746716735492
 20
-749.4080994101075248
 30
0.0
 40
170.6350503965855978
 50
137.4413445918430057
 51
149.9194958133722082
1001
ACDBBLOCKREPETAG
1070
     1
1071
       15
1005
12BB23
  0
ARC
  5
12BB24
  8
OBJECT
 10
4618.8455987040497348
 20
-705.882726695364795
 30
0.0
 40
78.0722220217636647
 50
147.4551531037683105
 51
164.6636599771867111
1001
ACDBBLOCKREPETAG
1070
     1
1071
       16
1005
12BB24
  0
ARC
  5
12BB25
  8
OBJECT
 10
4585.755434960871753
 20
-696.0
 30
0.0
 40
43.5535392688561771
 50
165.6884523008477004
 51
194.3115476991521859
1001
ACDBBLOCKREPETAG
1070
     1
1071
       17
1005
12BB25
  0
ARC
  5
12BB26
  8
OBJECT
 10
4700.6872746716735492
 20
-642.5919005898921341
 30
0.0
 40
170.6350503965855978
 50
210.0805041866277918
 51
222.5586554081569943
1001
ACDBBLOCKREPETAG
1070
     1
1071
       18
1005
12BB26
  0
ARC
  5
12BB27
  8
OBJECT
 10
4618.8455987040497348
 20
-686.117273304635205
 30
0.0
 40
78.0722220217636647
 50
195.3363400228132889
 51
212.5448468962316042
1001
ACDBBLOCKREPETAG
1070
     1
1071
       19
1005
12BB27
  0
TEXT
  5
12BB28
  8
SLIM
 10
4974.3428571428567011
 20
-824.999999999998181
 30
0.0
 40
24.0
  1
対応m寸法
 41
0.75
  0
TEXT
  5
12BB29
  8
SLIM
 10
4873.8000000000001819
 20
-824.999999999998181
 30
0.0
 40
24.0
  1
P寸法
 41
0.75
  0
TEXT
  5
12BB2A
  8
SLIM
 10
4970.0571428571429351
 20
-872.999999999998181
 30
0.0
 40
24.0
  1
210～340
 41
0.75
  0
TEXT
  5
12BB2B
  8
SLIM
 10
4878.857142857143117
 20
-872.999999999998181
 30
0.0
 40
24.0
  1
220
 41
0.75
  0
TEXT
  5
12BB2C
  8
SLIM
 10
4968.3428571428567011
 20
-920.9999999999980673
 30
0.0
 40
24.0
  1
200～330
 41
0.75
  0
TEXT
  5
12BB2D
  8
SLIM
 10
4878.857142857143117
 20
-920.9999999999980673
 30
0.0
 40
24.0
  1
230
 41
0.75
  0
TEXT
  5
12BB2E
  8
SLIM
 10
4970.0571428571429351
 20
-968.9999999999980673
 30
0.0
 40
24.0
  1
190～320
 41
0.75
  0
TEXT
  5
12BB2F
  8
SLIM
 10
4878.857142857143117
 20
-968.9999999999980673
 30
0.0
 40
24.0
  1
240
 41
0.75
  0
TEXT
  5
12BB30
  8
SLIM
 10
4971.7714285714291691
 20
-1016.9999999999979536
 30
0.0
 40
24.0
  1
190～310
 41
0.75
  0
TEXT
  5
12BB31
  8
SLIM
 10
4878.857142857143117
 20
-1016.9999999999979536
 30
0.0
 40
24.0
  1
250
 41
0.75
  0
TEXT
  5
12BB32
  8
SLIM
 10
4878.857142857143117
 20
-1064.9999999999979536
 30
0.0
 40
24.0
  1
260
 41
0.75
  0
TEXT
  5
12BB33
  8
SLIM
 10
4878.857142857143117
 20
-1112.9999999999979536
 30
0.0
 40
24.0
  1
270
 41
0.75
  0
TEXT
  5
12BB34
  8
SLIM
 10
4878.857142857143117
 20
-1160.9999999999979536
 30
0.0
 40
24.0
  1
280
 41
0.75
  0
TEXT
  5
12BB35
  8
SLIM
 10
4878.857142857143117
 20
-1208.9999999999979536
 30
0.0
 40
24.0
  1
290
 41
0.75
  0
TEXT
  5
12BB36
  8
SLIM
 10
4878.857142857143117
 20
-1256.9999999999979536
 30
0.0
 40
24.0
  1
300
 41
0.75
  0
TEXT
  5
12BB37
  8
SLIM
 10
4880.5714285714284415
 20
-1304.9999999999979536
 30
0.0
 40
24.0
  1
310
 41
0.75
  0
TEXT
  5
12BB38
  8
SLIM
 10
4878.857142857143117
 20
-1352.9999999999979536
 30
0.0
 40
24.0
  1
320
 41
0.75
  0
TEXT
  5
12BB39
  8
SLIM
 10
4948.4571428571443903
 20
-1410.9999999999970441
 30
0.0
 40
24.0
  1
標準：m=240
 41
0.75
  0
TEXT
  5
12BB3A
  8
SLIM
 10
4970.0571428571429351
 20
-1064.9999999999979536
 30
0.0
 40
24.0
  1
190～300
 41
0.75
  0
TEXT
  5
12BB3B
  8
SLIM
 10
4970.0571428571429351
 20
-1112.9999999999979536
 30
0.0
 40
24.0
  1
190～290
 41
0.75
  0
TEXT
  5
12BB3C
  8
SLIM
 10
4970.0571428571429351
 20
-1160.9999999999979536
 30
0.0
 40
24.0
  1
190～280
 41
0.75
  0
TEXT
  5
12BB3D
  8
SLIM
 10
4970.0571428571429351
 20
-1208.9999999999979536
 30
0.0
 40
24.0
  1
190～270
 41
0.75
  0
TEXT
  5
12BB3E
  8
SLIM
 10
4970.0571428571429351
 20
-1256.9999999999979536
 30
0.0
 40
24.0
  1
190～260
 41
0.75
  0
TEXT
  5
12BB3F
  8
SLIM
 10
4970.0571428571429351
 20
-1304.9999999999979536
 30
0.0
 40
24.0
  1
190～250
 41
0.75
  0
TEXT
  5
12BB40
  8
SLIM
 10
4970.0571428571429351
 20
-1352.9999999999979536
 30
0.0
 40
24.0
  1
190～240
 41
0.75
  0
LINE
  5
12C09B
  8
OBJECT
 10
2454.3220385552458538
 20
-176.1757960752491101
 30
0.0
 11
2453.0174047416508074
 21
-174.409264512517808
 31
0.0
  0
ARC
  5
12C09C
  8
OBJECT
 10
2450.3000008247968253
 20
-179.146185358633204
 30
0.0
 40
5.0
 50
0.0
 51
36.4469224760874084
  0
LINE
  5
12C09D
  8
OBJECT
 10
2454.322038555373183
 20
-223.8242039246941033
 30
0.0
 11
2453.0174047417381189
 21
-225.5907354876378861
 31
0.0
  0
ARC
  5
12C09E
  8
OBJECT
 10
2450.3000008247968253
 20
-220.8538146414809944
 30
0.0
 40
5.0
 50
323.5530775262756151
 51
0.0
  0
LINE
  5
12C09F
  8
OBJECT
 10
2455.3000008247968253
 20
-220.8538146414809944
 30
0.0
 11
2455.3000008247968253
 21
-179.146185358633204
 31
0.0
  0
LINE
  5
12C0A0
  8
OBJECT
 10
4454.3220385552458538
 20
-176.1757960752501901
 30
0.0
 11
4453.0174047416512622
 21
-174.4092645125188881
 31
0.0
  0
ARC
  5
12C0A1
  8
OBJECT
 10
4450.3000008247972801
 20
-179.1461853586343125
 30
0.0
 40
5.0
 50
0.0
 51
36.4469224760893482
  0
LINE
  5
12C0A2
  8
OBJECT
 10
4454.322038555373183
 20
-223.8242039246952118
 30
0.0
 11
4453.0174047417376642
 21
-225.5907354876389093
 31
0.0
  0
ARC
  5
12C0A3
  8
OBJECT
 10
4450.3000008247972801
 20
-220.8538146414821028
 30
0.0
 40
5.0
 50
323.5530775262756151
 51
0.0
  0
LINE
  5
12C0A4
  8
OBJECT
 10
4455.3000008247972801
 20
-220.8538146414821028
 30
0.0
 11
4455.3000008247972801
 21
-179.1461853586343125
 31
0.0
  0
VIEWPORT
  5
F6BA7
 67
     1
  8
0
 10
195.9179030619629032
 20
101.8328354358671959
 30
0.0
 40
435.1776330165599802
 41
222.1965796813965142
 68
     1
 69
     1
1001
ACAD
1000
MVIEW
1002
{
1070
    16
1010
0.0
1020
0.0
1030
0.0
1010
0.0
1020
0.0
1030
1.0
1040
0.0
1040
222.1965796813965142
1040
195.9179030619629032
1040
101.8328354358671959
1040
50.0
1040
0.0
1040
0.0
1070
     0
1070
     0
1070
     1
1070
     1
1070
     0
1070
     0
1070
     0
1070
     0
1040
0.0
1040
0.0
1040
0.0
1040
10.0
1040
10.0
1040
10.0
1040
10.0
1070
     0
1002
{
1002
}
1002
}
  0
VIEWPORT
  5
F6BA9
 67
     1
  8
OBJECT
 10
145.3303314447402954
 20
101.8328338861465028
 30
0.0
 40
232.5285303115844044
 41
162.9325342178343021
 68
     2
 69
     2
1001
ACAD
1000
MVIEW
1002
{
1070
    16
1010
0.0
1020
0.0
1030
0.0
1010
0.0
1020
0.0
1030
1.0
1040
0.0
1040
25942.5590440314699663
1040
2377.6044570773769919
1040
-7591.5176687056618903
1040
50.0
1040
0.0
1040
0.0
1070
     0
1070
   600
1070
     1
1070
     1
1070
     0
1070
     0
1070
     0
1070
     0
1040
0.0
1040
0.0
1040
0.0
1040
1.0
1040
1.0
1040
0.0
1040
0.0
1070
     0
1002
{
1002
}
1002
}
  0
ENDSEC
  0
EOF
