  0
SECTION
  2
HEADER
  9
$ACADVER
  1
AC1009
  9
$INSBASE
 10
0.0
 20
0.0
 30
0.0
  9
$EXTMIN
 10
0.0
 20
-3982.4999999999968168
 30
0.0
  9
$EXTMAX
 10
5107.5428571428556097
 20
607.5
 30
0.0
  9
$LIMMIN
 10
0.0
 20
0.0
  9
$LIMMAX
 10
210.0
 20
297.0
  9
$ORTHOMODE
 70
     0
  9
$REGENMODE
 70
     1
  9
$FILLMODE
 70
     1
  9
$QTEXTMODE
 70
     0
  9
$MIRRTEXT
 70
     0
  9
$DRAGMODE
 70
     2
  9
$LTSCALE
 40
1.0
  9
$OSMODE
 70
   295
  9
$ATTMODE
 70
     1
  9
$TEXTSIZE
 40
4.0
  9
$TRACEWID
 40
0.05
  9
$TEXTSTYLE
  7
STANDARD
  9
$CLAYER
  8
SLIM
  9
$CELTYPE
  6
BYLAYER
  9
$CECOLOR
 62
   256
  9
$DIMSCALE
 40
10.0
  9
$DIMASZ
 40
2.0
  9
$DIMEXO
 40
1.0
  9
$DIMDLI
 40
10.0
  9
$DIMRND
 40
0.0
  9
$DIMDLE
 40
0.0
  9
$DIMEXE
 40
1.0
  9
$DIMTP
 40
0.0
  9
$DIMTM
 40
0.0
  9
$DIMTXT
 40
3.2000000000000002
  9
$DIMCEN
 40
0.0
  9
$DIMTSZ
 40
0.0
  9
$DIMTOL
 70
     0
  9
$DIMLIM
 70
     0
  9
$DIMTIH
 70
     0
  9
$DIMTOH
 70
     0
  9
$DIMSE1
 70
     0
  9
$DIMSE2
 70
     0
  9
$DIMTAD
 70
     1
  9
$DIMZIN
 70
     8
  9
$DIMBLK
  1
OPEN30
  9
$DIMASO
 70
     1
  9
$DIMSHO
 70
     1
  9
$DIMPOST
  1

  9
$DIMAPOST
  1

  9
$DIMALT
 70
     0
  9
$DIMALTD
 70
     2
  9
$DIMALTF
 40
25.3999999999999986
  9
$DIMLFAC
 40
1.0
  9
$DIMTOFL
 70
     1
  9
$DIMTVP
 40
0.0
  9
$DIMTIX
 70
     0
  9
$DIMSOXD
 70
     0
  9
$DIMSAH
 70
     0
  9
$DIMBLK1
  1

  9
$DIMBLK2
  1

  9
$DIMSTYLE
  2
S10
  9
$DIMCLRD
 70
   256
  9
$DIMCLRE
 70
   256
  9
$DIMCLRT
 70
   256
  9
$DIMTFAC
 40
1.0
  9
$DIMGAP
 40
0.9
  9
$LUNITS
 70
     2
  9
$LUPREC
 70
     2
  9
$SKETCHINC
 40
0.1
  9
$FILLETRAD
 40
0.0
  9
$AUNITS
 70
     0
  9
$AUPREC
 70
     2
  9
$MENU
  1
ACAD
  9
$ELEVATION
 40
0.0
  9
$PELEVATION
 40
0.0
  9
$THICKNESS
 40
0.0
  9
$LIMCHECK
 70
     0
  9
$BLIPMODE
 70
     0
  9
$CHAMFERA
 40
2.0
  9
$CHAMFERB
 40
2.0
  9
$SKPOLY
 70
     0
  9
$TDCREATE
 40
2453095.4929398149251938
  9
$TDUPDATE
 40
2459942.6060300930403173
  9
$TDINDWG
 40
21.4933547454000013
  9
$TDUSRTIMER
 40
21.493354201399999
  9
$USRTIMER
 70
     1
  9
$ANGBASE
 50
0.0
  9
$ANGDIR
 70
     0
  9
$PDMODE
 70
    35
  9
$PDSIZE
 40
2.0
  9
$PLINEWID
 40
0.0
  9
$COORDS
 70
     1
  9
$SPLFRAME
 70
     0
  9
$SPLINETYPE
 70
     6
  9
$SPLINESEGS
 70
     8
  9
$ATTDIA
 70
     1
  9
$ATTREQ
 70
     1
  9
$HANDLING
 70
     1
  9
$HANDSEED
  5
12A693
  9
$SURFTAB1
 70
     6
  9
$SURFTAB2
 70
     6
  9
$SURFTYPE
 70
     6
  9
$SURFU
 70
     6
  9
$SURFV
 70
     6
  9
$UCSNAME
  2

  9
$UCSORG
 10
0.0
 20
0.0
 30
0.0
  9
$UCSXDIR
 10
1.0
 20
0.0
 30
0.0
  9
$UCSYDIR
 10
0.0
 20
1.0
 30
0.0
  9
$PUCSNAME
  2

  9
$PUCSORG
 10
0.0
 20
0.0
 30
0.0
  9
$PUCSXDIR
 10
1.0
 20
0.0
 30
0.0
  9
$PUCSYDIR
 10
0.0
 20
1.0
 30
0.0
  9
$USERI1
 70
     0
  9
$USERI2
 70
     0
  9
$USERI3
 70
     0
  9
$USERI4
 70
     0
  9
$USERI5
 70
     0
  9
$USERR1
 40
0.0
  9
$USERR2
 40
0.0
  9
$USERR3
 40
0.0
  9
$USERR4
 40
0.0
  9
$USERR5
 40
0.0
  9
$WORLDVIEW
 70
     1
  9
$SHADEDGE
 70
     3
  9
$SHADEDIF
 70
    70
  9
$TILEMODE
 70
     1
  9
$MAXACTVP
 70
    64
  9
$PLIMCHECK
 70
     0
  9
$PEXTMIN
 10
29.0660662889480506
 20
20.3665667772293091
 30
0.0
  9
$PEXTMAX
 10
261.5945966005324976
 20
183.2991009950638102
 30
0.0
  9
$PLIMMIN
 10
-3.17498779296875
 20
-3.1749999523162842
  9
$PLIMMAX
 10
293.835662841796875
 20
206.8406708240509033
  9
$UNITMODE
 70
     0
  9
$VISRETAIN
 70
     1
  9
$PLINEGEN
 70
     0
  9
$PSLTSCALE
 70
     1
  0
ENDSEC
  0
SECTION
  2
TABLES
  0
TABLE
  2
VPORT
 70
     1
  0
VPORT
  2
*ACTIVE
 70
     0
 10
0.0
 20
0.0
 11
1.0
 21
1.0
 12
3228.7669793822769861
 22
-1744.453837682448011
 13
0.0
 23
0.0
 14
1.0
 24
1.0
 15
0.0
 25
0.0
 16
0.0
 26
0.0
 36
1.0
 17
0.0
 27
0.0
 37
0.0
 40
6388.0739157209927725
 41
2.1135135135135128
 42
50.0
 43
0.0
 44
0.0
 50
0.0
 51
0.0
 71
     0
 72
   600
 73
     1
 74
     1
 75
     0
 76
     0
 77
     0
 78
     0
  0
ENDTAB
  0
TABLE
  2
LTYPE
 70
     5
  0
LTYPE
  2
CONTINUOUS
 70
     0
  3
Solid line
 72
    65
 73
     0
 40
0.0
  0
LTYPE
  2
ACAD_ISO08W100
 70
     0
  3
ISO long-dash short-dash ____ __ ____ __ ____ _
 72
    65
 73
     4
 40
36.0
 49
24.0
 49
-3.0
 49
6.0
 49
-3.0
  0
LTYPE
  2
ACAD_ISO02W100
 70
     0
  3
ISO dash __ __ __ __ __ __ __ __ __ __ __ __ __
 72
    65
 73
     2
 40
15.0
 49
12.0
 49
-3.0
  0
ENDTAB
  0
TABLE
  2
LAYER
 70
    11
  0
LAYER
  2
0
 70
     0
 62
     7
  6
CONTINUOUS
  0
LAYER
  2
DEFPOINTS
 70
     0
 62
     7
  6
CONTINUOUS
  0
LAYER
  2
DIM
 70
     0
 62
     7
  6
CONTINUOUS
  0
LAYER
  2
OBJECT
 70
     0
 62
     4
  6
CONTINUOUS
  0
LAYER
  2
HIDDEN
 70
     0
 62
     2
  6
ACAD_ISO02W100
  0
LAYER
  2
CENTER
 70
     0
 62
     2
  6
ACAD_ISO08W100
  0
LAYER
  2
DOTS
 70
     0
 62
     1
  6
CONTINUOUS
  0
LAYER
  2
SLIM
 70
     0
 62
     2
  6
CONTINUOUS
  0
ENDTAB
  0
TABLE
  2
STYLE
 70
     4
  0
STYLE
  2
STANDARD
 70
     0
 40
0.0
 41
0.75
 50
0.0
 71
     0
 42
4.0
  3
simplex.shx
  4
bigfont.shx
  0
ENDTAB
  0
TABLE
  2
VIEW
 70
     1
  0
ENDTAB
  0
TABLE
  2
UCS
 70
     0
  0
ENDTAB
  0
TABLE
  2
APPID
 70
    20
  0
APPID
  2
ACAD
 70
     0
  0
APPID
  2
ACAD_PSEXT
 70
     0
  0
APPID
  2
ACAD_EXEMPT_FROM_CAD_STANDARDS
 70
     0
  0
APPID
  2
ACAECLAYERSTANDARD
 70
     0
  0
APPID
  2
ACAUTHENVIRON
 70
     0
  0
APPID
  2
ACDBDYNAMICBLOCKTRUENAME
 70
     0
  0
APPID
  2
ACDBDYNAMICBLOCKGUID
 70
     0
  0
APPID
  2
ACDBBLOCKREPETAG
 70
     0
  0
APPID
  2
ACDBBLOCKREPBTAG
 70
     0
  0
APPID
  2
ACAD_NAV_VCDISPLAY
 70
     0
  0
APPID
  2
ACAD_DSTYLE_DIMRADIAL_EXTENSION
 70
     0
  0
APPID
  2
ACAD_DSTYLE_DIMJAG
 70
     0
  0
APPID
  2
ACAD_DSTYLE_DIMTALN
 70
     0
  0
APPID
  2
ACADANNOTATIVE
 70
     0
  0
APPID
  2
ACADANNOPO
 70
     0
  0
APPID
  2
GRADIENTCOLOR1ACI
 70
     0
  0
APPID
  2
GRADIENTCOLOR2ACI
 70
     0
  0
APPID
  2
ACADANNOMONITORALERTICONDI
 70
     0
  0
APPID
  2
CONTENTBLOCKICON
 70
     0
  0
APPID
  2
ACAD_MLEADERVER
 70
     0
  0
ENDTAB
  0
TABLE
  2
DIMSTYLE
 70
     3
  0
DIMSTYLE
  2
STANDARD
 70
     0
  3

  4

  5

  6

  7

 40
1.0
 41
0.18
 42
0.0625
 43
0.38
 44
0.18
 45
0.0
 46
0.0
 47
0.0
 48
0.0
140
0.18
141
0.09
142
0.0
143
25.3999999999999986
144
1.0
145
0.0
146
1.0
147
0.09
 71
     0
 72
     0
 73
     1
 74
     1
 75
     0
 76
     0
 77
     0
 78
     0
170
     0
171
     2
172
     0
173
     0
174
     0
175
     0
176
     0
177
     0
178
     0
  0
DIMSTYLE
  2
S10
 70
     0
  3

  4

  5
OPEN30
  6

  7

 40
10.0
 41
2.0
 42
1.0
 43
10.0
 44
1.0
 45
0.0
 46
0.0
 47
0.0
 48
0.0
140
3.2000000000000002
141
0.0
142
0.0
143
25.3999999999999986
144
1.0
145
0.0
146
1.0
147
0.9
 71
     0
 72
     0
 73
     0
 74
     0
 75
     0
 76
     0
 77
     1
 78
     8
170
     0
171
     2
172
     1
173
     0
174
     0
175
     0
176
   256
177
   256
178
   256
  0
ENDTAB
  0
ENDSEC
  0
SECTION
  2
BLOCKS
  0
BLOCK
  8
0
  2
$MODEL_SPACE
 70
     0
 10
0.0
 20
0.0
 30
0.0
  3
$MODEL_SPACE
  1

  0
ENDBLK
  5
20
  8
0
  0
BLOCK
 67
     1
  8
0
  2
$PAPER_SPACE
 70
     0
 10
0.0
 20
0.0
 30
0.0
  3
$PAPER_SPACE
  1

  0
ENDBLK
  5
F6BA3
 67
     1
  8
0
  0
BLOCK
  8
0
  2
_OPEN30
 70
     0
 10
0.0
 20
0.0
 30
0.0
  3
_OPEN30
  1

  0
LINE
  5
202
  8
0
  6
BYBLOCK
 62
     0
 10
-1.0
 20
0.26794919
 30
0.0
 11
0.0
 21
0.0
 31
0.0
  0
LINE
  5
203
  8
0
  6
BYBLOCK
 62
     0
 10
0.0
 20
0.0
 30
0.0
 11
-1.0
 21
-0.26794919
 31
0.0
  0
LINE
  5
204
  8
0
  6
BYBLOCK
 62
     0
 10
0.0
 20
0.0
 30
0.0
 11
-1.0
 21
0.0
 31
0.0
  0
ENDBLK
  5
206
  8
0
  0
BLOCK
  8
0
  2
*U123
 70
     1
 10
0.0
 20
0.0
 30
0.0
  3
*U123
  1

  0
TEXT
  5
12A257
  8
DIM
 10
2707.8409284037338693
 20
-3850.9999999999968168
 30
0.0
 40
32.0
  1
B
 50
90.0
 41
0.75
  0
ENDBLK
  5
12A259
  8
0
  0
BLOCK
  8
0
  2
*U124
 70
     1
 10
0.0
 20
0.0
 30
0.0
  3
*U124
  1

  0
TEXT
  5
12A25B
  8
DIM
 10
2709.4796205944589929
 20
-3469.1428571428527903
 30
0.0
 40
32.0
  1
A
 50
90.0
 41
0.75
  0
ENDBLK
  5
12A25D
  8
0
  0
BLOCK
  8
0
  2
*U125
 70
     1
 10
0.0
 20
0.0
 30
0.0
  3
*U125
  1

  0
TEXT
  5
12A25F
  8
DIM
 10
2561.4285714285711038
 20
-3323.2081219844440056
 30
0.0
 40
32.0
  1
C
 41
0.75
  0
ENDBLK
  5
12A261
  8
0
  0
BLOCK
  8
0
  2
*U126
 70
     1
 10
0.0
 20
0.0
 30
0.0
  3
*U126
  1

  0
TEXT
  5
12A263
  8
SLIM
 10
-21.047619047619051
 20
22.0
 30
0.0
 40
26.0
  1
50
  0
ENDBLK
  5
12A265
  8
0
  0
BLOCK
  8
0
  2
*U127
 70
     1
 10
0.0
 20
0.0
 30
0.0
  3
*U127
  1

  0
TEXT
  5
12A267
  8
SLIM
 10
-21.047619047619051
 20
22.0
 30
0.0
 40
26.0
  1
65
  0
ENDBLK
  5
12A269
  8
0
  0
BLOCK
  8
0
  2
*U128
 70
     1
 10
0.0
 20
0.0
 30
0.0
  3
*U128
  1

  0
TEXT
  5
12A26B
  8
SLIM
 10
-21.047619047619051
 20
22.0
 30
0.0
 40
26.0
  1
75
  0
ENDBLK
  5
12A26D
  8
0
  0
BLOCK
  8
0
  2
*U129
 70
     1
 10
0.0
 20
0.0
 30
0.0
  3
*U129
  1

  0
TEXT
  5
12A26F
  8
SLIM
 10
-30.952380952380949
 20
29.25
 30
0.0
 40
26.0
  1
100
  0
ENDBLK
  5
12A271
  8
0
  0
BLOCK
  8
0
  2
*U130
 70
     1
 10
0.0
 20
0.0
 30
0.0
  3
*U130
  1

  0
TEXT
  5
12A273
  8
SLIM
 10
-33.4285714285714306
 20
91.9999999999854339
 30
0.0
 40
26.0
  1
75Z
  0
ENDBLK
  5
12A275
  8
0
  0
BLOCK
  8
0
  2
*U131
 70
     1
 10
0.0
 20
0.0
 30
0.0
  3
*U131
  1

  0
TEXT
  5
12A277
  8
SLIM
 10
-33.4285714285714235
 20
101.9999999999821938
 30
0.0
 40
26.0
  1
75Z
  0
ENDBLK
  5
12A279
  8
0
  0
BLOCK
  8
0
  2
*U132
 70
     1
 10
0.0
 20
0.0
 30
0.0
  3
*U132
  1

  0
TEXT
  5
12A27B
  8
SLIM
 10
-43.3333333333333286
 20
79.25
 30
0.0
 40
26.0
  1
100Z
  0
ENDBLK
  5
12A27D
  8
0
  0
BLOCK
  8
0
  2
*U133
 70
     1
 10
0.0
 20
0.0
 30
0.0
  3
*U133
  1

  0
TEXT
  5
12A294
  8
SLIM
 10
-33.4285714285714306
 20
57.0
 30
0.0
 40
26.0
  1
75U
  0
ENDBLK
  5
12A296
  8
0
  0
BLOCK
  8
0
  2
*U134
 70
     1
 10
0.0
 20
0.0
 30
0.0
  3
*U134
  1

  0
TEXT
  5
12A298
  8
SLIM
 10
62.0000000000000071
 20
92.190476190476204
 30
0.0
 40
26.0
  1
50L
 50
270.0
  0
ENDBLK
  5
12A29A
  8
0
  0
BLOCK
  8
0
  2
*U135
 70
     1
 10
0.0
 20
0.0
 30
0.0
  3
*U135
  1

  0
TEXT
  5
12A29C
  8
SLIM
 10
62.0000000000000071
 20
92.190476190476204
 30
0.0
 40
26.0
  1
65L
 50
270.0
  0
ENDBLK
  5
12A29E
  8
0
  0
BLOCK
  8
0
  2
*U136
 70
     1
 10
0.0
 20
0.0
 30
0.0
  3
*U136
  1

  0
TEXT
  5
12A2A0
  8
SLIM
 10
72.0000000000000142
 20
102.190476190476204
 30
0.0
 40
26.0
  1
75L
 50
270.0
  0
ENDBLK
  5
12A2A2
  8
0
  0
BLOCK
  8
0
  2
*U137
 70
     1
 10
0.0
 20
0.0
 30
0.0
  3
*U137
  1

  0
TEXT
  5
12A2A4
  8
SLIM
 10
-62.0
 20
26.5714285714285801
 30
0.0
 40
26.0
  1
50R
 50
90.0000000000000284
  0
ENDBLK
  5
12A2A6
  8
0
  0
BLOCK
  8
0
  2
*U138
 70
     1
 10
0.0
 20
0.0
 30
0.0
  3
*U138
  1

  0
TEXT
  5
12A2A8
  8
SLIM
 10
-62.0
 20
26.5714285714285801
 30
0.0
 40
26.0
  1
65R
 50
90.0000000000000284
  0
ENDBLK
  5
12A2AA
  8
0
  0
BLOCK
  8
0
  2
*U139
 70
     1
 10
0.0
 20
0.0
 30
0.0
  3
*U139
  1

  0
TEXT
  5
12A2AC
  8
SLIM
 10
-72.0
 20
36.5714285714285694
 30
0.0
 40
26.0
  1
75R
 50
90.0000000000000284
  0
ENDBLK
  5
12A2AE
  8
0
  0
BLOCK
  8
0
  2
*U140
 70
     1
 10
0.0
 20
0.0
 30
0.0
  3
*U140
  1

  0
TEXT
  5
12A2B0
  8
SLIM
 10
-22.9047619047619087
 20
60.0
 30
0.0
 40
26.0
  1
CO
  0
ENDBLK
  5
12A2B2
  8
0
  0
BLOCK
  8
0
  2
*U141
 70
     1
 10
0.0
 20
0.0
 30
0.0
  3
*U141
  1

  0
TEXT
  5
12A2B4
  8
SLIM
 10
-33.4285714285714306
 20
91.9999999999854339
 30
0.0
 40
26.0
  1
75Z
  0
ENDBLK
  5
12A2B6
  8
0
  0
BLOCK
  8
0
  2
*U142
 70
     1
 10
0.0
 20
0.0
 30
0.0
  3
*U142
  1

  0
TEXT
  5
12A2B8
  8
SLIM
 10
-27.7333333333333307
 20
140.9999999999853912
 30
0.0
 40
26.0
  1
通気
  0
ENDBLK
  5
12A2BA
  8
0
  0
BLOCK
  8
0
  2
*U143
 70
     1
 10
0.0
 20
0.0
 30
0.0
  3
*U143
  1

  0
TEXT
  5
12A2BC
  8
SLIM
 10
-33.4285714285714306
 20
91.9999999999854339
 30
0.0
 40
26.0
  1
75Z
  0
ENDBLK
  5
12A2BE
  8
0
  0
BLOCK
  8
0
  2
*U144
 70
     1
 10
0.0
 20
0.0
 30
0.0
  3
*U144
  1

  0
TEXT
  5
12A2C0
  8
SLIM
 10
72.2666666666666657
 20
91.9999999999854339
 30
0.0
 40
26.0
  1
通気
  0
ENDBLK
  5
12A2C2
  8
0
  0
BLOCK
  8
0
  2
*U145
 70
     1
 10
0.0
 20
0.0
 30
0.0
  3
*U145
  1

  0
TEXT
  5
12A2C4
  8
SLIM
 10
-27.7333333333333307
 20
131.0
 30
0.0
 40
26.0
  1
通気
  0
ENDBLK
  5
12A2C6
  8
0
  0
BLOCK
  8
0
  2
*U146
 70
     1
 10
0.0
 20
0.0
 30
0.0
  3
*U146
  1

  0
TEXT
  5
12A2C8
  8
SLIM
 10
-43.3333333333333286
 20
79.25
 30
0.0
 40
26.0
  1
100Z
  0
ENDBLK
  5
12A2CA
  8
0
  0
BLOCK
  8
0
  2
*U147
 70
     1
 10
0.0
 20
0.0
 30
0.0
  3
*U147
  1

  0
TEXT
  5
12A2CC
  8
SLIM
 10
85.2666666666666657
 20
79.25
 30
0.0
 40
26.0
  1
通気
  0
ENDBLK
  5
12A2CE
  8
0
  0
BLOCK
  8
0
  2
*U148
 70
     1
 10
0.0
 20
0.0
 30
0.0
  3
*U148
  1

  0
TEXT
  5
12A2D0
  8
SLIM
 10
-21.0476190476190617
 20
-53.0
 30
0.0
 40
26.0
  1
50
  0
ENDBLK
  5
12A2D2
  8
0
  0
BLOCK
  8
0
  2
*U149
 70
     1
 10
0.0
 20
0.0
 30
0.0
  3
*U149
  1

  0
TEXT
  5
12A2D4
  8
SLIM
 10
-21.0476190476190617
 20
-53.0
 30
0.0
 40
26.0
  1
65
  0
ENDBLK
  5
12A2D6
  8
0
  0
BLOCK
  8
0
  2
*U150
 70
     1
 10
0.0
 20
0.0
 30
0.0
  3
*U150
  1

  0
TEXT
  5
12A2D8
  8
SLIM
 10
-21.0476190476190617
 20
-53.0
 30
0.0
 40
26.0
  1
75
  0
ENDBLK
  5
12A2DA
  8
0
  0
BLOCK
  8
0
  2
*U151
 70
     1
 10
0.0
 20
0.0
 30
0.0
  3
*U151
  1

  0
TEXT
  5
12A2DC
  8
SLIM
 10
-21.0476190476190617
 20
-53.0
 30
0.0
 40
26.0
  1
50
  0
ENDBLK
  5
12A2DE
  8
0
  0
BLOCK
  8
0
  2
*U152
 70
     1
 10
0.0
 20
0.0
 30
0.0
  3
*U152
  1

  0
TEXT
  5
12A2E0
  8
SLIM
 10
-21.0476190476190617
 20
-53.0
 30
0.0
 40
26.0
  1
65
  0
ENDBLK
  5
12A2E2
  8
0
  0
BLOCK
  8
0
  2
*U153
 70
     1
 10
0.0
 20
0.0
 30
0.0
  3
*U153
  1

  0
TEXT
  5
12A2E4
  8
SLIM
 10
-21.0476190476190617
 20
-53.0
 30
0.0
 40
26.0
  1
75
  0
ENDBLK
  5
12A2E6
  8
0
  0
BLOCK
  8
0
  2
*U154
 70
     1
 10
0.0
 20
0.0
 30
0.0
  3
*U154
  1

  0
TEXT
  5
12A2E8
  8
SLIM
 10
-21.047619047619051
 20
22.0
 30
0.0
 40
26.0
  1
50
  0
ENDBLK
  5
12A2EA
  8
0
  0
BLOCK
  8
0
  2
*U155
 70
     1
 10
0.0
 20
0.0
 30
0.0
  3
*U155
  1

  0
TEXT
  5
12A2EC
  8
SLIM
 10
-21.047619047619051
 20
22.0
 30
0.0
 40
26.0
  1
65
  0
ENDBLK
  5
12A2EE
  8
0
  0
BLOCK
  8
0
  2
*U156
 70
     1
 10
0.0
 20
0.0
 30
0.0
  3
*U156
  1

  0
TEXT
  5
12A2F0
  8
SLIM
 10
-21.047619047619051
 20
22.0
 30
0.0
 40
26.0
  1
75
  0
ENDBLK
  5
12A2F2
  8
0
  0
BLOCK
  8
0
  2
*U157
 70
     1
 10
0.0
 20
0.0
 30
0.0
  3
*U157
  1

  0
TEXT
  5
12A2F4
  8
SLIM
 10
-30.952380952380949
 20
29.25
 30
0.0
 40
26.0
  1
100
  0
ENDBLK
  5
12A2F6
  8
0
  0
BLOCK
  8
0
  2
*U158
 70
     1
 10
0.0
 20
0.0
 30
0.0
  3
*U158
  1

  0
TEXT
  5
12A2F8
  8
SLIM
 10
-33.4285714285714306
 20
91.9999999999854339
 30
0.0
 40
26.0
  1
75Z
  0
ENDBLK
  5
12A2FA
  8
0
  0
BLOCK
  8
0
  2
*U159
 70
     1
 10
0.0
 20
0.0
 30
0.0
  3
*U159
  1

  0
TEXT
  5
12A2FC
  8
SLIM
 10
-33.4285714285714235
 20
101.9999999999821938
 30
0.0
 40
26.0
  1
75Z
  0
ENDBLK
  5
12A2FE
  8
0
  0
BLOCK
  8
0
  2
*U160
 70
     1
 10
0.0
 20
0.0
 30
0.0
  3
*U160
  1

  0
TEXT
  5
12A300
  8
SLIM
 10
-43.3333333333333286
 20
79.25
 30
0.0
 40
26.0
  1
100Z
  0
ENDBLK
  5
12A302
  8
0
  0
BLOCK
  8
0
  2
*U161
 70
     1
 10
0.0
 20
0.0
 30
0.0
  3
*U161
  1

  0
TEXT
  5
12A319
  8
SLIM
 10
-33.4285714285714306
 20
57.0
 30
0.0
 40
26.0
  1
75U
  0
ENDBLK
  5
12A31B
  8
0
  0
BLOCK
  8
0
  2
*U162
 70
     1
 10
0.0
 20
0.0
 30
0.0
  3
*U162
  1

  0
TEXT
  5
12A31D
  8
SLIM
 10
62.0000000000000071
 20
92.190476190476204
 30
0.0
 40
26.0
  1
50L
 50
270.0
  0
ENDBLK
  5
12A31F
  8
0
  0
BLOCK
  8
0
  2
*U163
 70
     1
 10
0.0
 20
0.0
 30
0.0
  3
*U163
  1

  0
TEXT
  5
12A321
  8
SLIM
 10
62.0000000000000071
 20
92.190476190476204
 30
0.0
 40
26.0
  1
65L
 50
270.0
  0
ENDBLK
  5
12A323
  8
0
  0
BLOCK
  8
0
  2
*U164
 70
     1
 10
0.0
 20
0.0
 30
0.0
  3
*U164
  1

  0
TEXT
  5
12A325
  8
SLIM
 10
72.0000000000000142
 20
102.190476190476204
 30
0.0
 40
26.0
  1
75L
 50
270.0
  0
ENDBLK
  5
12A327
  8
0
  0
BLOCK
  8
0
  2
*U165
 70
     1
 10
0.0
 20
0.0
 30
0.0
  3
*U165
  1

  0
TEXT
  5
12A329
  8
SLIM
 10
-62.0
 20
26.5714285714285801
 30
0.0
 40
26.0
  1
50R
 50
90.0000000000000284
  0
ENDBLK
  5
12A32B
  8
0
  0
BLOCK
  8
0
  2
*U166
 70
     1
 10
0.0
 20
0.0
 30
0.0
  3
*U166
  1

  0
TEXT
  5
12A32D
  8
SLIM
 10
-62.0
 20
26.5714285714285801
 30
0.0
 40
26.0
  1
65R
 50
90.0000000000000284
  0
ENDBLK
  5
12A32F
  8
0
  0
BLOCK
  8
0
  2
*U167
 70
     1
 10
0.0
 20
0.0
 30
0.0
  3
*U167
  1

  0
TEXT
  5
12A331
  8
SLIM
 10
-72.0
 20
36.5714285714285694
 30
0.0
 40
26.0
  1
75R
 50
90.0000000000000284
  0
ENDBLK
  5
12A333
  8
0
  0
BLOCK
  8
0
  2
*U168
 70
     1
 10
0.0
 20
0.0
 30
0.0
  3
*U168
  1

  0
TEXT
  5
12A335
  8
SLIM
 10
-22.9047619047619087
 20
60.0
 30
0.0
 40
26.0
  1
CO
  0
ENDBLK
  5
12A337
  8
0
  0
BLOCK
  8
0
  2
*U169
 70
     1
 10
0.0
 20
0.0
 30
0.0
  3
*U169
  1

  0
TEXT
  5
12A339
  8
SLIM
 10
-33.4285714285714306
 20
91.9999999999854339
 30
0.0
 40
26.0
  1
75Z
  0
ENDBLK
  5
12A33B
  8
0
  0
BLOCK
  8
0
  2
*U170
 70
     1
 10
0.0
 20
0.0
 30
0.0
  3
*U170
  1

  0
TEXT
  5
12A33D
  8
SLIM
 10
-27.7333333333333307
 20
140.9999999999853912
 30
0.0
 40
26.0
  1
通気
  0
ENDBLK
  5
12A33F
  8
0
  0
BLOCK
  8
0
  2
*U171
 70
     1
 10
0.0
 20
0.0
 30
0.0
  3
*U171
  1

  0
TEXT
  5
12A341
  8
SLIM
 10
-33.4285714285714306
 20
91.9999999999854339
 30
0.0
 40
26.0
  1
75Z
  0
ENDBLK
  5
12A343
  8
0
  0
BLOCK
  8
0
  2
*U172
 70
     1
 10
0.0
 20
0.0
 30
0.0
  3
*U172
  1

  0
TEXT
  5
12A345
  8
SLIM
 10
72.2666666666666657
 20
91.9999999999854339
 30
0.0
 40
26.0
  1
通気
  0
ENDBLK
  5
12A347
  8
0
  0
BLOCK
  8
0
  2
*U173
 70
     1
 10
0.0
 20
0.0
 30
0.0
  3
*U173
  1

  0
TEXT
  5
12A349
  8
SLIM
 10
-27.7333333333333307
 20
131.0
 30
0.0
 40
26.0
  1
通気
  0
ENDBLK
  5
12A34B
  8
0
  0
BLOCK
  8
0
  2
*U174
 70
     1
 10
0.0
 20
0.0
 30
0.0
  3
*U174
  1

  0
TEXT
  5
12A34D
  8
SLIM
 10
-43.3333333333333286
 20
79.25
 30
0.0
 40
26.0
  1
100Z
  0
ENDBLK
  5
12A34F
  8
0
  0
BLOCK
  8
0
  2
*U175
 70
     1
 10
0.0
 20
0.0
 30
0.0
  3
*U175
  1

  0
TEXT
  5
12A351
  8
SLIM
 10
85.2666666666666657
 20
79.25
 30
0.0
 40
26.0
  1
通気
  0
ENDBLK
  5
12A353
  8
0
  0
BLOCK
  8
0
  2
*U176
 70
     1
 10
0.0
 20
0.0
 30
0.0
  3
*U176
  1

  0
TEXT
  5
12A355
  8
SLIM
 10
-21.0476190476190617
 20
-53.0
 30
0.0
 40
26.0
  1
50
  0
ENDBLK
  5
12A357
  8
0
  0
BLOCK
  8
0
  2
*U177
 70
     1
 10
0.0
 20
0.0
 30
0.0
  3
*U177
  1

  0
TEXT
  5
12A359
  8
SLIM
 10
-21.0476190476190617
 20
-53.0
 30
0.0
 40
26.0
  1
65
  0
ENDBLK
  5
12A35B
  8
0
  0
BLOCK
  8
0
  2
*U178
 70
     1
 10
0.0
 20
0.0
 30
0.0
  3
*U178
  1

  0
TEXT
  5
12A35D
  8
SLIM
 10
-21.0476190476190617
 20
-53.0
 30
0.0
 40
26.0
  1
75
  0
ENDBLK
  5
12A35F
  8
0
  0
BLOCK
  8
0
  2
*U179
 70
     1
 10
0.0
 20
0.0
 30
0.0
  3
*U179
  1

  0
TEXT
  5
12A361
  8
SLIM
 10
-21.0476190476190617
 20
-53.0
 30
0.0
 40
26.0
  1
50
  0
ENDBLK
  5
12A363
  8
0
  0
BLOCK
  8
0
  2
*U180
 70
     1
 10
0.0
 20
0.0
 30
0.0
  3
*U180
  1

  0
TEXT
  5
12A365
  8
SLIM
 10
-21.0476190476190617
 20
-53.0
 30
0.0
 40
26.0
  1
65
  0
ENDBLK
  5
12A367
  8
0
  0
BLOCK
  8
0
  2
*U181
 70
     1
 10
0.0
 20
0.0
 30
0.0
  3
*U181
  1

  0
TEXT
  5
12A369
  8
SLIM
 10
-21.0476190476190617
 20
-53.0
 30
0.0
 40
26.0
  1
75
  0
ENDBLK
  5
12A36B
  8
0
  0
BLOCK
  8
0
  2
*U182
 70
     1
 10
0.0
 20
0.0
 30
0.0
  3
*U182
  1

  0
TEXT
  5
12A36D
  8
SLIM
 10
27.0
 20
21.0476190476190403
 30
0.0
 40
26.0
  1
50
 50
270.0
  0
ENDBLK
  5
12A36F
  8
0
  0
BLOCK
  8
0
  2
*U183
 70
     1
 10
0.0
 20
0.0
 30
0.0
  3
*U183
  1

  0
TEXT
  5
12A371
  8
SLIM
 10
27.0
 20
21.047619047619051
 30
0.0
 40
26.0
  1
75
 50
270.0
  0
ENDBLK
  5
12A373
  8
0
  0
BLOCK
  8
0
  2
*U184
 70
     1
 10
0.0
 20
0.0
 30
0.0
  3
*U184
  1

  0
TEXT
  5
12A375
  8
SLIM
 10
27.0
 20
21.0476190476190403
 30
0.0
 40
26.0
  1
65
 50
270.0
  0
ENDBLK
  5
12A377
  8
0
  0
BLOCK
  8
0
  2
*U185
 70
     1
 10
0.0
 20
0.0
 30
0.0
  3
*U185
  1

  0
TEXT
  5
12A379
  8
SLIM
 10
27.0
 20
21.0476190476190403
 30
0.0
 40
26.0
  1
50
 50
270.0
  0
ENDBLK
  5
12A37B
  8
0
  0
BLOCK
  8
0
  2
*U186
 70
     1
 10
0.0
 20
0.0
 30
0.0
  3
*U186
  1

  0
TEXT
  5
12A37D
  8
SLIM
 10
27.0
 20
21.047619047619051
 30
0.0
 40
26.0
  1
75
 50
270.0
  0
ENDBLK
  5
12A37F
  8
0
  0
BLOCK
  8
0
  2
*U187
 70
     1
 10
0.0
 20
0.0
 30
0.0
  3
*U187
  1

  0
TEXT
  5
12A381
  8
SLIM
 10
27.0
 20
21.0476190476190403
 30
0.0
 40
26.0
  1
65
 50
270.0
  0
ENDBLK
  5
12A383
  8
0
  0
BLOCK
  8
0
  2
*U188
 70
     1
 10
0.0
 20
0.0
 30
0.0
  3
*U188
  1

  0
TEXT
  5
12A385
  8
SLIM
 10
-21.0476190476190617
 20
-53.0
 30
0.0
 40
26.0
  1
50
  0
ENDBLK
  5
12A387
  8
0
  0
BLOCK
  8
0
  2
*U189
 70
     1
 10
0.0
 20
0.0
 30
0.0
  3
*U189
  1

  0
TEXT
  5
12A389
  8
SLIM
 10
-21.0476190476190617
 20
-53.0
 30
0.0
 40
26.0
  1
65
  0
ENDBLK
  5
12A38B
  8
0
  0
BLOCK
  8
0
  2
*U190
 70
     1
 10
0.0
 20
0.0
 30
0.0
  3
*U190
  1

  0
TEXT
  5
12A38D
  8
SLIM
 10
-21.0476190476190617
 20
-53.0
 30
0.0
 40
26.0
  1
75
  0
ENDBLK
  5
12A38F
  8
0
  0
BLOCK
  8
0
  2
*U191
 70
     1
 10
0.0
 20
0.0
 30
0.0
  3
*U191
  1

  0
TEXT
  5
12A391
  8
SLIM
 10
-21.0476190476190617
 20
-53.0
 30
0.0
 40
26.0
  1
50
  0
ENDBLK
  5
12A393
  8
0
  0
BLOCK
  8
0
  2
*U192
 70
     1
 10
0.0
 20
0.0
 30
0.0
  3
*U192
  1

  0
TEXT
  5
12A395
  8
SLIM
 10
-21.0476190476190617
 20
-53.0
 30
0.0
 40
26.0
  1
65
  0
ENDBLK
  5
12A397
  8
0
  0
BLOCK
  8
0
  2
*U193
 70
     1
 10
0.0
 20
0.0
 30
0.0
  3
*U193
  1

  0
TEXT
  5
12A399
  8
SLIM
 10
-21.0476190476190617
 20
-53.0
 30
0.0
 40
26.0
  1
75
  0
ENDBLK
  5
12A39B
  8
0
  0
BLOCK
  8
0
  2
*U194
 70
     1
 10
0.0
 20
0.0
 30
0.0
  3
*U194
  1

  0
TEXT
  5
12A39D
  8
SLIM
 10
27.0
 20
21.0476190476190403
 30
0.0
 40
26.0
  1
50
 50
270.0
  0
ENDBLK
  5
12A39F
  8
0
  0
BLOCK
  8
0
  2
*U195
 70
     1
 10
0.0
 20
0.0
 30
0.0
  3
*U195
  1

  0
TEXT
  5
12A3A1
  8
SLIM
 10
27.0
 20
21.047619047619051
 30
0.0
 40
26.0
  1
75
 50
270.0
  0
ENDBLK
  5
12A3A3
  8
0
  0
BLOCK
  8
0
  2
*U196
 70
     1
 10
0.0
 20
0.0
 30
0.0
  3
*U196
  1

  0
TEXT
  5
12A3A5
  8
SLIM
 10
27.0
 20
21.0476190476190403
 30
0.0
 40
26.0
  1
65
 50
270.0
  0
ENDBLK
  5
12A3A7
  8
0
  0
BLOCK
  8
0
  2
*U197
 70
     1
 10
0.0
 20
0.0
 30
0.0
  3
*U197
  1

  0
TEXT
  5
12A3A9
  8
SLIM
 10
27.0
 20
21.0476190476190403
 30
0.0
 40
26.0
  1
50
 50
270.0
  0
ENDBLK
  5
12A3AB
  8
0
  0
BLOCK
  8
0
  2
*U198
 70
     1
 10
0.0
 20
0.0
 30
0.0
  3
*U198
  1

  0
TEXT
  5
12A3AD
  8
SLIM
 10
27.0
 20
21.047619047619051
 30
0.0
 40
26.0
  1
75
 50
270.0
  0
ENDBLK
  5
12A3AF
  8
0
  0
BLOCK
  8
0
  2
*U199
 70
     1
 10
0.0
 20
0.0
 30
0.0
  3
*U199
  1

  0
TEXT
  5
12A3B1
  8
SLIM
 10
27.0
 20
21.0476190476190403
 30
0.0
 40
26.0
  1
65
 50
270.0
  0
ENDBLK
  5
12A3B3
  8
0
  0
BLOCK
  8
0
  2
*U200
 70
     1
 10
0.0
 20
0.0
 30
0.0
  3
*U200
  1

  0
TEXT
  5
12A3B5
  8
SLIM
 10
27.0
 20
21.0476190476190403
 30
0.0
 40
26.0
  1
50
 50
270.0
  0
ENDBLK
  5
12A3B7
  8
0
  0
BLOCK
  8
0
  2
*U201
 70
     1
 10
0.0
 20
0.0
 30
0.0
  3
*U201
  1

  0
TEXT
  5
12A3B9
  8
SLIM
 10
27.0
 20
21.047619047619051
 30
0.0
 40
26.0
  1
75
 50
270.0
  0
ENDBLK
  5
12A3BB
  8
0
  0
BLOCK
  8
0
  2
*U202
 70
     1
 10
0.0
 20
0.0
 30
0.0
  3
*U202
  1

  0
TEXT
  5
12A3BD
  8
SLIM
 10
27.0
 20
21.0476190476190403
 30
0.0
 40
26.0
  1
65
 50
270.0
  0
ENDBLK
  5
12A3BF
  8
0
  0
BLOCK
  8
0
  2
*U203
 70
     1
 10
0.0
 20
0.0
 30
0.0
  3
*U203
  1

  0
TEXT
  5
12A3C1
  8
SLIM
 10
27.0
 20
21.0476190476190403
 30
0.0
 40
26.0
  1
50
 50
270.0
  0
ENDBLK
  5
12A3C3
  8
0
  0
BLOCK
  8
0
  2
*U204
 70
     1
 10
0.0
 20
0.0
 30
0.0
  3
*U204
  1

  0
TEXT
  5
12A3C5
  8
SLIM
 10
27.0
 20
21.047619047619051
 30
0.0
 40
26.0
  1
75
 50
270.0
  0
ENDBLK
  5
12A3C7
  8
0
  0
BLOCK
  8
0
  2
*U205
 70
     1
 10
0.0
 20
0.0
 30
0.0
  3
*U205
  1

  0
TEXT
  5
12A3C9
  8
SLIM
 10
27.0
 20
21.0476190476190403
 30
0.0
 40
26.0
  1
65
 50
270.0
  0
ENDBLK
  5
12A3CB
  8
0
  0
BLOCK
  8
0
  2
*U206
 70
     1
 10
0.0
 20
0.0
 30
0.0
  3
*U206
  1

  0
TEXT
  5
12A3CD
  8
SLIM
 10
27.0
 20
21.0476190476190403
 30
0.0
 40
26.0
  1
50
 50
270.0
  0
ENDBLK
  5
12A3CF
  8
0
  0
BLOCK
  8
0
  2
*U207
 70
     1
 10
0.0
 20
0.0
 30
0.0
  3
*U207
  1

  0
TEXT
  5
12A3D1
  8
SLIM
 10
27.0
 20
21.047619047619051
 30
0.0
 40
26.0
  1
75
 50
270.0
  0
ENDBLK
  5
12A3D3
  8
0
  0
BLOCK
  8
0
  2
*U208
 70
     1
 10
0.0
 20
0.0
 30
0.0
  3
*U208
  1

  0
TEXT
  5
12A3D5
  8
SLIM
 10
27.0
 20
21.0476190476190403
 30
0.0
 40
26.0
  1
65
 50
270.0
  0
ENDBLK
  5
12A3D7
  8
0
  0
BLOCK
  8
0
  2
*U209
 70
     1
 10
0.0
 20
0.0
 30
0.0
  3
*U209
  1

  0
TEXT
  5
12A3D9
  8
SLIM
 10
27.0
 20
21.0476190476190403
 30
0.0
 40
26.0
  1
50
 50
270.0
  0
ENDBLK
  5
12A3DB
  8
0
  0
BLOCK
  8
0
  2
*U210
 70
     1
 10
0.0
 20
0.0
 30
0.0
  3
*U210
  1

  0
TEXT
  5
12A3DD
  8
SLIM
 10
27.0
 20
21.047619047619051
 30
0.0
 40
26.0
  1
75
 50
270.0
  0
ENDBLK
  5
12A3DF
  8
0
  0
BLOCK
  8
0
  2
*U211
 70
     1
 10
0.0
 20
0.0
 30
0.0
  3
*U211
  1

  0
TEXT
  5
12A3E1
  8
SLIM
 10
27.0
 20
21.0476190476190403
 30
0.0
 40
26.0
  1
65
 50
270.0
  0
ENDBLK
  5
12A3E3
  8
0
  0
BLOCK
  8
0
  2
*U212
 70
     1
 10
0.0
 20
0.0
 30
0.0
  3
*U212
  1

  0
TEXT
  5
12A3E5
  8
SLIM
 10
-21.0476190476190617
 20
-53.0
 30
0.0
 40
26.0
  1
50
  0
ENDBLK
  5
12A3E7
  8
0
  0
BLOCK
  8
0
  2
*U213
 70
     1
 10
0.0
 20
0.0
 30
0.0
  3
*U213
  1

  0
TEXT
  5
12A3E9
  8
SLIM
 10
-21.0476190476190617
 20
-53.0
 30
0.0
 40
26.0
  1
65
  0
ENDBLK
  5
12A3EB
  8
0
  0
BLOCK
  8
0
  2
*U214
 70
     1
 10
0.0
 20
0.0
 30
0.0
  3
*U214
  1

  0
TEXT
  5
12A3ED
  8
SLIM
 10
-21.0476190476190617
 20
-53.0
 30
0.0
 40
26.0
  1
75
  0
ENDBLK
  5
12A3EF
  8
0
  0
BLOCK
  8
0
  2
*U215
 70
     1
 10
0.0
 20
0.0
 30
0.0
  3
*U215
  1

  0
TEXT
  5
12A3F1
  8
SLIM
 10
-21.0476190476190617
 20
-53.0
 30
0.0
 40
26.0
  1
50
  0
ENDBLK
  5
12A3F3
  8
0
  0
BLOCK
  8
0
  2
*U216
 70
     1
 10
0.0
 20
0.0
 30
0.0
  3
*U216
  1

  0
TEXT
  5
12A3F5
  8
SLIM
 10
-21.0476190476190617
 20
-53.0
 30
0.0
 40
26.0
  1
65
  0
ENDBLK
  5
12A3F7
  8
0
  0
BLOCK
  8
0
  2
*U217
 70
     1
 10
0.0
 20
0.0
 30
0.0
  3
*U217
  1

  0
TEXT
  5
12A3F9
  8
SLIM
 10
-21.0476190476190617
 20
-53.0
 30
0.0
 40
26.0
  1
75
  0
ENDBLK
  5
12A3FB
  8
0
  0
BLOCK
  8
0
  2
*U218
 70
     1
 10
0.0
 20
0.0
 30
0.0
  3
*U218
  1

  0
TEXT
  5
12A3FD
  8
SLIM
 10
-21.0476190476190617
 20
-53.0
 30
0.0
 40
26.0
  1
50
  0
ENDBLK
  5
12A3FF
  8
0
  0
BLOCK
  8
0
  2
*U219
 70
     1
 10
0.0
 20
0.0
 30
0.0
  3
*U219
  1

  0
TEXT
  5
12A401
  8
SLIM
 10
-21.0476190476190617
 20
-53.0
 30
0.0
 40
26.0
  1
65
  0
ENDBLK
  5
12A403
  8
0
  0
BLOCK
  8
0
  2
*U220
 70
     1
 10
0.0
 20
0.0
 30
0.0
  3
*U220
  1

  0
TEXT
  5
12A405
  8
SLIM
 10
-21.0476190476190617
 20
-53.0
 30
0.0
 40
26.0
  1
75
  0
ENDBLK
  5
12A407
  8
0
  0
BLOCK
  8
0
  2
*U221
 70
     1
 10
0.0
 20
0.0
 30
0.0
  3
*U221
  1

  0
TEXT
  5
12A409
  8
SLIM
 10
-21.0476190476190617
 20
-53.0
 30
0.0
 40
26.0
  1
50
  0
ENDBLK
  5
12A40B
  8
0
  0
BLOCK
  8
0
  2
*U222
 70
     1
 10
0.0
 20
0.0
 30
0.0
  3
*U222
  1

  0
TEXT
  5
12A40D
  8
SLIM
 10
-21.0476190476190617
 20
-53.0
 30
0.0
 40
26.0
  1
65
  0
ENDBLK
  5
12A40F
  8
0
  0
BLOCK
  8
0
  2
*U223
 70
     1
 10
0.0
 20
0.0
 30
0.0
  3
*U223
  1

  0
TEXT
  5
12A411
  8
SLIM
 10
-21.0476190476190617
 20
-53.0
 30
0.0
 40
26.0
  1
75
  0
ENDBLK
  5
12A413
  8
0
  0
BLOCK
  8
0
  2
*X224
 70
     1
 10
0.0
 20
0.0
 30
0.0
  3
*X224
  1

  0
LINE
  5
12A415
  8
0
 62
     0
 10
37.6366622925280723
 20
76.0952570489552045
 30
0.0
 11
37.4041347119712171
 21
76.3277846295120526
 31
0.0
  0
LINE
  5
12A416
  8
0
 62
     0
 10
46.6169184135972117
 20
67.115000927886058
 30
0.0
 11
42.1267903530626384
 21
71.6051289884206312
 31
0.0
  0
LINE
  5
12A417
  8
0
 62
     0
 10
51.7319193414850815
 20
61.999999999998181
 30
0.0
 11
51.107046474131792
 21
62.6248728673514705
 31
0.0
  0
LINE
  5
12A418
  8
0
 62
     0
 10
28.6564061714586806
 20
76.0952570489573645
 30
0.0
 11
24.1662781109241109
 21
80.5853851094919378
 31
0.0
  0
LINE
  5
12A419
  8
0
 62
     0
 10
17.7699369887332104
 20
78.0014701106156281
 30
0.0
 11
15.1860219898579807
 21
80.5853851094908578
 31
0.0
  0
LINE
  5
12A41A
  8
0
 62
     0
 10
7.1075054389575589
 20
79.6836455393167853
 30
0.0
 11
6.2057658687818309
 21
80.5853851094925346
 31
0.0
  0
LINE
  5
12A41B
  8
0
 62
     0
 10
-2.1599414089596389
 20
79.9708362661667707
 30
0.0
 11
-2.7744902522855921
 21
80.5853851094927194
 31
0.0
  0
LINE
  5
12A41C
  8
0
 62
     0
 10
-10.4799564724226002
 20
79.3105952085625034
 30
0.0
 11
-11.7547463733521607
 21
80.5853851094920799
 31
0.0
  0
LINE
  5
12A41D
  8
0
 62
     0
 10
-18.0798388998073207
 20
77.9302215148727555
 30
0.0
 11
-20.735002494429569
 21
80.5853851094949931
 31
0.0
  0
LINE
  5
12A41E
  8
0
 62
     0
 10
-25.2251305549600602
 20
76.095257048958274
 30
0.0
 11
-29.0218698067569782
 21
79.8919963007551956
 31
0.0
  0
LINE
  5
12A41F
  8
0
 62
     0
 10
-34.2053866760284535
 20
76.0952570489594535
 30
0.0
 11
-35.3916398783627599
 21
77.2815102512937671
 31
0.0
  0
LINE
  5
12A420
  8
0
 62
     0
 10
-37.6676403653700618
 20
70.577254617233848
 30
0.0
 11
-38.6955147365617975
 21
71.6051289884255908
 31
0.0
  0
LINE
  5
12A421
  8
0
 62
     0
 10
-43.3240761644210579
 20
67.2534342952103543
 30
0.0
 11
-46.9364792836749274
 21
70.8658374144642238
 31
0.0
  0
LINE
  5
12A422
  8
0
 62
     0
 10
-56.0311541113451312
 20
62.0
 30
0.0
 11
-56.6560269786984279
 21
62.6248728673532895
 31
0.0
  0
LINE
  5
12A423
  8
0
 62
     0
 10
53.9133765119636621
 20
65.4312029051848043
 30
0.0
 11
52.4807779804299486
 21
66.8638014367185036
 31
0.0
  0
LINE
  5
12A424
  8
0
 62
     0
 10
35.9528642698253691
 20
74.4114590262558693
 30
0.0
 11
31.4627362092907994
 21
78.9015870867904425
 31
0.0
  0
LINE
  5
12A425
  8
0
 62
     0
 10
42.7351123651669624
 20
67.6292109309142688
 30
0.0
 11
40.4429923303599423
 21
69.921330965721296
 31
0.0
  0
LINE
  5
12A426
  8
0
 62
     0
 10
25.5859042409947506
 20
75.798162934019274
 30
0.0
 11
22.4824800882232907
 21
78.901587086790741
 31
0.0
  0
LINE
  5
12A427
  8
0
 62
     0
 10
9.0120959066214787
 20
83.3917151473253142
 30
0.0
 11
7.758649607671857
 21
84.6451614462749546
 31
0.0
  0
LINE
  5
12A428
  8
0
 62
     0
 10
13.5616860779973596
 20
78.8421249759494458
 30
0.0
 11
13.5022239671560502
 21
78.9015870867907552
 31
0.0
  0
LINE
  5
12A429
  8
0
 62
     0
 10
-0.0000000000009095
 20
83.4235549328732304
 30
0.0
 11
-1.5620901743300619
 21
84.9856451072023873
 31
0.0
  0
LINE
  5
12A42A
  8
0
 62
     0
 10
0.0318397855459001
 20
83.3917151473264227
 30
0.0
 11
0.0000000000010791
 21
83.4235549328712409
 31
0.0
  0
LINE
  5
12A42B
  8
0
 62
     0
 10
-8.948416335520438
 20
83.3917151473255274
 30
0.0
 11
-9.9699686581583808
 21
84.4132674699634862
 31
0.0
  0
LINE
  5
12A42C
  8
0
 62
     0
 10
-13.4057467837456006
 20
78.8687894744834921
 30
0.0
 11
-13.4385443960543505
 21
78.9015870867922331
 31
0.0
  0
LINE
  5
12A42D
  8
0
 62
     0
 10
-20.7731321676446896
 20
77.2559187373080931
 30
0.0
 11
-22.41880051712781
 21
78.9015870867912099
 31
0.0
  0
LINE
  5
12A42E
  8
0
 62
     0
 10
-27.5895314216941188
 20
75.0920618702903084
 30
0.0
 11
-31.3990566381944305
 21
78.9015870867906131
 31
0.0
  0
LINE
  5
12A42F
  8
0
 62
     0
 10
-35.8891846987258205
 20
74.4114590262548035
 30
0.0
 11
-37.673110834770327
 21
76.1953851622993028
 31
0.0
  0
LINE
  5
12A430
  8
0
 62
     0
 10
-39.8350097048860405
 20
69.3770279113487049
 30
0.0
 11
-40.3793127592588519
 21
69.9213309657215234
 31
0.0
  0
LINE
  5
12A431
  8
0
 62
     0
 10
-45.3455828480318814
 20
65.9073449334191537
 30
0.0
 11
-48.9373888153990109
 21
69.4991509007862902
 31
0.0
  0
LINE
  5
12A432
  8
0
 62
     0
 10
-53.8496969408650088
 20
65.4312029051850743
 30
0.0
 11
-54.0337167597407984
 21
65.6152227240608568
 31
0.0
  0
LINE
  5
12A433
  8
0
 62
     0
 10
43.2493223681916135
 20
72.7276610035548146
 30
0.0
 11
42.1823273188496586
 21
73.7946560528967694
 31
0.0
  0
LINE
  5
12A434
  8
0
 62
     0
 10
52.2295784892607529
 20
63.7474048824856681
 30
0.0
 11
47.7394504287261725
 21
68.2375329430202555
 31
0.0
  0
LINE
  5
12A435
  8
0
 62
     0
 10
34.2690662471243996
 20
72.7276610035557241
 30
0.0
 11
29.7789381865898193
 21
77.2177890640902973
 31
0.0
  0
LINE
  5
12A436
  8
0
 62
     0
 10
16.3085540049882098
 20
81.7079171246238047
 30
0.0
 11
14.2132237552879293
 21
83.8032473743240871
 31
0.0
  0
LINE
  5
12A437
  8
0
 62
     0
 10
7.328297883921711
 20
81.7079171246239895
 30
0.0
 11
4.1369472406276957
 21
84.8992677679180048
 31
0.0
  0
LINE
  5
12A438
  8
0
 62
     0
 10
-1.6519582371562791
 20
81.7079171246265759
 30
0.0
 11
-4.8079532626625179
 21
84.8639121501328191
 31
0.0
  0
LINE
  5
12A439
  8
0
 62
     0
 10
-10.6322143582215105
 20
81.7079171246245863
 30
0.0
 11
-12.9344202683921097
 21
84.0101230347951855
 31
0.0
  0
LINE
  5
12A43A
  8
0
 62
     0
 10
-19.6124704792899216
 20
81.7079171246257943
 30
0.0
 11
-20.4162337393348317
 21
82.511680384670683
 31
0.0
  0
LINE
  5
12A43B
  8
0
 62
     0
 10
-23.3893178946673288
 20
76.5045084189287081
 30
0.0
 11
-24.1025985398317211
 21
77.2177890640930968
 31
0.0
  0
LINE
  5
12A43C
  8
0
 62
     0
 10
-30.0192575111968907
 20
74.1541919143910491
 30
0.0
 11
-33.0828546608989313
 21
77.2177890640930968
 31
0.0
  0
LINE
  5
12A43D
  8
0
 62
     0
 10
-37.5729827214312735
 20
72.727661003558211
 30
0.0
 11
-39.8990660067920331
 21
75.0537442889189634
 31
0.0
  0
LINE
  5
12A43E
  8
0
 62
     0
 10
-41.9466412844813021
 20
68.12106344554104
 30
0.0
 11
-42.0631107819621377
 21
68.2375329430218756
 31
0.0
  0
LINE
  5
12A43F
  8
0
 62
     0
 10
-47.3143662864558792
 20
64.5085323264411272
 30
0.0
 11
-50.8889671392467307
 21
68.0831331792319787
 31
0.0
  0
LINE
  5
12A440
  8
0
 62
     0
 10
-55.533494963568387
 20
63.7474048824873307
 30
0.0
 11
-55.8566416718403431
 21
64.0705515907592797
 31
0.0
  0
LINE
  5
12A441
  8
0
 62
     0
 10
52.2295784892621526
 20
62.6248728673481168
 30
0.0
 11
54.6812678286611202
 21
65.0765622067470844
 31
0.0
  0
LINE
  5
12A442
  8
0
 62
     0
 10
46.0450428266121889
 20
65.4205933257690049
 30
0.0
 11
47.7394504287264922
 21
67.1150009278833153
 31
0.0
  0
LINE
  5
12A443
  8
0
 62
     0
 10
43.2493223681939511
 20
71.6051289884179738
 30
0.0
 11
44.2300332886816605
 21
72.5858399089056974
 31
0.0
  0
LINE
  5
12A444
  8
0
 62
     0
 10
34.7314499446693006
 20
72.0675126859605371
 30
0.0
 11
38.4634363572585869
 21
75.7994990985498305
 31
0.0
  0
LINE
  5
12A445
  8
0
 62
     0
 10
28.4528825245834014
 20
74.7692013869454968
 30
0.0
 11
29.7789381865928391
 21
76.0952570489549345
 31
0.0
  0
LINE
  5
12A446
  8
0
 62
     0
 10
25.2888101260528018
 20
80.5853851094821181
 30
0.0
 11
25.7190452013776394
 21
81.0156201848069486
 31
0.0
  0
LINE
  5
12A447
  8
0
 62
     0
 10
16.3085540049845896
 20
80.5853851094847471
 30
0.0
 11
18.6515661940630402
 21
82.9283972985631976
 31
0.0
  0
LINE
  5
12A448
  8
0
 62
     0
 10
7.328297883921822
 20
80.5853851094928331
 30
0.0
 11
11.0248906056008007
 21
84.2819778311718153
 31
0.0
  0
LINE
  5
12A449
  8
0
 62
     0
 10
-0.000000000003638
 20
82.2373433466345887
 30
0.0
 11
2.7191526319691341
 21
84.9564959786073643
 31
0.0
  0
LINE
  5
12A44A
  8
0
 62
     0
 10
-1.6519582371506309
 20
80.5853851094875893
 30
0.0
 11
-0.0000000000052749
 21
82.2373433466329402
 31
0.0
  0
LINE
  5
12A44B
  8
0
 62
     0
 10
-10.6322143582215407
 20
80.5853851094875324
 30
0.0
 11
-6.4637184740424498
 21
84.7538809936666269
 31
0.0
  0
LINE
  5
12A44C
  8
0
 62
     0
 10
-19.6124704792889517
 20
80.5853851094873335
 30
0.0
 11
-16.893545190773569
 21
83.3043103980027269
 31
0.0
  0
LINE
  5
12A44D
  8
0
 62
     0
 10
-37.5729827214292698
 20
71.6051289884178743
 30
0.0
 11
-33.0828546608946965
 21
76.0952570489524334
 31
0.0
  0
LINE
  5
12A44E
  8
0
 62
     0
 10
-55.5334949635662412
 20
62.6248728673481168
 30
0.0
 11
-51.0433669030316679
 21
67.11500092788269
 31
0.0
  0
LINE
  5
12A44F
  8
0
 62
     0
 10
54.9723016673124221
 20
61.999999999996362
 30
0.0
 11
56.4874246871016084
 21
63.5151230197855483
 31
0.0
  0
LINE
  5
12A450
  8
0
 62
     0
 10
47.9954544537358672
 20
64.003408907490666
 30
0.0
 11
49.4232484514308723
 21
65.431202905185657
 31
0.0
  0
LINE
  5
12A451
  8
0
 62
     0
 10
44.933120390899127
 20
69.9213309657211397
 30
0.0
 11
46.2970278286185675
 21
71.2852384034405731
 31
0.0
  0
LINE
  5
12A452
  8
0
 62
     0
 10
36.9744157973254914
 20
70.9428824932183346
 30
0.0
 11
40.4429923303662591
 21
74.4114590262591094
 31
0.0
  0
LINE
  5
12A453
  8
0
 62
     0
 10
30.8596791588024608
 20
73.8084019757625356
 30
0.0
 11
31.4627362092907106
 21
74.4114590262507818
 31
0.0
  0
LINE
  5
12A454
  8
0
 62
     0
 10
26.9726081487590399
 20
78.9015870867863214
 30
0.0
 11
28.2420164745816002
 21
80.1709954126088746
 31
0.0
  0
LINE
  5
12A455
  8
0
 62
     0
 10
17.9923520276839106
 20
78.9015870867820581
 30
0.0
 11
21.3625251080789802
 21
82.2717601671771064
 31
0.0
  0
LINE
  5
12A456
  8
0
 62
     0
 10
9.5396871436751098
 20
79.4291783238404605
 30
0.0
 11
13.5022239671547695
 21
83.3917151473201272
 31
0.0
  0
LINE
  5
12A457
  8
0
 62
     0
 10
1.122378970332647
 20
79.9921262715688499
 30
0.0
 11
4.5219678460867172
 21
83.3917151473228984
 31
0.0
  0
LINE
  5
12A458
  8
0
 62
     0
 10
-8.2796061505032412
 20
79.5703972718038131
 30
0.0
 11
-4.4582882749790533
 21
83.3917151473280001
 31
0.0
  0
LINE
  5
12A459
  8
0
 62
     0
 10
-17.9286724565806104
 20
78.9015870867972922
 30
0.0
 11
-13.43854439604603
 21
83.3917151473318654
 31
0.0
  0
LINE
  5
12A45A
  8
0
 62
     0
 10
-26.9089285776611113
 20
78.901587086784005
 30
0.0
 11
-24.3827457811070296
 21
81.4277698833380867
 31
0.0
  0
LINE
  5
12A45B
  8
0
 62
     0
 10
-32.8794321636960376
 20
72.9310835007490823
 30
0.0
 11
-31.3990566381956917
 21
74.4114590262494318
 31
0.0
  0
LINE
  5
12A45C
  8
0
 62
     0
 10
-44.8694408197877621
 20
69.9213309657245503
 30
0.0
 11
-40.3793127592531889
 21
74.4114590262591236
 31
0.0
  0
LINE
  5
12A45D
  8
0
 62
     0
 10
-52.7907717855123266
 20
62.0
 30
0.0
 11
-49.3595688803223496
 21
65.4312029051899771
 31
0.0
  0
LINE
  5
12A45E
  8
0
 62
     0
 10
49.8941902650876727
 20
62.5345486734440783
 30
0.0
 11
51.1070464741275288
 21
63.7474048824839414
 31
0.0
  0
LINE
  5
12A45F
  8
0
 62
     0
 10
46.6169184135992509
 20
68.2375329430228845
 30
0.0
 11
48.3136071595047625
 21
69.934221688928389
 31
0.0
  0
LINE
  5
12A460
  8
0
 62
     0
 10
39.1596113039813574
 20
69.7604819544758357
 30
0.0
 11
42.1267903530636119
 21
72.7276610035580831
 31
0.0
  0
LINE
  5
12A461
  8
0
 62
     0
 10
28.6564061714582117
 20
77.2177890640871141
 30
0.0
 11
30.700651051741481
 21
79.2620339443703728
 31
0.0
  0
LINE
  5
12A462
  8
0
 62
     0
 10
19.9348264174623218
 20
77.4764654311620689
 30
0.0
 11
23.999815745194109
 21
81.5414547588938632
 31
0.0
  0
LINE
  5
12A463
  8
0
 62
     0
 10
12.4961214703034802
 20
79.0180166050704429
 30
0.0
 11
15.1860219898566307
 21
81.7079171246235774
 31
0.0
  0
LINE
  5
12A464
  8
0
 62
     0
 10
4.3779676668782477
 20
79.8801189227160648
 30
0.0
 11
6.2057658687862736
 21
81.7079171246240747
 31
0.0
  0
LINE
  5
12A465
  8
0
 62
     0
 10
-4.6156709885653981
 20
79.8667363883432699
 30
0.0
 11
-2.7744902522804189
 21
81.7079171246282527
 31
0.0
  0
LINE
  5
12A466
  8
0
 62
     0
 10
-14.8537121238368801
 20
78.6089513741426344
 30
0.0
 11
-11.7547463733530293
 21
81.7079171246265048
 31
0.0
  0
LINE
  5
12A467
  8
0
 62
     0
 10
-25.2251305549616092
 20
77.2177890640851246
 30
0.0
 11
-20.7350024944270288
 21
81.7079171246196836
 31
0.0
  0
LINE
  5
12A468
  8
0
 62
     0
 10
-34.2053866760192022
 20
77.2177890640947453
 30
0.0
 11
-33.1567884473876191
 21
78.2663872927263355
 31
0.0
  0
LINE
  5
12A469
  8
0
 62
     0
 10
-43.1856427970883487
 20
68.2375329430255988
 30
0.0
 11
-38.6955147365537684
 21
72.727661003560172
 31
0.0
  0
ENDBLK
  5
12A46B
  8
0
  0
BLOCK
  8
0
  2
*X225
 70
     1
 10
0.0
 20
0.0
 30
0.0
  3
*X225
  1

  0
LINE
  5
12A46D
  8
0
 62
     0
 10
55.5971745346614128
 20
64.2206581480159571
 30
0.0
 11
55.0693148281850426
 21
64.7485178544923201
 31
0.0
  0
LINE
  5
12A46E
  8
0
 62
     0
 10
37.6366622925242993
 20
73.2009142690858425
 30
0.0
 11
33.1465342319897331
 21
77.6910423296204158
 31
0.0
  0
LINE
  5
12A46F
  8
0
 62
     0
 10
44.0716342108398678
 20
66.7659423507702741
 30
0.0
 11
42.1267903530588725
 21
68.7107862085512693
 31
0.0
  0
LINE
  5
12A470
  8
0
 62
     0
 10
19.6761500503881983
 20
82.181170390154719
 30
0.0
 11
19.0104590151894683
 21
82.8468614253534668
 31
0.0
  0
LINE
  5
12A471
  8
0
 62
     0
 10
26.3060777365344691
 20
75.5512427040084731
 30
0.0
 11
24.1662781109227787
 21
77.69104232962016
 31
0.0
  0
LINE
  5
12A472
  8
0
 62
     0
 10
10.6958939293197606
 20
82.1811703901559554
 30
0.0
 11
8.2814524647567964
 21
84.5956118547189249
 31
0.0
  0
LINE
  5
12A473
  8
0
 62
     0
 10
-0.000000000001819
 20
83.8968081984030647
 30
0.0
 11
-1.096123933178649
 21
84.9929321315798774
 31
0.0
  0
LINE
  5
12A474
  8
0
 62
     0
 10
1.7156378082483199
 20
82.1811703901529143
 30
0.0
 11
-0.0000000000010827
 21
83.8968081984023115
 31
0.0
  0
LINE
  5
12A475
  8
0
 62
     0
 10
-7.2646183128194668
 20
82.1811703901534827
 30
0.0
 11
-9.5457403451611675
 21
84.4622924224951817
 31
0.0
  0
LINE
  5
12A476
  8
0
 62
     0
 10
-16.2448744338881816
 20
82.1811703901549748
 30
0.0
 11
-17.2872121229773903
 21
83.2235080792441835
 31
0.0
  0
LINE
  5
12A477
  8
0
 62
     0
 10
-20.3994020845166197
 20
77.3554419197162133
 30
0.0
 11
-20.7350024944194899
 21
77.6910423296190658
 31
0.0
  0
LINE
  5
12A478
  8
0
 62
     0
 10
-27.2427732201540493
 20
75.2185569342791496
 30
0.0
 11
-29.7152586154966905
 21
77.69104232962178
 31
0.0
  0
LINE
  5
12A479
  8
0
 62
     0
 10
-34.2053866760277003
 20
73.2009142690855725
 30
0.0
 11
-37.3558834649694518
 21
76.3514110580273382
 31
0.0
  0
LINE
  5
12A47A
  8
0
 62
     0
 10
-43.1856427970951131
 20
73.2009142690857857
 30
0.0
 11
-43.1926294662846786
 21
73.2079009382753441
 31
0.0
  0
LINE
  5
12A47B
  8
0
 62
     0
 10
-45.0647019990110422
 20
66.0997173499272321
 30
0.0
 11
-47.6757708576374597
 21
68.7107862085536425
 31
0.0
  0
LINE
  5
12A47C
  8
0
 62
     0
 10
-52.1658989181694182
 20
64.2206581480183871
 30
0.0
 11
-53.7737131424630803
 21
65.8284723723120493
 31
0.0
  0
LINE
  5
12A47D
  8
0
 62
     0
 10
-55.0103996581792671
 20
58.0849027669610223
 30
0.0
 11
-56.6560269787008934
 21
59.7305300874826486
 31
0.0
  0
LINE
  5
12A47E
  8
0
 62
     0
 10
-61.1461550392357083
 20
55.2404020269502567
 30
0.0
 11
-62.984372575617499
 21
57.0786195633320474
 31
0.0
  0
LINE
  5
12A47F
  8
0
 62
     0
 10
-63.5197527161608306
 20
48.6337435828008893
 30
0.0
 11
-65.6362830997732232
 21
50.7502739664132818
 31
0.0
  0
LINE
  5
12A480
  8
0
 62
     0
 10
52.1984380971271094
 20
-67.0844472304870578
 30
0.0
 11
51.1070464741267116
 21
-65.9930556074866672
 31
0.0
  0
LINE
  5
12A481
  8
0
 62
     0
 10
-70.1264111603052669
 20
46.2601459058780975
 30
0.0
 11
-70.8406902552579538
 21
46.9744250008307773
 31
0.0
  0
LINE
  5
12A482
  8
0
 62
     0
 10
46.616918413593659
 20
-70.4831836680208141
 30
0.0
 11
43.3624399414954809
 21
-67.2287051959226432
 31
0.0
  0
LINE
  5
12A483
  8
0
 62
     0
 10
-70.5552891771922077
 20
37.7087678016978316
 30
0.0
 11
-74.2400100635319262
 21
41.3934886880375572
 31
0.0
  0
LINE
  5
12A484
  8
0
 62
     0
 10
-73.4741171589785154
 20
31.647339662416929
 30
0.0
 11
-74.6165392208376943
 21
32.7897617242760973
 31
0.0
  0
LINE
  5
12A485
  8
0
 62
     0
 10
35.434904669205018
 20
-77.2616821657666151
 30
0.0
 11
33.1465342319938898
 21
-74.9733117285554869
 31
0.0
  0
LINE
  5
12A486
  8
0
 62
     0
 10
-79.1066672813756071
 20
28.2996336637395309
 30
0.0
 11
-79.8751730507954392
 21
29.0681394331593594
 31
0.0
  0
LINE
  5
12A487
  8
0
 62
     0
 10
28.6564061714536997
 20
-79.4634397890897901
 30
0.0
 11
25.14014089166999
 21
-75.9471745093060804
 31
0.0
  0
LINE
  5
12A488
  8
0
 62
     0
 10
-79.1066672813734897
 20
19.3193775426701997
 30
0.0
 11
-82.0364295708357361
 21
22.249139832132439
 31
0.0
  0
LINE
  5
12A489
  8
0
 62
     0
 10
19.6761500503851217
 20
-79.4634397890884259
 30
0.0
 11
18.1310362480162901
 21
-77.9183259867195801
 31
0.0
  0
LINE
  5
12A48A
  8
0
 62
     0
 10
-79.3032137000673174
 20
10.53566784029681
 30
0.0
 11
-83.5967953419048087
 21
14.8292494821342995
 31
0.0
  0
LINE
  5
12A48B
  8
0
 62
     0
 10
10.6958939293197997
 20
-79.4634397890903017
 30
0.0
 11
10.5356678402973696
 21
-79.3032137000678716
 31
0.0
  0
LINE
  5
12A48C
  8
0
 62
     0
 10
-79.969154022694056
 20
2.2213520418563339
 30
0.0
 11
-83.5967953419041834
 21
5.8489933610664844
 31
0.0
  0
LINE
  5
12A48D
  8
0
 62
     0
 10
6.966254133521943
 20
-84.7140561143596642
 30
0.0
 11
6.2057658687857664
 21
-83.9535678496234823
 31
0.0
  0
LINE
  5
12A48E
  8
0
 62
     0
 10
-79.6897910452680662
 20
-7.0382670566441439
 30
0.0
 11
-83.5967953419118146
 21
-3.1312627600003999
 31
0.0
  0
LINE
  5
12A48F
  8
0
 62
     0
 10
-1.7459922824100429
 20
-84.9820658195021679
 30
0.0
 11
-2.7744902522885271
 21
-83.9535678496236812
 31
0.0
  0
LINE
  5
12A490
  8
0
 62
     0
 10
-79.1066672813729355
 20
-16.6016469416064787
 30
0.0
 11
-83.5967953419075087
 21
-12.1115188810719108
 31
0.0
  0
LINE
  5
12A491
  8
0
 62
     0
 10
-16.2448744338907609
 20
-79.4634397890886675
 30
0.0
 11
-17.6882882006068414
 21
-78.0200260223725763
 31
0.0
  0
LINE
  5
12A492
  8
0
 62
     0
 10
-11.4882438526556108
 20
-84.2200703703238105
 30
0.0
 11
-11.7547463733561806
 21
-83.9535678496232407
 31
0.0
  0
LINE
  5
12A493
  8
0
 62
     0
 10
-79.1066672813716991
 20
-25.5819030626749395
 30
0.0
 11
-81.8836793741800335
 21
-22.8048909698666087
 31
0.0
  0
LINE
  5
12A494
  8
0
 62
     0
 10
-73.7936630144995434
 20
-30.8949073295470988
 30
0.0
 11
-74.6165392208371259
 21
-30.0720311232095199
 31
0.0
  0
LINE
  5
12A495
  8
0
 62
     0
 10
-25.2251305549584899
 20
-79.4634397890881559
 30
0.0
 11
-29.7152586154930596
 21
-74.9733117285535826
 31
0.0
  0
LINE
  5
12A496
  8
0
 62
     0
 10
-70.1264111603093596
 20
-43.5424153048117688
 30
0.0
 11
-74.6165392208439329
 21
-39.0522872442772027
 31
0.0
  0
LINE
  5
12A497
  8
0
 62
     0
 10
-61.1461550392402131
 20
-52.5226714258809224
 30
0.0
 11
-65.6362830997747864
 21
-48.0325433653463421
 31
0.0
  0
LINE
  5
12A498
  8
0
 62
     0
 10
-52.1658989181710666
 20
-61.5029275469500618
 30
0.0
 11
-56.6560269787056399
 21
-57.0127994864154815
 31
0.0
  0
LINE
  5
12A499
  8
0
 62
     0
 10
-43.1856427971019201
 20
-70.4831836680192083
 30
0.0
 11
-47.6757708576364934
 21
-65.9930556074846351
 31
0.0
  0
LINE
  5
12A49A
  8
0
 62
     0
 10
-37.2806547061027231
 20
-76.3881717590184053
 30
0.0
 11
-38.6955147365673469
 21
-74.9733117285537816
 31
0.0
  0
LINE
  5
12A49B
  8
0
 62
     0
 10
44.9331203908948069
 20
71.5171162463805246
 30
0.0
 11
43.3141962552572082
 21
73.1360403820181233
 31
0.0
  0
LINE
  5
12A49C
  8
0
 62
     0
 10
53.9133765119639605
 20
62.536860125311371
 30
0.0
 11
49.4232484514293802
 21
67.0269881858459513
 31
0.0
  0
LINE
  5
12A49D
  8
0
 62
     0
 10
26.9726081487571783
 20
80.4973723674509358
 30
0.0
 11
26.8082224988425217
 21
80.6617580173655853
 31
0.0
  0
LINE
  5
12A49E
  8
0
 62
     0
 10
35.9528642698263283
 20
71.5171162463817893
 30
0.0
 11
31.4627362092917515
 21
76.0072443069163626
 31
0.0
  0
LINE
  5
12A49F
  8
0
 62
     0
 10
17.9923520276899715
 20
80.4973723674509358
 30
0.0
 11
14.7855594312329792
 21
83.7041649639079282
 31
0.0
  0
LINE
  5
12A4A0
  8
0
 62
     0
 10
9.0120959066214148
 20
80.4973723674522859
 30
0.0
 11
4.6359882403447514
 21
84.8734800337289528
 31
0.0
  0
LINE
  5
12A4A1
  8
0
 62
     0
 10
0.0000000000009095
 20
80.5292121529982978
 30
0.0
 11
-4.3589470933702961
 21
84.8881592463694972
 31
0.0
  0
LINE
  5
12A4A2
  8
0
 62
     0
 10
0.0318397855472008
 20
80.4973723674519874
 30
0.0
 11
0.0000000000023798
 21
80.5292121529968057
 31
0.0
  0
LINE
  5
12A4A3
  8
0
 62
     0
 10
-8.9484163355201414
 20
80.4973723674521437
 30
0.0
 11
-12.5234176181594599
 21
84.0723736500914356
 31
0.0
  0
LINE
  5
12A4A4
  8
0
 62
     0
 10
-17.9286724565876483
 20
80.4973723674524138
 30
0.0
 11
-20.0361084200146493
 21
82.6048083308794361
 31
0.0
  0
LINE
  5
12A4A5
  8
0
 62
     0
 10
-26.9089285776562015
 20
80.4973723674537638
 30
0.0
 11
-27.0069832314469593
 21
80.5954270212445039
 31
0.0
  0
LINE
  5
12A4A6
  8
0
 62
     0
 10
-29.6817446048526108
 20
74.2899322735756868
 30
0.0
 11
-31.399056638193219
 21
76.0072443069162915
 31
0.0
  0
LINE
  5
12A4A7
  8
0
 62
     0
 10
-35.8891846987254866
 20
71.517116246381363
 30
0.0
 11
-39.5895412915847231
 21
75.2174728392405854
 31
0.0
  0
LINE
  5
12A4A8
  8
0
 62
     0
 10
-44.869440819792203
 20
71.5171162463808514
 30
0.0
 11
-45.2848250302766502
 21
71.9325004568652986
 31
0.0
  0
LINE
  5
12A4A9
  8
0
 62
     0
 10
-47.0408424597280828
 20
64.7082617652422414
 30
0.0
 11
-49.3595688803323398
 21
67.0269881858465055
 31
0.0
  0
LINE
  5
12A4AA
  8
0
 62
     0
 10
-53.8496969408632609
 20
62.5368601253101986
 30
0.0
 11
-55.6033390872543265
 21
64.2905022717012713
 31
0.0
  0
LINE
  5
12A4AB
  8
0
 62
     0
 10
-56.7148991412723191
 20
56.4218062046520572
 30
0.0
 11
-58.3398250013962212
 21
58.0467320647759593
 31
0.0
  0
LINE
  5
12A4AC
  8
0
 62
     0
 10
-62.8299530619306594
 20
53.5566040042431766
 30
0.0
 11
-64.5616380191424213
 21
55.2882889614549384
 31
0.0
  0
LINE
  5
12A4AD
  8
0
 62
     0
 10
53.9133765119689485
 20
-63.1867255696564314
 30
0.0
 11
52.7266509423088081
 21
-61.999999999996291
 31
0.0
  0
LINE
  5
12A4AE
  8
0
 62
     0
 10
-64.9542284166072932
 20
46.7006232378453205
 30
0.0
 11
-67.3200811224721463
 21
49.0664759437101665
 31
0.0
  0
LINE
  5
12A4AF
  8
0
 62
     0
 10
50.2802801069983616
 20
-68.5338852857603342
 30
0.0
 11
49.423248451427483
 21
-67.6768536301894557
 31
0.0
  0
LINE
  5
12A4B0
  8
0
 62
     0
 10
-71.8102091830036642
 20
44.5763478831744777
 30
0.0
 11
-72.158191310029224
 21
44.9243300102000376
 31
0.0
  0
LINE
  5
12A4B1
  8
0
 62
     0
 10
44.9243300101989007
 20
-72.1581913100280872
 30
0.0
 11
41.2882530732591206
 21
-68.5221143730883
 31
0.0
  0
LINE
  5
12A4B2
  8
0
 62
     0
 10
-71.8102091830018452
 20
35.596091762105452
 30
0.0
 11
-75.4187889657494139
 21
39.2046715448530065
 31
0.0
  0
LINE
  5
12A4B3
  8
0
 62
     0
 10
35.9528642698273586
 20
-72.1669816907237589
 30
0.0
 11
35.4852394755411495
 21
-71.6993568964375356
 31
0.0
  0
LINE
  5
12A4B4
  8
0
 62
     0
 10
-74.456295421606228
 20
29.2619218796426104
 30
0.0
 11
-76.3003372435351821
 21
31.1059637015715715
 31
0.0
  0
LINE
  5
12A4B5
  8
0
 62
     0
 10
33.0972218356028023
 20
-78.2915953775664093
 30
0.0
 11
31.4627362092951515
 21
-76.6571097512587443
 31
0.0
  0
LINE
  5
12A4B6
  8
0
 62
     0
 10
26.5669242854255607
 20
-80.7415539484636611
 30
0.0
 11
22.5743139699822315
 21
-76.7489436330203318
 31
0.0
  0
LINE
  5
12A4B7
  8
0
 62
     0
 10
-80.7904653040734928
 20
17.6355795199681786
 30
0.0
 11
-82.7180832908525758
 21
19.5631975067472688
 31
0.0
  0
LINE
  5
12A4B8
  8
0
 62
     0
 10
17.9923520276846496
 20
-81.147237811789978
 30
0.0
 11
15.3572468416495393
 21
-78.5121326257548589
 31
0.0
  0
LINE
  5
12A4B9
  8
0
 62
     0
 10
-80.7904653040737344
 20
8.6553233989012011
 30
0.0
 11
-84.146987812405996
 21
12.0118459072334591
 31
0.0
  0
LINE
  5
12A4BA
  8
0
 62
     0
 10
9.0120959066170698
 20
-81.1472378117896085
 30
0.0
 11
7.5114414912479814
 21
-79.6465833964205245
 31
0.0
  0
LINE
  5
12A4BB
  8
0
 62
     0
 10
-80.7904653040705796
 20
-0.324932722169168
 30
0.0
 11
-81.1153980262432128
 21
0.0000000000034687
 31
0.0
  0
LINE
  5
12A4BC
  8
0
 62
     0
 10
0.0000000000027285
 20
-81.1153980262424739
 30
0.0
 11
-1.1232844648995131
 21
-79.9921135613402328
 31
0.0
  0
LINE
  5
12A4BD
  8
0
 62
     0
 10
-81.1153980262424739
 20
0.0000000000027285
 30
0.0
 11
-84.915032688185363
 21
3.7996346619456149
 31
0.0
  0
LINE
  5
12A4BE
  8
0
 62
     0
 10
0.0318397855501815
 20
-81.1472378117899353
 30
0.0
 11
0.0000000000027881
 21
-81.1153980262425307
 31
0.0
  0
LINE
  5
12A4BF
  8
0
 62
     0
 10
-80.7904653040733649
 20
-9.3051888432408596
 30
0.0
 11
-84.8371884148820641
 21
-5.2584657324321693
 31
0.0
  0
LINE
  5
12A4C0
  8
0
 62
     0
 10
-8.9484163355213138
 20
-81.1472378117929054
 30
0.0
 11
-10.8324317677169102
 21
-79.2632223795973232
 31
0.0
  0
LINE
  5
12A4C1
  8
0
 62
     0
 10
-80.7904653040723844
 20
-18.2854449643090504
 30
0.0
 11
-83.5745677906163991
 21
-15.5013424777650304
 31
0.0
  0
LINE
  5
12A4C2
  8
0
 62
     0
 10
-17.9286724565896201
 20
-81.1472378117918254
 30
0.0
 11
-22.2251193033462187
 21
-76.8507909650352303
 31
0.0
  0
LINE
  5
12A4C3
  8
0
 62
     0
 10
-71.8102091830022999
 20
-36.24595720644637
 30
0.0
 11
-76.3003372435368732
 21
-31.7558291459118003
 31
0.0
  0
LINE
  5
12A4C4
  8
0
 62
     0
 10
-35.8891846987231133
 20
-72.1669816907255495
 30
0.0
 11
-37.2660359956648293
 21
-70.7901303937838264
 31
0.0
  0
LINE
  5
12A4C5
  8
0
 62
     0
 10
-27.6943362850242885
 20
-80.3618301044243708
 30
0.0
 11
-31.3990566381885294
 21
-76.6571097512601227
 31
0.0
  0
LINE
  5
12A4C6
  8
0
 62
     0
 10
-71.8102091830042326
 20
-45.2262133275189129
 30
0.0
 11
-72.2338574844905992
 21
-44.8025650260325392
 31
0.0
  0
LINE
  5
12A4C7
  8
0
 62
     0
 10
-62.829953061935079
 20
-54.2064694485880594
 30
0.0
 11
-67.3200811224696452
 21
-49.7163413880534932
 31
0.0
  0
LINE
  5
12A4C8
  8
0
 62
     0
 10
-53.8496969408659325
 20
-63.186725569657213
 30
0.0
 11
-58.3398250014004986
 21
-58.6965975091226397
 31
0.0
  0
LINE
  5
12A4C9
  8
0
 62
     0
 10
-44.8694408197967789
 20
-72.1669816907263453
 30
0.0
 11
-49.3595688803313521
 21
-67.6768536301917862
 31
0.0
  0
LINE
  5
12A4CA
  8
0
 62
     0
 10
43.2493223681933685
 20
69.8333182236799246
 30
0.0
 11
38.7591943076587881
 21
74.323446284214512
 31
0.0
  0
LINE
  5
12A4CB
  8
0
 62
     0
 10
51.0826405918733073
 20
62.0
 30
0.0
 11
47.7394504287279418
 21
65.3431901631453655
 31
0.0
  0
LINE
  5
12A4CC
  8
0
 62
     0
 10
25.2888101260552105
 20
78.8135743447508901
 30
0.0
 11
21.9983489943185688
 21
82.1040354764875246
 31
0.0
  0
LINE
  5
12A4CD
  8
0
 62
     0
 10
29.9000435773023092
 20
74.2023408935037878
 30
0.0
 11
29.7789381865897909
 21
74.3234462842163168
 31
0.0
  0
LINE
  5
12A4CE
  8
0
 62
     0
 10
16.3085540049894711
 20
78.8135743447494121
 30
0.0
 11
11.8184259444548907
 21
83.3037024052839854
 31
0.0
  0
LINE
  5
12A4CF
  8
0
 62
     0
 10
6.3981333548645116
 20
79.7437388738071604
 30
0.0
 11
2.8381698233864721
 21
83.3037024052852075
 31
0.0
  0
LINE
  5
12A4D0
  8
0
 62
     0
 10
-2.7897279581529801
 20
79.9513440657501633
 30
0.0
 11
-6.1420862976912352
 21
83.303702405288405
 31
0.0
  0
LINE
  5
12A4D1
  8
0
 62
     0
 10
-11.0516010478731896
 20
79.2329610344031607
 30
0.0
 11
-15.1223424187583895
 21
83.3037024052883623
 31
0.0
  0
LINE
  5
12A4D2
  8
0
 62
     0
 10
-19.6124704792888416
 20
78.8135743447515864
 30
0.0
 11
-22.7091730261888713
 21
81.9102768916516197
 31
0.0
  0
LINE
  5
12A4D3
  8
0
 62
     0
 10
-28.5927266003563396
 20
78.8135743447518848
 30
0.0
 11
-29.4969621937819397
 21
79.7178099381774814
 31
0.0
  0
LINE
  5
12A4D4
  8
0
 62
     0
 10
-32.0561068810056895
 20
73.2966985043267414
 30
0.0
 11
-33.0828546608966434
 21
74.3234462842176953
 31
0.0
  0
LINE
  5
12A4D5
  8
0
 62
     0
 10
-38.0899179028147117
 20
70.3502534050685426
 30
0.0
 11
-41.7690350786249667
 21
74.0293705808788047
 31
0.0
  0
LINE
  5
12A4D6
  8
0
 62
     0
 10
-46.5532388424978834
 20
69.8333182236845147
 30
0.0
 11
-47.3261326118538719
 21
70.6062119930405032
 31
0.0
  0
LINE
  5
12A4D7
  8
0
 62
     0
 10
-48.9649595155024073
 20
63.2647827756145489
 30
0.0
 11
-51.0433669030345669
 21
65.3431901631467014
 31
0.0
  0
LINE
  5
12A4D8
  8
0
 62
     0
 10
-55.5334949635677688
 20
60.8530621026126894
 30
0.0
 11
-57.385412336258149
 21
62.7049794753030696
 31
0.0
  0
LINE
  5
12A4D9
  8
0
 62
     0
 10
-58.369267712491812
 20
54.7085787304695188
 30
0.0
 11
-60.0236230241010631
 21
56.3629340420787699
 31
0.0
  0
LINE
  5
12A4DA
  8
0
 62
     0
 10
-64.5137510846357713
 20
51.8728059815462714
 30
0.0
 11
-66.0912984344567462
 21
53.4503533313672392
 31
0.0
  0
LINE
  5
12A4DB
  8
0
 62
     0
 10
52.2295784892645329
 20
-64.8705235923540471
 30
0.0
 11
49.8938639359105025
 21
-62.5348090390000166
 31
0.0
  0
LINE
  5
12A4DC
  8
0
 62
     0
 10
-66.3365487301134635
 20
44.7153475059494667
 30
0.0
 11
-69.0038791451726041
 21
47.3826779210086002
 31
0.0
  0
LINE
  5
12A4DD
  8
0
 62
     0
 10
48.3132601753031921
 20
-69.9344613994671818
 30
0.0
 11
47.7394504287262365
 21
-69.3606516528902404
 31
0.0
  0
LINE
  5
12A4DE
  8
0
 62
     0
 10
42.8231709048132032
 20
-73.4246282500444067
 30
0.0
 11
39.1592355404338619
 21
-69.7606928856650654
 31
0.0
  0
LINE
  5
12A4DF
  8
0
 62
     0
 10
-73.4940072057034968
 20
33.9122937394050794
 30
0.0
 11
-76.5431429405617507
 21
36.9614294742633405
 31
0.0
  0
LINE
  5
12A4E0
  8
0
 62
     0
 10
34.2690662471266805
 20
-73.8507797134250978
 30
0.0
 11
33.2027465578851135
 21
-72.7844600241835309
 31
0.0
  0
LINE
  5
12A4E1
  8
0
 62
     0
 10
-75.3733890965631872
 20
26.8114195091975489
 30
0.0
 11
-77.9841352662352705
 21
29.4221656788696393
 31
0.0
  0
LINE
  5
12A4E2
  8
0
 62
     0
 10
30.7002281562781683
 20
-79.2621977436438101
 30
0.0
 11
29.7789381865952407
 21
-78.340907773960879
 31
0.0
  0
LINE
  5
12A4E3
  8
0
 62
     0
 10
-77.4765854946726904
 20
19.9343597862325588
 30
0.0
 11
-77.9841352662420064
 21
20.4419095578018783
 31
0.0
  0
LINE
  5
12A4E4
  8
0
 62
     0
 10
23.9993624622857205
 20
-81.541588170725845
 30
0.0
 11
20.7986820655185909
 21
-78.3409077739587048
 31
0.0
  0
LINE
  5
12A4E5
  8
0
 62
     0
 10
-82.4742633267750733
 20
15.9517814972677296
 30
0.0
 11
-83.3231011759430942
 21
16.8006193464357487
 31
0.0
  0
LINE
  5
12A4E6
  8
0
 62
     0
 10
16.3085540049856093
 20
-82.8310358344929369
 30
0.0
 11
12.4956148864326995
 21
-79.0180967159400325
 31
0.0
  0
LINE
  5
12A4E7
  8
0
 62
     0
 10
-82.4742633267740217
 20
6.9715253761994598
 30
0.0
 11
-84.5203131636228875
 21
9.0175752130483318
 31
0.0
  0
LINE
  5
12A4E8
  8
0
 62
     0
 10
7.3282978839184798
 20
-82.8310358344930364
 30
0.0
 11
4.3774114543840019
 21
-79.8801494049585585
 31
0.0
  0
LINE
  5
12A4E9
  8
0
 62
     0
 10
-82.4742633267730554
 20
-2.0087307448687288
 30
0.0
 11
-84.4829940716450949
 21
0.0000000000033444
 31
0.0
  0
LINE
  5
12A4EA
  8
0
 62
     0
 10
-1.6519582371493149
 20
-82.8310358344924538
 30
0.0
 11
-4.6162936719503618
 21
-79.8667003996914104
 31
0.0
  0
LINE
  5
12A4EB
  8
0
 62
     0
 10
-84.482994071644498
 20
0.0000000000027285
 30
0.0
 11
-84.9984371528672682
 21
0.5154430812255199
 31
0.0
  0
LINE
  5
12A4EC
  8
0
 62
     0
 10
-82.4742633267768781
 20
-10.9889868659393706
 30
0.0
 11
-84.5291807825895063
 21
-8.9340694101267335
 31
0.0
  0
LINE
  5
12A4ED
  8
0
 62
     0
 10
-10.6322143582262694
 20
-82.8310358344899953
 30
0.0
 11
-14.8544355111166393
 21
-78.6088146815996254
 31
0.0
  0
LINE
  5
12A4EE
  8
0
 62
     0
 10
-82.474263326775457
 20
-19.9692429870079913
 30
0.0
 11
-82.6674524420842971
 21
-19.776053871699169
 31
0.0
  0
LINE
  5
12A4EF
  8
0
 62
     0
 10
-75.228668900776924
 20
-27.2148374130065385
 30
0.0
 11
-77.984135266240898
 21
-24.4593710475425716
 31
0.0
  0
LINE
  5
12A4F0
  8
0
 62
     0
 10
-19.7760538717056988
 20
-82.6674524420777743
 30
0.0
 11
-24.1025985398244416
 21
-78.3409077739590316
 31
0.0
  0
LINE
  5
12A4F1
  8
0
 62
     0
 10
-73.4940072057067937
 20
-37.9297552291438933
 30
0.0
 11
-77.9841352662413669
 21
-33.4396271686093201
 31
0.0
  0
LINE
  5
12A4F2
  8
0
 62
     0
 10
-65.5193422147985984
 20
-45.9044202200520814
 30
0.0
 11
-69.0038791451722204
 21
-42.4198832896784666
 31
0.0
  0
LINE
  5
12A4F3
  8
0
 62
     0
 10
-37.5729827214264276
 20
-73.8507797134242452
 30
0.0
 11
-42.0631107819610008
 21
-69.3606516528896861
 31
0.0
  0
LINE
  5
12A4F4
  8
0
 62
     0
 10
52.2295784892645472
 20
-65.9930556074926926
 30
0.0
 11
56.2226340967510794
 21
-62.0000000000061675
 31
0.0
  0
LINE
  5
12A4F5
  8
0
 62
     0
 10
34.269066247123547
 20
-74.9733117285628339
 30
0.0
 11
38.7591943076581202
 21
-70.4831836680282748
 31
0.0
  0
LINE
  5
12A4F6
  8
0
 62
     0
 10
29.5408039518370096
 20
-79.7015740238493891
 30
0.0
 11
29.7789381865889702
 21
-79.4634397890974213
 31
0.0
  0
LINE
  5
12A4F7
  8
0
 62
     0
 10
16.9742104993383691
 20
-83.2879113552771742
 30
0.0
 11
20.7986820655219589
 21
-79.4634397890935844
 31
0.0
  0
LINE
  5
12A4F8
  8
0
 62
     0
 10
7.3282978839146571
 20
-83.9535678496336573
 30
0.0
 11
11.8184259444492294
 21
-79.4634397890990982
 31
0.0
  0
LINE
  5
12A4F9
  8
0
 62
     0
 10
-0.000000000003638
 20
-82.3016096124811156
 30
0.0
 11
2.3357141352281281
 21
-79.9658954772493331
 31
0.0
  0
LINE
  5
12A4FA
  8
0
 62
     0
 10
-1.6519582371513131
 20
-83.9535678496287971
 30
0.0
 11
-0.0000000000008116
 21
-82.3016096124783161
 31
0.0
  0
LINE
  5
12A4FB
  8
0
 62
     0
 10
-10.6322143582179898
 20
-83.9535678496282571
 30
0.0
 11
-6.4205811345711368
 21
-79.7419346259814006
 31
0.0
  0
LINE
  5
12A4FC
  8
0
 62
     0
 10
-18.5990859136290894
 20
-82.9401832839684943
 30
0.0
 11
-15.1223424187547497
 21
-79.4634397890941671
 31
0.0
  0
LINE
  5
12A4FD
  8
0
 62
     0
 10
-25.6702524174506799
 20
-81.0310936667228816
 30
0.0
 11
-24.1025985398233011
 21
-79.4634397890955029
 31
0.0
  0
LINE
  5
12A4FE
  8
0
 62
     0
 10
-28.5927266003572811
 20
-74.9733117285586133
 30
0.0
 11
-28.4063190571205091
 21
-74.786904185321859
 31
0.0
  0
LINE
  5
12A4FF
  8
0
 62
     0
 10
-37.572982721429149
 20
-74.9733117285596506
 30
0.0
 11
-34.6880724736882868
 21
-72.0884014808188027
 31
0.0
  0
LINE
  5
12A500
  8
0
 62
     0
 10
-44.1900908195712034
 20
-72.6101637056344771
 30
0.0
 11
-42.0631107819616119
 21
-70.4831836680248927
 31
0.0
  0
LINE
  5
12A501
  8
0
 62
     0
 10
-46.5532388425007895
 20
-65.9930556074932042
 30
0.0
 11
-46.0073145972656619
 21
-65.4471313622580908
 31
0.0
  0
LINE
  5
12A502
  8
0
 62
     0
 10
-54.6463367681135423
 20
-65.1058974120387575
 30
0.0
 11
-51.0964959421723677
 21
-61.5560565860975828
 31
0.0
  0
LINE
  5
12A503
  8
0
 62
     0
 10
54.4990484017835115
 20
61.999999999996362
 30
0.0
 11
56.2364722086040913
 21
63.7374238068169419
 31
0.0
  0
LINE
  5
12A504
  8
0
 62
     0
 10
-63.7374238068259729
 20
-56.2364722086131223
 30
0.0
 11
-60.1945537106136896
 21
-52.6936021124008391
 31
0.0
  0
LINE
  5
12A505
  8
0
 62
     0
 10
47.7244964085475587
 20
64.2057041278276301
 30
0.0
 11
47.7394504287293486
 21
64.2206581480094201
 31
0.0
  0
LINE
  5
12A506
  8
0
 62
     0
 10
-64.5137510846337108
 20
-48.0325433653536322
 30
0.0
 11
-64.2057041278323339
 21
-47.7244964085522625
 31
0.0
  0
LINE
  5
12A507
  8
0
 62
     0
 10
43.2493223681981434
 20
68.7107862085490666
 30
0.0
 11
46.0096159233329303
 21
71.4710797636838464
 31
0.0
  0
LINE
  5
12A508
  8
0
 62
     0
 10
-71.4710797636907955
 20
-46.0096159233398723
 30
0.0
 11
-69.0038791451704583
 21
-43.5424153048195279
 31
0.0
  0
LINE
  5
12A509
  8
0
 62
     0
 10
36.6627366097600316
 20
71.1044565711817995
 30
0.0
 11
38.7591943076617795
 21
73.2009142690835546
 31
0.0
  0
LINE
  5
12A50A
  8
0
 62
     0
 10
-73.4940072057061258
 20
-39.052287244284372
 30
0.0
 11
-71.1044565711848122
 21
-36.6627366097630372
 31
0.0
  0
LINE
  5
12A50B
  8
0
 62
     0
 10
34.2690662471223888
 20
77.6910423296113635
 30
0.0
 11
34.3348235620531668
 21
77.7567996445421556
 31
0.0
  0
LINE
  5
12A50C
  8
0
 62
     0
 10
25.2888101260518816
 20
77.6910423296117045
 30
0.0
 11
27.891411247385399
 21
80.2936434509452255
 31
0.0
  0
LINE
  5
12A50D
  8
0
 62
     0
 10
-80.293643450957461
 20
-27.891411247397631
 30
0.0
 11
-77.984135266243527
 21
-25.5819030626836899
 31
0.0
  0
LINE
  5
12A50E
  8
0
 62
     0
 10
16.8276734576102101
 20
78.2101617822372646
 30
0.0
 11
20.7986820655241296
 21
82.1811703901511663
 31
0.0
  0
LINE
  5
12A50F
  8
0
 62
     0
 10
-82.3685847650376672
 20
-20.9860964404106198
 30
0.0
 11
-78.210161782237833
 21
-16.8276734576107785
 31
0.0
  0
LINE
  5
12A510
  8
0
 62
     0
 10
9.1161564725189237
 20
79.4789009182168229
 30
0.0
 11
11.8184259444521604
 21
82.1811703901500437
 31
0.0
  0
LINE
  5
12A511
  8
0
 62
     0
 10
-82.4742633267740217
 20
-12.1115188810761207
 30
0.0
 11
-79.4789009182263442
 21
-9.1161564725284503
 31
0.0
  0
LINE
  5
12A512
  8
0
 62
     0
 10
0.6543235180615738
 20
79.9973240848266869
 30
0.0
 11
2.8381698233817172
 21
82.1811703901468462
 31
0.0
  0
LINE
  5
12A513
  8
0
 62
     0
 10
-82.4742633267752865
 20
-3.1312627600101668
 30
0.0
 11
-79.9973240848304101
 21
-0.6543235180652945
 31
0.0
  0
LINE
  5
12A514
  8
0
 62
     0
 10
-8.8098167635507707
 20
79.5134399242851941
 30
0.0
 11
-6.1420862976823436
 21
82.1811703901536248
 31
0.0
  0
LINE
  5
12A515
  8
0
 62
     0
 10
-82.4742633267710659
 20
5.8489933610649114
 30
0.0
 11
-79.5134399242881926
 21
8.8098167635477775
 31
0.0
  0
LINE
  5
12A516
  8
0
 62
     0
 10
-19.61247047929308
 20
77.6910423296137367
 30
0.0
 11
-15.1223424187585103
 21
82.1811703901483099
 31
0.0
  0
LINE
  5
12A517
  8
0
 62
     0
 10
-82.4742633267794361
 20
14.8292494821273593
 30
0.0
 11
-77.984135266244877
 21
19.3193775426619396
 31
0.0
  0
LINE
  5
12A518
  8
0
 62
     0
 10
-28.5927266003613987
 20
77.6910423296126282
 30
0.0
 11
-25.0627086311101017
 21
81.2210602988639181
 31
0.0
  0
LINE
  5
12A519
  8
0
 62
     0
 10
-33.7527092501950392
 20
72.5310596797789913
 30
0.0
 11
-33.0828546608959826
 21
73.200914269078055
 31
0.0
  0
LINE
  5
12A51A
  8
0
 62
     0
 10
-73.4940072057044347
 20
32.7897617242696029
 30
0.0
 11
-72.5310596797806397
 21
33.7527092501933765
 31
0.0
  0
LINE
  5
12A51B
  8
0
 62
     0
 10
-81.2210602988707251
 20
25.0627086311032983
 30
0.0
 11
-77.9841352662389937
 21
28.2996336637350083
 31
0.0
  0
LINE
  5
12A51C
  8
0
 62
     0
 10
-46.5532388425064312
 20
68.7107862085384653
 30
0.0
 11
-42.0631107819718508
 21
73.2009142690730243
 31
0.0
  0
LINE
  5
12A51D
  8
0
 62
     0
 10
-55.5334949635755777
 20
59.7305300874693188
 30
0.0
 11
-51.0433669030409973
 21
64.2206581480038921
 31
0.0
  0
LINE
  5
12A51E
  8
0
 62
     0
 10
-64.5137510846447242
 20
50.7502739664001723
 30
0.0
 11
-60.0236230241101509
 21
55.2404020269347384
 31
0.0
  0
LINE
  5
12A51F
  8
0
 62
     0
 10
-73.4940072057138707
 20
41.7700178453310187
 30
0.0
 11
-69.0038791451792974
 21
46.2601459058655919
 31
0.0
  0
LINE
  5
12A520
  8
0
 62
     0
 10
44.933120390903099
 20
-67.6768536301853203
 30
0.0
 11
49.4232484514376722
 21
-63.186725569650747
 31
0.0
  0
LINE
  5
12A521
  8
0
 62
     0
 10
35.9528642698339524
 20
-76.6571097512544668
 30
0.0
 11
40.4429923303685186
 21
-72.1669816907198935
 31
0.0
  0
LINE
  5
12A522
  8
0
 62
     0
 10
26.9726081487577609
 20
-76.6571097512634338
 30
0.0
 11
29.1163922178627388
 21
-74.5133256821584666
 31
0.0
  0
LINE
  5
12A523
  8
0
 62
     0
 10
21.3563561635855912
 20
-82.2733617364356178
 30
0.0
 11
22.4824800882231912
 21
-81.1472378117980355
 31
0.0
  0
LINE
  5
12A524
  8
0
 62
     0
 10
10.27247257450653
 20
-84.3769892044438166
 30
0.0
 11
13.5022239671540198
 21
-81.147237811796316
 31
0.0
  0
LINE
  5
12A525
  8
0
 62
     0
 10
0.6718609768358875
 20
-84.9973446810436144
 30
0.0
 11
4.5219678460822736
 21
-81.1472378117972255
 31
0.0
  0
LINE
  5
12A526
  8
0
 62
     0
 10
-7.9394452766355244
 20
-84.6283948134441744
 30
0.0
 11
-4.458288274981383
 21
-81.1472378117900348
 31
0.0
  0
LINE
  5
12A527
  8
0
 62
     0
 10
-15.8083476308747795
 20
-83.5170410466162139
 30
0.0
 11
-13.4385443960515101
 21
-81.147237811792948
 31
0.0
  0
LINE
  5
12A528
  8
0
 62
     0
 10
-23.0785374132647085
 20
-81.8069747079389344
 30
0.0
 11
-22.4188005171211593
 21
-81.1472378117953781
 31
0.0
  0
LINE
  5
12A529
  8
0
 62
     0
 10
-26.9089285776587808
 20
-76.6571097512621407
 30
0.0
 11
-25.9322044707999986
 21
-75.6803856444033727
 31
0.0
  0
LINE
  5
12A52A
  8
0
 62
     0
 10
-35.8891846987211665
 20
-76.6571097512573232
 30
0.0
 11
-32.3843430342443028
 21
-73.1522680867804524
 31
0.0
  0
LINE
  5
12A52B
  8
0
 62
     0
 10
-42.0706893913375026
 20
-73.8583583228028147
 30
0.0
 11
-40.3793127592594914
 21
-72.1669816907247963
 31
0.0
  0
LINE
  5
12A52C
  8
0
 62
     0
 10
-44.8694408197962318
 20
-67.6768536301906778
 30
0.0
 11
-44.0034725540686225
 21
-66.8108853644630756
 31
0.0
  0
LINE
  5
12A52D
  8
0
 62
     0
 10
-52.7915507019497383
 20
-66.6187073912769847
 30
0.0
 11
-49.3595688803276573
 21
-63.1867255696548966
 31
0.0
  0
LINE
  5
12A52E
  8
0
 62
     0
 10
57.8666444471891666
 20
62.0
 30
0.0
 11
58.0018567734589965
 21
62.1352123262698228
 31
0.0
  0
LINE
  5
12A52F
  8
0
 62
     0
 10
-62.1352123262804525
 20
-58.0018567734696333
 30
0.0
 11
-58.597455614397802
 21
-54.4641000615869615
 31
0.0
  0
LINE
  5
12A530
  8
0
 62
     0
 10
-62.8299530619295794
 20
-49.7163413880515321
 30
0.0
 11
-62.7440668238946486
 21
-49.6304551500166085
 31
0.0
  0
LINE
  5
12A531
  8
0
 62
     0
 10
44.9331203909030208
 20
67.0269881858519199
 30
0.0
 11
48.033225644159657
 21
70.127093439108549
 31
0.0
  0
LINE
  5
12A532
  8
0
 62
     0
 10
-70.1270934391141054
 20
-48.0332256441652206
 30
0.0
 11
-67.3200811224616302
 21
-45.2262133275127312
 31
0.0
  0
LINE
  5
12A533
  8
0
 62
     0
 10
38.8559495941481217
 20
69.9300735101642204
 30
0.0
 11
40.4429923303663372
 21
71.517116246382443
 31
0.0
  0
LINE
  5
12A534
  8
0
 62
     0
 10
-71.81020918300716
 20
-40.7360852669910471
 30
0.0
 11
-69.9300735101642061
 21
-38.8559495941481003
 31
0.0
  0
LINE
  5
12A535
  8
0
 62
     0
 10
35.9528642698298668
 20
76.0072443069168031
 30
0.0
 11
36.6421284876908402
 21
76.6965085247777836
 31
0.0
  0
LINE
  5
12A536
  8
0
 62
     0
 10
-76.6965085247902607
 20
-36.6421284877033031
 30
0.0
 11
-76.3003372435334342
 21
-36.2459572064464766
 31
0.0
  0
LINE
  5
12A537
  8
0
 62
     0
 10
26.9726081487559703
 20
76.0072443069137762
 30
0.0
 11
30.3589164328610011
 21
79.3935525910188034
 31
0.0
  0
LINE
  5
12A538
  8
0
 62
     0
 10
-79.3935525910237629
 20
-30.35891643286595
 30
0.0
 11
-76.300337243543467
 21
-27.2657010853856612
 31
0.0
  0
LINE
  5
12A539
  8
0
 62
     0
 10
19.5576449079380801
 20
77.5725371871667448
 30
0.0
 11
22.4824800882247402
 21
80.4973723674534085
 31
0.0
  0
LINE
  5
12A53A
  8
0
 62
     0
 10
-80.7904653040729102
 20
-22.7755730248442383
 30
0.0
 11
-77.5725371871666596
 21
-19.5576449079379984
 31
0.0
  0
LINE
  5
12A53B
  8
0
 62
     0
 10
12.0865515752266202
 20
79.081699975522497
 30
0.0
 11
13.5022239671576596
 21
80.4973723674535364
 31
0.0
  0
LINE
  5
12A53C
  8
0
 62
     0
 10
-80.790465304068249
 20
-13.7953169037723793
 30
0.0
 11
-79.081699975522767
 21
-12.0865515752268902
 31
0.0
  0
LINE
  5
12A53D
  8
0
 62
     0
 10
3.928099973720236
 20
79.9035044950833253
 30
0.0
 11
4.5219678460826529
 21
80.4973723674457347
 31
0.0
  0
LINE
  5
12A53E
  8
0
 62
     0
 10
-80.7904653040732939
 20
-4.8150607827102077
 30
0.0
 11
-79.9035044950810089
 21
-3.9280999737179161
 31
0.0
  0
LINE
  5
12A53F
  8
0
 62
     0
 10
-5.1196460612445662
 20
79.8360145811893744
 30
0.0
 11
-4.4582882749795187
 21
80.4973723674544033
 31
0.0
  0
LINE
  5
12A540
  8
0
 62
     0
 10
-80.7904653040678795
 20
4.1651953383660549
 30
0.0
 11
-79.8360145811883939
 21
5.1196460612455423
 31
0.0
  0
LINE
  5
12A541
  8
0
 62
     0
 10
0.0318397855555877
 20
84.9875004279895307
 30
0.0
 11
0.0443277990146077
 21
84.9999884414485507
 31
0.0
  0
LINE
  5
12A542
  8
0
 62
     0
 10
-15.4400202085962501
 20
78.4958965549049026
 30
0.0
 11
-13.4385443960497302
 21
80.497372367451419
 31
0.0
  0
LINE
  5
12A543
  8
0
 62
     0
 10
-80.7904653040673679
 20
13.1454514594337795
 30
0.0
 11
-78.4958965549012646
 21
15.4400202085998792
 31
0.0
  0
LINE
  5
12A544
  8
0
 62
     0
 10
-26.9089285776573099
 20
76.0072443069146999
 30
0.0
 11
-22.4188005171227296
 21
80.4973723674492732
 31
0.0
  0
LINE
  5
12A545
  8
0
 62
     0
 10
-80.790465304069599
 20
22.1257075805023895
 30
0.0
 11
-76.30033724353504
 21
26.6158356410369699
 31
0.0
  0
LINE
  5
12A546
  8
0
 62
     0
 10
-35.8891846987239518
 20
76.0072443069189063
 30
0.0
 11
-33.9869464623244824
 21
77.9094825433183757
 31
0.0
  0
LINE
  5
12A547
  8
0
 62
     0
 10
-44.8694408197930983
 20
67.0269881858497598
 30
0.0
 11
-40.3793127592585179
 21
71.5171162463843331
 31
0.0
  0
LINE
  5
12A548
  8
0
 62
     0
 10
-71.8102091830038205
 20
40.0862198226390305
 30
0.0
 11
-67.3200811224692472
 21
44.5763478831736109
 31
0.0
  0
LINE
  5
12A549
  8
0
 62
     0
 10
-77.9094825433203368
 20
33.9869464623225213
 30
0.0
 11
-76.3003372435383937
 21
35.5960917621044715
 31
0.0
  0
LINE
  5
12A54A
  8
0
 62
     0
 10
46.6169184136045089
 20
-69.3606516528822823
 30
0.0
 11
51.1070464741391035
 21
-64.870523592347709
 31
0.0
  0
LINE
  5
12A54B
  8
0
 62
     0
 10
28.6564061714592491
 20
-78.340907773960339
 30
0.0
 11
33.146534231993833
 21
-73.8507797134257657
 31
0.0
  0
LINE
  5
12A54C
  8
0
 62
     0
 10
19.6761500503874807
 20
-78.3409077739612627
 30
0.0
 11
20.7567308478987513
 21
-77.2603269764499885
 31
0.0
  0
LINE
  5
12A54D
  8
0
 62
     0
 10
14.2139302815739903
 20
-83.803127542774746
 30
0.0
 11
15.1860219898529003
 21
-82.831035834495836
 31
0.0
  0
LINE
  5
12A54E
  8
0
 62
     0
 10
4.137563990414491
 20
-84.8992377128633962
 30
0.0
 11
6.20576586877878
 21
-82.8310358344991045
 31
0.0
  0
LINE
  5
12A54F
  8
0
 62
     0
 10
-4.8073980231201849
 20
-84.863943605327222
 30
0.0
 11
-2.774490252282046
 21
-82.8310358344890858
 31
0.0
  0
LINE
  5
12A550
  8
0
 62
     0
 10
-12.9339118495845398
 20
-84.0102013107243693
 30
0.0
 11
-11.7547463733502298
 21
-82.8310358344900521
 31
0.0
  0
LINE
  5
12A551
  8
0
 62
     0
 10
-16.2448744338868813
 20
-78.3409077739594863
 30
0.0
 11
-16.2385634648968313
 21
-78.3345968049694363
 31
0.0
  0
LINE
  5
12A552
  8
0
 62
     0
 10
-25.2251305549594385
 20
-78.3409077739612059
 30
0.0
 11
-23.3888685685726294
 21
-76.5046457875744039
 31
0.0
  0
LINE
  5
12A553
  8
0
 62
     0
 10
-33.8385355575883295
 20
-77.9740566555228725
 30
0.0
 11
-30.0188398810181489
 21
-74.1543609789526954
 31
0.0
  0
LINE
  5
12A554
  8
0
 62
     0
 10
-39.8986829476016283
 20
-75.0539479244653194
 30
0.0
 11
-38.6955147365603978
 21
-73.8507797134240889
 31
0.0
  0
LINE
  5
12A555
  8
0
 62
     0
 10
-43.1856427970958592
 20
-69.3606516528887056
 30
0.0
 11
-41.9462781774268265
 21
-68.1212870332196587
 31
0.0
  0
LINE
  5
12A556
  8
0
 62
     0
 10
-50.8886313957955281
 20
-68.0833841305211536
 30
0.0
 11
-47.6757708576277892
 21
-64.8705235923534076
 31
0.0
  0
LINE
  5
12A557
  8
0
 62
     0
 10
-60.4857366167125292
 20
-59.7199771093000891
 30
0.0
 11
-56.95012648796245
 21
-56.1843669805500099
 31
0.0
  0
LINE
  5
12A558
  8
0
 62
     0
 10
46.6169184136039974
 20
65.3431901631545173
 30
0.0
 11
50.0071570888857408
 21
68.7334288384362537
 31
0.0
  0
LINE
  5
12A559
  8
0
 62
     0
 10
-68.7334288384408865
 20
-50.0071570888903807
 30
0.0
 11
-65.636283099763304
 21
-46.9100113502127982
 31
0.0
  0
LINE
  5
12A55A
  8
0
 62
     0
 10
40.992766717223283
 20
68.6992945878409955
 30
0.0
 11
42.1267903530644716
 21
69.8333182236821983
 31
0.0
  0
LINE
  5
12A55B
  8
0
 62
     0
 10
-70.1264111603067732
 20
-42.4198832896890607
 30
0.0
 11
-68.6992945878408534
 21
-40.9927667172231267
 31
0.0
  0
LINE
  5
12A55C
  8
0
 62
     0
 10
37.6366622925299765
 20
74.3234462842185479
 30
0.0
 11
38.8931345417346606
 21
75.5799185334232249
 31
0.0
  0
LINE
  5
12A55D
  8
0
 62
     0
 10
-75.5799185334290087
 20
-38.8931345417404373
 30
0.0
 11
-74.6165392208387743
 21
-37.9297552291502029
 31
0.0
  0
LINE
  5
12A55E
  8
0
 62
     0
 10
28.9219662405812414
 20
74.5890063533406646
 30
0.0
 11
32.7644148138573712
 21
78.4314549266167944
 31
0.0
  0
LINE
  5
12A55F
  8
0
 62
     0
 10
-78.4314549266237009
 20
-32.7644148138642777
 30
0.0
 11
-74.6165392208452545
 21
-28.9494991080858313
 31
0.0
  0
LINE
  5
12A560
  8
0
 62
     0
 10
22.2083441061185987
 20
76.8556403399488772
 30
0.0
 11
24.1662781109255285
 21
78.813574344755807
 31
0.0
  0
LINE
  5
12A561
  8
0
 62
     0
 10
-79.1066672813716707
 20
-24.4593710475413886
 30
0.0
 11
-76.855640339945154
 21
-22.208344106114879
 31
0.0
  0
LINE
  5
12A562
  8
0
 62
     0
 10
14.9610423185222299
 20
78.5885946734197205
 30
0.0
 11
15.1860219898580198
 21
78.8135743447555086
 31
0.0
  0
LINE
  5
12A563
  8
0
 62
     0
 10
-79.1066672813700649
 20
-15.4791149264725796
 30
0.0
 11
-78.5885946734198342
 21
-14.9610423185223507
 31
0.0
  0
LINE
  5
12A564
  8
0
 62
     0
 10
10.6958939293202899
 20
83.3037024052849944
 30
0.0
 11
11.5973122087777991
 21
84.2051206847424965
 31
0.0
  0
LINE
  5
12A565
  8
0
 62
     0
 10
-84.2051206847536378
 20
-11.5973122087889298
 30
0.0
 11
-83.5967953419054197
 21
-10.9889868659407206
 31
0.0
  0
LINE
  5
12A566
  8
0
 62
     0
 10
1.7156378082550241
 20
83.3037024052905792
 30
0.0
 11
3.3460507193869291
 21
84.9341153164224778
 31
0.0
  0
LINE
  5
12A567
  8
0
 62
     0
 10
-84.9341153164350544
 20
-3.3460507193994991
 30
0.0
 11
-83.5967953419021512
 21
-2.0087307448665999
 31
0.0
  0
LINE
  5
12A568
  8
0
 62
     0
 10
-7.2646183128180137
 20
83.3037024052847528
 30
0.0
 11
-5.7639779129198443
 21
84.8043428051829267
 31
0.0
  0
LINE
  5
12A569
  8
0
 62
     0
 10
-84.8043428051860246
 20
5.7639779129167428
 30
0.0
 11
-83.5967953419022933
 21
6.9715253762004741
 31
0.0
  0
LINE
  5
12A56A
  8
0
 62
     0
 10
-16.2448744338842204
 20
83.3037024052894139
 30
0.0
 11
-16.0842273878213788
 21
83.4643494513522342
 31
0.0
  0
LINE
  5
12A56B
  8
0
 62
     0
 10
-22.8945523285474302
 20
76.6540245106261864
 30
0.0
 11
-20.7350024944187901
 21
78.8135743447548265
 31
0.0
  0
LINE
  5
12A56C
  8
0
 62
     0
 10
-79.106667281371827
 20
20.4419095578018002
 30
0.0
 11
-76.6540245106287443
 21
22.8945523285448793
 31
0.0
  0
LINE
  5
12A56D
  8
0
 62
     0
 10
-34.2053866760304004
 20
74.3234462842140715
 30
0.0
 11
-29.71525861549582
 21
78.8135743447486448
 31
0.0
  0
LINE
  5
12A56E
  8
0
 62
     0
 10
-79.1066672813737597
 20
29.4221656788707087
 30
0.0
 11
-74.6165392208391864
 21
33.9122937394052926
 31
0.0
  0
LINE
  5
12A56F
  8
0
 62
     0
 10
-52.1658989181666612
 20
65.3431901631450245
 30
0.0
 11
-47.675770857632088
 21
69.8333182236795977
 31
0.0
  0
LINE
  5
12A570
  8
0
 62
     0
 10
-61.1461550392358006
 20
56.362934042075878
 30
0.0
 11
-56.6560269787012416
 21
60.8530621026104512
 31
0.0
  0
LINE
  5
12A571
  8
0
 62
     0
 10
-70.1264111603049543
 20
47.3826779210067315
 30
0.0
 11
-65.636283099770381
 21
51.8728059815413118
 31
0.0
  0
ENDBLK
  5
12A573
  8
0
  0
BLOCK
  8
0
  2
*X226
 70
     1
 10
0.0
 20
0.0
 30
0.0
  3
*X226
  1

  0
LINE
  5
12A575
  8
0
 62
     0
 10
46.6169184135963022
 20
67.4122287093412069
 30
0.0
 11
44.4999969103917721
 21
69.5291502125457299
 31
0.0
  0
LINE
  5
12A576
  8
0
 62
     0
 10
52.029147122935683
 20
62.000000000001819
 30
0.0
 11
51.1070464741308683
 21
62.9221006488066266
 31
0.0
  0
LINE
  5
12A577
  8
0
 62
     0
 10
-44.5000030896108001
 20
68.7265890018552454
 30
0.0
 11
-46.7574819135820121
 21
70.9840678258264717
 31
0.0
  0
LINE
  5
12A578
  8
0
 62
     0
 10
-55.7339263298972583
 20
62.0
 30
0.0
 11
-56.656026978704638
 21
62.9221006488073726
 31
0.0
  0
LINE
  5
12A579
  8
0
 62
     0
 10
-45.1692967390044871
 20
66.0282866058469153
 30
0.0
 11
-48.7627818890985623
 21
69.6217717559409834
 31
0.0
  0
LINE
  5
12A57A
  8
0
 62
     0
 10
-53.8496969408651083
 20
65.7284306866403227
 30
0.0
 11
-53.8705313141926823
 21
65.7492650599678825
 31
0.0
  0
LINE
  5
12A57B
  8
0
 62
     0
 10
52.2295784892619821
 20
64.0446326639395949
 30
0.0
 11
47.7394504287274088
 21
68.5347607244741681
 31
0.0
  0
LINE
  5
12A57C
  8
0
 62
     0
 10
-47.1426988932907989
 20
64.6340927147311959
 30
0.0
 11
-50.7186855845692293
 21
68.2100794060096263
 31
0.0
  0
LINE
  5
12A57D
  8
0
 62
     0
 10
-55.5334949635674775
 20
64.0446326639406607
 30
0.0
 11
-55.6976640381370629
 21
64.2088017385102461
 31
0.0
  0
LINE
  5
12A57E
  8
0
 62
     0
 10
52.2295784892621526
 20
62.9221006487996277
 30
0.0
 11
54.5195680088355701
 21
65.2120901683730239
 31
0.0
  0
LINE
  5
12A57F
  8
0
 62
     0
 10
45.8703918533974502
 20
65.5431701340057771
 30
0.0
 11
47.7394504287297607
 21
67.4122287093380805
 31
0.0
  0
LINE
  5
12A580
  8
0
 62
     0
 10
-55.5334949635626032
 20
62.9221006488032586
 30
0.0
 11
-51.0433669030280299
 21
67.4122287093378389
 31
0.0
  0
LINE
  5
12A581
  8
0
 62
     0
 10
54.675073885864542
 20
62.0
 30
0.0
 11
56.3299228294322702
 21
63.6548489435677212
 31
0.0
  0
LINE
  5
12A582
  8
0
 62
     0
 10
47.8253979322835221
 20
64.1305801674861868
 30
0.0
 11
49.423248451429842
 21
65.7284306866325068
 31
0.0
  0
LINE
  5
12A583
  8
0
 62
     0
 10
44.9331203909030776
 20
70.2185587471766013
 30
0.0
 11
46.1166345604986887
 21
71.4020729167722124
 31
0.0
  0
LINE
  5
12A584
  8
0
 62
     0
 10
-44.8694408197914072
 20
70.2185587471760613
 30
0.0
 11
-44.5000030896189713
 21
70.5879964773485113
 31
0.0
  0
LINE
  5
12A585
  8
0
 62
     0
 10
-53.0879995669674827
 20
62.0
 30
0.0
 11
-49.3595688803259875
 21
65.7284306866414738
 31
0.0
  0
LINE
  5
12A586
  8
0
 62
     0
 10
58.0426699312629424
 20
62.0
 30
0.0
 11
58.0928330714807473
 21
62.0501631402178191
 31
0.0
  0
LINE
  5
12A587
  8
0
 62
     0
 10
49.7286687329724373
 20
62.6662549227767229
 30
0.0
 11
51.107046474134691
 21
64.0446326639389554
 31
0.0
  0
LINE
  5
12A588
  8
0
 62
     0
 10
46.6169184135981212
 20
68.5347607244732586
 30
0.0
 11
48.137627365674831
 21
70.0554696765499614
 31
0.0
  0
ENDBLK
  5
12A58A
  8
0
  0
BLOCK
  8
0
  2
*U227
 70
     1
 10
0.0
 20
0.0
 30
0.0
  3
*U227
  1

  0
TEXT
  5
12A58C
  8
DIM
 10
2561.4285714285711038
 20
-3323.2081219844440056
 30
0.0
 40
32.0
  1
C
 41
0.75
  0
ENDBLK
  5
12A58E
  8
0
  0
BLOCK
  8
0
  2
*U228
 70
     1
 10
0.0
 20
0.0
 30
0.0
  3
*U228
  1

  0
TEXT
  5
12A590
  8
DIM
 10
2707.8409284037338693
 20
-3850.9999999999968168
 30
0.0
 40
32.0
  1
B
 50
90.0
 41
0.75
  0
ENDBLK
  5
12A592
  8
0
  0
BLOCK
  8
0
  2
*U229
 70
     1
 10
0.0
 20
0.0
 30
0.0
  3
*U229
  1

  0
TEXT
  5
12A594
  8
DIM
 10
2709.4796205944589929
 20
-3469.1428571428527903
 30
0.0
 40
32.0
  1
A
 50
90.0
 41
0.75
  0
ENDBLK
  5
12A596
  8
0
  0
BLOCK
  8
0
  2
*U230
 70
     1
 10
0.0
 20
0.0
 30
0.0
  3
*U230
  1

  0
TEXT
  5
12A598
  8
SLIM
 10
-21.047619047619051
 20
27.0
 30
0.0
 40
26.0
  1
50
  0
ENDBLK
  5
12A59A
  8
0
  0
BLOCK
  8
0
  2
*U231
 70
     1
 10
0.0
 20
0.0
 30
0.0
  3
*U231
  1

  0
TEXT
  5
12A59C
  8
SLIM
 10
-21.047619047619051
 20
27.0
 30
0.0
 40
26.0
  1
75
  0
ENDBLK
  5
12A59E
  8
0
  0
BLOCK
  8
0
  2
*U232
 70
     1
 10
0.0
 20
0.0
 30
0.0
  3
*U232
  1

  0
TEXT
  5
12A5A0
  8
SLIM
 10
-21.047619047619051
 20
27.0
 30
0.0
 40
26.0
  1
65
  0
ENDBLK
  5
12A5A2
  8
0
  0
BLOCK
  8
0
  2
*U233
 70
     1
 10
0.0
 20
0.0
 30
0.0
  3
*U233
  1

  0
TEXT
  5
12A5A4
  8
SLIM
 10
-21.047619047619051
 20
27.0
 30
0.0
 40
26.0
  1
50
  0
ENDBLK
  5
12A5A6
  8
0
  0
BLOCK
  8
0
  2
*U234
 70
     1
 10
0.0
 20
0.0
 30
0.0
  3
*U234
  1

  0
TEXT
  5
12A5A8
  8
SLIM
 10
-21.047619047619051
 20
27.0
 30
0.0
 40
26.0
  1
75
  0
ENDBLK
  5
12A5AA
  8
0
  0
BLOCK
  8
0
  2
*U235
 70
     1
 10
0.0
 20
0.0
 30
0.0
  3
*U235
  1

  0
TEXT
  5
12A5AC
  8
SLIM
 10
-21.047619047619051
 20
27.0
 30
0.0
 40
26.0
  1
65
  0
ENDBLK
  5
12A5AE
  8
0
  0
BLOCK
  8
0
  2
*U236
 70
     1
 10
0.0
 20
0.0
 30
0.0
  3
*U236
  1

  0
TEXT
  5
12A5B0
  8
SLIM
 10
-21.047619047619051
 20
27.0
 30
0.0
 40
26.0
  1
50
  0
ENDBLK
  5
12A5B2
  8
0
  0
BLOCK
  8
0
  2
*U237
 70
     1
 10
0.0
 20
0.0
 30
0.0
  3
*U237
  1

  0
TEXT
  5
12A5B4
  8
SLIM
 10
-21.047619047619051
 20
27.0
 30
0.0
 40
26.0
  1
75
  0
ENDBLK
  5
12A5B6
  8
0
  0
BLOCK
  8
0
  2
*U238
 70
     1
 10
0.0
 20
0.0
 30
0.0
  3
*U238
  1

  0
TEXT
  5
12A5B8
  8
SLIM
 10
-21.047619047619051
 20
27.0
 30
0.0
 40
26.0
  1
65
  0
ENDBLK
  5
12A5BA
  8
0
  0
BLOCK
  8
0
  2
*U239
 70
     1
 10
0.0
 20
0.0
 30
0.0
  3
*U239
  1

  0
TEXT
  5
12A5BC
  8
SLIM
 10
27.0
 20
21.0476190476190403
 30
0.0
 40
26.0
  1
50
 50
270.0
  0
ENDBLK
  5
12A5BE
  8
0
  0
BLOCK
  8
0
  2
*U240
 70
     1
 10
0.0
 20
0.0
 30
0.0
  3
*U240
  1

  0
TEXT
  5
12A5C0
  8
SLIM
 10
27.0
 20
21.047619047619051
 30
0.0
 40
26.0
  1
75
 50
270.0
  0
ENDBLK
  5
12A5C2
  8
0
  0
BLOCK
  8
0
  2
*U241
 70
     1
 10
0.0
 20
0.0
 30
0.0
  3
*U241
  1

  0
TEXT
  5
12A5C4
  8
SLIM
 10
27.0
 20
21.0476190476190403
 30
0.0
 40
26.0
  1
65
 50
270.0
  0
ENDBLK
  5
12A5C6
  8
0
  0
BLOCK
  8
0
  2
*U242
 70
     1
 10
0.0
 20
0.0
 30
0.0
  3
*U242
  1

  0
TEXT
  5
12A5C8
  8
SLIM
 10
27.0
 20
21.0476190476190403
 30
0.0
 40
26.0
  1
50
 50
270.0
  0
ENDBLK
  5
12A5CA
  8
0
  0
BLOCK
  8
0
  2
*U243
 70
     1
 10
0.0
 20
0.0
 30
0.0
  3
*U243
  1

  0
TEXT
  5
12A5CC
  8
SLIM
 10
27.0
 20
21.047619047619051
 30
0.0
 40
26.0
  1
75
 50
270.0
  0
ENDBLK
  5
12A5CE
  8
0
  0
BLOCK
  8
0
  2
*U244
 70
     1
 10
0.0
 20
0.0
 30
0.0
  3
*U244
  1

  0
TEXT
  5
12A5D0
  8
SLIM
 10
27.0
 20
21.0476190476190403
 30
0.0
 40
26.0
  1
65
 50
270.0
  0
ENDBLK
  5
12A5D2
  8
0
  0
BLOCK
  8
0
  2
*U245
 70
     1
 10
0.0
 20
0.0
 30
0.0
  3
*U245
  1

  0
TEXT
  5
12A5FE
  8
DIM
 10
2700.4245816727589045
 20
-864.0000000000006821
 30
0.0
 40
32.0
  1
P
 50
90.0
 41
0.75
  0
ENDBLK
  5
12A600
  8
0
  0
BLOCK
  8
0
  2
*U246
 70
     1
 10
0.0
 20
0.0
 30
0.0
  3
*U246
  1

  0
TEXT
  5
12A602
  8
DIM
 10
4700.4245816727607234
 20
-864.0000000000013642
 30
0.0
 40
32.0
  1
P
 50
90.0
 41
0.75
  0
ENDBLK
  5
12A604
  8
0
  0
BLOCK
  8
0
  2
*U247
 70
     1
 10
0.0
 20
0.0
 30
0.0
  3
*U247
  1

  0
TEXT
  5
12A606
  8
DIM
 10
4334.1164560757752042
 20
-1258.7428571428579289
 30
0.0
 40
32.0
  1
m（シンドカット）
 50
90.0
 41
0.75
  0
ENDBLK
  5
12A608
  8
0
  0
BLOCK
  8
0
  2
*U248
 70
     1
 10
0.0
 20
0.0
 30
0.0
  3
*U248
  1

  0
TEXT
  5
12A60A
  8
SLIM
 10
158.9523809524228
 20
-130.0000000001718945
 30
0.0
 40
26.0
  1
75
  0
ENDBLK
  5
12A60C
  8
0
  0
BLOCK
  8
0
  2
*U249
 70
     1
 10
0.0
 20
0.0
 30
0.0
  3
*U249
  1

  0
TEXT
  5
12A640
  8
DIM
 10
2561.4285714285711038
 20
-3323.2081219844440056
 30
0.0
 40
32.0
  1
C
 41
0.75
  0
ENDBLK
  5
12A642
  8
0
  0
BLOCK
  8
0
  2
*U250
 70
     1
 10
0.0
 20
0.0
 30
0.0
  3
*U250
  1

  0
TEXT
  5
12A644
  8
DIM
 10
2707.8409284037329599
 20
-3850.9999999999990905
 30
0.0
 40
32.0
  1
B
 50
90.0
 41
0.75
  0
ENDBLK
  5
12A646
  8
0
  0
BLOCK
  8
0
  2
*U251
 70
     1
 10
0.0
 20
0.0
 30
0.0
  3
*U251
  1

  0
TEXT
  5
12A648
  8
DIM
 10
2709.4796205944580834
 20
-3469.142857142855064
 30
0.0
 40
32.0
  1
A
 50
90.0
 41
0.75
  0
ENDBLK
  5
12A64A
  8
0
  0
BLOCK
  8
0
  2
*U252
 70
     1
 10
0.0
 20
0.0
 30
0.0
  3
*U252
  1

  0
TEXT
  5
12A64C
  8
SLIM
 10
258.0
 20
-998.9523809523808495
 30
0.0
 40
26.0
  1
50
 50
270.0
  0
ENDBLK
  5
12A64E
  8
0
  0
BLOCK
  8
0
  2
*U253
 70
     1
 10
0.0
 20
0.0
 30
0.0
  3
*U253
  1

  0
TEXT
  5
12A650
  8
SLIM
 10
134.9523809523809064
 20
-918.0
 30
0.0
 40
26.0
  1
50
  0
ENDBLK
  5
12A652
  8
0
  0
BLOCK
  8
0
  2
*U254
 70
     1
 10
0.0
 20
0.0
 30
0.0
  3
*U254
  1

  0
TEXT
  5
12A654
  8
SLIM
 10
618.0
 20
-998.9523809523808495
 30
0.0
 40
26.0
  1
65
 50
270.0
  0
ENDBLK
  5
12A656
  8
0
  0
BLOCK
  8
0
  2
*U255
 70
     1
 10
0.0
 20
0.0
 30
0.0
  3
*U255
  1

  0
TEXT
  5
12A658
  8
SLIM
 10
494.9523809523809064
 20
-918.0
 30
0.0
 40
26.0
  1
50
  0
ENDBLK
  5
12A65A
  8
0
  0
BLOCK
  8
0
  2
*U256
 70
     1
 10
0.0
 20
0.0
 30
0.0
  3
*U256
  1

  0
TEXT
  5
12A65C
  8
SLIM
 10
258.0
 20
-1462.9523809523809632
 30
0.0
 40
26.0
  1
75
 50
270.0
  0
ENDBLK
  5
12A65E
  8
0
  0
BLOCK
  8
0
  2
*U257
 70
     1
 10
0.0
 20
0.0
 30
0.0
  3
*U257
  1

  0
TEXT
  5
12A660
  8
SLIM
 10
134.9523809523809064
 20
-1382.0
 30
0.0
 40
26.0
  1
50
  0
ENDBLK
  5
12A662
  8
0
  0
BLOCK
  8
0
  2
*U258
 70
     1
 10
0.0
 20
0.0
 30
0.0
  3
*U258
  1

  0
TEXT
  5
12A664
  8
SLIM
 10
618.0
 20
-1462.9523809523809632
 30
0.0
 40
26.0
  1
50
 50
270.0
  0
ENDBLK
  5
12A666
  8
0
  0
BLOCK
  8
0
  2
*U259
 70
     1
 10
0.0
 20
0.0
 30
0.0
  3
*U259
  1

  0
TEXT
  5
12A668
  8
SLIM
 10
494.9523809523809064
 20
-1382.0
 30
0.0
 40
26.0
  1
65
  0
ENDBLK
  5
12A66A
  8
0
  0
BLOCK
  8
0
  2
*U260
 70
     1
 10
0.0
 20
0.0
 30
0.0
  3
*U260
  1

  0
TEXT
  5
12A66C
  8
SLIM
 10
258.0
 20
-1926.9523809523809632
 30
0.0
 40
26.0
  1
65
 50
270.0
  0
ENDBLK
  5
12A66E
  8
0
  0
BLOCK
  8
0
  2
*U261
 70
     1
 10
0.0
 20
0.0
 30
0.0
  3
*U261
  1

  0
TEXT
  5
12A670
  8
SLIM
 10
134.9523809523809064
 20
-1846.0
 30
0.0
 40
26.0
  1
65
  0
ENDBLK
  5
12A672
  8
0
  0
BLOCK
  8
0
  2
*U262
 70
     1
 10
0.0
 20
0.0
 30
0.0
  3
*U262
  1

  0
TEXT
  5
12A674
  8
SLIM
 10
618.0
 20
-1926.9523809523809632
 30
0.0
 40
26.0
  1
75
 50
270.0
  0
ENDBLK
  5
12A676
  8
0
  0
BLOCK
  8
0
  2
*U263
 70
     1
 10
0.0
 20
0.0
 30
0.0
  3
*U263
  1

  0
TEXT
  5
12A678
  8
SLIM
 10
494.9523809523809064
 20
-1846.0
 30
0.0
 40
26.0
  1
65
  0
ENDBLK
  5
12A67A
  8
0
  0
BLOCK
  8
0
  2
*U264
 70
     1
 10
0.0
 20
0.0
 30
0.0
  3
*U264
  1

  0
TEXT
  5
12A67C
  8
SLIM
 10
258.0
 20
-2390.9523809523811906
 30
0.0
 40
26.0
  1
50
 50
270.0
  0
ENDBLK
  5
12A67E
  8
0
  0
BLOCK
  8
0
  2
*U265
 70
     1
 10
0.0
 20
0.0
 30
0.0
  3
*U265
  1

  0
TEXT
  5
12A680
  8
SLIM
 10
134.9523809523809064
 20
-2310.0
 30
0.0
 40
26.0
  1
75
  0
ENDBLK
  5
12A682
  8
0
  0
BLOCK
  8
0
  2
*U266
 70
     1
 10
0.0
 20
0.0
 30
0.0
  3
*U266
  1

  0
TEXT
  5
12A684
  8
SLIM
 10
618.0
 20
-2390.9523809523811906
 30
0.0
 40
26.0
  1
65
 50
270.0
  0
ENDBLK
  5
12A686
  8
0
  0
BLOCK
  8
0
  2
*U267
 70
     1
 10
0.0
 20
0.0
 30
0.0
  3
*U267
  1

  0
TEXT
  5
12A688
  8
SLIM
 10
494.9523809523809064
 20
-2310.0
 30
0.0
 40
26.0
  1
75
  0
ENDBLK
  5
12A68A
  8
0
  0
BLOCK
  8
0
  2
*U268
 70
     1
 10
0.0
 20
0.0
 30
0.0
  3
*U268
  1

  0
TEXT
  5
12A68C
  8
SLIM
 10
258.0
 20
-2854.9523809523811906
 30
0.0
 40
26.0
  1
75
 50
270.0
  0
ENDBLK
  5
12A68E
  8
0
  0
BLOCK
  8
0
  2
*U269
 70
     1
 10
0.0
 20
0.0
 30
0.0
  3
*U269
  1

  0
TEXT
  5
12A690
  8
SLIM
 10
134.9523809523809064
 20
-2774.0
 30
0.0
 40
26.0
  1
75
  0
ENDBLK
  5
12A692
  8
0
  0
ENDSEC
  0
SECTION
  2
ENTITIES
  0
LINE
  5
127116
  8
CENTER
 10
2579.9999999999990905
 20
-199.9999999999980105
 30
0.0
 11
2399.9999999999990905
 21
-199.9999999999980105
 31
0.0
1001
ACDBBLOCKREPETAG
1070
     1
1071
       14
1005
0
  0
CIRCLE
  5
127117
  8
OBJECT
 10
2500.0
 20
-199.9999999999980105
 30
0.0
 40
53.5
1001
ACDBBLOCKREPETAG
1070
     1
1071
      344
1005
0
  0
LINE
  5
127118
  8
CENTER
 10
2500.0
 20
-294.9999999999980105
 30
0.0
 11
2500.0
 21
-104.9999999999979963
 31
0.0
1001
ACDBBLOCKREPETAG
1070
     1
1071
       15
1005
0
  0
POINT
  5
12711A
  8
DOTS
 10
2500.0
 20
-199.9999999999980105
 30
0.0
 50
270.0
1001
ACDBBLOCKREPETAG
1070
     1
1071
      362
1005
0
  0
CIRCLE
  5
12711B
  8
OBJECT
 10
2500.0
 20
-199.9999999999980105
 30
0.0
 40
70.0
1001
ACDBBLOCKREPETAG
1070
     1
1071
       16
1005
0
  0
ARC
  5
12711C
  8
OBJECT
 10
2500.0
 20
-199.9999999999980105
 30
0.0
 40
80.0
 50
50.8050325738946924
 51
309.1949674259710719
1001
ACDBBLOCKREPETAG
1070
     1
1071
       18
1005
0
  0
CIRCLE
  5
12711D
  8
OBJECT
 10
2500.0
 20
-199.9999999999980105
 30
0.0
 40
77.0
1001
ACDBBLOCKREPETAG
1070
     1
1071
       17
1005
0
  0
LINE
  5
12711E
  8
OBJECT
 10
2545.6618002273230559
 20
-261.9999999999980105
 30
0.0
 11
2579.9999999999990905
 21
-261.9999999999980105
 31
0.0
1001
ACDBBLOCKREPETAG
1070
     1
1071
       20
1005
0
  0
LINE
  5
12711F
  8
OBJECT
 10
2545.6618002273230559
 20
-137.9999999999980105
 30
0.0
 11
2579.9999999999990905
 21
-137.9999999999980105
 31
0.0
1001
ACDBBLOCKREPETAG
1070
     1
1071
       19
1005
0
  0
LINE
  5
1282AC
  8
OBJECT
 10
2555.0000000000009095
 20
-332.99999999999892
 30
0.0
 11
2555.0000000000009095
 21
-339.99999999999892
 31
0.0
1001
ACDBBLOCKREPETAG
1070
     1
1071
       20
1005
0
  0
LINE
  5
1282AD
  8
OBJECT
 10
2555.0000000000009095
 20
-339.99999999999892
 30
0.0
 11
2445.0000000000009095
 21
-339.99999999999892
 31
0.0
1001
ACDBBLOCKREPETAG
1070
     1
1071
       21
1005
0
  0
LINE
  5
1282AE
  8
OBJECT
 10
2445.0000000000009095
 20
-339.99999999999892
 30
0.0
 11
2445.0000000000009095
 21
-332.99999999999892
 31
0.0
1001
ACDBBLOCKREPETAG
1070
     1
1071
       22
1005
0
  0
LINE
  5
1282AF
  8
OBJECT
 10
2445.0000000000009095
 20
-332.99999999999892
 30
0.0
 11
2555.0000000000009095
 21
-332.99999999999892
 31
0.0
1001
ACDBBLOCKREPETAG
1070
     1
1071
       23
1005
0
  0
LINE
  5
1282B0
  8
CENTER
 10
2500.0000000000009095
 20
-354.99999999999892
 30
0.0
 11
2500.0000000000009095
 21
-279.99999999999892
 31
0.0
1001
ACDBBLOCKREPETAG
1070
     1
1071
       24
1005
0
  0
LINE
  5
1282B1
  8
OBJECT
 10
2552.0000000000009095
 20
-332.99999999999892
 30
0.0
 11
2552.0000000000009095
 21
-296.99999999999892
 31
0.0
1001
ACDBBLOCKREPETAG
1070
     1
1071
       25
1005
0
  0
LINE
  5
1282B2
  8
OBJECT
 10
2552.0000000000009095
 20
-296.99999999999892
 30
0.0
 11
2448.0000000000009095
 21
-296.99999999999892
 31
0.0
1001
ACDBBLOCKREPETAG
1070
     1
1071
       26
1005
0
  0
LINE
  5
1282B3
  8
OBJECT
 10
2448.0000000000009095
 20
-296.99999999999892
 30
0.0
 11
2448.0000000000009095
 21
-332.99999999999892
 31
0.0
1001
ACDBBLOCKREPETAG
1070
     1
1071
       27
1005
0
  0
LINE
  5
1282B4
  8
OBJECT
 10
2547.5000000000009095
 20
-292.99999999999892
 30
0.0
 11
2547.5000000000009095
 21
-284.49999999999892
 31
0.0
1001
ACDBBLOCKREPETAG
1070
     1
1071
       28
1005
0
  0
LINE
  5
1282B5
  8
OBJECT
 10
2452.5000000000009095
 20
-284.49999999999892
 30
0.0
 11
2452.5000000000009095
 21
-292.99999999999892
 31
0.0
1001
ACDBBLOCKREPETAG
1070
     1
1071
       29
1005
0
  0
LINE
  5
1282B6
  8
OBJECT
 10
2452.5000000000009095
 20
-292.99999999999892
 30
0.0
 11
2547.5000000000009095
 21
-292.99999999999892
 31
0.0
1001
ACDBBLOCKREPETAG
1070
     1
1071
       30
1005
0
  0
LINE
  5
1282B7
  8
OBJECT
 10
2552.0000000000009095
 20
-296.99999999999892
 30
0.0
 11
2547.5000000000009095
 21
-292.99999999999892
 31
0.0
1001
ACDBBLOCKREPETAG
1070
     1
1071
       31
1005
0
  0
LINE
  5
1282B8
  8
OBJECT
 10
2448.0000000000009095
 20
-296.99999999999892
 30
0.0
 11
2452.5000000000009095
 21
-292.99999999999892
 31
0.0
1001
ACDBBLOCKREPETAG
1070
     1
1071
       32
1005
0
  0
LINE
  5
1282B9
  8
OBJECT
 10
2450.5000000000009095
 20
-284.499999999997101
 30
0.0
 11
2549.5000000000009095
 21
-284.49999999999892
 31
0.0
1001
ACDBBLOCKREPETAG
1070
     1
1071
       33
1005
0
  0
LINE
  5
1282BA
  8
HIDDEN
 10
2538.0000000000009095
 20
-287.99999999999892
 30
0.0
 11
2462.0000000000009095
 21
-287.99999999999892
 31
0.0
1001
ACDBBLOCKREPETAG
1070
     1
1071
       34
1005
0
  0
LINE
  5
1282BB
  8
OBJECT
 10
2549.5000000000009095
 20
-284.49999999999892
 30
0.0
 11
2549.5000000000009095
 21
-262.8470365252003944
 31
0.0
1001
ACDBBLOCKREPETAG
1070
     1
1071
       35
1005
0
  0
LINE
  5
1282BC
  8
OBJECT
 10
2450.5000000000009095
 20
-284.499999999997101
 30
0.0
 11
2450.5000000000009095
 21
-262.8470365252003944
 31
0.0
1001
ACDBBLOCKREPETAG
1070
     1
1071
       36
1005
0
  0
LINE
  5
1290A5
  8
OBJECT
 10
2325.0
 20
-3864.9999999999968168
 30
0.0
 11
5075.0
 21
-3864.9999999999968168
 31
0.0
  0
LINE
  5
1290A7
  8
SLIM
 10
3256.0
 20
-2922.5000160472709467
 30
0.0
 11
3256.0
 21
-3252.5000160472709467
 31
0.0
  0
LINE
  5
1290A8
  8
SLIM
 10
3380.0
 20
-2922.5000160472709467
 30
0.0
 11
3380.0
 21
-3252.5000160472709467
 31
0.0
  0
LINE
  5
1290A9
  8
SLIM
 10
3510.0
 20
-2982.5000160472700372
 30
0.0
 11
3510.0
 21
-3252.5000160472709467
 31
0.0
  0
LINE
  5
1290AA
  8
SLIM
 10
3640.0
 20
-2982.5000160472700372
 30
0.0
 11
3640.0
 21
-3252.5000160472709467
 31
0.0
  0
LINE
  5
1290AB
  8
SLIM
 10
3770.0
 20
-3252.5000160472709467
 30
0.0
 11
3770.0
 21
-2922.5000160472709467
 31
0.0
  0
LINE
  5
1290AC
  8
SLIM
 10
3770.0
 20
-2922.5000160472709467
 30
0.0
 11
3256.0
 21
-2922.5000160472709467
 31
0.0
  0
LINE
  5
1290AD
  8
SLIM
 10
3769.9999999999990905
 20
-2982.5000160472700372
 30
0.0
 11
3380.0
 21
-2982.5000160472700372
 31
0.0
  0
LINE
  5
1290AE
  8
SLIM
 10
3770.0
 20
-3042.5000160472709467
 30
0.0
 11
3256.0
 21
-3042.5000160472709467
 31
0.0
  0
LINE
  5
1290AF
  8
SLIM
 10
3770.0
 20
-3112.5000160472709467
 30
0.0
 11
3256.0
 21
-3112.5000160472709467
 31
0.0
  0
LINE
  5
1290B0
  8
SLIM
 10
3770.0
 20
-3182.5000160472709467
 30
0.0
 11
3256.0
 21
-3182.5000160472709467
 31
0.0
  0
LINE
  5
1290B1
  8
SLIM
 10
3770.0
 20
-3252.5000160472709467
 30
0.0
 11
3256.0
 21
-3252.5000160472709467
 31
0.0
  0
LINE
  5
1290C2
  8
SLIM
 10
3380.0
 20
-3042.5000160472709467
 30
0.0
 11
3255.9999722746579209
 21
-2922.5000000000009095
 31
0.0
  0
LINE
  5
1290C6
  8
CENTER
 10
2579.9999999999990905
 20
-3459.9999999999968168
 30
0.0
 11
2409.9999999999990905
 21
-3459.9999999999968168
 31
0.0
1001
ACDBBLOCKREPETAG
1070
     1
1071
       14
1005
0
  0
LINE
  5
1290C7
  8
CENTER
 10
2500.0
 20
-3549.9999999999968168
 30
0.0
 11
2500.0
 21
-3369.9999999999968168
 31
0.0
1001
ACDBBLOCKREPETAG
1070
     1
1071
       15
1005
0
  0
CIRCLE
  5
1290C8
  8
OBJECT
 10
2500.0
 20
-3459.9999999999968168
 30
0.0
 40
70.0
1001
ACDBBLOCKREPETAG
1070
     1
1071
       16
1005
0
  0
CIRCLE
  5
1290C9
  8
OBJECT
 10
2500.0
 20
-3459.9999999999968168
 30
0.0
 40
75.0
1001
ACDBBLOCKREPETAG
1070
     1
1071
       17
1005
0
  0
LINE
  5
1290D1
  8
CENTER
 10
2500.0
 20
-3644.999999999998181
 30
0.0
 11
2500.0
 21
-3891.999999999998181
 31
0.0
1001
ACDBBLOCKREPETAG
1070
     1
1071
       25
1005
1290D1
  0
LINE
  5
1290D2
  8
OBJECT
 10
2425.0
 20
-3659.9999999999968168
 30
0.0
 11
2425.0
 21
-3879.999999999998181
 31
0.0
1001
ACDBBLOCKREPETAG
1070
     1
1071
       26
1005
1290D2
  0
LINE
  5
1290D3
  8
OBJECT
 10
2575.0
 20
-3659.9999999999968168
 30
0.0
 11
2575.0
 21
-3756.5000000000618456
 31
0.0
1001
ACDBBLOCKREPETAG
1070
     1
1071
       34
1005
1290D3
  0
LINE
  5
1290DB
  8
OBJECT
 10
2575.0
 20
-3862.4999999999990905
 30
0.0
 11
2575.0
 21
-3879.999999999998181
 31
0.0
1001
ACDBBLOCKREPETAG
1070
     1
1071
       34
1005
1290D3
  0
LINE
  5
1290DC
  8
CENTER
 10
2900.0
 20
-3644.999999999998181
 30
0.0
 11
2900.0
 21
-3891.999999999998181
 31
0.0
1001
ACDBBLOCKREPETAG
1070
     1
1071
       25
1005
1290D1
  0
LINE
  5
1290DD
  8
OBJECT
 10
2825.0
 20
-3659.9999999999968168
 30
0.0
 11
2825.0
 21
-3879.999999999998181
 31
0.0
1001
ACDBBLOCKREPETAG
1070
     1
1071
       26
1005
1290D2
  0
LINE
  5
1290DE
  8
OBJECT
 10
2975.0
 20
-3659.9999999999968168
 30
0.0
 11
2975.0
 21
-3879.999999999998181
 31
0.0
1001
ACDBBLOCKREPETAG
1070
     1
1071
       34
1005
1290D3
  0
LINE
  5
1290E6
  8
CENTER
 10
3579.9999999999990905
 20
-3459.9999999999968168
 30
0.0
 11
3410.0
 21
-3459.9999999999968168
 31
0.0
1001
ACDBBLOCKREPETAG
1070
     1
1071
       14
1005
0
  0
LINE
  5
1290E7
  8
CENTER
 10
3500.0
 20
-3549.9999999999968168
 30
0.0
 11
3500.0
 21
-3369.9999999999968168
 31
0.0
1001
ACDBBLOCKREPETAG
1070
     1
1071
       15
1005
0
  0
CIRCLE
  5
1290E8
  8
OBJECT
 10
3500.0
 20
-3459.9999999999968168
 30
0.0
 40
70.0
1001
ACDBBLOCKREPETAG
1070
     1
1071
       16
1005
0
  0
CIRCLE
  5
1290E9
  8
OBJECT
 10
3500.0
 20
-3459.9999999999968168
 30
0.0
 40
75.0
1001
ACDBBLOCKREPETAG
1070
     1
1071
       17
1005
0
  0
LINE
  5
1290F1
  8
CENTER
 10
3500.0
 20
-3644.999999999998181
 30
0.0
 11
3500.0
 21
-3891.999999999998181
 31
0.0
1001
ACDBBLOCKREPETAG
1070
     1
1071
       25
1005
1290D1
  0
LINE
  5
1290F2
  8
OBJECT
 10
3424.9999999999990905
 20
-3659.9999999999968168
 30
0.0
 11
3424.9999999999990905
 21
-3879.999999999998181
 31
0.0
1001
ACDBBLOCKREPETAG
1070
     1
1071
       26
1005
1290D2
  0
LINE
  5
1290F3
  8
OBJECT
 10
3574.9999999999990905
 20
-3659.9999999999968168
 30
0.0
 11
3574.9999999999990905
 21
-3756.5000000000618456
 31
0.0
1001
ACDBBLOCKREPETAG
1070
     1
1071
       34
1005
1290D3
  0
LINE
  5
1290F4
  8
OBJECT
 10
3574.9999999999990905
 20
-3862.4999999999990905
 30
0.0
 11
3574.9999999999990905
 21
-3879.999999999998181
 31
0.0
1001
ACDBBLOCKREPETAG
1070
     1
1071
       34
1005
1290D3
  0
LINE
  5
1290FC
  8
CENTER
 10
3900.0
 20
-3644.999999999998181
 30
0.0
 11
3900.0
 21
-3891.999999999998181
 31
0.0
1001
ACDBBLOCKREPETAG
1070
     1
1071
       25
1005
1290D1
  0
LINE
  5
1290FD
  8
OBJECT
 10
3824.9999999999990905
 20
-3659.9999999999968168
 30
0.0
 11
3824.9999999999990905
 21
-3879.999999999998181
 31
0.0
1001
ACDBBLOCKREPETAG
1070
     1
1071
       26
1005
1290D2
  0
LINE
  5
1290FE
  8
OBJECT
 10
3975.0
 20
-3659.9999999999968168
 30
0.0
 11
3975.0
 21
-3879.999999999998181
 31
0.0
1001
ACDBBLOCKREPETAG
1070
     1
1071
       34
1005
1290D3
  0
LINE
  5
129106
  8
CENTER
 10
4579.9999999999990905
 20
-3459.9999999999968168
 30
0.0
 11
4409.9999999999990905
 21
-3459.9999999999968168
 31
0.0
1001
ACDBBLOCKREPETAG
1070
     1
1071
       14
1005
0
  0
LINE
  5
129107
  8
CENTER
 10
4499.9999999999990905
 20
-3549.9999999999968168
 30
0.0
 11
4499.9999999999990905
 21
-3369.9999999999968168
 31
0.0
1001
ACDBBLOCKREPETAG
1070
     1
1071
       15
1005
0
  0
CIRCLE
  5
129108
  8
OBJECT
 10
4499.9999999999990905
 20
-3459.9999999999968168
 30
0.0
 40
70.0
1001
ACDBBLOCKREPETAG
1070
     1
1071
       16
1005
0
  0
CIRCLE
  5
129109
  8
OBJECT
 10
4499.9999999999990905
 20
-3459.9999999999968168
 30
0.0
 40
75.0
1001
ACDBBLOCKREPETAG
1070
     1
1071
       17
1005
0
  0
LINE
  5
129111
  8
CENTER
 10
4500.0
 20
-3644.999999999998181
 30
0.0
 11
4500.0
 21
-3891.999999999998181
 31
0.0
1001
ACDBBLOCKREPETAG
1070
     1
1071
       25
1005
1290D1
  0
LINE
  5
129112
  8
OBJECT
 10
4425.0
 20
-3659.9999999999968168
 30
0.0
 11
4425.0
 21
-3879.999999999998181
 31
0.0
1001
ACDBBLOCKREPETAG
1070
     1
1071
       26
1005
1290D2
  0
LINE
  5
129113
  8
OBJECT
 10
4575.0
 20
-3659.9999999999968168
 30
0.0
 11
4575.0
 21
-3756.5000000000618456
 31
0.0
1001
ACDBBLOCKREPETAG
1070
     1
1071
       34
1005
1290D3
  0
LINE
  5
129114
  8
OBJECT
 10
4575.0
 20
-3862.4999999999990905
 30
0.0
 11
4575.0
 21
-3879.999999999998181
 31
0.0
1001
ACDBBLOCKREPETAG
1070
     1
1071
       34
1005
1290D3
  0
LINE
  5
12911C
  8
CENTER
 10
4900.0
 20
-3644.999999999998181
 30
0.0
 11
4900.0
 21
-3891.999999999998181
 31
0.0
1001
ACDBBLOCKREPETAG
1070
     1
1071
       25
1005
1290D1
  0
LINE
  5
12911D
  8
OBJECT
 10
4825.0
 20
-3659.9999999999968168
 30
0.0
 11
4825.0
 21
-3879.999999999998181
 31
0.0
1001
ACDBBLOCKREPETAG
1070
     1
1071
       26
1005
1290D2
  0
LINE
  5
12911E
  8
OBJECT
 10
4975.0
 20
-3659.9999999999968168
 30
0.0
 11
4974.9999999999990905
 21
-3879.999999999998181
 31
0.0
1001
ACDBBLOCKREPETAG
1070
     1
1071
       34
1005
1290D3
  0
POINT
  5
129126
  8
DOTS
 10
2500.0
 20
-3459.9999999999968168
 30
0.0
  0
POINT
  5
129127
  8
DOTS
 10
2500.0
 20
-3864.9999999999968168
 30
0.0
  0
POINT
  5
129128
  8
DOTS
 10
3500.0
 20
-3864.9999999999968168
 30
0.0
  0
POINT
  5
129129
  8
DOTS
 10
3500.0
 20
-3459.9999999999968168
 30
0.0
  0
POINT
  5
12912A
  8
DOTS
 10
4499.9999999999990905
 20
-3459.9999999999968168
 30
0.0
  0
POINT
  5
12912B
  8
DOTS
 10
4499.9999999999990905
 20
-3864.9999999999968168
 30
0.0
  0
LINE
  5
1299B4
  8
OBJECT
 10
2425.0
 20
-770.0000000000001137
 30
0.0
 11
2425.0
 21
-1043.0
 31
0.0
1001
ACDBBLOCKREPETAG
1070
     1
1071
        1
1005
1299B4
  0
LINE
  5
1299B5
  8
CENTER
 10
2500.0
 20
-770.0000000000001137
 30
0.0
 11
2500.0
 21
-1055.0
 31
0.0
1001
ACDBBLOCKREPETAG
1070
     1
1071
        6
1005
1299B5
  0
LINE
  5
1299B6
  8
OBJECT
 10
2420.0
 20
-1055.0
 30
0.0
 11
2580.0
 21
-1055.0
 31
0.0
1001
ACDBBLOCKREPETAG
1070
     1
1071
        7
1005
1299B6
  0
LINE
  5
1299B7
  8
OBJECT
 10
2420.0
 20
-1043.0
 30
0.0
 11
2580.0
 21
-1043.0
 31
0.0
1001
ACDBBLOCKREPETAG
1070
     1
1071
        8
1005
1299B7
  0
LINE
  5
1299B8
  8
OBJECT
 10
2420.0
 20
-1043.0
 30
0.0
 11
2420.0
 21
-1055.0
 31
0.0
1001
ACDBBLOCKREPETAG
1070
     1
1071
        9
1005
1299B8
  0
LINE
  5
1299B9
  8
OBJECT
 10
2580.0
 20
-1043.0
 30
0.0
 11
2580.0
 21
-1055.0
 31
0.0
1001
ACDBBLOCKREPETAG
1070
     1
1071
       10
1005
1299B9
  0
POINT
  5
1299BA
  8
DOTS
 10
2500.0
 20
-1016.0
 30
0.0
 50
180.0
  0
LINE
  5
1299BB
  8
OBJECT
 10
2575.0
 20
-770.0000000000001137
 30
0.0
 11
2575.0
 21
-907.5000000000655973
 31
0.0
1001
ACDBBLOCKREPETAG
1070
     1
1071
        1
1005
1299B4
  0
LINE
  5
1299BC
  8
OBJECT
 10
2633.0
 20
-909.0000000000001137
 30
0.0
 11
2640.0
 21
-909.0000000000001137
 31
0.0
1001
ACDBBLOCKREPETAG
1070
     1
1071
       23
1005
0
  0
LINE
  5
1299BD
  8
OBJECT
 10
2640.0
 20
-909.0000000000001137
 30
0.0
 11
2640.0
 21
-1016.0
 31
0.0
1001
ACDBBLOCKREPETAG
1070
     1
1071
       24
1005
0
  0
LINE
  5
1299BE
  8
OBJECT
 10
2584.5
 20
-910.5000000000654836
 30
0.0
 11
2584.5
 21
-1013.5
 31
0.0
1001
ACDBBLOCKREPETAG
1070
     1
1071
       25
1005
0
  0
ARC
  5
1299BF
  8
OBJECT
 10
2581.5
 20
-910.5000000000654836
 30
0.0
 40
3.0
 50
0.000000000000007
 51
90.0
1001
ACDBBLOCKREPETAG
1070
     1
1071
       26
1005
0
  0
LINE
  5
1299C0
  8
OBJECT
 10
2633.0
 20
-1016.0
 30
0.0
 11
2633.0
 21
-909.0000000000001137
 31
0.0
1001
ACDBBLOCKREPETAG
1070
     1
1071
       27
1005
0
  0
LINE
  5
1299C1
  8
CENTER
 10
2655.0
 20
-964.0000000000002274
 30
0.0
 11
2541.3449199130050147
 21
-964.0000000000655973
 31
0.0
1001
ACDBBLOCKREPETAG
1070
     1
1071
       28
1005
0
  0
LINE
  5
1299C2
  8
OBJECT
 10
2633.0
 20
-912.0000000000002274
 30
0.0
 11
2597.0
 21
-912.0
 31
0.0
1001
ACDBBLOCKREPETAG
1070
     1
1071
       29
1005
0
  0
LINE
  5
1299C3
  8
OBJECT
 10
2597.0
 20
-912.0
 30
0.0
 11
2597.0
 21
-1016.0
 31
0.0
1001
ACDBBLOCKREPETAG
1070
     1
1071
       30
1005
0
  0
LINE
  5
1299C4
  8
OBJECT
 10
2597.0
 20
-1016.0
 30
0.0
 11
2640.0
 21
-1016.0
 31
0.0
1001
ACDBBLOCKREPETAG
1070
     1
1071
       31
1005
0
  0
LINE
  5
1299C5
  8
OBJECT
 10
2593.0
 20
-916.5
 30
0.0
 11
2584.5
 21
-916.5
 31
0.0
1001
ACDBBLOCKREPETAG
1070
     1
1071
       32
1005
0
  0
LINE
  5
1299C6
  8
OBJECT
 10
2584.5
 20
-1011.5
 30
0.0
 11
2593.0
 21
-1011.5
 31
0.0
1001
ACDBBLOCKREPETAG
1070
     1
1071
       33
1005
0
  0
LINE
  5
1299C7
  8
OBJECT
 10
2593.0
 20
-1011.5
 30
0.0
 11
2593.0
 21
-916.5
 31
0.0
1001
ACDBBLOCKREPETAG
1070
     1
1071
       34
1005
0
  0
LINE
  5
1299C8
  8
OBJECT
 10
2597.0
 20
-912.0
 30
0.0
 11
2593.0
 21
-916.5
 31
0.0
1001
ACDBBLOCKREPETAG
1070
     1
1071
       35
1005
0
  0
LINE
  5
1299C9
  8
OBJECT
 10
2597.0
 20
-1016.0
 30
0.0
 11
2593.0
 21
-1011.5
 31
0.0
1001
ACDBBLOCKREPETAG
1070
     1
1071
       36
1005
0
  0
LINE
  5
1299CA
  8
HIDDEN
 10
2588.0
 20
-926.0000000000001137
 30
0.0
 11
2588.0
 21
-1002.0
 31
0.0
1001
ACDBBLOCKREPETAG
1070
     1
1071
       37
1005
0
  0
ARC
  5
1299CB
  8
OBJECT
 10
2664.8782728787741689
 20
-972.4095072612293507
 30
0.0
 40
110.866352283089995
 50
144.1634274193060037
 51
163.0403538043439937
1001
ACDBBLOCKREPETAG
1070
     1
1071
       38
1005
0
  0
ARC
  5
1299CC
  8
OBJECT
 10
2617.1359887769071975
 20
-957.2877497184491631
 30
0.0
 40
60.7917498803589709
 50
163.5472046522131961
 51
179.728796982826708
1001
ACDBBLOCKREPETAG
1070
     1
1071
       39
1005
0
  0
ARC
  5
1299CD
  8
OBJECT
 10
2617.1359956562478146
 20
-963.7122497599013968
 30
0.0
 40
60.7917567620948773
 50
180.2712034781451962
 51
196.4527794605216116
1001
ACDBBLOCKREPETAG
1070
     1
1071
       40
1005
0
  0
ARC
  5
1299CE
  8
OBJECT
 10
2664.8782728787741689
 20
-948.5904927388365877
 30
0.0
 40
110.8663522830916008
 50
196.9596461956560063
 51
215.8365725806939963
1001
ACDBBLOCKREPETAG
1070
     1
1071
       41
1005
0
  0
LINE
  5
1299CF
  8
OBJECT
 10
2556.3449199130050147
 20
-957.0000000000363798
 30
0.0
 11
2556.3449199130050147
 21
-964.0000000000328555
 31
0.0
1001
ACDBBLOCKREPETAG
1070
     1
1071
       42
1005
0
  0
LINE
  5
1299D0
  8
OBJECT
 10
2575.0
 20
-907.5000000000655973
 30
0.0
 11
2581.5
 21
-907.5000000000655973
 31
0.0
1001
ACDBBLOCKREPETAG
1070
     1
1071
       43
1005
0
  0
LINE
  5
1299D1
  8
OBJECT
 10
2575.0
 20
-1013.5
 30
0.0
 11
2584.5
 21
-1013.5
 31
0.0
1001
ACDBBLOCKREPETAG
1070
     1
1071
       44
1005
0
  0
LINE
  5
1299D2
  8
OBJECT
 10
2575.0
 20
-1013.5
 30
0.0
 11
2575.0
 21
-1043.0
 31
0.0
1001
ACDBBLOCKREPETAG
1070
     1
1071
        1
1005
1299B4
  0
CIRCLE
  5
1299D3
  8
OBJECT
 10
2500.0
 20
-964.0
 30
0.0
 40
35.5
1001
ACDBBLOCKREPETAG
1070
     1
1071
       11
1005
1299D3
  0
LINE
  5
1299D4
  8
CENTER
 10
2570.0
 20
-964.0
 30
0.0
 11
2430.0
 21
-964.0
 31
0.0
1001
ACDBBLOCKREPETAG
1070
     1
1071
       12
1005
1299D4
  0
CIRCLE
  5
1299D5
  8
OBJECT
 10
2500.0
 20
-964.0
 30
0.0
 40
47.0
1001
ACDBBLOCKREPETAG
1070
     1
1071
       14
1005
1299D5
  0
ARC
  5
1299D6
  8
OBJECT
 10
2500.0
 20
-964.0
 30
0.0
 40
55.0
 50
289.011265260108928
 51
250.9887347398911004
1001
ACDBBLOCKREPETAG
1070
     1
1071
       15
1005
1299D6
  0
LINE
  5
1299D7
  8
OBJECT
 10
2517.9164728671680678
 20
-1016.0
 30
0.0
 11
2482.0835271328328417
 21
-1016.0
 31
0.0
1001
ACDBBLOCKREPETAG
1070
     1
1071
       16
1005
1299D7
  0
LINE
  5
1299E1
  8
OBJECT
 10
4425.0
 20
-770.0000000000001137
 30
0.0
 11
4425.0
 21
-1043.0
 31
0.0
1001
ACDBBLOCKREPETAG
1070
     1
1071
        1
1005
1299B4
  0
LINE
  5
1299E2
  8
CENTER
 10
4500.0
 20
-770.0000000000001137
 30
0.0
 11
4500.0
 21
-1055.0
 31
0.0
1001
ACDBBLOCKREPETAG
1070
     1
1071
        6
1005
1299B5
  0
LINE
  5
1299E3
  8
OBJECT
 10
4420.0
 20
-1055.0
 30
0.0
 11
4580.0
 21
-1055.0
 31
0.0
1001
ACDBBLOCKREPETAG
1070
     1
1071
        7
1005
1299B6
  0
LINE
  5
1299E4
  8
OBJECT
 10
4420.0
 20
-1043.0
 30
0.0
 11
4580.0
 21
-1043.0
 31
0.0
1001
ACDBBLOCKREPETAG
1070
     1
1071
        8
1005
1299B7
  0
LINE
  5
1299E5
  8
OBJECT
 10
4420.0
 20
-1043.0
 30
0.0
 11
4420.0
 21
-1055.0
 31
0.0
1001
ACDBBLOCKREPETAG
1070
     1
1071
        9
1005
1299B8
  0
LINE
  5
1299E6
  8
OBJECT
 10
4580.0
 20
-1043.0
 30
0.0
 11
4580.0
 21
-1055.0
 31
0.0
1001
ACDBBLOCKREPETAG
1070
     1
1071
       10
1005
1299B9
  0
POINT
  5
1299E7
  8
DOTS
 10
4500.0
 20
-1016.0
 30
0.0
 50
180.0
  0
LINE
  5
1299E8
  8
OBJECT
 10
4575.0
 20
-770.0000000000001137
 30
0.0
 11
4575.0
 21
-907.5000000000655973
 31
0.0
1001
ACDBBLOCKREPETAG
1070
     1
1071
        1
1005
1299B4
  0
LINE
  5
1299E9
  8
OBJECT
 10
4633.0
 20
-909.0000000000001137
 30
0.0
 11
4640.0
 21
-909.0000000000001137
 31
0.0
1001
ACDBBLOCKREPETAG
1070
     1
1071
       23
1005
0
  0
LINE
  5
1299EA
  8
OBJECT
 10
4640.0
 20
-909.0000000000001137
 30
0.0
 11
4640.0
 21
-1016.0
 31
0.0
1001
ACDBBLOCKREPETAG
1070
     1
1071
       24
1005
0
  0
LINE
  5
1299EB
  8
OBJECT
 10
4584.5
 20
-910.5000000000654836
 30
0.0
 11
4584.5
 21
-1013.5
 31
0.0
1001
ACDBBLOCKREPETAG
1070
     1
1071
       25
1005
0
  0
ARC
  5
1299EC
  8
OBJECT
 10
4581.5
 20
-910.5000000000654836
 30
0.0
 40
3.0
 50
0.000000000000007
 51
90.0
1001
ACDBBLOCKREPETAG
1070
     1
1071
       26
1005
0
  0
LINE
  5
1299ED
  8
OBJECT
 10
4633.0
 20
-1016.0
 30
0.0
 11
4633.0
 21
-909.0000000000001137
 31
0.0
1001
ACDBBLOCKREPETAG
1070
     1
1071
       27
1005
0
  0
LINE
  5
1299EE
  8
CENTER
 10
4655.0
 20
-964.0000000000002274
 30
0.0
 11
4541.3449199130036504
 21
-964.0000000000655973
 31
0.0
1001
ACDBBLOCKREPETAG
1070
     1
1071
       28
1005
0
  0
LINE
  5
1299EF
  8
OBJECT
 10
4633.0
 20
-912.0000000000002274
 30
0.0
 11
4597.0
 21
-912.0
 31
0.0
1001
ACDBBLOCKREPETAG
1070
     1
1071
       29
1005
0
  0
LINE
  5
1299F0
  8
OBJECT
 10
4597.0
 20
-912.0
 30
0.0
 11
4597.0
 21
-1016.0
 31
0.0
1001
ACDBBLOCKREPETAG
1070
     1
1071
       30
1005
0
  0
LINE
  5
1299F1
  8
OBJECT
 10
4597.0
 20
-1016.0
 30
0.0
 11
4640.0
 21
-1016.0
 31
0.0
1001
ACDBBLOCKREPETAG
1070
     1
1071
       31
1005
0
  0
LINE
  5
1299F2
  8
OBJECT
 10
4593.0
 20
-916.5
 30
0.0
 11
4584.5
 21
-916.5
 31
0.0
1001
ACDBBLOCKREPETAG
1070
     1
1071
       32
1005
0
  0
LINE
  5
1299F3
  8
OBJECT
 10
4584.5
 20
-1011.5
 30
0.0
 11
4593.0
 21
-1011.5
 31
0.0
1001
ACDBBLOCKREPETAG
1070
     1
1071
       33
1005
0
  0
LINE
  5
1299F4
  8
OBJECT
 10
4593.0
 20
-1011.5
 30
0.0
 11
4593.0
 21
-916.5
 31
0.0
1001
ACDBBLOCKREPETAG
1070
     1
1071
       34
1005
0
  0
LINE
  5
1299F5
  8
OBJECT
 10
4597.0
 20
-912.0
 30
0.0
 11
4593.0
 21
-916.5
 31
0.0
1001
ACDBBLOCKREPETAG
1070
     1
1071
       35
1005
0
  0
LINE
  5
1299F6
  8
OBJECT
 10
4597.0
 20
-1016.0
 30
0.0
 11
4593.0
 21
-1011.5
 31
0.0
1001
ACDBBLOCKREPETAG
1070
     1
1071
       36
1005
0
  0
LINE
  5
1299F7
  8
HIDDEN
 10
4588.0
 20
-926.0000000000001137
 30
0.0
 11
4588.0
 21
-1002.0
 31
0.0
1001
ACDBBLOCKREPETAG
1070
     1
1071
       37
1005
0
  0
ARC
  5
1299F8
  8
OBJECT
 10
4664.8782728787728047
 20
-972.4095072612293507
 30
0.0
 40
110.866352283089995
 50
144.1634274193067995
 51
163.040353804345699
1001
ACDBBLOCKREPETAG
1070
     1
1071
       38
1005
0
  0
ARC
  5
1299F9
  8
OBJECT
 10
4617.1359887769067427
 20
-957.2877497184491631
 30
0.0
 40
60.7917498803589709
 50
163.5472046522139067
 51
179.728796982826708
1001
ACDBBLOCKREPETAG
1070
     1
1071
       39
1005
0
  0
ARC
  5
1299FA
  8
OBJECT
 10
4617.1359956562482694
 20
-963.7122497599013968
 30
0.0
 40
60.7917567620948773
 50
180.2712034781451962
 51
196.4527794605197926
1001
ACDBBLOCKREPETAG
1070
     1
1071
       40
1005
0
  0
ARC
  5
1299FB
  8
OBJECT
 10
4664.8782728787728047
 20
-948.5904927388365877
 30
0.0
 40
110.8663522830916008
 50
196.959646195654301
 51
215.8365725806932005
1001
ACDBBLOCKREPETAG
1070
     1
1071
       41
1005
0
  0
LINE
  5
1299FC
  8
OBJECT
 10
4556.3449199130036504
 20
-957.0000000000363798
 30
0.0
 11
4556.3449199130036504
 21
-964.0000000000328555
 31
0.0
1001
ACDBBLOCKREPETAG
1070
     1
1071
       42
1005
0
  0
LINE
  5
1299FD
  8
OBJECT
 10
4575.0
 20
-907.5000000000655973
 30
0.0
 11
4581.5
 21
-907.5000000000655973
 31
0.0
1001
ACDBBLOCKREPETAG
1070
     1
1071
       43
1005
0
  0
LINE
  5
1299FE
  8
OBJECT
 10
4575.0
 20
-1013.5
 30
0.0
 11
4584.5
 21
-1013.5
 31
0.0
1001
ACDBBLOCKREPETAG
1070
     1
1071
       44
1005
0
  0
LINE
  5
1299FF
  8
OBJECT
 10
4575.0
 20
-1013.5
 30
0.0
 11
4575.0
 21
-1043.0
 31
0.0
1001
ACDBBLOCKREPETAG
1070
     1
1071
        1
1005
1299B4
  0
CIRCLE
  5
129A00
  8
OBJECT
 10
4500.0
 20
-964.0
 30
0.0
 40
35.5
1001
ACDBBLOCKREPETAG
1070
     1
1071
       11
1005
1299D3
  0
LINE
  5
129A01
  8
CENTER
 10
4570.0
 20
-964.0
 30
0.0
 11
4430.0
 21
-964.0
 31
0.0
1001
ACDBBLOCKREPETAG
1070
     1
1071
       12
1005
1299D4
  0
CIRCLE
  5
129A02
  8
OBJECT
 10
4500.0
 20
-964.0
 30
0.0
 40
47.0
1001
ACDBBLOCKREPETAG
1070
     1
1071
       14
1005
1299D5
  0
ARC
  5
129A03
  8
OBJECT
 10
4500.0
 20
-964.0
 30
0.0
 40
55.0
 50
289.0112652601113723
 51
250.988734739888514
1001
ACDBBLOCKREPETAG
1070
     1
1071
       15
1005
1299D6
  0
LINE
  5
129A04
  8
OBJECT
 10
4517.916472867167613
 20
-1016.0
 30
0.0
 11
4482.083527132832387
 21
-1016.0
 31
0.0
1001
ACDBBLOCKREPETAG
1070
     1
1071
       16
1005
1299D7
  0
LINE
  5
129A50
  8
SLIM
 10
4954.0
 20
-644.9999999999957936
 30
0.0
 11
4954.0
 21
-1364.9999999999959073
 31
0.0
  0
LINE
  5
129A51
  8
SLIM
 10
5102.0
 20
-644.9999999999957936
 30
0.0
 11
5102.0
 21
-1364.9999999999959073
 31
0.0
  0
LINE
  5
129A52
  8
SLIM
 10
4850.0
 20
-1364.9999999999959073
 30
0.0
 11
4850.0
 21
-644.9999999999957936
 31
0.0
  0
LINE
  5
129A53
  8
SLIM
 10
5102.0
 20
-644.9999999999957936
 30
0.0
 11
4850.0
 21
-644.9999999999957936
 31
0.0
  0
LINE
  5
129A54
  8
SLIM
 10
5102.0
 20
-692.9999999999956799
 30
0.0
 11
4850.0
 21
-692.9999999999956799
 31
0.0
  0
LINE
  5
129A58
  8
SLIM
 10
5102.0
 20
-740.9999999999962483
 30
0.0
 11
4850.0
 21
-740.9999999999962483
 31
0.0
  0
LINE
  5
129A59
  8
SLIM
 10
5102.0
 20
-788.9999999999962483
 30
0.0
 11
4850.0
 21
-788.9999999999962483
 31
0.0
  0
LINE
  5
129A5A
  8
SLIM
 10
5102.0
 20
-836.9999999999961346
 30
0.0
 11
4850.0
 21
-836.9999999999961346
 31
0.0
  0
LINE
  5
129A60
  8
SLIM
 10
5102.0
 20
-884.9999999999962483
 30
0.0
 11
4850.0
 21
-884.9999999999962483
 31
0.0
  0
LINE
  5
129A63
  8
SLIM
 10
5102.0
 20
-932.9999999999962483
 30
0.0
 11
4850.0
 21
-932.9999999999962483
 31
0.0
  0
LINE
  5
129A66
  8
SLIM
 10
5102.0
 20
-980.9999999999962483
 30
0.0
 11
4850.0
 21
-980.9999999999962483
 31
0.0
  0
LINE
  5
129A69
  8
SLIM
 10
5102.0
 20
-1028.9999999999959073
 30
0.0
 11
4850.0
 21
-1028.9999999999959073
 31
0.0
  0
LINE
  5
129A6C
  8
SLIM
 10
5102.0
 20
-1076.9999999999959073
 30
0.0
 11
4850.0
 21
-1076.9999999999959073
 31
0.0
  0
LINE
  5
129A6E
  8
SLIM
 10
5102.0
 20
-1124.9999999999959073
 30
0.0
 11
4850.0
 21
-1124.9999999999959073
 31
0.0
  0
LINE
  5
129A70
  8
SLIM
 10
5102.0
 20
-1172.9999999999959073
 30
0.0
 11
4850.0
 21
-1172.9999999999959073
 31
0.0
  0
LINE
  5
129A72
  8
SLIM
 10
5102.0
 20
-1220.9999999999959073
 30
0.0
 11
4850.0
 21
-1220.9999999999959073
 31
0.0
  0
LINE
  5
129A74
  8
SLIM
 10
5102.0
 20
-1268.9999999999959073
 30
0.0
 11
4850.0
 21
-1268.9999999999959073
 31
0.0
  0
LINE
  5
129A76
  8
SLIM
 10
5102.0
 20
-1316.9999999999959073
 30
0.0
 11
4850.0
 21
-1316.9999999999959073
 31
0.0
  0
LINE
  5
129A78
  8
SLIM
 10
5102.0
 20
-1364.9999999999959073
 30
0.0
 11
4850.0
 21
-1364.9999999999959073
 31
0.0
  0
LINE
  5
129DCB
  8
CENTER
 10
4580.0
 20
-199.9999999999990905
 30
0.0
 11
4400.0
 21
-199.9999999999990905
 31
0.0
1001
ACDBBLOCKREPETAG
1070
     1
1071
       14
1005
0
  0
LINE
  5
129DCC
  8
CENTER
 10
4500.0
 20
-294.9999999999990905
 30
0.0
 11
4500.0
 21
-99.9999999999990905
 31
0.0
1001
ACDBBLOCKREPETAG
1070
     1
1071
       15
1005
0
  0
CIRCLE
  5
129DCD
  8
OBJECT
 10
4500.0
 20
-199.9999999999990905
 30
0.0
 40
53.5
1001
ACDBBLOCKREPETAG
1070
     1
1071
      344
1005
0
  0
POINT
  5
129DCE
  8
DOTS
 10
4500.0
 20
-199.9999999999990905
 30
0.0
 50
270.0
1001
ACDBBLOCKREPETAG
1070
     1
1071
      362
1005
0
  0
CIRCLE
  5
129DCF
  8
OBJECT
 10
4500.0
 20
-199.9999999999990905
 30
0.0
 40
70.0
1001
ACDBBLOCKREPETAG
1070
     1
1071
       16
1005
0
  0
ARC
  5
129DD0
  8
OBJECT
 10
4500.0
 20
-199.9999999999990905
 30
0.0
 40
80.0
 50
50.8050325738946924
 51
309.1949674259710719
1001
ACDBBLOCKREPETAG
1070
     1
1071
       18
1005
0
  0
CIRCLE
  5
129DD1
  8
OBJECT
 10
4500.0
 20
-199.9999999999990905
 30
0.0
 40
77.0
1001
ACDBBLOCKREPETAG
1070
     1
1071
       17
1005
0
  0
LINE
  5
129DD2
  8
OBJECT
 10
4545.6618002273244201
 20
-261.9999999999990905
 30
0.0
 11
4580.0
 21
-261.9999999999990905
 31
0.0
1001
ACDBBLOCKREPETAG
1070
     1
1071
       20
1005
0
  0
LINE
  5
129DD3
  8
OBJECT
 10
4545.6618002273244201
 20
-137.9999999999990905
 30
0.0
 11
4580.0
 21
-137.9999999999990905
 31
0.0
1001
ACDBBLOCKREPETAG
1070
     1
1071
       19
1005
0
  0
LINE
  5
129DD4
  8
OBJECT
 10
4555.0
 20
-332.9999999999990905
 30
0.0
 11
4555.0
 21
-339.9999999999990905
 31
0.0
1001
ACDBBLOCKREPETAG
1070
     1
1071
       20
1005
0
  0
LINE
  5
129DD5
  8
OBJECT
 10
4555.0
 20
-339.9999999999990905
 30
0.0
 11
4445.0
 21
-339.9999999999990905
 31
0.0
1001
ACDBBLOCKREPETAG
1070
     1
1071
       21
1005
0
  0
LINE
  5
129DD6
  8
OBJECT
 10
4445.0
 20
-339.9999999999990905
 30
0.0
 11
4445.0
 21
-332.9999999999990905
 31
0.0
1001
ACDBBLOCKREPETAG
1070
     1
1071
       22
1005
0
  0
LINE
  5
129DD7
  8
OBJECT
 10
4445.0
 20
-332.9999999999990905
 30
0.0
 11
4555.0
 21
-332.9999999999990905
 31
0.0
1001
ACDBBLOCKREPETAG
1070
     1
1071
       23
1005
0
  0
LINE
  5
129DD8
  8
CENTER
 10
4500.0
 20
-354.9999999999990905
 30
0.0
 11
4500.0
 21
-279.9999999999990905
 31
0.0
1001
ACDBBLOCKREPETAG
1070
     1
1071
       24
1005
0
  0
LINE
  5
129DD9
  8
OBJECT
 10
4552.0
 20
-332.9999999999990905
 30
0.0
 11
4552.0
 21
-296.9999999999990905
 31
0.0
1001
ACDBBLOCKREPETAG
1070
     1
1071
       25
1005
0
  0
LINE
  5
129DDA
  8
OBJECT
 10
4552.0
 20
-296.9999999999990905
 30
0.0
 11
4448.0
 21
-296.9999999999990905
 31
0.0
1001
ACDBBLOCKREPETAG
1070
     1
1071
       26
1005
0
  0
LINE
  5
129DDB
  8
OBJECT
 10
4448.0
 20
-296.9999999999990905
 30
0.0
 11
4448.0
 21
-332.9999999999990905
 31
0.0
1001
ACDBBLOCKREPETAG
1070
     1
1071
       27
1005
0
  0
LINE
  5
129DDC
  8
OBJECT
 10
4547.5
 20
-292.9999999999990905
 30
0.0
 11
4547.5
 21
-284.4999999999990905
 31
0.0
1001
ACDBBLOCKREPETAG
1070
     1
1071
       28
1005
0
  0
LINE
  5
129DDD
  8
OBJECT
 10
4452.4999999999990905
 20
-284.4999999999990905
 30
0.0
 11
4452.4999999999990905
 21
-292.9999999999990905
 31
0.0
1001
ACDBBLOCKREPETAG
1070
     1
1071
       29
1005
0
  0
LINE
  5
129DDE
  8
OBJECT
 10
4452.4999999999990905
 20
-292.9999999999990905
 30
0.0
 11
4547.5
 21
-292.9999999999990905
 31
0.0
1001
ACDBBLOCKREPETAG
1070
     1
1071
       30
1005
0
  0
LINE
  5
129DDF
  8
OBJECT
 10
4552.0
 20
-296.9999999999990905
 30
0.0
 11
4547.5
 21
-292.9999999999990905
 31
0.0
1001
ACDBBLOCKREPETAG
1070
     1
1071
       31
1005
0
  0
LINE
  5
129DE0
  8
OBJECT
 10
4448.0
 20
-296.9999999999990905
 30
0.0
 11
4452.4999999999990905
 21
-292.9999999999990905
 31
0.0
1001
ACDBBLOCKREPETAG
1070
     1
1071
       32
1005
0
  0
LINE
  5
129DE1
  8
OBJECT
 10
4450.5
 20
-284.4999999999973284
 30
0.0
 11
4549.5
 21
-284.4999999999990905
 31
0.0
1001
ACDBBLOCKREPETAG
1070
     1
1071
       33
1005
0
  0
LINE
  5
129DE2
  8
HIDDEN
 10
4538.0
 20
-287.9999999999990905
 30
0.0
 11
4462.0
 21
-287.9999999999990905
 31
0.0
1001
ACDBBLOCKREPETAG
1070
     1
1071
       34
1005
0
  0
LINE
  5
129DE3
  8
OBJECT
 10
4549.5
 20
-284.4999999999990905
 30
0.0
 11
4549.5
 21
-262.8470365252005081
 31
0.0
1001
ACDBBLOCKREPETAG
1070
     1
1071
       35
1005
0
  0
LINE
  5
129DE4
  8
OBJECT
 10
4450.5
 20
-284.4999999999973284
 30
0.0
 11
4450.5
 21
-262.8470365252005081
 31
0.0
1001
ACDBBLOCKREPETAG
1070
     1
1071
       36
1005
0
  0
ARC
  5
129DE5
  8
OBJECT
 10
4500.0
 20
-199.9999999999990905
 30
0.0
 40
85.0
 50
46.8371028597314591
 51
234.3837932714974102
1001
ACDBBLOCKREPETAG
1070
     1
1071
       18
1005
0
  0
ARC
  5
129DE6
  8
OBJECT
 10
4500.0
 20
-199.9999999999990905
 30
0.0
 40
85.0
 50
305.6162067285026183
 51
313.1628971402686261
1001
ACDBBLOCKREPETAG
1070
     1
1071
       18
1005
0
  0
TEXT
  5
129E88
  8
SLIM
 10
0.0
 20
369.9999999999998863
 30
0.0
 40
100.0
  1
4SR2-A3-CXX00-PXXX-S
 41
0.75
  0
TEXT
  5
129E89
  8
SLIM
 10
2350.0
 20
369.9999999999998863
 30
0.0
 40
100.0
  1
4SR2-A3-C2200-P320
 41
0.75
  0
TEXT
  5
129E8A
  8
SLIM
 10
2350.0
 20
532.5
 30
0.0
 40
75.0
  1
側面図の代表機種
 41
0.75
  0
TEXT
  5
129E8B
  8
SLIM
 10
2337.75
 20
282.5000000000001137
 30
0.0
 40
35.0
  1
（枝管サイズ毎に寸法が異なります。管底の位置は全サイズで同じです）
 41
0.75
  0
LINE
  5
129E8C
  8
OBJECT
 10
2633.0
 20
-634.0
 30
0.0
 11
2640.0
 21
-634.0
 31
0.0
1001
ACDBBLOCKREPETAG
1070
     1
1071
       45
1005
129E8C
  0
LINE
  5
129E8D
  8
OBJECT
 10
2640.0
 20
-634.0
 30
0.0
 11
2640.0
 21
-755.0
 31
0.0
1001
ACDBBLOCKREPETAG
1070
     1
1071
       46
1005
129E8D
  0
LINE
  5
129E8E
  8
OBJECT
 10
2633.0
 20
-755.0
 30
0.0
 11
2633.0
 21
-634.0
 31
0.0
1001
ACDBBLOCKREPETAG
1070
     1
1071
       47
1005
129E8E
  0
LINE
  5
129E8F
  8
CENTER
 10
2655.0
 20
-696.0
 30
0.0
 11
2571.0
 21
-696.0
 31
0.0
1001
ACDBBLOCKREPETAG
1070
     1
1071
       48
1005
129E8F
  0
LINE
  5
129E90
  8
OBJECT
 10
2633.0
 20
-637.0
 30
0.0
 11
2597.0
 21
-637.0
 31
0.0
1001
ACDBBLOCKREPETAG
1070
     1
1071
       49
1005
129E90
  0
LINE
  5
129E91
  8
OBJECT
 10
2597.0
 20
-637.0
 30
0.0
 11
2597.0
 21
-755.0
 31
0.0
1001
ACDBBLOCKREPETAG
1070
     1
1071
       50
1005
129E91
  0
LINE
  5
129E92
  8
OBJECT
 10
2597.0
 20
-755.0
 30
0.0
 11
2640.0
 21
-755.0
 31
0.0
1001
ACDBBLOCKREPETAG
1070
     1
1071
       51
1005
129E92
  0
LINE
  5
129E93
  8
OBJECT
 10
2593.0
 20
-641.5
 30
0.0
 11
2586.0
 21
-641.5
 31
0.0
1001
ACDBBLOCKREPETAG
1070
     1
1071
       52
1005
129E93
  0
LINE
  5
129E94
  8
OBJECT
 10
2586.0
 20
-750.4999999999998863
 30
0.0
 11
2593.0
 21
-750.4999999999998863
 31
0.0
1001
ACDBBLOCKREPETAG
1070
     1
1071
       53
1005
129E94
  0
LINE
  5
129E95
  8
OBJECT
 10
2593.0
 20
-750.4999999999998863
 30
0.0
 11
2593.0
 21
-641.5
 31
0.0
1001
ACDBBLOCKREPETAG
1070
     1
1071
       54
1005
129E95
  0
LINE
  5
129E96
  8
OBJECT
 10
2597.0
 20
-637.0
 30
0.0
 11
2593.0
 21
-641.5
 31
0.0
1001
ACDBBLOCKREPETAG
1070
     1
1071
       55
1005
129E96
  0
LINE
  5
129E97
  8
OBJECT
 10
2597.0
 20
-755.0
 30
0.0
 11
2593.0
 21
-750.4999999999998863
 31
0.0
1001
ACDBBLOCKREPETAG
1070
     1
1071
       56
1005
129E97
  0
LINE
  5
129E98
  8
OBJECT
 10
2583.0
 20
-634.0
 30
0.0
 11
2580.0
 21
-634.0
 31
0.0
1001
ACDBBLOCKREPETAG
1070
     1
1071
       57
1005
129E98
  0
ARC
  5
129E99
  8
OBJECT
 10
2583.0
 20
-637.0
 30
0.0
 40
3.0
 50
0.0
 51
90.0
1001
ACDBBLOCKREPETAG
1070
     1
1071
       58
1005
129E99
  0
LINE
  5
129E9A
  8
OBJECT
 10
2580.0
 20
-758.0
 30
0.0
 11
2583.0
 21
-758.0
 31
0.0
1001
ACDBBLOCKREPETAG
1070
     1
1071
       59
1005
129E9A
  0
ARC
  5
129E9B
  8
OBJECT
 10
2583.0
 20
-755.0
 30
0.0
 40
3.0
 50
270.0
 51
0.0
1001
ACDBBLOCKREPETAG
1070
     1
1071
       60
1005
129E9B
  0
LINE
  5
129E9C
  8
OBJECT
 10
2586.0
 20
-755.0
 30
0.0
 11
2586.0
 21
-637.0
 31
0.0
1001
ACDBBLOCKREPETAG
1070
     1
1071
       61
1005
129E9C
  0
LINE
  5
129E9D
  8
HIDDEN
 10
2588.0
 20
-651.5
 30
0.0
 11
2588.0
 21
-740.5
 31
0.0
1001
ACDBBLOCKREPETAG
1070
     1
1071
       63
1005
129E9D
  0
LINE
  5
129E9E
  8
OBJECT
 10
4633.0
 20
-634.0
 30
0.0
 11
4640.0
 21
-634.0
 31
0.0
1001
ACDBBLOCKREPETAG
1070
     1
1071
       45
1005
129E9E
  0
LINE
  5
129E9F
  8
OBJECT
 10
4640.0
 20
-634.0
 30
0.0
 11
4640.0
 21
-755.0
 31
0.0
1001
ACDBBLOCKREPETAG
1070
     1
1071
       46
1005
129E9F
  0
LINE
  5
129EA0
  8
OBJECT
 10
4633.0
 20
-755.0
 30
0.0
 11
4633.0
 21
-634.0
 31
0.0
1001
ACDBBLOCKREPETAG
1070
     1
1071
       47
1005
129EA0
  0
LINE
  5
129EA1
  8
CENTER
 10
4655.0
 20
-696.0
 30
0.0
 11
4571.0
 21
-696.0
 31
0.0
1001
ACDBBLOCKREPETAG
1070
     1
1071
       48
1005
129EA1
  0
LINE
  5
129EA2
  8
OBJECT
 10
4633.0
 20
-637.0
 30
0.0
 11
4597.0
 21
-637.0
 31
0.0
1001
ACDBBLOCKREPETAG
1070
     1
1071
       49
1005
129EA2
  0
LINE
  5
129EA3
  8
OBJECT
 10
4597.0
 20
-637.0
 30
0.0
 11
4597.0
 21
-755.0
 31
0.0
1001
ACDBBLOCKREPETAG
1070
     1
1071
       50
1005
129EA3
  0
LINE
  5
129EA4
  8
OBJECT
 10
4597.0
 20
-755.0
 30
0.0
 11
4640.0
 21
-755.0
 31
0.0
1001
ACDBBLOCKREPETAG
1070
     1
1071
       51
1005
129EA4
  0
LINE
  5
129EA5
  8
OBJECT
 10
4593.0
 20
-641.5
 30
0.0
 11
4586.0
 21
-641.5
 31
0.0
1001
ACDBBLOCKREPETAG
1070
     1
1071
       52
1005
129EA5
  0
LINE
  5
129EA6
  8
OBJECT
 10
4586.0
 20
-750.4999999999998863
 30
0.0
 11
4593.0
 21
-750.4999999999998863
 31
0.0
1001
ACDBBLOCKREPETAG
1070
     1
1071
       53
1005
129EA6
  0
LINE
  5
129EA7
  8
OBJECT
 10
4593.0
 20
-750.4999999999998863
 30
0.0
 11
4593.0
 21
-641.5
 31
0.0
1001
ACDBBLOCKREPETAG
1070
     1
1071
       54
1005
129EA7
  0
LINE
  5
129EA8
  8
OBJECT
 10
4597.0
 20
-637.0
 30
0.0
 11
4593.0
 21
-641.5
 31
0.0
1001
ACDBBLOCKREPETAG
1070
     1
1071
       55
1005
129EA8
  0
LINE
  5
129EA9
  8
OBJECT
 10
4597.0
 20
-755.0
 30
0.0
 11
4593.0
 21
-750.4999999999998863
 31
0.0
1001
ACDBBLOCKREPETAG
1070
     1
1071
       56
1005
129EA9
  0
LINE
  5
129EAA
  8
OBJECT
 10
4583.0
 20
-634.0
 30
0.0
 11
4580.0
 21
-634.0
 31
0.0
1001
ACDBBLOCKREPETAG
1070
     1
1071
       57
1005
129EAA
  0
ARC
  5
129EAB
  8
OBJECT
 10
4583.0
 20
-637.0
 30
0.0
 40
3.0
 50
0.0
 51
90.0
1001
ACDBBLOCKREPETAG
1070
     1
1071
       58
1005
129EAB
  0
LINE
  5
129EAC
  8
OBJECT
 10
4580.0
 20
-758.0
 30
0.0
 11
4583.0
 21
-758.0
 31
0.0
1001
ACDBBLOCKREPETAG
1070
     1
1071
       59
1005
129EAC
  0
ARC
  5
129EAD
  8
OBJECT
 10
4583.0
 20
-755.0
 30
0.0
 40
3.0
 50
270.0
 51
0.0
1001
ACDBBLOCKREPETAG
1070
     1
1071
       60
1005
129EAD
  0
LINE
  5
129EAE
  8
OBJECT
 10
4586.0
 20
-755.0
 30
0.0
 11
4586.0
 21
-637.0
 31
0.0
1001
ACDBBLOCKREPETAG
1070
     1
1071
       61
1005
129EAE
  0
LINE
  5
129EAF
  8
HIDDEN
 10
4588.0
 20
-651.5
 30
0.0
 11
4588.0
 21
-740.5
 31
0.0
1001
ACDBBLOCKREPETAG
1070
     1
1071
       63
1005
129EAF
  0
LINE
  5
129EB0
  8
DIM
 10
2665.0000000000009095
 20
-696.0000000000002274
 30
0.0
 11
2719.4245816727589045
 21
-696.0000000000002274
 31
0.0
  0
LINE
  5
129EB1
  8
DIM
 10
2650.0000000000009095
 20
-1016.0
 30
0.0
 11
2719.4245816727589045
 21
-1016.0
 31
0.0
  0
LINE
  5
129EB2
  8
DIM
 10
2709.4245816727589045
 20
-716.0000000000002274
 30
0.0
 11
2709.4245816727589045
 21
-996.0000000000004547
 31
0.0
  0
INSERT
  5
129EB3
  8
DIM
  2
_OPEN30
 10
2709.4245816727589045
 20
-696.0000000000002274
 30
0.0
 41
20.0
 42
20.0
 43
20.0
 50
90.0
  0
INSERT
  5
129EB4
  8
DIM
  2
_OPEN30
 10
2709.4245816727589045
 20
-1016.0
 30
0.0
 41
20.0
 42
20.0
 43
20.0
 50
270.0
  0
INSERT
  5
129EB5
  8
SLIM
  2
*U245
 10
0.0
 20
0.0
 30
0.0
  0
LINE
  5
129EB6
  8
DIM
 10
4665.0000000000009095
 20
-696.0000000000002274
 30
0.0
 11
4719.4245816727607234
 21
-696.0000000000002274
 31
0.0
  0
LINE
  5
129EB7
  8
DIM
 10
4650.000000000001819
 20
-1016.0
 30
0.0
 11
4719.4245816727607234
 21
-1016.0
 31
0.0
  0
LINE
  5
129EB8
  8
DIM
 10
4709.4245816727607234
 20
-716.0000000000002274
 30
0.0
 11
4709.4245816727607234
 21
-996.0000000000004547
 31
0.0
  0
INSERT
  5
129EB9
  8
DIM
  2
_OPEN30
 10
4709.4245816727607234
 20
-696.0000000000002274
 30
0.0
 41
20.0
 42
20.0
 43
20.0
 50
90.0
  0
INSERT
  5
129EBA
  8
DIM
  2
_OPEN30
 10
4709.4245816727607234
 20
-1016.0
 30
0.0
 41
20.0
 42
20.0
 43
20.0
 50
270.0
  0
INSERT
  5
129EBB
  8
SLIM
  2
*U246
 10
0.0
 20
0.0
 30
0.0
  0
LINE
  5
129EBC
  8
DIM
 10
4404.9999999999936335
 20
-1016.0
 30
0.0
 11
4333.1164560757761137
 21
-1016.0
 31
0.0
  0
LINE
  5
129EBD
  8
DIM
 10
4410.0000000000009095
 20
-1256.0
 30
0.0
 11
4333.1164560757761137
 21
-1256.0
 31
0.0
  0
LINE
  5
129EBE
  8
DIM
 10
4343.1164560757761137
 20
-1036.0
 30
0.0
 11
4343.1164560757761137
 21
-1236.0
 31
0.0
  0
INSERT
  5
129EBF
  8
DIM
  2
_OPEN30
 10
4343.1164560757761137
 20
-1016.0
 30
0.0
 41
20.0
 42
20.0
 43
20.0
 50
90.0
  0
INSERT
  5
129EC0
  8
DIM
  2
_OPEN30
 10
4343.1164560757761137
 20
-1256.0
 30
0.0
 41
20.0
 42
20.0
 43
20.0
 50
270.0
  0
INSERT
  5
129EC1
  8
SLIM
  2
*U247
 10
0.0
 20
0.0
 30
0.0
  0
LINE
  5
129EC2
  8
OBJECT
 10
2430.0
 20
-1364.9999999999979536
 30
0.0
 11
2570.0
 21
-1364.9999999999979536
 31
0.0
1001
ACDBBLOCKREPETAG
1070
     1
1071
        0
1005
129EC2
  0
LINE
  5
129EC3
  8
OBJECT
 10
2430.0
 20
-1364.9999999999979536
 30
0.0
 11
2430.0
 21
-1124.9999999999979536
 31
0.0
1001
ACDBBLOCKREPETAG
1070
     1
1071
        1
1005
129EC3
  0
LINE
  5
129EC4
  8
OBJECT
 10
2570.0
 20
-1364.9999999999979536
 30
0.0
 11
2570.0
 21
-1124.9999999999979536
 31
0.0
1001
ACDBBLOCKREPETAG
1070
     1
1071
        2
1005
129EC4
  0
LINE
  5
129EC5
  8
OBJECT
 10
2430.0
 20
-1124.9999999999979536
 30
0.0
 11
2570.0
 21
-1124.9999999999979536
 31
0.0
1001
ACDBBLOCKREPETAG
1070
     1
1071
        3
1005
129EC5
  0
LINE
  5
129EC6
  8
HIDDEN
 10
2437.5
 20
-1124.9999999999979536
 30
0.0
 11
2437.5
 21
-1364.9999999999979536
 31
0.0
1001
ACDBBLOCKREPETAG
1070
     1
1071
        4
1005
129EC6
  0
LINE
  5
129EC7
  8
HIDDEN
 10
2562.5
 20
-1124.9999999999979536
 30
0.0
 11
2562.5
 21
-1364.9999999999979536
 31
0.0
1001
ACDBBLOCKREPETAG
1070
     1
1071
        5
1005
129EC7
  0
LINE
  5
129EC8
  8
CENTER
 10
2500.0
 20
-1055.0
 30
0.0
 11
2500.0
 21
-1379.9999999999979536
 31
0.0
1001
ACDBBLOCKREPETAG
1070
     1
1071
        6
1005
129EC8
  0
LINE
  5
129EC9
  8
OBJECT
 10
2425.0
 20
-1055.0
 30
0.0
 11
2425.0
 21
-1084.9999999999979536
 31
0.0
1001
ACDBBLOCKREPETAG
1070
     1
1071
        7
1005
129EC9
  0
LINE
  5
129ECA
  8
OBJECT
 10
2575.0000000000040927
 20
-1055.0
 30
0.0
 11
2575.0
 21
-1084.9999999999979536
 31
0.0
1001
ACDBBLOCKREPETAG
1070
     1
1071
        8
1005
129ECA
  0
LINE
  5
129ECB
  8
OBJECT
 10
2425.0
 20
-1084.9999999999979536
 30
0.0
 11
2575.0
 21
-1084.9999999999979536
 31
0.0
1001
ACDBBLOCKREPETAG
1070
     1
1071
        9
1005
129ECB
  0
LINE
  5
129ECC
  8
OBJECT
 10
2425.0
 20
-1084.9999999999979536
 30
0.0
 11
2430.0
 21
-1124.9999999999979536
 31
0.0
1001
ACDBBLOCKREPETAG
1070
     1
1071
       10
1005
129ECC
  0
LINE
  5
129ECD
  8
OBJECT
 10
2570.0
 20
-1124.9999999999979536
 30
0.0
 11
2575.0
 21
-1084.9999999999979536
 31
0.0
1001
ACDBBLOCKREPETAG
1070
     1
1071
       11
1005
129ECD
  0
LINE
  5
129ECE
  8
OBJECT
 10
4430.0
 20
-1364.9999999999979536
 30
0.0
 11
4570.0
 21
-1364.9999999999979536
 31
0.0
1001
ACDBBLOCKREPETAG
1070
     1
1071
        0
1005
129ECE
  0
LINE
  5
129ECF
  8
OBJECT
 10
4430.0
 20
-1364.9999999999979536
 30
0.0
 11
4430.0
 21
-1124.9999999999979536
 31
0.0
1001
ACDBBLOCKREPETAG
1070
     1
1071
        1
1005
129ECF
  0
LINE
  5
129ED0
  8
OBJECT
 10
4570.0
 20
-1364.9999999999979536
 30
0.0
 11
4570.0
 21
-1124.9999999999979536
 31
0.0
1001
ACDBBLOCKREPETAG
1070
     1
1071
        2
1005
129ED0
  0
LINE
  5
129ED1
  8
OBJECT
 10
4430.0
 20
-1124.9999999999979536
 30
0.0
 11
4570.0
 21
-1124.9999999999979536
 31
0.0
1001
ACDBBLOCKREPETAG
1070
     1
1071
        3
1005
129ED1
  0
LINE
  5
129ED2
  8
HIDDEN
 10
4437.5
 20
-1124.9999999999979536
 30
0.0
 11
4437.5
 21
-1364.9999999999979536
 31
0.0
1001
ACDBBLOCKREPETAG
1070
     1
1071
        4
1005
129ED2
  0
LINE
  5
129ED3
  8
HIDDEN
 10
4562.5
 20
-1124.9999999999979536
 30
0.0
 11
4562.5
 21
-1364.9999999999979536
 31
0.0
1001
ACDBBLOCKREPETAG
1070
     1
1071
        5
1005
129ED3
  0
LINE
  5
129ED4
  8
CENTER
 10
4500.0
 20
-1055.0
 30
0.0
 11
4500.0
 21
-1379.9999999999979536
 31
0.0
1001
ACDBBLOCKREPETAG
1070
     1
1071
        6
1005
129ED4
  0
LINE
  5
129ED5
  8
OBJECT
 10
4425.0
 20
-1055.0
 30
0.0
 11
4425.0
 21
-1084.9999999999979536
 31
0.0
1001
ACDBBLOCKREPETAG
1070
     1
1071
        7
1005
129ED5
  0
LINE
  5
129ED6
  8
OBJECT
 10
4575.0000000000027285
 20
-1055.0
 30
0.0
 11
4575.0
 21
-1084.9999999999979536
 31
0.0
1001
ACDBBLOCKREPETAG
1070
     1
1071
        8
1005
129ED6
  0
LINE
  5
129ED7
  8
OBJECT
 10
4425.0
 20
-1084.9999999999979536
 30
0.0
 11
4575.0
 21
-1084.9999999999979536
 31
0.0
1001
ACDBBLOCKREPETAG
1070
     1
1071
        9
1005
129ED7
  0
LINE
  5
129ED8
  8
OBJECT
 10
4425.0
 20
-1084.9999999999979536
 30
0.0
 11
4430.0
 21
-1124.9999999999979536
 31
0.0
1001
ACDBBLOCKREPETAG
1070
     1
1071
       10
1005
129ED8
  0
LINE
  5
129ED9
  8
OBJECT
 10
4570.0
 20
-1124.9999999999979536
 30
0.0
 11
4575.0
 21
-1084.9999999999979536
 31
0.0
1001
ACDBBLOCKREPETAG
1070
     1
1071
       11
1005
129ED9
  0
LINE
  5
129EDA
  8
SLIM
 10
4414.999999999992724
 20
-1032.2369265471759263
 30
0.0
 11
4431.2369265471697872
 21
-1016.0
 31
0.0
1001
GRADIENTCOLOR1ACI
1070
     5
1001
GRADIENTCOLOR2ACI
1070
     2
1001
ACAD
1010
0.0
1020
0.0
1030
0.0
  0
LINE
  5
129EDB
  8
SLIM
 10
4414.9999999999936335
 20
-1050.1974387893139919
 30
0.0
 11
4449.1974387893078529
 21
-1016.0
 31
0.0
1001
GRADIENTCOLOR1ACI
1070
     5
1001
GRADIENTCOLOR2ACI
1070
     2
1001
ACAD
1010
0.0
1020
0.0
1030
0.0
  0
LINE
  5
129EDC
  8
SLIM
 10
4414.9999999999954525
 20
-1068.1579510314509207
 30
0.0
 11
4467.1579510314459185
 21
-1016.0
 31
0.0
1001
GRADIENTCOLOR1ACI
1070
     5
1001
GRADIENTCOLOR2ACI
1070
     2
1001
ACAD
1010
0.0
1020
0.0
1030
0.0
  0
LINE
  5
129EDD
  8
SLIM
 10
4415.1454972543142503
 20
-1085.9729660192690517
 30
0.0
 11
4485.1184632735848936
 21
-1016.0
 31
0.0
1001
GRADIENTCOLOR1ACI
1070
     5
1001
GRADIENTCOLOR2ACI
1070
     2
1001
ACAD
1010
0.0
1020
0.0
1030
0.0
  0
LINE
  5
129EDE
  8
SLIM
 10
4417.1046274952441308
 20
-1101.9743480204790558
 30
0.0
 11
4503.0789755157220497
 21
-1016.0
 31
0.0
1001
GRADIENTCOLOR1ACI
1070
     5
1001
GRADIENTCOLOR2ACI
1070
     2
1001
ACAD
1010
0.0
1020
0.0
1030
0.0
  0
LINE
  5
129EDF
  8
SLIM
 10
4419.0637577361712829
 20
-1117.9757300216890599
 30
0.0
 11
4521.0394877578619344
 21
-1016.0
 31
0.0
1001
GRADIENTCOLOR1ACI
1070
     5
1001
GRADIENTCOLOR2ACI
1070
     2
1001
ACAD
1010
0.0
1020
0.0
1030
0.0
  0
LINE
  5
129EE0
  8
SLIM
 10
4420.0
 20
-1135.0
 30
0.0
 11
4539.0
 21
-1016.0
 31
0.0
1001
GRADIENTCOLOR1ACI
1070
     5
1001
GRADIENTCOLOR2ACI
1070
     2
1001
ACAD
1010
0.0
1020
0.0
1030
0.0
  0
LINE
  5
129EE1
  8
SLIM
 10
4420.0
 20
-1152.9605122421380656
 30
0.0
 11
4556.9605122421371561
 21
-1016.0
 31
0.0
1001
GRADIENTCOLOR1ACI
1070
     5
1001
GRADIENTCOLOR2ACI
1070
     2
1001
ACAD
1010
0.0
1020
0.0
1030
0.0
  0
LINE
  5
129EE2
  8
SLIM
 10
4420.0
 20
-1170.9210244842759039
 30
0.0
 11
4574.9210244842770408
 21
-1016.0
 31
0.0
1001
GRADIENTCOLOR1ACI
1070
     5
1001
GRADIENTCOLOR2ACI
1070
     2
1001
ACAD
1010
0.0
1020
0.0
1030
0.0
  0
LINE
  5
129EE3
  8
SLIM
 10
4420.0
 20
-1188.8815367264151064
 30
0.0
 11
4585.000000000007276
 21
-1023.8815367264079441
 31
0.0
1001
GRADIENTCOLOR1ACI
1070
     5
1001
GRADIENTCOLOR2ACI
1070
     2
1001
ACAD
1010
0.0
1020
0.0
1030
0.0
  0
LINE
  5
129EE4
  8
SLIM
 10
4420.0
 20
-1206.8420489685529446
 30
0.0
 11
4585.0000000000063665
 21
-1041.8420489685470329
 31
0.0
1001
GRADIENTCOLOR1ACI
1070
     5
1001
GRADIENTCOLOR2ACI
1070
     2
1001
ACAD
1010
0.0
1020
0.0
1030
0.0
  0
LINE
  5
129EE5
  8
SLIM
 10
4420.0
 20
-1224.8025612106910103
 30
0.0
 11
4585.000000000003638
 21
-1059.8025612106860081
 31
0.0
1001
GRADIENTCOLOR1ACI
1070
     5
1001
GRADIENTCOLOR2ACI
1070
     2
1001
ACAD
1010
0.0
1020
0.0
1030
0.0
  0
LINE
  5
129EE6
  8
SLIM
 10
4420.0
 20
-1242.7630734528299854
 30
0.0
 11
4585.0000000000027285
 21
-1077.7630734528258927
 31
0.0
1001
GRADIENTCOLOR1ACI
1070
     5
1001
GRADIENTCOLOR2ACI
1070
     2
1001
ACAD
1010
0.0
1020
0.0
1030
0.0
  0
LINE
  5
129EE7
  8
SLIM
 10
4424.7235856949691879
 20
-1256.0
 30
0.0
 11
4583.4738280308083631
 21
-1097.2497576641590058
 31
0.0
1001
GRADIENTCOLOR1ACI
1070
     5
1001
GRADIENTCOLOR2ACI
1070
     2
1001
ACAD
1010
0.0
1020
0.0
1030
0.0
  0
LINE
  5
129EE8
  8
SLIM
 10
4430.0
 20
-1268.6840979371058893
 30
0.0
 11
4442.684097937106344
 21
-1256.0
 31
0.0
1001
GRADIENTCOLOR1ACI
1070
     5
1001
GRADIENTCOLOR2ACI
1070
     2
1001
ACAD
1010
0.0
1020
0.0
1030
0.0
  0
LINE
  5
129EE9
  8
SLIM
 10
4442.684097937106344
 20
-1256.0
 30
0.0
 11
4580.9680345671367832
 21
-1117.7160633699691061
 31
0.0
1001
GRADIENTCOLOR1ACI
1070
     5
1001
GRADIENTCOLOR2ACI
1070
     2
1001
ACAD
1010
0.0
1020
0.0
1030
0.0
  0
LINE
  5
129EEA
  8
SLIM
 10
4441.6446101792453192
 20
-1275.0
 30
0.0
 11
4460.6446101792444097
 21
-1256.0
 31
0.0
1001
GRADIENTCOLOR1ACI
1070
     5
1001
GRADIENTCOLOR2ACI
1070
     2
1001
ACAD
1010
0.0
1020
0.0
1030
0.0
  0
LINE
  5
129EEB
  8
SLIM
 10
4460.6446101792444097
 20
-1256.0
 30
0.0
 11
4580.0
 21
-1136.6446101792450918
 31
0.0
1001
GRADIENTCOLOR1ACI
1070
     5
1001
GRADIENTCOLOR2ACI
1070
     2
1001
ACAD
1010
0.0
1020
0.0
1030
0.0
  0
LINE
  5
129EEC
  8
SLIM
 10
4459.6051224213833848
 20
-1275.0
 30
0.0
 11
4478.6051224213842943
 21
-1256.0
 31
0.0
1001
GRADIENTCOLOR1ACI
1070
     5
1001
GRADIENTCOLOR2ACI
1070
     2
1001
ACAD
1010
0.0
1020
0.0
1030
0.0
  0
LINE
  5
129EED
  8
SLIM
 10
4478.6051224213842943
 20
-1256.0
 30
0.0
 11
4580.0
 21
-1154.60512242138293
 31
0.0
1001
GRADIENTCOLOR1ACI
1070
     5
1001
GRADIENTCOLOR2ACI
1070
     2
1001
ACAD
1010
0.0
1020
0.0
1030
0.0
  0
LINE
  5
129EEE
  8
SLIM
 10
4477.5656346635214504
 20
-1275.0
 30
0.0
 11
4496.5656346635214504
 21
-1256.0
 31
0.0
1001
GRADIENTCOLOR1ACI
1070
     5
1001
GRADIENTCOLOR2ACI
1070
     2
1001
ACAD
1010
0.0
1020
0.0
1030
0.0
  0
LINE
  5
129EEF
  8
SLIM
 10
4496.5656346635214504
 20
-1256.0
 30
0.0
 11
4579.9999999999990905
 21
-1172.5656346635219052
 31
0.0
1001
GRADIENTCOLOR1ACI
1070
     5
1001
GRADIENTCOLOR2ACI
1070
     2
1001
ACAD
1010
0.0
1020
0.0
1030
0.0
  0
LINE
  5
129EF0
  8
SLIM
 10
4495.5261469056586066
 20
-1275.0
 30
0.0
 11
4514.5261469056604255
 21
-1256.0
 31
0.0
1001
GRADIENTCOLOR1ACI
1070
     5
1001
GRADIENTCOLOR2ACI
1070
     2
1001
ACAD
1010
0.0
1020
0.0
1030
0.0
  0
LINE
  5
129EF1
  8
SLIM
 10
4514.5261469056604255
 20
-1256.0
 30
0.0
 11
4579.9999999999990905
 21
-1190.5261469056599708
 31
0.0
1001
GRADIENTCOLOR1ACI
1070
     5
1001
GRADIENTCOLOR2ACI
1070
     2
1001
ACAD
1010
0.0
1020
0.0
1030
0.0
  0
LINE
  5
129EF2
  8
SLIM
 10
4513.4866591477975817
 20
-1275.0
 30
0.0
 11
4532.4866591477994007
 21
-1256.0
 31
0.0
1001
GRADIENTCOLOR1ACI
1070
     5
1001
GRADIENTCOLOR2ACI
1070
     2
1001
ACAD
1010
0.0
1020
0.0
1030
0.0
  0
LINE
  5
129EF3
  8
SLIM
 10
4532.4866591477994007
 20
-1256.0
 30
0.0
 11
4579.9999999999990905
 21
-1208.4866591477989459
 31
0.0
1001
GRADIENTCOLOR1ACI
1070
     5
1001
GRADIENTCOLOR2ACI
1070
     2
1001
ACAD
1010
0.0
1020
0.0
1030
0.0
  0
LINE
  5
129EF4
  8
SLIM
 10
4531.4471713899356473
 20
-1275.0
 30
0.0
 11
4550.4471713899356473
 21
-1256.0
 31
0.0
1001
GRADIENTCOLOR1ACI
1070
     5
1001
GRADIENTCOLOR2ACI
1070
     2
1001
ACAD
1010
0.0
1020
0.0
1030
0.0
  0
LINE
  5
129EF5
  8
SLIM
 10
4550.4471713899356473
 20
-1256.0
 30
0.0
 11
4579.999999999998181
 21
-1226.447171389937921
 31
0.0
1001
GRADIENTCOLOR1ACI
1070
     5
1001
GRADIENTCOLOR2ACI
1070
     2
1001
ACAD
1010
0.0
1020
0.0
1030
0.0
  0
LINE
  5
129EF6
  8
SLIM
 10
4549.4076836320737129
 20
-1275.0
 30
0.0
 11
4568.4076836320746224
 21
-1256.0
 31
0.0
1001
GRADIENTCOLOR1ACI
1070
     5
1001
GRADIENTCOLOR2ACI
1070
     2
1001
ACAD
1010
0.0
1020
0.0
1030
0.0
  0
LINE
  5
129EF7
  8
SLIM
 10
4568.4076836320746224
 20
-1256.0
 30
0.0
 11
4579.999999999998181
 21
-1244.4076836320759867
 31
0.0
1001
GRADIENTCOLOR1ACI
1070
     5
1001
GRADIENTCOLOR2ACI
1070
     2
1001
ACAD
1010
0.0
1020
0.0
1030
0.0
  0
LINE
  5
129EF8
  8
SLIM
 10
4567.3681958742117786
 20
-1275.0
 30
0.0
 11
4570.0
 21
-1272.3681958742129154
 31
0.0
1001
GRADIENTCOLOR1ACI
1070
     5
1001
GRADIENTCOLOR2ACI
1070
     2
1001
ACAD
1010
0.0
1020
0.0
1030
0.0
  0
LINE
  5
129EF9
  8
OBJECT
 10
4414.9999999999918145
 20
-1016.0
 30
0.0
 11
4414.999999999996362
 21
-1084.7846033990349497
 31
0.0
1001
ACDBBLOCKREPETAG
1070
     1
1071
        1
1005
129EF9
  0
LINE
  5
129EFA
  8
OBJECT
 10
4585.000000000007276
 20
-1016.0
 30
0.0
 11
4585.0000000000027285
 21
-1084.7846033990419983
 31
0.0
1001
ACDBBLOCKREPETAG
1070
     1
1071
        2
1005
129EFA
  0
LINE
  5
129EFB
  8
OBJECT
 10
4585.000000000007276
 20
-1016.0
 30
0.0
 11
4414.9999999999918145
 21
-1016.0
 31
0.0
1001
ACDBBLOCKREPETAG
1070
     1
1071
        3
1005
129EFB
  0
LINE
  5
129EFC
  8
OBJECT
 10
4579.999999999998181
 20
-1256.0
 30
0.0
 11
4420.0
 21
-1256.0
 31
0.0
1001
ACDBBLOCKREPETAG
1070
     1
1071
        4
1005
129EFC
  0
LINE
  5
129EFD
  8
OBJECT
 10
4414.999999999996362
 20
-1084.7846033990349497
 30
0.0
 11
4420.0
 21
-1125.6225774829870261
 31
0.0
1001
ACDBBLOCKREPETAG
1070
     1
1071
        6
1005
129EFD
  0
LINE
  5
129EFE
  8
OBJECT
 10
4420.0
 20
-1125.6225774829870261
 30
0.0
 11
4420.0
 21
-1256.0
 31
0.0
1001
ACDBBLOCKREPETAG
1070
     1
1071
        7
1005
129EFE
  0
LINE
  5
129EFF
  8
OBJECT
 10
4585.0000000000027285
 20
-1084.7846033990419983
 30
0.0
 11
4580.0
 21
-1125.6225774829870261
 31
0.0
1001
ACDBBLOCKREPETAG
1070
     1
1071
        8
1005
129EFF
  0
LINE
  5
129F00
  8
OBJECT
 10
4580.0
 20
-1125.6225774829870261
 30
0.0
 11
4579.999999999998181
 21
-1256.0
 31
0.0
1001
ACDBBLOCKREPETAG
1070
     1
1071
        9
1005
129F00
  0
LINE
  5
129F01
  8
OBJECT
 10
4430.0
 20
-1256.0
 30
0.0
 11
4430.0
 21
-1275.0
 31
0.0
1001
ACDBBLOCKREPETAG
1070
     1
1071
       10
1005
129F01
  0
LINE
  5
129F02
  8
OBJECT
 10
4430.0
 20
-1275.0
 30
0.0
 11
4570.0
 21
-1275.0
 31
0.0
1001
ACDBBLOCKREPETAG
1070
     1
1071
       11
1005
129F02
  0
LINE
  5
129F03
  8
OBJECT
 10
4570.0
 20
-1275.0
 30
0.0
 11
4570.0
 21
-1256.0
 31
0.0
1001
ACDBBLOCKREPETAG
1070
     1
1071
       12
1005
129F03
  0
LINE
  5
129F04
  8
OBJECT
 10
2632.9999999999990905
 20
-137.9999999999980105
 30
0.0
 11
2639.9999999999990905
 21
-137.9999999999980105
 31
0.0
1001
ACDBBLOCKREPETAG
1070
     1
1071
       47
1005
129F04
  0
LINE
  5
129F05
  8
OBJECT
 10
2639.9999999999990905
 20
-137.9999999999980105
 30
0.0
 11
2639.9999999999990905
 21
-261.9999999999980105
 31
0.0
1001
ACDBBLOCKREPETAG
1070
     1
1071
       48
1005
129F05
  0
LINE
  5
129F06
  8
OBJECT
 10
2639.9999999999990905
 20
-261.9999999999980105
 30
0.0
 11
2632.9999999999990905
 21
-261.9999999999980105
 31
0.0
1001
ACDBBLOCKREPETAG
1070
     1
1071
       49
1005
129F06
  0
LINE
  5
129F07
  8
OBJECT
 10
2632.9999999999990905
 20
-261.9999999999980105
 30
0.0
 11
2632.9999999999990905
 21
-137.9999999999980105
 31
0.0
1001
ACDBBLOCKREPETAG
1070
     1
1071
       50
1005
129F07
  0
LINE
  5
129F08
  8
CENTER
 10
2654.9999999999990905
 20
-199.9999999999980105
 30
0.0
 11
2579.9999999999990905
 21
-199.9999999999980105
 31
0.0
1001
ACDBBLOCKREPETAG
1070
     1
1071
       51
1005
129F08
  0
LINE
  5
129F09
  8
OBJECT
 10
2632.9999999999990905
 20
-140.9999999999980105
 30
0.0
 11
2596.9999999999990905
 21
-140.9999999999980105
 31
0.0
1001
ACDBBLOCKREPETAG
1070
     1
1071
       52
1005
129F09
  0
LINE
  5
129F0A
  8
OBJECT
 10
2596.9999999999990905
 20
-140.9999999999980105
 30
0.0
 11
2596.9999999999990905
 21
-258.9999999999980105
 31
0.0
1001
ACDBBLOCKREPETAG
1070
     1
1071
       53
1005
129F0A
  0
LINE
  5
129F0B
  8
OBJECT
 10
2596.9999999999990905
 20
-258.9999999999980105
 30
0.0
 11
2632.9999999999990905
 21
-258.9999999999980105
 31
0.0
1001
ACDBBLOCKREPETAG
1070
     1
1071
       54
1005
129F0B
  0
LINE
  5
129F0C
  8
OBJECT
 10
2592.9999999999990905
 20
-145.4999999999980105
 30
0.0
 11
2585.9999999999990905
 21
-145.4999999999980105
 31
0.0
1001
ACDBBLOCKREPETAG
1070
     1
1071
       55
1005
129F0C
  0
LINE
  5
129F0D
  8
OBJECT
 10
2585.9999999999990905
 20
-254.4999999999980105
 30
0.0
 11
2592.9999999999990905
 21
-254.4999999999980105
 31
0.0
1001
ACDBBLOCKREPETAG
1070
     1
1071
       56
1005
129F0D
  0
LINE
  5
129F0E
  8
OBJECT
 10
2592.9999999999990905
 20
-254.4999999999980105
 30
0.0
 11
2592.9999999999990905
 21
-145.4999999999980105
 31
0.0
1001
ACDBBLOCKREPETAG
1070
     1
1071
       57
1005
129F0E
  0
LINE
  5
129F0F
  8
OBJECT
 10
2596.9999999999990905
 20
-140.9999999999980105
 30
0.0
 11
2592.9999999999990905
 21
-145.4999999999980105
 31
0.0
1001
ACDBBLOCKREPETAG
1070
     1
1071
       58
1005
129F0F
  0
LINE
  5
129F10
  8
OBJECT
 10
2596.9999999999990905
 20
-258.9999999999980105
 30
0.0
 11
2592.9999999999990905
 21
-254.4999999999980105
 31
0.0
1001
ACDBBLOCKREPETAG
1070
     1
1071
       59
1005
129F10
  0
LINE
  5
129F11
  8
OBJECT
 10
2582.9999999999990905
 20
-137.9999999999980105
 30
0.0
 11
2579.9999999999990905
 21
-137.9999999999980105
 31
0.0
1001
ACDBBLOCKREPETAG
1070
     1
1071
       60
1005
129F11
  0
ARC
  5
129F12
  8
OBJECT
 10
2582.9999999999990905
 20
-140.9999999999980105
 30
0.0
 40
3.0
 50
0.0
 51
90.0
1001
ACDBBLOCKREPETAG
1070
     1
1071
       61
1005
129F12
  0
LINE
  5
129F13
  8
OBJECT
 10
2579.9999999999990905
 20
-261.9999999999980105
 30
0.0
 11
2582.9999999999990905
 21
-261.9999999999980105
 31
0.0
1001
ACDBBLOCKREPETAG
1070
     1
1071
       62
1005
129F13
  0
ARC
  5
129F14
  8
OBJECT
 10
2582.9999999999990905
 20
-258.9999999999980105
 30
0.0
 40
3.0
 50
270.0
 51
0.0
1001
ACDBBLOCKREPETAG
1070
     1
1071
       63
1005
129F14
  0
LINE
  5
129F15
  8
OBJECT
 10
2585.9999999999990905
 20
-258.9999999999980105
 30
0.0
 11
2585.9999999999990905
 21
-140.9999999999980105
 31
0.0
1001
ACDBBLOCKREPETAG
1070
     1
1071
       64
1005
129F15
  0
LINE
  5
129F16
  8
HIDDEN
 10
2587.9999999999990905
 20
-155.4999999999980105
 30
0.0
 11
2587.9999999999990905
 21
-244.4999999999980105
 31
0.0
1001
ACDBBLOCKREPETAG
1070
     1
1071
       65
1005
129F16
  0
TEXT
  5
129F17
  8
SLIM
 10
0.0000035665234464
 20
24.0000045853176083
 30
0.0
 40
79.9999999999727152
  1
上部枝管
 41
0.75
1001
ACDBBLOCKREPETAG
1070
     1
1071
      119
1005
128196
  0
TEXT
  5
129F18
  8
SLIM
 10
149.1428571427966006
 20
-443.9999999998498197
 30
0.0
 40
48.0
  1
A3
 41
0.75
1001
ACDBBLOCKREPETAG
1070
     1
1071
      119
1005
0
  0
TEXT
  5
129F19
  8
SLIM
 10
0.000003566523219
 20
-775.9999954146824166
 30
0.0
 40
79.9999999999727152
  1
下部枝管バリエーション
 41
0.75
1001
ACDBBLOCKREPETAG
1070
     1
1071
      119
1005
128196
  0
INSERT
  5
129F1A
  8
SLIM
  2
*U248
 10
0.0
 20
0.0
 30
0.0
  0
LINE
  5
129F1B
  8
OBJECT
 10
118.0000000000417941
 20
-99.0000000001718945
 30
0.0
 11
118.0000000000417941
 21
-92.0000000001718945
 31
0.0
1001
ACDBBLOCKREPETAG
1070
     1
1071
       39
1005
129F1B
  0
LINE
  5
129F1C
  8
OBJECT
 10
118.0000000000417941
 20
-92.0000000001718945
 30
0.0
 11
242.0000000000418083
 21
-92.0000000001718945
 31
0.0
1001
ACDBBLOCKREPETAG
1070
     1
1071
       40
1005
129F1C
  0
LINE
  5
129F1D
  8
OBJECT
 10
242.0000000000418083
 20
-92.0000000001718945
 30
0.0
 11
242.0000000000418083
 21
-99.0000000001718945
 31
0.0
1001
ACDBBLOCKREPETAG
1070
     1
1071
       41
1005
129F1D
  0
LINE
  5
129F1E
  8
OBJECT
 10
242.0000000000418083
 20
-99.0000000001718945
 30
0.0
 11
118.0000000000417941
 21
-99.0000000001718945
 31
0.0
1001
ACDBBLOCKREPETAG
1070
     1
1071
       42
1005
129F1E
  0
LINE
  5
129F1F
  8
OBJECT
 10
121.0000000000417941
 20
-99.0000000001718945
 30
0.0
 11
121.0000000000417941
 21
-135.0000000001718945
 31
0.0
1001
ACDBBLOCKREPETAG
1070
     1
1071
       43
1005
129F1F
  0
LINE
  5
129F20
  8
OBJECT
 10
121.0000000000417941
 20
-135.0000000001718945
 30
0.0
 11
239.0000000000418083
 21
-135.0000000001718945
 31
0.0
1001
ACDBBLOCKREPETAG
1070
     1
1071
       44
1005
129F20
  0
LINE
  5
129F21
  8
OBJECT
 10
239.0000000000418083
 20
-135.0000000001718945
 30
0.0
 11
239.0000000000418083
 21
-99.0000000001718945
 31
0.0
1001
ACDBBLOCKREPETAG
1070
     1
1071
       45
1005
129F21
  0
LINE
  5
129F22
  8
OBJECT
 10
125.5000000000417941
 20
-139.0000000001718945
 30
0.0
 11
125.5000000000417941
 21
-146.0000000001718945
 31
0.0
1001
ACDBBLOCKREPETAG
1070
     1
1071
       46
1005
129F22
  0
LINE
  5
129F23
  8
OBJECT
 10
234.5000000000418083
 20
-146.0000000001718945
 30
0.0
 11
234.5000000000418083
 21
-139.0000000001718945
 31
0.0
1001
ACDBBLOCKREPETAG
1070
     1
1071
       47
1005
129F23
  0
LINE
  5
129F24
  8
OBJECT
 10
234.5000000000418083
 20
-139.0000000001718945
 30
0.0
 11
125.5000000000417941
 21
-139.0000000001718945
 31
0.0
1001
ACDBBLOCKREPETAG
1070
     1
1071
       48
1005
129F24
  0
LINE
  5
129F25
  8
OBJECT
 10
121.0000000000417941
 20
-135.0000000001718945
 30
0.0
 11
125.5000000000417941
 21
-139.0000000001718945
 31
0.0
1001
ACDBBLOCKREPETAG
1070
     1
1071
       49
1005
129F25
  0
LINE
  5
129F26
  8
OBJECT
 10
239.0000000000418083
 20
-135.0000000001718945
 30
0.0
 11
234.5000000000418083
 21
-139.0000000001718945
 31
0.0
1001
ACDBBLOCKREPETAG
1070
     1
1071
       50
1005
129F26
  0
LINE
  5
129F27
  8
OBJECT
 10
118.0000000000417941
 20
-149.0000000001710134
 30
0.0
 11
118.0000000000417941
 21
-152.0000000001718945
 31
0.0
1001
ACDBBLOCKREPETAG
1070
     1
1071
       51
1005
129F27
  0
ARC
  5
129F28
  8
OBJECT
 10
121.0000000000417941
 20
-149.0000000001710134
 30
0.0
 40
3.0
 50
90.0
 51
180.0
1001
ACDBBLOCKREPETAG
1070
     1
1071
       52
1005
129F28
  0
LINE
  5
129F29
  8
OBJECT
 10
242.0000000000418083
 20
-152.0000000001718945
 30
0.0
 11
242.0000000000418083
 21
-149.000000000172804
 31
0.0
1001
ACDBBLOCKREPETAG
1070
     1
1071
       53
1005
129F29
  0
ARC
  5
129F2A
  8
OBJECT
 10
239.0000000000418083
 20
-149.000000000172804
 30
0.0
 40
3.0
 50
0.0
 51
90.0
1001
ACDBBLOCKREPETAG
1070
     1
1071
       54
1005
129F2A
  0
LINE
  5
129F2B
  8
OBJECT
 10
239.0000000000418083
 20
-146.000000000172804
 30
0.0
 11
121.0000000000417941
 21
-146.0000000001710134
 31
0.0
1001
ACDBBLOCKREPETAG
1070
     1
1071
       55
1005
129F2B
  0
LINE
  5
129F2C
  8
HIDDEN
 10
135.5000000000418083
 20
-144.0000000001718945
 30
0.0
 11
224.5000000000418083
 21
-144.0000000001718945
 31
0.0
1001
ACDBBLOCKREPETAG
1070
     1
1071
      426
1005
129F2C
  0
POLYLINE
  5
129F2D
  8
HIDDEN
 66
     1
 10
0.0
 20
0.0
 30
0.0
 70
     1
1001
ACDBBLOCKREPETAG
1070
     1
1071
      105
1005
0
  0
VERTEX
  5
12A60D
  8
HIDDEN
 10
359.9999999998781277
 20
-799.9999999999998863
 30
0.0
  0
VERTEX
  5
12A60E
  8
HIDDEN
 10
719.9999999997562554
 20
-799.9999999999998863
 30
0.0
  0
VERTEX
  5
12A60F
  8
HIDDEN
 10
719.9999999997562554
 20
-1263.9999999998419753
 30
0.0
  0
VERTEX
  5
12A610
  8
HIDDEN
 10
359.9999999998781277
 20
-1263.9999999998419753
 30
0.0
  0
SEQEND
  5
12A611
  8
HIDDEN
  0
POLYLINE
  5
129F2E
  8
HIDDEN
 66
     1
 10
0.0
 20
0.0
 30
0.0
 70
     1
1001
ACDBBLOCKREPETAG
1070
     1
1071
      110
1005
0
  0
VERTEX
  5
12A612
  8
HIDDEN
 10
0.0
 20
-799.9999999999998863
 30
0.0
  0
VERTEX
  5
12A613
  8
HIDDEN
 10
359.9999999998781277
 20
-799.9999999999998863
 30
0.0
  0
VERTEX
  5
12A614
  8
HIDDEN
 10
359.9999999998781277
 20
-1263.9999999998419753
 30
0.0
  0
VERTEX
  5
12A615
  8
HIDDEN
 10
0.0
 20
-1263.9999999998419753
 30
0.0
  0
SEQEND
  5
12A616
  8
HIDDEN
  0
POLYLINE
  5
129F2F
  8
HIDDEN
 66
     1
 10
0.0
 20
0.0
 30
0.0
 70
     1
1001
ACDBBLOCKREPETAG
1070
     1
1071
      120
1005
0
  0
VERTEX
  5
12A617
  8
HIDDEN
 10
359.9999999998781277
 20
-1263.9999999998419753
 30
0.0
  0
VERTEX
  5
12A618
  8
HIDDEN
 10
719.9999999997562554
 20
-1263.9999999998419753
 30
0.0
  0
VERTEX
  5
12A619
  8
HIDDEN
 10
719.9999999997562554
 20
-1727.9999999996830411
 30
0.0
  0
VERTEX
  5
12A61A
  8
HIDDEN
 10
359.9999999998781277
 20
-1727.9999999996830411
 30
0.0
  0
SEQEND
  5
12A61B
  8
HIDDEN
  0
POLYLINE
  5
129F30
  8
HIDDEN
 66
     1
 10
0.0
 20
0.0
 30
0.0
 70
     1
1001
ACDBBLOCKREPETAG
1070
     1
1071
      125
1005
0
  0
VERTEX
  5
12A61C
  8
HIDDEN
 10
0.0
 20
-1263.9999999998419753
 30
0.0
  0
VERTEX
  5
12A61D
  8
HIDDEN
 10
359.9999999998781277
 20
-1263.9999999998419753
 30
0.0
  0
VERTEX
  5
12A61E
  8
HIDDEN
 10
359.9999999998781277
 20
-1727.9999999996830411
 30
0.0
  0
VERTEX
  5
12A61F
  8
HIDDEN
 10
0.0
 20
-1727.9999999996830411
 30
0.0
  0
SEQEND
  5
12A620
  8
HIDDEN
  0
POLYLINE
  5
129F31
  8
HIDDEN
 66
     1
 10
0.0
 20
0.0
 30
0.0
 70
     1
1001
ACDBBLOCKREPETAG
1070
     1
1071
      130
1005
0
  0
VERTEX
  5
12A621
  8
HIDDEN
 10
359.9999999998781277
 20
-1727.9999999996830411
 30
0.0
  0
VERTEX
  5
12A622
  8
HIDDEN
 10
719.9999999997562554
 20
-1727.9999999996830411
 30
0.0
  0
VERTEX
  5
12A623
  8
HIDDEN
 10
719.9999999997562554
 20
-2191.999999999524789
 30
0.0
  0
VERTEX
  5
12A624
  8
HIDDEN
 10
359.9999999998781277
 20
-2191.999999999524789
 30
0.0
  0
SEQEND
  5
12A625
  8
HIDDEN
  0
POLYLINE
  5
129F32
  8
HIDDEN
 66
     1
 10
0.0
 20
0.0
 30
0.0
 70
     1
1001
ACDBBLOCKREPETAG
1070
     1
1071
      135
1005
0
  0
VERTEX
  5
12A626
  8
HIDDEN
 10
0.0
 20
-1727.9999999996830411
 30
0.0
  0
VERTEX
  5
12A627
  8
HIDDEN
 10
359.9999999998781277
 20
-1727.9999999996830411
 30
0.0
  0
VERTEX
  5
12A628
  8
HIDDEN
 10
359.9999999998781277
 20
-2191.999999999524789
 30
0.0
  0
VERTEX
  5
12A629
  8
HIDDEN
 10
0.0
 20
-2191.999999999524789
 30
0.0
  0
SEQEND
  5
12A62A
  8
HIDDEN
  0
POLYLINE
  5
129F33
  8
HIDDEN
 66
     1
 10
0.0
 20
0.0
 30
0.0
 70
     1
1001
ACDBBLOCKREPETAG
1070
     1
1071
      160
1005
0
  0
VERTEX
  5
12A62B
  8
HIDDEN
 10
359.9999999998781277
 20
-2191.999999999524789
 30
0.0
  0
VERTEX
  5
12A62C
  8
HIDDEN
 10
719.9999999997562554
 20
-2191.999999999524789
 30
0.0
  0
VERTEX
  5
12A62D
  8
HIDDEN
 10
719.9999999997562554
 20
-2655.9999999993669917
 30
0.0
  0
VERTEX
  5
12A62E
  8
HIDDEN
 10
359.9999999998781277
 20
-2655.9999999993669917
 30
0.0
  0
SEQEND
  5
12A62F
  8
HIDDEN
  0
POLYLINE
  5
129F34
  8
HIDDEN
 66
     1
 10
0.0
 20
0.0
 30
0.0
 70
     1
1001
ACDBBLOCKREPETAG
1070
     1
1071
      165
1005
0
  0
VERTEX
  5
12A630
  8
HIDDEN
 10
0.0
 20
-2191.999999999524789
 30
0.0
  0
VERTEX
  5
12A631
  8
HIDDEN
 10
359.9999999998781277
 20
-2191.999999999524789
 30
0.0
  0
VERTEX
  5
12A632
  8
HIDDEN
 10
359.9999999998781277
 20
-2655.9999999993669917
 30
0.0
  0
VERTEX
  5
12A633
  8
HIDDEN
 10
0.0
 20
-2655.9999999993669917
 30
0.0
  0
SEQEND
  5
12A634
  8
HIDDEN
  0
POLYLINE
  5
129F35
  8
HIDDEN
 66
     1
 10
0.0
 20
0.0
 30
0.0
 70
     1
1001
ACDBBLOCKREPETAG
1070
     1
1071
      175
1005
0
  0
VERTEX
  5
12A635
  8
HIDDEN
 10
0.0
 20
-2655.9999999993669917
 30
0.0
  0
VERTEX
  5
12A636
  8
HIDDEN
 10
359.9999999998781277
 20
-2655.9999999993669917
 30
0.0
  0
VERTEX
  5
12A637
  8
HIDDEN
 10
359.9999999998781277
 20
-3119.9999999992091944
 30
0.0
  0
VERTEX
  5
12A638
  8
HIDDEN
 10
0.0
 20
-3119.9999999992091944
 30
0.0
  0
SEQEND
  5
12A639
  8
HIDDEN
  0
POLYLINE
  5
129F36
  8
HIDDEN
 66
     1
 10
0.0
 20
0.0
 30
0.0
 70
     1
1001
ACDBBLOCKREPETAG
1070
     1
1071
      110
1005
0
  0
VERTEX
  5
12A63A
  8
HIDDEN
 10
0.0
 20
0.0
 30
0.0
  0
VERTEX
  5
12A63B
  8
HIDDEN
 10
359.9999999998781277
 20
0.0
 30
0.0
  0
VERTEX
  5
12A63C
  8
HIDDEN
 10
359.9999999998781277
 20
-463.9999999998416911
 30
0.0
  0
VERTEX
  5
12A63D
  8
HIDDEN
 10
0.0
 20
-463.9999999998416911
 30
0.0
  0
SEQEND
  5
12A63E
  8
HIDDEN
  0
CIRCLE
  5
129F37
  8
OBJECT
 10
180.0000000000418083
 20
-232.0000000001718945
 30
0.0
 40
70.0
1001
ACDBBLOCKREPETAG
1070
     1
1071
       50
1005
129F37
  0
CIRCLE
  5
129F38
  8
OBJECT
 10
180.0000000000418083
 20
-232.0000000001718945
 30
0.0
 40
77.0
1001
ACDBBLOCKREPETAG
1070
     1
1071
       51
1005
129F38
  0
ARC
  5
129F39
  8
OBJECT
 10
180.0000000000418083
 20
-232.0000000001718945
 30
0.0
 40
80.0
 50
140.8050325737796982
 51
39.1949674262202521
1001
ACDBBLOCKREPETAG
1070
     1
1071
       52
1005
129F39
  0
LINE
  5
129F3A
  8
OBJECT
 10
118.0000000000417941
 20
-186.3381997728473891
 30
0.0
 11
118.0000000000417941
 21
-152.0000000001718945
 31
0.0
1001
ACDBBLOCKREPETAG
1070
     1
1071
       53
1005
129F3A
  0
LINE
  5
129F3B
  8
OBJECT
 10
242.0000000000418083
 20
-186.3381997728473891
 30
0.0
 11
242.0000000000418083
 21
-152.0000000001718945
 31
0.0
1001
ACDBBLOCKREPETAG
1070
     1
1071
       54
1005
129F3B
  0
POINT
  5
129F3C
  8
DOTS
 10
180.0000000000418083
 20
-232.0000000001718945
 30
0.0
1001
ACDBBLOCKREPETAG
1070
     1
1071
       63
1005
129F3C
  0
CIRCLE
  5
129F3D
  8
OBJECT
 10
180.0000000000418083
 20
-232.0000000001718945
 30
0.0
 40
53.5
1001
ACDBBLOCKREPETAG
1070
     1
1071
      157
1005
129F3D
  0
TEXT
  5
129F3E
  8
SLIM
 10
2396.75
 20
-3982.4999999999968168
 30
0.0
 40
35.0
  1
通常枝50（1）
 41
0.75
  0
TEXT
  5
129F3F
  8
SLIM
 10
3394.2499999999990905
 20
-3982.4999999999968168
 30
0.0
 40
35.0
  1
通常枝65（2）
 41
0.75
  0
TEXT
  5
129F40
  8
SLIM
 10
4394.25
 20
-3982.4999999999968168
 30
0.0
 40
35.0
  1
通常枝75（3）
 41
0.75
  0
TEXT
  5
129F41
  8
SLIM
 10
2349.9999999999990905
 20
-2997.5
 30
0.0
 40
75.0
  1
下部枝管サイズ毎の形状
 41
0.75
  0
TEXT
  5
129F42
  8
SLIM
 10
3542.1428571428559735
 20
-3097.5000160472709467
 30
0.0
 40
40.0
  1
110
 41
0.75
  0
TEXT
  5
129F43
  8
SLIM
 10
3420.0
 20
-3097.5000160472709467
 30
0.0
 40
40.0
  1
94
 41
0.75
  0
TEXT
  5
129F44
  8
SLIM
 10
3668.5714285714288962
 20
-3097.5000160472709467
 30
0.0
 40
40.0
  1
124
 41
0.75
  0
TEXT
  5
129F45
  8
SLIM
 10
3397.0
 20
-3027.5000160472700372
 30
0.0
 40
30.0
  1
50（1）
 41
0.75
  0
TEXT
  5
129F46
  8
SLIM
 10
3524.8571428571422075
 20
-3027.5000160472700372
 30
0.0
 40
30.0
  1
65（2）
 41
0.75
  0
TEXT
  5
129F47
  8
SLIM
 10
3654.8571428571422075
 20
-3027.5000160472700372
 30
0.0
 40
30.0
  1
75（3）
 41
0.75
  0
TEXT
  5
129F48
  8
SLIM
 10
3471.0
 20
-2972.5000160472709467
 30
0.0
 40
40.0
  1
横枝管サイズ
 41
0.75
  0
TEXT
  5
129F49
  8
SLIM
 10
3550.7142857142848698
 20
-3167.5000160472709467
 30
0.0
 40
40.0
  1
52
 41
0.75
  0
TEXT
  5
129F4A
  8
SLIM
 10
3420.0
 20
-3167.5000160472709467
 30
0.0
 40
40.0
  1
44
 41
0.75
  0
TEXT
  5
129F4B
  8
SLIM
 10
3681.4285714285711038
 20
-3167.5000160472709467
 30
0.0
 40
40.0
  1
59
 41
0.75
  0
TEXT
  5
129F4C
  8
SLIM
 10
3539.2857142857142208
 20
-3237.5000160472709467
 30
0.0
 40
40.0
  1
140
 41
0.75
  0
TEXT
  5
129F4D
  8
SLIM
 10
3409.2857142857142208
 20
-3237.5000160472709467
 30
0.0
 40
40.0
  1
140
 41
0.75
  0
TEXT
  5
129F4E
  8
SLIM
 10
3669.2857142857142208
 20
-3237.5000160472709467
 30
0.0
 40
40.0
  1
140
 41
0.75
  0
TEXT
  5
129F4F
  8
SLIM
 10
3270.2857142857142208
 20
-3097.5000160472709467
 30
0.0
 40
40.0
  1
A寸法
 41
0.75
  0
TEXT
  5
129F50
  8
SLIM
 10
3270.9999999999990905
 20
-3167.5000160472709467
 30
0.0
 40
40.0
  1
B寸法
 41
0.75
  0
TEXT
  5
129F51
  8
SLIM
 10
3270.9999999999990905
 20
-3237.5000160472709467
 30
0.0
 40
40.0
  1
C寸法
 41
0.75
  0
LINE
  5
129F52
  8
DIM
 10
2500.0
 20
-3359.9999999999968168
 30
0.0
 11
2500.0
 21
-3322.2081219844440056
 31
0.0
  0
LINE
  5
129F53
  8
DIM
 10
2640.0
 20
-3402.9999999999968168
 30
0.0
 11
2640.0
 21
-3322.2081219844440056
 31
0.0
  0
LINE
  5
129F54
  8
DIM
 10
2520.0
 20
-3332.2081219844440056
 30
0.0
 11
2620.0
 21
-3332.2081219844440056
 31
0.0
  0
INSERT
  5
129F55
  8
DIM
  2
_OPEN30
 10
2500.0
 20
-3332.2081219844440056
 30
0.0
 41
20.0
 42
20.0
 43
20.0
 50
180.0
  0
INSERT
  5
129F56
  8
DIM
  2
_OPEN30
 10
2640.0
 20
-3332.2081219844440056
 30
0.0
 41
20.0
 42
20.0
 43
20.0
  0
INSERT
  5
129F57
  8
SLIM
  2
*U249
 10
0.0
 20
0.0
 30
0.0
  0
LINE
  5
129F58
  8
DIM
 10
2650.0
 20
-3864.9999999999990905
 30
0.0
 11
2726.8409284037338693
 21
-3864.9999999999990905
 31
0.0
  0
LINE
  5
129F59
  8
DIM
 10
2665.0000000000009095
 20
-3821.0
 30
0.0
 11
2726.8409284037338693
 21
-3821.0
 31
0.0
  0
LINE
  5
129F5A
  8
DIM
 10
2716.8409284037347788
 20
-3885.0
 30
0.0
 11
2716.8409284037347788
 21
-3904.9999999999990905
 31
0.0
  0
LINE
  5
129F5B
  8
DIM
 10
2716.8409284037347788
 20
-3800.9999999999990905
 30
0.0
 11
2716.8409284037347788
 21
-3781.0
 31
0.0
  0
LINE
  5
129F5C
  8
DIM
 10
2716.8409284037347788
 20
-3864.9999999999990905
 30
0.0
 11
2716.8409284037347788
 21
-3821.0
 31
0.0
  0
INSERT
  5
129F5D
  8
DIM
  2
_OPEN30
 10
2716.8409284037347788
 20
-3864.9999999999990905
 30
0.0
 41
20.0
 42
20.0
 43
20.0
 50
90.0
  0
INSERT
  5
129F5E
  8
DIM
  2
_OPEN30
 10
2716.8409284037347788
 20
-3821.0
 30
0.0
 41
20.0
 42
20.0
 43
20.0
 50
270.0
  0
INSERT
  5
129F5F
  8
SLIM
  2
*U250
 10
0.0
 20
0.0
 30
0.0
  0
LINE
  5
129F60
  8
DIM
 10
2650.0
 20
-3506.9999999999990905
 30
0.0
 11
2728.4796205944589929
 21
-3506.9999999999990905
 31
0.0
  0
LINE
  5
129F61
  8
DIM
 10
2650.0
 20
-3412.999999999998181
 30
0.0
 11
2728.4796205944589929
 21
-3412.999999999998181
 31
0.0
  0
LINE
  5
129F62
  8
DIM
 10
2718.4796205944599023
 20
-3486.999999999998181
 30
0.0
 11
2718.4796205944599023
 21
-3432.999999999998181
 31
0.0
  0
INSERT
  5
129F63
  8
DIM
  2
_OPEN30
 10
2718.4796205944599023
 20
-3506.9999999999990905
 30
0.0
 41
20.0
 42
20.0
 43
20.0
 50
270.0
  0
INSERT
  5
129F64
  8
DIM
  2
_OPEN30
 10
2718.4796205944599023
 20
-3412.999999999998181
 30
0.0
 41
20.0
 42
20.0
 43
20.0
 50
90.0
  0
INSERT
  5
129F65
  8
SLIM
  2
*U251
 10
0.0
 20
0.0
 30
0.0
  0
LINE
  5
129F66
  8
OBJECT
 10
2633.0
 20
-3412.9999999999968168
 30
0.0
 11
2640.0
 21
-3412.9999999999968168
 31
0.0
1001
ACDBBLOCKREPETAG
1070
     1
1071
        0
1005
129F66
  0
LINE
  5
129F67
  8
OBJECT
 10
2640.0
 20
-3412.9999999999968168
 30
0.0
 11
2640.0
 21
-3506.9999999999968168
 31
0.0
1001
ACDBBLOCKREPETAG
1070
     1
1071
        1
1005
129F67
  0
LINE
  5
129F68
  8
OBJECT
 10
2640.0
 20
-3506.9999999999968168
 30
0.0
 11
2633.0
 21
-3506.9999999999968168
 31
0.0
1001
ACDBBLOCKREPETAG
1070
     1
1071
        2
1005
129F68
  0
LINE
  5
129F69
  8
OBJECT
 10
2633.0
 20
-3506.9999999999968168
 30
0.0
 11
2633.0
 21
-3412.9999999999968168
 31
0.0
1001
ACDBBLOCKREPETAG
1070
     1
1071
        3
1005
129F69
  0
LINE
  5
129F6A
  8
CENTER
 10
2655.0
 20
-3459.9999999999968168
 30
0.0
 11
2580.0
 21
-3459.9999999999968168
 31
0.0
1001
ACDBBLOCKREPETAG
1070
     1
1071
        4
1005
129F6A
  0
LINE
  5
129F6B
  8
OBJECT
 10
2633.0
 20
-3415.9999999999959073
 30
0.0
 11
2596.9999999999990905
 21
-3415.9999999999959073
 31
0.0
1001
ACDBBLOCKREPETAG
1070
     1
1071
        5
1005
129F6B
  0
LINE
  5
129F6C
  8
OBJECT
 10
2596.9999999999990905
 20
-3415.9999999999959073
 30
0.0
 11
2596.9999999999990905
 21
-3503.9999999999959073
 31
0.0
1001
ACDBBLOCKREPETAG
1070
     1
1071
        6
1005
129F6C
  0
LINE
  5
129F6D
  8
OBJECT
 10
2596.9999999999990905
 20
-3503.9999999999959073
 30
0.0
 11
2633.0
 21
-3503.9999999999959073
 31
0.0
1001
ACDBBLOCKREPETAG
1070
     1
1071
        7
1005
129F6D
  0
LINE
  5
129F6E
  8
OBJECT
 10
2593.0
 20
-3420.4999999999959073
 30
0.0
 11
2584.5
 21
-3420.4999999999959073
 31
0.0
1001
ACDBBLOCKREPETAG
1070
     1
1071
        8
1005
129F6E
  0
LINE
  5
129F6F
  8
OBJECT
 10
2584.5
 20
-3499.4999999999959073
 30
0.0
 11
2593.0
 21
-3499.4999999999959073
 31
0.0
1001
ACDBBLOCKREPETAG
1070
     1
1071
        9
1005
129F6F
  0
LINE
  5
129F70
  8
OBJECT
 10
2593.0
 20
-3499.4999999999959073
 30
0.0
 11
2593.0
 21
-3420.4999999999959073
 31
0.0
1001
ACDBBLOCKREPETAG
1070
     1
1071
       10
1005
129F70
  0
LINE
  5
129F71
  8
OBJECT
 10
2596.9999999999990905
 20
-3415.9999999999959073
 30
0.0
 11
2593.0
 21
-3420.4999999999959073
 31
0.0
1001
ACDBBLOCKREPETAG
1070
     1
1071
       11
1005
129F71
  0
LINE
  5
129F72
  8
OBJECT
 10
2596.9999999999990905
 20
-3503.9999999999959073
 30
0.0
 11
2593.0
 21
-3499.4999999999959073
 31
0.0
1001
ACDBBLOCKREPETAG
1070
     1
1071
       12
1005
129F72
  0
LINE
  5
129F73
  8
OBJECT
 10
2584.499999999998181
 20
-3506.4999999999959073
 30
0.0
 11
2584.5
 21
-3413.4999999999959073
 31
0.0
1001
ACDBBLOCKREPETAG
1070
     1
1071
       13
1005
129F73
  0
ARC
  5
129F74
  8
OBJECT
 10
2581.5
 20
-3413.4999999999959073
 30
0.0
 40
3.0
 50
0.0
 51
90.0
1001
ACDBBLOCKREPETAG
1070
     1
1071
       14
1005
129F74
  0
LINE
  5
129F75
  8
HIDDEN
 10
2588.0
 20
-3429.9999999999959073
 30
0.0
 11
2588.0
 21
-3489.9999999999968168
 31
0.0
1001
ACDBBLOCKREPETAG
1070
     1
1071
       15
1005
129F75
  0
LINE
  5
129F76
  8
OBJECT
 10
2581.5
 20
-3410.4999999999959073
 30
0.0
 11
2556.3449199129790941
 21
-3410.4999999999959073
 31
0.0
1001
ACDBBLOCKREPETAG
1070
     1
1071
       17
1005
129F76
  0
LINE
  5
129F77
  8
OBJECT
 10
2581.499999999998181
 20
-3509.4999999999959073
 30
0.0
 11
2556.3449199129790941
 21
-3509.4999999999959073
 31
0.0
1001
ACDBBLOCKREPETAG
1070
     1
1071
       18
1005
129F77
  0
ARC
  5
129F78
  8
OBJECT
 10
2581.499999999998181
 20
-3506.4999999999959073
 30
0.0
 40
3.0
 50
270.0
 51
0.0
1001
ACDBBLOCKREPETAG
1070
     1
1071
       19
1005
129F78
  0
LINE
  5
129F79
  8
OBJECT
 10
2633.0
 20
-3773.9999999999968168
 30
0.0
 11
2640.0
 21
-3773.9999999999968168
 31
0.0
1001
ACDBBLOCKREPETAG
1070
     1
1071
        0
1005
129F79
  0
LINE
  5
129F7A
  8
OBJECT
 10
2640.0
 20
-3773.9999999999968168
 30
0.0
 11
2640.0
 21
-3864.9999999999968168
 31
0.0
1001
ACDBBLOCKREPETAG
1070
     1
1071
        1
1005
129F7A
  0
LINE
  5
129F7B
  8
OBJECT
 10
2584.5
 20
-3759.5000000000618456
 30
0.0
 11
2584.5
 21
-3862.4999999999968168
 31
0.0
1001
ACDBBLOCKREPETAG
1070
     1
1071
        2
1005
129F7B
  0
ARC
  5
129F7C
  8
OBJECT
 10
2581.5
 20
-3759.5000000000618456
 30
0.0
 40
3.0
 50
0.0
 51
90.0
1001
ACDBBLOCKREPETAG
1070
     1
1071
        3
1005
129F7C
  0
LINE
  5
129F7D
  8
OBJECT
 10
2633.0
 20
-3864.9999999999968168
 30
0.0
 11
2633.0
 21
-3773.9999999999968168
 31
0.0
1001
ACDBBLOCKREPETAG
1070
     1
1071
        4
1005
129F7D
  0
LINE
  5
129F7E
  8
CENTER
 10
2655.0
 20
-3820.9999999999968168
 30
0.0
 11
2541.9118237135839991
 21
-3820.9999999999968168
 31
0.0
1001
ACDBBLOCKREPETAG
1070
     1
1071
        5
1005
129F7E
  0
LINE
  5
129F7F
  8
OBJECT
 10
2633.0
 20
-3776.9999999999968168
 30
0.0
 11
2596.9999999999990905
 21
-3776.9999999999968168
 31
0.0
1001
ACDBBLOCKREPETAG
1070
     1
1071
        6
1005
129F7F
  0
LINE
  5
129F80
  8
OBJECT
 10
2596.9999999999990905
 20
-3776.9999999999968168
 30
0.0
 11
2596.9999999999990905
 21
-3864.9999999999968168
 31
0.0
1001
ACDBBLOCKREPETAG
1070
     1
1071
        7
1005
129F80
  0
LINE
  5
129F81
  8
OBJECT
 10
2596.9999999999990905
 20
-3864.9999999999968168
 30
0.0
 11
2640.0
 21
-3864.9999999999968168
 31
0.0
1001
ACDBBLOCKREPETAG
1070
     1
1071
        8
1005
129F81
  0
LINE
  5
129F82
  8
OBJECT
 10
2593.0
 20
-3781.4999999999959073
 30
0.0
 11
2584.5
 21
-3781.4999999999959073
 31
0.0
1001
ACDBBLOCKREPETAG
1070
     1
1071
        9
1005
129F82
  0
LINE
  5
129F83
  8
OBJECT
 10
2584.5
 20
-3860.4999999999959073
 30
0.0
 11
2593.0
 21
-3860.4999999999959073
 31
0.0
1001
ACDBBLOCKREPETAG
1070
     1
1071
       10
1005
129F83
  0
LINE
  5
129F84
  8
OBJECT
 10
2593.0
 20
-3860.4999999999959073
 30
0.0
 11
2593.0
 21
-3781.4999999999959073
 31
0.0
1001
ACDBBLOCKREPETAG
1070
     1
1071
       11
1005
129F84
  0
LINE
  5
129F85
  8
OBJECT
 10
2596.9999999999990905
 20
-3776.9999999999968168
 30
0.0
 11
2593.0
 21
-3781.4999999999959073
 31
0.0
1001
ACDBBLOCKREPETAG
1070
     1
1071
       12
1005
129F85
  0
LINE
  5
129F86
  8
OBJECT
 10
2596.9999999999990905
 20
-3864.9999999999968168
 30
0.0
 11
2593.0
 21
-3860.4999999999959073
 31
0.0
1001
ACDBBLOCKREPETAG
1070
     1
1071
       13
1005
129F86
  0
LINE
  5
129F87
  8
HIDDEN
 10
2588.0
 20
-3790.9999999999959073
 30
0.0
 11
2588.0
 21
-3850.9999999999959073
 31
0.0
1001
ACDBBLOCKREPETAG
1070
     1
1071
       14
1005
129F87
  0
ARC
  5
129F88
  8
OBJECT
 10
2664.8782728787741689
 20
-3821.4095072612249169
 30
0.0
 40
110.866352283089995
 50
144.1634274191434031
 51
163.0403538043316871
1001
ACDBBLOCKREPETAG
1070
     1
1071
       15
1005
129F88
  0
ARC
  5
129F89
  8
OBJECT
 10
2617.1359887769071975
 20
-3806.2877497184449567
 30
0.0
 40
60.7917498803589709
 50
163.5472046522266965
 51
179.7287969828267933
1001
ACDBBLOCKREPETAG
1070
     1
1071
       16
1005
129F89
  0
ARC
  5
129F8A
  8
OBJECT
 10
2617.1359956562478146
 20
-3812.7122497598970767
 30
0.0
 40
60.7917567620948773
 50
180.2712034781453099
 51
196.4527794605338045
1001
ACDBBLOCKREPETAG
1070
     1
1071
       17
1005
129F8A
  0
ARC
  5
129F8B
  8
OBJECT
 10
2664.8782728787741689
 20
-3797.590492738832836
 30
0.0
 40
110.8663522830916008
 50
196.9596461956681992
 51
215.8365725808565969
1001
ACDBBLOCKREPETAG
1070
     1
1071
       18
1005
129F8B
  0
LINE
  5
129F8C
  8
OBJECT
 10
2556.3449199130041052
 20
-3806.0000000000331966
 30
0.0
 11
2556.3449199130041052
 21
-3813.0000000000291038
 31
0.0
1001
ACDBBLOCKREPETAG
1070
     1
1071
       19
1005
129F8C
  0
LINE
  5
129F8D
  8
OBJECT
 10
2575.0
 20
-3756.5000000000618456
 30
0.0
 11
2581.5
 21
-3756.5000000000618456
 31
0.0
1001
ACDBBLOCKREPETAG
1070
     1
1071
       20
1005
129F8D
  0
LINE
  5
129F8E
  8
OBJECT
 10
2575.0
 20
-3862.4999999999968168
 30
0.0
 11
2584.5
 21
-3862.4999999999968168
 31
0.0
1001
ACDBBLOCKREPETAG
1070
     1
1071
       21
1005
129F8E
  0
LINE
  5
129F8F
  8
CENTER
 10
2838.0
 20
-3820.9999999999968168
 30
0.0
 11
2962.0
 21
-3820.9999999999968168
 31
0.0
1001
ACDBBLOCKREPETAG
1070
     1
1071
        0
1005
129F8F
  0
CIRCLE
  5
129F90
  8
OBJECT
 10
2900.0
 20
-3820.9999999999968168
 30
0.0
 40
28.0
1001
ACDBBLOCKREPETAG
1070
     1
1071
        2
1005
129F90
  0
CIRCLE
  5
129F91
  8
OBJECT
 10
2900.0
 20
-3820.9999999999968168
 30
0.0
 40
39.0
1001
ACDBBLOCKREPETAG
1070
     1
1071
        3
1005
129F91
  0
ARC
  5
129F92
  8
OBJECT
 10
2900.0
 20
-3820.9999999999968168
 30
0.0
 40
47.0
 50
290.5819692114441182
 51
249.4180307885559102
1001
ACDBBLOCKREPETAG
1070
     1
1071
        4
1005
129F92
  0
LINE
  5
129F93
  8
OBJECT
 10
2883.4772883581417773
 20
-3864.9999999999968168
 30
0.0
 11
2916.5227116418568585
 21
-3864.9999999999968168
 31
0.0
1001
ACDBBLOCKREPETAG
1070
     1
1071
        5
1005
129F93
  0
ARC
  5
129F94
  8
OBJECT
 10
2900.0
 20
-3805.9999999999931788
 30
0.0
 40
49.5
 50
0.0
 51
180.0
1001
ACDBBLOCKREPETAG
1070
     1
1071
        6
1005
129F94
  0
LINE
  5
129F95
  8
OBJECT
 10
2850.5000000000031832
 20
-3805.9999999999931788
 30
0.0
 11
2850.5000000000031832
 21
-3812.9999999999968168
 31
0.0
1001
ACDBBLOCKREPETAG
1070
     1
1071
        7
1005
129F95
  0
LINE
  5
129F96
  8
OBJECT
 10
2949.5000000000068212
 20
-3805.9999999999931788
 30
0.0
 11
2949.5000000000068212
 21
-3812.9999999999968168
 31
0.0
1001
ACDBBLOCKREPETAG
1070
     1
1071
        8
1005
129F96
  0
ARC
  5
129F97
  8
OBJECT
 10
2900.0
 20
-3812.9999999999968168
 30
0.0
 40
49.5
 50
180.0
 51
202.6695638510487925
1001
ACDBBLOCKREPETAG
1070
     1
1071
        9
1005
129F97
  0
ARC
  5
129F98
  8
OBJECT
 10
2900.0
 20
-3812.9999999999968168
 30
0.0
 40
49.5
 50
337.3304361489512075
 51
0.0
1001
ACDBBLOCKREPETAG
1070
     1
1071
       10
1005
129F98
  0
POINT
  5
129F99
  8
DOTS
 10
2900.0
 20
-3864.9999999999968168
 30
0.0
1001
ACDBBLOCKREPETAG
1070
     1
1071
       25
1005
129F99
  0
LINE
  5
129F9A
  8
OBJECT
 10
3633.0
 20
-3404.9999999999959073
 30
0.0
 11
3640.0
 21
-3404.9999999999959073
 31
0.0
1001
ACDBBLOCKREPETAG
1070
     1
1071
       20
1005
129F9A
  0
LINE
  5
129F9B
  8
OBJECT
 10
3640.0
 20
-3404.9999999999959073
 30
0.0
 11
3640.0
 21
-3514.9999999999968168
 31
0.0
1001
ACDBBLOCKREPETAG
1070
     1
1071
       21
1005
129F9B
  0
LINE
  5
129F9C
  8
OBJECT
 10
3640.0
 20
-3514.9999999999968168
 30
0.0
 11
3633.0
 21
-3514.9999999999968168
 31
0.0
1001
ACDBBLOCKREPETAG
1070
     1
1071
       22
1005
129F9C
  0
LINE
  5
129F9D
  8
OBJECT
 10
3633.0
 20
-3514.9999999999968168
 30
0.0
 11
3633.0
 21
-3404.9999999999959073
 31
0.0
1001
ACDBBLOCKREPETAG
1070
     1
1071
       23
1005
129F9D
  0
LINE
  5
129F9E
  8
CENTER
 10
3655.0
 20
-3459.9999999999968168
 30
0.0
 11
3580.0
 21
-3459.9999999999968168
 31
0.0
1001
ACDBBLOCKREPETAG
1070
     1
1071
       24
1005
129F9E
  0
LINE
  5
129F9F
  8
OBJECT
 10
3633.0
 20
-3407.9999999999959073
 30
0.0
 11
3597.0
 21
-3407.9999999999959073
 31
0.0
1001
ACDBBLOCKREPETAG
1070
     1
1071
       25
1005
129F9F
  0
LINE
  5
129FA0
  8
OBJECT
 10
3597.0
 20
-3407.9999999999959073
 30
0.0
 11
3597.0
 21
-3511.9999999999959073
 31
0.0
1001
ACDBBLOCKREPETAG
1070
     1
1071
       26
1005
129FA0
  0
LINE
  5
129FA1
  8
OBJECT
 10
3597.0
 20
-3511.9999999999959073
 30
0.0
 11
3633.0
 21
-3511.9999999999959073
 31
0.0
1001
ACDBBLOCKREPETAG
1070
     1
1071
       27
1005
129FA1
  0
LINE
  5
129FA2
  8
OBJECT
 10
3593.0
 20
-3412.4999999999959073
 30
0.0
 11
3584.5
 21
-3412.4999999999959073
 31
0.0
1001
ACDBBLOCKREPETAG
1070
     1
1071
       28
1005
129FA2
  0
LINE
  5
129FA3
  8
OBJECT
 10
3584.5
 20
-3507.4999999999968168
 30
0.0
 11
3593.0
 21
-3507.4999999999968168
 31
0.0
1001
ACDBBLOCKREPETAG
1070
     1
1071
       29
1005
129FA3
  0
LINE
  5
129FA4
  8
OBJECT
 10
3593.0
 20
-3507.4999999999968168
 30
0.0
 11
3593.0
 21
-3412.4999999999959073
 31
0.0
1001
ACDBBLOCKREPETAG
1070
     1
1071
       30
1005
129FA4
  0
LINE
  5
129FA5
  8
OBJECT
 10
3597.0
 20
-3407.9999999999959073
 30
0.0
 11
3593.0
 21
-3412.4999999999959073
 31
0.0
1001
ACDBBLOCKREPETAG
1070
     1
1071
       31
1005
129FA5
  0
LINE
  5
129FA6
  8
OBJECT
 10
3597.0
 20
-3511.9999999999959073
 30
0.0
 11
3593.0
 21
-3507.4999999999968168
 31
0.0
1001
ACDBBLOCKREPETAG
1070
     1
1071
       32
1005
129FA6
  0
LINE
  5
129FA7
  8
OBJECT
 10
3584.499999999998181
 20
-3509.4999999999959073
 30
0.0
 11
3584.5
 21
-3410.4999999999959073
 31
0.0
1001
ACDBBLOCKREPETAG
1070
     1
1071
       33
1005
129FA7
  0
LINE
  5
129FA8
  8
HIDDEN
 10
3588.0
 20
-3421.9999999999968168
 30
0.0
 11
3588.0
 21
-3497.9999999999959073
 31
0.0
1001
ACDBBLOCKREPETAG
1070
     1
1071
       34
1005
129FA8
  0
LINE
  5
129FA9
  8
OBJECT
 10
3584.5
 20
-3410.4999999999959073
 30
0.0
 11
3556.3449199129790941
 21
-3410.4999999999959073
 31
0.0
1001
ACDBBLOCKREPETAG
1070
     1
1071
       35
1005
129FA9
  0
LINE
  5
129FAA
  8
OBJECT
 10
3584.499999999998181
 20
-3509.4999999999959073
 30
0.0
 11
3556.3449199129790941
 21
-3509.4999999999959073
 31
0.0
1001
ACDBBLOCKREPETAG
1070
     1
1071
       36
1005
129FAA
  0
LINE
  5
129FAB
  8
OBJECT
 10
3633.0
 20
-3757.9999999999959073
 30
0.0
 11
3640.0
 21
-3757.9999999999959073
 31
0.0
1001
ACDBBLOCKREPETAG
1070
     1
1071
       23
1005
129FAB
  0
LINE
  5
129FAC
  8
OBJECT
 10
3640.0
 20
-3757.9999999999959073
 30
0.0
 11
3640.0
 21
-3864.9999999999968168
 31
0.0
1001
ACDBBLOCKREPETAG
1070
     1
1071
       24
1005
129FAC
  0
LINE
  5
129FAD
  8
OBJECT
 10
3584.5
 20
-3759.5000000000618456
 30
0.0
 11
3584.5
 21
-3862.4999999999968168
 31
0.0
1001
ACDBBLOCKREPETAG
1070
     1
1071
       25
1005
129FAD
  0
ARC
  5
129FAE
  8
OBJECT
 10
3581.5
 20
-3759.5000000000618456
 30
0.0
 40
3.0
 50
0.0
 51
90.0
1001
ACDBBLOCKREPETAG
1070
     1
1071
       26
1005
129FAE
  0
LINE
  5
129FAF
  8
OBJECT
 10
3633.0
 20
-3864.9999999999968168
 30
0.0
 11
3633.0
 21
-3757.9999999999959073
 31
0.0
1001
ACDBBLOCKREPETAG
1070
     1
1071
       27
1005
129FAF
  0
LINE
  5
129FB0
  8
CENTER
 10
3655.0
 20
-3812.9999999999968168
 30
0.0
 11
3541.3449199130041052
 21
-3813.0000000000618456
 31
0.0
1001
ACDBBLOCKREPETAG
1070
     1
1071
       28
1005
129FB0
  0
LINE
  5
129FB1
  8
OBJECT
 10
3633.0
 20
-3760.9999999999968168
 30
0.0
 11
3597.0
 21
-3760.9999999999968168
 31
0.0
1001
ACDBBLOCKREPETAG
1070
     1
1071
       29
1005
129FB1
  0
LINE
  5
129FB2
  8
OBJECT
 10
3597.0
 20
-3760.9999999999968168
 30
0.0
 11
3597.0
 21
-3864.9999999999968168
 31
0.0
1001
ACDBBLOCKREPETAG
1070
     1
1071
       30
1005
129FB2
  0
LINE
  5
129FB3
  8
OBJECT
 10
3597.0
 20
-3864.9999999999968168
 30
0.0
 11
3640.0
 21
-3864.9999999999968168
 31
0.0
1001
ACDBBLOCKREPETAG
1070
     1
1071
       31
1005
129FB3
  0
LINE
  5
129FB4
  8
OBJECT
 10
3593.0
 20
-3765.4999999999968168
 30
0.0
 11
3584.5
 21
-3765.4999999999968168
 31
0.0
1001
ACDBBLOCKREPETAG
1070
     1
1071
       32
1005
129FB4
  0
LINE
  5
129FB5
  8
OBJECT
 10
3584.5
 20
-3860.4999999999959073
 30
0.0
 11
3593.0
 21
-3860.4999999999959073
 31
0.0
1001
ACDBBLOCKREPETAG
1070
     1
1071
       33
1005
129FB5
  0
LINE
  5
129FB6
  8
OBJECT
 10
3593.0
 20
-3860.4999999999959073
 30
0.0
 11
3593.0
 21
-3765.4999999999968168
 31
0.0
1001
ACDBBLOCKREPETAG
1070
     1
1071
       34
1005
129FB6
  0
LINE
  5
129FB7
  8
OBJECT
 10
3597.0
 20
-3760.9999999999968168
 30
0.0
 11
3593.0
 21
-3765.4999999999968168
 31
0.0
1001
ACDBBLOCKREPETAG
1070
     1
1071
       35
1005
129FB7
  0
LINE
  5
129FB8
  8
OBJECT
 10
3597.0
 20
-3864.9999999999968168
 30
0.0
 11
3593.0
 21
-3860.4999999999959073
 31
0.0
1001
ACDBBLOCKREPETAG
1070
     1
1071
       36
1005
129FB8
  0
LINE
  5
129FB9
  8
HIDDEN
 10
3588.0
 20
-3774.9999999999968168
 30
0.0
 11
3588.0
 21
-3850.9999999999959073
 31
0.0
1001
ACDBBLOCKREPETAG
1070
     1
1071
       37
1005
129FB9
  0
ARC
  5
129FBA
  8
OBJECT
 10
3664.8782728787741689
 20
-3821.4095072612249169
 30
0.0
 40
110.866352283089995
 50
144.1634274192888938
 51
163.0403538043316871
1001
ACDBBLOCKREPETAG
1070
     1
1071
       38
1005
129FBA
  0
ARC
  5
129FBB
  8
OBJECT
 10
3617.1359887769071975
 20
-3806.2877497184449567
 30
0.0
 40
60.7917498803589709
 50
163.5472046522266965
 51
179.7287969828267933
1001
ACDBBLOCKREPETAG
1070
     1
1071
       39
1005
129FBB
  0
ARC
  5
129FBC
  8
OBJECT
 10
3617.1359956562478146
 20
-3812.7122497598970767
 30
0.0
 40
60.7917567620948773
 50
180.2712034781453099
 51
196.4527794605338045
1001
ACDBBLOCKREPETAG
1070
     1
1071
       40
1005
129FBC
  0
ARC
  5
129FBD
  8
OBJECT
 10
3664.8782728787741689
 20
-3797.590492738832836
 30
0.0
 40
110.8663522830916008
 50
196.9596461956681992
 51
215.8365725807111062
1001
ACDBBLOCKREPETAG
1070
     1
1071
       41
1005
129FBD
  0
LINE
  5
129FBE
  8
OBJECT
 10
3556.3449199130041052
 20
-3806.0000000000331966
 30
0.0
 11
3556.3449199130041052
 21
-3813.0000000000291038
 31
0.0
1001
ACDBBLOCKREPETAG
1070
     1
1071
       42
1005
129FBE
  0
LINE
  5
129FBF
  8
OBJECT
 10
3574.9999999999990905
 20
-3756.5000000000618456
 30
0.0
 11
3581.5
 21
-3756.5000000000618456
 31
0.0
1001
ACDBBLOCKREPETAG
1070
     1
1071
       43
1005
129FBF
  0
LINE
  5
129FC0
  8
OBJECT
 10
3574.9999999999990905
 20
-3862.4999999999968168
 30
0.0
 11
3584.5
 21
-3862.4999999999968168
 31
0.0
1001
ACDBBLOCKREPETAG
1070
     1
1071
       44
1005
129FC0
  0
CIRCLE
  5
129FC1
  8
OBJECT
 10
3900.0
 20
-3812.9999999999968168
 30
0.0
 40
35.5
1001
ACDBBLOCKREPETAG
1070
     1
1071
       11
1005
129FC1
  0
LINE
  5
129FC2
  8
CENTER
 10
3830.0
 20
-3812.9999999999968168
 30
0.0
 11
3970.0
 21
-3812.9999999999968168
 31
0.0
1001
ACDBBLOCKREPETAG
1070
     1
1071
       12
1005
129FC2
  0
CIRCLE
  5
129FC3
  8
OBJECT
 10
3900.0
 20
-3812.9999999999968168
 30
0.0
 40
47.0
1001
ACDBBLOCKREPETAG
1070
     1
1071
       14
1005
129FC3
  0
ARC
  5
129FC4
  8
OBJECT
 10
3900.0
 20
-3812.9999999999968168
 30
0.0
 40
55.0
 50
289.0112652600889191
 51
250.9887347399111093
1001
ACDBBLOCKREPETAG
1070
     1
1071
       15
1005
129FC4
  0
LINE
  5
129FC5
  8
OBJECT
 10
3882.0835271328319322
 20
-3864.9999999999968168
 30
0.0
 11
3917.9164728671671583
 21
-3864.9999999999968168
 31
0.0
1001
ACDBBLOCKREPETAG
1070
     1
1071
       16
1005
129FC5
  0
POINT
  5
129FC6
  8
DOTS
 10
3900.0
 20
-3864.9999999999968168
 30
0.0
1001
ACDBBLOCKREPETAG
1070
     1
1071
       24
1005
129FC6
  0
LINE
  5
129FC7
  8
OBJECT
 10
4633.0000000000009095
 20
-3397.9999999999959073
 30
0.0
 11
4640.000000000001819
 21
-3397.9999999999959073
 31
0.0
1001
ACDBBLOCKREPETAG
1070
     1
1071
       38
1005
129FC7
  0
LINE
  5
129FC8
  8
OBJECT
 10
4640.000000000001819
 20
-3397.9999999999959073
 30
0.0
 11
4640.0
 21
-3521.9999999999968168
 31
0.0
1001
ACDBBLOCKREPETAG
1070
     1
1071
       39
1005
129FC8
  0
LINE
  5
129FC9
  8
OBJECT
 10
4640.0
 20
-3521.9999999999968168
 30
0.0
 11
4633.0
 21
-3521.9999999999968168
 31
0.0
1001
ACDBBLOCKREPETAG
1070
     1
1071
       40
1005
129FC9
  0
LINE
  5
129FCA
  8
OBJECT
 10
4633.0
 20
-3521.9999999999968168
 30
0.0
 11
4633.0000000000009095
 21
-3397.9999999999959073
 31
0.0
1001
ACDBBLOCKREPETAG
1070
     1
1071
       41
1005
129FCA
  0
LINE
  5
129FCB
  8
CENTER
 10
4655.0
 20
-3459.9999999999968168
 30
0.0
 11
4580.0
 21
-3459.9999999999968168
 31
0.0
1001
ACDBBLOCKREPETAG
1070
     1
1071
       42
1005
129FCB
  0
LINE
  5
129FCC
  8
OBJECT
 10
4633.0000000000009095
 20
-3400.9999999999959073
 30
0.0
 11
4597.000000000001819
 21
-3400.9999999999959073
 31
0.0
1001
ACDBBLOCKREPETAG
1070
     1
1071
       43
1005
129FCC
  0
LINE
  5
129FCD
  8
OBJECT
 10
4597.000000000001819
 20
-3400.9999999999959073
 30
0.0
 11
4597.0
 21
-3518.9999999999968168
 31
0.0
1001
ACDBBLOCKREPETAG
1070
     1
1071
       44
1005
129FCD
  0
LINE
  5
129FCE
  8
OBJECT
 10
4597.0
 20
-3518.9999999999968168
 30
0.0
 11
4633.0
 21
-3518.9999999999968168
 31
0.0
1001
ACDBBLOCKREPETAG
1070
     1
1071
       45
1005
129FCE
  0
LINE
  5
129FCF
  8
OBJECT
 10
4593.000000000001819
 20
-3405.4999999999959073
 30
0.0
 11
4582.500000000001819
 21
-3405.4999999999959073
 31
0.0
1001
ACDBBLOCKREPETAG
1070
     1
1071
       46
1005
129FCF
  0
LINE
  5
129FD0
  8
OBJECT
 10
4582.5
 20
-3514.4999999999968168
 30
0.0
 11
4593.0
 21
-3514.4999999999968168
 31
0.0
1001
ACDBBLOCKREPETAG
1070
     1
1071
       47
1005
129FD0
  0
LINE
  5
129FD1
  8
OBJECT
 10
4593.0
 20
-3514.4999999999968168
 30
0.0
 11
4593.000000000001819
 21
-3405.4999999999959073
 31
0.0
1001
ACDBBLOCKREPETAG
1070
     1
1071
       48
1005
129FD1
  0
LINE
  5
129FD2
  8
OBJECT
 10
4597.000000000001819
 20
-3400.9999999999959073
 30
0.0
 11
4593.000000000001819
 21
-3405.4999999999959073
 31
0.0
1001
ACDBBLOCKREPETAG
1070
     1
1071
       49
1005
129FD2
  0
LINE
  5
129FD3
  8
OBJECT
 10
4597.0
 20
-3518.9999999999968168
 30
0.0
 11
4593.0
 21
-3514.4999999999968168
 31
0.0
1001
ACDBBLOCKREPETAG
1070
     1
1071
       50
1005
129FD3
  0
LINE
  5
129FD4
  8
HIDDEN
 10
4588.0000000000009095
 20
-3415.4999999999968168
 30
0.0
 11
4588.0
 21
-3504.4999999999968168
 31
0.0
1001
ACDBBLOCKREPETAG
1070
     1
1071
       51
1005
129FD4
  0
LINE
  5
129FD5
  8
OBJECT
 10
4577.500000000001819
 20
-3410.4999999999959073
 30
0.0
 11
4556.3449199129790941
 21
-3410.4999999999959073
 31
0.0
1001
ACDBBLOCKREPETAG
1070
     1
1071
       52
1005
129FD5
  0
LINE
  5
129FD6
  8
OBJECT
 10
4577.4999999999990905
 20
-3509.4999999999959073
 30
0.0
 11
4556.3449199129790941
 21
-3509.4999999999959073
 31
0.0
1001
ACDBBLOCKREPETAG
1070
     1
1071
       53
1005
129FD6
  0
LINE
  5
129FD7
  8
OBJECT
 10
4582.500000000001819
 20
-3405.4999999999959073
 30
0.0
 11
4582.5
 21
-3514.4999999999968168
 31
0.0
1001
ACDBBLOCKREPETAG
1070
     1
1071
       54
1005
129FD7
  0
LINE
  5
129FD8
  8
OBJECT
 10
4577.500000000001819
 20
-3410.4999999999959073
 30
0.0
 11
4577.4999999999990905
 21
-3509.4999999999959073
 31
0.0
1001
ACDBBLOCKREPETAG
1070
     1
1071
       55
1005
129FD8
  0
LINE
  5
129FD9
  8
OBJECT
 10
4582.500000000001819
 20
-3405.4999999999959073
 30
0.0
 11
4577.500000000001819
 21
-3410.4999999999959073
 31
0.0
1001
ACDBBLOCKREPETAG
1070
     1
1071
       56
1005
129FD9
  0
LINE
  5
129FDA
  8
OBJECT
 10
4577.4999999999990905
 20
-3509.4999999999959073
 30
0.0
 11
4582.5
 21
-3514.4999999999931788
 31
0.0
1001
ACDBBLOCKREPETAG
1070
     1
1071
       57
1005
129FDA
  0
LINE
  5
129FDB
  8
OBJECT
 10
4633.0
 20
-3743.9999999999959073
 30
0.0
 11
4640.0
 21
-3743.9999999999959073
 31
0.0
1001
ACDBBLOCKREPETAG
1070
     1
1071
       46
1005
129FDB
  0
LINE
  5
129FDC
  8
OBJECT
 10
4640.0
 20
-3743.9999999999959073
 30
0.0
 11
4640.0
 21
-3864.9999999999968168
 31
0.0
1001
ACDBBLOCKREPETAG
1070
     1
1071
       47
1005
129FDC
  0
LINE
  5
129FDD
  8
OBJECT
 10
4633.0
 20
-3864.9999999999968168
 30
0.0
 11
4633.0
 21
-3743.9999999999959073
 31
0.0
1001
ACDBBLOCKREPETAG
1070
     1
1071
       48
1005
129FDD
  0
LINE
  5
129FDE
  8
CENTER
 10
4655.0
 20
-3805.9999999999968168
 30
0.0
 11
4541.3449199130036504
 21
-3806.0000000000618456
 31
0.0
1001
ACDBBLOCKREPETAG
1070
     1
1071
       49
1005
129FDE
  0
LINE
  5
129FDF
  8
OBJECT
 10
4633.0
 20
-3746.9999999999959073
 30
0.0
 11
4597.0
 21
-3746.9999999999959073
 31
0.0
1001
ACDBBLOCKREPETAG
1070
     1
1071
       50
1005
129FDF
  0
LINE
  5
129FE0
  8
OBJECT
 10
4597.0
 20
-3746.9999999999959073
 30
0.0
 11
4597.0
 21
-3864.9999999999968168
 31
0.0
1001
ACDBBLOCKREPETAG
1070
     1
1071
       51
1005
129FE0
  0
LINE
  5
129FE1
  8
OBJECT
 10
4597.0
 20
-3864.9999999999968168
 30
0.0
 11
4640.0
 21
-3864.9999999999968168
 31
0.0
1001
ACDBBLOCKREPETAG
1070
     1
1071
       52
1005
129FE1
  0
LINE
  5
129FE2
  8
OBJECT
 10
4593.0
 20
-3751.4999999999959073
 30
0.0
 11
4582.5
 21
-3751.4999999999959073
 31
0.0
1001
ACDBBLOCKREPETAG
1070
     1
1071
       53
1005
129FE2
  0
LINE
  5
129FE3
  8
OBJECT
 10
4582.5
 20
-3860.4999999999959073
 30
0.0
 11
4593.0
 21
-3860.4999999999959073
 31
0.0
1001
ACDBBLOCKREPETAG
1070
     1
1071
       54
1005
129FE3
  0
LINE
  5
129FE4
  8
OBJECT
 10
4593.0
 20
-3860.4999999999959073
 30
0.0
 11
4593.0
 21
-3751.4999999999959073
 31
0.0
1001
ACDBBLOCKREPETAG
1070
     1
1071
       55
1005
129FE4
  0
LINE
  5
129FE5
  8
OBJECT
 10
4597.0
 20
-3746.9999999999959073
 30
0.0
 11
4593.0
 21
-3751.4999999999959073
 31
0.0
1001
ACDBBLOCKREPETAG
1070
     1
1071
       56
1005
129FE5
  0
LINE
  5
129FE6
  8
OBJECT
 10
4597.0
 20
-3864.9999999999968168
 30
0.0
 11
4593.0
 21
-3860.4999999999959073
 31
0.0
1001
ACDBBLOCKREPETAG
1070
     1
1071
       57
1005
129FE6
  0
LINE
  5
129FE7
  8
HIDDEN
 10
4588.0
 20
-3761.4999999999968168
 30
0.0
 11
4588.0
 21
-3850.4999999999968168
 31
0.0
1001
ACDBBLOCKREPETAG
1070
     1
1071
       58
1005
129FE7
  0
ARC
  5
129FE8
  8
OBJECT
 10
4664.8782728787728047
 20
-3821.4095072612249169
 30
0.0
 40
110.866352283089995
 50
144.1634274192888938
 51
163.0403538043393894
1001
ACDBBLOCKREPETAG
1070
     1
1071
       59
1005
129FE8
  0
ARC
  5
129FE9
  8
OBJECT
 10
4617.1359887769067427
 20
-3806.2877497184449567
 30
0.0
 40
60.7917498803589709
 50
163.5472046522193068
 51
179.7287969828265943
1001
ACDBBLOCKREPETAG
1070
     1
1071
       60
1005
129FE9
  0
ARC
  5
129FEA
  8
OBJECT
 10
4617.1359956562482694
 20
-3812.7122497598970767
 30
0.0
 40
60.7917567620948773
 50
180.2712034781451962
 51
196.4527794605265001
1001
ACDBBLOCKREPETAG
1070
     1
1071
       61
1005
129FEA
  0
ARC
  5
129FEB
  8
OBJECT
 10
4664.8782728787728047
 20
-3797.590492738832836
 30
0.0
 40
110.8663522830916008
 50
196.9596461956606106
 51
215.8365725807111062
1001
ACDBBLOCKREPETAG
1070
     1
1071
       62
1005
129FEB
  0
LINE
  5
129FEC
  8
OBJECT
 10
4556.3449199130036504
 20
-3806.0000000000331966
 30
0.0
 11
4556.3449199130036504
 21
-3813.0000000000291038
 31
0.0
1001
ACDBBLOCKREPETAG
1070
     1
1071
       63
1005
129FEC
  0
LINE
  5
129FED
  8
OBJECT
 10
4574.999999999836291
 20
-3756.5000000002910383
 30
0.0
 11
4577.499999999836291
 21
-3756.5000000002910383
 31
0.0
1001
ACDBBLOCKREPETAG
1070
     1
1071
       65
1005
129FED
  0
LINE
  5
129FEE
  8
OBJECT
 10
4574.999999999832653
 20
-3862.4999999997671694
 30
0.0
 11
4579.4999999998317435
 21
-3862.4999999997671694
 31
0.0
1001
ACDBBLOCKREPETAG
1070
     1
1071
       66
1005
129FEE
  0
LINE
  5
129FEF
  8
OBJECT
 10
4579.4999999998317435
 20
-3862.4999999997671694
 30
0.0
 11
4577.499999999836291
 21
-3756.5000000002910383
 31
0.0
1001
ACDBBLOCKREPETAG
1070
     1
1071
       67
1005
129FEF
  0
LINE
  5
129FF0
  8
OBJECT
 10
4579.4999999998317435
 20
-3862.4999999997671694
 30
0.0
 11
4582.5
 21
-3860.4999999999959073
 31
0.0
1001
ACDBBLOCKREPETAG
1070
     1
1071
       68
1005
129FF0
  0
LINE
  5
129FF1
  8
OBJECT
 10
4582.5
 20
-3860.4999999999959073
 30
0.0
 11
4582.5
 21
-3751.4999999999959073
 31
0.0
1001
ACDBBLOCKREPETAG
1070
     1
1071
       69
1005
129FF1
  0
LINE
  5
129FF2
  8
OBJECT
 10
4582.5
 20
-3751.4999999999959073
 30
0.0
 11
4577.499999999836291
 21
-3756.5000000002910383
 31
0.0
1001
ACDBBLOCKREPETAG
1070
     1
1071
       70
1005
129FF2
  0
LINE
  5
129FF3
  8
CENTER
 10
4977.0
 20
-3805.9999999999968168
 30
0.0
 11
4823.0
 21
-3805.9999999999968168
 31
0.0
1001
ACDBBLOCKREPETAG
1070
     1
1071
       17
1005
129FF3
  0
CIRCLE
  5
129FF4
  8
OBJECT
 10
4900.0
 20
-3805.9999999999968168
 30
0.0
 40
41.5
1001
ACDBBLOCKREPETAG
1070
     1
1071
       18
1005
129FF4
  0
CIRCLE
  5
129FF5
  8
OBJECT
 10
4900.0
 20
-3805.9999999999968168
 30
0.0
 40
54.0
1001
ACDBBLOCKREPETAG
1070
     1
1071
       19
1005
129FF5
  0
ARC
  5
129FF6
  8
OBJECT
 10
4900.0
 20
-3805.9999999999968168
 30
0.0
 40
62.0
 50
287.8965511292112751
 51
252.1034488707886965
1001
ACDBBLOCKREPETAG
1070
     1
1071
       20
1005
129FF6
  0
LINE
  5
129FF7
  8
OBJECT
 10
4880.9474411167429935
 20
-3864.9999999999968168
 30
0.0
 11
4919.0525588832570065
 21
-3864.9999999999968168
 31
0.0
1001
ACDBBLOCKREPETAG
1070
     1
1071
       21
1005
129FF7
  0
POINT
  5
129FF8
  8
DOTS
 10
4900.0
 20
-3864.9999999999968168
 30
0.0
1001
ACDBBLOCKREPETAG
1070
     1
1071
       23
1005
129FF8
  0
LINE
  5
129FF9
  8
OBJECT
 10
2423.0
 20
-570.9999999999943157
 30
0.0
 11
2423.0
 21
-549.9999999999943157
 31
0.0
1001
ACDBBLOCKREPETAG
1070
     1
1071
        0
1005
129FF9
  0
LINE
  5
129FFA
  8
OBJECT
 10
2423.0
 20
-549.9999999999943157
 30
0.0
 11
2577.0
 21
-549.9999999999943157
 31
0.0
1001
ACDBBLOCKREPETAG
1070
     1
1071
        1
1005
129FFA
  0
LINE
  5
129FFB
  8
HIDDEN
 10
2443.0
 20
-619.9999999999943157
 30
0.0
 11
2557.0
 21
-619.9999999999943157
 31
0.0
1001
ACDBBLOCKREPETAG
1070
     1
1071
        2
1005
129FFB
  0
LINE
  5
129FFC
  8
OBJECT
 10
2577.0
 20
-549.9999999999943157
 30
0.0
 11
2577.0
 21
-570.9999999999943157
 31
0.0
1001
ACDBBLOCKREPETAG
1070
     1
1071
        3
1005
129FFC
  0
LINE
  5
129FFD
  8
OBJECT
 10
2577.0
 20
-570.9999999999943157
 30
0.0
 11
2423.0
 21
-570.9999999999943157
 31
0.0
1001
ACDBBLOCKREPETAG
1070
     1
1071
        4
1005
129FFD
  0
LINE
  5
129FFE
  8
CENTER
 10
2500.0
 20
-534.9999999999943157
 30
0.0
 11
2500.0
 21
-769.9999999999943157
 31
0.0
1001
ACDBBLOCKREPETAG
1070
     1
1071
        5
1005
129FFE
  0
LINE
  5
129FFF
  8
OBJECT
 10
2425.0
 20
-633.9999999999943157
 30
0.0
 11
2425.0
 21
-757.9999999999943157
 31
0.0
1001
ACDBBLOCKREPETAG
1070
     1
1071
        6
1005
129FFF
  0
LINE
  5
12A000
  8
OBJECT
 10
2428.0
 20
-570.9999999999943157
 30
0.0
 11
2428.0
 21
-633.9999999999943157
 31
0.0
1001
ACDBBLOCKREPETAG
1070
     1
1071
        7
1005
12A000
  0
LINE
  5
12A001
  8
OBJECT
 10
2572.0
 20
-633.9999999999943157
 30
0.0
 11
2572.0
 21
-570.9999999999943157
 31
0.0
1001
ACDBBLOCKREPETAG
1070
     1
1071
        8
1005
12A001
  0
LINE
  5
12A002
  8
OBJECT
 10
2420.0
 20
-757.9999999999943157
 30
0.0
 11
2580.0
 21
-757.9999999999943157
 31
0.0
1001
ACDBBLOCKREPETAG
1070
     1
1071
        9
1005
12A002
  0
LINE
  5
12A003
  8
OBJECT
 10
2580.0
 20
-633.9999999999943157
 30
0.0
 11
2425.0
 21
-633.9999999999943157
 31
0.0
1001
ACDBBLOCKREPETAG
1070
     1
1071
       10
1005
12A003
  0
LINE
  5
12A004
  8
OBJECT
 10
2420.0
 20
-757.9999999999943157
 30
0.0
 11
2420.0
 21
-769.9999999999943157
 31
0.0
1001
ACDBBLOCKREPETAG
1070
     1
1071
       11
1005
12A004
  0
LINE
  5
12A005
  8
OBJECT
 10
2420.0
 20
-769.9999999999943157
 30
0.0
 11
2580.0
 21
-769.9999999999943157
 31
0.0
1001
ACDBBLOCKREPETAG
1070
     1
1071
       12
1005
12A005
  0
LINE
  5
12A006
  8
OBJECT
 10
2580.0
 20
-769.9999999999943157
 30
0.0
 11
2580.0
 21
-757.9999999999943157
 31
0.0
1001
ACDBBLOCKREPETAG
1070
     1
1071
       13
1005
12A006
  0
ARC
  5
12A007
  8
OBJECT
 10
2700.6872746716730944
 20
-749.4080994101019542
 30
0.0
 40
170.6350503965855978
 50
137.4413445918430057
 51
149.9194958133722082
1001
ACDBBLOCKREPETAG
1070
     1
1071
       15
1005
12A007
  0
ARC
  5
12A008
  8
OBJECT
 10
2618.845598704051099
 20
-705.8827266953592243
 30
0.0
 40
78.0722220217636647
 50
147.4551531037683958
 51
164.6636599771798046
1001
ACDBBLOCKREPETAG
1070
     1
1071
       16
1005
12A008
  0
ARC
  5
12A009
  8
OBJECT
 10
2585.7554349608731172
 20
-695.9999999999943157
 30
0.0
 40
43.5535392688561771
 50
165.6884523008477004
 51
194.3115476991521859
1001
ACDBBLOCKREPETAG
1070
     1
1071
       17
1005
12A009
  0
ARC
  5
12A00A
  8
OBJECT
 10
2700.6872746716730944
 20
-642.5919005898864498
 30
0.0
 40
170.6350503965855978
 50
210.0805041866277918
 51
222.5586554081569943
1001
ACDBBLOCKREPETAG
1070
     1
1071
       18
1005
12A00A
  0
ARC
  5
12A00B
  8
OBJECT
 10
2618.845598704051099
 20
-686.117273304629407
 30
0.0
 40
78.0722220217636647
 50
195.3363400228201954
 51
212.5448468962316042
1001
ACDBBLOCKREPETAG
1070
     1
1071
       19
1005
12A00B
  0
LINE
  5
12A00C
  8
OBJECT
 10
4423.0
 20
-570.9999999999943157
 30
0.0
 11
4423.0
 21
-549.9999999999943157
 31
0.0
1001
ACDBBLOCKREPETAG
1070
     1
1071
        0
1005
12A00C
  0
LINE
  5
12A00D
  8
OBJECT
 10
4423.0
 20
-549.9999999999943157
 30
0.0
 11
4577.0
 21
-549.9999999999943157
 31
0.0
1001
ACDBBLOCKREPETAG
1070
     1
1071
        1
1005
12A00D
  0
LINE
  5
12A00E
  8
HIDDEN
 10
4443.0
 20
-619.9999999999943157
 30
0.0
 11
4557.0
 21
-619.9999999999943157
 31
0.0
1001
ACDBBLOCKREPETAG
1070
     1
1071
        2
1005
12A00E
  0
LINE
  5
12A00F
  8
OBJECT
 10
4577.0
 20
-549.9999999999943157
 30
0.0
 11
4577.0
 21
-570.9999999999943157
 31
0.0
1001
ACDBBLOCKREPETAG
1070
     1
1071
        3
1005
12A00F
  0
LINE
  5
12A010
  8
OBJECT
 10
4577.0
 20
-570.9999999999943157
 30
0.0
 11
4423.0
 21
-570.9999999999943157
 31
0.0
1001
ACDBBLOCKREPETAG
1070
     1
1071
        4
1005
12A010
  0
LINE
  5
12A011
  8
CENTER
 10
4500.0
 20
-534.9999999999943157
 30
0.0
 11
4500.0
 21
-769.9999999999943157
 31
0.0
1001
ACDBBLOCKREPETAG
1070
     1
1071
        5
1005
12A011
  0
LINE
  5
12A012
  8
OBJECT
 10
4425.0
 20
-633.9999999999943157
 30
0.0
 11
4425.0
 21
-757.9999999999943157
 31
0.0
1001
ACDBBLOCKREPETAG
1070
     1
1071
        6
1005
12A012
  0
LINE
  5
12A013
  8
OBJECT
 10
4428.0
 20
-570.9999999999943157
 30
0.0
 11
4428.0
 21
-633.9999999999943157
 31
0.0
1001
ACDBBLOCKREPETAG
1070
     1
1071
        7
1005
12A013
  0
LINE
  5
12A014
  8
OBJECT
 10
4572.0
 20
-633.9999999999943157
 30
0.0
 11
4572.0
 21
-570.9999999999943157
 31
0.0
1001
ACDBBLOCKREPETAG
1070
     1
1071
        8
1005
12A014
  0
LINE
  5
12A015
  8
OBJECT
 10
4420.0
 20
-757.9999999999943157
 30
0.0
 11
4580.0
 21
-757.9999999999943157
 31
0.0
1001
ACDBBLOCKREPETAG
1070
     1
1071
        9
1005
12A015
  0
LINE
  5
12A016
  8
OBJECT
 10
4580.0
 20
-633.9999999999943157
 30
0.0
 11
4425.0
 21
-633.9999999999943157
 31
0.0
1001
ACDBBLOCKREPETAG
1070
     1
1071
       10
1005
12A016
  0
LINE
  5
12A017
  8
OBJECT
 10
4420.0
 20
-757.9999999999943157
 30
0.0
 11
4420.0
 21
-769.9999999999943157
 31
0.0
1001
ACDBBLOCKREPETAG
1070
     1
1071
       11
1005
12A017
  0
LINE
  5
12A018
  8
OBJECT
 10
4420.0
 20
-769.9999999999943157
 30
0.0
 11
4580.0
 21
-769.9999999999943157
 31
0.0
1001
ACDBBLOCKREPETAG
1070
     1
1071
       12
1005
12A018
  0
LINE
  5
12A019
  8
OBJECT
 10
4580.0
 20
-769.9999999999943157
 30
0.0
 11
4580.0
 21
-757.9999999999943157
 31
0.0
1001
ACDBBLOCKREPETAG
1070
     1
1071
       13
1005
12A019
  0
ARC
  5
12A01A
  8
OBJECT
 10
4700.6872746716726397
 20
-749.4080994101019542
 30
0.0
 40
170.6350503965855978
 50
137.4413445918430057
 51
149.9194958133722082
1001
ACDBBLOCKREPETAG
1070
     1
1071
       15
1005
12A01A
  0
ARC
  5
12A01B
  8
OBJECT
 10
4618.8455987040506443
 20
-705.8827266953592243
 30
0.0
 40
78.0722220217636647
 50
147.4551531037683958
 51
164.6636599771867111
1001
ACDBBLOCKREPETAG
1070
     1
1071
       16
1005
12A01B
  0
ARC
  5
12A01C
  8
OBJECT
 10
4585.755434960871753
 20
-695.9999999999943157
 30
0.0
 40
43.5535392688561771
 50
165.6884523008477004
 51
194.3115476991521859
1001
ACDBBLOCKREPETAG
1070
     1
1071
       17
1005
12A01C
  0
ARC
  5
12A01D
  8
OBJECT
 10
4700.6872746716726397
 20
-642.5919005898864498
 30
0.0
 40
170.6350503965855978
 50
210.0805041866277918
 51
222.5586554081569943
1001
ACDBBLOCKREPETAG
1070
     1
1071
       18
1005
12A01D
  0
ARC
  5
12A01E
  8
OBJECT
 10
4618.8455987040506443
 20
-686.117273304629407
 30
0.0
 40
78.0722220217636647
 50
195.3363400228132889
 51
212.5448468962316042
1001
ACDBBLOCKREPETAG
1070
     1
1071
       19
1005
12A01E
  0
TEXT
  5
12A01F
  8
SLIM
 10
105.428571428511006
 20
-1243.9999999998490239
 30
0.0
 40
48.0
  1
C1100
 41
0.75
1001
ACDBBLOCKREPETAG
1070
     1
1071
      119
1005
0
  0
TEXT
  5
12A020
  8
SLIM
 10
461.9999999998175895
 20
-1243.9999999998499334
 30
0.0
 40
48.0
  1
C1200
 41
0.75
1001
ACDBBLOCKREPETAG
1070
     1
1071
      119
1005
0
  0
TEXT
  5
12A021
  8
SLIM
 10
101.9999999999395044
 20
-1707.9999999996919087
 30
0.0
 40
48.0
  1
C1300
 41
0.75
1001
ACDBBLOCKREPETAG
1070
     1
1071
      119
1005
0
  0
TEXT
  5
12A022
  8
SLIM
 10
461.9999999998175895
 20
-1707.9999999996919087
 30
0.0
 40
48.0
  1
C2100
 41
0.75
1001
ACDBBLOCKREPETAG
1070
     1
1071
      119
1005
0
  0
TEXT
  5
12A023
  8
SLIM
 10
98.5714285713681164
 20
-2171.9999999995329745
 30
0.0
 40
48.0
  1
C2200
 41
0.75
1001
ACDBBLOCKREPETAG
1070
     1
1071
      119
1005
0
  0
TEXT
  5
12A024
  8
SLIM
 10
458.5714285712460878
 20
-2171.9999999995329745
 30
0.0
 40
48.0
  1
C2300
 41
0.75
1001
ACDBBLOCKREPETAG
1070
     1
1071
      119
1005
0
  0
TEXT
  5
12A025
  8
SLIM
 10
101.9999999999393054
 20
-2635.9999999993760866
 30
0.0
 40
48.0
  1
C3100
 41
0.75
1001
ACDBBLOCKREPETAG
1070
     1
1071
      119
1005
0
  0
TEXT
  5
12A026
  8
SLIM
 10
458.5714285712462015
 20
-2635.9999999993760866
 30
0.0
 40
48.0
  1
C3200
 41
0.75
1001
ACDBBLOCKREPETAG
1070
     1
1071
      119
1005
0
  0
TEXT
  5
12A027
  8
SLIM
 10
98.5714285713677469
 20
-3099.9999999992169251
 30
0.0
 40
48.0
  1
C3300
 41
0.75
1001
ACDBBLOCKREPETAG
1070
     1
1071
      119
1005
0
  0
LINE
  5
12A028
  8
OBJECT
 10
289.0
 20
-973.0
 30
0.0
 11
296.0
 21
-973.0
 31
0.0
1001
ACDBBLOCKREPETAG
1070
     1
1071
        0
1005
12A028
  0
LINE
  5
12A029
  8
OBJECT
 10
296.0
 20
-973.0
 30
0.0
 11
296.0
 21
-1067.0
 31
0.0
1001
ACDBBLOCKREPETAG
1070
     1
1071
        1
1005
12A029
  0
LINE
  5
12A02A
  8
OBJECT
 10
296.0
 20
-1067.0
 30
0.0
 11
289.0
 21
-1067.0
 31
0.0
1001
ACDBBLOCKREPETAG
1070
     1
1071
        2
1005
12A02A
  0
LINE
  5
12A02B
  8
OBJECT
 10
289.0
 20
-1067.0
 30
0.0
 11
289.0
 21
-973.0
 31
0.0
1001
ACDBBLOCKREPETAG
1070
     1
1071
        3
1005
12A02B
  0
LINE
  5
12A02C
  8
OBJECT
 10
289.0
 20
-976.0
 30
0.0
 11
253.0
 21
-976.0
 31
0.0
1001
ACDBBLOCKREPETAG
1070
     1
1071
        4
1005
12A02C
  0
LINE
  5
12A02D
  8
OBJECT
 10
253.0
 20
-976.0
 30
0.0
 11
253.0
 21
-1064.0
 31
0.0
1001
ACDBBLOCKREPETAG
1070
     1
1071
        5
1005
12A02D
  0
LINE
  5
12A02E
  8
OBJECT
 10
253.0
 20
-1064.0
 30
0.0
 11
289.0
 21
-1064.0
 31
0.0
1001
ACDBBLOCKREPETAG
1070
     1
1071
        6
1005
12A02E
  0
LINE
  5
12A02F
  8
OBJECT
 10
249.0
 20
-980.4999999999998863
 30
0.0
 11
240.5000000000005116
 21
-980.4999999999998863
 31
0.0
1001
ACDBBLOCKREPETAG
1070
     1
1071
        7
1005
12A02F
  0
LINE
  5
12A030
  8
OBJECT
 10
240.4999999999994884
 20
-1059.5
 30
0.0
 11
249.0
 21
-1059.5
 31
0.0
1001
ACDBBLOCKREPETAG
1070
     1
1071
        8
1005
12A030
  0
LINE
  5
12A031
  8
OBJECT
 10
249.0
 20
-1059.5
 30
0.0
 11
249.0
 21
-980.4999999999998863
 31
0.0
1001
ACDBBLOCKREPETAG
1070
     1
1071
        9
1005
12A031
  0
LINE
  5
12A032
  8
OBJECT
 10
253.0
 20
-976.0
 30
0.0
 11
249.0
 21
-980.4999999999998863
 31
0.0
1001
ACDBBLOCKREPETAG
1070
     1
1071
       10
1005
12A032
  0
LINE
  5
12A033
  8
OBJECT
 10
253.0
 20
-1064.0
 30
0.0
 11
249.0
 21
-1059.5
 31
0.0
1001
ACDBBLOCKREPETAG
1070
     1
1071
       11
1005
12A033
  0
LINE
  5
12A034
  8
OBJECT
 10
240.4999999999990905
 20
-1066.5
 30
0.0
 11
240.5000000000005116
 21
-973.4999999999998863
 31
0.0
1001
ACDBBLOCKREPETAG
1070
     1
1071
       12
1005
12A034
  0
ARC
  5
12A035
  8
OBJECT
 10
237.5000000000003979
 20
-973.4999999999998863
 30
0.0
 40
3.0
 50
0.0
 51
90.0
1001
ACDBBLOCKREPETAG
1070
     1
1071
       13
1005
12A035
  0
LINE
  5
12A036
  8
OBJECT
 10
237.5000000000003979
 20
-970.5
 30
0.0
 11
212.344919912978412
 21
-970.4999999999990905
 31
0.0
1001
ACDBBLOCKREPETAG
1070
     1
1071
       15
1005
12A036
  0
LINE
  5
12A037
  8
OBJECT
 10
237.4999999999990905
 20
-1069.5
 30
0.0
 11
212.344919912979293
 21
-1069.4999999999990905
 31
0.0
1001
ACDBBLOCKREPETAG
1070
     1
1071
       16
1005
12A037
  0
ARC
  5
12A038
  8
OBJECT
 10
237.4999999999990905
 20
-1066.5
 30
0.0
 40
3.0
 50
270.0
 51
0.0
1001
ACDBBLOCKREPETAG
1070
     1
1071
       17
1005
12A038
  0
INSERT
  5
12A039
  8
SLIM
  2
*U252
 10
0.0
 20
0.0
 30
0.0
  0
LINE
  5
12A03A
  8
HIDDEN
 10
244.0
 20
-990.0
 30
0.0
 11
244.0
 21
-1050.0
 31
0.0
1001
ACDBBLOCKREPETAG
1070
     1
1071
       56
1005
12A03A
  0
LINE
  5
12A03B
  8
OBJECT
 10
109.0
 20
-887.0
 30
0.0
 11
109.0
 21
-880.0
 31
0.0
1001
ACDBBLOCKREPETAG
1070
     1
1071
        0
1005
12A03B
  0
LINE
  5
12A03C
  8
OBJECT
 10
109.0
 20
-880.0
 30
0.0
 11
203.0
 21
-880.0
 31
0.0
1001
ACDBBLOCKREPETAG
1070
     1
1071
        1
1005
12A03C
  0
LINE
  5
12A03D
  8
OBJECT
 10
203.0
 20
-880.0
 30
0.0
 11
203.0
 21
-887.0
 31
0.0
1001
ACDBBLOCKREPETAG
1070
     1
1071
        2
1005
12A03D
  0
LINE
  5
12A03E
  8
OBJECT
 10
203.0
 20
-887.0
 30
0.0
 11
109.0
 21
-887.0
 31
0.0
1001
ACDBBLOCKREPETAG
1070
     1
1071
        3
1005
12A03E
  0
LINE
  5
12A03F
  8
OBJECT
 10
112.0
 20
-887.0
 30
0.0
 11
112.0
 21
-923.0
 31
0.0
1001
ACDBBLOCKREPETAG
1070
     1
1071
        4
1005
12A03F
  0
LINE
  5
12A040
  8
OBJECT
 10
112.0
 20
-923.0
 30
0.0
 11
200.0
 21
-923.0
 31
0.0
1001
ACDBBLOCKREPETAG
1070
     1
1071
        5
1005
12A040
  0
LINE
  5
12A041
  8
OBJECT
 10
200.0
 20
-923.0
 30
0.0
 11
200.0
 21
-887.0
 31
0.0
1001
ACDBBLOCKREPETAG
1070
     1
1071
        6
1005
12A041
  0
LINE
  5
12A042
  8
OBJECT
 10
116.5
 20
-927.0
 30
0.0
 11
116.5
 21
-935.4999999999995453
 31
0.0
1001
ACDBBLOCKREPETAG
1070
     1
1071
        7
1005
12A042
  0
LINE
  5
12A043
  8
OBJECT
 10
195.5
 20
-935.5000000000003411
 30
0.0
 11
195.5
 21
-927.0
 31
0.0
1001
ACDBBLOCKREPETAG
1070
     1
1071
        8
1005
12A043
  0
LINE
  5
12A044
  8
OBJECT
 10
195.5
 20
-927.0
 30
0.0
 11
116.5
 21
-927.0
 31
0.0
1001
ACDBBLOCKREPETAG
1070
     1
1071
        9
1005
12A044
  0
LINE
  5
12A045
  8
OBJECT
 10
112.0
 20
-923.0
 30
0.0
 11
116.5
 21
-927.0
 31
0.0
1001
ACDBBLOCKREPETAG
1070
     1
1071
       10
1005
12A045
  0
LINE
  5
12A046
  8
OBJECT
 10
200.0
 20
-923.0
 30
0.0
 11
195.5
 21
-927.0
 31
0.0
1001
ACDBBLOCKREPETAG
1070
     1
1071
       11
1005
12A046
  0
LINE
  5
12A047
  8
OBJECT
 10
202.5
 20
-935.5000000000009095
 30
0.0
 11
109.5
 21
-935.4999999999995453
 31
0.0
1001
ACDBBLOCKREPETAG
1070
     1
1071
       12
1005
12A047
  0
ARC
  5
12A048
  8
OBJECT
 10
109.5
 20
-938.4999999999995453
 30
0.0
 40
3.0
 50
90.0
 51
180.0
1001
ACDBBLOCKREPETAG
1070
     1
1071
       13
1005
12A048
  0
LINE
  5
12A049
  8
OBJECT
 10
106.5
 20
-938.4999999999995453
 30
0.0
 11
106.4999999999991047
 21
-963.655080087021588
 31
0.0
1001
ACDBBLOCKREPETAG
1070
     1
1071
       15
1005
12A049
  0
LINE
  5
12A04A
  8
OBJECT
 10
205.5
 20
-938.5000000000007958
 30
0.0
 11
205.4999999999990905
 21
-963.6550800870206785
 31
0.0
1001
ACDBBLOCKREPETAG
1070
     1
1071
       16
1005
12A04A
  0
ARC
  5
12A04B
  8
OBJECT
 10
202.5
 20
-938.5000000000007958
 30
0.0
 40
3.0
 50
0.0
 51
90.0
1001
ACDBBLOCKREPETAG
1070
     1
1071
       17
1005
12A04B
  0
INSERT
  5
12A04C
  8
SLIM
  2
*U253
 10
0.0
 20
0.0
 30
0.0
  0
LINE
  5
12A04D
  8
HIDDEN
 10
126.0
 20
-932.0
 30
0.0
 11
186.0
 21
-932.0
 31
0.0
1001
ACDBBLOCKREPETAG
1070
     1
1071
       56
1005
12A04D
  0
LINE
  5
12A04E
  8
OBJECT
 10
649.0
 20
-965.0
 30
0.0
 11
656.0
 21
-965.0
 31
0.0
1001
ACDBBLOCKREPETAG
1070
     1
1071
       18
1005
12A04E
  0
LINE
  5
12A04F
  8
OBJECT
 10
656.0
 20
-965.0
 30
0.0
 11
656.0
 21
-1075.0
 31
0.0
1001
ACDBBLOCKREPETAG
1070
     1
1071
       19
1005
12A04F
  0
LINE
  5
12A050
  8
OBJECT
 10
656.0
 20
-1075.0
 30
0.0
 11
649.0
 21
-1075.0
 31
0.0
1001
ACDBBLOCKREPETAG
1070
     1
1071
       20
1005
12A050
  0
LINE
  5
12A051
  8
OBJECT
 10
649.0
 20
-1075.0
 30
0.0
 11
649.0
 21
-965.0
 31
0.0
1001
ACDBBLOCKREPETAG
1070
     1
1071
       21
1005
12A051
  0
LINE
  5
12A052
  8
OBJECT
 10
649.0
 20
-968.0
 30
0.0
 11
613.0
 21
-968.0
 31
0.0
1001
ACDBBLOCKREPETAG
1070
     1
1071
       22
1005
12A052
  0
LINE
  5
12A053
  8
OBJECT
 10
613.0
 20
-968.0
 30
0.0
 11
613.0
 21
-1072.0
 31
0.0
1001
ACDBBLOCKREPETAG
1070
     1
1071
       23
1005
12A053
  0
LINE
  5
12A054
  8
OBJECT
 10
613.0
 20
-1072.0
 30
0.0
 11
649.0
 21
-1072.0
 31
0.0
1001
ACDBBLOCKREPETAG
1070
     1
1071
       24
1005
12A054
  0
LINE
  5
12A055
  8
OBJECT
 10
609.0
 20
-972.4999999999998863
 30
0.0
 11
600.5000000000004547
 21
-972.4999999999998863
 31
0.0
1001
ACDBBLOCKREPETAG
1070
     1
1071
       25
1005
12A055
  0
LINE
  5
12A056
  8
OBJECT
 10
600.4999999999995453
 20
-1067.5
 30
0.0
 11
609.0
 21
-1067.5
 31
0.0
1001
ACDBBLOCKREPETAG
1070
     1
1071
       26
1005
12A056
  0
LINE
  5
12A057
  8
OBJECT
 10
609.0
 20
-1067.5
 30
0.0
 11
609.0
 21
-972.4999999999998863
 31
0.0
1001
ACDBBLOCKREPETAG
1070
     1
1071
       27
1005
12A057
  0
LINE
  5
12A058
  8
OBJECT
 10
613.0
 20
-968.0
 30
0.0
 11
609.0
 21
-972.4999999999998863
 31
0.0
1001
ACDBBLOCKREPETAG
1070
     1
1071
       28
1005
12A058
  0
LINE
  5
12A059
  8
OBJECT
 10
613.0
 20
-1072.0
 30
0.0
 11
609.0
 21
-1067.5
 31
0.0
1001
ACDBBLOCKREPETAG
1070
     1
1071
       29
1005
12A059
  0
LINE
  5
12A05A
  8
OBJECT
 10
600.4999999999986358
 20
-1069.5
 30
0.0
 11
600.5000000000004547
 21
-970.5
 31
0.0
1001
ACDBBLOCKREPETAG
1070
     1
1071
       30
1005
12A05A
  0
LINE
  5
12A05B
  8
OBJECT
 10
600.5000000000004547
 20
-970.5
 30
0.0
 11
572.3449199129795488
 21
-970.5000000000007958
 31
0.0
1001
ACDBBLOCKREPETAG
1070
     1
1071
       31
1005
12A05B
  0
LINE
  5
12A05C
  8
OBJECT
 10
600.4999999999986358
 20
-1069.5
 30
0.0
 11
572.344919912978412
 21
-1069.5000000000009095
 31
0.0
1001
ACDBBLOCKREPETAG
1070
     1
1071
       32
1005
12A05C
  0
INSERT
  5
12A05D
  8
SLIM
  2
*U254
 10
0.0
 20
0.0
 30
0.0
  0
LINE
  5
12A05E
  8
HIDDEN
 10
604.0
 20
-982.0
 30
0.0
 11
604.0
 21
-1058.0
 31
0.0
1001
ACDBBLOCKREPETAG
1070
     1
1071
       57
1005
12A05E
  0
LINE
  5
12A05F
  8
OBJECT
 10
469.0
 20
-887.0
 30
0.0
 11
469.0
 21
-880.0
 31
0.0
1001
ACDBBLOCKREPETAG
1070
     1
1071
        0
1005
12A05F
  0
LINE
  5
12A060
  8
OBJECT
 10
469.0
 20
-880.0
 30
0.0
 11
563.0
 21
-880.0
 31
0.0
1001
ACDBBLOCKREPETAG
1070
     1
1071
        1
1005
12A060
  0
LINE
  5
12A061
  8
OBJECT
 10
563.0
 20
-880.0
 30
0.0
 11
563.0
 21
-887.0
 31
0.0
1001
ACDBBLOCKREPETAG
1070
     1
1071
        2
1005
12A061
  0
LINE
  5
12A062
  8
OBJECT
 10
563.0
 20
-887.0
 30
0.0
 11
469.0
 21
-887.0
 31
0.0
1001
ACDBBLOCKREPETAG
1070
     1
1071
        3
1005
12A062
  0
LINE
  5
12A063
  8
OBJECT
 10
472.0
 20
-887.0
 30
0.0
 11
472.0
 21
-923.0
 31
0.0
1001
ACDBBLOCKREPETAG
1070
     1
1071
        4
1005
12A063
  0
LINE
  5
12A064
  8
OBJECT
 10
472.0
 20
-923.0
 30
0.0
 11
560.0
 21
-923.0
 31
0.0
1001
ACDBBLOCKREPETAG
1070
     1
1071
        5
1005
12A064
  0
LINE
  5
12A065
  8
OBJECT
 10
560.0
 20
-923.0
 30
0.0
 11
560.0
 21
-887.0
 31
0.0
1001
ACDBBLOCKREPETAG
1070
     1
1071
        6
1005
12A065
  0
LINE
  5
12A066
  8
OBJECT
 10
476.4999999999998863
 20
-927.0
 30
0.0
 11
476.4999999999998863
 21
-935.4999999999995453
 31
0.0
1001
ACDBBLOCKREPETAG
1070
     1
1071
        7
1005
12A066
  0
LINE
  5
12A067
  8
OBJECT
 10
555.4999999999998863
 20
-935.5000000000003411
 30
0.0
 11
555.4999999999998863
 21
-927.0
 31
0.0
1001
ACDBBLOCKREPETAG
1070
     1
1071
        8
1005
12A067
  0
LINE
  5
12A068
  8
OBJECT
 10
555.4999999999998863
 20
-927.0
 30
0.0
 11
476.4999999999998863
 21
-927.0
 31
0.0
1001
ACDBBLOCKREPETAG
1070
     1
1071
        9
1005
12A068
  0
LINE
  5
12A069
  8
OBJECT
 10
472.0
 20
-923.0
 30
0.0
 11
476.4999999999998863
 21
-927.0
 31
0.0
1001
ACDBBLOCKREPETAG
1070
     1
1071
       10
1005
12A069
  0
LINE
  5
12A06A
  8
OBJECT
 10
560.0
 20
-923.0
 30
0.0
 11
555.4999999999998863
 21
-927.0
 31
0.0
1001
ACDBBLOCKREPETAG
1070
     1
1071
       11
1005
12A06A
  0
LINE
  5
12A06B
  8
OBJECT
 10
562.5
 20
-935.5000000000009095
 30
0.0
 11
469.5
 21
-935.4999999999995453
 31
0.0
1001
ACDBBLOCKREPETAG
1070
     1
1071
       12
1005
12A06B
  0
ARC
  5
12A06C
  8
OBJECT
 10
469.5
 20
-938.4999999999995453
 30
0.0
 40
3.0
 50
90.0
 51
180.0
1001
ACDBBLOCKREPETAG
1070
     1
1071
       13
1005
12A06C
  0
LINE
  5
12A06D
  8
OBJECT
 10
466.5
 20
-938.4999999999995453
 30
0.0
 11
466.4999999999990905
 21
-963.655080087021588
 31
0.0
1001
ACDBBLOCKREPETAG
1070
     1
1071
       15
1005
12A06D
  0
LINE
  5
12A06E
  8
OBJECT
 10
565.5
 20
-938.5000000000007958
 30
0.0
 11
565.4999999999990905
 21
-963.6550800870206785
 31
0.0
1001
ACDBBLOCKREPETAG
1070
     1
1071
       16
1005
12A06E
  0
ARC
  5
12A06F
  8
OBJECT
 10
562.5
 20
-938.5000000000007958
 30
0.0
 40
3.0
 50
0.0
 51
90.0
1001
ACDBBLOCKREPETAG
1070
     1
1071
       17
1005
12A06F
  0
INSERT
  5
12A070
  8
SLIM
  2
*U255
 10
0.0
 20
0.0
 30
0.0
  0
LINE
  5
12A071
  8
HIDDEN
 10
486.0
 20
-932.0
 30
0.0
 11
546.0
 21
-932.0
 31
0.0
1001
ACDBBLOCKREPETAG
1070
     1
1071
       56
1005
12A071
  0
LINE
  5
12A072
  8
OBJECT
 10
289.0
 20
-1422.0
 30
0.0
 11
296.0
 21
-1422.0
 31
0.0
1001
ACDBBLOCKREPETAG
1070
     1
1071
       34
1005
12A072
  0
LINE
  5
12A073
  8
OBJECT
 10
296.0
 20
-1422.0
 30
0.0
 11
296.0
 21
-1546.0
 31
0.0
1001
ACDBBLOCKREPETAG
1070
     1
1071
       35
1005
12A073
  0
LINE
  5
12A074
  8
OBJECT
 10
296.0
 20
-1546.0
 30
0.0
 11
289.0
 21
-1546.0
 31
0.0
1001
ACDBBLOCKREPETAG
1070
     1
1071
       36
1005
12A074
  0
LINE
  5
12A075
  8
OBJECT
 10
289.0
 20
-1546.0
 30
0.0
 11
289.0
 21
-1422.0
 31
0.0
1001
ACDBBLOCKREPETAG
1070
     1
1071
       37
1005
12A075
  0
LINE
  5
12A076
  8
OBJECT
 10
289.0
 20
-1425.0
 30
0.0
 11
253.0
 21
-1425.0
 31
0.0
1001
ACDBBLOCKREPETAG
1070
     1
1071
       38
1005
12A076
  0
LINE
  5
12A077
  8
OBJECT
 10
253.0
 20
-1425.0
 30
0.0
 11
253.0
 21
-1543.0
 31
0.0
1001
ACDBBLOCKREPETAG
1070
     1
1071
       39
1005
12A077
  0
LINE
  5
12A078
  8
OBJECT
 10
253.0
 20
-1543.0
 30
0.0
 11
289.0
 21
-1543.0
 31
0.0
1001
ACDBBLOCKREPETAG
1070
     1
1071
       40
1005
12A078
  0
LINE
  5
12A079
  8
OBJECT
 10
249.0
 20
-1429.5
 30
0.0
 11
238.5
 21
-1429.5
 31
0.0
1001
ACDBBLOCKREPETAG
1070
     1
1071
       41
1005
12A079
  0
LINE
  5
12A07A
  8
OBJECT
 10
238.5
 20
-1538.5
 30
0.0
 11
249.0
 21
-1538.5
 31
0.0
1001
ACDBBLOCKREPETAG
1070
     1
1071
       42
1005
12A07A
  0
LINE
  5
12A07B
  8
OBJECT
 10
249.0
 20
-1538.5
 30
0.0
 11
249.0
 21
-1429.5
 31
0.0
1001
ACDBBLOCKREPETAG
1070
     1
1071
       43
1005
12A07B
  0
LINE
  5
12A07C
  8
OBJECT
 10
253.0
 20
-1425.0
 30
0.0
 11
249.0
 21
-1429.5
 31
0.0
1001
ACDBBLOCKREPETAG
1070
     1
1071
       44
1005
12A07C
  0
LINE
  5
12A07D
  8
OBJECT
 10
253.0
 20
-1543.0
 30
0.0
 11
249.0
 21
-1538.5
 31
0.0
1001
ACDBBLOCKREPETAG
1070
     1
1071
       45
1005
12A07D
  0
LINE
  5
12A07E
  8
OBJECT
 10
233.5
 20
-1434.5
 30
0.0
 11
212.3449199129786109
 21
-1434.5000000000009095
 31
0.0
1001
ACDBBLOCKREPETAG
1070
     1
1071
       46
1005
12A07E
  0
LINE
  5
12A07F
  8
OBJECT
 10
233.5
 20
-1533.5
 30
0.0
 11
212.3449199129777014
 21
-1533.5
 31
0.0
1001
ACDBBLOCKREPETAG
1070
     1
1071
       47
1005
12A07F
  0
LINE
  5
12A080
  8
OBJECT
 10
238.5
 20
-1429.5
 30
0.0
 11
238.5
 21
-1538.5
 31
0.0
1001
ACDBBLOCKREPETAG
1070
     1
1071
       48
1005
12A080
  0
LINE
  5
12A081
  8
OBJECT
 10
233.5
 20
-1434.5
 30
0.0
 11
233.5
 21
-1533.5
 31
0.0
1001
ACDBBLOCKREPETAG
1070
     1
1071
       49
1005
12A081
  0
LINE
  5
12A082
  8
OBJECT
 10
238.5
 20
-1429.5
 30
0.0
 11
233.5
 21
-1434.5
 31
0.0
1001
ACDBBLOCKREPETAG
1070
     1
1071
       50
1005
12A082
  0
LINE
  5
12A083
  8
OBJECT
 10
233.5
 20
-1533.5
 30
0.0
 11
238.5
 21
-1538.4999999999959073
 31
0.0
1001
ACDBBLOCKREPETAG
1070
     1
1071
       51
1005
12A083
  0
INSERT
  5
12A084
  8
SLIM
  2
*U256
 10
0.0
 20
0.0
 30
0.0
  0
LINE
  5
12A085
  8
HIDDEN
 10
244.0
 20
-1439.5
 30
0.0
 11
244.0
 21
-1528.5
 31
0.0
1001
ACDBBLOCKREPETAG
1070
     1
1071
       65
1005
12A085
  0
LINE
  5
12A086
  8
OBJECT
 10
109.0
 20
-1351.0
 30
0.0
 11
109.0
 21
-1344.0
 31
0.0
1001
ACDBBLOCKREPETAG
1070
     1
1071
        0
1005
12A086
  0
LINE
  5
12A087
  8
OBJECT
 10
109.0
 20
-1344.0
 30
0.0
 11
203.0
 21
-1344.0
 31
0.0
1001
ACDBBLOCKREPETAG
1070
     1
1071
        1
1005
12A087
  0
LINE
  5
12A088
  8
OBJECT
 10
203.0
 20
-1344.0
 30
0.0
 11
203.0
 21
-1351.0
 31
0.0
1001
ACDBBLOCKREPETAG
1070
     1
1071
        2
1005
12A088
  0
LINE
  5
12A089
  8
OBJECT
 10
203.0
 20
-1351.0
 30
0.0
 11
109.0
 21
-1351.0
 31
0.0
1001
ACDBBLOCKREPETAG
1070
     1
1071
        3
1005
12A089
  0
LINE
  5
12A08A
  8
OBJECT
 10
112.0
 20
-1351.0
 30
0.0
 11
112.0
 21
-1387.0
 31
0.0
1001
ACDBBLOCKREPETAG
1070
     1
1071
        4
1005
12A08A
  0
LINE
  5
12A08B
  8
OBJECT
 10
112.0
 20
-1387.0
 30
0.0
 11
200.0
 21
-1387.0
 31
0.0
1001
ACDBBLOCKREPETAG
1070
     1
1071
        5
1005
12A08B
  0
LINE
  5
12A08C
  8
OBJECT
 10
200.0
 20
-1387.0
 30
0.0
 11
200.0
 21
-1351.0
 31
0.0
1001
ACDBBLOCKREPETAG
1070
     1
1071
        6
1005
12A08C
  0
LINE
  5
12A08D
  8
OBJECT
 10
116.5
 20
-1391.0
 30
0.0
 11
116.5
 21
-1399.4999999999990905
 31
0.0
1001
ACDBBLOCKREPETAG
1070
     1
1071
        7
1005
12A08D
  0
LINE
  5
12A08E
  8
OBJECT
 10
195.5
 20
-1399.5
 30
0.0
 11
195.5
 21
-1391.0
 31
0.0
1001
ACDBBLOCKREPETAG
1070
     1
1071
        8
1005
12A08E
  0
LINE
  5
12A08F
  8
OBJECT
 10
195.5
 20
-1391.0
 30
0.0
 11
116.5
 21
-1391.0
 31
0.0
1001
ACDBBLOCKREPETAG
1070
     1
1071
        9
1005
12A08F
  0
LINE
  5
12A090
  8
OBJECT
 10
112.0
 20
-1387.0
 30
0.0
 11
116.5
 21
-1391.0
 31
0.0
1001
ACDBBLOCKREPETAG
1070
     1
1071
       10
1005
12A090
  0
LINE
  5
12A091
  8
OBJECT
 10
200.0
 20
-1387.0
 30
0.0
 11
195.5
 21
-1391.0
 31
0.0
1001
ACDBBLOCKREPETAG
1070
     1
1071
       11
1005
12A091
  0
LINE
  5
12A092
  8
OBJECT
 10
202.5
 20
-1399.5000000000009095
 30
0.0
 11
109.5
 21
-1399.4999999999990905
 31
0.0
1001
ACDBBLOCKREPETAG
1070
     1
1071
       12
1005
12A092
  0
ARC
  5
12A093
  8
OBJECT
 10
109.5
 20
-1402.4999999999990905
 30
0.0
 40
3.0
 50
90.0
 51
180.0
1001
ACDBBLOCKREPETAG
1070
     1
1071
       13
1005
12A093
  0
LINE
  5
12A094
  8
OBJECT
 10
106.5
 20
-1402.4999999999990905
 30
0.0
 11
106.4999999999991047
 21
-1427.6550800870220428
 31
0.0
1001
ACDBBLOCKREPETAG
1070
     1
1071
       15
1005
12A094
  0
LINE
  5
12A095
  8
OBJECT
 10
205.5
 20
-1402.5000000000009095
 30
0.0
 11
205.4999999999990905
 21
-1427.6550800870209059
 31
0.0
1001
ACDBBLOCKREPETAG
1070
     1
1071
       16
1005
12A095
  0
ARC
  5
12A096
  8
OBJECT
 10
202.5
 20
-1402.5000000000009095
 30
0.0
 40
3.0
 50
0.0
 51
90.0
1001
ACDBBLOCKREPETAG
1070
     1
1071
       17
1005
12A096
  0
INSERT
  5
12A097
  8
SLIM
  2
*U257
 10
0.0
 20
0.0
 30
0.0
  0
LINE
  5
12A098
  8
HIDDEN
 10
126.0
 20
-1396.0
 30
0.0
 11
186.0
 21
-1396.0
 31
0.0
1001
ACDBBLOCKREPETAG
1070
     1
1071
       56
1005
12A098
  0
LINE
  5
12A099
  8
OBJECT
 10
649.0
 20
-1437.0
 30
0.0
 11
656.0
 21
-1437.0
 31
0.0
1001
ACDBBLOCKREPETAG
1070
     1
1071
        0
1005
12A099
  0
LINE
  5
12A09A
  8
OBJECT
 10
656.0
 20
-1437.0
 30
0.0
 11
656.0
 21
-1531.0
 31
0.0
1001
ACDBBLOCKREPETAG
1070
     1
1071
        1
1005
12A09A
  0
LINE
  5
12A09B
  8
OBJECT
 10
656.0
 20
-1531.0
 30
0.0
 11
649.0
 21
-1531.0
 31
0.0
1001
ACDBBLOCKREPETAG
1070
     1
1071
        2
1005
12A09B
  0
LINE
  5
12A09C
  8
OBJECT
 10
649.0
 20
-1531.0
 30
0.0
 11
649.0
 21
-1437.0
 31
0.0
1001
ACDBBLOCKREPETAG
1070
     1
1071
        3
1005
12A09C
  0
LINE
  5
12A09D
  8
OBJECT
 10
649.0
 20
-1440.0
 30
0.0
 11
613.0
 21
-1440.0
 31
0.0
1001
ACDBBLOCKREPETAG
1070
     1
1071
        4
1005
12A09D
  0
LINE
  5
12A09E
  8
OBJECT
 10
613.0
 20
-1440.0
 30
0.0
 11
613.0
 21
-1528.0
 31
0.0
1001
ACDBBLOCKREPETAG
1070
     1
1071
        5
1005
12A09E
  0
LINE
  5
12A09F
  8
OBJECT
 10
613.0
 20
-1528.0
 30
0.0
 11
649.0
 21
-1528.0
 31
0.0
1001
ACDBBLOCKREPETAG
1070
     1
1071
        6
1005
12A09F
  0
LINE
  5
12A0A0
  8
OBJECT
 10
609.0
 20
-1444.5
 30
0.0
 11
600.5000000000004547
 21
-1444.5
 31
0.0
1001
ACDBBLOCKREPETAG
1070
     1
1071
        7
1005
12A0A0
  0
LINE
  5
12A0A1
  8
OBJECT
 10
600.4999999999995453
 20
-1523.5
 30
0.0
 11
609.0
 21
-1523.5
 31
0.0
1001
ACDBBLOCKREPETAG
1070
     1
1071
        8
1005
12A0A1
  0
LINE
  5
12A0A2
  8
OBJECT
 10
609.0
 20
-1523.5
 30
0.0
 11
609.0
 21
-1444.5
 31
0.0
1001
ACDBBLOCKREPETAG
1070
     1
1071
        9
1005
12A0A2
  0
LINE
  5
12A0A3
  8
OBJECT
 10
613.0
 20
-1440.0
 30
0.0
 11
609.0
 21
-1444.5
 31
0.0
1001
ACDBBLOCKREPETAG
1070
     1
1071
       10
1005
12A0A3
  0
LINE
  5
12A0A4
  8
OBJECT
 10
613.0
 20
-1528.0
 30
0.0
 11
609.0
 21
-1523.5
 31
0.0
1001
ACDBBLOCKREPETAG
1070
     1
1071
       11
1005
12A0A4
  0
LINE
  5
12A0A5
  8
OBJECT
 10
600.4999999999990905
 20
-1530.5
 30
0.0
 11
600.5000000000004547
 21
-1437.5
 31
0.0
1001
ACDBBLOCKREPETAG
1070
     1
1071
       12
1005
12A0A5
  0
ARC
  5
12A0A6
  8
OBJECT
 10
597.5000000000004547
 20
-1437.5
 30
0.0
 40
3.0
 50
0.0
 51
90.0
1001
ACDBBLOCKREPETAG
1070
     1
1071
       13
1005
12A0A6
  0
LINE
  5
12A0A7
  8
OBJECT
 10
597.5000000000004547
 20
-1434.5
 30
0.0
 11
572.344919912978412
 21
-1434.4999999999990905
 31
0.0
1001
ACDBBLOCKREPETAG
1070
     1
1071
       15
1005
12A0A7
  0
LINE
  5
12A0A8
  8
OBJECT
 10
597.4999999999989768
 20
-1533.5
 30
0.0
 11
572.3449199129793215
 21
-1533.4999999999990905
 31
0.0
1001
ACDBBLOCKREPETAG
1070
     1
1071
       16
1005
12A0A8
  0
ARC
  5
12A0A9
  8
OBJECT
 10
597.4999999999989768
 20
-1530.5
 30
0.0
 40
3.0
 50
270.0
 51
0.0
1001
ACDBBLOCKREPETAG
1070
     1
1071
       17
1005
12A0A9
  0
INSERT
  5
12A0AA
  8
SLIM
  2
*U258
 10
0.0
 20
0.0
 30
0.0
  0
LINE
  5
12A0AB
  8
HIDDEN
 10
604.0
 20
-1454.0
 30
0.0
 11
604.0
 21
-1514.0
 31
0.0
1001
ACDBBLOCKREPETAG
1070
     1
1071
       56
1005
12A0AB
  0
LINE
  5
12A0AC
  8
OBJECT
 10
461.0
 20
-1351.0
 30
0.0
 11
461.0
 21
-1344.0
 31
0.0
1001
ACDBBLOCKREPETAG
1070
     1
1071
       18
1005
12A0AC
  0
LINE
  5
12A0AD
  8
OBJECT
 10
461.0
 20
-1344.0
 30
0.0
 11
571.0
 21
-1344.0
 31
0.0
1001
ACDBBLOCKREPETAG
1070
     1
1071
       19
1005
12A0AD
  0
LINE
  5
12A0AE
  8
OBJECT
 10
571.0
 20
-1344.0
 30
0.0
 11
571.0
 21
-1351.0
 31
0.0
1001
ACDBBLOCKREPETAG
1070
     1
1071
       20
1005
12A0AE
  0
LINE
  5
12A0AF
  8
OBJECT
 10
571.0
 20
-1351.0
 30
0.0
 11
461.0
 21
-1351.0
 31
0.0
1001
ACDBBLOCKREPETAG
1070
     1
1071
       21
1005
12A0AF
  0
LINE
  5
12A0B0
  8
OBJECT
 10
464.0
 20
-1351.0
 30
0.0
 11
464.0
 21
-1387.0
 31
0.0
1001
ACDBBLOCKREPETAG
1070
     1
1071
       22
1005
12A0B0
  0
LINE
  5
12A0B1
  8
OBJECT
 10
464.0
 20
-1387.0
 30
0.0
 11
568.0
 21
-1387.0
 31
0.0
1001
ACDBBLOCKREPETAG
1070
     1
1071
       23
1005
12A0B1
  0
LINE
  5
12A0B2
  8
OBJECT
 10
568.0
 20
-1387.0
 30
0.0
 11
568.0
 21
-1351.0
 31
0.0
1001
ACDBBLOCKREPETAG
1070
     1
1071
       24
1005
12A0B2
  0
LINE
  5
12A0B3
  8
OBJECT
 10
468.5
 20
-1391.0
 30
0.0
 11
468.5
 21
-1399.4999999999990905
 31
0.0
1001
ACDBBLOCKREPETAG
1070
     1
1071
       25
1005
12A0B3
  0
LINE
  5
12A0B4
  8
OBJECT
 10
563.4999999999998863
 20
-1399.5
 30
0.0
 11
563.4999999999998863
 21
-1391.0
 31
0.0
1001
ACDBBLOCKREPETAG
1070
     1
1071
       26
1005
12A0B4
  0
LINE
  5
12A0B5
  8
OBJECT
 10
563.4999999999998863
 20
-1391.0
 30
0.0
 11
468.5
 21
-1391.0
 31
0.0
1001
ACDBBLOCKREPETAG
1070
     1
1071
       27
1005
12A0B5
  0
LINE
  5
12A0B6
  8
OBJECT
 10
464.0
 20
-1387.0
 30
0.0
 11
468.5
 21
-1391.0
 31
0.0
1001
ACDBBLOCKREPETAG
1070
     1
1071
       28
1005
12A0B6
  0
LINE
  5
12A0B7
  8
OBJECT
 10
568.0
 20
-1387.0
 30
0.0
 11
563.4999999999998863
 21
-1391.0
 31
0.0
1001
ACDBBLOCKREPETAG
1070
     1
1071
       29
1005
12A0B7
  0
LINE
  5
12A0B8
  8
OBJECT
 10
565.5
 20
-1399.5000000000009095
 30
0.0
 11
466.5
 21
-1399.4999999999990905
 31
0.0
1001
ACDBBLOCKREPETAG
1070
     1
1071
       30
1005
12A0B8
  0
LINE
  5
12A0B9
  8
OBJECT
 10
466.5
 20
-1399.4999999999990905
 30
0.0
 11
466.5000000000007958
 21
-1427.6550800870199964
 31
0.0
1001
ACDBBLOCKREPETAG
1070
     1
1071
       31
1005
12A0B9
  0
LINE
  5
12A0BA
  8
OBJECT
 10
565.5
 20
-1399.5000000000009095
 30
0.0
 11
565.5000000000009095
 21
-1427.6550800870220428
 31
0.0
1001
ACDBBLOCKREPETAG
1070
     1
1071
       32
1005
12A0BA
  0
INSERT
  5
12A0BB
  8
SLIM
  2
*U259
 10
0.0
 20
0.0
 30
0.0
  0
LINE
  5
12A0BC
  8
HIDDEN
 10
478.0
 20
-1396.0
 30
0.0
 11
554.0
 21
-1396.0
 31
0.0
1001
ACDBBLOCKREPETAG
1070
     1
1071
       57
1005
12A0BC
  0
LINE
  5
12A0BD
  8
OBJECT
 10
289.0
 20
-1893.0
 30
0.0
 11
296.0
 21
-1893.0
 31
0.0
1001
ACDBBLOCKREPETAG
1070
     1
1071
       18
1005
12A0BD
  0
LINE
  5
12A0BE
  8
OBJECT
 10
296.0
 20
-1893.0
 30
0.0
 11
296.0
 21
-2003.0
 31
0.0
1001
ACDBBLOCKREPETAG
1070
     1
1071
       19
1005
12A0BE
  0
LINE
  5
12A0BF
  8
OBJECT
 10
296.0
 20
-2003.0
 30
0.0
 11
289.0
 21
-2003.0
 31
0.0
1001
ACDBBLOCKREPETAG
1070
     1
1071
       20
1005
12A0BF
  0
LINE
  5
12A0C0
  8
OBJECT
 10
289.0
 20
-2003.0
 30
0.0
 11
289.0
 21
-1893.0
 31
0.0
1001
ACDBBLOCKREPETAG
1070
     1
1071
       21
1005
12A0C0
  0
LINE
  5
12A0C1
  8
OBJECT
 10
289.0
 20
-1896.0
 30
0.0
 11
253.0
 21
-1896.0
 31
0.0
1001
ACDBBLOCKREPETAG
1070
     1
1071
       22
1005
12A0C1
  0
LINE
  5
12A0C2
  8
OBJECT
 10
253.0
 20
-1896.0
 30
0.0
 11
253.0
 21
-2000.0
 31
0.0
1001
ACDBBLOCKREPETAG
1070
     1
1071
       23
1005
12A0C2
  0
LINE
  5
12A0C3
  8
OBJECT
 10
253.0
 20
-2000.0
 30
0.0
 11
289.0
 21
-2000.0
 31
0.0
1001
ACDBBLOCKREPETAG
1070
     1
1071
       24
1005
12A0C3
  0
LINE
  5
12A0C4
  8
OBJECT
 10
249.0
 20
-1900.5
 30
0.0
 11
240.5000000000005116
 21
-1900.5
 31
0.0
1001
ACDBBLOCKREPETAG
1070
     1
1071
       25
1005
12A0C4
  0
LINE
  5
12A0C5
  8
OBJECT
 10
240.4999999999994884
 20
-1995.5
 30
0.0
 11
249.0
 21
-1995.5
 31
0.0
1001
ACDBBLOCKREPETAG
1070
     1
1071
       26
1005
12A0C5
  0
LINE
  5
12A0C6
  8
OBJECT
 10
249.0
 20
-1995.5
 30
0.0
 11
249.0
 21
-1900.5
 31
0.0
1001
ACDBBLOCKREPETAG
1070
     1
1071
       27
1005
12A0C6
  0
LINE
  5
12A0C7
  8
OBJECT
 10
253.0
 20
-1896.0
 30
0.0
 11
249.0
 21
-1900.5
 31
0.0
1001
ACDBBLOCKREPETAG
1070
     1
1071
       28
1005
12A0C7
  0
LINE
  5
12A0C8
  8
OBJECT
 10
253.0
 20
-2000.0
 30
0.0
 11
249.0
 21
-1995.5
 31
0.0
1001
ACDBBLOCKREPETAG
1070
     1
1071
       29
1005
12A0C8
  0
LINE
  5
12A0C9
  8
OBJECT
 10
240.4999999999986073
 20
-1997.5
 30
0.0
 11
240.5000000000005116
 21
-1898.5
 31
0.0
1001
ACDBBLOCKREPETAG
1070
     1
1071
       30
1005
12A0C9
  0
LINE
  5
12A0CA
  8
OBJECT
 10
240.5000000000005116
 20
-1898.5
 30
0.0
 11
212.3449199129796057
 21
-1898.5000000000009095
 31
0.0
1001
ACDBBLOCKREPETAG
1070
     1
1071
       31
1005
12A0CA
  0
LINE
  5
12A0CB
  8
OBJECT
 10
240.4999999999986073
 20
-1997.5
 30
0.0
 11
212.344919912978412
 21
-1997.5000000000009095
 31
0.0
1001
ACDBBLOCKREPETAG
1070
     1
1071
       32
1005
12A0CB
  0
INSERT
  5
12A0CC
  8
SLIM
  2
*U260
 10
0.0
 20
0.0
 30
0.0
  0
LINE
  5
12A0CD
  8
HIDDEN
 10
244.0
 20
-1910.0
 30
0.0
 11
244.0
 21
-1986.0
 31
0.0
1001
ACDBBLOCKREPETAG
1070
     1
1071
       57
1005
12A0CD
  0
LINE
  5
12A0CE
  8
OBJECT
 10
101.0
 20
-1815.0
 30
0.0
 11
101.0
 21
-1808.0
 31
0.0
1001
ACDBBLOCKREPETAG
1070
     1
1071
       18
1005
12A0CE
  0
LINE
  5
12A0CF
  8
OBJECT
 10
101.0
 20
-1808.0
 30
0.0
 11
211.0
 21
-1808.0
 31
0.0
1001
ACDBBLOCKREPETAG
1070
     1
1071
       19
1005
12A0CF
  0
LINE
  5
12A0D0
  8
OBJECT
 10
211.0
 20
-1808.0
 30
0.0
 11
211.0
 21
-1815.0
 31
0.0
1001
ACDBBLOCKREPETAG
1070
     1
1071
       20
1005
12A0D0
  0
LINE
  5
12A0D1
  8
OBJECT
 10
211.0
 20
-1815.0
 30
0.0
 11
101.0
 21
-1815.0
 31
0.0
1001
ACDBBLOCKREPETAG
1070
     1
1071
       21
1005
12A0D1
  0
LINE
  5
12A0D2
  8
OBJECT
 10
104.0
 20
-1815.0
 30
0.0
 11
104.0
 21
-1851.0
 31
0.0
1001
ACDBBLOCKREPETAG
1070
     1
1071
       22
1005
12A0D2
  0
LINE
  5
12A0D3
  8
OBJECT
 10
104.0
 20
-1851.0
 30
0.0
 11
208.0
 21
-1851.0
 31
0.0
1001
ACDBBLOCKREPETAG
1070
     1
1071
       23
1005
12A0D3
  0
LINE
  5
12A0D4
  8
OBJECT
 10
208.0
 20
-1851.0
 30
0.0
 11
208.0
 21
-1815.0
 31
0.0
1001
ACDBBLOCKREPETAG
1070
     1
1071
       24
1005
12A0D4
  0
LINE
  5
12A0D5
  8
OBJECT
 10
108.5
 20
-1855.0
 30
0.0
 11
108.5
 21
-1863.4999999999990905
 31
0.0
1001
ACDBBLOCKREPETAG
1070
     1
1071
       25
1005
12A0D5
  0
LINE
  5
12A0D6
  8
OBJECT
 10
203.5
 20
-1863.5
 30
0.0
 11
203.5
 21
-1855.0
 31
0.0
1001
ACDBBLOCKREPETAG
1070
     1
1071
       26
1005
12A0D6
  0
LINE
  5
12A0D7
  8
OBJECT
 10
203.5
 20
-1855.0
 30
0.0
 11
108.5
 21
-1855.0
 31
0.0
1001
ACDBBLOCKREPETAG
1070
     1
1071
       27
1005
12A0D7
  0
LINE
  5
12A0D8
  8
OBJECT
 10
104.0
 20
-1851.0
 30
0.0
 11
108.5
 21
-1855.0
 31
0.0
1001
ACDBBLOCKREPETAG
1070
     1
1071
       28
1005
12A0D8
  0
LINE
  5
12A0D9
  8
OBJECT
 10
208.0
 20
-1851.0
 30
0.0
 11
203.5
 21
-1855.0
 31
0.0
1001
ACDBBLOCKREPETAG
1070
     1
1071
       29
1005
12A0D9
  0
LINE
  5
12A0DA
  8
OBJECT
 10
205.5
 20
-1863.5000000000009095
 30
0.0
 11
106.5
 21
-1863.4999999999990905
 31
0.0
1001
ACDBBLOCKREPETAG
1070
     1
1071
       30
1005
12A0DA
  0
LINE
  5
12A0DB
  8
OBJECT
 10
106.5
 20
-1863.4999999999990905
 30
0.0
 11
106.5000000000008953
 21
-1891.6550800870199964
 31
0.0
1001
ACDBBLOCKREPETAG
1070
     1
1071
       31
1005
12A0DB
  0
LINE
  5
12A0DC
  8
OBJECT
 10
205.5
 20
-1863.5000000000009095
 30
0.0
 11
205.5000000000009095
 21
-1891.6550800870209059
 31
0.0
1001
ACDBBLOCKREPETAG
1070
     1
1071
       32
1005
12A0DC
  0
INSERT
  5
12A0DD
  8
SLIM
  2
*U261
 10
0.0
 20
0.0
 30
0.0
  0
LINE
  5
12A0DE
  8
HIDDEN
 10
118.0
 20
-1860.0
 30
0.0
 11
194.0
 21
-1860.0
 31
0.0
1001
ACDBBLOCKREPETAG
1070
     1
1071
       57
1005
12A0DE
  0
LINE
  5
12A0DF
  8
OBJECT
 10
649.0
 20
-1886.0
 30
0.0
 11
656.0
 21
-1886.0
 31
0.0
1001
ACDBBLOCKREPETAG
1070
     1
1071
       34
1005
12A0DF
  0
LINE
  5
12A0E0
  8
OBJECT
 10
656.0
 20
-1886.0
 30
0.0
 11
656.0
 21
-2010.0
 31
0.0
1001
ACDBBLOCKREPETAG
1070
     1
1071
       35
1005
12A0E0
  0
LINE
  5
12A0E1
  8
OBJECT
 10
656.0
 20
-2010.0
 30
0.0
 11
649.0
 21
-2010.0
 31
0.0
1001
ACDBBLOCKREPETAG
1070
     1
1071
       36
1005
12A0E1
  0
LINE
  5
12A0E2
  8
OBJECT
 10
649.0
 20
-2010.0
 30
0.0
 11
649.0
 21
-1886.0
 31
0.0
1001
ACDBBLOCKREPETAG
1070
     1
1071
       37
1005
12A0E2
  0
LINE
  5
12A0E3
  8
OBJECT
 10
649.0
 20
-1889.0
 30
0.0
 11
613.0
 21
-1889.0
 31
0.0
1001
ACDBBLOCKREPETAG
1070
     1
1071
       38
1005
12A0E3
  0
LINE
  5
12A0E4
  8
OBJECT
 10
613.0
 20
-1889.0
 30
0.0
 11
613.0
 21
-2007.0
 31
0.0
1001
ACDBBLOCKREPETAG
1070
     1
1071
       39
1005
12A0E4
  0
LINE
  5
12A0E5
  8
OBJECT
 10
613.0
 20
-2007.0
 30
0.0
 11
649.0
 21
-2007.0
 31
0.0
1001
ACDBBLOCKREPETAG
1070
     1
1071
       40
1005
12A0E5
  0
LINE
  5
12A0E6
  8
OBJECT
 10
609.0
 20
-1893.5
 30
0.0
 11
598.5
 21
-1893.5
 31
0.0
1001
ACDBBLOCKREPETAG
1070
     1
1071
       41
1005
12A0E6
  0
LINE
  5
12A0E7
  8
OBJECT
 10
598.5
 20
-2002.5
 30
0.0
 11
609.0
 21
-2002.5
 31
0.0
1001
ACDBBLOCKREPETAG
1070
     1
1071
       42
1005
12A0E7
  0
LINE
  5
12A0E8
  8
OBJECT
 10
609.0
 20
-2002.5
 30
0.0
 11
609.0
 21
-1893.5
 31
0.0
1001
ACDBBLOCKREPETAG
1070
     1
1071
       43
1005
12A0E8
  0
LINE
  5
12A0E9
  8
OBJECT
 10
613.0
 20
-1889.0
 30
0.0
 11
609.0
 21
-1893.5
 31
0.0
1001
ACDBBLOCKREPETAG
1070
     1
1071
       44
1005
12A0E9
  0
LINE
  5
12A0EA
  8
OBJECT
 10
613.0
 20
-2007.0
 30
0.0
 11
609.0
 21
-2002.5
 31
0.0
1001
ACDBBLOCKREPETAG
1070
     1
1071
       45
1005
12A0EA
  0
LINE
  5
12A0EB
  8
OBJECT
 10
593.5
 20
-1898.5
 30
0.0
 11
572.3449199129786393
 21
-1898.5000000000009095
 31
0.0
1001
ACDBBLOCKREPETAG
1070
     1
1071
       46
1005
12A0EB
  0
LINE
  5
12A0EC
  8
OBJECT
 10
593.5
 20
-1997.5
 30
0.0
 11
572.3449199129777298
 21
-1997.5
 31
0.0
1001
ACDBBLOCKREPETAG
1070
     1
1071
       47
1005
12A0EC
  0
LINE
  5
12A0ED
  8
OBJECT
 10
598.5
 20
-1893.5
 30
0.0
 11
598.5
 21
-2002.5
 31
0.0
1001
ACDBBLOCKREPETAG
1070
     1
1071
       48
1005
12A0ED
  0
LINE
  5
12A0EE
  8
OBJECT
 10
593.5
 20
-1898.5
 30
0.0
 11
593.5
 21
-1997.5
 31
0.0
1001
ACDBBLOCKREPETAG
1070
     1
1071
       49
1005
12A0EE
  0
LINE
  5
12A0EF
  8
OBJECT
 10
598.5
 20
-1893.5
 30
0.0
 11
593.5
 21
-1898.5
 31
0.0
1001
ACDBBLOCKREPETAG
1070
     1
1071
       50
1005
12A0EF
  0
LINE
  5
12A0F0
  8
OBJECT
 10
593.5
 20
-1997.5
 30
0.0
 11
598.5
 21
-2002.4999999999959073
 31
0.0
1001
ACDBBLOCKREPETAG
1070
     1
1071
       51
1005
12A0F0
  0
INSERT
  5
12A0F1
  8
SLIM
  2
*U262
 10
0.0
 20
0.0
 30
0.0
  0
LINE
  5
12A0F2
  8
HIDDEN
 10
604.0
 20
-1903.5
 30
0.0
 11
604.0
 21
-1992.5
 31
0.0
1001
ACDBBLOCKREPETAG
1070
     1
1071
       65
1005
12A0F2
  0
LINE
  5
12A0F3
  8
OBJECT
 10
461.0
 20
-1815.0
 30
0.0
 11
461.0
 21
-1808.0
 31
0.0
1001
ACDBBLOCKREPETAG
1070
     1
1071
       18
1005
12A0F3
  0
LINE
  5
12A0F4
  8
OBJECT
 10
461.0
 20
-1808.0
 30
0.0
 11
571.0
 21
-1808.0
 31
0.0
1001
ACDBBLOCKREPETAG
1070
     1
1071
       19
1005
12A0F4
  0
LINE
  5
12A0F5
  8
OBJECT
 10
571.0
 20
-1808.0
 30
0.0
 11
571.0
 21
-1815.0
 31
0.0
1001
ACDBBLOCKREPETAG
1070
     1
1071
       20
1005
12A0F5
  0
LINE
  5
12A0F6
  8
OBJECT
 10
571.0
 20
-1815.0
 30
0.0
 11
461.0
 21
-1815.0
 31
0.0
1001
ACDBBLOCKREPETAG
1070
     1
1071
       21
1005
12A0F6
  0
LINE
  5
12A0F7
  8
OBJECT
 10
464.0
 20
-1815.0
 30
0.0
 11
464.0
 21
-1851.0
 31
0.0
1001
ACDBBLOCKREPETAG
1070
     1
1071
       22
1005
12A0F7
  0
LINE
  5
12A0F8
  8
OBJECT
 10
464.0
 20
-1851.0
 30
0.0
 11
568.0
 21
-1851.0
 31
0.0
1001
ACDBBLOCKREPETAG
1070
     1
1071
       23
1005
12A0F8
  0
LINE
  5
12A0F9
  8
OBJECT
 10
568.0
 20
-1851.0
 30
0.0
 11
568.0
 21
-1815.0
 31
0.0
1001
ACDBBLOCKREPETAG
1070
     1
1071
       24
1005
12A0F9
  0
LINE
  5
12A0FA
  8
OBJECT
 10
468.5
 20
-1855.0
 30
0.0
 11
468.5
 21
-1863.4999999999990905
 31
0.0
1001
ACDBBLOCKREPETAG
1070
     1
1071
       25
1005
12A0FA
  0
LINE
  5
12A0FB
  8
OBJECT
 10
563.4999999999998863
 20
-1863.5
 30
0.0
 11
563.4999999999998863
 21
-1855.0
 31
0.0
1001
ACDBBLOCKREPETAG
1070
     1
1071
       26
1005
12A0FB
  0
LINE
  5
12A0FC
  8
OBJECT
 10
563.4999999999998863
 20
-1855.0
 30
0.0
 11
468.5
 21
-1855.0
 31
0.0
1001
ACDBBLOCKREPETAG
1070
     1
1071
       27
1005
12A0FC
  0
LINE
  5
12A0FD
  8
OBJECT
 10
464.0
 20
-1851.0
 30
0.0
 11
468.5
 21
-1855.0
 31
0.0
1001
ACDBBLOCKREPETAG
1070
     1
1071
       28
1005
12A0FD
  0
LINE
  5
12A0FE
  8
OBJECT
 10
568.0
 20
-1851.0
 30
0.0
 11
563.4999999999998863
 21
-1855.0
 31
0.0
1001
ACDBBLOCKREPETAG
1070
     1
1071
       29
1005
12A0FE
  0
LINE
  5
12A0FF
  8
OBJECT
 10
565.5
 20
-1863.5000000000009095
 30
0.0
 11
466.5
 21
-1863.4999999999990905
 31
0.0
1001
ACDBBLOCKREPETAG
1070
     1
1071
       30
1005
12A0FF
  0
LINE
  5
12A100
  8
OBJECT
 10
466.5
 20
-1863.4999999999990905
 30
0.0
 11
466.5000000000007958
 21
-1891.6550800870199964
 31
0.0
1001
ACDBBLOCKREPETAG
1070
     1
1071
       31
1005
12A100
  0
LINE
  5
12A101
  8
OBJECT
 10
565.5
 20
-1863.5000000000009095
 30
0.0
 11
565.5000000000009095
 21
-1891.6550800870209059
 31
0.0
1001
ACDBBLOCKREPETAG
1070
     1
1071
       32
1005
12A101
  0
INSERT
  5
12A102
  8
SLIM
  2
*U263
 10
0.0
 20
0.0
 30
0.0
  0
LINE
  5
12A103
  8
HIDDEN
 10
478.0
 20
-1860.0
 30
0.0
 11
554.0
 21
-1860.0
 31
0.0
1001
ACDBBLOCKREPETAG
1070
     1
1071
       57
1005
12A103
  0
LINE
  5
12A104
  8
OBJECT
 10
289.0
 20
-2365.0
 30
0.0
 11
296.0
 21
-2365.0
 31
0.0
1001
ACDBBLOCKREPETAG
1070
     1
1071
        0
1005
12A104
  0
LINE
  5
12A105
  8
OBJECT
 10
296.0
 20
-2365.0
 30
0.0
 11
296.0
 21
-2459.0
 31
0.0
1001
ACDBBLOCKREPETAG
1070
     1
1071
        1
1005
12A105
  0
LINE
  5
12A106
  8
OBJECT
 10
296.0
 20
-2459.0
 30
0.0
 11
289.0
 21
-2459.0
 31
0.0
1001
ACDBBLOCKREPETAG
1070
     1
1071
        2
1005
12A106
  0
LINE
  5
12A107
  8
OBJECT
 10
289.0
 20
-2459.0
 30
0.0
 11
289.0
 21
-2365.0
 31
0.0
1001
ACDBBLOCKREPETAG
1070
     1
1071
        3
1005
12A107
  0
LINE
  5
12A108
  8
OBJECT
 10
289.0
 20
-2368.0
 30
0.0
 11
253.0
 21
-2368.0
 31
0.0
1001
ACDBBLOCKREPETAG
1070
     1
1071
        4
1005
12A108
  0
LINE
  5
12A109
  8
OBJECT
 10
253.0
 20
-2368.0
 30
0.0
 11
253.0
 21
-2456.0
 31
0.0
1001
ACDBBLOCKREPETAG
1070
     1
1071
        5
1005
12A109
  0
LINE
  5
12A10A
  8
OBJECT
 10
253.0
 20
-2456.0
 30
0.0
 11
289.0
 21
-2456.0
 31
0.0
1001
ACDBBLOCKREPETAG
1070
     1
1071
        6
1005
12A10A
  0
LINE
  5
12A10B
  8
OBJECT
 10
249.0
 20
-2372.5
 30
0.0
 11
240.5000000000005116
 21
-2372.5
 31
0.0
1001
ACDBBLOCKREPETAG
1070
     1
1071
        7
1005
12A10B
  0
LINE
  5
12A10C
  8
OBJECT
 10
240.4999999999994884
 20
-2451.5
 30
0.0
 11
249.0
 21
-2451.5
 31
0.0
1001
ACDBBLOCKREPETAG
1070
     1
1071
        8
1005
12A10C
  0
LINE
  5
12A10D
  8
OBJECT
 10
249.0
 20
-2451.5
 30
0.0
 11
249.0
 21
-2372.5
 31
0.0
1001
ACDBBLOCKREPETAG
1070
     1
1071
        9
1005
12A10D
  0
LINE
  5
12A10E
  8
OBJECT
 10
253.0
 20
-2368.0
 30
0.0
 11
249.0
 21
-2372.5
 31
0.0
1001
ACDBBLOCKREPETAG
1070
     1
1071
       10
1005
12A10E
  0
LINE
  5
12A10F
  8
OBJECT
 10
253.0
 20
-2456.0
 30
0.0
 11
249.0
 21
-2451.5
 31
0.0
1001
ACDBBLOCKREPETAG
1070
     1
1071
       11
1005
12A10F
  0
LINE
  5
12A110
  8
OBJECT
 10
240.4999999999990905
 20
-2458.5
 30
0.0
 11
240.5000000000005116
 21
-2365.5
 31
0.0
1001
ACDBBLOCKREPETAG
1070
     1
1071
       12
1005
12A110
  0
ARC
  5
12A111
  8
OBJECT
 10
237.5000000000003979
 20
-2365.5
 30
0.0
 40
3.0
 50
0.0
 51
90.0
1001
ACDBBLOCKREPETAG
1070
     1
1071
       13
1005
12A111
  0
LINE
  5
12A112
  8
OBJECT
 10
237.5000000000003979
 20
-2362.5
 30
0.0
 11
212.344919912978412
 21
-2362.4999999999990905
 31
0.0
1001
ACDBBLOCKREPETAG
1070
     1
1071
       15
1005
12A112
  0
LINE
  5
12A113
  8
OBJECT
 10
237.4999999999990905
 20
-2461.5
 30
0.0
 11
212.344919912979293
 21
-2461.4999999999990905
 31
0.0
1001
ACDBBLOCKREPETAG
1070
     1
1071
       16
1005
12A113
  0
ARC
  5
12A114
  8
OBJECT
 10
237.4999999999990905
 20
-2458.5
 30
0.0
 40
3.0
 50
270.0
 51
0.0
1001
ACDBBLOCKREPETAG
1070
     1
1071
       17
1005
12A114
  0
INSERT
  5
12A115
  8
SLIM
  2
*U264
 10
0.0
 20
0.0
 30
0.0
  0
LINE
  5
12A116
  8
HIDDEN
 10
244.0
 20
-2382.0
 30
0.0
 11
244.0
 21
-2442.0
 31
0.0
1001
ACDBBLOCKREPETAG
1070
     1
1071
       56
1005
12A116
  0
LINE
  5
12A117
  8
OBJECT
 10
94.0
 20
-2279.0
 30
0.0
 11
94.0
 21
-2272.0
 31
0.0
1001
ACDBBLOCKREPETAG
1070
     1
1071
       34
1005
12A117
  0
LINE
  5
12A118
  8
OBJECT
 10
94.0
 20
-2272.0
 30
0.0
 11
218.0
 21
-2272.0
 31
0.0
1001
ACDBBLOCKREPETAG
1070
     1
1071
       35
1005
12A118
  0
LINE
  5
12A119
  8
OBJECT
 10
218.0
 20
-2272.0
 30
0.0
 11
218.0
 21
-2279.0
 31
0.0
1001
ACDBBLOCKREPETAG
1070
     1
1071
       36
1005
12A119
  0
LINE
  5
12A11A
  8
OBJECT
 10
218.0
 20
-2279.0
 30
0.0
 11
94.0
 21
-2279.0
 31
0.0
1001
ACDBBLOCKREPETAG
1070
     1
1071
       37
1005
12A11A
  0
LINE
  5
12A11B
  8
OBJECT
 10
97.0
 20
-2279.0
 30
0.0
 11
97.0
 21
-2315.0
 31
0.0
1001
ACDBBLOCKREPETAG
1070
     1
1071
       38
1005
12A11B
  0
LINE
  5
12A11C
  8
OBJECT
 10
97.0
 20
-2315.0
 30
0.0
 11
215.0
 21
-2315.0
 31
0.0
1001
ACDBBLOCKREPETAG
1070
     1
1071
       39
1005
12A11C
  0
LINE
  5
12A11D
  8
OBJECT
 10
215.0
 20
-2315.0
 30
0.0
 11
215.0
 21
-2279.0
 31
0.0
1001
ACDBBLOCKREPETAG
1070
     1
1071
       40
1005
12A11D
  0
LINE
  5
12A11E
  8
OBJECT
 10
101.5
 20
-2319.0
 30
0.0
 11
101.5
 21
-2329.5
 31
0.0
1001
ACDBBLOCKREPETAG
1070
     1
1071
       41
1005
12A11E
  0
LINE
  5
12A11F
  8
OBJECT
 10
210.5
 20
-2329.5
 30
0.0
 11
210.5
 21
-2319.0
 31
0.0
1001
ACDBBLOCKREPETAG
1070
     1
1071
       42
1005
12A11F
  0
LINE
  5
12A120
  8
OBJECT
 10
210.5
 20
-2319.0
 30
0.0
 11
101.5
 21
-2319.0
 31
0.0
1001
ACDBBLOCKREPETAG
1070
     1
1071
       43
1005
12A120
  0
LINE
  5
12A121
  8
OBJECT
 10
97.0
 20
-2315.0
 30
0.0
 11
101.5
 21
-2319.0
 31
0.0
1001
ACDBBLOCKREPETAG
1070
     1
1071
       44
1005
12A121
  0
LINE
  5
12A122
  8
OBJECT
 10
215.0
 20
-2315.0
 30
0.0
 11
210.5
 21
-2319.0
 31
0.0
1001
ACDBBLOCKREPETAG
1070
     1
1071
       45
1005
12A122
  0
LINE
  5
12A123
  8
OBJECT
 10
106.5
 20
-2334.5
 30
0.0
 11
106.5000000000008953
 21
-2355.6550800870209059
 31
0.0
1001
ACDBBLOCKREPETAG
1070
     1
1071
       46
1005
12A123
  0
LINE
  5
12A124
  8
OBJECT
 10
205.5
 20
-2334.5
 30
0.0
 11
205.5
 21
-2355.6550800870218154
 31
0.0
1001
ACDBBLOCKREPETAG
1070
     1
1071
       47
1005
12A124
  0
LINE
  5
12A125
  8
OBJECT
 10
101.5
 20
-2329.5
 30
0.0
 11
210.5
 21
-2329.5
 31
0.0
1001
ACDBBLOCKREPETAG
1070
     1
1071
       48
1005
12A125
  0
LINE
  5
12A126
  8
OBJECT
 10
106.5
 20
-2334.5
 30
0.0
 11
205.5
 21
-2334.5
 31
0.0
1001
ACDBBLOCKREPETAG
1070
     1
1071
       49
1005
12A126
  0
LINE
  5
12A127
  8
OBJECT
 10
101.5
 20
-2329.5
 30
0.0
 11
106.5
 21
-2334.5
 31
0.0
1001
ACDBBLOCKREPETAG
1070
     1
1071
       50
1005
12A127
  0
LINE
  5
12A128
  8
OBJECT
 10
205.5
 20
-2334.5
 30
0.0
 11
210.4999999999963904
 21
-2329.5
 31
0.0
1001
ACDBBLOCKREPETAG
1070
     1
1071
       51
1005
12A128
  0
INSERT
  5
12A129
  8
SLIM
  2
*U265
 10
0.0
 20
0.0
 30
0.0
  0
LINE
  5
12A12A
  8
HIDDEN
 10
111.5
 20
-2324.0
 30
0.0
 11
200.5
 21
-2324.0
 31
0.0
1001
ACDBBLOCKREPETAG
1070
     1
1071
       65
1005
12A12A
  0
LINE
  5
12A12B
  8
OBJECT
 10
649.0
 20
-2357.0
 30
0.0
 11
656.0
 21
-2357.0
 31
0.0
1001
ACDBBLOCKREPETAG
1070
     1
1071
       18
1005
12A12B
  0
LINE
  5
12A12C
  8
OBJECT
 10
656.0
 20
-2357.0
 30
0.0
 11
656.0
 21
-2467.0
 31
0.0
1001
ACDBBLOCKREPETAG
1070
     1
1071
       19
1005
12A12C
  0
LINE
  5
12A12D
  8
OBJECT
 10
656.0
 20
-2467.0
 30
0.0
 11
649.0
 21
-2467.0
 31
0.0
1001
ACDBBLOCKREPETAG
1070
     1
1071
       20
1005
12A12D
  0
LINE
  5
12A12E
  8
OBJECT
 10
649.0
 20
-2467.0
 30
0.0
 11
649.0
 21
-2357.0
 31
0.0
1001
ACDBBLOCKREPETAG
1070
     1
1071
       21
1005
12A12E
  0
LINE
  5
12A12F
  8
OBJECT
 10
649.0
 20
-2360.0
 30
0.0
 11
613.0
 21
-2360.0
 31
0.0
1001
ACDBBLOCKREPETAG
1070
     1
1071
       22
1005
12A12F
  0
LINE
  5
12A130
  8
OBJECT
 10
613.0
 20
-2360.0
 30
0.0
 11
613.0
 21
-2464.0
 31
0.0
1001
ACDBBLOCKREPETAG
1070
     1
1071
       23
1005
12A130
  0
LINE
  5
12A131
  8
OBJECT
 10
613.0
 20
-2464.0
 30
0.0
 11
649.0
 21
-2464.0
 31
0.0
1001
ACDBBLOCKREPETAG
1070
     1
1071
       24
1005
12A131
  0
LINE
  5
12A132
  8
OBJECT
 10
609.0
 20
-2364.5
 30
0.0
 11
600.5000000000004547
 21
-2364.5
 31
0.0
1001
ACDBBLOCKREPETAG
1070
     1
1071
       25
1005
12A132
  0
LINE
  5
12A133
  8
OBJECT
 10
600.4999999999995453
 20
-2459.5
 30
0.0
 11
609.0
 21
-2459.5
 31
0.0
1001
ACDBBLOCKREPETAG
1070
     1
1071
       26
1005
12A133
  0
LINE
  5
12A134
  8
OBJECT
 10
609.0
 20
-2459.5
 30
0.0
 11
609.0
 21
-2364.5
 31
0.0
1001
ACDBBLOCKREPETAG
1070
     1
1071
       27
1005
12A134
  0
LINE
  5
12A135
  8
OBJECT
 10
613.0
 20
-2360.0
 30
0.0
 11
609.0
 21
-2364.5
 31
0.0
1001
ACDBBLOCKREPETAG
1070
     1
1071
       28
1005
12A135
  0
LINE
  5
12A136
  8
OBJECT
 10
613.0
 20
-2464.0
 30
0.0
 11
609.0
 21
-2459.5
 31
0.0
1001
ACDBBLOCKREPETAG
1070
     1
1071
       29
1005
12A136
  0
LINE
  5
12A137
  8
OBJECT
 10
600.4999999999986358
 20
-2461.5
 30
0.0
 11
600.5000000000004547
 21
-2362.5
 31
0.0
1001
ACDBBLOCKREPETAG
1070
     1
1071
       30
1005
12A137
  0
LINE
  5
12A138
  8
OBJECT
 10
600.5000000000004547
 20
-2362.5
 30
0.0
 11
572.3449199129795488
 21
-2362.5000000000009095
 31
0.0
1001
ACDBBLOCKREPETAG
1070
     1
1071
       31
1005
12A138
  0
LINE
  5
12A139
  8
OBJECT
 10
600.4999999999986358
 20
-2461.5
 30
0.0
 11
572.344919912978412
 21
-2461.5000000000009095
 31
0.0
1001
ACDBBLOCKREPETAG
1070
     1
1071
       32
1005
12A139
  0
INSERT
  5
12A13A
  8
SLIM
  2
*U266
 10
0.0
 20
0.0
 30
0.0
  0
LINE
  5
12A13B
  8
HIDDEN
 10
604.0
 20
-2374.0
 30
0.0
 11
604.0
 21
-2450.0
 31
0.0
1001
ACDBBLOCKREPETAG
1070
     1
1071
       57
1005
12A13B
  0
LINE
  5
12A13C
  8
OBJECT
 10
454.0
 20
-2279.0
 30
0.0
 11
454.0
 21
-2272.0
 31
0.0
1001
ACDBBLOCKREPETAG
1070
     1
1071
       34
1005
12A13C
  0
LINE
  5
12A13D
  8
OBJECT
 10
454.0
 20
-2272.0
 30
0.0
 11
578.0
 21
-2272.0
 31
0.0
1001
ACDBBLOCKREPETAG
1070
     1
1071
       35
1005
12A13D
  0
LINE
  5
12A13E
  8
OBJECT
 10
578.0
 20
-2272.0
 30
0.0
 11
578.0
 21
-2279.0
 31
0.0
1001
ACDBBLOCKREPETAG
1070
     1
1071
       36
1005
12A13E
  0
LINE
  5
12A13F
  8
OBJECT
 10
578.0
 20
-2279.0
 30
0.0
 11
454.0
 21
-2279.0
 31
0.0
1001
ACDBBLOCKREPETAG
1070
     1
1071
       37
1005
12A13F
  0
LINE
  5
12A140
  8
OBJECT
 10
457.0
 20
-2279.0
 30
0.0
 11
457.0
 21
-2315.0
 31
0.0
1001
ACDBBLOCKREPETAG
1070
     1
1071
       38
1005
12A140
  0
LINE
  5
12A141
  8
OBJECT
 10
457.0
 20
-2315.0
 30
0.0
 11
575.0
 21
-2315.0
 31
0.0
1001
ACDBBLOCKREPETAG
1070
     1
1071
       39
1005
12A141
  0
LINE
  5
12A142
  8
OBJECT
 10
575.0
 20
-2315.0
 30
0.0
 11
575.0
 21
-2279.0
 31
0.0
1001
ACDBBLOCKREPETAG
1070
     1
1071
       40
1005
12A142
  0
LINE
  5
12A143
  8
OBJECT
 10
461.5
 20
-2319.0
 30
0.0
 11
461.5
 21
-2329.5
 31
0.0
1001
ACDBBLOCKREPETAG
1070
     1
1071
       41
1005
12A143
  0
LINE
  5
12A144
  8
OBJECT
 10
570.5
 20
-2329.5
 30
0.0
 11
570.5
 21
-2319.0
 31
0.0
1001
ACDBBLOCKREPETAG
1070
     1
1071
       42
1005
12A144
  0
LINE
  5
12A145
  8
OBJECT
 10
570.5
 20
-2319.0
 30
0.0
 11
461.5
 21
-2319.0
 31
0.0
1001
ACDBBLOCKREPETAG
1070
     1
1071
       43
1005
12A145
  0
LINE
  5
12A146
  8
OBJECT
 10
457.0
 20
-2315.0
 30
0.0
 11
461.5
 21
-2319.0
 31
0.0
1001
ACDBBLOCKREPETAG
1070
     1
1071
       44
1005
12A146
  0
LINE
  5
12A147
  8
OBJECT
 10
575.0
 20
-2315.0
 30
0.0
 11
570.5
 21
-2319.0
 31
0.0
1001
ACDBBLOCKREPETAG
1070
     1
1071
       45
1005
12A147
  0
LINE
  5
12A148
  8
OBJECT
 10
466.5
 20
-2334.5
 30
0.0
 11
466.5000000000007958
 21
-2355.6550800870209059
 31
0.0
1001
ACDBBLOCKREPETAG
1070
     1
1071
       46
1005
12A148
  0
LINE
  5
12A149
  8
OBJECT
 10
565.5
 20
-2334.5
 30
0.0
 11
565.5
 21
-2355.6550800870218154
 31
0.0
1001
ACDBBLOCKREPETAG
1070
     1
1071
       47
1005
12A149
  0
LINE
  5
12A14A
  8
OBJECT
 10
461.5
 20
-2329.5
 30
0.0
 11
570.5
 21
-2329.5
 31
0.0
1001
ACDBBLOCKREPETAG
1070
     1
1071
       48
1005
12A14A
  0
LINE
  5
12A14B
  8
OBJECT
 10
466.5
 20
-2334.5
 30
0.0
 11
565.5
 21
-2334.5
 31
0.0
1001
ACDBBLOCKREPETAG
1070
     1
1071
       49
1005
12A14B
  0
LINE
  5
12A14C
  8
OBJECT
 10
461.5
 20
-2329.5
 30
0.0
 11
466.5
 21
-2334.5
 31
0.0
1001
ACDBBLOCKREPETAG
1070
     1
1071
       50
1005
12A14C
  0
LINE
  5
12A14D
  8
OBJECT
 10
565.5
 20
-2334.5
 30
0.0
 11
570.4999999999962483
 21
-2329.5
 31
0.0
1001
ACDBBLOCKREPETAG
1070
     1
1071
       51
1005
12A14D
  0
INSERT
  5
12A14E
  8
SLIM
  2
*U267
 10
0.0
 20
0.0
 30
0.0
  0
LINE
  5
12A14F
  8
HIDDEN
 10
471.4999999999998863
 20
-2324.0
 30
0.0
 11
560.5
 21
-2324.0
 31
0.0
1001
ACDBBLOCKREPETAG
1070
     1
1071
       65
1005
12A14F
  0
LINE
  5
12A150
  8
OBJECT
 10
289.0
 20
-2814.0
 30
0.0
 11
296.0
 21
-2814.0
 31
0.0
1001
ACDBBLOCKREPETAG
1070
     1
1071
       34
1005
12A150
  0
LINE
  5
12A151
  8
OBJECT
 10
296.0
 20
-2814.0
 30
0.0
 11
296.0
 21
-2938.0
 31
0.0
1001
ACDBBLOCKREPETAG
1070
     1
1071
       35
1005
12A151
  0
LINE
  5
12A152
  8
OBJECT
 10
296.0
 20
-2938.0
 30
0.0
 11
289.0
 21
-2938.0
 31
0.0
1001
ACDBBLOCKREPETAG
1070
     1
1071
       36
1005
12A152
  0
LINE
  5
12A153
  8
OBJECT
 10
289.0
 20
-2938.0
 30
0.0
 11
289.0
 21
-2814.0
 31
0.0
1001
ACDBBLOCKREPETAG
1070
     1
1071
       37
1005
12A153
  0
LINE
  5
12A154
  8
OBJECT
 10
289.0
 20
-2817.0
 30
0.0
 11
253.0
 21
-2817.0
 31
0.0
1001
ACDBBLOCKREPETAG
1070
     1
1071
       38
1005
12A154
  0
LINE
  5
12A155
  8
OBJECT
 10
253.0
 20
-2817.0
 30
0.0
 11
253.0
 21
-2935.0
 31
0.0
1001
ACDBBLOCKREPETAG
1070
     1
1071
       39
1005
12A155
  0
LINE
  5
12A156
  8
OBJECT
 10
253.0
 20
-2935.0
 30
0.0
 11
289.0
 21
-2935.0
 31
0.0
1001
ACDBBLOCKREPETAG
1070
     1
1071
       40
1005
12A156
  0
LINE
  5
12A157
  8
OBJECT
 10
249.0
 20
-2821.5
 30
0.0
 11
238.5
 21
-2821.5
 31
0.0
1001
ACDBBLOCKREPETAG
1070
     1
1071
       41
1005
12A157
  0
LINE
  5
12A158
  8
OBJECT
 10
238.5
 20
-2930.5
 30
0.0
 11
249.0
 21
-2930.5
 31
0.0
1001
ACDBBLOCKREPETAG
1070
     1
1071
       42
1005
12A158
  0
LINE
  5
12A159
  8
OBJECT
 10
249.0
 20
-2930.5
 30
0.0
 11
249.0
 21
-2821.5
 31
0.0
1001
ACDBBLOCKREPETAG
1070
     1
1071
       43
1005
12A159
  0
LINE
  5
12A15A
  8
OBJECT
 10
253.0
 20
-2817.0
 30
0.0
 11
249.0
 21
-2821.5
 31
0.0
1001
ACDBBLOCKREPETAG
1070
     1
1071
       44
1005
12A15A
  0
LINE
  5
12A15B
  8
OBJECT
 10
253.0
 20
-2935.0
 30
0.0
 11
249.0
 21
-2930.5
 31
0.0
1001
ACDBBLOCKREPETAG
1070
     1
1071
       45
1005
12A15B
  0
LINE
  5
12A15C
  8
OBJECT
 10
233.5
 20
-2826.5
 30
0.0
 11
212.3449199129786109
 21
-2826.5000000000009095
 31
0.0
1001
ACDBBLOCKREPETAG
1070
     1
1071
       46
1005
12A15C
  0
LINE
  5
12A15D
  8
OBJECT
 10
233.5
 20
-2925.5
 30
0.0
 11
212.3449199129777014
 21
-2925.5
 31
0.0
1001
ACDBBLOCKREPETAG
1070
     1
1071
       47
1005
12A15D
  0
LINE
  5
12A15E
  8
OBJECT
 10
238.5
 20
-2821.5
 30
0.0
 11
238.5
 21
-2930.5
 31
0.0
1001
ACDBBLOCKREPETAG
1070
     1
1071
       48
1005
12A15E
  0
LINE
  5
12A15F
  8
OBJECT
 10
233.5
 20
-2826.5
 30
0.0
 11
233.5
 21
-2925.5
 31
0.0
1001
ACDBBLOCKREPETAG
1070
     1
1071
       49
1005
12A15F
  0
LINE
  5
12A160
  8
OBJECT
 10
238.5
 20
-2821.5
 30
0.0
 11
233.5
 21
-2826.5
 31
0.0
1001
ACDBBLOCKREPETAG
1070
     1
1071
       50
1005
12A160
  0
LINE
  5
12A161
  8
OBJECT
 10
233.5
 20
-2925.5
 30
0.0
 11
238.5
 21
-2930.4999999999968168
 31
0.0
1001
ACDBBLOCKREPETAG
1070
     1
1071
       51
1005
12A161
  0
INSERT
  5
12A162
  8
SLIM
  2
*U268
 10
0.0
 20
0.0
 30
0.0
  0
LINE
  5
12A163
  8
HIDDEN
 10
244.0
 20
-2831.5
 30
0.0
 11
244.0
 21
-2920.5
 31
0.0
1001
ACDBBLOCKREPETAG
1070
     1
1071
       65
1005
12A163
  0
LINE
  5
12A164
  8
OBJECT
 10
94.0
 20
-2743.0
 30
0.0
 11
94.0
 21
-2736.0
 31
0.0
1001
ACDBBLOCKREPETAG
1070
     1
1071
       34
1005
12A164
  0
LINE
  5
12A165
  8
OBJECT
 10
94.0
 20
-2736.0
 30
0.0
 11
218.0
 21
-2736.0
 31
0.0
1001
ACDBBLOCKREPETAG
1070
     1
1071
       35
1005
12A165
  0
LINE
  5
12A166
  8
OBJECT
 10
218.0
 20
-2736.0
 30
0.0
 11
218.0
 21
-2743.0
 31
0.0
1001
ACDBBLOCKREPETAG
1070
     1
1071
       36
1005
12A166
  0
LINE
  5
12A167
  8
OBJECT
 10
218.0
 20
-2743.0
 30
0.0
 11
94.0
 21
-2743.0
 31
0.0
1001
ACDBBLOCKREPETAG
1070
     1
1071
       37
1005
12A167
  0
LINE
  5
12A168
  8
OBJECT
 10
97.0
 20
-2743.0
 30
0.0
 11
97.0
 21
-2779.0
 31
0.0
1001
ACDBBLOCKREPETAG
1070
     1
1071
       38
1005
12A168
  0
LINE
  5
12A169
  8
OBJECT
 10
97.0
 20
-2779.0
 30
0.0
 11
215.0
 21
-2779.0
 31
0.0
1001
ACDBBLOCKREPETAG
1070
     1
1071
       39
1005
12A169
  0
LINE
  5
12A16A
  8
OBJECT
 10
215.0
 20
-2779.0
 30
0.0
 11
215.0
 21
-2743.0
 31
0.0
1001
ACDBBLOCKREPETAG
1070
     1
1071
       40
1005
12A16A
  0
LINE
  5
12A16B
  8
OBJECT
 10
101.5
 20
-2783.0
 30
0.0
 11
101.5
 21
-2793.5
 31
0.0
1001
ACDBBLOCKREPETAG
1070
     1
1071
       41
1005
12A16B
  0
LINE
  5
12A16C
  8
OBJECT
 10
210.5
 20
-2793.5
 30
0.0
 11
210.5
 21
-2783.0
 31
0.0
1001
ACDBBLOCKREPETAG
1070
     1
1071
       42
1005
12A16C
  0
LINE
  5
12A16D
  8
OBJECT
 10
210.5
 20
-2783.0
 30
0.0
 11
101.5
 21
-2783.0
 31
0.0
1001
ACDBBLOCKREPETAG
1070
     1
1071
       43
1005
12A16D
  0
LINE
  5
12A16E
  8
OBJECT
 10
97.0
 20
-2779.0
 30
0.0
 11
101.5
 21
-2783.0
 31
0.0
1001
ACDBBLOCKREPETAG
1070
     1
1071
       44
1005
12A16E
  0
LINE
  5
12A16F
  8
OBJECT
 10
215.0
 20
-2779.0
 30
0.0
 11
210.5
 21
-2783.0
 31
0.0
1001
ACDBBLOCKREPETAG
1070
     1
1071
       45
1005
12A16F
  0
LINE
  5
12A170
  8
OBJECT
 10
106.5
 20
-2798.5
 30
0.0
 11
106.5000000000008953
 21
-2819.6550800870218154
 31
0.0
1001
ACDBBLOCKREPETAG
1070
     1
1071
       46
1005
12A170
  0
LINE
  5
12A171
  8
OBJECT
 10
205.5
 20
-2798.5
 30
0.0
 11
205.5
 21
-2819.6550800870218154
 31
0.0
1001
ACDBBLOCKREPETAG
1070
     1
1071
       47
1005
12A171
  0
LINE
  5
12A172
  8
OBJECT
 10
101.5
 20
-2793.5
 30
0.0
 11
210.5
 21
-2793.5
 31
0.0
1001
ACDBBLOCKREPETAG
1070
     1
1071
       48
1005
12A172
  0
LINE
  5
12A173
  8
OBJECT
 10
106.5
 20
-2798.5
 30
0.0
 11
205.5
 21
-2798.5
 31
0.0
1001
ACDBBLOCKREPETAG
1070
     1
1071
       49
1005
12A173
  0
LINE
  5
12A174
  8
OBJECT
 10
101.5
 20
-2793.5
 30
0.0
 11
106.5
 21
-2798.5
 31
0.0
1001
ACDBBLOCKREPETAG
1070
     1
1071
       50
1005
12A174
  0
LINE
  5
12A175
  8
OBJECT
 10
205.5
 20
-2798.5
 30
0.0
 11
210.4999999999963904
 21
-2793.5
 31
0.0
1001
ACDBBLOCKREPETAG
1070
     1
1071
       51
1005
12A175
  0
INSERT
  5
12A176
  8
SLIM
  2
*U269
 10
0.0
 20
0.0
 30
0.0
  0
LINE
  5
12A177
  8
HIDDEN
 10
111.5
 20
-2788.0
 30
0.0
 11
200.5
 21
-2788.0
 31
0.0
1001
ACDBBLOCKREPETAG
1070
     1
1071
       65
1005
12A177
  0
CIRCLE
  5
12A178
  8
OBJECT
 10
156.0
 20
-1020.0
 30
0.0
 40
70.0
1001
ACDBBLOCKREPETAG
1070
     1
1071
       50
1005
12A178
  0
CIRCLE
  5
12A179
  8
OBJECT
 10
156.0
 20
-1020.0
 30
0.0
 40
75.0
1001
ACDBBLOCKREPETAG
1070
     1
1071
       51
1005
12A179
  0
POINT
  5
12A17A
  8
DOTS
 10
156.0
 20
-1020.0
 30
0.0
1001
ACDBBLOCKREPETAG
1070
     1
1071
       63
1005
12A17A
  0
CIRCLE
  5
12A17B
  8
OBJECT
 10
156.0
 20
-1020.0
 30
0.0
 40
55.0
1001
ACDBBLOCKREPETAG
1070
     1
1071
       50
1005
12A17B
  0
CIRCLE
  5
12A17C
  8
OBJECT
 10
515.9999999998781277
 20
-1019.9999999999979536
 30
0.0
 40
70.0
1001
ACDBBLOCKREPETAG
1070
     1
1071
       50
1005
12A17C
  0
CIRCLE
  5
12A17D
  8
OBJECT
 10
515.9999999998781277
 20
-1019.9999999999979536
 30
0.0
 40
75.0
1001
ACDBBLOCKREPETAG
1070
     1
1071
       51
1005
12A17D
  0
POINT
  5
12A17E
  8
DOTS
 10
515.9999999998781277
 20
-1019.9999999999979536
 30
0.0
1001
ACDBBLOCKREPETAG
1070
     1
1071
       63
1005
12A17E
  0
CIRCLE
  5
12A17F
  8
OBJECT
 10
515.9999999998781277
 20
-1019.9999999999979536
 30
0.0
 40
55.0
1001
ACDBBLOCKREPETAG
1070
     1
1071
       50
1005
12A17F
  0
CIRCLE
  5
12A180
  8
OBJECT
 10
156.0
 20
-1483.9999999998410658
 30
0.0
 40
70.0
1001
ACDBBLOCKREPETAG
1070
     1
1071
       50
1005
12A180
  0
CIRCLE
  5
12A181
  8
OBJECT
 10
156.0
 20
-1483.9999999998410658
 30
0.0
 40
75.0
1001
ACDBBLOCKREPETAG
1070
     1
1071
       51
1005
12A181
  0
POINT
  5
12A182
  8
DOTS
 10
156.0
 20
-1483.9999999998410658
 30
0.0
1001
ACDBBLOCKREPETAG
1070
     1
1071
       63
1005
12A182
  0
CIRCLE
  5
12A183
  8
OBJECT
 10
156.0
 20
-1483.9999999998410658
 30
0.0
 40
55.0
1001
ACDBBLOCKREPETAG
1070
     1
1071
       50
1005
12A183
  0
CIRCLE
  5
12A184
  8
OBJECT
 10
515.9999999998781277
 20
-1483.9999999998410658
 30
0.0
 40
70.0
1001
ACDBBLOCKREPETAG
1070
     1
1071
       50
1005
12A184
  0
CIRCLE
  5
12A185
  8
OBJECT
 10
515.9999999998781277
 20
-1483.9999999998410658
 30
0.0
 40
75.0
1001
ACDBBLOCKREPETAG
1070
     1
1071
       51
1005
12A185
  0
POINT
  5
12A186
  8
DOTS
 10
515.9999999998781277
 20
-1483.9999999998410658
 30
0.0
1001
ACDBBLOCKREPETAG
1070
     1
1071
       63
1005
12A186
  0
CIRCLE
  5
12A187
  8
OBJECT
 10
515.9999999998781277
 20
-1483.9999999998410658
 30
0.0
 40
55.0
1001
ACDBBLOCKREPETAG
1070
     1
1071
       50
1005
12A187
  0
CIRCLE
  5
12A188
  8
OBJECT
 10
155.999999999999801
 20
-1947.9999999996839506
 30
0.0
 40
70.0
1001
ACDBBLOCKREPETAG
1070
     1
1071
       50
1005
12A188
  0
CIRCLE
  5
12A189
  8
OBJECT
 10
155.999999999999801
 20
-1947.9999999996839506
 30
0.0
 40
75.0
1001
ACDBBLOCKREPETAG
1070
     1
1071
       51
1005
12A189
  0
POINT
  5
12A18A
  8
DOTS
 10
155.999999999999801
 20
-1947.9999999996839506
 30
0.0
1001
ACDBBLOCKREPETAG
1070
     1
1071
       63
1005
12A18A
  0
CIRCLE
  5
12A18B
  8
OBJECT
 10
155.999999999999801
 20
-1947.9999999996839506
 30
0.0
 40
55.0
1001
ACDBBLOCKREPETAG
1070
     1
1071
       50
1005
12A18B
  0
CIRCLE
  5
12A18C
  8
OBJECT
 10
515.9999999998777866
 20
-1947.9999999996830411
 30
0.0
 40
70.0
1001
ACDBBLOCKREPETAG
1070
     1
1071
       50
1005
12A18C
  0
CIRCLE
  5
12A18D
  8
OBJECT
 10
515.9999999998777866
 20
-1947.9999999996830411
 30
0.0
 40
75.0
1001
ACDBBLOCKREPETAG
1070
     1
1071
       51
1005
12A18D
  0
POINT
  5
12A18E
  8
DOTS
 10
515.9999999998777866
 20
-1947.9999999996830411
 30
0.0
1001
ACDBBLOCKREPETAG
1070
     1
1071
       63
1005
12A18E
  0
CIRCLE
  5
12A18F
  8
OBJECT
 10
515.9999999998777866
 20
-1947.9999999996830411
 30
0.0
 40
55.0
1001
ACDBBLOCKREPETAG
1070
     1
1071
       50
1005
12A18F
  0
CIRCLE
  5
12A190
  8
OBJECT
 10
155.999999999999801
 20
-2411.9999999995261533
 30
0.0
 40
70.0
1001
ACDBBLOCKREPETAG
1070
     1
1071
       50
1005
12A190
  0
CIRCLE
  5
12A191
  8
OBJECT
 10
155.999999999999801
 20
-2411.9999999995261533
 30
0.0
 40
75.0
1001
ACDBBLOCKREPETAG
1070
     1
1071
       51
1005
12A191
  0
POINT
  5
12A192
  8
DOTS
 10
155.999999999999801
 20
-2411.9999999995261533
 30
0.0
1001
ACDBBLOCKREPETAG
1070
     1
1071
       63
1005
12A192
  0
CIRCLE
  5
12A193
  8
OBJECT
 10
155.999999999999801
 20
-2411.9999999995261533
 30
0.0
 40
55.0
1001
ACDBBLOCKREPETAG
1070
     1
1071
       50
1005
12A193
  0
CIRCLE
  5
12A194
  8
OBJECT
 10
515.9999999998777866
 20
-2411.9999999995261533
 30
0.0
 40
70.0
1001
ACDBBLOCKREPETAG
1070
     1
1071
       50
1005
12A194
  0
CIRCLE
  5
12A195
  8
OBJECT
 10
515.9999999998777866
 20
-2411.9999999995261533
 30
0.0
 40
75.0
1001
ACDBBLOCKREPETAG
1070
     1
1071
       51
1005
12A195
  0
POINT
  5
12A196
  8
DOTS
 10
515.9999999998777866
 20
-2411.9999999995261533
 30
0.0
1001
ACDBBLOCKREPETAG
1070
     1
1071
       63
1005
12A196
  0
CIRCLE
  5
12A197
  8
OBJECT
 10
515.9999999998777866
 20
-2411.9999999995261533
 30
0.0
 40
55.0
1001
ACDBBLOCKREPETAG
1070
     1
1071
       50
1005
12A197
  0
CIRCLE
  5
12A198
  8
OBJECT
 10
156.0
 20
-2875.9999999993669917
 30
0.0
 40
70.0
1001
ACDBBLOCKREPETAG
1070
     1
1071
       50
1005
12A198
  0
CIRCLE
  5
12A199
  8
OBJECT
 10
156.0
 20
-2875.9999999993669917
 30
0.0
 40
75.0
1001
ACDBBLOCKREPETAG
1070
     1
1071
       51
1005
12A199
  0
POINT
  5
12A19A
  8
DOTS
 10
156.0
 20
-2875.9999999993669917
 30
0.0
1001
ACDBBLOCKREPETAG
1070
     1
1071
       63
1005
12A19A
  0
CIRCLE
  5
12A19B
  8
OBJECT
 10
156.0
 20
-2875.9999999993669917
 30
0.0
 40
55.0
1001
ACDBBLOCKREPETAG
1070
     1
1071
       50
1005
12A19B
  0
TEXT
  5
12A19C
  8
SLIM
 10
2356.25
 20
-1632.4999999999979536
 30
0.0
 40
35.0
  1
片受けスタイル（S）
 41
0.75
  0
TEXT
  5
12A19D
  8
SLIM
 10
4241.6249999999990905
 20
-1632.4999999999979536
 30
0.0
 40
35.0
  1
片受けスタイル（S）＋シンドカット
 41
0.75
  0
TEXT
  5
12A19E
  8
SLIM
 10
2034.5
 20
-1708.9999999999979536
 30
0.0
 40
28.0
  1
※ 対応P寸法　　190＜210＞～340（10mm単位。＜＞内は下枝75の場合）
 41
0.75
  0
TEXT
  5
12A19F
  8
SLIM
 10
4026.5999999999999091
 20
-1698.0000266666650077
 30
0.0
 40
28.0
  1
※ 対応P寸法　　190＜210＞～320（10mm単位。＜＞内は下枝75の場合）
 41
0.75
  0
TEXT
  5
12A1A0
  8
SLIM
 10
4026.5999999999999091
 20
-1744.6666933333310681
 30
0.0
 40
28.0
  1
※ 最大対応スラブ厚　m-10
 41
0.75
  0
TEXT
  5
12A1A1
  8
SLIM
 10
4026.5999999999999091
 20
-1791.3333599999980379
 30
0.0
 40
28.0
  1
※ 足切り可能寸法（最大）　560-P-m（コンパクトＬベンド使用なら+10）
 41
0.75
  0
TEXT
  5
12A1A2
  8
SLIM
 10
4098.8999999999996362
 20
-1863.3333066666650666
 30
0.0
 40
28.0
  1
国土交通大臣認定・（一財）日本消防設備安全センター性能評定取得品
 41
0.75
  0
TEXT
  5
12A1A3
  8
SLIM
 10
4131.1000000000003638
 20
-1909.9999733333320364
 30
0.0
 40
28.0
  1
注）ご採用にあたり、認定書及び評定書の内容をご確認ください。
 41
0.75
  0
TEXT
  5
12A1A4
  8
SLIM
 10
4974.3428571428567011
 20
-680.9999999999956799
 30
0.0
 40
24.0
  1
対応m寸法
 41
0.75
  0
TEXT
  5
12A1A5
  8
SLIM
 10
4968.3428571428567011
 20
-728.9999999999957936
 30
0.0
 40
24.0
  1
240～370
 41
0.75
  0
TEXT
  5
12A1A6
  8
SLIM
 10
4880.5714285714284415
 20
-728.9999999999957936
 30
0.0
 40
24.0
  1
190
 41
0.75
  0
TEXT
  5
12A1A7
  8
SLIM
 10
4873.8000000000001819
 20
-680.9999999999956799
 30
0.0
 40
24.0
  1
P寸法
 41
0.75
  0
TEXT
  5
12A1A8
  8
SLIM
 10
4968.3428571428567011
 20
-776.9999999999962483
 30
0.0
 40
24.0
  1
230～360
 41
0.75
  0
TEXT
  5
12A1A9
  8
SLIM
 10
4878.857142857143117
 20
-776.9999999999962483
 30
0.0
 40
24.0
  1
200
 41
0.75
  0
TEXT
  5
12A1AA
  8
SLIM
 10
4968.3428571428567011
 20
-824.9999999999962483
 30
0.0
 40
24.0
  1
220～350
 41
0.75
  0
TEXT
  5
12A1AB
  8
SLIM
 10
4880.5714285714284415
 20
-824.9999999999962483
 30
0.0
 40
24.0
  1
210
 41
0.75
  0
TEXT
  5
12A1AC
  8
SLIM
 10
4970.0571428571429351
 20
-872.9999999999962483
 30
0.0
 40
24.0
  1
210～340
 41
0.75
  0
TEXT
  5
12A1AD
  8
SLIM
 10
4878.857142857143117
 20
-872.9999999999962483
 30
0.0
 40
24.0
  1
220
 41
0.75
  0
TEXT
  5
12A1AE
  8
SLIM
 10
4968.3428571428567011
 20
-920.9999999999962483
 30
0.0
 40
24.0
  1
200～330
 41
0.75
  0
TEXT
  5
12A1AF
  8
SLIM
 10
4878.857142857143117
 20
-920.9999999999962483
 30
0.0
 40
24.0
  1
230
 41
0.75
  0
TEXT
  5
12A1B0
  8
SLIM
 10
4970.0571428571429351
 20
-968.9999999999962483
 30
0.0
 40
24.0
  1
190～320
 41
0.75
  0
TEXT
  5
12A1B1
  8
SLIM
 10
4878.857142857143117
 20
-968.9999999999962483
 30
0.0
 40
24.0
  1
240
 41
0.75
  0
TEXT
  5
12A1B2
  8
SLIM
 10
4971.7714285714291691
 20
-1016.999999999996021
 30
0.0
 40
24.0
  1
190～310
 41
0.75
  0
TEXT
  5
12A1B3
  8
SLIM
 10
4878.857142857143117
 20
-1016.999999999996021
 30
0.0
 40
24.0
  1
250
 41
0.75
  0
TEXT
  5
12A1B4
  8
SLIM
 10
4878.857142857143117
 20
-1064.9999999999959073
 30
0.0
 40
24.0
  1
260
 41
0.75
  0
TEXT
  5
12A1B5
  8
SLIM
 10
4878.857142857143117
 20
-1112.9999999999959073
 30
0.0
 40
24.0
  1
270
 41
0.75
  0
TEXT
  5
12A1B6
  8
SLIM
 10
4878.857142857143117
 20
-1160.9999999999959073
 30
0.0
 40
24.0
  1
280
 41
0.75
  0
TEXT
  5
12A1B7
  8
SLIM
 10
4878.857142857143117
 20
-1208.9999999999959073
 30
0.0
 40
24.0
  1
290
 41
0.75
  0
TEXT
  5
12A1B8
  8
SLIM
 10
4878.857142857143117
 20
-1256.9999999999959073
 30
0.0
 40
24.0
  1
300
 41
0.75
  0
TEXT
  5
12A1B9
  8
SLIM
 10
4880.5714285714284415
 20
-1304.9999999999959073
 30
0.0
 40
24.0
  1
310
 41
0.75
  0
TEXT
  5
12A1BA
  8
SLIM
 10
4878.857142857143117
 20
-1352.9999999999959073
 30
0.0
 40
24.0
  1
320
 41
0.75
  0
TEXT
  5
12A1BB
  8
SLIM
 10
4948.4571428571443903
 20
-1410.9999999999959073
 30
0.0
 40
24.0
  1
標準：m=240
 41
0.75
  0
TEXT
  5
12A1BC
  8
SLIM
 10
4970.0571428571429351
 20
-1064.9999999999959073
 30
0.0
 40
24.0
  1
190～300
 41
0.75
  0
TEXT
  5
12A1BD
  8
SLIM
 10
4970.0571428571429351
 20
-1112.9999999999959073
 30
0.0
 40
24.0
  1
190～290
 41
0.75
  0
TEXT
  5
12A1BE
  8
SLIM
 10
4970.0571428571429351
 20
-1160.9999999999959073
 30
0.0
 40
24.0
  1
190～280
 41
0.75
  0
TEXT
  5
12A1BF
  8
SLIM
 10
4970.0571428571429351
 20
-1208.9999999999959073
 30
0.0
 40
24.0
  1
190～270
 41
0.75
  0
TEXT
  5
12A1C0
  8
SLIM
 10
4970.0571428571429351
 20
-1256.9999999999959073
 30
0.0
 40
24.0
  1
190～260
 41
0.75
  0
TEXT
  5
12A1C1
  8
SLIM
 10
4970.0571428571429351
 20
-1304.9999999999959073
 30
0.0
 40
24.0
  1
190～250
 41
0.75
  0
TEXT
  5
12A1C2
  8
SLIM
 10
4970.0571428571429351
 20
-1352.9999999999959073
 30
0.0
 40
24.0
  1
190～240
 41
0.75
  0
LINE
  5
12A1C3
  8
SLIM
  6
CONTINUOUS
 10
4424.8586105144177054
 20
-160.2662412276922055
 30
0.0
 11
4460.2662412276940813
 21
-124.8586105144159006
 31
0.0
1001
GRADIENTCOLOR1ACI
1070
     5
1001
GRADIENTCOLOR2ACI
1070
     2
1001
ACAD
1010
0.0
1020
0.0
1030
0.0
  0
LINE
  5
12A1C4
  8
SLIM
  6
CONTINUOUS
 10
4418.6084340676770807
 20
-175.4966737955037104
 30
0.0
 11
4427.1385399004420833
 21
-166.9665679627377983
 31
0.0
1001
GRADIENTCOLOR1ACI
1070
     5
1001
GRADIENTCOLOR2ACI
1070
     2
1001
ACAD
1010
0.0
1020
0.0
1030
0.0
  0
LINE
  5
12A1C5
  8
SLIM
  6
CONTINUOUS
 10
4466.9665679627405552
 20
-127.1385399004401933
 30
0.0
 11
4475.4966737955073768
 21
-118.6084340676742954
 31
0.0
1001
GRADIENTCOLOR1ACI
1070
     5
1001
GRADIENTCOLOR2ACI
1070
     2
1001
ACAD
1010
0.0
1020
0.0
1030
0.0
  0
LINE
  5
12A1C6
  8
SLIM
  6
CONTINUOUS
 10
4415.9844434040905981
 20
-187.100920580158288
 30
0.0
 11
4422.3555558663219927
 21
-180.7298081179278029
 31
0.0
1001
GRADIENTCOLOR1ACI
1070
     5
1001
GRADIENTCOLOR2ACI
1070
     2
1001
ACAD
1010
0.0
1020
0.0
1030
0.0
  0
LINE
  5
12A1C7
  8
SLIM
  6
CONTINUOUS
 10
4480.7298081179296787
 20
-122.3555558663191931
 30
0.0
 11
4487.1009205801610733
 21
-115.9844434040886938
 31
0.0
1001
GRADIENTCOLOR1ACI
1070
     5
1001
GRADIENTCOLOR2ACI
1070
     2
1001
ACAD
1010
0.0
1020
0.0
1030
0.0
  0
LINE
  5
12A1C8
  8
SLIM
  6
CONTINUOUS
 10
4415.0524951669203801
 20
-197.0131249383975955
 30
0.0
 11
4416.0656201053188852
 21
-196.0
 31
0.0
1001
GRADIENTCOLOR1ACI
1070
     5
1001
GRADIENTCOLOR2ACI
1070
     2
1001
ACAD
1010
0.0
1020
0.0
1030
0.0
  0
LINE
  5
12A1C9
  8
SLIM
  6
CONTINUOUS
 10
4491.6261550504887055
 20
-120.4394650548301939
 30
0.0
 11
4497.013124938400324
 21
-115.0524951669185043
 31
0.0
1001
GRADIENTCOLOR1ACI
1070
     5
1001
GRADIENTCOLOR2ACI
1070
     2
1001
ACAD
1010
0.0
1020
0.0
1030
0.0
  0
LINE
  5
12A1CA
  8
SLIM
  6
CONTINUOUS
 10
4416.0656201053188852
 20
-196.0
 30
0.0
 11
4420.4394650548319987
 21
-191.6261550504868012
 31
0.0
1001
GRADIENTCOLOR1ACI
1070
     5
1001
GRADIENTCOLOR2ACI
1070
     2
1001
ACAD
1010
0.0
1020
0.0
1030
0.0
  0
LINE
  5
12A1CB
  8
SLIM
  6
CONTINUOUS
 10
4415.2011819161407402
 20
-205.8446943102472062
 30
0.0
 11
4420.0067489441089492
 21
-201.0391272822789119
 31
0.0
1001
GRADIENTCOLOR1ACI
1070
     5
1001
GRADIENTCOLOR2ACI
1070
     2
1001
ACAD
1010
0.0
1020
0.0
1030
0.0
  0
LINE
  5
12A1CC
  8
SLIM
  6
CONTINUOUS
 10
4501.0391272822816973
 20
-120.0067489441062065
 30
0.0
 11
4505.8446943102489968
 21
-115.201181916138907
 31
0.0
1001
GRADIENTCOLOR1ACI
1070
     5
1001
GRADIENTCOLOR2ACI
1070
     2
1001
ACAD
1010
0.0
1020
0.0
1030
0.0
  0
LINE
  5
12A1CD
  8
SLIM
  6
CONTINUOUS
 10
4416.1416587718949813
 20
-213.8844735755619979
 30
0.0
 11
4420.5618067828409039
 21
-209.4643255646161037
 31
0.0
1001
GRADIENTCOLOR1ACI
1070
     5
1001
GRADIENTCOLOR2ACI
1070
     2
1001
ACAD
1010
0.0
1020
0.0
1030
0.0
  0
LINE
  5
12A1CE
  8
SLIM
  6
CONTINUOUS
 10
4509.4643255646178659
 20
-120.5618067828390991
 30
0.0
 11
4513.8844735755637885
 21
-116.1416587718931055
 31
0.0
1001
GRADIENTCOLOR1ACI
1070
     5
1001
GRADIENTCOLOR2ACI
1070
     2
1001
ACAD
1010
0.0
1020
0.0
1030
0.0
  0
LINE
  5
12A1CF
  8
SLIM
  6
CONTINUOUS
 10
4417.7108701110219044
 20
-221.2955183575031981
 30
0.0
 11
4419.0063884685268931
 21
-219.9999999999990905
 31
0.0
1001
GRADIENTCOLOR1ACI
1070
     5
1001
GRADIENTCOLOR2ACI
1070
     2
1001
ACAD
1010
0.0
1020
0.0
1030
0.0
  0
LINE
  5
12A1D0
  8
SLIM
  6
CONTINUOUS
 10
4517.1471323385685537
 20
-121.8592561299565062
 30
0.0
 11
4521.2955183575058982
 21
-117.7108701110200997
 31
0.0
1001
GRADIENTCOLOR1ACI
1070
     5
1001
GRADIENTCOLOR2ACI
1070
     2
1001
ACAD
1010
0.0
1020
0.0
1030
0.0
  0
LINE
  5
12A1D1
  8
SLIM
  6
CONTINUOUS
 10
4419.0063884685268931
 20
-219.9999999999990905
 30
0.0
 11
4421.8592561299592489
 21
-217.1471323385667063
 31
0.0
1001
GRADIENTCOLOR1ACI
1070
     5
1001
GRADIENTCOLOR2ACI
1070
     2
1001
ACAD
1010
0.0
1020
0.0
1030
0.0
  0
LINE
  5
12A1D2
  8
SLIM
  6
CONTINUOUS
 10
4419.8070443755896122
 20
-228.1796002140044948
 30
0.0
 11
4423.7573519673760529
 21
-224.2292926222189919
 31
0.0
1001
GRADIENTCOLOR1ACI
1070
     5
1001
GRADIENTCOLOR2ACI
1070
     2
1001
ACAD
1010
0.0
1020
0.0
1030
0.0
  0
LINE
  5
12A1D3
  8
SLIM
  6
CONTINUOUS
 10
4524.229292622221692
 20
-123.757351967373296
 30
0.0
 11
4528.1796002140081328
 21
-119.8070443755877932
 31
0.0
1001
GRADIENTCOLOR1ACI
1070
     5
1001
GRADIENTCOLOR2ACI
1070
     2
1001
ACAD
1010
0.0
1020
0.0
1030
0.0
  0
LINE
  5
12A1D4
  8
SLIM
  6
CONTINUOUS
 10
4422.3627047135605608
 20
-234.6041959971030053
 30
0.0
 11
4424.9669007106631398
 21
-232.0000000000009095
 31
0.0
1001
GRADIENTCOLOR1ACI
1070
     5
1001
GRADIENTCOLOR2ACI
1070
     2
1001
ACAD
1010
0.0
1020
0.0
1030
0.0
  0
LINE
  5
12A1D5
  8
SLIM
  6
CONTINUOUS
 10
4530.8001598408181962
 20
-126.1667408698467057
 30
0.0
 11
4534.604195997106217
 21
-122.3627047135578039
 31
0.0
1001
GRADIENTCOLOR1ACI
1070
     5
1001
GRADIENTCOLOR2ACI
1070
     2
1001
ACAD
1010
0.0
1020
0.0
1030
0.0
  0
LINE
  5
12A1D6
  8
SLIM
  6
CONTINUOUS
 10
4424.9669007106631398
 20
-232.0000000000009095
 30
0.0
 11
4426.1667408698485815
 21
-230.8001598408145867
 31
0.0
1001
GRADIENTCOLOR1ACI
1070
     5
1001
GRADIENTCOLOR2ACI
1070
     2
1001
ACAD
1010
0.0
1020
0.0
1030
0.0
  0
LINE
  5
12A1D7
  8
SLIM
  6
CONTINUOUS
 10
4425.3315714414457034
 20
-240.6155853902874071
 30
0.0
 11
4429.0282267343809508
 21
-236.9189300973521028
 31
0.0
1001
GRADIENTCOLOR1ACI
1070
     5
1001
GRADIENTCOLOR2ACI
1070
     2
1001
ACAD
1010
0.0
1020
0.0
1030
0.0
  0
LINE
  5
12A1D8
  8
SLIM
  6
CONTINUOUS
 10
4536.9189300973548598
 20
-129.0282267343781939
 30
0.0
 11
4540.6155853902901072
 21
-125.3315714414430033
 31
0.0
1001
GRADIENTCOLOR1ACI
1070
     5
1001
GRADIENTCOLOR2ACI
1070
     2
1001
ACAD
1010
0.0
1020
0.0
1030
0.0
  0
LINE
  5
12A1D9
  8
SLIM
  6
CONTINUOUS
 10
4428.6815548937138374
 20
-246.2458580590883059
 30
0.0
 11
4432.3017508847979116
 21
-242.6256620680042033
 31
0.0
1001
GRADIENTCOLOR1ACI
1070
     5
1001
GRADIENTCOLOR2ACI
1070
     2
1001
ACAD
1010
0.0
1020
0.0
1030
0.0
  0
LINE
  5
12A1DA
  8
SLIM
  6
CONTINUOUS
 10
4542.6256620680069318
 20
-132.3017508847952115
 30
0.0
 11
4546.245858059091006
 21
-128.6815548937111089
 31
0.0
1001
GRADIENTCOLOR1ACI
1070
     5
1001
GRADIENTCOLOR2ACI
1070
     2
1001
ACAD
1010
0.0
1020
0.0
1030
0.0
  0
LINE
  5
12A1DB
  8
SLIM
  6
CONTINUOUS
 10
4432.3907652629222866
 20
-251.5169038109484063
 30
0.0
 11
4435.9604490227438873
 21
-247.9472200511268056
 31
0.0
1001
GRADIENTCOLOR1ACI
1070
     5
1001
GRADIENTCOLOR2ACI
1070
     2
1001
ACAD
1010
0.0
1020
0.0
1030
0.0
  0
LINE
  5
12A1DC
  8
SLIM
  6
CONTINUOUS
 10
4547.9472200511299889
 20
-135.960449022741102
 30
0.0
 11
4551.5169038109497706
 21
-132.3907652629204108
 31
0.0
1001
GRADIENTCOLOR1ACI
1070
     5
1001
GRADIENTCOLOR2ACI
1070
     2
1001
ACAD
1010
0.0
1020
0.0
1030
0.0
  0
LINE
  5
12A1DD
  8
SLIM
  6
CONTINUOUS
 10
4436.4451742931078115
 20
-256.4427509018319142
 30
0.0
 11
4439.9873013608048495
 21
-252.9006238341358141
 31
0.0
1001
GRADIENTCOLOR1ACI
1070
     5
1001
GRADIENTCOLOR2ACI
1070
     2
1001
ACAD
1010
0.0
1020
0.0
1030
0.0
  0
LINE
  5
12A1DE
  8
SLIM
  6
CONTINUOUS
 10
4554.88792519494109
 20
-137.9999999999990905
 30
0.0
 11
4556.4427509018350975
 21
-136.4451742931049978
 31
0.0
1001
GRADIENTCOLOR1ACI
1070
     5
1001
GRADIENTCOLOR2ACI
1070
     2
1001
ACAD
1010
0.0
1020
0.0
1030
0.0
  0
LINE
  5
12A1DF
  8
SLIM
  6
CONTINUOUS
 10
4440.8372731495674088
 20
-261.030908166442714
 30
0.0
 11
4444.3732607963193004
 21
-257.4949205196899129
 31
0.0
1001
GRADIENTCOLOR1ACI
1070
     5
1001
GRADIENTCOLOR2ACI
1070
     2
1001
ACAD
1010
0.0
1020
0.0
1030
0.0
  0
LINE
  5
12A1E0
  8
SLIM
  6
CONTINUOUS
 10
4445.5654027321415924
 20
-265.283034704936199
 30
0.0
 11
4449.1163342680174537
 21
-261.7321031690607924
 31
0.0
1001
GRADIENTCOLOR1ACI
1070
     5
1001
GRADIENTCOLOR2ACI
1070
     2
1001
ACAD
1010
0.0
1020
0.0
1030
0.0
  0
LINE
  5
12A1E1
  8
SLIM
  6
CONTINUOUS
 10
4549.5421817599099086
 20
-269.0693291299976977
 30
0.0
 11
4556.6115108899075494
 21
-262.0
 31
0.0
1001
GRADIENTCOLOR1ACI
1070
     5
1001
GRADIENTCOLOR2ACI
1070
     2
1001
ACAD
1010
0.0
1020
0.0
1030
0.0
  0
LINE
  5
12A1E2
  8
OBJECT
 10
4633.0
 20
-137.9999999999990905
 30
0.0
 11
4640.0
 21
-137.9999999999990905
 31
0.0
1001
ACDBBLOCKREPETAG
1070
     1
1071
       47
1005
12A1E2
  0
LINE
  5
12A1E3
  8
OBJECT
 10
4640.0
 20
-137.9999999999990905
 30
0.0
 11
4640.0
 21
-261.9999999999990905
 31
0.0
1001
ACDBBLOCKREPETAG
1070
     1
1071
       48
1005
12A1E3
  0
LINE
  5
12A1E4
  8
OBJECT
 10
4640.0
 20
-261.9999999999990905
 30
0.0
 11
4633.0
 21
-261.9999999999990905
 31
0.0
1001
ACDBBLOCKREPETAG
1070
     1
1071
       49
1005
12A1E4
  0
LINE
  5
12A1E5
  8
OBJECT
 10
4633.0
 20
-261.9999999999990905
 30
0.0
 11
4633.0
 21
-137.9999999999990905
 31
0.0
1001
ACDBBLOCKREPETAG
1070
     1
1071
       50
1005
12A1E5
  0
LINE
  5
12A1E6
  8
CENTER
 10
4655.0
 20
-199.9999999999990905
 30
0.0
 11
4580.0
 21
-199.9999999999990905
 31
0.0
1001
ACDBBLOCKREPETAG
1070
     1
1071
       51
1005
12A1E6
  0
LINE
  5
12A1E7
  8
OBJECT
 10
4633.0
 20
-140.9999999999990905
 30
0.0
 11
4597.0
 21
-140.9999999999990905
 31
0.0
1001
ACDBBLOCKREPETAG
1070
     1
1071
       52
1005
12A1E7
  0
LINE
  5
12A1E8
  8
OBJECT
 10
4597.0
 20
-140.9999999999990905
 30
0.0
 11
4597.0
 21
-258.9999999999990905
 31
0.0
1001
ACDBBLOCKREPETAG
1070
     1
1071
       53
1005
12A1E8
  0
LINE
  5
12A1E9
  8
OBJECT
 10
4597.0
 20
-258.9999999999990905
 30
0.0
 11
4633.0
 21
-258.9999999999990905
 31
0.0
1001
ACDBBLOCKREPETAG
1070
     1
1071
       54
1005
12A1E9
  0
LINE
  5
12A1EA
  8
OBJECT
 10
4593.0
 20
-145.4999999999990905
 30
0.0
 11
4586.0
 21
-145.4999999999990905
 31
0.0
1001
ACDBBLOCKREPETAG
1070
     1
1071
       55
1005
12A1EA
  0
LINE
  5
12A1EB
  8
OBJECT
 10
4586.0
 20
-254.4999999999990905
 30
0.0
 11
4593.0
 21
-254.4999999999990905
 31
0.0
1001
ACDBBLOCKREPETAG
1070
     1
1071
       56
1005
12A1EB
  0
LINE
  5
12A1EC
  8
OBJECT
 10
4593.0
 20
-254.4999999999990905
 30
0.0
 11
4593.0
 21
-145.4999999999990905
 31
0.0
1001
ACDBBLOCKREPETAG
1070
     1
1071
       57
1005
12A1EC
  0
LINE
  5
12A1ED
  8
OBJECT
 10
4597.0
 20
-140.9999999999990905
 30
0.0
 11
4593.0
 21
-145.4999999999990905
 31
0.0
1001
ACDBBLOCKREPETAG
1070
     1
1071
       58
1005
12A1ED
  0
LINE
  5
12A1EE
  8
OBJECT
 10
4597.0
 20
-258.9999999999990905
 30
0.0
 11
4593.0
 21
-254.4999999999990905
 31
0.0
1001
ACDBBLOCKREPETAG
1070
     1
1071
       59
1005
12A1EE
  0
LINE
  5
12A1EF
  8
OBJECT
 10
4583.0
 20
-137.9999999999990905
 30
0.0
 11
4580.0
 21
-137.9999999999990905
 31
0.0
1001
ACDBBLOCKREPETAG
1070
     1
1071
       60
1005
12A1EF
  0
ARC
  5
12A1F0
  8
OBJECT
 10
4583.0
 20
-140.9999999999990905
 30
0.0
 40
3.0
 50
0.0
 51
90.0
1001
ACDBBLOCKREPETAG
1070
     1
1071
       61
1005
12A1F0
  0
LINE
  5
12A1F1
  8
OBJECT
 10
4580.0
 20
-261.9999999999990905
 30
0.0
 11
4583.0
 21
-261.9999999999990905
 31
0.0
1001
ACDBBLOCKREPETAG
1070
     1
1071
       62
1005
12A1F1
  0
ARC
  5
12A1F2
  8
OBJECT
 10
4583.0
 20
-258.9999999999990905
 30
0.0
 40
3.0
 50
270.0
 51
0.0
1001
ACDBBLOCKREPETAG
1070
     1
1071
       63
1005
12A1F2
  0
LINE
  5
12A1F3
  8
OBJECT
 10
4586.0
 20
-258.9999999999990905
 30
0.0
 11
4586.0
 21
-140.9999999999990905
 31
0.0
1001
ACDBBLOCKREPETAG
1070
     1
1071
       64
1005
12A1F3
  0
LINE
  5
12A1F4
  8
HIDDEN
 10
4588.0
 20
-155.4999999999990905
 30
0.0
 11
4588.0
 21
-244.4999999999990905
 31
0.0
1001
ACDBBLOCKREPETAG
1070
     1
1071
       65
1005
12A1F4
  0
VIEWPORT
  5
F6BA7
 67
     1
  8
0
 10
195.9179030619629032
 20
101.8328354358672954
 30
0.0
 40
435.1776330165599802
 41
222.1965796813965142
 68
     1
 69
     1
1001
ACAD
1000
MVIEW
1002
{
1070
    16
1010
0.0
1020
0.0
1030
0.0
1010
0.0
1020
0.0
1030
1.0
1040
0.0
1040
222.1965796813965142
1040
195.9179030619629032
1040
101.8328354358672954
1040
50.0
1040
0.0
1040
0.0
1070
     0
1070
     0
1070
     1
1070
     1
1070
     0
1070
     0
1070
     0
1070
     0
1040
0.0
1040
0.0
1040
0.0
1040
10.0
1040
10.0
1040
10.0
1040
10.0
1070
     0
1002
{
1002
}
1002
}
  0
VIEWPORT
  5
F6BA9
 67
     1
  8
OBJECT
 10
145.3303314447402954
 20
101.8328338861465028
 30
0.0
 40
232.5285303115844897
 41
162.9325342178343874
 68
     2
 69
     2
1001
ACAD
1000
MVIEW
1002
{
1070
    16
1010
0.0
1020
0.0
1030
0.0
1010
0.0
1020
0.0
1030
1.0
1040
0.0
1040
25942.5590440314699663
1040
2377.6044570773769919
1040
-7591.5176687056618903
1040
50.0
1040
0.0
1040
0.0
1070
     0
1070
   600
1070
     1
1070
     1
1070
     0
1070
     0
1070
     0
1070
     0
1040
0.0
1040
0.0
1040
0.0
1040
1.0
1040
1.0
1040
0.0
1040
0.0
1070
     0
1002
{
1002
}
1002
}
  0
ENDSEC
  0
EOF
