  0
SECTION
  2
HEADER
  9
$ACADVER
  1
AC1009
  9
$INSBASE
 10
0.0
 20
0.0
 30
0.0
  9
$EXTMIN
 10
0.0
 20
-3817.4999999999959
 30
0.0
  9
$EXTMAX
 10
5575.0
 20
607.5
 30
0.0
  9
$LIMMIN
 10
0.0
 20
0.0
  9
$LIMMAX
 10
210.0
 20
297.0
  9
$ORTHOMODE
 70
     0
  9
$REGENMODE
 70
     1
  9
$FILLMODE
 70
     1
  9
$QTEXTMODE
 70
     0
  9
$MIRRTEXT
 70
     0
  9
$DRAGMODE
 70
     2
  9
$LTSCALE
 40
1.0
  9
$OSMODE
 70
    37
  9
$ATTMODE
 70
     1
  9
$TEXTSIZE
 40
4.0
  9
$TRACEWID
 40
0.05
  9
$TEXTSTYLE
  7
STANDARD
  9
$CLAYER
  8
OBJECT
  9
$CELTYPE
  6
BYLAYER
  9
$CECOLOR
 62
   256
  9
$DIMSCALE
 40
10.0
  9
$DIMASZ
 40
2.0
  9
$DIMEXO
 40
1.0
  9
$DIMDLI
 40
10.0
  9
$DIMRND
 40
0.0
  9
$DIMDLE
 40
0.0
  9
$DIMEXE
 40
1.0
  9
$DIMTP
 40
0.0
  9
$DIMTM
 40
0.0
  9
$DIMTXT
 40
3.2000000000000002
  9
$DIMCEN
 40
0.0
  9
$DIMTSZ
 40
0.0
  9
$DIMTOL
 70
     0
  9
$DIMLIM
 70
     0
  9
$DIMTIH
 70
     0
  9
$DIMTOH
 70
     0
  9
$DIMSE1
 70
     0
  9
$DIMSE2
 70
     0
  9
$DIMTAD
 70
     1
  9
$DIMZIN
 70
     8
  9
$DIMBLK
  1
OPEN30
  9
$DIMASO
 70
     1
  9
$DIMSHO
 70
     1
  9
$DIMPOST
  1

  9
$DIMAPOST
  1

  9
$DIMALT
 70
     0
  9
$DIMALTD
 70
     2
  9
$DIMALTF
 40
25.399999999999999
  9
$DIMLFAC
 40
1.0
  9
$DIMTOFL
 70
     1
  9
$DIMTVP
 40
0.0
  9
$DIMTIX
 70
     0
  9
$DIMSOXD
 70
     0
  9
$DIMSAH
 70
     0
  9
$DIMBLK1
  1

  9
$DIMBLK2
  1

  9
$DIMSTYLE
  2
S10
  9
$DIMCLRD
 70
   256
  9
$DIMCLRE
 70
   256
  9
$DIMCLRT
 70
   256
  9
$DIMTFAC
 40
1.0
  9
$DIMGAP
 40
0.9
  9
$LUNITS
 70
     2
  9
$LUPREC
 70
     2
  9
$SKETCHINC
 40
0.1
  9
$FILLETRAD
 40
0.0
  9
$AUNITS
 70
     0
  9
$AUPREC
 70
     2
  9
$MENU
  1
ACAD
  9
$ELEVATION
 40
0.0
  9
$PELEVATION
 40
0.0
  9
$THICKNESS
 40
0.0
  9
$LIMCHECK
 70
     0
  9
$BLIPMODE
 70
     0
  9
$CHAMFERA
 40
2.0
  9
$CHAMFERB
 40
2.0
  9
$SKPOLY
 70
     0
  9
$TDCREATE
 40
2453095.4929404748
  9
$TDUPDATE
 40
2457602.6515526739
  9
$TDINDWG
 40
18.382042939800002
  9
$TDUSRTIMER
 40
18.382042118099999
  9
$USRTIMER
 70
     1
  9
$ANGBASE
 50
0.0
  9
$ANGDIR
 70
     0
  9
$PDMODE
 70
    35
  9
$PDSIZE
 40
2.0
  9
$PLINEWID
 40
0.0
  9
$COORDS
 70
     1
  9
$SPLFRAME
 70
     0
  9
$SPLINETYPE
 70
     6
  9
$SPLINESEGS
 70
     8
  9
$ATTDIA
 70
     0
  9
$ATTREQ
 70
     1
  9
$HANDLING
 70
     1
  9
$HANDSEED
  5
131B9C
  9
$SURFTAB1
 70
     6
  9
$SURFTAB2
 70
     6
  9
$SURFTYPE
 70
     6
  9
$SURFU
 70
     6
  9
$SURFV
 70
     6
  9
$UCSNAME
  2

  9
$UCSORG
 10
0.0
 20
0.0
 30
0.0
  9
$UCSXDIR
 10
1.0
 20
0.0
 30
0.0
  9
$UCSYDIR
 10
0.0
 20
1.0
 30
0.0
  9
$PUCSNAME
  2

  9
$PUCSORG
 10
0.0
 20
0.0
 30
0.0
  9
$PUCSXDIR
 10
1.0
 20
0.0
 30
0.0
  9
$PUCSYDIR
 10
0.0
 20
1.0
 30
0.0
  9
$USERI1
 70
     0
  9
$USERI2
 70
     0
  9
$USERI3
 70
     0
  9
$USERI4
 70
     0
  9
$USERI5
 70
     0
  9
$USERR1
 40
0.0
  9
$USERR2
 40
0.0
  9
$USERR3
 40
0.0
  9
$USERR4
 40
0.0
  9
$USERR5
 40
0.0
  9
$WORLDVIEW
 70
     1
  9
$SHADEDGE
 70
     3
  9
$SHADEDIF
 70
    70
  9
$TILEMODE
 70
     1
  9
$MAXACTVP
 70
    64
  9
$PLIMCHECK
 70
     0
  9
$PEXTMIN
 10
29.066066288948051
 20
20.366566777229309
 30
0.0
  9
$PEXTMAX
 10
261.5945966005325
 20
183.29910099506381
 30
0.0
  9
$PLIMMIN
 10
-3.17498779296875
 20
-3.1749999523162842
  9
$PLIMMAX
 10
293.83566284179687
 20
206.8406708240509
  9
$UNITMODE
 70
     0
  9
$VISRETAIN
 70
     1
  9
$PLINEGEN
 70
     0
  9
$PSLTSCALE
 70
     1
  0
ENDSEC
  0
SECTION
  2
TABLES
  0
TABLE
  2
VPORT
 70
     1
  0
VPORT
  2
*ACTIVE
 70
     0
 10
0.0
 20
0.0
 11
1.0
 21
1.0
 12
3439.5649870255852
 22
-822.85442516891499
 13
0.0
 23
0.0
 14
1.0
 24
1.0
 15
0.0
 25
0.0
 16
0.0
 26
0.0
 36
1.0
 17
0.0
 27
0.0
 37
0.0
 40
5134.7287183351791
 41
1.6494178525226391
 42
50.0
 43
0.0
 44
0.0
 50
0.0
 51
0.0
 71
     0
 72
   600
 73
     1
 74
     1
 75
     0
 76
     0
 77
     0
 78
     0
  0
ENDTAB
  0
TABLE
  2
LTYPE
 70
     4
  0
LTYPE
  2
CONTINUOUS
 70
     0
  3
Solid line
 72
    65
 73
     0
 40
0.0
  0
LTYPE
  2
PHANTOM2
 70
     0
  3
___ _ _ ___ _ _ ___ _ _ ___ _ _
 72
    65
 73
     6
 40
1.25
 49
0.625
 49
-0.125
 49
0.125
 49
-0.125
 49
0.125
 49
-0.125
  0
LTYPE
  2
ACAD_ISO08W100
 70
     0
  3
ISO long-dash short-dash ____ __ ____ __ ____ _
 72
    65
 73
     4
 40
36.0
 49
24.0
 49
-3.0
 49
6.0
 49
-3.0
  0
LTYPE
  2
ACAD_ISO02W100
 70
     0
  3
ISO dash __ __ __ __ __ __ __ __ __ __ __ __ __
 72
    65
 73
     2
 40
15.0
 49
12.0
 49
-3.0
  0
ENDTAB
  0
TABLE
  2
LAYER
 70
     8
  0
LAYER
  2
0
 70
     0
 62
     7
  6
CONTINUOUS
  0
LAYER
  2
OBJECT
 70
     0
 62
     4
  6
CONTINUOUS
  0
LAYER
  2
DEFPOINTS
 70
     0
 62
     7
  6
CONTINUOUS
  0
LAYER
  2
DIM
 70
     0
 62
     7
  6
CONTINUOUS
  0
LAYER
  2
HIDDEN
 70
     0
 62
     2
  6
ACAD_ISO02W100
  0
LAYER
  2
CENTER
 70
     0
 62
     2
  6
ACAD_ISO08W100
  0
LAYER
  2
DOTS
 70
     0
 62
     1
  6
CONTINUOUS
  0
LAYER
  2
SLIM
 70
     0
 62
     2
  6
CONTINUOUS
  0
ENDTAB
  0
TABLE
  2
STYLE
 70
     2
  0
STYLE
  2
STANDARD
 70
     0
 40
0.0
 41
0.75
 50
0.0
 71
     0
 42
4.0
  3
simplex.shx
  4
bigfont.shx
  0
ENDTAB
  0
TABLE
  2
VIEW
 70
     0
  0
ENDTAB
  0
TABLE
  2
UCS
 70
     0
  0
ENDTAB
  0
TABLE
  2
APPID
 70
    18
  0
APPID
  2
ACAD
 70
     0
  0
APPID
  2
ACADANNOTATIVE
 70
     0
  0
APPID
  2
ACAD_PSEXT
 70
     0
  0
APPID
  2
ACAD_EXEMPT_FROM_CAD_STANDARDS
 70
     0
  0
APPID
  2
ACAECLAYERSTANDARD
 70
     0
  0
APPID
  2
ACAUTHENVIRON
 70
     0
  0
APPID
  2
ACDBDYNAMICBLOCKTRUENAME
 70
     0
  0
APPID
  2
ACDBDYNAMICBLOCKGUID
 70
     0
  0
APPID
  2
ACDBBLOCKREPETAG
 70
     0
  0
APPID
  2
ACDBBLOCKREPBTAG
 70
     0
  0
APPID
  2
ACAD_NAV_VCDISPLAY
 70
     0
  0
APPID
  2
ACAD_DSTYLE_DIMRADIAL_EXTENSION
 70
     0
  0
APPID
  2
ACAD_DSTYLE_DIMJAG
 70
     0
  0
APPID
  2
ACAD_DSTYLE_DIMTALN
 70
     0
  0
APPID
  2
ACADANNOPO
 70
     0
  0
APPID
  2
GRADIENTCOLOR1ACI
 70
     0
  0
APPID
  2
GRADIENTCOLOR2ACI
 70
     0
  0
APPID
  2
ACAD_MLEADERVER
 70
     0
  0
ENDTAB
  0
TABLE
  2
DIMSTYLE
 70
     3
  0
DIMSTYLE
  2
STANDARD
 70
     0
  3

  4

  5

  6

  7

 40
1.0
 41
0.18
 42
0.0625
 43
0.38
 44
0.18
 45
0.0
 46
0.0
 47
0.0
 48
0.0
140
0.18
141
0.09
142
0.0
143
25.399999999999999
144
1.0
145
0.0
146
1.0
147
0.09
 71
     0
 72
     0
 73
     1
 74
     1
 75
     0
 76
     0
 77
     0
 78
     0
170
     0
171
     2
172
     0
173
     0
174
     0
175
     0
176
     0
177
     0
178
     0
  0
DIMSTYLE
  2
S10
 70
     0
  3

  4

  5

  6

  7

 40
10.0
 41
2.0
 42
1.0
 43
10.0
 44
1.0
 45
0.0
 46
0.0
 47
0.0
 48
0.0
140
3.2000000000000002
141
0.0
142
0.0
143
25.399999999999999
144
1.0
145
0.0
146
1.0
147
0.9
 71
     0
 72
     0
 73
     0
 74
     0
 75
     0
 76
     0
 77
     1
 78
     8
170
     0
171
     2
172
     1
173
     0
174
     0
175
     0
176
   256
177
   256
178
   256
  0
ENDTAB
  0
ENDSEC
  0
SECTION
  2
BLOCKS
  0
BLOCK
  8
0
  2
$MODEL_SPACE
 70
     0
 10
0.0
 20
0.0
 30
0.0
  3
$MODEL_SPACE
  1

  0
ENDBLK
  5
131AE4
  8
0
  0
BLOCK
 67
     1
  8
0
  2
$PAPER_SPACE
 70
     0
 10
0.0
 20
0.0
 30
0.0
  3
$PAPER_SPACE
  1

  0
ENDBLK
  5
131AE0
 67
     1
  8
0
  0
BLOCK
  8
0
  2
_OPEN30
 70
     0
 10
0.0
 20
0.0
 30
0.0
  3
_OPEN30
  1

  0
LINE
  5
202
  8
0
  6
BYBLOCK
 62
     0
 10
-1.0
 20
0.26794919
 30
0.0
 11
0.0
 21
0.0
 31
0.0
  0
LINE
  5
203
  8
0
  6
BYBLOCK
 62
     0
 10
0.0
 20
0.0
 30
0.0
 11
-1.0
 21
-0.26794919
 31
0.0
  0
LINE
  5
204
  8
0
  6
BYBLOCK
 62
     0
 10
0.0
 20
0.0
 30
0.0
 11
-1.0
 21
0.0
 31
0.0
  0
ENDBLK
  5
206
  8
0
  0
BLOCK
  8
0
  2
*U6
 70
     1
 10
0.0
 20
0.0
 30
0.0
  3
*U6
  1

  0
TEXT
  5
131A30
  8
DIM
 10
3840.6616440113212
 20
-1042.742857142857
 30
0.0
 40
32.0
  1
m（シンドカット）
 50
90.0
 41
0.75
  0
ENDBLK
  5
131A32
  8
0
  0
BLOCK
  8
0
  2
*U7
 70
     1
 10
0.0
 20
0.0
 30
0.0
  3
*U7
  1

  0
TEXT
  5
131A34
  8
SLIM
 10
465.04761904761767
 20
-764.25000000000352
 30
0.0
 40
26.0
  1
100
  0
ENDBLK
  5
131A36
  8
0
  0
BLOCK
  8
0
  2
*U8
 70
     1
 10
0.0
 20
0.0
 30
0.0
  3
*U8
  1

  0
TEXT
  5
131A38
  8
SLIM
 10
636.09523809523671
 20
-642.00000000000364
 30
0.0
 40
26.0
  1
CO
  0
ENDBLK
  5
131A3A
  8
0
  0
BLOCK
  8
0
  2
*U9
 70
     1
 10
0.0
 20
0.0
 30
0.0
  3
*U9
  1

  0
TEXT
  5
131A3C
  8
SLIM
 10
114.9523809523797
 20
-757.00000000000352
 30
0.0
 40
26.0
  1
75
  0
ENDBLK
  5
131A3E
  8
0
  0
BLOCK
  8
0
  2
*U10
 70
     1
 10
0.0
 20
0.0
 30
0.0
  3
*U10
  1

  0
TEXT
  5
131A40
  8
SLIM
 10
276.09523809523682
 20
-642.00000000000364
 30
0.0
 40
26.0
  1
CO
  0
ENDBLK
  5
131A42
  8
0
  0
BLOCK
  8
0
  2
*U11
 70
     1
 10
0.0
 20
0.0
 30
0.0
  3
*U11
  1

  0
TEXT
  5
131A44
  8
SLIM
 10
474.95238095237971
 20
-293.00000000000369
 30
0.0
 40
26.0
  1
65
  0
ENDBLK
  5
131A46
  8
0
  0
BLOCK
  8
0
  2
*U12
 70
     1
 10
0.0
 20
0.0
 30
0.0
  3
*U12
  1

  0
TEXT
  5
131A48
  8
SLIM
 10
636.09523809523671
 20
-178.0000000000035
 30
0.0
 40
26.0
  1
CO
  0
ENDBLK
  5
131A4A
  8
0
  0
BLOCK
  8
0
  2
*U13
 70
     1
 10
0.0
 20
0.0
 30
0.0
  3
*U13
  1

  0
TEXT
  5
131A4C
  8
SLIM
 10
114.9523809523797
 20
-293.00000000000369
 30
0.0
 40
26.0
  1
50
  0
ENDBLK
  5
131A4E
  8
0
  0
BLOCK
  8
0
  2
*U14
 70
     1
 10
0.0
 20
0.0
 30
0.0
  3
*U14
  1

  0
TEXT
  5
131A50
  8
SLIM
 10
276.09523809523682
 20
-178.0000000000035
 30
0.0
 40
26.0
  1
CO
  0
ENDBLK
  5
131A52
  8
0
  0
BLOCK
  8
0
  2
*U15
 70
     1
 10
0.0
 20
0.0
 30
0.0
  3
*U15
  1

  0
TEXT
  5
131A68
  8
DIM
 10
2209.479620594459
 20
-3304.1428571428528
 30
0.0
 40
32.0
  1
A
 50
90.0
 41
0.75
  0
ENDBLK
  5
131A6A
  8
0
  0
BLOCK
  8
0
  2
*U16
 70
     1
 10
0.0
 20
0.0
 30
0.0
  3
*U16
  1

  0
TEXT
  5
131A6C
  8
DIM
 10
2207.8409284037348
 20
-3685.9999999999959
 30
0.0
 40
32.0
  1
B
 50
90.0
 41
0.75
  0
ENDBLK
  5
131A6E
  8
0
  0
BLOCK
  8
0
  2
*U17
 70
     1
 10
0.0
 20
0.0
 30
0.0
  3
*U17
  1

  0
TEXT
  5
131A70
  8
DIM
 10
2061.428571428572
 20
-3158.208121984444
 30
0.0
 40
32.0
  1
C
 41
0.75
  0
ENDBLK
  5
131A72
  8
0
  0
ENDSEC
  0
SECTION
  2
ENTITIES
  0
LINE
  5
12515F
  8
OBJECT
 10
1825.0
 20
-3699.9999999999959
 30
0.0
 11
5575.0
 21
-3699.9999999999959
 31
0.0
  0
LINE
  5
125161
  8
SLIM
 10
2616.0
 20
-2757.50001604727
 30
0.0
 11
2616.0
 21
-3087.50001604727
 31
0.0
  0
LINE
  5
125162
  8
SLIM
 10
2740.0
 20
-2757.50001604727
 30
0.0
 11
2740.0
 21
-3087.50001604727
 31
0.0
  0
LINE
  5
125163
  8
SLIM
 10
2870.0
 20
-2817.50001604727
 30
0.0
 11
2870.0
 21
-3087.50001604727
 31
0.0
  0
LINE
  5
125164
  8
SLIM
 10
3000.0
 20
-2817.50001604727
 30
0.0
 11
3000.0
 21
-3087.50001604727
 31
0.0
  0
LINE
  5
125165
  8
SLIM
 10
3130.0
 20
-3087.50001604727
 30
0.0
 11
3130.0
 21
-2817.50001604727
 31
0.0
  0
LINE
  5
125166
  8
SLIM
 10
3260.0
 20
-3087.50001604727
 30
0.0
 11
3260.0
 21
-2757.50001604727
 31
0.0
  0
LINE
  5
125167
  8
SLIM
 10
3260.0
 20
-2757.50001604727
 30
0.0
 11
2616.0
 21
-2757.50001604727
 31
0.0
  0
LINE
  5
125168
  8
SLIM
 10
3260.0
 20
-2817.50001604727
 30
0.0
 11
2740.0
 21
-2817.50001604727
 31
0.0
  0
LINE
  5
125169
  8
SLIM
 10
3260.0
 20
-2877.50001604727
 30
0.0
 11
2616.0
 21
-2877.50001604727
 31
0.0
  0
LINE
  5
12516A
  8
SLIM
 10
3260.0
 20
-2947.50001604727
 30
0.0
 11
2616.0
 21
-2947.50001604727
 31
0.0
  0
LINE
  5
12516B
  8
SLIM
 10
3260.0
 20
-3017.50001604727
 30
0.0
 11
2616.0
 21
-3017.50001604727
 31
0.0
  0
LINE
  5
12516C
  8
SLIM
 10
3260.0
 20
-3087.50001604727
 30
0.0
 11
2616.0
 21
-3087.50001604727
 31
0.0
  0
LINE
  5
125181
  8
SLIM
 10
2740.0
 20
-2877.50001604727
 30
0.0
 11
2615.9999722746579
 21
-2757.5
 31
0.0
  0
LINE
  5
1251B6
  8
OBJECT
 10
5323.0
 20
-3515.9999999999968
 30
0.0
 11
5323.0
 21
-3494.9999999999968
 31
0.0
1001
ACDBBLOCKREPETAG
1070
     1
1071
       20
1005
1251B6
  0
LINE
  5
1251B7
  8
OBJECT
 10
5323.0
 20
-3494.9999999999968
 30
0.0
 11
5477.0
 21
-3494.9999999999968
 31
0.0
1001
ACDBBLOCKREPETAG
1070
     1
1071
       21
1005
1251B7
  0
LINE
  5
1251B8
  8
HIDDEN
 10
5343.0
 20
-3564.9999999999968
 30
0.0
 11
5457.0
 21
-3564.9999999999968
 31
0.0
1001
ACDBBLOCKREPETAG
1070
     1
1071
       22
1005
1251B8
  0
LINE
  5
1251B9
  8
OBJECT
 10
5477.0
 20
-3494.9999999999968
 30
0.0
 11
5477.0
 21
-3515.9999999999968
 31
0.0
1001
ACDBBLOCKREPETAG
1070
     1
1071
       23
1005
1251B9
  0
LINE
  5
1251BA
  8
OBJECT
 10
5477.0
 20
-3515.9999999999968
 30
0.0
 11
5323.0
 21
-3515.9999999999968
 31
0.0
1001
ACDBBLOCKREPETAG
1070
     1
1071
       24
1005
1251BA
  0
LINE
  5
1251BB
  8
CENTER
 10
5400.0
 20
-3479.9999999999968
 30
0.0
 11
5400.0
 21
-3714.9999999999968
 31
0.0
1001
ACDBBLOCKREPETAG
1070
     1
1071
       25
1005
1251BB
  0
LINE
  5
1251BC
  8
OBJECT
 10
5325.0
 20
-3578.9999999999968
 30
0.0
 11
5325.0
 21
-3702.9999999999968
 31
0.0
1001
ACDBBLOCKREPETAG
1070
     1
1071
       26
1005
1251BC
  0
LINE
  5
1251BD
  8
OBJECT
 10
5328.0
 20
-3515.9999999999968
 30
0.0
 11
5328.0
 21
-3578.9999999999968
 31
0.0
1001
ACDBBLOCKREPETAG
1070
     1
1071
       27
1005
1251BD
  0
LINE
  5
1251BE
  8
OBJECT
 10
5472.0
 20
-3578.9999999999968
 30
0.0
 11
5472.0
 21
-3515.9999999999968
 31
0.0
1001
ACDBBLOCKREPETAG
1070
     1
1071
       28
1005
1251BE
  0
LINE
  5
1251BF
  8
OBJECT
 10
5475.0
 20
-3578.9999999999968
 30
0.0
 11
5456.7802782663139
 21
-3578.9999999999968
 31
0.0
1001
ACDBBLOCKREPETAG
1070
     1
1071
       30
1005
1251BF
  0
LINE
  5
1251C0
  8
OBJECT
 10
5475.0
 20
-3578.9999999999968
 30
0.0
 11
5475.0
 21
-3702.9999999999968
 31
0.0
1001
ACDBBLOCKREPETAG
1070
     1
1071
       34
1005
1251C0
  0
POINT
  5
1251C1
  8
DOTS
 10
5400.0
 20
-3699.9999999999968
 30
0.0
1001
ACDBBLOCKREPETAG
1070
     1
1071
      187
1005
1251C1
  0
LINE
  5
1251C2
  8
CENTER
 10
5310.0
 20
-3627.9999999999968
 30
0.0
 11
5490.0
 21
-3627.9999999999968
 31
0.0
1001
ACDBBLOCKREPETAG
1070
     1
1071
       23
1005
1251C2
  0
CIRCLE
  5
1251C3
  8
OBJECT
 10
5400.0
 20
-3627.9999999999968
 30
0.0
 40
53.5
1001
ACDBBLOCKREPETAG
1070
     1
1071
       24
1005
1251C3
  0
CIRCLE
  5
1251C4
  8
OBJECT
 10
5400.0
 20
-3627.9999999999968
 30
0.0
 40
67.0
1001
ACDBBLOCKREPETAG
1070
     1
1071
       25
1005
1251C4
  0
ARC
  5
1251C5
  8
OBJECT
 10
5400.0
 20
-3627.9999999999968
 30
0.0
 40
75.0
 50
286.26020470824369
 51
253.73979529175631
1001
ACDBBLOCKREPETAG
1070
     1
1071
       27
1005
1251C5
  0
LINE
  5
1251C6
  8
OBJECT
 10
5379.0
 20
-3699.9999999999968
 30
0.0
 11
5421.0
 21
-3699.9999999999968
 31
0.0
1001
ACDBBLOCKREPETAG
1070
     1
1071
       28
1005
1251C6
  0
LINE
  5
1251C7
  8
OBJECT
 10
5343.2197217336861
 20
-3578.9999999999968
 30
0.0
 11
5325.0
 21
-3578.9999999999968
 31
0.0
1001
ACDBBLOCKREPETAG
1070
     1
1071
       30
1005
1251BF
  0
TEXT
  5
12CC49
  8
SLIM
 10
-0.0000000000000011
 20
282.5
 30
0.0
 40
35.0
  1
※ 100枝（4）がある場合、品名の最後に【管底】が付きます。
 41
0.9
 11
0.0
 21
300.0
 31
0.0
 73
     2
  0
TEXT
  5
12FFD2
  8
SLIM
 10
62.571428571431007
 20
-444.00000000000358
 30
0.0
 40
48.0
  1
CO-A0P1
 41
0.75
 72
     4
 11
180.00000000000239
 21
-420.00000000000358
 31
0.0
  0
TEXT
  5
12FFD3
  8
SLIM
 10
414.85714285714522
 20
-444.00000000000358
 30
0.0
 40
48.0
  1
CO-A0P2
 41
0.75
 72
     4
 11
540.00000000000239
 21
-420.00000000000358
 31
0.0
  0
TEXT
  5
12FFD4
  8
SLIM
 10
54.857142857145291
 20
-908.00000000000375
 30
0.0
 40
48.0
  1
CO-A0P3
 41
0.75
 72
     4
 11
180.00000000000239
 21
-884.00000000000375
 31
0.0
  0
TEXT
  5
12FFD5
  8
SLIM
 10
414.00000000000227
 20
-908.00000000000375
 30
0.0
 40
48.0
  1
CO-A0P4
 41
0.75
 72
     4
 11
540.00000000000239
 21
-884.00000000000375
 31
0.0
  0
LINE
  5
1311DE
  8
SLIM
 10
4350.0
 20
-479.99999999999687
 30
0.0
 11
4350.0
 21
-1199.999999999997
 31
0.0
  0
LINE
  5
1311DF
  8
SLIM
 10
4454.0
 20
-1199.999999999997
 30
0.0
 11
4454.0
 21
-479.99999999999687
 31
0.0
  0
LINE
  5
1311E0
  8
SLIM
 10
4602.0
 20
-479.99999999999687
 30
0.0
 11
4350.0
 21
-479.99999999999687
 31
0.0
  0
LINE
  5
1311E1
  8
SLIM
 10
4602.0
 20
-527.99999999999693
 30
0.0
 11
4350.0
 21
-527.99999999999693
 31
0.0
  0
LINE
  5
1311E3
  8
SLIM
 10
4602.0
 20
-575.99999999999704
 30
0.0
 11
4350.0
 21
-575.99999999999704
 31
0.0
  0
LINE
  5
1311E4
  8
SLIM
 10
4602.0
 20
-623.99999999999704
 30
0.0
 11
4350.0
 21
-623.99999999999704
 31
0.0
  0
LINE
  5
1311E5
  8
SLIM
 10
4602.0
 20
-671.99999999999704
 30
0.0
 11
4350.0
 21
-671.99999999999704
 31
0.0
  0
LINE
  5
1311E9
  8
SLIM
 10
4602.0
 20
-719.99999999999693
 30
0.0
 11
4350.0
 21
-719.99999999999693
 31
0.0
  0
LINE
  5
1311EB
  8
SLIM
 10
4602.0
 20
-767.99999999999693
 30
0.0
 11
4350.0
 21
-767.99999999999693
 31
0.0
  0
LINE
  5
1311ED
  8
SLIM
 10
4602.0
 20
-815.99999999999693
 30
0.0
 11
4350.0
 21
-815.99999999999693
 31
0.0
  0
LINE
  5
1311EF
  8
SLIM
 10
4602.0
 20
-863.99999999999704
 30
0.0
 11
4350.0
 21
-863.99999999999704
 31
0.0
  0
LINE
  5
1311F1
  8
SLIM
 10
4602.0
 20
-911.99999999999693
 30
0.0
 11
4350.0
 21
-911.99999999999693
 31
0.0
  0
LINE
  5
1311F3
  8
SLIM
 10
4602.0
 20
-959.99999999999693
 30
0.0
 11
4350.0
 21
-959.99999999999693
 31
0.0
  0
LINE
  5
1311F5
  8
SLIM
 10
4602.0
 20
-1007.999999999997
 30
0.0
 11
4350.0
 21
-1007.999999999997
 31
0.0
  0
LINE
  5
1311F7
  8
SLIM
 10
4602.0
 20
-1055.999999999997
 30
0.0
 11
4350.0
 21
-1055.999999999997
 31
0.0
  0
LINE
  5
1311F9
  8
SLIM
 10
4602.0
 20
-1103.999999999997
 30
0.0
 11
4350.0
 21
-1103.999999999997
 31
0.0
  0
LINE
  5
1311FB
  8
SLIM
 10
4602.0
 20
-1151.999999999997
 30
0.0
 11
4350.0
 21
-1151.999999999997
 31
0.0
  0
LINE
  5
1311FD
  8
SLIM
 10
4602.0
 20
-1199.999999999997
 30
0.0
 11
4350.0
 21
-1199.999999999997
 31
0.0
  0
LINE
  5
131200
  8
SLIM
 10
4602.0
 20
-479.99999999999687
 30
0.0
 11
4602.0
 21
-1199.999999999997
 31
0.0
  0
TEXT
  5
1315F8
  8
SLIM
 10
3554.6000000000008
 20
-1535.6666666666649
 30
0.0
 40
28.0
  1
※ 対応スラブ厚　180～（m-10）
 41
0.75
  0
TEXT
  5
1315F9
  8
SLIM
 10
3554.6000000000008
 20
-1582.3333333333319
 30
0.0
 40
28.0
  1
※ 足切り可能寸法（最大）　330-m（コンパクトＬベンド使用なら+20）
 41
0.75
  0
TEXT
  5
1315FA
  8
SLIM
 10
3598.9000000000001
 20
-1675.666666666664
 30
0.0
 40
28.0
  1
国土交通大臣認定・（一財）日本消防設備安全センター性能評定取得品
 41
0.75
  0
TEXT
  5
1315FB
  8
SLIM
 10
3631.1000000000022
 20
-1722.3333333333319
 30
0.0
 40
28.0
  1
注）ご採用にあたり、認定書及び評定書の内容をご確認ください。
 41
0.75
  0
TEXT
  5
1315FC
  8
SLIM
 10
4470.057142857142
 20
-1187.999999999997
 30
0.0
 40
24.0
  1
180～320
 41
0.75
  0
TEXT
  5
1315FD
  8
SLIM
 10
4471.7714285714283
 20
-1139.999999999997
 30
0.0
 40
24.0
  1
180～310
 41
0.75
  0
TEXT
  5
1315FE
  8
SLIM
 10
4470.057142857142
 20
-1091.999999999997
 30
0.0
 40
24.0
  1
180～300
 41
0.75
  0
TEXT
  5
1315FF
  8
SLIM
 10
4470.057142857142
 20
-1043.999999999997
 30
0.0
 40
24.0
  1
180～290
 41
0.75
  0
TEXT
  5
131600
  8
SLIM
 10
4470.057142857142
 20
-995.99999999999682
 30
0.0
 40
24.0
  1
180～280
 41
0.75
  0
TEXT
  5
131601
  8
SLIM
 10
4470.057142857142
 20
-947.99999999999704
 30
0.0
 40
24.0
  1
180～270
 41
0.75
  0
TEXT
  5
131602
  8
SLIM
 10
4470.057142857142
 20
-899.99999999999693
 30
0.0
 40
24.0
  1
180～260
 41
0.75
  0
TEXT
  5
131603
  8
SLIM
 10
4470.057142857142
 20
-851.99999999999693
 30
0.0
 40
24.0
  1
180～250
 41
0.75
  0
TEXT
  5
131604
  8
SLIM
 10
4470.057142857142
 20
-803.99999999999682
 30
0.0
 40
24.0
  1
180～240
 41
0.75
  0
TEXT
  5
131605
  8
SLIM
 10
4470.057142857142
 20
-755.99999999999693
 30
0.0
 40
24.0
  1
180～230
 41
0.75
  0
TEXT
  5
131606
  8
SLIM
 10
4470.057142857142
 20
-707.99999999999693
 30
0.0
 40
24.0
  1
180～220
 41
0.75
  0
TEXT
  5
131607
  8
SLIM
 10
4471.7714285714283
 20
-659.99999999999704
 30
0.0
 40
24.0
  1
180～210
 41
0.75
  0
TEXT
  5
131608
  8
SLIM
 10
4470.057142857142
 20
-611.99999999999704
 30
0.0
 40
24.0
  1
180～200
 41
0.75
  0
TEXT
  5
131609
  8
SLIM
 10
4471.7714285714283
 20
-563.99999999999704
 30
0.0
 40
24.0
  1
180～190
 41
0.75
  0
TEXT
  5
13160A
  8
SLIM
 10
4465.6000000000013
 20
-515.99999999999693
 30
0.0
 40
24.0
  1
対応スラブ厚
 41
0.75
  0
TEXT
  5
13160B
  8
SLIM
 10
4396.4571428571408
 20
-1245.999999999997
 30
0.0
 40
24.0
  1
標準：m=330
 41
0.75
  0
TEXT
  5
13160C
  8
SLIM
 10
4378.8571428571431
 20
-1187.999999999997
 30
0.0
 40
24.0
  1
330
 41
0.75
  0
TEXT
  5
13160D
  8
SLIM
 10
4378.8571428571431
 20
-1139.999999999997
 30
0.0
 40
24.0
  1
320
 41
0.75
  0
TEXT
  5
13160E
  8
SLIM
 10
4380.5714285714284
 20
-1091.999999999997
 30
0.0
 40
24.0
  1
310
 41
0.75
  0
TEXT
  5
13160F
  8
SLIM
 10
4378.8571428571431
 20
-1043.999999999997
 30
0.0
 40
24.0
  1
300
 41
0.75
  0
TEXT
  5
131610
  8
SLIM
 10
4378.8571428571431
 20
-995.99999999999682
 30
0.0
 40
24.0
  1
290
 41
0.75
  0
TEXT
  5
131611
  8
SLIM
 10
4378.8571428571431
 20
-947.99999999999704
 30
0.0
 40
24.0
  1
280
 41
0.75
  0
TEXT
  5
131612
  8
SLIM
 10
4378.8571428571431
 20
-899.99999999999693
 30
0.0
 40
24.0
  1
270
 41
0.75
  0
TEXT
  5
131613
  8
SLIM
 10
4378.8571428571431
 20
-851.99999999999693
 30
0.0
 40
24.0
  1
260
 41
0.75
  0
TEXT
  5
131614
  8
SLIM
 10
4378.8571428571431
 20
-803.99999999999682
 30
0.0
 40
24.0
  1
250
 41
0.75
  0
TEXT
  5
131615
  8
SLIM
 10
4378.8571428571431
 20
-755.99999999999693
 30
0.0
 40
24.0
  1
240
 41
0.75
  0
TEXT
  5
131616
  8
SLIM
 10
4378.8571428571431
 20
-707.99999999999693
 30
0.0
 40
24.0
  1
230
 41
0.75
  0
TEXT
  5
131617
  8
SLIM
 10
4378.8571428571431
 20
-659.99999999999704
 30
0.0
 40
24.0
  1
220
 41
0.75
  0
TEXT
  5
131618
  8
SLIM
 10
4380.5714285714284
 20
-611.99999999999704
 30
0.0
 40
24.0
  1
210
 41
0.75
  0
TEXT
  5
131619
  8
SLIM
 10
4369.9428571428571
 20
-515.99999999999693
 30
0.0
 40
24.0
  1
m寸法
 41
0.75
  0
TEXT
  5
13161A
  8
SLIM
 10
4378.8571428571431
 20
-563.99999999999704
 30
0.0
 40
24.0
  1
200
 41
0.75
  0
LINE
  5
13161B
  8
DIM
 10
3904.9999999999941
 20
-755.00000000000102
 30
0.0
 11
3839.6616440113221
 21
-755.00000000000102
 31
0.0
  0
LINE
  5
13161C
  8
DIM
 10
3910.0
 20
-1085.0
 30
0.0
 11
3839.6616440113221
 21
-1085.0
 31
0.0
  0
LINE
  5
13161D
  8
DIM
 10
3849.6616440113221
 20
-775.00000000000102
 30
0.0
 11
3849.6616440113221
 21
-1065.0000000000009
 31
0.0
  0
INSERT
  5
13161E
  8
DIM
  2
_OPEN30
 10
3849.6616440113221
 20
-755.00000000000102
 30
0.0
 41
20.0
 42
20.0
 43
20.0
 50
90.0
  0
INSERT
  5
13161F
  8
DIM
  2
_OPEN30
 10
3849.6616440113221
 20
-1085.0
 30
0.0
 41
20.0
 42
20.0
 43
20.0
 50
270.0
  0
INSERT
  5
131620
  8
OBJECT
  2
*U6
 10
0.0
 20
0.0
 30
0.0
  0
TEXT
  5
131621
  8
SLIM
 10
1850.0
 20
532.5
 30
0.0
 40
75.0
  1
側面図の代表機種
 41
0.75
  0
LINE
  5
131622
  8
SLIM
 10
3945.2566704261012
 20
-137.99999999999909
 30
0.0
 11
3955.9548403695781
 21
-127.30183005652231
 31
0.0
1001
GRADIENTCOLOR1ACI
1070
     5
1001
GRADIENTCOLOR2ACI
1070
     2
1001
ACAD
1010
0.0
1020
0.0
1030
0.0
1001
ACDBBLOCKREPETAG
1070
     1
1071
      422
1005
131622
  0
LINE
  5
131623
  8
SLIM
 10
3954.2369265471712
 20
-137.99999999999909
 30
0.0
 11
3972.7507744763329
 21
-119.4861520708364
 31
0.0
1001
GRADIENTCOLOR1ACI
1070
     5
1001
GRADIENTCOLOR2ACI
1070
     2
1001
ACAD
1010
0.0
1020
0.0
1030
0.0
1001
ACDBBLOCKREPETAG
1070
     1
1071
      423
1005
131623
  0
LINE
  5
131624
  8
SLIM
 10
3973.521224312457
 20
-127.6959583557812
 30
0.0
 11
3984.8575146748631
 21
-116.359667993377
 31
0.0
1001
GRADIENTCOLOR1ACI
1070
     5
1001
GRADIENTCOLOR2ACI
1070
     2
1001
ACAD
1010
0.0
1020
0.0
1030
0.0
1001
ACDBBLOCKREPETAG
1070
     1
1071
      424
1005
131624
  0
LINE
  5
131625
  8
SLIM
 10
3985.8944171461271
 20
-124.30302164318159
 30
0.0
 11
3995.0533812002559
 21
-115.1440575890517
 31
0.0
1001
GRADIENTCOLOR1ACI
1070
     5
1001
GRADIENTCOLOR2ACI
1070
     2
1001
ACAD
1010
0.0
1020
0.0
1030
0.0
1001
ACDBBLOCKREPETAG
1070
     1
1071
      425
1005
131625
  0
LINE
  5
131626
  8
SLIM
 10
3996.0777327492078
 20
-123.0999621611699
 30
0.0
 11
4000.0
 21
-119.1776949103767
 31
0.0
1001
GRADIENTCOLOR1ACI
1070
     5
1001
GRADIENTCOLOR2ACI
1070
     2
1001
ACAD
1010
0.0
1020
0.0
1030
0.0
1001
ACDBBLOCKREPETAG
1070
     1
1071
      426
1005
131626
  0
LINE
  5
131627
  8
SLIM
 10
4000.0
 20
-119.1776949103767
 30
0.0
 11
4004.0797313529042
 21
-115.0979635574724
 31
0.0
1001
GRADIENTCOLOR1ACI
1070
     5
1001
GRADIENTCOLOR2ACI
1070
     2
1001
ACAD
1010
0.0
1020
0.0
1030
0.0
1001
ACDBBLOCKREPETAG
1070
     1
1071
      427
1005
131627
  0
LINE
  5
131628
  8
SLIM
 10
4004.9957202542769
 20
-123.1622307771683
 30
0.0
 11
4012.2679784105749
 21
-115.88997262087101
 31
0.0
1001
GRADIENTCOLOR1ACI
1070
     5
1001
GRADIENTCOLOR2ACI
1070
     2
1001
ACAD
1010
0.0
1020
0.0
1030
0.0
1001
ACDBBLOCKREPETAG
1070
     1
1071
      428
1005
131628
  0
LINE
  5
131629
  8
SLIM
 10
4013.028059366964
 20
-124.1101477855505
 30
0.0
 11
4019.799941457361
 21
-117.3382656951526
 31
0.0
1001
GRADIENTCOLOR1ACI
1070
     5
1001
GRADIENTCOLOR2ACI
1070
     2
1001
ACAD
1010
0.0
1020
0.0
1030
0.0
1001
ACDBBLOCKREPETAG
1070
     1
1071
      429
1005
131629
  0
LINE
  5
13162A
  8
SLIM
 10
4020.3740813142458
 20
-125.7443819593383
 30
0.0
 11
4026.7872038672799
 21
-119.3312594063044
 31
0.0
1001
GRADIENTCOLOR1ACI
1070
     5
1001
GRADIENTCOLOR2ACI
1070
     2
1001
ACAD
1010
0.0
1020
0.0
1030
0.0
1001
ACDBBLOCKREPETAG
1070
     1
1071
      430
1005
13162A
  0
LINE
  5
13162B
  8
SLIM
 10
4027.1524719988752
 20
-127.946247395778
 30
0.0
 11
4033.3030030760328
 21
-121.7957163186195
 31
0.0
1001
GRADIENTCOLOR1ACI
1070
     5
1001
GRADIENTCOLOR2ACI
1070
     2
1001
ACAD
1010
0.0
1020
0.0
1030
0.0
1001
ACDBBLOCKREPETAG
1070
     1
1071
      431
1005
13162B
  0
LINE
  5
13162C
  8
SLIM
 10
4033.4390986513308
 20
-130.63987686439191
 30
0.0
 11
4039.3973119843781
 21
-124.6816635313439
 31
0.0
1001
GRADIENTCOLOR1ACI
1070
     5
1001
GRADIENTCOLOR2ACI
1070
     2
1001
ACAD
1010
0.0
1020
0.0
1030
0.0
1001
ACDBBLOCKREPETAG
1070
     1
1071
      432
1005
13162C
  0
LINE
  5
13162D
  8
SLIM
 10
4039.284224621797
 20
-133.77500701499321
 30
0.0
 11
4045.1047705343681
 21
-127.95446110242381
 31
0.0
1001
GRADIENTCOLOR1ACI
1070
     5
1001
GRADIENTCOLOR2ACI
1070
     2
1001
ACAD
1010
0.0
1020
0.0
1030
0.0
1001
ACDBBLOCKREPETAG
1070
     1
1071
      433
1005
13162D
  0
LINE
  5
13162E
  8
SLIM
 10
4044.7212801698038
 20
-137.31820758805651
 30
0.0
 11
4050.4491557891961
 21
-131.59033196866449
 31
0.0
1001
GRADIENTCOLOR1ACI
1070
     5
1001
GRADIENTCOLOR2ACI
1070
     2
1001
ACAD
1010
0.0
1020
0.0
1030
0.0
1001
ACDBBLOCKREPETAG
1070
     1
1071
      434
1005
13162E
  0
LINE
  5
13162F
  8
SLIM
 10
4053.0197438789291
 20
-137.99999999999909
 30
0.0
 11
4055.4459941864038
 21
-135.57374969252561
 31
0.0
1001
GRADIENTCOLOR1ACI
1070
     5
1001
GRADIENTCOLOR2ACI
1070
     2
1001
ACAD
1010
0.0
1020
0.0
1030
0.0
1001
ACDBBLOCKREPETAG
1070
     1
1071
      435
1005
13162F
  0
LINE
  5
131630
  8
CENTER
 10
4000.0
 20
-279.99999999999909
 30
0.0
 11
4000.0
 21
-99.999999999999091
 31
0.0
1001
ACDBBLOCKREPETAG
1070
     1
1071
      160
1005
131630
  0
CIRCLE
  5
131631
  8
OBJECT
 10
4000.0
 20
-199.99999999999909
 30
0.0
 40
70.0
1001
ACDBBLOCKREPETAG
1070
     1
1071
      161
1005
131631
  0
CIRCLE
  5
131632
  8
OBJECT
 10
4000.0
 20
-199.99999999999909
 30
0.0
 40
77.0
1001
ACDBBLOCKREPETAG
1070
     1
1071
      162
1005
131632
  0
LINE
  5
131633
  8
OBJECT
 10
4045.661800227324
 20
-137.99999999999909
 30
0.0
 11
4080.0
 21
-137.99999999999909
 31
0.0
1001
ACDBBLOCKREPETAG
1070
     1
1071
      164
1005
131633
  0
LINE
  5
131634
  8
OBJECT
 10
4062.0
 20
-261.99999999999909
 30
0.0
 11
4080.0
 21
-261.99999999999909
 31
0.0
1001
ACDBBLOCKREPETAG
1070
     1
1071
      165
1005
131634
  0
LINE
  5
131635
  8
OBJECT
 10
4062.0
 20
-261.99999999999909
 30
0.0
 11
4062.0
 21
-279.99999999999909
 31
0.0
1001
ACDBBLOCKREPETAG
1070
     1
1071
      167
1005
131635
  0
LINE
  5
131636
  8
OBJECT
 10
3938.0
 20
-261.99999999999909
 30
0.0
 11
3938.0
 21
-279.99999999999909
 31
0.0
1001
ACDBBLOCKREPETAG
1070
     1
1071
      168
1005
131636
  0
LINE
  5
131637
  8
OBJECT
 10
3938.0
 20
-261.99999999999909
 30
0.0
 11
3920.0
 21
-261.99999999999909
 31
0.0
1001
ACDBBLOCKREPETAG
1070
     1
1071
      170
1005
131637
  0
LINE
  5
131638
  8
OBJECT
 10
3954.338199772676
 20
-137.99999999999909
 30
0.0
 11
3920.0
 21
-137.99999999999909
 31
0.0
1001
ACDBBLOCKREPETAG
1070
     1
1071
      171
1005
131638
  0
LINE
  5
131639
  8
OBJECT
 10
3945.5527778486362
 20
-254.44722215136329
 30
0.0
 11
3938.0
 21
-261.99999999999909
 31
0.0
1001
ACDBBLOCKREPETAG
1070
     1
1071
      180
1005
131639
  0
LINE
  5
13163A
  8
OBJECT
 10
4054.4472221513638
 20
-254.44722215136329
 30
0.0
 11
4062.0
 21
-261.99999999999909
 31
0.0
1001
ACDBBLOCKREPETAG
1070
     1
1071
      181
1005
13163A
  0
POINT
  5
13163B
  8
DOTS
 10
4000.0
 20
-199.99999999999909
 30
0.0
 50
270.0
1001
ACDBBLOCKREPETAG
1070
     1
1071
      182
1005
13163B
  0
ARC
  5
13163C
  8
OBJECT
 10
4000.0
 20
-199.99999999999909
 30
0.0
 40
85.0
 50
46.837102859806208
 51
133.16289714019371
1001
ACDBBLOCKREPETAG
1070
     1
1071
      183
1005
13163C
  0
CIRCLE
  5
13163D
  8
OBJECT
 10
4000.0
 20
-199.99999999999909
 30
0.0
 40
53.5
1001
ACDBBLOCKREPETAG
1070
     1
1071
      352
1005
13163D
  0
LINE
  5
13163E
  8
CENTER
 10
4080.0
 20
-199.99999999999909
 30
0.0
 11
3920.0
 21
-199.99999999999909
 31
0.0
1001
ACDBBLOCKREPETAG
1070
     1
1071
      158
1005
13163E
  0
LINE
  5
13163F
  8
OBJECT
 10
3867.0
 20
-261.99999999999909
 30
0.0
 11
3860.0
 21
-261.99999999999909
 31
0.0
1001
ACDBBLOCKREPETAG
1070
     1
1071
       47
1005
13163F
  0
LINE
  5
131640
  8
OBJECT
 10
3860.0
 20
-261.99999999999909
 30
0.0
 11
3860.0
 21
-137.99999999999909
 31
0.0
1001
ACDBBLOCKREPETAG
1070
     1
1071
       48
1005
131640
  0
LINE
  5
131641
  8
OBJECT
 10
3860.0
 20
-137.99999999999909
 30
0.0
 11
3867.0
 21
-137.99999999999909
 31
0.0
1001
ACDBBLOCKREPETAG
1070
     1
1071
       49
1005
131641
  0
LINE
  5
131642
  8
OBJECT
 10
3867.0
 20
-137.99999999999909
 30
0.0
 11
3867.0
 21
-261.99999999999909
 31
0.0
1001
ACDBBLOCKREPETAG
1070
     1
1071
       50
1005
131642
  0
LINE
  5
131643
  8
CENTER
 10
3845.0
 20
-199.99999999999909
 30
0.0
 11
3920.0
 21
-199.99999999999909
 31
0.0
1001
ACDBBLOCKREPETAG
1070
     1
1071
       51
1005
131643
  0
LINE
  5
131644
  8
OBJECT
 10
3867.0
 20
-258.99999999999909
 30
0.0
 11
3903.0
 21
-258.99999999999909
 31
0.0
1001
ACDBBLOCKREPETAG
1070
     1
1071
       52
1005
131644
  0
LINE
  5
131645
  8
OBJECT
 10
3903.0
 20
-258.99999999999909
 30
0.0
 11
3903.0
 21
-140.99999999999909
 31
0.0
1001
ACDBBLOCKREPETAG
1070
     1
1071
       53
1005
131645
  0
LINE
  5
131646
  8
OBJECT
 10
3903.0
 20
-140.99999999999909
 30
0.0
 11
3867.0
 21
-140.99999999999909
 31
0.0
1001
ACDBBLOCKREPETAG
1070
     1
1071
       54
1005
131646
  0
LINE
  5
131647
  8
OBJECT
 10
3907.0
 20
-254.49999999999909
 30
0.0
 11
3914.0
 21
-254.49999999999909
 31
0.0
1001
ACDBBLOCKREPETAG
1070
     1
1071
       55
1005
131647
  0
LINE
  5
131648
  8
OBJECT
 10
3914.0
 20
-145.49999999999909
 30
0.0
 11
3907.0
 21
-145.49999999999909
 31
0.0
1001
ACDBBLOCKREPETAG
1070
     1
1071
       56
1005
131648
  0
LINE
  5
131649
  8
OBJECT
 10
3907.0
 20
-145.49999999999909
 30
0.0
 11
3907.0
 21
-254.49999999999909
 31
0.0
1001
ACDBBLOCKREPETAG
1070
     1
1071
       57
1005
131649
  0
LINE
  5
13164A
  8
OBJECT
 10
3903.0
 20
-258.99999999999909
 30
0.0
 11
3907.0
 21
-254.49999999999909
 31
0.0
1001
ACDBBLOCKREPETAG
1070
     1
1071
       58
1005
13164A
  0
LINE
  5
13164B
  8
OBJECT
 10
3903.0
 20
-140.99999999999909
 30
0.0
 11
3907.0
 21
-145.49999999999909
 31
0.0
1001
ACDBBLOCKREPETAG
1070
     1
1071
       59
1005
13164B
  0
LINE
  5
13164C
  8
OBJECT
 10
3917.0
 20
-261.99999999999909
 30
0.0
 11
3920.0
 21
-261.99999999999909
 31
0.0
1001
ACDBBLOCKREPETAG
1070
     1
1071
       60
1005
13164C
  0
ARC
  5
13164D
  8
OBJECT
 10
3917.0
 20
-258.99999999999909
 30
0.0
 40
3.0
 50
180.0
 51
270.0
1001
ACDBBLOCKREPETAG
1070
     1
1071
       61
1005
13164D
  0
LINE
  5
13164E
  8
OBJECT
 10
3920.0
 20
-137.99999999999909
 30
0.0
 11
3917.0
 21
-137.99999999999909
 31
0.0
1001
ACDBBLOCKREPETAG
1070
     1
1071
       62
1005
13164E
  0
ARC
  5
13164F
  8
OBJECT
 10
3917.0
 20
-140.99999999999909
 30
0.0
 40
3.0
 50
90.0
 51
180.0
1001
ACDBBLOCKREPETAG
1070
     1
1071
       63
1005
13164F
  0
LINE
  5
131650
  8
OBJECT
 10
3914.0
 20
-140.99999999999909
 30
0.0
 11
3914.0
 21
-258.99999999999909
 31
0.0
1001
ACDBBLOCKREPETAG
1070
     1
1071
       64
1005
131650
  0
LINE
  5
131651
  8
HIDDEN
 10
3912.0
 20
-244.49999999999909
 30
0.0
 11
3912.0
 21
-155.49999999999909
 31
0.0
1001
ACDBBLOCKREPETAG
1070
     1
1071
       65
1005
131651
  0
LINE
  5
131652
  8
CENTER
 10
4000.0
 20
-279.99999999999909
 30
0.0
 11
4000.0
 21
-334.99999999999898
 31
0.0
1001
ACDBBLOCKREPETAG
1070
     1
1071
      352
1005
131652
  0
LINE
  5
131653
  8
OBJECT
 10
4059.0
 20
-285.99999999999898
 30
0.0
 11
3941.0
 21
-285.99999999999898
 31
0.0
1001
ACDBBLOCKREPETAG
1070
     1
1071
      353
1005
131653
  0
LINE
  5
131654
  8
OBJECT
 10
3955.5
 20
-309.99999999999898
 30
0.0
 11
4044.5
 21
-309.99999999999898
 31
0.0
1001
ACDBBLOCKREPETAG
1070
     1
1071
      354
1005
131654
  0
LINE
  5
131655
  8
OBJECT
 10
3955.5
 20
-309.99999999999898
 30
0.0
 11
3955.5
 21
-285.99999999999898
 31
0.0
1001
ACDBBLOCKREPETAG
1070
     1
1071
      355
1005
131655
  0
LINE
  5
131656
  8
OBJECT
 10
3938.0
 20
-279.99999999999909
 30
0.0
 11
3938.0
 21
-282.99999999999898
 31
0.0
1001
ACDBBLOCKREPETAG
1070
     1
1071
      356
1005
131656
  0
ARC
  5
131657
  8
OBJECT
 10
3941.0
 20
-282.99999999999898
 30
0.0
 40
3.0
 50
180.0
 51
270.0
1001
ACDBBLOCKREPETAG
1070
     1
1071
      357
1005
131657
  0
LINE
  5
131658
  8
OBJECT
 10
4017.8220659999988
 20
-309.99999999999898
 30
0.0
 11
4022.1031819999989
 21
-313.83118899999948
 31
0.0
1001
ACDBBLOCKREPETAG
1070
     1
1071
      358
1005
131658
  0
ARC
  5
131659
  8
OBJECT
 10
4017.0
 20
-319.99999999999898
 30
0.0
 40
8.0
 50
251.8416470000376
 51
50.402247000150382
1001
ACDBBLOCKREPETAG
1070
     1
1071
      359
1005
131659
  0
ARC
  5
13165A
  8
OBJECT
 10
4016.0650669999982
 20
-322.8505969999996
 30
0.0
 40
5.0
 50
198.48486899996581
 51
251.8416470000376
1001
ACDBBLOCKREPETAG
1070
     1
1071
      360
1005
13165A
  0
LINE
  5
13165B
  8
OBJECT
 10
4005.0
 20
-319.99999999999898
 30
0.0
 11
4005.0
 21
-312.99999999999909
 31
0.0
1001
ACDBBLOCKREPETAG
1070
     1
1071
      361
1005
13165B
  0
LINE
  5
13165C
  8
OBJECT
 10
3995.0
 20
-319.99999999999898
 30
0.0
 11
3995.0
 21
-312.99999999999909
 31
0.0
1001
ACDBBLOCKREPETAG
1070
     1
1071
      362
1005
13165C
  0
LINE
  5
13165D
  8
OBJECT
 10
4005.0
 20
-319.99999999999898
 30
0.0
 11
3995.0
 21
-319.99999999999898
 31
0.0
1001
ACDBBLOCKREPETAG
1070
     1
1071
      363
1005
13165D
  0
LINE
  5
13165E
  8
OBJECT
 10
4007.5
 20
-312.99999999999909
 30
0.0
 11
3992.5000000000009
 21
-312.99999999999909
 31
0.0
1001
ACDBBLOCKREPETAG
1070
     1
1071
      364
1005
13165E
  0
LINE
  5
13165F
  8
OBJECT
 10
3991.7500000000009
 20
-309.99999999999898
 30
0.0
 11
3992.5000000000009
 21
-312.99999999999909
 31
0.0
1001
ACDBBLOCKREPETAG
1070
     1
1071
      365
1005
13165F
  0
LINE
  5
131660
  8
OBJECT
 10
3982.177932999999
 20
-309.99999999999898
 30
0.0
 11
3977.8968180000011
 21
-313.83118899999948
 31
0.0
1001
ACDBBLOCKREPETAG
1070
     1
1071
      366
1005
131660
  0
LINE
  5
131661
  8
OBJECT
 10
4008.25
 20
-309.99999999999898
 30
0.0
 11
4007.5
 21
-312.99999999999909
 31
0.0
1001
ACDBBLOCKREPETAG
1070
     1
1071
      367
1005
131661
  0
ARC
  5
131662
  8
OBJECT
 10
3983.0
 20
-319.99999999999898
 30
0.0
 40
8.0
 50
129.59775299984949
 51
288.1583529999624
1001
ACDBBLOCKREPETAG
1070
     1
1071
      368
1005
131662
  0
ARC
  5
131663
  8
OBJECT
 10
3983.934933
 20
-322.8505969999996
 30
0.0
 40
5.0
 50
288.1583529999624
 51
341.51513100003109
1001
ACDBBLOCKREPETAG
1070
     1
1071
      369
1005
131663
  0
LINE
  5
131664
  8
OBJECT
 10
3988.67697
 20
-324.43586799999957
 30
0.0
 11
3992.5000000000009
 21
-312.99999999999909
 31
0.0
1001
ACDBBLOCKREPETAG
1070
     1
1071
      370
1005
131664
  0
LINE
  5
131665
  8
OBJECT
 10
4011.3230299999982
 20
-324.43586799999957
 30
0.0
 11
4007.5
 21
-312.99999999999909
 31
0.0
1001
ACDBBLOCKREPETAG
1070
     1
1071
      371
1005
131665
  0
ARC
  5
131666
  8
OBJECT
 10
4059.0
 20
-282.99999999999898
 30
0.0
 40
3.0
 50
270.0
 51
0.0
1001
ACDBBLOCKREPETAG
1070
     1
1071
      372
1005
131666
  0
LINE
  5
131667
  8
OBJECT
 10
4062.0
 20
-279.99999999999909
 30
0.0
 11
4062.0
 21
-282.99999999999898
 31
0.0
1001
ACDBBLOCKREPETAG
1070
     1
1071
      373
1005
131667
  0
LINE
  5
131668
  8
OBJECT
 10
4044.5
 20
-309.99999999999898
 30
0.0
 11
4044.5
 21
-285.99999999999898
 31
0.0
1001
ACDBBLOCKREPETAG
1070
     1
1071
      374
1005
131668
  0
LINE
  5
131669
  8
CENTER
 10
4101.0
 20
-199.99999999999909
 30
0.0
 11
4080.0
 21
-199.99999999999909
 31
0.0
1001
ACDBBLOCKREPETAG
1070
     1
1071
        0
1005
131669
  0
LINE
  5
13166A
  8
OBJECT
 10
4083.0
 20
-137.99999999999909
 30
0.0
 11
4080.0
 21
-137.99999999999909
 31
0.0
1001
ACDBBLOCKREPETAG
1070
     1
1071
        1
1005
13166A
  0
ARC
  5
13166B
  8
OBJECT
 10
4083.0
 20
-140.99999999999909
 30
0.0
 40
3.0
 50
0.0
 51
90.0
1001
ACDBBLOCKREPETAG
1070
     1
1071
        2
1005
13166B
  0
LINE
  5
13166C
  8
OBJECT
 10
4080.0
 20
-261.99999999999909
 30
0.0
 11
4083.0
 21
-261.99999999999909
 31
0.0
1001
ACDBBLOCKREPETAG
1070
     1
1071
        3
1005
13166C
  0
ARC
  5
13166D
  8
OBJECT
 10
4083.0
 20
-258.99999999999909
 30
0.0
 40
3.0
 50
270.0
 51
0.0
1001
ACDBBLOCKREPETAG
1070
     1
1071
        4
1005
13166D
  0
LINE
  5
13166E
  8
OBJECT
 10
4086.0
 20
-258.99999999999909
 30
0.0
 11
4086.0
 21
-140.99999999999909
 31
0.0
1001
ACDBBLOCKREPETAG
1070
     1
1071
        5
1005
13166E
  0
LINE
  5
13166F
  8
OBJECT
 10
3867.0
 20
-634.0
 30
0.0
 11
3860.0
 21
-634.0
 31
0.0
1001
ACDBBLOCKREPETAG
1070
     1
1071
       45
1005
13166F
  0
LINE
  5
131670
  8
OBJECT
 10
3860.0
 20
-634.0
 30
0.0
 11
3860.0
 21
-755.0
 31
0.0
1001
ACDBBLOCKREPETAG
1070
     1
1071
       46
1005
131670
  0
LINE
  5
131671
  8
OBJECT
 10
3867.0
 20
-755.0
 30
0.0
 11
3867.0
 21
-634.0
 31
0.0
1001
ACDBBLOCKREPETAG
1070
     1
1071
       47
1005
131671
  0
LINE
  5
131672
  8
CENTER
 10
3845.0
 20
-696.0
 30
0.0
 11
3929.0
 21
-696.0
 31
0.0
1001
ACDBBLOCKREPETAG
1070
     1
1071
       48
1005
131672
  0
LINE
  5
131673
  8
OBJECT
 10
3867.0
 20
-637.0
 30
0.0
 11
3903.0
 21
-637.0
 31
0.0
1001
ACDBBLOCKREPETAG
1070
     1
1071
       49
1005
131673
  0
LINE
  5
131674
  8
OBJECT
 10
3903.0
 20
-637.0
 30
0.0
 11
3903.0
 21
-755.0
 31
0.0
1001
ACDBBLOCKREPETAG
1070
     1
1071
       50
1005
131674
  0
LINE
  5
131675
  8
OBJECT
 10
3903.0
 20
-755.0
 30
0.0
 11
3860.0
 21
-755.0
 31
0.0
1001
ACDBBLOCKREPETAG
1070
     1
1071
       51
1005
131675
  0
LINE
  5
131676
  8
OBJECT
 10
3907.0
 20
-641.5
 30
0.0
 11
3914.0
 21
-641.5
 31
0.0
1001
ACDBBLOCKREPETAG
1070
     1
1071
       52
1005
131676
  0
LINE
  5
131677
  8
OBJECT
 10
3914.0
 20
-750.49999999999989
 30
0.0
 11
3907.0
 21
-750.49999999999989
 31
0.0
1001
ACDBBLOCKREPETAG
1070
     1
1071
       53
1005
131677
  0
LINE
  5
131678
  8
OBJECT
 10
3907.0
 20
-750.49999999999989
 30
0.0
 11
3907.0
 21
-641.5
 31
0.0
1001
ACDBBLOCKREPETAG
1070
     1
1071
       54
1005
131678
  0
LINE
  5
131679
  8
OBJECT
 10
3903.0
 20
-637.0
 30
0.0
 11
3907.0
 21
-641.5
 31
0.0
1001
ACDBBLOCKREPETAG
1070
     1
1071
       55
1005
131679
  0
LINE
  5
13167A
  8
OBJECT
 10
3903.0
 20
-755.0
 30
0.0
 11
3907.0
 21
-750.49999999999989
 31
0.0
1001
ACDBBLOCKREPETAG
1070
     1
1071
       56
1005
13167A
  0
LINE
  5
13167B
  8
OBJECT
 10
3917.0
 20
-634.0
 30
0.0
 11
3920.0
 21
-634.0
 31
0.0
1001
ACDBBLOCKREPETAG
1070
     1
1071
       57
1005
13167B
  0
ARC
  5
13167C
  8
OBJECT
 10
3917.0
 20
-637.0
 30
0.0
 40
3.0
 50
90.0
 51
180.0
1001
ACDBBLOCKREPETAG
1070
     1
1071
       58
1005
13167C
  0
LINE
  5
13167D
  8
OBJECT
 10
3920.0
 20
-758.0
 30
0.0
 11
3917.0
 21
-758.0
 31
0.0
1001
ACDBBLOCKREPETAG
1070
     1
1071
       59
1005
13167D
  0
ARC
  5
13167E
  8
OBJECT
 10
3917.0
 20
-755.0
 30
0.0
 40
3.0
 50
180.0
 51
270.0
1001
ACDBBLOCKREPETAG
1070
     1
1071
       60
1005
13167E
  0
LINE
  5
13167F
  8
OBJECT
 10
3914.0
 20
-755.0
 30
0.0
 11
3914.0
 21
-637.0
 31
0.0
1001
ACDBBLOCKREPETAG
1070
     1
1071
       61
1005
13167F
  0
LINE
  5
131680
  8
HIDDEN
 10
3912.0
 20
-651.5
 30
0.0
 11
3912.0
 21
-740.5
 31
0.0
1001
ACDBBLOCKREPETAG
1070
     1
1071
       63
1005
131680
  0
CIRCLE
  5
131681
  8
OBJECT
 10
4000.0
 20
-696.0
 30
0.0
 40
62.0
1001
ACDBBLOCKREPETAG
1070
     1
1071
      227
1005
131681
  0
CIRCLE
  5
131682
  8
OBJECT
 10
4000.0
 20
-696.0
 30
0.0
 40
36.333333000000003
1001
ACDBBLOCKREPETAG
1070
     1
1071
      228
1005
131682
  0
CIRCLE
  5
131683
  8
OBJECT
 10
4000.0
 20
-696.0
 30
0.0
 40
44.5
1001
ACDBBLOCKREPETAG
1070
     1
1071
      229
1005
131683
  0
ARC
  5
131684
  8
OBJECT
 10
4000.0
 20
-696.0
 30
0.0
 40
10.0
 50
194.6278610000418
 51
345.37213899995828
1001
ACDBBLOCKREPETAG
1070
     1
1071
      230
1005
131684
  0
ARC
  5
131685
  8
OBJECT
 10
4000.0
 20
-696.0
 30
0.0
 40
7.5
 50
200.41516800005761
 51
339.58483199994242
1001
ACDBBLOCKREPETAG
1070
     1
1071
      231
1005
131685
  0
ARC
  5
131686
  8
OBJECT
 10
3977.0
 20
-696.0
 30
0.0
 40
2.0
 50
91.963657999954648
 51
268.03634200004529
1001
ACDBBLOCKREPETAG
1070
     1
1071
      232
1005
131686
  0
ARC
  5
131687
  8
OBJECT
 10
4000.0
 20
-696.0
 30
0.0
 40
10.0
 50
14.627861000041801
 51
165.3721389999582
1001
ACDBBLOCKREPETAG
1070
     1
1071
      233
1005
131687
  0
CIRCLE
  5
131688
  8
OBJECT
 10
4000.0
 20
-696.0
 30
0.0
 40
4.5
1001
ACDBBLOCKREPETAG
1070
     1
1071
      234
1005
131688
  0
ARC
  5
131689
  8
OBJECT
 10
4000.0
 20
-696.0
 30
0.0
 40
7.5
 50
20.415168000057569
 51
159.58483199994239
1001
ACDBBLOCKREPETAG
1070
     1
1071
      235
1005
131689
  0
ARC
  5
13168A
  8
OBJECT
 10
4000.0
 20
-696.0
 30
0.0
 40
24.333333
 50
183.77906500000171
 51
356.22093499999818
1001
ACDBBLOCKREPETAG
1070
     1
1071
      236
1005
13168A
  0
ARC
  5
13168B
  8
OBJECT
 10
4000.0
 20
-696.0
 30
0.0
 40
24.333333
 50
3.7790650000018511
 51
176.22093499999809
1001
ACDBBLOCKREPETAG
1070
     1
1071
      237
1005
13168B
  0
ARC
  5
13168C
  8
OBJECT
 10
4023.0
 20
-696.0
 30
0.0
 40
2.0
 50
271.96365799995459
 51
88.036342000045366
1001
ACDBBLOCKREPETAG
1070
     1
1071
      238
1005
13168C
  0
LINE
  5
13168D
  8
OBJECT
 10
4007.0289220000009
 20
-698.61615099999835
 30
0.0
 11
4023.068530999999
 21
-697.99882499999865
 31
0.0
1001
ACDBBLOCKREPETAG
1070
     1
1071
      239
1005
13168D
  0
LINE
  5
13168E
  8
OBJECT
 10
4007.0289220000009
 20
-693.38384899999983
 30
0.0
 11
4023.068530999999
 21
-694.00117399999908
 31
0.0
1001
ACDBBLOCKREPETAG
1070
     1
1071
      240
1005
13168E
  0
LINE
  5
13168F
  8
OBJECT
 10
3992.9710769999988
 20
-698.61615099999835
 30
0.0
 11
3976.9314690000001
 21
-697.99882499999865
 31
0.0
1001
ACDBBLOCKREPETAG
1070
     1
1071
      241
1005
13168F
  0
LINE
  5
131690
  8
OBJECT
 10
3992.9710769999988
 20
-693.38384899999983
 30
0.0
 11
3976.9314690000001
 21
-694.00117399999908
 31
0.0
1001
ACDBBLOCKREPETAG
1070
     1
1071
      242
1005
131690
  0
LINE
  5
131691
  8
CENTER
 10
3923.0
 20
-695.9999992574941
 30
0.0
 11
4077.0
 21
-696.00000688055752
 31
0.0
1001
ACDBBLOCKREPETAG
1070
     1
1071
      243
1005
131691
  0
LINE
  5
131692
  8
OBJECT
 10
4083.0
 20
-634.0
 30
0.0
 11
4080.0
 21
-634.0
 31
0.0
1001
ACDBBLOCKREPETAG
1070
     1
1071
        1
1005
131692
  0
ARC
  5
131693
  8
OBJECT
 10
4083.0
 20
-637.0
 30
0.0
 40
3.0
 50
0.0
 51
90.0
1001
ACDBBLOCKREPETAG
1070
     1
1071
        2
1005
131693
  0
LINE
  5
131694
  8
OBJECT
 10
4080.0
 20
-758.0
 30
0.0
 11
4083.0
 21
-758.0
 31
0.0
1001
ACDBBLOCKREPETAG
1070
     1
1071
        3
1005
131694
  0
ARC
  5
131695
  8
OBJECT
 10
4083.0
 20
-755.0
 30
0.0
 40
3.0
 50
270.0
 51
0.0
1001
ACDBBLOCKREPETAG
1070
     1
1071
        4
1005
131695
  0
LINE
  5
131696
  8
OBJECT
 10
4086.0
 20
-755.0
 30
0.0
 11
4086.0
 21
-637.0
 31
0.0
1001
ACDBBLOCKREPETAG
1070
     1
1071
        5
1005
131696
  0
LINE
  5
131697
  8
OBJECT
 10
3923.0
 20
-570.99999999999955
 30
0.0
 11
3923.0
 21
-549.99999999999955
 31
0.0
1001
ACDBBLOCKREPETAG
1070
     1
1071
       38
1005
131697
  0
LINE
  5
131698
  8
OBJECT
 10
3923.0
 20
-549.99999999999955
 30
0.0
 11
4077.0
 21
-549.99999999999955
 31
0.0
1001
ACDBBLOCKREPETAG
1070
     1
1071
       39
1005
131698
  0
LINE
  5
131699
  8
HIDDEN
 10
3943.0
 20
-619.99999999999955
 30
0.0
 11
4057.0
 21
-619.99999999999955
 31
0.0
1001
ACDBBLOCKREPETAG
1070
     1
1071
       40
1005
131699
  0
LINE
  5
13169A
  8
OBJECT
 10
4077.0
 20
-549.99999999999955
 30
0.0
 11
4077.0
 21
-570.99999999999955
 31
0.0
1001
ACDBBLOCKREPETAG
1070
     1
1071
       41
1005
13169A
  0
LINE
  5
13169B
  8
OBJECT
 10
4077.0
 20
-570.99999999999955
 30
0.0
 11
3923.0
 21
-570.99999999999955
 31
0.0
1001
ACDBBLOCKREPETAG
1070
     1
1071
       42
1005
13169B
  0
LINE
  5
13169C
  8
CENTER
 10
4000.0
 20
-534.99999999999955
 30
0.0
 11
4000.0
 21
-889.99999999999955
 31
0.0
1001
ACDBBLOCKREPETAG
1070
     1
1071
       43
1005
13169C
  0
LINE
  5
13169D
  8
OBJECT
 10
3928.0
 20
-570.99999999999955
 30
0.0
 11
3928.0
 21
-633.99999999999955
 31
0.0
1001
ACDBBLOCKREPETAG
1070
     1
1071
       44
1005
13169D
  0
LINE
  5
13169E
  8
OBJECT
 10
4072.0
 20
-633.99999999999955
 30
0.0
 11
4072.0
 21
-570.99999999999955
 31
0.0
1001
ACDBBLOCKREPETAG
1070
     1
1071
       45
1005
13169E
  0
LINE
  5
13169F
  8
OBJECT
 10
3920.0
 20
-877.99999999999955
 30
0.0
 11
4080.0
 21
-877.99999999999955
 31
0.0
1001
ACDBBLOCKREPETAG
1070
     1
1071
       46
1005
13169F
  0
LINE
  5
1316A0
  8
OBJECT
 10
4080.0
 20
-633.99999999999955
 30
0.0
 11
3920.0
 21
-633.99999999999955
 31
0.0
1001
ACDBBLOCKREPETAG
1070
     1
1071
       47
1005
1316A0
  0
LINE
  5
1316A1
  8
OBJECT
 10
3920.0
 20
-877.99999999999955
 30
0.0
 11
3920.0
 21
-889.99999999999955
 31
0.0
1001
ACDBBLOCKREPETAG
1070
     1
1071
       48
1005
1316A1
  0
LINE
  5
1316A2
  8
OBJECT
 10
3920.0
 20
-889.99999999999955
 30
0.0
 11
4080.0
 21
-889.99999999999955
 31
0.0
1001
ACDBBLOCKREPETAG
1070
     1
1071
       49
1005
1316A2
  0
LINE
  5
1316A3
  8
OBJECT
 10
4080.0
 20
-889.99999999999955
 30
0.0
 11
4080.0
 21
-877.99999999999955
 31
0.0
1001
ACDBBLOCKREPETAG
1070
     1
1071
       50
1005
1316A3
  0
LINE
  5
1316A4
  8
OBJECT
 10
4074.9999999998631
 20
-757.99999999985016
 30
0.0
 11
4075.0
 21
-877.99999999999955
 31
0.0
1001
ACDBBLOCKREPETAG
1070
     1
1071
       54
1005
1316A4
  0
LINE
  5
1316A5
  8
OBJECT
 10
4074.9999908029849
 20
-757.99998602702112
 30
0.0
 11
4080.0
 21
-757.99998602702112
 31
0.0
1001
ACDBBLOCKREPETAG
1070
     1
1071
       55
1005
1316A5
  0
LINE
  5
1316A6
  8
OBJECT
 10
3925.0000000001392
 20
-757.99999999985016
 30
0.0
 11
3925.0
 21
-877.99999999999955
 31
0.0
1001
ACDBBLOCKREPETAG
1070
     1
1071
       56
1005
1316A6
  0
LINE
  5
1316A7
  8
OBJECT
 10
3925.0000091970151
 20
-757.99998602702112
 30
0.0
 11
3920.0
 21
-757.99998602702112
 31
0.0
1001
ACDBBLOCKREPETAG
1070
     1
1071
       57
1005
1316A7
  0
ARC
  5
1316A8
  8
OBJECT
 10
4200.6872746716726
 20
-749.40809941010718
 30
0.0
 40
170.6350503965856
 50
137.44134459184301
 51
149.91949581337221
1001
ACDBBLOCKREPETAG
1070
     1
1071
       58
1005
1316A8
  0
ARC
  5
1316A9
  8
OBJECT
 10
4200.6872746716726
 20
-642.59190058989179
 30
0.0
 40
170.6350503965856
 50
210.08050418662771
 51
222.55865540815699
1001
ACDBBLOCKREPETAG
1070
     1
1071
       59
1005
1316A9
  0
ARC
  5
1316AA
  8
OBJECT
 10
3799.3127253283278
 20
-749.40809941010718
 30
0.0
 40
170.6350503965856
 50
30.080504186774089
 51
42.558655408382641
1001
ACDBBLOCKREPETAG
1070
     1
1071
       60
1005
1316AA
  0
ARC
  5
1316AB
  8
OBJECT
 10
3799.3127253283278
 20
-642.59190058989179
 30
0.0
 40
170.6350503965856
 50
317.44134459161722
 51
329.91949581322592
1001
ACDBBLOCKREPETAG
1070
     1
1071
       61
1005
1316AB
  0
POINT
  5
1316AC
  8
DOTS
 10
4000.0
 20
-754.99999999999955
 30
0.0
1001
ACDBBLOCKREPETAG
1070
     1
1071
      185
1005
1316AC
  0
LINE
  5
1316AD
  8
OBJECT
 10
557.99999999999875
 20
-546.00000000000364
 30
0.0
 11
557.99999999999875
 21
-549.00000000000364
 31
0.0
1001
ACDBBLOCKREPETAG
1070
     1
1071
      414
1005
1316AD
  0
ARC
  5
1316AE
  8
OBJECT
 10
554.99999999999875
 20
-546.00000000000364
 30
0.0
 40
3.0
 50
0.0
 51
90.0
1001
ACDBBLOCKREPETAG
1070
     1
1071
      415
1005
1316AE
  0
LINE
  5
1316AF
  8
OBJECT
 10
433.99999999999858
 20
-549.00000000000364
 30
0.0
 11
433.99999999999858
 21
-546.00000000000364
 31
0.0
1001
ACDBBLOCKREPETAG
1070
     1
1071
      416
1005
1316AF
  0
ARC
  5
1316B0
  8
OBJECT
 10
436.99999999999858
 20
-546.00000000000364
 30
0.0
 40
3.0
 50
90.0
 51
180.0
1001
ACDBBLOCKREPETAG
1070
     1
1071
      417
1005
1316B0
  0
LINE
  5
1316B1
  8
OBJECT
 10
436.99999999999858
 20
-543.00000000000364
 30
0.0
 11
554.99999999999875
 21
-543.00000000000364
 31
0.0
1001
ACDBBLOCKREPETAG
1070
     1
1071
      418
1005
1316B1
  0
LINE
  5
1316B2
  8
OBJECT
 10
570.99999999999875
 20
-779.00000000000352
 30
0.0
 11
570.99999999999875
 21
-772.00000000000352
 31
0.0
1001
ACDBBLOCKREPETAG
1070
     1
1071
       57
1005
1316B2
  0
LINE
  5
1316B3
  8
OBJECT
 10
570.99999999999875
 20
-772.00000000000352
 30
0.0
 11
420.99999999999858
 21
-772.00000000000352
 31
0.0
1001
ACDBBLOCKREPETAG
1070
     1
1071
       58
1005
1316B3
  0
LINE
  5
1316B4
  8
OBJECT
 10
567.99999999999875
 20
-730.50000000000352
 30
0.0
 11
423.99999999999858
 21
-730.50000000000352
 31
0.0
1001
ACDBBLOCKREPETAG
1070
     1
1071
       59
1005
1316B4
  0
LINE
  5
1316B5
  8
OBJECT
 10
561.49999999999875
 20
-719.00000000000364
 30
0.0
 11
430.49999999999858
 21
-719.00000000000364
 31
0.0
1001
ACDBBLOCKREPETAG
1070
     1
1071
       60
1005
1316B5
  0
LINE
  5
1316B6
  8
OBJECT
 10
420.99999999999858
 20
-772.00000000000352
 30
0.0
 11
420.99999999999858
 21
-779.00000000000352
 31
0.0
1001
ACDBBLOCKREPETAG
1070
     1
1071
       61
1005
1316B6
  0
LINE
  5
1316B7
  8
OBJECT
 10
420.99999999999858
 20
-779.00000000000352
 30
0.0
 11
570.99999999999875
 21
-779.00000000000352
 31
0.0
1001
ACDBBLOCKREPETAG
1070
     1
1071
       62
1005
1316B7
  0
LINE
  5
1316B8
  8
OBJECT
 10
433.99999999999858
 20
-715.00000000000364
 30
0.0
 11
433.99999999999858
 21
-709.00000000000364
 31
0.0
1001
ACDBBLOCKREPETAG
1070
     1
1071
       63
1005
1316B8
  0
LINE
  5
1316B9
  8
OBJECT
 10
423.99999999999858
 20
-772.00000000000352
 30
0.0
 11
423.99999999999858
 21
-730.50000000000352
 31
0.0
1001
ACDBBLOCKREPETAG
1070
     1
1071
       64
1005
1316B9
  0
LINE
  5
1316BA
  8
OBJECT
 10
423.99999999999858
 20
-730.50000000000352
 30
0.0
 11
430.49999999999858
 21
-719.00000000000364
 31
0.0
1001
ACDBBLOCKREPETAG
1070
     1
1071
       65
1005
1316BA
  0
LINE
  5
1316BB
  8
OBJECT
 10
430.49999999999858
 20
-719.00000000000364
 30
0.0
 11
433.99999999999858
 21
-715.00000000000364
 31
0.0
1001
ACDBBLOCKREPETAG
1070
     1
1071
       66
1005
1316BB
  0
LINE
  5
1316BC
  8
OBJECT
 10
567.99999999999875
 20
-730.50000000000352
 30
0.0
 11
561.49999999999875
 21
-719.00000000000364
 31
0.0
1001
ACDBBLOCKREPETAG
1070
     1
1071
       67
1005
1316BC
  0
LINE
  5
1316BD
  8
OBJECT
 10
561.49999999999875
 20
-719.00000000000364
 30
0.0
 11
557.99999999999875
 21
-715.00000000000364
 31
0.0
1001
ACDBBLOCKREPETAG
1070
     1
1071
       68
1005
1316BD
  0
ARC
  5
1316BE
  8
OBJECT
 10
495.99999999999858
 20
-1096.9000000000051
 30
0.0
 40
386.89999999999998
 50
80.778701362367499
 51
99.221298637632543
1001
ACDBBLOCKREPETAG
1070
     1
1071
       69
1005
1316BE
  0
LINE
  5
1316BF
  8
OBJECT
 10
557.99999999999875
 20
-715.00000000000364
 30
0.0
 11
557.99999999999875
 21
-709.00000000000364
 31
0.0
1001
ACDBBLOCKREPETAG
1070
     1
1071
       70
1005
1316BF
  0
LINE
  5
1316C0
  8
OBJECT
 10
567.99999999999875
 20
-772.00000000000352
 30
0.0
 11
567.99999999999875
 21
-730.50000000000352
 31
0.0
1001
ACDBBLOCKREPETAG
1070
     1
1071
       71
1005
1316C0
  0
INSERT
  5
1316C1
  8
OBJECT
  2
*U7
 10
0.0
 20
0.0
 30
0.0
  0
LINE
  5
1316C2
  8
HIDDEN
 10
438.99999999999858
 20
-727.00000000000352
 30
0.0
 11
552.99999999999875
 21
-727.00000000000352
 31
0.0
1001
ACDBBLOCKREPETAG
1070
     1
1071
      437
1005
1316C2
  0
LINE
  5
1316C3
  8
OBJECT
 10
581.99999999999875
 20
-570.00000000000273
 30
0.0
 11
581.99999999999875
 21
-688.00000000000273
 31
0.0
1001
ACDBBLOCKREPETAG
1070
     1
1071
      323
1005
1316C3
  0
LINE
  5
1316C4
  8
OBJECT
 10
605.99999999999875
 20
-673.50000000000364
 30
0.0
 11
605.99999999999875
 21
-584.50000000000364
 31
0.0
1001
ACDBBLOCKREPETAG
1070
     1
1071
      324
1005
1316C4
  0
LINE
  5
1316C5
  8
OBJECT
 10
605.99999999999875
 20
-673.50000000000364
 30
0.0
 11
581.99999999999875
 21
-673.50000000000364
 31
0.0
1001
ACDBBLOCKREPETAG
1070
     1
1071
      325
1005
1316C5
  0
LINE
  5
1316C6
  8
OBJECT
 10
575.99999999999875
 20
-691.00000000000273
 30
0.0
 11
578.99999999999875
 21
-691.00000000000273
 31
0.0
1001
ACDBBLOCKREPETAG
1070
     1
1071
      326
1005
1316C6
  0
ARC
  5
1316C7
  8
OBJECT
 10
578.99999999999875
 20
-688.00000000000273
 30
0.0
 40
3.0
 50
270.0
 51
0.0
1001
ACDBBLOCKREPETAG
1070
     1
1071
      327
1005
1316C7
  0
LINE
  5
1316C8
  8
OBJECT
 10
605.99999999999875
 20
-611.17793400000392
 30
0.0
 11
609.83118899999909
 21
-606.89681800000369
 31
0.0
1001
ACDBBLOCKREPETAG
1070
     1
1071
      328
1005
1316C8
  0
ARC
  5
1316C9
  8
OBJECT
 10
615.99999999999875
 20
-612.00000000000273
 30
0.0
 40
8.0
 50
341.8416470000376
 51
140.40224699998851
1001
ACDBBLOCKREPETAG
1070
     1
1071
      329
1005
1316C9
  0
ARC
  5
1316CA
  8
OBJECT
 10
618.8505969999992
 20
-612.9349330000033
 30
0.0
 40
5.0
 50
288.48486900001723
 51
341.8416470000376
1001
ACDBBLOCKREPETAG
1070
     1
1071
      330
1005
1316CA
  0
LINE
  5
1316CB
  8
OBJECT
 10
615.99999999999875
 20
-624.00000000000364
 30
0.0
 11
608.99999999999875
 21
-624.00000000000364
 31
0.0
1001
ACDBBLOCKREPETAG
1070
     1
1071
      331
1005
1316CB
  0
LINE
  5
1316CC
  8
OBJECT
 10
615.99999999999875
 20
-634.00000000000364
 30
0.0
 11
608.99999999999875
 21
-634.00000000000364
 31
0.0
1001
ACDBBLOCKREPETAG
1070
     1
1071
      332
1005
1316CC
  0
LINE
  5
1316CD
  8
OBJECT
 10
615.99999999999875
 20
-624.00000000000364
 30
0.0
 11
615.99999999999875
 21
-634.00000000000364
 31
0.0
1001
ACDBBLOCKREPETAG
1070
     1
1071
      333
1005
1316CD
  0
LINE
  5
1316CE
  8
OBJECT
 10
608.99999999999875
 20
-621.50000000000364
 30
0.0
 11
608.99999999999875
 21
-636.50000000000364
 31
0.0
1001
ACDBBLOCKREPETAG
1070
     1
1071
      334
1005
1316CE
  0
LINE
  5
1316CF
  8
OBJECT
 10
605.99999999999875
 20
-637.25000000000364
 30
0.0
 11
608.99999999999875
 21
-636.50000000000364
 31
0.0
1001
ACDBBLOCKREPETAG
1070
     1
1071
      335
1005
1316CF
  0
LINE
  5
1316D0
  8
OBJECT
 10
605.99999999999875
 20
-646.8220670000037
 30
0.0
 11
609.83118899999909
 21
-651.10318200000415
 31
0.0
1001
ACDBBLOCKREPETAG
1070
     1
1071
      336
1005
1316D0
  0
LINE
  5
1316D1
  8
OBJECT
 10
605.99999999999875
 20
-620.75000000000364
 30
0.0
 11
608.99999999999875
 21
-621.50000000000364
 31
0.0
1001
ACDBBLOCKREPETAG
1070
     1
1071
      337
1005
1316D1
  0
ARC
  5
1316D2
  8
OBJECT
 10
615.99999999999875
 20
-646.00000000000273
 30
0.0
 40
8.0
 50
219.59775300001141
 51
18.158352999962421
1001
ACDBBLOCKREPETAG
1070
     1
1071
      338
1005
1316D2
  0
ARC
  5
1316D3
  8
OBJECT
 10
618.8505969999992
 20
-645.06506700000386
 30
0.0
 40
5.0
 50
18.158352999962421
 51
71.515130999982702
1001
ACDBBLOCKREPETAG
1070
     1
1071
      339
1005
1316D3
  0
LINE
  5
1316D4
  8
OBJECT
 10
620.43586799999923
 20
-640.32303000000411
 30
0.0
 11
608.99999999999875
 21
-636.50000000000364
 31
0.0
1001
ACDBBLOCKREPETAG
1070
     1
1071
      340
1005
1316D4
  0
LINE
  5
1316D5
  8
OBJECT
 10
620.43586799999923
 20
-617.67697000000305
 30
0.0
 11
608.99999999999875
 21
-621.50000000000364
 31
0.0
1001
ACDBBLOCKREPETAG
1070
     1
1071
      341
1005
1316D5
  0
ARC
  5
1316D6
  8
OBJECT
 10
578.99999999999875
 20
-570.00000000000273
 30
0.0
 40
3.0
 50
0.0
 51
90.0
1001
ACDBBLOCKREPETAG
1070
     1
1071
      342
1005
1316D6
  0
LINE
  5
1316D7
  8
OBJECT
 10
575.99999999999875
 20
-567.00000000000273
 30
0.0
 11
578.99999999999875
 21
-567.00000000000273
 31
0.0
1001
ACDBBLOCKREPETAG
1070
     1
1071
      343
1005
1316D7
  0
LINE
  5
1316D8
  8
OBJECT
 10
605.99999999999875
 20
-584.50000000000364
 30
0.0
 11
581.99999999999875
 21
-584.50000000000364
 31
0.0
1001
ACDBBLOCKREPETAG
1070
     1
1071
      344
1005
1316D8
  0
INSERT
  5
1316D9
  8
OBJECT
  2
*U8
 10
0.0
 20
0.0
 30
0.0
  0
LINE
  5
1316DA
  8
OBJECT
 10
197.99999999999869
 20
-546.00000000000364
 30
0.0
 11
197.99999999999869
 21
-549.00000000000364
 31
0.0
1001
ACDBBLOCKREPETAG
1070
     1
1071
      414
1005
1316DA
  0
ARC
  5
1316DB
  8
OBJECT
 10
194.99999999999869
 20
-546.00000000000364
 30
0.0
 40
3.0
 50
0.0
 51
90.0
1001
ACDBBLOCKREPETAG
1070
     1
1071
      415
1005
1316DB
  0
LINE
  5
1316DC
  8
OBJECT
 10
73.999999999998749
 20
-549.00000000000364
 30
0.0
 11
73.999999999998749
 21
-546.00000000000364
 31
0.0
1001
ACDBBLOCKREPETAG
1070
     1
1071
      416
1005
1316DC
  0
ARC
  5
1316DD
  8
OBJECT
 10
76.999999999998778
 20
-546.00000000000364
 30
0.0
 40
3.0
 50
90.0
 51
180.0
1001
ACDBBLOCKREPETAG
1070
     1
1071
      417
1005
1316DD
  0
LINE
  5
1316DE
  8
OBJECT
 10
76.999999999998778
 20
-543.00000000000364
 30
0.0
 11
194.99999999999869
 21
-543.00000000000364
 31
0.0
1001
ACDBBLOCKREPETAG
1070
     1
1071
      418
1005
1316DE
  0
LINE
  5
1316DF
  8
OBJECT
 10
197.99999999999869
 20
-762.00000000000352
 30
0.0
 11
197.99999999999869
 21
-769.00000000000352
 31
0.0
1001
ACDBBLOCKREPETAG
1070
     1
1071
       38
1005
1316DF
  0
LINE
  5
1316E0
  8
OBJECT
 10
197.99999999999869
 20
-769.00000000000352
 30
0.0
 11
73.999999999998749
 21
-769.00000000000352
 31
0.0
1001
ACDBBLOCKREPETAG
1070
     1
1071
       39
1005
1316E0
  0
LINE
  5
1316E1
  8
OBJECT
 10
73.999999999998749
 20
-769.00000000000352
 30
0.0
 11
73.999999999998749
 21
-762.00000000000352
 31
0.0
1001
ACDBBLOCKREPETAG
1070
     1
1071
       40
1005
1316E1
  0
LINE
  5
1316E2
  8
OBJECT
 10
73.999999999998749
 20
-762.00000000000352
 30
0.0
 11
197.99999999999869
 21
-762.00000000000352
 31
0.0
1001
ACDBBLOCKREPETAG
1070
     1
1071
       41
1005
1316E2
  0
LINE
  5
1316E3
  8
OBJECT
 10
194.99999999999869
 20
-762.00000000000352
 30
0.0
 11
194.99999999999869
 21
-726.00000000000352
 31
0.0
1001
ACDBBLOCKREPETAG
1070
     1
1071
       42
1005
1316E3
  0
LINE
  5
1316E4
  8
OBJECT
 10
194.99999999999869
 20
-726.00000000000352
 30
0.0
 11
76.999999999998778
 21
-726.00000000000352
 31
0.0
1001
ACDBBLOCKREPETAG
1070
     1
1071
       43
1005
1316E4
  0
LINE
  5
1316E5
  8
OBJECT
 10
76.999999999998778
 20
-726.00000000000352
 30
0.0
 11
76.999999999998778
 21
-762.00000000000352
 31
0.0
1001
ACDBBLOCKREPETAG
1070
     1
1071
       44
1005
1316E5
  0
LINE
  5
1316E6
  8
OBJECT
 10
190.49999999999869
 20
-722.00000000000352
 30
0.0
 11
190.49999999999869
 21
-715.00000000000364
 31
0.0
1001
ACDBBLOCKREPETAG
1070
     1
1071
       45
1005
1316E6
  0
LINE
  5
1316E7
  8
OBJECT
 10
81.499999999998764
 20
-715.00000000000364
 30
0.0
 11
81.499999999998764
 21
-722.00000000000352
 31
0.0
1001
ACDBBLOCKREPETAG
1070
     1
1071
       46
1005
1316E7
  0
LINE
  5
1316E8
  8
OBJECT
 10
81.499999999998764
 20
-722.00000000000352
 30
0.0
 11
190.49999999999869
 21
-722.00000000000352
 31
0.0
1001
ACDBBLOCKREPETAG
1070
     1
1071
       47
1005
1316E8
  0
LINE
  5
1316E9
  8
OBJECT
 10
194.99999999999869
 20
-726.00000000000352
 30
0.0
 11
190.49999999999869
 21
-722.00000000000352
 31
0.0
1001
ACDBBLOCKREPETAG
1070
     1
1071
       48
1005
1316E9
  0
LINE
  5
1316EA
  8
OBJECT
 10
76.999999999998778
 20
-726.00000000000352
 30
0.0
 11
81.499999999998764
 21
-722.00000000000352
 31
0.0
1001
ACDBBLOCKREPETAG
1070
     1
1071
       49
1005
1316EA
  0
LINE
  5
1316EB
  8
OBJECT
 10
197.99999999999869
 20
-712.00000000000443
 30
0.0
 11
197.99999999999869
 21
-709.00000000000364
 31
0.0
1001
ACDBBLOCKREPETAG
1070
     1
1071
       50
1005
1316EB
  0
ARC
  5
1316EC
  8
OBJECT
 10
194.99999999999869
 20
-712.00000000000443
 30
0.0
 40
3.0
 50
270.0
 51
0.0
1001
ACDBBLOCKREPETAG
1070
     1
1071
       51
1005
1316EC
  0
LINE
  5
1316ED
  8
OBJECT
 10
73.999999999998749
 20
-709.00000000000364
 30
0.0
 11
73.999999999998749
 21
-712.00000000000273
 31
0.0
1001
ACDBBLOCKREPETAG
1070
     1
1071
       52
1005
1316ED
  0
ARC
  5
1316EE
  8
OBJECT
 10
76.999999999998778
 20
-712.00000000000273
 30
0.0
 40
3.0
 50
180.0
 51
270.0
1001
ACDBBLOCKREPETAG
1070
     1
1071
       53
1005
1316EE
  0
LINE
  5
1316EF
  8
OBJECT
 10
76.999999999998778
 20
-715.00000000000273
 30
0.0
 11
194.99999999999869
 21
-715.00000000000443
 31
0.0
1001
ACDBBLOCKREPETAG
1070
     1
1071
       54
1005
1316EF
  0
INSERT
  5
1316F0
  8
OBJECT
  2
*U9
 10
0.0
 20
0.0
 30
0.0
  0
LINE
  5
1316F1
  8
HIDDEN
 10
180.49999999999881
 20
-717.00000000000364
 30
0.0
 11
91.499999999998792
 21
-717.00000000000364
 31
0.0
1001
ACDBBLOCKREPETAG
1070
     1
1071
      430
1005
1316F1
  0
LINE
  5
1316F2
  8
OBJECT
 10
221.99999999999881
 20
-570.00000000000273
 30
0.0
 11
221.99999999999881
 21
-688.00000000000273
 31
0.0
1001
ACDBBLOCKREPETAG
1070
     1
1071
      323
1005
1316F2
  0
LINE
  5
1316F3
  8
OBJECT
 10
245.99999999999881
 20
-673.50000000000364
 30
0.0
 11
245.99999999999881
 21
-584.50000000000364
 31
0.0
1001
ACDBBLOCKREPETAG
1070
     1
1071
      324
1005
1316F3
  0
LINE
  5
1316F4
  8
OBJECT
 10
245.99999999999881
 20
-673.50000000000364
 30
0.0
 11
221.99999999999881
 21
-673.50000000000364
 31
0.0
1001
ACDBBLOCKREPETAG
1070
     1
1071
      325
1005
1316F4
  0
LINE
  5
1316F5
  8
OBJECT
 10
215.99999999999881
 20
-691.00000000000273
 30
0.0
 11
218.99999999999881
 21
-691.00000000000273
 31
0.0
1001
ACDBBLOCKREPETAG
1070
     1
1071
      326
1005
1316F5
  0
ARC
  5
1316F6
  8
OBJECT
 10
218.99999999999881
 20
-688.00000000000273
 30
0.0
 40
3.0
 50
270.0
 51
0.0
1001
ACDBBLOCKREPETAG
1070
     1
1071
      327
1005
1316F6
  0
LINE
  5
1316F7
  8
OBJECT
 10
245.99999999999881
 20
-611.17793400000392
 30
0.0
 11
249.8311889999992
 21
-606.89681800000369
 31
0.0
1001
ACDBBLOCKREPETAG
1070
     1
1071
      328
1005
1316F7
  0
ARC
  5
1316F8
  8
OBJECT
 10
255.99999999999881
 20
-612.00000000000273
 30
0.0
 40
8.0
 50
341.84164700003799
 51
140.40224699998751
1001
ACDBBLOCKREPETAG
1070
     1
1071
      329
1005
1316F8
  0
ARC
  5
1316F9
  8
OBJECT
 10
258.8505969999992
 20
-612.9349330000033
 30
0.0
 40
5.0
 50
288.48486900001421
 51
341.84164700003799
1001
ACDBBLOCKREPETAG
1070
     1
1071
      330
1005
1316F9
  0
LINE
  5
1316FA
  8
OBJECT
 10
255.99999999999881
 20
-624.00000000000364
 30
0.0
 11
248.99999999999881
 21
-624.00000000000364
 31
0.0
1001
ACDBBLOCKREPETAG
1070
     1
1071
      331
1005
1316FA
  0
LINE
  5
1316FB
  8
OBJECT
 10
255.99999999999881
 20
-634.00000000000364
 30
0.0
 11
248.99999999999881
 21
-634.00000000000364
 31
0.0
1001
ACDBBLOCKREPETAG
1070
     1
1071
      332
1005
1316FB
  0
LINE
  5
1316FC
  8
OBJECT
 10
255.99999999999881
 20
-624.00000000000364
 30
0.0
 11
255.99999999999881
 21
-634.00000000000364
 31
0.0
1001
ACDBBLOCKREPETAG
1070
     1
1071
      333
1005
1316FC
  0
LINE
  5
1316FD
  8
OBJECT
 10
248.99999999999881
 20
-621.50000000000364
 30
0.0
 11
248.99999999999881
 21
-636.50000000000364
 31
0.0
1001
ACDBBLOCKREPETAG
1070
     1
1071
      334
1005
1316FD
  0
LINE
  5
1316FE
  8
OBJECT
 10
245.99999999999881
 20
-637.25000000000364
 30
0.0
 11
248.99999999999881
 21
-636.50000000000364
 31
0.0
1001
ACDBBLOCKREPETAG
1070
     1
1071
      335
1005
1316FE
  0
LINE
  5
1316FF
  8
OBJECT
 10
245.99999999999881
 20
-646.8220670000037
 30
0.0
 11
249.8311889999992
 21
-651.10318200000415
 31
0.0
1001
ACDBBLOCKREPETAG
1070
     1
1071
      336
1005
1316FF
  0
LINE
  5
131700
  8
OBJECT
 10
245.99999999999881
 20
-620.75000000000364
 30
0.0
 11
248.99999999999881
 21
-621.50000000000364
 31
0.0
1001
ACDBBLOCKREPETAG
1070
     1
1071
      337
1005
131700
  0
ARC
  5
131701
  8
OBJECT
 10
255.99999999999881
 20
-646.00000000000273
 30
0.0
 40
8.0
 50
219.5977530000124
 51
18.158352999961931
1001
ACDBBLOCKREPETAG
1070
     1
1071
      338
1005
131701
  0
ARC
  5
131702
  8
OBJECT
 10
258.8505969999992
 20
-645.06506700000386
 30
0.0
 40
5.0
 50
18.158352999961931
 51
71.515130999985757
1001
ACDBBLOCKREPETAG
1070
     1
1071
      339
1005
131702
  0
LINE
  5
131703
  8
OBJECT
 10
260.43586799999918
 20
-640.32303000000411
 30
0.0
 11
248.99999999999881
 21
-636.50000000000364
 31
0.0
1001
ACDBBLOCKREPETAG
1070
     1
1071
      340
1005
131703
  0
LINE
  5
131704
  8
OBJECT
 10
260.43586799999918
 20
-617.67697000000305
 30
0.0
 11
248.99999999999881
 21
-621.50000000000364
 31
0.0
1001
ACDBBLOCKREPETAG
1070
     1
1071
      341
1005
131704
  0
ARC
  5
131705
  8
OBJECT
 10
218.99999999999881
 20
-570.00000000000273
 30
0.0
 40
3.0
 50
0.0
 51
90.0
1001
ACDBBLOCKREPETAG
1070
     1
1071
      342
1005
131705
  0
LINE
  5
131706
  8
OBJECT
 10
215.99999999999881
 20
-567.00000000000273
 30
0.0
 11
218.99999999999881
 21
-567.00000000000273
 31
0.0
1001
ACDBBLOCKREPETAG
1070
     1
1071
      343
1005
131706
  0
LINE
  5
131707
  8
OBJECT
 10
245.99999999999881
 20
-584.50000000000364
 30
0.0
 11
221.99999999999881
 21
-584.50000000000364
 31
0.0
1001
ACDBBLOCKREPETAG
1070
     1
1071
      344
1005
131707
  0
INSERT
  5
131708
  8
OBJECT
  2
*U10
 10
0.0
 20
0.0
 30
0.0
  0
LINE
  5
131709
  8
OBJECT
 10
557.99999999999875
 20
-82.000000000003624
 30
0.0
 11
557.99999999999875
 21
-85.000000000003652
 31
0.0
1001
ACDBBLOCKREPETAG
1070
     1
1071
      414
1005
131709
  0
ARC
  5
13170A
  8
OBJECT
 10
554.99999999999875
 20
-82.000000000003624
 30
0.0
 40
3.0
 50
0.0
 51
90.0
1001
ACDBBLOCKREPETAG
1070
     1
1071
      415
1005
13170A
  0
LINE
  5
13170B
  8
OBJECT
 10
433.99999999999858
 20
-85.000000000003652
 30
0.0
 11
433.99999999999858
 21
-82.000000000003624
 31
0.0
1001
ACDBBLOCKREPETAG
1070
     1
1071
      416
1005
13170B
  0
ARC
  5
13170C
  8
OBJECT
 10
436.99999999999858
 20
-82.000000000003624
 30
0.0
 40
3.0
 50
90.0
 51
180.0
1001
ACDBBLOCKREPETAG
1070
     1
1071
      417
1005
13170C
  0
LINE
  5
13170D
  8
OBJECT
 10
436.99999999999858
 20
-79.000000000003652
 30
0.0
 11
554.99999999999875
 21
-79.000000000003652
 31
0.0
1001
ACDBBLOCKREPETAG
1070
     1
1071
      418
1005
13170D
  0
LINE
  5
13170E
  8
OBJECT
 10
550.99999999999875
 20
-298.00000000000358
 30
0.0
 11
550.99999999999875
 21
-305.00000000000358
 31
0.0
1001
ACDBBLOCKREPETAG
1070
     1
1071
       19
1005
13170E
  0
LINE
  5
13170F
  8
OBJECT
 10
550.99999999999875
 20
-305.00000000000358
 30
0.0
 11
440.99999999999858
 21
-305.00000000000358
 31
0.0
1001
ACDBBLOCKREPETAG
1070
     1
1071
       20
1005
13170F
  0
LINE
  5
131710
  8
OBJECT
 10
440.99999999999858
 20
-305.00000000000358
 30
0.0
 11
440.99999999999858
 21
-298.00000000000358
 31
0.0
1001
ACDBBLOCKREPETAG
1070
     1
1071
       21
1005
131710
  0
LINE
  5
131711
  8
OBJECT
 10
440.99999999999858
 20
-298.00000000000358
 30
0.0
 11
550.99999999999875
 21
-298.00000000000358
 31
0.0
1001
ACDBBLOCKREPETAG
1070
     1
1071
       22
1005
131711
  0
LINE
  5
131712
  8
OBJECT
 10
547.99999999999875
 20
-298.00000000000358
 30
0.0
 11
547.99999999999875
 21
-262.00000000000358
 31
0.0
1001
ACDBBLOCKREPETAG
1070
     1
1071
       23
1005
131712
  0
LINE
  5
131713
  8
OBJECT
 10
547.99999999999875
 20
-262.00000000000358
 30
0.0
 11
443.99999999999858
 21
-262.00000000000358
 31
0.0
1001
ACDBBLOCKREPETAG
1070
     1
1071
       24
1005
131713
  0
LINE
  5
131714
  8
OBJECT
 10
443.99999999999858
 20
-262.00000000000358
 30
0.0
 11
443.99999999999858
 21
-298.00000000000358
 31
0.0
1001
ACDBBLOCKREPETAG
1070
     1
1071
       25
1005
131714
  0
LINE
  5
131715
  8
OBJECT
 10
543.49999999999875
 20
-258.00000000000358
 30
0.0
 11
543.49999999999875
 21
-251.00000000000369
 31
0.0
1001
ACDBBLOCKREPETAG
1070
     1
1071
       26
1005
131715
  0
LINE
  5
131716
  8
OBJECT
 10
448.49999999999858
 20
-251.00000000000369
 30
0.0
 11
448.49999999999858
 21
-258.00000000000358
 31
0.0
1001
ACDBBLOCKREPETAG
1070
     1
1071
       27
1005
131716
  0
LINE
  5
131717
  8
OBJECT
 10
448.49999999999858
 20
-258.00000000000358
 30
0.0
 11
543.49999999999875
 21
-258.00000000000358
 31
0.0
1001
ACDBBLOCKREPETAG
1070
     1
1071
       28
1005
131717
  0
LINE
  5
131718
  8
OBJECT
 10
547.99999999999875
 20
-262.00000000000358
 30
0.0
 11
543.49999999999875
 21
-258.00000000000358
 31
0.0
1001
ACDBBLOCKREPETAG
1070
     1
1071
       29
1005
131718
  0
LINE
  5
131719
  8
OBJECT
 10
443.99999999999858
 20
-262.00000000000358
 30
0.0
 11
448.49999999999858
 21
-258.00000000000358
 31
0.0
1001
ACDBBLOCKREPETAG
1070
     1
1071
       30
1005
131719
  0
LINE
  5
13171A
  8
OBJECT
 10
557.99999999999875
 20
-248.0000000000046
 30
0.0
 11
557.99999999999875
 21
-245.00000000000369
 31
0.0
1001
ACDBBLOCKREPETAG
1070
     1
1071
       31
1005
13171A
  0
ARC
  5
13171B
  8
OBJECT
 10
554.99999999999875
 20
-248.0000000000046
 30
0.0
 40
3.0
 50
270.0
 51
0.0
1001
ACDBBLOCKREPETAG
1070
     1
1071
       32
1005
13171B
  0
LINE
  5
13171C
  8
OBJECT
 10
433.99999999999858
 20
-245.00000000000369
 30
0.0
 11
433.99999999999858
 21
-248.0000000000027
 31
0.0
1001
ACDBBLOCKREPETAG
1070
     1
1071
       33
1005
13171C
  0
ARC
  5
13171D
  8
OBJECT
 10
436.99999999999858
 20
-248.0000000000027
 30
0.0
 40
3.0
 50
180.0
 51
270.0
1001
ACDBBLOCKREPETAG
1070
     1
1071
       34
1005
13171D
  0
LINE
  5
13171E
  8
OBJECT
 10
436.99999999999858
 20
-251.0000000000027
 30
0.0
 11
554.99999999999875
 21
-251.00000000000449
 31
0.0
1001
ACDBBLOCKREPETAG
1070
     1
1071
       35
1005
13171E
  0
INSERT
  5
13171F
  8
OBJECT
  2
*U11
 10
0.0
 20
0.0
 30
0.0
  0
LINE
  5
131720
  8
HIDDEN
 10
533.99999999999875
 20
-253.00000000000361
 30
0.0
 11
457.99999999999858
 21
-253.00000000000361
 31
0.0
1001
ACDBBLOCKREPETAG
1070
     1
1071
      427
1005
131720
  0
LINE
  5
131721
  8
OBJECT
 10
581.99999999999875
 20
-106.0000000000027
 30
0.0
 11
581.99999999999875
 21
-224.0000000000027
 31
0.0
1001
ACDBBLOCKREPETAG
1070
     1
1071
      323
1005
131721
  0
LINE
  5
131722
  8
OBJECT
 10
605.99999999999875
 20
-209.50000000000369
 30
0.0
 11
605.99999999999875
 21
-120.5000000000036
 31
0.0
1001
ACDBBLOCKREPETAG
1070
     1
1071
      324
1005
131722
  0
LINE
  5
131723
  8
OBJECT
 10
605.99999999999875
 20
-209.50000000000369
 30
0.0
 11
581.99999999999875
 21
-209.50000000000369
 31
0.0
1001
ACDBBLOCKREPETAG
1070
     1
1071
      325
1005
131723
  0
LINE
  5
131724
  8
OBJECT
 10
575.99999999999875
 20
-227.0000000000027
 30
0.0
 11
578.99999999999875
 21
-227.0000000000027
 31
0.0
1001
ACDBBLOCKREPETAG
1070
     1
1071
      326
1005
131724
  0
ARC
  5
131725
  8
OBJECT
 10
578.99999999999875
 20
-224.0000000000027
 30
0.0
 40
3.0
 50
270.0
 51
0.0
1001
ACDBBLOCKREPETAG
1070
     1
1071
      327
1005
131725
  0
LINE
  5
131726
  8
OBJECT
 10
605.99999999999875
 20
-147.1779340000038
 30
0.0
 11
609.83118899999909
 21
-142.8968180000038
 31
0.0
1001
ACDBBLOCKREPETAG
1070
     1
1071
      328
1005
131726
  0
ARC
  5
131727
  8
OBJECT
 10
615.99999999999875
 20
-148.0000000000027
 30
0.0
 40
8.0
 50
341.8416470000376
 51
140.40224699998609
1001
ACDBBLOCKREPETAG
1070
     1
1071
      329
1005
131727
  0
ARC
  5
131728
  8
OBJECT
 10
618.8505969999992
 20
-148.93493300000321
 30
0.0
 40
5.0
 50
288.48486900001677
 51
341.8416470000376
1001
ACDBBLOCKREPETAG
1070
     1
1071
      330
1005
131728
  0
LINE
  5
131729
  8
OBJECT
 10
615.99999999999875
 20
-160.00000000000361
 30
0.0
 11
608.99999999999875
 21
-160.00000000000361
 31
0.0
1001
ACDBBLOCKREPETAG
1070
     1
1071
      331
1005
131729
  0
LINE
  5
13172A
  8
OBJECT
 10
615.99999999999875
 20
-170.00000000000361
 30
0.0
 11
608.99999999999875
 21
-170.00000000000361
 31
0.0
1001
ACDBBLOCKREPETAG
1070
     1
1071
      332
1005
13172A
  0
LINE
  5
13172B
  8
OBJECT
 10
615.99999999999875
 20
-160.00000000000361
 30
0.0
 11
615.99999999999875
 21
-170.00000000000361
 31
0.0
1001
ACDBBLOCKREPETAG
1070
     1
1071
      333
1005
13172B
  0
LINE
  5
13172C
  8
OBJECT
 10
608.99999999999875
 20
-157.50000000000361
 30
0.0
 11
608.99999999999875
 21
-172.50000000000361
 31
0.0
1001
ACDBBLOCKREPETAG
1070
     1
1071
      334
1005
13172C
  0
LINE
  5
13172D
  8
OBJECT
 10
605.99999999999875
 20
-173.25000000000361
 30
0.0
 11
608.99999999999875
 21
-172.50000000000361
 31
0.0
1001
ACDBBLOCKREPETAG
1070
     1
1071
      335
1005
13172D
  0
LINE
  5
13172E
  8
OBJECT
 10
605.99999999999875
 20
-182.8220670000037
 30
0.0
 11
609.83118899999909
 21
-187.10318200000441
 31
0.0
1001
ACDBBLOCKREPETAG
1070
     1
1071
      336
1005
13172E
  0
LINE
  5
13172F
  8
OBJECT
 10
605.99999999999875
 20
-156.75000000000361
 30
0.0
 11
608.99999999999875
 21
-157.50000000000361
 31
0.0
1001
ACDBBLOCKREPETAG
1070
     1
1071
      337
1005
13172F
  0
ARC
  5
131730
  8
OBJECT
 10
615.99999999999875
 20
-182.00000000000259
 30
0.0
 40
8.0
 50
219.59775300001391
 51
18.158352999962421
1001
ACDBBLOCKREPETAG
1070
     1
1071
      338
1005
131730
  0
ARC
  5
131731
  8
OBJECT
 10
618.8505969999992
 20
-181.06506700000409
 30
0.0
 40
5.0
 50
18.158352999962421
 51
71.515130999983214
1001
ACDBBLOCKREPETAG
1070
     1
1071
      339
1005
131731
  0
LINE
  5
131732
  8
OBJECT
 10
620.43586799999923
 20
-176.32303000000411
 30
0.0
 11
608.99999999999875
 21
-172.50000000000361
 31
0.0
1001
ACDBBLOCKREPETAG
1070
     1
1071
      340
1005
131732
  0
LINE
  5
131733
  8
OBJECT
 10
620.43586799999923
 20
-153.67697000000311
 30
0.0
 11
608.99999999999875
 21
-157.50000000000361
 31
0.0
1001
ACDBBLOCKREPETAG
1070
     1
1071
      341
1005
131733
  0
ARC
  5
131734
  8
OBJECT
 10
578.99999999999875
 20
-106.0000000000027
 30
0.0
 40
3.0
 50
0.0
 51
90.0
1001
ACDBBLOCKREPETAG
1070
     1
1071
      342
1005
131734
  0
LINE
  5
131735
  8
OBJECT
 10
575.99999999999875
 20
-103.0000000000027
 30
0.0
 11
578.99999999999875
 21
-103.0000000000027
 31
0.0
1001
ACDBBLOCKREPETAG
1070
     1
1071
      343
1005
131735
  0
LINE
  5
131736
  8
OBJECT
 10
605.99999999999875
 20
-120.5000000000036
 30
0.0
 11
581.99999999999875
 21
-120.5000000000036
 31
0.0
1001
ACDBBLOCKREPETAG
1070
     1
1071
      344
1005
131736
  0
INSERT
  5
131737
  8
OBJECT
  2
*U12
 10
0.0
 20
0.0
 30
0.0
  0
LINE
  5
131738
  8
OBJECT
 10
197.99999999999869
 20
-82.000000000003624
 30
0.0
 11
197.99999999999869
 21
-85.000000000003652
 31
0.0
1001
ACDBBLOCKREPETAG
1070
     1
1071
      414
1005
131738
  0
ARC
  5
131739
  8
OBJECT
 10
194.99999999999869
 20
-82.000000000003624
 30
0.0
 40
3.0
 50
0.0
 51
90.0
1001
ACDBBLOCKREPETAG
1070
     1
1071
      415
1005
131739
  0
LINE
  5
13173A
  8
OBJECT
 10
73.999999999998749
 20
-85.000000000003652
 30
0.0
 11
73.999999999998749
 21
-82.000000000003624
 31
0.0
1001
ACDBBLOCKREPETAG
1070
     1
1071
      416
1005
13173A
  0
ARC
  5
13173B
  8
OBJECT
 10
76.999999999998778
 20
-82.000000000003624
 30
0.0
 40
3.0
 50
90.0
 51
180.0
1001
ACDBBLOCKREPETAG
1070
     1
1071
      417
1005
13173B
  0
LINE
  5
13173C
  8
OBJECT
 10
76.999999999998778
 20
-79.000000000003652
 30
0.0
 11
194.99999999999869
 21
-79.000000000003652
 31
0.0
1001
ACDBBLOCKREPETAG
1070
     1
1071
      418
1005
13173C
  0
LINE
  5
13173D
  8
OBJECT
 10
182.99999999999869
 20
-298.00000000000358
 30
0.0
 11
182.99999999999869
 21
-305.00000000000358
 31
0.0
1001
ACDBBLOCKREPETAG
1070
     1
1071
        0
1005
13173D
  0
LINE
  5
13173E
  8
OBJECT
 10
182.99999999999869
 20
-305.00000000000358
 30
0.0
 11
88.999999999998735
 21
-305.00000000000358
 31
0.0
1001
ACDBBLOCKREPETAG
1070
     1
1071
        1
1005
13173E
  0
LINE
  5
13173F
  8
OBJECT
 10
88.999999999998735
 20
-305.00000000000358
 30
0.0
 11
88.999999999998735
 21
-298.00000000000358
 31
0.0
1001
ACDBBLOCKREPETAG
1070
     1
1071
        2
1005
13173F
  0
LINE
  5
131740
  8
OBJECT
 10
88.999999999998735
 20
-298.00000000000358
 30
0.0
 11
182.99999999999869
 21
-298.00000000000358
 31
0.0
1001
ACDBBLOCKREPETAG
1070
     1
1071
        3
1005
131740
  0
LINE
  5
131741
  8
OBJECT
 10
179.99999999999881
 20
-298.00000000000358
 30
0.0
 11
179.99999999999881
 21
-262.00000000000358
 31
0.0
1001
ACDBBLOCKREPETAG
1070
     1
1071
        4
1005
131741
  0
LINE
  5
131742
  8
OBJECT
 10
179.99999999999881
 20
-262.00000000000358
 30
0.0
 11
91.999999999998764
 21
-262.00000000000358
 31
0.0
1001
ACDBBLOCKREPETAG
1070
     1
1071
        5
1005
131742
  0
LINE
  5
131743
  8
OBJECT
 10
91.999999999998764
 20
-262.00000000000358
 30
0.0
 11
91.999999999998764
 21
-298.00000000000358
 31
0.0
1001
ACDBBLOCKREPETAG
1070
     1
1071
        6
1005
131743
  0
LINE
  5
131744
  8
OBJECT
 10
175.49999999999881
 20
-258.00000000000358
 30
0.0
 11
175.49999999999881
 21
-251.00000000000369
 31
0.0
1001
ACDBBLOCKREPETAG
1070
     1
1071
        7
1005
131744
  0
LINE
  5
131745
  8
OBJECT
 10
96.499999999998764
 20
-251.00000000000369
 30
0.0
 11
96.499999999998764
 21
-258.00000000000358
 31
0.0
1001
ACDBBLOCKREPETAG
1070
     1
1071
        8
1005
131745
  0
LINE
  5
131746
  8
OBJECT
 10
96.499999999998764
 20
-258.00000000000358
 30
0.0
 11
175.49999999999881
 21
-258.00000000000358
 31
0.0
1001
ACDBBLOCKREPETAG
1070
     1
1071
        9
1005
131746
  0
LINE
  5
131747
  8
OBJECT
 10
179.99999999999881
 20
-262.00000000000358
 30
0.0
 11
175.49999999999881
 21
-258.00000000000358
 31
0.0
1001
ACDBBLOCKREPETAG
1070
     1
1071
       10
1005
131747
  0
LINE
  5
131748
  8
OBJECT
 10
91.999999999998764
 20
-262.00000000000358
 30
0.0
 11
96.499999999998764
 21
-258.00000000000358
 31
0.0
1001
ACDBBLOCKREPETAG
1070
     1
1071
       11
1005
131748
  0
LINE
  5
131749
  8
OBJECT
 10
197.99999999999869
 20
-248.0000000000046
 30
0.0
 11
197.99999999999869
 21
-245.00000000000369
 31
0.0
1001
ACDBBLOCKREPETAG
1070
     1
1071
       12
1005
131749
  0
ARC
  5
13174A
  8
OBJECT
 10
194.99999999999869
 20
-248.0000000000046
 30
0.0
 40
3.0
 50
270.0
 51
0.0
1001
ACDBBLOCKREPETAG
1070
     1
1071
       13
1005
13174A
  0
LINE
  5
13174B
  8
OBJECT
 10
73.999999999998749
 20
-245.00000000000369
 30
0.0
 11
73.999999999998749
 21
-248.0000000000027
 31
0.0
1001
ACDBBLOCKREPETAG
1070
     1
1071
       14
1005
13174B
  0
ARC
  5
13174C
  8
OBJECT
 10
76.999999999998778
 20
-248.0000000000027
 30
0.0
 40
3.0
 50
180.0
 51
270.0
1001
ACDBBLOCKREPETAG
1070
     1
1071
       15
1005
13174C
  0
LINE
  5
13174D
  8
OBJECT
 10
76.999999999998778
 20
-251.0000000000027
 30
0.0
 11
194.99999999999869
 21
-251.00000000000449
 31
0.0
1001
ACDBBLOCKREPETAG
1070
     1
1071
       16
1005
13174D
  0
INSERT
  5
13174E
  8
OBJECT
  2
*U13
 10
0.0
 20
0.0
 30
0.0
  0
LINE
  5
13174F
  8
HIDDEN
 10
165.99999999999881
 20
-253.00000000000361
 30
0.0
 11
105.99999999999881
 21
-253.00000000000361
 31
0.0
1001
ACDBBLOCKREPETAG
1070
     1
1071
      424
1005
13174F
  0
LINE
  5
131750
  8
OBJECT
 10
221.99999999999881
 20
-106.0000000000027
 30
0.0
 11
221.99999999999881
 21
-224.0000000000027
 31
0.0
1001
ACDBBLOCKREPETAG
1070
     1
1071
      323
1005
131750
  0
LINE
  5
131751
  8
OBJECT
 10
245.99999999999881
 20
-209.50000000000369
 30
0.0
 11
245.99999999999881
 21
-120.5000000000036
 31
0.0
1001
ACDBBLOCKREPETAG
1070
     1
1071
      324
1005
131751
  0
LINE
  5
131752
  8
OBJECT
 10
245.99999999999881
 20
-209.50000000000369
 30
0.0
 11
221.99999999999881
 21
-209.50000000000369
 31
0.0
1001
ACDBBLOCKREPETAG
1070
     1
1071
      325
1005
131752
  0
LINE
  5
131753
  8
OBJECT
 10
215.99999999999881
 20
-227.0000000000027
 30
0.0
 11
218.99999999999881
 21
-227.0000000000027
 31
0.0
1001
ACDBBLOCKREPETAG
1070
     1
1071
      326
1005
131753
  0
ARC
  5
131754
  8
OBJECT
 10
218.99999999999881
 20
-224.0000000000027
 30
0.0
 40
3.0
 50
270.0
 51
0.0
1001
ACDBBLOCKREPETAG
1070
     1
1071
      327
1005
131754
  0
LINE
  5
131755
  8
OBJECT
 10
245.99999999999881
 20
-147.1779340000038
 30
0.0
 11
249.8311889999992
 21
-142.8968180000038
 31
0.0
1001
ACDBBLOCKREPETAG
1070
     1
1071
      328
1005
131755
  0
ARC
  5
131756
  8
OBJECT
 10
255.99999999999881
 20
-148.0000000000027
 30
0.0
 40
8.0
 50
341.84164700003799
 51
140.40224699998501
1001
ACDBBLOCKREPETAG
1070
     1
1071
      329
1005
131756
  0
ARC
  5
131757
  8
OBJECT
 10
258.8505969999992
 20
-148.93493300000321
 30
0.0
 40
5.0
 50
288.4848690000137
 51
341.84164700003799
1001
ACDBBLOCKREPETAG
1070
     1
1071
      330
1005
131757
  0
LINE
  5
131758
  8
OBJECT
 10
255.99999999999881
 20
-160.00000000000361
 30
0.0
 11
248.99999999999881
 21
-160.00000000000361
 31
0.0
1001
ACDBBLOCKREPETAG
1070
     1
1071
      331
1005
131758
  0
LINE
  5
131759
  8
OBJECT
 10
255.99999999999881
 20
-170.00000000000361
 30
0.0
 11
248.99999999999881
 21
-170.00000000000361
 31
0.0
1001
ACDBBLOCKREPETAG
1070
     1
1071
      332
1005
131759
  0
LINE
  5
13175A
  8
OBJECT
 10
255.99999999999881
 20
-160.00000000000361
 30
0.0
 11
255.99999999999881
 21
-170.00000000000361
 31
0.0
1001
ACDBBLOCKREPETAG
1070
     1
1071
      333
1005
13175A
  0
LINE
  5
13175B
  8
OBJECT
 10
248.99999999999881
 20
-157.50000000000361
 30
0.0
 11
248.99999999999881
 21
-172.50000000000361
 31
0.0
1001
ACDBBLOCKREPETAG
1070
     1
1071
      334
1005
13175B
  0
LINE
  5
13175C
  8
OBJECT
 10
245.99999999999881
 20
-173.25000000000361
 30
0.0
 11
248.99999999999881
 21
-172.50000000000361
 31
0.0
1001
ACDBBLOCKREPETAG
1070
     1
1071
      335
1005
13175C
  0
LINE
  5
13175D
  8
OBJECT
 10
245.99999999999881
 20
-182.8220670000037
 30
0.0
 11
249.8311889999992
 21
-187.10318200000441
 31
0.0
1001
ACDBBLOCKREPETAG
1070
     1
1071
      336
1005
13175D
  0
LINE
  5
13175E
  8
OBJECT
 10
245.99999999999881
 20
-156.75000000000361
 30
0.0
 11
248.99999999999881
 21
-157.50000000000361
 31
0.0
1001
ACDBBLOCKREPETAG
1070
     1
1071
      337
1005
13175E
  0
ARC
  5
13175F
  8
OBJECT
 10
255.99999999999881
 20
-182.00000000000259
 30
0.0
 40
8.0
 50
219.59775300001499
 51
18.158352999961931
1001
ACDBBLOCKREPETAG
1070
     1
1071
      338
1005
13175F
  0
ARC
  5
131760
  8
OBJECT
 10
258.8505969999992
 20
-181.06506700000409
 30
0.0
 40
5.0
 50
18.158352999961931
 51
71.515130999986297
1001
ACDBBLOCKREPETAG
1070
     1
1071
      339
1005
131760
  0
LINE
  5
131761
  8
OBJECT
 10
260.43586799999918
 20
-176.32303000000411
 30
0.0
 11
248.99999999999881
 21
-172.50000000000361
 31
0.0
1001
ACDBBLOCKREPETAG
1070
     1
1071
      340
1005
131761
  0
LINE
  5
131762
  8
OBJECT
 10
260.43586799999918
 20
-153.67697000000311
 30
0.0
 11
248.99999999999881
 21
-157.50000000000361
 31
0.0
1001
ACDBBLOCKREPETAG
1070
     1
1071
      341
1005
131762
  0
ARC
  5
131763
  8
OBJECT
 10
218.99999999999881
 20
-106.0000000000027
 30
0.0
 40
3.0
 50
0.0
 51
90.0
1001
ACDBBLOCKREPETAG
1070
     1
1071
      342
1005
131763
  0
LINE
  5
131764
  8
OBJECT
 10
215.99999999999881
 20
-103.0000000000027
 30
0.0
 11
218.99999999999881
 21
-103.0000000000027
 31
0.0
1001
ACDBBLOCKREPETAG
1070
     1
1071
      343
1005
131764
  0
LINE
  5
131765
  8
OBJECT
 10
245.99999999999881
 20
-120.5000000000036
 30
0.0
 11
221.99999999999881
 21
-120.5000000000036
 31
0.0
1001
ACDBBLOCKREPETAG
1070
     1
1071
      344
1005
131765
  0
INSERT
  5
131766
  8
OBJECT
  2
*U14
 10
0.0
 20
0.0
 30
0.0
  0
CIRCLE
  5
131767
  8
OBJECT
 10
495.99999999999858
 20
-629.00000000000364
 30
0.0
 40
70.0
1001
ACDBBLOCKREPETAG
1070
     1
1071
       43
1005
131767
  0
CIRCLE
  5
131768
  8
OBJECT
 10
495.99999999999858
 20
-629.00000000000364
 30
0.0
 40
77.0
1001
ACDBBLOCKREPETAG
1070
     1
1071
       44
1005
131768
  0
ARC
  5
131769
  8
OBJECT
 10
495.99999999999858
 20
-629.00000000000364
 30
0.0
 40
80.0
 50
140.8050325737787
 51
219.19496742621919
1001
ACDBBLOCKREPETAG
1070
     1
1071
       45
1005
131769
  0
LINE
  5
13176A
  8
OBJECT
 10
433.99999999999858
 20
-583.33819977267922
 30
0.0
 11
433.99999999999858
 21
-549.00000000000364
 31
0.0
1001
ACDBBLOCKREPETAG
1070
     1
1071
       46
1005
13176A
  0
LINE
  5
13176B
  8
OBJECT
 10
557.99999999999875
 20
-567.00000000000364
 30
0.0
 11
557.99999999999875
 21
-549.00000000000364
 31
0.0
1001
ACDBBLOCKREPETAG
1070
     1
1071
       22
1005
13176B
  0
LINE
  5
13176C
  8
OBJECT
 10
557.99999999999875
 20
-567.00000000000364
 30
0.0
 11
575.99999999999875
 21
-567.00000000000364
 31
0.0
1001
ACDBBLOCKREPETAG
1070
     1
1071
       24
1005
13176C
  0
LINE
  5
13176D
  8
OBJECT
 10
557.99999999999875
 20
-691.00000000000364
 30
0.0
 11
575.99999999999875
 21
-691.00000000000364
 31
0.0
1001
ACDBBLOCKREPETAG
1070
     1
1071
       25
1005
13176D
  0
LINE
  5
13176E
  8
OBJECT
 10
557.99999999999875
 20
-691.00000000000364
 30
0.0
 11
557.99999999999875
 21
-709.00000000000364
 31
0.0
1001
ACDBBLOCKREPETAG
1070
     1
1071
       27
1005
13176E
  0
LINE
  5
13176F
  8
OBJECT
 10
433.99999999999858
 20
-674.66180022732794
 30
0.0
 11
433.99999999999858
 21
-709.00000000000364
 31
0.0
1001
ACDBBLOCKREPETAG
1070
     1
1071
       28
1005
13176F
  0
LINE
  5
131770
  8
OBJECT
 10
550.44722215136312
 20
-683.4472221513679
 30
0.0
 11
557.99999999999875
 21
-691.00000000000364
 31
0.0
1001
ACDBBLOCKREPETAG
1070
     1
1071
       37
1005
131770
  0
LINE
  5
131771
  8
OBJECT
 10
550.44722215136312
 20
-574.55277784863915
 30
0.0
 11
557.99999999999875
 21
-567.00000000000364
 31
0.0
1001
ACDBBLOCKREPETAG
1070
     1
1071
       38
1005
131771
  0
POINT
  5
131772
  8
DOTS
 10
495.99999999999858
 20
-629.00000000000364
 30
0.0
1001
ACDBBLOCKREPETAG
1070
     1
1071
       39
1005
131772
  0
CIRCLE
  5
131773
  8
OBJECT
 10
495.99999999999858
 20
-629.00000000000364
 30
0.0
 40
53.5
1001
ACDBBLOCKREPETAG
1070
     1
1071
      153
1005
131773
  0
CIRCLE
  5
131774
  8
OBJECT
 10
135.99999999999881
 20
-629.00000000000364
 30
0.0
 40
70.0
1001
ACDBBLOCKREPETAG
1070
     1
1071
       43
1005
131774
  0
CIRCLE
  5
131775
  8
OBJECT
 10
135.99999999999881
 20
-629.00000000000364
 30
0.0
 40
77.0
1001
ACDBBLOCKREPETAG
1070
     1
1071
       44
1005
131775
  0
ARC
  5
131776
  8
OBJECT
 10
135.99999999999881
 20
-629.00000000000364
 30
0.0
 40
80.0
 50
140.80503257377961
 51
219.1949674262203
1001
ACDBBLOCKREPETAG
1070
     1
1071
       45
1005
131776
  0
LINE
  5
131777
  8
OBJECT
 10
73.999999999998749
 20
-583.33819977267922
 30
0.0
 11
73.999999999998749
 21
-549.00000000000364
 31
0.0
1001
ACDBBLOCKREPETAG
1070
     1
1071
       46
1005
131777
  0
LINE
  5
131778
  8
OBJECT
 10
197.99999999999869
 20
-567.00000000000364
 30
0.0
 11
197.99999999999869
 21
-549.00000000000364
 31
0.0
1001
ACDBBLOCKREPETAG
1070
     1
1071
       22
1005
131778
  0
LINE
  5
131779
  8
OBJECT
 10
197.99999999999869
 20
-567.00000000000364
 30
0.0
 11
215.99999999999881
 21
-567.00000000000364
 31
0.0
1001
ACDBBLOCKREPETAG
1070
     1
1071
       24
1005
131779
  0
LINE
  5
13177A
  8
OBJECT
 10
197.99999999999869
 20
-691.00000000000364
 30
0.0
 11
215.99999999999881
 21
-691.00000000000364
 31
0.0
1001
ACDBBLOCKREPETAG
1070
     1
1071
       25
1005
13177A
  0
LINE
  5
13177B
  8
OBJECT
 10
197.99999999999869
 20
-691.00000000000364
 30
0.0
 11
197.99999999999869
 21
-709.00000000000364
 31
0.0
1001
ACDBBLOCKREPETAG
1070
     1
1071
       27
1005
13177B
  0
LINE
  5
13177C
  8
OBJECT
 10
73.999999999998749
 20
-674.66180022732794
 30
0.0
 11
73.999999999998749
 21
-709.00000000000364
 31
0.0
1001
ACDBBLOCKREPETAG
1070
     1
1071
       28
1005
13177C
  0
LINE
  5
13177D
  8
OBJECT
 10
190.44722215136301
 20
-683.4472221513679
 30
0.0
 11
197.99999999999869
 21
-691.00000000000364
 31
0.0
1001
ACDBBLOCKREPETAG
1070
     1
1071
       37
1005
13177D
  0
LINE
  5
13177E
  8
OBJECT
 10
190.44722215136301
 20
-574.55277784863915
 30
0.0
 11
197.99999999999869
 21
-567.00000000000364
 31
0.0
1001
ACDBBLOCKREPETAG
1070
     1
1071
       38
1005
13177E
  0
POINT
  5
13177F
  8
DOTS
 10
135.99999999999881
 20
-629.00000000000364
 30
0.0
1001
ACDBBLOCKREPETAG
1070
     1
1071
       39
1005
13177F
  0
CIRCLE
  5
131780
  8
OBJECT
 10
135.99999999999881
 20
-629.00000000000364
 30
0.0
 40
53.5
1001
ACDBBLOCKREPETAG
1070
     1
1071
      153
1005
131780
  0
CIRCLE
  5
131781
  8
OBJECT
 10
495.99999999999858
 20
-165.00000000000361
 30
0.0
 40
70.0
1001
ACDBBLOCKREPETAG
1070
     1
1071
       43
1005
131781
  0
CIRCLE
  5
131782
  8
OBJECT
 10
495.99999999999858
 20
-165.00000000000361
 30
0.0
 40
77.0
1001
ACDBBLOCKREPETAG
1070
     1
1071
       44
1005
131782
  0
ARC
  5
131783
  8
OBJECT
 10
495.99999999999858
 20
-165.00000000000361
 30
0.0
 40
80.0
 50
140.80503257378001
 51
219.194967426218
1001
ACDBBLOCKREPETAG
1070
     1
1071
       45
1005
131783
  0
LINE
  5
131784
  8
OBJECT
 10
433.99999999999858
 20
-119.3381997726792
 30
0.0
 11
433.99999999999858
 21
-85.000000000003652
 31
0.0
1001
ACDBBLOCKREPETAG
1070
     1
1071
       46
1005
131784
  0
LINE
  5
131785
  8
OBJECT
 10
557.99999999999875
 20
-103.0000000000035
 30
0.0
 11
557.99999999999875
 21
-85.000000000003652
 31
0.0
1001
ACDBBLOCKREPETAG
1070
     1
1071
       22
1005
131785
  0
LINE
  5
131786
  8
OBJECT
 10
557.99999999999875
 20
-103.0000000000035
 30
0.0
 11
575.99999999999875
 21
-103.0000000000035
 31
0.0
1001
ACDBBLOCKREPETAG
1070
     1
1071
       24
1005
131786
  0
LINE
  5
131787
  8
OBJECT
 10
557.99999999999875
 20
-227.00000000000361
 30
0.0
 11
575.99999999999875
 21
-227.00000000000361
 31
0.0
1001
ACDBBLOCKREPETAG
1070
     1
1071
       25
1005
131787
  0
LINE
  5
131788
  8
OBJECT
 10
557.99999999999875
 20
-227.00000000000361
 30
0.0
 11
557.99999999999875
 21
-245.00000000000369
 31
0.0
1001
ACDBBLOCKREPETAG
1070
     1
1071
       27
1005
131788
  0
LINE
  5
131789
  8
OBJECT
 10
433.99999999999858
 20
-210.66180022732809
 30
0.0
 11
433.99999999999858
 21
-245.00000000000369
 31
0.0
1001
ACDBBLOCKREPETAG
1070
     1
1071
       28
1005
131789
  0
LINE
  5
13178A
  8
OBJECT
 10
550.44722215136312
 20
-219.4472221513679
 30
0.0
 11
557.99999999999875
 21
-227.00000000000361
 31
0.0
1001
ACDBBLOCKREPETAG
1070
     1
1071
       37
1005
13178A
  0
LINE
  5
13178B
  8
OBJECT
 10
550.44722215136312
 20
-110.55277784863929
 30
0.0
 11
557.99999999999875
 21
-103.0000000000035
 31
0.0
1001
ACDBBLOCKREPETAG
1070
     1
1071
       38
1005
13178B
  0
POINT
  5
13178C
  8
DOTS
 10
495.99999999999858
 20
-165.00000000000361
 30
0.0
1001
ACDBBLOCKREPETAG
1070
     1
1071
       39
1005
13178C
  0
CIRCLE
  5
13178D
  8
OBJECT
 10
495.99999999999858
 20
-165.00000000000361
 30
0.0
 40
53.5
1001
ACDBBLOCKREPETAG
1070
     1
1071
      153
1005
13178D
  0
CIRCLE
  5
13178E
  8
OBJECT
 10
135.99999999999881
 20
-165.00000000000361
 30
0.0
 40
70.0
1001
ACDBBLOCKREPETAG
1070
     1
1071
       43
1005
13178E
  0
CIRCLE
  5
13178F
  8
OBJECT
 10
135.99999999999881
 20
-165.00000000000361
 30
0.0
 40
77.0
1001
ACDBBLOCKREPETAG
1070
     1
1071
       44
1005
13178F
  0
ARC
  5
131790
  8
OBJECT
 10
135.99999999999881
 20
-165.00000000000361
 30
0.0
 40
80.0
 50
140.80503257378101
 51
219.19496742621899
1001
ACDBBLOCKREPETAG
1070
     1
1071
       45
1005
131790
  0
LINE
  5
131791
  8
OBJECT
 10
73.999999999998749
 20
-119.3381997726792
 30
0.0
 11
73.999999999998749
 21
-85.000000000003652
 31
0.0
1001
ACDBBLOCKREPETAG
1070
     1
1071
       46
1005
131791
  0
LINE
  5
131792
  8
OBJECT
 10
197.99999999999869
 20
-103.0000000000035
 30
0.0
 11
197.99999999999869
 21
-85.000000000003652
 31
0.0
1001
ACDBBLOCKREPETAG
1070
     1
1071
       22
1005
131792
  0
LINE
  5
131793
  8
OBJECT
 10
197.99999999999869
 20
-103.0000000000035
 30
0.0
 11
215.99999999999881
 21
-103.0000000000035
 31
0.0
1001
ACDBBLOCKREPETAG
1070
     1
1071
       24
1005
131793
  0
LINE
  5
131794
  8
OBJECT
 10
197.99999999999869
 20
-227.00000000000361
 30
0.0
 11
215.99999999999881
 21
-227.00000000000361
 31
0.0
1001
ACDBBLOCKREPETAG
1070
     1
1071
       25
1005
131794
  0
LINE
  5
131795
  8
OBJECT
 10
197.99999999999869
 20
-227.00000000000361
 30
0.0
 11
197.99999999999869
 21
-245.00000000000369
 31
0.0
1001
ACDBBLOCKREPETAG
1070
     1
1071
       27
1005
131795
  0
LINE
  5
131796
  8
OBJECT
 10
73.999999999998749
 20
-210.66180022732809
 30
0.0
 11
73.999999999998749
 21
-245.00000000000369
 31
0.0
1001
ACDBBLOCKREPETAG
1070
     1
1071
       28
1005
131796
  0
LINE
  5
131797
  8
OBJECT
 10
190.44722215136301
 20
-219.4472221513679
 30
0.0
 11
197.99999999999869
 21
-227.00000000000361
 31
0.0
1001
ACDBBLOCKREPETAG
1070
     1
1071
       37
1005
131797
  0
LINE
  5
131798
  8
OBJECT
 10
190.44722215136301
 20
-110.55277784863929
 30
0.0
 11
197.99999999999869
 21
-103.0000000000035
 31
0.0
1001
ACDBBLOCKREPETAG
1070
     1
1071
       38
1005
131798
  0
POINT
  5
131799
  8
DOTS
 10
135.99999999999881
 20
-165.00000000000361
 30
0.0
1001
ACDBBLOCKREPETAG
1070
     1
1071
       39
1005
131799
  0
CIRCLE
  5
13179A
  8
OBJECT
 10
135.99999999999881
 20
-165.00000000000361
 30
0.0
 40
53.5
1001
ACDBBLOCKREPETAG
1070
     1
1071
      153
1005
13179A
  0
POLYLINE
  5
13179B
  8
HIDDEN
 66
     1
 10
0.0
 20
0.0
 30
0.0
 70
     1
  0
VERTEX
  5
131B4C
  8
HIDDEN
 10
0.0
 20
0.0
 30
0.0
  0
VERTEX
  5
131B4D
  8
HIDDEN
 10
360.0
 20
0.0
 30
0.0
  0
VERTEX
  5
131B4E
  8
HIDDEN
 10
360.0
 20
-464.0
 30
0.0
  0
VERTEX
  5
131B4F
  8
HIDDEN
 10
0.0
 20
-464.0
 30
0.0
  0
SEQEND
  5
131B50
  8
HIDDEN
  0
POLYLINE
  5
13179C
  8
HIDDEN
 66
     1
 10
0.0
 20
0.0
 30
0.0
 70
     1
  0
VERTEX
  5
131B51
  8
HIDDEN
 10
360.0
 20
0.0
 30
0.0
  0
VERTEX
  5
131B52
  8
HIDDEN
 10
720.0
 20
0.0
 30
0.0
  0
VERTEX
  5
131B53
  8
HIDDEN
 10
720.0
 20
-464.0
 30
0.0
  0
VERTEX
  5
131B54
  8
HIDDEN
 10
360.0
 20
-464.0
 30
0.0
  0
SEQEND
  5
131B55
  8
HIDDEN
  0
POLYLINE
  5
13179D
  8
HIDDEN
 66
     1
 10
0.0
 20
0.0
 30
0.0
 70
     1
  0
VERTEX
  5
131B56
  8
HIDDEN
 10
0.0
 20
-464.0
 30
0.0
  0
VERTEX
  5
131B57
  8
HIDDEN
 10
360.0
 20
-464.0
 30
0.0
  0
VERTEX
  5
131B58
  8
HIDDEN
 10
360.0
 20
-928.0
 30
0.0
  0
VERTEX
  5
131B59
  8
HIDDEN
 10
0.0
 20
-928.0
 30
0.0
  0
SEQEND
  5
131B5A
  8
HIDDEN
  0
POLYLINE
  5
13179E
  8
HIDDEN
 66
     1
 10
0.0
 20
0.0
 30
0.0
 70
     1
  0
VERTEX
  5
131B5B
  8
HIDDEN
 10
360.0
 20
-464.0
 30
0.0
  0
VERTEX
  5
131B5C
  8
HIDDEN
 10
720.0
 20
-464.0
 30
0.0
  0
VERTEX
  5
131B5D
  8
HIDDEN
 10
720.0
 20
-928.0
 30
0.0
  0
VERTEX
  5
131B5E
  8
HIDDEN
 10
360.0
 20
-928.0
 30
0.0
  0
SEQEND
  5
131B5F
  8
HIDDEN
  0
TEXT
  5
13179F
  8
SLIM
 10
3698.5
 20
-1809.666666666664
 30
0.0
 40
28.0
  1
　※ 掃除口（CO）の正面にはメンテナンススペース
 41
0.75
1001
ACDBBLOCKREPETAG
1070
     1
1071
      103
1005
12E1BE
  0
TEXT
  5
1317A0
  8
SLIM
 10
3707.0999999999999
 20
-1856.3333333333301
 30
0.0
 40
28.0
  1
　　（参考値：80mm以上）を確保してください。
 41
0.75
1001
ACDBBLOCKREPETAG
1070
     1
1071
      103
1005
12E1BE
  0
TEXT
  5
1317A1
  8
SLIM
 10
1698.5
 20
-1558.166666666664
 30
0.0
 40
28.0
  1
　※ 掃除口（CO）の正面にはメンテナンススペース
 41
0.75
1001
ACDBBLOCKREPETAG
1070
     1
1071
      103
1005
12E1BE
  0
TEXT
  5
1317A2
  8
SLIM
 10
1707.0999999999999
 20
-1604.833333333331
 30
0.0
 40
28.0
  1
　　（参考値：80mm以上）を確保してください。
 41
0.75
1001
ACDBBLOCKREPETAG
1070
     1
1071
      103
1005
12E1BE
  0
CIRCLE
  5
1317A3
  8
OBJECT
 10
5000.0
 20
-3294.9999999999959
 30
0.0
 40
53.5
1001
ACDBBLOCKREPETAG
1070
     1
1071
      344
1005
1317A3
  0
LINE
  5
1317A4
  8
CENTER
 10
5080.0
 20
-3294.9999999999959
 30
0.0
 11
4905.0
 21
-3294.9999999999959
 31
0.0
1001
ACDBBLOCKREPETAG
1070
     1
1071
       14
1005
1317A4
  0
LINE
  5
1317A5
  8
CENTER
 10
5000.0
 20
-3389.9999999999968
 30
0.0
 11
5000.0
 21
-3199.9999999999959
 31
0.0
1001
ACDBBLOCKREPETAG
1070
     1
1071
       15
1005
1317A5
  0
CIRCLE
  5
1317A6
  8
OBJECT
 10
5000.0
 20
-3294.9999999999959
 30
0.0
 40
70.0
1001
ACDBBLOCKREPETAG
1070
     1
1071
       16
1005
1317A6
  0
CIRCLE
  5
1317A7
  8
OBJECT
 10
5000.0
 20
-3294.9999999999959
 30
0.0
 40
77.0
1001
ACDBBLOCKREPETAG
1070
     1
1071
       17
1005
1317A7
  0
ARC
  5
1317A8
  8
OBJECT
 10
5000.0
 20
-3294.9999999999959
 30
0.0
 40
80.0
 50
50.805032573882329
 51
309.19496742611773
1001
ACDBBLOCKREPETAG
1070
     1
1071
       18
1005
1317A8
  0
LINE
  5
1317A9
  8
OBJECT
 10
5045.6618002273253
 20
-3232.9999999999959
 30
0.0
 11
5080.0
 21
-3232.9999999999959
 31
0.0
1001
ACDBBLOCKREPETAG
1070
     1
1071
       19
1005
1317A9
  0
LINE
  5
1317AA
  8
OBJECT
 10
5045.6618002273253
 20
-3356.9999999999959
 30
0.0
 11
5080.0
 21
-3356.9999999999959
 31
0.0
1001
ACDBBLOCKREPETAG
1070
     1
1071
       20
1005
1317AA
  0
POINT
  5
1317AB
  8
DOTS
 10
5000.0
 20
-3294.9999999999959
 30
0.0
1001
ACDBBLOCKREPETAG
1070
     1
1071
       21
1005
1317AB
  0
CIRCLE
  5
1317AC
  8
OBJECT
 10
4000.0
 20
-3294.9999999999959
 30
0.0
 40
53.5
1001
ACDBBLOCKREPETAG
1070
     1
1071
      344
1005
1317AC
  0
LINE
  5
1317AD
  8
CENTER
 10
4080.0
 20
-3294.9999999999959
 30
0.0
 11
3905.0
 21
-3294.9999999999959
 31
0.0
1001
ACDBBLOCKREPETAG
1070
     1
1071
       14
1005
1317AD
  0
LINE
  5
1317AE
  8
CENTER
 10
4000.0
 20
-3389.9999999999968
 30
0.0
 11
4000.0
 21
-3199.9999999999959
 31
0.0
1001
ACDBBLOCKREPETAG
1070
     1
1071
       15
1005
1317AE
  0
CIRCLE
  5
1317AF
  8
OBJECT
 10
4000.0
 20
-3294.9999999999959
 30
0.0
 40
70.0
1001
ACDBBLOCKREPETAG
1070
     1
1071
       16
1005
1317AF
  0
CIRCLE
  5
1317B0
  8
OBJECT
 10
4000.0
 20
-3294.9999999999959
 30
0.0
 40
77.0
1001
ACDBBLOCKREPETAG
1070
     1
1071
       17
1005
1317B0
  0
ARC
  5
1317B1
  8
OBJECT
 10
4000.0
 20
-3294.9999999999959
 30
0.0
 40
80.0
 50
50.805032573862128
 51
309.19496742613791
1001
ACDBBLOCKREPETAG
1070
     1
1071
       18
1005
1317B1
  0
LINE
  5
1317B2
  8
OBJECT
 10
4045.661800227324
 20
-3232.9999999999959
 30
0.0
 11
4080.0
 21
-3232.9999999999959
 31
0.0
1001
ACDBBLOCKREPETAG
1070
     1
1071
       19
1005
1317B2
  0
LINE
  5
1317B3
  8
OBJECT
 10
4045.661800227324
 20
-3356.9999999999959
 30
0.0
 11
4080.0
 21
-3356.9999999999959
 31
0.0
1001
ACDBBLOCKREPETAG
1070
     1
1071
       20
1005
1317B3
  0
POINT
  5
1317B4
  8
DOTS
 10
4000.0
 20
-3294.9999999999959
 30
0.0
1001
ACDBBLOCKREPETAG
1070
     1
1071
       21
1005
1317B4
  0
CIRCLE
  5
1317B5
  8
OBJECT
 10
3000.0
 20
-3294.9999999999959
 30
0.0
 40
53.5
1001
ACDBBLOCKREPETAG
1070
     1
1071
      344
1005
1317B5
  0
LINE
  5
1317B6
  8
CENTER
 10
3080.0
 20
-3294.9999999999959
 30
0.0
 11
2905.0
 21
-3294.9999999999959
 31
0.0
1001
ACDBBLOCKREPETAG
1070
     1
1071
       14
1005
1317B6
  0
LINE
  5
1317B7
  8
CENTER
 10
3000.0
 20
-3389.9999999999968
 30
0.0
 11
3000.0
 21
-3199.9999999999959
 31
0.0
1001
ACDBBLOCKREPETAG
1070
     1
1071
       15
1005
1317B7
  0
CIRCLE
  5
1317B8
  8
OBJECT
 10
3000.0
 20
-3294.9999999999959
 30
0.0
 40
70.0
1001
ACDBBLOCKREPETAG
1070
     1
1071
       16
1005
1317B8
  0
CIRCLE
  5
1317B9
  8
OBJECT
 10
3000.0
 20
-3294.9999999999959
 30
0.0
 40
77.0
1001
ACDBBLOCKREPETAG
1070
     1
1071
       17
1005
1317B9
  0
ARC
  5
1317BA
  8
OBJECT
 10
3000.0
 20
-3294.9999999999959
 30
0.0
 40
80.0
 50
50.805032573862128
 51
309.19496742613791
1001
ACDBBLOCKREPETAG
1070
     1
1071
       18
1005
1317BA
  0
LINE
  5
1317BB
  8
OBJECT
 10
3045.6618002273249
 20
-3232.9999999999959
 30
0.0
 11
3080.0
 21
-3232.9999999999959
 31
0.0
1001
ACDBBLOCKREPETAG
1070
     1
1071
       19
1005
1317BB
  0
LINE
  5
1317BC
  8
OBJECT
 10
3045.6618002273249
 20
-3356.9999999999959
 30
0.0
 11
3080.0
 21
-3356.9999999999959
 31
0.0
1001
ACDBBLOCKREPETAG
1070
     1
1071
       20
1005
1317BC
  0
POINT
  5
1317BD
  8
DOTS
 10
3000.0
 20
-3294.9999999999959
 30
0.0
1001
ACDBBLOCKREPETAG
1070
     1
1071
       21
1005
1317BD
  0
CIRCLE
  5
1317BE
  8
OBJECT
 10
2000.0
 20
-3294.9999999999959
 30
0.0
 40
53.5
1001
ACDBBLOCKREPETAG
1070
     1
1071
      344
1005
1317BE
  0
LINE
  5
1317BF
  8
CENTER
 10
2080.0
 20
-3294.9999999999959
 30
0.0
 11
1905.0
 21
-3294.9999999999959
 31
0.0
1001
ACDBBLOCKREPETAG
1070
     1
1071
       14
1005
1317BF
  0
LINE
  5
1317C0
  8
CENTER
 10
2000.0
 20
-3389.9999999999968
 30
0.0
 11
2000.0
 21
-3199.9999999999959
 31
0.0
1001
ACDBBLOCKREPETAG
1070
     1
1071
       15
1005
1317C0
  0
CIRCLE
  5
1317C1
  8
OBJECT
 10
2000.0
 20
-3294.9999999999959
 30
0.0
 40
70.0
1001
ACDBBLOCKREPETAG
1070
     1
1071
       16
1005
1317C1
  0
CIRCLE
  5
1317C2
  8
OBJECT
 10
2000.0
 20
-3294.9999999999959
 30
0.0
 40
77.0
1001
ACDBBLOCKREPETAG
1070
     1
1071
       17
1005
1317C2
  0
ARC
  5
1317C3
  8
OBJECT
 10
2000.0
 20
-3294.9999999999959
 30
0.0
 40
80.0
 50
50.805032573862128
 51
309.19496742613791
1001
ACDBBLOCKREPETAG
1070
     1
1071
       18
1005
1317C3
  0
LINE
  5
1317C4
  8
OBJECT
 10
2045.6618002273251
 20
-3232.9999999999959
 30
0.0
 11
2080.0
 21
-3232.9999999999959
 31
0.0
1001
ACDBBLOCKREPETAG
1070
     1
1071
       19
1005
1317C4
  0
LINE
  5
1317C5
  8
OBJECT
 10
2045.6618002273251
 20
-3356.9999999999959
 30
0.0
 11
2080.0
 21
-3356.9999999999959
 31
0.0
1001
ACDBBLOCKREPETAG
1070
     1
1071
       20
1005
1317C5
  0
POINT
  5
1317C6
  8
DOTS
 10
2000.0
 20
-3294.9999999999959
 30
0.0
1001
ACDBBLOCKREPETAG
1070
     1
1071
       21
1005
1317C6
  0
CIRCLE
  5
1317C7
  8
OBJECT
 10
2000.0
 20
-199.99999999999909
 30
0.0
 40
53.5
1001
ACDBBLOCKREPETAG
1070
     1
1071
      340
1005
1317C7
  0
LINE
  5
1317C8
  8
CENTER
 10
2080.0
 20
-199.99999999999909
 30
0.0
 11
1920.0
 21
-199.99999999999909
 31
0.0
1001
ACDBBLOCKREPETAG
1070
     1
1071
       49
1005
1317C8
  0
LINE
  5
1317C9
  8
CENTER
 10
2000.0
 20
-279.99999999999909
 30
0.0
 11
2000.0
 21
-104.9999999999991
 31
0.0
1001
ACDBBLOCKREPETAG
1070
     1
1071
       50
1005
1317C9
  0
CIRCLE
  5
1317CA
  8
OBJECT
 10
2000.0
 20
-199.99999999999909
 30
0.0
 40
70.0
1001
ACDBBLOCKREPETAG
1070
     1
1071
       51
1005
1317CA
  0
CIRCLE
  5
1317CB
  8
OBJECT
 10
2000.0
 20
-199.99999999999909
 30
0.0
 40
77.0
1001
ACDBBLOCKREPETAG
1070
     1
1071
       52
1005
1317CB
  0
ARC
  5
1317CC
  8
OBJECT
 10
2000.0
 20
-199.99999999999909
 30
0.0
 40
80.0
 50
50.805032573864182
 51
129.1949674261358
1001
ACDBBLOCKREPETAG
1070
     1
1071
       53
1005
1317CC
  0
LINE
  5
1317CD
  8
OBJECT
 10
2045.6618002273251
 20
-137.99999999999909
 30
0.0
 11
2080.0
 21
-137.99999999999909
 31
0.0
1001
ACDBBLOCKREPETAG
1070
     1
1071
       54
1005
1317CD
  0
LINE
  5
1317CE
  8
OBJECT
 10
2062.0
 20
-261.99999999999909
 30
0.0
 11
2080.0
 21
-261.99999999999909
 31
0.0
1001
ACDBBLOCKREPETAG
1070
     1
1071
       55
1005
1317CE
  0
LINE
  5
1317CF
  8
OBJECT
 10
2062.0
 20
-261.99999999999909
 30
0.0
 11
2062.0
 21
-279.99999999999909
 31
0.0
1001
ACDBBLOCKREPETAG
1070
     1
1071
       57
1005
1317CF
  0
LINE
  5
1317D0
  8
OBJECT
 10
1938.0
 20
-261.99999999999909
 30
0.0
 11
1938.0
 21
-279.99999999999909
 31
0.0
1001
ACDBBLOCKREPETAG
1070
     1
1071
       58
1005
1317D0
  0
POINT
  5
1317D1
  8
DOTS
 10
2000.0
 20
-199.99999999999909
 30
0.0
 50
90.0
1001
ACDBBLOCKREPETAG
1070
     1
1071
       59
1005
1317D1
  0
LINE
  5
1317D2
  8
OBJECT
 10
1938.0
 20
-261.99999999999909
 30
0.0
 11
1920.0
 21
-261.99999999999909
 31
0.0
1001
ACDBBLOCKREPETAG
1070
     1
1071
       60
1005
1317D2
  0
LINE
  5
1317D3
  8
OBJECT
 10
1954.3381997726749
 20
-137.99999999999909
 30
0.0
 11
1920.0
 21
-137.99999999999909
 31
0.0
1001
ACDBBLOCKREPETAG
1070
     1
1071
       61
1005
1317D3
  0
LINE
  5
1317D4
  8
OBJECT
 10
1945.5527778486351
 20
-254.44722215136329
 30
0.0
 11
1938.0
 21
-261.99999999999909
 31
0.0
1001
ACDBBLOCKREPETAG
1070
     1
1071
       42
1005
1317D4
  0
LINE
  5
1317D5
  8
OBJECT
 10
2054.4472221513638
 20
-254.44722215136329
 30
0.0
 11
2062.0
 21
-261.99999999999909
 31
0.0
1001
ACDBBLOCKREPETAG
1070
     1
1071
       43
1005
1317D5
  0
LINE
  5
1317D6
  8
OBJECT
 10
1867.0
 20
-261.99999999999909
 30
0.0
 11
1860.0
 21
-261.99999999999909
 31
0.0
1001
ACDBBLOCKREPETAG
1070
     1
1071
       47
1005
1317D6
  0
LINE
  5
1317D7
  8
OBJECT
 10
1860.0
 20
-261.99999999999909
 30
0.0
 11
1860.0
 21
-137.99999999999909
 31
0.0
1001
ACDBBLOCKREPETAG
1070
     1
1071
       48
1005
1317D7
  0
LINE
  5
1317D8
  8
OBJECT
 10
1860.0
 20
-137.99999999999909
 30
0.0
 11
1867.0
 21
-137.99999999999909
 31
0.0
1001
ACDBBLOCKREPETAG
1070
     1
1071
       49
1005
1317D8
  0
LINE
  5
1317D9
  8
OBJECT
 10
1867.0
 20
-137.99999999999909
 30
0.0
 11
1867.0
 21
-261.99999999999909
 31
0.0
1001
ACDBBLOCKREPETAG
1070
     1
1071
       50
1005
1317D9
  0
LINE
  5
1317DA
  8
CENTER
 10
1845.0
 20
-199.99999999999909
 30
0.0
 11
1920.0
 21
-199.99999999999909
 31
0.0
1001
ACDBBLOCKREPETAG
1070
     1
1071
       51
1005
1317DA
  0
LINE
  5
1317DB
  8
OBJECT
 10
1867.0
 20
-258.99999999999909
 30
0.0
 11
1903.0
 21
-258.99999999999909
 31
0.0
1001
ACDBBLOCKREPETAG
1070
     1
1071
       52
1005
1317DB
  0
LINE
  5
1317DC
  8
OBJECT
 10
1903.0
 20
-258.99999999999909
 30
0.0
 11
1903.0
 21
-140.99999999999909
 31
0.0
1001
ACDBBLOCKREPETAG
1070
     1
1071
       53
1005
1317DC
  0
LINE
  5
1317DD
  8
OBJECT
 10
1903.0
 20
-140.99999999999909
 30
0.0
 11
1867.0
 21
-140.99999999999909
 31
0.0
1001
ACDBBLOCKREPETAG
1070
     1
1071
       54
1005
1317DD
  0
LINE
  5
1317DE
  8
OBJECT
 10
1907.0
 20
-254.49999999999909
 30
0.0
 11
1914.0
 21
-254.49999999999909
 31
0.0
1001
ACDBBLOCKREPETAG
1070
     1
1071
       55
1005
1317DE
  0
LINE
  5
1317DF
  8
OBJECT
 10
1914.0
 20
-145.49999999999909
 30
0.0
 11
1907.0
 21
-145.49999999999909
 31
0.0
1001
ACDBBLOCKREPETAG
1070
     1
1071
       56
1005
1317DF
  0
LINE
  5
1317E0
  8
OBJECT
 10
1907.0
 20
-145.49999999999909
 30
0.0
 11
1907.0
 21
-254.49999999999909
 31
0.0
1001
ACDBBLOCKREPETAG
1070
     1
1071
       57
1005
1317E0
  0
LINE
  5
1317E1
  8
OBJECT
 10
1903.0
 20
-258.99999999999909
 30
0.0
 11
1907.0
 21
-254.49999999999909
 31
0.0
1001
ACDBBLOCKREPETAG
1070
     1
1071
       58
1005
1317E1
  0
LINE
  5
1317E2
  8
OBJECT
 10
1903.0
 20
-140.99999999999909
 30
0.0
 11
1907.0
 21
-145.49999999999909
 31
0.0
1001
ACDBBLOCKREPETAG
1070
     1
1071
       59
1005
1317E2
  0
LINE
  5
1317E3
  8
OBJECT
 10
1917.0
 20
-261.99999999999909
 30
0.0
 11
1920.0
 21
-261.99999999999909
 31
0.0
1001
ACDBBLOCKREPETAG
1070
     1
1071
       60
1005
1317E3
  0
ARC
  5
1317E4
  8
OBJECT
 10
1917.0
 20
-258.99999999999909
 30
0.0
 40
3.0
 50
180.0
 51
270.0
1001
ACDBBLOCKREPETAG
1070
     1
1071
       61
1005
1317E4
  0
LINE
  5
1317E5
  8
OBJECT
 10
1920.0
 20
-137.99999999999909
 30
0.0
 11
1917.0
 21
-137.99999999999909
 31
0.0
1001
ACDBBLOCKREPETAG
1070
     1
1071
       62
1005
1317E5
  0
ARC
  5
1317E6
  8
OBJECT
 10
1917.0
 20
-140.99999999999909
 30
0.0
 40
3.0
 50
90.0
 51
180.0
1001
ACDBBLOCKREPETAG
1070
     1
1071
       63
1005
1317E6
  0
LINE
  5
1317E7
  8
OBJECT
 10
1914.0
 20
-140.99999999999909
 30
0.0
 11
1914.0
 21
-258.99999999999909
 31
0.0
1001
ACDBBLOCKREPETAG
1070
     1
1071
       64
1005
1317E7
  0
LINE
  5
1317E8
  8
HIDDEN
 10
1912.0
 20
-244.49999999999909
 30
0.0
 11
1912.0
 21
-155.49999999999909
 31
0.0
1001
ACDBBLOCKREPETAG
1070
     1
1071
       65
1005
1317E8
  0
LINE
  5
1317E9
  8
CENTER
 10
2000.0
 20
-279.99999999999909
 30
0.0
 11
2000.0
 21
-334.99999999999898
 31
0.0
1001
ACDBBLOCKREPETAG
1070
     1
1071
      352
1005
1317E9
  0
LINE
  5
1317EA
  8
OBJECT
 10
2059.0
 20
-285.99999999999898
 30
0.0
 11
1941.0
 21
-285.99999999999898
 31
0.0
1001
ACDBBLOCKREPETAG
1070
     1
1071
      353
1005
1317EA
  0
LINE
  5
1317EB
  8
OBJECT
 10
1955.5
 20
-309.99999999999898
 30
0.0
 11
2044.5
 21
-309.99999999999898
 31
0.0
1001
ACDBBLOCKREPETAG
1070
     1
1071
      354
1005
1317EB
  0
LINE
  5
1317EC
  8
OBJECT
 10
1955.5
 20
-309.99999999999898
 30
0.0
 11
1955.5
 21
-285.99999999999898
 31
0.0
1001
ACDBBLOCKREPETAG
1070
     1
1071
      355
1005
1317EC
  0
LINE
  5
1317ED
  8
OBJECT
 10
1938.0
 20
-279.99999999999909
 30
0.0
 11
1938.0
 21
-282.99999999999898
 31
0.0
1001
ACDBBLOCKREPETAG
1070
     1
1071
      356
1005
1317ED
  0
ARC
  5
1317EE
  8
OBJECT
 10
1941.0
 20
-282.99999999999898
 30
0.0
 40
3.0
 50
180.0
 51
270.0
1001
ACDBBLOCKREPETAG
1070
     1
1071
      357
1005
1317EE
  0
LINE
  5
1317EF
  8
OBJECT
 10
2017.8220660000011
 20
-309.99999999999898
 30
0.0
 11
2022.1031819999989
 21
-313.83118899999948
 31
0.0
1001
ACDBBLOCKREPETAG
1070
     1
1071
      358
1005
1317EF
  0
ARC
  5
1317F0
  8
OBJECT
 10
2017.0
 20
-319.99999999999898
 30
0.0
 40
8.0
 50
251.8416470000376
 51
50.402247000150382
1001
ACDBBLOCKREPETAG
1070
     1
1071
      359
1005
1317F0
  0
ARC
  5
1317F1
  8
OBJECT
 10
2016.0650669999991
 20
-322.8505969999996
 30
0.0
 40
5.0
 50
198.48486899996169
 51
251.8416470000376
1001
ACDBBLOCKREPETAG
1070
     1
1071
      360
1005
1317F1
  0
LINE
  5
1317F2
  8
OBJECT
 10
2005.0
 20
-319.99999999999898
 30
0.0
 11
2005.0
 21
-312.99999999999909
 31
0.0
1001
ACDBBLOCKREPETAG
1070
     1
1071
      361
1005
1317F2
  0
LINE
  5
1317F3
  8
OBJECT
 10
1995.0
 20
-319.99999999999898
 30
0.0
 11
1995.0
 21
-312.99999999999909
 31
0.0
1001
ACDBBLOCKREPETAG
1070
     1
1071
      362
1005
1317F3
  0
LINE
  5
1317F4
  8
OBJECT
 10
2005.0
 20
-319.99999999999898
 30
0.0
 11
1995.0
 21
-319.99999999999898
 31
0.0
1001
ACDBBLOCKREPETAG
1070
     1
1071
      363
1005
1317F4
  0
LINE
  5
1317F5
  8
OBJECT
 10
2007.5
 20
-312.99999999999909
 30
0.0
 11
1992.5
 21
-312.99999999999909
 31
0.0
1001
ACDBBLOCKREPETAG
1070
     1
1071
      364
1005
1317F5
  0
LINE
  5
1317F6
  8
OBJECT
 10
1991.75
 20
-309.99999999999898
 30
0.0
 11
1992.5
 21
-312.99999999999909
 31
0.0
1001
ACDBBLOCKREPETAG
1070
     1
1071
      365
1005
1317F6
  0
LINE
  5
1317F7
  8
OBJECT
 10
1982.177932999999
 20
-309.99999999999898
 30
0.0
 11
1977.8968180000011
 21
-313.83118899999948
 31
0.0
1001
ACDBBLOCKREPETAG
1070
     1
1071
      366
1005
1317F7
  0
LINE
  5
1317F8
  8
OBJECT
 10
2008.25
 20
-309.99999999999898
 30
0.0
 11
2007.5
 21
-312.99999999999909
 31
0.0
1001
ACDBBLOCKREPETAG
1070
     1
1071
      367
1005
1317F8
  0
ARC
  5
1317F9
  8
OBJECT
 10
1983.0
 20
-319.99999999999898
 30
0.0
 40
8.0
 50
129.59775299984949
 51
288.1583529999624
1001
ACDBBLOCKREPETAG
1070
     1
1071
      368
1005
1317F9
  0
ARC
  5
1317FA
  8
OBJECT
 10
1983.934933
 20
-322.8505969999996
 30
0.0
 40
5.0
 50
288.1583529999624
 51
341.51513100003518
1001
ACDBBLOCKREPETAG
1070
     1
1071
      369
1005
1317FA
  0
LINE
  5
1317FB
  8
OBJECT
 10
1988.67697
 20
-324.43586799999957
 30
0.0
 11
1992.5
 21
-312.99999999999909
 31
0.0
1001
ACDBBLOCKREPETAG
1070
     1
1071
      370
1005
1317FB
  0
LINE
  5
1317FC
  8
OBJECT
 10
2011.3230299999991
 20
-324.43586799999957
 30
0.0
 11
2007.5
 21
-312.99999999999909
 31
0.0
1001
ACDBBLOCKREPETAG
1070
     1
1071
      371
1005
1317FC
  0
ARC
  5
1317FD
  8
OBJECT
 10
2059.0
 20
-282.99999999999898
 30
0.0
 40
3.0
 50
270.0
 51
0.0
1001
ACDBBLOCKREPETAG
1070
     1
1071
      372
1005
1317FD
  0
LINE
  5
1317FE
  8
OBJECT
 10
2062.0
 20
-279.99999999999909
 30
0.0
 11
2062.0
 21
-282.99999999999898
 31
0.0
1001
ACDBBLOCKREPETAG
1070
     1
1071
      373
1005
1317FE
  0
LINE
  5
1317FF
  8
OBJECT
 10
2044.5
 20
-309.99999999999898
 30
0.0
 11
2044.5
 21
-285.99999999999898
 31
0.0
1001
ACDBBLOCKREPETAG
1070
     1
1071
      374
1005
1317FF
  0
LINE
  5
131800
  8
CENTER
 10
2101.0
 20
-199.99999999999909
 30
0.0
 11
2080.0
 21
-199.99999999999909
 31
0.0
1001
ACDBBLOCKREPETAG
1070
     1
1071
        0
1005
131800
  0
LINE
  5
131801
  8
OBJECT
 10
2083.0
 20
-137.99999999999909
 30
0.0
 11
2080.0
 21
-137.99999999999909
 31
0.0
1001
ACDBBLOCKREPETAG
1070
     1
1071
        1
1005
131801
  0
ARC
  5
131802
  8
OBJECT
 10
2083.0
 20
-140.99999999999909
 30
0.0
 40
3.0
 50
0.0
 51
90.0
1001
ACDBBLOCKREPETAG
1070
     1
1071
        2
1005
131802
  0
LINE
  5
131803
  8
OBJECT
 10
2080.0
 20
-261.99999999999909
 30
0.0
 11
2083.0
 21
-261.99999999999909
 31
0.0
1001
ACDBBLOCKREPETAG
1070
     1
1071
        3
1005
131803
  0
ARC
  5
131804
  8
OBJECT
 10
2083.0
 20
-258.99999999999909
 30
0.0
 40
3.0
 50
270.0
 51
0.0
1001
ACDBBLOCKREPETAG
1070
     1
1071
        4
1005
131804
  0
LINE
  5
131805
  8
OBJECT
 10
2086.0
 20
-258.99999999999909
 30
0.0
 11
2086.0
 21
-140.99999999999909
 31
0.0
1001
ACDBBLOCKREPETAG
1070
     1
1071
        5
1005
131805
  0
LINE
  5
131806
  8
OBJECT
 10
1867.0
 20
-634.0
 30
0.0
 11
1860.0
 21
-634.0
 31
0.0
1001
ACDBBLOCKREPETAG
1070
     1
1071
       45
1005
131806
  0
LINE
  5
131807
  8
OBJECT
 10
1860.0
 20
-634.0
 30
0.0
 11
1860.0
 21
-755.0
 31
0.0
1001
ACDBBLOCKREPETAG
1070
     1
1071
       46
1005
131807
  0
LINE
  5
131808
  8
OBJECT
 10
1867.0
 20
-755.0
 30
0.0
 11
1867.0
 21
-634.0
 31
0.0
1001
ACDBBLOCKREPETAG
1070
     1
1071
       47
1005
131808
  0
LINE
  5
131809
  8
CENTER
 10
1845.0
 20
-696.0
 30
0.0
 11
1929.0
 21
-696.0
 31
0.0
1001
ACDBBLOCKREPETAG
1070
     1
1071
       48
1005
131809
  0
LINE
  5
13180A
  8
OBJECT
 10
1867.0
 20
-637.0
 30
0.0
 11
1903.0
 21
-637.0
 31
0.0
1001
ACDBBLOCKREPETAG
1070
     1
1071
       49
1005
13180A
  0
LINE
  5
13180B
  8
OBJECT
 10
1903.0
 20
-637.0
 30
0.0
 11
1903.0
 21
-755.0
 31
0.0
1001
ACDBBLOCKREPETAG
1070
     1
1071
       50
1005
13180B
  0
LINE
  5
13180C
  8
OBJECT
 10
1903.0
 20
-755.0
 30
0.0
 11
1860.0
 21
-755.0
 31
0.0
1001
ACDBBLOCKREPETAG
1070
     1
1071
       51
1005
13180C
  0
LINE
  5
13180D
  8
OBJECT
 10
1907.0
 20
-641.5
 30
0.0
 11
1914.0
 21
-641.5
 31
0.0
1001
ACDBBLOCKREPETAG
1070
     1
1071
       52
1005
13180D
  0
LINE
  5
13180E
  8
OBJECT
 10
1914.0
 20
-750.49999999999989
 30
0.0
 11
1907.0
 21
-750.49999999999989
 31
0.0
1001
ACDBBLOCKREPETAG
1070
     1
1071
       53
1005
13180E
  0
LINE
  5
13180F
  8
OBJECT
 10
1907.0
 20
-750.49999999999989
 30
0.0
 11
1907.0
 21
-641.5
 31
0.0
1001
ACDBBLOCKREPETAG
1070
     1
1071
       54
1005
13180F
  0
LINE
  5
131810
  8
OBJECT
 10
1903.0
 20
-637.0
 30
0.0
 11
1907.0
 21
-641.5
 31
0.0
1001
ACDBBLOCKREPETAG
1070
     1
1071
       55
1005
131810
  0
LINE
  5
131811
  8
OBJECT
 10
1903.0
 20
-755.0
 30
0.0
 11
1907.0
 21
-750.49999999999989
 31
0.0
1001
ACDBBLOCKREPETAG
1070
     1
1071
       56
1005
131811
  0
LINE
  5
131812
  8
OBJECT
 10
1917.0
 20
-634.0
 30
0.0
 11
1920.0
 21
-634.0
 31
0.0
1001
ACDBBLOCKREPETAG
1070
     1
1071
       57
1005
131812
  0
ARC
  5
131813
  8
OBJECT
 10
1917.0
 20
-637.0
 30
0.0
 40
3.0
 50
90.0
 51
180.0
1001
ACDBBLOCKREPETAG
1070
     1
1071
       58
1005
131813
  0
LINE
  5
131814
  8
OBJECT
 10
1920.0
 20
-758.0
 30
0.0
 11
1917.0
 21
-758.0
 31
0.0
1001
ACDBBLOCKREPETAG
1070
     1
1071
       59
1005
131814
  0
ARC
  5
131815
  8
OBJECT
 10
1917.0
 20
-755.0
 30
0.0
 40
3.0
 50
180.0
 51
270.0
1001
ACDBBLOCKREPETAG
1070
     1
1071
       60
1005
131815
  0
LINE
  5
131816
  8
OBJECT
 10
1914.0
 20
-755.0
 30
0.0
 11
1914.0
 21
-637.0
 31
0.0
1001
ACDBBLOCKREPETAG
1070
     1
1071
       61
1005
131816
  0
LINE
  5
131817
  8
HIDDEN
 10
1912.0
 20
-651.5
 30
0.0
 11
1912.0
 21
-740.5
 31
0.0
1001
ACDBBLOCKREPETAG
1070
     1
1071
       63
1005
131817
  0
CIRCLE
  5
131818
  8
OBJECT
 10
2000.0
 20
-696.0
 30
0.0
 40
62.0
1001
ACDBBLOCKREPETAG
1070
     1
1071
      227
1005
131818
  0
CIRCLE
  5
131819
  8
OBJECT
 10
2000.0
 20
-696.0
 30
0.0
 40
36.333333000000003
1001
ACDBBLOCKREPETAG
1070
     1
1071
      228
1005
131819
  0
CIRCLE
  5
13181A
  8
OBJECT
 10
2000.0
 20
-696.0
 30
0.0
 40
44.5
1001
ACDBBLOCKREPETAG
1070
     1
1071
      229
1005
13181A
  0
ARC
  5
13181B
  8
OBJECT
 10
2000.0
 20
-696.0
 30
0.0
 40
10.0
 50
194.62786100003839
 51
345.37213899996152
1001
ACDBBLOCKREPETAG
1070
     1
1071
      230
1005
13181B
  0
ARC
  5
13181C
  8
OBJECT
 10
2000.0
 20
-696.0
 30
0.0
 40
7.5
 50
200.41516800005761
 51
339.58483199994242
1001
ACDBBLOCKREPETAG
1070
     1
1071
      231
1005
13181C
  0
ARC
  5
13181D
  8
OBJECT
 10
1977.0
 20
-696.0
 30
0.0
 40
2.0
 50
91.963657999954648
 51
268.03634200004529
1001
ACDBBLOCKREPETAG
1070
     1
1071
      232
1005
13181D
  0
ARC
  5
13181E
  8
OBJECT
 10
2000.0
 20
-696.0
 30
0.0
 40
10.0
 50
14.62786100003852
 51
165.37213899996141
1001
ACDBBLOCKREPETAG
1070
     1
1071
      233
1005
13181E
  0
CIRCLE
  5
13181F
  8
OBJECT
 10
2000.0
 20
-696.0
 30
0.0
 40
4.5
1001
ACDBBLOCKREPETAG
1070
     1
1071
      234
1005
13181F
  0
ARC
  5
131820
  8
OBJECT
 10
2000.0
 20
-696.0
 30
0.0
 40
7.5
 50
20.415168000057569
 51
159.58483199994239
1001
ACDBBLOCKREPETAG
1070
     1
1071
      235
1005
131820
  0
ARC
  5
131821
  8
OBJECT
 10
2000.0
 20
-696.0
 30
0.0
 40
24.333333
 50
183.77906500000171
 51
356.22093499999818
1001
ACDBBLOCKREPETAG
1070
     1
1071
      236
1005
131821
  0
ARC
  5
131822
  8
OBJECT
 10
2000.0
 20
-696.0
 30
0.0
 40
24.333333
 50
3.7790650000018511
 51
176.22093499999809
1001
ACDBBLOCKREPETAG
1070
     1
1071
      237
1005
131822
  0
ARC
  5
131823
  8
OBJECT
 10
2023.0
 20
-696.0
 30
0.0
 40
2.0
 50
271.96365799995459
 51
88.036342000045366
1001
ACDBBLOCKREPETAG
1070
     1
1071
      238
1005
131823
  0
LINE
  5
131824
  8
OBJECT
 10
2007.0289220000011
 20
-698.61615099999835
 30
0.0
 11
2023.068531000001
 21
-697.99882499999865
 31
0.0
1001
ACDBBLOCKREPETAG
1070
     1
1071
      239
1005
131824
  0
LINE
  5
131825
  8
OBJECT
 10
2007.0289220000011
 20
-693.38384899999983
 30
0.0
 11
2023.068531000001
 21
-694.00117399999908
 31
0.0
1001
ACDBBLOCKREPETAG
1070
     1
1071
      240
1005
131825
  0
LINE
  5
131826
  8
OBJECT
 10
1992.9710769999981
 20
-698.61615099999835
 30
0.0
 11
1976.931468999999
 21
-697.99882499999865
 31
0.0
1001
ACDBBLOCKREPETAG
1070
     1
1071
      241
1005
131826
  0
LINE
  5
131827
  8
OBJECT
 10
1992.9710769999981
 20
-693.38384899999983
 30
0.0
 11
1976.931468999999
 21
-694.00117399999908
 31
0.0
1001
ACDBBLOCKREPETAG
1070
     1
1071
      242
1005
131827
  0
LINE
  5
131828
  8
CENTER
 10
1923.0
 20
-695.9999992574941
 30
0.0
 11
2077.0
 21
-696.00000688055752
 31
0.0
1001
ACDBBLOCKREPETAG
1070
     1
1071
      243
1005
131828
  0
LINE
  5
131829
  8
OBJECT
 10
2083.0
 20
-634.0
 30
0.0
 11
2080.0
 21
-634.0
 31
0.0
1001
ACDBBLOCKREPETAG
1070
     1
1071
        1
1005
131829
  0
ARC
  5
13182A
  8
OBJECT
 10
2083.0
 20
-637.0
 30
0.0
 40
3.0
 50
0.0
 51
90.0
1001
ACDBBLOCKREPETAG
1070
     1
1071
        2
1005
13182A
  0
LINE
  5
13182B
  8
OBJECT
 10
2080.0
 20
-758.0
 30
0.0
 11
2083.0
 21
-758.0
 31
0.0
1001
ACDBBLOCKREPETAG
1070
     1
1071
        3
1005
13182B
  0
ARC
  5
13182C
  8
OBJECT
 10
2083.0
 20
-755.0
 30
0.0
 40
3.0
 50
270.0
 51
0.0
1001
ACDBBLOCKREPETAG
1070
     1
1071
        4
1005
13182C
  0
LINE
  5
13182D
  8
OBJECT
 10
2086.0
 20
-755.0
 30
0.0
 11
2086.0
 21
-637.0
 31
0.0
1001
ACDBBLOCKREPETAG
1070
     1
1071
        5
1005
13182D
  0
TEXT
  5
13182E
  8
SLIM
 10
0.0000035665234464
 20
24.000004585317601
 30
0.0
 40
79.999999999972701
  1
枝管バリエーション
 41
0.75
1001
ACDBBLOCKREPETAG
1070
     1
1071
      119
1005
12CC4A
  0
TEXT
  5
13182F
  8
SLIM
 10
1837.75
 20
282.50000000000011
 30
0.0
 40
35.0
  1
（枝管サイズ毎に寸法が異なります。管底の位置は50～100で同じです）
 41
0.75
  0
TEXT
  5
131830
  8
SLIM
 10
1850.0
 20
369.99999999999989
 30
0.0
 40
100.0
  1
4SRT-CO-A0P3
 41
0.75
  0
TEXT
  5
131831
  8
SLIM
 10
0.0
 20
370.0
 30
0.0
 40
100.0
  1
4SRT-CO-A0PX-S
 41
0.75
  0
LINE
  5
131832
  8
OBJECT
 10
4923.0
 20
-3515.9999999999968
 30
0.0
 11
4923.0
 21
-3494.9999999999968
 31
0.0
1001
ACDBBLOCKREPETAG
1070
     1
1071
        0
1005
131832
  0
LINE
  5
131833
  8
OBJECT
 10
4923.0
 20
-3494.9999999999968
 30
0.0
 11
5077.0
 21
-3494.9999999999968
 31
0.0
1001
ACDBBLOCKREPETAG
1070
     1
1071
        1
1005
131833
  0
LINE
  5
131834
  8
HIDDEN
 10
4943.0
 20
-3564.9999999999968
 30
0.0
 11
5057.0
 21
-3564.9999999999968
 31
0.0
1001
ACDBBLOCKREPETAG
1070
     1
1071
        2
1005
131834
  0
LINE
  5
131835
  8
OBJECT
 10
5077.0
 20
-3494.9999999999968
 30
0.0
 11
5077.0
 21
-3515.9999999999968
 31
0.0
1001
ACDBBLOCKREPETAG
1070
     1
1071
        3
1005
131835
  0
LINE
  5
131836
  8
OBJECT
 10
5077.0
 20
-3515.9999999999968
 30
0.0
 11
4923.0
 21
-3515.9999999999968
 31
0.0
1001
ACDBBLOCKREPETAG
1070
     1
1071
        4
1005
131836
  0
LINE
  5
131837
  8
CENTER
 10
5000.0
 20
-3479.9999999999968
 30
0.0
 11
5000.0
 21
-3714.9999999999968
 31
0.0
1001
ACDBBLOCKREPETAG
1070
     1
1071
        5
1005
131837
  0
LINE
  5
131838
  8
OBJECT
 10
4925.0
 20
-3578.9999999999968
 30
0.0
 11
4925.0
 21
-3702.9999999999968
 31
0.0
1001
ACDBBLOCKREPETAG
1070
     1
1071
        6
1005
131838
  0
LINE
  5
131839
  8
OBJECT
 10
4928.0
 20
-3515.9999999999968
 30
0.0
 11
4928.0
 21
-3578.9999999999968
 31
0.0
1001
ACDBBLOCKREPETAG
1070
     1
1071
        7
1005
131839
  0
LINE
  5
13183A
  8
OBJECT
 10
5072.0
 20
-3578.9999999999968
 30
0.0
 11
5072.0
 21
-3515.9999999999968
 31
0.0
1001
ACDBBLOCKREPETAG
1070
     1
1071
        8
1005
13183A
  0
LINE
  5
13183B
  8
OBJECT
 10
5074.9999999997999
 20
-3702.9999999997758
 30
0.0
 11
5080.0
 21
-3702.9999999999968
 31
0.0
1001
ACDBBLOCKREPETAG
1070
     1
1071
        9
1005
13183B
  0
LINE
  5
13183C
  8
OBJECT
 10
5080.0
 20
-3578.9999999999968
 30
0.0
 11
4925.0
 21
-3578.9999999999968
 31
0.0
1001
ACDBBLOCKREPETAG
1070
     1
1071
       10
1005
13183C
  0
ARC
  5
13183D
  8
OBJECT
 10
5200.6872746716726
 20
-3694.408099410105
 30
0.0
 40
170.6350503965856
 50
137.44134459184301
 51
149.9194958133665
1001
ACDBBLOCKREPETAG
1070
     1
1071
       15
1005
13183D
  0
ARC
  5
13183E
  8
OBJECT
 10
5118.8455987040506
 20
-3650.8827266953622
 30
0.0
 40
78.072222021763665
 50
147.4551531037684
 51
164.66365997719291
1001
ACDBBLOCKREPETAG
1070
     1
1071
       16
1005
13183E
  0
ARC
  5
13183F
  8
OBJECT
 10
5085.7554349608727
 20
-3640.9999999999968
 30
0.0
 40
43.55353926885617
 50
165.6884523008477
 51
194.3115476991523
1001
ACDBBLOCKREPETAG
1070
     1
1071
       17
1005
13183F
  0
ARC
  5
131840
  8
OBJECT
 10
5200.6872746716726
 20
-3587.5919005898891
 30
0.0
 40
170.6350503965856
 50
210.0805041866335
 51
222.55865540815699
1001
ACDBBLOCKREPETAG
1070
     1
1071
       18
1005
131840
  0
ARC
  5
131841
  8
OBJECT
 10
5118.8455987040506
 20
-3631.1172733046319
 30
0.0
 40
78.072222021763665
 50
195.33634002280701
 51
212.5448468962316
1001
ACDBBLOCKREPETAG
1070
     1
1071
       19
1005
131841
  0
POINT
  5
131842
  8
DOTS
 10
5000.0
 20
-3699.9999999999968
 30
0.0
1001
ACDBBLOCKREPETAG
1070
     1
1071
      186
1005
131842
  0
LINE
  5
131843
  8
OBJECT
 10
4323.0
 20
-3515.9999999999968
 30
0.0
 11
4323.0
 21
-3494.9999999999968
 31
0.0
1001
ACDBBLOCKREPETAG
1070
     1
1071
       20
1005
131843
  0
LINE
  5
131844
  8
OBJECT
 10
4323.0
 20
-3494.9999999999968
 30
0.0
 11
4477.0
 21
-3494.9999999999968
 31
0.0
1001
ACDBBLOCKREPETAG
1070
     1
1071
       21
1005
131844
  0
LINE
  5
131845
  8
HIDDEN
 10
4343.0
 20
-3564.9999999999968
 30
0.0
 11
4457.0
 21
-3564.9999999999968
 31
0.0
1001
ACDBBLOCKREPETAG
1070
     1
1071
       22
1005
131845
  0
LINE
  5
131846
  8
OBJECT
 10
4477.0
 20
-3494.9999999999968
 30
0.0
 11
4477.0
 21
-3515.9999999999968
 31
0.0
1001
ACDBBLOCKREPETAG
1070
     1
1071
       23
1005
131846
  0
LINE
  5
131847
  8
OBJECT
 10
4477.0
 20
-3515.9999999999968
 30
0.0
 11
4323.0
 21
-3515.9999999999968
 31
0.0
1001
ACDBBLOCKREPETAG
1070
     1
1071
       24
1005
131847
  0
LINE
  5
131848
  8
CENTER
 10
4400.0
 20
-3479.9999999999968
 30
0.0
 11
4400.0
 21
-3714.9999999999968
 31
0.0
1001
ACDBBLOCKREPETAG
1070
     1
1071
       25
1005
131848
  0
LINE
  5
131849
  8
OBJECT
 10
4325.0
 20
-3578.9999999999968
 30
0.0
 11
4325.0
 21
-3702.9999999999968
 31
0.0
1001
ACDBBLOCKREPETAG
1070
     1
1071
       26
1005
131849
  0
LINE
  5
13184A
  8
OBJECT
 10
4328.0
 20
-3515.9999999999968
 30
0.0
 11
4328.0
 21
-3578.9999999999968
 31
0.0
1001
ACDBBLOCKREPETAG
1070
     1
1071
       27
1005
13184A
  0
LINE
  5
13184B
  8
OBJECT
 10
4472.0
 20
-3578.9999999999968
 30
0.0
 11
4472.0
 21
-3515.9999999999968
 31
0.0
1001
ACDBBLOCKREPETAG
1070
     1
1071
       28
1005
13184B
  0
LINE
  5
13184C
  8
OBJECT
 10
4475.0
 20
-3578.9999999999968
 30
0.0
 11
4325.0
 21
-3578.9999999999968
 31
0.0
1001
ACDBBLOCKREPETAG
1070
     1
1071
       30
1005
13184C
  0
LINE
  5
13184D
  8
OBJECT
 10
4475.0
 20
-3578.9999999999968
 30
0.0
 11
4475.0
 21
-3702.9999999999968
 31
0.0
1001
ACDBBLOCKREPETAG
1070
     1
1071
       34
1005
13184D
  0
POINT
  5
13184E
  8
DOTS
 10
4400.0
 20
-3699.9999999999968
 30
0.0
1001
ACDBBLOCKREPETAG
1070
     1
1071
      187
1005
13184E
  0
LINE
  5
13184F
  8
OBJECT
 10
3923.0
 20
-3515.9999999999968
 30
0.0
 11
3923.0
 21
-3494.9999999999968
 31
0.0
1001
ACDBBLOCKREPETAG
1070
     1
1071
        0
1005
13184F
  0
LINE
  5
131850
  8
OBJECT
 10
3923.0
 20
-3494.9999999999968
 30
0.0
 11
4077.0
 21
-3494.9999999999968
 31
0.0
1001
ACDBBLOCKREPETAG
1070
     1
1071
        1
1005
131850
  0
LINE
  5
131851
  8
HIDDEN
 10
3943.0
 20
-3564.9999999999968
 30
0.0
 11
4057.0
 21
-3564.9999999999968
 31
0.0
1001
ACDBBLOCKREPETAG
1070
     1
1071
        2
1005
131851
  0
LINE
  5
131852
  8
OBJECT
 10
4077.0
 20
-3494.9999999999968
 30
0.0
 11
4077.0
 21
-3515.9999999999968
 31
0.0
1001
ACDBBLOCKREPETAG
1070
     1
1071
        3
1005
131852
  0
LINE
  5
131853
  8
OBJECT
 10
4077.0
 20
-3515.9999999999968
 30
0.0
 11
3923.0
 21
-3515.9999999999968
 31
0.0
1001
ACDBBLOCKREPETAG
1070
     1
1071
        4
1005
131853
  0
LINE
  5
131854
  8
CENTER
 10
4000.0
 20
-3479.9999999999968
 30
0.0
 11
4000.0
 21
-3714.9999999999968
 31
0.0
1001
ACDBBLOCKREPETAG
1070
     1
1071
        5
1005
131854
  0
LINE
  5
131855
  8
OBJECT
 10
3925.0
 20
-3578.9999999999968
 30
0.0
 11
3925.0
 21
-3702.9999999999968
 31
0.0
1001
ACDBBLOCKREPETAG
1070
     1
1071
        6
1005
131855
  0
LINE
  5
131856
  8
OBJECT
 10
3928.0
 20
-3515.9999999999968
 30
0.0
 11
3928.0
 21
-3578.9999999999968
 31
0.0
1001
ACDBBLOCKREPETAG
1070
     1
1071
        7
1005
131856
  0
LINE
  5
131857
  8
OBJECT
 10
4072.0
 20
-3578.9999999999968
 30
0.0
 11
4072.0
 21
-3515.9999999999968
 31
0.0
1001
ACDBBLOCKREPETAG
1070
     1
1071
        8
1005
131857
  0
LINE
  5
131858
  8
OBJECT
 10
4074.999999999799
 20
-3702.9999999997758
 30
0.0
 11
4080.0
 21
-3702.9999999999968
 31
0.0
1001
ACDBBLOCKREPETAG
1070
     1
1071
        9
1005
131858
  0
LINE
  5
131859
  8
OBJECT
 10
4080.0
 20
-3578.9999999999968
 30
0.0
 11
3925.0
 21
-3578.9999999999968
 31
0.0
1001
ACDBBLOCKREPETAG
1070
     1
1071
       10
1005
131859
  0
ARC
  5
13185A
  8
OBJECT
 10
4200.6872746716726
 20
-3694.408099410105
 30
0.0
 40
170.6350503965856
 50
137.44134459184301
 51
149.9194958133665
1001
ACDBBLOCKREPETAG
1070
     1
1071
       15
1005
13185A
  0
ARC
  5
13185B
  8
OBJECT
 10
4118.8455987040506
 20
-3650.8827266953622
 30
0.0
 40
78.072222021763665
 50
147.4551531037684
 51
164.663659977186
1001
ACDBBLOCKREPETAG
1070
     1
1071
       16
1005
13185B
  0
ARC
  5
13185C
  8
OBJECT
 10
4085.7554349608722
 20
-3640.9999999999968
 30
0.0
 40
43.55353926885617
 50
165.6884523008477
 51
194.3115476991523
1001
ACDBBLOCKREPETAG
1070
     1
1071
       17
1005
13185C
  0
ARC
  5
13185D
  8
OBJECT
 10
4200.6872746716726
 20
-3587.5919005898891
 30
0.0
 40
170.6350503965856
 50
210.0805041866335
 51
222.55865540815699
1001
ACDBBLOCKREPETAG
1070
     1
1071
       18
1005
13185D
  0
ARC
  5
13185E
  8
OBJECT
 10
4118.8455987040506
 20
-3631.1172733046319
 30
0.0
 40
78.072222021763665
 50
195.33634002281391
 51
212.5448468962316
1001
ACDBBLOCKREPETAG
1070
     1
1071
       19
1005
13185E
  0
POINT
  5
13185F
  8
DOTS
 10
4000.0
 20
-3699.9999999999968
 30
0.0
1001
ACDBBLOCKREPETAG
1070
     1
1071
      186
1005
13185F
  0
LINE
  5
131860
  8
OBJECT
 10
3323.0
 20
-3515.9999999999968
 30
0.0
 11
3323.0
 21
-3494.9999999999968
 31
0.0
1001
ACDBBLOCKREPETAG
1070
     1
1071
       20
1005
131860
  0
LINE
  5
131861
  8
OBJECT
 10
3323.0
 20
-3494.9999999999968
 30
0.0
 11
3477.0
 21
-3494.9999999999968
 31
0.0
1001
ACDBBLOCKREPETAG
1070
     1
1071
       21
1005
131861
  0
LINE
  5
131862
  8
HIDDEN
 10
3343.0
 20
-3564.9999999999968
 30
0.0
 11
3457.0
 21
-3564.9999999999968
 31
0.0
1001
ACDBBLOCKREPETAG
1070
     1
1071
       22
1005
131862
  0
LINE
  5
131863
  8
OBJECT
 10
3477.0
 20
-3494.9999999999968
 30
0.0
 11
3477.0
 21
-3515.9999999999968
 31
0.0
1001
ACDBBLOCKREPETAG
1070
     1
1071
       23
1005
131863
  0
LINE
  5
131864
  8
OBJECT
 10
3477.0
 20
-3515.9999999999968
 30
0.0
 11
3323.0
 21
-3515.9999999999968
 31
0.0
1001
ACDBBLOCKREPETAG
1070
     1
1071
       24
1005
131864
  0
LINE
  5
131865
  8
CENTER
 10
3400.0
 20
-3479.9999999999968
 30
0.0
 11
3400.0
 21
-3714.9999999999968
 31
0.0
1001
ACDBBLOCKREPETAG
1070
     1
1071
       25
1005
131865
  0
LINE
  5
131866
  8
OBJECT
 10
3325.0
 20
-3578.9999999999968
 30
0.0
 11
3325.0
 21
-3702.9999999999968
 31
0.0
1001
ACDBBLOCKREPETAG
1070
     1
1071
       26
1005
131866
  0
LINE
  5
131867
  8
OBJECT
 10
3328.0
 20
-3515.9999999999968
 30
0.0
 11
3328.0
 21
-3578.9999999999968
 31
0.0
1001
ACDBBLOCKREPETAG
1070
     1
1071
       27
1005
131867
  0
LINE
  5
131868
  8
OBJECT
 10
3472.0
 20
-3578.9999999999968
 30
0.0
 11
3472.0
 21
-3515.9999999999968
 31
0.0
1001
ACDBBLOCKREPETAG
1070
     1
1071
       28
1005
131868
  0
LINE
  5
131869
  8
OBJECT
 10
3475.0
 20
-3578.9999999999968
 30
0.0
 11
3325.0
 21
-3578.9999999999968
 31
0.0
1001
ACDBBLOCKREPETAG
1070
     1
1071
       30
1005
131869
  0
LINE
  5
13186A
  8
OBJECT
 10
3475.0
 20
-3578.9999999999968
 30
0.0
 11
3475.0
 21
-3702.9999999999968
 31
0.0
1001
ACDBBLOCKREPETAG
1070
     1
1071
       34
1005
13186A
  0
POINT
  5
13186B
  8
DOTS
 10
3400.0
 20
-3699.9999999999968
 30
0.0
1001
ACDBBLOCKREPETAG
1070
     1
1071
      187
1005
13186B
  0
LINE
  5
13186C
  8
OBJECT
 10
2923.0
 20
-3515.9999999999968
 30
0.0
 11
2923.0
 21
-3494.9999999999968
 31
0.0
1001
ACDBBLOCKREPETAG
1070
     1
1071
        0
1005
13186C
  0
LINE
  5
13186D
  8
OBJECT
 10
2923.0
 20
-3494.9999999999968
 30
0.0
 11
3077.0
 21
-3494.9999999999968
 31
0.0
1001
ACDBBLOCKREPETAG
1070
     1
1071
        1
1005
13186D
  0
LINE
  5
13186E
  8
HIDDEN
 10
2943.0
 20
-3564.9999999999968
 30
0.0
 11
3057.0
 21
-3564.9999999999968
 31
0.0
1001
ACDBBLOCKREPETAG
1070
     1
1071
        2
1005
13186E
  0
LINE
  5
13186F
  8
OBJECT
 10
3077.0
 20
-3494.9999999999968
 30
0.0
 11
3077.0
 21
-3515.9999999999968
 31
0.0
1001
ACDBBLOCKREPETAG
1070
     1
1071
        3
1005
13186F
  0
LINE
  5
131870
  8
OBJECT
 10
3077.0
 20
-3515.9999999999968
 30
0.0
 11
2923.0
 21
-3515.9999999999968
 31
0.0
1001
ACDBBLOCKREPETAG
1070
     1
1071
        4
1005
131870
  0
LINE
  5
131871
  8
CENTER
 10
3000.0
 20
-3479.9999999999968
 30
0.0
 11
3000.0
 21
-3714.9999999999968
 31
0.0
1001
ACDBBLOCKREPETAG
1070
     1
1071
        5
1005
131871
  0
LINE
  5
131872
  8
OBJECT
 10
2925.0
 20
-3578.9999999999968
 30
0.0
 11
2925.0
 21
-3702.9999999999968
 31
0.0
1001
ACDBBLOCKREPETAG
1070
     1
1071
        6
1005
131872
  0
LINE
  5
131873
  8
OBJECT
 10
2928.0
 20
-3515.9999999999968
 30
0.0
 11
2928.0
 21
-3578.9999999999968
 31
0.0
1001
ACDBBLOCKREPETAG
1070
     1
1071
        7
1005
131873
  0
LINE
  5
131874
  8
OBJECT
 10
3072.0
 20
-3578.9999999999968
 30
0.0
 11
3072.0
 21
-3515.9999999999968
 31
0.0
1001
ACDBBLOCKREPETAG
1070
     1
1071
        8
1005
131874
  0
LINE
  5
131875
  8
OBJECT
 10
3074.9999999997999
 20
-3702.9999999997758
 30
0.0
 11
3080.0
 21
-3702.9999999999968
 31
0.0
1001
ACDBBLOCKREPETAG
1070
     1
1071
        9
1005
131875
  0
LINE
  5
131876
  8
OBJECT
 10
3080.0
 20
-3578.9999999999968
 30
0.0
 11
2925.0
 21
-3578.9999999999968
 31
0.0
1001
ACDBBLOCKREPETAG
1070
     1
1071
       10
1005
131876
  0
ARC
  5
131877
  8
OBJECT
 10
3200.6872746716722
 20
-3694.408099410105
 30
0.0
 40
170.6350503965856
 50
137.44134459184301
 51
149.9194958133665
1001
ACDBBLOCKREPETAG
1070
     1
1071
       15
1005
131877
  0
ARC
  5
131878
  8
OBJECT
 10
3118.8455987040511
 20
-3650.8827266953622
 30
0.0
 40
78.072222021763665
 50
147.4551531037684
 51
164.663659977186
1001
ACDBBLOCKREPETAG
1070
     1
1071
       16
1005
131878
  0
ARC
  5
131879
  8
OBJECT
 10
3085.7554349608731
 20
-3640.9999999999968
 30
0.0
 40
43.55353926885617
 50
165.6884523008477
 51
194.3115476991523
1001
ACDBBLOCKREPETAG
1070
     1
1071
       17
1005
131879
  0
ARC
  5
13187A
  8
OBJECT
 10
3200.6872746716722
 20
-3587.5919005898891
 30
0.0
 40
170.6350503965856
 50
210.0805041866335
 51
222.55865540815699
1001
ACDBBLOCKREPETAG
1070
     1
1071
       18
1005
13187A
  0
ARC
  5
13187B
  8
OBJECT
 10
3118.8455987040511
 20
-3631.1172733046319
 30
0.0
 40
78.072222021763665
 50
195.33634002281391
 51
212.5448468962316
1001
ACDBBLOCKREPETAG
1070
     1
1071
       19
1005
13187B
  0
POINT
  5
13187C
  8
DOTS
 10
3000.0
 20
-3699.9999999999968
 30
0.0
1001
ACDBBLOCKREPETAG
1070
     1
1071
      186
1005
13187C
  0
LINE
  5
13187D
  8
OBJECT
 10
2323.0
 20
-3515.9999999999968
 30
0.0
 11
2323.0
 21
-3494.9999999999968
 31
0.0
1001
ACDBBLOCKREPETAG
1070
     1
1071
       20
1005
13187D
  0
LINE
  5
13187E
  8
OBJECT
 10
2323.0
 20
-3494.9999999999968
 30
0.0
 11
2477.0
 21
-3494.9999999999968
 31
0.0
1001
ACDBBLOCKREPETAG
1070
     1
1071
       21
1005
13187E
  0
LINE
  5
13187F
  8
HIDDEN
 10
2343.0
 20
-3564.9999999999968
 30
0.0
 11
2457.0
 21
-3564.9999999999968
 31
0.0
1001
ACDBBLOCKREPETAG
1070
     1
1071
       22
1005
13187F
  0
LINE
  5
131880
  8
OBJECT
 10
2477.0
 20
-3494.9999999999968
 30
0.0
 11
2477.0
 21
-3515.9999999999968
 31
0.0
1001
ACDBBLOCKREPETAG
1070
     1
1071
       23
1005
131880
  0
LINE
  5
131881
  8
OBJECT
 10
2477.0
 20
-3515.9999999999968
 30
0.0
 11
2323.0
 21
-3515.9999999999968
 31
0.0
1001
ACDBBLOCKREPETAG
1070
     1
1071
       24
1005
131881
  0
LINE
  5
131882
  8
CENTER
 10
2400.0
 20
-3479.9999999999968
 30
0.0
 11
2400.0
 21
-3714.9999999999968
 31
0.0
1001
ACDBBLOCKREPETAG
1070
     1
1071
       25
1005
131882
  0
LINE
  5
131883
  8
OBJECT
 10
2325.0
 20
-3578.9999999999968
 30
0.0
 11
2325.0
 21
-3702.9999999999968
 31
0.0
1001
ACDBBLOCKREPETAG
1070
     1
1071
       26
1005
131883
  0
LINE
  5
131884
  8
OBJECT
 10
2328.0
 20
-3515.9999999999968
 30
0.0
 11
2328.0
 21
-3578.9999999999968
 31
0.0
1001
ACDBBLOCKREPETAG
1070
     1
1071
       27
1005
131884
  0
LINE
  5
131885
  8
OBJECT
 10
2472.0
 20
-3578.9999999999968
 30
0.0
 11
2472.0
 21
-3515.9999999999968
 31
0.0
1001
ACDBBLOCKREPETAG
1070
     1
1071
       28
1005
131885
  0
LINE
  5
131886
  8
OBJECT
 10
2475.0
 20
-3578.9999999999968
 30
0.0
 11
2325.0
 21
-3578.9999999999968
 31
0.0
1001
ACDBBLOCKREPETAG
1070
     1
1071
       30
1005
131886
  0
LINE
  5
131887
  8
OBJECT
 10
2475.0
 20
-3578.9999999999968
 30
0.0
 11
2475.0
 21
-3702.9999999999968
 31
0.0
1001
ACDBBLOCKREPETAG
1070
     1
1071
       34
1005
131887
  0
POINT
  5
131888
  8
DOTS
 10
2400.0
 20
-3699.9999999999968
 30
0.0
1001
ACDBBLOCKREPETAG
1070
     1
1071
      187
1005
131888
  0
LINE
  5
131889
  8
OBJECT
 10
1923.0
 20
-3515.9999999999968
 30
0.0
 11
1923.0
 21
-3494.9999999999968
 31
0.0
1001
ACDBBLOCKREPETAG
1070
     1
1071
        0
1005
131889
  0
LINE
  5
13188A
  8
OBJECT
 10
1923.0
 20
-3494.9999999999968
 30
0.0
 11
2077.0
 21
-3494.9999999999968
 31
0.0
1001
ACDBBLOCKREPETAG
1070
     1
1071
        1
1005
13188A
  0
LINE
  5
13188B
  8
HIDDEN
 10
1943.0
 20
-3564.9999999999968
 30
0.0
 11
2057.0
 21
-3564.9999999999968
 31
0.0
1001
ACDBBLOCKREPETAG
1070
     1
1071
        2
1005
13188B
  0
LINE
  5
13188C
  8
OBJECT
 10
2077.0
 20
-3494.9999999999968
 30
0.0
 11
2077.0
 21
-3515.9999999999968
 31
0.0
1001
ACDBBLOCKREPETAG
1070
     1
1071
        3
1005
13188C
  0
LINE
  5
13188D
  8
OBJECT
 10
2077.0
 20
-3515.9999999999968
 30
0.0
 11
1923.0
 21
-3515.9999999999968
 31
0.0
1001
ACDBBLOCKREPETAG
1070
     1
1071
        4
1005
13188D
  0
LINE
  5
13188E
  8
CENTER
 10
2000.0
 20
-3479.9999999999968
 30
0.0
 11
2000.0
 21
-3714.9999999999968
 31
0.0
1001
ACDBBLOCKREPETAG
1070
     1
1071
        5
1005
13188E
  0
LINE
  5
13188F
  8
OBJECT
 10
1925.0
 20
-3578.9999999999968
 30
0.0
 11
1925.0
 21
-3702.9999999999968
 31
0.0
1001
ACDBBLOCKREPETAG
1070
     1
1071
        6
1005
13188F
  0
LINE
  5
131890
  8
OBJECT
 10
1928.0
 20
-3515.9999999999968
 30
0.0
 11
1928.0
 21
-3578.9999999999968
 31
0.0
1001
ACDBBLOCKREPETAG
1070
     1
1071
        7
1005
131890
  0
LINE
  5
131891
  8
OBJECT
 10
2072.0
 20
-3578.9999999999968
 30
0.0
 11
2072.0
 21
-3515.9999999999968
 31
0.0
1001
ACDBBLOCKREPETAG
1070
     1
1071
        8
1005
131891
  0
LINE
  5
131892
  8
OBJECT
 10
2074.999999999799
 20
-3702.9999999997758
 30
0.0
 11
2080.0
 21
-3702.9999999999968
 31
0.0
1001
ACDBBLOCKREPETAG
1070
     1
1071
        9
1005
131892
  0
LINE
  5
131893
  8
OBJECT
 10
2080.0
 20
-3578.9999999999968
 30
0.0
 11
1925.0
 21
-3578.9999999999968
 31
0.0
1001
ACDBBLOCKREPETAG
1070
     1
1071
       10
1005
131893
  0
ARC
  5
131894
  8
OBJECT
 10
2200.6872746716731
 20
-3694.408099410105
 30
0.0
 40
170.6350503965856
 50
137.44134459184301
 51
149.91949581335999
1001
ACDBBLOCKREPETAG
1070
     1
1071
       15
1005
131894
  0
ARC
  5
131895
  8
OBJECT
 10
2118.8455987040511
 20
-3650.8827266953622
 30
0.0
 40
78.072222021763665
 50
147.45515310377539
 51
164.663659977186
1001
ACDBBLOCKREPETAG
1070
     1
1071
       16
1005
131895
  0
ARC
  5
131896
  8
OBJECT
 10
2085.7554349608731
 20
-3640.9999999999968
 30
0.0
 40
43.55353926885617
 50
165.6884523008477
 51
194.3115476991523
1001
ACDBBLOCKREPETAG
1070
     1
1071
       17
1005
131896
  0
ARC
  5
131897
  8
OBJECT
 10
2200.6872746716731
 20
-3587.5919005898891
 30
0.0
 40
170.6350503965856
 50
210.08050418664001
 51
222.55865540815699
1001
ACDBBLOCKREPETAG
1070
     1
1071
       18
1005
131897
  0
ARC
  5
131898
  8
OBJECT
 10
2118.8455987040511
 20
-3631.1172733046319
 30
0.0
 40
78.072222021763665
 50
195.33634002281391
 51
212.54484689622461
1001
ACDBBLOCKREPETAG
1070
     1
1071
       19
1005
131898
  0
POINT
  5
131899
  8
DOTS
 10
2000.0
 20
-3699.9999999999968
 30
0.0
1001
ACDBBLOCKREPETAG
1070
     1
1071
      186
1005
131899
  0
LINE
  5
13189A
  8
DIM
 10
2150.0
 20
-3341.9999999999959
 30
0.0
 11
2228.479620594459
 21
-3341.9999999999959
 31
0.0
  0
LINE
  5
13189B
  8
DIM
 10
2150.0
 20
-3247.9999999999959
 30
0.0
 11
2228.479620594459
 21
-3247.9999999999959
 31
0.0
  0
LINE
  5
13189C
  8
DIM
 10
2218.479620594459
 20
-3321.9999999999959
 30
0.0
 11
2218.479620594459
 21
-3267.9999999999959
 31
0.0
  0
INSERT
  5
13189D
  8
DIM
  2
_OPEN30
 10
2218.479620594459
 20
-3341.9999999999959
 30
0.0
 41
20.0
 42
20.0
 43
20.0
 50
270.0
  0
INSERT
  5
13189E
  8
DIM
  2
_OPEN30
 10
2218.479620594459
 20
-3247.9999999999959
 30
0.0
 41
20.0
 42
20.0
 43
20.0
 50
90.0
  0
INSERT
  5
13189F
  8
OBJECT
  2
*U15
 10
0.0
 20
0.0
 30
0.0
  0
LINE
  5
1318A0
  8
DIM
 10
2150.0
 20
-3699.9999999999968
 30
0.0
 11
2226.8409284037339
 21
-3699.9999999999968
 31
0.0
  0
LINE
  5
1318A1
  8
DIM
 10
2165.0
 20
-3655.9999999999968
 30
0.0
 11
2226.8409284037339
 21
-3655.9999999999968
 31
0.0
  0
LINE
  5
1318A2
  8
DIM
 10
2216.840928403733
 20
-3719.9999999999968
 30
0.0
 11
2216.840928403733
 21
-3739.9999999999968
 31
0.0
  0
LINE
  5
1318A3
  8
DIM
 10
2216.840928403733
 20
-3635.9999999999968
 30
0.0
 11
2216.840928403733
 21
-3615.9999999999968
 31
0.0
  0
LINE
  5
1318A4
  8
DIM
 10
2216.840928403733
 20
-3699.9999999999968
 30
0.0
 11
2216.840928403733
 21
-3655.9999999999968
 31
0.0
  0
INSERT
  5
1318A5
  8
DIM
  2
_OPEN30
 10
2216.840928403733
 20
-3699.9999999999968
 30
0.0
 41
20.0
 42
20.0
 43
20.0
 50
90.0
  0
INSERT
  5
1318A6
  8
DIM
  2
_OPEN30
 10
2216.840928403733
 20
-3655.9999999999968
 30
0.0
 41
20.0
 42
20.0
 43
20.0
 50
270.0
  0
INSERT
  5
1318A7
  8
OBJECT
  2
*U16
 10
0.0
 20
0.0
 30
0.0
  0
LINE
  5
1318A8
  8
DIM
 10
2000.0
 20
-3189.9999999999959
 30
0.0
 11
2000.0
 21
-3157.2081219844449
 31
0.0
  0
LINE
  5
1318A9
  8
DIM
 10
2140.0
 20
-3237.9999999999959
 30
0.0
 11
2140.0
 21
-3157.2081219844449
 31
0.0
  0
LINE
  5
1318AA
  8
DIM
 10
2020.0
 20
-3167.208121984444
 30
0.0
 11
2120.0
 21
-3167.208121984444
 31
0.0
  0
INSERT
  5
1318AB
  8
DIM
  2
_OPEN30
 10
2000.0
 20
-3167.208121984444
 30
0.0
 41
20.0
 42
20.0
 43
20.0
 50
180.0
  0
INSERT
  5
1318AC
  8
DIM
  2
_OPEN30
 10
2140.0
 20
-3167.208121984444
 30
0.0
 41
20.0
 42
20.0
 43
20.0
  0
INSERT
  5
1318AD
  8
OBJECT
  2
*U17
 10
0.0
 20
0.0
 30
0.0
  0
TEXT
  5
1318AE
  8
SLIM
 10
2631.0
 20
-3072.50001604727
 30
0.0
 40
40.0
  1
C寸法
 41
0.75
  0
TEXT
  5
1318AF
  8
SLIM
 10
2631.0
 20
-3002.50001604727
 30
0.0
 40
40.0
  1
B寸法
 41
0.75
  0
TEXT
  5
1318B0
  8
SLIM
 10
2630.2857142857142
 20
-2932.50001604727
 30
0.0
 40
40.0
  1
A寸法
 41
0.75
  0
TEXT
  5
1318B1
  8
SLIM
 10
3159.2857142857151
 20
-3072.50001604727
 30
0.0
 40
40.0
  1
150
 41
0.75
  0
TEXT
  5
1318B2
  8
SLIM
 10
3029.2857142857151
 20
-3072.50001604727
 30
0.0
 40
40.0
  1
140
 41
0.75
  0
TEXT
  5
1318B3
  8
SLIM
 10
2769.2857142857151
 20
-3072.50001604727
 30
0.0
 40
40.0
  1
140
 41
0.75
  0
TEXT
  5
1318B4
  8
SLIM
 10
2899.2857142857151
 20
-3072.50001604727
 30
0.0
 40
40.0
  1
140
 41
0.75
  0
TEXT
  5
1318B5
  8
SLIM
 10
3170.7142857142858
 20
-3002.50001604727
 30
0.0
 40
40.0
  1
72
 41
0.75
  0
TEXT
  5
1318B6
  8
SLIM
 10
3041.4285714285711
 20
-3002.50001604727
 30
0.0
 40
40.0
  1
59
 41
0.75
  0
TEXT
  5
1318B7
  8
SLIM
 10
2780.0
 20
-3002.50001604727
 30
0.0
 40
40.0
  1
44
 41
0.75
  0
TEXT
  5
1318B8
  8
SLIM
 10
2910.7142857142858
 20
-3002.50001604727
 30
0.0
 40
40.0
  1
52
 41
0.75
  0
TEXT
  5
1318B9
  8
SLIM
 10
2891.0
 20
-2807.50001604727
 30
0.0
 40
40.0
  1
横枝管サイズ
 41
0.75
  0
TEXT
  5
1318BA
  8
SLIM
 10
3136.2857142857151
 20
-2862.50001604727
 30
0.0
 40
30.0
  1
100（4）
 41
0.75
  0
TEXT
  5
1318BB
  8
SLIM
 10
3014.857142857144
 20
-2862.50001604727
 30
0.0
 40
30.0
  1
75（3）
 41
0.75
  0
TEXT
  5
1318BC
  8
SLIM
 10
2884.8571428571431
 20
-2862.50001604727
 30
0.0
 40
30.0
  1
65（2）
 41
0.75
  0
TEXT
  5
1318BD
  8
SLIM
 10
2757.0
 20
-2862.50001604727
 30
0.0
 40
30.0
  1
50（1）
 41
0.75
  0
TEXT
  5
1318BE
  8
SLIM
 10
3159.2857142857151
 20
-2932.50001604727
 30
0.0
 40
40.0
  1
150
 41
0.75
  0
TEXT
  5
1318BF
  8
SLIM
 10
3028.571428571428
 20
-2932.50001604727
 30
0.0
 40
40.0
  1
124
 41
0.75
  0
TEXT
  5
1318C0
  8
SLIM
 10
2780.0
 20
-2932.50001604727
 30
0.0
 40
40.0
  1
94
 41
0.75
  0
TEXT
  5
1318C1
  8
SLIM
 10
2902.1428571428569
 20
-2932.50001604727
 30
0.0
 40
40.0
  1
110
 41
0.75
  0
TEXT
  5
1318C2
  8
SLIM
 10
1849.9999999999991
 20
-2832.5
 30
0.0
 40
75.0
  1
枝管サイズ毎の形状
 41
0.75
  0
LINE
  5
1318C3
  8
OBJECT
 10
5150.0
 20
-3552.9999999999968
 30
0.0
 11
5143.0
 21
-3552.9999999999968
 31
0.0
1001
ACDBBLOCKREPETAG
1070
     1
1071
       64
1005
1318C3
  0
LINE
  5
1318C4
  8
OBJECT
 10
5143.0
 20
-3552.9999999999968
 30
0.0
 11
5143.0
 21
-3699.9999999999968
 31
0.0
1001
ACDBBLOCKREPETAG
1070
     1
1071
       65
1005
1318C4
  0
LINE
  5
1318C5
  8
OBJECT
 10
5101.5
 20
-3555.9999999999968
 30
0.0
 11
5101.5
 21
-3699.9999999999968
 31
0.0
1001
ACDBBLOCKREPETAG
1070
     1
1071
       66
1005
1318C5
  0
LINE
  5
1318C6
  8
OBJECT
 10
5090.0
 20
-3562.4999999999968
 30
0.0
 11
5090.0
 21
-3693.4999999999968
 31
0.0
1001
ACDBBLOCKREPETAG
1070
     1
1071
       67
1005
1318C6
  0
LINE
  5
1318C7
  8
OBJECT
 10
5086.0
 20
-3634.5000000000041
 30
0.0
 11
5086.0
 21
-3699.9999999999968
 31
0.0
1001
ACDBBLOCKREPETAG
1070
     1
1071
       68
1005
1318C7
  0
LINE
  5
1318C8
  8
OBJECT
 10
5150.0
 20
-3699.9999999999968
 30
0.0
 11
5150.0
 21
-3552.9999999999968
 31
0.0
1001
ACDBBLOCKREPETAG
1070
     1
1071
       69
1005
1318C8
  0
LINE
  5
1318C9
  8
CENTER
 10
5165.0
 20
-3627.9999999999968
 30
0.0
 11
5070.4144144144157
 21
-3627.9999999999968
 31
0.0
1001
ACDBBLOCKREPETAG
1070
     1
1071
       70
1005
1318C9
  0
LINE
  5
1318CA
  8
OBJECT
 10
5083.0000000000045
 20
-3702.9999999999968
 30
0.0
 11
5080.0
 21
-3702.9999999999968
 31
0.0
1001
ACDBBLOCKREPETAG
1070
     1
1071
       71
1005
1318CA
  0
ARC
  5
1318CB
  8
OBJECT
 10
5091.8815171830656
 20
-3701.4555591801432
 30
0.0
 40
6.0
 50
60.52411099686767
 51
170.6927439126847
1001
ACDBBLOCKREPETAG
1070
     1
1071
       72
1005
1318CB
  0
ARC
  5
1318CC
  8
OBJECT
 10
5083.0
 20
-3699.9999999999968
 30
0.0
 40
3.0
 50
270.0
 51
350.69274391268482
1001
ACDBBLOCKREPETAG
1070
     1
1071
       73
1005
1318CC
  0
LINE
  5
1318CD
  8
OBJECT
 10
5081.0
 20
-3578.9999999999968
 30
0.0
 11
5080.0
 21
-3578.9999999999968
 31
0.0
1001
ACDBBLOCKREPETAG
1070
     1
1071
       74
1005
1318CD
  0
LINE
  5
1318CE
  8
OBJECT
 10
5150.0
 20
-3699.9999999999968
 30
0.0
 11
5101.5
 21
-3699.9999999999968
 31
0.0
1001
ACDBBLOCKREPETAG
1070
     1
1071
       75
1005
1318CE
  0
LINE
  5
1318CF
  8
OBJECT
 10
5101.5
 20
-3555.9999999999968
 30
0.0
 11
5090.0
 21
-3562.4999999999968
 31
0.0
1001
ACDBBLOCKREPETAG
1070
     1
1071
       76
1005
1318CF
  0
LINE
  5
1318D0
  8
OBJECT
 10
5143.0
 20
-3555.9999999999968
 30
0.0
 11
5101.5
 21
-3555.9999999999968
 31
0.0
1001
ACDBBLOCKREPETAG
1070
     1
1071
       77
1005
1318D0
  0
LINE
  5
1318D1
  8
OBJECT
 10
5086.0
 20
-3634.5000000000041
 30
0.0
 11
5081.0
 21
-3578.9999999999968
 31
0.0
1001
ACDBBLOCKREPETAG
1070
     1
1071
       78
1005
1318D1
  0
LINE
  5
1318D2
  8
OBJECT
 10
5090.0
 20
-3562.4999999999968
 30
0.0
 11
5081.0
 21
-3578.9999999999968
 31
0.0
1001
ACDBBLOCKREPETAG
1070
     1
1071
       79
1005
1318D2
  0
LINE
  5
1318D3
  8
OBJECT
 10
5101.5
 20
-3699.9999999999968
 30
0.0
 11
5094.8338607230708
 21
-3696.232182147819
 31
0.0
1001
ACDBBLOCKREPETAG
1070
     1
1071
       80
1005
1318D3
  0
LINE
  5
1318D4
  8
HIDDEN
 10
5098.0
 20
-3684.9999999999968
 30
0.0
 11
5098.0
 21
-3570.9999999999968
 31
0.0
1001
ACDBBLOCKREPETAG
1070
     1
1071
       81
1005
1318D4
  0
LINE
  5
1318D5
  8
OBJECT
 10
5150.0
 20
-3219.9999999999959
 30
0.0
 11
5143.0
 21
-3219.9999999999959
 31
0.0
1001
ACDBBLOCKREPETAG
1070
     1
1071
       67
1005
1318D5
  0
LINE
  5
1318D6
  8
OBJECT
 10
5143.0
 20
-3219.9999999999959
 30
0.0
 11
5143.0
 21
-3369.9999999999959
 31
0.0
1001
ACDBBLOCKREPETAG
1070
     1
1071
       68
1005
1318D6
  0
LINE
  5
1318D7
  8
OBJECT
 10
5101.5
 20
-3222.9999999999959
 30
0.0
 11
5101.5
 21
-3366.9999999999959
 31
0.0
1001
ACDBBLOCKREPETAG
1070
     1
1071
       69
1005
1318D7
  0
LINE
  5
1318D8
  8
OBJECT
 10
5090.0
 20
-3229.4999999999959
 30
0.0
 11
5090.0
 21
-3360.4999999999959
 31
0.0
1001
ACDBBLOCKREPETAG
1070
     1
1071
       70
1005
1318D8
  0
LINE
  5
1318D9
  8
OBJECT
 10
5143.0
 20
-3369.9999999999959
 30
0.0
 11
5150.0
 21
-3369.9999999999959
 31
0.0
1001
ACDBBLOCKREPETAG
1070
     1
1071
       71
1005
1318D9
  0
LINE
  5
1318DA
  8
OBJECT
 10
5150.0
 20
-3369.9999999999959
 30
0.0
 11
5150.0
 21
-3219.9999999999959
 31
0.0
1001
ACDBBLOCKREPETAG
1070
     1
1071
       72
1005
1318DA
  0
LINE
  5
1318DB
  8
HIDDEN
 10
5098.0
 20
-3351.9999999999959
 30
0.0
 11
5098.0
 21
-3237.9999999999959
 31
0.0
1001
ACDBBLOCKREPETAG
1070
     1
1071
       73
1005
1318DB
  0
LINE
  5
1318DC
  8
CENTER
 10
5165.0
 20
-3294.9999999999959
 30
0.0
 11
5080.0
 21
-3294.9999999999959
 31
0.0
1001
ACDBBLOCKREPETAG
1070
     1
1071
       74
1005
1318DC
  0
LINE
  5
1318DD
  8
OBJECT
 10
5086.0
 20
-3356.9999999999959
 30
0.0
 11
5080.0
 21
-3356.9999999999959
 31
0.0
1001
ACDBBLOCKREPETAG
1070
     1
1071
       75
1005
1318DD
  0
LINE
  5
1318DE
  8
OBJECT
 10
5143.0
 20
-3366.9999999999959
 30
0.0
 11
5101.5
 21
-3366.9999999999959
 31
0.0
1001
ACDBBLOCKREPETAG
1070
     1
1071
       76
1005
1318DE
  0
LINE
  5
1318DF
  8
OBJECT
 10
5101.5
 20
-3366.9999999999959
 30
0.0
 11
5090.0
 21
-3360.4999999999959
 31
0.0
1001
ACDBBLOCKREPETAG
1070
     1
1071
       77
1005
1318DF
  0
LINE
  5
1318E0
  8
OBJECT
 10
5090.0
 20
-3360.4999999999959
 30
0.0
 11
5086.0
 21
-3356.9999999999959
 31
0.0
1001
ACDBBLOCKREPETAG
1070
     1
1071
       78
1005
1318E0
  0
LINE
  5
1318E1
  8
OBJECT
 10
5101.5
 20
-3222.9999999999959
 30
0.0
 11
5090.0
 21
-3229.4999999999959
 31
0.0
1001
ACDBBLOCKREPETAG
1070
     1
1071
       79
1005
1318E1
  0
LINE
  5
1318E2
  8
OBJECT
 10
5090.0
 20
-3229.4999999999959
 30
0.0
 11
5086.0
 21
-3232.9999999999959
 31
0.0
1001
ACDBBLOCKREPETAG
1070
     1
1071
       80
1005
1318E2
  0
ARC
  5
1318E3
  8
OBJECT
 10
5467.9000000000005
 20
-3294.9999999999959
 30
0.0
 40
386.89999999999998
 50
170.77870136260421
 51
189.22129863739571
1001
ACDBBLOCKREPETAG
1070
     1
1071
       81
1005
1318E3
  0
LINE
  5
1318E4
  8
OBJECT
 10
5086.0
 20
-3232.9999999999959
 30
0.0
 11
5080.0
 21
-3232.9999999999959
 31
0.0
1001
ACDBBLOCKREPETAG
1070
     1
1071
       82
1005
1318E4
  0
LINE
  5
1318E5
  8
OBJECT
 10
5143.0
 20
-3222.9999999999959
 30
0.0
 11
5101.5
 21
-3222.9999999999959
 31
0.0
1001
ACDBBLOCKREPETAG
1070
     1
1071
       83
1005
1318E5
  0
TEXT
  5
1318E6
  8
SLIM
 10
4884.25
 20
-3817.4999999999959
 30
0.0
 40
35.0
  1
通常枝100（4）
 41
0.75
  0
LINE
  5
1318E7
  8
CENTER
 10
4477.0
 20
-3640.9999999999968
 30
0.0
 11
4323.0
 21
-3640.9999999999968
 31
0.0
1001
ACDBBLOCKREPETAG
1070
     1
1071
       17
1005
1318E7
  0
CIRCLE
  5
1318E8
  8
OBJECT
 10
4400.0
 20
-3640.9999999999968
 30
0.0
 40
41.5
1001
ACDBBLOCKREPETAG
1070
     1
1071
       19
1005
1318E8
  0
CIRCLE
  5
1318E9
  8
OBJECT
 10
4400.0
 20
-3640.9999999999968
 30
0.0
 40
54.0
1001
ACDBBLOCKREPETAG
1070
     1
1071
       20
1005
1318E9
  0
ARC
  5
1318EA
  8
OBJECT
 10
4400.0
 20
-3640.9999999999968
 30
0.0
 40
62.0
 50
287.89655112921122
 51
252.1034488707887
1001
ACDBBLOCKREPETAG
1070
     1
1071
       21
1005
1318EA
  0
LINE
  5
1318EB
  8
OBJECT
 10
4380.947441116743
 20
-3699.9999999999968
 30
0.0
 11
4419.052558883257
 21
-3699.9999999999968
 31
0.0
1001
ACDBBLOCKREPETAG
1070
     1
1071
       22
1005
1318EB
  0
LINE
  5
1318EC
  8
OBJECT
 10
4133.0
 20
-3578.9999999999968
 30
0.0
 11
4140.0
 21
-3578.9999999999968
 31
0.0
1001
ACDBBLOCKREPETAG
1070
     1
1071
       45
1005
1318EC
  0
LINE
  5
1318ED
  8
OBJECT
 10
4140.0
 20
-3578.9999999999968
 30
0.0
 11
4140.0
 21
-3699.9999999999968
 31
0.0
1001
ACDBBLOCKREPETAG
1070
     1
1071
       46
1005
1318ED
  0
LINE
  5
1318EE
  8
OBJECT
 10
4133.0
 20
-3699.9999999999968
 30
0.0
 11
4133.0
 21
-3578.9999999999968
 31
0.0
1001
ACDBBLOCKREPETAG
1070
     1
1071
       47
1005
1318EE
  0
LINE
  5
1318EF
  8
CENTER
 10
4155.0
 20
-3640.9999999999968
 30
0.0
 11
4071.0
 21
-3640.9999999999968
 31
0.0
1001
ACDBBLOCKREPETAG
1070
     1
1071
       48
1005
1318EF
  0
LINE
  5
1318F0
  8
OBJECT
 10
4133.0
 20
-3581.9999999999968
 30
0.0
 11
4097.0
 21
-3581.9999999999968
 31
0.0
1001
ACDBBLOCKREPETAG
1070
     1
1071
       49
1005
1318F0
  0
LINE
  5
1318F1
  8
OBJECT
 10
4097.0
 20
-3581.9999999999968
 30
0.0
 11
4097.0
 21
-3699.9999999999968
 31
0.0
1001
ACDBBLOCKREPETAG
1070
     1
1071
       50
1005
1318F1
  0
LINE
  5
1318F2
  8
OBJECT
 10
4097.0
 20
-3699.9999999999968
 30
0.0
 11
4140.0
 21
-3699.9999999999968
 31
0.0
1001
ACDBBLOCKREPETAG
1070
     1
1071
       51
1005
1318F2
  0
LINE
  5
1318F3
  8
OBJECT
 10
4093.0
 20
-3586.4999999999968
 30
0.0
 11
4086.0
 21
-3586.4999999999968
 31
0.0
1001
ACDBBLOCKREPETAG
1070
     1
1071
       52
1005
1318F3
  0
LINE
  5
1318F4
  8
OBJECT
 10
4086.0
 20
-3695.4999999999968
 30
0.0
 11
4093.0
 21
-3695.4999999999968
 31
0.0
1001
ACDBBLOCKREPETAG
1070
     1
1071
       53
1005
1318F4
  0
LINE
  5
1318F5
  8
OBJECT
 10
4093.0
 20
-3695.4999999999968
 30
0.0
 11
4093.0
 21
-3586.4999999999968
 31
0.0
1001
ACDBBLOCKREPETAG
1070
     1
1071
       54
1005
1318F5
  0
LINE
  5
1318F6
  8
OBJECT
 10
4097.0
 20
-3581.9999999999968
 30
0.0
 11
4093.0
 21
-3586.4999999999968
 31
0.0
1001
ACDBBLOCKREPETAG
1070
     1
1071
       55
1005
1318F6
  0
LINE
  5
1318F7
  8
OBJECT
 10
4097.0
 20
-3699.9999999999968
 30
0.0
 11
4093.0
 21
-3695.4999999999968
 31
0.0
1001
ACDBBLOCKREPETAG
1070
     1
1071
       56
1005
1318F7
  0
LINE
  5
1318F8
  8
OBJECT
 10
4083.0
 20
-3578.9999999999968
 30
0.0
 11
4080.0
 21
-3578.9999999999968
 31
0.0
1001
ACDBBLOCKREPETAG
1070
     1
1071
       57
1005
1318F8
  0
ARC
  5
1318F9
  8
OBJECT
 10
4083.0
 20
-3581.9999999999968
 30
0.0
 40
3.0
 50
0.0
 51
90.0
1001
ACDBBLOCKREPETAG
1070
     1
1071
       58
1005
1318F9
  0
LINE
  5
1318FA
  8
OBJECT
 10
4080.0
 20
-3702.9999999999968
 30
0.0
 11
4083.0
 21
-3702.9999999999968
 31
0.0
1001
ACDBBLOCKREPETAG
1070
     1
1071
       59
1005
1318FA
  0
ARC
  5
1318FB
  8
OBJECT
 10
4083.0
 20
-3699.9999999999968
 30
0.0
 40
3.0
 50
270.0
 51
0.0
1001
ACDBBLOCKREPETAG
1070
     1
1071
       60
1005
1318FB
  0
LINE
  5
1318FC
  8
OBJECT
 10
4086.0
 20
-3699.9999999999968
 30
0.0
 11
4086.0
 21
-3581.9999999999968
 31
0.0
1001
ACDBBLOCKREPETAG
1070
     1
1071
       61
1005
1318FC
  0
LINE
  5
1318FD
  8
HIDDEN
 10
4088.0
 20
-3596.4999999999968
 30
0.0
 11
4088.0
 21
-3685.4999999999968
 31
0.0
1001
ACDBBLOCKREPETAG
1070
     1
1071
       63
1005
1318FD
  0
LINE
  5
1318FE
  8
OBJECT
 10
4133.0
 20
-3232.9999999999959
 30
0.0
 11
4140.0
 21
-3232.9999999999959
 31
0.0
1001
ACDBBLOCKREPETAG
1070
     1
1071
       47
1005
1318FE
  0
LINE
  5
1318FF
  8
OBJECT
 10
4140.0
 20
-3232.9999999999959
 30
0.0
 11
4140.0
 21
-3356.9999999999959
 31
0.0
1001
ACDBBLOCKREPETAG
1070
     1
1071
       48
1005
1318FF
  0
LINE
  5
131900
  8
OBJECT
 10
4140.0
 20
-3356.9999999999959
 30
0.0
 11
4133.0
 21
-3356.9999999999959
 31
0.0
1001
ACDBBLOCKREPETAG
1070
     1
1071
       49
1005
131900
  0
LINE
  5
131901
  8
OBJECT
 10
4133.0
 20
-3356.9999999999959
 30
0.0
 11
4133.0
 21
-3232.9999999999959
 31
0.0
1001
ACDBBLOCKREPETAG
1070
     1
1071
       50
1005
131901
  0
LINE
  5
131902
  8
CENTER
 10
4155.0
 20
-3294.9999999999959
 30
0.0
 11
4080.0
 21
-3294.9999999999959
 31
0.0
1001
ACDBBLOCKREPETAG
1070
     1
1071
       51
1005
131902
  0
LINE
  5
131903
  8
OBJECT
 10
4133.0
 20
-3235.9999999999959
 30
0.0
 11
4097.0
 21
-3235.9999999999959
 31
0.0
1001
ACDBBLOCKREPETAG
1070
     1
1071
       52
1005
131903
  0
LINE
  5
131904
  8
OBJECT
 10
4097.0
 20
-3235.9999999999959
 30
0.0
 11
4097.0
 21
-3353.9999999999959
 31
0.0
1001
ACDBBLOCKREPETAG
1070
     1
1071
       53
1005
131904
  0
LINE
  5
131905
  8
OBJECT
 10
4097.0
 20
-3353.9999999999959
 30
0.0
 11
4133.0
 21
-3353.9999999999959
 31
0.0
1001
ACDBBLOCKREPETAG
1070
     1
1071
       54
1005
131905
  0
LINE
  5
131906
  8
OBJECT
 10
4093.0
 20
-3240.4999999999959
 30
0.0
 11
4086.0
 21
-3240.4999999999959
 31
0.0
1001
ACDBBLOCKREPETAG
1070
     1
1071
       55
1005
131906
  0
LINE
  5
131907
  8
OBJECT
 10
4086.0
 20
-3349.4999999999959
 30
0.0
 11
4093.0
 21
-3349.4999999999959
 31
0.0
1001
ACDBBLOCKREPETAG
1070
     1
1071
       56
1005
131907
  0
LINE
  5
131908
  8
OBJECT
 10
4093.0
 20
-3349.4999999999959
 30
0.0
 11
4093.0
 21
-3240.4999999999959
 31
0.0
1001
ACDBBLOCKREPETAG
1070
     1
1071
       57
1005
131908
  0
LINE
  5
131909
  8
OBJECT
 10
4097.0
 20
-3235.9999999999959
 30
0.0
 11
4093.0
 21
-3240.4999999999959
 31
0.0
1001
ACDBBLOCKREPETAG
1070
     1
1071
       58
1005
131909
  0
LINE
  5
13190A
  8
OBJECT
 10
4097.0
 20
-3353.9999999999959
 30
0.0
 11
4093.0
 21
-3349.4999999999959
 31
0.0
1001
ACDBBLOCKREPETAG
1070
     1
1071
       59
1005
13190A
  0
LINE
  5
13190B
  8
OBJECT
 10
4083.0
 20
-3232.9999999999959
 30
0.0
 11
4080.0
 21
-3232.9999999999959
 31
0.0
1001
ACDBBLOCKREPETAG
1070
     1
1071
       60
1005
13190B
  0
ARC
  5
13190C
  8
OBJECT
 10
4083.0
 20
-3235.9999999999959
 30
0.0
 40
3.0
 50
0.0
 51
90.0
1001
ACDBBLOCKREPETAG
1070
     1
1071
       61
1005
13190C
  0
LINE
  5
13190D
  8
OBJECT
 10
4080.0
 20
-3356.9999999999959
 30
0.0
 11
4083.0
 21
-3356.9999999999959
 31
0.0
1001
ACDBBLOCKREPETAG
1070
     1
1071
       62
1005
13190D
  0
ARC
  5
13190E
  8
OBJECT
 10
4083.0
 20
-3353.9999999999959
 30
0.0
 40
3.0
 50
270.0
 51
0.0
1001
ACDBBLOCKREPETAG
1070
     1
1071
       63
1005
13190E
  0
LINE
  5
13190F
  8
OBJECT
 10
4086.0
 20
-3353.9999999999959
 30
0.0
 11
4086.0
 21
-3235.9999999999959
 31
0.0
1001
ACDBBLOCKREPETAG
1070
     1
1071
       64
1005
13190F
  0
LINE
  5
131910
  8
HIDDEN
 10
4088.0
 20
-3250.4999999999959
 30
0.0
 11
4088.0
 21
-3339.4999999999959
 31
0.0
1001
ACDBBLOCKREPETAG
1070
     1
1071
       65
1005
131910
  0
TEXT
  5
131911
  8
SLIM
 10
3894.25
 20
-3817.4999999999959
 30
0.0
 40
35.0
  1
通常枝75（3）
 41
0.75
  0
CIRCLE
  5
131912
  8
OBJECT
 10
3400.0
 20
-3647.9999999999968
 30
0.0
 40
35.5
1001
ACDBBLOCKREPETAG
1070
     1
1071
       10
1005
131912
  0
CIRCLE
  5
131913
  8
OBJECT
 10
3400.0
 20
-3640.9999999999968
 30
0.0
 40
62.0
1001
ACDBBLOCKREPETAG
1070
     1
1071
       11
1005
131913
  0
LINE
  5
131914
  8
CENTER
 10
3330.0
 20
-3647.9999999999968
 30
0.0
 11
3470.0
 21
-3647.9999999999968
 31
0.0
1001
ACDBBLOCKREPETAG
1070
     1
1071
       12
1005
131914
  0
CIRCLE
  5
131915
  8
OBJECT
 10
3400.0
 20
-3647.9999999999968
 30
0.0
 40
47.0
1001
ACDBBLOCKREPETAG
1070
     1
1071
       14
1005
131915
  0
ARC
  5
131916
  8
OBJECT
 10
3400.0
 20
-3647.9999999999968
 30
0.0
 40
55.0
 50
289.01126526011359
 51
250.98873473988641
1001
ACDBBLOCKREPETAG
1070
     1
1071
       15
1005
131916
  0
LINE
  5
131917
  8
OBJECT
 10
3382.0835271328328
 20
-3699.9999999999968
 30
0.0
 11
3417.9164728671681
 21
-3699.9999999999968
 31
0.0
1001
ACDBBLOCKREPETAG
1070
     1
1071
       16
1005
131917
  0
LINE
  5
131918
  8
OBJECT
 10
3133.0
 20
-3592.9999999999968
 30
0.0
 11
3140.0
 21
-3592.9999999999968
 31
0.0
1001
ACDBBLOCKREPETAG
1070
     1
1071
       26
1005
131918
  0
LINE
  5
131919
  8
OBJECT
 10
3140.0
 20
-3592.9999999999968
 30
0.0
 11
3140.0
 21
-3699.9999999999968
 31
0.0
1001
ACDBBLOCKREPETAG
1070
     1
1071
       27
1005
131919
  0
LINE
  5
13191A
  8
OBJECT
 10
3133.0
 20
-3699.9999999999968
 30
0.0
 11
3133.0
 21
-3592.9999999999968
 31
0.0
1001
ACDBBLOCKREPETAG
1070
     1
1071
       28
1005
13191A
  0
LINE
  5
13191B
  8
CENTER
 10
3155.0
 20
-3647.9999999999968
 30
0.0
 11
3071.0
 21
-3647.9999999999968
 31
0.0
1001
ACDBBLOCKREPETAG
1070
     1
1071
       29
1005
13191B
  0
LINE
  5
13191C
  8
OBJECT
 10
3133.0
 20
-3595.9999999999968
 30
0.0
 11
3097.0
 21
-3595.9999999999968
 31
0.0
1001
ACDBBLOCKREPETAG
1070
     1
1071
       30
1005
13191C
  0
LINE
  5
13191D
  8
OBJECT
 10
3097.0
 20
-3595.9999999999968
 30
0.0
 11
3097.0
 21
-3699.9999999999968
 31
0.0
1001
ACDBBLOCKREPETAG
1070
     1
1071
       31
1005
13191D
  0
LINE
  5
13191E
  8
OBJECT
 10
3097.0
 20
-3699.9999999999968
 30
0.0
 11
3140.0
 21
-3699.9999999999968
 31
0.0
1001
ACDBBLOCKREPETAG
1070
     1
1071
       32
1005
13191E
  0
LINE
  5
13191F
  8
OBJECT
 10
3093.0
 20
-3600.4999999999968
 30
0.0
 11
3086.0
 21
-3600.4999999999968
 31
0.0
1001
ACDBBLOCKREPETAG
1070
     1
1071
       33
1005
13191F
  0
LINE
  5
131920
  8
OBJECT
 10
3086.0
 20
-3695.4999999999968
 30
0.0
 11
3093.0
 21
-3695.4999999999968
 31
0.0
1001
ACDBBLOCKREPETAG
1070
     1
1071
       34
1005
131920
  0
LINE
  5
131921
  8
OBJECT
 10
3093.0
 20
-3695.4999999999968
 30
0.0
 11
3093.0
 21
-3600.4999999999968
 31
0.0
1001
ACDBBLOCKREPETAG
1070
     1
1071
       35
1005
131921
  0
LINE
  5
131922
  8
OBJECT
 10
3097.0
 20
-3595.9999999999968
 30
0.0
 11
3093.0
 21
-3600.4999999999968
 31
0.0
1001
ACDBBLOCKREPETAG
1070
     1
1071
       36
1005
131922
  0
LINE
  5
131923
  8
OBJECT
 10
3097.0
 20
-3699.9999999999968
 30
0.0
 11
3093.0
 21
-3695.4999999999968
 31
0.0
1001
ACDBBLOCKREPETAG
1070
     1
1071
       37
1005
131923
  0
LINE
  5
131924
  8
OBJECT
 10
3083.0
 20
-3578.9999999999968
 30
0.0
 11
3080.0
 21
-3578.9999999999968
 31
0.0
1001
ACDBBLOCKREPETAG
1070
     1
1071
       38
1005
131924
  0
ARC
  5
131925
  8
OBJECT
 10
3083.0
 20
-3581.9999999999968
 30
0.0
 40
3.0
 50
0.0
 51
90.0
1001
ACDBBLOCKREPETAG
1070
     1
1071
       39
1005
131925
  0
LINE
  5
131926
  8
OBJECT
 10
3080.0
 20
-3702.9999999999968
 30
0.0
 11
3083.0
 21
-3702.9999999999968
 31
0.0
1001
ACDBBLOCKREPETAG
1070
     1
1071
       40
1005
131926
  0
ARC
  5
131927
  8
OBJECT
 10
3083.0
 20
-3699.9999999999968
 30
0.0
 40
3.0
 50
270.0
 51
0.0
1001
ACDBBLOCKREPETAG
1070
     1
1071
       41
1005
131927
  0
LINE
  5
131928
  8
OBJECT
 10
3086.0
 20
-3699.9999999999968
 30
0.0
 11
3086.0
 21
-3581.9999999999968
 31
0.0
1001
ACDBBLOCKREPETAG
1070
     1
1071
       42
1005
131928
  0
LINE
  5
131929
  8
HIDDEN
 10
3088.0
 20
-3609.9999999999968
 30
0.0
 11
3088.0
 21
-3685.9999999999968
 31
0.0
1001
ACDBBLOCKREPETAG
1070
     1
1071
       43
1005
131929
  0
LINE
  5
13192A
  8
OBJECT
 10
3133.0
 20
-3239.9999999999968
 30
0.0
 11
3140.0
 21
-3239.9999999999968
 31
0.0
1001
ACDBBLOCKREPETAG
1070
     1
1071
       27
1005
13192A
  0
LINE
  5
13192B
  8
OBJECT
 10
3140.0
 20
-3239.9999999999968
 30
0.0
 11
3140.0
 21
-3349.9999999999959
 31
0.0
1001
ACDBBLOCKREPETAG
1070
     1
1071
       28
1005
13192B
  0
LINE
  5
13192C
  8
OBJECT
 10
3140.0
 20
-3349.9999999999959
 30
0.0
 11
3133.0
 21
-3349.9999999999959
 31
0.0
1001
ACDBBLOCKREPETAG
1070
     1
1071
       29
1005
13192C
  0
LINE
  5
13192D
  8
OBJECT
 10
3133.0
 20
-3349.9999999999959
 30
0.0
 11
3133.0
 21
-3239.9999999999968
 31
0.0
1001
ACDBBLOCKREPETAG
1070
     1
1071
       30
1005
13192D
  0
LINE
  5
13192E
  8
CENTER
 10
3155.0
 20
-3294.9999999999959
 30
0.0
 11
3080.0
 21
-3294.9999999999959
 31
0.0
1001
ACDBBLOCKREPETAG
1070
     1
1071
       31
1005
13192E
  0
LINE
  5
13192F
  8
OBJECT
 10
3133.0
 20
-3242.9999999999959
 30
0.0
 11
3097.0
 21
-3242.9999999999959
 31
0.0
1001
ACDBBLOCKREPETAG
1070
     1
1071
       32
1005
13192F
  0
LINE
  5
131930
  8
OBJECT
 10
3097.0
 20
-3242.9999999999959
 30
0.0
 11
3097.0
 21
-3346.9999999999959
 31
0.0
1001
ACDBBLOCKREPETAG
1070
     1
1071
       33
1005
131930
  0
LINE
  5
131931
  8
OBJECT
 10
3097.0
 20
-3346.9999999999959
 30
0.0
 11
3133.0
 21
-3346.9999999999959
 31
0.0
1001
ACDBBLOCKREPETAG
1070
     1
1071
       34
1005
131931
  0
LINE
  5
131932
  8
OBJECT
 10
3093.0
 20
-3247.4999999999959
 30
0.0
 11
3086.0
 21
-3247.4999999999959
 31
0.0
1001
ACDBBLOCKREPETAG
1070
     1
1071
       35
1005
131932
  0
LINE
  5
131933
  8
OBJECT
 10
3086.0
 20
-3342.4999999999959
 30
0.0
 11
3093.0
 21
-3342.4999999999959
 31
0.0
1001
ACDBBLOCKREPETAG
1070
     1
1071
       36
1005
131933
  0
LINE
  5
131934
  8
OBJECT
 10
3093.0
 20
-3342.4999999999959
 30
0.0
 11
3093.0
 21
-3247.4999999999959
 31
0.0
1001
ACDBBLOCKREPETAG
1070
     1
1071
       37
1005
131934
  0
LINE
  5
131935
  8
OBJECT
 10
3097.0
 20
-3242.9999999999959
 30
0.0
 11
3093.0
 21
-3247.4999999999959
 31
0.0
1001
ACDBBLOCKREPETAG
1070
     1
1071
       38
1005
131935
  0
LINE
  5
131936
  8
OBJECT
 10
3097.0
 20
-3346.9999999999959
 30
0.0
 11
3093.0
 21
-3342.4999999999959
 31
0.0
1001
ACDBBLOCKREPETAG
1070
     1
1071
       39
1005
131936
  0
LINE
  5
131937
  8
OBJECT
 10
3083.0
 20
-3232.9999999999959
 30
0.0
 11
3080.0
 21
-3232.9999999999959
 31
0.0
1001
ACDBBLOCKREPETAG
1070
     1
1071
       40
1005
131937
  0
ARC
  5
131938
  8
OBJECT
 10
3083.0
 20
-3235.9999999999959
 30
0.0
 40
3.0
 50
0.0
 51
90.0
1001
ACDBBLOCKREPETAG
1070
     1
1071
       41
1005
131938
  0
LINE
  5
131939
  8
OBJECT
 10
3080.0
 20
-3356.9999999999959
 30
0.0
 11
3083.0
 21
-3356.9999999999959
 31
0.0
1001
ACDBBLOCKREPETAG
1070
     1
1071
       42
1005
131939
  0
ARC
  5
13193A
  8
OBJECT
 10
3083.0
 20
-3353.9999999999959
 30
0.0
 40
3.0
 50
270.0
 51
0.0
1001
ACDBBLOCKREPETAG
1070
     1
1071
       43
1005
13193A
  0
LINE
  5
13193B
  8
OBJECT
 10
3086.0
 20
-3353.9999999999959
 30
0.0
 11
3086.0
 21
-3235.9999999999959
 31
0.0
1001
ACDBBLOCKREPETAG
1070
     1
1071
       44
1005
13193B
  0
LINE
  5
13193C
  8
HIDDEN
 10
3088.0
 20
-3256.9999999999959
 30
0.0
 11
3088.0
 21
-3332.9999999999968
 31
0.0
1001
ACDBBLOCKREPETAG
1070
     1
1071
       45
1005
13193C
  0
TEXT
  5
13193D
  8
SLIM
 10
2894.25
 20
-3817.4999999999959
 30
0.0
 40
35.0
  1
通常枝65（2）
 41
0.75
  0
CIRCLE
  5
13193E
  8
OBJECT
 10
2400.0
 20
-3640.9999999999968
 30
0.0
 40
62.0
1001
ACDBBLOCKREPETAG
1070
     1
1071
        3
1005
13193E
  0
LINE
  5
13193F
  8
CENTER
 10
2338.0
 20
-3655.9999999999968
 30
0.0
 11
2462.0
 21
-3655.9999999999968
 31
0.0
1001
ACDBBLOCKREPETAG
1070
     1
1071
        4
1005
13193F
  0
CIRCLE
  5
131940
  8
OBJECT
 10
2400.0
 20
-3655.9999999999968
 30
0.0
 40
28.0
1001
ACDBBLOCKREPETAG
1070
     1
1071
        6
1005
131940
  0
CIRCLE
  5
131941
  8
OBJECT
 10
2400.0
 20
-3655.9999999999968
 30
0.0
 40
39.0
1001
ACDBBLOCKREPETAG
1070
     1
1071
        7
1005
131941
  0
ARC
  5
131942
  8
OBJECT
 10
2400.0
 20
-3655.9999999999968
 30
0.0
 40
47.0
 50
290.58196921144412
 51
249.41803078855591
1001
ACDBBLOCKREPETAG
1070
     1
1071
        8
1005
131942
  0
LINE
  5
131943
  8
OBJECT
 10
2383.4772883581431
 20
-3699.9999999999968
 30
0.0
 11
2416.5227116418569
 21
-3699.9999999999968
 31
0.0
1001
ACDBBLOCKREPETAG
1070
     1
1071
        9
1005
131943
  0
LINE
  5
131944
  8
OBJECT
 10
2133.0
 20
-3608.9999999999968
 30
0.0
 11
2140.0
 21
-3608.9999999999968
 31
0.0
1001
ACDBBLOCKREPETAG
1070
     1
1071
        7
1005
131944
  0
LINE
  5
131945
  8
OBJECT
 10
2140.0
 20
-3608.9999999999968
 30
0.0
 11
2140.0
 21
-3699.9999999999968
 31
0.0
1001
ACDBBLOCKREPETAG
1070
     1
1071
        8
1005
131945
  0
LINE
  5
131946
  8
OBJECT
 10
2133.0
 20
-3699.9999999999968
 30
0.0
 11
2133.0
 21
-3608.9999999999968
 31
0.0
1001
ACDBBLOCKREPETAG
1070
     1
1071
        9
1005
131946
  0
LINE
  5
131947
  8
CENTER
 10
2155.0
 20
-3655.9999999999968
 30
0.0
 11
2071.0
 21
-3655.9999999999968
 31
0.0
1001
ACDBBLOCKREPETAG
1070
     1
1071
       10
1005
131947
  0
LINE
  5
131948
  8
OBJECT
 10
2133.0
 20
-3611.9999999999968
 30
0.0
 11
2097.0
 21
-3611.9999999999968
 31
0.0
1001
ACDBBLOCKREPETAG
1070
     1
1071
       11
1005
131948
  0
LINE
  5
131949
  8
OBJECT
 10
2097.0
 20
-3611.9999999999968
 30
0.0
 11
2097.0
 21
-3699.9999999999968
 31
0.0
1001
ACDBBLOCKREPETAG
1070
     1
1071
       12
1005
131949
  0
LINE
  5
13194A
  8
OBJECT
 10
2097.0
 20
-3699.9999999999968
 30
0.0
 11
2140.0
 21
-3699.9999999999968
 31
0.0
1001
ACDBBLOCKREPETAG
1070
     1
1071
       13
1005
13194A
  0
LINE
  5
13194B
  8
OBJECT
 10
2093.0
 20
-3616.4999999999968
 30
0.0
 11
2086.0
 21
-3616.4999999999968
 31
0.0
1001
ACDBBLOCKREPETAG
1070
     1
1071
       14
1005
13194B
  0
LINE
  5
13194C
  8
OBJECT
 10
2086.0
 20
-3695.4999999999968
 30
0.0
 11
2093.0
 21
-3695.4999999999968
 31
0.0
1001
ACDBBLOCKREPETAG
1070
     1
1071
       15
1005
13194C
  0
LINE
  5
13194D
  8
OBJECT
 10
2093.0
 20
-3695.4999999999968
 30
0.0
 11
2093.0
 21
-3616.4999999999968
 31
0.0
1001
ACDBBLOCKREPETAG
1070
     1
1071
       16
1005
13194D
  0
LINE
  5
13194E
  8
OBJECT
 10
2097.0
 20
-3611.9999999999968
 30
0.0
 11
2093.0
 21
-3616.4999999999968
 31
0.0
1001
ACDBBLOCKREPETAG
1070
     1
1071
       17
1005
13194E
  0
LINE
  5
13194F
  8
OBJECT
 10
2097.0
 20
-3699.9999999999968
 30
0.0
 11
2093.0
 21
-3695.4999999999968
 31
0.0
1001
ACDBBLOCKREPETAG
1070
     1
1071
       18
1005
13194F
  0
LINE
  5
131950
  8
OBJECT
 10
2083.0
 20
-3578.9999999999968
 30
0.0
 11
2080.0
 21
-3578.9999999999968
 31
0.0
1001
ACDBBLOCKREPETAG
1070
     1
1071
       19
1005
131950
  0
ARC
  5
131951
  8
OBJECT
 10
2083.0
 20
-3581.9999999999968
 30
0.0
 40
3.0
 50
0.0
 51
90.0
1001
ACDBBLOCKREPETAG
1070
     1
1071
       20
1005
131951
  0
LINE
  5
131952
  8
OBJECT
 10
2080.0
 20
-3702.9999999999968
 30
0.0
 11
2083.0
 21
-3702.9999999999968
 31
0.0
1001
ACDBBLOCKREPETAG
1070
     1
1071
       21
1005
131952
  0
ARC
  5
131953
  8
OBJECT
 10
2083.0
 20
-3699.9999999999968
 30
0.0
 40
3.0
 50
270.0
 51
0.0
1001
ACDBBLOCKREPETAG
1070
     1
1071
       22
1005
131953
  0
LINE
  5
131954
  8
OBJECT
 10
2086.0
 20
-3699.9999999999968
 30
0.0
 11
2086.0
 21
-3581.9999999999968
 31
0.0
1001
ACDBBLOCKREPETAG
1070
     1
1071
       23
1005
131954
  0
LINE
  5
131955
  8
HIDDEN
 10
2088.0
 20
-3625.9999999999968
 30
0.0
 11
2088.0
 21
-3685.9999999999968
 31
0.0
1001
ACDBBLOCKREPETAG
1070
     1
1071
       24
1005
131955
  0
LINE
  5
131956
  8
OBJECT
 10
2133.0
 20
-3247.9999999999959
 30
0.0
 11
2140.0
 21
-3247.9999999999959
 31
0.0
1001
ACDBBLOCKREPETAG
1070
     1
1071
        7
1005
131956
  0
LINE
  5
131957
  8
OBJECT
 10
2140.0
 20
-3247.9999999999959
 30
0.0
 11
2140.0
 21
-3341.9999999999959
 31
0.0
1001
ACDBBLOCKREPETAG
1070
     1
1071
        8
1005
131957
  0
LINE
  5
131958
  8
OBJECT
 10
2140.0
 20
-3341.9999999999959
 30
0.0
 11
2133.0
 21
-3341.9999999999959
 31
0.0
1001
ACDBBLOCKREPETAG
1070
     1
1071
        9
1005
131958
  0
LINE
  5
131959
  8
OBJECT
 10
2133.0
 20
-3341.9999999999959
 30
0.0
 11
2133.0
 21
-3247.9999999999959
 31
0.0
1001
ACDBBLOCKREPETAG
1070
     1
1071
       10
1005
131959
  0
LINE
  5
13195A
  8
CENTER
 10
2155.0
 20
-3294.9999999999959
 30
0.0
 11
2080.0
 21
-3294.9999999999959
 31
0.0
1001
ACDBBLOCKREPETAG
1070
     1
1071
       11
1005
13195A
  0
LINE
  5
13195B
  8
OBJECT
 10
2133.0
 20
-3250.9999999999959
 30
0.0
 11
2097.0
 21
-3250.9999999999959
 31
0.0
1001
ACDBBLOCKREPETAG
1070
     1
1071
       12
1005
13195B
  0
LINE
  5
13195C
  8
OBJECT
 10
2097.0
 20
-3250.9999999999959
 30
0.0
 11
2097.0
 21
-3338.9999999999959
 31
0.0
1001
ACDBBLOCKREPETAG
1070
     1
1071
       13
1005
13195C
  0
LINE
  5
13195D
  8
OBJECT
 10
2097.0
 20
-3338.9999999999959
 30
0.0
 11
2133.0
 21
-3338.9999999999959
 31
0.0
1001
ACDBBLOCKREPETAG
1070
     1
1071
       14
1005
13195D
  0
LINE
  5
13195E
  8
OBJECT
 10
2093.0
 20
-3255.4999999999959
 30
0.0
 11
2086.0
 21
-3255.4999999999959
 31
0.0
1001
ACDBBLOCKREPETAG
1070
     1
1071
       15
1005
13195E
  0
LINE
  5
13195F
  8
OBJECT
 10
2086.0
 20
-3334.4999999999959
 30
0.0
 11
2093.0
 21
-3334.4999999999959
 31
0.0
1001
ACDBBLOCKREPETAG
1070
     1
1071
       16
1005
13195F
  0
LINE
  5
131960
  8
OBJECT
 10
2093.0
 20
-3334.4999999999959
 30
0.0
 11
2093.0
 21
-3255.4999999999959
 31
0.0
1001
ACDBBLOCKREPETAG
1070
     1
1071
       17
1005
131960
  0
LINE
  5
131961
  8
OBJECT
 10
2097.0
 20
-3250.9999999999959
 30
0.0
 11
2093.0
 21
-3255.4999999999959
 31
0.0
1001
ACDBBLOCKREPETAG
1070
     1
1071
       18
1005
131961
  0
LINE
  5
131962
  8
OBJECT
 10
2097.0
 20
-3338.9999999999959
 30
0.0
 11
2093.0
 21
-3334.4999999999959
 31
0.0
1001
ACDBBLOCKREPETAG
1070
     1
1071
       19
1005
131962
  0
LINE
  5
131963
  8
OBJECT
 10
2083.0
 20
-3232.9999999999959
 30
0.0
 11
2080.0
 21
-3232.9999999999959
 31
0.0
1001
ACDBBLOCKREPETAG
1070
     1
1071
       20
1005
131963
  0
ARC
  5
131964
  8
OBJECT
 10
2083.0
 20
-3235.9999999999959
 30
0.0
 40
3.0
 50
0.0
 51
90.0
1001
ACDBBLOCKREPETAG
1070
     1
1071
       21
1005
131964
  0
LINE
  5
131965
  8
OBJECT
 10
2080.0
 20
-3356.9999999999959
 30
0.0
 11
2083.0
 21
-3356.9999999999959
 31
0.0
1001
ACDBBLOCKREPETAG
1070
     1
1071
       22
1005
131965
  0
ARC
  5
131966
  8
OBJECT
 10
2083.0
 20
-3353.9999999999959
 30
0.0
 40
3.0
 50
270.0
 51
0.0
1001
ACDBBLOCKREPETAG
1070
     1
1071
       23
1005
131966
  0
LINE
  5
131967
  8
OBJECT
 10
2086.0
 20
-3353.9999999999959
 30
0.0
 11
2086.0
 21
-3235.9999999999959
 31
0.0
1001
ACDBBLOCKREPETAG
1070
     1
1071
       24
1005
131967
  0
LINE
  5
131968
  8
HIDDEN
 10
2088.0
 20
-3264.9999999999968
 30
0.0
 11
2088.0
 21
-3324.9999999999959
 31
0.0
1001
ACDBBLOCKREPETAG
1070
     1
1071
       25
1005
131968
  0
TEXT
  5
131969
  8
SLIM
 10
1896.75
 20
-3817.4999999999959
 30
0.0
 40
35.0
  1
通常枝50（1）
 41
0.75
  0
LINE
  5
13196A
  8
SLIM
 10
3914.9999999999941
 20
-759.47385309434696
 30
0.0
 11
3919.47385309434
 21
-754.99999999999955
 31
0.0
1001
ACDBBLOCKREPETAG
1070
     1
1071
        0
1005
0
1001
ACAD
1010
0.0
1020
0.0
1030
0.0
  0
LINE
  5
13196B
  8
SLIM
 10
3914.9999999999941
 20
-777.43436533648503
 30
0.0
 11
3937.434365336479
 21
-754.99999999999955
 31
0.0
1001
ACAD
1010
0.0
1020
0.0
1030
0.0
1001
ACDBBLOCKREPETAG
1070
     1
1071
       14
1005
13196B
  0
LINE
  5
13196C
  8
SLIM
 10
3914.9999999999941
 20
-795.39487757862275
 30
0.0
 11
3955.394877578618
 21
-754.99999999999955
 31
0.0
1001
ACAD
1010
0.0
1020
0.0
1030
0.0
1001
ACDBBLOCKREPETAG
1070
     1
1071
       15
1005
13196C
  0
LINE
  5
13196D
  8
SLIM
 10
3914.9999999999941
 20
-813.35538982076082
 30
0.0
 11
3973.3553898207551
 21
-754.99999999999955
 31
0.0
1001
ACAD
1010
0.0
1020
0.0
1030
0.0
1001
ACDBBLOCKREPETAG
1070
     1
1071
       16
1005
13196D
  0
LINE
  5
13196E
  8
SLIM
 10
3914.999999999995
 20
-831.31590206289854
 30
0.0
 11
3991.3159020628941
 21
-754.99999999999955
 31
0.0
1001
ACAD
1010
0.0
1020
0.0
1030
0.0
1001
ACDBBLOCKREPETAG
1070
     1
1071
       17
1005
13196E
  0
LINE
  5
13196F
  8
SLIM
 10
3914.999999999995
 20
-849.2764143050365
 30
0.0
 11
4009.2764143050308
 21
-754.99999999999955
 31
0.0
1001
ACAD
1010
0.0
1020
0.0
1030
0.0
1001
ACDBBLOCKREPETAG
1070
     1
1071
       18
1005
13196F
  0
LINE
  5
131970
  8
SLIM
 10
3914.999999999995
 20
-867.23692654717422
 30
0.0
 11
4027.2369265471689
 21
-754.99999999999955
 31
0.0
1001
ACAD
1010
0.0
1020
0.0
1030
0.0
1001
ACDBBLOCKREPETAG
1070
     1
1071
       19
1005
131970
  0
LINE
  5
131971
  8
SLIM
 10
3914.999999999995
 20
-885.1974387893124
 30
0.0
 11
4045.1974387893069
 21
-754.99999999999955
 31
0.0
1001
ACAD
1010
0.0
1020
0.0
1030
0.0
1001
ACDBBLOCKREPETAG
1070
     1
1071
       20
1005
131971
  0
LINE
  5
131972
  8
SLIM
 10
3914.9999999999968
 20
-903.15795103145035
 30
0.0
 11
4063.157951031445
 21
-754.99999999999955
 31
0.0
1001
ACAD
1010
0.0
1020
0.0
1030
0.0
1001
ACDBBLOCKREPETAG
1070
     1
1071
       21
1005
131972
  0
LINE
  5
131973
  8
SLIM
 10
3915.1454972543161
 20
-920.97296601926894
 30
0.0
 11
4081.1184632735849
 21
-754.99999999999955
 31
0.0
1001
ACAD
1010
0.0
1020
0.0
1030
0.0
1001
ACDBBLOCKREPETAG
1070
     1
1071
       22
1005
131973
  0
LINE
  5
131974
  8
SLIM
 10
3917.104627495245
 20
-936.97434802047894
 30
0.0
 11
4085.0000000000068
 21
-769.07897551571591
 31
0.0
1001
ACAD
1010
0.0
1020
0.0
1030
0.0
1001
ACDBBLOCKREPETAG
1070
     1
1071
       23
1005
131974
  0
LINE
  5
131975
  8
SLIM
 10
3919.0637577361722
 20
-952.97573002168929
 30
0.0
 11
4085.0000000000068
 21
-787.03948775785443
 31
0.0
1001
ACAD
1010
0.0
1020
0.0
1030
0.0
1001
ACDBBLOCKREPETAG
1070
     1
1071
       24
1005
131975
  0
LINE
  5
131976
  8
SLIM
 10
3920.0
 20
-969.99999999999966
 30
0.0
 11
4085.0000000000068
 21
-804.99999999999341
 31
0.0
1001
ACAD
1010
0.0
1020
0.0
1030
0.0
1001
ACDBBLOCKREPETAG
1070
     1
1071
       25
1005
131976
  0
LINE
  5
131977
  8
SLIM
 10
3920.0
 20
-987.96051224213795
 30
0.0
 11
4085.0000000000059
 21
-822.96051224213215
 31
0.0
1001
ACAD
1010
0.0
1020
0.0
1030
0.0
1001
ACDBBLOCKREPETAG
1070
     1
1071
       26
1005
131977
  0
LINE
  5
131978
  8
SLIM
 10
3920.0
 20
-1005.921024484276
 30
0.0
 11
4085.0000000000059
 21
-840.92102448427045
 31
0.0
1001
ACAD
1010
0.0
1020
0.0
1030
0.0
1001
ACDBBLOCKREPETAG
1070
     1
1071
       27
1005
131978
  0
LINE
  5
131979
  8
SLIM
 10
3920.0
 20
-1023.881536726414
 30
0.0
 11
4085.000000000005
 21
-858.88153672640954
 31
0.0
1001
ACAD
1010
0.0
1020
0.0
1030
0.0
1001
ACDBBLOCKREPETAG
1070
     1
1071
       28
1005
131979
  0
LINE
  5
13197A
  8
SLIM
 10
3920.0
 20
-1041.842048968552
 30
0.0
 11
4085.0000000000041
 21
-876.84204896854817
 31
0.0
1001
ACAD
1010
0.0
1020
0.0
1030
0.0
1001
ACDBBLOCKREPETAG
1070
     1
1071
       29
1005
13197A
  0
LINE
  5
13197B
  8
SLIM
 10
3920.0
 20
-1059.802561210691
 30
0.0
 11
4085.0000000000041
 21
-894.80256121068692
 31
0.0
1001
ACAD
1010
0.0
1020
0.0
1030
0.0
1001
ACDBBLOCKREPETAG
1070
     1
1071
       30
1005
13197B
  0
LINE
  5
13197C
  8
SLIM
 10
3920.0
 20
-1077.7630734528291
 30
0.0
 11
4085.0000000000032
 21
-912.76307345282555
 31
0.0
1001
ACAD
1010
0.0
1020
0.0
1030
0.0
1001
ACDBBLOCKREPETAG
1070
     1
1071
       31
1005
13197C
  0
LINE
  5
13197D
  8
SLIM
 10
3930.0
 20
-1085.723585694966
 30
0.0
 11
3930.7235856949678
 21
-1084.9999999999991
 31
0.0
1001
ACAD
1010
0.0
1020
0.0
1030
0.0
1001
ACDBBLOCKREPETAG
1070
     1
1071
       32
1005
13197D
  0
LINE
  5
13197E
  8
SLIM
 10
3930.7235856949678
 20
-1084.9999999999991
 30
0.0
 11
4083.4738280308079
 21
-932.24975766415935
 31
0.0
1001
ACAD
1010
0.0
1020
0.0
1030
0.0
1001
ACDBBLOCKREPETAG
1070
     1
1071
       33
1005
13197E
  0
LINE
  5
13197F
  8
SLIM
 10
3930.0
 20
-1103.6840979371059
 30
0.0
 11
3948.6840979371068
 21
-1084.9999999999991
 31
0.0
1001
ACAD
1010
0.0
1020
0.0
1030
0.0
1001
ACDBBLOCKREPETAG
1070
     1
1071
       34
1005
13197F
  0
LINE
  5
131980
  8
SLIM
 10
3948.6840979371068
 20
-1084.9999999999991
 30
0.0
 11
4080.9680345671368
 21
-952.71606336996854
 31
0.0
1001
ACAD
1010
0.0
1020
0.0
1030
0.0
1001
ACDBBLOCKREPETAG
1070
     1
1071
       35
1005
131980
  0
LINE
  5
131981
  8
SLIM
 10
3946.6446101792449
 20
-1104.9999999999991
 30
0.0
 11
3966.6446101792449
 21
-1084.9999999999991
 31
0.0
1001
ACAD
1010
0.0
1020
0.0
1030
0.0
1001
ACDBBLOCKREPETAG
1070
     1
1071
       36
1005
131981
  0
LINE
  5
131982
  8
SLIM
 10
3966.6446101792449
 20
-1084.9999999999991
 30
0.0
 11
4080.0
 21
-971.64461017924452
 31
0.0
1001
ACAD
1010
0.0
1020
0.0
1030
0.0
1001
ACDBBLOCKREPETAG
1070
     1
1071
       37
1005
131982
  0
LINE
  5
131983
  8
SLIM
 10
3964.6051224213829
 20
-1104.9999999999991
 30
0.0
 11
3984.6051224213829
 21
-1084.9999999999991
 31
0.0
1001
ACAD
1010
0.0
1020
0.0
1030
0.0
1001
ACDBBLOCKREPETAG
1070
     1
1071
       38
1005
131983
  0
LINE
  5
131984
  8
SLIM
 10
3984.6051224213829
 20
-1084.9999999999991
 30
0.0
 11
4080.0
 21
-989.60512242138304
 31
0.0
1001
ACAD
1010
0.0
1020
0.0
1030
0.0
1001
ACDBBLOCKREPETAG
1070
     1
1071
       39
1005
131984
  0
LINE
  5
131985
  8
SLIM
 10
3982.565634663521
 20
-1104.9999999999991
 30
0.0
 11
4002.565634663521
 21
-1084.9999999999991
 31
0.0
1001
ACAD
1010
0.0
1020
0.0
1030
0.0
1001
ACDBBLOCKREPETAG
1070
     1
1071
       40
1005
131985
  0
LINE
  5
131986
  8
SLIM
 10
4002.565634663521
 20
-1084.9999999999991
 30
0.0
 11
4079.9999999999991
 21
-1007.565634663521
 31
0.0
1001
ACAD
1010
0.0
1020
0.0
1030
0.0
1001
ACDBBLOCKREPETAG
1070
     1
1071
       41
1005
131986
  0
LINE
  5
131987
  8
SLIM
 10
4000.5261469056582
 20
-1104.9999999999991
 30
0.0
 11
4020.52614690566
 21
-1084.9999999999991
 31
0.0
1001
ACAD
1010
0.0
1020
0.0
1030
0.0
1001
ACDBBLOCKREPETAG
1070
     1
1071
       42
1005
131987
  0
LINE
  5
131988
  8
SLIM
 10
4020.52614690566
 20
-1084.9999999999991
 30
0.0
 11
4079.9999999999991
 21
-1025.52614690566
 31
0.0
1001
ACAD
1010
0.0
1020
0.0
1030
0.0
1001
ACDBBLOCKREPETAG
1070
     1
1071
       43
1005
131988
  0
LINE
  5
131989
  8
SLIM
 10
4018.486659147798
 20
-1104.9999999999991
 30
0.0
 11
4038.486659147798
 21
-1084.9999999999991
 31
0.0
1001
ACAD
1010
0.0
1020
0.0
1030
0.0
1001
ACDBBLOCKREPETAG
1070
     1
1071
       44
1005
131989
  0
LINE
  5
13198A
  8
SLIM
 10
4038.486659147798
 20
-1084.9999999999991
 30
0.0
 11
4079.9999999999991
 21
-1043.4866591477989
 31
0.0
1001
ACAD
1010
0.0
1020
0.0
1030
0.0
1001
ACDBBLOCKREPETAG
1070
     1
1071
       45
1005
13198A
  0
LINE
  5
13198B
  8
SLIM
 10
4036.4471713899361
 20
-1104.9999999999991
 30
0.0
 11
4056.4471713899361
 21
-1084.9999999999991
 31
0.0
1001
ACAD
1010
0.0
1020
0.0
1030
0.0
1001
ACDBBLOCKREPETAG
1070
     1
1071
       46
1005
13198B
  0
LINE
  5
13198C
  8
SLIM
 10
4056.4471713899361
 20
-1084.9999999999991
 30
0.0
 11
4079.9999999999991
 21
-1061.447171389937
 31
0.0
1001
ACAD
1010
0.0
1020
0.0
1030
0.0
1001
ACDBBLOCKREPETAG
1070
     1
1071
       47
1005
13198C
  0
LINE
  5
13198D
  8
SLIM
 10
4054.4076836320728
 20
-1104.9999999999991
 30
0.0
 11
4070.0
 21
-1089.4076836320739
 31
0.0
1001
ACAD
1010
0.0
1020
0.0
1030
0.0
1001
ACDBBLOCKREPETAG
1070
     1
1071
       48
1005
13198D
  0
LINE
  5
13198E
  8
SLIM
 10
4074.4076836320728
 20
-1084.9999999999991
 30
0.0
 11
4079.9999999999991
 21
-1079.407683632076
 31
0.0
1001
ACAD
1010
0.0
1020
0.0
1030
0.0
1001
ACDBBLOCKREPETAG
1070
     1
1071
       49
1005
13198E
  0
LINE
  5
13198F
  8
OBJECT
 10
3914.9999999999941
 20
-754.99999999999955
 30
0.0
 11
3914.9999999999968
 21
-919.78460339903484
 31
0.0
1001
ACDBBLOCKREPETAG
1070
     1
1071
        1
1005
13198F
  0
LINE
  5
131990
  8
OBJECT
 10
4085.0000000000068
 20
-754.99999999999955
 30
0.0
 11
4085.0000000000032
 21
-919.78460339904154
 31
0.0
1001
ACDBBLOCKREPETAG
1070
     1
1071
        2
1005
131990
  0
LINE
  5
131991
  8
OBJECT
 10
4085.0000000000068
 20
-754.99999999999955
 30
0.0
 11
3914.9999999999941
 21
-754.99999999999955
 31
0.0
1001
ACDBBLOCKREPETAG
1070
     1
1071
        3
1005
131991
  0
LINE
  5
131992
  8
OBJECT
 10
4079.9999999999991
 20
-1084.9999999999991
 30
0.0
 11
3920.0
 21
-1084.9999999999991
 31
0.0
1001
ACDBBLOCKREPETAG
1070
     1
1071
        4
1005
131992
  0
LINE
  5
131993
  8
OBJECT
 10
3914.9999999999968
 20
-919.78460339903484
 30
0.0
 11
3920.0
 21
-960.62257748298634
 31
0.0
1001
ACDBBLOCKREPETAG
1070
     1
1071
        6
1005
131993
  0
LINE
  5
131994
  8
OBJECT
 10
3920.0
 20
-960.62257748298634
 30
0.0
 11
3920.0
 21
-1084.9999999999991
 31
0.0
1001
ACDBBLOCKREPETAG
1070
     1
1071
        7
1005
131994
  0
LINE
  5
131995
  8
OBJECT
 10
4085.0000000000032
 20
-919.78460339904154
 30
0.0
 11
4080.0
 21
-960.62257748298634
 31
0.0
1001
ACDBBLOCKREPETAG
1070
     1
1071
        8
1005
131995
  0
LINE
  5
131996
  8
OBJECT
 10
4080.0
 20
-960.62257748298634
 30
0.0
 11
4079.9999999999991
 21
-1084.9999999999991
 31
0.0
1001
ACDBBLOCKREPETAG
1070
     1
1071
        9
1005
131996
  0
LINE
  5
131997
  8
OBJECT
 10
3930.0
 20
-1084.9999999999991
 30
0.0
 11
3930.0
 21
-1104.9999999999991
 31
0.0
1001
ACDBBLOCKREPETAG
1070
     1
1071
       10
1005
131997
  0
LINE
  5
131998
  8
OBJECT
 10
3930.0
 20
-1104.9999999999991
 30
0.0
 11
4070.0
 21
-1104.9999999999991
 31
0.0
1001
ACDBBLOCKREPETAG
1070
     1
1071
       11
1005
131998
  0
LINE
  5
131999
  8
OBJECT
 10
4070.0
 20
-1104.9999999999991
 30
0.0
 11
4070.0
 21
-1084.9999999999991
 31
0.0
1001
ACDBBLOCKREPETAG
1070
     1
1071
       12
1005
131999
  0
LINE
  5
13199A
  8
OBJECT
 10
1923.0
 20
-570.99999999999955
 30
0.0
 11
1923.0
 21
-549.99999999999955
 31
0.0
1001
ACDBBLOCKREPETAG
1070
     1
1071
       38
1005
13199A
  0
LINE
  5
13199B
  8
OBJECT
 10
1923.0
 20
-549.99999999999955
 30
0.0
 11
2077.0
 21
-549.99999999999955
 31
0.0
1001
ACDBBLOCKREPETAG
1070
     1
1071
       39
1005
13199B
  0
LINE
  5
13199C
  8
HIDDEN
 10
1943.0
 20
-619.99999999999955
 30
0.0
 11
2057.0
 21
-619.99999999999955
 31
0.0
1001
ACDBBLOCKREPETAG
1070
     1
1071
       40
1005
13199C
  0
LINE
  5
13199D
  8
OBJECT
 10
2077.0
 20
-549.99999999999955
 30
0.0
 11
2077.0
 21
-570.99999999999955
 31
0.0
1001
ACDBBLOCKREPETAG
1070
     1
1071
       41
1005
13199D
  0
LINE
  5
13199E
  8
OBJECT
 10
2077.0
 20
-570.99999999999955
 30
0.0
 11
1923.0
 21
-570.99999999999955
 31
0.0
1001
ACDBBLOCKREPETAG
1070
     1
1071
       42
1005
13199E
  0
LINE
  5
13199F
  8
CENTER
 10
2000.0
 20
-534.99999999999955
 30
0.0
 11
2000.0
 21
-889.99999999999955
 31
0.0
1001
ACDBBLOCKREPETAG
1070
     1
1071
       43
1005
13199F
  0
LINE
  5
1319A0
  8
OBJECT
 10
1928.0
 20
-570.99999999999955
 30
0.0
 11
1928.0
 21
-633.99999999999955
 31
0.0
1001
ACDBBLOCKREPETAG
1070
     1
1071
       44
1005
1319A0
  0
LINE
  5
1319A1
  8
OBJECT
 10
2072.0
 20
-633.99999999999955
 30
0.0
 11
2072.0
 21
-570.99999999999955
 31
0.0
1001
ACDBBLOCKREPETAG
1070
     1
1071
       45
1005
1319A1
  0
LINE
  5
1319A2
  8
OBJECT
 10
1920.0
 20
-877.99999999999955
 30
0.0
 11
2080.0
 21
-877.99999999999955
 31
0.0
1001
ACDBBLOCKREPETAG
1070
     1
1071
       46
1005
1319A2
  0
LINE
  5
1319A3
  8
OBJECT
 10
2080.0
 20
-633.99999999999955
 30
0.0
 11
1920.0
 21
-633.99999999999955
 31
0.0
1001
ACDBBLOCKREPETAG
1070
     1
1071
       47
1005
1319A3
  0
LINE
  5
1319A4
  8
OBJECT
 10
1920.0
 20
-877.99999999999955
 30
0.0
 11
1920.0
 21
-889.99999999999955
 31
0.0
1001
ACDBBLOCKREPETAG
1070
     1
1071
       48
1005
1319A4
  0
LINE
  5
1319A5
  8
OBJECT
 10
1920.0
 20
-889.99999999999955
 30
0.0
 11
2080.0
 21
-889.99999999999955
 31
0.0
1001
ACDBBLOCKREPETAG
1070
     1
1071
       49
1005
1319A5
  0
LINE
  5
1319A6
  8
OBJECT
 10
2080.0
 20
-889.99999999999955
 30
0.0
 11
2080.0
 21
-877.99999999999955
 31
0.0
1001
ACDBBLOCKREPETAG
1070
     1
1071
       50
1005
1319A6
  0
LINE
  5
1319A7
  8
OBJECT
 10
2074.9999999998622
 20
-757.99999999985016
 30
0.0
 11
2075.0
 21
-877.99999999999955
 31
0.0
1001
ACDBBLOCKREPETAG
1070
     1
1071
       54
1005
1319A7
  0
LINE
  5
1319A8
  8
OBJECT
 10
2074.9999908029849
 20
-757.99998602702112
 30
0.0
 11
2080.0
 21
-757.99998602702112
 31
0.0
1001
ACDBBLOCKREPETAG
1070
     1
1071
       55
1005
1319A8
  0
LINE
  5
1319A9
  8
OBJECT
 10
1925.000000000138
 20
-757.99999999985016
 30
0.0
 11
1925.0
 21
-877.99999999999955
 31
0.0
1001
ACDBBLOCKREPETAG
1070
     1
1071
       56
1005
1319A9
  0
LINE
  5
1319AA
  8
OBJECT
 10
1925.000009197013
 20
-757.99998602702112
 30
0.0
 11
1920.0
 21
-757.99998602702112
 31
0.0
1001
ACDBBLOCKREPETAG
1070
     1
1071
       57
1005
1319AA
  0
ARC
  5
1319AB
  8
OBJECT
 10
2200.6872746716731
 20
-749.40809941010718
 30
0.0
 40
170.6350503965856
 50
137.44134459184301
 51
149.91949581336559
1001
ACDBBLOCKREPETAG
1070
     1
1071
       58
1005
1319AB
  0
ARC
  5
1319AC
  8
OBJECT
 10
2200.6872746716731
 20
-642.59190058989179
 30
0.0
 40
170.6350503965856
 50
210.0805041866343
 51
222.55865540815699
1001
ACDBBLOCKREPETAG
1070
     1
1071
       59
1005
1319AC
  0
ARC
  5
1319AD
  8
OBJECT
 10
1799.312725328326
 20
-749.40809941010718
 30
0.0
 40
170.6350503965856
 50
30.080504186774089
 51
42.558655408382641
1001
ACDBBLOCKREPETAG
1070
     1
1071
       60
1005
1319AD
  0
ARC
  5
1319AE
  8
OBJECT
 10
1799.312725328326
 20
-642.59190058989179
 30
0.0
 40
170.6350503965856
 50
317.44134459161722
 51
329.91949581322592
1001
ACDBBLOCKREPETAG
1070
     1
1071
       61
1005
1319AE
  0
POINT
  5
1319AF
  8
DOTS
 10
2000.0
 20
-754.99999999999955
 30
0.0
1001
ACDBBLOCKREPETAG
1070
     1
1071
      185
1005
1319AF
  0
LINE
  5
1319B0
  8
OBJECT
 10
3930.0
 20
-1199.999999999997
 30
0.0
 11
4070.0
 21
-1199.999999999997
 31
0.0
1001
ACDBBLOCKREPETAG
1070
     1
1071
        0
1005
1319B0
  0
LINE
  5
1319B1
  8
OBJECT
 10
3930.0
 20
-1199.999999999997
 30
0.0
 11
3930.0
 21
-959.99999999999693
 31
0.0
1001
ACDBBLOCKREPETAG
1070
     1
1071
        1
1005
1319B1
  0
LINE
  5
1319B2
  8
OBJECT
 10
4070.0
 20
-1199.999999999997
 30
0.0
 11
4070.0
 21
-959.99999999999693
 31
0.0
1001
ACDBBLOCKREPETAG
1070
     1
1071
        2
1005
1319B2
  0
LINE
  5
1319B3
  8
OBJECT
 10
3930.0
 20
-959.99999999999693
 30
0.0
 11
4070.0
 21
-959.99999999999693
 31
0.0
1001
ACDBBLOCKREPETAG
1070
     1
1071
        3
1005
1319B3
  0
LINE
  5
1319B4
  8
HIDDEN
 10
3937.5
 20
-959.99999999999693
 30
0.0
 11
3937.5
 21
-1199.999999999997
 31
0.0
1001
ACDBBLOCKREPETAG
1070
     1
1071
        4
1005
1319B4
  0
LINE
  5
1319B5
  8
HIDDEN
 10
4062.5
 20
-959.99999999999693
 30
0.0
 11
4062.5
 21
-1199.999999999997
 31
0.0
1001
ACDBBLOCKREPETAG
1070
     1
1071
        5
1005
1319B5
  0
LINE
  5
1319B6
  8
CENTER
 10
4000.0
 20
-889.99999999999875
 30
0.0
 11
4000.0
 21
-1214.999999999997
 31
0.0
1001
ACDBBLOCKREPETAG
1070
     1
1071
        6
1005
1319B6
  0
LINE
  5
1319B7
  8
OBJECT
 10
3925.0
 20
-889.99999999999875
 30
0.0
 11
3925.0
 21
-919.99999999999693
 31
0.0
1001
ACDBBLOCKREPETAG
1070
     1
1071
        7
1005
1319B7
  0
LINE
  5
1319B8
  8
OBJECT
 10
4075.0000000000032
 20
-889.99999999999875
 30
0.0
 11
4075.0
 21
-919.99999999999693
 31
0.0
1001
ACDBBLOCKREPETAG
1070
     1
1071
        8
1005
1319B8
  0
LINE
  5
1319B9
  8
OBJECT
 10
3925.0
 20
-919.99999999999693
 30
0.0
 11
4075.0
 21
-919.99999999999693
 31
0.0
1001
ACDBBLOCKREPETAG
1070
     1
1071
        9
1005
1319B9
  0
LINE
  5
1319BA
  8
OBJECT
 10
3925.0
 20
-919.99999999999693
 30
0.0
 11
3930.0
 21
-959.99999999999693
 31
0.0
1001
ACDBBLOCKREPETAG
1070
     1
1071
       10
1005
1319BA
  0
LINE
  5
1319BB
  8
OBJECT
 10
4070.0
 20
-959.99999999999693
 30
0.0
 11
4075.0
 21
-919.99999999999693
 31
0.0
1001
ACDBBLOCKREPETAG
1070
     1
1071
       11
1005
1319BB
  0
LINE
  5
1319BC
  8
OBJECT
 10
1930.0
 20
-1199.999999999997
 30
0.0
 11
2070.0
 21
-1199.999999999997
 31
0.0
1001
ACDBBLOCKREPETAG
1070
     1
1071
        0
1005
1319BC
  0
LINE
  5
1319BD
  8
OBJECT
 10
1930.0
 20
-1199.999999999997
 30
0.0
 11
1930.0
 21
-959.99999999999784
 31
0.0
1001
ACDBBLOCKREPETAG
1070
     1
1071
        1
1005
1319BD
  0
LINE
  5
1319BE
  8
OBJECT
 10
2070.0
 20
-1199.999999999997
 30
0.0
 11
2070.0
 21
-959.99999999999784
 31
0.0
1001
ACDBBLOCKREPETAG
1070
     1
1071
        2
1005
1319BE
  0
LINE
  5
1319BF
  8
OBJECT
 10
1930.0
 20
-959.99999999999784
 30
0.0
 11
2070.0
 21
-959.99999999999784
 31
0.0
1001
ACDBBLOCKREPETAG
1070
     1
1071
        3
1005
1319BF
  0
LINE
  5
1319C0
  8
HIDDEN
 10
1937.5
 20
-959.99999999999784
 30
0.0
 11
1937.5
 21
-1199.999999999997
 31
0.0
1001
ACDBBLOCKREPETAG
1070
     1
1071
        4
1005
1319C0
  0
LINE
  5
1319C1
  8
HIDDEN
 10
2062.5
 20
-959.99999999999784
 30
0.0
 11
2062.5
 21
-1199.999999999997
 31
0.0
1001
ACDBBLOCKREPETAG
1070
     1
1071
        5
1005
1319C1
  0
LINE
  5
1319C2
  8
CENTER
 10
2000.0
 20
-889.99999999999955
 30
0.0
 11
2000.0
 21
-1214.999999999998
 31
0.0
1001
ACDBBLOCKREPETAG
1070
     1
1071
        6
1005
1319C2
  0
LINE
  5
1319C3
  8
OBJECT
 10
1925.0
 20
-889.99999999999955
 30
0.0
 11
1925.0
 21
-919.99999999999761
 31
0.0
1001
ACDBBLOCKREPETAG
1070
     1
1071
        7
1005
1319C3
  0
LINE
  5
1319C4
  8
OBJECT
 10
2075.0000000000041
 20
-889.99999999999955
 30
0.0
 11
2075.0
 21
-919.99999999999761
 31
0.0
1001
ACDBBLOCKREPETAG
1070
     1
1071
        8
1005
1319C4
  0
LINE
  5
1319C5
  8
OBJECT
 10
1925.0
 20
-919.99999999999761
 30
0.0
 11
2075.0
 21
-919.99999999999761
 31
0.0
1001
ACDBBLOCKREPETAG
1070
     1
1071
        9
1005
1319C5
  0
LINE
  5
1319C6
  8
OBJECT
 10
1925.0
 20
-919.99999999999761
 30
0.0
 11
1930.0
 21
-959.99999999999784
 31
0.0
1001
ACDBBLOCKREPETAG
1070
     1
1071
       10
1005
1319C6
  0
LINE
  5
1319C7
  8
OBJECT
 10
2070.0
 20
-959.99999999999784
 30
0.0
 11
2075.0
 21
-919.99999999999761
 31
0.0
1001
ACDBBLOCKREPETAG
1070
     1
1071
       11
1005
1319C7
  0
TEXT
  5
1319C8
  8
SLIM
 10
3741.6250000000009
 20
-1467.499999999997
 30
0.0
 40
35.0
  1
片受けスタイル（S）＋シンドカット
 41
0.75
  0
TEXT
  5
1319C9
  8
SLIM
 10
1856.25
 20
-1467.499999999998
 30
0.0
 40
35.0
  1
片受けスタイル（S）
 41
0.75
  0
VIEWPORT
  5
F6BA7
 67
     1
  8
0
 10
145.33033752441401
 20
101.8328354358673
 30
0.0
 40
334.0025019414623
 41
222.19657968139651
 68
     1
 69
     1
1001
ACAD
1000
MVIEW
1002
{
1070
    16
1010
0.0
1020
0.0
1030
0.0
1010
0.0
1020
0.0
1030
1.0
1040
0.0
1040
222.19657968139651
1040
145.33033752441401
1040
101.8328354358673
1040
50.0
1040
0.0
1040
0.0
1070
     0
1070
     0
1070
     1
1070
     1
1070
     0
1070
     0
1070
     0
1070
     0
1040
0.0
1040
0.0
1040
0.0
1040
10.0
1040
10.0
1040
10.0
1040
10.0
1070
     0
1002
{
1002
}
1002
}
  0
VIEWPORT
  5
F6BA9
 67
     1
  8
OBJECT
 10
145.3303314447403
 20
101.8328338861465
 30
0.0
 40
232.5285303115844
 41
162.93253421783439
 68
     2
 69
     2
1001
ACAD
1000
MVIEW
1002
{
1070
    16
1010
0.0
1020
0.0
1030
0.0
1010
0.0
1020
0.0
1030
1.0
1040
0.0
1040
25942.55904403147
1040
2377.604457077377
1040
-7591.5176687056619
1040
50.0
1040
0.0
1040
0.0
1070
     0
1070
   600
1070
     1
1070
     1
1070
     0
1070
     0
1070
     0
1070
     0
1040
0.0
1040
0.0
1040
0.0
1040
1.0
1040
1.0
1040
0.0
1040
0.0
1070
     0
1002
{
1002
}
1002
}
  0
ENDSEC
  0
EOF
