  0
SECTION
  2
HEADER
  9
$ACADVER
  1
AC1009
  9
$INSBASE
 10
0.0
 20
0.0
 30
0.0
  9
$EXTMIN
 10
-0.0000000000002274
 20
-3982.4999999999982
 30
0.0
  9
$EXTMAX
 10
5607.5428571428556
 20
607.5
 30
0.0
  9
$LIMMIN
 10
0.0
 20
0.0
  9
$LIMMAX
 10
210.0
 20
297.0
  9
$ORTHOMODE
 70
     0
  9
$REGENMODE
 70
     1
  9
$FILLMODE
 70
     1
  9
$QTEXTMODE
 70
     0
  9
$MIRRTEXT
 70
     0
  9
$DRAGMODE
 70
     2
  9
$LTSCALE
 40
1.0
  9
$OSMODE
 70
    37
  9
$ATTMODE
 70
     1
  9
$TEXTSIZE
 40
4.0
  9
$TRACEWID
 40
0.05
  9
$TEXTSTYLE
  7
STANDARD
  9
$CLAYER
  8
SLIM
  9
$CELTYPE
  6
BYLAYER
  9
$CECOLOR
 62
   256
  9
$DIMSCALE
 40
10.0
  9
$DIMASZ
 40
2.0
  9
$DIMEXO
 40
1.0
  9
$DIMDLI
 40
10.0
  9
$DIMRND
 40
0.0
  9
$DIMDLE
 40
0.0
  9
$DIMEXE
 40
1.0
  9
$DIMTP
 40
0.0
  9
$DIMTM
 40
0.0
  9
$DIMTXT
 40
3.2000000000000002
  9
$DIMCEN
 40
0.0
  9
$DIMTSZ
 40
0.0
  9
$DIMTOL
 70
     0
  9
$DIMLIM
 70
     0
  9
$DIMTIH
 70
     0
  9
$DIMTOH
 70
     0
  9
$DIMSE1
 70
     0
  9
$DIMSE2
 70
     0
  9
$DIMTAD
 70
     1
  9
$DIMZIN
 70
     8
  9
$DIMBLK
  1
OPEN30
  9
$DIMASO
 70
     1
  9
$DIMSHO
 70
     1
  9
$DIMPOST
  1

  9
$DIMAPOST
  1

  9
$DIMALT
 70
     0
  9
$DIMALTD
 70
     2
  9
$DIMALTF
 40
25.399999999999999
  9
$DIMLFAC
 40
1.0
  9
$DIMTOFL
 70
     1
  9
$DIMTVP
 40
0.0
  9
$DIMTIX
 70
     0
  9
$DIMSOXD
 70
     0
  9
$DIMSAH
 70
     0
  9
$DIMBLK1
  1

  9
$DIMBLK2
  1

  9
$DIMSTYLE
  2
S10
  9
$DIMCLRD
 70
   256
  9
$DIMCLRE
 70
   256
  9
$DIMCLRT
 70
   256
  9
$DIMTFAC
 40
1.0
  9
$DIMGAP
 40
0.9
  9
$LUNITS
 70
     2
  9
$LUPREC
 70
     2
  9
$SKETCHINC
 40
0.1
  9
$FILLETRAD
 40
0.0
  9
$AUNITS
 70
     0
  9
$AUPREC
 70
     2
  9
$MENU
  1
ACAD
  9
$ELEVATION
 40
0.0
  9
$PELEVATION
 40
0.0
  9
$THICKNESS
 40
0.0
  9
$LIMCHECK
 70
     0
  9
$BLIPMODE
 70
     0
  9
$CHAMFERA
 40
2.0
  9
$CHAMFERB
 40
2.0
  9
$SKPOLY
 70
     0
  9
$TDCREATE
 40
2453095.4929404748
  9
$TDUPDATE
 40
2457604.6491369451
  9
$TDINDWG
 40
21.3417646065
  9
$TDUSRTIMER
 40
21.341763923599999
  9
$USRTIMER
 70
     1
  9
$ANGBASE
 50
0.0
  9
$ANGDIR
 70
     0
  9
$PDMODE
 70
    35
  9
$PDSIZE
 40
2.0
  9
$PLINEWID
 40
0.0
  9
$COORDS
 70
     1
  9
$SPLFRAME
 70
     0
  9
$SPLINETYPE
 70
     6
  9
$SPLINESEGS
 70
     8
  9
$ATTDIA
 70
     0
  9
$ATTREQ
 70
     1
  9
$HANDLING
 70
     1
  9
$HANDSEED
  5
126B03
  9
$SURFTAB1
 70
     6
  9
$SURFTAB2
 70
     6
  9
$SURFTYPE
 70
     6
  9
$SURFU
 70
     6
  9
$SURFV
 70
     6
  9
$UCSNAME
  2

  9
$UCSORG
 10
0.0
 20
0.0
 30
0.0
  9
$UCSXDIR
 10
1.0
 20
0.0
 30
0.0
  9
$UCSYDIR
 10
0.0
 20
1.0
 30
0.0
  9
$PUCSNAME
  2

  9
$PUCSORG
 10
0.0
 20
0.0
 30
0.0
  9
$PUCSXDIR
 10
1.0
 20
0.0
 30
0.0
  9
$PUCSYDIR
 10
0.0
 20
1.0
 30
0.0
  9
$USERI1
 70
     0
  9
$USERI2
 70
     0
  9
$USERI3
 70
     0
  9
$USERI4
 70
     0
  9
$USERI5
 70
     0
  9
$USERR1
 40
0.0
  9
$USERR2
 40
0.0
  9
$USERR3
 40
0.0
  9
$USERR4
 40
0.0
  9
$USERR5
 40
0.0
  9
$WORLDVIEW
 70
     1
  9
$SHADEDGE
 70
     3
  9
$SHADEDIF
 70
    70
  9
$TILEMODE
 70
     1
  9
$MAXACTVP
 70
    64
  9
$PLIMCHECK
 70
     0
  9
$PEXTMIN
 10
29.066066288948051
 20
20.366566777229309
 30
0.0
  9
$PEXTMAX
 10
261.5945966005325
 20
183.29910099506381
 30
0.0
  9
$PLIMMIN
 10
-3.17498779296875
 20
-3.1749999523162842
  9
$PLIMMAX
 10
293.83566284179687
 20
206.8406708240509
  9
$UNITMODE
 70
     0
  9
$VISRETAIN
 70
     1
  9
$PLINEGEN
 70
     0
  9
$PSLTSCALE
 70
     1
  0
ENDSEC
  0
SECTION
  2
TABLES
  0
TABLE
  2
VPORT
 70
     1
  0
VPORT
  2
*ACTIVE
 70
     0
 10
0.0
 20
0.0
 11
1.0
 21
1.0
 12
2001.428309592093
 22
-1441.562207794902
 13
0.0
 23
0.0
 14
1.0
 24
1.0
 15
0.0
 25
0.0
 16
0.0
 26
0.0
 36
1.0
 17
0.0
 27
0.0
 37
0.0
 40
4885.7815778695758
 41
1.6494178525226391
 42
50.0
 43
0.0
 44
0.0
 50
0.0
 51
0.0
 71
     0
 72
   600
 73
     1
 74
     1
 75
     0
 76
     0
 77
     0
 78
     0
  0
ENDTAB
  0
TABLE
  2
LTYPE
 70
     4
  0
LTYPE
  2
CONTINUOUS
 70
     0
  3
Solid line
 72
    65
 73
     0
 40
0.0
  0
LTYPE
  2
PHANTOM2
 70
     0
  3
___ _ _ ___ _ _ ___ _ _ ___ _ _
 72
    65
 73
     6
 40
1.25
 49
0.625
 49
-0.125
 49
0.125
 49
-0.125
 49
0.125
 49
-0.125
  0
LTYPE
  2
ACAD_ISO08W100
 70
     0
  3
ISO long-dash short-dash ____ __ ____ __ ____ _
 72
    65
 73
     4
 40
36.0
 49
24.0
 49
-3.0
 49
6.0
 49
-3.0
  0
LTYPE
  2
ACAD_ISO02W100
 70
     0
  3
ISO dash __ __ __ __ __ __ __ __ __ __ __ __ __
 72
    65
 73
     2
 40
15.0
 49
12.0
 49
-3.0
  0
ENDTAB
  0
TABLE
  2
LAYER
 70
     8
  0
LAYER
  2
0
 70
     0
 62
     7
  6
CONTINUOUS
  0
LAYER
  2
SLIM
 70
     0
 62
     2
  6
CONTINUOUS
  0
LAYER
  2
DEFPOINTS
 70
     0
 62
     7
  6
CONTINUOUS
  0
LAYER
  2
DIM
 70
     0
 62
     7
  6
CONTINUOUS
  0
LAYER
  2
OBJECT
 70
     0
 62
     4
  6
CONTINUOUS
  0
LAYER
  2
HIDDEN
 70
     0
 62
     2
  6
ACAD_ISO02W100
  0
LAYER
  2
CENTER
 70
     0
 62
     2
  6
ACAD_ISO08W100
  0
LAYER
  2
DOTS
 70
     0
 62
     1
  6
CONTINUOUS
  0
ENDTAB
  0
TABLE
  2
STYLE
 70
     2
  0
STYLE
  2
STANDARD
 70
     0
 40
0.0
 41
0.75
 50
0.0
 71
     0
 42
4.0
  3
simplex.shx
  4
bigfont.shx
  0
ENDTAB
  0
TABLE
  2
VIEW
 70
     0
  0
ENDTAB
  0
TABLE
  2
UCS
 70
     0
  0
ENDTAB
  0
TABLE
  2
APPID
 70
    20
  0
APPID
  2
ACAD
 70
     0
  0
APPID
  2
ACADANNOTATIVE
 70
     0
  0
APPID
  2
ACAD_PSEXT
 70
     0
  0
APPID
  2
ACAD_EXEMPT_FROM_CAD_STANDARDS
 70
     0
  0
APPID
  2
ACAECLAYERSTANDARD
 70
     0
  0
APPID
  2
ACAUTHENVIRON
 70
     0
  0
APPID
  2
ACDBDYNAMICBLOCKTRUENAME
 70
     0
  0
APPID
  2
ACDBDYNAMICBLOCKGUID
 70
     0
  0
APPID
  2
ACDBBLOCKREPETAG
 70
     0
  0
APPID
  2
ACDBBLOCKREPBTAG
 70
     0
  0
APPID
  2
ACAD_NAV_VCDISPLAY
 70
     0
  0
APPID
  2
ACAD_DSTYLE_DIMRADIAL_EXTENSION
 70
     0
  0
APPID
  2
ACAD_DSTYLE_DIMJAG
 70
     0
  0
APPID
  2
ACAD_DSTYLE_DIMTALN
 70
     0
  0
APPID
  2
ACADANNOPO
 70
     0
  0
APPID
  2
GRADIENTCOLOR1ACI
 70
     0
  0
APPID
  2
GRADIENTCOLOR2ACI
 70
     0
  0
APPID
  2
ACADANNOMONITORALERTICONDI
 70
     0
  0
APPID
  2
CONTENTBLOCKICON
 70
     0
  0
APPID
  2
ACAD_MLEADERVER
 70
     0
  0
ENDTAB
  0
TABLE
  2
DIMSTYLE
 70
     3
  0
DIMSTYLE
  2
STANDARD
 70
     0
  3

  4

  5

  6

  7

 40
1.0
 41
0.18
 42
0.0625
 43
0.38
 44
0.18
 45
0.0
 46
0.0
 47
0.0
 48
0.0
140
0.18
141
0.09
142
0.0
143
25.399999999999999
144
1.0
145
0.0
146
1.0
147
0.09
 71
     0
 72
     0
 73
     1
 74
     1
 75
     0
 76
     0
 77
     0
 78
     0
170
     0
171
     2
172
     0
173
     0
174
     0
175
     0
176
     0
177
     0
178
     0
  0
DIMSTYLE
  2
S10
 70
     0
  3

  4

  5

  6

  7

 40
10.0
 41
2.0
 42
1.0
 43
10.0
 44
1.0
 45
0.0
 46
0.0
 47
0.0
 48
0.0
140
3.2000000000000002
141
0.0
142
0.0
143
25.399999999999999
144
1.0
145
0.0
146
1.0
147
0.9
 71
     0
 72
     0
 73
     0
 74
     0
 75
     0
 76
     0
 77
     1
 78
     8
170
     0
171
     2
172
     1
173
     0
174
     0
175
     0
176
   256
177
   256
178
   256
  0
ENDTAB
  0
ENDSEC
  0
SECTION
  2
BLOCKS
  0
BLOCK
  8
0
  2
$MODEL_SPACE
 70
     0
 10
0.0
 20
0.0
 30
0.0
  3
$MODEL_SPACE
  1

  0
ENDBLK
  5
126A53
  8
0
  0
BLOCK
 67
     1
  8
0
  2
$PAPER_SPACE
 70
     0
 10
0.0
 20
0.0
 30
0.0
  3
$PAPER_SPACE
  1

  0
ENDBLK
  5
126A4F
 67
     1
  8
0
  0
BLOCK
  8
0
  2
_OPEN30
 70
     0
 10
0.0
 20
0.0
 30
0.0
  3
_OPEN30
  1

  0
LINE
  5
202
  8
0
  6
BYBLOCK
 62
     0
 10
-1.0
 20
0.26794919
 30
0.0
 11
0.0
 21
0.0
 31
0.0
  0
LINE
  5
203
  8
0
  6
BYBLOCK
 62
     0
 10
0.0
 20
0.0
 30
0.0
 11
-1.0
 21
-0.26794919
 31
0.0
  0
LINE
  5
204
  8
0
  6
BYBLOCK
 62
     0
 10
0.0
 20
0.0
 30
0.0
 11
-1.0
 21
0.0
 31
0.0
  0
ENDBLK
  5
206
  8
0
  0
BLOCK
  8
0
  2
*U3
 70
     1
 10
0.0
 20
0.0
 30
0.0
  3
*U3
  1

  0
TEXT
  5
1269BB
  8
SLIM
 10
158.9523809524228
 20
-130.00000000017181
 30
0.0
 40
26.0
  1
75
  0
ENDBLK
  5
1269BD
  8
0
  0
BLOCK
  8
0
  2
*U4
 70
     1
 10
0.0
 20
0.0
 30
0.0
  3
*U4
  1

  0
TEXT
  5
1269BF
  8
SLIM
 10
112.9999999999997
 20
-1481.047619047619
 30
0.0
 40
26.0
  1
75
 50
90.0
  0
ENDBLK
  5
1269C1
  8
0
  0
BLOCK
  8
0
  2
*U5
 70
     1
 10
0.0
 20
0.0
 30
0.0
  3
*U5
  1

  0
TEXT
  5
1269C3
  8
SLIM
 10
472.9999999999996
 20
-1017.047619047619
 30
0.0
 40
26.0
  1
65
 50
90.0
  0
ENDBLK
  5
1269C5
  8
0
  0
BLOCK
  8
0
  2
*U6
 70
     1
 10
0.0
 20
0.0
 30
0.0
  3
*U6
  1

  0
TEXT
  5
1269C7
  8
SLIM
 10
112.9999999999997
 20
-1017.047619047619
 30
0.0
 40
26.0
  1
50
 50
90.0
  0
ENDBLK
  5
1269C9
  8
0
  0
BLOCK
  8
0
  2
*U7
 70
     1
 10
0.0
 20
0.0
 30
0.0
  3
*U7
  1

  0
TEXT
  5
1269CB
  8
DIM
 10
4334.1164560757752
 20
-1378.7428571428561
 30
0.0
 40
32.0
  1
m（シンドカット）
 50
90.0
 41
0.75
  0
ENDBLK
  5
1269CD
  8
0
  0
BLOCK
  8
0
  2
*U8
 70
     1
 10
0.0
 20
0.0
 30
0.0
  3
*U8
  1

  0
TEXT
  5
1269CF
  8
DIM
 10
4700.4245816727562
 20
-924.00000000000125
 30
0.0
 40
32.0
  1
P
 50
90.0
 41
0.75
  0
ENDBLK
  5
1269D1
  8
0
  0
BLOCK
  8
0
  2
*U9
 70
     1
 10
0.0
 20
0.0
 30
0.0
  3
*U9
  1

  0
TEXT
  5
1269D3
  8
DIM
 10
2700.4245816727571
 20
-923.99999999999955
 30
0.0
 40
32.0
  1
P
 50
90.0
 41
0.75
  0
ENDBLK
  5
1269D5
  8
0
  0
BLOCK
  8
0
  2
*U10
 70
     1
 10
0.0
 20
0.0
 30
0.0
  3
*U10
  1

  0
TEXT
  5
1269D7
  8
DIM
 10
2709.479620594459
 20
-3469.1428571428528
 30
0.0
 40
32.0
  1
A
 50
90.0
 41
0.75
  0
ENDBLK
  5
1269D9
  8
0
  0
BLOCK
  8
0
  2
*U11
 70
     1
 10
0.0
 20
0.0
 30
0.0
  3
*U11
  1

  0
TEXT
  5
1269DB
  8
DIM
 10
2707.840928403733
 20
-3850.9999999999968
 30
0.0
 40
32.0
  1
B
 50
90.0
 41
0.75
  0
ENDBLK
  5
1269DD
  8
0
  0
BLOCK
  8
0
  2
*U12
 70
     1
 10
0.0
 20
0.0
 30
0.0
  3
*U12
  1

  0
TEXT
  5
1269DF
  8
DIM
 10
2561.4285714285711
 20
-3323.208121984444
 30
0.0
 40
32.0
  1
C
 41
0.75
  0
ENDBLK
  5
1269E1
  8
0
  0
ENDSEC
  0
SECTION
  2
ENTITIES
  0
LINE
  5
11273E
  8
OBJECT
 10
2325.0
 20
-3864.9999999999968
 30
0.0
 11
5075.0
 21
-3864.9999999999968
 31
0.0
  0
LINE
  5
11412B
  8
SLIM
 10
3256.0
 20
-2922.5000160472709
 30
0.0
 11
3256.0
 21
-3252.5000160472709
 31
0.0
  0
LINE
  5
11412C
  8
SLIM
 10
3380.0
 20
-2922.5000160472709
 30
0.0
 11
3380.0
 21
-3252.5000160472709
 31
0.0
  0
LINE
  5
11412D
  8
SLIM
 10
3510.0
 20
-2982.50001604727
 30
0.0
 11
3510.0
 21
-3252.5000160472709
 31
0.0
  0
LINE
  5
11412E
  8
SLIM
 10
3640.0
 20
-2982.50001604727
 30
0.0
 11
3640.0
 21
-3252.5000160472709
 31
0.0
  0
LINE
  5
11412F
  8
SLIM
 10
3770.0
 20
-3252.5000160472709
 30
0.0
 11
3770.0
 21
-2922.5000160472709
 31
0.0
  0
LINE
  5
114131
  8
SLIM
 10
3770.0
 20
-2922.5000160472709
 30
0.0
 11
3256.0
 21
-2922.5000160472709
 31
0.0
  0
LINE
  5
114132
  8
SLIM
 10
3769.9999999999991
 20
-2982.50001604727
 30
0.0
 11
3380.0
 21
-2982.50001604727
 31
0.0
  0
LINE
  5
114133
  8
SLIM
 10
3770.0
 20
-3042.5000160472709
 30
0.0
 11
3256.0
 21
-3042.5000160472709
 31
0.0
  0
LINE
  5
114134
  8
SLIM
 10
3770.0
 20
-3112.5000160472709
 30
0.0
 11
3256.0
 21
-3112.5000160472709
 31
0.0
  0
LINE
  5
114135
  8
SLIM
 10
3770.0
 20
-3182.5000160472709
 30
0.0
 11
3256.0
 21
-3182.5000160472709
 31
0.0
  0
LINE
  5
114136
  8
SLIM
 10
3770.0
 20
-3252.5000160472709
 30
0.0
 11
3256.0
 21
-3252.5000160472709
 31
0.0
  0
LINE
  5
11414B
  8
SLIM
 10
3380.0
 20
-3042.5000160472709
 30
0.0
 11
3255.9999722746579
 21
-2922.5000000000018
 31
0.0
  0
LINE
  5
12250A
  8
OBJECT
 10
2555.0
 20
-66.999999999999091
 30
0.0
 11
2555.0
 21
-59.999999999999091
 31
0.0
1001
ACDBBLOCKREPETAG
1070
     1
1071
       20
1005
12250A
  0
LINE
  5
12250B
  8
OBJECT
 10
2555.0
 20
-59.999999999999091
 30
0.0
 11
2445.0
 21
-59.999999999999091
 31
0.0
1001
ACDBBLOCKREPETAG
1070
     1
1071
       21
1005
12250B
  0
LINE
  5
12250C
  8
OBJECT
 10
2445.0
 20
-59.999999999999091
 30
0.0
 11
2445.0
 21
-66.999999999999091
 31
0.0
1001
ACDBBLOCKREPETAG
1070
     1
1071
       22
1005
12250C
  0
LINE
  5
12250D
  8
OBJECT
 10
2445.0
 20
-66.999999999999091
 30
0.0
 11
2555.0
 21
-66.999999999999091
 31
0.0
1001
ACDBBLOCKREPETAG
1070
     1
1071
       23
1005
12250D
  0
LINE
  5
12250E
  8
CENTER
 10
2500.0
 20
-44.999999999999091
 30
0.0
 11
2500.0
 21
-119.9999999999991
 31
0.0
1001
ACDBBLOCKREPETAG
1070
     1
1071
       24
1005
12250E
  0
LINE
  5
12250F
  8
OBJECT
 10
2552.0
 20
-66.999999999999091
 30
0.0
 11
2552.0
 21
-102.9999999999991
 31
0.0
1001
ACDBBLOCKREPETAG
1070
     1
1071
       25
1005
12250F
  0
LINE
  5
122510
  8
OBJECT
 10
2552.0
 20
-102.9999999999991
 30
0.0
 11
2448.0
 21
-102.9999999999991
 31
0.0
1001
ACDBBLOCKREPETAG
1070
     1
1071
       26
1005
122510
  0
LINE
  5
122511
  8
OBJECT
 10
2448.0
 20
-102.9999999999991
 30
0.0
 11
2448.0
 21
-66.999999999999091
 31
0.0
1001
ACDBBLOCKREPETAG
1070
     1
1071
       27
1005
122511
  0
LINE
  5
122512
  8
OBJECT
 10
2547.5
 20
-106.9999999999991
 30
0.0
 11
2547.5
 21
-115.4999999999991
 31
0.0
1001
ACDBBLOCKREPETAG
1070
     1
1071
       28
1005
122512
  0
LINE
  5
122513
  8
OBJECT
 10
2452.5000000000009
 20
-115.4999999999991
 30
0.0
 11
2452.5000000000009
 21
-106.9999999999991
 31
0.0
1001
ACDBBLOCKREPETAG
1070
     1
1071
       29
1005
122513
  0
LINE
  5
122514
  8
OBJECT
 10
2452.5000000000009
 20
-106.9999999999991
 30
0.0
 11
2547.5
 21
-106.9999999999991
 31
0.0
1001
ACDBBLOCKREPETAG
1070
     1
1071
       30
1005
122514
  0
LINE
  5
122515
  8
OBJECT
 10
2552.0
 20
-102.9999999999991
 30
0.0
 11
2547.5
 21
-106.9999999999991
 31
0.0
1001
ACDBBLOCKREPETAG
1070
     1
1071
       31
1005
122515
  0
LINE
  5
122516
  8
OBJECT
 10
2448.0
 20
-102.9999999999991
 30
0.0
 11
2452.5000000000009
 21
-106.9999999999991
 31
0.0
1001
ACDBBLOCKREPETAG
1070
     1
1071
       32
1005
122516
  0
LINE
  5
122517
  8
OBJECT
 10
2450.5
 20
-115.5000000000009
 30
0.0
 11
2549.5
 21
-115.4999999999991
 31
0.0
1001
ACDBBLOCKREPETAG
1070
     1
1071
       33
1005
122517
  0
LINE
  5
122518
  8
HIDDEN
 10
2538.0
 20
-111.9999999999991
 30
0.0
 11
2462.0
 21
-111.9999999999991
 31
0.0
1001
ACDBBLOCKREPETAG
1070
     1
1071
       34
1005
122518
  0
LINE
  5
122519
  8
OBJECT
 10
2549.5
 20
-115.4999999999991
 30
0.0
 11
2549.5
 21
-137.1529634747977
 31
0.0
1001
ACDBBLOCKREPETAG
1070
     1
1071
       35
1005
122519
  0
LINE
  5
12251A
  8
OBJECT
 10
2450.5
 20
-115.5000000000009
 30
0.0
 11
2450.5
 21
-137.1529634747977
 31
0.0
1001
ACDBBLOCKREPETAG
1070
     1
1071
       36
1005
12251A
  0
CIRCLE
  5
122542
  8
OBJECT
 10
2500.0
 20
-199.99999999999909
 30
0.0
 40
53.5
1001
ACDBBLOCKREPETAG
1070
     1
1071
      344
1005
122542
  0
POINT
  5
122543
  8
DOTS
 10
2500.0
 20
-199.99999999999909
 30
0.0
 50
270.0
1001
ACDBBLOCKREPETAG
1070
     1
1071
      362
1005
122543
  0
LINE
  5
122545
  8
CENTER
 10
2580.0
 20
-199.99999999999909
 30
0.0
 11
2405.0
 21
-199.99999999999909
 31
0.0
1001
ACDBBLOCKREPETAG
1070
     1
1071
       14
1005
122545
  0
LINE
  5
122546
  8
CENTER
 10
2500.0
 20
-294.99999999999898
 30
0.0
 11
2500.0
 21
-104.9999999999991
 31
0.0
1001
ACDBBLOCKREPETAG
1070
     1
1071
       15
1005
122546
  0
CIRCLE
  5
122547
  8
OBJECT
 10
2500.0
 20
-199.99999999999909
 30
0.0
 40
70.0
1001
ACDBBLOCKREPETAG
1070
     1
1071
       16
1005
122547
  0
CIRCLE
  5
122548
  8
OBJECT
 10
2500.0
 20
-199.99999999999909
 30
0.0
 40
77.0
1001
ACDBBLOCKREPETAG
1070
     1
1071
       17
1005
122548
  0
ARC
  5
122549
  8
OBJECT
 10
2500.0
 20
-199.99999999999909
 30
0.0
 40
80.0
 50
50.80503257401709
 51
309.19496742613529
1001
ACDBBLOCKREPETAG
1070
     1
1071
       18
1005
122549
  0
LINE
  5
12254A
  8
OBJECT
 10
2545.6618002273249
 20
-137.99999999999909
 30
0.0
 11
2580.0
 21
-137.99999999999909
 31
0.0
1001
ACDBBLOCKREPETAG
1070
     1
1071
       19
1005
12254A
  0
LINE
  5
12254B
  8
OBJECT
 10
2545.6618002273249
 20
-261.99999999999909
 30
0.0
 11
2580.0
 21
-261.99999999999909
 31
0.0
1001
ACDBBLOCKREPETAG
1070
     1
1071
       20
1005
12254B
  0
LINE
  5
1238B4
  8
CENTER
 10
2579.9999999999991
 20
-3459.9999999999968
 30
0.0
 11
2409.9999999999991
 21
-3459.9999999999968
 31
0.0
1001
ACDBBLOCKREPETAG
1070
     1
1071
       14
1005
122545
  0
LINE
  5
1238B5
  8
CENTER
 10
2500.0
 20
-3549.9999999999968
 30
0.0
 11
2500.0
 21
-3369.9999999999968
 31
0.0
1001
ACDBBLOCKREPETAG
1070
     1
1071
       15
1005
122546
  0
CIRCLE
  5
1238B6
  8
OBJECT
 10
2500.0
 20
-3459.9999999999968
 30
0.0
 40
70.0
1001
ACDBBLOCKREPETAG
1070
     1
1071
       16
1005
122547
  0
CIRCLE
  5
1238B7
  8
OBJECT
 10
2500.0
 20
-3459.9999999999968
 30
0.0
 40
75.0
1001
ACDBBLOCKREPETAG
1070
     1
1071
       17
1005
122548
  0
LINE
  5
123927
  8
CENTER
 10
2500.0
 20
-3644.9999999999991
 30
0.0
 11
2500.0
 21
-3891.9999999999991
 31
0.0
1001
ACDBBLOCKREPETAG
1070
     1
1071
       25
1005
123927
  0
LINE
  5
123928
  8
OBJECT
 10
2425.0
 20
-3659.9999999999968
 30
0.0
 11
2425.0
 21
-3879.9999999999991
 31
0.0
1001
ACDBBLOCKREPETAG
1070
     1
1071
       26
1005
123928
  0
LINE
  5
12392C
  8
OBJECT
 10
2575.0
 20
-3659.9999999999968
 30
0.0
 11
2575.0
 21
-3756.5000000000618
 31
0.0
1001
ACDBBLOCKREPETAG
1070
     1
1071
       34
1005
12392C
  0
LINE
  5
123A5C
  8
OBJECT
 10
2575.0
 20
-3862.4999999999991
 30
0.0
 11
2575.0
 21
-3879.9999999999991
 31
0.0
1001
ACDBBLOCKREPETAG
1070
     1
1071
       34
1005
12392C
  0
LINE
  5
123A5E
  8
CENTER
 10
2900.0
 20
-3644.9999999999991
 30
0.0
 11
2900.0
 21
-3891.9999999999991
 31
0.0
1001
ACDBBLOCKREPETAG
1070
     1
1071
       25
1005
123927
  0
LINE
  5
123A5F
  8
OBJECT
 10
2825.0
 20
-3659.9999999999968
 30
0.0
 11
2825.0
 21
-3879.9999999999991
 31
0.0
1001
ACDBBLOCKREPETAG
1070
     1
1071
       26
1005
123928
  0
LINE
  5
123A60
  8
OBJECT
 10
2975.0
 20
-3659.9999999999968
 30
0.0
 11
2975.0
 21
-3879.9999999999991
 31
0.0
1001
ACDBBLOCKREPETAG
1070
     1
1071
       34
1005
12392C
  0
LINE
  5
123AD2
  8
CENTER
 10
3579.9999999999991
 20
-3459.9999999999968
 30
0.0
 11
3410.0
 21
-3459.9999999999968
 31
0.0
1001
ACDBBLOCKREPETAG
1070
     1
1071
       14
1005
122545
  0
LINE
  5
123AD3
  8
CENTER
 10
3500.0
 20
-3549.9999999999968
 30
0.0
 11
3500.0
 21
-3369.9999999999968
 31
0.0
1001
ACDBBLOCKREPETAG
1070
     1
1071
       15
1005
122546
  0
CIRCLE
  5
123AD4
  8
OBJECT
 10
3500.0
 20
-3459.9999999999968
 30
0.0
 40
70.0
1001
ACDBBLOCKREPETAG
1070
     1
1071
       16
1005
122547
  0
CIRCLE
  5
123AD5
  8
OBJECT
 10
3500.0
 20
-3459.9999999999968
 30
0.0
 40
75.0
1001
ACDBBLOCKREPETAG
1070
     1
1071
       17
1005
122548
  0
LINE
  5
123ADD
  8
CENTER
 10
3500.0
 20
-3644.9999999999991
 30
0.0
 11
3500.0
 21
-3891.9999999999991
 31
0.0
1001
ACDBBLOCKREPETAG
1070
     1
1071
       25
1005
123927
  0
LINE
  5
123ADE
  8
OBJECT
 10
3424.9999999999991
 20
-3659.9999999999968
 30
0.0
 11
3424.9999999999991
 21
-3879.9999999999991
 31
0.0
1001
ACDBBLOCKREPETAG
1070
     1
1071
       26
1005
123928
  0
LINE
  5
123ADF
  8
OBJECT
 10
3574.9999999999991
 20
-3659.9999999999968
 30
0.0
 11
3574.9999999999991
 21
-3756.5000000000618
 31
0.0
1001
ACDBBLOCKREPETAG
1070
     1
1071
       34
1005
12392C
  0
LINE
  5
123AE0
  8
OBJECT
 10
3574.9999999999991
 20
-3862.4999999999991
 30
0.0
 11
3574.9999999999991
 21
-3879.9999999999991
 31
0.0
1001
ACDBBLOCKREPETAG
1070
     1
1071
       34
1005
12392C
  0
LINE
  5
123AE8
  8
CENTER
 10
3900.0
 20
-3644.9999999999991
 30
0.0
 11
3900.0
 21
-3891.9999999999991
 31
0.0
1001
ACDBBLOCKREPETAG
1070
     1
1071
       25
1005
123927
  0
LINE
  5
123AE9
  8
OBJECT
 10
3824.9999999999991
 20
-3659.9999999999968
 30
0.0
 11
3824.9999999999991
 21
-3879.9999999999991
 31
0.0
1001
ACDBBLOCKREPETAG
1070
     1
1071
       26
1005
123928
  0
LINE
  5
123AEA
  8
OBJECT
 10
3975.0
 20
-3659.9999999999968
 30
0.0
 11
3975.0
 21
-3879.9999999999991
 31
0.0
1001
ACDBBLOCKREPETAG
1070
     1
1071
       34
1005
12392C
  0
LINE
  5
123B38
  8
CENTER
 10
4579.9999999999991
 20
-3459.9999999999968
 30
0.0
 11
4409.9999999999991
 21
-3459.9999999999968
 31
0.0
1001
ACDBBLOCKREPETAG
1070
     1
1071
       14
1005
122545
  0
LINE
  5
123B39
  8
CENTER
 10
4499.9999999999991
 20
-3549.9999999999968
 30
0.0
 11
4499.9999999999991
 21
-3369.9999999999968
 31
0.0
1001
ACDBBLOCKREPETAG
1070
     1
1071
       15
1005
122546
  0
CIRCLE
  5
123B3A
  8
OBJECT
 10
4499.9999999999991
 20
-3459.9999999999968
 30
0.0
 40
70.0
1001
ACDBBLOCKREPETAG
1070
     1
1071
       16
1005
122547
  0
CIRCLE
  5
123B3B
  8
OBJECT
 10
4499.9999999999991
 20
-3459.9999999999968
 30
0.0
 40
75.0
1001
ACDBBLOCKREPETAG
1070
     1
1071
       17
1005
122548
  0
LINE
  5
123B43
  8
CENTER
 10
4500.0
 20
-3644.9999999999991
 30
0.0
 11
4500.0
 21
-3891.9999999999991
 31
0.0
1001
ACDBBLOCKREPETAG
1070
     1
1071
       25
1005
123927
  0
LINE
  5
123B44
  8
OBJECT
 10
4425.0
 20
-3659.9999999999968
 30
0.0
 11
4425.0
 21
-3879.9999999999991
 31
0.0
1001
ACDBBLOCKREPETAG
1070
     1
1071
       26
1005
123928
  0
LINE
  5
123B45
  8
OBJECT
 10
4575.0
 20
-3659.9999999999968
 30
0.0
 11
4575.0
 21
-3756.5000000000618
 31
0.0
1001
ACDBBLOCKREPETAG
1070
     1
1071
       34
1005
12392C
  0
LINE
  5
123B46
  8
OBJECT
 10
4575.0
 20
-3862.4999999999991
 30
0.0
 11
4575.0
 21
-3879.9999999999991
 31
0.0
1001
ACDBBLOCKREPETAG
1070
     1
1071
       34
1005
12392C
  0
LINE
  5
123B4E
  8
CENTER
 10
4900.0
 20
-3644.9999999999991
 30
0.0
 11
4900.0
 21
-3891.9999999999991
 31
0.0
1001
ACDBBLOCKREPETAG
1070
     1
1071
       25
1005
123927
  0
LINE
  5
123B4F
  8
OBJECT
 10
4825.0
 20
-3659.9999999999968
 30
0.0
 11
4825.0
 21
-3879.9999999999991
 31
0.0
1001
ACDBBLOCKREPETAG
1070
     1
1071
       26
1005
123928
  0
LINE
  5
123B50
  8
OBJECT
 10
4975.0
 20
-3659.9999999999968
 30
0.0
 11
4974.9999999999991
 21
-3879.9999999999991
 31
0.0
1001
ACDBBLOCKREPETAG
1070
     1
1071
       34
1005
12392C
  0
POINT
  5
124C02
  8
DOTS
 10
2500.0
 20
-3459.9999999999968
 30
0.0
  0
POINT
  5
124C03
  8
DOTS
 10
2500.0
 20
-3864.9999999999968
 30
0.0
  0
POINT
  5
124C05
  8
DOTS
 10
3500.0
 20
-3864.9999999999968
 30
0.0
  0
POINT
  5
124C07
  8
DOTS
 10
3500.0
 20
-3459.9999999999968
 30
0.0
  0
POINT
  5
124C08
  8
DOTS
 10
4499.9999999999991
 20
-3459.9999999999968
 30
0.0
  0
POINT
  5
124C09
  8
DOTS
 10
4499.9999999999991
 20
-3864.9999999999968
 30
0.0
  0
LINE
  5
124F81
  8
OBJECT
 10
4555.0
 20
-66.999999999999091
 30
0.0
 11
4555.0
 21
-59.999999999999091
 31
0.0
1001
ACDBBLOCKREPETAG
1070
     1
1071
       20
1005
12250A
  0
LINE
  5
124F82
  8
OBJECT
 10
4555.0
 20
-59.999999999999091
 30
0.0
 11
4445.0
 21
-59.999999999999091
 31
0.0
1001
ACDBBLOCKREPETAG
1070
     1
1071
       21
1005
12250B
  0
LINE
  5
124F83
  8
OBJECT
 10
4445.0
 20
-59.999999999999091
 30
0.0
 11
4445.0
 21
-66.999999999999091
 31
0.0
1001
ACDBBLOCKREPETAG
1070
     1
1071
       22
1005
12250C
  0
LINE
  5
124F84
  8
OBJECT
 10
4445.0
 20
-66.999999999999091
 30
0.0
 11
4555.0
 21
-66.999999999999091
 31
0.0
1001
ACDBBLOCKREPETAG
1070
     1
1071
       23
1005
12250D
  0
LINE
  5
124F85
  8
CENTER
 10
4500.0
 20
-44.999999999999091
 30
0.0
 11
4500.0
 21
-119.9999999999991
 31
0.0
1001
ACDBBLOCKREPETAG
1070
     1
1071
       24
1005
12250E
  0
LINE
  5
124F86
  8
OBJECT
 10
4552.0
 20
-66.999999999999091
 30
0.0
 11
4552.0
 21
-102.9999999999991
 31
0.0
1001
ACDBBLOCKREPETAG
1070
     1
1071
       25
1005
12250F
  0
LINE
  5
124F87
  8
OBJECT
 10
4552.0
 20
-102.9999999999991
 30
0.0
 11
4448.0
 21
-102.9999999999991
 31
0.0
1001
ACDBBLOCKREPETAG
1070
     1
1071
       26
1005
122510
  0
LINE
  5
124F88
  8
OBJECT
 10
4448.0
 20
-102.9999999999991
 30
0.0
 11
4448.0
 21
-66.999999999999091
 31
0.0
1001
ACDBBLOCKREPETAG
1070
     1
1071
       27
1005
122511
  0
LINE
  5
124F89
  8
OBJECT
 10
4547.5
 20
-106.9999999999991
 30
0.0
 11
4547.5
 21
-115.4999999999991
 31
0.0
1001
ACDBBLOCKREPETAG
1070
     1
1071
       28
1005
122512
  0
LINE
  5
124F8A
  8
OBJECT
 10
4452.4999999999991
 20
-115.4999999999991
 30
0.0
 11
4452.4999999999991
 21
-106.9999999999991
 31
0.0
1001
ACDBBLOCKREPETAG
1070
     1
1071
       29
1005
122513
  0
LINE
  5
124F8B
  8
OBJECT
 10
4452.4999999999991
 20
-106.9999999999991
 30
0.0
 11
4547.5
 21
-106.9999999999991
 31
0.0
1001
ACDBBLOCKREPETAG
1070
     1
1071
       30
1005
122514
  0
LINE
  5
124F8C
  8
OBJECT
 10
4552.0
 20
-102.9999999999991
 30
0.0
 11
4547.5
 21
-106.9999999999991
 31
0.0
1001
ACDBBLOCKREPETAG
1070
     1
1071
       31
1005
122515
  0
LINE
  5
124F8D
  8
OBJECT
 10
4448.0
 20
-102.9999999999991
 30
0.0
 11
4452.4999999999991
 21
-106.9999999999991
 31
0.0
1001
ACDBBLOCKREPETAG
1070
     1
1071
       32
1005
122516
  0
LINE
  5
124F8E
  8
OBJECT
 10
4450.5
 20
-115.5000000000009
 30
0.0
 11
4549.5
 21
-115.4999999999991
 31
0.0
1001
ACDBBLOCKREPETAG
1070
     1
1071
       33
1005
122517
  0
LINE
  5
124F8F
  8
HIDDEN
 10
4538.0
 20
-111.9999999999991
 30
0.0
 11
4462.0
 21
-111.9999999999991
 31
0.0
1001
ACDBBLOCKREPETAG
1070
     1
1071
       34
1005
122518
  0
LINE
  5
124F90
  8
OBJECT
 10
4549.5
 20
-115.4999999999991
 30
0.0
 11
4549.5
 21
-137.1529634747977
 31
0.0
1001
ACDBBLOCKREPETAG
1070
     1
1071
       35
1005
122519
  0
LINE
  5
124F91
  8
OBJECT
 10
4450.5
 20
-115.5000000000009
 30
0.0
 11
4450.5
 21
-137.1529634747977
 31
0.0
1001
ACDBBLOCKREPETAG
1070
     1
1071
       36
1005
12251A
  0
CIRCLE
  5
124F99
  8
OBJECT
 10
4500.0
 20
-199.99999999999909
 30
0.0
 40
53.5
1001
ACDBBLOCKREPETAG
1070
     1
1071
      344
1005
122542
  0
POINT
  5
124F9A
  8
DOTS
 10
4500.0
 20
-199.99999999999909
 30
0.0
 50
270.0
1001
ACDBBLOCKREPETAG
1070
     1
1071
      362
1005
122543
  0
LINE
  5
124F9C
  8
CENTER
 10
4580.0
 20
-199.99999999999909
 30
0.0
 11
4400.0
 21
-199.99999999999909
 31
0.0
1001
ACDBBLOCKREPETAG
1070
     1
1071
       14
1005
122545
  0
LINE
  5
124F9D
  8
CENTER
 10
4500.0
 20
-299.99999999999898
 30
0.0
 11
4500.0
 21
-104.9999999999991
 31
0.0
1001
ACDBBLOCKREPETAG
1070
     1
1071
       15
1005
122546
  0
CIRCLE
  5
124F9E
  8
OBJECT
 10
4500.0
 20
-199.99999999999909
 30
0.0
 40
70.0
1001
ACDBBLOCKREPETAG
1070
     1
1071
       16
1005
122547
  0
CIRCLE
  5
124F9F
  8
OBJECT
 10
4500.0
 20
-199.99999999999909
 30
0.0
 40
77.0
1001
ACDBBLOCKREPETAG
1070
     1
1071
       17
1005
122548
  0
ARC
  5
124FA0
  8
OBJECT
 10
4500.0
 20
-199.99999999999909
 30
0.0
 40
80.0
 50
50.805032574025482
 51
309.19496742610818
1001
ACDBBLOCKREPETAG
1070
     1
1071
       18
1005
122549
  0
LINE
  5
124FA1
  8
OBJECT
 10
4545.6618002273244
 20
-137.99999999999909
 30
0.0
 11
4580.0
 21
-137.99999999999909
 31
0.0
1001
ACDBBLOCKREPETAG
1070
     1
1071
       19
1005
12254A
  0
LINE
  5
124FA2
  8
OBJECT
 10
4545.6618002273244
 20
-261.99999999999909
 30
0.0
 11
4580.0
 21
-261.99999999999909
 31
0.0
1001
ACDBBLOCKREPETAG
1070
     1
1071
       20
1005
12254B
  0
ARC
  5
124FA4
  8
OBJECT
 10
4500.0
 20
-199.99999999999909
 30
0.0
 40
85.0
 50
125.6162067285034
 51
313.1628971402971
1001
ACDBBLOCKREPETAG
1070
     1
1071
       18
1005
122549
  0
ARC
  5
124FA5
  8
OBJECT
 10
4500.0
 20
-199.99999999999909
 30
0.0
 40
85.0
 50
46.837102859702817
 51
54.383793271496543
1001
ACDBBLOCKREPETAG
1070
     1
1071
       18
1005
122549
  0
LINE
  5
125B42
  8
SLIM
 10
5454.0
 20
-764.99999999999591
 30
0.0
 11
5454.0
 21
-1484.9999999999959
 31
0.0
  0
LINE
  5
125B43
  8
SLIM
 10
5602.0
 20
-764.99999999999591
 30
0.0
 11
5602.0
 21
-1484.9999999999959
 31
0.0
  0
LINE
  5
125B44
  8
SLIM
 10
5350.0
 20
-1484.9999999999959
 30
0.0
 11
5350.0
 21
-764.99999999999591
 31
0.0
  0
LINE
  5
125B45
  8
SLIM
 10
5602.0
 20
-764.99999999999591
 30
0.0
 11
5350.0
 21
-764.99999999999591
 31
0.0
  0
LINE
  5
125B46
  8
SLIM
 10
5602.0
 20
-812.99999999999591
 30
0.0
 11
5350.0
 21
-812.99999999999591
 31
0.0
  0
LINE
  5
125B4A
  8
SLIM
 10
5602.0
 20
-860.99999999999625
 30
0.0
 11
5350.0
 21
-860.99999999999625
 31
0.0
  0
LINE
  5
125B4B
  8
SLIM
 10
5602.0
 20
-908.99999999999636
 30
0.0
 11
5350.0
 21
-908.99999999999636
 31
0.0
  0
LINE
  5
125B4C
  8
SLIM
 10
5602.0
 20
-956.99999999999613
 30
0.0
 11
5350.0
 21
-956.99999999999613
 31
0.0
  0
LINE
  5
125B52
  8
SLIM
 10
5602.0
 20
-1004.999999999996
 30
0.0
 11
5350.0
 21
-1004.999999999996
 31
0.0
  0
LINE
  5
125B55
  8
SLIM
 10
5602.0
 20
-1052.9999999999959
 30
0.0
 11
5350.0
 21
-1052.9999999999959
 31
0.0
  0
LINE
  5
125B58
  8
SLIM
 10
5602.0
 20
-1100.9999999999959
 30
0.0
 11
5350.0
 21
-1100.9999999999959
 31
0.0
  0
LINE
  5
125B5B
  8
SLIM
 10
5602.0
 20
-1148.9999999999959
 30
0.0
 11
5350.0
 21
-1148.9999999999959
 31
0.0
  0
LINE
  5
125B5E
  8
SLIM
 10
5602.0
 20
-1196.9999999999959
 30
0.0
 11
5350.0
 21
-1196.9999999999959
 31
0.0
  0
LINE
  5
125B60
  8
SLIM
 10
5602.0
 20
-1244.9999999999959
 30
0.0
 11
5350.0
 21
-1244.9999999999959
 31
0.0
  0
LINE
  5
125B62
  8
SLIM
 10
5602.0
 20
-1292.9999999999959
 30
0.0
 11
5350.0
 21
-1292.9999999999959
 31
0.0
  0
LINE
  5
125B64
  8
SLIM
 10
5602.0
 20
-1340.9999999999959
 30
0.0
 11
5350.0
 21
-1340.9999999999959
 31
0.0
  0
LINE
  5
125B66
  8
SLIM
 10
5602.0
 20
-1388.9999999999959
 30
0.0
 11
5350.0
 21
-1388.9999999999959
 31
0.0
  0
LINE
  5
125B68
  8
SLIM
 10
5602.0
 20
-1436.9999999999959
 30
0.0
 11
5350.0
 21
-1436.9999999999959
 31
0.0
  0
LINE
  5
125B6A
  8
SLIM
 10
5602.0
 20
-1484.9999999999959
 30
0.0
 11
5350.0
 21
-1484.9999999999959
 31
0.0
  0
LINE
  5
126653
  8
OBJECT
 10
4923.0
 20
-571.0
 30
0.0
 11
4923.0
 21
-550.0
 31
0.0
1001
ACDBBLOCKREPETAG
1070
     1
1071
       22
1005
126653
  0
LINE
  5
126654
  8
OBJECT
 10
4923.0
 20
-550.0
 30
0.0
 11
5077.0
 21
-550.0
 31
0.0
1001
ACDBBLOCKREPETAG
1070
     1
1071
       23
1005
126654
  0
LINE
  5
126655
  8
HIDDEN
 10
4943.0
 20
-620.0
 30
0.0
 11
5057.0
 21
-620.0
 31
0.0
1001
ACDBBLOCKREPETAG
1070
     1
1071
       24
1005
126655
  0
LINE
  5
126656
  8
OBJECT
 10
5077.0
 20
-550.0
 30
0.0
 11
5077.0
 21
-571.0
 31
0.0
1001
ACDBBLOCKREPETAG
1070
     1
1071
       25
1005
126656
  0
LINE
  5
126657
  8
OBJECT
 10
5077.0
 20
-571.0
 30
0.0
 11
4923.0
 21
-571.0
 31
0.0
1001
ACDBBLOCKREPETAG
1070
     1
1071
       26
1005
126657
  0
LINE
  5
126658
  8
CENTER
 10
5000.0
 20
-535.0
 30
0.0
 11
5000.0
 21
-890.0
 31
0.0
1001
ACDBBLOCKREPETAG
1070
     1
1071
       27
1005
126658
  0
LINE
  5
126659
  8
OBJECT
 10
4925.0
 20
-634.0
 30
0.0
 11
4925.0
 21
-878.0
 31
0.0
1001
ACDBBLOCKREPETAG
1070
     1
1071
       28
1005
126659
  0
LINE
  5
12665A
  8
OBJECT
 10
4928.0
 20
-571.0
 30
0.0
 11
4928.0
 21
-634.0
 31
0.0
1001
ACDBBLOCKREPETAG
1070
     1
1071
       29
1005
12665A
  0
LINE
  5
12665B
  8
OBJECT
 10
5072.0
 20
-634.0
 30
0.0
 11
5072.0
 21
-571.0
 31
0.0
1001
ACDBBLOCKREPETAG
1070
     1
1071
       30
1005
12665B
  0
LINE
  5
12665C
  8
OBJECT
 10
4920.0
 20
-878.0
 30
0.0
 11
5080.0
 21
-878.0
 31
0.0
1001
ACDBBLOCKREPETAG
1070
     1
1071
       31
1005
12665C
  0
LINE
  5
12665D
  8
OBJECT
 10
5074.9999999997199
 20
-634.0
 30
0.0
 11
4925.0
 21
-634.0
 31
0.0
1001
ACDBBLOCKREPETAG
1070
     1
1071
       32
1005
12665D
  0
LINE
  5
12665E
  8
OBJECT
 10
4920.0
 20
-878.0
 30
0.0
 11
4920.0
 21
-890.0
 31
0.0
1001
ACDBBLOCKREPETAG
1070
     1
1071
       33
1005
12665E
  0
LINE
  5
12665F
  8
OBJECT
 10
4920.0
 20
-890.0
 30
0.0
 11
5080.0
 21
-890.0
 31
0.0
1001
ACDBBLOCKREPETAG
1070
     1
1071
       34
1005
12665F
  0
LINE
  5
126660
  8
OBJECT
 10
5080.0
 20
-890.0
 30
0.0
 11
5080.0
 21
-878.0
 31
0.0
1001
ACDBBLOCKREPETAG
1070
     1
1071
       35
1005
126660
  0
LINE
  5
126661
  8
OBJECT
 10
5074.9999999997199
 20
-634.0
 30
0.0
 11
5075.0
 21
-878.0
 31
0.0
1001
ACDBBLOCKREPETAG
1070
     1
1071
       37
1005
126661
  0
LINE
  5
126662
  8
OBJECT
 10
4423.0
 20
-571.0
 30
0.0
 11
4423.0
 21
-550.0
 31
0.0
1001
ACDBBLOCKREPETAG
1070
     1
1071
        0
1005
126662
  0
LINE
  5
126663
  8
OBJECT
 10
4423.0
 20
-550.0
 30
0.0
 11
4577.0
 21
-550.0
 31
0.0
1001
ACDBBLOCKREPETAG
1070
     1
1071
        1
1005
126663
  0
LINE
  5
126664
  8
HIDDEN
 10
4443.0
 20
-620.0
 30
0.0
 11
4557.0
 21
-620.0
 31
0.0
1001
ACDBBLOCKREPETAG
1070
     1
1071
        2
1005
126664
  0
LINE
  5
126665
  8
OBJECT
 10
4577.0
 20
-550.0
 30
0.0
 11
4577.0
 21
-571.0
 31
0.0
1001
ACDBBLOCKREPETAG
1070
     1
1071
        3
1005
126665
  0
LINE
  5
126666
  8
OBJECT
 10
4577.0
 20
-571.0
 30
0.0
 11
4423.0
 21
-571.0
 31
0.0
1001
ACDBBLOCKREPETAG
1070
     1
1071
        4
1005
126666
  0
LINE
  5
126667
  8
CENTER
 10
4500.0
 20
-535.0
 30
0.0
 11
4500.0
 21
-890.0
 31
0.0
1001
ACDBBLOCKREPETAG
1070
     1
1071
        5
1005
126667
  0
LINE
  5
126668
  8
OBJECT
 10
4425.0
 20
-634.0
 30
0.0
 11
4425.0
 21
-878.0
 31
0.0
1001
ACDBBLOCKREPETAG
1070
     1
1071
        6
1005
126668
  0
LINE
  5
126669
  8
OBJECT
 10
4428.0
 20
-571.0
 30
0.0
 11
4428.0
 21
-634.0
 31
0.0
1001
ACDBBLOCKREPETAG
1070
     1
1071
        7
1005
126669
  0
LINE
  5
12666A
  8
OBJECT
 10
4572.0
 20
-634.0
 30
0.0
 11
4572.0
 21
-571.0
 31
0.0
1001
ACDBBLOCKREPETAG
1070
     1
1071
        8
1005
12666A
  0
LINE
  5
12666B
  8
OBJECT
 10
4420.0
 20
-878.0
 30
0.0
 11
4580.0
 21
-878.0
 31
0.0
1001
ACDBBLOCKREPETAG
1070
     1
1071
        9
1005
12666B
  0
LINE
  5
12666C
  8
OBJECT
 10
4580.0
 20
-634.0
 30
0.0
 11
4425.0
 21
-634.0
 31
0.0
1001
ACDBBLOCKREPETAG
1070
     1
1071
       10
1005
12666C
  0
LINE
  5
12666D
  8
OBJECT
 10
4420.0
 20
-878.0
 30
0.0
 11
4420.0
 21
-890.0
 31
0.0
1001
ACDBBLOCKREPETAG
1070
     1
1071
       11
1005
12666D
  0
LINE
  5
12666E
  8
OBJECT
 10
4420.0
 20
-890.0
 30
0.0
 11
4580.0
 21
-890.0
 31
0.0
1001
ACDBBLOCKREPETAG
1070
     1
1071
       12
1005
12666E
  0
LINE
  5
12666F
  8
OBJECT
 10
4580.0
 20
-890.0
 30
0.0
 11
4580.0
 21
-878.0
 31
0.0
1001
ACDBBLOCKREPETAG
1070
     1
1071
       13
1005
12666F
  0
LINE
  5
126670
  8
OBJECT
 10
4574.9999999998618
 20
-757.99999999985096
 30
0.0
 11
4575.0
 21
-878.0
 31
0.0
1001
ACDBBLOCKREPETAG
1070
     1
1071
       15
1005
126670
  0
LINE
  5
126671
  8
OBJECT
 10
4574.9999908029849
 20
-757.99998602702181
 30
0.0
 11
4580.0
 21
-757.99998602702181
 31
0.0
1001
ACDBBLOCKREPETAG
1070
     1
1071
       16
1005
126671
  0
ARC
  5
126672
  8
OBJECT
 10
4700.6872746716726
 20
-749.40809941010752
 30
0.0
 40
170.6350503965856
 50
137.44134459184301
 51
149.91949581337221
1001
ACDBBLOCKREPETAG
1070
     1
1071
       17
1005
126672
  0
ARC
  5
126673
  8
OBJECT
 10
4618.8455987040506
 20
-705.88272669536479
 30
0.0
 40
78.072222021763665
 50
147.4551531038623
 51
164.66365997718671
1001
ACDBBLOCKREPETAG
1070
     1
1071
       18
1005
126673
  0
ARC
  5
126674
  8
OBJECT
 10
4585.7554349608718
 20
-696.0
 30
0.0
 40
43.55353926885617
 50
165.688452300753
 51
194.3115476992468
1001
ACDBBLOCKREPETAG
1070
     1
1071
       19
1005
126674
  0
ARC
  5
126675
  8
OBJECT
 10
4700.6872746716726
 20
-642.59190058989225
 30
0.0
 40
170.6350503965856
 50
210.08050418662771
 51
222.55865540815699
1001
ACDBBLOCKREPETAG
1070
     1
1071
       20
1005
126675
  0
ARC
  5
126676
  8
OBJECT
 10
4618.8455987040506
 20
-686.11727330463521
 30
0.0
 40
78.072222021763665
 50
195.3363400228132
 51
212.5448468961377
1001
ACDBBLOCKREPETAG
1070
     1
1071
       21
1005
126676
  0
LINE
  5
126677
  8
OBJECT
 10
2923.0
 20
-571.0
 30
0.0
 11
2923.0
 21
-550.0
 31
0.0
1001
ACDBBLOCKREPETAG
1070
     1
1071
       22
1005
126677
  0
LINE
  5
126678
  8
OBJECT
 10
2923.0
 20
-550.0
 30
0.0
 11
3077.0
 21
-550.0
 31
0.0
1001
ACDBBLOCKREPETAG
1070
     1
1071
       23
1005
126678
  0
LINE
  5
126679
  8
HIDDEN
 10
2943.0
 20
-620.0
 30
0.0
 11
3057.0
 21
-620.0
 31
0.0
1001
ACDBBLOCKREPETAG
1070
     1
1071
       24
1005
126679
  0
LINE
  5
12667A
  8
OBJECT
 10
3077.0
 20
-550.0
 30
0.0
 11
3077.0
 21
-571.0
 31
0.0
1001
ACDBBLOCKREPETAG
1070
     1
1071
       25
1005
12667A
  0
LINE
  5
12667B
  8
OBJECT
 10
3077.0
 20
-571.0
 30
0.0
 11
2923.0
 21
-571.0
 31
0.0
1001
ACDBBLOCKREPETAG
1070
     1
1071
       26
1005
12667B
  0
LINE
  5
12667C
  8
CENTER
 10
3000.0
 20
-535.0
 30
0.0
 11
3000.0
 21
-890.0
 31
0.0
1001
ACDBBLOCKREPETAG
1070
     1
1071
       27
1005
12667C
  0
LINE
  5
12667D
  8
OBJECT
 10
2925.0
 20
-634.0
 30
0.0
 11
2925.0
 21
-878.0
 31
0.0
1001
ACDBBLOCKREPETAG
1070
     1
1071
       28
1005
12667D
  0
LINE
  5
12667E
  8
OBJECT
 10
2928.0
 20
-571.0
 30
0.0
 11
2928.0
 21
-634.0
 31
0.0
1001
ACDBBLOCKREPETAG
1070
     1
1071
       29
1005
12667E
  0
LINE
  5
12667F
  8
OBJECT
 10
3072.0
 20
-634.0
 30
0.0
 11
3072.0
 21
-571.0
 31
0.0
1001
ACDBBLOCKREPETAG
1070
     1
1071
       30
1005
12667F
  0
LINE
  5
126680
  8
OBJECT
 10
2920.0
 20
-878.0
 30
0.0
 11
3080.0
 21
-878.0
 31
0.0
1001
ACDBBLOCKREPETAG
1070
     1
1071
       31
1005
126680
  0
LINE
  5
126681
  8
OBJECT
 10
3074.9999999997199
 20
-634.0
 30
0.0
 11
2925.0
 21
-634.0
 31
0.0
1001
ACDBBLOCKREPETAG
1070
     1
1071
       32
1005
126681
  0
LINE
  5
126682
  8
OBJECT
 10
2920.0
 20
-878.0
 30
0.0
 11
2920.0
 21
-890.0
 31
0.0
1001
ACDBBLOCKREPETAG
1070
     1
1071
       33
1005
126682
  0
LINE
  5
126683
  8
OBJECT
 10
2920.0
 20
-890.0
 30
0.0
 11
3080.0
 21
-890.0
 31
0.0
1001
ACDBBLOCKREPETAG
1070
     1
1071
       34
1005
126683
  0
LINE
  5
126684
  8
OBJECT
 10
3080.0
 20
-890.0
 30
0.0
 11
3080.0
 21
-878.0
 31
0.0
1001
ACDBBLOCKREPETAG
1070
     1
1071
       35
1005
126684
  0
LINE
  5
126685
  8
OBJECT
 10
3074.9999999997199
 20
-634.0
 30
0.0
 11
3075.0
 21
-878.0
 31
0.0
1001
ACDBBLOCKREPETAG
1070
     1
1071
       37
1005
126685
  0
LINE
  5
126686
  8
OBJECT
 10
2423.0
 20
-571.0
 30
0.0
 11
2423.0
 21
-550.0
 31
0.0
1001
ACDBBLOCKREPETAG
1070
     1
1071
        0
1005
126686
  0
LINE
  5
126687
  8
OBJECT
 10
2423.0
 20
-550.0
 30
0.0
 11
2577.0
 21
-550.0
 31
0.0
1001
ACDBBLOCKREPETAG
1070
     1
1071
        1
1005
126687
  0
LINE
  5
126688
  8
HIDDEN
 10
2443.0
 20
-620.0
 30
0.0
 11
2557.0
 21
-620.0
 31
0.0
1001
ACDBBLOCKREPETAG
1070
     1
1071
        2
1005
126688
  0
LINE
  5
126689
  8
OBJECT
 10
2577.0
 20
-550.0
 30
0.0
 11
2577.0
 21
-571.0
 31
0.0
1001
ACDBBLOCKREPETAG
1070
     1
1071
        3
1005
126689
  0
LINE
  5
12668A
  8
OBJECT
 10
2577.0
 20
-571.0
 30
0.0
 11
2423.0
 21
-571.0
 31
0.0
1001
ACDBBLOCKREPETAG
1070
     1
1071
        4
1005
12668A
  0
LINE
  5
12668B
  8
CENTER
 10
2500.0
 20
-535.0
 30
0.0
 11
2500.0
 21
-890.0
 31
0.0
1001
ACDBBLOCKREPETAG
1070
     1
1071
        5
1005
12668B
  0
LINE
  5
12668C
  8
OBJECT
 10
2425.0
 20
-634.0
 30
0.0
 11
2425.0
 21
-878.0
 31
0.0
1001
ACDBBLOCKREPETAG
1070
     1
1071
        6
1005
12668C
  0
LINE
  5
12668D
  8
OBJECT
 10
2428.0
 20
-571.0
 30
0.0
 11
2428.0
 21
-634.0
 31
0.0
1001
ACDBBLOCKREPETAG
1070
     1
1071
        7
1005
12668D
  0
LINE
  5
12668E
  8
OBJECT
 10
2572.0
 20
-634.0
 30
0.0
 11
2572.0
 21
-571.0
 31
0.0
1001
ACDBBLOCKREPETAG
1070
     1
1071
        8
1005
12668E
  0
LINE
  5
12668F
  8
OBJECT
 10
2420.0
 20
-878.0
 30
0.0
 11
2580.0
 21
-878.0
 31
0.0
1001
ACDBBLOCKREPETAG
1070
     1
1071
        9
1005
12668F
  0
LINE
  5
126690
  8
OBJECT
 10
2580.0
 20
-634.0
 30
0.0
 11
2425.0
 21
-634.0
 31
0.0
1001
ACDBBLOCKREPETAG
1070
     1
1071
       10
1005
126690
  0
LINE
  5
126691
  8
OBJECT
 10
2420.0
 20
-878.0
 30
0.0
 11
2420.0
 21
-890.0
 31
0.0
1001
ACDBBLOCKREPETAG
1070
     1
1071
       11
1005
126691
  0
LINE
  5
126692
  8
OBJECT
 10
2420.0
 20
-890.0
 30
0.0
 11
2580.0
 21
-890.0
 31
0.0
1001
ACDBBLOCKREPETAG
1070
     1
1071
       12
1005
126692
  0
LINE
  5
126693
  8
OBJECT
 10
2580.0
 20
-890.0
 30
0.0
 11
2580.0
 21
-878.0
 31
0.0
1001
ACDBBLOCKREPETAG
1070
     1
1071
       13
1005
126693
  0
LINE
  5
126694
  8
OBJECT
 10
2574.9999999998622
 20
-757.99999999985096
 30
0.0
 11
2575.0
 21
-878.0
 31
0.0
1001
ACDBBLOCKREPETAG
1070
     1
1071
       15
1005
126694
  0
LINE
  5
126695
  8
OBJECT
 10
2574.9999908029849
 20
-757.99998602702181
 30
0.0
 11
2580.0
 21
-757.99998602702181
 31
0.0
1001
ACDBBLOCKREPETAG
1070
     1
1071
       16
1005
126695
  0
ARC
  5
126696
  8
OBJECT
 10
2700.6872746716731
 20
-749.40809941010752
 30
0.0
 40
170.6350503965856
 50
137.44134459184301
 51
149.91949581337221
1001
ACDBBLOCKREPETAG
1070
     1
1071
       17
1005
126696
  0
ARC
  5
126697
  8
OBJECT
 10
2618.8455987040511
 20
-705.88272669536479
 30
0.0
 40
78.072222021763665
 50
147.4551531038623
 51
164.6636599771798
1001
ACDBBLOCKREPETAG
1070
     1
1071
       18
1005
126697
  0
ARC
  5
126698
  8
OBJECT
 10
2585.7554349608731
 20
-696.0
 30
0.0
 40
43.55353926885617
 50
165.6884523007466
 51
194.3115476992534
1001
ACDBBLOCKREPETAG
1070
     1
1071
       19
1005
126698
  0
ARC
  5
126699
  8
OBJECT
 10
2700.6872746716731
 20
-642.59190058989225
 30
0.0
 40
170.6350503965856
 50
210.08050418662771
 51
222.55865540815699
1001
ACDBBLOCKREPETAG
1070
     1
1071
       20
1005
126699
  0
ARC
  5
12669A
  8
OBJECT
 10
2618.8455987040511
 20
-686.11727330463521
 30
0.0
 40
78.072222021763665
 50
195.3363400228202
 51
212.5448468961377
1001
ACDBBLOCKREPETAG
1070
     1
1071
       21
1005
12669A
  0
TEXT
  5
12669B
  8
SLIM
 10
2032.5
 20
-1828.999999999998
 30
0.0
 40
28.0
  1
※ 対応P寸法　　310＜320＞～460（10mm単位。＜＞内は下枝75の場合）
 41
0.75
  0
TEXT
  5
12669C
  8
SLIM
 10
4026.5999999999999
 20
-1818.000026666665
 30
0.0
 40
28.0
  1
※ 対応P寸法　　310＜320＞～440（10mm単位。＜＞内は下枝75の場合）
 41
0.75
  0
TEXT
  5
12669D
  8
SLIM
 10
4026.5999999999999
 20
-1864.6666933333311
 30
0.0
 40
28.0
  1
※ 対応スラブ厚　180～（m-10）
 41
0.75
  0
TEXT
  5
12669E
  8
SLIM
 10
4026.5999999999999
 20
-1911.333359999998
 30
0.0
 40
28.0
  1
※ 足切り可能寸法（最大）　680-P-m（コンパクトＬベンド使用なら+10）
 41
0.75
  0
TEXT
  5
12669F
  8
SLIM
 10
4098.8999999999987
 20
-1983.3333066666651
 30
0.0
 40
28.0
  1
国土交通大臣認定・（一財）日本消防設備安全センター性能評定取得品
 41
0.75
  0
TEXT
  5
1266A0
  8
SLIM
 10
4131.1000000000004
 20
-2029.999973333332
 30
0.0
 40
28.0
  1
注）ご採用にあたり、認定書及び評定書の内容をご確認ください。
 41
0.75
  0
TEXT
  5
1266A1
  8
SLIM
 10
5470.0571428571429
 20
-1472.9999999999959
 30
0.0
 40
24.0
  1
190～240
 41
0.75
  0
TEXT
  5
1266A2
  8
SLIM
 10
5470.0571428571429
 20
-1424.9999999999959
 30
0.0
 40
24.0
  1
190～250
 41
0.75
  0
TEXT
  5
1266A3
  8
SLIM
 10
5470.0571428571429
 20
-1376.9999999999959
 30
0.0
 40
24.0
  1
190～260
 41
0.75
  0
TEXT
  5
1266A4
  8
SLIM
 10
5470.0571428571429
 20
-1328.9999999999959
 30
0.0
 40
24.0
  1
190～270
 41
0.75
  0
TEXT
  5
1266A5
  8
SLIM
 10
5470.0571428571429
 20
-1280.9999999999959
 30
0.0
 40
24.0
  1
190～280
 41
0.75
  0
TEXT
  5
1266A6
  8
SLIM
 10
5470.0571428571429
 20
-1232.9999999999959
 30
0.0
 40
24.0
  1
190～290
 41
0.75
  0
TEXT
  5
1266A7
  8
SLIM
 10
5470.0571428571429
 20
-1184.9999999999959
 30
0.0
 40
24.0
  1
190～300
 41
0.75
  0
TEXT
  5
1266A8
  8
SLIM
 10
5448.4571428571444
 20
-1530.9999999999959
 30
0.0
 40
24.0
  1
標準：m=240
 41
0.75
  0
TEXT
  5
1266A9
  8
SLIM
 10
5378.8571428571431
 20
-1472.9999999999959
 30
0.0
 40
24.0
  1
440
 41
0.75
  0
TEXT
  5
1266AA
  8
SLIM
 10
5378.8571428571431
 20
-1424.9999999999959
 30
0.0
 40
24.0
  1
430
 41
0.75
  0
TEXT
  5
1266AB
  8
SLIM
 10
5378.8571428571431
 20
-1376.9999999999959
 30
0.0
 40
24.0
  1
420
 41
0.75
  0
TEXT
  5
1266AC
  8
SLIM
 10
5380.5714285714284
 20
-1328.9999999999959
 30
0.0
 40
24.0
  1
410
 41
0.75
  0
TEXT
  5
1266AD
  8
SLIM
 10
5378.8571428571431
 20
-1280.9999999999959
 30
0.0
 40
24.0
  1
400
 41
0.75
  0
TEXT
  5
1266AE
  8
SLIM
 10
5378.8571428571431
 20
-1232.9999999999959
 30
0.0
 40
24.0
  1
390
 41
0.75
  0
TEXT
  5
1266AF
  8
SLIM
 10
5378.8571428571431
 20
-1184.9999999999959
 30
0.0
 40
24.0
  1
380
 41
0.75
  0
TEXT
  5
1266B0
  8
SLIM
 10
5378.8571428571431
 20
-1136.9999999999959
 30
0.0
 40
24.0
  1
370
 41
0.75
  0
TEXT
  5
1266B1
  8
SLIM
 10
5471.7714285714292
 20
-1136.9999999999959
 30
0.0
 40
24.0
  1
190～310
 41
0.75
  0
TEXT
  5
1266B2
  8
SLIM
 10
5378.8571428571431
 20
-1088.9999999999959
 30
0.0
 40
24.0
  1
360
 41
0.75
  0
TEXT
  5
1266B3
  8
SLIM
 10
5470.0571428571429
 20
-1088.9999999999959
 30
0.0
 40
24.0
  1
190～320
 41
0.75
  0
TEXT
  5
1266B4
  8
SLIM
 10
5378.8571428571431
 20
-1040.9999999999959
 30
0.0
 40
24.0
  1
350
 41
0.75
  0
TEXT
  5
1266B5
  8
SLIM
 10
5468.3428571428567
 20
-1040.9999999999959
 30
0.0
 40
24.0
  1
200～330
 41
0.75
  0
TEXT
  5
1266B6
  8
SLIM
 10
5378.8571428571431
 20
-992.99999999999636
 30
0.0
 40
24.0
  1
340
 41
0.75
  0
TEXT
  5
1266B7
  8
SLIM
 10
5470.0571428571429
 20
-992.99999999999636
 30
0.0
 40
24.0
  1
210～340
 41
0.75
  0
TEXT
  5
1266B8
  8
SLIM
 10
5378.8571428571431
 20
-944.99999999999613
 30
0.0
 40
24.0
  1
330
 41
0.75
  0
TEXT
  5
1266B9
  8
SLIM
 10
5468.3428571428567
 20
-944.99999999999613
 30
0.0
 40
24.0
  1
220～350
 41
0.75
  0
TEXT
  5
1266BA
  8
SLIM
 10
5378.8571428571431
 20
-896.99999999999613
 30
0.0
 40
24.0
  1
320
 41
0.75
  0
TEXT
  5
1266BB
  8
SLIM
 10
5468.3428571428567
 20
-896.99999999999613
 30
0.0
 40
24.0
  1
230～360
 41
0.75
  0
TEXT
  5
1266BC
  8
SLIM
 10
5373.8000000000002
 20
-800.99999999999579
 30
0.0
 40
24.0
  1
P寸法
 41
0.75
  0
TEXT
  5
1266BD
  8
SLIM
 10
5380.5714285714284
 20
-848.99999999999591
 30
0.0
 40
24.0
  1
310
 41
0.75
  0
TEXT
  5
1266BE
  8
SLIM
 10
5468.3428571428567
 20
-848.99999999999591
 30
0.0
 40
24.0
  1
240～370
 41
0.75
  0
TEXT
  5
1266BF
  8
SLIM
 10
5474.3428571428567
 20
-800.99999999999579
 30
0.0
 40
24.0
  1
対応m寸法
 41
0.75
  0
LINE
  5
1266C0
  8
SLIM
 10
4914.9999999999927
 20
-1152.2369265471771
 30
0.0
 11
4931.2369265471698
 21
-1136.0
 31
0.0
1001
GRADIENTCOLOR1ACI
1070
     5
1001
GRADIENTCOLOR2ACI
1070
     2
1001
ACAD
1010
0.0
1020
0.0
1030
0.0
  0
LINE
  5
1266C1
  8
SLIM
 10
4914.9999999999955
 20
-1170.197438789314
 30
0.0
 11
4949.1974387893079
 21
-1136.0
 31
0.0
1001
GRADIENTCOLOR1ACI
1070
     5
1001
GRADIENTCOLOR2ACI
1070
     2
1001
ACAD
1010
0.0
1020
0.0
1030
0.0
  0
LINE
  5
1266C2
  8
SLIM
 10
4914.9999999999955
 20
-1188.1579510314509
 30
0.0
 11
4967.1579510314468
 21
-1136.0
 31
0.0
1001
GRADIENTCOLOR1ACI
1070
     5
1001
GRADIENTCOLOR2ACI
1070
     2
1001
ACAD
1010
0.0
1020
0.0
1030
0.0
  0
LINE
  5
1266C3
  8
SLIM
 10
4915.1454972543143
 20
-1205.9729660192691
 30
0.0
 11
4985.1184632735849
 21
-1136.0
 31
0.0
1001
GRADIENTCOLOR1ACI
1070
     5
1001
GRADIENTCOLOR2ACI
1070
     2
1001
ACAD
1010
0.0
1020
0.0
1030
0.0
  0
LINE
  5
1266C4
  8
SLIM
 10
4917.104627495245
 20
-1221.97434802048
 30
0.0
 11
5003.078975515723
 21
-1136.0
 31
0.0
1001
GRADIENTCOLOR1ACI
1070
     5
1001
GRADIENTCOLOR2ACI
1070
     2
1001
ACAD
1010
0.0
1020
0.0
1030
0.0
  0
LINE
  5
1266C5
  8
SLIM
 10
4919.0637577361713
 20
-1237.97573002169
 30
0.0
 11
5021.0394877578619
 21
-1136.0
 31
0.0
1001
GRADIENTCOLOR1ACI
1070
     5
1001
GRADIENTCOLOR2ACI
1070
     2
1001
ACAD
1010
0.0
1020
0.0
1030
0.0
  0
LINE
  5
1266C6
  8
SLIM
 10
4920.0
 20
-1255.0
 30
0.0
 11
5039.0
 21
-1136.0
 31
0.0
1001
GRADIENTCOLOR1ACI
1070
     5
1001
GRADIENTCOLOR2ACI
1070
     2
1001
ACAD
1010
0.0
1020
0.0
1030
0.0
  0
LINE
  5
1266C7
  8
SLIM
 10
4920.0
 20
-1272.9605122421381
 30
0.0
 11
5056.9605122421381
 21
-1136.0
 31
0.0
1001
GRADIENTCOLOR1ACI
1070
     5
1001
GRADIENTCOLOR2ACI
1070
     2
1001
ACAD
1010
0.0
1020
0.0
1030
0.0
  0
LINE
  5
1266C8
  8
SLIM
 10
4920.0
 20
-1290.921024484277
 30
0.0
 11
5074.921024484277
 21
-1136.0
 31
0.0
1001
GRADIENTCOLOR1ACI
1070
     5
1001
GRADIENTCOLOR2ACI
1070
     2
1001
ACAD
1010
0.0
1020
0.0
1030
0.0
  0
LINE
  5
1266C9
  8
SLIM
 10
4920.0
 20
-1308.8815367264151
 30
0.0
 11
5085.0000000000073
 21
-1143.8815367264081
 31
0.0
1001
GRADIENTCOLOR1ACI
1070
     5
1001
GRADIENTCOLOR2ACI
1070
     2
1001
ACAD
1010
0.0
1020
0.0
1030
0.0
  0
LINE
  5
1266CA
  8
SLIM
 10
4920.0
 20
-1326.8420489685529
 30
0.0
 11
5085.0000000000073
 21
-1161.842048968547
 31
0.0
1001
GRADIENTCOLOR1ACI
1070
     5
1001
GRADIENTCOLOR2ACI
1070
     2
1001
ACAD
1010
0.0
1020
0.0
1030
0.0
  0
LINE
  5
1266CB
  8
SLIM
 10
4920.0
 20
-1344.802561210691
 30
0.0
 11
5085.0000000000036
 21
-1179.8025612106869
 31
0.0
1001
GRADIENTCOLOR1ACI
1070
     5
1001
GRADIENTCOLOR2ACI
1070
     2
1001
ACAD
1010
0.0
1020
0.0
1030
0.0
  0
LINE
  5
1266CC
  8
SLIM
 10
4920.0
 20
-1362.7630734528291
 30
0.0
 11
5085.0000000000036
 21
-1197.7630734528259
 31
0.0
1001
GRADIENTCOLOR1ACI
1070
     5
1001
GRADIENTCOLOR2ACI
1070
     2
1001
ACAD
1010
0.0
1020
0.0
1030
0.0
  0
LINE
  5
1266CD
  8
SLIM
 10
4924.7235856949701
 20
-1376.0
 30
0.0
 11
5083.4738280308084
 21
-1217.249757664159
 31
0.0
1001
GRADIENTCOLOR1ACI
1070
     5
1001
GRADIENTCOLOR2ACI
1070
     2
1001
ACAD
1010
0.0
1020
0.0
1030
0.0
  0
LINE
  5
1266CE
  8
SLIM
 10
4930.0
 20
-1388.6840979371059
 30
0.0
 11
4942.6840979371073
 21
-1376.0
 31
0.0
1001
GRADIENTCOLOR1ACI
1070
     5
1001
GRADIENTCOLOR2ACI
1070
     2
1001
ACAD
1010
0.0
1020
0.0
1030
0.0
  0
LINE
  5
1266CF
  8
SLIM
 10
4942.6840979371073
 20
-1376.0
 30
0.0
 11
5080.9680345671377
 21
-1237.7160633699691
 31
0.0
1001
GRADIENTCOLOR1ACI
1070
     5
1001
GRADIENTCOLOR2ACI
1070
     2
1001
ACAD
1010
0.0
1020
0.0
1030
0.0
  0
LINE
  5
1266D0
  8
SLIM
 10
4941.6446101792453
 20
-1395.0
 30
0.0
 11
4960.6446101792462
 21
-1376.0
 31
0.0
1001
GRADIENTCOLOR1ACI
1070
     5
1001
GRADIENTCOLOR2ACI
1070
     2
1001
ACAD
1010
0.0
1020
0.0
1030
0.0
  0
LINE
  5
1266D1
  8
SLIM
 10
4960.6446101792462
 20
-1376.0
 30
0.0
 11
5080.0
 21
-1256.6446101792451
 31
0.0
1001
GRADIENTCOLOR1ACI
1070
     5
1001
GRADIENTCOLOR2ACI
1070
     2
1001
ACAD
1010
0.0
1020
0.0
1030
0.0
  0
LINE
  5
1266D2
  8
SLIM
 10
4959.6051224213843
 20
-1395.0
 30
0.0
 11
4978.6051224213843
 21
-1376.0
 31
0.0
1001
GRADIENTCOLOR1ACI
1070
     5
1001
GRADIENTCOLOR2ACI
1070
     2
1001
ACAD
1010
0.0
1020
0.0
1030
0.0
  0
LINE
  5
1266D3
  8
SLIM
 10
4978.6051224213843
 20
-1376.0
 30
0.0
 11
5080.0
 21
-1274.6051224213829
 31
0.0
1001
GRADIENTCOLOR1ACI
1070
     5
1001
GRADIENTCOLOR2ACI
1070
     2
1001
ACAD
1010
0.0
1020
0.0
1030
0.0
  0
LINE
  5
1266D4
  8
SLIM
 10
4977.5656346635215
 20
-1395.0
 30
0.0
 11
4996.5656346635224
 21
-1376.0
 31
0.0
1001
GRADIENTCOLOR1ACI
1070
     5
1001
GRADIENTCOLOR2ACI
1070
     2
1001
ACAD
1010
0.0
1020
0.0
1030
0.0
  0
LINE
  5
1266D5
  8
SLIM
 10
4996.5656346635224
 20
-1376.0
 30
0.0
 11
5079.9999999999991
 21
-1292.5656346635219
 31
0.0
1001
GRADIENTCOLOR1ACI
1070
     5
1001
GRADIENTCOLOR2ACI
1070
     2
1001
ACAD
1010
0.0
1020
0.0
1030
0.0
  0
LINE
  5
1266D6
  8
SLIM
 10
4995.5261469056577
 20
-1395.0
 30
0.0
 11
5014.5261469056613
 21
-1376.0
 31
0.0
1001
GRADIENTCOLOR1ACI
1070
     5
1001
GRADIENTCOLOR2ACI
1070
     2
1001
ACAD
1010
0.0
1020
0.0
1030
0.0
  0
LINE
  5
1266D7
  8
SLIM
 10
5014.5261469056613
 20
-1376.0
 30
0.0
 11
5079.9999999999991
 21
-1310.5261469056611
 31
0.0
1001
GRADIENTCOLOR1ACI
1070
     5
1001
GRADIENTCOLOR2ACI
1070
     2
1001
ACAD
1010
0.0
1020
0.0
1030
0.0
  0
LINE
  5
1266D8
  8
SLIM
 10
5013.4866591477976
 20
-1395.0
 30
0.0
 11
5032.4866591478003
 21
-1376.0
 31
0.0
1001
GRADIENTCOLOR1ACI
1070
     5
1001
GRADIENTCOLOR2ACI
1070
     2
1001
ACAD
1010
0.0
1020
0.0
1030
0.0
  0
LINE
  5
1266D9
  8
SLIM
 10
5032.4866591478003
 20
-1376.0
 30
0.0
 11
5079.9999999999991
 21
-1328.4866591477989
 31
0.0
1001
GRADIENTCOLOR1ACI
1070
     5
1001
GRADIENTCOLOR2ACI
1070
     2
1001
ACAD
1010
0.0
1020
0.0
1030
0.0
  0
LINE
  5
1266DA
  8
SLIM
 10
5031.4471713899356
 20
-1395.0
 30
0.0
 11
5050.4471713899366
 21
-1376.0
 31
0.0
1001
GRADIENTCOLOR1ACI
1070
     5
1001
GRADIENTCOLOR2ACI
1070
     2
1001
ACAD
1010
0.0
1020
0.0
1030
0.0
  0
LINE
  5
1266DB
  8
SLIM
 10
5050.4471713899366
 20
-1376.0
 30
0.0
 11
5079.9999999999982
 21
-1346.447171389937
 31
0.0
1001
GRADIENTCOLOR1ACI
1070
     5
1001
GRADIENTCOLOR2ACI
1070
     2
1001
ACAD
1010
0.0
1020
0.0
1030
0.0
  0
LINE
  5
1266DC
  8
SLIM
 10
5049.4076836320737
 20
-1395.0
 30
0.0
 11
5068.4076836320737
 21
-1376.0
 31
0.0
1001
GRADIENTCOLOR1ACI
1070
     5
1001
GRADIENTCOLOR2ACI
1070
     2
1001
ACAD
1010
0.0
1020
0.0
1030
0.0
  0
LINE
  5
1266DD
  8
SLIM
 10
5068.4076836320737
 20
-1376.0
 30
0.0
 11
5079.9999999999982
 21
-1364.407683632076
 31
0.0
1001
GRADIENTCOLOR1ACI
1070
     5
1001
GRADIENTCOLOR2ACI
1070
     2
1001
ACAD
1010
0.0
1020
0.0
1030
0.0
  0
LINE
  5
1266DE
  8
SLIM
 10
5067.3681958742118
 20
-1395.0
 30
0.0
 11
5070.0
 21
-1392.3681958742129
 31
0.0
1001
GRADIENTCOLOR1ACI
1070
     5
1001
GRADIENTCOLOR2ACI
1070
     2
1001
ACAD
1010
0.0
1020
0.0
1030
0.0
  0
LINE
  5
1266DF
  8
OBJECT
 10
4914.9999999999918
 20
-1136.0
 30
0.0
 11
4914.9999999999982
 21
-1204.7846033990349
 31
0.0
1001
ACDBBLOCKREPETAG
1070
     1
1071
        1
1005
1266DF
  0
LINE
  5
1266E0
  8
OBJECT
 10
5085.0000000000073
 20
-1136.0
 30
0.0
 11
5085.0000000000036
 21
-1204.784603399042
 31
0.0
1001
ACDBBLOCKREPETAG
1070
     1
1071
        2
1005
1266E0
  0
LINE
  5
1266E1
  8
OBJECT
 10
5085.0000000000073
 20
-1136.0
 30
0.0
 11
4914.9999999999918
 21
-1136.0
 31
0.0
1001
ACDBBLOCKREPETAG
1070
     1
1071
        3
1005
1266E1
  0
LINE
  5
1266E2
  8
OBJECT
 10
5079.9999999999982
 20
-1376.0
 30
0.0
 11
4920.0
 21
-1376.0
 31
0.0
1001
ACDBBLOCKREPETAG
1070
     1
1071
        4
1005
1266E2
  0
LINE
  5
1266E3
  8
OBJECT
 10
4914.9999999999982
 20
-1204.7846033990349
 30
0.0
 11
4920.0
 21
-1245.6225774829859
 31
0.0
1001
ACDBBLOCKREPETAG
1070
     1
1071
        6
1005
1266E3
  0
LINE
  5
1266E4
  8
OBJECT
 10
4920.0
 20
-1245.6225774829859
 30
0.0
 11
4920.0
 21
-1376.0
 31
0.0
1001
ACDBBLOCKREPETAG
1070
     1
1071
        7
1005
1266E4
  0
LINE
  5
1266E5
  8
OBJECT
 10
5085.0000000000036
 20
-1204.784603399042
 30
0.0
 11
5080.0
 21
-1245.6225774829859
 31
0.0
1001
ACDBBLOCKREPETAG
1070
     1
1071
        8
1005
1266E5
  0
LINE
  5
1266E6
  8
OBJECT
 10
5080.0
 20
-1245.6225774829859
 30
0.0
 11
5079.9999999999982
 21
-1376.0
 31
0.0
1001
ACDBBLOCKREPETAG
1070
     1
1071
        9
1005
1266E6
  0
LINE
  5
1266E7
  8
OBJECT
 10
4930.0
 20
-1376.0
 30
0.0
 11
4930.0
 21
-1395.0
 31
0.0
1001
ACDBBLOCKREPETAG
1070
     1
1071
       10
1005
1266E7
  0
LINE
  5
1266E8
  8
OBJECT
 10
4930.0
 20
-1395.0
 30
0.0
 11
5070.0
 21
-1395.0
 31
0.0
1001
ACDBBLOCKREPETAG
1070
     1
1071
       11
1005
1266E8
  0
LINE
  5
1266E9
  8
OBJECT
 10
5070.0
 20
-1395.0
 30
0.0
 11
5070.0
 21
-1376.0
 31
0.0
1001
ACDBBLOCKREPETAG
1070
     1
1071
       12
1005
1266E9
  0
LINE
  5
1266EA
  8
SLIM
 10
4414.9999999999927
 20
-1152.2369265471771
 30
0.0
 11
4431.2369265471698
 21
-1136.0
 31
0.0
1001
GRADIENTCOLOR1ACI
1070
     5
1001
GRADIENTCOLOR2ACI
1070
     2
1001
ACAD
1010
0.0
1020
0.0
1030
0.0
  0
LINE
  5
1266EB
  8
SLIM
 10
4414.9999999999927
 20
-1170.197438789314
 30
0.0
 11
4449.1974387893069
 21
-1136.0
 31
0.0
1001
GRADIENTCOLOR1ACI
1070
     5
1001
GRADIENTCOLOR2ACI
1070
     2
1001
ACAD
1010
0.0
1020
0.0
1030
0.0
  0
LINE
  5
1266EC
  8
SLIM
 10
4414.9999999999955
 20
-1188.1579510314509
 30
0.0
 11
4467.1579510314441
 21
-1136.0
 31
0.0
1001
GRADIENTCOLOR1ACI
1070
     5
1001
GRADIENTCOLOR2ACI
1070
     2
1001
ACAD
1010
0.0
1020
0.0
1030
0.0
  0
LINE
  5
1266ED
  8
SLIM
 10
4415.1454972543143
 20
-1205.9729660192691
 30
0.0
 11
4485.1184632735849
 21
-1136.0
 31
0.0
1001
GRADIENTCOLOR1ACI
1070
     5
1001
GRADIENTCOLOR2ACI
1070
     2
1001
ACAD
1010
0.0
1020
0.0
1030
0.0
  0
LINE
  5
1266EE
  8
SLIM
 10
4417.1046274952441
 20
-1221.97434802048
 30
0.0
 11
4503.078975515722
 21
-1136.0
 31
0.0
1001
GRADIENTCOLOR1ACI
1070
     5
1001
GRADIENTCOLOR2ACI
1070
     2
1001
ACAD
1010
0.0
1020
0.0
1030
0.0
  0
LINE
  5
1266EF
  8
SLIM
 10
4419.0637577361713
 20
-1237.97573002169
 30
0.0
 11
4521.0394877578619
 21
-1136.0
 31
0.0
1001
GRADIENTCOLOR1ACI
1070
     5
1001
GRADIENTCOLOR2ACI
1070
     2
1001
ACAD
1010
0.0
1020
0.0
1030
0.0
  0
LINE
  5
1266F0
  8
SLIM
 10
4420.0
 20
-1255.0
 30
0.0
 11
4539.0
 21
-1136.0
 31
0.0
1001
GRADIENTCOLOR1ACI
1070
     5
1001
GRADIENTCOLOR2ACI
1070
     2
1001
ACAD
1010
0.0
1020
0.0
1030
0.0
  0
LINE
  5
1266F1
  8
SLIM
 10
4420.0
 20
-1272.9605122421381
 30
0.0
 11
4556.9605122421372
 21
-1136.0
 31
0.0
1001
GRADIENTCOLOR1ACI
1070
     5
1001
GRADIENTCOLOR2ACI
1070
     2
1001
ACAD
1010
0.0
1020
0.0
1030
0.0
  0
LINE
  5
1266F2
  8
SLIM
 10
4420.0
 20
-1290.921024484277
 30
0.0
 11
4574.921024484277
 21
-1136.0
 31
0.0
1001
GRADIENTCOLOR1ACI
1070
     5
1001
GRADIENTCOLOR2ACI
1070
     2
1001
ACAD
1010
0.0
1020
0.0
1030
0.0
  0
LINE
  5
1266F3
  8
SLIM
 10
4420.0
 20
-1308.8815367264151
 30
0.0
 11
4585.0000000000073
 21
-1143.8815367264081
 31
0.0
1001
GRADIENTCOLOR1ACI
1070
     5
1001
GRADIENTCOLOR2ACI
1070
     2
1001
ACAD
1010
0.0
1020
0.0
1030
0.0
  0
LINE
  5
1266F4
  8
SLIM
 10
4420.0
 20
-1326.8420489685529
 30
0.0
 11
4585.0000000000073
 21
-1161.842048968547
 31
0.0
1001
GRADIENTCOLOR1ACI
1070
     5
1001
GRADIENTCOLOR2ACI
1070
     2
1001
ACAD
1010
0.0
1020
0.0
1030
0.0
  0
LINE
  5
1266F5
  8
SLIM
 10
4420.0
 20
-1344.802561210691
 30
0.0
 11
4585.0000000000036
 21
-1179.8025612106869
 31
0.0
1001
GRADIENTCOLOR1ACI
1070
     5
1001
GRADIENTCOLOR2ACI
1070
     2
1001
ACAD
1010
0.0
1020
0.0
1030
0.0
  0
LINE
  5
1266F6
  8
SLIM
 10
4420.0
 20
-1362.7630734528291
 30
0.0
 11
4585.0000000000009
 21
-1197.7630734528259
 31
0.0
1001
GRADIENTCOLOR1ACI
1070
     5
1001
GRADIENTCOLOR2ACI
1070
     2
1001
ACAD
1010
0.0
1020
0.0
1030
0.0
  0
LINE
  5
1266F7
  8
SLIM
 10
4424.7235856949692
 20
-1376.0
 30
0.0
 11
4583.4738280308084
 21
-1217.249757664159
 31
0.0
1001
GRADIENTCOLOR1ACI
1070
     5
1001
GRADIENTCOLOR2ACI
1070
     2
1001
ACAD
1010
0.0
1020
0.0
1030
0.0
  0
LINE
  5
1266F8
  8
SLIM
 10
4430.0
 20
-1388.6840979371059
 30
0.0
 11
4442.6840979371063
 21
-1376.0
 31
0.0
1001
GRADIENTCOLOR1ACI
1070
     5
1001
GRADIENTCOLOR2ACI
1070
     2
1001
ACAD
1010
0.0
1020
0.0
1030
0.0
  0
LINE
  5
1266F9
  8
SLIM
 10
4442.6840979371063
 20
-1376.0
 30
0.0
 11
4580.9680345671368
 21
-1237.7160633699691
 31
0.0
1001
GRADIENTCOLOR1ACI
1070
     5
1001
GRADIENTCOLOR2ACI
1070
     2
1001
ACAD
1010
0.0
1020
0.0
1030
0.0
  0
LINE
  5
1266FA
  8
SLIM
 10
4441.6446101792453
 20
-1395.0
 30
0.0
 11
4460.6446101792462
 21
-1376.0
 31
0.0
1001
GRADIENTCOLOR1ACI
1070
     5
1001
GRADIENTCOLOR2ACI
1070
     2
1001
ACAD
1010
0.0
1020
0.0
1030
0.0
  0
LINE
  5
1266FB
  8
SLIM
 10
4460.6446101792462
 20
-1376.0
 30
0.0
 11
4580.0
 21
-1256.6446101792451
 31
0.0
1001
GRADIENTCOLOR1ACI
1070
     5
1001
GRADIENTCOLOR2ACI
1070
     2
1001
ACAD
1010
0.0
1020
0.0
1030
0.0
  0
LINE
  5
1266FC
  8
SLIM
 10
4459.6051224213843
 20
-1395.0
 30
0.0
 11
4478.6051224213843
 21
-1376.0
 31
0.0
1001
GRADIENTCOLOR1ACI
1070
     5
1001
GRADIENTCOLOR2ACI
1070
     2
1001
ACAD
1010
0.0
1020
0.0
1030
0.0
  0
LINE
  5
1266FD
  8
SLIM
 10
4478.6051224213843
 20
-1376.0
 30
0.0
 11
4580.0
 21
-1274.6051224213829
 31
0.0
1001
GRADIENTCOLOR1ACI
1070
     5
1001
GRADIENTCOLOR2ACI
1070
     2
1001
ACAD
1010
0.0
1020
0.0
1030
0.0
  0
LINE
  5
1266FE
  8
SLIM
 10
4477.5656346635215
 20
-1395.0
 30
0.0
 11
4496.5656346635215
 21
-1376.0
 31
0.0
1001
GRADIENTCOLOR1ACI
1070
     5
1001
GRADIENTCOLOR2ACI
1070
     2
1001
ACAD
1010
0.0
1020
0.0
1030
0.0
  0
LINE
  5
1266FF
  8
SLIM
 10
4496.5656346635215
 20
-1376.0
 30
0.0
 11
4579.9999999999991
 21
-1292.5656346635219
 31
0.0
1001
GRADIENTCOLOR1ACI
1070
     5
1001
GRADIENTCOLOR2ACI
1070
     2
1001
ACAD
1010
0.0
1020
0.0
1030
0.0
  0
LINE
  5
126700
  8
SLIM
 10
4495.5261469056586
 20
-1395.0
 30
0.0
 11
4514.5261469056613
 21
-1376.0
 31
0.0
1001
GRADIENTCOLOR1ACI
1070
     5
1001
GRADIENTCOLOR2ACI
1070
     2
1001
ACAD
1010
0.0
1020
0.0
1030
0.0
  0
LINE
  5
126701
  8
SLIM
 10
4514.5261469056613
 20
-1376.0
 30
0.0
 11
4579.9999999999991
 21
-1310.5261469056611
 31
0.0
1001
GRADIENTCOLOR1ACI
1070
     5
1001
GRADIENTCOLOR2ACI
1070
     2
1001
ACAD
1010
0.0
1020
0.0
1030
0.0
  0
LINE
  5
126702
  8
SLIM
 10
4513.4866591477976
 20
-1395.0
 30
0.0
 11
4532.4866591478003
 21
-1376.0
 31
0.0
1001
GRADIENTCOLOR1ACI
1070
     5
1001
GRADIENTCOLOR2ACI
1070
     2
1001
ACAD
1010
0.0
1020
0.0
1030
0.0
  0
LINE
  5
126703
  8
SLIM
 10
4532.4866591478003
 20
-1376.0
 30
0.0
 11
4579.9999999999991
 21
-1328.4866591477989
 31
0.0
1001
GRADIENTCOLOR1ACI
1070
     5
1001
GRADIENTCOLOR2ACI
1070
     2
1001
ACAD
1010
0.0
1020
0.0
1030
0.0
  0
LINE
  5
126704
  8
SLIM
 10
4531.4471713899356
 20
-1395.0
 30
0.0
 11
4550.4471713899356
 21
-1376.0
 31
0.0
1001
GRADIENTCOLOR1ACI
1070
     5
1001
GRADIENTCOLOR2ACI
1070
     2
1001
ACAD
1010
0.0
1020
0.0
1030
0.0
  0
LINE
  5
126705
  8
SLIM
 10
4550.4471713899356
 20
-1376.0
 30
0.0
 11
4579.9999999999982
 21
-1346.447171389937
 31
0.0
1001
GRADIENTCOLOR1ACI
1070
     5
1001
GRADIENTCOLOR2ACI
1070
     2
1001
ACAD
1010
0.0
1020
0.0
1030
0.0
  0
LINE
  5
126706
  8
SLIM
 10
4549.4076836320737
 20
-1395.0
 30
0.0
 11
4568.4076836320728
 21
-1376.0
 31
0.0
1001
GRADIENTCOLOR1ACI
1070
     5
1001
GRADIENTCOLOR2ACI
1070
     2
1001
ACAD
1010
0.0
1020
0.0
1030
0.0
  0
LINE
  5
126707
  8
SLIM
 10
4568.4076836320728
 20
-1376.0
 30
0.0
 11
4579.9999999999982
 21
-1364.407683632076
 31
0.0
1001
GRADIENTCOLOR1ACI
1070
     5
1001
GRADIENTCOLOR2ACI
1070
     2
1001
ACAD
1010
0.0
1020
0.0
1030
0.0
  0
LINE
  5
126708
  8
SLIM
 10
4567.3681958742118
 20
-1395.0
 30
0.0
 11
4570.0
 21
-1392.3681958742129
 31
0.0
1001
GRADIENTCOLOR1ACI
1070
     5
1001
GRADIENTCOLOR2ACI
1070
     2
1001
ACAD
1010
0.0
1020
0.0
1030
0.0
  0
LINE
  5
126709
  8
OBJECT
 10
4414.9999999999918
 20
-1136.0
 30
0.0
 11
4414.9999999999973
 21
-1204.7846033990349
 31
0.0
1001
ACDBBLOCKREPETAG
1070
     1
1071
        1
1005
126709
  0
LINE
  5
12670A
  8
OBJECT
 10
4585.0000000000073
 20
-1136.0
 30
0.0
 11
4585.0000000000009
 21
-1204.784603399042
 31
0.0
1001
ACDBBLOCKREPETAG
1070
     1
1071
        2
1005
12670A
  0
LINE
  5
12670B
  8
OBJECT
 10
4585.0000000000073
 20
-1136.0
 30
0.0
 11
4414.9999999999918
 21
-1136.0
 31
0.0
1001
ACDBBLOCKREPETAG
1070
     1
1071
        3
1005
12670B
  0
LINE
  5
12670C
  8
OBJECT
 10
4579.9999999999982
 20
-1376.0
 30
0.0
 11
4420.0
 21
-1376.0
 31
0.0
1001
ACDBBLOCKREPETAG
1070
     1
1071
        4
1005
12670C
  0
LINE
  5
12670D
  8
OBJECT
 10
4414.9999999999973
 20
-1204.7846033990349
 30
0.0
 11
4420.0
 21
-1245.6225774829859
 31
0.0
1001
ACDBBLOCKREPETAG
1070
     1
1071
        6
1005
12670D
  0
LINE
  5
12670E
  8
OBJECT
 10
4420.0
 20
-1245.6225774829859
 30
0.0
 11
4420.0
 21
-1376.0
 31
0.0
1001
ACDBBLOCKREPETAG
1070
     1
1071
        7
1005
12670E
  0
LINE
  5
12670F
  8
OBJECT
 10
4585.0000000000009
 20
-1204.784603399042
 30
0.0
 11
4580.0
 21
-1245.6225774829859
 31
0.0
1001
ACDBBLOCKREPETAG
1070
     1
1071
        8
1005
12670F
  0
LINE
  5
126710
  8
OBJECT
 10
4580.0
 20
-1245.6225774829859
 30
0.0
 11
4579.9999999999982
 21
-1376.0
 31
0.0
1001
ACDBBLOCKREPETAG
1070
     1
1071
        9
1005
126710
  0
LINE
  5
126711
  8
OBJECT
 10
4430.0
 20
-1376.0
 30
0.0
 11
4430.0
 21
-1395.0
 31
0.0
1001
ACDBBLOCKREPETAG
1070
     1
1071
       10
1005
126711
  0
LINE
  5
126712
  8
OBJECT
 10
4430.0
 20
-1395.0
 30
0.0
 11
4570.0
 21
-1395.0
 31
0.0
1001
ACDBBLOCKREPETAG
1070
     1
1071
       11
1005
126712
  0
LINE
  5
126713
  8
OBJECT
 10
4570.0
 20
-1395.0
 30
0.0
 11
4570.0
 21
-1376.0
 31
0.0
1001
ACDBBLOCKREPETAG
1070
     1
1071
       12
1005
126713
  0
LINE
  5
126714
  8
OBJECT
 10
4930.0
 20
-1484.999999999998
 30
0.0
 11
5070.0
 21
-1484.999999999998
 31
0.0
1001
ACDBBLOCKREPETAG
1070
     1
1071
        0
1005
126714
  0
LINE
  5
126715
  8
OBJECT
 10
4930.0
 20
-1484.999999999998
 30
0.0
 11
4930.0
 21
-1244.999999999998
 31
0.0
1001
ACDBBLOCKREPETAG
1070
     1
1071
        1
1005
126715
  0
LINE
  5
126716
  8
OBJECT
 10
5070.0
 20
-1484.999999999998
 30
0.0
 11
5070.0
 21
-1244.999999999998
 31
0.0
1001
ACDBBLOCKREPETAG
1070
     1
1071
        2
1005
126716
  0
LINE
  5
126717
  8
OBJECT
 10
4930.0
 20
-1244.999999999998
 30
0.0
 11
5070.0
 21
-1244.999999999998
 31
0.0
1001
ACDBBLOCKREPETAG
1070
     1
1071
        3
1005
126717
  0
LINE
  5
126718
  8
HIDDEN
 10
4937.5
 20
-1244.999999999998
 30
0.0
 11
4937.5
 21
-1484.999999999998
 31
0.0
1001
ACDBBLOCKREPETAG
1070
     1
1071
        4
1005
126718
  0
LINE
  5
126719
  8
HIDDEN
 10
5062.5
 20
-1244.999999999998
 30
0.0
 11
5062.5
 21
-1484.999999999998
 31
0.0
1001
ACDBBLOCKREPETAG
1070
     1
1071
        5
1005
126719
  0
LINE
  5
12671A
  8
CENTER
 10
5000.0
 20
-1175.0
 30
0.0
 11
5000.0
 21
-1499.999999999998
 31
0.0
1001
ACDBBLOCKREPETAG
1070
     1
1071
        6
1005
12671A
  0
LINE
  5
12671B
  8
OBJECT
 10
4925.0
 20
-1175.0
 30
0.0
 11
4925.0
 21
-1204.999999999998
 31
0.0
1001
ACDBBLOCKREPETAG
1070
     1
1071
        7
1005
12671B
  0
LINE
  5
12671C
  8
OBJECT
 10
5075.0000000000018
 20
-1175.0
 30
0.0
 11
5075.0
 21
-1204.999999999998
 31
0.0
1001
ACDBBLOCKREPETAG
1070
     1
1071
        8
1005
12671C
  0
LINE
  5
12671D
  8
OBJECT
 10
4925.0
 20
-1204.999999999998
 30
0.0
 11
5075.0
 21
-1204.999999999998
 31
0.0
1001
ACDBBLOCKREPETAG
1070
     1
1071
        9
1005
12671D
  0
LINE
  5
12671E
  8
OBJECT
 10
4925.0
 20
-1204.999999999998
 30
0.0
 11
4930.0
 21
-1244.999999999998
 31
0.0
1001
ACDBBLOCKREPETAG
1070
     1
1071
       10
1005
12671E
  0
LINE
  5
12671F
  8
OBJECT
 10
5070.0
 20
-1244.999999999998
 30
0.0
 11
5075.0
 21
-1204.999999999998
 31
0.0
1001
ACDBBLOCKREPETAG
1070
     1
1071
       11
1005
12671F
  0
LINE
  5
126720
  8
OBJECT
 10
4430.0
 20
-1484.999999999998
 30
0.0
 11
4570.0
 21
-1484.999999999998
 31
0.0
1001
ACDBBLOCKREPETAG
1070
     1
1071
        0
1005
126720
  0
LINE
  5
126721
  8
OBJECT
 10
4430.0
 20
-1484.999999999998
 30
0.0
 11
4430.0
 21
-1244.999999999998
 31
0.0
1001
ACDBBLOCKREPETAG
1070
     1
1071
        1
1005
126721
  0
LINE
  5
126722
  8
OBJECT
 10
4570.0
 20
-1484.999999999998
 30
0.0
 11
4570.0
 21
-1244.999999999998
 31
0.0
1001
ACDBBLOCKREPETAG
1070
     1
1071
        2
1005
126722
  0
LINE
  5
126723
  8
OBJECT
 10
4430.0
 20
-1244.999999999998
 30
0.0
 11
4570.0
 21
-1244.999999999998
 31
0.0
1001
ACDBBLOCKREPETAG
1070
     1
1071
        3
1005
126723
  0
LINE
  5
126724
  8
HIDDEN
 10
4437.5
 20
-1244.999999999998
 30
0.0
 11
4437.5
 21
-1484.999999999998
 31
0.0
1001
ACDBBLOCKREPETAG
1070
     1
1071
        4
1005
126724
  0
LINE
  5
126725
  8
HIDDEN
 10
4562.5
 20
-1244.999999999998
 30
0.0
 11
4562.5
 21
-1484.999999999998
 31
0.0
1001
ACDBBLOCKREPETAG
1070
     1
1071
        5
1005
126725
  0
LINE
  5
126726
  8
CENTER
 10
4500.0
 20
-1175.0
 30
0.0
 11
4500.0
 21
-1499.999999999998
 31
0.0
1001
ACDBBLOCKREPETAG
1070
     1
1071
        6
1005
126726
  0
LINE
  5
126727
  8
OBJECT
 10
4425.0
 20
-1175.0
 30
0.0
 11
4425.0
 21
-1204.999999999998
 31
0.0
1001
ACDBBLOCKREPETAG
1070
     1
1071
        7
1005
126727
  0
LINE
  5
126728
  8
OBJECT
 10
4575.0000000000009
 20
-1175.0
 30
0.0
 11
4575.0
 21
-1204.999999999998
 31
0.0
1001
ACDBBLOCKREPETAG
1070
     1
1071
        8
1005
126728
  0
LINE
  5
126729
  8
OBJECT
 10
4425.0
 20
-1204.999999999998
 30
0.0
 11
4575.0
 21
-1204.999999999998
 31
0.0
1001
ACDBBLOCKREPETAG
1070
     1
1071
        9
1005
126729
  0
LINE
  5
12672A
  8
OBJECT
 10
4425.0
 20
-1204.999999999998
 30
0.0
 11
4430.0
 21
-1244.999999999998
 31
0.0
1001
ACDBBLOCKREPETAG
1070
     1
1071
       10
1005
12672A
  0
LINE
  5
12672B
  8
OBJECT
 10
4570.0
 20
-1244.999999999998
 30
0.0
 11
4575.0
 21
-1204.999999999998
 31
0.0
1001
ACDBBLOCKREPETAG
1070
     1
1071
       11
1005
12672B
  0
LINE
  5
12672C
  8
OBJECT
 10
2930.0
 20
-1484.999999999998
 30
0.0
 11
3070.0
 21
-1484.999999999998
 31
0.0
1001
ACDBBLOCKREPETAG
1070
     1
1071
        0
1005
12672C
  0
LINE
  5
12672D
  8
OBJECT
 10
2930.0
 20
-1484.999999999998
 30
0.0
 11
2930.0
 21
-1244.999999999998
 31
0.0
1001
ACDBBLOCKREPETAG
1070
     1
1071
        1
1005
12672D
  0
LINE
  5
12672E
  8
OBJECT
 10
3070.0
 20
-1484.999999999998
 30
0.0
 11
3070.0
 21
-1244.999999999998
 31
0.0
1001
ACDBBLOCKREPETAG
1070
     1
1071
        2
1005
12672E
  0
LINE
  5
12672F
  8
OBJECT
 10
2930.0
 20
-1244.999999999998
 30
0.0
 11
3070.0
 21
-1244.999999999998
 31
0.0
1001
ACDBBLOCKREPETAG
1070
     1
1071
        3
1005
12672F
  0
LINE
  5
126730
  8
HIDDEN
 10
2937.5
 20
-1244.999999999998
 30
0.0
 11
2937.5
 21
-1484.999999999998
 31
0.0
1001
ACDBBLOCKREPETAG
1070
     1
1071
        4
1005
126730
  0
LINE
  5
126731
  8
HIDDEN
 10
3062.5
 20
-1244.999999999998
 30
0.0
 11
3062.5
 21
-1484.999999999998
 31
0.0
1001
ACDBBLOCKREPETAG
1070
     1
1071
        5
1005
126731
  0
LINE
  5
126732
  8
CENTER
 10
3000.0
 20
-1175.0
 30
0.0
 11
3000.0
 21
-1499.999999999998
 31
0.0
1001
ACDBBLOCKREPETAG
1070
     1
1071
        6
1005
126732
  0
LINE
  5
126733
  8
OBJECT
 10
2925.0
 20
-1175.0
 30
0.0
 11
2925.0
 21
-1204.999999999998
 31
0.0
1001
ACDBBLOCKREPETAG
1070
     1
1071
        7
1005
126733
  0
LINE
  5
126734
  8
OBJECT
 10
3075.000000000005
 20
-1175.0
 30
0.0
 11
3075.0
 21
-1204.999999999998
 31
0.0
1001
ACDBBLOCKREPETAG
1070
     1
1071
        8
1005
126734
  0
LINE
  5
126735
  8
OBJECT
 10
2925.0
 20
-1204.999999999998
 30
0.0
 11
3075.0
 21
-1204.999999999998
 31
0.0
1001
ACDBBLOCKREPETAG
1070
     1
1071
        9
1005
126735
  0
LINE
  5
126736
  8
OBJECT
 10
2925.0
 20
-1204.999999999998
 30
0.0
 11
2930.0
 21
-1244.999999999998
 31
0.0
1001
ACDBBLOCKREPETAG
1070
     1
1071
       10
1005
126736
  0
LINE
  5
126737
  8
OBJECT
 10
3070.0
 20
-1244.999999999998
 30
0.0
 11
3075.0
 21
-1204.999999999998
 31
0.0
1001
ACDBBLOCKREPETAG
1070
     1
1071
       11
1005
126737
  0
LINE
  5
126738
  8
OBJECT
 10
2430.0
 20
-1484.999999999998
 30
0.0
 11
2570.0
 21
-1484.999999999998
 31
0.0
1001
ACDBBLOCKREPETAG
1070
     1
1071
        0
1005
126738
  0
LINE
  5
126739
  8
OBJECT
 10
2430.0
 20
-1484.999999999998
 30
0.0
 11
2430.0
 21
-1244.999999999998
 31
0.0
1001
ACDBBLOCKREPETAG
1070
     1
1071
        1
1005
126739
  0
LINE
  5
12673A
  8
OBJECT
 10
2570.0
 20
-1484.999999999998
 30
0.0
 11
2570.0
 21
-1244.999999999998
 31
0.0
1001
ACDBBLOCKREPETAG
1070
     1
1071
        2
1005
12673A
  0
LINE
  5
12673B
  8
OBJECT
 10
2430.0
 20
-1244.999999999998
 30
0.0
 11
2570.0
 21
-1244.999999999998
 31
0.0
1001
ACDBBLOCKREPETAG
1070
     1
1071
        3
1005
12673B
  0
LINE
  5
12673C
  8
HIDDEN
 10
2437.5
 20
-1244.999999999998
 30
0.0
 11
2437.5
 21
-1484.999999999998
 31
0.0
1001
ACDBBLOCKREPETAG
1070
     1
1071
        4
1005
12673C
  0
LINE
  5
12673D
  8
HIDDEN
 10
2562.5
 20
-1244.999999999998
 30
0.0
 11
2562.5
 21
-1484.999999999998
 31
0.0
1001
ACDBBLOCKREPETAG
1070
     1
1071
        5
1005
12673D
  0
LINE
  5
12673E
  8
CENTER
 10
2500.0
 20
-1175.0
 30
0.0
 11
2500.0
 21
-1499.999999999998
 31
0.0
1001
ACDBBLOCKREPETAG
1070
     1
1071
        6
1005
12673E
  0
LINE
  5
12673F
  8
OBJECT
 10
2425.0
 20
-1175.0
 30
0.0
 11
2425.0
 21
-1204.999999999998
 31
0.0
1001
ACDBBLOCKREPETAG
1070
     1
1071
        7
1005
12673F
  0
LINE
  5
126740
  8
OBJECT
 10
2575.000000000005
 20
-1175.0
 30
0.0
 11
2575.0
 21
-1204.999999999998
 31
0.0
1001
ACDBBLOCKREPETAG
1070
     1
1071
        8
1005
126740
  0
LINE
  5
126741
  8
OBJECT
 10
2425.0
 20
-1204.999999999998
 30
0.0
 11
2575.0
 21
-1204.999999999998
 31
0.0
1001
ACDBBLOCKREPETAG
1070
     1
1071
        9
1005
126741
  0
LINE
  5
126742
  8
OBJECT
 10
2425.0
 20
-1204.999999999998
 30
0.0
 11
2430.0
 21
-1244.999999999998
 31
0.0
1001
ACDBBLOCKREPETAG
1070
     1
1071
       10
1005
126742
  0
LINE
  5
126743
  8
OBJECT
 10
2570.0
 20
-1244.999999999998
 30
0.0
 11
2575.0
 21
-1204.999999999998
 31
0.0
1001
ACDBBLOCKREPETAG
1070
     1
1071
       11
1005
126743
  0
CIRCLE
  5
126744
  8
OBJECT
 10
180.00000000004181
 20
-232.00000000017189
 30
0.0
 40
70.0
1001
ACDBBLOCKREPETAG
1070
     1
1071
       50
1005
126744
  0
CIRCLE
  5
126745
  8
OBJECT
 10
180.00000000004181
 20
-232.00000000017189
 30
0.0
 40
77.0
1001
ACDBBLOCKREPETAG
1070
     1
1071
       51
1005
126745
  0
ARC
  5
126746
  8
OBJECT
 10
180.00000000004181
 20
-232.00000000017189
 30
0.0
 40
80.0
 50
140.80503257377961
 51
39.194967426220252
1001
ACDBBLOCKREPETAG
1070
     1
1071
       52
1005
126746
  0
LINE
  5
126747
  8
OBJECT
 10
118.00000000004179
 20
-186.3381997728473
 30
0.0
 11
118.00000000004179
 21
-152.00000000017181
 31
0.0
1001
ACDBBLOCKREPETAG
1070
     1
1071
       53
1005
126747
  0
LINE
  5
126748
  8
OBJECT
 10
242.00000000004181
 20
-186.3381997728473
 30
0.0
 11
242.00000000004181
 21
-152.00000000017181
 31
0.0
1001
ACDBBLOCKREPETAG
1070
     1
1071
       54
1005
126748
  0
POINT
  5
126749
  8
DOTS
 10
180.00000000004181
 20
-232.00000000017189
 30
0.0
1001
ACDBBLOCKREPETAG
1070
     1
1071
       63
1005
126749
  0
CIRCLE
  5
12674A
  8
OBJECT
 10
180.00000000004181
 20
-232.00000000017189
 30
0.0
 40
53.5
1001
ACDBBLOCKREPETAG
1070
     1
1071
      157
1005
12674A
  0
LINE
  5
12674B
  8
SLIM
 10
4424.8586105144168
 20
-160.26624122769411
 30
0.0
 11
4450.4999999999991
 21
-134.62485174211079
 31
0.0
1001
GRADIENTCOLOR1ACI
1070
     5
1001
GRADIENTCOLOR2ACI
1070
     2
1001
ACAD
1010
0.0
1020
0.0
1030
0.0
  0
LINE
  5
12674C
  8
SLIM
 10
4418.6084340676753
 20
-175.4966737955055
 30
0.0
 11
4427.1385399004412
 21
-166.96656796273871
 31
0.0
1001
GRADIENTCOLOR1ACI
1070
     5
1001
GRADIENTCOLOR2ACI
1070
     2
1001
ACAD
1010
0.0
1020
0.0
1030
0.0
  0
LINE
  5
12674D
  8
SLIM
 10
4415.9844434040906
 20
-187.1009205801592
 30
0.0
 11
4422.3555558663202
 21
-180.7298081179288
 31
0.0
1001
GRADIENTCOLOR1ACI
1070
     5
1001
GRADIENTCOLOR2ACI
1070
     2
1001
ACAD
1010
0.0
1020
0.0
1030
0.0
  0
LINE
  5
12674E
  8
SLIM
 10
4415.0524951669204
 20
-197.01312493839851
 30
0.0
 11
4416.0656201053189
 21
-196.0
 31
0.0
1001
GRADIENTCOLOR1ACI
1070
     5
1001
GRADIENTCOLOR2ACI
1070
     2
1001
ACAD
1010
0.0
1020
0.0
1030
0.0
  0
LINE
  5
12674F
  8
SLIM
 10
4416.0656201053189
 20
-196.0
 30
0.0
 11
4420.4394650548311
 21
-191.6261550504878
 31
0.0
1001
GRADIENTCOLOR1ACI
1070
     5
1001
GRADIENTCOLOR2ACI
1070
     2
1001
ACAD
1010
0.0
1020
0.0
1030
0.0
  0
LINE
  5
126750
  8
SLIM
 10
4415.2011819161371
 20
-205.844694310249
 30
0.0
 11
4420.0067489441053
 21
-201.0391272822817
 31
0.0
1001
GRADIENTCOLOR1ACI
1070
     5
1001
GRADIENTCOLOR2ACI
1070
     2
1001
ACAD
1010
0.0
1020
0.0
1030
0.0
  0
LINE
  5
126751
  8
SLIM
 10
4416.141658771895
 20
-213.88447357556291
 30
0.0
 11
4420.56180678284
 21
-209.46432556461701
 31
0.0
1001
GRADIENTCOLOR1ACI
1070
     5
1001
GRADIENTCOLOR2ACI
1070
     2
1001
ACAD
1010
0.0
1020
0.0
1030
0.0
  0
LINE
  5
126752
  8
SLIM
 10
4417.710870111021
 20
-221.29551835750499
 30
0.0
 11
4419.006388468526
 21
-220.0
 31
0.0
1001
GRADIENTCOLOR1ACI
1070
     5
1001
GRADIENTCOLOR2ACI
1070
     2
1001
ACAD
1010
0.0
1020
0.0
1030
0.0
  0
LINE
  5
126753
  8
SLIM
 10
4419.006388468526
 20
-220.0
 30
0.0
 11
4421.8592561299583
 21
-217.14713233856759
 31
0.0
1001
GRADIENTCOLOR1ACI
1070
     5
1001
GRADIENTCOLOR2ACI
1070
     2
1001
ACAD
1010
0.0
1020
0.0
1030
0.0
  0
LINE
  5
126754
  8
SLIM
 10
4419.8070443755887
 20
-228.17960021400589
 30
0.0
 11
4423.7573519673751
 21
-224.22929262221899
 31
0.0
1001
GRADIENTCOLOR1ACI
1070
     5
1001
GRADIENTCOLOR2ACI
1070
     2
1001
ACAD
1010
0.0
1020
0.0
1030
0.0
  0
LINE
  5
126755
  8
SLIM
 10
4422.3627047135597
 20
-234.6041959971044
 30
0.0
 11
4424.9669007106631
 21
-232.00000000000091
 31
0.0
1001
GRADIENTCOLOR1ACI
1070
     5
1001
GRADIENTCOLOR2ACI
1070
     2
1001
ACAD
1010
0.0
1020
0.0
1030
0.0
  0
LINE
  5
126756
  8
SLIM
 10
4424.9669007106631
 20
-232.00000000000091
 30
0.0
 11
4426.1667408698477
 21
-230.80015984081541
 31
0.0
1001
GRADIENTCOLOR1ACI
1070
     5
1001
GRADIENTCOLOR2ACI
1070
     2
1001
ACAD
1010
0.0
1020
0.0
1030
0.0
  0
LINE
  5
126757
  8
SLIM
 10
4425.3315714414439
 20
-240.61558539028869
 30
0.0
 11
4429.0282267343791
 21
-236.91893009735381
 31
0.0
1001
GRADIENTCOLOR1ACI
1070
     5
1001
GRADIENTCOLOR2ACI
1070
     2
1001
ACAD
1010
0.0
1020
0.0
1030
0.0
  0
LINE
  5
126758
  8
SLIM
 10
4428.6815548937129
 20
-246.2458580590887
 30
0.0
 11
4432.3017508847952
 21
-242.6256620680056
 31
0.0
1001
GRADIENTCOLOR1ACI
1070
     5
1001
GRADIENTCOLOR2ACI
1070
     2
1001
ACAD
1010
0.0
1020
0.0
1030
0.0
  0
LINE
  5
126759
  8
SLIM
 10
4432.3907652629223
 20
-251.51690381094889
 30
0.0
 11
4435.960449022743
 21
-247.94722005112769
 31
0.0
1001
GRADIENTCOLOR1ACI
1070
     5
1001
GRADIENTCOLOR2ACI
1070
     2
1001
ACAD
1010
0.0
1020
0.0
1030
0.0
  0
LINE
  5
12675A
  8
SLIM
 10
4549.4999999999991
 20
-134.407669073872
 30
0.0
 11
4551.5169038109489
 21
-132.39076526292041
 31
0.0
1001
GRADIENTCOLOR1ACI
1070
     5
1001
GRADIENTCOLOR2ACI
1070
     2
1001
ACAD
1010
0.0
1020
0.0
1030
0.0
  0
LINE
  5
12675B
  8
SLIM
 10
4436.4451742931069
 20
-256.44275090183282
 30
0.0
 11
4439.987301360803
 21
-252.90062383413701
 31
0.0
1001
GRADIENTCOLOR1ACI
1070
     5
1001
GRADIENTCOLOR2ACI
1070
     2
1001
ACAD
1010
0.0
1020
0.0
1030
0.0
  0
LINE
  5
12675C
  8
SLIM
 10
4554.8879251949411
 20
-137.99999999999909
 30
0.0
 11
4556.4427509018342
 21
-136.44517429310599
 31
0.0
1001
GRADIENTCOLOR1ACI
1070
     5
1001
GRADIENTCOLOR2ACI
1070
     2
1001
ACAD
1010
0.0
1020
0.0
1030
0.0
  0
LINE
  5
12675D
  8
SLIM
 10
4440.8372731495638
 20
-261.03090816644323
 30
0.0
 11
4444.3732607963184
 21
-257.49492051969042
 31
0.0
1001
GRADIENTCOLOR1ACI
1070
     5
1001
GRADIENTCOLOR2ACI
1070
     2
1001
ACAD
1010
0.0
1020
0.0
1030
0.0
  0
LINE
  5
12675E
  8
SLIM
 10
4445.5654027321416
 20
-265.2830347049366
 30
0.0
 11
4449.1163342680156
 21
-261.73210316906221
 31
0.0
1001
GRADIENTCOLOR1ACI
1070
     5
1001
GRADIENTCOLOR2ACI
1070
     2
1001
ACAD
1010
0.0
1020
0.0
1030
0.0
  0
LINE
  5
12675F
  8
SLIM
 10
4450.6336102119212
 20
-269.19508334622702
 30
0.0
 11
4454.221387368174
 21
-265.60730618997422
 31
0.0
1001
GRADIENTCOLOR1ACI
1070
     5
1001
GRADIENTCOLOR2ACI
1070
     2
1001
ACAD
1010
0.0
1020
0.0
1030
0.0
  0
LINE
  5
126760
  8
SLIM
 10
4456.0520018449279
 20
-272.7569478342902
 30
0.0
 11
4459.7006257556995
 21
-269.10832392351767
 31
0.0
1001
GRADIENTCOLOR1ACI
1070
     5
1001
GRADIENTCOLOR2ACI
1070
     2
1001
ACAD
1010
0.0
1020
0.0
1030
0.0
  0
LINE
  5
126761
  8
SLIM
 10
4461.8376665887199
 20
-275.9515392115668
 30
0.0
 11
4465.5748693932528
 21
-272.21433640703441
 31
0.0
1001
GRADIENTCOLOR1ACI
1070
     5
1001
GRADIENTCOLOR2ACI
1070
     2
1001
ACAD
1010
0.0
1020
0.0
1030
0.0
  0
LINE
  5
126762
  8
SLIM
 10
4468.0163793697502
 20
-278.75308255160598
 30
0.0
 11
4471.8759515352549
 21
-274.89351038609948
 31
0.0
1001
GRADIENTCOLOR1ACI
1070
     5
1001
GRADIENTCOLOR2ACI
1070
     2
1001
ACAD
1010
0.0
1020
0.0
1030
0.0
  0
LINE
  5
126763
  8
SLIM
 10
4474.6255187948072
 20
-281.12419924761798
 30
0.0
 11
4478.6509600030768
 21
-277.09875803934762
 31
0.0
1001
GRADIENTCOLOR1ACI
1070
     5
1001
GRADIENTCOLOR2ACI
1070
     2
1001
ACAD
1010
0.0
1020
0.0
1030
0.0
  0
LINE
  5
126764
  8
SLIM
 10
4481.7190828919865
 20
-283.01089127150681
 30
0.0
 11
4485.9698622171827
 21
-278.76011194630968
 31
0.0
1001
GRADIENTCOLOR1ACI
1070
     5
1001
GRADIENTCOLOR2ACI
1070
     2
1001
ACAD
1010
0.0
1020
0.0
1030
0.0
  0
LINE
  5
126765
  8
SLIM
 10
4489.3766938558792
 20
-284.333536428684
 30
0.0
 11
4493.9400771270448
 21
-279.7701531575176
 31
0.0
1001
GRADIENTCOLOR1ACI
1070
     5
1001
GRADIENTCOLOR2ACI
1070
     2
1001
ACAD
1010
0.0
1020
0.0
1030
0.0
  0
LINE
  5
126766
  8
SLIM
 10
4497.7210427574209
 20
-284.96944364821047
 30
0.0
 11
4499.9999999999991
 21
-282.69048640563329
 31
0.0
1001
GRADIENTCOLOR1ACI
1070
     5
1001
GRADIENTCOLOR2ACI
1070
     2
1001
ACAD
1010
0.0
1020
0.0
1030
0.0
  0
LINE
  5
126767
  8
SLIM
 10
4499.9999999999991
 20
-282.69048640563329
 30
0.0
 11
4502.7373312610916
 21
-279.95315514453978
 31
0.0
1001
GRADIENTCOLOR1ACI
1070
     5
1001
GRADIENTCOLOR2ACI
1070
     2
1001
ACAD
1010
0.0
1020
0.0
1030
0.0
  0
LINE
  5
126768
  8
SLIM
 10
4506.9558298417924
 20
-284.7149126849099
 30
0.0
 11
4512.6824114987858
 21
-278.98833102791372
 31
0.0
1001
GRADIENTCOLOR1ACI
1070
     5
1001
GRADIENTCOLOR2ACI
1070
     2
1001
ACAD
1010
0.0
1020
0.0
1030
0.0
  0
LINE
  5
126769
  8
SLIM
 10
4517.4645176312806
 20
-283.18648101648711
 30
0.0
 11
4524.4924948954113
 21
-276.15850375235908
 31
0.0
1001
GRADIENTCOLOR1ACI
1070
     5
1001
GRADIENTCOLOR2ACI
1070
     2
1001
ACAD
1010
0.0
1020
0.0
1030
0.0
  0
LINE
  5
12676A
  8
SLIM
 10
4530.1631022713127
 20
-279.46815249752672
 30
0.0
 11
4540.8425463192989
 21
-268.78870844953872
 31
0.0
1001
GRADIENTCOLOR1ACI
1070
     5
1001
GRADIENTCOLOR2ACI
1070
     2
1001
ACAD
1010
0.0
1020
0.0
1030
0.0
  0
LINE
  5
12676B
  8
SLIM
 10
4549.5421817599126
 20
-269.069329129994
 30
0.0
 11
4556.6115108899112
 21
-261.99999999999909
 31
0.0
1001
GRADIENTCOLOR1ACI
1070
     5
1001
GRADIENTCOLOR2ACI
1070
     2
1001
ACAD
1010
0.0
1020
0.0
1030
0.0
  0
POLYLINE
  5
12676C
  8
HIDDEN
 66
     1
 10
0.0
 20
0.0
 30
0.0
 70
     1
1001
ACDBBLOCKREPETAG
1070
     1
1071
      105
1005
0
  0
VERTEX
  5
126AB3
  8
HIDDEN
 10
359.99999999987779
 20
-799.99999999999818
 30
0.0
  0
VERTEX
  5
126AB4
  8
HIDDEN
 10
719.99999999975603
 20
-799.99999999999818
 30
0.0
  0
VERTEX
  5
126AB5
  8
HIDDEN
 10
719.99999999975603
 20
-1263.9999999998399
 30
0.0
  0
VERTEX
  5
126AB6
  8
HIDDEN
 10
359.99999999987779
 20
-1263.9999999998399
 30
0.0
  0
SEQEND
  5
126AB7
  8
HIDDEN
  0
POLYLINE
  5
12676D
  8
HIDDEN
 66
     1
 10
0.0
 20
0.0
 30
0.0
 70
     1
1001
ACDBBLOCKREPETAG
1070
     1
1071
      110
1005
0
  0
VERTEX
  5
126AB8
  8
HIDDEN
 10
-0.0000000000002274
 20
-799.99999999999818
 30
0.0
  0
VERTEX
  5
126AB9
  8
HIDDEN
 10
359.99999999987779
 20
-799.99999999999818
 30
0.0
  0
VERTEX
  5
126ABA
  8
HIDDEN
 10
359.99999999987779
 20
-1263.9999999998399
 30
0.0
  0
VERTEX
  5
126ABB
  8
HIDDEN
 10
-0.0000000000002274
 20
-1263.9999999998399
 30
0.0
  0
SEQEND
  5
126ABC
  8
HIDDEN
  0
POLYLINE
  5
12676E
  8
HIDDEN
 66
     1
 10
0.0
 20
0.0
 30
0.0
 70
     1
1001
ACDBBLOCKREPETAG
1070
     1
1071
      125
1005
0
  0
VERTEX
  5
126ABD
  8
HIDDEN
 10
-0.0000000000002274
 20
-1263.9999999998399
 30
0.0
  0
VERTEX
  5
126ABE
  8
HIDDEN
 10
359.99999999987779
 20
-1263.9999999998399
 30
0.0
  0
VERTEX
  5
126ABF
  8
HIDDEN
 10
359.99999999987779
 20
-1727.999999999681
 30
0.0
  0
VERTEX
  5
126AC0
  8
HIDDEN
 10
-0.0000000000002274
 20
-1727.999999999681
 30
0.0
  0
SEQEND
  5
126AC1
  8
HIDDEN
  0
POLYLINE
  5
12676F
  8
HIDDEN
 66
     1
 10
0.0
 20
0.0
 30
0.0
 70
     1
1001
ACDBBLOCKREPETAG
1070
     1
1071
      110
1005
0
  0
VERTEX
  5
126AC2
  8
HIDDEN
 10
-0.0000000000002274
 20
0.0000000000009095
 30
0.0
  0
VERTEX
  5
126AC3
  8
HIDDEN
 10
359.99999999987779
 20
0.0000000000009095
 30
0.0
  0
VERTEX
  5
126AC4
  8
HIDDEN
 10
359.99999999987779
 20
-463.99999999984078
 30
0.0
  0
VERTEX
  5
126AC5
  8
HIDDEN
 10
-0.0000000000002274
 20
-463.99999999984078
 30
0.0
  0
SEQEND
  5
126AC6
  8
HIDDEN
  0
INSERT
  5
126770
  8
SLIM
  2
*U3
 10
0.0
 20
0.0
 30
0.0
  0
LINE
  5
126771
  8
OBJECT
 10
118.00000000004179
 20
-99.000000000171866
 30
0.0
 11
118.00000000004179
 21
-92.000000000171866
 31
0.0
1001
ACDBBLOCKREPETAG
1070
     1
1071
       39
1005
126771
  0
LINE
  5
126772
  8
OBJECT
 10
118.00000000004179
 20
-92.000000000171866
 30
0.0
 11
242.00000000004181
 21
-92.000000000171866
 31
0.0
1001
ACDBBLOCKREPETAG
1070
     1
1071
       40
1005
126772
  0
LINE
  5
126773
  8
OBJECT
 10
242.00000000004181
 20
-92.000000000171866
 30
0.0
 11
242.00000000004181
 21
-99.000000000171866
 31
0.0
1001
ACDBBLOCKREPETAG
1070
     1
1071
       41
1005
126773
  0
LINE
  5
126774
  8
OBJECT
 10
242.00000000004181
 20
-99.000000000171866
 30
0.0
 11
118.00000000004179
 21
-99.000000000171866
 31
0.0
1001
ACDBBLOCKREPETAG
1070
     1
1071
       42
1005
126774
  0
LINE
  5
126775
  8
OBJECT
 10
121.00000000004179
 20
-99.000000000171866
 30
0.0
 11
121.00000000004179
 21
-135.00000000017181
 31
0.0
1001
ACDBBLOCKREPETAG
1070
     1
1071
       43
1005
126775
  0
LINE
  5
126776
  8
OBJECT
 10
121.00000000004179
 20
-135.00000000017181
 30
0.0
 11
239.00000000004181
 21
-135.00000000017181
 31
0.0
1001
ACDBBLOCKREPETAG
1070
     1
1071
       44
1005
126776
  0
LINE
  5
126777
  8
OBJECT
 10
239.00000000004181
 20
-135.00000000017181
 30
0.0
 11
239.00000000004181
 21
-99.000000000171866
 31
0.0
1001
ACDBBLOCKREPETAG
1070
     1
1071
       45
1005
126777
  0
LINE
  5
126778
  8
OBJECT
 10
125.50000000004179
 20
-139.00000000017181
 30
0.0
 11
125.50000000004179
 21
-146.00000000017181
 31
0.0
1001
ACDBBLOCKREPETAG
1070
     1
1071
       46
1005
126778
  0
LINE
  5
126779
  8
OBJECT
 10
234.50000000004181
 20
-146.00000000017181
 30
0.0
 11
234.50000000004181
 21
-139.00000000017181
 31
0.0
1001
ACDBBLOCKREPETAG
1070
     1
1071
       47
1005
126779
  0
LINE
  5
12677A
  8
OBJECT
 10
234.50000000004181
 20
-139.00000000017181
 30
0.0
 11
125.50000000004179
 21
-139.00000000017181
 31
0.0
1001
ACDBBLOCKREPETAG
1070
     1
1071
       48
1005
12677A
  0
LINE
  5
12677B
  8
OBJECT
 10
121.00000000004179
 20
-135.00000000017181
 30
0.0
 11
125.50000000004179
 21
-139.00000000017181
 31
0.0
1001
ACDBBLOCKREPETAG
1070
     1
1071
       49
1005
12677B
  0
LINE
  5
12677C
  8
OBJECT
 10
239.00000000004181
 20
-135.00000000017181
 30
0.0
 11
234.50000000004181
 21
-139.00000000017181
 31
0.0
1001
ACDBBLOCKREPETAG
1070
     1
1071
       50
1005
12677C
  0
LINE
  5
12677D
  8
OBJECT
 10
118.00000000004179
 20
-149.00000000017101
 30
0.0
 11
118.00000000004179
 21
-152.00000000017181
 31
0.0
1001
ACDBBLOCKREPETAG
1070
     1
1071
       51
1005
12677D
  0
ARC
  5
12677E
  8
OBJECT
 10
121.00000000004179
 20
-149.00000000017101
 30
0.0
 40
3.0
 50
90.0
 51
180.0
1001
ACDBBLOCKREPETAG
1070
     1
1071
       52
1005
12677E
  0
LINE
  5
12677F
  8
OBJECT
 10
242.00000000004181
 20
-152.00000000017181
 30
0.0
 11
242.00000000004181
 21
-149.0000000001728
 31
0.0
1001
ACDBBLOCKREPETAG
1070
     1
1071
       53
1005
12677F
  0
ARC
  5
126780
  8
OBJECT
 10
239.00000000004181
 20
-149.0000000001728
 30
0.0
 40
3.0
 50
0.0
 51
90.0
1001
ACDBBLOCKREPETAG
1070
     1
1071
       54
1005
126780
  0
LINE
  5
126781
  8
OBJECT
 10
239.00000000004181
 20
-146.0000000001728
 30
0.0
 11
121.00000000004179
 21
-146.00000000017101
 31
0.0
1001
ACDBBLOCKREPETAG
1070
     1
1071
       55
1005
126781
  0
LINE
  5
126782
  8
HIDDEN
 10
135.50000000004181
 20
-144.00000000017189
 30
0.0
 11
224.50000000004181
 21
-144.00000000017189
 31
0.0
1001
ACDBBLOCKREPETAG
1070
     1
1071
      426
1005
126782
  0
LINE
  5
126783
  8
OBJECT
 10
81.999999999999787
 20
-1522.0
 30
0.0
 11
74.999999999999787
 21
-1522.0
 31
0.0
1001
ACDBBLOCKREPETAG
1070
     1
1071
       34
1005
126783
  0
LINE
  5
126784
  8
OBJECT
 10
74.999999999999787
 20
-1522.0
 30
0.0
 11
74.999999999999787
 21
-1398.0
 31
0.0
1001
ACDBBLOCKREPETAG
1070
     1
1071
       35
1005
126784
  0
LINE
  5
126785
  8
OBJECT
 10
74.999999999999787
 20
-1398.0
 30
0.0
 11
81.999999999999787
 21
-1398.0
 31
0.0
1001
ACDBBLOCKREPETAG
1070
     1
1071
       36
1005
126785
  0
LINE
  5
126786
  8
OBJECT
 10
81.999999999999787
 20
-1398.0
 30
0.0
 11
81.999999999999787
 21
-1522.0
 31
0.0
1001
ACDBBLOCKREPETAG
1070
     1
1071
       37
1005
126786
  0
LINE
  5
126787
  8
OBJECT
 10
81.999999999999787
 20
-1519.0
 30
0.0
 11
117.9999999999997
 21
-1519.0
 31
0.0
1001
ACDBBLOCKREPETAG
1070
     1
1071
       38
1005
126787
  0
LINE
  5
126788
  8
OBJECT
 10
117.9999999999997
 20
-1519.0
 30
0.0
 11
117.9999999999997
 21
-1401.0
 31
0.0
1001
ACDBBLOCKREPETAG
1070
     1
1071
       39
1005
126788
  0
LINE
  5
126789
  8
OBJECT
 10
117.9999999999997
 20
-1401.0
 30
0.0
 11
81.999999999999787
 21
-1401.0
 31
0.0
1001
ACDBBLOCKREPETAG
1070
     1
1071
       40
1005
126789
  0
LINE
  5
12678A
  8
OBJECT
 10
121.9999999999997
 20
-1514.5
 30
0.0
 11
132.49999999999969
 21
-1514.5
 31
0.0
1001
ACDBBLOCKREPETAG
1070
     1
1071
       41
1005
12678A
  0
LINE
  5
12678B
  8
OBJECT
 10
132.49999999999969
 20
-1405.5
 30
0.0
 11
121.9999999999997
 21
-1405.5
 31
0.0
1001
ACDBBLOCKREPETAG
1070
     1
1071
       42
1005
12678B
  0
LINE
  5
12678C
  8
OBJECT
 10
121.9999999999997
 20
-1405.5
 30
0.0
 11
121.9999999999997
 21
-1514.5
 31
0.0
1001
ACDBBLOCKREPETAG
1070
     1
1071
       43
1005
12678C
  0
LINE
  5
12678D
  8
OBJECT
 10
117.9999999999997
 20
-1519.0
 30
0.0
 11
121.9999999999997
 21
-1514.5
 31
0.0
1001
ACDBBLOCKREPETAG
1070
     1
1071
       44
1005
12678D
  0
LINE
  5
12678E
  8
OBJECT
 10
117.9999999999997
 20
-1401.0
 30
0.0
 11
121.9999999999997
 21
-1405.5
 31
0.0
1001
ACDBBLOCKREPETAG
1070
     1
1071
       45
1005
12678E
  0
LINE
  5
12678F
  8
OBJECT
 10
137.4999999999998
 20
-1509.5
 30
0.0
 11
158.65508008702159
 21
-1509.4999999999991
 31
0.0
1001
ACDBBLOCKREPETAG
1070
     1
1071
       46
1005
12678F
  0
LINE
  5
126790
  8
OBJECT
 10
137.4999999999998
 20
-1410.5
 30
0.0
 11
158.6550800870225
 21
-1410.5
 31
0.0
1001
ACDBBLOCKREPETAG
1070
     1
1071
       47
1005
126790
  0
LINE
  5
126791
  8
OBJECT
 10
132.49999999999969
 20
-1514.5
 30
0.0
 11
132.49999999999969
 21
-1405.5
 31
0.0
1001
ACDBBLOCKREPETAG
1070
     1
1071
       48
1005
126791
  0
LINE
  5
126792
  8
OBJECT
 10
137.4999999999998
 20
-1509.5
 30
0.0
 11
137.4999999999998
 21
-1410.5
 31
0.0
1001
ACDBBLOCKREPETAG
1070
     1
1071
       49
1005
126792
  0
LINE
  5
126793
  8
OBJECT
 10
132.49999999999969
 20
-1514.5
 30
0.0
 11
137.4999999999998
 21
-1509.5
 31
0.0
1001
ACDBBLOCKREPETAG
1070
     1
1071
       50
1005
126793
  0
LINE
  5
126794
  8
OBJECT
 10
137.4999999999998
 20
-1410.5
 30
0.0
 11
132.49999999999969
 21
-1405.5000000000041
 31
0.0
1001
ACDBBLOCKREPETAG
1070
     1
1071
       51
1005
126794
  0
INSERT
  5
126795
  8
SLIM
  2
*U4
 10
0.0
 20
0.0
 30
0.0
  0
LINE
  5
126796
  8
HIDDEN
 10
126.9999999999997
 20
-1504.5
 30
0.0
 11
126.9999999999998
 21
-1415.5
 31
0.0
1001
ACDBBLOCKREPETAG
1070
     1
1071
       65
1005
126796
  0
CIRCLE
  5
126797
  8
OBJECT
 10
214.9999999999998
 20
-1460.0
 30
0.0
 40
70.0
1001
ACDBBLOCKREPETAG
1070
     1
1071
       50
1005
126797
  0
CIRCLE
  5
126798
  8
OBJECT
 10
214.9999999999998
 20
-1460.0
 30
0.0
 40
75.0
1001
ACDBBLOCKREPETAG
1070
     1
1071
       51
1005
126798
  0
POINT
  5
126799
  8
DOTS
 10
214.9999999999998
 20
-1460.0
 30
0.0
1001
ACDBBLOCKREPETAG
1070
     1
1071
       63
1005
126799
  0
CIRCLE
  5
12679A
  8
OBJECT
 10
214.9999999999998
 20
-1460.0
 30
0.0
 40
55.0
1001
ACDBBLOCKREPETAG
1070
     1
1071
       50
1005
126797
  0
LINE
  5
12679B
  8
OBJECT
 10
441.99999999999977
 20
-1051.0
 30
0.0
 11
434.9999999999996
 21
-1051.0
 31
0.0
1001
ACDBBLOCKREPETAG
1070
     1
1071
       18
1005
12679B
  0
LINE
  5
12679C
  8
OBJECT
 10
434.9999999999996
 20
-1051.0
 30
0.0
 11
434.9999999999996
 21
-941.0
 31
0.0
1001
ACDBBLOCKREPETAG
1070
     1
1071
       19
1005
12679C
  0
LINE
  5
12679D
  8
OBJECT
 10
434.9999999999996
 20
-941.0
 30
0.0
 11
441.99999999999977
 21
-941.0
 31
0.0
1001
ACDBBLOCKREPETAG
1070
     1
1071
       20
1005
12679D
  0
LINE
  5
12679E
  8
OBJECT
 10
441.99999999999977
 20
-941.0
 30
0.0
 11
441.99999999999977
 21
-1051.0
 31
0.0
1001
ACDBBLOCKREPETAG
1070
     1
1071
       21
1005
12679E
  0
LINE
  5
12679F
  8
OBJECT
 10
441.99999999999977
 20
-1048.0
 30
0.0
 11
477.99999999999972
 21
-1048.0
 31
0.0
1001
ACDBBLOCKREPETAG
1070
     1
1071
       22
1005
12679F
  0
LINE
  5
1267A0
  8
OBJECT
 10
477.99999999999972
 20
-1048.0
 30
0.0
 11
477.99999999999972
 21
-944.0
 31
0.0
1001
ACDBBLOCKREPETAG
1070
     1
1071
       23
1005
1267A0
  0
LINE
  5
1267A1
  8
OBJECT
 10
477.99999999999972
 20
-944.0
 30
0.0
 11
441.99999999999977
 21
-944.0
 31
0.0
1001
ACDBBLOCKREPETAG
1070
     1
1071
       24
1005
1267A1
  0
LINE
  5
1267A2
  8
OBJECT
 10
481.99999999999972
 20
-1043.5
 30
0.0
 11
490.49999999999972
 21
-1043.5
 31
0.0
1001
ACDBBLOCKREPETAG
1070
     1
1071
       25
1005
1267A2
  0
LINE
  5
1267A3
  8
OBJECT
 10
490.49999999999972
 20
-948.49999999999989
 30
0.0
 11
481.99999999999972
 21
-948.49999999999989
 31
0.0
1001
ACDBBLOCKREPETAG
1070
     1
1071
       26
1005
1267A3
  0
LINE
  5
1267A4
  8
OBJECT
 10
481.99999999999972
 20
-948.49999999999989
 30
0.0
 11
481.99999999999972
 21
-1043.5
 31
0.0
1001
ACDBBLOCKREPETAG
1070
     1
1071
       27
1005
1267A4
  0
LINE
  5
1267A5
  8
OBJECT
 10
477.99999999999972
 20
-1048.0
 30
0.0
 11
481.99999999999972
 21
-1043.5
 31
0.0
1001
ACDBBLOCKREPETAG
1070
     1
1071
       28
1005
1267A5
  0
LINE
  5
1267A6
  8
OBJECT
 10
477.99999999999972
 20
-944.0
 30
0.0
 11
481.99999999999972
 21
-948.49999999999989
 31
0.0
1001
ACDBBLOCKREPETAG
1070
     1
1071
       29
1005
1267A6
  0
LINE
  5
1267A7
  8
OBJECT
 10
490.50000000000159
 20
-946.49999999999989
 30
0.0
 11
490.49999999999972
 21
-1045.5
 31
0.0
1001
ACDBBLOCKREPETAG
1070
     1
1071
       30
1005
1267A7
  0
LINE
  5
1267A8
  8
OBJECT
 10
490.49999999999972
 20
-1045.5
 30
0.0
 11
518.65508008702068
 21
-1045.4999999999991
 31
0.0
1001
ACDBBLOCKREPETAG
1070
     1
1071
       31
1005
1267A8
  0
LINE
  5
1267A9
  8
OBJECT
 10
490.50000000000159
 20
-946.49999999999989
 30
0.0
 11
518.65508008702147
 21
-946.49999999999875
 31
0.0
1001
ACDBBLOCKREPETAG
1070
     1
1071
       32
1005
1267A9
  0
INSERT
  5
1267AA
  8
SLIM
  2
*U5
 10
0.0
 20
0.0
 30
0.0
  0
LINE
  5
1267AB
  8
HIDDEN
 10
486.99999999999972
 20
-1034.0
 30
0.0
 11
486.99999999999972
 21
-958.0
 31
0.0
1001
ACDBBLOCKREPETAG
1070
     1
1071
       57
1005
1267AB
  0
CIRCLE
  5
1267AC
  8
OBJECT
 10
574.99999999999977
 20
-996.0
 30
0.0
 40
70.0
1001
ACDBBLOCKREPETAG
1070
     1
1071
       50
1005
1267AC
  0
CIRCLE
  5
1267AD
  8
OBJECT
 10
574.99999999999977
 20
-996.0
 30
0.0
 40
75.0
1001
ACDBBLOCKREPETAG
1070
     1
1071
       51
1005
1267AD
  0
POINT
  5
1267AE
  8
DOTS
 10
574.99999999999977
 20
-996.0
 30
0.0
1001
ACDBBLOCKREPETAG
1070
     1
1071
       63
1005
1267AE
  0
CIRCLE
  5
1267AF
  8
OBJECT
 10
574.99999999999977
 20
-996.0
 30
0.0
 40
55.0
1001
ACDBBLOCKREPETAG
1070
     1
1071
       50
1005
1267AC
  0
LINE
  5
1267B0
  8
OBJECT
 10
81.999999999999787
 20
-1043.0
 30
0.0
 11
74.999999999999787
 21
-1043.0
 31
0.0
1001
ACDBBLOCKREPETAG
1070
     1
1071
        0
1005
1267B0
  0
LINE
  5
1267B1
  8
OBJECT
 10
74.999999999999787
 20
-1043.0
 30
0.0
 11
74.999999999999787
 21
-949.0
 31
0.0
1001
ACDBBLOCKREPETAG
1070
     1
1071
        1
1005
1267B1
  0
LINE
  5
1267B2
  8
OBJECT
 10
74.999999999999787
 20
-949.0
 30
0.0
 11
81.999999999999787
 21
-949.0
 31
0.0
1001
ACDBBLOCKREPETAG
1070
     1
1071
        2
1005
1267B2
  0
LINE
  5
1267B3
  8
OBJECT
 10
81.999999999999787
 20
-949.0
 30
0.0
 11
81.999999999999787
 21
-1043.0
 31
0.0
1001
ACDBBLOCKREPETAG
1070
     1
1071
        3
1005
1267B3
  0
LINE
  5
1267B4
  8
OBJECT
 10
81.999999999999787
 20
-1040.0
 30
0.0
 11
117.9999999999997
 21
-1040.0
 31
0.0
1001
ACDBBLOCKREPETAG
1070
     1
1071
        4
1005
1267B4
  0
LINE
  5
1267B5
  8
OBJECT
 10
117.9999999999997
 20
-1040.0
 30
0.0
 11
117.9999999999997
 21
-952.0
 31
0.0
1001
ACDBBLOCKREPETAG
1070
     1
1071
        5
1005
1267B5
  0
LINE
  5
1267B6
  8
OBJECT
 10
117.9999999999997
 20
-952.0
 30
0.0
 11
81.999999999999787
 21
-952.0
 31
0.0
1001
ACDBBLOCKREPETAG
1070
     1
1071
        6
1005
1267B6
  0
LINE
  5
1267B7
  8
OBJECT
 10
121.9999999999997
 20
-1035.5
 30
0.0
 11
130.49999999999881
 21
-1035.5
 31
0.0
1001
ACDBBLOCKREPETAG
1070
     1
1071
        7
1005
1267B7
  0
LINE
  5
1267B8
  8
OBJECT
 10
130.49999999999969
 20
-956.49999999999989
 30
0.0
 11
121.9999999999997
 21
-956.49999999999989
 31
0.0
1001
ACDBBLOCKREPETAG
1070
     1
1071
        8
1005
1267B8
  0
LINE
  5
1267B9
  8
OBJECT
 10
121.9999999999997
 20
-956.49999999999989
 30
0.0
 11
121.9999999999997
 21
-1035.5
 31
0.0
1001
ACDBBLOCKREPETAG
1070
     1
1071
        9
1005
1267B9
  0
LINE
  5
1267BA
  8
OBJECT
 10
117.9999999999997
 20
-1040.0
 30
0.0
 11
121.9999999999997
 21
-1035.5
 31
0.0
1001
ACDBBLOCKREPETAG
1070
     1
1071
       10
1005
1267BA
  0
LINE
  5
1267BB
  8
OBJECT
 10
117.9999999999997
 20
-952.0
 30
0.0
 11
121.9999999999997
 21
-956.49999999999989
 31
0.0
1001
ACDBBLOCKREPETAG
1070
     1
1071
       11
1005
1267BB
  0
LINE
  5
1267BC
  8
OBJECT
 10
130.50000000000071
 20
-949.5
 30
0.0
 11
130.49999999999881
 21
-1042.5
 31
0.0
1001
ACDBBLOCKREPETAG
1070
     1
1071
       12
1005
1267BC
  0
ARC
  5
1267BD
  8
OBJECT
 10
133.49999999999881
 20
-1042.5
 30
0.0
 40
3.0
 50
180.0
 51
270.0
1001
ACDBBLOCKREPETAG
1070
     1
1071
       13
1005
1267BD
  0
LINE
  5
1267BE
  8
OBJECT
 10
133.49999999999881
 20
-1045.5
 30
0.0
 11
158.65508008702159
 21
-1045.5
 31
0.0
1001
ACDBBLOCKREPETAG
1070
     1
1071
       15
1005
1267BE
  0
LINE
  5
1267BF
  8
OBJECT
 10
133.50000000000071
 20
-946.49999999999989
 30
0.0
 11
158.65508008702059
 21
-946.5000000000008
 31
0.0
1001
ACDBBLOCKREPETAG
1070
     1
1071
       16
1005
1267BF
  0
ARC
  5
1267C0
  8
OBJECT
 10
133.50000000000071
 20
-949.5
 30
0.0
 40
3.0
 50
90.0
 51
180.0
1001
ACDBBLOCKREPETAG
1070
     1
1071
       17
1005
1267C0
  0
INSERT
  5
1267C1
  8
SLIM
  2
*U6
 10
0.0
 20
0.0
 30
0.0
  0
LINE
  5
1267C2
  8
HIDDEN
 10
126.9999999999998
 20
-1026.0
 30
0.0
 11
126.9999999999998
 21
-966.0
 31
0.0
1001
ACDBBLOCKREPETAG
1070
     1
1071
       56
1005
1267C2
  0
CIRCLE
  5
1267C3
  8
OBJECT
 10
214.9999999999998
 20
-996.0
 30
0.0
 40
70.0
1001
ACDBBLOCKREPETAG
1070
     1
1071
       50
1005
1267C3
  0
CIRCLE
  5
1267C4
  8
OBJECT
 10
214.9999999999998
 20
-996.0
 30
0.0
 40
75.0
1001
ACDBBLOCKREPETAG
1070
     1
1071
       51
1005
1267C4
  0
POINT
  5
1267C5
  8
DOTS
 10
214.9999999999998
 20
-996.0
 30
0.0
1001
ACDBBLOCKREPETAG
1070
     1
1071
       63
1005
1267C5
  0
CIRCLE
  5
1267C6
  8
OBJECT
 10
214.9999999999998
 20
-996.0
 30
0.0
 40
55.0
1001
ACDBBLOCKREPETAG
1070
     1
1071
       50
1005
1267C3
  0
TEXT
  5
1267C7
  8
SLIM
 10
97.714285714224999
 20
-1707.9999999996919
 30
0.0
 40
48.0
  1
A0003
 41
0.75
1001
ACDBBLOCKREPETAG
1070
     1
1071
      119
1005
0
  0
TEXT
  5
1267C8
  8
SLIM
 10
457.71428571410308
 20
-1243.9999999998499
 30
0.0
 40
48.0
  1
A0002
 41
0.75
1001
ACDBBLOCKREPETAG
1070
     1
1071
      119
1005
0
  0
TEXT
  5
1267C9
  8
SLIM
 10
105.42857142851059
 20
-1243.9999999998499
 30
0.0
 40
48.0
  1
A0001
 41
0.75
1001
ACDBBLOCKREPETAG
1070
     1
1071
      119
1005
0
  0
TEXT
  5
1267CA
  8
SLIM
 10
0.000003566523219
 20
-775.9999954146823
 30
0.0
 40
79.999999999972701
  1
下部枝管バリエーション
 41
0.75
1001
ACDBBLOCKREPETAG
1070
     1
1071
      119
1005
120BCB
  0
LINE
  5
1267CB
  8
OBJECT
 10
4633.0
 20
-137.99999999999909
 30
0.0
 11
4640.0
 21
-137.99999999999909
 31
0.0
1001
ACDBBLOCKREPETAG
1070
     1
1071
       47
1005
1267CB
  0
LINE
  5
1267CC
  8
OBJECT
 10
4640.0
 20
-137.99999999999909
 30
0.0
 11
4640.0
 21
-261.99999999999909
 31
0.0
1001
ACDBBLOCKREPETAG
1070
     1
1071
       48
1005
1267CC
  0
LINE
  5
1267CD
  8
OBJECT
 10
4640.0
 20
-261.99999999999909
 30
0.0
 11
4633.0
 21
-261.99999999999909
 31
0.0
1001
ACDBBLOCKREPETAG
1070
     1
1071
       49
1005
1267CD
  0
LINE
  5
1267CE
  8
OBJECT
 10
4633.0
 20
-261.99999999999909
 30
0.0
 11
4633.0
 21
-137.99999999999909
 31
0.0
1001
ACDBBLOCKREPETAG
1070
     1
1071
       50
1005
1267CE
  0
LINE
  5
1267CF
  8
CENTER
 10
4655.0
 20
-199.99999999999909
 30
0.0
 11
4580.0
 21
-199.99999999999909
 31
0.0
1001
ACDBBLOCKREPETAG
1070
     1
1071
       51
1005
1267CF
  0
LINE
  5
1267D0
  8
OBJECT
 10
4633.0
 20
-140.99999999999909
 30
0.0
 11
4597.0
 21
-140.99999999999909
 31
0.0
1001
ACDBBLOCKREPETAG
1070
     1
1071
       52
1005
1267D0
  0
LINE
  5
1267D1
  8
OBJECT
 10
4597.0
 20
-140.99999999999909
 30
0.0
 11
4597.0
 21
-258.99999999999909
 31
0.0
1001
ACDBBLOCKREPETAG
1070
     1
1071
       53
1005
1267D1
  0
LINE
  5
1267D2
  8
OBJECT
 10
4597.0
 20
-258.99999999999909
 30
0.0
 11
4633.0
 21
-258.99999999999909
 31
0.0
1001
ACDBBLOCKREPETAG
1070
     1
1071
       54
1005
1267D2
  0
LINE
  5
1267D3
  8
OBJECT
 10
4593.0
 20
-145.49999999999909
 30
0.0
 11
4586.0
 21
-145.49999999999909
 31
0.0
1001
ACDBBLOCKREPETAG
1070
     1
1071
       55
1005
1267D3
  0
LINE
  5
1267D4
  8
OBJECT
 10
4586.0
 20
-254.49999999999909
 30
0.0
 11
4593.0
 21
-254.49999999999909
 31
0.0
1001
ACDBBLOCKREPETAG
1070
     1
1071
       56
1005
1267D4
  0
LINE
  5
1267D5
  8
OBJECT
 10
4593.0
 20
-254.49999999999909
 30
0.0
 11
4593.0
 21
-145.49999999999909
 31
0.0
1001
ACDBBLOCKREPETAG
1070
     1
1071
       57
1005
1267D5
  0
LINE
  5
1267D6
  8
OBJECT
 10
4597.0
 20
-140.99999999999909
 30
0.0
 11
4593.0
 21
-145.49999999999909
 31
0.0
1001
ACDBBLOCKREPETAG
1070
     1
1071
       58
1005
1267D6
  0
LINE
  5
1267D7
  8
OBJECT
 10
4597.0
 20
-258.99999999999909
 30
0.0
 11
4593.0
 21
-254.49999999999909
 31
0.0
1001
ACDBBLOCKREPETAG
1070
     1
1071
       59
1005
1267D7
  0
LINE
  5
1267D8
  8
OBJECT
 10
4583.0
 20
-137.99999999999909
 30
0.0
 11
4580.0
 21
-137.99999999999909
 31
0.0
1001
ACDBBLOCKREPETAG
1070
     1
1071
       60
1005
1267D8
  0
ARC
  5
1267D9
  8
OBJECT
 10
4583.0
 20
-140.99999999999909
 30
0.0
 40
3.0
 50
0.0
 51
90.0
1001
ACDBBLOCKREPETAG
1070
     1
1071
       61
1005
1267D9
  0
LINE
  5
1267DA
  8
OBJECT
 10
4580.0
 20
-261.99999999999909
 30
0.0
 11
4583.0
 21
-261.99999999999909
 31
0.0
1001
ACDBBLOCKREPETAG
1070
     1
1071
       62
1005
1267DA
  0
ARC
  5
1267DB
  8
OBJECT
 10
4583.0
 20
-258.99999999999909
 30
0.0
 40
3.0
 50
270.0
 51
0.0
1001
ACDBBLOCKREPETAG
1070
     1
1071
       63
1005
1267DB
  0
LINE
  5
1267DC
  8
OBJECT
 10
4586.0
 20
-258.99999999999909
 30
0.0
 11
4586.0
 21
-140.99999999999909
 31
0.0
1001
ACDBBLOCKREPETAG
1070
     1
1071
       64
1005
1267DC
  0
LINE
  5
1267DD
  8
HIDDEN
 10
4588.0
 20
-155.49999999999909
 30
0.0
 11
4588.0
 21
-244.49999999999909
 31
0.0
1001
ACDBBLOCKREPETAG
1070
     1
1071
       65
1005
1267DD
  0
LINE
  5
1267DE
  8
DIM
 10
4404.9999999999936
 20
-1135.9999999999991
 30
0.0
 11
4333.1164560757752
 21
-1135.9999999999991
 31
0.0
  0
LINE
  5
1267DF
  8
DIM
 10
4410.0
 20
-1376.0
 30
0.0
 11
4333.1164560757752
 21
-1376.0
 31
0.0
  0
LINE
  5
1267E0
  8
DIM
 10
4343.1164560757752
 20
-1155.9999999999991
 30
0.0
 11
4343.1164560757752
 21
-1356.0
 31
0.0
  0
INSERT
  5
1267E1
  8
DIM
  2
_OPEN30
 10
4343.1164560757752
 20
-1135.9999999999991
 30
0.0
 41
20.0
 42
20.0
 43
20.0
 50
90.0
  0
INSERT
  5
1267E2
  8
DIM
  2
_OPEN30
 10
4343.1164560757752
 20
-1376.0
 30
0.0
 41
20.0
 42
20.0
 43
20.0
 50
270.0
  0
INSERT
  5
1267E3
  8
SLIM
  2
*U7
 10
0.0
 20
0.0
 30
0.0
  0
LINE
  5
1267E4
  8
DIM
 10
4665.0
 20
-696.0
 30
0.0
 11
4719.4245816727571
 21
-696.0
 31
0.0
  0
LINE
  5
1267E5
  8
DIM
 10
4595.0000000000064
 20
-1136.0000000000041
 30
0.0
 11
4719.4245816727571
 21
-1136.0000000000041
 31
0.0
  0
LINE
  5
1267E6
  8
DIM
 10
4709.4245816727562
 20
-716.0
 30
0.0
 11
4709.4245816727562
 21
-1116.0000000000041
 31
0.0
  0
INSERT
  5
1267E7
  8
DIM
  2
_OPEN30
 10
4709.4245816727562
 20
-696.0
 30
0.0
 41
20.0
 42
20.0
 43
20.0
 50
90.0
  0
INSERT
  5
1267E8
  8
DIM
  2
_OPEN30
 10
4709.4245816727562
 20
-1136.0000000000041
 30
0.0
 41
20.0
 42
20.0
 43
20.0
 50
270.0
  0
INSERT
  5
1267E9
  8
SLIM
  2
*U8
 10
0.0
 20
0.0
 30
0.0
  0
LINE
  5
1267EA
  8
OBJECT
 10
5075.0
 20
-890.0
 30
0.0
 11
5075.0
 21
-1027.500000000065
 31
0.0
1001
ACDBBLOCKREPETAG
1070
     1
1071
        1
1005
1267EA
  0
LINE
  5
1267EB
  8
OBJECT
 10
4925.0
 20
-889.99999999999409
 30
0.0
 11
4925.0
 21
-1163.0
 31
0.0
1001
ACDBBLOCKREPETAG
1070
     1
1071
        3
1005
1267EB
  0
LINE
  5
1267EC
  8
CENTER
 10
5000.0
 20
-890.0
 30
0.0
 11
5000.0
 21
-1175.0
 31
0.0
1001
ACDBBLOCKREPETAG
1070
     1
1071
        6
1005
1267EC
  0
LINE
  5
1267ED
  8
OBJECT
 10
4920.0
 20
-1175.0
 30
0.0
 11
5080.0
 21
-1175.0
 31
0.0
1001
ACDBBLOCKREPETAG
1070
     1
1071
        7
1005
1267ED
  0
LINE
  5
1267EE
  8
OBJECT
 10
4920.0
 20
-1163.0
 30
0.0
 11
5080.0
 21
-1163.0
 31
0.0
1001
ACDBBLOCKREPETAG
1070
     1
1071
        8
1005
1267EE
  0
LINE
  5
1267EF
  8
OBJECT
 10
4920.0
 20
-1163.0
 30
0.0
 11
4920.0
 21
-1175.0
 31
0.0
1001
ACDBBLOCKREPETAG
1070
     1
1071
        9
1005
1267EF
  0
LINE
  5
1267F0
  8
OBJECT
 10
5080.0
 20
-1163.0
 30
0.0
 11
5080.0
 21
-1175.0
 31
0.0
1001
ACDBBLOCKREPETAG
1070
     1
1071
       10
1005
1267F0
  0
LINE
  5
1267F1
  8
OBJECT
 10
5133.0
 20
-1029.0
 30
0.0
 11
5140.0
 21
-1029.0
 31
0.0
1001
ACDBBLOCKREPETAG
1070
     1
1071
       23
1005
1267F1
  0
LINE
  5
1267F2
  8
OBJECT
 10
5140.0
 20
-1029.0
 30
0.0
 11
5140.0
 21
-1136.0
 31
0.0
1001
ACDBBLOCKREPETAG
1070
     1
1071
       24
1005
1267F2
  0
LINE
  5
1267F3
  8
OBJECT
 10
5084.5
 20
-1030.500000000065
 30
0.0
 11
5084.5
 21
-1133.5
 31
0.0
1001
ACDBBLOCKREPETAG
1070
     1
1071
       25
1005
1267F3
  0
ARC
  5
1267F4
  8
OBJECT
 10
5081.5
 20
-1030.500000000065
 30
0.0
 40
3.0
 50
0.0
 51
90.0
1001
ACDBBLOCKREPETAG
1070
     1
1071
       26
1005
1267F4
  0
LINE
  5
1267F5
  8
OBJECT
 10
5133.0
 20
-1136.0
 30
0.0
 11
5133.0
 21
-1029.0
 31
0.0
1001
ACDBBLOCKREPETAG
1070
     1
1071
       27
1005
1267F5
  0
LINE
  5
1267F6
  8
CENTER
 10
5155.0
 20
-1084.0
 30
0.0
 11
5041.3449199130037
 21
-1084.000000000065
 31
0.0
1001
ACDBBLOCKREPETAG
1070
     1
1071
       28
1005
1267F6
  0
LINE
  5
1267F7
  8
OBJECT
 10
5133.0
 20
-1032.0
 30
0.0
 11
5097.0
 21
-1032.0
 31
0.0
1001
ACDBBLOCKREPETAG
1070
     1
1071
       29
1005
1267F7
  0
LINE
  5
1267F8
  8
OBJECT
 10
5097.0
 20
-1032.0
 30
0.0
 11
5097.0
 21
-1136.0
 31
0.0
1001
ACDBBLOCKREPETAG
1070
     1
1071
       30
1005
1267F8
  0
LINE
  5
1267F9
  8
OBJECT
 10
5097.0
 20
-1136.0
 30
0.0
 11
5140.0
 21
-1136.0
 31
0.0
1001
ACDBBLOCKREPETAG
1070
     1
1071
       31
1005
1267F9
  0
LINE
  5
1267FA
  8
OBJECT
 10
5093.0
 20
-1036.5
 30
0.0
 11
5084.5
 21
-1036.5
 31
0.0
1001
ACDBBLOCKREPETAG
1070
     1
1071
       32
1005
1267FA
  0
LINE
  5
1267FB
  8
OBJECT
 10
5084.5
 20
-1131.5
 30
0.0
 11
5093.0
 21
-1131.5
 31
0.0
1001
ACDBBLOCKREPETAG
1070
     1
1071
       33
1005
1267FB
  0
LINE
  5
1267FC
  8
OBJECT
 10
5093.0
 20
-1131.5
 30
0.0
 11
5093.0
 21
-1036.5
 31
0.0
1001
ACDBBLOCKREPETAG
1070
     1
1071
       34
1005
1267FC
  0
LINE
  5
1267FD
  8
OBJECT
 10
5097.0
 20
-1032.0
 30
0.0
 11
5093.0
 21
-1036.5
 31
0.0
1001
ACDBBLOCKREPETAG
1070
     1
1071
       35
1005
1267FD
  0
LINE
  5
1267FE
  8
OBJECT
 10
5097.0
 20
-1136.0
 30
0.0
 11
5093.0
 21
-1131.5
 31
0.0
1001
ACDBBLOCKREPETAG
1070
     1
1071
       36
1005
1267FE
  0
LINE
  5
1267FF
  8
HIDDEN
 10
5088.0
 20
-1046.0
 30
0.0
 11
5088.0
 21
-1122.0
 31
0.0
1001
ACDBBLOCKREPETAG
1070
     1
1071
       37
1005
1267FF
  0
ARC
  5
126800
  8
OBJECT
 10
5164.8782728787728
 20
-1092.409507261229
 30
0.0
 40
110.86635228309
 50
144.1634274193047
 51
163.04035380434561
1001
ACDBBLOCKREPETAG
1070
     1
1071
       38
1005
126800
  0
ARC
  5
126801
  8
OBJECT
 10
5117.1359887769049
 20
-1077.287749718449
 30
0.0
 40
60.791749880358971
 50
163.54720465221311
 51
179.72879698282651
1001
ACDBBLOCKREPETAG
1070
     1
1071
       39
1005
126801
  0
ARC
  5
126802
  8
OBJECT
 10
5117.1359956562483
 20
-1083.7122497599
 30
0.0
 40
60.79175676209487
 50
180.2712034781452
 51
196.45277946052011
1001
ACDBBLOCKREPETAG
1070
     1
1071
       40
1005
126802
  0
ARC
  5
126803
  8
OBJECT
 10
5164.8782728787728
 20
-1068.590492738836
 30
0.0
 40
110.8663522830916
 50
196.95964619565439
 51
215.8365725806953
1001
ACDBBLOCKREPETAG
1070
     1
1071
       41
1005
126803
  0
LINE
  5
126804
  8
OBJECT
 10
5056.3449199130046
 20
-1077.0000000000359
 30
0.0
 11
5056.3449199130046
 21
-1084.000000000033
 31
0.0
1001
ACDBBLOCKREPETAG
1070
     1
1071
       42
1005
126804
  0
LINE
  5
126805
  8
OBJECT
 10
5075.0
 20
-1027.500000000065
 30
0.0
 11
5081.5
 21
-1027.500000000065
 31
0.0
1001
ACDBBLOCKREPETAG
1070
     1
1071
       43
1005
126805
  0
LINE
  5
126806
  8
OBJECT
 10
5075.0
 20
-1133.5
 30
0.0
 11
5084.5
 21
-1133.5
 31
0.0
1001
ACDBBLOCKREPETAG
1070
     1
1071
       44
1005
126806
  0
LINE
  5
126807
  8
OBJECT
 10
5075.0
 20
-1133.5
 30
0.0
 11
5075.0
 21
-1163.0
 31
0.0
1001
ACDBBLOCKREPETAG
1070
     1
1071
        1
1005
1267EA
  0
POINT
  5
126808
  8
DOTS
 10
5000.0
 20
-1136.0
 30
0.0
  0
LINE
  5
126809
  8
OBJECT
 10
4425.0
 20
-890.0
 30
0.0
 11
4425.0
 21
-1163.0
 31
0.0
1001
ACDBBLOCKREPETAG
1070
     1
1071
        1
1005
126809
  0
LINE
  5
12680A
  8
OBJECT
 10
4575.0
 20
-889.99999999999409
 30
0.0
 11
4575.0
 21
-1163.0
 31
0.0
1001
ACDBBLOCKREPETAG
1070
     1
1071
        3
1005
12680A
  0
LINE
  5
12680B
  8
CENTER
 10
4500.0
 20
-890.0
 30
0.0
 11
4500.0
 21
-1175.0
 31
0.0
1001
ACDBBLOCKREPETAG
1070
     1
1071
        6
1005
12680B
  0
LINE
  5
12680C
  8
OBJECT
 10
4420.0
 20
-1175.0
 30
0.0
 11
4580.0
 21
-1175.0
 31
0.0
1001
ACDBBLOCKREPETAG
1070
     1
1071
        7
1005
12680C
  0
LINE
  5
12680D
  8
OBJECT
 10
4420.0
 20
-1163.0
 30
0.0
 11
4580.0
 21
-1163.0
 31
0.0
1001
ACDBBLOCKREPETAG
1070
     1
1071
        8
1005
12680D
  0
LINE
  5
12680E
  8
OBJECT
 10
4420.0
 20
-1163.0
 30
0.0
 11
4420.0
 21
-1175.0
 31
0.0
1001
ACDBBLOCKREPETAG
1070
     1
1071
        9
1005
12680E
  0
LINE
  5
12680F
  8
OBJECT
 10
4580.0
 20
-1163.0
 30
0.0
 11
4580.0
 21
-1175.0
 31
0.0
1001
ACDBBLOCKREPETAG
1070
     1
1071
       10
1005
12680F
  0
CIRCLE
  5
126810
  8
HIDDEN
 10
4500.0
 20
-1084.0
 30
0.0
 40
35.5
1001
ACDBBLOCKREPETAG
1070
     1
1071
       11
1005
126810
  0
LINE
  5
126811
  8
CENTER
 10
4430.0
 20
-1084.0
 30
0.0
 11
4570.0
 21
-1084.0
 31
0.0
1001
ACDBBLOCKREPETAG
1070
     1
1071
       12
1005
126811
  0
CIRCLE
  5
126812
  8
HIDDEN
 10
4500.0
 20
-1084.0
 30
0.0
 40
47.0
1001
ACDBBLOCKREPETAG
1070
     1
1071
       14
1005
126812
  0
ARC
  5
126813
  8
HIDDEN
 10
4500.0
 20
-1084.0
 30
0.0
 40
55.0
 50
289.01126526010933
 51
250.9887347398907
1001
ACDBBLOCKREPETAG
1070
     1
1071
       15
1005
126813
  0
LINE
  5
126814
  8
HIDDEN
 10
4482.0835271328324
 20
-1136.0
 30
0.0
 11
4517.9164728671676
 21
-1136.0
 31
0.0
1001
ACDBBLOCKREPETAG
1070
     1
1071
       16
1005
126814
  0
POINT
  5
126815
  8
DOTS
 10
4500.0
 20
-1136.0
 30
0.0
  0
LINE
  5
126816
  8
OBJECT
 10
3075.0
 20
-890.0
 30
0.0
 11
3075.0
 21
-1027.500000000065
 31
0.0
1001
ACDBBLOCKREPETAG
1070
     1
1071
        1
1005
126816
  0
LINE
  5
126817
  8
OBJECT
 10
2925.0
 20
-889.99999999999409
 30
0.0
 11
2925.0
 21
-1163.0
 31
0.0
1001
ACDBBLOCKREPETAG
1070
     1
1071
        3
1005
126817
  0
LINE
  5
126818
  8
CENTER
 10
3000.0
 20
-890.0
 30
0.0
 11
3000.0
 21
-1175.0
 31
0.0
1001
ACDBBLOCKREPETAG
1070
     1
1071
        6
1005
126818
  0
LINE
  5
126819
  8
OBJECT
 10
2920.0
 20
-1175.0
 30
0.0
 11
3080.0
 21
-1175.0
 31
0.0
1001
ACDBBLOCKREPETAG
1070
     1
1071
        7
1005
126819
  0
LINE
  5
12681A
  8
OBJECT
 10
2920.0
 20
-1163.0
 30
0.0
 11
3080.0
 21
-1163.0
 31
0.0
1001
ACDBBLOCKREPETAG
1070
     1
1071
        8
1005
12681A
  0
LINE
  5
12681B
  8
OBJECT
 10
2920.0
 20
-1163.0
 30
0.0
 11
2920.0
 21
-1175.0
 31
0.0
1001
ACDBBLOCKREPETAG
1070
     1
1071
        9
1005
12681B
  0
LINE
  5
12681C
  8
OBJECT
 10
3080.0
 20
-1163.0
 30
0.0
 11
3080.0
 21
-1175.0
 31
0.0
1001
ACDBBLOCKREPETAG
1070
     1
1071
       10
1005
12681C
  0
LINE
  5
12681D
  8
OBJECT
 10
3133.0
 20
-1029.0
 30
0.0
 11
3140.0
 21
-1029.0
 31
0.0
1001
ACDBBLOCKREPETAG
1070
     1
1071
       23
1005
12681D
  0
LINE
  5
12681E
  8
OBJECT
 10
3140.0
 20
-1029.0
 30
0.0
 11
3140.0
 21
-1136.0
 31
0.0
1001
ACDBBLOCKREPETAG
1070
     1
1071
       24
1005
12681E
  0
LINE
  5
12681F
  8
OBJECT
 10
3084.5
 20
-1030.500000000065
 30
0.0
 11
3084.5
 21
-1133.5
 31
0.0
1001
ACDBBLOCKREPETAG
1070
     1
1071
       25
1005
12681F
  0
ARC
  5
126820
  8
OBJECT
 10
3081.5
 20
-1030.500000000065
 30
0.0
 40
3.0
 50
0.0
 51
90.0
1001
ACDBBLOCKREPETAG
1070
     1
1071
       26
1005
126820
  0
LINE
  5
126821
  8
OBJECT
 10
3133.0
 20
-1136.0
 30
0.0
 11
3133.0
 21
-1029.0
 31
0.0
1001
ACDBBLOCKREPETAG
1070
     1
1071
       27
1005
126821
  0
LINE
  5
126822
  8
CENTER
 10
3155.0
 20
-1084.0
 30
0.0
 11
3041.344919913005
 21
-1084.000000000065
 31
0.0
1001
ACDBBLOCKREPETAG
1070
     1
1071
       28
1005
126822
  0
LINE
  5
126823
  8
OBJECT
 10
3133.0
 20
-1032.0
 30
0.0
 11
3097.0
 21
-1032.0
 31
0.0
1001
ACDBBLOCKREPETAG
1070
     1
1071
       29
1005
126823
  0
LINE
  5
126824
  8
OBJECT
 10
3097.0
 20
-1032.0
 30
0.0
 11
3097.0
 21
-1136.0
 31
0.0
1001
ACDBBLOCKREPETAG
1070
     1
1071
       30
1005
126824
  0
LINE
  5
126825
  8
OBJECT
 10
3097.0
 20
-1136.0
 30
0.0
 11
3140.0
 21
-1136.0
 31
0.0
1001
ACDBBLOCKREPETAG
1070
     1
1071
       31
1005
126825
  0
LINE
  5
126826
  8
OBJECT
 10
3093.0
 20
-1036.5
 30
0.0
 11
3084.5
 21
-1036.5
 31
0.0
1001
ACDBBLOCKREPETAG
1070
     1
1071
       32
1005
126826
  0
LINE
  5
126827
  8
OBJECT
 10
3084.5
 20
-1131.5
 30
0.0
 11
3093.0
 21
-1131.5
 31
0.0
1001
ACDBBLOCKREPETAG
1070
     1
1071
       33
1005
126827
  0
LINE
  5
126828
  8
OBJECT
 10
3093.0
 20
-1131.5
 30
0.0
 11
3093.0
 21
-1036.5
 31
0.0
1001
ACDBBLOCKREPETAG
1070
     1
1071
       34
1005
126828
  0
LINE
  5
126829
  8
OBJECT
 10
3097.0
 20
-1032.0
 30
0.0
 11
3093.0
 21
-1036.5
 31
0.0
1001
ACDBBLOCKREPETAG
1070
     1
1071
       35
1005
126829
  0
LINE
  5
12682A
  8
OBJECT
 10
3097.0
 20
-1136.0
 30
0.0
 11
3093.0
 21
-1131.5
 31
0.0
1001
ACDBBLOCKREPETAG
1070
     1
1071
       36
1005
12682A
  0
LINE
  5
12682B
  8
HIDDEN
 10
3088.0
 20
-1046.0
 30
0.0
 11
3088.0
 21
-1122.0
 31
0.0
1001
ACDBBLOCKREPETAG
1070
     1
1071
       37
1005
12682B
  0
ARC
  5
12682C
  8
OBJECT
 10
3164.8782728787751
 20
-1092.409507261229
 30
0.0
 40
110.86635228309
 50
144.1634274193047
 51
163.040353804338
1001
ACDBBLOCKREPETAG
1070
     1
1071
       38
1005
12682C
  0
ARC
  5
12682D
  8
OBJECT
 10
3117.1359887769072
 20
-1077.287749718449
 30
0.0
 40
60.791749880358971
 50
163.5472046522205
 51
179.72879698282679
1001
ACDBBLOCKREPETAG
1070
     1
1071
       39
1005
12682D
  0
ARC
  5
12682E
  8
OBJECT
 10
3117.1359956562478
 20
-1083.7122497599
 30
0.0
 40
60.79175676209487
 50
180.2712034781452
 51
196.45277946052761
1001
ACDBBLOCKREPETAG
1070
     1
1071
       40
1005
12682E
  0
ARC
  5
12682F
  8
OBJECT
 10
3164.8782728787751
 20
-1068.590492738836
 30
0.0
 40
110.8663522830916
 50
196.95964619566189
 51
215.8365725806953
1001
ACDBBLOCKREPETAG
1070
     1
1071
       41
1005
12682F
  0
LINE
  5
126830
  8
OBJECT
 10
3056.344919913005
 20
-1077.0000000000359
 30
0.0
 11
3056.344919913005
 21
-1084.000000000033
 31
0.0
1001
ACDBBLOCKREPETAG
1070
     1
1071
       42
1005
126830
  0
LINE
  5
126831
  8
OBJECT
 10
3075.0
 20
-1027.500000000065
 30
0.0
 11
3081.5
 21
-1027.500000000065
 31
0.0
1001
ACDBBLOCKREPETAG
1070
     1
1071
       43
1005
126831
  0
LINE
  5
126832
  8
OBJECT
 10
3075.0
 20
-1133.5
 30
0.0
 11
3084.5
 21
-1133.5
 31
0.0
1001
ACDBBLOCKREPETAG
1070
     1
1071
       44
1005
126832
  0
LINE
  5
126833
  8
OBJECT
 10
3075.0
 20
-1133.5
 30
0.0
 11
3075.0
 21
-1163.0
 31
0.0
1001
ACDBBLOCKREPETAG
1070
     1
1071
        1
1005
126816
  0
POINT
  5
126834
  8
DOTS
 10
3000.0
 20
-1136.0
 30
0.0
  0
LINE
  5
126835
  8
OBJECT
 10
2425.0
 20
-890.0
 30
0.0
 11
2425.0
 21
-1163.0
 31
0.0
1001
ACDBBLOCKREPETAG
1070
     1
1071
        1
1005
126835
  0
LINE
  5
126836
  8
OBJECT
 10
2575.0
 20
-889.99999999999409
 30
0.0
 11
2575.0
 21
-1163.0
 31
0.0
1001
ACDBBLOCKREPETAG
1070
     1
1071
        3
1005
126836
  0
LINE
  5
126837
  8
CENTER
 10
2500.0
 20
-890.0
 30
0.0
 11
2500.0
 21
-1175.0
 31
0.0
1001
ACDBBLOCKREPETAG
1070
     1
1071
        6
1005
126837
  0
LINE
  5
126838
  8
OBJECT
 10
2420.0
 20
-1175.0
 30
0.0
 11
2580.0
 21
-1175.0
 31
0.0
1001
ACDBBLOCKREPETAG
1070
     1
1071
        7
1005
126838
  0
LINE
  5
126839
  8
OBJECT
 10
2420.0
 20
-1163.0
 30
0.0
 11
2580.0
 21
-1163.0
 31
0.0
1001
ACDBBLOCKREPETAG
1070
     1
1071
        8
1005
126839
  0
LINE
  5
12683A
  8
OBJECT
 10
2420.0
 20
-1163.0
 30
0.0
 11
2420.0
 21
-1175.0
 31
0.0
1001
ACDBBLOCKREPETAG
1070
     1
1071
        9
1005
12683A
  0
LINE
  5
12683B
  8
OBJECT
 10
2580.0
 20
-1163.0
 30
0.0
 11
2580.0
 21
-1175.0
 31
0.0
1001
ACDBBLOCKREPETAG
1070
     1
1071
       10
1005
12683B
  0
CIRCLE
  5
12683C
  8
HIDDEN
 10
2500.0
 20
-1084.0
 30
0.0
 40
35.5
1001
ACDBBLOCKREPETAG
1070
     1
1071
       11
1005
12683C
  0
LINE
  5
12683D
  8
CENTER
 10
2430.0
 20
-1084.0
 30
0.0
 11
2570.0
 21
-1084.0
 31
0.0
1001
ACDBBLOCKREPETAG
1070
     1
1071
       12
1005
12683D
  0
CIRCLE
  5
12683E
  8
HIDDEN
 10
2500.0
 20
-1084.0
 30
0.0
 40
47.0
1001
ACDBBLOCKREPETAG
1070
     1
1071
       14
1005
12683E
  0
ARC
  5
12683F
  8
HIDDEN
 10
2500.0
 20
-1084.0
 30
0.0
 40
55.0
 50
289.0112652600846
 51
250.98873473991529
1001
ACDBBLOCKREPETAG
1070
     1
1071
       15
1005
12683F
  0
LINE
  5
126840
  8
HIDDEN
 10
2482.0835271328328
 20
-1136.0
 30
0.0
 11
2517.9164728671681
 21
-1136.0
 31
0.0
1001
ACDBBLOCKREPETAG
1070
     1
1071
       16
1005
126840
  0
POINT
  5
126841
  8
DOTS
 10
2500.0
 20
-1136.0
 30
0.0
  0
LINE
  5
126842
  8
DIM
 10
2665.0
 20
-696.0
 30
0.0
 11
2719.424581672758
 21
-696.0
 31
0.0
  0
LINE
  5
126843
  8
DIM
 10
2527.916472867169
 20
-1136.0
 30
0.0
 11
2719.4245816727562
 21
-1136.0
 31
0.0
  0
LINE
  5
126844
  8
DIM
 10
2709.4245816727571
 20
-716.0
 30
0.0
 11
2709.4245816727562
 21
-1116.0
 31
0.0
  0
INSERT
  5
126845
  8
DIM
  2
_OPEN30
 10
2709.4245816727571
 20
-696.0
 30
0.0
 41
20.0
 42
20.0
 43
20.0
 50
90.0
  0
INSERT
  5
126846
  8
DIM
  2
_OPEN30
 10
2709.4245816727562
 20
-1136.0
 30
0.0
 41
20.0
 42
20.0
 43
20.0
 50
270.0
  0
INSERT
  5
126847
  8
SLIM
  2
*U9
 10
0.0
 20
0.0
 30
0.0
  0
LINE
  5
126848
  8
CENTER
 10
4977.0
 20
-3805.9999999999968
 30
0.0
 11
4823.0
 21
-3805.9999999999968
 31
0.0
1001
ACDBBLOCKREPETAG
1070
     1
1071
       17
1005
126848
  0
CIRCLE
  5
126849
  8
OBJECT
 10
4900.0
 20
-3805.9999999999968
 30
0.0
 40
41.5
1001
ACDBBLOCKREPETAG
1070
     1
1071
       18
1005
126849
  0
CIRCLE
  5
12684A
  8
OBJECT
 10
4900.0
 20
-3805.9999999999968
 30
0.0
 40
54.0
1001
ACDBBLOCKREPETAG
1070
     1
1071
       19
1005
12684A
  0
ARC
  5
12684B
  8
OBJECT
 10
4900.0
 20
-3805.9999999999968
 30
0.0
 40
62.0
 50
287.89655112921122
 51
252.1034488707887
1001
ACDBBLOCKREPETAG
1070
     1
1071
       20
1005
12684B
  0
LINE
  5
12684C
  8
OBJECT
 10
4880.947441116743
 20
-3864.9999999999968
 30
0.0
 11
4919.052558883257
 21
-3864.9999999999968
 31
0.0
1001
ACDBBLOCKREPETAG
1070
     1
1071
       21
1005
12684C
  0
POINT
  5
12684D
  8
DOTS
 10
4900.0
 20
-3864.9999999999968
 30
0.0
1001
ACDBBLOCKREPETAG
1070
     1
1071
       23
1005
12684D
  0
LINE
  5
12684E
  8
OBJECT
 10
4633.0
 20
-3743.9999999999959
 30
0.0
 11
4640.0
 21
-3743.9999999999959
 31
0.0
1001
ACDBBLOCKREPETAG
1070
     1
1071
       46
1005
12684E
  0
LINE
  5
12684F
  8
OBJECT
 10
4640.0
 20
-3743.9999999999959
 30
0.0
 11
4640.0
 21
-3864.9999999999968
 31
0.0
1001
ACDBBLOCKREPETAG
1070
     1
1071
       47
1005
12684F
  0
LINE
  5
126850
  8
OBJECT
 10
4633.0
 20
-3864.9999999999968
 30
0.0
 11
4633.0
 21
-3743.9999999999959
 31
0.0
1001
ACDBBLOCKREPETAG
1070
     1
1071
       48
1005
126850
  0
LINE
  5
126851
  8
CENTER
 10
4655.0
 20
-3805.9999999999968
 30
0.0
 11
4541.3449199130037
 21
-3806.0000000000618
 31
0.0
1001
ACDBBLOCKREPETAG
1070
     1
1071
       49
1005
126851
  0
LINE
  5
126852
  8
OBJECT
 10
4633.0
 20
-3746.9999999999959
 30
0.0
 11
4597.0
 21
-3746.9999999999959
 31
0.0
1001
ACDBBLOCKREPETAG
1070
     1
1071
       50
1005
126852
  0
LINE
  5
126853
  8
OBJECT
 10
4597.0
 20
-3746.9999999999959
 30
0.0
 11
4597.0
 21
-3864.9999999999968
 31
0.0
1001
ACDBBLOCKREPETAG
1070
     1
1071
       51
1005
126853
  0
LINE
  5
126854
  8
OBJECT
 10
4597.0
 20
-3864.9999999999968
 30
0.0
 11
4640.0
 21
-3864.9999999999968
 31
0.0
1001
ACDBBLOCKREPETAG
1070
     1
1071
       52
1005
126854
  0
LINE
  5
126855
  8
OBJECT
 10
4593.0
 20
-3751.4999999999959
 30
0.0
 11
4582.5
 21
-3751.4999999999959
 31
0.0
1001
ACDBBLOCKREPETAG
1070
     1
1071
       53
1005
126855
  0
LINE
  5
126856
  8
OBJECT
 10
4582.5
 20
-3860.4999999999959
 30
0.0
 11
4593.0
 21
-3860.4999999999959
 31
0.0
1001
ACDBBLOCKREPETAG
1070
     1
1071
       54
1005
126856
  0
LINE
  5
126857
  8
OBJECT
 10
4593.0
 20
-3860.4999999999959
 30
0.0
 11
4593.0
 21
-3751.4999999999959
 31
0.0
1001
ACDBBLOCKREPETAG
1070
     1
1071
       55
1005
126857
  0
LINE
  5
126858
  8
OBJECT
 10
4597.0
 20
-3746.9999999999959
 30
0.0
 11
4593.0
 21
-3751.4999999999959
 31
0.0
1001
ACDBBLOCKREPETAG
1070
     1
1071
       56
1005
126858
  0
LINE
  5
126859
  8
OBJECT
 10
4597.0
 20
-3864.9999999999968
 30
0.0
 11
4593.0
 21
-3860.4999999999959
 31
0.0
1001
ACDBBLOCKREPETAG
1070
     1
1071
       57
1005
126859
  0
LINE
  5
12685A
  8
HIDDEN
 10
4588.0
 20
-3761.4999999999968
 30
0.0
 11
4588.0
 21
-3850.4999999999968
 31
0.0
1001
ACDBBLOCKREPETAG
1070
     1
1071
       58
1005
12685A
  0
ARC
  5
12685B
  8
OBJECT
 10
4664.8782728787719
 20
-3821.4095072612249
 30
0.0
 40
110.86635228309
 50
144.16342741928889
 51
163.04035380433939
1001
ACDBBLOCKREPETAG
1070
     1
1071
       59
1005
12685B
  0
ARC
  5
12685C
  8
OBJECT
 10
4617.1359887769049
 20
-3806.287749718445
 30
0.0
 40
60.791749880358971
 50
163.54720465221931
 51
179.72879698282651
1001
ACDBBLOCKREPETAG
1070
     1
1071
       60
1005
12685C
  0
ARC
  5
12685D
  8
OBJECT
 10
4617.1359956562483
 20
-3812.7122497598971
 30
0.0
 40
60.79175676209487
 50
180.2712034781452
 51
196.4527794605265
1001
ACDBBLOCKREPETAG
1070
     1
1071
       61
1005
12685D
  0
ARC
  5
12685E
  8
OBJECT
 10
4664.8782728787719
 20
-3797.5904927388328
 30
0.0
 40
110.8663522830916
 50
196.9596461956605
 51
215.83657258071111
1001
ACDBBLOCKREPETAG
1070
     1
1071
       62
1005
12685E
  0
LINE
  5
12685F
  8
OBJECT
 10
4556.3449199130037
 20
-3806.0000000000332
 30
0.0
 11
4556.3449199130037
 21
-3813.0000000000291
 31
0.0
1001
ACDBBLOCKREPETAG
1070
     1
1071
       63
1005
12685F
  0
LINE
  5
126860
  8
OBJECT
 10
4574.9999999998336
 20
-3756.500000000291
 30
0.0
 11
4577.4999999998363
 21
-3756.500000000291
 31
0.0
1001
ACDBBLOCKREPETAG
1070
     1
1071
       65
1005
126860
  0
LINE
  5
126861
  8
OBJECT
 10
4574.9999999998327
 20
-3862.4999999997672
 30
0.0
 11
4579.4999999998308
 21
-3862.4999999997672
 31
0.0
1001
ACDBBLOCKREPETAG
1070
     1
1071
       66
1005
126861
  0
LINE
  5
126862
  8
OBJECT
 10
4579.4999999998308
 20
-3862.4999999997672
 30
0.0
 11
4577.4999999998363
 21
-3756.500000000291
 31
0.0
1001
ACDBBLOCKREPETAG
1070
     1
1071
       67
1005
126862
  0
LINE
  5
126863
  8
OBJECT
 10
4579.4999999998308
 20
-3862.4999999997672
 30
0.0
 11
4582.5
 21
-3860.4999999999959
 31
0.0
1001
ACDBBLOCKREPETAG
1070
     1
1071
       68
1005
126863
  0
LINE
  5
126864
  8
OBJECT
 10
4582.5
 20
-3860.4999999999959
 30
0.0
 11
4582.5
 21
-3751.4999999999959
 31
0.0
1001
ACDBBLOCKREPETAG
1070
     1
1071
       69
1005
126864
  0
LINE
  5
126865
  8
OBJECT
 10
4582.5
 20
-3751.4999999999959
 30
0.0
 11
4577.4999999998363
 21
-3756.500000000291
 31
0.0
1001
ACDBBLOCKREPETAG
1070
     1
1071
       70
1005
126865
  0
LINE
  5
126866
  8
OBJECT
 10
4633.0000000000009
 20
-3397.9999999999959
 30
0.0
 11
4640.0000000000018
 21
-3397.9999999999959
 31
0.0
1001
ACDBBLOCKREPETAG
1070
     1
1071
       38
1005
126866
  0
LINE
  5
126867
  8
OBJECT
 10
4640.0000000000018
 20
-3397.9999999999959
 30
0.0
 11
4640.0
 21
-3521.9999999999968
 31
0.0
1001
ACDBBLOCKREPETAG
1070
     1
1071
       39
1005
126867
  0
LINE
  5
126868
  8
OBJECT
 10
4640.0
 20
-3521.9999999999968
 30
0.0
 11
4633.0
 21
-3521.9999999999968
 31
0.0
1001
ACDBBLOCKREPETAG
1070
     1
1071
       40
1005
126868
  0
LINE
  5
126869
  8
OBJECT
 10
4633.0
 20
-3521.9999999999968
 30
0.0
 11
4633.0000000000009
 21
-3397.9999999999959
 31
0.0
1001
ACDBBLOCKREPETAG
1070
     1
1071
       41
1005
126869
  0
LINE
  5
12686A
  8
CENTER
 10
4655.0
 20
-3459.9999999999968
 30
0.0
 11
4580.0
 21
-3459.9999999999968
 31
0.0
1001
ACDBBLOCKREPETAG
1070
     1
1071
       42
1005
12686A
  0
LINE
  5
12686B
  8
OBJECT
 10
4633.0000000000009
 20
-3400.9999999999959
 30
0.0
 11
4597.0000000000018
 21
-3400.9999999999959
 31
0.0
1001
ACDBBLOCKREPETAG
1070
     1
1071
       43
1005
12686B
  0
LINE
  5
12686C
  8
OBJECT
 10
4597.0000000000018
 20
-3400.9999999999959
 30
0.0
 11
4597.0
 21
-3518.9999999999968
 31
0.0
1001
ACDBBLOCKREPETAG
1070
     1
1071
       44
1005
12686C
  0
LINE
  5
12686D
  8
OBJECT
 10
4597.0
 20
-3518.9999999999968
 30
0.0
 11
4633.0
 21
-3518.9999999999968
 31
0.0
1001
ACDBBLOCKREPETAG
1070
     1
1071
       45
1005
12686D
  0
LINE
  5
12686E
  8
OBJECT
 10
4593.0000000000018
 20
-3405.4999999999959
 30
0.0
 11
4582.5000000000018
 21
-3405.4999999999959
 31
0.0
1001
ACDBBLOCKREPETAG
1070
     1
1071
       46
1005
12686E
  0
LINE
  5
12686F
  8
OBJECT
 10
4582.5
 20
-3514.4999999999968
 30
0.0
 11
4593.0
 21
-3514.4999999999968
 31
0.0
1001
ACDBBLOCKREPETAG
1070
     1
1071
       47
1005
12686F
  0
LINE
  5
126870
  8
OBJECT
 10
4593.0
 20
-3514.4999999999968
 30
0.0
 11
4593.0000000000018
 21
-3405.4999999999959
 31
0.0
1001
ACDBBLOCKREPETAG
1070
     1
1071
       48
1005
126870
  0
LINE
  5
126871
  8
OBJECT
 10
4597.0000000000018
 20
-3400.9999999999959
 30
0.0
 11
4593.0000000000018
 21
-3405.4999999999959
 31
0.0
1001
ACDBBLOCKREPETAG
1070
     1
1071
       49
1005
126871
  0
LINE
  5
126872
  8
OBJECT
 10
4597.0
 20
-3518.9999999999968
 30
0.0
 11
4593.0
 21
-3514.4999999999968
 31
0.0
1001
ACDBBLOCKREPETAG
1070
     1
1071
       50
1005
126872
  0
LINE
  5
126873
  8
HIDDEN
 10
4588.0
 20
-3415.4999999999968
 30
0.0
 11
4588.0
 21
-3504.4999999999968
 31
0.0
1001
ACDBBLOCKREPETAG
1070
     1
1071
       51
1005
126873
  0
LINE
  5
126874
  8
OBJECT
 10
4577.5000000000018
 20
-3410.4999999999959
 30
0.0
 11
4556.3449199129791
 21
-3410.4999999999959
 31
0.0
1001
ACDBBLOCKREPETAG
1070
     1
1071
       52
1005
126874
  0
LINE
  5
126875
  8
OBJECT
 10
4577.4999999999991
 20
-3509.4999999999959
 30
0.0
 11
4556.3449199129791
 21
-3509.4999999999959
 31
0.0
1001
ACDBBLOCKREPETAG
1070
     1
1071
       53
1005
126875
  0
LINE
  5
126876
  8
OBJECT
 10
4582.5000000000018
 20
-3405.4999999999959
 30
0.0
 11
4582.5
 21
-3514.4999999999968
 31
0.0
1001
ACDBBLOCKREPETAG
1070
     1
1071
       54
1005
126876
  0
LINE
  5
126877
  8
OBJECT
 10
4577.5000000000018
 20
-3410.4999999999959
 30
0.0
 11
4577.4999999999991
 21
-3509.4999999999959
 31
0.0
1001
ACDBBLOCKREPETAG
1070
     1
1071
       55
1005
126877
  0
LINE
  5
126878
  8
OBJECT
 10
4582.5000000000018
 20
-3405.4999999999959
 30
0.0
 11
4577.5000000000018
 21
-3410.4999999999959
 31
0.0
1001
ACDBBLOCKREPETAG
1070
     1
1071
       56
1005
126878
  0
LINE
  5
126879
  8
OBJECT
 10
4577.4999999999991
 20
-3509.4999999999959
 30
0.0
 11
4582.5
 21
-3514.4999999999932
 31
0.0
1001
ACDBBLOCKREPETAG
1070
     1
1071
       57
1005
126879
  0
CIRCLE
  5
12687A
  8
OBJECT
 10
3900.0
 20
-3812.9999999999968
 30
0.0
 40
35.5
1001
ACDBBLOCKREPETAG
1070
     1
1071
       11
1005
12687A
  0
LINE
  5
12687B
  8
CENTER
 10
3830.0
 20
-3812.9999999999968
 30
0.0
 11
3970.0
 21
-3812.9999999999968
 31
0.0
1001
ACDBBLOCKREPETAG
1070
     1
1071
       12
1005
12687B
  0
CIRCLE
  5
12687C
  8
OBJECT
 10
3900.0
 20
-3812.9999999999968
 30
0.0
 40
47.0
1001
ACDBBLOCKREPETAG
1070
     1
1071
       14
1005
12687C
  0
ARC
  5
12687D
  8
OBJECT
 10
3900.0
 20
-3812.9999999999968
 30
0.0
 40
55.0
 50
289.01126526008892
 51
250.98873473991111
1001
ACDBBLOCKREPETAG
1070
     1
1071
       15
1005
12687D
  0
LINE
  5
12687E
  8
OBJECT
 10
3882.0835271328319
 20
-3864.9999999999968
 30
0.0
 11
3917.9164728671672
 21
-3864.9999999999968
 31
0.0
1001
ACDBBLOCKREPETAG
1070
     1
1071
       16
1005
12687E
  0
POINT
  5
12687F
  8
DOTS
 10
3900.0
 20
-3864.9999999999968
 30
0.0
1001
ACDBBLOCKREPETAG
1070
     1
1071
       24
1005
12687F
  0
LINE
  5
126880
  8
OBJECT
 10
3633.0
 20
-3757.9999999999959
 30
0.0
 11
3640.0
 21
-3757.9999999999959
 31
0.0
1001
ACDBBLOCKREPETAG
1070
     1
1071
       23
1005
126880
  0
LINE
  5
126881
  8
OBJECT
 10
3640.0
 20
-3757.9999999999959
 30
0.0
 11
3640.0
 21
-3864.9999999999968
 31
0.0
1001
ACDBBLOCKREPETAG
1070
     1
1071
       24
1005
126881
  0
LINE
  5
126882
  8
OBJECT
 10
3584.5
 20
-3759.5000000000618
 30
0.0
 11
3584.5
 21
-3862.4999999999968
 31
0.0
1001
ACDBBLOCKREPETAG
1070
     1
1071
       25
1005
126882
  0
ARC
  5
126883
  8
OBJECT
 10
3581.5
 20
-3759.5000000000618
 30
0.0
 40
3.0
 50
0.0
 51
90.0
1001
ACDBBLOCKREPETAG
1070
     1
1071
       26
1005
126883
  0
LINE
  5
126884
  8
OBJECT
 10
3633.0
 20
-3864.9999999999968
 30
0.0
 11
3633.0
 21
-3757.9999999999959
 31
0.0
1001
ACDBBLOCKREPETAG
1070
     1
1071
       27
1005
126884
  0
LINE
  5
126885
  8
CENTER
 10
3655.0
 20
-3812.9999999999968
 30
0.0
 11
3541.3449199130041
 21
-3813.0000000000618
 31
0.0
1001
ACDBBLOCKREPETAG
1070
     1
1071
       28
1005
126885
  0
LINE
  5
126886
  8
OBJECT
 10
3633.0
 20
-3760.9999999999968
 30
0.0
 11
3597.0
 21
-3760.9999999999968
 31
0.0
1001
ACDBBLOCKREPETAG
1070
     1
1071
       29
1005
126886
  0
LINE
  5
126887
  8
OBJECT
 10
3597.0
 20
-3760.9999999999968
 30
0.0
 11
3597.0
 21
-3864.9999999999968
 31
0.0
1001
ACDBBLOCKREPETAG
1070
     1
1071
       30
1005
126887
  0
LINE
  5
126888
  8
OBJECT
 10
3597.0
 20
-3864.9999999999968
 30
0.0
 11
3640.0
 21
-3864.9999999999968
 31
0.0
1001
ACDBBLOCKREPETAG
1070
     1
1071
       31
1005
126888
  0
LINE
  5
126889
  8
OBJECT
 10
3593.0
 20
-3765.4999999999968
 30
0.0
 11
3584.5
 21
-3765.4999999999968
 31
0.0
1001
ACDBBLOCKREPETAG
1070
     1
1071
       32
1005
126889
  0
LINE
  5
12688A
  8
OBJECT
 10
3584.5
 20
-3860.4999999999959
 30
0.0
 11
3593.0
 21
-3860.4999999999959
 31
0.0
1001
ACDBBLOCKREPETAG
1070
     1
1071
       33
1005
12688A
  0
LINE
  5
12688B
  8
OBJECT
 10
3593.0
 20
-3860.4999999999959
 30
0.0
 11
3593.0
 21
-3765.4999999999968
 31
0.0
1001
ACDBBLOCKREPETAG
1070
     1
1071
       34
1005
12688B
  0
LINE
  5
12688C
  8
OBJECT
 10
3597.0
 20
-3760.9999999999968
 30
0.0
 11
3593.0
 21
-3765.4999999999968
 31
0.0
1001
ACDBBLOCKREPETAG
1070
     1
1071
       35
1005
12688C
  0
LINE
  5
12688D
  8
OBJECT
 10
3597.0
 20
-3864.9999999999968
 30
0.0
 11
3593.0
 21
-3860.4999999999959
 31
0.0
1001
ACDBBLOCKREPETAG
1070
     1
1071
       36
1005
12688D
  0
LINE
  5
12688E
  8
HIDDEN
 10
3588.0
 20
-3774.9999999999968
 30
0.0
 11
3588.0
 21
-3850.9999999999959
 31
0.0
1001
ACDBBLOCKREPETAG
1070
     1
1071
       37
1005
12688E
  0
ARC
  5
12688F
  8
OBJECT
 10
3664.8782728787742
 20
-3821.4095072612249
 30
0.0
 40
110.86635228309
 50
144.16342741928889
 51
163.04035380433169
1001
ACDBBLOCKREPETAG
1070
     1
1071
       38
1005
12688F
  0
ARC
  5
126890
  8
OBJECT
 10
3617.1359887769072
 20
-3806.287749718445
 30
0.0
 40
60.791749880358971
 50
163.5472046522267
 51
179.72879698282679
1001
ACDBBLOCKREPETAG
1070
     1
1071
       39
1005
126890
  0
ARC
  5
126891
  8
OBJECT
 10
3617.1359956562478
 20
-3812.7122497598971
 30
0.0
 40
60.79175676209487
 50
180.2712034781452
 51
196.4527794605338
1001
ACDBBLOCKREPETAG
1070
     1
1071
       40
1005
126891
  0
ARC
  5
126892
  8
OBJECT
 10
3664.8782728787742
 20
-3797.5904927388328
 30
0.0
 40
110.8663522830916
 50
196.95964619566811
 51
215.83657258071111
1001
ACDBBLOCKREPETAG
1070
     1
1071
       41
1005
126892
  0
LINE
  5
126893
  8
OBJECT
 10
3556.3449199130041
 20
-3806.0000000000332
 30
0.0
 11
3556.3449199130041
 21
-3813.0000000000291
 31
0.0
1001
ACDBBLOCKREPETAG
1070
     1
1071
       42
1005
126893
  0
LINE
  5
126894
  8
OBJECT
 10
3574.9999999999991
 20
-3756.5000000000618
 30
0.0
 11
3581.5
 21
-3756.5000000000618
 31
0.0
1001
ACDBBLOCKREPETAG
1070
     1
1071
       43
1005
126894
  0
LINE
  5
126895
  8
OBJECT
 10
3574.9999999999991
 20
-3862.4999999999968
 30
0.0
 11
3584.5
 21
-3862.4999999999968
 31
0.0
1001
ACDBBLOCKREPETAG
1070
     1
1071
       44
1005
126895
  0
LINE
  5
126896
  8
OBJECT
 10
3633.0
 20
-3404.9999999999959
 30
0.0
 11
3640.0
 21
-3404.9999999999959
 31
0.0
1001
ACDBBLOCKREPETAG
1070
     1
1071
       20
1005
126896
  0
LINE
  5
126897
  8
OBJECT
 10
3640.0
 20
-3404.9999999999959
 30
0.0
 11
3640.0
 21
-3514.9999999999968
 31
0.0
1001
ACDBBLOCKREPETAG
1070
     1
1071
       21
1005
126897
  0
LINE
  5
126898
  8
OBJECT
 10
3640.0
 20
-3514.9999999999968
 30
0.0
 11
3633.0
 21
-3514.9999999999968
 31
0.0
1001
ACDBBLOCKREPETAG
1070
     1
1071
       22
1005
126898
  0
LINE
  5
126899
  8
OBJECT
 10
3633.0
 20
-3514.9999999999968
 30
0.0
 11
3633.0
 21
-3404.9999999999959
 31
0.0
1001
ACDBBLOCKREPETAG
1070
     1
1071
       23
1005
126899
  0
LINE
  5
12689A
  8
CENTER
 10
3655.0
 20
-3459.9999999999968
 30
0.0
 11
3580.0
 21
-3459.9999999999968
 31
0.0
1001
ACDBBLOCKREPETAG
1070
     1
1071
       24
1005
12689A
  0
LINE
  5
12689B
  8
OBJECT
 10
3633.0
 20
-3407.9999999999959
 30
0.0
 11
3597.0
 21
-3407.9999999999959
 31
0.0
1001
ACDBBLOCKREPETAG
1070
     1
1071
       25
1005
12689B
  0
LINE
  5
12689C
  8
OBJECT
 10
3597.0
 20
-3407.9999999999959
 30
0.0
 11
3597.0
 21
-3511.9999999999959
 31
0.0
1001
ACDBBLOCKREPETAG
1070
     1
1071
       26
1005
12689C
  0
LINE
  5
12689D
  8
OBJECT
 10
3597.0
 20
-3511.9999999999959
 30
0.0
 11
3633.0
 21
-3511.9999999999959
 31
0.0
1001
ACDBBLOCKREPETAG
1070
     1
1071
       27
1005
12689D
  0
LINE
  5
12689E
  8
OBJECT
 10
3593.0
 20
-3412.4999999999959
 30
0.0
 11
3584.5
 21
-3412.4999999999959
 31
0.0
1001
ACDBBLOCKREPETAG
1070
     1
1071
       28
1005
12689E
  0
LINE
  5
12689F
  8
OBJECT
 10
3584.5
 20
-3507.4999999999968
 30
0.0
 11
3593.0
 21
-3507.4999999999968
 31
0.0
1001
ACDBBLOCKREPETAG
1070
     1
1071
       29
1005
12689F
  0
LINE
  5
1268A0
  8
OBJECT
 10
3593.0
 20
-3507.4999999999968
 30
0.0
 11
3593.0
 21
-3412.4999999999959
 31
0.0
1001
ACDBBLOCKREPETAG
1070
     1
1071
       30
1005
1268A0
  0
LINE
  5
1268A1
  8
OBJECT
 10
3597.0
 20
-3407.9999999999959
 30
0.0
 11
3593.0
 21
-3412.4999999999959
 31
0.0
1001
ACDBBLOCKREPETAG
1070
     1
1071
       31
1005
1268A1
  0
LINE
  5
1268A2
  8
OBJECT
 10
3597.0
 20
-3511.9999999999959
 30
0.0
 11
3593.0
 21
-3507.4999999999968
 31
0.0
1001
ACDBBLOCKREPETAG
1070
     1
1071
       32
1005
1268A2
  0
LINE
  5
1268A3
  8
OBJECT
 10
3584.4999999999982
 20
-3509.4999999999959
 30
0.0
 11
3584.5
 21
-3410.4999999999959
 31
0.0
1001
ACDBBLOCKREPETAG
1070
     1
1071
       33
1005
1268A3
  0
LINE
  5
1268A4
  8
HIDDEN
 10
3588.0
 20
-3421.9999999999968
 30
0.0
 11
3588.0
 21
-3497.9999999999959
 31
0.0
1001
ACDBBLOCKREPETAG
1070
     1
1071
       34
1005
1268A4
  0
LINE
  5
1268A5
  8
OBJECT
 10
3584.5
 20
-3410.4999999999959
 30
0.0
 11
3556.3449199129791
 21
-3410.4999999999959
 31
0.0
1001
ACDBBLOCKREPETAG
1070
     1
1071
       35
1005
1268A5
  0
LINE
  5
1268A6
  8
OBJECT
 10
3584.4999999999982
 20
-3509.4999999999959
 30
0.0
 11
3556.3449199129791
 21
-3509.4999999999959
 31
0.0
1001
ACDBBLOCKREPETAG
1070
     1
1071
       36
1005
1268A6
  0
LINE
  5
1268A7
  8
CENTER
 10
2838.0
 20
-3820.9999999999968
 30
0.0
 11
2962.0
 21
-3820.9999999999968
 31
0.0
1001
ACDBBLOCKREPETAG
1070
     1
1071
        0
1005
1268A7
  0
CIRCLE
  5
1268A8
  8
OBJECT
 10
2900.0
 20
-3820.9999999999968
 30
0.0
 40
28.0
1001
ACDBBLOCKREPETAG
1070
     1
1071
        2
1005
1268A8
  0
CIRCLE
  5
1268A9
  8
OBJECT
 10
2900.0
 20
-3820.9999999999968
 30
0.0
 40
39.0
1001
ACDBBLOCKREPETAG
1070
     1
1071
        3
1005
1268A9
  0
ARC
  5
1268AA
  8
OBJECT
 10
2900.0
 20
-3820.9999999999968
 30
0.0
 40
47.0
 50
290.58196921144412
 51
249.41803078855591
1001
ACDBBLOCKREPETAG
1070
     1
1071
        4
1005
1268AA
  0
LINE
  5
1268AB
  8
OBJECT
 10
2883.4772883581418
 20
-3864.9999999999968
 30
0.0
 11
2916.5227116418569
 21
-3864.9999999999968
 31
0.0
1001
ACDBBLOCKREPETAG
1070
     1
1071
        5
1005
1268AB
  0
ARC
  5
1268AC
  8
OBJECT
 10
2900.0
 20
-3805.9999999999932
 30
0.0
 40
49.5
 50
0.0
 51
180.0
1001
ACDBBLOCKREPETAG
1070
     1
1071
        6
1005
1268AC
  0
LINE
  5
1268AD
  8
OBJECT
 10
2850.5000000000032
 20
-3805.9999999999932
 30
0.0
 11
2850.5000000000032
 21
-3812.9999999999968
 31
0.0
1001
ACDBBLOCKREPETAG
1070
     1
1071
        7
1005
1268AD
  0
LINE
  5
1268AE
  8
OBJECT
 10
2949.5000000000068
 20
-3805.9999999999932
 30
0.0
 11
2949.5000000000068
 21
-3812.9999999999968
 31
0.0
1001
ACDBBLOCKREPETAG
1070
     1
1071
        8
1005
1268AE
  0
ARC
  5
1268AF
  8
OBJECT
 10
2900.0
 20
-3812.9999999999968
 30
0.0
 40
49.5
 50
180.0
 51
202.66956385104879
1001
ACDBBLOCKREPETAG
1070
     1
1071
        9
1005
1268AF
  0
ARC
  5
1268B0
  8
OBJECT
 10
2900.0
 20
-3812.9999999999968
 30
0.0
 40
49.5
 50
337.33043614895121
 51
0.0
1001
ACDBBLOCKREPETAG
1070
     1
1071
       10
1005
1268B0
  0
POINT
  5
1268B1
  8
DOTS
 10
2900.0
 20
-3864.9999999999968
 30
0.0
1001
ACDBBLOCKREPETAG
1070
     1
1071
       25
1005
1268B1
  0
LINE
  5
1268B2
  8
OBJECT
 10
2633.0
 20
-3773.9999999999968
 30
0.0
 11
2640.0
 21
-3773.9999999999968
 31
0.0
1001
ACDBBLOCKREPETAG
1070
     1
1071
        0
1005
1268B2
  0
LINE
  5
1268B3
  8
OBJECT
 10
2640.0
 20
-3773.9999999999968
 30
0.0
 11
2640.0
 21
-3864.9999999999968
 31
0.0
1001
ACDBBLOCKREPETAG
1070
     1
1071
        1
1005
1268B3
  0
LINE
  5
1268B4
  8
OBJECT
 10
2584.5
 20
-3759.5000000000618
 30
0.0
 11
2584.5
 21
-3862.4999999999968
 31
0.0
1001
ACDBBLOCKREPETAG
1070
     1
1071
        2
1005
1268B4
  0
ARC
  5
1268B5
  8
OBJECT
 10
2581.5
 20
-3759.5000000000618
 30
0.0
 40
3.0
 50
0.0
 51
90.0
1001
ACDBBLOCKREPETAG
1070
     1
1071
        3
1005
1268B5
  0
LINE
  5
1268B6
  8
OBJECT
 10
2633.0
 20
-3864.9999999999968
 30
0.0
 11
2633.0
 21
-3773.9999999999968
 31
0.0
1001
ACDBBLOCKREPETAG
1070
     1
1071
        4
1005
1268B6
  0
LINE
  5
1268B7
  8
CENTER
 10
2655.0
 20
-3820.9999999999968
 30
0.0
 11
2541.911823713584
 21
-3820.9999999999968
 31
0.0
1001
ACDBBLOCKREPETAG
1070
     1
1071
        5
1005
1268B7
  0
LINE
  5
1268B8
  8
OBJECT
 10
2633.0
 20
-3776.9999999999968
 30
0.0
 11
2596.9999999999991
 21
-3776.9999999999968
 31
0.0
1001
ACDBBLOCKREPETAG
1070
     1
1071
        6
1005
1268B8
  0
LINE
  5
1268B9
  8
OBJECT
 10
2596.9999999999991
 20
-3776.9999999999968
 30
0.0
 11
2596.9999999999991
 21
-3864.9999999999968
 31
0.0
1001
ACDBBLOCKREPETAG
1070
     1
1071
        7
1005
1268B9
  0
LINE
  5
1268BA
  8
OBJECT
 10
2596.9999999999991
 20
-3864.9999999999968
 30
0.0
 11
2640.0
 21
-3864.9999999999968
 31
0.0
1001
ACDBBLOCKREPETAG
1070
     1
1071
        8
1005
1268BA
  0
LINE
  5
1268BB
  8
OBJECT
 10
2593.0
 20
-3781.4999999999959
 30
0.0
 11
2584.5
 21
-3781.4999999999959
 31
0.0
1001
ACDBBLOCKREPETAG
1070
     1
1071
        9
1005
1268BB
  0
LINE
  5
1268BC
  8
OBJECT
 10
2584.5
 20
-3860.4999999999959
 30
0.0
 11
2593.0
 21
-3860.4999999999959
 31
0.0
1001
ACDBBLOCKREPETAG
1070
     1
1071
       10
1005
1268BC
  0
LINE
  5
1268BD
  8
OBJECT
 10
2593.0
 20
-3860.4999999999959
 30
0.0
 11
2593.0
 21
-3781.4999999999959
 31
0.0
1001
ACDBBLOCKREPETAG
1070
     1
1071
       11
1005
1268BD
  0
LINE
  5
1268BE
  8
OBJECT
 10
2596.9999999999991
 20
-3776.9999999999968
 30
0.0
 11
2593.0
 21
-3781.4999999999959
 31
0.0
1001
ACDBBLOCKREPETAG
1070
     1
1071
       12
1005
1268BE
  0
LINE
  5
1268BF
  8
OBJECT
 10
2596.9999999999991
 20
-3864.9999999999968
 30
0.0
 11
2593.0
 21
-3860.4999999999959
 31
0.0
1001
ACDBBLOCKREPETAG
1070
     1
1071
       13
1005
1268BF
  0
LINE
  5
1268C0
  8
HIDDEN
 10
2588.0
 20
-3790.9999999999959
 30
0.0
 11
2588.0
 21
-3850.9999999999959
 31
0.0
1001
ACDBBLOCKREPETAG
1070
     1
1071
       14
1005
1268C0
  0
ARC
  5
1268C1
  8
OBJECT
 10
2664.8782728787751
 20
-3821.4095072612249
 30
0.0
 40
110.86635228309
 50
144.1634274191434
 51
163.04035380433169
1001
ACDBBLOCKREPETAG
1070
     1
1071
       15
1005
1268C1
  0
ARC
  5
1268C2
  8
OBJECT
 10
2617.1359887769072
 20
-3806.287749718445
 30
0.0
 40
60.791749880358971
 50
163.5472046522267
 51
179.72879698282679
1001
ACDBBLOCKREPETAG
1070
     1
1071
       16
1005
1268C2
  0
ARC
  5
1268C3
  8
OBJECT
 10
2617.1359956562478
 20
-3812.7122497598971
 30
0.0
 40
60.79175676209487
 50
180.2712034781452
 51
196.4527794605338
1001
ACDBBLOCKREPETAG
1070
     1
1071
       17
1005
1268C3
  0
ARC
  5
1268C4
  8
OBJECT
 10
2664.8782728787751
 20
-3797.5904927388328
 30
0.0
 40
110.8663522830916
 50
196.95964619566811
 51
215.8365725808566
1001
ACDBBLOCKREPETAG
1070
     1
1071
       18
1005
1268C4
  0
LINE
  5
1268C5
  8
OBJECT
 10
2556.3449199130041
 20
-3806.0000000000332
 30
0.0
 11
2556.3449199130041
 21
-3813.0000000000291
 31
0.0
1001
ACDBBLOCKREPETAG
1070
     1
1071
       19
1005
1268C5
  0
LINE
  5
1268C6
  8
OBJECT
 10
2575.0
 20
-3756.5000000000618
 30
0.0
 11
2581.5
 21
-3756.5000000000618
 31
0.0
1001
ACDBBLOCKREPETAG
1070
     1
1071
       20
1005
1268C6
  0
LINE
  5
1268C7
  8
OBJECT
 10
2575.0
 20
-3862.4999999999968
 30
0.0
 11
2584.5
 21
-3862.4999999999968
 31
0.0
1001
ACDBBLOCKREPETAG
1070
     1
1071
       21
1005
1268C7
  0
LINE
  5
1268C8
  8
OBJECT
 10
2633.0
 20
-3412.9999999999968
 30
0.0
 11
2640.0
 21
-3412.9999999999968
 31
0.0
1001
ACDBBLOCKREPETAG
1070
     1
1071
        0
1005
1268C8
  0
LINE
  5
1268C9
  8
OBJECT
 10
2640.0
 20
-3412.9999999999968
 30
0.0
 11
2640.0
 21
-3506.9999999999968
 31
0.0
1001
ACDBBLOCKREPETAG
1070
     1
1071
        1
1005
1268C9
  0
LINE
  5
1268CA
  8
OBJECT
 10
2640.0
 20
-3506.9999999999968
 30
0.0
 11
2633.0
 21
-3506.9999999999968
 31
0.0
1001
ACDBBLOCKREPETAG
1070
     1
1071
        2
1005
1268CA
  0
LINE
  5
1268CB
  8
OBJECT
 10
2633.0
 20
-3506.9999999999968
 30
0.0
 11
2633.0
 21
-3412.9999999999968
 31
0.0
1001
ACDBBLOCKREPETAG
1070
     1
1071
        3
1005
1268CB
  0
LINE
  5
1268CC
  8
CENTER
 10
2655.0
 20
-3459.9999999999968
 30
0.0
 11
2580.0
 21
-3459.9999999999968
 31
0.0
1001
ACDBBLOCKREPETAG
1070
     1
1071
        4
1005
1268CC
  0
LINE
  5
1268CD
  8
OBJECT
 10
2633.0
 20
-3415.9999999999959
 30
0.0
 11
2596.9999999999991
 21
-3415.9999999999959
 31
0.0
1001
ACDBBLOCKREPETAG
1070
     1
1071
        5
1005
1268CD
  0
LINE
  5
1268CE
  8
OBJECT
 10
2596.9999999999991
 20
-3415.9999999999959
 30
0.0
 11
2596.9999999999991
 21
-3503.9999999999959
 31
0.0
1001
ACDBBLOCKREPETAG
1070
     1
1071
        6
1005
1268CE
  0
LINE
  5
1268CF
  8
OBJECT
 10
2596.9999999999991
 20
-3503.9999999999959
 30
0.0
 11
2633.0
 21
-3503.9999999999959
 31
0.0
1001
ACDBBLOCKREPETAG
1070
     1
1071
        7
1005
1268CF
  0
LINE
  5
1268D0
  8
OBJECT
 10
2593.0
 20
-3420.4999999999959
 30
0.0
 11
2584.5
 21
-3420.4999999999959
 31
0.0
1001
ACDBBLOCKREPETAG
1070
     1
1071
        8
1005
1268D0
  0
LINE
  5
1268D1
  8
OBJECT
 10
2584.5
 20
-3499.4999999999959
 30
0.0
 11
2593.0
 21
-3499.4999999999959
 31
0.0
1001
ACDBBLOCKREPETAG
1070
     1
1071
        9
1005
1268D1
  0
LINE
  5
1268D2
  8
OBJECT
 10
2593.0
 20
-3499.4999999999959
 30
0.0
 11
2593.0
 21
-3420.4999999999959
 31
0.0
1001
ACDBBLOCKREPETAG
1070
     1
1071
       10
1005
1268D2
  0
LINE
  5
1268D3
  8
OBJECT
 10
2596.9999999999991
 20
-3415.9999999999959
 30
0.0
 11
2593.0
 21
-3420.4999999999959
 31
0.0
1001
ACDBBLOCKREPETAG
1070
     1
1071
       11
1005
1268D3
  0
LINE
  5
1268D4
  8
OBJECT
 10
2596.9999999999991
 20
-3503.9999999999959
 30
0.0
 11
2593.0
 21
-3499.4999999999959
 31
0.0
1001
ACDBBLOCKREPETAG
1070
     1
1071
       12
1005
1268D4
  0
LINE
  5
1268D5
  8
OBJECT
 10
2584.4999999999991
 20
-3506.4999999999959
 30
0.0
 11
2584.5
 21
-3413.4999999999959
 31
0.0
1001
ACDBBLOCKREPETAG
1070
     1
1071
       13
1005
1268D5
  0
ARC
  5
1268D6
  8
OBJECT
 10
2581.5
 20
-3413.4999999999959
 30
0.0
 40
3.0
 50
0.0
 51
90.0
1001
ACDBBLOCKREPETAG
1070
     1
1071
       14
1005
1268D6
  0
LINE
  5
1268D7
  8
HIDDEN
 10
2588.0
 20
-3429.9999999999959
 30
0.0
 11
2588.0
 21
-3489.9999999999968
 31
0.0
1001
ACDBBLOCKREPETAG
1070
     1
1071
       15
1005
1268D7
  0
LINE
  5
1268D8
  8
OBJECT
 10
2581.5
 20
-3410.4999999999959
 30
0.0
 11
2556.3449199129791
 21
-3410.4999999999959
 31
0.0
1001
ACDBBLOCKREPETAG
1070
     1
1071
       17
1005
1268D8
  0
LINE
  5
1268D9
  8
OBJECT
 10
2581.4999999999991
 20
-3509.4999999999959
 30
0.0
 11
2556.3449199129791
 21
-3509.4999999999959
 31
0.0
1001
ACDBBLOCKREPETAG
1070
     1
1071
       18
1005
1268D9
  0
ARC
  5
1268DA
  8
OBJECT
 10
2581.4999999999991
 20
-3506.4999999999959
 30
0.0
 40
3.0
 50
270.0
 51
0.0
1001
ACDBBLOCKREPETAG
1070
     1
1071
       19
1005
1268DA
  0
LINE
  5
1268DB
  8
CENTER
 10
5077.0
 20
-695.99999999999432
 30
0.0
 11
4923.0
 21
-695.99999999999432
 31
0.0
1001
ACDBBLOCKREPETAG
1070
     1
1071
       17
1005
1268DB
  0
CIRCLE
  5
1268DC
  8
OBJECT
 10
5000.0
 20
-695.99999999999432
 30
0.0
 40
41.5
1001
ACDBBLOCKREPETAG
1070
     1
1071
       19
1005
1268DC
  0
CIRCLE
  5
1268DD
  8
OBJECT
 10
5000.0
 20
-695.99999999999432
 30
0.0
 40
54.0
1001
ACDBBLOCKREPETAG
1070
     1
1071
       20
1005
1268DD
  0
ARC
  5
1268DE
  8
OBJECT
 10
5000.0
 20
-695.99999999999432
 30
0.0
 40
62.0
 50
287.89655112920718
 51
252.10344887079279
1001
ACDBBLOCKREPETAG
1070
     1
1071
       21
1005
1268DE
  0
LINE
  5
1268DF
  8
OBJECT
 10
4980.947441116743
 20
-754.9999999999942
 30
0.0
 11
5019.052558883257
 21
-754.9999999999942
 31
0.0
1001
ACDBBLOCKREPETAG
1070
     1
1071
       22
1005
1268DF
  0
LINE
  5
1268E0
  8
OBJECT
 10
4633.0
 20
-634.0
 30
0.0
 11
4640.0
 21
-634.0
 31
0.0
1001
ACDBBLOCKREPETAG
1070
     1
1071
       45
1005
1268E0
  0
LINE
  5
1268E1
  8
OBJECT
 10
4640.0
 20
-634.0
 30
0.0
 11
4640.0
 21
-755.0
 31
0.0
1001
ACDBBLOCKREPETAG
1070
     1
1071
       46
1005
1268E1
  0
LINE
  5
1268E2
  8
OBJECT
 10
4633.0
 20
-755.0
 30
0.0
 11
4633.0
 21
-634.0
 31
0.0
1001
ACDBBLOCKREPETAG
1070
     1
1071
       47
1005
1268E2
  0
LINE
  5
1268E3
  8
CENTER
 10
4655.0
 20
-696.0
 30
0.0
 11
4571.0
 21
-696.0
 31
0.0
1001
ACDBBLOCKREPETAG
1070
     1
1071
       48
1005
1268E3
  0
LINE
  5
1268E4
  8
OBJECT
 10
4633.0
 20
-637.0
 30
0.0
 11
4597.0
 21
-637.0
 31
0.0
1001
ACDBBLOCKREPETAG
1070
     1
1071
       49
1005
1268E4
  0
LINE
  5
1268E5
  8
OBJECT
 10
4597.0
 20
-637.0
 30
0.0
 11
4597.0
 21
-755.0
 31
0.0
1001
ACDBBLOCKREPETAG
1070
     1
1071
       50
1005
1268E5
  0
LINE
  5
1268E6
  8
OBJECT
 10
4597.0
 20
-755.0
 30
0.0
 11
4640.0
 21
-755.0
 31
0.0
1001
ACDBBLOCKREPETAG
1070
     1
1071
       51
1005
1268E6
  0
LINE
  5
1268E7
  8
OBJECT
 10
4593.0
 20
-641.5
 30
0.0
 11
4586.0
 21
-641.5
 31
0.0
1001
ACDBBLOCKREPETAG
1070
     1
1071
       52
1005
1268E7
  0
LINE
  5
1268E8
  8
OBJECT
 10
4586.0
 20
-750.49999999999989
 30
0.0
 11
4593.0
 21
-750.49999999999989
 31
0.0
1001
ACDBBLOCKREPETAG
1070
     1
1071
       53
1005
1268E8
  0
LINE
  5
1268E9
  8
OBJECT
 10
4593.0
 20
-750.49999999999989
 30
0.0
 11
4593.0
 21
-641.5
 31
0.0
1001
ACDBBLOCKREPETAG
1070
     1
1071
       54
1005
1268E9
  0
LINE
  5
1268EA
  8
OBJECT
 10
4597.0
 20
-637.0
 30
0.0
 11
4593.0
 21
-641.5
 31
0.0
1001
ACDBBLOCKREPETAG
1070
     1
1071
       55
1005
1268EA
  0
LINE
  5
1268EB
  8
OBJECT
 10
4597.0
 20
-755.0
 30
0.0
 11
4593.0
 21
-750.49999999999989
 31
0.0
1001
ACDBBLOCKREPETAG
1070
     1
1071
       56
1005
1268EB
  0
LINE
  5
1268EC
  8
OBJECT
 10
4583.0
 20
-634.0
 30
0.0
 11
4580.0
 21
-634.0
 31
0.0
1001
ACDBBLOCKREPETAG
1070
     1
1071
       57
1005
1268EC
  0
ARC
  5
1268ED
  8
OBJECT
 10
4583.0
 20
-637.0
 30
0.0
 40
3.0
 50
0.0
 51
90.0
1001
ACDBBLOCKREPETAG
1070
     1
1071
       58
1005
1268ED
  0
LINE
  5
1268EE
  8
OBJECT
 10
4580.0
 20
-758.0
 30
0.0
 11
4583.0
 21
-758.0
 31
0.0
1001
ACDBBLOCKREPETAG
1070
     1
1071
       59
1005
1268EE
  0
ARC
  5
1268EF
  8
OBJECT
 10
4583.0
 20
-755.0
 30
0.0
 40
3.0
 50
270.0
 51
0.0
1001
ACDBBLOCKREPETAG
1070
     1
1071
       60
1005
1268EF
  0
LINE
  5
1268F0
  8
OBJECT
 10
4586.0
 20
-755.0
 30
0.0
 11
4586.0
 21
-637.0
 31
0.0
1001
ACDBBLOCKREPETAG
1070
     1
1071
       61
1005
1268F0
  0
LINE
  5
1268F1
  8
HIDDEN
 10
4588.0
 20
-651.5
 30
0.0
 11
4588.0
 21
-740.5
 31
0.0
1001
ACDBBLOCKREPETAG
1070
     1
1071
       63
1005
1268F1
  0
LINE
  5
1268F2
  8
CENTER
 10
3077.0
 20
-695.99999999999432
 30
0.0
 11
2923.0
 21
-695.99999999999432
 31
0.0
1001
ACDBBLOCKREPETAG
1070
     1
1071
       17
1005
1268F2
  0
CIRCLE
  5
1268F3
  8
OBJECT
 10
3000.0
 20
-695.99999999999432
 30
0.0
 40
41.5
1001
ACDBBLOCKREPETAG
1070
     1
1071
       19
1005
1268F3
  0
CIRCLE
  5
1268F4
  8
OBJECT
 10
3000.0
 20
-695.99999999999432
 30
0.0
 40
54.0
1001
ACDBBLOCKREPETAG
1070
     1
1071
       20
1005
1268F4
  0
ARC
  5
1268F5
  8
OBJECT
 10
3000.0
 20
-695.99999999999432
 30
0.0
 40
62.0
 50
287.89655112920718
 51
252.10344887079279
1001
ACDBBLOCKREPETAG
1070
     1
1071
       21
1005
1268F5
  0
LINE
  5
1268F6
  8
OBJECT
 10
2980.947441116743
 20
-754.9999999999942
 30
0.0
 11
3019.052558883257
 21
-754.9999999999942
 31
0.0
1001
ACDBBLOCKREPETAG
1070
     1
1071
       22
1005
1268F6
  0
TEXT
  5
1268F7
  8
SLIM
 10
149.1428571427966
 20
-443.99999999984971
 30
0.0
 40
48.0
  1
A3
 41
0.75
1001
ACDBBLOCKREPETAG
1070
     1
1071
      119
1005
0
  0
LINE
  5
1268F8
  8
OBJECT
 10
2633.0
 20
-137.99999999999909
 30
0.0
 11
2640.0
 21
-137.99999999999909
 31
0.0
1001
ACDBBLOCKREPETAG
1070
     1
1071
       47
1005
1268F8
  0
LINE
  5
1268F9
  8
OBJECT
 10
2640.0
 20
-137.99999999999909
 30
0.0
 11
2640.0
 21
-261.99999999999909
 31
0.0
1001
ACDBBLOCKREPETAG
1070
     1
1071
       48
1005
1268F9
  0
LINE
  5
1268FA
  8
OBJECT
 10
2640.0
 20
-261.99999999999909
 30
0.0
 11
2633.0
 21
-261.99999999999909
 31
0.0
1001
ACDBBLOCKREPETAG
1070
     1
1071
       49
1005
1268FA
  0
LINE
  5
1268FB
  8
OBJECT
 10
2633.0
 20
-261.99999999999909
 30
0.0
 11
2633.0
 21
-137.99999999999909
 31
0.0
1001
ACDBBLOCKREPETAG
1070
     1
1071
       50
1005
1268FB
  0
LINE
  5
1268FC
  8
CENTER
 10
2655.0
 20
-199.99999999999909
 30
0.0
 11
2580.0
 21
-199.99999999999909
 31
0.0
1001
ACDBBLOCKREPETAG
1070
     1
1071
       51
1005
1268FC
  0
LINE
  5
1268FD
  8
OBJECT
 10
2633.0
 20
-140.99999999999909
 30
0.0
 11
2597.0
 21
-140.99999999999909
 31
0.0
1001
ACDBBLOCKREPETAG
1070
     1
1071
       52
1005
1268FD
  0
LINE
  5
1268FE
  8
OBJECT
 10
2597.0
 20
-140.99999999999909
 30
0.0
 11
2597.0
 21
-258.99999999999909
 31
0.0
1001
ACDBBLOCKREPETAG
1070
     1
1071
       53
1005
1268FE
  0
LINE
  5
1268FF
  8
OBJECT
 10
2597.0
 20
-258.99999999999909
 30
0.0
 11
2633.0
 21
-258.99999999999909
 31
0.0
1001
ACDBBLOCKREPETAG
1070
     1
1071
       54
1005
1268FF
  0
LINE
  5
126900
  8
OBJECT
 10
2593.0
 20
-145.49999999999909
 30
0.0
 11
2586.0
 21
-145.49999999999909
 31
0.0
1001
ACDBBLOCKREPETAG
1070
     1
1071
       55
1005
126900
  0
LINE
  5
126901
  8
OBJECT
 10
2586.0
 20
-254.49999999999909
 30
0.0
 11
2593.0
 21
-254.49999999999909
 31
0.0
1001
ACDBBLOCKREPETAG
1070
     1
1071
       56
1005
126901
  0
LINE
  5
126902
  8
OBJECT
 10
2593.0
 20
-254.49999999999909
 30
0.0
 11
2593.0
 21
-145.49999999999909
 31
0.0
1001
ACDBBLOCKREPETAG
1070
     1
1071
       57
1005
126902
  0
LINE
  5
126903
  8
OBJECT
 10
2597.0
 20
-140.99999999999909
 30
0.0
 11
2593.0
 21
-145.49999999999909
 31
0.0
1001
ACDBBLOCKREPETAG
1070
     1
1071
       58
1005
126903
  0
LINE
  5
126904
  8
OBJECT
 10
2597.0
 20
-258.99999999999909
 30
0.0
 11
2593.0
 21
-254.49999999999909
 31
0.0
1001
ACDBBLOCKREPETAG
1070
     1
1071
       59
1005
126904
  0
LINE
  5
126905
  8
OBJECT
 10
2583.0
 20
-137.99999999999909
 30
0.0
 11
2580.0
 21
-137.99999999999909
 31
0.0
1001
ACDBBLOCKREPETAG
1070
     1
1071
       60
1005
126905
  0
ARC
  5
126906
  8
OBJECT
 10
2583.0
 20
-140.99999999999909
 30
0.0
 40
3.0
 50
0.0
 51
90.0
1001
ACDBBLOCKREPETAG
1070
     1
1071
       61
1005
126906
  0
LINE
  5
126907
  8
OBJECT
 10
2580.0
 20
-261.99999999999909
 30
0.0
 11
2583.0
 21
-261.99999999999909
 31
0.0
1001
ACDBBLOCKREPETAG
1070
     1
1071
       62
1005
126907
  0
ARC
  5
126908
  8
OBJECT
 10
2583.0
 20
-258.99999999999909
 30
0.0
 40
3.0
 50
270.0
 51
0.0
1001
ACDBBLOCKREPETAG
1070
     1
1071
       63
1005
126908
  0
LINE
  5
126909
  8
OBJECT
 10
2586.0
 20
-258.99999999999909
 30
0.0
 11
2586.0
 21
-140.99999999999909
 31
0.0
1001
ACDBBLOCKREPETAG
1070
     1
1071
       64
1005
126909
  0
LINE
  5
12690A
  8
HIDDEN
 10
2588.0
 20
-155.49999999999909
 30
0.0
 11
2588.0
 21
-244.49999999999909
 31
0.0
1001
ACDBBLOCKREPETAG
1070
     1
1071
       65
1005
12690A
  0
LINE
  5
12690B
  8
OBJECT
 10
2633.0
 20
-634.0
 30
0.0
 11
2640.0
 21
-634.0
 31
0.0
1001
ACDBBLOCKREPETAG
1070
     1
1071
       45
1005
12690B
  0
LINE
  5
12690C
  8
OBJECT
 10
2640.0
 20
-634.0
 30
0.0
 11
2640.0
 21
-755.0
 31
0.0
1001
ACDBBLOCKREPETAG
1070
     1
1071
       46
1005
12690C
  0
LINE
  5
12690D
  8
OBJECT
 10
2633.0
 20
-755.0
 30
0.0
 11
2633.0
 21
-634.0
 31
0.0
1001
ACDBBLOCKREPETAG
1070
     1
1071
       47
1005
12690D
  0
LINE
  5
12690E
  8
CENTER
 10
2655.0
 20
-696.0
 30
0.0
 11
2571.0
 21
-696.0
 31
0.0
1001
ACDBBLOCKREPETAG
1070
     1
1071
       48
1005
12690E
  0
LINE
  5
12690F
  8
OBJECT
 10
2633.0
 20
-637.0
 30
0.0
 11
2597.0
 21
-637.0
 31
0.0
1001
ACDBBLOCKREPETAG
1070
     1
1071
       49
1005
12690F
  0
LINE
  5
126910
  8
OBJECT
 10
2597.0
 20
-637.0
 30
0.0
 11
2597.0
 21
-755.0
 31
0.0
1001
ACDBBLOCKREPETAG
1070
     1
1071
       50
1005
126910
  0
LINE
  5
126911
  8
OBJECT
 10
2597.0
 20
-755.0
 30
0.0
 11
2640.0
 21
-755.0
 31
0.0
1001
ACDBBLOCKREPETAG
1070
     1
1071
       51
1005
126911
  0
LINE
  5
126912
  8
OBJECT
 10
2593.0
 20
-641.5
 30
0.0
 11
2586.0
 21
-641.5
 31
0.0
1001
ACDBBLOCKREPETAG
1070
     1
1071
       52
1005
126912
  0
LINE
  5
126913
  8
OBJECT
 10
2586.0
 20
-750.49999999999989
 30
0.0
 11
2593.0
 21
-750.49999999999989
 31
0.0
1001
ACDBBLOCKREPETAG
1070
     1
1071
       53
1005
126913
  0
LINE
  5
126914
  8
OBJECT
 10
2593.0
 20
-750.49999999999989
 30
0.0
 11
2593.0
 21
-641.5
 31
0.0
1001
ACDBBLOCKREPETAG
1070
     1
1071
       54
1005
126914
  0
LINE
  5
126915
  8
OBJECT
 10
2597.0
 20
-637.0
 30
0.0
 11
2593.0
 21
-641.5
 31
0.0
1001
ACDBBLOCKREPETAG
1070
     1
1071
       55
1005
126915
  0
LINE
  5
126916
  8
OBJECT
 10
2597.0
 20
-755.0
 30
0.0
 11
2593.0
 21
-750.49999999999989
 31
0.0
1001
ACDBBLOCKREPETAG
1070
     1
1071
       56
1005
126916
  0
LINE
  5
126917
  8
OBJECT
 10
2583.0
 20
-634.0
 30
0.0
 11
2580.0
 21
-634.0
 31
0.0
1001
ACDBBLOCKREPETAG
1070
     1
1071
       57
1005
126917
  0
ARC
  5
126918
  8
OBJECT
 10
2583.0
 20
-637.0
 30
0.0
 40
3.0
 50
0.0
 51
90.0
1001
ACDBBLOCKREPETAG
1070
     1
1071
       58
1005
126918
  0
LINE
  5
126919
  8
OBJECT
 10
2580.0
 20
-758.0
 30
0.0
 11
2583.0
 21
-758.0
 31
0.0
1001
ACDBBLOCKREPETAG
1070
     1
1071
       59
1005
126919
  0
ARC
  5
12691A
  8
OBJECT
 10
2583.0
 20
-755.0
 30
0.0
 40
3.0
 50
270.0
 51
0.0
1001
ACDBBLOCKREPETAG
1070
     1
1071
       60
1005
12691A
  0
LINE
  5
12691B
  8
OBJECT
 10
2586.0
 20
-755.0
 30
0.0
 11
2586.0
 21
-637.0
 31
0.0
1001
ACDBBLOCKREPETAG
1070
     1
1071
       61
1005
12691B
  0
LINE
  5
12691C
  8
HIDDEN
 10
2588.0
 20
-651.5
 30
0.0
 11
2588.0
 21
-740.5
 31
0.0
1001
ACDBBLOCKREPETAG
1070
     1
1071
       63
1005
12691C
  0
TEXT
  5
12691D
  8
SLIM
 10
0.0000035665234464
 20
24.000004585317608
 30
0.0
 40
79.999999999972701
  1
上部枝管
 41
0.75
1001
ACDBBLOCKREPETAG
1070
     1
1071
      119
1005
120BCB
  0
LINE
  5
12691E
  8
DIM
 10
2650.0
 20
-3506.9999999999968
 30
0.0
 11
2728.479620594459
 21
-3506.9999999999968
 31
0.0
  0
LINE
  5
12691F
  8
DIM
 10
2650.0
 20
-3412.9999999999968
 30
0.0
 11
2728.479620594459
 21
-3412.9999999999968
 31
0.0
  0
LINE
  5
126920
  8
DIM
 10
2718.479620594459
 20
-3486.9999999999959
 30
0.0
 11
2718.479620594459
 21
-3432.9999999999959
 31
0.0
  0
INSERT
  5
126921
  8
DIM
  2
_OPEN30
 10
2718.479620594459
 20
-3506.9999999999968
 30
0.0
 41
20.0
 42
20.0
 43
20.0
 50
270.0
  0
INSERT
  5
126922
  8
DIM
  2
_OPEN30
 10
2718.479620594459
 20
-3412.9999999999968
 30
0.0
 41
20.0
 42
20.0
 43
20.0
 50
90.0
  0
INSERT
  5
126923
  8
SLIM
  2
*U10
 10
0.0
 20
0.0
 30
0.0
  0
LINE
  5
126924
  8
DIM
 10
2650.0
 20
-3864.9999999999968
 30
0.0
 11
2726.8409284037339
 21
-3864.9999999999968
 31
0.0
  0
LINE
  5
126925
  8
DIM
 10
2665.0
 20
-3820.9999999999968
 30
0.0
 11
2726.8409284037339
 21
-3820.9999999999968
 31
0.0
  0
LINE
  5
126926
  8
DIM
 10
2716.8409284037339
 20
-3884.9999999999991
 30
0.0
 11
2716.8409284037339
 21
-3904.9999999999968
 31
0.0
  0
LINE
  5
126927
  8
DIM
 10
2716.8409284037339
 20
-3800.9999999999982
 30
0.0
 11
2716.8409284037339
 21
-3780.9999999999968
 31
0.0
  0
LINE
  5
126928
  8
DIM
 10
2716.8409284037339
 20
-3864.9999999999968
 30
0.0
 11
2716.8409284037339
 21
-3820.9999999999968
 31
0.0
  0
INSERT
  5
126929
  8
DIM
  2
_OPEN30
 10
2716.8409284037339
 20
-3864.9999999999968
 30
0.0
 41
20.0
 42
20.0
 43
20.0
 50
90.0
  0
INSERT
  5
12692A
  8
DIM
  2
_OPEN30
 10
2716.8409284037339
 20
-3820.9999999999968
 30
0.0
 41
20.0
 42
20.0
 43
20.0
 50
270.0
  0
INSERT
  5
12692B
  8
SLIM
  2
*U11
 10
0.0
 20
0.0
 30
0.0
  0
LINE
  5
12692C
  8
DIM
 10
2500.0
 20
-3359.9999999999968
 30
0.0
 11
2500.0
 21
-3322.208121984444
 31
0.0
  0
LINE
  5
12692D
  8
DIM
 10
2640.0
 20
-3402.9999999999968
 30
0.0
 11
2640.0
 21
-3322.208121984444
 31
0.0
  0
LINE
  5
12692E
  8
DIM
 10
2520.0
 20
-3332.208121984444
 30
0.0
 11
2620.0
 21
-3332.208121984444
 31
0.0
  0
INSERT
  5
12692F
  8
DIM
  2
_OPEN30
 10
2500.0
 20
-3332.208121984444
 30
0.0
 41
20.0
 42
20.0
 43
20.0
 50
180.0
  0
INSERT
  5
126930
  8
DIM
  2
_OPEN30
 10
2640.0
 20
-3332.208121984444
 30
0.0
 41
20.0
 42
20.0
 43
20.0
  0
INSERT
  5
126931
  8
SLIM
  2
*U12
 10
0.0
 20
0.0
 30
0.0
  0
TEXT
  5
126932
  8
SLIM
 10
3270.9999999999991
 20
-3237.5000160472709
 30
0.0
 40
40.0
  1
C寸法
 41
0.75
  0
TEXT
  5
126933
  8
SLIM
 10
3270.9999999999991
 20
-3167.5000160472709
 30
0.0
 40
40.0
  1
B寸法
 41
0.75
  0
TEXT
  5
126934
  8
SLIM
 10
3270.2857142857151
 20
-3097.5000160472709
 30
0.0
 40
40.0
  1
A寸法
 41
0.75
  0
TEXT
  5
126935
  8
SLIM
 10
3669.2857142857142
 20
-3237.5000160472709
 30
0.0
 40
40.0
  1
140
 41
0.75
  0
TEXT
  5
126936
  8
SLIM
 10
3409.2857142857151
 20
-3237.5000160472709
 30
0.0
 40
40.0
  1
140
 41
0.75
  0
TEXT
  5
126937
  8
SLIM
 10
3539.2857142857151
 20
-3237.5000160472709
 30
0.0
 40
40.0
  1
140
 41
0.75
  0
TEXT
  5
126938
  8
SLIM
 10
3681.4285714285711
 20
-3167.5000160472709
 30
0.0
 40
40.0
  1
59
 41
0.75
  0
TEXT
  5
126939
  8
SLIM
 10
3420.0
 20
-3167.5000160472709
 30
0.0
 40
40.0
  1
44
 41
0.75
  0
TEXT
  5
12693A
  8
SLIM
 10
3550.7142857142849
 20
-3167.5000160472709
 30
0.0
 40
40.0
  1
52
 41
0.75
  0
TEXT
  5
12693B
  8
SLIM
 10
3471.0
 20
-2972.5000160472709
 30
0.0
 40
40.0
  1
横枝管サイズ
 41
0.75
  0
TEXT
  5
12693C
  8
SLIM
 10
3654.8571428571422
 20
-3027.50001604727
 30
0.0
 40
30.0
  1
75（3）
 41
0.75
  0
TEXT
  5
12693D
  8
SLIM
 10
3524.8571428571422
 20
-3027.50001604727
 30
0.0
 40
30.0
  1
65（2）
 41
0.75
  0
TEXT
  5
12693E
  8
SLIM
 10
3397.0
 20
-3027.50001604727
 30
0.0
 40
30.0
  1
50（1）
 41
0.75
  0
TEXT
  5
12693F
  8
SLIM
 10
3668.5714285714289
 20
-3097.5000160472709
 30
0.0
 40
40.0
  1
124
 41
0.75
  0
TEXT
  5
126940
  8
SLIM
 10
3420.0
 20
-3097.5000160472709
 30
0.0
 40
40.0
  1
94
 41
0.75
  0
TEXT
  5
126941
  8
SLIM
 10
3542.142857142856
 20
-3097.5000160472709
 30
0.0
 40
40.0
  1
110
 41
0.75
  0
TEXT
  5
126942
  8
SLIM
 10
2349.9999999999991
 20
-2997.5
 30
0.0
 40
75.0
  1
下部枝管サイズ毎の形状
 41
0.75
  0
TEXT
  5
126943
  8
SLIM
 10
4394.25
 20
-3982.4999999999968
 30
0.0
 40
35.0
  1
通常枝75（3）
 41
0.75
  0
TEXT
  5
126944
  8
SLIM
 10
3394.2499999999991
 20
-3982.4999999999968
 30
0.0
 40
35.0
  1
通常枝65（2）
 41
0.75
  0
TEXT
  5
126945
  8
SLIM
 10
2396.75
 20
-3982.4999999999968
 30
0.0
 40
35.0
  1
通常枝50（1）
 41
0.75
  0
TEXT
  5
126946
  8
SLIM
 10
2337.75
 20
282.50000000000011
 30
0.0
 40
35.0
  1
（枝管サイズ毎に寸法が異なります。管底の位置は全サイズで同じです）
 41
0.75
  0
TEXT
  5
126947
  8
SLIM
 10
2350.0
 20
532.5
 30
0.0
 40
75.0
  1
側面図の代表機種
 41
0.75
  0
TEXT
  5
126948
  8
SLIM
 10
2350.0
 20
369.99999999999989
 30
0.0
 40
100.0
  1
4SRT2-A3-A0002-P440
 41
0.75
  0
TEXT
  5
126949
  8
SLIM
 10
4241.6249999999991
 20
-1752.499999999998
 30
0.0
 40
35.0
  1
片受けスタイル（S）＋シンドカット
 41
0.75
  0
TEXT
  5
12694A
  8
SLIM
 10
2356.25
 20
-1752.499999999998
 30
0.0
 40
35.0
  1
片受けスタイル（S）
 41
0.75
  0
TEXT
  5
12694B
  8
SLIM
 10
0.0
 20
370.0
 30
0.0
 40
100.0
  1
4SRT2-A3-A000X-PXXX-S
 41
0.75
  0
VIEWPORT
  5
F6BA7
 67
     1
  8
0
 10
195.9179030619629
 20
101.8328354358673
 30
0.0
 40
435.17763301655992
 41
222.19657968139651
 68
     1
 69
     1
1001
ACAD
1000
MVIEW
1002
{
1070
    16
1010
0.0
1020
0.0
1030
0.0
1010
0.0
1020
0.0
1030
1.0
1040
0.0
1040
222.19657968139651
1040
195.9179030619629
1040
101.8328354358673
1040
50.0
1040
0.0
1040
0.0
1070
     0
1070
     0
1070
     1
1070
     1
1070
     0
1070
     0
1070
     0
1070
     0
1040
0.0
1040
0.0
1040
0.0
1040
10.0
1040
10.0
1040
10.0
1040
10.0
1070
     0
1002
{
1002
}
1002
}
  0
VIEWPORT
  5
F6BA9
 67
     1
  8
OBJECT
 10
145.3303314447403
 20
101.8328338861465
 30
0.0
 40
232.5285303115844
 41
162.93253421783439
 68
     2
 69
     2
1001
ACAD
1000
MVIEW
1002
{
1070
    16
1010
0.0
1020
0.0
1030
0.0
1010
0.0
1020
0.0
1030
1.0
1040
0.0
1040
25942.55904403147
1040
2377.604457077377
1040
-7591.5176687056619
1040
50.0
1040
0.0
1040
0.0
1070
     0
1070
   600
1070
     1
1070
     1
1070
     0
1070
     0
1070
     0
1070
     0
1040
0.0
1040
0.0
1040
0.0
1040
1.0
1040
1.0
1040
0.0
1040
0.0
1070
     0
1002
{
1002
}
1002
}
  0
ENDSEC
  0
EOF
