  0
SECTION
  2
HEADER
  9
$ACADVER
  1
AC1009
  9
$INSBASE
 10
0.0
 20
0.0
 30
0.0
  9
$EXTMIN
 10
-0.0000000000002274
 20
-3817.4999999999959
 30
0.0
  9
$EXTMAX
 10
5602.0
 20
607.5
 30
0.0
  9
$LIMMIN
 10
0.0
 20
0.0
  9
$LIMMAX
 10
210.0
 20
297.0
  9
$ORTHOMODE
 70
     0
  9
$REGENMODE
 70
     1
  9
$FILLMODE
 70
     1
  9
$QTEXTMODE
 70
     0
  9
$MIRRTEXT
 70
     0
  9
$DRAGMODE
 70
     2
  9
$LTSCALE
 40
1.0
  9
$OSMODE
 70
    37
  9
$ATTMODE
 70
     1
  9
$TEXTSIZE
 40
4.0
  9
$TRACEWID
 40
0.05
  9
$TEXTSTYLE
  7
STANDARD
  9
$CLAYER
  8
OBJECT
  9
$CELTYPE
  6
BYLAYER
  9
$CECOLOR
 62
   256
  9
$DIMSCALE
 40
10.0
  9
$DIMASZ
 40
2.0
  9
$DIMEXO
 40
1.0
  9
$DIMDLI
 40
10.0
  9
$DIMRND
 40
0.0
  9
$DIMDLE
 40
0.0
  9
$DIMEXE
 40
1.0
  9
$DIMTP
 40
0.0
  9
$DIMTM
 40
0.0
  9
$DIMTXT
 40
3.2000000000000002
  9
$DIMCEN
 40
0.0
  9
$DIMTSZ
 40
0.0
  9
$DIMTOL
 70
     0
  9
$DIMLIM
 70
     0
  9
$DIMTIH
 70
     0
  9
$DIMTOH
 70
     0
  9
$DIMSE1
 70
     0
  9
$DIMSE2
 70
     0
  9
$DIMTAD
 70
     1
  9
$DIMZIN
 70
     8
  9
$DIMBLK
  1
OPEN30
  9
$DIMASO
 70
     1
  9
$DIMSHO
 70
     1
  9
$DIMPOST
  1

  9
$DIMAPOST
  1

  9
$DIMALT
 70
     0
  9
$DIMALTD
 70
     2
  9
$DIMALTF
 40
25.399999999999999
  9
$DIMLFAC
 40
1.0
  9
$DIMTOFL
 70
     1
  9
$DIMTVP
 40
0.0
  9
$DIMTIX
 70
     0
  9
$DIMSOXD
 70
     0
  9
$DIMSAH
 70
     0
  9
$DIMBLK1
  1

  9
$DIMBLK2
  1

  9
$DIMSTYLE
  2
S10
  9
$DIMCLRD
 70
   256
  9
$DIMCLRE
 70
   256
  9
$DIMCLRT
 70
   256
  9
$DIMTFAC
 40
1.0
  9
$DIMGAP
 40
0.9
  9
$LUNITS
 70
     2
  9
$LUPREC
 70
     2
  9
$SKETCHINC
 40
0.1
  9
$FILLETRAD
 40
0.0
  9
$AUNITS
 70
     0
  9
$AUPREC
 70
     2
  9
$MENU
  1
ACAD
  9
$ELEVATION
 40
0.0
  9
$PELEVATION
 40
0.0
  9
$THICKNESS
 40
0.0
  9
$LIMCHECK
 70
     0
  9
$BLIPMODE
 70
     0
  9
$CHAMFERA
 40
2.0
  9
$CHAMFERB
 40
2.0
  9
$SKPOLY
 70
     0
  9
$TDCREATE
 40
2453095.4929404748
  9
$TDUPDATE
 40
2457602.7575227888
  9
$TDINDWG
 40
19.927395463
  9
$TDUSRTIMER
 40
19.9273947569
  9
$USRTIMER
 70
     1
  9
$ANGBASE
 50
0.0
  9
$ANGDIR
 70
     0
  9
$PDMODE
 70
    35
  9
$PDSIZE
 40
2.0
  9
$PLINEWID
 40
0.0
  9
$COORDS
 70
     1
  9
$SPLFRAME
 70
     0
  9
$SPLINETYPE
 70
     6
  9
$SPLINESEGS
 70
     8
  9
$ATTDIA
 70
     0
  9
$ATTREQ
 70
     1
  9
$HANDLING
 70
     1
  9
$HANDSEED
  5
128964
  9
$SURFTAB1
 70
     6
  9
$SURFTAB2
 70
     6
  9
$SURFTYPE
 70
     6
  9
$SURFU
 70
     6
  9
$SURFV
 70
     6
  9
$UCSNAME
  2

  9
$UCSORG
 10
0.0
 20
0.0
 30
0.0
  9
$UCSXDIR
 10
1.0
 20
0.0
 30
0.0
  9
$UCSYDIR
 10
0.0
 20
1.0
 30
0.0
  9
$PUCSNAME
  2

  9
$PUCSORG
 10
0.0
 20
0.0
 30
0.0
  9
$PUCSXDIR
 10
1.0
 20
0.0
 30
0.0
  9
$PUCSYDIR
 10
0.0
 20
1.0
 30
0.0
  9
$USERI1
 70
     0
  9
$USERI2
 70
     0
  9
$USERI3
 70
     0
  9
$USERI4
 70
     0
  9
$USERI5
 70
     0
  9
$USERR1
 40
0.0
  9
$USERR2
 40
0.0
  9
$USERR3
 40
0.0
  9
$USERR4
 40
0.0
  9
$USERR5
 40
0.0
  9
$WORLDVIEW
 70
     1
  9
$SHADEDGE
 70
     3
  9
$SHADEDIF
 70
    70
  9
$TILEMODE
 70
     1
  9
$MAXACTVP
 70
    64
  9
$PLIMCHECK
 70
     0
  9
$PEXTMIN
 10
29.066066288948051
 20
20.366566777229309
 30
0.0
  9
$PEXTMAX
 10
261.5945966005325
 20
183.29910099506381
 30
0.0
  9
$PLIMMIN
 10
-3.17498779296875
 20
-3.1749999523162842
  9
$PLIMMAX
 10
293.83566284179687
 20
206.8406708240509
  9
$UNITMODE
 70
     0
  9
$VISRETAIN
 70
     1
  9
$PLINEGEN
 70
     0
  9
$PSLTSCALE
 70
     1
  0
ENDSEC
  0
SECTION
  2
TABLES
  0
TABLE
  2
VPORT
 70
     1
  0
VPORT
  2
*ACTIVE
 70
     0
 10
0.0
 20
0.0
 11
1.0
 21
1.0
 12
2682.4878362769769
 22
-1157.262392583747
 13
0.0
 23
0.0
 14
1.0
 24
1.0
 15
0.0
 25
0.0
 16
0.0
 26
0.0
 36
1.0
 17
0.0
 27
0.0
 37
0.0
 40
3806.672528130166
 41
1.6494178525226391
 42
50.0
 43
0.0
 44
0.0
 50
0.0
 51
0.0
 71
     0
 72
   600
 73
     1
 74
     1
 75
     0
 76
     0
 77
     0
 78
     0
  0
ENDTAB
  0
TABLE
  2
LTYPE
 70
     4
  0
LTYPE
  2
CONTINUOUS
 70
     0
  3
Solid line
 72
    65
 73
     0
 40
0.0
  0
LTYPE
  2
PHANTOM2
 70
     0
  3
___ _ _ ___ _ _ ___ _ _ ___ _ _
 72
    65
 73
     6
 40
1.25
 49
0.625
 49
-0.125
 49
0.125
 49
-0.125
 49
0.125
 49
-0.125
  0
LTYPE
  2
ACAD_ISO08W100
 70
     0
  3
ISO long-dash short-dash ____ __ ____ __ ____ _
 72
    65
 73
     4
 40
36.0
 49
24.0
 49
-3.0
 49
6.0
 49
-3.0
  0
LTYPE
  2
ACAD_ISO02W100
 70
     0
  3
ISO dash __ __ __ __ __ __ __ __ __ __ __ __ __
 72
    65
 73
     2
 40
15.0
 49
12.0
 49
-3.0
  0
ENDTAB
  0
TABLE
  2
LAYER
 70
     8
  0
LAYER
  2
0
 70
     0
 62
     7
  6
CONTINUOUS
  0
LAYER
  2
OBJECT
 70
     0
 62
     4
  6
CONTINUOUS
  0
LAYER
  2
DEFPOINTS
 70
     0
 62
     7
  6
CONTINUOUS
  0
LAYER
  2
DIM
 70
     0
 62
     7
  6
CONTINUOUS
  0
LAYER
  2
HIDDEN
 70
     0
 62
     2
  6
ACAD_ISO02W100
  0
LAYER
  2
CENTER
 70
     0
 62
     2
  6
ACAD_ISO08W100
  0
LAYER
  2
DOTS
 70
     0
 62
     1
  6
CONTINUOUS
  0
LAYER
  2
SLIM
 70
     0
 62
     2
  6
CONTINUOUS
  0
ENDTAB
  0
TABLE
  2
STYLE
 70
     2
  0
STYLE
  2
STANDARD
 70
     0
 40
0.0
 41
0.75
 50
0.0
 71
     0
 42
4.0
  3
simplex.shx
  4
bigfont.shx
  0
ENDTAB
  0
TABLE
  2
VIEW
 70
     0
  0
ENDTAB
  0
TABLE
  2
UCS
 70
     0
  0
ENDTAB
  0
TABLE
  2
APPID
 70
    20
  0
APPID
  2
ACAD
 70
     0
  0
APPID
  2
ACADANNOTATIVE
 70
     0
  0
APPID
  2
ACAD_PSEXT
 70
     0
  0
APPID
  2
ACAD_EXEMPT_FROM_CAD_STANDARDS
 70
     0
  0
APPID
  2
ACAECLAYERSTANDARD
 70
     0
  0
APPID
  2
ACAUTHENVIRON
 70
     0
  0
APPID
  2
ACDBDYNAMICBLOCKTRUENAME
 70
     0
  0
APPID
  2
ACDBDYNAMICBLOCKGUID
 70
     0
  0
APPID
  2
ACDBBLOCKREPETAG
 70
     0
  0
APPID
  2
ACDBBLOCKREPBTAG
 70
     0
  0
APPID
  2
ACAD_NAV_VCDISPLAY
 70
     0
  0
APPID
  2
ACAD_DSTYLE_DIMRADIAL_EXTENSION
 70
     0
  0
APPID
  2
ACAD_DSTYLE_DIMJAG
 70
     0
  0
APPID
  2
ACAD_DSTYLE_DIMTALN
 70
     0
  0
APPID
  2
ACADANNOPO
 70
     0
  0
APPID
  2
GRADIENTCOLOR1ACI
 70
     0
  0
APPID
  2
GRADIENTCOLOR2ACI
 70
     0
  0
APPID
  2
ACADANNOMONITORALERTICONDI
 70
     0
  0
APPID
  2
CONTENTBLOCKICON
 70
     0
  0
APPID
  2
ACAD_MLEADERVER
 70
     0
  0
ENDTAB
  0
TABLE
  2
DIMSTYLE
 70
     3
  0
DIMSTYLE
  2
STANDARD
 70
     0
  3

  4

  5

  6

  7

 40
1.0
 41
0.18
 42
0.0625
 43
0.38
 44
0.18
 45
0.0
 46
0.0
 47
0.0
 48
0.0
140
0.18
141
0.09
142
0.0
143
25.399999999999999
144
1.0
145
0.0
146
1.0
147
0.09
 71
     0
 72
     0
 73
     1
 74
     1
 75
     0
 76
     0
 77
     0
 78
     0
170
     0
171
     2
172
     0
173
     0
174
     0
175
     0
176
     0
177
     0
178
     0
  0
DIMSTYLE
  2
S10
 70
     0
  3

  4

  5

  6

  7

 40
10.0
 41
2.0
 42
1.0
 43
10.0
 44
1.0
 45
0.0
 46
0.0
 47
0.0
 48
0.0
140
3.2000000000000002
141
0.0
142
0.0
143
25.399999999999999
144
1.0
145
0.0
146
1.0
147
0.9
 71
     0
 72
     0
 73
     0
 74
     0
 75
     0
 76
     0
 77
     1
 78
     8
170
     0
171
     2
172
     1
173
     0
174
     0
175
     0
176
   256
177
   256
178
   256
  0
ENDTAB
  0
ENDSEC
  0
SECTION
  2
BLOCKS
  0
BLOCK
  8
0
  2
$MODEL_SPACE
 70
     0
 10
0.0
 20
0.0
 30
0.0
  3
$MODEL_SPACE
  1

  0
ENDBLK
  5
1288B4
  8
0
  0
BLOCK
 67
     1
  8
0
  2
$PAPER_SPACE
 70
     0
 10
0.0
 20
0.0
 30
0.0
  3
$PAPER_SPACE
  1

  0
ENDBLK
  5
1288B0
 67
     1
  8
0
  0
BLOCK
  8
0
  2
_OPEN30
 70
     0
 10
0.0
 20
0.0
 30
0.0
  3
_OPEN30
  1

  0
LINE
  5
202
  8
0
  6
BYBLOCK
 62
     0
 10
-1.0
 20
0.26794919
 30
0.0
 11
0.0
 21
0.0
 31
0.0
  0
LINE
  5
203
  8
0
  6
BYBLOCK
 62
     0
 10
0.0
 20
0.0
 30
0.0
 11
-1.0
 21
-0.26794919
 31
0.0
  0
LINE
  5
204
  8
0
  6
BYBLOCK
 62
     0
 10
0.0
 20
0.0
 30
0.0
 11
-1.0
 21
0.0
 31
0.0
  0
ENDBLK
  5
206
  8
0
  0
BLOCK
  8
0
  2
*U3
 70
     1
 10
0.0
 20
0.0
 30
0.0
  3
*U3
  1

  0
TEXT
  5
128808
  8
SLIM
 10
112.9999999999997
 20
-1481.047619047619
 30
0.0
 40
26.0
  1
75
 50
90.0
  0
ENDBLK
  5
12880A
  8
0
  0
BLOCK
  8
0
  2
*U4
 70
     1
 10
0.0
 20
0.0
 30
0.0
  3
*U4
  1

  0
TEXT
  5
12880C
  8
SLIM
 10
472.9999999999996
 20
-1017.047619047619
 30
0.0
 40
26.0
  1
65
 50
90.0
  0
ENDBLK
  5
12880E
  8
0
  0
BLOCK
  8
0
  2
*U5
 70
     1
 10
0.0
 20
0.0
 30
0.0
  3
*U5
  1

  0
TEXT
  5
128810
  8
SLIM
 10
112.9999999999997
 20
-1017.047619047619
 30
0.0
 40
26.0
  1
50
 50
90.0
  0
ENDBLK
  5
128812
  8
0
  0
BLOCK
  8
0
  2
*U6
 70
     1
 10
0.0
 20
0.0
 30
0.0
  3
*U6
  1

  0
TEXT
  5
128814
  8
DIM
 10
4334.1164560757752
 20
-1088.74285714285
 30
0.0
 40
32.0
  1
m（シンドカット）
 50
90.0
 41
0.75
  0
ENDBLK
  5
128816
  8
0
  0
BLOCK
  8
0
  2
*U7
 70
     1
 10
0.0
 20
0.0
 30
0.0
  3
*U7
  1

  0
TEXT
  5
128818
  8
DIM
 10
4700.4245816727553
 20
-779.00000000000239
 30
0.0
 40
32.0
  1
P
 50
90.0
 41
0.75
  0
ENDBLK
  5
12881A
  8
0
  0
BLOCK
  8
0
  2
*U8
 70
     1
 10
0.0
 20
0.0
 30
0.0
  3
*U8
  1

  0
TEXT
  5
12881C
  8
DIM
 10
2700.4245816727562
 20
-778.99999999999682
 30
0.0
 40
32.0
  1
P
 50
90.0
 41
0.75
  0
ENDBLK
  5
12881E
  8
0
  0
BLOCK
  8
0
  2
*U9
 70
     1
 10
0.0
 20
0.0
 30
0.0
  3
*U9
  1

  0
TEXT
  5
128820
  8
DIM
 10
2709.4796205944622
 20
-3304.1428571428528
 30
0.0
 40
32.0
  1
A
 50
90.0
 41
0.75
  0
ENDBLK
  5
128822
  8
0
  0
BLOCK
  8
0
  2
*U10
 70
     1
 10
0.0
 20
0.0
 30
0.0
  3
*U10
  1

  0
TEXT
  5
128824
  8
DIM
 10
2707.8409284037348
 20
-3685.9999999999968
 30
0.0
 40
32.0
  1
B
 50
90.0
 41
0.75
  0
ENDBLK
  5
128826
  8
0
  0
BLOCK
  8
0
  2
*U11
 70
     1
 10
0.0
 20
0.0
 30
0.0
  3
*U11
  1

  0
TEXT
  5
128828
  8
DIM
 10
2561.428571428572
 20
-3158.208121984444
 30
0.0
 40
32.0
  1
C
 41
0.75
  0
ENDBLK
  5
12882A
  8
0
  0
BLOCK
  8
0
  2
*U12
 70
     1
 10
0.0
 20
0.0
 30
0.0
  3
*U12
  1

  0
TEXT
  5
128840
  8
SLIM
 10
158.9523809524228
 20
-130.00000000017181
 30
0.0
 40
26.0
  1
75
  0
ENDBLK
  5
128842
  8
0
  0
ENDSEC
  0
SECTION
  2
ENTITIES
  0
LINE
  5
1251AE
  8
OBJECT
 10
2325.0000000000009
 20
-3699.9999999999968
 30
0.0
 11
5075.0000000000009
 21
-3699.9999999999968
 31
0.0
  0
LINE
  5
1251B0
  8
SLIM
 10
3256.0
 20
-2757.50001604727
 30
0.0
 11
3256.0
 21
-3087.50001604727
 31
0.0
  0
LINE
  5
1251B1
  8
SLIM
 10
3380.0000000000009
 20
-2757.50001604727
 30
0.0
 11
3380.0000000000009
 21
-3087.50001604727
 31
0.0
  0
LINE
  5
1251B2
  8
SLIM
 10
3510.0000000000018
 20
-2817.5000160472709
 30
0.0
 11
3510.0000000000018
 21
-3087.50001604727
 31
0.0
  0
LINE
  5
1251B3
  8
SLIM
 10
3640.0000000000009
 20
-2817.5000160472709
 30
0.0
 11
3640.0000000000009
 21
-3087.50001604727
 31
0.0
  0
LINE
  5
1251B4
  8
SLIM
 10
3770.0
 20
-3087.50001604727
 30
0.0
 11
3770.0
 21
-2757.50001604727
 31
0.0
  0
LINE
  5
1251B5
  8
SLIM
 10
3770.0
 20
-2757.50001604727
 30
0.0
 11
3256.0
 21
-2757.50001604727
 31
0.0
  0
LINE
  5
1251B6
  8
SLIM
 10
3770.0
 20
-2817.5000160472709
 30
0.0
 11
3380.0000000000009
 21
-2817.5000160472709
 31
0.0
  0
LINE
  5
1251B7
  8
SLIM
 10
3770.0
 20
-2877.5000160472709
 30
0.0
 11
3256.0
 21
-2877.5000160472709
 31
0.0
  0
LINE
  5
1251B8
  8
SLIM
 10
3770.0
 20
-2947.5000160472709
 30
0.0
 11
3256.0
 21
-2947.5000160472709
 31
0.0
  0
LINE
  5
1251B9
  8
SLIM
 10
3770.0
 20
-3017.5000160472709
 30
0.0
 11
3256.0
 21
-3017.5000160472709
 31
0.0
  0
LINE
  5
1251BA
  8
SLIM
 10
3770.0
 20
-3087.50001604727
 30
0.0
 11
3256.0
 21
-3087.50001604727
 31
0.0
  0
LINE
  5
1251CB
  8
SLIM
 10
3380.0000000000009
 20
-2877.5000160472709
 30
0.0
 11
3255.9999722746579
 21
-2757.5000000000018
 31
0.0
  0
LINE
  5
1251CF
  8
CENTER
 10
2580.0
 20
-3294.9999999999968
 30
0.0
 11
2410.0
 21
-3294.9999999999968
 31
0.0
1001
ACDBBLOCKREPETAG
1070
     1
1071
       14
1005
0
  0
LINE
  5
1251D0
  8
CENTER
 10
2500.0
 20
-3384.9999999999968
 30
0.0
 11
2500.0
 21
-3204.9999999999959
 31
0.0
1001
ACDBBLOCKREPETAG
1070
     1
1071
       15
1005
0
  0
CIRCLE
  5
1251D1
  8
OBJECT
 10
2500.0
 20
-3294.9999999999968
 30
0.0
 40
70.0
1001
ACDBBLOCKREPETAG
1070
     1
1071
       16
1005
0
  0
CIRCLE
  5
1251D2
  8
OBJECT
 10
2500.0
 20
-3294.9999999999968
 30
0.0
 40
75.0
1001
ACDBBLOCKREPETAG
1070
     1
1071
       17
1005
0
  0
LINE
  5
1251DA
  8
CENTER
 10
2500.0
 20
-3479.9999999999991
 30
0.0
 11
2500.0
 21
-3726.9999999999991
 31
0.0
1001
ACDBBLOCKREPETAG
1070
     1
1071
       25
1005
1251DA
  0
LINE
  5
1251DB
  8
OBJECT
 10
2425.0000000000009
 20
-3494.9999999999968
 30
0.0
 11
2425.0000000000009
 21
-3714.9999999999968
 31
0.0
1001
ACDBBLOCKREPETAG
1070
     1
1071
       26
1005
1251DB
  0
LINE
  5
1251DC
  8
OBJECT
 10
2575.0000000000009
 20
-3494.9999999999968
 30
0.0
 11
2575.0000000000009
 21
-3591.5000000000618
 31
0.0
1001
ACDBBLOCKREPETAG
1070
     1
1071
       34
1005
1251DC
  0
LINE
  5
1251E4
  8
OBJECT
 10
2575.0000000000009
 20
-3697.4999999999991
 30
0.0
 11
2575.0000000000009
 21
-3714.9999999999968
 31
0.0
1001
ACDBBLOCKREPETAG
1070
     1
1071
       34
1005
1251DC
  0
LINE
  5
1251E5
  8
CENTER
 10
2900.0
 20
-3479.9999999999991
 30
0.0
 11
2900.0
 21
-3726.9999999999991
 31
0.0
1001
ACDBBLOCKREPETAG
1070
     1
1071
       25
1005
1251DA
  0
LINE
  5
1251E6
  8
OBJECT
 10
2825.0000000000009
 20
-3494.9999999999968
 30
0.0
 11
2825.0000000000009
 21
-3714.9999999999968
 31
0.0
1001
ACDBBLOCKREPETAG
1070
     1
1071
       26
1005
1251DB
  0
LINE
  5
1251E7
  8
OBJECT
 10
2975.0000000000009
 20
-3494.9999999999968
 30
0.0
 11
2975.0
 21
-3714.9999999999982
 31
0.0
1001
ACDBBLOCKREPETAG
1070
     1
1071
       34
1005
1251DC
  0
LINE
  5
1251EF
  8
CENTER
 10
3580.0
 20
-3294.9999999999968
 30
0.0
 11
3410.0
 21
-3294.9999999999968
 31
0.0
1001
ACDBBLOCKREPETAG
1070
     1
1071
       14
1005
0
  0
LINE
  5
1251F0
  8
CENTER
 10
3500.0
 20
-3384.9999999999968
 30
0.0
 11
3500.0
 21
-3204.9999999999959
 31
0.0
1001
ACDBBLOCKREPETAG
1070
     1
1071
       15
1005
0
  0
CIRCLE
  5
1251F1
  8
OBJECT
 10
3500.0
 20
-3294.9999999999968
 30
0.0
 40
70.0
1001
ACDBBLOCKREPETAG
1070
     1
1071
       16
1005
0
  0
CIRCLE
  5
1251F2
  8
OBJECT
 10
3500.0
 20
-3294.9999999999968
 30
0.0
 40
75.0
1001
ACDBBLOCKREPETAG
1070
     1
1071
       17
1005
0
  0
LINE
  5
1251FA
  8
CENTER
 10
3500.0000000000018
 20
-3479.9999999999991
 30
0.0
 11
3500.0000000000018
 21
-3726.9999999999991
 31
0.0
1001
ACDBBLOCKREPETAG
1070
     1
1071
       25
1005
1251DA
  0
LINE
  5
1251FB
  8
OBJECT
 10
3425.0000000000018
 20
-3494.9999999999968
 30
0.0
 11
3425.0000000000018
 21
-3714.9999999999968
 31
0.0
1001
ACDBBLOCKREPETAG
1070
     1
1071
       26
1005
1251DB
  0
LINE
  5
1251FC
  8
OBJECT
 10
3575.0000000000009
 20
-3494.9999999999968
 30
0.0
 11
3575.0000000000009
 21
-3591.5000000000618
 31
0.0
1001
ACDBBLOCKREPETAG
1070
     1
1071
       34
1005
1251DC
  0
LINE
  5
1251FD
  8
OBJECT
 10
3575.0000000000009
 20
-3697.4999999999991
 30
0.0
 11
3575.0000000000009
 21
-3714.9999999999968
 31
0.0
1001
ACDBBLOCKREPETAG
1070
     1
1071
       34
1005
1251DC
  0
LINE
  5
125205
  8
CENTER
 10
3900.0000000000018
 20
-3479.9999999999991
 30
0.0
 11
3900.0000000000018
 21
-3726.9999999999991
 31
0.0
1001
ACDBBLOCKREPETAG
1070
     1
1071
       25
1005
1251DA
  0
LINE
  5
125206
  8
OBJECT
 10
3825.0000000000009
 20
-3494.9999999999968
 30
0.0
 11
3825.0000000000009
 21
-3714.9999999999968
 31
0.0
1001
ACDBBLOCKREPETAG
1070
     1
1071
       26
1005
1251DB
  0
LINE
  5
125207
  8
OBJECT
 10
3975.0000000000009
 20
-3494.9999999999968
 30
0.0
 11
3975.0
 21
-3714.9999999999982
 31
0.0
1001
ACDBBLOCKREPETAG
1070
     1
1071
       34
1005
1251DC
  0
LINE
  5
12520F
  8
CENTER
 10
4580.0
 20
-3294.9999999999968
 30
0.0
 11
4410.0
 21
-3294.9999999999968
 31
0.0
1001
ACDBBLOCKREPETAG
1070
     1
1071
       14
1005
0
  0
LINE
  5
125210
  8
CENTER
 10
4500.0
 20
-3384.9999999999968
 30
0.0
 11
4500.0
 21
-3204.9999999999959
 31
0.0
1001
ACDBBLOCKREPETAG
1070
     1
1071
       15
1005
0
  0
CIRCLE
  5
125211
  8
OBJECT
 10
4500.0
 20
-3294.9999999999968
 30
0.0
 40
70.0
1001
ACDBBLOCKREPETAG
1070
     1
1071
       16
1005
0
  0
CIRCLE
  5
125212
  8
OBJECT
 10
4500.0
 20
-3294.9999999999968
 30
0.0
 40
75.0
1001
ACDBBLOCKREPETAG
1070
     1
1071
       17
1005
0
  0
LINE
  5
12521A
  8
CENTER
 10
4500.0
 20
-3479.9999999999991
 30
0.0
 11
4500.0
 21
-3726.9999999999991
 31
0.0
1001
ACDBBLOCKREPETAG
1070
     1
1071
       25
1005
1251DA
  0
LINE
  5
12521B
  8
OBJECT
 10
4425.0
 20
-3494.9999999999968
 30
0.0
 11
4425.0
 21
-3714.9999999999968
 31
0.0
1001
ACDBBLOCKREPETAG
1070
     1
1071
       26
1005
1251DB
  0
LINE
  5
12521C
  8
OBJECT
 10
4575.0000000000009
 20
-3494.9999999999968
 30
0.0
 11
4575.0000000000009
 21
-3591.5000000000618
 31
0.0
1001
ACDBBLOCKREPETAG
1070
     1
1071
       34
1005
1251DC
  0
LINE
  5
12521D
  8
OBJECT
 10
4575.0000000000009
 20
-3697.4999999999991
 30
0.0
 11
4575.0000000000009
 21
-3714.9999999999968
 31
0.0
1001
ACDBBLOCKREPETAG
1070
     1
1071
       34
1005
1251DC
  0
LINE
  5
125225
  8
CENTER
 10
4900.0000000000009
 20
-3479.9999999999991
 30
0.0
 11
4900.0000000000009
 21
-3726.9999999999991
 31
0.0
1001
ACDBBLOCKREPETAG
1070
     1
1071
       25
1005
1251DA
  0
LINE
  5
125226
  8
OBJECT
 10
4825.0000000000009
 20
-3494.9999999999968
 30
0.0
 11
4825.0000000000009
 21
-3714.9999999999968
 31
0.0
1001
ACDBBLOCKREPETAG
1070
     1
1071
       26
1005
1251DB
  0
LINE
  5
125227
  8
OBJECT
 10
4975.0000000000009
 20
-3494.9999999999968
 30
0.0
 11
4975.0
 21
-3714.9999999999982
 31
0.0
1001
ACDBBLOCKREPETAG
1070
     1
1071
       34
1005
1251DC
  0
POINT
  5
12522F
  8
DOTS
 10
2500.0
 20
-3294.9999999999968
 30
0.0
  0
POINT
  5
125230
  8
DOTS
 10
2500.0
 20
-3699.9999999999968
 30
0.0
  0
POINT
  5
125231
  8
DOTS
 10
3500.0000000000018
 20
-3699.9999999999968
 30
0.0
  0
POINT
  5
125232
  8
DOTS
 10
3500.0
 20
-3294.9999999999968
 30
0.0
  0
POINT
  5
125233
  8
DOTS
 10
4500.0
 20
-3294.9999999999968
 30
0.0
  0
POINT
  5
125234
  8
DOTS
 10
4500.0
 20
-3699.9999999999968
 30
0.0
  0
LINE
  5
127ECA
  8
OBJECT
 10
2555.0
 20
-66.999999999999034
 30
0.0
 11
2555.0
 21
-59.999999999999041
 31
0.0
1001
ACDBBLOCKREPETAG
1070
     1
1071
       20
1005
127ECA
  0
LINE
  5
127ECB
  8
OBJECT
 10
2555.0
 20
-59.999999999999041
 30
0.0
 11
2445.0
 21
-59.999999999999091
 31
0.0
1001
ACDBBLOCKREPETAG
1070
     1
1071
       21
1005
127ECB
  0
LINE
  5
127ECC
  8
OBJECT
 10
2445.0
 20
-59.999999999999091
 30
0.0
 11
2445.0
 21
-66.999999999999091
 31
0.0
1001
ACDBBLOCKREPETAG
1070
     1
1071
       22
1005
127ECC
  0
LINE
  5
127ECD
  8
OBJECT
 10
2445.0
 20
-66.999999999999091
 30
0.0
 11
2555.0
 21
-66.999999999999034
 31
0.0
1001
ACDBBLOCKREPETAG
1070
     1
1071
       23
1005
127ECD
  0
LINE
  5
127ECE
  8
CENTER
 10
2500.0
 20
-44.999999999999091
 30
0.0
 11
2500.0
 21
-119.9999999999991
 31
0.0
1001
ACDBBLOCKREPETAG
1070
     1
1071
       24
1005
127ECE
  0
LINE
  5
127ECF
  8
OBJECT
 10
2552.0
 20
-66.999999999999034
 30
0.0
 11
2552.0
 21
-102.99999999999901
 31
0.0
1001
ACDBBLOCKREPETAG
1070
     1
1071
       25
1005
127ECF
  0
LINE
  5
127ED0
  8
OBJECT
 10
2552.0
 20
-102.99999999999901
 30
0.0
 11
2448.0
 21
-102.9999999999991
 31
0.0
1001
ACDBBLOCKREPETAG
1070
     1
1071
       26
1005
127ED0
  0
LINE
  5
127ED1
  8
OBJECT
 10
2448.0
 20
-102.9999999999991
 30
0.0
 11
2448.0
 21
-66.999999999999091
 31
0.0
1001
ACDBBLOCKREPETAG
1070
     1
1071
       27
1005
127ED1
  0
LINE
  5
127ED2
  8
OBJECT
 10
2547.5
 20
-106.99999999999901
 30
0.0
 11
2547.5
 21
-115.49999999999901
 31
0.0
1001
ACDBBLOCKREPETAG
1070
     1
1071
       28
1005
127ED2
  0
LINE
  5
127ED3
  8
OBJECT
 10
2452.5000000000009
 20
-115.4999999999991
 30
0.0
 11
2452.5000000000009
 21
-106.9999999999991
 31
0.0
1001
ACDBBLOCKREPETAG
1070
     1
1071
       29
1005
127ED3
  0
LINE
  5
127ED4
  8
OBJECT
 10
2452.5000000000009
 20
-106.9999999999991
 30
0.0
 11
2547.5
 21
-106.99999999999901
 31
0.0
1001
ACDBBLOCKREPETAG
1070
     1
1071
       30
1005
127ED4
  0
LINE
  5
127ED5
  8
OBJECT
 10
2552.0
 20
-102.99999999999901
 30
0.0
 11
2547.5
 21
-106.99999999999901
 31
0.0
1001
ACDBBLOCKREPETAG
1070
     1
1071
       31
1005
127ED5
  0
LINE
  5
127ED6
  8
OBJECT
 10
2448.0
 20
-102.9999999999991
 30
0.0
 11
2452.5000000000009
 21
-106.9999999999991
 31
0.0
1001
ACDBBLOCKREPETAG
1070
     1
1071
       32
1005
127ED6
  0
LINE
  5
127ED7
  8
OBJECT
 10
2450.5
 20
-115.5000000000009
 30
0.0
 11
2549.5
 21
-115.49999999999901
 31
0.0
1001
ACDBBLOCKREPETAG
1070
     1
1071
       33
1005
127ED7
  0
LINE
  5
127ED8
  8
HIDDEN
 10
2538.0
 20
-111.9999999999991
 30
0.0
 11
2462.0
 21
-111.9999999999991
 31
0.0
1001
ACDBBLOCKREPETAG
1070
     1
1071
       34
1005
127ED8
  0
LINE
  5
127ED9
  8
OBJECT
 10
2549.5
 20
-115.49999999999901
 30
0.0
 11
2549.5
 21
-137.99999999999909
 31
0.0
1001
ACDBBLOCKREPETAG
1070
     1
1071
       35
1005
127ED9
  0
LINE
  5
127EDA
  8
OBJECT
 10
2450.5
 20
-115.5000000000009
 30
0.0
 11
2450.5
 21
-141.0190708787992
 31
0.0
1001
ACDBBLOCKREPETAG
1070
     1
1071
       36
1005
127EDA
  0
CIRCLE
  5
127EE2
  8
OBJECT
 10
2500.0
 20
-199.99999999999909
 30
0.0
 40
53.5
1001
ACDBBLOCKREPETAG
1070
     1
1071
      344
1005
127EE2
  0
POINT
  5
127EE3
  8
DOTS
 10
2500.0
 20
-199.99999999999909
 30
0.0
 50
270.0
1001
ACDBBLOCKREPETAG
1070
     1
1071
      362
1005
127EE3
  0
LINE
  5
127EE5
  8
CENTER
 10
2580.0
 20
-199.99999999999909
 30
0.0
 11
2405.0
 21
-199.99999999999909
 31
0.0
1001
ACDBBLOCKREPETAG
1070
     1
1071
       14
1005
127EE5
  0
LINE
  5
127EE6
  8
CENTER
 10
2500.0
 20
-294.99999999999898
 30
0.0
 11
2500.0
 21
-104.9999999999991
 31
0.0
1001
ACDBBLOCKREPETAG
1070
     1
1071
       15
1005
127EE6
  0
CIRCLE
  5
127EE7
  8
OBJECT
 10
2500.0
 20
-199.99999999999909
 30
0.0
 40
70.0
1001
ACDBBLOCKREPETAG
1070
     1
1071
       16
1005
127EE7
  0
CIRCLE
  5
127EE8
  8
OBJECT
 10
2500.0
 20
-199.99999999999909
 30
0.0
 40
77.0
1001
ACDBBLOCKREPETAG
1070
     1
1071
       17
1005
127EE8
  0
ARC
  5
127EE9
  8
OBJECT
 10
2500.0
 20
-199.99999999999909
 30
0.0
 40
80.0
 50
128.22491020155491
 51
309.19496742613791
1001
ACDBBLOCKREPETAG
1070
     1
1071
       18
1005
127EE9
  0
LINE
  5
127EEA
  8
OBJECT
 10
2545.6618002273249
 20
-137.99999999999909
 30
0.0
 11
2580.0
 21
-137.99999999999909
 31
0.0
1001
ACDBBLOCKREPETAG
1070
     1
1071
       19
1005
127EEA
  0
LINE
  5
127EEB
  8
OBJECT
 10
2545.6618002273249
 20
-261.99999999999909
 30
0.0
 11
2580.0
 21
-261.99999999999909
 31
0.0
1001
ACDBBLOCKREPETAG
1070
     1
1071
       20
1005
127EEB
  0
ARC
  5
127EEC
  8
OBJECT
 10
2500.0
 20
-199.99999999999909
 30
0.0
 40
80.0
 50
50.805032573862128
 51
51.775089798445073
1001
ACDBBLOCKREPETAG
1070
     1
1071
       18
1005
127EE9
  0
LINE
  5
127EFC
  8
CENTER
 10
4580.0
 20
-199.99999999999909
 30
0.0
 11
4400.0
 21
-199.99999999999909
 31
0.0
1001
ACDBBLOCKREPETAG
1070
     1
1071
       14
1005
0
  0
LINE
  5
127EFD
  8
CENTER
 10
4500.0
 20
-299.99999999999898
 30
0.0
 11
4500.0
 21
-99.999999999999091
 31
0.0
1001
ACDBBLOCKREPETAG
1070
     1
1071
       15
1005
0
  0
CIRCLE
  5
127EFE
  8
OBJECT
 10
4500.0
 20
-199.99999999999909
 30
0.0
 40
53.5
1001
ACDBBLOCKREPETAG
1070
     1
1071
      344
1005
0
  0
POINT
  5
127EFF
  8
DOTS
 10
4500.0
 20
-199.99999999999909
 30
0.0
 50
270.0
1001
ACDBBLOCKREPETAG
1070
     1
1071
      362
1005
0
  0
CIRCLE
  5
127F00
  8
OBJECT
 10
4500.0
 20
-199.99999999999909
 30
0.0
 40
70.0
1001
ACDBBLOCKREPETAG
1070
     1
1071
       16
1005
0
  0
CIRCLE
  5
127F01
  8
OBJECT
 10
4500.0
 20
-199.99999999999909
 30
0.0
 40
77.0
1001
ACDBBLOCKREPETAG
1070
     1
1071
       17
1005
0
  0
LINE
  5
127F02
  8
OBJECT
 10
4545.6618002273244
 20
-261.99999999999909
 30
0.0
 11
4580.0
 21
-261.99999999999909
 31
0.0
1001
ACDBBLOCKREPETAG
1070
     1
1071
       20
1005
0
  0
LINE
  5
127F03
  8
OBJECT
 10
4545.6618002273244
 20
-137.99999999999909
 30
0.0
 11
4580.0
 21
-137.99999999999909
 31
0.0
1001
ACDBBLOCKREPETAG
1070
     1
1071
       19
1005
0
  0
LINE
  5
127F04
  8
OBJECT
 10
4555.0
 20
-66.999999999999091
 30
0.0
 11
4555.0
 21
-59.999999999999091
 31
0.0
1001
ACDBBLOCKREPETAG
1070
     1
1071
       20
1005
0
  0
LINE
  5
127F05
  8
OBJECT
 10
4555.0
 20
-59.999999999999091
 30
0.0
 11
4445.0
 21
-59.999999999999091
 31
0.0
1001
ACDBBLOCKREPETAG
1070
     1
1071
       21
1005
0
  0
LINE
  5
127F06
  8
OBJECT
 10
4445.0
 20
-59.999999999999091
 30
0.0
 11
4445.0
 21
-66.999999999999091
 31
0.0
1001
ACDBBLOCKREPETAG
1070
     1
1071
       22
1005
0
  0
LINE
  5
127F07
  8
OBJECT
 10
4445.0
 20
-66.999999999999091
 30
0.0
 11
4555.0
 21
-66.999999999999091
 31
0.0
1001
ACDBBLOCKREPETAG
1070
     1
1071
       23
1005
0
  0
LINE
  5
127F08
  8
CENTER
 10
4500.0
 20
-44.999999999999091
 30
0.0
 11
4500.0
 21
-119.9999999999991
 31
0.0
1001
ACDBBLOCKREPETAG
1070
     1
1071
       24
1005
0
  0
LINE
  5
127F09
  8
OBJECT
 10
4552.0
 20
-66.999999999999091
 30
0.0
 11
4552.0
 21
-102.9999999999991
 31
0.0
1001
ACDBBLOCKREPETAG
1070
     1
1071
       25
1005
0
  0
LINE
  5
127F0A
  8
OBJECT
 10
4552.0
 20
-102.9999999999991
 30
0.0
 11
4448.0
 21
-102.9999999999991
 31
0.0
1001
ACDBBLOCKREPETAG
1070
     1
1071
       26
1005
0
  0
LINE
  5
127F0B
  8
OBJECT
 10
4448.0
 20
-102.9999999999991
 30
0.0
 11
4448.0
 21
-66.999999999999091
 31
0.0
1001
ACDBBLOCKREPETAG
1070
     1
1071
       27
1005
0
  0
LINE
  5
127F0C
  8
OBJECT
 10
4547.5
 20
-106.9999999999991
 30
0.0
 11
4547.5
 21
-115.4999999999991
 31
0.0
1001
ACDBBLOCKREPETAG
1070
     1
1071
       28
1005
0
  0
LINE
  5
127F0D
  8
OBJECT
 10
4452.4999999999991
 20
-115.4999999999991
 30
0.0
 11
4452.4999999999991
 21
-106.9999999999991
 31
0.0
1001
ACDBBLOCKREPETAG
1070
     1
1071
       29
1005
0
  0
LINE
  5
127F0E
  8
OBJECT
 10
4452.4999999999991
 20
-106.9999999999991
 30
0.0
 11
4547.5
 21
-106.9999999999991
 31
0.0
1001
ACDBBLOCKREPETAG
1070
     1
1071
       30
1005
0
  0
LINE
  5
127F0F
  8
OBJECT
 10
4552.0
 20
-102.9999999999991
 30
0.0
 11
4547.5
 21
-106.9999999999991
 31
0.0
1001
ACDBBLOCKREPETAG
1070
     1
1071
       31
1005
0
  0
LINE
  5
127F10
  8
OBJECT
 10
4448.0
 20
-102.9999999999991
 30
0.0
 11
4452.4999999999991
 21
-106.9999999999991
 31
0.0
1001
ACDBBLOCKREPETAG
1070
     1
1071
       32
1005
0
  0
LINE
  5
127F11
  8
OBJECT
 10
4450.5
 20
-115.5000000000009
 30
0.0
 11
4549.5
 21
-115.4999999999991
 31
0.0
1001
ACDBBLOCKREPETAG
1070
     1
1071
       33
1005
0
  0
LINE
  5
127F12
  8
HIDDEN
 10
4538.0
 20
-111.9999999999991
 30
0.0
 11
4462.0
 21
-111.9999999999991
 31
0.0
1001
ACDBBLOCKREPETAG
1070
     1
1071
       34
1005
0
  0
LINE
  5
127F13
  8
OBJECT
 10
4549.5
 20
-115.4999999999991
 30
0.0
 11
4549.5
 21
-137.99999999999909
 31
0.0
1001
ACDBBLOCKREPETAG
1070
     1
1071
       35
1005
0
  0
LINE
  5
127F14
  8
OBJECT
 10
4450.5
 20
-115.5000000000009
 30
0.0
 11
4450.5
 21
-141.0190708787992
 31
0.0
1001
ACDBBLOCKREPETAG
1070
     1
1071
       36
1005
0
  0
ARC
  5
127F15
  8
OBJECT
 10
4500.0
 20
-199.99999999999909
 30
0.0
 40
85.0
 50
125.61620672850199
 51
313.16289714030148
1001
ACDBBLOCKREPETAG
1070
     1
1071
       18
1005
0
  0
ARC
  5
127F16
  8
OBJECT
 10
4500.0
 20
-199.99999999999909
 30
0.0
 40
85.0
 50
46.837102859698469
 51
54.383793271498021
1001
ACDBBLOCKREPETAG
1070
     1
1071
       18
1005
0
  0
LINE
  5
128449
  8
SLIM
 10
5350.0
 20
-815.9999999999925
 30
0.0
 11
5350.0
 21
-1199.999999999992
 31
0.0
  0
LINE
  5
12844A
  8
SLIM
 10
5454.0
 20
-1199.999999999992
 30
0.0
 11
5454.0
 21
-815.9999999999925
 31
0.0
  0
LINE
  5
12844B
  8
SLIM
 10
5602.0
 20
-815.9999999999925
 30
0.0
 11
5350.0
 21
-815.9999999999925
 31
0.0
  0
LINE
  5
12844C
  8
SLIM
 10
5602.0
 20
-863.9999999999925
 30
0.0
 11
5350.0
 21
-863.9999999999925
 31
0.0
  0
LINE
  5
12844E
  8
SLIM
 10
5602.0
 20
-911.99999999999238
 30
0.0
 11
5350.0
 21
-911.99999999999238
 31
0.0
  0
LINE
  5
12844F
  8
SLIM
 10
5602.0
 20
-959.99999999999227
 30
0.0
 11
5350.0
 21
-959.99999999999227
 31
0.0
  0
LINE
  5
128450
  8
SLIM
 10
5602.0
 20
-1007.999999999992
 30
0.0
 11
5350.0
 21
-1007.999999999992
 31
0.0
  0
LINE
  5
128454
  8
SLIM
 10
5602.0
 20
-1055.999999999992
 30
0.0
 11
5350.0
 21
-1055.999999999992
 31
0.0
  0
LINE
  5
128456
  8
SLIM
 10
5602.0
 20
-1103.999999999992
 30
0.0
 11
5350.0
 21
-1103.999999999992
 31
0.0
  0
LINE
  5
128458
  8
SLIM
 10
5602.0
 20
-1151.999999999992
 30
0.0
 11
5350.0
 21
-1151.999999999992
 31
0.0
  0
LINE
  5
12845A
  8
SLIM
 10
5602.0
 20
-1199.999999999992
 30
0.0
 11
5350.0
 21
-1199.999999999992
 31
0.0
  0
LINE
  5
12845D
  8
SLIM
 10
5602.0
 20
-815.9999999999925
 30
0.0
 11
5602.0
 21
-1199.999999999992
 31
0.0
  0
TEXT
  5
1284DD
  8
SLIM
 10
4054.6000000000031
 20
-1533.0000266666641
 30
0.0
 40
28.0
  1
※ 対応P寸法　　90～150（10mm単位）
 41
0.75
  0
TEXT
  5
1284DE
  8
SLIM
 10
4054.6000000000031
 20
-1579.6666933333311
 30
0.0
 40
28.0
  1
※ 対応スラブ厚　180～（m-10）
 41
0.75
  0
TEXT
  5
1284DF
  8
SLIM
 10
4054.6000000000031
 20
-1626.333359999998
 30
0.0
 40
28.0
  1
※ 足切り可能寸法（最大）　390-P-m（コンパクトＬベンド使用なら+20）
 41
0.75
  0
TEXT
  5
1284E0
  8
SLIM
 10
4098.9000000000033
 20
-1698.3333066666651
 30
0.0
 40
28.0
  1
国土交通大臣認定・（一財）日本消防設備安全センター性能評定取得品
 41
0.75
  0
TEXT
  5
1284E1
  8
SLIM
 10
4131.1000000000013
 20
-1744.999973333332
 30
0.0
 40
28.0
  1
注）ご採用にあたり、認定書及び評定書の内容をご確認ください。
 41
0.75
  0
TEXT
  5
1284E2
  8
SLIM
 10
5470.0571428571429
 20
-1187.999999999992
 30
0.0
 40
24.0
  1
190～240
 41
0.75
  0
TEXT
  5
1284E3
  8
SLIM
 10
5470.0571428571429
 20
-1139.999999999992
 30
0.0
 40
24.0
  1
190～250
 41
0.75
  0
TEXT
  5
1284E4
  8
SLIM
 10
5470.0571428571429
 20
-1091.999999999992
 30
0.0
 40
24.0
  1
190～260
 41
0.75
  0
TEXT
  5
1284E5
  8
SLIM
 10
5470.0571428571429
 20
-1043.999999999992
 30
0.0
 40
24.0
  1
190～270
 41
0.75
  0
TEXT
  5
1284E6
  8
SLIM
 10
5470.0571428571429
 20
-995.99999999999238
 30
0.0
 40
24.0
  1
190～280
 41
0.75
  0
TEXT
  5
1284E7
  8
SLIM
 10
5470.0571428571429
 20
-947.99999999999238
 30
0.0
 40
24.0
  1
190～290
 41
0.75
  0
TEXT
  5
1284E8
  8
SLIM
 10
5470.0571428571429
 20
-899.9999999999925
 30
0.0
 40
24.0
  1
190～300
 41
0.75
  0
TEXT
  5
1284E9
  8
SLIM
 10
5474.3428571428567
 20
-851.99999999999227
 30
0.0
 40
24.0
  1
対応m寸法
 41
0.75
  0
TEXT
  5
1284EA
  8
SLIM
 10
5376.7428571428582
 20
-1245.999999999992
 30
0.0
 40
24.0
  1
標準：m=390-P
 41
0.75
  0
TEXT
  5
1284EB
  8
SLIM
 10
5380.5714285714284
 20
-1187.999999999992
 30
0.0
 40
24.0
  1
150
 41
0.75
  0
TEXT
  5
1284EC
  8
SLIM
 10
5380.5714285714284
 20
-1139.999999999992
 30
0.0
 40
24.0
  1
140
 41
0.75
  0
TEXT
  5
1284ED
  8
SLIM
 10
5380.5714285714284
 20
-1091.999999999992
 30
0.0
 40
24.0
  1
130
 41
0.75
  0
TEXT
  5
1284EE
  8
SLIM
 10
5380.5714285714284
 20
-1043.999999999992
 30
0.0
 40
24.0
  1
120
 41
0.75
  0
TEXT
  5
1284EF
  8
SLIM
 10
5382.2857142857138
 20
-995.99999999999238
 30
0.0
 40
24.0
  1
110
 41
0.75
  0
TEXT
  5
1284F0
  8
SLIM
 10
5380.5714285714284
 20
-947.99999999999238
 30
0.0
 40
24.0
  1
100
 41
0.75
  0
TEXT
  5
1284F1
  8
SLIM
 10
5373.8000000000002
 20
-851.99999999999227
 30
0.0
 40
24.0
  1
P寸法
 41
0.75
  0
TEXT
  5
1284F2
  8
SLIM
 10
5387.4285714285697
 20
-899.9999999999925
 30
0.0
 40
24.0
  1
90
 41
0.75
  0
LINE
  5
1284F3
  8
OBJECT
 10
81.999999999999787
 20
-1522.0
 30
0.0
 11
74.999999999999787
 21
-1522.0
 31
0.0
1001
ACDBBLOCKREPETAG
1070
     1
1071
       34
1005
1284F3
  0
LINE
  5
1284F4
  8
OBJECT
 10
74.999999999999787
 20
-1522.0
 30
0.0
 11
74.999999999999787
 21
-1398.0
 31
0.0
1001
ACDBBLOCKREPETAG
1070
     1
1071
       35
1005
1284F4
  0
LINE
  5
1284F5
  8
OBJECT
 10
74.999999999999787
 20
-1398.0
 30
0.0
 11
81.999999999999787
 21
-1398.0
 31
0.0
1001
ACDBBLOCKREPETAG
1070
     1
1071
       36
1005
1284F5
  0
LINE
  5
1284F6
  8
OBJECT
 10
81.999999999999787
 20
-1398.0
 30
0.0
 11
81.999999999999787
 21
-1522.0
 31
0.0
1001
ACDBBLOCKREPETAG
1070
     1
1071
       37
1005
1284F6
  0
LINE
  5
1284F7
  8
OBJECT
 10
81.999999999999787
 20
-1519.0
 30
0.0
 11
117.9999999999997
 21
-1519.0
 31
0.0
1001
ACDBBLOCKREPETAG
1070
     1
1071
       38
1005
1284F7
  0
LINE
  5
1284F8
  8
OBJECT
 10
117.9999999999997
 20
-1519.0
 30
0.0
 11
117.9999999999997
 21
-1401.0
 31
0.0
1001
ACDBBLOCKREPETAG
1070
     1
1071
       39
1005
1284F8
  0
LINE
  5
1284F9
  8
OBJECT
 10
117.9999999999997
 20
-1401.0
 30
0.0
 11
81.999999999999787
 21
-1401.0
 31
0.0
1001
ACDBBLOCKREPETAG
1070
     1
1071
       40
1005
1284F9
  0
LINE
  5
1284FA
  8
OBJECT
 10
121.9999999999997
 20
-1514.5
 30
0.0
 11
132.49999999999969
 21
-1514.5
 31
0.0
1001
ACDBBLOCKREPETAG
1070
     1
1071
       41
1005
1284FA
  0
LINE
  5
1284FB
  8
OBJECT
 10
132.49999999999969
 20
-1405.5
 30
0.0
 11
121.9999999999997
 21
-1405.5
 31
0.0
1001
ACDBBLOCKREPETAG
1070
     1
1071
       42
1005
1284FB
  0
LINE
  5
1284FC
  8
OBJECT
 10
121.9999999999997
 20
-1405.5
 30
0.0
 11
121.9999999999997
 21
-1514.5
 31
0.0
1001
ACDBBLOCKREPETAG
1070
     1
1071
       43
1005
1284FC
  0
LINE
  5
1284FD
  8
OBJECT
 10
117.9999999999997
 20
-1519.0
 30
0.0
 11
121.9999999999997
 21
-1514.5
 31
0.0
1001
ACDBBLOCKREPETAG
1070
     1
1071
       44
1005
1284FD
  0
LINE
  5
1284FE
  8
OBJECT
 10
117.9999999999997
 20
-1401.0
 30
0.0
 11
121.9999999999997
 21
-1405.5
 31
0.0
1001
ACDBBLOCKREPETAG
1070
     1
1071
       45
1005
1284FE
  0
LINE
  5
1284FF
  8
OBJECT
 10
137.4999999999998
 20
-1509.5
 30
0.0
 11
158.65508008702159
 21
-1509.4999999999991
 31
0.0
1001
ACDBBLOCKREPETAG
1070
     1
1071
       46
1005
1284FF
  0
LINE
  5
128500
  8
OBJECT
 10
137.4999999999998
 20
-1410.5
 30
0.0
 11
158.6550800870225
 21
-1410.5
 31
0.0
1001
ACDBBLOCKREPETAG
1070
     1
1071
       47
1005
128500
  0
LINE
  5
128501
  8
OBJECT
 10
132.49999999999969
 20
-1514.5
 30
0.0
 11
132.49999999999969
 21
-1405.5
 31
0.0
1001
ACDBBLOCKREPETAG
1070
     1
1071
       48
1005
128501
  0
LINE
  5
128502
  8
OBJECT
 10
137.4999999999998
 20
-1509.5
 30
0.0
 11
137.4999999999998
 21
-1410.5
 31
0.0
1001
ACDBBLOCKREPETAG
1070
     1
1071
       49
1005
128502
  0
LINE
  5
128503
  8
OBJECT
 10
132.49999999999969
 20
-1514.5
 30
0.0
 11
137.4999999999998
 21
-1509.5
 31
0.0
1001
ACDBBLOCKREPETAG
1070
     1
1071
       50
1005
128503
  0
LINE
  5
128504
  8
OBJECT
 10
137.4999999999998
 20
-1410.5
 30
0.0
 11
132.49999999999969
 21
-1405.5000000000041
 31
0.0
1001
ACDBBLOCKREPETAG
1070
     1
1071
       51
1005
128504
  0
INSERT
  5
128505
  8
OBJECT
  2
*U3
 10
0.0
 20
0.0
 30
0.0
  0
LINE
  5
128506
  8
HIDDEN
 10
126.9999999999997
 20
-1504.5
 30
0.0
 11
126.9999999999998
 21
-1415.5
 31
0.0
1001
ACDBBLOCKREPETAG
1070
     1
1071
       65
1005
128506
  0
CIRCLE
  5
128507
  8
OBJECT
 10
214.9999999999998
 20
-1460.0
 30
0.0
 40
70.0
1001
ACDBBLOCKREPETAG
1070
     1
1071
       50
1005
128507
  0
CIRCLE
  5
128508
  8
OBJECT
 10
214.9999999999998
 20
-1460.0
 30
0.0
 40
75.0
1001
ACDBBLOCKREPETAG
1070
     1
1071
       51
1005
128508
  0
POINT
  5
128509
  8
DOTS
 10
214.9999999999998
 20
-1460.0
 30
0.0
1001
ACDBBLOCKREPETAG
1070
     1
1071
       63
1005
128509
  0
CIRCLE
  5
12850A
  8
OBJECT
 10
214.9999999999998
 20
-1460.0
 30
0.0
 40
55.0
1001
ACDBBLOCKREPETAG
1070
     1
1071
       50
1005
12850A
  0
LINE
  5
12850B
  8
OBJECT
 10
441.99999999999977
 20
-1051.0
 30
0.0
 11
434.9999999999996
 21
-1051.0
 31
0.0
1001
ACDBBLOCKREPETAG
1070
     1
1071
       18
1005
12850B
  0
LINE
  5
12850C
  8
OBJECT
 10
434.9999999999996
 20
-1051.0
 30
0.0
 11
434.9999999999996
 21
-941.0
 31
0.0
1001
ACDBBLOCKREPETAG
1070
     1
1071
       19
1005
12850C
  0
LINE
  5
12850D
  8
OBJECT
 10
434.9999999999996
 20
-941.0
 30
0.0
 11
441.99999999999977
 21
-941.0
 31
0.0
1001
ACDBBLOCKREPETAG
1070
     1
1071
       20
1005
12850D
  0
LINE
  5
12850E
  8
OBJECT
 10
441.99999999999977
 20
-941.0
 30
0.0
 11
441.99999999999977
 21
-1051.0
 31
0.0
1001
ACDBBLOCKREPETAG
1070
     1
1071
       21
1005
12850E
  0
LINE
  5
12850F
  8
OBJECT
 10
441.99999999999977
 20
-1048.0
 30
0.0
 11
477.99999999999972
 21
-1048.0
 31
0.0
1001
ACDBBLOCKREPETAG
1070
     1
1071
       22
1005
12850F
  0
LINE
  5
128510
  8
OBJECT
 10
477.99999999999972
 20
-1048.0
 30
0.0
 11
477.99999999999972
 21
-944.0
 31
0.0
1001
ACDBBLOCKREPETAG
1070
     1
1071
       23
1005
128510
  0
LINE
  5
128511
  8
OBJECT
 10
477.99999999999972
 20
-944.0
 30
0.0
 11
441.99999999999977
 21
-944.0
 31
0.0
1001
ACDBBLOCKREPETAG
1070
     1
1071
       24
1005
128511
  0
LINE
  5
128512
  8
OBJECT
 10
481.99999999999972
 20
-1043.5
 30
0.0
 11
490.49999999999972
 21
-1043.5
 31
0.0
1001
ACDBBLOCKREPETAG
1070
     1
1071
       25
1005
128512
  0
LINE
  5
128513
  8
OBJECT
 10
490.49999999999972
 20
-948.49999999999989
 30
0.0
 11
481.99999999999972
 21
-948.49999999999989
 31
0.0
1001
ACDBBLOCKREPETAG
1070
     1
1071
       26
1005
128513
  0
LINE
  5
128514
  8
OBJECT
 10
481.99999999999972
 20
-948.49999999999989
 30
0.0
 11
481.99999999999972
 21
-1043.5
 31
0.0
1001
ACDBBLOCKREPETAG
1070
     1
1071
       27
1005
128514
  0
LINE
  5
128515
  8
OBJECT
 10
477.99999999999972
 20
-1048.0
 30
0.0
 11
481.99999999999972
 21
-1043.5
 31
0.0
1001
ACDBBLOCKREPETAG
1070
     1
1071
       28
1005
128515
  0
LINE
  5
128516
  8
OBJECT
 10
477.99999999999972
 20
-944.0
 30
0.0
 11
481.99999999999972
 21
-948.49999999999989
 31
0.0
1001
ACDBBLOCKREPETAG
1070
     1
1071
       29
1005
128516
  0
LINE
  5
128517
  8
OBJECT
 10
490.50000000000159
 20
-946.49999999999989
 30
0.0
 11
490.49999999999972
 21
-1045.5
 31
0.0
1001
ACDBBLOCKREPETAG
1070
     1
1071
       30
1005
128517
  0
LINE
  5
128518
  8
OBJECT
 10
490.49999999999972
 20
-1045.5
 30
0.0
 11
518.65508008702068
 21
-1045.4999999999991
 31
0.0
1001
ACDBBLOCKREPETAG
1070
     1
1071
       31
1005
128518
  0
LINE
  5
128519
  8
OBJECT
 10
490.50000000000159
 20
-946.49999999999989
 30
0.0
 11
518.65508008702147
 21
-946.49999999999875
 31
0.0
1001
ACDBBLOCKREPETAG
1070
     1
1071
       32
1005
128519
  0
INSERT
  5
12851A
  8
OBJECT
  2
*U4
 10
0.0
 20
0.0
 30
0.0
  0
LINE
  5
12851B
  8
HIDDEN
 10
486.99999999999972
 20
-1034.0
 30
0.0
 11
486.99999999999972
 21
-958.0
 31
0.0
1001
ACDBBLOCKREPETAG
1070
     1
1071
       57
1005
12851B
  0
CIRCLE
  5
12851C
  8
OBJECT
 10
574.99999999999977
 20
-996.0
 30
0.0
 40
70.0
1001
ACDBBLOCKREPETAG
1070
     1
1071
       50
1005
12851C
  0
CIRCLE
  5
12851D
  8
OBJECT
 10
574.99999999999977
 20
-996.0
 30
0.0
 40
75.0
1001
ACDBBLOCKREPETAG
1070
     1
1071
       51
1005
12851D
  0
POINT
  5
12851E
  8
DOTS
 10
574.99999999999977
 20
-996.0
 30
0.0
1001
ACDBBLOCKREPETAG
1070
     1
1071
       63
1005
12851E
  0
CIRCLE
  5
12851F
  8
OBJECT
 10
574.99999999999977
 20
-996.0
 30
0.0
 40
55.0
1001
ACDBBLOCKREPETAG
1070
     1
1071
       50
1005
12851F
  0
LINE
  5
128520
  8
OBJECT
 10
81.999999999999787
 20
-1043.0
 30
0.0
 11
74.999999999999787
 21
-1043.0
 31
0.0
1001
ACDBBLOCKREPETAG
1070
     1
1071
        0
1005
128520
  0
LINE
  5
128521
  8
OBJECT
 10
74.999999999999787
 20
-1043.0
 30
0.0
 11
74.999999999999787
 21
-949.0
 31
0.0
1001
ACDBBLOCKREPETAG
1070
     1
1071
        1
1005
128521
  0
LINE
  5
128522
  8
OBJECT
 10
74.999999999999787
 20
-949.0
 30
0.0
 11
81.999999999999787
 21
-949.0
 31
0.0
1001
ACDBBLOCKREPETAG
1070
     1
1071
        2
1005
128522
  0
LINE
  5
128523
  8
OBJECT
 10
81.999999999999787
 20
-949.0
 30
0.0
 11
81.999999999999787
 21
-1043.0
 31
0.0
1001
ACDBBLOCKREPETAG
1070
     1
1071
        3
1005
128523
  0
LINE
  5
128524
  8
OBJECT
 10
81.999999999999787
 20
-1040.0
 30
0.0
 11
117.9999999999997
 21
-1040.0
 31
0.0
1001
ACDBBLOCKREPETAG
1070
     1
1071
        4
1005
128524
  0
LINE
  5
128525
  8
OBJECT
 10
117.9999999999997
 20
-1040.0
 30
0.0
 11
117.9999999999997
 21
-952.0
 31
0.0
1001
ACDBBLOCKREPETAG
1070
     1
1071
        5
1005
128525
  0
LINE
  5
128526
  8
OBJECT
 10
117.9999999999997
 20
-952.0
 30
0.0
 11
81.999999999999787
 21
-952.0
 31
0.0
1001
ACDBBLOCKREPETAG
1070
     1
1071
        6
1005
128526
  0
LINE
  5
128527
  8
OBJECT
 10
121.9999999999997
 20
-1035.5
 30
0.0
 11
130.49999999999881
 21
-1035.5
 31
0.0
1001
ACDBBLOCKREPETAG
1070
     1
1071
        7
1005
128527
  0
LINE
  5
128528
  8
OBJECT
 10
130.49999999999969
 20
-956.49999999999989
 30
0.0
 11
121.9999999999997
 21
-956.49999999999989
 31
0.0
1001
ACDBBLOCKREPETAG
1070
     1
1071
        8
1005
128528
  0
LINE
  5
128529
  8
OBJECT
 10
121.9999999999997
 20
-956.49999999999989
 30
0.0
 11
121.9999999999997
 21
-1035.5
 31
0.0
1001
ACDBBLOCKREPETAG
1070
     1
1071
        9
1005
128529
  0
LINE
  5
12852A
  8
OBJECT
 10
117.9999999999997
 20
-1040.0
 30
0.0
 11
121.9999999999997
 21
-1035.5
 31
0.0
1001
ACDBBLOCKREPETAG
1070
     1
1071
       10
1005
12852A
  0
LINE
  5
12852B
  8
OBJECT
 10
117.9999999999997
 20
-952.0
 30
0.0
 11
121.9999999999997
 21
-956.49999999999989
 31
0.0
1001
ACDBBLOCKREPETAG
1070
     1
1071
       11
1005
12852B
  0
LINE
  5
12852C
  8
OBJECT
 10
130.50000000000071
 20
-949.5
 30
0.0
 11
130.49999999999881
 21
-1042.5
 31
0.0
1001
ACDBBLOCKREPETAG
1070
     1
1071
       12
1005
12852C
  0
ARC
  5
12852D
  8
OBJECT
 10
133.49999999999881
 20
-1042.5
 30
0.0
 40
3.0
 50
180.0
 51
270.0
1001
ACDBBLOCKREPETAG
1070
     1
1071
       13
1005
12852D
  0
LINE
  5
12852E
  8
OBJECT
 10
133.49999999999881
 20
-1045.5
 30
0.0
 11
158.65508008702159
 21
-1045.5
 31
0.0
1001
ACDBBLOCKREPETAG
1070
     1
1071
       15
1005
12852E
  0
LINE
  5
12852F
  8
OBJECT
 10
133.50000000000071
 20
-946.49999999999989
 30
0.0
 11
158.65508008702059
 21
-946.5000000000008
 31
0.0
1001
ACDBBLOCKREPETAG
1070
     1
1071
       16
1005
12852F
  0
ARC
  5
128530
  8
OBJECT
 10
133.50000000000071
 20
-949.5
 30
0.0
 40
3.0
 50
90.0
 51
180.0
1001
ACDBBLOCKREPETAG
1070
     1
1071
       17
1005
128530
  0
INSERT
  5
128531
  8
OBJECT
  2
*U5
 10
0.0
 20
0.0
 30
0.0
  0
LINE
  5
128532
  8
HIDDEN
 10
126.9999999999998
 20
-1026.0
 30
0.0
 11
126.9999999999998
 21
-966.0
 31
0.0
1001
ACDBBLOCKREPETAG
1070
     1
1071
       56
1005
128532
  0
CIRCLE
  5
128533
  8
OBJECT
 10
214.9999999999998
 20
-996.0
 30
0.0
 40
70.0
1001
ACDBBLOCKREPETAG
1070
     1
1071
       50
1005
128533
  0
CIRCLE
  5
128534
  8
OBJECT
 10
214.9999999999998
 20
-996.0
 30
0.0
 40
75.0
1001
ACDBBLOCKREPETAG
1070
     1
1071
       51
1005
128534
  0
POINT
  5
128535
  8
DOTS
 10
214.9999999999998
 20
-996.0
 30
0.0
1001
ACDBBLOCKREPETAG
1070
     1
1071
       63
1005
128535
  0
CIRCLE
  5
128536
  8
OBJECT
 10
214.9999999999998
 20
-996.0
 30
0.0
 40
55.0
1001
ACDBBLOCKREPETAG
1070
     1
1071
       50
1005
128536
  0
TEXT
  5
128537
  8
SLIM
 10
97.714285714224999
 20
-1707.9999999996919
 30
0.0
 40
48.0
  1
A0003
 41
0.75
1001
ACDBBLOCKREPETAG
1070
     1
1071
      119
1005
0
  0
TEXT
  5
128538
  8
SLIM
 10
457.71428571410308
 20
-1243.9999999998499
 30
0.0
 40
48.0
  1
A0002
 41
0.75
1001
ACDBBLOCKREPETAG
1070
     1
1071
      119
1005
0
  0
TEXT
  5
128539
  8
SLIM
 10
105.42857142851059
 20
-1243.9999999998499
 30
0.0
 40
48.0
  1
A0001
 41
0.75
1001
ACDBBLOCKREPETAG
1070
     1
1071
      119
1005
0
  0
LINE
  5
12853A
  8
OBJECT
 10
4633.0
 20
-137.99999999999909
 30
0.0
 11
4640.0
 21
-137.99999999999909
 31
0.0
1001
ACDBBLOCKREPETAG
1070
     1
1071
       47
1005
12853A
  0
LINE
  5
12853B
  8
OBJECT
 10
4640.0
 20
-137.99999999999909
 30
0.0
 11
4640.0
 21
-261.99999999999909
 31
0.0
1001
ACDBBLOCKREPETAG
1070
     1
1071
       48
1005
12853B
  0
LINE
  5
12853C
  8
OBJECT
 10
4640.0
 20
-261.99999999999909
 30
0.0
 11
4633.0
 21
-261.99999999999909
 31
0.0
1001
ACDBBLOCKREPETAG
1070
     1
1071
       49
1005
12853C
  0
LINE
  5
12853D
  8
OBJECT
 10
4633.0
 20
-261.99999999999909
 30
0.0
 11
4633.0
 21
-137.99999999999909
 31
0.0
1001
ACDBBLOCKREPETAG
1070
     1
1071
       50
1005
12853D
  0
LINE
  5
12853E
  8
CENTER
 10
4655.0
 20
-199.99999999999909
 30
0.0
 11
4580.0
 21
-199.99999999999909
 31
0.0
1001
ACDBBLOCKREPETAG
1070
     1
1071
       51
1005
12853E
  0
LINE
  5
12853F
  8
OBJECT
 10
4633.0
 20
-140.99999999999909
 30
0.0
 11
4597.0
 21
-140.99999999999909
 31
0.0
1001
ACDBBLOCKREPETAG
1070
     1
1071
       52
1005
12853F
  0
LINE
  5
128540
  8
OBJECT
 10
4597.0
 20
-140.99999999999909
 30
0.0
 11
4597.0
 21
-258.99999999999909
 31
0.0
1001
ACDBBLOCKREPETAG
1070
     1
1071
       53
1005
128540
  0
LINE
  5
128541
  8
OBJECT
 10
4597.0
 20
-258.99999999999909
 30
0.0
 11
4633.0
 21
-258.99999999999909
 31
0.0
1001
ACDBBLOCKREPETAG
1070
     1
1071
       54
1005
128541
  0
LINE
  5
128542
  8
OBJECT
 10
4593.0
 20
-145.49999999999909
 30
0.0
 11
4586.0
 21
-145.49999999999909
 31
0.0
1001
ACDBBLOCKREPETAG
1070
     1
1071
       55
1005
128542
  0
LINE
  5
128543
  8
OBJECT
 10
4586.0
 20
-254.49999999999909
 30
0.0
 11
4593.0
 21
-254.49999999999909
 31
0.0
1001
ACDBBLOCKREPETAG
1070
     1
1071
       56
1005
128543
  0
LINE
  5
128544
  8
OBJECT
 10
4593.0
 20
-254.49999999999909
 30
0.0
 11
4593.0
 21
-145.49999999999909
 31
0.0
1001
ACDBBLOCKREPETAG
1070
     1
1071
       57
1005
128544
  0
LINE
  5
128545
  8
OBJECT
 10
4597.0
 20
-140.99999999999909
 30
0.0
 11
4593.0
 21
-145.49999999999909
 31
0.0
1001
ACDBBLOCKREPETAG
1070
     1
1071
       58
1005
128545
  0
LINE
  5
128546
  8
OBJECT
 10
4597.0
 20
-258.99999999999909
 30
0.0
 11
4593.0
 21
-254.49999999999909
 31
0.0
1001
ACDBBLOCKREPETAG
1070
     1
1071
       59
1005
128546
  0
LINE
  5
128547
  8
OBJECT
 10
4583.0
 20
-137.99999999999909
 30
0.0
 11
4580.0
 21
-137.99999999999909
 31
0.0
1001
ACDBBLOCKREPETAG
1070
     1
1071
       60
1005
128547
  0
ARC
  5
128548
  8
OBJECT
 10
4583.0
 20
-140.99999999999909
 30
0.0
 40
3.0
 50
0.0
 51
90.0
1001
ACDBBLOCKREPETAG
1070
     1
1071
       61
1005
128548
  0
LINE
  5
128549
  8
OBJECT
 10
4580.0
 20
-261.99999999999909
 30
0.0
 11
4583.0
 21
-261.99999999999909
 31
0.0
1001
ACDBBLOCKREPETAG
1070
     1
1071
       62
1005
128549
  0
ARC
  5
12854A
  8
OBJECT
 10
4583.0
 20
-258.99999999999909
 30
0.0
 40
3.0
 50
270.0
 51
0.0
1001
ACDBBLOCKREPETAG
1070
     1
1071
       63
1005
12854A
  0
LINE
  5
12854B
  8
OBJECT
 10
4586.0
 20
-258.99999999999909
 30
0.0
 11
4586.0
 21
-140.99999999999909
 31
0.0
1001
ACDBBLOCKREPETAG
1070
     1
1071
       64
1005
12854B
  0
LINE
  5
12854C
  8
HIDDEN
 10
4588.0
 20
-155.49999999999909
 30
0.0
 11
4588.0
 21
-244.49999999999909
 31
0.0
1001
ACDBBLOCKREPETAG
1070
     1
1071
       65
1005
12854C
  0
LINE
  5
12854D
  8
OBJECT
 10
2633.0
 20
-137.99999999999909
 30
0.0
 11
2640.0
 21
-137.99999999999909
 31
0.0
1001
ACDBBLOCKREPETAG
1070
     1
1071
       47
1005
12854D
  0
LINE
  5
12854E
  8
OBJECT
 10
2640.0
 20
-137.99999999999909
 30
0.0
 11
2640.0
 21
-261.99999999999909
 31
0.0
1001
ACDBBLOCKREPETAG
1070
     1
1071
       48
1005
12854E
  0
LINE
  5
12854F
  8
OBJECT
 10
2640.0
 20
-261.99999999999909
 30
0.0
 11
2633.0
 21
-261.99999999999909
 31
0.0
1001
ACDBBLOCKREPETAG
1070
     1
1071
       49
1005
12854F
  0
LINE
  5
128550
  8
OBJECT
 10
2633.0
 20
-261.99999999999909
 30
0.0
 11
2633.0
 21
-137.99999999999909
 31
0.0
1001
ACDBBLOCKREPETAG
1070
     1
1071
       50
1005
128550
  0
LINE
  5
128551
  8
CENTER
 10
2655.0
 20
-199.99999999999909
 30
0.0
 11
2580.0
 21
-199.99999999999909
 31
0.0
1001
ACDBBLOCKREPETAG
1070
     1
1071
       51
1005
128551
  0
LINE
  5
128552
  8
OBJECT
 10
2633.0
 20
-140.99999999999909
 30
0.0
 11
2597.0
 21
-140.99999999999909
 31
0.0
1001
ACDBBLOCKREPETAG
1070
     1
1071
       52
1005
128552
  0
LINE
  5
128553
  8
OBJECT
 10
2597.0
 20
-140.99999999999909
 30
0.0
 11
2597.0
 21
-258.99999999999909
 31
0.0
1001
ACDBBLOCKREPETAG
1070
     1
1071
       53
1005
128553
  0
LINE
  5
128554
  8
OBJECT
 10
2597.0
 20
-258.99999999999909
 30
0.0
 11
2633.0
 21
-258.99999999999909
 31
0.0
1001
ACDBBLOCKREPETAG
1070
     1
1071
       54
1005
128554
  0
LINE
  5
128555
  8
OBJECT
 10
2593.0
 20
-145.49999999999909
 30
0.0
 11
2586.0
 21
-145.49999999999909
 31
0.0
1001
ACDBBLOCKREPETAG
1070
     1
1071
       55
1005
128555
  0
LINE
  5
128556
  8
OBJECT
 10
2586.0
 20
-254.49999999999909
 30
0.0
 11
2593.0
 21
-254.49999999999909
 31
0.0
1001
ACDBBLOCKREPETAG
1070
     1
1071
       56
1005
128556
  0
LINE
  5
128557
  8
OBJECT
 10
2593.0
 20
-254.49999999999909
 30
0.0
 11
2593.0
 21
-145.49999999999909
 31
0.0
1001
ACDBBLOCKREPETAG
1070
     1
1071
       57
1005
128557
  0
LINE
  5
128558
  8
OBJECT
 10
2597.0
 20
-140.99999999999909
 30
0.0
 11
2593.0
 21
-145.49999999999909
 31
0.0
1001
ACDBBLOCKREPETAG
1070
     1
1071
       58
1005
128558
  0
LINE
  5
128559
  8
OBJECT
 10
2597.0
 20
-258.99999999999909
 30
0.0
 11
2593.0
 21
-254.49999999999909
 31
0.0
1001
ACDBBLOCKREPETAG
1070
     1
1071
       59
1005
128559
  0
LINE
  5
12855A
  8
OBJECT
 10
2583.0
 20
-137.99999999999909
 30
0.0
 11
2580.0
 21
-137.99999999999909
 31
0.0
1001
ACDBBLOCKREPETAG
1070
     1
1071
       60
1005
12855A
  0
ARC
  5
12855B
  8
OBJECT
 10
2583.0
 20
-140.99999999999909
 30
0.0
 40
3.0
 50
0.0
 51
90.0
1001
ACDBBLOCKREPETAG
1070
     1
1071
       61
1005
12855B
  0
LINE
  5
12855C
  8
OBJECT
 10
2580.0
 20
-261.99999999999909
 30
0.0
 11
2583.0
 21
-261.99999999999909
 31
0.0
1001
ACDBBLOCKREPETAG
1070
     1
1071
       62
1005
12855C
  0
ARC
  5
12855D
  8
OBJECT
 10
2583.0
 20
-258.99999999999909
 30
0.0
 40
3.0
 50
270.0
 51
0.0
1001
ACDBBLOCKREPETAG
1070
     1
1071
       63
1005
12855D
  0
LINE
  5
12855E
  8
OBJECT
 10
2586.0
 20
-258.99999999999909
 30
0.0
 11
2586.0
 21
-140.99999999999909
 31
0.0
1001
ACDBBLOCKREPETAG
1070
     1
1071
       64
1005
12855E
  0
LINE
  5
12855F
  8
HIDDEN
 10
2588.0
 20
-155.49999999999909
 30
0.0
 11
2588.0
 21
-244.49999999999909
 31
0.0
1001
ACDBBLOCKREPETAG
1070
     1
1071
       65
1005
12855F
  0
LINE
  5
128560
  8
SLIM
 10
4424.8586105144159
 20
-160.26624122769411
 30
0.0
 11
4450.4999999999991
 21
-134.62485174211079
 31
0.0
1001
GRADIENTCOLOR1ACI
1070
     5
1001
GRADIENTCOLOR2ACI
1070
     2
1001
ACAD
1010
0.0
1020
0.0
1030
0.0
  0
LINE
  5
128561
  8
SLIM
 10
4418.6084340676744
 20
-175.4966737955055
 30
0.0
 11
4434.3612988780978
 21
-159.74380898508301
 31
0.0
1001
GRADIENTCOLOR1ACI
1070
     5
1001
GRADIENTCOLOR2ACI
1070
     2
1001
ACAD
1010
0.0
1020
0.0
1030
0.0
  0
LINE
  5
128562
  8
SLIM
 10
4415.9844434040897
 20
-187.1009205801592
 30
0.0
 11
4426.7155127720207
 21
-176.36985121222639
 31
0.0
1001
GRADIENTCOLOR1ACI
1070
     5
1001
GRADIENTCOLOR2ACI
1070
     2
1001
ACAD
1010
0.0
1020
0.0
1030
0.0
  0
LINE
  5
128563
  8
SLIM
 10
4415.0524951669167
 20
-197.0131249384003
 30
0.0
 11
4416.0656201053189
 21
-196.0
 31
0.0
1001
GRADIENTCOLOR1ACI
1070
     5
1001
GRADIENTCOLOR2ACI
1070
     2
1001
ACAD
1010
0.0
1020
0.0
1030
0.0
  0
LINE
  5
128564
  8
SLIM
 10
4416.0656201053189
 20
-196.0
 30
0.0
 11
4423.9176079182453
 21
-188.14801218707541
 31
0.0
1001
GRADIENTCOLOR1ACI
1070
     5
1001
GRADIENTCOLOR2ACI
1070
     2
1001
ACAD
1010
0.0
1020
0.0
1030
0.0
  0
LINE
  5
128565
  8
SLIM
 10
4415.2011819161371
 20
-205.844694310249
 30
0.0
 11
4421.0458762263879
 21
-200.0
 31
0.0
1001
GRADIENTCOLOR1ACI
1070
     5
1001
GRADIENTCOLOR2ACI
1070
     2
1001
ACAD
1010
0.0
1020
0.0
1030
0.0
  0
LINE
  5
128566
  8
SLIM
 10
4421.0458762263879
 20
-200.0
 30
0.0
 11
4423.0254504002114
 21
-198.02042582617551
 31
0.0
1001
GRADIENTCOLOR1ACI
1070
     5
1001
GRADIENTCOLOR2ACI
1070
     2
1001
ACAD
1010
0.0
1020
0.0
1030
0.0
  0
LINE
  5
128567
  8
SLIM
 10
4416.141658771895
 20
-213.88447357556291
 30
0.0
 11
4423.2947912640902
 21
-206.73134108336581
 31
0.0
1001
GRADIENTCOLOR1ACI
1070
     5
1001
GRADIENTCOLOR2ACI
1070
     2
1001
ACAD
1010
0.0
1020
0.0
1030
0.0
  0
LINE
  5
128568
  8
SLIM
 10
4417.710870111021
 20
-221.29551835750499
 30
0.0
 11
4419.006388468526
 21
-220.0
 31
0.0
1001
GRADIENTCOLOR1ACI
1070
     5
1001
GRADIENTCOLOR2ACI
1070
     2
1001
ACAD
1010
0.0
1020
0.0
1030
0.0
  0
LINE
  5
128569
  8
SLIM
 10
4419.006388468526
 20
-220.0
 30
0.0
 11
4424.3983736705259
 21
-214.60801479800011
 31
0.0
1001
GRADIENTCOLOR1ACI
1070
     5
1001
GRADIENTCOLOR2ACI
1070
     2
1001
ACAD
1010
0.0
1020
0.0
1030
0.0
  0
LINE
  5
12856A
  8
SLIM
 10
4419.8070443755887
 20
-228.17960021400589
 30
0.0
 11
4426.1586830180368
 21
-221.8279615715565
 31
0.0
1001
GRADIENTCOLOR1ACI
1070
     5
1001
GRADIENTCOLOR2ACI
1070
     2
1001
ACAD
1010
0.0
1020
0.0
1030
0.0
  0
LINE
  5
12856B
  8
SLIM
 10
4422.3627047135597
 20
-234.604195997104
 30
0.0
 11
4424.9669007106631
 21
-232.00000000000091
 31
0.0
1001
GRADIENTCOLOR1ACI
1070
     5
1001
GRADIENTCOLOR2ACI
1070
     2
1001
ACAD
1010
0.0
1020
0.0
1030
0.0
  0
LINE
  5
12856C
  8
SLIM
 10
4424.9669007106631
 20
-232.00000000000091
 30
0.0
 11
4428.4680718064428
 21
-228.4988289042185
 31
0.0
1001
GRADIENTCOLOR1ACI
1070
     5
1001
GRADIENTCOLOR2ACI
1070
     2
1001
ACAD
1010
0.0
1020
0.0
1030
0.0
  0
LINE
  5
12856D
  8
SLIM
 10
4425.3315714414448
 20
-240.61558539028829
 30
0.0
 11
4431.257033983361
 21
-234.69012284837211
 31
0.0
1001
GRADIENTCOLOR1ACI
1070
     5
1001
GRADIENTCOLOR2ACI
1070
     2
1001
ACAD
1010
0.0
1020
0.0
1030
0.0
  0
LINE
  5
12856E
  8
SLIM
 10
4428.6815548937129
 20
-246.2458580590887
 30
0.0
 11
4434.4793564785941
 21
-240.44805647420799
 31
0.0
1001
GRADIENTCOLOR1ACI
1070
     5
1001
GRADIENTCOLOR2ACI
1070
     2
1001
ACAD
1010
0.0
1020
0.0
1030
0.0
  0
LINE
  5
12856F
  8
SLIM
 10
4432.3907652629223
 20
-251.51690381094889
 30
0.0
 11
4438.1044220857211
 21
-245.80324698814999
 31
0.0
1001
GRADIENTCOLOR1ACI
1070
     5
1001
GRADIENTCOLOR2ACI
1070
     2
1001
ACAD
1010
0.0
1020
0.0
1030
0.0
  0
LINE
  5
128570
  8
SLIM
 10
4549.4999999999991
 20
-134.407669073872
 30
0.0
 11
4551.5169038109489
 21
-132.39076526292041
 31
0.0
1001
GRADIENTCOLOR1ACI
1070
     5
1001
GRADIENTCOLOR2ACI
1070
     2
1001
ACAD
1010
0.0
1020
0.0
1030
0.0
  0
LINE
  5
128571
  8
SLIM
 10
4436.4451742931069
 20
-256.44275090183282
 30
0.0
 11
4442.1129898655927
 21
-250.7749353293452
 31
0.0
1001
GRADIENTCOLOR1ACI
1070
     5
1001
GRADIENTCOLOR2ACI
1070
     2
1001
ACAD
1010
0.0
1020
0.0
1030
0.0
  0
LINE
  5
128572
  8
SLIM
 10
4554.8879251949411
 20
-137.99999999999909
 30
0.0
 11
4556.4427509018342
 21
-136.44517429310599
 31
0.0
1001
GRADIENTCOLOR1ACI
1070
     5
1001
GRADIENTCOLOR2ACI
1070
     2
1001
ACAD
1010
0.0
1020
0.0
1030
0.0
  0
LINE
  5
128573
  8
SLIM
 10
4440.8372731495638
 20
-261.03090816644323
 30
0.0
 11
4446.4948816754841
 21
-255.3732996405256
 31
0.0
1001
GRADIENTCOLOR1ACI
1070
     5
1001
GRADIENTCOLOR2ACI
1070
     2
1001
ACAD
1010
0.0
1020
0.0
1030
0.0
  0
LINE
  5
128574
  8
SLIM
 10
4445.5654027321416
 20
-265.2830347049362
 30
0.0
 11
4451.247859932686
 21
-259.60057750439142
 31
0.0
1001
GRADIENTCOLOR1ACI
1070
     5
1001
GRADIENTCOLOR2ACI
1070
     2
1001
ACAD
1010
0.0
1020
0.0
1030
0.0
  0
LINE
  5
128575
  8
SLIM
 10
4450.6336102119212
 20
-269.19508334622702
 30
0.0
 11
4456.3773901234681
 21
-263.45130343467918
 31
0.0
1001
GRADIENTCOLOR1ACI
1070
     5
1001
GRADIENTCOLOR2ACI
1070
     2
1001
ACAD
1010
0.0
1020
0.0
1030
0.0
  0
LINE
  5
128576
  8
SLIM
 10
4456.0520018449279
 20
-272.7569478342902
 30
0.0
 11
4461.8972267247527
 21
-266.91172295446449
 31
0.0
1001
GRADIENTCOLOR1ACI
1070
     5
1001
GRADIENTCOLOR2ACI
1070
     2
1001
ACAD
1010
0.0
1020
0.0
1030
0.0
  0
LINE
  5
128577
  8
SLIM
 10
4461.8376665887199
 20
-275.9515392115668
 30
0.0
 11
4467.8309761072287
 21
-269.95822969305573
 31
0.0
1001
GRADIENTCOLOR1ACI
1070
     5
1001
GRADIENTCOLOR2ACI
1070
     2
1001
ACAD
1010
0.0
1020
0.0
1030
0.0
  0
LINE
  5
128578
  8
SLIM
 10
4468.0163793697502
 20
-278.75308255160598
 30
0.0
 11
4474.2150822137446
 21
-272.55437970761068
 31
0.0
1001
GRADIENTCOLOR1ACI
1070
     5
1001
GRADIENTCOLOR2ACI
1070
     2
1001
ACAD
1010
0.0
1020
0.0
1030
0.0
  0
LINE
  5
128579
  8
SLIM
 10
4474.6255187948072
 20
-281.12419924761713
 30
0.0
 11
4481.104224702789
 21
-274.6454933396335
 31
0.0
1001
GRADIENTCOLOR1ACI
1070
     5
1001
GRADIENTCOLOR2ACI
1070
     2
1001
ACAD
1010
0.0
1020
0.0
1030
0.0
  0
LINE
  5
12857A
  8
SLIM
 10
4481.7190828919893
 20
-283.0108912715059
 30
0.0
 11
4488.5813416053998
 21
-276.14863255809269
 31
0.0
1001
GRADIENTCOLOR1ACI
1070
     5
1001
GRADIENTCOLOR2ACI
1070
     2
1001
ACAD
1010
0.0
1020
0.0
1030
0.0
  0
LINE
  5
12857B
  8
SLIM
 10
4489.3766938558792
 20
-284.333536428684
 30
0.0
 11
4496.7776839889611
 21
-276.93254629560221
 31
0.0
1001
GRADIENTCOLOR1ACI
1070
     5
1001
GRADIENTCOLOR2ACI
1070
     2
1001
ACAD
1010
0.0
1020
0.0
1030
0.0
  0
LINE
  5
12857C
  8
SLIM
 10
4497.7210427574209
 20
-284.96944364821047
 30
0.0
 11
4499.9999999999991
 21
-282.69048640563329
 31
0.0
1001
GRADIENTCOLOR1ACI
1070
     5
1001
GRADIENTCOLOR2ACI
1070
     2
1001
ACAD
1010
0.0
1020
0.0
1030
0.0
  0
LINE
  5
12857D
  8
SLIM
 10
4499.9999999999991
 20
-282.69048640563329
 30
0.0
 11
4505.9182638720868
 21
-276.77222253354472
 31
0.0
1001
GRADIENTCOLOR1ACI
1070
     5
1001
GRADIENTCOLOR2ACI
1070
     2
1001
ACAD
1010
0.0
1020
0.0
1030
0.0
  0
LINE
  5
12857E
  8
SLIM
 10
4506.9558298417924
 20
-284.7149126849099
 30
0.0
 11
4516.4479804102857
 21
-275.22276211641378
 31
0.0
1001
GRADIENTCOLOR1ACI
1070
     5
1001
GRADIENTCOLOR2ACI
1070
     2
1001
ACAD
1010
0.0
1020
0.0
1030
0.0
  0
LINE
  5
12857F
  8
SLIM
 10
4517.4645176312806
 20
-283.18648101648802
 30
0.0
 11
4529.5446399142847
 21
-271.1063587334848
 31
0.0
1001
GRADIENTCOLOR1ACI
1070
     5
1001
GRADIENTCOLOR2ACI
1070
     2
1001
ACAD
1010
0.0
1020
0.0
1030
0.0
  0
LINE
  5
128580
  8
SLIM
 10
4530.1631022713109
 20
-279.46815249752763
 30
0.0
 11
4547.6312547688394
 21
-262.0
 31
0.0
1001
GRADIENTCOLOR1ACI
1070
     5
1001
GRADIENTCOLOR2ACI
1070
     2
1001
ACAD
1010
0.0
1020
0.0
1030
0.0
  0
LINE
  5
128581
  8
SLIM
 10
4549.542181759909
 20
-269.0693291299977
 30
0.0
 11
4556.6115108899112
 21
-261.99999999999909
 31
0.0
1001
GRADIENTCOLOR1ACI
1070
     5
1001
GRADIENTCOLOR2ACI
1070
     2
1001
ACAD
1010
0.0
1020
0.0
1030
0.0
  0
LINE
  5
128582
  8
SLIM
 10
4914.9999999999918
 20
-849.27641430503331
 30
0.0
 11
4918.2764143050317
 21
-845.99999999999443
 31
0.0
1001
ACDBBLOCKREPETAG
1070
     1
1071
        0
1005
0
1001
ACAD
1010
0.0
1020
0.0
1030
0.0
  0
LINE
  5
128583
  8
SLIM
 10
4914.9999999999927
 20
-867.23692654717058
 30
0.0
 11
4936.2369265471698
 21
-845.99999999999443
 31
0.0
1001
ACDBBLOCKREPETAG
1070
     1
1071
        0
1005
0
1001
ACAD
1010
0.0
1020
0.0
1030
0.0
  0
LINE
  5
128584
  8
SLIM
 10
4914.9999999999955
 20
-885.19743878930808
 30
0.0
 11
4954.1974387893088
 21
-845.99999999999443
 31
0.0
1001
ACDBBLOCKREPETAG
1070
     1
1071
        0
1005
0
1001
ACAD
1010
0.0
1020
0.0
1030
0.0
  0
LINE
  5
128585
  8
SLIM
 10
4914.9999999999955
 20
-903.1579510314458
 30
0.0
 11
4972.1579510314468
 21
-845.99999999999443
 31
0.0
1001
ACDBBLOCKREPETAG
1070
     1
1071
        0
1005
0
1001
ACAD
1010
0.0
1020
0.0
1030
0.0
  0
LINE
  5
128586
  8
SLIM
 10
4915.1454972543161
 20
-920.97296601926348
 30
0.0
 11
4990.1184632735849
 21
-845.99999999999443
 31
0.0
1001
ACDBBLOCKREPETAG
1070
     1
1071
        0
1005
0
1001
ACAD
1010
0.0
1020
0.0
1030
0.0
  0
LINE
  5
128587
  8
SLIM
 10
4917.104627495245
 20
-936.97434802047394
 30
0.0
 11
5008.078975515723
 21
-845.99999999999443
 31
0.0
1001
ACDBBLOCKREPETAG
1070
     1
1071
        0
1005
0
1001
ACAD
1010
0.0
1020
0.0
1030
0.0
  0
LINE
  5
128588
  8
SLIM
 10
4919.0637577361713
 20
-952.97573002168394
 30
0.0
 11
5026.0394877578619
 21
-845.99999999999443
 31
0.0
1001
ACDBBLOCKREPETAG
1070
     1
1071
        0
1005
0
1001
ACAD
1010
0.0
1020
0.0
1030
0.0
  0
LINE
  5
128589
  8
SLIM
 10
4920.0
 20
-969.99999999999443
 30
0.0
 11
5044.0
 21
-845.99999999999443
 31
0.0
1001
ACDBBLOCKREPETAG
1070
     1
1071
        0
1005
0
1001
ACAD
1010
0.0
1020
0.0
1030
0.0
  0
LINE
  5
12858A
  8
SLIM
 10
4920.0
 20
-987.96051224213261
 30
0.0
 11
5061.9605122421381
 21
-845.99999999999443
 31
0.0
1001
ACDBBLOCKREPETAG
1070
     1
1071
        0
1005
0
1001
ACAD
1010
0.0
1020
0.0
1030
0.0
  0
LINE
  5
12858B
  8
SLIM
 10
4920.0
 20
-1005.921024484271
 30
0.0
 11
5079.9210244842761
 21
-845.99999999999443
 31
0.0
1001
ACDBBLOCKREPETAG
1070
     1
1071
        0
1005
0
1001
ACAD
1010
0.0
1020
0.0
1030
0.0
  0
LINE
  5
12858C
  8
SLIM
 10
4920.0
 20
-1023.881536726409
 30
0.0
 11
5085.0000000000073
 21
-858.88153672640249
 31
0.0
1001
ACDBBLOCKREPETAG
1070
     1
1071
        0
1005
0
1001
ACAD
1010
0.0
1020
0.0
1030
0.0
  0
LINE
  5
12858D
  8
SLIM
 10
4920.0
 20
-1041.842048968547
 30
0.0
 11
5085.0000000000073
 21
-876.84204896854158
 31
0.0
1001
ACDBBLOCKREPETAG
1070
     1
1071
        0
1005
0
1001
ACAD
1010
0.0
1020
0.0
1030
0.0
  0
LINE
  5
12858E
  8
SLIM
 10
4920.0
 20
-1059.802561210686
 30
0.0
 11
5085.0000000000036
 21
-894.80256121068101
 31
0.0
1001
ACDBBLOCKREPETAG
1070
     1
1071
        0
1005
0
1001
ACAD
1010
0.0
1020
0.0
1030
0.0
  0
LINE
  5
12858F
  8
SLIM
 10
4920.0
 20
-1077.7630734528241
 30
0.0
 11
5085.0000000000036
 21
-912.76307345282009
 31
0.0
1001
ACDBBLOCKREPETAG
1070
     1
1071
        0
1005
0
1001
ACAD
1010
0.0
1020
0.0
1030
0.0
  0
LINE
  5
128590
  8
SLIM
 10
4929.7235856949692
 20
-1085.9999999999941
 30
0.0
 11
5083.4738280308084
 21
-932.249757664154
 31
0.0
1001
ACDBBLOCKREPETAG
1070
     1
1071
        0
1005
0
1001
ACAD
1010
0.0
1020
0.0
1030
0.0
  0
LINE
  5
128591
  8
SLIM
 10
4930.0
 20
-1103.6840979371
 30
0.0
 11
4947.6840979371063
 21
-1085.9999999999941
 31
0.0
1001
ACDBBLOCKREPETAG
1070
     1
1071
        0
1005
0
1001
ACAD
1010
0.0
1020
0.0
1030
0.0
  0
LINE
  5
128592
  8
SLIM
 10
4947.6840979371063
 20
-1085.9999999999941
 30
0.0
 11
5080.9680345671377
 21
-952.71606336996354
 31
0.0
1001
ACDBBLOCKREPETAG
1070
     1
1071
        0
1005
0
1001
ACAD
1010
0.0
1020
0.0
1030
0.0
  0
LINE
  5
128593
  8
SLIM
 10
4946.6446101792453
 20
-1104.9999999999941
 30
0.0
 11
4965.6446101792453
 21
-1085.9999999999941
 31
0.0
1001
ACDBBLOCKREPETAG
1070
     1
1071
        0
1005
0
1001
ACAD
1010
0.0
1020
0.0
1030
0.0
  0
LINE
  5
128594
  8
SLIM
 10
4965.6446101792453
 20
-1085.9999999999941
 30
0.0
 11
5080.0
 21
-971.64461017923918
 31
0.0
1001
ACDBBLOCKREPETAG
1070
     1
1071
        0
1005
0
1001
ACAD
1010
0.0
1020
0.0
1030
0.0
  0
LINE
  5
128595
  8
SLIM
 10
4964.6051224213843
 20
-1104.9999999999941
 30
0.0
 11
4983.6051224213843
 21
-1085.9999999999941
 31
0.0
1001
ACDBBLOCKREPETAG
1070
     1
1071
        0
1005
0
1001
ACAD
1010
0.0
1020
0.0
1030
0.0
  0
LINE
  5
128596
  8
SLIM
 10
4983.6051224213843
 20
-1085.9999999999941
 30
0.0
 11
5080.0
 21
-989.60512242137759
 31
0.0
1001
ACDBBLOCKREPETAG
1070
     1
1071
        0
1005
0
1001
ACAD
1010
0.0
1020
0.0
1030
0.0
  0
LINE
  5
128597
  8
SLIM
 10
4982.5656346635215
 20
-1104.9999999999941
 30
0.0
 11
5001.5656346635215
 21
-1085.9999999999941
 31
0.0
1001
ACDBBLOCKREPETAG
1070
     1
1071
        0
1005
0
1001
ACAD
1010
0.0
1020
0.0
1030
0.0
  0
LINE
  5
128598
  8
SLIM
 10
5001.5656346635215
 20
-1085.9999999999941
 30
0.0
 11
5079.9999999999991
 21
-1007.565634663516
 31
0.0
1001
ACDBBLOCKREPETAG
1070
     1
1071
        0
1005
0
1001
ACAD
1010
0.0
1020
0.0
1030
0.0
  0
LINE
  5
128599
  8
SLIM
 10
5000.5261469056577
 20
-1104.9999999999941
 30
0.0
 11
5019.5261469056613
 21
-1085.9999999999941
 31
0.0
1001
ACDBBLOCKREPETAG
1070
     1
1071
        0
1005
0
1001
ACAD
1010
0.0
1020
0.0
1030
0.0
  0
LINE
  5
12859A
  8
SLIM
 10
5019.5261469056613
 20
-1085.9999999999941
 30
0.0
 11
5079.9999999999991
 21
-1025.526146905655
 31
0.0
1001
ACDBBLOCKREPETAG
1070
     1
1071
        0
1005
0
1001
ACAD
1010
0.0
1020
0.0
1030
0.0
  0
LINE
  5
12859B
  8
SLIM
 10
5018.4866591477967
 20
-1104.9999999999941
 30
0.0
 11
5037.4866591477976
 21
-1085.9999999999941
 31
0.0
1001
ACDBBLOCKREPETAG
1070
     1
1071
        0
1005
0
1001
ACAD
1010
0.0
1020
0.0
1030
0.0
  0
LINE
  5
12859C
  8
SLIM
 10
5037.4866591477976
 20
-1085.9999999999941
 30
0.0
 11
5079.9999999999991
 21
-1043.486659147793
 31
0.0
1001
ACDBBLOCKREPETAG
1070
     1
1071
        0
1005
0
1001
ACAD
1010
0.0
1020
0.0
1030
0.0
  0
LINE
  5
12859D
  8
SLIM
 10
5036.4471713899366
 20
-1104.9999999999941
 30
0.0
 11
5055.4471713899356
 21
-1085.9999999999941
 31
0.0
1001
ACDBBLOCKREPETAG
1070
     1
1071
        0
1005
0
1001
ACAD
1010
0.0
1020
0.0
1030
0.0
  0
LINE
  5
12859E
  8
SLIM
 10
5055.4471713899356
 20
-1085.9999999999941
 30
0.0
 11
5079.9999999999982
 21
-1061.447171389932
 31
0.0
1001
ACDBBLOCKREPETAG
1070
     1
1071
        0
1005
0
1001
ACAD
1010
0.0
1020
0.0
1030
0.0
  0
LINE
  5
12859F
  8
SLIM
 10
5054.4076836320737
 20
-1104.9999999999941
 30
0.0
 11
5070.0
 21
-1089.407683632068
 31
0.0
1001
ACDBBLOCKREPETAG
1070
     1
1071
        0
1005
0
1001
ACAD
1010
0.0
1020
0.0
1030
0.0
  0
LINE
  5
1285A0
  8
SLIM
 10
5073.4076836320737
 20
-1085.9999999999941
 30
0.0
 11
5079.9999999999982
 21
-1079.4076836320701
 31
0.0
1001
ACDBBLOCKREPETAG
1070
     1
1071
        0
1005
0
1001
ACAD
1010
0.0
1020
0.0
1030
0.0
  0
LINE
  5
1285A1
  8
OBJECT
 10
4914.9999999999918
 20
-845.99999999999443
 30
0.0
 11
4914.9999999999982
 21
-919.78460339902892
 31
0.0
1001
ACDBBLOCKREPETAG
1070
     1
1071
        1
1005
1285A1
  0
LINE
  5
1285A2
  8
OBJECT
 10
5085.0000000000073
 20
-845.99999999999443
 30
0.0
 11
5085.0000000000036
 21
-919.7846033990362
 31
0.0
1001
ACDBBLOCKREPETAG
1070
     1
1071
        2
1005
1285A2
  0
LINE
  5
1285A3
  8
OBJECT
 10
5085.0000000000073
 20
-845.99999999999443
 30
0.0
 11
4914.9999999999918
 21
-845.99999999999443
 31
0.0
1001
ACDBBLOCKREPETAG
1070
     1
1071
        3
1005
1285A3
  0
LINE
  5
1285A4
  8
OBJECT
 10
5079.9999999999982
 20
-1085.9999999999941
 30
0.0
 11
4920.0
 21
-1085.9999999999941
 31
0.0
1001
ACDBBLOCKREPETAG
1070
     1
1071
        4
1005
1285A4
  0
LINE
  5
1285A5
  8
OBJECT
 10
4914.9999999999982
 20
-919.78460339902961
 30
0.0
 11
4920.0
 21
-960.62257748298111
 31
0.0
1001
ACDBBLOCKREPETAG
1070
     1
1071
        6
1005
1285A5
  0
LINE
  5
1285A6
  8
OBJECT
 10
4920.0
 20
-960.62257748298111
 30
0.0
 11
4920.0
 21
-1085.9999999999941
 31
0.0
1001
ACDBBLOCKREPETAG
1070
     1
1071
        7
1005
1285A6
  0
LINE
  5
1285A7
  8
OBJECT
 10
5085.0000000000036
 20
-919.7846033990362
 30
0.0
 11
5080.0
 21
-960.62257748298111
 31
0.0
1001
ACDBBLOCKREPETAG
1070
     1
1071
        8
1005
1285A7
  0
LINE
  5
1285A8
  8
OBJECT
 10
5080.0
 20
-960.62257748298111
 30
0.0
 11
5079.9999999999982
 21
-1085.9999999999941
 31
0.0
1001
ACDBBLOCKREPETAG
1070
     1
1071
        9
1005
1285A8
  0
LINE
  5
1285A9
  8
OBJECT
 10
4930.0
 20
-1085.9999999999941
 30
0.0
 11
4930.0
 21
-1104.9999999999941
 31
0.0
1001
ACDBBLOCKREPETAG
1070
     1
1071
       10
1005
1285A9
  0
LINE
  5
1285AA
  8
OBJECT
 10
4930.0
 20
-1104.9999999999941
 30
0.0
 11
5070.0
 21
-1104.9999999999941
 31
0.0
1001
ACDBBLOCKREPETAG
1070
     1
1071
       11
1005
1285AA
  0
LINE
  5
1285AB
  8
OBJECT
 10
5070.0
 20
-1104.9999999999941
 30
0.0
 11
5070.0
 21
-1085.9999999999941
 31
0.0
1001
ACDBBLOCKREPETAG
1070
     1
1071
       12
1005
1285AB
  0
LINE
  5
1285AC
  8
SLIM
 10
4414.9999999999918
 20
-849.27641430503331
 30
0.0
 11
4418.2764143050317
 21
-845.99999999999443
 31
0.0
1001
ACDBBLOCKREPETAG
1070
     1
1071
        0
1005
0
1001
ACAD
1010
0.0
1020
0.0
1030
0.0
  0
LINE
  5
1285AD
  8
SLIM
 10
4414.9999999999927
 20
-867.23692654717058
 30
0.0
 11
4436.2369265471689
 21
-845.99999999999443
 31
0.0
1001
ACDBBLOCKREPETAG
1070
     1
1071
        0
1005
0
1001
ACAD
1010
0.0
1020
0.0
1030
0.0
  0
LINE
  5
1285AE
  8
SLIM
 10
4414.9999999999927
 20
-885.19743878930808
 30
0.0
 11
4454.1974387893088
 21
-845.99999999999443
 31
0.0
1001
ACDBBLOCKREPETAG
1070
     1
1071
        0
1005
0
1001
ACAD
1010
0.0
1020
0.0
1030
0.0
  0
LINE
  5
1285AF
  8
SLIM
 10
4414.9999999999955
 20
-903.1579510314458
 30
0.0
 11
4472.1579510314468
 21
-845.99999999999443
 31
0.0
1001
ACDBBLOCKREPETAG
1070
     1
1071
        0
1005
0
1001
ACAD
1010
0.0
1020
0.0
1030
0.0
  0
LINE
  5
1285B0
  8
SLIM
 10
4415.1454972543161
 20
-920.97296601926348
 30
0.0
 11
4490.118463273584
 21
-845.99999999999443
 31
0.0
1001
ACDBBLOCKREPETAG
1070
     1
1071
        0
1005
0
1001
ACAD
1010
0.0
1020
0.0
1030
0.0
  0
LINE
  5
1285B1
  8
SLIM
 10
4417.1046274952441
 20
-936.97434802047394
 30
0.0
 11
4508.078975515723
 21
-845.99999999999443
 31
0.0
1001
ACDBBLOCKREPETAG
1070
     1
1071
        0
1005
0
1001
ACAD
1010
0.0
1020
0.0
1030
0.0
  0
LINE
  5
1285B2
  8
SLIM
 10
4419.0637577361713
 20
-952.97573002168394
 30
0.0
 11
4526.0394877578619
 21
-845.99999999999443
 31
0.0
1001
ACDBBLOCKREPETAG
1070
     1
1071
        0
1005
0
1001
ACAD
1010
0.0
1020
0.0
1030
0.0
  0
LINE
  5
1285B3
  8
SLIM
 10
4420.0
 20
-969.99999999999443
 30
0.0
 11
4544.0
 21
-845.99999999999443
 31
0.0
1001
ACDBBLOCKREPETAG
1070
     1
1071
        0
1005
0
1001
ACAD
1010
0.0
1020
0.0
1030
0.0
  0
LINE
  5
1285B4
  8
SLIM
 10
4420.0
 20
-987.96051224213261
 30
0.0
 11
4561.9605122421381
 21
-845.99999999999443
 31
0.0
1001
ACDBBLOCKREPETAG
1070
     1
1071
        0
1005
0
1001
ACAD
1010
0.0
1020
0.0
1030
0.0
  0
LINE
  5
1285B5
  8
SLIM
 10
4420.0
 20
-1005.921024484271
 30
0.0
 11
4579.9210244842761
 21
-845.99999999999443
 31
0.0
1001
ACDBBLOCKREPETAG
1070
     1
1071
        0
1005
0
1001
ACAD
1010
0.0
1020
0.0
1030
0.0
  0
LINE
  5
1285B6
  8
SLIM
 10
4420.0
 20
-1023.881536726409
 30
0.0
 11
4585.0000000000073
 21
-858.88153672640249
 31
0.0
1001
ACDBBLOCKREPETAG
1070
     1
1071
        0
1005
0
1001
ACAD
1010
0.0
1020
0.0
1030
0.0
  0
LINE
  5
1285B7
  8
SLIM
 10
4420.0
 20
-1041.842048968547
 30
0.0
 11
4585.0000000000073
 21
-876.84204896854158
 31
0.0
1001
ACDBBLOCKREPETAG
1070
     1
1071
        0
1005
0
1001
ACAD
1010
0.0
1020
0.0
1030
0.0
  0
LINE
  5
1285B8
  8
SLIM
 10
4420.0
 20
-1059.802561210686
 30
0.0
 11
4585.0000000000036
 21
-894.80256121068101
 31
0.0
1001
ACDBBLOCKREPETAG
1070
     1
1071
        0
1005
0
1001
ACAD
1010
0.0
1020
0.0
1030
0.0
  0
LINE
  5
1285B9
  8
SLIM
 10
4420.0
 20
-1077.7630734528241
 30
0.0
 11
4585.0000000000009
 21
-912.76307345282009
 31
0.0
1001
ACDBBLOCKREPETAG
1070
     1
1071
        0
1005
0
1001
ACAD
1010
0.0
1020
0.0
1030
0.0
  0
LINE
  5
1285BA
  8
SLIM
 10
4429.7235856949683
 20
-1085.9999999999941
 30
0.0
 11
4583.4738280308084
 21
-932.249757664154
 31
0.0
1001
ACDBBLOCKREPETAG
1070
     1
1071
        0
1005
0
1001
ACAD
1010
0.0
1020
0.0
1030
0.0
  0
LINE
  5
1285BB
  8
SLIM
 10
4430.0
 20
-1103.6840979371
 30
0.0
 11
4447.6840979371054
 21
-1085.9999999999941
 31
0.0
1001
ACDBBLOCKREPETAG
1070
     1
1071
        0
1005
0
1001
ACAD
1010
0.0
1020
0.0
1030
0.0
  0
LINE
  5
1285BC
  8
SLIM
 10
4447.6840979371054
 20
-1085.9999999999941
 30
0.0
 11
4580.9680345671368
 21
-952.71606336996354
 31
0.0
1001
ACDBBLOCKREPETAG
1070
     1
1071
        0
1005
0
1001
ACAD
1010
0.0
1020
0.0
1030
0.0
  0
LINE
  5
1285BD
  8
SLIM
 10
4446.6446101792453
 20
-1104.9999999999941
 30
0.0
 11
4465.6446101792453
 21
-1085.9999999999941
 31
0.0
1001
ACDBBLOCKREPETAG
1070
     1
1071
        0
1005
0
1001
ACAD
1010
0.0
1020
0.0
1030
0.0
  0
LINE
  5
1285BE
  8
SLIM
 10
4465.6446101792453
 20
-1085.9999999999941
 30
0.0
 11
4580.0
 21
-971.64461017923918
 31
0.0
1001
ACDBBLOCKREPETAG
1070
     1
1071
        0
1005
0
1001
ACAD
1010
0.0
1020
0.0
1030
0.0
  0
LINE
  5
1285BF
  8
SLIM
 10
4464.6051224213843
 20
-1104.9999999999941
 30
0.0
 11
4483.6051224213843
 21
-1085.9999999999941
 31
0.0
1001
ACDBBLOCKREPETAG
1070
     1
1071
        0
1005
0
1001
ACAD
1010
0.0
1020
0.0
1030
0.0
  0
LINE
  5
1285C0
  8
SLIM
 10
4483.6051224213843
 20
-1085.9999999999941
 30
0.0
 11
4580.0
 21
-989.60512242137759
 31
0.0
1001
ACDBBLOCKREPETAG
1070
     1
1071
        0
1005
0
1001
ACAD
1010
0.0
1020
0.0
1030
0.0
  0
LINE
  5
1285C1
  8
SLIM
 10
4482.5656346635215
 20
-1104.9999999999941
 30
0.0
 11
4501.5656346635215
 21
-1085.9999999999941
 31
0.0
1001
ACDBBLOCKREPETAG
1070
     1
1071
        0
1005
0
1001
ACAD
1010
0.0
1020
0.0
1030
0.0
  0
LINE
  5
1285C2
  8
SLIM
 10
4501.5656346635215
 20
-1085.9999999999941
 30
0.0
 11
4579.9999999999991
 21
-1007.565634663516
 31
0.0
1001
ACDBBLOCKREPETAG
1070
     1
1071
        0
1005
0
1001
ACAD
1010
0.0
1020
0.0
1030
0.0
  0
LINE
  5
1285C3
  8
SLIM
 10
4500.5261469056577
 20
-1104.9999999999941
 30
0.0
 11
4519.5261469056604
 21
-1085.9999999999941
 31
0.0
1001
ACDBBLOCKREPETAG
1070
     1
1071
        0
1005
0
1001
ACAD
1010
0.0
1020
0.0
1030
0.0
  0
LINE
  5
1285C4
  8
SLIM
 10
4519.5261469056604
 20
-1085.9999999999941
 30
0.0
 11
4579.9999999999991
 21
-1025.526146905655
 31
0.0
1001
ACDBBLOCKREPETAG
1070
     1
1071
        0
1005
0
1001
ACAD
1010
0.0
1020
0.0
1030
0.0
  0
LINE
  5
1285C5
  8
SLIM
 10
4518.4866591477967
 20
-1104.9999999999941
 30
0.0
 11
4537.4866591477976
 21
-1085.9999999999941
 31
0.0
1001
ACDBBLOCKREPETAG
1070
     1
1071
        0
1005
0
1001
ACAD
1010
0.0
1020
0.0
1030
0.0
  0
LINE
  5
1285C6
  8
SLIM
 10
4537.4866591477976
 20
-1085.9999999999941
 30
0.0
 11
4579.9999999999991
 21
-1043.486659147793
 31
0.0
1001
ACDBBLOCKREPETAG
1070
     1
1071
        0
1005
0
1001
ACAD
1010
0.0
1020
0.0
1030
0.0
  0
LINE
  5
1285C7
  8
SLIM
 10
4536.4471713899347
 20
-1104.9999999999941
 30
0.0
 11
4555.4471713899356
 21
-1085.9999999999941
 31
0.0
1001
ACDBBLOCKREPETAG
1070
     1
1071
        0
1005
0
1001
ACAD
1010
0.0
1020
0.0
1030
0.0
  0
LINE
  5
1285C8
  8
SLIM
 10
4555.4471713899356
 20
-1085.9999999999941
 30
0.0
 11
4579.9999999999982
 21
-1061.447171389932
 31
0.0
1001
ACDBBLOCKREPETAG
1070
     1
1071
        0
1005
0
1001
ACAD
1010
0.0
1020
0.0
1030
0.0
  0
LINE
  5
1285C9
  8
SLIM
 10
4554.4076836320728
 20
-1104.9999999999941
 30
0.0
 11
4570.0
 21
-1089.407683632068
 31
0.0
1001
ACDBBLOCKREPETAG
1070
     1
1071
        0
1005
0
1001
ACAD
1010
0.0
1020
0.0
1030
0.0
  0
LINE
  5
1285CA
  8
SLIM
 10
4573.4076836320737
 20
-1085.9999999999941
 30
0.0
 11
4579.9999999999982
 21
-1079.4076836320701
 31
0.0
1001
ACDBBLOCKREPETAG
1070
     1
1071
        0
1005
0
1001
ACAD
1010
0.0
1020
0.0
1030
0.0
  0
LINE
  5
1285CB
  8
OBJECT
 10
4414.9999999999918
 20
-845.99999999999443
 30
0.0
 11
4414.9999999999973
 21
-919.78460339902892
 31
0.0
1001
ACDBBLOCKREPETAG
1070
     1
1071
        1
1005
1285CB
  0
LINE
  5
1285CC
  8
OBJECT
 10
4585.0000000000073
 20
-845.99999999999443
 30
0.0
 11
4585.0000000000009
 21
-919.7846033990362
 31
0.0
1001
ACDBBLOCKREPETAG
1070
     1
1071
        2
1005
1285CC
  0
LINE
  5
1285CD
  8
OBJECT
 10
4585.0000000000073
 20
-845.99999999999443
 30
0.0
 11
4414.9999999999918
 21
-845.99999999999443
 31
0.0
1001
ACDBBLOCKREPETAG
1070
     1
1071
        3
1005
1285CD
  0
LINE
  5
1285CE
  8
OBJECT
 10
4579.9999999999982
 20
-1085.9999999999941
 30
0.0
 11
4420.0
 21
-1085.9999999999941
 31
0.0
1001
ACDBBLOCKREPETAG
1070
     1
1071
        4
1005
1285CE
  0
LINE
  5
1285CF
  8
OBJECT
 10
4414.9999999999973
 20
-919.78460339902961
 30
0.0
 11
4420.0
 21
-960.62257748298111
 31
0.0
1001
ACDBBLOCKREPETAG
1070
     1
1071
        6
1005
1285CF
  0
LINE
  5
1285D0
  8
OBJECT
 10
4420.0
 20
-960.62257748298111
 30
0.0
 11
4420.0
 21
-1085.9999999999941
 31
0.0
1001
ACDBBLOCKREPETAG
1070
     1
1071
        7
1005
1285D0
  0
LINE
  5
1285D1
  8
OBJECT
 10
4585.0000000000009
 20
-919.7846033990362
 30
0.0
 11
4580.0
 21
-960.62257748298111
 31
0.0
1001
ACDBBLOCKREPETAG
1070
     1
1071
        8
1005
1285D1
  0
LINE
  5
1285D2
  8
OBJECT
 10
4580.0
 20
-960.62257748298111
 30
0.0
 11
4579.9999999999982
 21
-1085.9999999999941
 31
0.0
1001
ACDBBLOCKREPETAG
1070
     1
1071
        9
1005
1285D2
  0
LINE
  5
1285D3
  8
OBJECT
 10
4430.0
 20
-1085.9999999999941
 30
0.0
 11
4430.0
 21
-1104.9999999999941
 31
0.0
1001
ACDBBLOCKREPETAG
1070
     1
1071
       10
1005
1285D3
  0
LINE
  5
1285D4
  8
OBJECT
 10
4430.0
 20
-1104.9999999999941
 30
0.0
 11
4570.0
 21
-1104.9999999999941
 31
0.0
1001
ACDBBLOCKREPETAG
1070
     1
1071
       11
1005
1285D4
  0
LINE
  5
1285D5
  8
OBJECT
 10
4570.0
 20
-1104.9999999999941
 30
0.0
 11
4570.0
 21
-1085.9999999999941
 31
0.0
1001
ACDBBLOCKREPETAG
1070
     1
1071
       12
1005
1285D5
  0
LINE
  5
1285D6
  8
OBJECT
 10
4930.0
 20
-1199.999999999992
 30
0.0
 11
5070.0
 21
-1199.999999999992
 31
0.0
1001
ACDBBLOCKREPETAG
1070
     1
1071
        0
1005
1285D6
  0
LINE
  5
1285D7
  8
OBJECT
 10
4930.0
 20
-1199.999999999992
 30
0.0
 11
4930.0
 21
-959.99999999999261
 31
0.0
1001
ACDBBLOCKREPETAG
1070
     1
1071
        1
1005
1285D7
  0
LINE
  5
1285D8
  8
OBJECT
 10
5070.0
 20
-1199.999999999992
 30
0.0
 11
5070.0
 21
-959.99999999999261
 31
0.0
1001
ACDBBLOCKREPETAG
1070
     1
1071
        2
1005
1285D8
  0
LINE
  5
1285D9
  8
OBJECT
 10
4930.0
 20
-959.99999999999261
 30
0.0
 11
5070.0
 21
-959.99999999999261
 31
0.0
1001
ACDBBLOCKREPETAG
1070
     1
1071
        3
1005
1285D9
  0
LINE
  5
1285DA
  8
HIDDEN
 10
4937.5
 20
-959.99999999999261
 30
0.0
 11
4937.5
 21
-1199.999999999992
 31
0.0
1001
ACDBBLOCKREPETAG
1070
     1
1071
        4
1005
1285DA
  0
LINE
  5
1285DB
  8
HIDDEN
 10
5062.5
 20
-959.99999999999261
 30
0.0
 11
5062.5
 21
-1199.999999999992
 31
0.0
1001
ACDBBLOCKREPETAG
1070
     1
1071
        5
1005
1285DB
  0
LINE
  5
1285DC
  8
CENTER
 10
5000.0
 20
-889.99999999999409
 30
0.0
 11
5000.0
 21
-1214.999999999992
 31
0.0
1001
ACDBBLOCKREPETAG
1070
     1
1071
        6
1005
1285DC
  0
LINE
  5
1285DD
  8
OBJECT
 10
4925.0
 20
-889.99999999999409
 30
0.0
 11
4925.0
 21
-919.99999999999238
 31
0.0
1001
ACDBBLOCKREPETAG
1070
     1
1071
        7
1005
1285DD
  0
LINE
  5
1285DE
  8
OBJECT
 10
5075.0000000000018
 20
-889.99999999999409
 30
0.0
 11
5075.0
 21
-919.99999999999238
 31
0.0
1001
ACDBBLOCKREPETAG
1070
     1
1071
        8
1005
1285DE
  0
LINE
  5
1285DF
  8
OBJECT
 10
4925.0
 20
-919.99999999999238
 30
0.0
 11
5075.0
 21
-919.99999999999238
 31
0.0
1001
ACDBBLOCKREPETAG
1070
     1
1071
        9
1005
1285DF
  0
LINE
  5
1285E0
  8
OBJECT
 10
4925.0
 20
-919.99999999999238
 30
0.0
 11
4930.0
 21
-959.99999999999261
 31
0.0
1001
ACDBBLOCKREPETAG
1070
     1
1071
       10
1005
1285E0
  0
LINE
  5
1285E1
  8
OBJECT
 10
5070.0
 20
-959.99999999999261
 30
0.0
 11
5075.0
 21
-919.99999999999238
 31
0.0
1001
ACDBBLOCKREPETAG
1070
     1
1071
       11
1005
1285E1
  0
LINE
  5
1285E2
  8
OBJECT
 10
4430.0
 20
-1199.999999999992
 30
0.0
 11
4570.0
 21
-1199.999999999992
 31
0.0
1001
ACDBBLOCKREPETAG
1070
     1
1071
        0
1005
1285E2
  0
LINE
  5
1285E3
  8
OBJECT
 10
4430.0
 20
-1199.999999999992
 30
0.0
 11
4430.0
 21
-959.99999999999261
 31
0.0
1001
ACDBBLOCKREPETAG
1070
     1
1071
        1
1005
1285E3
  0
LINE
  5
1285E4
  8
OBJECT
 10
4570.0
 20
-1199.999999999992
 30
0.0
 11
4570.0
 21
-959.99999999999261
 31
0.0
1001
ACDBBLOCKREPETAG
1070
     1
1071
        2
1005
1285E4
  0
LINE
  5
1285E5
  8
OBJECT
 10
4430.0
 20
-959.99999999999261
 30
0.0
 11
4570.0
 21
-959.99999999999261
 31
0.0
1001
ACDBBLOCKREPETAG
1070
     1
1071
        3
1005
1285E5
  0
LINE
  5
1285E6
  8
HIDDEN
 10
4437.5
 20
-959.99999999999261
 30
0.0
 11
4437.5
 21
-1199.999999999992
 31
0.0
1001
ACDBBLOCKREPETAG
1070
     1
1071
        4
1005
1285E6
  0
LINE
  5
1285E7
  8
HIDDEN
 10
4562.5
 20
-959.99999999999261
 30
0.0
 11
4562.5
 21
-1199.999999999992
 31
0.0
1001
ACDBBLOCKREPETAG
1070
     1
1071
        5
1005
1285E7
  0
LINE
  5
1285E8
  8
CENTER
 10
4500.0
 20
-889.99999999999409
 30
0.0
 11
4500.0
 21
-1214.999999999992
 31
0.0
1001
ACDBBLOCKREPETAG
1070
     1
1071
        6
1005
1285E8
  0
LINE
  5
1285E9
  8
OBJECT
 10
4425.0
 20
-889.99999999999409
 30
0.0
 11
4425.0
 21
-919.99999999999238
 31
0.0
1001
ACDBBLOCKREPETAG
1070
     1
1071
        7
1005
1285E9
  0
LINE
  5
1285EA
  8
OBJECT
 10
4575.0000000000009
 20
-889.99999999999409
 30
0.0
 11
4575.0
 21
-919.99999999999238
 31
0.0
1001
ACDBBLOCKREPETAG
1070
     1
1071
        8
1005
1285EA
  0
LINE
  5
1285EB
  8
OBJECT
 10
4425.0
 20
-919.99999999999238
 30
0.0
 11
4575.0
 21
-919.99999999999238
 31
0.0
1001
ACDBBLOCKREPETAG
1070
     1
1071
        9
1005
1285EB
  0
LINE
  5
1285EC
  8
OBJECT
 10
4425.0
 20
-919.99999999999238
 30
0.0
 11
4430.0
 21
-959.99999999999261
 31
0.0
1001
ACDBBLOCKREPETAG
1070
     1
1071
       10
1005
1285EC
  0
LINE
  5
1285ED
  8
OBJECT
 10
4570.0
 20
-959.99999999999261
 30
0.0
 11
4575.0
 21
-919.99999999999238
 31
0.0
1001
ACDBBLOCKREPETAG
1070
     1
1071
       11
1005
1285ED
  0
LINE
  5
1285EE
  8
OBJECT
 10
2930.0
 20
-1199.999999999992
 30
0.0
 11
3070.0
 21
-1199.999999999992
 31
0.0
1001
ACDBBLOCKREPETAG
1070
     1
1071
        0
1005
1285EE
  0
LINE
  5
1285EF
  8
OBJECT
 10
2930.0
 20
-1199.999999999992
 30
0.0
 11
2930.0
 21
-959.99999999999261
 31
0.0
1001
ACDBBLOCKREPETAG
1070
     1
1071
        1
1005
1285EF
  0
LINE
  5
1285F0
  8
OBJECT
 10
3070.0
 20
-1199.999999999992
 30
0.0
 11
3070.0
 21
-959.99999999999261
 31
0.0
1001
ACDBBLOCKREPETAG
1070
     1
1071
        2
1005
1285F0
  0
LINE
  5
1285F1
  8
OBJECT
 10
2930.0
 20
-959.99999999999261
 30
0.0
 11
3070.0
 21
-959.99999999999261
 31
0.0
1001
ACDBBLOCKREPETAG
1070
     1
1071
        3
1005
1285F1
  0
LINE
  5
1285F2
  8
HIDDEN
 10
2937.5
 20
-959.99999999999261
 30
0.0
 11
2937.5
 21
-1199.999999999992
 31
0.0
1001
ACDBBLOCKREPETAG
1070
     1
1071
        4
1005
1285F2
  0
LINE
  5
1285F3
  8
HIDDEN
 10
3062.5
 20
-959.99999999999261
 30
0.0
 11
3062.5
 21
-1199.999999999992
 31
0.0
1001
ACDBBLOCKREPETAG
1070
     1
1071
        5
1005
1285F3
  0
LINE
  5
1285F4
  8
CENTER
 10
3000.0
 20
-889.99999999999409
 30
0.0
 11
3000.0
 21
-1214.999999999992
 31
0.0
1001
ACDBBLOCKREPETAG
1070
     1
1071
        6
1005
1285F4
  0
LINE
  5
1285F5
  8
OBJECT
 10
2925.0
 20
-889.99999999999409
 30
0.0
 11
2925.0
 21
-919.99999999999238
 31
0.0
1001
ACDBBLOCKREPETAG
1070
     1
1071
        7
1005
1285F5
  0
LINE
  5
1285F6
  8
OBJECT
 10
3075.000000000005
 20
-889.99999999999409
 30
0.0
 11
3075.0
 21
-919.99999999999238
 31
0.0
1001
ACDBBLOCKREPETAG
1070
     1
1071
        8
1005
1285F6
  0
LINE
  5
1285F7
  8
OBJECT
 10
2925.0
 20
-919.99999999999238
 30
0.0
 11
3075.0
 21
-919.99999999999238
 31
0.0
1001
ACDBBLOCKREPETAG
1070
     1
1071
        9
1005
1285F7
  0
LINE
  5
1285F8
  8
OBJECT
 10
2925.0
 20
-919.99999999999238
 30
0.0
 11
2930.0
 21
-959.99999999999261
 31
0.0
1001
ACDBBLOCKREPETAG
1070
     1
1071
       10
1005
1285F8
  0
LINE
  5
1285F9
  8
OBJECT
 10
3070.0
 20
-959.99999999999261
 30
0.0
 11
3075.0
 21
-919.99999999999238
 31
0.0
1001
ACDBBLOCKREPETAG
1070
     1
1071
       11
1005
1285F9
  0
LINE
  5
1285FA
  8
OBJECT
 10
2430.0
 20
-1199.999999999992
 30
0.0
 11
2570.0
 21
-1199.999999999992
 31
0.0
1001
ACDBBLOCKREPETAG
1070
     1
1071
        0
1005
1285FA
  0
LINE
  5
1285FB
  8
OBJECT
 10
2430.0
 20
-1199.999999999992
 30
0.0
 11
2430.0
 21
-959.99999999999261
 31
0.0
1001
ACDBBLOCKREPETAG
1070
     1
1071
        1
1005
1285FB
  0
LINE
  5
1285FC
  8
OBJECT
 10
2570.0
 20
-1199.999999999992
 30
0.0
 11
2570.0
 21
-959.99999999999261
 31
0.0
1001
ACDBBLOCKREPETAG
1070
     1
1071
        2
1005
1285FC
  0
LINE
  5
1285FD
  8
OBJECT
 10
2430.0
 20
-959.99999999999261
 30
0.0
 11
2570.0
 21
-959.99999999999261
 31
0.0
1001
ACDBBLOCKREPETAG
1070
     1
1071
        3
1005
1285FD
  0
LINE
  5
1285FE
  8
HIDDEN
 10
2437.5
 20
-959.99999999999261
 30
0.0
 11
2437.5
 21
-1199.999999999992
 31
0.0
1001
ACDBBLOCKREPETAG
1070
     1
1071
        4
1005
1285FE
  0
LINE
  5
1285FF
  8
HIDDEN
 10
2562.5
 20
-959.99999999999261
 30
0.0
 11
2562.5
 21
-1199.999999999992
 31
0.0
1001
ACDBBLOCKREPETAG
1070
     1
1071
        5
1005
1285FF
  0
LINE
  5
128600
  8
CENTER
 10
2500.0
 20
-889.99999999999409
 30
0.0
 11
2500.0
 21
-1214.999999999992
 31
0.0
1001
ACDBBLOCKREPETAG
1070
     1
1071
        6
1005
128600
  0
LINE
  5
128601
  8
OBJECT
 10
2425.0
 20
-889.99999999999409
 30
0.0
 11
2425.0
 21
-919.99999999999238
 31
0.0
1001
ACDBBLOCKREPETAG
1070
     1
1071
        7
1005
128601
  0
LINE
  5
128602
  8
OBJECT
 10
2575.000000000005
 20
-889.99999999999409
 30
0.0
 11
2575.0
 21
-919.99999999999238
 31
0.0
1001
ACDBBLOCKREPETAG
1070
     1
1071
        8
1005
128602
  0
LINE
  5
128603
  8
OBJECT
 10
2425.0
 20
-919.99999999999238
 30
0.0
 11
2575.0
 21
-919.99999999999238
 31
0.0
1001
ACDBBLOCKREPETAG
1070
     1
1071
        9
1005
128603
  0
LINE
  5
128604
  8
OBJECT
 10
2425.0
 20
-919.99999999999238
 30
0.0
 11
2430.0
 21
-959.99999999999261
 31
0.0
1001
ACDBBLOCKREPETAG
1070
     1
1071
       10
1005
128604
  0
LINE
  5
128605
  8
OBJECT
 10
2570.0
 20
-959.99999999999261
 30
0.0
 11
2575.0
 21
-919.99999999999238
 31
0.0
1001
ACDBBLOCKREPETAG
1070
     1
1071
       11
1005
128605
  0
TEXT
  5
128606
  8
SLIM
 10
2256.3000000000002
 20
-1543.999999999998
 30
0.0
 40
28.0
  1
※ 対応P寸法　90～180（10mm単位）
 41
0.75
  0
LINE
  5
128607
  8
DIM
 10
4404.9999999999936
 20
-845.9999999999942
 30
0.0
 11
4333.1164560757752
 21
-845.99999999999375
 31
0.0
  0
LINE
  5
128608
  8
DIM
 10
4410.0
 20
-1085.9999999999941
 30
0.0
 11
4333.1164560757752
 21
-1085.9999999999941
 31
0.0
  0
LINE
  5
128609
  8
DIM
 10
4343.1164560757752
 20
-865.99999999999409
 30
0.0
 11
4343.1164560757752
 21
-1065.9999999999941
 31
0.0
  0
INSERT
  5
12860A
  8
DIM
  2
_OPEN30
 10
4343.1164560757752
 20
-845.99999999999375
 30
0.0
 41
20.0
 42
20.0
 43
20.0
 50
90.0
  0
INSERT
  5
12860B
  8
DIM
  2
_OPEN30
 10
4343.1164560757752
 20
-1085.9999999999941
 30
0.0
 41
20.0
 42
20.0
 43
20.0
 50
270.0
  0
INSERT
  5
12860C
  8
OBJECT
  2
*U6
 10
0.0
 20
0.0
 30
0.0
  0
LINE
  5
12860D
  8
DIM
 10
4665.0
 20
-696.0
 30
0.0
 11
4719.4245816727544
 21
-696.0
 31
0.0
  0
LINE
  5
12860E
  8
DIM
 10
4527.9164728671331
 20
-846.00000000000659
 30
0.0
 11
4719.4245816727544
 21
-846.00000000000659
 31
0.0
  0
LINE
  5
12860F
  8
DIM
 10
4709.4245816727544
 20
-716.0
 30
0.0
 11
4709.4245816727544
 21
-826.00000000000625
 31
0.0
  0
INSERT
  5
128610
  8
DIM
  2
_OPEN30
 10
4709.4245816727544
 20
-696.0
 30
0.0
 41
20.0
 42
20.0
 43
20.0
 50
90.0
  0
INSERT
  5
128611
  8
DIM
  2
_OPEN30
 10
4709.4245816727544
 20
-846.00000000000659
 30
0.0
 41
20.0
 42
20.0
 43
20.0
 50
270.0
  0
INSERT
  5
128612
  8
OBJECT
  2
*U7
 10
0.0
 20
0.0
 30
0.0
  0
LINE
  5
128613
  8
DIM
 10
2665.0
 20
-696.0
 30
0.0
 11
2719.4245816727562
 21
-696.0
 31
0.0
  0
LINE
  5
128614
  8
DIM
 10
2527.916472867169
 20
-845.99999999999443
 30
0.0
 11
2719.4245816727562
 21
-845.99999999999443
 31
0.0
  0
LINE
  5
128615
  8
DIM
 10
2709.4245816727562
 20
-716.0
 30
0.0
 11
2709.4245816727562
 21
-825.9999999999942
 31
0.0
  0
INSERT
  5
128616
  8
DIM
  2
_OPEN30
 10
2709.4245816727562
 20
-696.0
 30
0.0
 41
20.0
 42
20.0
 43
20.0
 50
90.0
  0
INSERT
  5
128617
  8
DIM
  2
_OPEN30
 10
2709.4245816727562
 20
-845.99999999999443
 30
0.0
 41
20.0
 42
20.0
 43
20.0
 50
270.0
  0
INSERT
  5
128618
  8
OBJECT
  2
*U8
 10
0.0
 20
0.0
 30
0.0
  0
LINE
  5
128619
  8
CENTER
 10
4977.0000000000009
 20
-3640.9999999999959
 30
0.0
 11
4823.0000000000009
 21
-3640.9999999999959
 31
0.0
1001
ACDBBLOCKREPETAG
1070
     1
1071
       17
1005
128619
  0
CIRCLE
  5
12861A
  8
OBJECT
 10
4900.0000000000009
 20
-3640.9999999999959
 30
0.0
 40
41.5
1001
ACDBBLOCKREPETAG
1070
     1
1071
       18
1005
12861A
  0
CIRCLE
  5
12861B
  8
OBJECT
 10
4900.0000000000009
 20
-3640.9999999999959
 30
0.0
 40
54.0
1001
ACDBBLOCKREPETAG
1070
     1
1071
       19
1005
12861B
  0
ARC
  5
12861C
  8
OBJECT
 10
4900.0000000000009
 20
-3640.9999999999959
 30
0.0
 40
62.0
 50
287.89655112921122
 51
252.1034488707887
1001
ACDBBLOCKREPETAG
1070
     1
1071
       20
1005
12861C
  0
LINE
  5
12861D
  8
OBJECT
 10
4880.9474411167439
 20
-3699.9999999999968
 30
0.0
 11
4919.0525588832579
 21
-3699.9999999999968
 31
0.0
1001
ACDBBLOCKREPETAG
1070
     1
1071
       21
1005
12861D
  0
POINT
  5
12861E
  8
DOTS
 10
4900.0000000000009
 20
-3699.9999999999968
 30
0.0
1001
ACDBBLOCKREPETAG
1070
     1
1071
       24
1005
12861E
  0
LINE
  5
12861F
  8
OBJECT
 10
4633.0000000000009
 20
-3578.9999999999968
 30
0.0
 11
4640.0000000000009
 21
-3578.9999999999968
 31
0.0
1001
ACDBBLOCKREPETAG
1070
     1
1071
       46
1005
12861F
  0
LINE
  5
128620
  8
OBJECT
 10
4640.0000000000009
 20
-3578.9999999999968
 30
0.0
 11
4640.0000000000009
 21
-3699.9999999999968
 31
0.0
1001
ACDBBLOCKREPETAG
1070
     1
1071
       47
1005
128620
  0
LINE
  5
128621
  8
OBJECT
 10
4633.0000000000009
 20
-3699.9999999999968
 30
0.0
 11
4633.0000000000009
 21
-3578.9999999999968
 31
0.0
1001
ACDBBLOCKREPETAG
1070
     1
1071
       48
1005
128621
  0
LINE
  5
128622
  8
CENTER
 10
4655.0000000000009
 20
-3640.9999999999959
 30
0.0
 11
4541.3449199130037
 21
-3641.0000000000618
 31
0.0
1001
ACDBBLOCKREPETAG
1070
     1
1071
       49
1005
128622
  0
LINE
  5
128623
  8
OBJECT
 10
4633.0000000000009
 20
-3581.9999999999968
 30
0.0
 11
4597.0000000000009
 21
-3581.9999999999968
 31
0.0
1001
ACDBBLOCKREPETAG
1070
     1
1071
       50
1005
128623
  0
LINE
  5
128624
  8
OBJECT
 10
4597.0000000000009
 20
-3581.9999999999968
 30
0.0
 11
4597.0000000000009
 21
-3699.9999999999968
 31
0.0
1001
ACDBBLOCKREPETAG
1070
     1
1071
       51
1005
128624
  0
LINE
  5
128625
  8
OBJECT
 10
4597.0000000000009
 20
-3699.9999999999968
 30
0.0
 11
4640.0000000000009
 21
-3699.9999999999968
 31
0.0
1001
ACDBBLOCKREPETAG
1070
     1
1071
       52
1005
128625
  0
LINE
  5
128626
  8
OBJECT
 10
4593.0
 20
-3586.4999999999968
 30
0.0
 11
4582.5000000000009
 21
-3586.4999999999968
 31
0.0
1001
ACDBBLOCKREPETAG
1070
     1
1071
       53
1005
128626
  0
LINE
  5
128627
  8
OBJECT
 10
4582.5000000000009
 20
-3695.4999999999959
 30
0.0
 11
4593.0
 21
-3695.4999999999959
 31
0.0
1001
ACDBBLOCKREPETAG
1070
     1
1071
       54
1005
128627
  0
LINE
  5
128628
  8
OBJECT
 10
4593.0
 20
-3695.4999999999959
 30
0.0
 11
4593.0
 21
-3586.4999999999968
 31
0.0
1001
ACDBBLOCKREPETAG
1070
     1
1071
       55
1005
128628
  0
LINE
  5
128629
  8
OBJECT
 10
4597.0000000000009
 20
-3581.9999999999968
 30
0.0
 11
4593.0
 21
-3586.4999999999968
 31
0.0
1001
ACDBBLOCKREPETAG
1070
     1
1071
       56
1005
128629
  0
LINE
  5
12862A
  8
OBJECT
 10
4597.0000000000009
 20
-3699.9999999999968
 30
0.0
 11
4593.0
 21
-3695.4999999999959
 31
0.0
1001
ACDBBLOCKREPETAG
1070
     1
1071
       57
1005
12862A
  0
LINE
  5
12862B
  8
HIDDEN
 10
4588.0
 20
-3596.4999999999968
 30
0.0
 11
4588.0
 21
-3685.4999999999959
 31
0.0
1001
ACDBBLOCKREPETAG
1070
     1
1071
       58
1005
12862B
  0
ARC
  5
12862C
  8
OBJECT
 10
4664.8782728787728
 20
-3656.4095072612249
 30
0.0
 40
110.86635228309
 50
144.16342741928889
 51
163.04035380433939
1001
ACDBBLOCKREPETAG
1070
     1
1071
       59
1005
12862C
  0
ARC
  5
12862D
  8
OBJECT
 10
4617.1359887769049
 20
-3641.2877497184459
 30
0.0
 40
60.791749880358971
 50
163.54720465221931
 51
179.72879698282651
1001
ACDBBLOCKREPETAG
1070
     1
1071
       60
1005
12862D
  0
ARC
  5
12862E
  8
OBJECT
 10
4617.1359956562492
 20
-3647.712249759898
 30
0.0
 40
60.79175676209487
 50
180.2712034781452
 51
196.4527794605265
1001
ACDBBLOCKREPETAG
1070
     1
1071
       61
1005
12862E
  0
ARC
  5
12862F
  8
OBJECT
 10
4664.8782728787728
 20
-3632.5904927388328
 30
0.0
 40
110.8663522830916
 50
196.9596461956605
 51
215.83657258071111
1001
ACDBBLOCKREPETAG
1070
     1
1071
       62
1005
12862F
  0
LINE
  5
128630
  8
OBJECT
 10
4556.3449199130037
 20
-3641.0000000000332
 30
0.0
 11
4556.3449199130037
 21
-3648.00000000003
 31
0.0
1001
ACDBBLOCKREPETAG
1070
     1
1071
       63
1005
128630
  0
LINE
  5
128631
  8
OBJECT
 10
4574.9999999998372
 20
-3591.500000000291
 30
0.0
 11
4577.4999999998372
 21
-3591.500000000291
 31
0.0
1001
ACDBBLOCKREPETAG
1070
     1
1071
       65
1005
128631
  0
LINE
  5
128632
  8
OBJECT
 10
4574.9999999998336
 20
-3697.4999999997672
 30
0.0
 11
4579.4999999998336
 21
-3697.4999999997672
 31
0.0
1001
ACDBBLOCKREPETAG
1070
     1
1071
       66
1005
128632
  0
LINE
  5
128633
  8
OBJECT
 10
4579.4999999998336
 20
-3697.4999999997672
 30
0.0
 11
4577.4999999998372
 21
-3591.500000000291
 31
0.0
1001
ACDBBLOCKREPETAG
1070
     1
1071
       67
1005
128633
  0
LINE
  5
128634
  8
OBJECT
 10
4579.4999999998336
 20
-3697.4999999997672
 30
0.0
 11
4582.5000000000009
 21
-3695.4999999999959
 31
0.0
1001
ACDBBLOCKREPETAG
1070
     1
1071
       68
1005
128634
  0
LINE
  5
128635
  8
OBJECT
 10
4582.5000000000009
 20
-3695.4999999999959
 30
0.0
 11
4582.5000000000009
 21
-3586.4999999999968
 31
0.0
1001
ACDBBLOCKREPETAG
1070
     1
1071
       69
1005
128635
  0
LINE
  5
128636
  8
OBJECT
 10
4582.5000000000009
 20
-3586.4999999999968
 30
0.0
 11
4577.4999999998372
 21
-3591.500000000291
 31
0.0
1001
ACDBBLOCKREPETAG
1070
     1
1071
       70
1005
128636
  0
LINE
  5
128637
  8
OBJECT
 10
4633.0000000000009
 20
-3232.9999999999959
 30
0.0
 11
4640.0000000000018
 21
-3232.9999999999959
 31
0.0
1001
ACDBBLOCKREPETAG
1070
     1
1071
       38
1005
128637
  0
LINE
  5
128638
  8
OBJECT
 10
4640.0000000000018
 20
-3232.9999999999959
 30
0.0
 11
4640.0000000000009
 21
-3356.9999999999968
 31
0.0
1001
ACDBBLOCKREPETAG
1070
     1
1071
       39
1005
128638
  0
LINE
  5
128639
  8
OBJECT
 10
4640.0000000000009
 20
-3356.9999999999968
 30
0.0
 11
4633.0000000000009
 21
-3356.9999999999968
 31
0.0
1001
ACDBBLOCKREPETAG
1070
     1
1071
       40
1005
128639
  0
LINE
  5
12863A
  8
OBJECT
 10
4633.0000000000009
 20
-3356.9999999999968
 30
0.0
 11
4633.0000000000009
 21
-3232.9999999999959
 31
0.0
1001
ACDBBLOCKREPETAG
1070
     1
1071
       41
1005
12863A
  0
LINE
  5
12863B
  8
CENTER
 10
4655.0000000000009
 20
-3294.9999999999968
 30
0.0
 11
4580.0
 21
-3294.9999999999968
 31
0.0
1001
ACDBBLOCKREPETAG
1070
     1
1071
       42
1005
12863B
  0
LINE
  5
12863C
  8
OBJECT
 10
4633.0000000000009
 20
-3235.9999999999968
 30
0.0
 11
4597.0000000000018
 21
-3235.9999999999968
 31
0.0
1001
ACDBBLOCKREPETAG
1070
     1
1071
       43
1005
12863C
  0
LINE
  5
12863D
  8
OBJECT
 10
4597.0000000000018
 20
-3235.9999999999968
 30
0.0
 11
4597.0000000000009
 21
-3353.9999999999959
 31
0.0
1001
ACDBBLOCKREPETAG
1070
     1
1071
       44
1005
12863D
  0
LINE
  5
12863E
  8
OBJECT
 10
4597.0000000000009
 20
-3353.9999999999959
 30
0.0
 11
4633.0000000000009
 21
-3353.9999999999959
 31
0.0
1001
ACDBBLOCKREPETAG
1070
     1
1071
       45
1005
12863E
  0
LINE
  5
12863F
  8
OBJECT
 10
4593.0000000000018
 20
-3240.4999999999968
 30
0.0
 11
4582.5000000000018
 21
-3240.4999999999968
 31
0.0
1001
ACDBBLOCKREPETAG
1070
     1
1071
       46
1005
12863F
  0
LINE
  5
128640
  8
OBJECT
 10
4582.5000000000009
 20
-3349.4999999999959
 30
0.0
 11
4593.0
 21
-3349.4999999999959
 31
0.0
1001
ACDBBLOCKREPETAG
1070
     1
1071
       47
1005
128640
  0
LINE
  5
128641
  8
OBJECT
 10
4593.0
 20
-3349.4999999999959
 30
0.0
 11
4593.0000000000018
 21
-3240.4999999999968
 31
0.0
1001
ACDBBLOCKREPETAG
1070
     1
1071
       48
1005
128641
  0
LINE
  5
128642
  8
OBJECT
 10
4597.0000000000018
 20
-3235.9999999999968
 30
0.0
 11
4593.0000000000018
 21
-3240.4999999999968
 31
0.0
1001
ACDBBLOCKREPETAG
1070
     1
1071
       49
1005
128642
  0
LINE
  5
128643
  8
OBJECT
 10
4597.0000000000009
 20
-3353.9999999999959
 30
0.0
 11
4593.0
 21
-3349.4999999999959
 31
0.0
1001
ACDBBLOCKREPETAG
1070
     1
1071
       50
1005
128643
  0
LINE
  5
128644
  8
HIDDEN
 10
4588.0000000000009
 20
-3250.4999999999968
 30
0.0
 11
4588.0
 21
-3339.4999999999968
 31
0.0
1001
ACDBBLOCKREPETAG
1070
     1
1071
       51
1005
128644
  0
LINE
  5
128645
  8
OBJECT
 10
4577.5000000000018
 20
-3245.4999999999959
 30
0.0
 11
4556.3449199129791
 21
-3245.4999999999959
 31
0.0
1001
ACDBBLOCKREPETAG
1070
     1
1071
       52
1005
128645
  0
LINE
  5
128646
  8
OBJECT
 10
4577.5000000000009
 20
-3344.4999999999959
 30
0.0
 11
4556.3449199129791
 21
-3344.4999999999959
 31
0.0
1001
ACDBBLOCKREPETAG
1070
     1
1071
       53
1005
128646
  0
LINE
  5
128647
  8
OBJECT
 10
4582.5000000000018
 20
-3240.4999999999968
 30
0.0
 11
4582.5000000000009
 21
-3349.4999999999959
 31
0.0
1001
ACDBBLOCKREPETAG
1070
     1
1071
       54
1005
128647
  0
LINE
  5
128648
  8
OBJECT
 10
4577.5000000000018
 20
-3245.4999999999959
 30
0.0
 11
4577.5000000000009
 21
-3344.4999999999959
 31
0.0
1001
ACDBBLOCKREPETAG
1070
     1
1071
       55
1005
128648
  0
LINE
  5
128649
  8
OBJECT
 10
4582.5000000000018
 20
-3240.4999999999968
 30
0.0
 11
4577.5000000000018
 21
-3245.4999999999959
 31
0.0
1001
ACDBBLOCKREPETAG
1070
     1
1071
       56
1005
128649
  0
LINE
  5
12864A
  8
OBJECT
 10
4577.5000000000009
 20
-3344.4999999999959
 30
0.0
 11
4582.5000000000009
 21
-3349.4999999999941
 31
0.0
1001
ACDBBLOCKREPETAG
1070
     1
1071
       57
1005
12864A
  0
CIRCLE
  5
12864B
  8
OBJECT
 10
3900.0000000000018
 20
-3647.9999999999959
 30
0.0
 40
35.5
1001
ACDBBLOCKREPETAG
1070
     1
1071
       11
1005
12864B
  0
LINE
  5
12864C
  8
CENTER
 10
3830.0
 20
-3647.9999999999959
 30
0.0
 11
3970.0
 21
-3647.9999999999959
 31
0.0
1001
ACDBBLOCKREPETAG
1070
     1
1071
       12
1005
12864C
  0
CIRCLE
  5
12864D
  8
OBJECT
 10
3900.0000000000018
 20
-3647.9999999999959
 30
0.0
 40
47.0
1001
ACDBBLOCKREPETAG
1070
     1
1071
       14
1005
12864D
  0
ARC
  5
12864E
  8
OBJECT
 10
3900.0000000000018
 20
-3647.9999999999959
 30
0.0
 40
55.0
 50
289.01126526008892
 51
250.98873473991111
1001
ACDBBLOCKREPETAG
1070
     1
1071
       15
1005
12864E
  0
LINE
  5
12864F
  8
OBJECT
 10
3882.0835271328328
 20
-3699.9999999999968
 30
0.0
 11
3917.9164728671681
 21
-3699.9999999999968
 31
0.0
1001
ACDBBLOCKREPETAG
1070
     1
1071
       16
1005
12864F
  0
POINT
  5
128650
  8
DOTS
 10
3900.0000000000018
 20
-3699.9999999999968
 30
0.0
1001
ACDBBLOCKREPETAG
1070
     1
1071
       23
1005
128650
  0
LINE
  5
128651
  8
OBJECT
 10
3633.0000000000009
 20
-3592.9999999999959
 30
0.0
 11
3640.0000000000009
 21
-3592.9999999999959
 31
0.0
1001
ACDBBLOCKREPETAG
1070
     1
1071
       23
1005
128651
  0
LINE
  5
128652
  8
OBJECT
 10
3640.0000000000009
 20
-3592.9999999999959
 30
0.0
 11
3640.0000000000009
 21
-3699.9999999999968
 31
0.0
1001
ACDBBLOCKREPETAG
1070
     1
1071
       24
1005
128652
  0
LINE
  5
128653
  8
OBJECT
 10
3584.5000000000018
 20
-3594.5000000000618
 30
0.0
 11
3584.5000000000018
 21
-3697.4999999999968
 31
0.0
1001
ACDBBLOCKREPETAG
1070
     1
1071
       25
1005
128653
  0
ARC
  5
128654
  8
OBJECT
 10
3581.5000000000009
 20
-3594.5000000000618
 30
0.0
 40
3.0
 50
0.0
 51
90.0
1001
ACDBBLOCKREPETAG
1070
     1
1071
       26
1005
128654
  0
LINE
  5
128655
  8
OBJECT
 10
3633.0000000000009
 20
-3699.9999999999968
 30
0.0
 11
3633.0000000000009
 21
-3592.9999999999959
 31
0.0
1001
ACDBBLOCKREPETAG
1070
     1
1071
       27
1005
128655
  0
LINE
  5
128656
  8
CENTER
 10
3655.0000000000009
 20
-3647.9999999999959
 30
0.0
 11
3541.344919913005
 21
-3648.0000000000618
 31
0.0
1001
ACDBBLOCKREPETAG
1070
     1
1071
       28
1005
128656
  0
LINE
  5
128657
  8
OBJECT
 10
3633.0000000000009
 20
-3595.9999999999959
 30
0.0
 11
3597.0000000000009
 21
-3595.9999999999959
 31
0.0
1001
ACDBBLOCKREPETAG
1070
     1
1071
       29
1005
128657
  0
LINE
  5
128658
  8
OBJECT
 10
3597.0000000000009
 20
-3595.9999999999959
 30
0.0
 11
3597.0000000000009
 21
-3699.9999999999968
 31
0.0
1001
ACDBBLOCKREPETAG
1070
     1
1071
       30
1005
128658
  0
LINE
  5
128659
  8
OBJECT
 10
3597.0000000000009
 20
-3699.9999999999968
 30
0.0
 11
3640.0000000000009
 21
-3699.9999999999968
 31
0.0
1001
ACDBBLOCKREPETAG
1070
     1
1071
       31
1005
128659
  0
LINE
  5
12865A
  8
OBJECT
 10
3593.0000000000018
 20
-3600.4999999999968
 30
0.0
 11
3584.5000000000018
 21
-3600.4999999999968
 31
0.0
1001
ACDBBLOCKREPETAG
1070
     1
1071
       32
1005
12865A
  0
LINE
  5
12865B
  8
OBJECT
 10
3584.5000000000018
 20
-3695.4999999999959
 30
0.0
 11
3593.0000000000018
 21
-3695.4999999999959
 31
0.0
1001
ACDBBLOCKREPETAG
1070
     1
1071
       33
1005
12865B
  0
LINE
  5
12865C
  8
OBJECT
 10
3593.0000000000018
 20
-3695.4999999999959
 30
0.0
 11
3593.0000000000018
 21
-3600.4999999999968
 31
0.0
1001
ACDBBLOCKREPETAG
1070
     1
1071
       34
1005
12865C
  0
LINE
  5
12865D
  8
OBJECT
 10
3597.0000000000009
 20
-3595.9999999999959
 30
0.0
 11
3593.0000000000018
 21
-3600.4999999999968
 31
0.0
1001
ACDBBLOCKREPETAG
1070
     1
1071
       35
1005
12865D
  0
LINE
  5
12865E
  8
OBJECT
 10
3597.0000000000009
 20
-3699.9999999999968
 30
0.0
 11
3593.0000000000018
 21
-3695.4999999999959
 31
0.0
1001
ACDBBLOCKREPETAG
1070
     1
1071
       36
1005
12865E
  0
LINE
  5
12865F
  8
HIDDEN
 10
3588.0
 20
-3609.9999999999968
 30
0.0
 11
3588.0
 21
-3685.9999999999959
 31
0.0
1001
ACDBBLOCKREPETAG
1070
     1
1071
       37
1005
12865F
  0
ARC
  5
128660
  8
OBJECT
 10
3664.8782728787742
 20
-3656.4095072612249
 30
0.0
 40
110.86635228309
 50
144.16342741928889
 51
163.04035380433169
1001
ACDBBLOCKREPETAG
1070
     1
1071
       38
1005
128660
  0
ARC
  5
128661
  8
OBJECT
 10
3617.1359887769072
 20
-3641.2877497184459
 30
0.0
 40
60.791749880358971
 50
163.5472046522267
 51
179.72879698282679
1001
ACDBBLOCKREPETAG
1070
     1
1071
       39
1005
128661
  0
ARC
  5
128662
  8
OBJECT
 10
3617.1359956562492
 20
-3647.712249759898
 30
0.0
 40
60.79175676209487
 50
180.2712034781452
 51
196.4527794605338
1001
ACDBBLOCKREPETAG
1070
     1
1071
       40
1005
128662
  0
ARC
  5
128663
  8
OBJECT
 10
3664.8782728787742
 20
-3632.5904927388328
 30
0.0
 40
110.8663522830916
 50
196.95964619566811
 51
215.83657258071111
1001
ACDBBLOCKREPETAG
1070
     1
1071
       41
1005
128663
  0
LINE
  5
128664
  8
OBJECT
 10
3556.344919913005
 20
-3641.0000000000332
 30
0.0
 11
3556.344919913005
 21
-3648.00000000003
 31
0.0
1001
ACDBBLOCKREPETAG
1070
     1
1071
       42
1005
128664
  0
LINE
  5
128665
  8
OBJECT
 10
3575.0000000000009
 20
-3591.5000000000618
 30
0.0
 11
3581.5000000000009
 21
-3591.5000000000618
 31
0.0
1001
ACDBBLOCKREPETAG
1070
     1
1071
       43
1005
128665
  0
LINE
  5
128666
  8
OBJECT
 10
3575.0000000000009
 20
-3697.4999999999968
 30
0.0
 11
3584.5000000000018
 21
-3697.4999999999968
 31
0.0
1001
ACDBBLOCKREPETAG
1070
     1
1071
       44
1005
128666
  0
LINE
  5
128667
  8
OBJECT
 10
3633.0000000000009
 20
-3239.9999999999968
 30
0.0
 11
3640.0000000000009
 21
-3239.9999999999968
 31
0.0
1001
ACDBBLOCKREPETAG
1070
     1
1071
       20
1005
128667
  0
LINE
  5
128668
  8
OBJECT
 10
3640.0000000000009
 20
-3239.9999999999968
 30
0.0
 11
3640.0000000000009
 21
-3349.9999999999959
 31
0.0
1001
ACDBBLOCKREPETAG
1070
     1
1071
       21
1005
128668
  0
LINE
  5
128669
  8
OBJECT
 10
3640.0000000000009
 20
-3349.9999999999959
 30
0.0
 11
3633.0000000000009
 21
-3349.9999999999959
 31
0.0
1001
ACDBBLOCKREPETAG
1070
     1
1071
       22
1005
128669
  0
LINE
  5
12866A
  8
OBJECT
 10
3633.0000000000009
 20
-3349.9999999999959
 30
0.0
 11
3633.0000000000009
 21
-3239.9999999999968
 31
0.0
1001
ACDBBLOCKREPETAG
1070
     1
1071
       23
1005
12866A
  0
LINE
  5
12866B
  8
CENTER
 10
3655.0000000000009
 20
-3294.9999999999968
 30
0.0
 11
3580.0
 21
-3294.9999999999968
 31
0.0
1001
ACDBBLOCKREPETAG
1070
     1
1071
       24
1005
12866B
  0
LINE
  5
12866C
  8
OBJECT
 10
3633.0000000000009
 20
-3242.9999999999968
 30
0.0
 11
3597.0000000000009
 21
-3242.9999999999968
 31
0.0
1001
ACDBBLOCKREPETAG
1070
     1
1071
       25
1005
12866C
  0
LINE
  5
12866D
  8
OBJECT
 10
3597.0000000000009
 20
-3242.9999999999968
 30
0.0
 11
3597.0000000000009
 21
-3346.9999999999959
 31
0.0
1001
ACDBBLOCKREPETAG
1070
     1
1071
       26
1005
12866D
  0
LINE
  5
12866E
  8
OBJECT
 10
3597.0000000000009
 20
-3346.9999999999959
 30
0.0
 11
3633.0000000000009
 21
-3346.9999999999959
 31
0.0
1001
ACDBBLOCKREPETAG
1070
     1
1071
       27
1005
12866E
  0
LINE
  5
12866F
  8
OBJECT
 10
3593.0000000000018
 20
-3247.4999999999968
 30
0.0
 11
3584.5000000000018
 21
-3247.4999999999968
 31
0.0
1001
ACDBBLOCKREPETAG
1070
     1
1071
       28
1005
12866F
  0
LINE
  5
128670
  8
OBJECT
 10
3584.5000000000018
 20
-3342.4999999999959
 30
0.0
 11
3593.0000000000018
 21
-3342.4999999999959
 31
0.0
1001
ACDBBLOCKREPETAG
1070
     1
1071
       29
1005
128670
  0
LINE
  5
128671
  8
OBJECT
 10
3593.0000000000018
 20
-3342.4999999999959
 30
0.0
 11
3593.0000000000018
 21
-3247.4999999999968
 31
0.0
1001
ACDBBLOCKREPETAG
1070
     1
1071
       30
1005
128671
  0
LINE
  5
128672
  8
OBJECT
 10
3597.0000000000009
 20
-3242.9999999999968
 30
0.0
 11
3593.0000000000018
 21
-3247.4999999999968
 31
0.0
1001
ACDBBLOCKREPETAG
1070
     1
1071
       31
1005
128672
  0
LINE
  5
128673
  8
OBJECT
 10
3597.0000000000009
 20
-3346.9999999999959
 30
0.0
 11
3593.0000000000018
 21
-3342.4999999999959
 31
0.0
1001
ACDBBLOCKREPETAG
1070
     1
1071
       32
1005
128673
  0
LINE
  5
128674
  8
OBJECT
 10
3584.4999999999982
 20
-3344.4999999999959
 30
0.0
 11
3584.5000000000018
 21
-3245.4999999999959
 31
0.0
1001
ACDBBLOCKREPETAG
1070
     1
1071
       33
1005
128674
  0
LINE
  5
128675
  8
HIDDEN
 10
3588.0
 20
-3256.9999999999968
 30
0.0
 11
3588.0
 21
-3332.9999999999968
 31
0.0
1001
ACDBBLOCKREPETAG
1070
     1
1071
       34
1005
128675
  0
LINE
  5
128676
  8
OBJECT
 10
3584.5000000000018
 20
-3245.4999999999959
 30
0.0
 11
3556.34491991298
 21
-3245.4999999999959
 31
0.0
1001
ACDBBLOCKREPETAG
1070
     1
1071
       35
1005
128676
  0
LINE
  5
128677
  8
OBJECT
 10
3584.4999999999982
 20
-3344.4999999999959
 30
0.0
 11
3556.34491991298
 21
-3344.4999999999959
 31
0.0
1001
ACDBBLOCKREPETAG
1070
     1
1071
       36
1005
128677
  0
LINE
  5
128678
  8
CENTER
 10
2838.0000000000009
 20
-3655.9999999999968
 30
0.0
 11
2962.0000000000009
 21
-3655.9999999999968
 31
0.0
1001
ACDBBLOCKREPETAG
1070
     1
1071
        0
1005
128678
  0
CIRCLE
  5
128679
  8
OBJECT
 10
2900.0
 20
-3655.9999999999968
 30
0.0
 40
28.0
1001
ACDBBLOCKREPETAG
1070
     1
1071
        2
1005
128679
  0
CIRCLE
  5
12867A
  8
OBJECT
 10
2900.0
 20
-3655.9999999999968
 30
0.0
 40
39.0
1001
ACDBBLOCKREPETAG
1070
     1
1071
        3
1005
12867A
  0
ARC
  5
12867B
  8
OBJECT
 10
2900.0
 20
-3655.9999999999968
 30
0.0
 40
47.0
 50
290.58196921144412
 51
249.41803078855591
1001
ACDBBLOCKREPETAG
1070
     1
1071
        4
1005
12867B
  0
LINE
  5
12867C
  8
OBJECT
 10
2883.4772883581441
 20
-3699.9999999999968
 30
0.0
 11
2916.5227116418591
 21
-3699.9999999999968
 31
0.0
1001
ACDBBLOCKREPETAG
1070
     1
1071
        5
1005
12867C
  0
ARC
  5
12867D
  8
OBJECT
 10
2900.0
 20
-3640.9999999999932
 30
0.0
 40
49.5
 50
0.0
 51
180.0
1001
ACDBBLOCKREPETAG
1070
     1
1071
        6
1005
12867D
  0
LINE
  5
12867E
  8
OBJECT
 10
2850.5000000000041
 20
-3640.9999999999932
 30
0.0
 11
2850.5000000000041
 21
-3647.9999999999959
 31
0.0
1001
ACDBBLOCKREPETAG
1070
     1
1071
        7
1005
12867E
  0
LINE
  5
12867F
  8
OBJECT
 10
2949.5000000000082
 20
-3640.9999999999932
 30
0.0
 11
2949.5000000000082
 21
-3647.9999999999959
 31
0.0
1001
ACDBBLOCKREPETAG
1070
     1
1071
        8
1005
12867F
  0
ARC
  5
128680
  8
OBJECT
 10
2900.0
 20
-3647.9999999999959
 30
0.0
 40
49.5
 50
180.0
 51
202.66956385104879
1001
ACDBBLOCKREPETAG
1070
     1
1071
        9
1005
128680
  0
ARC
  5
128681
  8
OBJECT
 10
2900.0
 20
-3647.9999999999959
 30
0.0
 40
49.5
 50
337.33043614895121
 51
0.0
1001
ACDBBLOCKREPETAG
1070
     1
1071
       10
1005
128681
  0
POINT
  5
128682
  8
DOTS
 10
2900.0
 20
-3699.9999999999968
 30
0.0
1001
ACDBBLOCKREPETAG
1070
     1
1071
       25
1005
128682
  0
LINE
  5
128683
  8
OBJECT
 10
2633.0000000000009
 20
-3608.9999999999968
 30
0.0
 11
2640.0000000000009
 21
-3608.9999999999968
 31
0.0
1001
ACDBBLOCKREPETAG
1070
     1
1071
        0
1005
128683
  0
LINE
  5
128684
  8
OBJECT
 10
2640.0000000000009
 20
-3608.9999999999968
 30
0.0
 11
2640.0000000000009
 21
-3699.9999999999968
 31
0.0
1001
ACDBBLOCKREPETAG
1070
     1
1071
        1
1005
128684
  0
LINE
  5
128685
  8
OBJECT
 10
2584.5000000000009
 20
-3594.5000000000618
 30
0.0
 11
2584.5000000000009
 21
-3697.4999999999968
 31
0.0
1001
ACDBBLOCKREPETAG
1070
     1
1071
        2
1005
128685
  0
ARC
  5
128686
  8
OBJECT
 10
2581.5000000000009
 20
-3594.5000000000618
 30
0.0
 40
3.0
 50
0.0
 51
90.0
1001
ACDBBLOCKREPETAG
1070
     1
1071
        3
1005
128686
  0
LINE
  5
128687
  8
OBJECT
 10
2633.0000000000009
 20
-3699.9999999999968
 30
0.0
 11
2633.0000000000009
 21
-3608.9999999999968
 31
0.0
1001
ACDBBLOCKREPETAG
1070
     1
1071
        4
1005
128687
  0
LINE
  5
128688
  8
CENTER
 10
2655.0000000000009
 20
-3655.9999999999968
 30
0.0
 11
2541.9118237135849
 21
-3655.9999999999968
 31
0.0
1001
ACDBBLOCKREPETAG
1070
     1
1071
        5
1005
128688
  0
LINE
  5
128689
  8
OBJECT
 10
2633.0000000000009
 20
-3611.9999999999959
 30
0.0
 11
2597.0000000000009
 21
-3611.9999999999959
 31
0.0
1001
ACDBBLOCKREPETAG
1070
     1
1071
        6
1005
128689
  0
LINE
  5
12868A
  8
OBJECT
 10
2597.0000000000009
 20
-3611.9999999999959
 30
0.0
 11
2597.0000000000009
 21
-3699.9999999999968
 31
0.0
1001
ACDBBLOCKREPETAG
1070
     1
1071
        7
1005
12868A
  0
LINE
  5
12868B
  8
OBJECT
 10
2597.0000000000009
 20
-3699.9999999999968
 30
0.0
 11
2640.0000000000009
 21
-3699.9999999999968
 31
0.0
1001
ACDBBLOCKREPETAG
1070
     1
1071
        8
1005
12868B
  0
LINE
  5
12868C
  8
OBJECT
 10
2593.0000000000009
 20
-3616.4999999999968
 30
0.0
 11
2584.5000000000009
 21
-3616.4999999999968
 31
0.0
1001
ACDBBLOCKREPETAG
1070
     1
1071
        9
1005
12868C
  0
LINE
  5
12868D
  8
OBJECT
 10
2584.5000000000009
 20
-3695.4999999999959
 30
0.0
 11
2593.0000000000009
 21
-3695.4999999999959
 31
0.0
1001
ACDBBLOCKREPETAG
1070
     1
1071
       10
1005
12868D
  0
LINE
  5
12868E
  8
OBJECT
 10
2593.0000000000009
 20
-3695.4999999999959
 30
0.0
 11
2593.0000000000009
 21
-3616.4999999999968
 31
0.0
1001
ACDBBLOCKREPETAG
1070
     1
1071
       11
1005
12868E
  0
LINE
  5
12868F
  8
OBJECT
 10
2597.0000000000009
 20
-3611.9999999999959
 30
0.0
 11
2593.0000000000009
 21
-3616.4999999999968
 31
0.0
1001
ACDBBLOCKREPETAG
1070
     1
1071
       12
1005
12868F
  0
LINE
  5
128690
  8
OBJECT
 10
2597.0000000000009
 20
-3699.9999999999968
 30
0.0
 11
2593.0000000000009
 21
-3695.4999999999959
 31
0.0
1001
ACDBBLOCKREPETAG
1070
     1
1071
       13
1005
128690
  0
LINE
  5
128691
  8
HIDDEN
 10
2588.0000000000009
 20
-3625.9999999999959
 30
0.0
 11
2588.0000000000009
 21
-3685.9999999999959
 31
0.0
1001
ACDBBLOCKREPETAG
1070
     1
1071
       14
1005
128691
  0
ARC
  5
128692
  8
OBJECT
 10
2664.8782728787751
 20
-3656.4095072612249
 30
0.0
 40
110.86635228309
 50
144.1634274191434
 51
163.04035380433169
1001
ACDBBLOCKREPETAG
1070
     1
1071
       15
1005
128692
  0
ARC
  5
128693
  8
OBJECT
 10
2617.1359887769072
 20
-3641.2877497184459
 30
0.0
 40
60.791749880358971
 50
163.5472046522267
 51
179.72879698282679
1001
ACDBBLOCKREPETAG
1070
     1
1071
       16
1005
128693
  0
ARC
  5
128694
  8
OBJECT
 10
2617.1359956562501
 20
-3647.712249759898
 30
0.0
 40
60.79175676209487
 50
180.2712034781452
 51
196.4527794605338
1001
ACDBBLOCKREPETAG
1070
     1
1071
       17
1005
128694
  0
ARC
  5
128695
  8
OBJECT
 10
2664.8782728787751
 20
-3632.5904927388328
 30
0.0
 40
110.8663522830916
 50
196.95964619566811
 51
215.8365725808566
1001
ACDBBLOCKREPETAG
1070
     1
1071
       18
1005
128695
  0
LINE
  5
128696
  8
OBJECT
 10
2556.344919913005
 20
-3641.0000000000332
 30
0.0
 11
2556.344919913005
 21
-3648.00000000003
 31
0.0
1001
ACDBBLOCKREPETAG
1070
     1
1071
       19
1005
128696
  0
LINE
  5
128697
  8
OBJECT
 10
2575.0000000000009
 20
-3591.5000000000618
 30
0.0
 11
2581.5000000000009
 21
-3591.5000000000618
 31
0.0
1001
ACDBBLOCKREPETAG
1070
     1
1071
       20
1005
128697
  0
LINE
  5
128698
  8
OBJECT
 10
2575.0000000000009
 20
-3697.4999999999968
 30
0.0
 11
2584.5000000000009
 21
-3697.4999999999968
 31
0.0
1001
ACDBBLOCKREPETAG
1070
     1
1071
       21
1005
128698
  0
LINE
  5
128699
  8
OBJECT
 10
2633.0000000000009
 20
-3247.9999999999959
 30
0.0
 11
2640.0000000000009
 21
-3247.9999999999959
 31
0.0
1001
ACDBBLOCKREPETAG
1070
     1
1071
        0
1005
128699
  0
LINE
  5
12869A
  8
OBJECT
 10
2640.0000000000009
 20
-3247.9999999999959
 30
0.0
 11
2640.0000000000009
 21
-3341.9999999999968
 31
0.0
1001
ACDBBLOCKREPETAG
1070
     1
1071
        1
1005
12869A
  0
LINE
  5
12869B
  8
OBJECT
 10
2640.0000000000009
 20
-3341.9999999999968
 30
0.0
 11
2633.0000000000009
 21
-3341.9999999999968
 31
0.0
1001
ACDBBLOCKREPETAG
1070
     1
1071
        2
1005
12869B
  0
LINE
  5
12869C
  8
OBJECT
 10
2633.0000000000009
 20
-3341.9999999999968
 30
0.0
 11
2633.0000000000009
 21
-3247.9999999999959
 31
0.0
1001
ACDBBLOCKREPETAG
1070
     1
1071
        3
1005
12869C
  0
LINE
  5
12869D
  8
CENTER
 10
2655.0000000000009
 20
-3294.9999999999968
 30
0.0
 11
2580.0
 21
-3294.9999999999968
 31
0.0
1001
ACDBBLOCKREPETAG
1070
     1
1071
        4
1005
12869D
  0
LINE
  5
12869E
  8
OBJECT
 10
2633.0000000000009
 20
-3250.9999999999959
 30
0.0
 11
2597.0000000000009
 21
-3250.9999999999959
 31
0.0
1001
ACDBBLOCKREPETAG
1070
     1
1071
        5
1005
12869E
  0
LINE
  5
12869F
  8
OBJECT
 10
2597.0000000000009
 20
-3250.9999999999959
 30
0.0
 11
2597.0000000000009
 21
-3338.9999999999968
 31
0.0
1001
ACDBBLOCKREPETAG
1070
     1
1071
        6
1005
12869F
  0
LINE
  5
1286A0
  8
OBJECT
 10
2597.0000000000009
 20
-3338.9999999999968
 30
0.0
 11
2633.0000000000009
 21
-3338.9999999999968
 31
0.0
1001
ACDBBLOCKREPETAG
1070
     1
1071
        7
1005
1286A0
  0
LINE
  5
1286A1
  8
OBJECT
 10
2593.0000000000009
 20
-3255.4999999999959
 30
0.0
 11
2584.5000000000009
 21
-3255.4999999999959
 31
0.0
1001
ACDBBLOCKREPETAG
1070
     1
1071
        8
1005
1286A1
  0
LINE
  5
1286A2
  8
OBJECT
 10
2584.5000000000009
 20
-3334.4999999999968
 30
0.0
 11
2593.0000000000009
 21
-3334.4999999999968
 31
0.0
1001
ACDBBLOCKREPETAG
1070
     1
1071
        9
1005
1286A2
  0
LINE
  5
1286A3
  8
OBJECT
 10
2593.0000000000009
 20
-3334.4999999999968
 30
0.0
 11
2593.0000000000009
 21
-3255.4999999999959
 31
0.0
1001
ACDBBLOCKREPETAG
1070
     1
1071
       10
1005
1286A3
  0
LINE
  5
1286A4
  8
OBJECT
 10
2597.0000000000009
 20
-3250.9999999999959
 30
0.0
 11
2593.0000000000009
 21
-3255.4999999999959
 31
0.0
1001
ACDBBLOCKREPETAG
1070
     1
1071
       11
1005
1286A4
  0
LINE
  5
1286A5
  8
OBJECT
 10
2597.0000000000009
 20
-3338.9999999999968
 30
0.0
 11
2593.0000000000009
 21
-3334.4999999999968
 31
0.0
1001
ACDBBLOCKREPETAG
1070
     1
1071
       12
1005
1286A5
  0
LINE
  5
1286A6
  8
OBJECT
 10
2584.4999999999991
 20
-3341.4999999999959
 30
0.0
 11
2584.5000000000009
 21
-3248.4999999999959
 31
0.0
1001
ACDBBLOCKREPETAG
1070
     1
1071
       13
1005
1286A6
  0
ARC
  5
1286A7
  8
OBJECT
 10
2581.5000000000009
 20
-3248.4999999999959
 30
0.0
 40
3.0
 50
0.0
 51
90.0
1001
ACDBBLOCKREPETAG
1070
     1
1071
       14
1005
1286A7
  0
LINE
  5
1286A8
  8
HIDDEN
 10
2588.0000000000009
 20
-3264.9999999999968
 30
0.0
 11
2588.0000000000009
 21
-3324.9999999999968
 31
0.0
1001
ACDBBLOCKREPETAG
1070
     1
1071
       15
1005
1286A8
  0
LINE
  5
1286A9
  8
OBJECT
 10
2581.5000000000009
 20
-3245.4999999999959
 30
0.0
 11
2556.34491991298
 21
-3245.4999999999959
 31
0.0
1001
ACDBBLOCKREPETAG
1070
     1
1071
       17
1005
1286A9
  0
LINE
  5
1286AA
  8
OBJECT
 10
2581.4999999999991
 20
-3344.4999999999959
 30
0.0
 11
2556.34491991298
 21
-3344.4999999999959
 31
0.0
1001
ACDBBLOCKREPETAG
1070
     1
1071
       18
1005
1286AA
  0
ARC
  5
1286AB
  8
OBJECT
 10
2581.4999999999991
 20
-3341.4999999999959
 30
0.0
 40
3.0
 50
270.0
 51
0.0
1001
ACDBBLOCKREPETAG
1070
     1
1071
       19
1005
1286AB
  0
LINE
  5
1286AC
  8
DIM
 10
2650.0
 20
-3341.9999999999968
 30
0.0
 11
2728.479620594459
 21
-3341.9999999999968
 31
0.0
  0
LINE
  5
1286AD
  8
DIM
 10
2650.0
 20
-3247.9999999999959
 30
0.0
 11
2728.479620594459
 21
-3247.9999999999959
 31
0.0
  0
LINE
  5
1286AE
  8
DIM
 10
2718.4796205944608
 20
-3321.9999999999959
 30
0.0
 11
2718.4796205944608
 21
-3267.9999999999968
 31
0.0
  0
INSERT
  5
1286AF
  8
DIM
  2
_OPEN30
 10
2718.4796205944608
 20
-3341.9999999999968
 30
0.0
 41
20.0
 42
20.0
 43
20.0
 50
270.0
  0
INSERT
  5
1286B0
  8
DIM
  2
_OPEN30
 10
2718.4796205944608
 20
-3247.9999999999959
 30
0.0
 41
20.0
 42
20.0
 43
20.0
 50
90.0
  0
INSERT
  5
1286B1
  8
OBJECT
  2
*U9
 10
0.0
 20
0.0
 30
0.0
  0
LINE
  5
1286B2
  8
DIM
 10
2650.0
 20
-3699.9999999999968
 30
0.0
 11
2726.8409284037339
 21
-3699.9999999999968
 31
0.0
  0
LINE
  5
1286B3
  8
DIM
 10
2665.0000000000009
 20
-3655.9999999999968
 30
0.0
 11
2726.8409284037339
 21
-3655.9999999999968
 31
0.0
  0
LINE
  5
1286B4
  8
DIM
 10
2716.8409284037361
 20
-3719.9999999999968
 30
0.0
 11
2716.8409284037361
 21
-3739.9999999999968
 31
0.0
  0
LINE
  5
1286B5
  8
DIM
 10
2716.8409284037361
 20
-3635.9999999999968
 30
0.0
 11
2716.8409284037361
 21
-3615.9999999999991
 31
0.0
  0
LINE
  5
1286B6
  8
DIM
 10
2716.8409284037361
 20
-3699.9999999999968
 30
0.0
 11
2716.8409284037361
 21
-3655.9999999999968
 31
0.0
  0
INSERT
  5
1286B7
  8
DIM
  2
_OPEN30
 10
2716.8409284037361
 20
-3699.9999999999968
 30
0.0
 41
20.0
 42
20.0
 43
20.0
 50
90.0
  0
INSERT
  5
1286B8
  8
DIM
  2
_OPEN30
 10
2716.8409284037361
 20
-3655.9999999999968
 30
0.0
 41
20.0
 42
20.0
 43
20.0
 50
270.0
  0
INSERT
  5
1286B9
  8
OBJECT
  2
*U10
 10
0.0
 20
0.0
 30
0.0
  0
LINE
  5
1286BA
  8
DIM
 10
2500.0
 20
-3194.9999999999968
 30
0.0
 11
2500.0
 21
-3157.2081219844449
 31
0.0
  0
LINE
  5
1286BB
  8
DIM
 10
2640.0000000000009
 20
-3237.9999999999968
 30
0.0
 11
2640.0000000000009
 21
-3157.2081219844449
 31
0.0
  0
LINE
  5
1286BC
  8
DIM
 10
2520.0
 20
-3167.208121984444
 30
0.0
 11
2620.0000000000009
 21
-3167.208121984444
 31
0.0
  0
INSERT
  5
1286BD
  8
DIM
  2
_OPEN30
 10
2500.0
 20
-3167.208121984444
 30
0.0
 41
20.0
 42
20.0
 43
20.0
 50
180.0
  0
INSERT
  5
1286BE
  8
DIM
  2
_OPEN30
 10
2640.0000000000009
 20
-3167.208121984444
 30
0.0
 41
20.0
 42
20.0
 43
20.0
  0
INSERT
  5
1286BF
  8
OBJECT
  2
*U11
 10
0.0
 20
0.0
 30
0.0
  0
TEXT
  5
1286C0
  8
SLIM
 10
3271.0000000000018
 20
-3072.5000160472709
 30
0.0
 40
40.0
  1
C寸法
 41
0.75
  0
TEXT
  5
1286C1
  8
SLIM
 10
3271.0000000000018
 20
-3002.5000160472709
 30
0.0
 40
40.0
  1
B寸法
 41
0.75
  0
TEXT
  5
1286C2
  8
SLIM
 10
3270.2857142857151
 20
-2932.5000160472709
 30
0.0
 40
40.0
  1
A寸法
 41
0.75
  0
TEXT
  5
1286C3
  8
SLIM
 10
3669.2857142857151
 20
-3072.5000160472709
 30
0.0
 40
40.0
  1
140
 41
0.75
  0
TEXT
  5
1286C4
  8
SLIM
 10
3409.2857142857151
 20
-3072.5000160472709
 30
0.0
 40
40.0
  1
140
 41
0.75
  0
TEXT
  5
1286C5
  8
SLIM
 10
3539.2857142857151
 20
-3072.5000160472709
 30
0.0
 40
40.0
  1
140
 41
0.75
  0
TEXT
  5
1286C6
  8
SLIM
 10
3681.428571428572
 20
-3002.5000160472709
 30
0.0
 40
40.0
  1
59
 41
0.75
  0
TEXT
  5
1286C7
  8
SLIM
 10
3420.0
 20
-3002.5000160472709
 30
0.0
 40
40.0
  1
44
 41
0.75
  0
TEXT
  5
1286C8
  8
SLIM
 10
3550.7142857142849
 20
-3002.5000160472709
 30
0.0
 40
40.0
  1
52
 41
0.75
  0
TEXT
  5
1286C9
  8
SLIM
 10
3471.0000000000018
 20
-2807.5000160472709
 30
0.0
 40
40.0
  1
横枝管サイズ
 41
0.75
  0
TEXT
  5
1286CA
  8
SLIM
 10
3654.8571428571449
 20
-2862.5000160472709
 30
0.0
 40
30.0
  1
75（3）
 41
0.75
  0
TEXT
  5
1286CB
  8
SLIM
 10
3524.8571428571431
 20
-2862.5000160472709
 30
0.0
 40
30.0
  1
65（2）
 41
0.75
  0
TEXT
  5
1286CC
  8
SLIM
 10
3397.0000000000018
 20
-2862.5000160472709
 30
0.0
 40
30.0
  1
50（1）
 41
0.75
  0
TEXT
  5
1286CD
  8
SLIM
 10
3668.5714285714289
 20
-2932.5000160472709
 30
0.0
 40
40.0
  1
124
 41
0.75
  0
TEXT
  5
1286CE
  8
SLIM
 10
3420.0
 20
-2932.5000160472709
 30
0.0
 40
40.0
  1
94
 41
0.75
  0
TEXT
  5
1286CF
  8
SLIM
 10
3542.1428571428569
 20
-2932.5000160472709
 30
0.0
 40
40.0
  1
110
 41
0.75
  0
TEXT
  5
1286D0
  8
SLIM
 10
2350.0
 20
-2832.5000000000009
 30
0.0
 40
75.0
  1
下部枝管サイズ毎の形状
 41
0.75
  0
TEXT
  5
1286D1
  8
SLIM
 10
4394.2500000000009
 20
-3817.4999999999959
 30
0.0
 40
35.0
  1
通常枝75（3）
 41
0.75
  0
TEXT
  5
1286D2
  8
SLIM
 10
3394.25
 20
-3817.4999999999959
 30
0.0
 40
35.0
  1
通常枝65（2）
 41
0.75
  0
TEXT
  5
1286D3
  8
SLIM
 10
2396.75
 20
-3817.4999999999959
 30
0.0
 40
35.0
  1
通常枝50（1）
 41
0.75
  0
POLYLINE
  5
1286D4
  8
HIDDEN
 66
     1
 10
0.0
 20
0.0
 30
0.0
 70
     1
1001
ACDBBLOCKREPETAG
1070
     1
1071
      105
1005
0
  0
VERTEX
  5
128914
  8
HIDDEN
 10
359.99999999987779
 20
-799.99999999999818
 30
0.0
  0
VERTEX
  5
128915
  8
HIDDEN
 10
719.99999999975603
 20
-799.99999999999818
 30
0.0
  0
VERTEX
  5
128916
  8
HIDDEN
 10
719.99999999975603
 20
-1263.9999999998399
 30
0.0
  0
VERTEX
  5
128917
  8
HIDDEN
 10
359.99999999987779
 20
-1263.9999999998399
 30
0.0
  0
SEQEND
  5
128918
  8
HIDDEN
  0
POLYLINE
  5
1286D5
  8
HIDDEN
 66
     1
 10
0.0
 20
0.0
 30
0.0
 70
     1
1001
ACDBBLOCKREPETAG
1070
     1
1071
      110
1005
0
  0
VERTEX
  5
128919
  8
HIDDEN
 10
-0.0000000000002274
 20
-799.99999999999818
 30
0.0
  0
VERTEX
  5
12891A
  8
HIDDEN
 10
359.99999999987779
 20
-799.99999999999818
 30
0.0
  0
VERTEX
  5
12891B
  8
HIDDEN
 10
359.99999999987779
 20
-1263.9999999998399
 30
0.0
  0
VERTEX
  5
12891C
  8
HIDDEN
 10
-0.0000000000002274
 20
-1263.9999999998399
 30
0.0
  0
SEQEND
  5
12891D
  8
HIDDEN
  0
POLYLINE
  5
1286D6
  8
HIDDEN
 66
     1
 10
0.0
 20
0.0
 30
0.0
 70
     1
1001
ACDBBLOCKREPETAG
1070
     1
1071
      125
1005
0
  0
VERTEX
  5
12891E
  8
HIDDEN
 10
-0.0000000000002274
 20
-1263.9999999998399
 30
0.0
  0
VERTEX
  5
12891F
  8
HIDDEN
 10
359.99999999987779
 20
-1263.9999999998399
 30
0.0
  0
VERTEX
  5
128920
  8
HIDDEN
 10
359.99999999987779
 20
-1727.999999999681
 30
0.0
  0
VERTEX
  5
128921
  8
HIDDEN
 10
-0.0000000000002274
 20
-1727.999999999681
 30
0.0
  0
SEQEND
  5
128922
  8
HIDDEN
  0
POLYLINE
  5
1286D7
  8
HIDDEN
 66
     1
 10
0.0
 20
0.0
 30
0.0
 70
     1
1001
ACDBBLOCKREPETAG
1070
     1
1071
      110
1005
0
  0
VERTEX
  5
128923
  8
HIDDEN
 10
-0.0000000000002274
 20
0.0000000000009095
 30
0.0
  0
VERTEX
  5
128924
  8
HIDDEN
 10
359.99999999987779
 20
0.0000000000009095
 30
0.0
  0
VERTEX
  5
128925
  8
HIDDEN
 10
359.99999999987779
 20
-463.99999999984078
 30
0.0
  0
VERTEX
  5
128926
  8
HIDDEN
 10
-0.0000000000002274
 20
-463.99999999984078
 30
0.0
  0
SEQEND
  5
128927
  8
HIDDEN
  0
INSERT
  5
1286D8
  8
OBJECT
  2
*U12
 10
0.0
 20
0.0
 30
0.0
  0
LINE
  5
1286D9
  8
OBJECT
 10
118.00000000004179
 20
-99.000000000171866
 30
0.0
 11
118.00000000004179
 21
-92.000000000171866
 31
0.0
1001
ACDBBLOCKREPETAG
1070
     1
1071
       39
1005
1286D9
  0
LINE
  5
1286DA
  8
OBJECT
 10
118.00000000004179
 20
-92.000000000171866
 30
0.0
 11
242.00000000004181
 21
-92.000000000171866
 31
0.0
1001
ACDBBLOCKREPETAG
1070
     1
1071
       40
1005
1286DA
  0
LINE
  5
1286DB
  8
OBJECT
 10
242.00000000004181
 20
-92.000000000171866
 30
0.0
 11
242.00000000004181
 21
-99.000000000171866
 31
0.0
1001
ACDBBLOCKREPETAG
1070
     1
1071
       41
1005
1286DB
  0
LINE
  5
1286DC
  8
OBJECT
 10
242.00000000004181
 20
-99.000000000171866
 30
0.0
 11
118.00000000004179
 21
-99.000000000171866
 31
0.0
1001
ACDBBLOCKREPETAG
1070
     1
1071
       42
1005
1286DC
  0
LINE
  5
1286DD
  8
OBJECT
 10
121.00000000004179
 20
-99.000000000171866
 30
0.0
 11
121.00000000004179
 21
-135.00000000017181
 31
0.0
1001
ACDBBLOCKREPETAG
1070
     1
1071
       43
1005
1286DD
  0
LINE
  5
1286DE
  8
OBJECT
 10
121.00000000004179
 20
-135.00000000017181
 30
0.0
 11
239.00000000004181
 21
-135.00000000017181
 31
0.0
1001
ACDBBLOCKREPETAG
1070
     1
1071
       44
1005
1286DE
  0
LINE
  5
1286DF
  8
OBJECT
 10
239.00000000004181
 20
-135.00000000017181
 30
0.0
 11
239.00000000004181
 21
-99.000000000171866
 31
0.0
1001
ACDBBLOCKREPETAG
1070
     1
1071
       45
1005
1286DF
  0
LINE
  5
1286E0
  8
OBJECT
 10
125.50000000004179
 20
-139.00000000017181
 30
0.0
 11
125.50000000004179
 21
-146.00000000017181
 31
0.0
1001
ACDBBLOCKREPETAG
1070
     1
1071
       46
1005
1286E0
  0
LINE
  5
1286E1
  8
OBJECT
 10
234.50000000004181
 20
-146.00000000017181
 30
0.0
 11
234.50000000004181
 21
-139.00000000017181
 31
0.0
1001
ACDBBLOCKREPETAG
1070
     1
1071
       47
1005
1286E1
  0
LINE
  5
1286E2
  8
OBJECT
 10
234.50000000004181
 20
-139.00000000017181
 30
0.0
 11
125.50000000004179
 21
-139.00000000017181
 31
0.0
1001
ACDBBLOCKREPETAG
1070
     1
1071
       48
1005
1286E2
  0
LINE
  5
1286E3
  8
OBJECT
 10
121.00000000004179
 20
-135.00000000017181
 30
0.0
 11
125.50000000004179
 21
-139.00000000017181
 31
0.0
1001
ACDBBLOCKREPETAG
1070
     1
1071
       49
1005
1286E3
  0
LINE
  5
1286E4
  8
OBJECT
 10
239.00000000004181
 20
-135.00000000017181
 30
0.0
 11
234.50000000004181
 21
-139.00000000017181
 31
0.0
1001
ACDBBLOCKREPETAG
1070
     1
1071
       50
1005
1286E4
  0
LINE
  5
1286E5
  8
OBJECT
 10
118.00000000004179
 20
-149.00000000017101
 30
0.0
 11
118.00000000004179
 21
-152.00000000017181
 31
0.0
1001
ACDBBLOCKREPETAG
1070
     1
1071
       51
1005
1286E5
  0
ARC
  5
1286E6
  8
OBJECT
 10
121.00000000004179
 20
-149.00000000017101
 30
0.0
 40
3.0
 50
90.0
 51
180.0
1001
ACDBBLOCKREPETAG
1070
     1
1071
       52
1005
1286E6
  0
LINE
  5
1286E7
  8
OBJECT
 10
242.00000000004181
 20
-152.00000000017181
 30
0.0
 11
242.00000000004181
 21
-149.0000000001728
 31
0.0
1001
ACDBBLOCKREPETAG
1070
     1
1071
       53
1005
1286E7
  0
ARC
  5
1286E8
  8
OBJECT
 10
239.00000000004181
 20
-149.0000000001728
 30
0.0
 40
3.0
 50
0.0
 51
90.0
1001
ACDBBLOCKREPETAG
1070
     1
1071
       54
1005
1286E8
  0
LINE
  5
1286E9
  8
OBJECT
 10
239.00000000004181
 20
-146.0000000001728
 30
0.0
 11
121.00000000004179
 21
-146.00000000017101
 31
0.0
1001
ACDBBLOCKREPETAG
1070
     1
1071
       55
1005
1286E9
  0
LINE
  5
1286EA
  8
HIDDEN
 10
135.50000000004181
 20
-144.00000000017189
 30
0.0
 11
224.50000000004181
 21
-144.00000000017189
 31
0.0
1001
ACDBBLOCKREPETAG
1070
     1
1071
      426
1005
1286EA
  0
CIRCLE
  5
1286EB
  8
OBJECT
 10
180.00000000004181
 20
-232.00000000017189
 30
0.0
 40
70.0
1001
ACDBBLOCKREPETAG
1070
     1
1071
       50
1005
1286EB
  0
CIRCLE
  5
1286EC
  8
OBJECT
 10
180.00000000004181
 20
-232.00000000017189
 30
0.0
 40
77.0
1001
ACDBBLOCKREPETAG
1070
     1
1071
       51
1005
1286EC
  0
ARC
  5
1286ED
  8
OBJECT
 10
180.00000000004181
 20
-232.00000000017189
 30
0.0
 40
80.0
 50
140.80503257377961
 51
39.194967426220252
1001
ACDBBLOCKREPETAG
1070
     1
1071
       52
1005
1286ED
  0
LINE
  5
1286EE
  8
OBJECT
 10
118.00000000004179
 20
-186.3381997728473
 30
0.0
 11
118.00000000004179
 21
-152.00000000017181
 31
0.0
1001
ACDBBLOCKREPETAG
1070
     1
1071
       53
1005
1286EE
  0
LINE
  5
1286EF
  8
OBJECT
 10
242.00000000004181
 20
-186.3381997728473
 30
0.0
 11
242.00000000004181
 21
-152.00000000017181
 31
0.0
1001
ACDBBLOCKREPETAG
1070
     1
1071
       54
1005
1286EF
  0
CIRCLE
  5
1286F0
  8
OBJECT
 10
180.00000000004181
 20
-232.00000000017189
 30
0.0
 40
53.5
1001
ACDBBLOCKREPETAG
1070
     1
1071
      157
1005
1286F0
  0
POINT
  5
1286F1
  8
DOTS
 10
180.00000000004181
 20
-232.00000000017189
 30
0.0
1001
ACDBBLOCKREPETAG
1070
     1
1071
      162
1005
1286F1
  0
TEXT
  5
1286F2
  8
SLIM
 10
0.000003566523219
 20
-775.9999954146823
 30
0.0
 40
79.999999999972701
  1
下部枝管バリエーション
 41
0.75
1001
ACDBBLOCKREPETAG
1070
     1
1071
      119
1005
124B78
  0
TEXT
  5
1286F3
  8
SLIM
 10
149.1428571427966
 20
-443.99999999984971
 30
0.0
 40
48.0
  1
A3
 41
0.75
1001
ACDBBLOCKREPETAG
1070
     1
1071
      119
1005
0
  0
TEXT
  5
1286F4
  8
SLIM
 10
0.0000035665234464
 20
24.000004585317608
 30
0.0
 40
79.999999999972701
  1
上部枝管
 41
0.75
1001
ACDBBLOCKREPETAG
1070
     1
1071
      119
1005
124B78
  0
LINE
  5
1286F5
  8
OBJECT
 10
4923.0
 20
-570.99999999999432
 30
0.0
 11
4923.0
 21
-549.99999999999432
 31
0.0
1001
ACDBBLOCKREPETAG
1070
     1
1071
       22
1005
1286F5
  0
LINE
  5
1286F6
  8
OBJECT
 10
4923.0
 20
-549.99999999999432
 30
0.0
 11
5077.0
 21
-549.99999999999432
 31
0.0
1001
ACDBBLOCKREPETAG
1070
     1
1071
       23
1005
1286F6
  0
LINE
  5
1286F7
  8
HIDDEN
 10
4943.0
 20
-619.99999999999432
 30
0.0
 11
5057.0
 21
-619.99999999999432
 31
0.0
1001
ACDBBLOCKREPETAG
1070
     1
1071
       24
1005
1286F7
  0
LINE
  5
1286F8
  8
OBJECT
 10
5077.0
 20
-549.99999999999432
 30
0.0
 11
5077.0
 21
-570.99999999999432
 31
0.0
1001
ACDBBLOCKREPETAG
1070
     1
1071
       25
1005
1286F8
  0
LINE
  5
1286F9
  8
OBJECT
 10
5077.0
 20
-570.99999999999432
 30
0.0
 11
4923.0
 21
-570.99999999999432
 31
0.0
1001
ACDBBLOCKREPETAG
1070
     1
1071
       26
1005
1286F9
  0
LINE
  5
1286FA
  8
CENTER
 10
5000.0
 20
-534.99999999999432
 30
0.0
 11
5000.0
 21
-889.99999999999409
 31
0.0
1001
ACDBBLOCKREPETAG
1070
     1
1071
       27
1005
1286FA
  0
LINE
  5
1286FB
  8
OBJECT
 10
5075.0
 20
-633.99999999999432
 30
0.0
 11
5075.0
 21
-737.50000000005957
 31
0.0
1001
ACDBBLOCKREPETAG
1070
     1
1071
       28
1005
1286FB
  0
LINE
  5
1286FC
  8
OBJECT
 10
5075.0
 20
-843.49999999999409
 30
0.0
 11
5075.0
 21
-877.9999999999942
 31
0.0
1001
ACDBBLOCKREPETAG
1070
     1
1071
      218
1005
1286FC
  0
LINE
  5
1286FD
  8
OBJECT
 10
4928.0
 20
-570.99999999999432
 30
0.0
 11
4928.0
 21
-633.99999999999432
 31
0.0
1001
ACDBBLOCKREPETAG
1070
     1
1071
       29
1005
1286FD
  0
LINE
  5
1286FE
  8
OBJECT
 10
5072.0
 20
-633.99999999999432
 30
0.0
 11
5072.0
 21
-570.99999999999432
 31
0.0
1001
ACDBBLOCKREPETAG
1070
     1
1071
       30
1005
1286FE
  0
LINE
  5
1286FF
  8
OBJECT
 10
4920.0
 20
-877.9999999999942
 30
0.0
 11
5080.0
 21
-877.9999999999942
 31
0.0
1001
ACDBBLOCKREPETAG
1070
     1
1071
       31
1005
1286FF
  0
LINE
  5
128700
  8
OBJECT
 10
5074.9999999997199
 20
-633.99999999999432
 30
0.0
 11
4925.0
 21
-633.99999999999432
 31
0.0
1001
ACDBBLOCKREPETAG
1070
     1
1071
       32
1005
128700
  0
LINE
  5
128701
  8
OBJECT
 10
4920.0
 20
-877.9999999999942
 30
0.0
 11
4920.0
 21
-889.99999999999409
 31
0.0
1001
ACDBBLOCKREPETAG
1070
     1
1071
       33
1005
128701
  0
LINE
  5
128702
  8
OBJECT
 10
4920.0
 20
-889.99999999999409
 30
0.0
 11
5080.0
 21
-889.99999999999409
 31
0.0
1001
ACDBBLOCKREPETAG
1070
     1
1071
       34
1005
128702
  0
LINE
  5
128703
  8
OBJECT
 10
5080.0
 20
-889.99999999999409
 30
0.0
 11
5080.0
 21
-877.9999999999942
 31
0.0
1001
ACDBBLOCKREPETAG
1070
     1
1071
       35
1005
128703
  0
LINE
  5
128704
  8
OBJECT
 10
4925.0000000002801
 20
-633.99999999999432
 30
0.0
 11
4925.0
 21
-877.9999999999942
 31
0.0
1001
ACDBBLOCKREPETAG
1070
     1
1071
       37
1005
128704
  0
LINE
  5
128705
  8
OBJECT
 10
5133.0
 20
-738.99999999999432
 30
0.0
 11
5140.0
 21
-738.99999999999432
 31
0.0
1001
ACDBBLOCKREPETAG
1070
     1
1071
      197
1005
128705
  0
LINE
  5
128706
  8
OBJECT
 10
5140.0
 20
-738.99999999999432
 30
0.0
 11
5140.0
 21
-845.99999999999443
 31
0.0
1001
ACDBBLOCKREPETAG
1070
     1
1071
      198
1005
128706
  0
LINE
  5
128707
  8
OBJECT
 10
5084.5
 20
-740.50000000005969
 30
0.0
 11
5084.5
 21
-843.49999999999409
 31
0.0
1001
ACDBBLOCKREPETAG
1070
     1
1071
      199
1005
128707
  0
ARC
  5
128708
  8
OBJECT
 10
5081.5
 20
-740.50000000005969
 30
0.0
 40
3.0
 50
0.0
 51
90.0
1001
ACDBBLOCKREPETAG
1070
     1
1071
      200
1005
128708
  0
LINE
  5
128709
  8
OBJECT
 10
5133.0
 20
-845.99999999999443
 30
0.0
 11
5133.0
 21
-738.99999999999432
 31
0.0
1001
ACDBBLOCKREPETAG
1070
     1
1071
      201
1005
128709
  0
LINE
  5
12870A
  8
CENTER
 10
5155.0
 20
-793.99999999999432
 30
0.0
 11
5041.3449199130037
 21
-794.0000000000598
 31
0.0
1001
ACDBBLOCKREPETAG
1070
     1
1071
      202
1005
12870A
  0
LINE
  5
12870B
  8
OBJECT
 10
5133.0
 20
-741.99999999999432
 30
0.0
 11
5097.0
 21
-741.9999999999942
 31
0.0
1001
ACDBBLOCKREPETAG
1070
     1
1071
      203
1005
12870B
  0
LINE
  5
12870C
  8
OBJECT
 10
5097.0
 20
-741.9999999999942
 30
0.0
 11
5097.0
 21
-845.99999999999443
 31
0.0
1001
ACDBBLOCKREPETAG
1070
     1
1071
      204
1005
12870C
  0
LINE
  5
12870D
  8
OBJECT
 10
5097.0
 20
-845.99999999999443
 30
0.0
 11
5140.0
 21
-845.99999999999443
 31
0.0
1001
ACDBBLOCKREPETAG
1070
     1
1071
      205
1005
12870D
  0
LINE
  5
12870E
  8
OBJECT
 10
5093.0
 20
-746.4999999999942
 30
0.0
 11
5084.5
 21
-746.4999999999942
 31
0.0
1001
ACDBBLOCKREPETAG
1070
     1
1071
      206
1005
12870E
  0
LINE
  5
12870F
  8
OBJECT
 10
5084.5
 20
-841.49999999999443
 30
0.0
 11
5093.0
 21
-841.49999999999443
 31
0.0
1001
ACDBBLOCKREPETAG
1070
     1
1071
      207
1005
12870F
  0
LINE
  5
128710
  8
OBJECT
 10
5093.0
 20
-841.49999999999443
 30
0.0
 11
5093.0
 21
-746.4999999999942
 31
0.0
1001
ACDBBLOCKREPETAG
1070
     1
1071
      208
1005
128710
  0
LINE
  5
128711
  8
OBJECT
 10
5097.0
 20
-741.9999999999942
 30
0.0
 11
5093.0
 21
-746.4999999999942
 31
0.0
1001
ACDBBLOCKREPETAG
1070
     1
1071
      209
1005
128711
  0
LINE
  5
128712
  8
OBJECT
 10
5097.0
 20
-845.99999999999443
 30
0.0
 11
5093.0
 21
-841.49999999999443
 31
0.0
1001
ACDBBLOCKREPETAG
1070
     1
1071
       36
1005
128712
  0
LINE
  5
128713
  8
HIDDEN
 10
5088.0
 20
-755.99999999999409
 30
0.0
 11
5088.0
 21
-831.99999999999454
 31
0.0
1001
ACDBBLOCKREPETAG
1070
     1
1071
      210
1005
128713
  0
ARC
  5
128714
  8
OBJECT
 10
5164.8782728787728
 20
-802.40950726122355
 30
0.0
 40
110.86635228309
 50
144.1634274193047
 51
163.04035380434561
1001
ACDBBLOCKREPETAG
1070
     1
1071
      211
1005
128714
  0
ARC
  5
128715
  8
OBJECT
 10
5117.1359887769049
 20
-787.28774971844337
 30
0.0
 40
60.791749880358971
 50
163.54720465221311
 51
179.72879698282651
1001
ACDBBLOCKREPETAG
1070
     1
1071
      212
1005
128715
  0
ARC
  5
128716
  8
OBJECT
 10
5117.1359956562483
 20
-793.7122497598956
 30
0.0
 40
60.79175676209487
 50
180.2712034781452
 51
196.45277946052011
1001
ACDBBLOCKREPETAG
1070
     1
1071
      213
1005
128716
  0
ARC
  5
128717
  8
OBJECT
 10
5164.8782728787728
 20
-778.5904927388309
 30
0.0
 40
110.8663522830916
 50
196.95964619565439
 51
215.8365725806953
1001
ACDBBLOCKREPETAG
1070
     1
1071
      214
1005
128717
  0
LINE
  5
128718
  8
OBJECT
 10
5056.3449199130046
 20
-787.00000000003081
 30
0.0
 11
5056.3449199130046
 21
-794.00000000002683
 31
0.0
1001
ACDBBLOCKREPETAG
1070
     1
1071
      215
1005
128718
  0
LINE
  5
128719
  8
OBJECT
 10
5075.0
 20
-737.50000000005957
 30
0.0
 11
5081.5
 21
-737.50000000005957
 31
0.0
1001
ACDBBLOCKREPETAG
1070
     1
1071
      216
1005
128719
  0
LINE
  5
12871A
  8
OBJECT
 10
5075.0
 20
-843.49999999999409
 30
0.0
 11
5084.5
 21
-843.49999999999409
 31
0.0
1001
ACDBBLOCKREPETAG
1070
     1
1071
      217
1005
12871A
  0
POINT
  5
12871B
  8
DOTS
 10
5000.0
 20
-845.99999999999443
 30
0.0
1001
ACDBBLOCKREPETAG
1070
     1
1071
      219
1005
12871B
  0
LINE
  5
12871C
  8
OBJECT
 10
4423.0
 20
-570.99999999999432
 30
0.0
 11
4423.0
 21
-549.99999999999432
 31
0.0
1001
ACDBBLOCKREPETAG
1070
     1
1071
        0
1005
12871C
  0
LINE
  5
12871D
  8
OBJECT
 10
4423.0
 20
-549.99999999999432
 30
0.0
 11
4577.0
 21
-549.99999999999432
 31
0.0
1001
ACDBBLOCKREPETAG
1070
     1
1071
        1
1005
12871D
  0
LINE
  5
12871E
  8
HIDDEN
 10
4443.0
 20
-619.99999999999432
 30
0.0
 11
4557.0
 21
-619.99999999999432
 31
0.0
1001
ACDBBLOCKREPETAG
1070
     1
1071
        2
1005
12871E
  0
LINE
  5
12871F
  8
OBJECT
 10
4577.0
 20
-549.99999999999432
 30
0.0
 11
4577.0
 21
-570.99999999999432
 31
0.0
1001
ACDBBLOCKREPETAG
1070
     1
1071
        3
1005
12871F
  0
LINE
  5
128720
  8
OBJECT
 10
4577.0
 20
-570.99999999999432
 30
0.0
 11
4423.0
 21
-570.99999999999432
 31
0.0
1001
ACDBBLOCKREPETAG
1070
     1
1071
        4
1005
128720
  0
LINE
  5
128721
  8
CENTER
 10
4500.0
 20
-534.99999999999432
 30
0.0
 11
4500.0
 21
-889.99999999999409
 31
0.0
1001
ACDBBLOCKREPETAG
1070
     1
1071
        5
1005
128721
  0
LINE
  5
128722
  8
OBJECT
 10
4425.0
 20
-633.99999999999432
 30
0.0
 11
4425.0
 21
-877.9999999999942
 31
0.0
1001
ACDBBLOCKREPETAG
1070
     1
1071
        6
1005
128722
  0
LINE
  5
128723
  8
OBJECT
 10
4428.0
 20
-570.99999999999432
 30
0.0
 11
4428.0
 21
-633.99999999999432
 31
0.0
1001
ACDBBLOCKREPETAG
1070
     1
1071
        7
1005
128723
  0
LINE
  5
128724
  8
OBJECT
 10
4572.0
 20
-633.99999999999432
 30
0.0
 11
4572.0
 21
-570.99999999999432
 31
0.0
1001
ACDBBLOCKREPETAG
1070
     1
1071
        8
1005
128724
  0
LINE
  5
128725
  8
OBJECT
 10
4420.0
 20
-877.9999999999942
 30
0.0
 11
4580.0
 21
-877.9999999999942
 31
0.0
1001
ACDBBLOCKREPETAG
1070
     1
1071
        9
1005
128725
  0
LINE
  5
128726
  8
OBJECT
 10
4580.0
 20
-633.99999999999432
 30
0.0
 11
4425.0
 21
-633.99999999999432
 31
0.0
1001
ACDBBLOCKREPETAG
1070
     1
1071
       10
1005
128726
  0
LINE
  5
128727
  8
OBJECT
 10
4420.0
 20
-877.9999999999942
 30
0.0
 11
4420.0
 21
-889.99999999999409
 31
0.0
1001
ACDBBLOCKREPETAG
1070
     1
1071
       11
1005
128727
  0
LINE
  5
128728
  8
OBJECT
 10
4420.0
 20
-889.99999999999409
 30
0.0
 11
4580.0
 21
-889.99999999999409
 31
0.0
1001
ACDBBLOCKREPETAG
1070
     1
1071
       12
1005
128728
  0
LINE
  5
128729
  8
OBJECT
 10
4580.0
 20
-889.99999999999409
 30
0.0
 11
4580.0
 21
-877.9999999999942
 31
0.0
1001
ACDBBLOCKREPETAG
1070
     1
1071
       13
1005
128729
  0
LINE
  5
12872A
  8
OBJECT
 10
4574.9999999998618
 20
-757.99999999984493
 30
0.0
 11
4575.0
 21
-877.9999999999942
 31
0.0
1001
ACDBBLOCKREPETAG
1070
     1
1071
       15
1005
12872A
  0
LINE
  5
12872B
  8
OBJECT
 10
4574.9999908029849
 20
-757.99998602701612
 30
0.0
 11
4580.0
 21
-757.99998602701612
 31
0.0
1001
ACDBBLOCKREPETAG
1070
     1
1071
       16
1005
12872B
  0
ARC
  5
12872C
  8
OBJECT
 10
4700.6872746716726
 20
-749.40809941010195
 30
0.0
 40
170.6350503965856
 50
137.44134459184301
 51
149.91949581337221
1001
ACDBBLOCKREPETAG
1070
     1
1071
       17
1005
12872C
  0
ARC
  5
12872D
  8
OBJECT
 10
4618.8455987040506
 20
-705.88272669535922
 30
0.0
 40
78.072222021763665
 50
147.4551531038623
 51
164.66365997718671
1001
ACDBBLOCKREPETAG
1070
     1
1071
       18
1005
12872D
  0
ARC
  5
12872E
  8
OBJECT
 10
4585.7554349608718
 20
-695.99999999999432
 30
0.0
 40
43.55353926885617
 50
165.688452300753
 51
194.3115476992468
1001
ACDBBLOCKREPETAG
1070
     1
1071
       19
1005
12872E
  0
ARC
  5
12872F
  8
OBJECT
 10
4700.6872746716726
 20
-642.59190058988645
 30
0.0
 40
170.6350503965856
 50
210.08050418662771
 51
222.55865540815699
1001
ACDBBLOCKREPETAG
1070
     1
1071
       20
1005
12872F
  0
ARC
  5
128730
  8
OBJECT
 10
4618.8455987040506
 20
-686.11727330462952
 30
0.0
 40
78.072222021763665
 50
195.3363400228132
 51
212.5448468961377
1001
ACDBBLOCKREPETAG
1070
     1
1071
       21
1005
128730
  0
CIRCLE
  5
128731
  8
HIDDEN
 10
4500.0
 20
-793.99999999999409
 30
0.0
 40
35.5
1001
ACDBBLOCKREPETAG
1070
     1
1071
      192
1005
128731
  0
LINE
  5
128732
  8
CENTER
 10
4430.0
 20
-793.99999999999409
 30
0.0
 11
4570.0
 21
-793.99999999999409
 31
0.0
1001
ACDBBLOCKREPETAG
1070
     1
1071
      193
1005
128732
  0
CIRCLE
  5
128733
  8
HIDDEN
 10
4500.0
 20
-793.99999999999409
 30
0.0
 40
47.0
1001
ACDBBLOCKREPETAG
1070
     1
1071
       14
1005
128733
  0
ARC
  5
128734
  8
HIDDEN
 10
4500.0
 20
-793.99999999999409
 30
0.0
 40
55.0
 50
289.01126526010933
 51
250.9887347398907
1001
ACDBBLOCKREPETAG
1070
     1
1071
      194
1005
128734
  0
LINE
  5
128735
  8
HIDDEN
 10
4482.0835271328324
 20
-845.99999999999443
 30
0.0
 11
4517.9164728671676
 21
-845.99999999999443
 31
0.0
1001
ACDBBLOCKREPETAG
1070
     1
1071
      195
1005
128735
  0
POINT
  5
128736
  8
DOTS
 10
4500.0
 20
-845.99999999999443
 30
0.0
1001
ACDBBLOCKREPETAG
1070
     1
1071
      196
1005
128736
  0
LINE
  5
128737
  8
CENTER
 10
5077.0
 20
-695.99999999999432
 30
0.0
 11
4923.0
 21
-695.99999999999432
 31
0.0
1001
ACDBBLOCKREPETAG
1070
     1
1071
       17
1005
128737
  0
CIRCLE
  5
128738
  8
OBJECT
 10
5000.0
 20
-695.99999999999432
 30
0.0
 40
41.5
1001
ACDBBLOCKREPETAG
1070
     1
1071
       19
1005
128738
  0
CIRCLE
  5
128739
  8
OBJECT
 10
5000.0
 20
-695.99999999999432
 30
0.0
 40
54.0
1001
ACDBBLOCKREPETAG
1070
     1
1071
       20
1005
128739
  0
ARC
  5
12873A
  8
OBJECT
 10
5000.0
 20
-695.99999999999432
 30
0.0
 40
62.0
 50
287.89655112920718
 51
252.10344887079279
1001
ACDBBLOCKREPETAG
1070
     1
1071
       21
1005
12873A
  0
LINE
  5
12873B
  8
OBJECT
 10
4980.947441116743
 20
-754.9999999999942
 30
0.0
 11
5019.052558883257
 21
-754.9999999999942
 31
0.0
1001
ACDBBLOCKREPETAG
1070
     1
1071
       22
1005
12873B
  0
LINE
  5
12873C
  8
OBJECT
 10
4633.0
 20
-634.0
 30
0.0
 11
4640.0
 21
-634.0
 31
0.0
1001
ACDBBLOCKREPETAG
1070
     1
1071
       45
1005
12873C
  0
LINE
  5
12873D
  8
OBJECT
 10
4640.0
 20
-634.0
 30
0.0
 11
4640.0
 21
-755.0
 31
0.0
1001
ACDBBLOCKREPETAG
1070
     1
1071
       46
1005
12873D
  0
LINE
  5
12873E
  8
OBJECT
 10
4633.0
 20
-755.0
 30
0.0
 11
4633.0
 21
-634.0
 31
0.0
1001
ACDBBLOCKREPETAG
1070
     1
1071
       47
1005
12873E
  0
LINE
  5
12873F
  8
CENTER
 10
4655.0
 20
-696.0
 30
0.0
 11
4571.0
 21
-696.0
 31
0.0
1001
ACDBBLOCKREPETAG
1070
     1
1071
       48
1005
12873F
  0
LINE
  5
128740
  8
OBJECT
 10
4633.0
 20
-637.0
 30
0.0
 11
4597.0
 21
-637.0
 31
0.0
1001
ACDBBLOCKREPETAG
1070
     1
1071
       49
1005
128740
  0
LINE
  5
128741
  8
OBJECT
 10
4597.0
 20
-637.0
 30
0.0
 11
4597.0
 21
-755.0
 31
0.0
1001
ACDBBLOCKREPETAG
1070
     1
1071
       50
1005
128741
  0
LINE
  5
128742
  8
OBJECT
 10
4597.0
 20
-755.0
 30
0.0
 11
4640.0
 21
-755.0
 31
0.0
1001
ACDBBLOCKREPETAG
1070
     1
1071
       51
1005
128742
  0
LINE
  5
128743
  8
OBJECT
 10
4593.0
 20
-641.5
 30
0.0
 11
4586.0
 21
-641.5
 31
0.0
1001
ACDBBLOCKREPETAG
1070
     1
1071
       52
1005
128743
  0
LINE
  5
128744
  8
OBJECT
 10
4586.0
 20
-750.49999999999989
 30
0.0
 11
4593.0
 21
-750.49999999999989
 31
0.0
1001
ACDBBLOCKREPETAG
1070
     1
1071
       53
1005
128744
  0
LINE
  5
128745
  8
OBJECT
 10
4593.0
 20
-750.49999999999989
 30
0.0
 11
4593.0
 21
-641.5
 31
0.0
1001
ACDBBLOCKREPETAG
1070
     1
1071
       54
1005
128745
  0
LINE
  5
128746
  8
OBJECT
 10
4597.0
 20
-637.0
 30
0.0
 11
4593.0
 21
-641.5
 31
0.0
1001
ACDBBLOCKREPETAG
1070
     1
1071
       55
1005
128746
  0
LINE
  5
128747
  8
OBJECT
 10
4597.0
 20
-755.0
 30
0.0
 11
4593.0
 21
-750.49999999999989
 31
0.0
1001
ACDBBLOCKREPETAG
1070
     1
1071
       56
1005
128747
  0
LINE
  5
128748
  8
OBJECT
 10
4583.0
 20
-634.0
 30
0.0
 11
4580.0
 21
-634.0
 31
0.0
1001
ACDBBLOCKREPETAG
1070
     1
1071
       57
1005
128748
  0
ARC
  5
128749
  8
OBJECT
 10
4583.0
 20
-637.0
 30
0.0
 40
3.0
 50
0.0
 51
90.0
1001
ACDBBLOCKREPETAG
1070
     1
1071
       58
1005
128749
  0
LINE
  5
12874A
  8
OBJECT
 10
4580.0
 20
-758.0
 30
0.0
 11
4583.0
 21
-758.0
 31
0.0
1001
ACDBBLOCKREPETAG
1070
     1
1071
       59
1005
12874A
  0
ARC
  5
12874B
  8
OBJECT
 10
4583.0
 20
-755.0
 30
0.0
 40
3.0
 50
270.0
 51
0.0
1001
ACDBBLOCKREPETAG
1070
     1
1071
       60
1005
12874B
  0
LINE
  5
12874C
  8
OBJECT
 10
4586.0
 20
-755.0
 30
0.0
 11
4586.0
 21
-637.0
 31
0.0
1001
ACDBBLOCKREPETAG
1070
     1
1071
       61
1005
12874C
  0
LINE
  5
12874D
  8
HIDDEN
 10
4588.0
 20
-651.5
 30
0.0
 11
4588.0
 21
-740.5
 31
0.0
1001
ACDBBLOCKREPETAG
1070
     1
1071
       63
1005
12874D
  0
LINE
  5
12874E
  8
OBJECT
 10
2923.0
 20
-570.99999999999432
 30
0.0
 11
2923.0
 21
-549.99999999999432
 31
0.0
1001
ACDBBLOCKREPETAG
1070
     1
1071
       22
1005
12874E
  0
LINE
  5
12874F
  8
OBJECT
 10
2923.0
 20
-549.99999999999432
 30
0.0
 11
3077.0
 21
-549.99999999999432
 31
0.0
1001
ACDBBLOCKREPETAG
1070
     1
1071
       23
1005
12874F
  0
LINE
  5
128750
  8
HIDDEN
 10
2943.0
 20
-619.99999999999432
 30
0.0
 11
3057.0
 21
-619.99999999999432
 31
0.0
1001
ACDBBLOCKREPETAG
1070
     1
1071
       24
1005
128750
  0
LINE
  5
128751
  8
OBJECT
 10
3077.0
 20
-549.99999999999432
 30
0.0
 11
3077.0
 21
-570.99999999999432
 31
0.0
1001
ACDBBLOCKREPETAG
1070
     1
1071
       25
1005
128751
  0
LINE
  5
128752
  8
OBJECT
 10
3077.0
 20
-570.99999999999432
 30
0.0
 11
2923.0
 21
-570.99999999999432
 31
0.0
1001
ACDBBLOCKREPETAG
1070
     1
1071
       26
1005
128752
  0
LINE
  5
128753
  8
CENTER
 10
3000.0
 20
-534.99999999999432
 30
0.0
 11
3000.0
 21
-889.99999999999409
 31
0.0
1001
ACDBBLOCKREPETAG
1070
     1
1071
       27
1005
128753
  0
LINE
  5
128754
  8
OBJECT
 10
3075.0
 20
-633.99999999999432
 30
0.0
 11
3075.0
 21
-737.50000000005957
 31
0.0
1001
ACDBBLOCKREPETAG
1070
     1
1071
       28
1005
128754
  0
LINE
  5
128755
  8
OBJECT
 10
3075.0
 20
-843.49999999999409
 30
0.0
 11
3075.0
 21
-877.9999999999942
 31
0.0
1001
ACDBBLOCKREPETAG
1070
     1
1071
      218
1005
128755
  0
LINE
  5
128756
  8
OBJECT
 10
2928.0
 20
-570.99999999999432
 30
0.0
 11
2928.0
 21
-633.99999999999432
 31
0.0
1001
ACDBBLOCKREPETAG
1070
     1
1071
       29
1005
128756
  0
LINE
  5
128757
  8
OBJECT
 10
3072.0
 20
-633.99999999999432
 30
0.0
 11
3072.0
 21
-570.99999999999432
 31
0.0
1001
ACDBBLOCKREPETAG
1070
     1
1071
       30
1005
128757
  0
LINE
  5
128758
  8
OBJECT
 10
2920.0
 20
-877.9999999999942
 30
0.0
 11
3080.0
 21
-877.9999999999942
 31
0.0
1001
ACDBBLOCKREPETAG
1070
     1
1071
       31
1005
128758
  0
LINE
  5
128759
  8
OBJECT
 10
3074.9999999997199
 20
-633.99999999999432
 30
0.0
 11
2925.0
 21
-633.99999999999432
 31
0.0
1001
ACDBBLOCKREPETAG
1070
     1
1071
       32
1005
128759
  0
LINE
  5
12875A
  8
OBJECT
 10
2920.0
 20
-877.9999999999942
 30
0.0
 11
2920.0
 21
-889.99999999999409
 31
0.0
1001
ACDBBLOCKREPETAG
1070
     1
1071
       33
1005
12875A
  0
LINE
  5
12875B
  8
OBJECT
 10
2920.0
 20
-889.99999999999409
 30
0.0
 11
3080.0
 21
-889.99999999999409
 31
0.0
1001
ACDBBLOCKREPETAG
1070
     1
1071
       34
1005
12875B
  0
LINE
  5
12875C
  8
OBJECT
 10
3080.0
 20
-889.99999999999409
 30
0.0
 11
3080.0
 21
-877.9999999999942
 31
0.0
1001
ACDBBLOCKREPETAG
1070
     1
1071
       35
1005
12875C
  0
LINE
  5
12875D
  8
OBJECT
 10
2925.000000000281
 20
-633.99999999999432
 30
0.0
 11
2925.0
 21
-877.9999999999942
 31
0.0
1001
ACDBBLOCKREPETAG
1070
     1
1071
       37
1005
12875D
  0
LINE
  5
12875E
  8
OBJECT
 10
3133.0
 20
-738.99999999999432
 30
0.0
 11
3140.0
 21
-738.99999999999432
 31
0.0
1001
ACDBBLOCKREPETAG
1070
     1
1071
      197
1005
12875E
  0
LINE
  5
12875F
  8
OBJECT
 10
3140.0
 20
-738.99999999999432
 30
0.0
 11
3140.0
 21
-845.99999999999443
 31
0.0
1001
ACDBBLOCKREPETAG
1070
     1
1071
      198
1005
12875F
  0
LINE
  5
128760
  8
OBJECT
 10
3084.5
 20
-740.50000000005969
 30
0.0
 11
3084.5
 21
-843.49999999999409
 31
0.0
1001
ACDBBLOCKREPETAG
1070
     1
1071
      199
1005
128760
  0
ARC
  5
128761
  8
OBJECT
 10
3081.5
 20
-740.50000000005969
 30
0.0
 40
3.0
 50
0.0
 51
90.0
1001
ACDBBLOCKREPETAG
1070
     1
1071
      200
1005
128761
  0
LINE
  5
128762
  8
OBJECT
 10
3133.0
 20
-845.99999999999443
 30
0.0
 11
3133.0
 21
-738.99999999999432
 31
0.0
1001
ACDBBLOCKREPETAG
1070
     1
1071
      201
1005
128762
  0
LINE
  5
128763
  8
CENTER
 10
3155.0
 20
-793.99999999999432
 30
0.0
 11
3041.344919913005
 21
-794.0000000000598
 31
0.0
1001
ACDBBLOCKREPETAG
1070
     1
1071
      202
1005
128763
  0
LINE
  5
128764
  8
OBJECT
 10
3133.0
 20
-741.99999999999432
 30
0.0
 11
3097.0
 21
-741.9999999999942
 31
0.0
1001
ACDBBLOCKREPETAG
1070
     1
1071
      203
1005
128764
  0
LINE
  5
128765
  8
OBJECT
 10
3097.0
 20
-741.9999999999942
 30
0.0
 11
3097.0
 21
-845.99999999999443
 31
0.0
1001
ACDBBLOCKREPETAG
1070
     1
1071
      204
1005
128765
  0
LINE
  5
128766
  8
OBJECT
 10
3097.0
 20
-845.99999999999443
 30
0.0
 11
3140.0
 21
-845.99999999999443
 31
0.0
1001
ACDBBLOCKREPETAG
1070
     1
1071
      205
1005
128766
  0
LINE
  5
128767
  8
OBJECT
 10
3093.0
 20
-746.4999999999942
 30
0.0
 11
3084.5
 21
-746.4999999999942
 31
0.0
1001
ACDBBLOCKREPETAG
1070
     1
1071
      206
1005
128767
  0
LINE
  5
128768
  8
OBJECT
 10
3084.5
 20
-841.49999999999443
 30
0.0
 11
3093.0
 21
-841.49999999999443
 31
0.0
1001
ACDBBLOCKREPETAG
1070
     1
1071
      207
1005
128768
  0
LINE
  5
128769
  8
OBJECT
 10
3093.0
 20
-841.49999999999443
 30
0.0
 11
3093.0
 21
-746.4999999999942
 31
0.0
1001
ACDBBLOCKREPETAG
1070
     1
1071
      208
1005
128769
  0
LINE
  5
12876A
  8
OBJECT
 10
3097.0
 20
-741.9999999999942
 30
0.0
 11
3093.0
 21
-746.4999999999942
 31
0.0
1001
ACDBBLOCKREPETAG
1070
     1
1071
      209
1005
12876A
  0
LINE
  5
12876B
  8
OBJECT
 10
3097.0
 20
-845.99999999999443
 30
0.0
 11
3093.0
 21
-841.49999999999443
 31
0.0
1001
ACDBBLOCKREPETAG
1070
     1
1071
       36
1005
12876B
  0
LINE
  5
12876C
  8
HIDDEN
 10
3088.0
 20
-755.99999999999409
 30
0.0
 11
3088.0
 21
-831.99999999999454
 31
0.0
1001
ACDBBLOCKREPETAG
1070
     1
1071
      210
1005
12876C
  0
ARC
  5
12876D
  8
OBJECT
 10
3164.8782728787751
 20
-802.40950726122355
 30
0.0
 40
110.86635228309
 50
144.1634274193047
 51
163.040353804338
1001
ACDBBLOCKREPETAG
1070
     1
1071
      211
1005
12876D
  0
ARC
  5
12876E
  8
OBJECT
 10
3117.1359887769072
 20
-787.28774971844337
 30
0.0
 40
60.791749880358971
 50
163.5472046522205
 51
179.72879698282679
1001
ACDBBLOCKREPETAG
1070
     1
1071
      212
1005
12876E
  0
ARC
  5
12876F
  8
OBJECT
 10
3117.1359956562478
 20
-793.7122497598956
 30
0.0
 40
60.79175676209487
 50
180.2712034781452
 51
196.45277946052761
1001
ACDBBLOCKREPETAG
1070
     1
1071
      213
1005
12876F
  0
ARC
  5
128770
  8
OBJECT
 10
3164.8782728787751
 20
-778.5904927388309
 30
0.0
 40
110.8663522830916
 50
196.95964619566189
 51
215.8365725806953
1001
ACDBBLOCKREPETAG
1070
     1
1071
      214
1005
128770
  0
LINE
  5
128771
  8
OBJECT
 10
3056.344919913005
 20
-787.00000000003081
 30
0.0
 11
3056.344919913005
 21
-794.00000000002683
 31
0.0
1001
ACDBBLOCKREPETAG
1070
     1
1071
      215
1005
128771
  0
LINE
  5
128772
  8
OBJECT
 10
3075.0
 20
-737.50000000005957
 30
0.0
 11
3081.5
 21
-737.50000000005957
 31
0.0
1001
ACDBBLOCKREPETAG
1070
     1
1071
      216
1005
128772
  0
LINE
  5
128773
  8
OBJECT
 10
3075.0
 20
-843.49999999999409
 30
0.0
 11
3084.5
 21
-843.49999999999409
 31
0.0
1001
ACDBBLOCKREPETAG
1070
     1
1071
      217
1005
128773
  0
POINT
  5
128774
  8
DOTS
 10
3000.0
 20
-845.99999999999443
 30
0.0
1001
ACDBBLOCKREPETAG
1070
     1
1071
      219
1005
128774
  0
LINE
  5
128775
  8
OBJECT
 10
2423.0
 20
-570.99999999999432
 30
0.0
 11
2423.0
 21
-549.99999999999432
 31
0.0
1001
ACDBBLOCKREPETAG
1070
     1
1071
        0
1005
128775
  0
LINE
  5
128776
  8
OBJECT
 10
2423.0
 20
-549.99999999999432
 30
0.0
 11
2577.0
 21
-549.99999999999432
 31
0.0
1001
ACDBBLOCKREPETAG
1070
     1
1071
        1
1005
128776
  0
LINE
  5
128777
  8
HIDDEN
 10
2443.0
 20
-619.99999999999432
 30
0.0
 11
2557.0
 21
-619.99999999999432
 31
0.0
1001
ACDBBLOCKREPETAG
1070
     1
1071
        2
1005
128777
  0
LINE
  5
128778
  8
OBJECT
 10
2577.0
 20
-549.99999999999432
 30
0.0
 11
2577.0
 21
-570.99999999999432
 31
0.0
1001
ACDBBLOCKREPETAG
1070
     1
1071
        3
1005
128778
  0
LINE
  5
128779
  8
OBJECT
 10
2577.0
 20
-570.99999999999432
 30
0.0
 11
2423.0
 21
-570.99999999999432
 31
0.0
1001
ACDBBLOCKREPETAG
1070
     1
1071
        4
1005
128779
  0
LINE
  5
12877A
  8
CENTER
 10
2500.0
 20
-534.99999999999432
 30
0.0
 11
2500.0
 21
-889.99999999999409
 31
0.0
1001
ACDBBLOCKREPETAG
1070
     1
1071
        5
1005
12877A
  0
LINE
  5
12877B
  8
OBJECT
 10
2425.0
 20
-633.99999999999432
 30
0.0
 11
2425.0
 21
-877.9999999999942
 31
0.0
1001
ACDBBLOCKREPETAG
1070
     1
1071
        6
1005
12877B
  0
LINE
  5
12877C
  8
OBJECT
 10
2428.0
 20
-570.99999999999432
 30
0.0
 11
2428.0
 21
-633.99999999999432
 31
0.0
1001
ACDBBLOCKREPETAG
1070
     1
1071
        7
1005
12877C
  0
LINE
  5
12877D
  8
OBJECT
 10
2572.0
 20
-633.99999999999432
 30
0.0
 11
2572.0
 21
-570.99999999999432
 31
0.0
1001
ACDBBLOCKREPETAG
1070
     1
1071
        8
1005
12877D
  0
LINE
  5
12877E
  8
OBJECT
 10
2420.0
 20
-877.9999999999942
 30
0.0
 11
2580.0
 21
-877.9999999999942
 31
0.0
1001
ACDBBLOCKREPETAG
1070
     1
1071
        9
1005
12877E
  0
LINE
  5
12877F
  8
OBJECT
 10
2580.0
 20
-633.99999999999432
 30
0.0
 11
2425.0
 21
-633.99999999999432
 31
0.0
1001
ACDBBLOCKREPETAG
1070
     1
1071
       10
1005
12877F
  0
LINE
  5
128780
  8
OBJECT
 10
2420.0
 20
-877.9999999999942
 30
0.0
 11
2420.0
 21
-889.99999999999409
 31
0.0
1001
ACDBBLOCKREPETAG
1070
     1
1071
       11
1005
128780
  0
LINE
  5
128781
  8
OBJECT
 10
2420.0
 20
-889.99999999999409
 30
0.0
 11
2580.0
 21
-889.99999999999409
 31
0.0
1001
ACDBBLOCKREPETAG
1070
     1
1071
       12
1005
128781
  0
LINE
  5
128782
  8
OBJECT
 10
2580.0
 20
-889.99999999999409
 30
0.0
 11
2580.0
 21
-877.9999999999942
 31
0.0
1001
ACDBBLOCKREPETAG
1070
     1
1071
       13
1005
128782
  0
LINE
  5
128783
  8
OBJECT
 10
2574.9999999998622
 20
-757.99999999984493
 30
0.0
 11
2575.0
 21
-877.9999999999942
 31
0.0
1001
ACDBBLOCKREPETAG
1070
     1
1071
       15
1005
128783
  0
LINE
  5
128784
  8
OBJECT
 10
2574.9999908029849
 20
-757.99998602701612
 30
0.0
 11
2580.0
 21
-757.99998602701612
 31
0.0
1001
ACDBBLOCKREPETAG
1070
     1
1071
       16
1005
128784
  0
ARC
  5
128785
  8
OBJECT
 10
2700.6872746716731
 20
-749.40809941010195
 30
0.0
 40
170.6350503965856
 50
137.44134459184301
 51
149.91949581337221
1001
ACDBBLOCKREPETAG
1070
     1
1071
       17
1005
128785
  0
ARC
  5
128786
  8
OBJECT
 10
2618.8455987040511
 20
-705.88272669535922
 30
0.0
 40
78.072222021763665
 50
147.4551531038623
 51
164.6636599771798
1001
ACDBBLOCKREPETAG
1070
     1
1071
       18
1005
128786
  0
ARC
  5
128787
  8
OBJECT
 10
2585.7554349608731
 20
-695.99999999999432
 30
0.0
 40
43.55353926885617
 50
165.6884523007466
 51
194.3115476992534
1001
ACDBBLOCKREPETAG
1070
     1
1071
       19
1005
128787
  0
ARC
  5
128788
  8
OBJECT
 10
2700.6872746716731
 20
-642.59190058988645
 30
0.0
 40
170.6350503965856
 50
210.08050418662771
 51
222.55865540815699
1001
ACDBBLOCKREPETAG
1070
     1
1071
       20
1005
128788
  0
ARC
  5
128789
  8
OBJECT
 10
2618.8455987040511
 20
-686.11727330462952
 30
0.0
 40
78.072222021763665
 50
195.3363400228202
 51
212.5448468961377
1001
ACDBBLOCKREPETAG
1070
     1
1071
       21
1005
128789
  0
CIRCLE
  5
12878A
  8
HIDDEN
 10
2500.0
 20
-793.99999999999409
 30
0.0
 40
35.5
1001
ACDBBLOCKREPETAG
1070
     1
1071
      192
1005
12878A
  0
LINE
  5
12878B
  8
CENTER
 10
2430.0
 20
-793.99999999999409
 30
0.0
 11
2570.0
 21
-793.99999999999409
 31
0.0
1001
ACDBBLOCKREPETAG
1070
     1
1071
      193
1005
12878B
  0
CIRCLE
  5
12878C
  8
HIDDEN
 10
2500.0
 20
-793.99999999999409
 30
0.0
 40
47.0
1001
ACDBBLOCKREPETAG
1070
     1
1071
       14
1005
12878C
  0
ARC
  5
12878D
  8
HIDDEN
 10
2500.0
 20
-793.99999999999409
 30
0.0
 40
55.0
 50
289.0112652600846
 51
250.98873473991529
1001
ACDBBLOCKREPETAG
1070
     1
1071
      194
1005
12878D
  0
LINE
  5
12878E
  8
HIDDEN
 10
2482.0835271328328
 20
-845.99999999999443
 30
0.0
 11
2517.9164728671681
 21
-845.99999999999443
 31
0.0
1001
ACDBBLOCKREPETAG
1070
     1
1071
      195
1005
12878E
  0
POINT
  5
12878F
  8
DOTS
 10
2500.0
 20
-845.99999999999443
 30
0.0
1001
ACDBBLOCKREPETAG
1070
     1
1071
      196
1005
12878F
  0
LINE
  5
128790
  8
CENTER
 10
3077.0
 20
-695.99999999999432
 30
0.0
 11
2923.0
 21
-695.99999999999432
 31
0.0
1001
ACDBBLOCKREPETAG
1070
     1
1071
       17
1005
128790
  0
CIRCLE
  5
128791
  8
OBJECT
 10
3000.0
 20
-695.99999999999432
 30
0.0
 40
41.5
1001
ACDBBLOCKREPETAG
1070
     1
1071
       19
1005
128791
  0
CIRCLE
  5
128792
  8
OBJECT
 10
3000.0
 20
-695.99999999999432
 30
0.0
 40
54.0
1001
ACDBBLOCKREPETAG
1070
     1
1071
       20
1005
128792
  0
ARC
  5
128793
  8
OBJECT
 10
3000.0
 20
-695.99999999999432
 30
0.0
 40
62.0
 50
287.89655112920718
 51
252.10344887079279
1001
ACDBBLOCKREPETAG
1070
     1
1071
       21
1005
128793
  0
LINE
  5
128794
  8
OBJECT
 10
2980.947441116743
 20
-754.9999999999942
 30
0.0
 11
3019.052558883257
 21
-754.9999999999942
 31
0.0
1001
ACDBBLOCKREPETAG
1070
     1
1071
       22
1005
128794
  0
LINE
  5
128795
  8
OBJECT
 10
2633.0
 20
-634.0
 30
0.0
 11
2640.0
 21
-634.0
 31
0.0
1001
ACDBBLOCKREPETAG
1070
     1
1071
       45
1005
128795
  0
LINE
  5
128796
  8
OBJECT
 10
2640.0
 20
-634.0
 30
0.0
 11
2640.0
 21
-755.0
 31
0.0
1001
ACDBBLOCKREPETAG
1070
     1
1071
       46
1005
128796
  0
LINE
  5
128797
  8
OBJECT
 10
2633.0
 20
-755.0
 30
0.0
 11
2633.0
 21
-634.0
 31
0.0
1001
ACDBBLOCKREPETAG
1070
     1
1071
       47
1005
128797
  0
LINE
  5
128798
  8
CENTER
 10
2655.0
 20
-696.0
 30
0.0
 11
2571.0
 21
-696.0
 31
0.0
1001
ACDBBLOCKREPETAG
1070
     1
1071
       48
1005
128798
  0
LINE
  5
128799
  8
OBJECT
 10
2633.0
 20
-637.0
 30
0.0
 11
2597.0
 21
-637.0
 31
0.0
1001
ACDBBLOCKREPETAG
1070
     1
1071
       49
1005
128799
  0
LINE
  5
12879A
  8
OBJECT
 10
2597.0
 20
-637.0
 30
0.0
 11
2597.0
 21
-755.0
 31
0.0
1001
ACDBBLOCKREPETAG
1070
     1
1071
       50
1005
12879A
  0
LINE
  5
12879B
  8
OBJECT
 10
2597.0
 20
-755.0
 30
0.0
 11
2640.0
 21
-755.0
 31
0.0
1001
ACDBBLOCKREPETAG
1070
     1
1071
       51
1005
12879B
  0
LINE
  5
12879C
  8
OBJECT
 10
2593.0
 20
-641.5
 30
0.0
 11
2586.0
 21
-641.5
 31
0.0
1001
ACDBBLOCKREPETAG
1070
     1
1071
       52
1005
12879C
  0
LINE
  5
12879D
  8
OBJECT
 10
2586.0
 20
-750.49999999999989
 30
0.0
 11
2593.0
 21
-750.49999999999989
 31
0.0
1001
ACDBBLOCKREPETAG
1070
     1
1071
       53
1005
12879D
  0
LINE
  5
12879E
  8
OBJECT
 10
2593.0
 20
-750.49999999999989
 30
0.0
 11
2593.0
 21
-641.5
 31
0.0
1001
ACDBBLOCKREPETAG
1070
     1
1071
       54
1005
12879E
  0
LINE
  5
12879F
  8
OBJECT
 10
2597.0
 20
-637.0
 30
0.0
 11
2593.0
 21
-641.5
 31
0.0
1001
ACDBBLOCKREPETAG
1070
     1
1071
       55
1005
12879F
  0
LINE
  5
1287A0
  8
OBJECT
 10
2597.0
 20
-755.0
 30
0.0
 11
2593.0
 21
-750.49999999999989
 31
0.0
1001
ACDBBLOCKREPETAG
1070
     1
1071
       56
1005
1287A0
  0
LINE
  5
1287A1
  8
OBJECT
 10
2583.0
 20
-634.0
 30
0.0
 11
2580.0
 21
-634.0
 31
0.0
1001
ACDBBLOCKREPETAG
1070
     1
1071
       57
1005
1287A1
  0
ARC
  5
1287A2
  8
OBJECT
 10
2583.0
 20
-637.0
 30
0.0
 40
3.0
 50
0.0
 51
90.0
1001
ACDBBLOCKREPETAG
1070
     1
1071
       58
1005
1287A2
  0
LINE
  5
1287A3
  8
OBJECT
 10
2580.0
 20
-758.0
 30
0.0
 11
2583.0
 21
-758.0
 31
0.0
1001
ACDBBLOCKREPETAG
1070
     1
1071
       59
1005
1287A3
  0
ARC
  5
1287A4
  8
OBJECT
 10
2583.0
 20
-755.0
 30
0.0
 40
3.0
 50
270.0
 51
0.0
1001
ACDBBLOCKREPETAG
1070
     1
1071
       60
1005
1287A4
  0
LINE
  5
1287A5
  8
OBJECT
 10
2586.0
 20
-755.0
 30
0.0
 11
2586.0
 21
-637.0
 31
0.0
1001
ACDBBLOCKREPETAG
1070
     1
1071
       61
1005
1287A5
  0
LINE
  5
1287A6
  8
HIDDEN
 10
2588.0
 20
-651.5
 30
0.0
 11
2588.0
 21
-740.5
 31
0.0
1001
ACDBBLOCKREPETAG
1070
     1
1071
       63
1005
1287A6
  0
TEXT
  5
1287A7
  8
SLIM
 10
2337.75
 20
282.50000000000011
 30
0.0
 40
35.0
  1
（枝管サイズ毎に寸法が異なります。管底の位置は全サイズで同じです）
 41
0.75
  0
TEXT
  5
1287A8
  8
SLIM
 10
2350.0
 20
532.5
 30
0.0
 40
75.0
  1
側面図の代表機種
 41
0.75
  0
TEXT
  5
1287A9
  8
SLIM
 10
2350.0
 20
369.99999999999989
 30
0.0
 40
100.0
  1
4SRTG-A3-A0002-P150
 41
0.75
  0
TEXT
  5
1287AA
  8
SLIM
 10
4241.6249999999991
 20
-1467.499999999998
 30
0.0
 40
35.0
  1
片受けスタイル（S）＋シンドカット
 41
0.75
  0
TEXT
  5
1287AB
  8
SLIM
 10
2356.25
 20
-1467.499999999998
 30
0.0
 40
35.0
  1
片受けスタイル（S）
 41
0.75
  0
TEXT
  5
1287AC
  8
SLIM
 10
0.0
 20
370.0
 30
0.0
 40
100.0
  1
4SRTG-A3-A000X-PXXX-S
 41
0.75
  0
VIEWPORT
  5
F6BA7
 67
     1
  8
0
 10
145.33033752441401
 20
101.8328354358673
 30
0.0
 40
334.0025019414623
 41
222.19657968139651
 68
     1
 69
     1
1001
ACAD
1000
MVIEW
1002
{
1070
    16
1010
0.0
1020
0.0
1030
0.0
1010
0.0
1020
0.0
1030
1.0
1040
0.0
1040
222.19657968139651
1040
145.33033752441401
1040
101.8328354358673
1040
50.0
1040
0.0
1040
0.0
1070
     0
1070
     0
1070
     1
1070
     1
1070
     0
1070
     0
1070
     0
1070
     0
1040
0.0
1040
0.0
1040
0.0
1040
10.0
1040
10.0
1040
10.0
1040
10.0
1070
     0
1002
{
1002
}
1002
}
  0
VIEWPORT
  5
F6BA9
 67
     1
  8
OBJECT
 10
145.3303314447403
 20
101.8328338861465
 30
0.0
 40
232.5285303115844
 41
162.93253421783439
 68
     2
 69
     2
1001
ACAD
1000
MVIEW
1002
{
1070
    16
1010
0.0
1020
0.0
1030
0.0
1010
0.0
1020
0.0
1030
1.0
1040
0.0
1040
25942.55904403147
1040
2377.604457077377
1040
-7591.5176687056619
1040
50.0
1040
0.0
1040
0.0
1070
     0
1070
   600
1070
     1
1070
     1
1070
     0
1070
     0
1070
     0
1070
     0
1040
0.0
1040
0.0
1040
0.0
1040
1.0
1040
1.0
1040
0.0
1040
0.0
1070
     0
1002
{
1002
}
1002
}
  0
ENDSEC
  0
EOF
