  0
SECTION
  2
HEADER
  9
$ACADVER
  1
AC1009
  9
$INSBASE
 10
0.0
 20
0.0
 30
0.0
  9
$EXTMIN
 10
0.0
 20
-3587.4999999999968
 30
0.0
  9
$EXTMAX
 10
5575.0
 20
607.5
 30
0.0
  9
$LIMMIN
 10
0.0
 20
0.0
  9
$LIMMAX
 10
210.0
 20
297.0
  9
$ORTHOMODE
 70
     0
  9
$REGENMODE
 70
     1
  9
$FILLMODE
 70
     1
  9
$QTEXTMODE
 70
     0
  9
$MIRRTEXT
 70
     0
  9
$DRAGMODE
 70
     2
  9
$LTSCALE
 40
1.0
  9
$OSMODE
 70
   109
  9
$ATTMODE
 70
     1
  9
$TEXTSIZE
 40
4.0
  9
$TRACEWID
 40
0.05
  9
$TEXTSTYLE
  7
STANDARD
  9
$CLAYER
  8
OBJECT
  9
$CELTYPE
  6
BYLAYER
  9
$CECOLOR
 62
   256
  9
$DIMSCALE
 40
10.0
  9
$DIMASZ
 40
2.0
  9
$DIMEXO
 40
1.0
  9
$DIMDLI
 40
10.0
  9
$DIMRND
 40
0.0
  9
$DIMDLE
 40
0.0
  9
$DIMEXE
 40
1.0
  9
$DIMTP
 40
0.0
  9
$DIMTM
 40
0.0
  9
$DIMTXT
 40
3.2000000000000002
  9
$DIMCEN
 40
0.0
  9
$DIMTSZ
 40
0.0
  9
$DIMTOL
 70
     0
  9
$DIMLIM
 70
     0
  9
$DIMTIH
 70
     0
  9
$DIMTOH
 70
     0
  9
$DIMSE1
 70
     0
  9
$DIMSE2
 70
     0
  9
$DIMTAD
 70
     1
  9
$DIMZIN
 70
     8
  9
$DIMBLK
  1
OPEN30
  9
$DIMASO
 70
     1
  9
$DIMSHO
 70
     1
  9
$DIMPOST
  1

  9
$DIMAPOST
  1

  9
$DIMALT
 70
     0
  9
$DIMALTD
 70
     2
  9
$DIMALTF
 40
25.399999999999999
  9
$DIMLFAC
 40
1.0
  9
$DIMTOFL
 70
     1
  9
$DIMTVP
 40
0.0
  9
$DIMTIX
 70
     0
  9
$DIMSOXD
 70
     0
  9
$DIMSAH
 70
     0
  9
$DIMBLK1
  1

  9
$DIMBLK2
  1

  9
$DIMSTYLE
  2
S10
  9
$DIMCLRD
 70
   256
  9
$DIMCLRE
 70
   256
  9
$DIMCLRT
 70
   256
  9
$DIMTFAC
 40
1.0
  9
$DIMGAP
 40
0.9
  9
$LUNITS
 70
     2
  9
$LUPREC
 70
     2
  9
$SKETCHINC
 40
0.1
  9
$FILLETRAD
 40
0.0
  9
$AUNITS
 70
     0
  9
$AUPREC
 70
     2
  9
$MENU
  1
ACAD
  9
$ELEVATION
 40
0.0
  9
$PELEVATION
 40
0.0
  9
$THICKNESS
 40
0.0
  9
$LIMCHECK
 70
     0
  9
$BLIPMODE
 70
     0
  9
$CHAMFERA
 40
2.0
  9
$CHAMFERB
 40
2.0
  9
$SKPOLY
 70
     0
  9
$TDCREATE
 40
2453095.4929404748
  9
$TDUPDATE
 40
2457304.7292061108
  9
$TDINDWG
 40
19.119652523100001
  9
$TDUSRTIMER
 40
19.119651620399999
  9
$USRTIMER
 70
     1
  9
$ANGBASE
 50
0.0
  9
$ANGDIR
 70
     0
  9
$PDMODE
 70
    35
  9
$PDSIZE
 40
2.0
  9
$PLINEWID
 40
0.0
  9
$COORDS
 70
     1
  9
$SPLFRAME
 70
     0
  9
$SPLINETYPE
 70
     6
  9
$SPLINESEGS
 70
     8
  9
$ATTDIA
 70
     0
  9
$ATTREQ
 70
     1
  9
$HANDLING
 70
     1
  9
$HANDSEED
  5
122991
  9
$SURFTAB1
 70
     6
  9
$SURFTAB2
 70
     6
  9
$SURFTYPE
 70
     6
  9
$SURFU
 70
     6
  9
$SURFV
 70
     6
  9
$UCSNAME
  2

  9
$UCSORG
 10
0.0
 20
0.0
 30
0.0
  9
$UCSXDIR
 10
1.0
 20
0.0
 30
0.0
  9
$UCSYDIR
 10
0.0
 20
1.0
 30
0.0
  9
$PUCSNAME
  2

  9
$PUCSORG
 10
0.0
 20
0.0
 30
0.0
  9
$PUCSXDIR
 10
1.0
 20
0.0
 30
0.0
  9
$PUCSYDIR
 10
0.0
 20
1.0
 30
0.0
  9
$USERI1
 70
     0
  9
$USERI2
 70
     0
  9
$USERI3
 70
     0
  9
$USERI4
 70
     0
  9
$USERI5
 70
     0
  9
$USERR1
 40
0.0
  9
$USERR2
 40
0.0
  9
$USERR3
 40
0.0
  9
$USERR4
 40
0.0
  9
$USERR5
 40
0.0
  9
$WORLDVIEW
 70
     1
  9
$SHADEDGE
 70
     3
  9
$SHADEDIF
 70
    70
  9
$TILEMODE
 70
     1
  9
$MAXACTVP
 70
    64
  9
$PLIMCHECK
 70
     0
  9
$PEXTMIN
 10
29.066066288948051
 20
20.366566777229309
 30
0.0
  9
$PEXTMAX
 10
261.5945966005325
 20
183.29910099506381
 30
0.0
  9
$PLIMMIN
 10
-3.17498779296875
 20
-3.1749999523162842
  9
$PLIMMAX
 10
293.83566284179687
 20
206.8406708240509
  9
$UNITMODE
 70
     0
  9
$VISRETAIN
 70
     1
  9
$PLINEGEN
 70
     0
  9
$PSLTSCALE
 70
     1
  0
ENDSEC
  0
SECTION
  2
TABLES
  0
TABLE
  2
VPORT
 70
     1
  0
VPORT
  2
*ACTIVE
 70
     0
 10
0.0
 20
0.0
 11
1.0
 21
1.0
 12
3443.3449189898552
 22
-1144.543072723136
 13
0.0
 23
0.0
 14
1.0
 24
1.0
 15
0.0
 25
0.0
 16
0.0
 26
0.0
 36
1.0
 17
0.0
 27
0.0
 37
0.0
 40
2596.1212658342702
 41
1.6494178525226391
 42
50.0
 43
0.0
 44
0.0
 50
0.0
 51
0.0
 71
     0
 72
   600
 73
     1
 74
     1
 75
     0
 76
     0
 77
     0
 78
     0
  0
ENDTAB
  0
TABLE
  2
LTYPE
 70
     4
  0
LTYPE
  2
CONTINUOUS
 70
     0
  3
Solid line
 72
    65
 73
     0
 40
0.0
  0
LTYPE
  2
PHANTOM2
 70
     0
  3
___ _ _ ___ _ _ ___ _ _ ___ _ _
 72
    65
 73
     6
 40
1.25
 49
0.625
 49
-0.125
 49
0.125
 49
-0.125
 49
0.125
 49
-0.125
  0
LTYPE
  2
ACAD_ISO08W100
 70
     0
  3
ISO long-dash short-dash ____ __ ____ __ ____ _
 72
    65
 73
     4
 40
36.0
 49
24.0
 49
-3.0
 49
6.0
 49
-3.0
  0
LTYPE
  2
ACAD_ISO02W100
 70
     0
  3
ISO dash __ __ __ __ __ __ __ __ __ __ __ __ __
 72
    65
 73
     2
 40
15.0
 49
12.0
 49
-3.0
  0
ENDTAB
  0
TABLE
  2
LAYER
 70
     8
  0
LAYER
  2
0
 70
     0
 62
     7
  6
CONTINUOUS
  0
LAYER
  2
OBJECT
 70
     0
 62
     4
  6
CONTINUOUS
  0
LAYER
  2
DEFPOINTS
 70
     0
 62
     7
  6
CONTINUOUS
  0
LAYER
  2
DIM
 70
     0
 62
     7
  6
CONTINUOUS
  0
LAYER
  2
HIDDEN
 70
     0
 62
     2
  6
ACAD_ISO02W100
  0
LAYER
  2
CENTER
 70
     0
 62
     2
  6
ACAD_ISO08W100
  0
LAYER
  2
DOTS
 70
     0
 62
     1
  6
CONTINUOUS
  0
LAYER
  2
SLIM
 70
     0
 62
     2
  6
CONTINUOUS
  0
ENDTAB
  0
TABLE
  2
STYLE
 70
     2
  0
STYLE
  2
STANDARD
 70
     0
 40
0.0
 41
0.75
 50
0.0
 71
     0
 42
4.0
  3
simplex.shx
  4
bigfont.shx
  0
ENDTAB
  0
TABLE
  2
VIEW
 70
     0
  0
ENDTAB
  0
TABLE
  2
UCS
 70
     0
  0
ENDTAB
  0
TABLE
  2
APPID
 70
    18
  0
APPID
  2
ACAD
 70
     0
  0
APPID
  2
ACADANNOTATIVE
 70
     0
  0
APPID
  2
ACAD_PSEXT
 70
     0
  0
APPID
  2
ACAD_EXEMPT_FROM_CAD_STANDARDS
 70
     0
  0
APPID
  2
ACAECLAYERSTANDARD
 70
     0
  0
APPID
  2
ACAUTHENVIRON
 70
     0
  0
APPID
  2
ACDBDYNAMICBLOCKTRUENAME
 70
     0
  0
APPID
  2
ACDBDYNAMICBLOCKGUID
 70
     0
  0
APPID
  2
ACDBBLOCKREPETAG
 70
     0
  0
APPID
  2
ACDBBLOCKREPBTAG
 70
     0
  0
APPID
  2
ACAD_NAV_VCDISPLAY
 70
     0
  0
APPID
  2
ACAD_DSTYLE_DIMRADIAL_EXTENSION
 70
     0
  0
APPID
  2
ACAD_DSTYLE_DIMJAG
 70
     0
  0
APPID
  2
ACAD_DSTYLE_DIMTALN
 70
     0
  0
APPID
  2
ACADANNOPO
 70
     0
  0
APPID
  2
GRADIENTCOLOR1ACI
 70
     0
  0
APPID
  2
GRADIENTCOLOR2ACI
 70
     0
  0
APPID
  2
ACAD_MLEADERVER
 70
     0
  0
ENDTAB
  0
TABLE
  2
DIMSTYLE
 70
     3
  0
DIMSTYLE
  2
STANDARD
 70
     0
  3

  4

  5

  6

  7

 40
1.0
 41
0.18
 42
0.0625
 43
0.38
 44
0.18
 45
0.0
 46
0.0
 47
0.0
 48
0.0
140
0.18
141
0.09
142
0.0
143
25.399999999999999
144
1.0
145
0.0
146
1.0
147
0.09
 71
     0
 72
     0
 73
     1
 74
     1
 75
     0
 76
     0
 77
     0
 78
     0
170
     0
171
     2
172
     0
173
     0
174
     0
175
     0
176
     0
177
     0
178
     0
  0
DIMSTYLE
  2
S10
 70
     0
  3

  4

  5

  6

  7

 40
10.0
 41
2.0
 42
1.0
 43
10.0
 44
1.0
 45
0.0
 46
0.0
 47
0.0
 48
0.0
140
3.2000000000000002
141
0.0
142
0.0
143
25.399999999999999
144
1.0
145
0.0
146
1.0
147
0.9
 71
     0
 72
     0
 73
     0
 74
     0
 75
     0
 76
     0
 77
     1
 78
     8
170
     0
171
     2
172
     1
173
     0
174
     0
175
     0
176
   256
177
   256
178
   256
  0
ENDTAB
  0
ENDSEC
  0
SECTION
  2
BLOCKS
  0
BLOCK
  8
0
  2
$MODEL_SPACE
 70
     0
 10
0.0
 20
0.0
 30
0.0
  3
$MODEL_SPACE
  1

  0
ENDBLK
  5
1228E7
  8
0
  0
BLOCK
 67
     1
  8
0
  2
$PAPER_SPACE
 70
     0
 10
0.0
 20
0.0
 30
0.0
  3
$PAPER_SPACE
  1

  0
ENDBLK
  5
1228E3
 67
     1
  8
0
  0
BLOCK
  8
0
  2
_OPEN30
 70
     0
 10
0.0
 20
0.0
 30
0.0
  3
_OPEN30
  1

  0
LINE
  5
202
  8
0
  6
BYBLOCK
 62
     0
 10
-1.0
 20
0.26794919
 30
0.0
 11
0.0
 21
0.0
 31
0.0
  0
LINE
  5
203
  8
0
  6
BYBLOCK
 62
     0
 10
0.0
 20
0.0
 30
0.0
 11
-1.0
 21
-0.26794919
 31
0.0
  0
LINE
  5
204
  8
0
  6
BYBLOCK
 62
     0
 10
0.0
 20
0.0
 30
0.0
 11
-1.0
 21
0.0
 31
0.0
  0
ENDBLK
  5
206
  8
0
  0
BLOCK
  8
0
  2
*X3
 70
     1
 10
0.0
 20
0.0
 30
0.0
  3
*X3
  1

  0
LINE
  5
1226B7
  8
0
 62
     0
 10
4044.9012806053461
 20
-129.28048304657929
 30
0.0
 11
4041.364797757567
 21
-125.74400019880041
 31
0.0
  0
LINE
  5
1226B8
  8
0
 62
     0
 10
4053.6207975587658
 20
-137.99999999999881
 30
0.0
 11
4049.3914086658801
 21
-133.77061110711381
 31
0.0
  0
LINE
  5
1226B9
  8
0
 62
     0
 10
4026.9407683632062
 20
-120.3002269255103
 30
0.0
 11
4025.5813318337941
 21
-118.9407903960974
 31
0.0
  0
LINE
  5
1226BA
  8
0
 62
     0
 10
4035.9210244842761
 20
-129.28048304657941
 30
0.0
 11
4031.4308964237398
 21
-124.7903549860448
 31
0.0
  0
LINE
  5
1226BB
  8
0
 62
     0
 10
4044.6405414376959
 20
-137.99999999999881
 30
0.0
 11
4040.4111525448111
 21
-133.77061110711401
 31
0.0
  0
LINE
  5
1226BC
  8
0
 62
     0
 10
4017.9605122421381
 20
-120.3002269255104
 30
0.0
 11
4013.785639980023
 21
-116.1253546633947
 31
0.0
  0
LINE
  5
1226BD
  8
0
 62
     0
 10
4026.9407683632062
 20
-129.28048304657941
 30
0.0
 11
4022.450640302673
 21
-124.790354986045
 31
0.0
  0
LINE
  5
1226BE
  8
0
 62
     0
 10
4008.980256121069
 20
-120.3002269255104
 30
0.0
 11
4004.490128060535
 21
-115.8100988649758
 31
0.0
  0
LINE
  5
1226BF
  8
0
 62
     0
 10
4015.2459755954542
 20
-126.56594639989611
 30
0.0
 11
4013.470384181604
 21
-124.790354986045
 31
0.0
  0
LINE
  5
1226C0
  8
0
 62
     0
 10
4000.0
 20
-120.3002269255102
 30
0.0
 11
3995.5098719394659
 21
-115.8100988649757
 31
0.0
  0
LINE
  5
1226C1
  8
0
 62
     0
 10
4004.857222406476
 20
-125.1574493319865
 30
0.0
 11
4004.4901280605341
 21
-124.7903549860449
 31
0.0
  0
LINE
  5
1226C2
  8
0
 62
     0
 10
3991.0197438789319
 20
-120.3002269255101
 30
0.0
 11
3986.7574181990171
 21
-116.03790124559499
 31
0.0
  0
LINE
  5
1226C3
  8
0
 62
     0
 10
3995.8352410164198
 20
-125.1157240629995
 30
0.0
 11
3995.5098719394659
 21
-124.7903549860446
 31
0.0
  0
LINE
  5
1226C4
  8
0
 62
     0
 10
3982.039487757861
 20
-120.3002269255105
 30
0.0
 11
3979.2986509997559
 21
-117.5593901674046
 31
0.0
  0
LINE
  5
1226C5
  8
0
 62
     0
 10
3987.7469459221788
 20
-126.0076850898276
 30
0.0
 11
3986.5296158183978
 21
-124.7903549860451
 31
0.0
  0
LINE
  5
1226C6
  8
0
 62
     0
 10
3973.059231636792
 20
-120.3002269255101
 30
0.0
 11
3972.3737447415801
 21
-119.6147400302971
 31
0.0
  0
LINE
  5
1226C7
  8
0
 62
     0
 10
3980.3727435536048
 20
-127.61373884232211
 30
0.0
 11
3977.5493596973279
 21
-124.7903549860447
 31
0.0
  0
LINE
  5
1226C8
  8
0
 62
     0
 10
3973.0592316367929
 20
-129.28048304657941
 30
0.0
 11
3968.5691035762588
 21
-124.7903549860449
 31
0.0
  0
LINE
  5
1226C9
  8
0
 62
     0
 10
3964.0789755157239
 20
-129.28048304657949
 30
0.0
 11
3959.8686784425822
 21
-125.0701859734376
 31
0.0
  0
LINE
  5
1226CA
  8
0
 62
     0
 10
3955.098719394653
 20
-129.28048304657929
 30
0.0
 11
3954.207715567552
 21
-128.38947921947619
 31
0.0
  0
LINE
  5
1226CB
  8
0
 62
     0
 10
3961.4712462510188
 20
-135.65300990294469
 30
0.0
 11
3959.5888474551889
 21
-133.77061110711381
 31
0.0
  0
LINE
  5
1226CC
  8
0
 62
     0
 10
3955.098719394653
 20
-138.2607391676483
 30
0.0
 11
3950.6085913341199
 21
-133.77061110711369
 31
0.0
  0
LINE
  5
1226CD
  8
0
 62
     0
 10
3946.1184632735858
 20
-138.26073916764861
 30
0.0
 11
3943.953333351933
 21
-136.09560924599609
 31
0.0
  0
LINE
  5
1226CE
  8
0
 62
     0
 10
3951.0415852941028
 20
-143.18386118816659
 30
0.0
 11
3950.6085913341199
 21
-142.7508672281831
 31
0.0
  0
LINE
  5
1226CF
  8
0
 62
     0
 10
3946.1184632735858
 20
-147.2409952887179
 30
0.0
 11
3941.6283352130508
 21
-142.7508672281833
 31
0.0
  0
LINE
  5
1226D0
  8
0
 62
     0
 10
3937.1382071525159
 20
-147.24099528871739
 30
0.0
 11
3935.0571756770728
 21
-145.15996381327381
 31
0.0
  0
LINE
  5
1226D1
  8
0
 62
     0
 10
3942.156718127344
 20
-152.25950626354521
 30
0.0
 11
3941.6283352130508
 21
-151.7311233492519
 31
0.0
  0
LINE
  5
1226D2
  8
0
 62
     0
 10
4053.8815367264142
 20
-263.9843248626164
 30
0.0
 11
4051.8972118637971
 21
-261.99999999999892
 31
0.0
  0
LINE
  5
1226D3
  8
0
 62
     0
 10
3937.1382071525159
 20
-156.22125140978679
 30
0.0
 11
3932.6480790919818
 21
-151.73112334925219
 31
0.0
  0
LINE
  5
1226D4
  8
0
 62
     0
 10
4044.9012806053461
 20
-263.98432486261618
 30
0.0
 11
4042.9169557427281
 21
-261.99999999999881
 31
0.0
  0
LINE
  5
1226D5
  8
0
 62
     0
 10
4049.800363209366
 20
-268.88340746663852
 30
0.0
 11
4049.3914086658801
 21
-268.47445292315081
 31
0.0
  0
LINE
  5
1226D6
  8
0
 62
     0
 10
3928.1579510314468
 20
-156.22125140978699
 30
0.0
 11
3927.5251056078532
 21
-155.58840598619329
 31
0.0
  0
LINE
  5
1226D7
  8
0
 62
     0
 10
3934.825287788999
 20
-162.88858816733961
 30
0.0
 11
3932.6480790919818
 21
-160.71137947032159
 31
0.0
  0
LINE
  5
1226D8
  8
0
 62
     0
 10
4044.4115940138049
 20
-272.4748943921461
 30
0.0
 11
4040.4111525448111
 21
-268.4744529231512
 31
0.0
  0
LINE
  5
1226D9
  8
0
 62
     0
 10
3928.1579510314468
 20
-165.20150753085591
 30
0.0
 11
3924.2991719989341
 21
-161.3427284983421
 31
0.0
  0
LINE
  5
1226DA
  8
0
 62
     0
 10
4035.9210244842761
 20
-272.96458098368601
 30
0.0
 11
4031.4308964237398
 21
-268.47445292315138
 31
0.0
  0
LINE
  5
1226DB
  8
0
 62
     0
 10
3928.1579510314468
 20
-174.181763651925
 30
0.0
 11
3923.6678229709119
 21
-169.69163559139051
 31
0.0
  0
LINE
  5
1226DC
  8
0
 62
     0
 10
4026.9407683632062
 20
-272.96458098368612
 30
0.0
 11
4024.768342412101
 21
-270.79215503257979
 31
0.0
  0
LINE
  5
1226DD
  8
0
 62
     0
 10
4032.5124322087249
 20
-278.53624482920497
 30
0.0
 11
4031.4308964237398
 21
-277.45470904422058
 31
0.0
  0
LINE
  5
1226DE
  8
0
 62
     0
 10
3919.1776949103769
 20
-174.18176365192531
 30
0.0
 11
3919.0551166644791
 21
-174.05918540602639
 31
0.0
  0
LINE
  5
1226DF
  8
0
 62
     0
 10
3927.1533065670092
 20
-182.1573753085558
 30
0.0
 11
3923.6678229709119
 21
-178.67189171245991
 31
0.0
  0
LINE
  5
1226E0
  8
0
 62
     0
 10
4017.9605122421381
 20
-272.96458098368629
 30
0.0
 11
4017.8426246914419
 21
-272.84669343299117
 31
0.0
  0
LINE
  5
1226E1
  8
0
 62
     0
 10
4025.9408145939719
 20
-280.94488333552027
 30
0.0
 11
4022.450640302673
 21
-277.45470904422081
 31
0.0
  0
LINE
  5
1226E2
  8
0
 62
     0
 10
3919.1776949103769
 20
-183.1620197729942
 30
0.0
 11
3917.1256054736991
 21
-181.10993033631479
 31
0.0
  0
LINE
  5
1226E3
  8
0
 62
     0
 10
3925.711247363703
 20
-189.6955722263192
 30
0.0
 11
3923.6678229709119
 21
-187.6521478335288
 31
0.0
  0
LINE
  5
1226E4
  8
0
 62
     0
 10
4017.9605122421381
 20
-281.94483710475532
 30
0.0
 11
4013.470384181604
 21
-277.45470904422069
 31
0.0
  0
LINE
  5
1226E5
  8
0
 62
     0
 10
3919.1776949103769
 20
-192.1422758940634
 30
0.0
 11
3915.7522148444491
 21
-188.71679582813411
 31
0.0
  0
LINE
  5
1226E6
  8
0
 62
     0
 10
3925.0268991702492
 20
-197.99148015393521
 30
0.0
 11
3923.6678229709119
 21
-196.63240395459809
 31
0.0
  0
LINE
  5
1226E7
  8
0
 62
     0
 10
4008.980256121069
 20
-281.94483710475549
 30
0.0
 11
4004.490128060535
 21
-277.45470904422081
 31
0.0
  0
LINE
  5
1226E8
  8
0
 62
     0
 10
3919.1776949103769
 20
-201.12253201513241
 30
0.0
 11
3918.0551628952448
 21
-199.99999999999881
 31
0.0
  0
LINE
  5
1226E9
  8
0
 62
     0
 10
3925.3562150071471
 20
-207.30105211190201
 30
0.0
 11
3923.6678229709119
 21
-205.61266007566701
 31
0.0
  0
LINE
  5
1226EA
  8
0
 62
     0
 10
4000.0
 20
-281.94483710475492
 30
0.0
 11
3995.5098719394659
 21
-277.45470904422041
 31
0.0
  0
LINE
  5
1226EB
  8
0
 62
     0
 10
3918.0551628952448
 20
-199.99999999999881
 30
0.0
 11
3915.0530329227231
 21
-196.99787002747709
 31
0.0
  0
LINE
  5
1226EC
  8
0
 62
     0
 10
3919.1776949103769
 20
-210.1027881362015
 30
0.0
 11
3915.2226107005299
 21
-206.14770392635421
 31
0.0
  0
LINE
  5
1226ED
  8
0
 62
     0
 10
3927.230735249077
 20
-218.1558284749012
 30
0.0
 11
3923.6678229709119
 21
-214.5929161967361
 31
0.0
  0
LINE
  5
1226EE
  8
0
 62
     0
 10
3982.039487757861
 20
-272.96458098368578
 30
0.0
 11
3981.8441715250988
 21
-272.76926475092228
 31
0.0
  0
LINE
  5
1226EF
  8
0
 62
     0
 10
3991.0197438789319
 20
-281.94483710475492
 30
0.0
 11
3986.5296158183978
 21
-277.45470904422041
 31
0.0
  0
LINE
  5
1226F0
  8
0
 62
     0
 10
3919.1776949103769
 20
-219.0830442572709
 30
0.0
 11
3916.6223302933631
 21
-216.52767964025639
 31
0.0
  0
LINE
  5
1226F1
  8
0
 62
     0
 10
3928.1579510314468
 20
-228.0633003783401
 30
0.0
 11
3923.6678229709119
 21
-223.5731723178055
 31
0.0
  0
LINE
  5
1226F2
  8
0
 62
     0
 10
3973.059231636792
 20
-272.96458098368589
 30
0.0
 11
3968.569103576257
 21
-268.47445292315132
 31
0.0
  0
LINE
  5
1226F3
  8
0
 62
     0
 10
3982.039487757861
 20
-281.94483710475492
 30
0.0
 11
3977.5493596973279
 21
-277.45470904422041
 31
0.0
  0
LINE
  5
1226F4
  8
0
 62
     0
 10
3928.1579510314468
 20
-237.04355649940939
 30
0.0
 11
3923.6678229709141
 21
-232.55342843887479
 31
0.0
  0
LINE
  5
1226F5
  8
0
 62
     0
 10
3937.1382071525159
 20
-246.02381262047851
 30
0.0
 11
3932.6480790919818
 21
-241.53368455994391
 31
0.0
  0
LINE
  5
1226F6
  8
0
 62
     0
 10
3946.1184632735858
 20
-255.00406874154771
 30
0.0
 11
3941.6283352130508
 21
-250.51394068101311
 31
0.0
  0
LINE
  5
1226F7
  8
0
 62
     0
 10
3955.0987193946548
 20
-263.9843248626168
 30
0.0
 11
3950.6085913341199
 21
-259.49419680208212
 31
0.0
  0
LINE
  5
1226F8
  8
0
 62
     0
 10
3964.0789755157239
 20
-272.96458098368589
 30
0.0
 11
3959.5888474551889
 21
-268.47445292315138
 31
0.0
  0
LINE
  5
1226F9
  8
0
 62
     0
 10
3971.0224918935851
 20
-279.90809736154699
 30
0.0
 11
3968.569103576257
 21
-277.45470904422041
 31
0.0
  0
LINE
  5
1226FA
  8
0
 62
     0
 10
3937.1382071525159
 20
-255.00406874154751
 30
0.0
 11
3932.6480790919818
 21
-250.51394068101291
 31
0.0
  0
LINE
  5
1226FB
  8
0
 62
     0
 10
3946.1184632735858
 20
-263.98432486261657
 30
0.0
 11
3941.6283352130508
 21
-259.49419680208212
 31
0.0
  0
LINE
  5
1226FC
  8
0
 62
     0
 10
3952.8742563374281
 20
-270.74011792645962
 30
0.0
 11
3950.6085913341199
 21
-268.4744529231512
 31
0.0
  0
LINE
  5
1226FD
  8
0
 62
     0
 10
4043.217482582646
 20
-130.9642810692803
 30
0.0
 11
4038.727354522111
 21
-126.4741530087457
 31
0.0
  0
LINE
  5
1226FE
  8
0
 62
     0
 10
4050.2532015133638
 20
-137.99999999999901
 30
0.0
 11
4047.70761064318
 21
-135.45440912981479
 31
0.0
  0
LINE
  5
1226FF
  8
0
 62
     0
 10
4025.256970340507
 20
-121.9840249482111
 30
0.0
 11
4020.8765200385119
 21
-117.60357464621541
 31
0.0
  0
LINE
  5
122700
  8
0
 62
     0
 10
4034.237226461576
 20
-130.9642810692803
 30
0.0
 11
4029.747098401042
 21
-126.4741530087457
 31
0.0
  0
LINE
  5
122701
  8
0
 62
     0
 10
4039.546200263319
 20
-136.2732548710234
 30
0.0
 11
4038.727354522111
 21
-135.45440912981479
 31
0.0
  0
LINE
  5
122702
  8
0
 62
     0
 10
4016.276714219438
 20
-121.9840249482111
 30
0.0
 11
4011.7865861589039
 21
-117.4938968876765
 31
0.0
  0
LINE
  5
122703
  8
0
 62
     0
 10
4022.8621483857878
 20
-128.56945911456131
 30
0.0
 11
4020.766842279972
 21
-126.4741530087457
 31
0.0
  0
LINE
  5
122704
  8
0
 62
     0
 10
4007.2964580983689
 20
-121.9840249482111
 30
0.0
 11
4002.806330037834
 21
-117.4938968876766
 31
0.0
  0
LINE
  5
122705
  8
0
 62
     0
 10
3998.3162019772999
 20
-121.9840249482109
 30
0.0
 11
3993.8260739167658
 21
-117.4938968876763
 31
0.0
  0
LINE
  5
122706
  8
0
 62
     0
 10
3989.3359458562309
 20
-121.9840249482111
 30
0.0
 11
3984.8458177956959
 21
-117.4938968876765
 31
0.0
  0
LINE
  5
122707
  8
0
 62
     0
 10
3980.3556897351609
 20
-121.9840249482111
 30
0.0
 11
3976.643590459008
 21
-118.2719256720581
 31
0.0
  0
LINE
  5
122708
  8
0
 62
     0
 10
3984.9061848395481
 20
-126.5345200525973
 30
0.0
 11
3984.8458177956959
 21
-126.4741530087457
 31
0.0
  0
LINE
  5
122709
  8
0
 62
     0
 10
3971.3754336140919
 20
-121.9840249482108
 30
0.0
 11
3969.899516623394
 21
-120.5081079575113
 31
0.0
  0
LINE
  5
12270A
  8
0
 62
     0
 10
3977.763602446279
 20
-128.3721937803972
 30
0.0
 11
3975.8655616746269
 21
-126.4741530087454
 31
0.0
  0
LINE
  5
12270B
  8
0
 62
     0
 10
3971.1725803665872
 20
-130.76142782177519
 30
0.0
 11
3966.8853055535569
 21
-126.4741530087454
 31
0.0
  0
LINE
  5
12270C
  8
0
 62
     0
 10
3962.3951774930229
 20
-130.96428106928039
 30
0.0
 11
3957.9050494324879
 21
-126.4741530087458
 31
0.0
  0
LINE
  5
12270D
  8
0
 62
     0
 10
3953.4149213719538
 20
-130.9642810692801
 30
0.0
 11
3952.1787945338201
 21
-129.72815423114619
 31
0.0
  0
LINE
  5
12270E
  8
0
 62
     0
 10
3959.393937886342
 20
-136.943297583668
 30
0.0
 11
3957.9050494324879
 21
-135.45440912981471
 31
0.0
  0
LINE
  5
12270F
  8
0
 62
     0
 10
3953.4149213719538
 20
-139.94453719034911
 30
0.0
 11
3948.9247933114189
 21
-135.45440912981459
 31
0.0
  0
LINE
  5
122710
  8
0
 62
     0
 10
3944.4346652508839
 20
-139.94453719034911
 30
0.0
 11
3942.1829321375349
 21
-137.69280407699949
 31
0.0
  0
LINE
  5
122711
  8
0
 62
     0
 10
3949.2595972728632
 20
-144.76946921232741
 30
0.0
 11
3948.9247933114189
 21
-144.4346652508836
 31
0.0
  0
LINE
  5
122712
  8
0
 62
     0
 10
3944.4346652508839
 20
-148.92479331141831
 30
0.0
 11
3939.9445371903498
 21
-144.43466525088371
 31
0.0
  0
LINE
  5
122713
  8
0
 62
     0
 10
4057.8170678624638
 20
-262.30719592299897
 30
0.0
 11
4057.509871939465
 21
-261.99999999999909
 31
0.0
  0
LINE
  5
122714
  8
0
 62
     0
 10
3935.4544091298148
 20
-148.9247933114182
 30
0.0
 11
3933.5392925284159
 21
-147.00967671001919
 31
0.0
  0
LINE
  5
122715
  8
0
 62
     0
 10
3940.6612225988802
 20
-154.13160678048209
 30
0.0
 11
3939.9445371903498
 21
-153.4149213719528
 31
0.0
  0
LINE
  5
122716
  8
0
 62
     0
 10
4052.1977387037132
 20
-265.6681228853173
 30
0.0
 11
4048.529615818396
 21
-261.99999999999909
 31
0.0
  0
LINE
  5
122717
  8
0
 62
     0
 10
3935.4544091298171
 20
-157.9050494324874
 30
0.0
 11
3930.9642810692808
 21
-153.414921371953
 31
0.0
  0
LINE
  5
122718
  8
0
 62
     0
 10
4043.217482582646
 20
-265.66812288531719
 30
0.0
 11
4040.606062113658
 21
-263.05670241633021
 31
0.0
  0
LINE
  5
122719
  8
0
 62
     0
 10
4047.8212054661799
 20
-270.27184576885168
 30
0.0
 11
4047.70761064318
 21
-270.15825094585188
 31
0.0
  0
LINE
  5
12271A
  8
0
 62
     0
 10
3926.4741530087458
 20
-157.9050494324876
 30
0.0
 11
3926.271409419352
 21
-157.70230584309289
 31
0.0
  0
LINE
  5
12271B
  8
0
 62
     0
 10
3933.6335430370682
 20
-165.06443946080969
 30
0.0
 11
3930.9642810692808
 21
-162.3951774930222
 31
0.0
  0
LINE
  5
12271C
  8
0
 62
     0
 10
4042.297694156905
 20
-273.72859058064722
 30
0.0
 11
4038.727354522111
 21
-270.15825094585227
 31
0.0
  0
LINE
  5
12271D
  8
0
 62
     0
 10
3926.4741530087458
 20
-166.88530555355689
 30
0.0
 11
3923.1884639044451
 21
-163.59961644925551
 31
0.0
  0
LINE
  5
12271E
  8
0
 62
     0
 10
4034.237226461576
 20
-274.64837900638662
 30
0.0
 11
4029.7470984010411
 21
-270.15825094585199
 31
0.0
  0
LINE
  5
12271F
  8
0
 62
     0
 10
3926.4741530087458
 20
-175.86556167462581
 30
0.0
 11
3921.9840249482122
 21
-171.37543361409129
 31
0.0
  0
LINE
  5
122720
  8
0
 62
     0
 10
4025.256970340507
 20
-274.64837900638662
 30
0.0
 11
4022.2363975537201
 21
-271.6278062196011
 31
0.0
  0
LINE
  5
122721
  8
0
 62
     0
 10
4030.1004833766069
 20
-279.49189204248711
 30
0.0
 11
4029.7470984010411
 21
-279.13850706692119
 31
0.0
  0
LINE
  5
122722
  8
0
 62
     0
 10
3926.4741530087458
 20
-184.84581779569501
 30
0.0
 11
3921.9840249482122
 21
-180.3556897351605
 31
0.0
  0
LINE
  5
122723
  8
0
 62
     0
 10
4016.276714219438
 20
-274.64837900638662
 30
0.0
 11
4015.0938151604519
 21
-273.46547994740098
 31
0.0
  0
LINE
  5
122724
  8
0
 62
     0
 10
4023.3564095409911
 20
-281.72807432794031
 30
0.0
 11
4020.766842279972
 21
-279.13850706692108
 31
0.0
  0
LINE
  5
122725
  8
0
 62
     0
 10
3917.4938968876768
 20
-184.8458177956949
 30
0.0
 11
3916.540209967503
 21
-183.89213087551991
 31
0.0
  0
LINE
  5
122726
  8
0
 62
     0
 10
3925.3553968115771
 20
-192.7073177195951
 30
0.0
 11
3921.9840249482122
 21
-189.3359458562295
 31
0.0
  0
LINE
  5
122727
  8
0
 62
     0
 10
4007.2964580983689
 20
-274.64837900638651
 30
0.0
 11
4007.2926822804038
 21
-274.6446031884218
 31
0.0
  0
LINE
  5
122728
  8
0
 62
     0
 10
4016.1078691244779
 20
-283.45979003249721
 30
0.0
 11
4011.7865861589039
 21
-279.13850706692108
 31
0.0
  0
LINE
  5
122729
  8
0
 62
     0
 10
3925.012047226568
 20
-201.34422425565469
 30
0.0
 11
3923.6678229709119
 21
-199.9999999999992
 31
0.0
  0
LINE
  5
12272A
  8
0
 62
     0
 10
3917.4938968876768
 20
-193.82607391676399
 30
0.0
 11
3915.4027830531209
 21
-191.73496008220761
 31
0.0
  0
LINE
  5
12272B
  8
0
 62
     0
 10
3923.6678229709119
 20
-199.99999999999901
 30
0.0
 11
3921.9840249482108
 21
-198.3162019772985
 31
0.0
  0
LINE
  5
12272C
  8
0
 62
     0
 10
4007.2964580983689
 20
-283.6286351274556
 30
0.0
 11
4002.806330037834
 21
-279.13850706692108
 31
0.0
  0
LINE
  5
12272D
  8
0
 62
     0
 10
3917.4938968876768
 20
-202.80633003783291
 30
0.0
 11
3915.0005763250811
 21
-200.31300947523701
 31
0.0
  0
LINE
  5
12272E
  8
0
 62
     0
 10
3925.8327188999019
 20
-211.14515205005731
 30
0.0
 11
3921.9840249482122
 21
-207.29645809836751
 31
0.0
  0
LINE
  5
12272F
  8
0
 62
     0
 10
3989.33594585623
 20
-274.64837900638599
 30
0.0
 11
3988.8548479499409
 21
-274.16728110009763
 31
0.0
  0
LINE
  5
122730
  8
0
 62
     0
 10
3998.316201977299
 20
-283.62863512745508
 30
0.0
 11
3993.826073916764
 21
-279.13850706692062
 31
0.0
  0
LINE
  5
122731
  8
0
 62
     0
 10
3917.4938968876768
 20
-211.7865861589022
 30
0.0
 11
3915.5746775417588
 21
-209.8673668129841
 31
0.0
  0
LINE
  5
122732
  8
0
 62
     0
 10
3926.4741530087458
 20
-220.7668422799714
 30
0.0
 11
3921.9840249482122
 21
-216.2767142194368
 31
0.0
  0
LINE
  5
122733
  8
0
 62
     0
 10
3980.3556897351609
 20
-274.64837900638628
 30
0.0
 11
3977.1378516142122
 21
-271.43054088543681
 31
0.0
  0
LINE
  5
122734
  8
0
 62
     0
 10
3989.3359458562309
 20
-283.62863512745542
 30
0.0
 11
3984.8458177956959
 21
-279.13850706692091
 31
0.0
  0
LINE
  5
122735
  8
0
 62
     0
 10
3926.4741530087458
 20
-229.7470984010408
 30
0.0
 11
3921.9840249482122
 21
-225.2569703405062
 31
0.0
  0
LINE
  5
122736
  8
0
 62
     0
 10
3935.4544091298148
 20
-238.72735452210981
 30
0.0
 11
3930.9642810692808
 21
-234.2372264615754
 31
0.0
  0
LINE
  5
122737
  8
0
 62
     0
 10
3962.3951774930242
 20
-265.66812288531742
 30
0.0
 11
3960.453799736681
 21
-263.72674512897458
 31
0.0
  0
LINE
  5
122738
  8
0
 62
     0
 10
3971.3754336140919
 20
-274.64837900638662
 30
0.0
 11
3966.8853055535578
 21
-270.15825094585199
 31
0.0
  0
LINE
  5
122739
  8
0
 62
     0
 10
3979.1234799614899
 20
-282.39642535378249
 30
0.0
 11
3975.8655616746269
 21
-279.13850706692108
 31
0.0
  0
LINE
  5
12273A
  8
0
 62
     0
 10
3926.4741530087472
 20
-238.72735452211001
 30
0.0
 11
3922.3721274786062
 21
-234.6253289919695
 31
0.0
  0
LINE
  5
12273B
  8
0
 62
     0
 10
3935.4544091298171
 20
-247.70761064317909
 30
0.0
 11
3930.9642810692808
 21
-243.21748258264461
 31
0.0
  0
LINE
  5
12273C
  8
0
 62
     0
 10
3944.4346652508848
 20
-256.68786676424838
 30
0.0
 11
3939.9445371903512
 21
-252.1977387037137
 31
0.0
  0
LINE
  5
12273D
  8
0
 62
     0
 10
3953.4149213719538
 20
-265.66812288531742
 30
0.0
 11
3948.9247933114189
 21
-261.17799482478279
 31
0.0
  0
LINE
  5
12273E
  8
0
 62
     0
 10
3962.3951774930229
 20
-274.64837900638662
 30
0.0
 11
3957.9050494324879
 21
-270.15825094585199
 31
0.0
  0
LINE
  5
12273F
  8
0
 62
     0
 10
4050.5139406810131
 20
-132.64807909198001
 30
0.0
 11
4047.1257436625701
 21
-129.25988207353819
 31
0.0
  0
LINE
  5
122740
  8
0
 62
     0
 10
4055.8658615890322
 20
-137.9999999999992
 30
0.0
 11
4055.0040687415481
 21
-137.1382071525147
 31
0.0
  0
LINE
  5
122741
  8
0
 62
     0
 10
4032.5534284388759
 20
-123.6678229709118
 30
0.0
 11
4028.977508106414
 21
-120.0919026384511
 31
0.0
  0
LINE
  5
122742
  8
0
 62
     0
 10
4041.533684559944
 20
-132.64807909198089
 30
0.0
 11
4037.04355649941
 21
-128.1579510314464
 31
0.0
  0
LINE
  5
122743
  8
0
 62
     0
 10
4046.8856054679632
 20
-137.99999999999901
 30
0.0
 11
4046.0238126204799
 21
-137.13820715251549
 31
0.0
  0
LINE
  5
122744
  8
0
 62
     0
 10
4023.573172317806
 20
-123.6678229709115
 30
0.0
 11
4019.0830442572701
 21
-119.1776949103769
 31
0.0
  0
LINE
  5
122745
  8
0
 62
     0
 10
4032.1417147619541
 20
-132.2363654150605
 30
0.0
 11
4028.063300378341
 21
-128.15795103144609
 31
0.0
  0
LINE
  5
122746
  8
0
 62
     0
 10
4014.592916196737
 20
-123.6678229709114
 30
0.0
 11
4010.102788136202
 21
-119.1776949103769
 31
0.0
  0
LINE
  5
122747
  8
0
 62
     0
 10
4005.6126600756679
 20
-123.6678229709113
 30
0.0
 11
4001.1225320151329
 21
-119.1776949103767
 31
0.0
  0
LINE
  5
122748
  8
0
 62
     0
 10
3996.6324039545989
 20
-123.6678229709114
 30
0.0
 11
3992.1422758940639
 21
-119.1776949103769
 31
0.0
  0
LINE
  5
122749
  8
0
 62
     0
 10
3987.6521478335299
 20
-123.6678229709111
 30
0.0
 11
3983.1620197729958
 21
-119.1776949103765
 31
0.0
  0
LINE
  5
12274A
  8
0
 62
     0
 10
3978.6718917124608
 20
-123.6678229709112
 30
0.0
 11
3974.1817636519272
 21
-119.1776949103766
 31
0.0
  0
LINE
  5
12274B
  8
0
 62
     0
 10
3969.6916355913918
 20
-123.6678229709111
 30
0.0
 11
3967.4875677912742
 21
-121.4637551707935
 31
0.0
  0
LINE
  5
12274C
  8
0
 62
     0
 10
3975.2316575878999
 20
-129.20784496741859
 30
0.0
 11
3974.1817636519258
 21
-128.15795103144569
 31
0.0
  0
LINE
  5
12274D
  8
0
 62
     0
 10
3968.8282803805801
 20
-131.78472388116879
 30
0.0
 11
3965.2015075308559
 21
-128.15795103144521
 31
0.0
  0
LINE
  5
12274E
  8
0
 62
     0
 10
3960.7113794703232
 20
-132.64807909198041
 30
0.0
 11
3956.2212514097891
 21
-128.1579510314458
 31
0.0
  0
LINE
  5
12274F
  8
0
 62
     0
 10
3951.7311233492551
 20
-132.64807909198069
 30
0.0
 11
3950.1996367906331
 21
-131.11659253336001
 31
0.0
  0
LINE
  5
122750
  8
0
 62
     0
 10
3957.3739138312571
 20
-138.29086957398431
 30
0.0
 11
3956.2212514097891
 21
-137.13820715251521
 31
0.0
  0
LINE
  5
122751
  8
0
 62
     0
 10
3951.7311233492551
 20
-141.62833521305001
 30
0.0
 11
3947.2409952887192
 21
-137.13820715251541
 31
0.0
  0
LINE
  5
122752
  8
0
 62
     0
 10
3942.7508672281838
 20
-141.62833521304941
 30
0.0
 11
3940.4598102808641
 21
-139.33727826572991
 31
0.0
  0
LINE
  5
122753
  8
0
 62
     0
 10
3947.5312275343699
 20
-146.40869551923541
 30
0.0
 11
3947.2409952887178
 21
-146.1184632735839
 31
0.0
  0
LINE
  5
122754
  8
0
 62
     0
 10
3942.7508672281838
 20
-150.6085913341189
 30
0.0
 11
3938.2607391676502
 21
-146.1184632735843
 31
0.0
  0
LINE
  5
122755
  8
0
 62
     0
 10
4056.046666648067
 20
-263.90439075400258
 30
0.0
 11
4055.0040687415481
 21
-262.86179284748329
 31
0.0
  0
LINE
  5
122756
  8
0
 62
     0
 10
3933.7706111071152
 20
-150.6085913341187
 30
0.0
 11
3932.069493308034
 21
-148.9074735350377
 31
0.0
  0
LINE
  5
122757
  8
0
 62
     0
 10
3939.220522823553
 20
-156.05850305055731
 30
0.0
 11
3938.2607391676488
 21
-155.09871939465319
 31
0.0
  0
LINE
  5
122758
  8
0
 62
     0
 10
4050.5139406810131
 20
-267.35192090801792
 30
0.0
 11
4046.023812620479
 21
-262.86179284748329
 31
0.0
  0
LINE
  5
122759
  8
0
 62
     0
 10
3933.7706111071138
 20
-159.5888474551875
 30
0.0
 11
3929.2804830465811
 21
-155.0987193946529
 31
0.0
  0
LINE
  5
12275A
  8
0
 62
     0
 10
4041.533684559944
 20
-267.35192090801752
 30
0.0
 11
4038.5287537489799
 21
-264.34699009705378
 31
0.0
  0
LINE
  5
12275B
  8
0
 62
     0
 10
3932.5031866541531
 20
-167.3016791232952
 30
0.0
 11
3929.2804830465811
 21
-164.0789755157231
 31
0.0
  0
LINE
  5
12275C
  8
0
 62
     0
 10
4040.1313215574169
 20
-274.92981402656062
 30
0.0
 11
4037.04355649941
 21
-271.84204896855249
 31
0.0
  0
LINE
  5
12275D
  8
0
 62
     0
 10
3924.7903549860471
 20
-168.56910357625699
 30
0.0
 11
3922.1342441411598
 21
-165.9129927313713
 31
0.0
  0
LINE
  5
12275E
  8
0
 62
     0
 10
3929.8058092476431
 20
-173.58455783785379
 30
0.0
 11
3929.2804830465811
 21
-173.05923163679159
 31
0.0
  0
LINE
  5
12275F
  8
0
 62
     0
 10
4032.5534284388759
 20
-276.33217702908701
 30
0.0
 11
4028.063300378341
 21
-271.84204896855238
 31
0.0
  0
LINE
  5
122760
  8
0
 62
     0
 10
3924.7903549860471
 20
-177.54935969732591
 30
0.0
 11
3920.3002269255112
 21
-173.05923163679131
 31
0.0
  0
LINE
  5
122761
  8
0
 62
     0
 10
4023.573172317806
 20
-276.33217702908678
 30
0.0
 11
4019.6272564463952
 21
-272.38626115767607
 31
0.0
  0
LINE
  5
122762
  8
0
 62
     0
 10
3924.7903549860471
 20
-186.52961581839551
 30
0.0
 11
3920.3002269255121
 21
-182.039487757861
 31
0.0
  0
LINE
  5
122763
  8
0
 62
     0
 10
4014.592916196737
 20
-276.33217702908712
 30
0.0
 11
4012.2530540778212
 21
-273.99231491017071
 31
0.0
  0
LINE
  5
122764
  8
0
 62
     0
 10
4020.7013490002441
 20
-282.44060983259368
 30
0.0
 11
4019.0830442572701
 21
-280.82230508962169
 31
0.0
  0
LINE
  5
122765
  8
0
 62
     0
 10
3924.7903549860471
 20
-195.5098719394644
 30
0.0
 11
3920.3002269255121
 21
-191.0197438789298
 31
0.0
  0
LINE
  5
122766
  8
0
 62
     0
 10
4005.6126600756679
 20
-276.33217702908678
 30
0.0
 11
4004.1647589835802
 21
-274.88427593699879
 31
0.0
  0
LINE
  5
122767
  8
0
 62
     0
 10
4013.2425818009829
 20
-283.96209875440292
 30
0.0
 11
4010.102788136202
 21
-280.82230508962141
 31
0.0
  0
LINE
  5
122768
  8
0
 62
     0
 10
3924.7903549860471
 20
-204.49012806053369
 30
0.0
 11
3920.3002269255121
 21
-199.99999999999909
 31
0.0
  0
LINE
  5
122769
  8
0
 62
     0
 10
3996.6324039545989
 20
-276.33217702908689
 30
0.0
 11
3995.1427775935249
 21
-274.84255066801131
 31
0.0
  0
LINE
  5
12276A
  8
0
 62
     0
 10
3915.8100988649771
 20
-195.5098719394644
 30
0.0
 11
3915.15581890257
 21
-194.8555919770578
 31
0.0
  0
LINE
  5
12276B
  8
0
 62
     0
 10
4005.1444080229421
 20
-284.8441810974291
 30
0.0
 11
4001.1225320151329
 21
-280.82230508962158
 31
0.0
  0
LINE
  5
12276C
  8
0
 62
     0
 10
3915.8100988649771
 20
-204.49012806053361
 30
0.0
 11
3915.0833528969388
 21
-203.7633820924957
 31
0.0
  0
LINE
  5
12276D
  8
0
 62
     0
 10
3924.7903549860471
 20
-213.4703841816027
 30
0.0
 11
3920.3002269255121
 21
-208.98025612106821
 31
0.0
  0
LINE
  5
12276E
  8
0
 62
     0
 10
3987.6521478335299
 20
-276.33217702908712
 30
0.0
 11
3984.7540244045458
 21
-273.4340536001024
 31
0.0
  0
LINE
  5
12276F
  8
0
 62
     0
 10
3996.2366179075038
 20
-284.91664710306048
 30
0.0
 11
3992.1422758940639
 21
-280.82230508962158
 31
0.0
  0
LINE
  5
122770
  8
0
 62
     0
 10
3924.7903549860471
 20
-222.4506403026717
 30
0.0
 11
3920.3002269255121
 21
-217.96051224213721
 31
0.0
  0
LINE
  5
122771
  8
0
 62
     0
 10
3930.4788649061188
 20
-228.13915022274449
 30
0.0
 11
3929.2804830465811
 21
-226.94076836320639
 31
0.0
  0
LINE
  5
122772
  8
0
 62
     0
 10
3978.6718917124599
 20
-276.33217702908661
 30
0.0
 11
3974.1817636519258
 21
-271.84204896855198
 31
0.0
  0
LINE
  5
122773
  8
0
 62
     0
 10
3986.214360019977
 20
-283.87464533660358
 30
0.0
 11
3983.1620197729949
 21
-280.82230508962118
 31
0.0
  0
LINE
  5
122774
  8
0
 62
     0
 10
3924.7903549860471
 20
-231.4308964237413
 30
0.0
 11
3920.3002269255121
 21
-226.9407683632067
 31
0.0
  0
LINE
  5
122775
  8
0
 62
     0
 10
3933.7706111071161
 20
-240.41115254481039
 30
0.0
 11
3929.2804830465811
 21
-235.9210244842757
 31
0.0
  0
LINE
  5
122776
  8
0
 62
     0
 10
3942.7508672281838
 20
-249.3914086658796
 30
0.0
 11
3938.2607391676502
 21
-244.90128060534491
 31
0.0
  0
LINE
  5
122777
  8
0
 62
     0
 10
3951.7311233492551
 20
-258.37166478694871
 30
0.0
 11
3947.2409952887192
 21
-253.88153672641411
 31
0.0
  0
LINE
  5
122778
  8
0
 62
     0
 10
3960.7113794703232
 20
-267.35192090801792
 30
0.0
 11
3956.2212514097891
 21
-262.86179284748329
 31
0.0
  0
LINE
  5
122779
  8
0
 62
     0
 10
3969.6916355913918
 20
-276.33217702908701
 30
0.0
 11
3965.2015075308582
 21
-271.84204896855238
 31
0.0
  0
LINE
  5
12277A
  8
0
 62
     0
 10
3974.4186681662059
 20
-281.05920960390091
 30
0.0
 11
3974.1817636519272
 21
-280.82230508962158
 31
0.0
  0
LINE
  5
12277B
  8
0
 62
     0
 10
3933.7706111071152
 20
-249.3914086658794
 30
0.0
 11
3929.2804830465811
 21
-244.90128060534479
 31
0.0
  0
LINE
  5
12277C
  8
0
 62
     0
 10
3942.7508672281838
 20
-258.37166478694849
 30
0.0
 11
3938.2607391676488
 21
-253.88153672641391
 31
0.0
  0
LINE
  5
12277D
  8
0
 62
     0
 10
3951.7311233492528
 20
-267.35192090801758
 30
0.0
 11
3947.2409952887178
 21
-262.86179284748312
 31
0.0
  0
LINE
  5
12277E
  8
0
 62
     0
 10
3958.635202242433
 20
-274.25599980119728
 30
0.0
 11
3956.221251409786
 21
-271.84204896855209
 31
0.0
  0
LINE
  5
12277F
  8
0
 62
     0
 10
4050.9536729964252
 20
-268.03472060773998
 30
0.0
 11
4055.0040687415481
 21
-263.98432486261697
 31
0.0
  0
LINE
  5
122780
  8
0
 62
     0
 10
4041.533684559944
 20
-268.4744529231512
 30
0.0
 11
4046.023812620479
 21
-263.98432486261657
 31
0.0
  0
LINE
  5
122781
  8
0
 62
     0
 10
4032.5534284388759
 20
-277.45470904422041
 30
0.0
 11
4037.04355649941
 21
-272.96458098368578
 31
0.0
  0
LINE
  5
122782
  8
0
 62
     0
 10
4032.5534284388759
 20
-268.4744529231512
 30
0.0
 11
4034.3633432655911
 21
-266.66453809643377
 31
0.0
  0
LINE
  5
122783
  8
0
 62
     0
 10
4023.573172317806
 20
-277.45470904422029
 30
0.0
 11
4028.063300378341
 21
-272.96458098368572
 31
0.0
  0
LINE
  5
122784
  8
0
 62
     0
 10
4017.943374261697
 20
-283.08450710032798
 30
0.0
 11
4019.0830442572701
 21
-281.94483710475492
 31
0.0
  0
LINE
  5
122785
  8
0
 62
     0
 10
4014.592916196737
 20
-277.45470904422001
 30
0.0
 11
4019.0830442572701
 21
-272.96458098368549
 31
0.0
  0
LINE
  5
122786
  8
0
 62
     0
 10
4007.36752371589
 20
-284.68010152506679
 30
0.0
 11
4010.102788136202
 21
-281.94483710475458
 31
0.0
  0
LINE
  5
122787
  8
0
 62
     0
 10
4005.6126600756679
 20
-277.45470904422041
 30
0.0
 11
4008.5571315733901
 21
-274.51023754649788
 31
0.0
  0
LINE
  5
122788
  8
0
 62
     0
 10
4000.0
 20
-283.0673691198885
 30
0.0
 11
4001.1225320151329
 21
-281.94483710475492
 31
0.0
  0
LINE
  5
122789
  8
0
 62
     0
 10
3998.0888569405961
 20
-284.97851217929349
 30
0.0
 11
4000.0
 21
-283.06736911988838
 31
0.0
  0
LINE
  5
12278A
  8
0
 62
     0
 10
3996.6324039545989
 20
-277.45470904422058
 30
0.0
 11
3999.0926023365032
 21
-274.99451066231558
 31
0.0
  0
LINE
  5
12278B
  8
0
 62
     0
 10
3989.7120139313201
 20
-284.37509906750012
 30
0.0
 11
3992.1422758940639
 21
-281.94483710475521
 31
0.0
  0
LINE
  5
12278C
  8
0
 62
     0
 10
3987.6521478335299
 20
-277.45470904422001
 30
0.0
 11
3990.687281053727
 21
-274.41957582402341
 31
0.0
  0
LINE
  5
12278D
  8
0
 62
     0
 10
3982.0284415821229
 20
-283.07841529562711
 30
0.0
 11
3983.1620197729958
 21
-281.94483710475458
 31
0.0
  0
LINE
  5
12278E
  8
0
 62
     0
 10
3978.6718917124608
 20
-277.45470904422029
 30
0.0
 11
3983.0638429163332
 21
-273.0627578403475
 31
0.0
  0
LINE
  5
12278F
  8
0
 62
     0
 10
3969.6916355913918
 20
-277.45470904422041
 30
0.0
 11
3974.1817636519258
 21
-272.96458098368589
 31
0.0
  0
LINE
  5
122790
  8
0
 62
     0
 10
3962.0888566424378
 20
-276.07723187210598
 30
0.0
 11
3965.2015075308568
 21
-272.96458098368589
 31
0.0
  0
LINE
  5
122791
  8
0
 62
     0
 10
3960.7113794703232
 20
-268.47445292315132
 30
0.0
 11
3963.60716527675
 21
-265.57866711672352
 31
0.0
  0
LINE
  5
122792
  8
0
 62
     0
 10
3951.7311233492551
 20
-268.47445292315092
 30
0.0
 11
3956.2212514097891
 21
-263.9843248626164
 31
0.0
  0
LINE
  5
122793
  8
0
 62
     0
 10
3951.7311233492551
 20
-259.49419680208177
 30
0.0
 11
3952.8774911001642
 21
-258.34782905117117
 31
0.0
  0
LINE
  5
122794
  8
0
 62
     0
 10
3945.7712191933251
 20
-265.4541009580106
 30
0.0
 11
3947.2409952887192
 21
-263.9843248626164
 31
0.0
  0
LINE
  5
122795
  8
0
 62
     0
 10
3942.7508672281838
 20
-259.49419680208212
 30
0.0
 11
3947.2409952887178
 21
-255.00406874154771
 31
0.0
  0
LINE
  5
122796
  8
0
 62
     0
 10
3942.7508672281838
 20
-250.51394068101291
 30
0.0
 11
3943.7064245411289
 21
-249.55838336806741
 31
0.0
  0
LINE
  5
122797
  8
0
 62
     0
 10
3936.622743924941
 20
-256.64206398425489
 30
0.0
 11
3938.2607391676488
 21
-255.00406874154751
 31
0.0
  0
LINE
  5
122798
  8
0
 62
     0
 10
4050.5139406810131
 20
-133.77061110711421
 30
0.0
 11
4051.7304976486612
 21
-132.5540541394667
 31
0.0
  0
LINE
  5
122799
  8
0
 62
     0
 10
3933.7706111071152
 20
-250.51394068101291
 30
0.0
 11
3938.2607391676488
 21
-246.02381262047831
 31
0.0
  0
LINE
  5
12279A
  8
0
 62
     0
 10
4041.533684559944
 20
-133.77061110711401
 30
0.0
 11
4046.023812620479
 21
-129.28048304657941
 31
0.0
  0
LINE
  5
12279B
  8
0
 62
     0
 10
3933.7706111071152
 20
-241.53368455994359
 30
0.0
 11
3936.0766638622199
 21
-239.22763180484009
 31
0.0
  0
LINE
  5
12279C
  8
0
 62
     0
 10
3928.8301234984651
 20
-246.47417216859409
 30
0.0
 11
3929.2804830465811
 21
-246.0238126204782
 31
0.0
  0
LINE
  5
12279D
  8
0
 62
     0
 10
4033.4510088449092
 20
-132.87303070108121
 30
0.0
 11
4037.04355649941
 21
-129.28048304657929
 31
0.0
  0
LINE
  5
12279E
  8
0
 62
     0
 10
3925.4646851562661
 20
-240.85935438972501
 30
0.0
 11
3929.2804830465811
 21
-237.04355649940939
 31
0.0
  0
LINE
  5
12279F
  8
0
 62
     0
 10
4032.5534284388759
 20
-124.7903549860448
 30
0.0
 11
4034.8645228741611
 21
-122.4792605507588
 31
0.0
  0
LINE
  5
1227A0
  8
0
 62
     0
 10
4027.2271365051188
 20
-130.11664691980121
 30
0.0
 11
4028.063300378341
 21
-129.28048304657941
 31
0.0
  0
LINE
  5
1227A1
  8
0
 62
     0
 10
3924.7903549860471
 20
-232.5534284388745
 30
0.0
 11
3929.2804830465811
 21
-228.0633003783399
 31
0.0
  0
LINE
  5
1227A2
  8
0
 62
     0
 10
4023.573172317806
 20
-124.7903549860448
 30
0.0
 11
4028.063300378341
 21
-120.3002269255102
 31
0.0
  0
LINE
  5
1227A3
  8
0
 62
     0
 10
3924.7903549860471
 20
-223.57317231780559
 30
0.0
 11
3927.8577021733058
 21
-220.50582513054559
 31
0.0
  0
LINE
  5
1227A4
  8
0
 62
     0
 10
3919.905445870826
 20
-228.45808143302551
 30
0.0
 11
3920.3002269255112
 21
-228.0633003783401
 31
0.0
  0
LINE
  5
1227A5
  8
0
 62
     0
 10
4014.592916196737
 20
-124.7903549860449
 30
0.0
 11
4019.0830442572701
 21
-120.3002269255104
 31
0.0
  0
LINE
  5
1227A6
  8
0
 62
     0
 10
3924.7903549860471
 20
-214.59291619673641
 30
0.0
 11
3926.172639200448
 21
-213.21063198233429
 31
0.0
  0
LINE
  5
1227A7
  8
0
 62
     0
 10
3917.788812480554
 20
-221.59445870222919
 30
0.0
 11
3920.3002269255112
 21
-219.08304425727101
 31
0.0
  0
LINE
  5
1227A8
  8
0
 62
     0
 10
4005.6126600756679
 20
-124.7903549860446
 30
0.0
 11
4010.102788136202
 21
-120.3002269255101
 31
0.0
  0
LINE
  5
1227A9
  8
0
 62
     0
 10
3924.7903549860471
 20
-205.61266007566701
 30
0.0
 11
3925.181950788246
 21
-205.2210642734662
 31
0.0
  0
LINE
  5
1227AA
  8
0
 62
     0
 10
3916.1957433609659
 20
-214.20727170074721
 30
0.0
 11
3920.3002269255121
 21
-210.10278813620161
 31
0.0
  0
LINE
  5
1227AB
  8
0
 62
     0
 10
3996.6324039545989
 20
-124.7903549860448
 30
0.0
 11
4000.0
 21
-121.422758940644
 31
0.0
  0
LINE
  5
1227AC
  8
0
 62
     0
 10
3924.7903549860471
 20
-196.63240395459809
 30
0.0
 11
3925.0896965107122
 21
-196.33306242993169
 31
0.0
  0
LINE
  5
1227AD
  8
0
 62
     0
 10
4005.6126600756679
 20
-115.8100988649755
 30
0.0
 11
4006.1965891199989
 21
-115.2261698206452
 31
0.0
  0
LINE
  5
1227AE
  8
0
 62
     0
 10
4000.0
 20
-121.4227589406439
 30
0.0
 11
4001.1225320151329
 21
-120.3002269255101
 31
0.0
  0
LINE
  5
1227AF
  8
0
 62
     0
 10
3915.8100988649771
 20
-205.61266007566701
 30
0.0
 11
3920.3002269255121
 21
-201.12253201513249
 31
0.0
  0
LINE
  5
1227B0
  8
0
 62
     0
 10
3996.6324039545989
 20
-115.8100988649758
 30
0.0
 11
3997.402814904573
 21
-115.0396879150022
 31
0.0
  0
LINE
  5
1227B1
  8
0
 62
     0
 10
3987.6521478335299
 20
-124.790354986045
 30
0.0
 11
3992.1422758940639
 21
-120.3002269255104
 31
0.0
  0
LINE
  5
1227B2
  8
0
 62
     0
 10
3924.7903549860471
 20
-187.65214783352911
 30
0.0
 11
3926.2893090759699
 21
-186.1531937436045
 31
0.0
  0
LINE
  5
1227B3
  8
0
 62
     0
 10
3915.8100988649771
 20
-196.6324039545982
 30
0.0
 11
3920.3002269255112
 21
-192.14227589406369
 31
0.0
  0
LINE
  5
1227B4
  8
0
 62
     0
 10
3978.6718917124599
 20
-124.7903549860448
 30
0.0
 11
3983.1620197729949
 21
-120.3002269255103
 31
0.0
  0
LINE
  5
1227B5
  8
0
 62
     0
 10
3973.6996359724371
 20
-129.7626107260684
 30
0.0
 11
3974.1817636519258
 21
-129.28048304657941
 31
0.0
  0
LINE
  5
1227B6
  8
0
 62
     0
 10
3924.7903549860471
 20
-178.67189171246
 30
0.0
 11
3929.2804830465811
 21
-174.18176365192551
 31
0.0
  0
LINE
  5
1227B7
  8
0
 62
     0
 10
3915.9175009846422
 20
-187.5447457138637
 30
0.0
 11
3920.3002269255121
 21
-183.1620197729946
 31
0.0
  0
LINE
  5
1227B8
  8
0
 62
     0
 10
3969.6916355913918
 20
-124.790354986045
 30
0.0
 11
3974.1817636519258
 21
-120.3002269255104
 31
0.0
  0
LINE
  5
1227B9
  8
0
 62
     0
 10
3960.7113794703232
 20
-133.77061110711409
 30
0.0
 11
3965.2015075308568
 21
-129.28048304657941
 31
0.0
  0
LINE
  5
1227BA
  8
0
 62
     0
 10
3952.6249921196049
 20
-141.85699845783171
 30
0.0
 11
3956.2212514097891
 21
-138.26073916764869
 31
0.0
  0
LINE
  5
1227BB
  8
0
 62
     0
 10
3933.7706111071152
 20
-160.7113794703217
 30
0.0
 11
3938.2607391676488
 21
-156.2212514097871
 31
0.0
  0
LINE
  5
1227BC
  8
0
 62
     0
 10
3924.7903549860471
 20
-169.69163559139079
 30
0.0
 11
3929.2804830465811
 21
-165.20150753085619
 31
0.0
  0
LINE
  5
1227BD
  8
0
 62
     0
 10
3918.448853619941
 20
-176.0331369574958
 30
0.0
 11
3920.3002269255121
 21
-174.18176365192539
 31
0.0
  0
LINE
  5
1227BE
  8
0
 62
     0
 10
3960.7113794703218
 20
-124.7903549860447
 30
0.0
 11
3961.0548776323271
 21
-124.4468568240398
 31
0.0
  0
LINE
  5
1227BF
  8
0
 62
     0
 10
3951.7311233492528
 20
-133.77061110711381
 30
0.0
 11
3956.221251409786
 21
-129.28048304657929
 31
0.0
  0
LINE
  5
1227C0
  8
0
 62
     0
 10
3942.7508672281838
 20
-142.75086722818301
 30
0.0
 11
3947.2409952887178
 21
-138.26073916764841
 31
0.0
  0
LINE
  5
1227C1
  8
0
 62
     0
 10
3933.7706111071152
 20
-151.7311233492521
 30
0.0
 11
3938.2607391676488
 21
-147.24099528871761
 31
0.0
  0
LINE
  5
1227C2
  8
0
 62
     0
 10
3924.7903549860471
 20
-160.7113794703213
 30
0.0
 11
3929.2804830465811
 21
-156.2212514097867
 31
0.0
  0
LINE
  5
1227C3
  8
0
 62
     0
 10
4043.2174825826451
 20
-270.15825094585188
 30
0.0
 11
4047.7076106431782
 21
-265.6681228853173
 31
0.0
  0
LINE
  5
1227C4
  8
0
 62
     0
 10
4036.7132388148038
 20
-276.66249471369321
 30
0.0
 11
4038.7273545221101
 21
-274.64837900638639
 31
0.0
  0
LINE
  5
1227C5
  8
0
 62
     0
 10
4034.2372264615742
 20
-270.1582509458521
 30
0.0
 11
4038.7273545221101
 21
-265.66812288531747
 31
0.0
  0
LINE
  5
1227C6
  8
0
 62
     0
 10
4025.2569703405052
 20
-279.13850706692131
 30
0.0
 11
4029.7470984010411
 21
-274.64837900638668
 31
0.0
  0
LINE
  5
1227C7
  8
0
 62
     0
 10
4016.2767142194361
 20
-279.13850706692102
 30
0.0
 11
4020.766842279972
 21
-274.64837900638651
 31
0.0
  0
LINE
  5
1227C8
  8
0
 62
     0
 10
4011.1496582016271
 20
-284.26556308473062
 30
0.0
 11
4011.786586158903
 21
-283.6286351274556
 31
0.0
  0
LINE
  5
1227C9
  8
0
 62
     0
 10
4007.2964580983689
 20
-279.13850706692102
 30
0.0
 11
4011.786586158903
 21
-274.64837900638639
 31
0.0
  0
LINE
  5
1227CA
  8
0
 62
     0
 10
4001.447287476341
 20
-284.98767768894908
 30
0.0
 11
4002.806330037834
 21
-283.62863512745548
 31
0.0
  0
LINE
  5
1227CB
  8
0
 62
     0
 10
4000.0
 20
-277.45470904422041
 30
0.0
 11
4002.4962627400669
 21
-274.95844630415212
 31
0.0
  0
LINE
  5
1227CC
  8
0
 62
     0
 10
3998.3162019772999
 20
-279.13850706692102
 30
0.0
 11
4000.0
 21
-277.45470904422029
 31
0.0
  0
LINE
  5
1227CD
  8
0
 62
     0
 10
3992.7633249803198
 20
-284.69138406390198
 30
0.0
 11
3993.8260739167658
 21
-283.6286351274556
 31
0.0
  0
LINE
  5
1227CE
  8
0
 62
     0
 10
3989.33594585623
 20
-279.13850706692131
 30
0.0
 11
3993.7364570340851
 21
-274.73799588906581
 31
0.0
  0
LINE
  5
1227CF
  8
0
 62
     0
 10
3984.8377090123272
 20
-283.6367439108252
 30
0.0
 11
3984.8458177956959
 21
-283.62863512745582
 31
0.0
  0
LINE
  5
1227D0
  8
0
 62
     0
 10
3980.3556897351609
 20
-279.13850706692108
 30
0.0
 11
3984.8458177956959
 21
-274.64837900638651
 31
0.0
  0
LINE
  5
1227D1
  8
0
 62
     0
 10
3971.3754336140919
 20
-279.13850706692131
 30
0.0
 11
3975.8655616746269
 21
-274.64837900638668
 31
0.0
  0
LINE
  5
1227D2
  8
0
 62
     0
 10
3971.3754336140919
 20
-270.15825094585222
 30
0.0
 11
3971.9689093143361
 21
-269.56477524560819
 31
0.0
  0
LINE
  5
1227D3
  8
0
 62
     0
 10
3964.3643754747118
 20
-277.16930908523398
 30
0.0
 11
3966.8853055535569
 21
-274.64837900638668
 31
0.0
  0
LINE
  5
1227D4
  8
0
 62
     0
 10
3962.3951774930229
 20
-270.15825094585188
 30
0.0
 11
3965.803269971806
 21
-266.75015846706839
 31
0.0
  0
LINE
  5
1227D5
  8
0
 62
     0
 10
3953.4149213719538
 20
-270.15825094585188
 30
0.0
 11
3957.9050494324879
 21
-265.66812288531742
 31
0.0
  0
LINE
  5
1227D6
  8
0
 62
     0
 10
3953.4149213719538
 20
-261.17799482478279
 30
0.0
 11
3954.767783079682
 21
-259.82513311705378
 31
0.0
  0
LINE
  5
1227D7
  8
0
 62
     0
 10
3947.636909833077
 20
-266.95600636366009
 30
0.0
 11
3948.9247933114189
 21
-265.66812288531742
 31
0.0
  0
LINE
  5
1227D8
  8
0
 62
     0
 10
3944.4346652508839
 20
-261.17799482478318
 30
0.0
 11
3948.9247933114189
 21
-256.6878667642485
 31
0.0
  0
LINE
  5
1227D9
  8
0
 62
     0
 10
3944.4346652508839
 20
-252.1977387037137
 30
0.0
 11
3945.3099304217681
 21
-251.32247353283
 31
0.0
  0
LINE
  5
1227DA
  8
0
 62
     0
 10
3938.2357157590709
 20
-258.39668819552708
 30
0.0
 11
3939.9445371903498
 21
-256.68786676424838
 31
0.0
  0
LINE
  5
1227DB
  8
0
 62
     0
 10
4052.1977387037132
 20
-135.45440912981459
 30
0.0
 11
4053.612214758256
 21
-134.0399330752719
 31
0.0
  0
LINE
  5
1227DC
  8
0
 62
     0
 10
3935.4544091298148
 20
-252.19773870371341
 30
0.0
 11
3939.9445371903498
 21
-247.70761064317881
 31
0.0
  0
LINE
  5
1227DD
  8
0
 62
     0
 10
4043.2174825826451
 20
-135.45440912981471
 30
0.0
 11
4047.7076106431782
 21
-130.9642810692801
 31
0.0
  0
LINE
  5
1227DE
  8
0
 62
     0
 10
3935.4544091298148
 20
-243.21748258264469
 30
0.0
 11
3937.3861821491769
 21
-241.28570956328349
 31
0.0
  0
LINE
  5
1227DF
  8
0
 62
     0
 10
3930.1854771411081
 20
-248.48641457135241
 30
0.0
 11
3930.9642810692808
 21
-247.70761064317929
 31
0.0
  0
LINE
  5
1227E0
  8
0
 62
     0
 10
4035.6675726032449
 20
-134.02406298814469
 30
0.0
 11
4038.7273545221101
 21
-130.96428106928059
 31
0.0
  0
LINE
  5
1227E1
  8
0
 62
     0
 10
3926.683538252003
 20
-243.00809733938831
 30
0.0
 11
3930.9642810692808
 21
-238.7273545221102
 31
0.0
  0
LINE
  5
1227E2
  8
0
 62
     0
 10
4034.2372264615742
 20
-126.4741530087455
 30
0.0
 11
4037.158868116469
 21
-123.5525113538519
 31
0.0
  0
LINE
  5
1227E3
  8
0
 62
     0
 10
4029.6162325074311
 20
-131.0951469628892
 30
0.0
 11
4029.7470984010411
 21
-130.9642810692801
 31
0.0
  0
LINE
  5
1227E4
  8
0
 62
     0
 10
3926.4741530087458
 20
-234.23722646157529
 30
0.0
 11
3930.9642810692808
 21
-229.7470984010408
 31
0.0
  0
LINE
  5
1227E5
  8
0
 62
     0
 10
4025.256970340507
 20
-126.4741530087452
 30
0.0
 11
4029.7470984010411
 21
-121.9840249482106
 31
0.0
  0
LINE
  5
1227E6
  8
0
 62
     0
 10
3926.4741530087458
 20
-225.256970340506
 30
0.0
 11
3928.6423800080051
 21
-223.08874334124749
 31
0.0
  0
LINE
  5
1227E7
  8
0
 62
     0
 10
3920.8198635073882
 20
-230.91125984186439
 30
0.0
 11
3921.9840249482108
 21
-229.7470984010406
 31
0.0
  0
LINE
  5
1227E8
  8
0
 62
     0
 10
4016.2767142194361
 20
-126.4741530087455
 30
0.0
 11
4020.766842279972
 21
-121.9840249482109
 31
0.0
  0
LINE
  5
1227E9
  8
0
 62
     0
 10
3926.4741530087458
 20
-216.276714219437
 30
0.0
 11
3926.7309020428152
 21
-216.01996518536791
 31
0.0
  0
LINE
  5
1227EA
  8
0
 62
     0
 10
3918.5253229309651
 20
-224.22554429721771
 30
0.0
 11
3921.9840249482108
 21
-220.7668422799716
 31
0.0
  0
LINE
  5
1227EB
  8
0
 62
     0
 10
4016.2767142194361
 20
-117.4938968876765
 30
0.0
 11
4017.0442231228062
 21
-116.72638798430749
 31
0.0
  0
LINE
  5
1227EC
  8
0
 62
     0
 10
4008.3089342178669
 20
-125.4616768892453
 30
0.0
 11
4011.786586158903
 21
-121.984024948211
 31
0.0
  0
LINE
  5
1227ED
  8
0
 62
     0
 10
3917.4938968876768
 20
-216.27671421943711
 30
0.0
 11
3921.9840249482108
 21
-211.78658615890251
 31
0.0
  0
LINE
  5
1227EE
  8
0
 62
     0
 10
3999.7900611566838
 20
-125.0002938293609
 30
0.0
 11
4000.0
 21
-124.7903549860448
 31
0.0
  0
LINE
  5
1227EF
  8
0
 62
     0
 10
4007.2964580983689
 20
-117.4938968876765
 30
0.0
 11
4009.2820341185061
 21
-115.50832086753741
 31
0.0
  0
LINE
  5
1227F0
  8
0
 62
     0
 10
4000.0
 20
-124.7903549860449
 30
0.0
 11
4002.806330037834
 21
-121.9840249482111
 31
0.0
  0
LINE
  5
1227F1
  8
0
 62
     0
 10
3917.4938968876768
 20
-207.29645809836811
 30
0.0
 11
3921.9840249482108
 21
-202.8063300378335
 31
0.0
  0
LINE
  5
1227F2
  8
0
 62
     0
 10
3998.316201977299
 20
-117.4938968876764
 30
0.0
 11
4000.0
 21
-115.8100988649757
 31
0.0
  0
LINE
  5
1227F3
  8
0
 62
     0
 10
3990.1620662926812
 20
-125.6480325722948
 30
0.0
 11
3993.826073916764
 21
-121.984024948211
 31
0.0
  0
LINE
  5
1227F4
  8
0
 62
     0
 10
3917.4938968876768
 20
-198.3162019772989
 30
0.0
 11
3921.9840249482108
 21
-193.82607391676439
 31
0.0
  0
LINE
  5
1227F5
  8
0
 62
     0
 10
4000.0
 20
-115.8100988649756
 30
0.0
 11
4000.8062747846711
 21
-115.0038240803046
 31
0.0
  0
LINE
  5
1227F6
  8
0
 62
     0
 10
3989.3359458562309
 20
-117.493896887676
 30
0.0
 11
3991.3929472450659
 21
-115.4368954988411
 31
0.0
  0
LINE
  5
1227F7
  8
0
 62
     0
 10
3980.3556897351609
 20
-126.4741530087452
 30
0.0
 11
3984.8458177956959
 21
-121.9840249482106
 31
0.0
  0
LINE
  5
1227F8
  8
0
 62
     0
 10
3926.4741530087458
 20
-180.3556897351605
 30
0.0
 11
3928.0706823970172
 21
-178.75916034689041
 31
0.0
  0
LINE
  5
1227F9
  8
0
 62
     0
 10
3917.4938968876768
 20
-189.33594585622961
 30
0.0
 11
3921.9840249482122
 21
-184.84581779569501
 31
0.0
  0
LINE
  5
1227FA
  8
0
 62
     0
 10
3980.3556897351609
 20
-117.4938968876763
 30
0.0
 11
3980.6079633188342
 21
-117.2416233040032
 31
0.0
  0
LINE
  5
1227FB
  8
0
 62
     0
 10
3971.3754336140919
 20
-126.4741530087454
 30
0.0
 11
3975.8655616746269
 21
-121.9840249482109
 31
0.0
  0
LINE
  5
1227FC
  8
0
 62
     0
 10
3963.201461750476
 20
-134.6481248723619
 30
0.0
 11
3966.8853055535569
 21
-130.96428106927999
 31
0.0
  0
LINE
  5
1227FD
  8
0
 62
     0
 10
3926.4741530087458
 20
-171.37543361409121
 30
0.0
 11
3930.9642810692808
 21
-166.88530555355661
 31
0.0
  0
LINE
  5
1227FE
  8
0
 62
     0
 10
3917.4938968876768
 20
-180.35568973516041
 30
0.0
 11
3921.9840249482122
 21
-175.86556167462581
 31
0.0
  0
LINE
  5
1227FF
  8
0
 62
     0
 10
3962.395177493021
 20
-126.4741530087453
 30
0.0
 11
3966.8853055535569
 21
-121.9840249482107
 31
0.0
  0
LINE
  5
122800
  8
0
 62
     0
 10
3953.4149213719529
 20
-135.45440912981451
 30
0.0
 11
3957.9050494324879
 21
-130.96428106927991
 31
0.0
  0
LINE
  5
122801
  8
0
 62
     0
 10
3944.4346652508839
 20
-144.4346652508836
 30
0.0
 11
3948.9247933114189
 21
-139.944537190349
 31
0.0
  0
LINE
  5
122802
  8
0
 62
     0
 10
3935.4544091298148
 20
-153.4149213719528
 30
0.0
 11
3939.9445371903498
 21
-148.9247933114182
 31
0.0
  0
LINE
  5
122803
  8
0
 62
     0
 10
3926.4741530087458
 20
-162.39517749302181
 30
0.0
 11
3930.9642810692808
 21
-157.90504943248729
 31
0.0
  0
LINE
  5
122804
  8
0
 62
     0
 10
3921.5219269985778
 20
-167.34740350319089
 30
0.0
 11
3921.9840249482108
 21
-166.88530555355641
 31
0.0
  0
LINE
  5
122805
  8
0
 62
     0
 10
3937.527641098512
 20
-142.3614332821879
 30
0.0
 11
3939.9445371903498
 21
-139.94453719034919
 31
0.0
  0
LINE
  5
122806
  8
0
 62
     0
 10
4053.8815367264142
 20
-262.8617928474834
 30
0.0
 11
4054.7433295738979
 21
-261.99999999999932
 31
0.0
  0
LINE
  5
122807
  8
0
 62
     0
 10
4044.9012806053461
 20
-271.84204896855249
 30
0.0
 11
4049.3914086658801
 21
-267.35192090801797
 31
0.0
  0
LINE
  5
122808
  8
0
 62
     0
 10
4044.9012806053461
 20
-262.861792847483
 30
0.0
 11
4045.7630734528302
 21
-261.99999999999898
 31
0.0
  0
LINE
  5
122809
  8
0
 62
     0
 10
4035.9210244842761
 20
-271.84204896855209
 30
0.0
 11
4040.411152544812
 21
-267.35192090801758
 31
0.0
  0
LINE
  5
12280A
  8
0
 62
     0
 10
4027.2492255236671
 20
-280.51384792916173
 30
0.0
 11
4031.4308964237421
 21
-276.33217702908672
 31
0.0
  0
LINE
  5
12280B
  8
0
 62
     0
 10
4026.9407683632062
 20
-271.84204896855238
 30
0.0
 11
4030.0784920037072
 21
-268.70432532805171
 31
0.0
  0
LINE
  5
12280C
  8
0
 62
     0
 10
4017.9605122421381
 20
-280.82230508962152
 30
0.0
 11
4022.450640302673
 21
-276.33217702908701
 31
0.0
  0
LINE
  5
12280D
  8
0
 62
     0
 10
4008.980256121069
 20
-280.8223050896213
 30
0.0
 11
4013.4703841816022
 21
-276.33217702908678
 31
0.0
  0
LINE
  5
12280E
  8
0
 62
     0
 10
4000.0
 20
-280.8223050896213
 30
0.0
 11
4004.4901280605341
 21
-276.33217702908678
 31
0.0
  0
LINE
  5
12280F
  8
0
 62
     0
 10
3991.0197438789319
 20
-280.82230508962141
 30
0.0
 11
3995.5098719394659
 21
-276.33217702908678
 31
0.0
  0
LINE
  5
122810
  8
0
 62
     0
 10
3982.039487757861
 20
-280.82230508962152
 30
0.0
 11
3986.529615818396
 21
-276.33217702908689
 31
0.0
  0
LINE
  5
122811
  8
0
 62
     0
 10
3973.212796132721
 20
-280.66874059369371
 30
0.0
 11
3977.5493596973279
 21
-276.33217702908701
 31
0.0
  0
LINE
  5
122812
  8
0
 62
     0
 10
3973.059231636792
 20
-271.84204896855238
 30
0.0
 11
3974.4041133730389
 21
-270.4971672323058
 31
0.0
  0
LINE
  5
122813
  8
0
 62
     0
 10
3966.6969969239681
 20
-278.20428368137863
 30
0.0
 11
3968.569103576257
 21
-276.33217702908701
 31
0.0
  0
LINE
  5
122814
  8
0
 62
     0
 10
3964.0789755157239
 20
-271.84204896855277
 30
0.0
 11
3968.0614140538951
 21
-267.85961043038139
 31
0.0
  0
LINE
  5
122815
  8
0
 62
     0
 10
3955.098719394653
 20
-271.84204896855238
 30
0.0
 11
3959.5888474551889
 21
-267.3519209080178
 31
0.0
  0
LINE
  5
122816
  8
0
 62
     0
 10
3955.098719394653
 20
-262.861792847483
 30
0.0
 11
3956.7131058256882
 21
-261.24740641644962
 31
0.0
  0
LINE
  5
122817
  8
0
 62
     0
 10
3949.550844210803
 20
-268.40966803133369
 30
0.0
 11
3950.6085913341199
 21
-267.35192090801752
 31
0.0
  0
LINE
  5
122818
  8
0
 62
     0
 10
3946.1184632735858
 20
-262.86179284748312
 30
0.0
 11
3950.6085913341199
 21
-258.37166478694849
 31
0.0
  0
LINE
  5
122819
  8
0
 62
     0
 10
3946.1184632735858
 20
-253.881536726414
 30
0.0
 11
3946.9669914110091
 21
-253.0330085889901
 31
0.0
  0
LINE
  5
12281A
  8
0
 62
     0
 10
3939.8959235991442
 20
-260.1040764008556
 30
0.0
 11
3941.6283352130508
 21
-258.37166478694849
 31
0.0
  0
LINE
  5
12281B
  8
0
 62
     0
 10
4053.8815367264142
 20
-137.13820715251521
 30
0.0
 11
4055.4459941864038
 21
-135.57374969252569
 31
0.0
  0
LINE
  5
12281C
  8
0
 62
     0
 10
3937.1382071525159
 20
-253.881536726414
 30
0.0
 11
3941.6283352130508
 21
-249.3914086658794
 31
0.0
  0
LINE
  5
12281D
  8
0
 62
     0
 10
4044.9012806053461
 20
-137.13820715251561
 30
0.0
 11
4049.3914086658801
 21
-132.648079091981
 31
0.0
  0
LINE
  5
12281E
  8
0
 62
     0
 10
3937.1382071525159
 20
-244.90128060534491
 30
0.0
 11
3938.7525935835511
 21
-243.2868941743113
 31
0.0
  0
LINE
  5
12281F
  8
0
 62
     0
 10
3931.5903319686659
 20
-250.4491557891954
 30
0.0
 11
3932.6480790919818
 21
-249.39140866587951
 31
0.0
  0
LINE
  5
122820
  8
0
 62
     0
 10
4044.9012806053461
 20
-128.15795103144609
 30
0.0
 11
4045.1047705343681
 21
-127.95446110242381
 31
0.0
  0
LINE
  5
122821
  8
0
 62
     0
 10
4037.8233654376231
 20
-135.2358661991679
 30
0.0
 11
4040.4111525448111
 21
-132.64807909198069
 31
0.0
  0
LINE
  5
122822
  8
0
 62
     0
 10
3928.1579510314468
 20
-244.90128060534491
 30
0.0
 11
3932.6480790919818
 21
-240.41115254481039
 31
0.0
  0
LINE
  5
122823
  8
0
 62
     0
 10
4035.9210244842761
 20
-128.15795103144561
 30
0.0
 11
4039.3973119843781
 21
-124.6816635313438
 31
0.0
  0
LINE
  5
122824
  8
0
 62
     0
 10
3928.1579510314468
 20
-235.9210244842757
 30
0.0
 11
3932.140389569618
 21
-231.93858594610509
 31
0.0
  0
LINE
  5
122825
  8
0
 62
     0
 10
4026.9407683632062
 20
-128.157951031446
 30
0.0
 11
4031.4308964237398
 21
-123.6678229709114
 31
0.0
  0
LINE
  5
122826
  8
0
 62
     0
 10
3928.1579510314468
 20
-226.94076836320639
 30
0.0
 11
3929.5028327676951
 21
-225.59588662695961
 31
0.0
  0
LINE
  5
122827
  8
0
 62
     0
 10
3921.795716318622
 20
-233.30300307603281
 30
0.0
 11
3923.6678229709119
 21
-231.4308964237409
 31
0.0
  0
LINE
  5
122828
  8
0
 62
     0
 10
4018.7395884655198
 20
-127.3788748080627
 30
0.0
 11
4022.450640302673
 21
-123.6678229709112
 31
0.0
  0
LINE
  5
122829
  8
0
 62
     0
 10
3919.331259406305
 20
-226.78720386727881
 30
0.0
 11
3923.6678229709119
 21
-222.4506403026721
 31
0.0
  0
LINE
  5
12282A
  8
0
 62
     0
 10
4017.9605122421381
 20
-119.1776949103768
 30
0.0
 11
4019.799941457361
 21
-117.3382656951527
 31
0.0
  0
LINE
  5
12282B
  8
0
 62
     0
 10
4011.284425768652
 20
-125.85378138386331
 30
0.0
 11
4013.4703841816022
 21
-123.6678229709113
 31
0.0
  0
LINE
  5
12282C
  8
0
 62
     0
 10
3919.1776949103769
 20
-217.9605122421377
 30
0.0
 11
3923.6678229709119
 21
-213.47038418160309
 31
0.0
  0
LINE
  5
12282D
  8
0
 62
     0
 10
4008.980256121069
 20
-119.1776949103765
 30
0.0
 11
4012.2679784105749
 21
-115.88997262087111
 31
0.0
  0
LINE
  5
12282E
  8
0
 62
     0
 10
4003.0941007878541
 20
-125.0638502435924
 30
0.0
 11
4004.490128060535
 21
-123.6678229709111
 31
0.0
  0
LINE
  5
12282F
  8
0
 62
     0
 10
3919.1776949103769
 20
-208.98025612106821
 30
0.0
 11
3923.6678229709119
 21
-204.49012806053369
 31
0.0
  0
LINE
  5
122830
  8
0
 62
     0
 10
3993.9318052486001
 20
-125.245889661777
 30
0.0
 11
3995.5098719394659
 21
-123.6678229709112
 31
0.0
  0
LINE
  5
122831
  8
0
 62
     0
 10
3919.1776949103769
 20
-199.99999999999909
 30
0.0
 11
3923.6678229709119
 21
-195.5098719394644
 31
0.0
  0
LINE
  5
122832
  8
0
 62
     0
 10
4000.0
 20
-119.1776949103767
 30
0.0
 11
4004.0797313529042
 21
-115.0979635574724
 31
0.0
  0
LINE
  5
122833
  8
0
 62
     0
 10
3991.0197438789319
 20
-119.1776949103768
 30
0.0
 11
3995.0533812002559
 21
-115.1440575890517
 31
0.0
  0
LINE
  5
122834
  8
0
 62
     0
 10
3983.3188363327549
 20
-126.87860245655401
 30
0.0
 11
3986.529615818396
 21
-123.6678229709114
 31
0.0
  0
LINE
  5
122835
  8
0
 62
     0
 10
3919.1776949103769
 20
-191.0197438789302
 30
0.0
 11
3923.6678229709119
 21
-186.52961581839551
 31
0.0
  0
LINE
  5
122836
  8
0
 62
     0
 10
3982.039487757861
 20
-119.1776949103769
 30
0.0
 11
3984.8575146748631
 21
-116.359667993377
 31
0.0
  0
LINE
  5
122837
  8
0
 62
     0
 10
3973.059231636792
 20
-128.15795103144609
 30
0.0
 11
3977.5493596973279
 21
-123.6678229709115
 31
0.0
  0
LINE
  5
122838
  8
0
 62
     0
 10
3928.1579510314468
 20
-173.05923163679179
 30
0.0
 11
3931.2956746719469
 21
-169.92150799629059
 31
0.0
  0
LINE
  5
122839
  8
0
 62
     0
 10
3919.1776949103769
 20
-182.03948775786091
 30
0.0
 11
3923.6678229709119
 21
-177.54935969732631
 31
0.0
  0
LINE
  5
12283A
  8
0
 62
     0
 10
3964.0789755157239
 20
-128.1579510314458
 30
0.0
 11
3968.569103576257
 21
-123.6678229709113
 31
0.0
  0
LINE
  5
12283B
  8
0
 62
     0
 10
3955.098719394653
 20
-137.13820715251509
 30
0.0
 11
3959.588847455188
 21
-132.64807909198041
 31
0.0
  0
LINE
  5
12283C
  8
0
 62
     0
 10
3946.1184632735858
 20
-146.1184632735841
 30
0.0
 11
3950.6085913341199
 21
-141.62833521304961
 31
0.0
  0
LINE
  5
12283D
  8
0
 62
     0
 10
3937.1382071525159
 20
-155.09871939465339
 30
0.0
 11
3941.6283352130499
 21
-150.60859133411881
 31
0.0
  0
LINE
  5
12283E
  8
0
 62
     0
 10
3928.1579510314468
 20
-164.0789755157225
 30
0.0
 11
3932.6480790919818
 21
-159.5888474551879
 31
0.0
  0
LINE
  5
12283F
  8
0
 62
     0
 10
3919.4861520708369
 20
-172.7507744763318
 30
0.0
 11
3923.6678229709119
 21
-168.56910357625711
 31
0.0
  0
LINE
  5
122840
  8
0
 62
     0
 10
3955.098719394653
 20
-128.15795103144549
 30
0.0
 11
3955.9548403695771
 21
-127.30183005652231
 31
0.0
  0
LINE
  5
122841
  8
0
 62
     0
 10
3946.1184632735858
 20
-137.1382071525147
 30
0.0
 11
3950.6085913341199
 21
-132.64807909198001
 31
0.0
  0
LINE
  5
122842
  8
0
 62
     0
 10
3937.1382071525159
 20
-146.11846327358381
 30
0.0
 11
3941.6283352130508
 21
-141.62833521304921
 31
0.0
  0
LINE
  5
122843
  8
0
 62
     0
 10
3928.1579510314468
 20
-155.09871939465299
 30
0.0
 11
3932.6480790919818
 21
-150.60859133411839
 31
0.0
  0
ENDBLK
  5
122845
  8
0
  0
BLOCK
  8
0
  2
*U4
 70
     1
 10
0.0
 20
0.0
 30
0.0
  3
*U4
  1

  0
TEXT
  5
122847
  8
DIM
 10
2209.479620594459
 20
-3074.1428571428528
 30
0.0
 40
32.0
  1
A
 50
90.0
 41
0.75
  0
ENDBLK
  5
122849
  8
0
  0
BLOCK
  8
0
  2
*U5
 70
     1
 10
0.0
 20
0.0
 30
0.0
  3
*U5
  1

  0
TEXT
  5
12284B
  8
DIM
 10
2207.8409284037348
 20
-3455.9999999999968
 30
0.0
 40
32.0
  1
B
 50
90.0
 41
0.75
  0
ENDBLK
  5
12284D
  8
0
  0
BLOCK
  8
0
  2
*U6
 70
     1
 10
0.0
 20
0.0
 30
0.0
  3
*U6
  1

  0
TEXT
  5
12284F
  8
DIM
 10
2061.428571428572
 20
-2928.2081219844431
 30
0.0
 40
32.0
  1
C
 41
0.75
  0
ENDBLK
  5
122851
  8
0
  0
BLOCK
  8
0
  2
*U7
 70
     1
 10
0.0
 20
0.0
 30
0.0
  3
*U7
  1

  0
TEXT
  5
122853
  8
SLIM
 10
509.0476190477408
 20
-586.75000000000955
 30
0.0
 40
26.0
  1
100
  0
ENDBLK
  5
122855
  8
0
  0
BLOCK
  8
0
  2
*U8
 70
     1
 10
0.0
 20
0.0
 30
0.0
  3
*U8
  1

  0
TEXT
  5
122857
  8
SLIM
 10
158.9523809524228
 20
-594.00000000000955
 30
0.0
 40
26.0
  1
75
  0
ENDBLK
  5
122859
  8
0
  0
BLOCK
  8
0
  2
*U9
 70
     1
 10
0.0
 20
0.0
 30
0.0
  3
*U9
  1

  0
TEXT
  5
12285B
  8
SLIM
 10
518.95238095250295
 20
-130.00000000000321
 30
0.0
 40
26.0
  1
65
  0
ENDBLK
  5
12285D
  8
0
  0
BLOCK
  8
0
  2
*U10
 70
     1
 10
0.0
 20
0.0
 30
0.0
  3
*U10
  1

  0
TEXT
  5
12285F
  8
SLIM
 10
158.9523809524228
 20
-130.00000000000321
 30
0.0
 40
26.0
  1
50
  0
ENDBLK
  5
122861
  8
0
  0
ENDSEC
  0
SECTION
  2
ENTITIES
  0
LINE
  5
11E11D
  8
OBJECT
 10
1825.0
 20
-3469.9999999999959
 30
0.0
 11
5575.0
 21
-3469.9999999999959
 31
0.0
  0
LINE
  5
11E11F
  8
SLIM
 10
2616.0
 20
-2527.50001604727
 30
0.0
 11
2616.0
 21
-2857.50001604727
 31
0.0
  0
LINE
  5
11E120
  8
SLIM
 10
2740.0
 20
-2527.50001604727
 30
0.0
 11
2740.0
 21
-2857.50001604727
 31
0.0
  0
LINE
  5
11E121
  8
SLIM
 10
2870.0
 20
-2587.50001604727
 30
0.0
 11
2870.0
 21
-2857.50001604727
 31
0.0
  0
LINE
  5
11E122
  8
SLIM
 10
3000.0
 20
-2587.50001604727
 30
0.0
 11
3000.0
 21
-2857.50001604727
 31
0.0
  0
LINE
  5
11E123
  8
SLIM
 10
3130.0
 20
-2857.50001604727
 30
0.0
 11
3130.0
 21
-2587.50001604727
 31
0.0
  0
LINE
  5
11E124
  8
SLIM
 10
3260.0
 20
-2857.50001604727
 30
0.0
 11
3260.0
 21
-2527.50001604727
 31
0.0
  0
LINE
  5
11E125
  8
SLIM
 10
3260.0
 20
-2527.50001604727
 30
0.0
 11
2616.0
 21
-2527.50001604727
 31
0.0
  0
LINE
  5
11E126
  8
SLIM
 10
3260.0
 20
-2587.50001604727
 30
0.0
 11
2740.0
 21
-2587.50001604727
 31
0.0
  0
LINE
  5
11E127
  8
SLIM
 10
3260.0
 20
-2647.50001604727
 30
0.0
 11
2616.0
 21
-2647.50001604727
 31
0.0
  0
LINE
  5
11E128
  8
SLIM
 10
3260.0
 20
-2717.50001604727
 30
0.0
 11
2616.0
 21
-2717.50001604727
 31
0.0
  0
LINE
  5
11E129
  8
SLIM
 10
3260.0
 20
-2787.50001604727
 30
0.0
 11
2616.0
 21
-2787.50001604727
 31
0.0
  0
LINE
  5
11E12A
  8
SLIM
 10
3260.0
 20
-2857.50001604727
 30
0.0
 11
2616.0
 21
-2857.50001604727
 31
0.0
  0
LINE
  5
11E13F
  8
SLIM
 10
2740.0
 20
-2647.50001604727
 30
0.0
 11
2615.9999722746579
 21
-2527.5
 31
0.0
  0
LINE
  5
11F2E7
  8
OBJECT
 10
5325.0
 20
-3348.9999999999968
 30
0.0
 11
5325.0
 21
-3472.9999999999968
 31
0.0
1001
ACDBBLOCKREPETAG
1070
     1
1071
       26
1005
11F2E7
  0
LINE
  5
11F2EA
  8
OBJECT
 10
5475.0
 20
-3348.9999999999968
 30
0.0
 11
5456.7802782663139
 21
-3348.9999999999968
 31
0.0
1001
ACDBBLOCKREPETAG
1070
     1
1071
       30
1005
11F2EA
  0
LINE
  5
11F2EB
  8
OBJECT
 10
5475.0
 20
-3348.9999999999968
 30
0.0
 11
5475.0
 21
-3472.9999999999968
 31
0.0
1001
ACDBBLOCKREPETAG
1070
     1
1071
       34
1005
11F2EB
  0
POINT
  5
11F2EC
  8
DOTS
 10
5400.0
 20
-3469.9999999999968
 30
0.0
1001
ACDBBLOCKREPETAG
1070
     1
1071
      187
1005
11F2EC
  0
LINE
  5
11F2ED
  8
CENTER
 10
5310.0
 20
-3397.9999999999968
 30
0.0
 11
5490.0
 21
-3397.9999999999968
 31
0.0
1001
ACDBBLOCKREPETAG
1070
     1
1071
       23
1005
11F2ED
  0
CIRCLE
  5
11F2EE
  8
OBJECT
 10
5400.0
 20
-3397.9999999999968
 30
0.0
 40
53.5
1001
ACDBBLOCKREPETAG
1070
     1
1071
       24
1005
11F2EE
  0
CIRCLE
  5
11F2EF
  8
OBJECT
 10
5400.0
 20
-3397.9999999999968
 30
0.0
 40
67.0
1001
ACDBBLOCKREPETAG
1070
     1
1071
       25
1005
11F2EF
  0
ARC
  5
11F2F0
  8
OBJECT
 10
5400.0
 20
-3397.9999999999968
 30
0.0
 40
75.0
 50
286.26020470824
 51
253.73979529175989
1001
ACDBBLOCKREPETAG
1070
     1
1071
       27
1005
11F2F0
  0
LINE
  5
11F2F1
  8
OBJECT
 10
5379.0
 20
-3469.9999999999968
 30
0.0
 11
5421.0
 21
-3469.9999999999968
 31
0.0
1001
ACDBBLOCKREPETAG
1070
     1
1071
       28
1005
11F2F1
  0
LINE
  5
11F2F2
  8
OBJECT
 10
5343.2197217336861
 20
-3348.9999999999968
 30
0.0
 11
5325.0
 21
-3348.9999999999968
 31
0.0
1001
ACDBBLOCKREPETAG
1070
     1
1071
       30
1005
11F2EA
  0
TEXT
  5
11F3FE
  8
SLIM
 10
-0.0000000000000011
 20
282.5
 30
0.0
 40
35.0
  1
※ 100枝（4）がある場合、品名の最後に【管底】が付きます。
 41
0.9
 11
0.0
 21
300.0
 31
0.0
 73
     2
  0
LINE
  5
1217B8
  8
OBJECT
 10
5460.0
 20
-3342.9999999999968
 30
0.0
 11
5450.9901951359279
 21
-3342.9999999999968
 31
0.0
1001
ACDBBLOCKREPETAG
1070
     1
1071
      215
1005
1217B8
  0
ARC
  5
1217B9
  8
OBJECT
 10
5340.0
 20
-3345.9999999999959
 30
0.0
 40
3.0
 50
90.0
 51
180.0
1001
ACDBBLOCKREPETAG
1070
     1
1071
      216
1005
1217B9
  0
LINE
  5
1217BA
  8
OBJECT
 10
5337.0
 20
-3345.9999999999959
 30
0.0
 11
5337.0
 21
-3348.9999999999968
 31
0.0
1001
ACDBBLOCKREPETAG
1070
     1
1071
      217
1005
1217BA
  0
LINE
  5
1217BB
  8
OBJECT
 10
5463.0
 20
-3345.9999999999959
 30
0.0
 11
5463.0
 21
-3348.9999999999968
 31
0.0
1001
ACDBBLOCKREPETAG
1070
     1
1071
      218
1005
1217BB
  0
ARC
  5
1217BC
  8
OBJECT
 10
5460.0
 20
-3345.9999999999959
 30
0.0
 40
3.0
 50
0.0
 51
90.0
1001
ACDBBLOCKREPETAG
1070
     1
1071
      219
1005
1217BC
  0
LINE
  5
1217BD
  8
OBJECT
 10
5343.0
 20
-3274.9999999999968
 30
0.0
 11
5343.0
 21
-3342.9999999999968
 31
0.0
1001
ACDBBLOCKREPETAG
1070
     1
1071
      220
1005
1217BD
  0
LINE
  5
1217BE
  8
OBJECT
 10
5457.0
 20
-3274.9999999999968
 30
0.0
 11
5343.0
 21
-3274.9999999999968
 31
0.0
1001
ACDBBLOCKREPETAG
1070
     1
1071
      221
1005
1217BE
  0
LINE
  5
1217BF
  8
OBJECT
 10
5457.0
 20
-3274.9999999999968
 30
0.0
 11
5457.0
 21
-3342.9999999999968
 31
0.0
1001
ACDBBLOCKREPETAG
1070
     1
1071
      222
1005
1217BF
  0
LINE
  5
1217C0
  8
CENTER
 10
5400.0
 20
-3259.9999999999968
 30
0.0
 11
5400.0
 21
-3484.9999999999968
 31
0.0
1001
ACDBBLOCKREPETAG
1070
     1
1071
      223
1005
1217C0
  0
LINE
  5
1217C1
  8
HIDDEN
 10
5452.5
 20
-3274.9999999999968
 30
0.0
 11
5452.5
 21
-3348.9999999999968
 31
0.0
1001
ACDBBLOCKREPETAG
1070
     1
1071
      224
1005
1217C1
  0
LINE
  5
1217C2
  8
HIDDEN
 10
5347.5
 20
-3274.9999999999968
 30
0.0
 11
5347.5
 21
-3348.9999999999968
 31
0.0
1001
ACDBBLOCKREPETAG
1070
     1
1071
      225
1005
1217C2
  0
LINE
  5
1217C3
  8
OBJECT
 10
5349.0098048640721
 20
-3342.9999999999968
 30
0.0
 11
5340.0
 21
-3342.9999999999968
 31
0.0
1001
ACDBBLOCKREPETAG
1070
     1
1071
      215
1005
1217B8
  0
CIRCLE
  5
1222EC
  8
OBJECT
 10
5000.0
 20
-3064.9999999999959
 30
0.0
 40
75.0
1001
ACDBBLOCKREPETAG
1070
     1
1071
      363
1005
1222EC
  0
CIRCLE
  5
1222ED
  8
OBJECT
 10
5000.0
 20
-3064.9999999999959
 30
0.0
 40
52.5
1001
ACDBBLOCKREPETAG
1070
     1
1071
      364
1005
1222ED
  0
CIRCLE
  5
1222EE
  8
OBJECT
 10
5000.0
 20
-3064.9999999999959
 30
0.0
 40
57.0
1001
ACDBBLOCKREPETAG
1070
     1
1071
      365
1005
1222EE
  0
LINE
  5
1222EF
  8
OBJECT
 10
4969.8635289348576
 20
-3107.9888719523969
 30
0.0
 11
4979.8564918232369
 21
-3087.4868825335652
 31
0.0
1001
ACDBBLOCKREPETAG
1070
     1
1071
      381
1005
1222EF
  0
LINE
  5
1222F0
  8
OBJECT
 10
4965.7499660391568
 20
-3104.7892595266708
 30
0.0
 11
4973.9071022665084
 21
-3088.0537300443038
 31
0.0
1001
ACDBBLOCKREPETAG
1070
     1
1071
      382
1005
1222F0
  0
LINE
  5
1222F1
  8
OBJECT
 10
5024.1029330933034
 20
-3108.8069471237141
 30
0.0
 11
5020.6596569999947
 21
-3097.554621999996
 31
0.0
1001
ACDBBLOCKREPETAG
1070
     1
1071
      383
1005
1222F1
  0
ARC
  5
1222F2
  8
OBJECT
 10
4976.5796953073141
 20
-3072.128936982841
 30
0.0
 40
60.031113246032611
 50
316.4174422677624
 51
322.33936106089038
1001
ACDBBLOCKREPETAG
1070
     1
1071
      384
1005
1222F2
  0
LINE
  5
1222F3
  8
OBJECT
 10
4986.7927499013749
 20
-3083.225533742077
 30
0.0
 11
5020.6596569999947
 21
-3097.5546219999951
 31
0.0
1001
ACDBBLOCKREPETAG
1070
     1
1071
      385
1005
1222F3
  0
ARC
  5
1222F4
  8
OBJECT
 10
4982.8961697619006
 20
-3092.435129999054
 30
0.0
 40
10.0
 50
67.06677829291263
 51
154.01473437029199
1001
ACDBBLOCKREPETAG
1070
     1
1071
      386
1005
1222F4
  0
ARC
  5
1222F5
  8
OBJECT
 10
4986.1488390381273
 20
-3090.5538625672889
 30
0.0
 40
7.0
 50
67.06677829291263
 51
154.01473377497379
1001
ACDBBLOCKREPETAG
1070
     1
1071
      387
1005
1222F5
  0
ARC
  5
1222F6
  8
OBJECT
 10
5000.0
 20
-3064.9999999999959
 30
0.0
 40
50.0
 50
298.81994299999963
 51
228.52376955965599
1001
ACDBBLOCKREPETAG
1070
     1
1071
        7
1005
1222F6
  0
LINE
  5
1222F7
  8
CENTER
 10
5080.0
 20
-3064.9999999999959
 30
0.0
 11
4905.0
 21
-3064.9999999999959
 31
0.0
1001
ACDBBLOCKREPETAG
1070
     1
1071
       14
1005
1222F7
  0
LINE
  5
1222F8
  8
CENTER
 10
5000.0
 20
-3159.9999999999959
 30
0.0
 11
5000.0
 21
-2969.9999999999959
 31
0.0
1001
ACDBBLOCKREPETAG
1070
     1
1071
       15
1005
1222F8
  0
ARC
  5
1222F9
  8
OBJECT
 10
5000.0
 20
-3064.9999999999959
 30
0.0
 40
80.0
 50
50.805032573882329
 51
309.19496742611773
1001
ACDBBLOCKREPETAG
1070
     1
1071
       18
1005
1222F9
  0
LINE
  5
1222FA
  8
OBJECT
 10
5042.2018956920174
 20
-3002.9999999999959
 30
0.0
 11
5080.0
 21
-3002.9999999999959
 31
0.0
1001
ACDBBLOCKREPETAG
1070
     1
1071
       19
1005
1222FA
  0
LINE
  5
1222FB
  8
OBJECT
 10
5042.2018956920174
 20
-3126.9999999999959
 30
0.0
 11
5080.0
 21
-3126.9999999999959
 31
0.0
1001
ACDBBLOCKREPETAG
1070
     1
1071
       20
1005
1222FB
  0
POINT
  5
1222FC
  8
DOTS
 10
5000.0
 20
-3064.9999999999959
 30
0.0
1001
ACDBBLOCKREPETAG
1070
     1
1071
      417
1005
1222FC
  0
CIRCLE
  5
1222FD
  8
OBJECT
 10
4000.0
 20
-3064.9999999999959
 30
0.0
 40
75.0
1001
ACDBBLOCKREPETAG
1070
     1
1071
      363
1005
1222FD
  0
CIRCLE
  5
1222FE
  8
OBJECT
 10
4000.0
 20
-3064.9999999999959
 30
0.0
 40
52.5
1001
ACDBBLOCKREPETAG
1070
     1
1071
      364
1005
1222FE
  0
CIRCLE
  5
1222FF
  8
OBJECT
 10
4000.0
 20
-3064.9999999999959
 30
0.0
 40
57.0
1001
ACDBBLOCKREPETAG
1070
     1
1071
      365
1005
1222FF
  0
LINE
  5
122300
  8
OBJECT
 10
3969.8635289348599
 20
-3107.9888719523969
 30
0.0
 11
3979.8564918232369
 21
-3087.4868825335652
 31
0.0
1001
ACDBBLOCKREPETAG
1070
     1
1071
      381
1005
122300
  0
LINE
  5
122301
  8
OBJECT
 10
3965.7499660391568
 20
-3104.7892595266708
 30
0.0
 11
3973.9071022665089
 21
-3088.0537300443038
 31
0.0
1001
ACDBBLOCKREPETAG
1070
     1
1071
      382
1005
122301
  0
LINE
  5
122302
  8
OBJECT
 10
4024.102933093302
 20
-3108.8069471237141
 30
0.0
 11
4020.6596569999951
 21
-3097.554621999996
 31
0.0
1001
ACDBBLOCKREPETAG
1070
     1
1071
      383
1005
122302
  0
ARC
  5
122303
  8
OBJECT
 10
3976.579695307315
 20
-3072.128936982841
 30
0.0
 40
60.031113246032611
 50
316.41744226774438
 51
322.3393610609063
1001
ACDBBLOCKREPETAG
1070
     1
1071
      384
1005
122303
  0
LINE
  5
122304
  8
OBJECT
 10
3986.7927499013749
 20
-3083.225533742077
 30
0.0
 11
4020.6596569999951
 21
-3097.5546219999951
 31
0.0
1001
ACDBBLOCKREPETAG
1070
     1
1071
      385
1005
122304
  0
ARC
  5
122305
  8
OBJECT
 10
3982.896169761902
 20
-3092.435129999054
 30
0.0
 40
10.0
 50
67.06677829291263
 51
154.01473437029199
1001
ACDBBLOCKREPETAG
1070
     1
1071
      386
1005
122305
  0
ARC
  5
122306
  8
OBJECT
 10
3986.1488390381278
 20
-3090.5538625672889
 30
0.0
 40
7.0
 50
67.06677829291263
 51
154.01473377496239
1001
ACDBBLOCKREPETAG
1070
     1
1071
      387
1005
122306
  0
ARC
  5
122307
  8
OBJECT
 10
4000.0
 20
-3064.9999999999959
 30
0.0
 40
50.0
 50
298.81994299999963
 51
228.52376955967549
1001
ACDBBLOCKREPETAG
1070
     1
1071
        7
1005
122307
  0
LINE
  5
122308
  8
CENTER
 10
4080.0
 20
-3064.9999999999959
 30
0.0
 11
3905.0
 21
-3064.9999999999959
 31
0.0
1001
ACDBBLOCKREPETAG
1070
     1
1071
       14
1005
122308
  0
LINE
  5
122309
  8
CENTER
 10
4000.0
 20
-3159.9999999999959
 30
0.0
 11
4000.0
 21
-2969.9999999999959
 31
0.0
1001
ACDBBLOCKREPETAG
1070
     1
1071
       15
1005
122309
  0
ARC
  5
12230A
  8
OBJECT
 10
4000.0
 20
-3064.9999999999959
 30
0.0
 40
80.0
 50
50.805032573862128
 51
309.19496742613791
1001
ACDBBLOCKREPETAG
1070
     1
1071
       18
1005
12230A
  0
LINE
  5
12230B
  8
OBJECT
 10
4042.2018956920169
 20
-3002.9999999999959
 30
0.0
 11
4080.0
 21
-3002.9999999999959
 31
0.0
1001
ACDBBLOCKREPETAG
1070
     1
1071
       19
1005
12230B
  0
LINE
  5
12230C
  8
OBJECT
 10
4042.2018956920169
 20
-3126.9999999999959
 30
0.0
 11
4080.0
 21
-3126.9999999999959
 31
0.0
1001
ACDBBLOCKREPETAG
1070
     1
1071
       20
1005
12230C
  0
POINT
  5
12230D
  8
DOTS
 10
4000.0
 20
-3064.9999999999959
 30
0.0
1001
ACDBBLOCKREPETAG
1070
     1
1071
      417
1005
12230D
  0
CIRCLE
  5
12230E
  8
OBJECT
 10
3000.0
 20
-3064.9999999999959
 30
0.0
 40
75.0
1001
ACDBBLOCKREPETAG
1070
     1
1071
      363
1005
12230E
  0
CIRCLE
  5
12230F
  8
OBJECT
 10
3000.0
 20
-3064.9999999999959
 30
0.0
 40
52.5
1001
ACDBBLOCKREPETAG
1070
     1
1071
      364
1005
12230F
  0
CIRCLE
  5
122310
  8
OBJECT
 10
3000.0
 20
-3064.9999999999959
 30
0.0
 40
57.0
1001
ACDBBLOCKREPETAG
1070
     1
1071
      365
1005
122310
  0
LINE
  5
122311
  8
OBJECT
 10
2969.863528934859
 20
-3107.9888719523969
 30
0.0
 11
2979.8564918232369
 21
-3087.4868825335652
 31
0.0
1001
ACDBBLOCKREPETAG
1070
     1
1071
      381
1005
122311
  0
LINE
  5
122312
  8
OBJECT
 10
2965.7499660391568
 20
-3104.7892595266708
 30
0.0
 11
2973.9071022665089
 21
-3088.0537300443038
 31
0.0
1001
ACDBBLOCKREPETAG
1070
     1
1071
      382
1005
122312
  0
LINE
  5
122313
  8
OBJECT
 10
3024.102933093302
 20
-3108.8069471237141
 30
0.0
 11
3020.659656999997
 21
-3097.554621999996
 31
0.0
1001
ACDBBLOCKREPETAG
1070
     1
1071
      383
1005
122313
  0
ARC
  5
122314
  8
OBJECT
 10
2976.579695307315
 20
-3072.128936982841
 30
0.0
 40
60.031113246032611
 50
316.41744226774438
 51
322.3393610609063
1001
ACDBBLOCKREPETAG
1070
     1
1071
      384
1005
122314
  0
LINE
  5
122315
  8
OBJECT
 10
2986.7927499013749
 20
-3083.225533742077
 30
0.0
 11
3020.659656999997
 21
-3097.5546219999951
 31
0.0
1001
ACDBBLOCKREPETAG
1070
     1
1071
      385
1005
122315
  0
ARC
  5
122316
  8
OBJECT
 10
2982.896169761902
 20
-3092.435129999054
 30
0.0
 40
10.0
 50
67.06677829291263
 51
154.01473437029199
1001
ACDBBLOCKREPETAG
1070
     1
1071
      386
1005
122316
  0
ARC
  5
122317
  8
OBJECT
 10
2986.1488390381278
 20
-3090.5538625672889
 30
0.0
 40
7.0
 50
67.06677829291263
 51
154.01473377496239
1001
ACDBBLOCKREPETAG
1070
     1
1071
      387
1005
122317
  0
ARC
  5
122318
  8
OBJECT
 10
3000.0
 20
-3064.9999999999959
 30
0.0
 40
50.0
 50
298.81994299999963
 51
228.52376955967549
1001
ACDBBLOCKREPETAG
1070
     1
1071
        7
1005
122318
  0
LINE
  5
122319
  8
CENTER
 10
3080.0
 20
-3064.9999999999959
 30
0.0
 11
2905.0
 21
-3064.9999999999959
 31
0.0
1001
ACDBBLOCKREPETAG
1070
     1
1071
       14
1005
122319
  0
LINE
  5
12231A
  8
CENTER
 10
3000.0
 20
-3159.9999999999959
 30
0.0
 11
3000.0
 21
-2969.9999999999959
 31
0.0
1001
ACDBBLOCKREPETAG
1070
     1
1071
       15
1005
12231A
  0
ARC
  5
12231B
  8
OBJECT
 10
3000.0
 20
-3064.9999999999959
 30
0.0
 40
80.0
 50
50.805032573862128
 51
309.19496742613791
1001
ACDBBLOCKREPETAG
1070
     1
1071
       18
1005
12231B
  0
LINE
  5
12231C
  8
OBJECT
 10
3042.2018956920201
 20
-3002.9999999999959
 30
0.0
 11
3080.0
 21
-3002.9999999999959
 31
0.0
1001
ACDBBLOCKREPETAG
1070
     1
1071
       19
1005
12231C
  0
LINE
  5
12231D
  8
OBJECT
 10
3042.2018956920201
 20
-3126.9999999999959
 30
0.0
 11
3080.0
 21
-3126.9999999999959
 31
0.0
1001
ACDBBLOCKREPETAG
1070
     1
1071
       20
1005
12231D
  0
POINT
  5
12231E
  8
DOTS
 10
3000.0
 20
-3064.9999999999959
 30
0.0
1001
ACDBBLOCKREPETAG
1070
     1
1071
      417
1005
12231E
  0
CIRCLE
  5
12231F
  8
OBJECT
 10
2000.0
 20
-3064.9999999999959
 30
0.0
 40
75.0
1001
ACDBBLOCKREPETAG
1070
     1
1071
      363
1005
12231F
  0
CIRCLE
  5
122320
  8
OBJECT
 10
2000.0
 20
-3064.9999999999959
 30
0.0
 40
52.5
1001
ACDBBLOCKREPETAG
1070
     1
1071
      364
1005
122320
  0
CIRCLE
  5
122321
  8
OBJECT
 10
2000.0
 20
-3064.9999999999959
 30
0.0
 40
57.0
1001
ACDBBLOCKREPETAG
1070
     1
1071
      365
1005
122321
  0
LINE
  5
122322
  8
OBJECT
 10
1969.8635289348581
 20
-3107.9888719523969
 30
0.0
 11
1979.856491823236
 21
-3087.4868825335652
 31
0.0
1001
ACDBBLOCKREPETAG
1070
     1
1071
      381
1005
122322
  0
LINE
  5
122323
  8
OBJECT
 10
1965.749966039157
 20
-3104.7892595266708
 30
0.0
 11
1973.907102266508
 21
-3088.0537300443038
 31
0.0
1001
ACDBBLOCKREPETAG
1070
     1
1071
      382
1005
122323
  0
LINE
  5
122324
  8
OBJECT
 10
2024.1029330933011
 20
-3108.8069471237141
 30
0.0
 11
2020.6596569999961
 21
-3097.554621999996
 31
0.0
1001
ACDBBLOCKREPETAG
1070
     1
1071
      383
1005
122324
  0
ARC
  5
122325
  8
OBJECT
 10
1976.579695307315
 20
-3072.128936982841
 30
0.0
 40
60.031113246032611
 50
316.4174422677533
 51
322.3393610609063
1001
ACDBBLOCKREPETAG
1070
     1
1071
      384
1005
122325
  0
LINE
  5
122326
  8
OBJECT
 10
1986.792749901374
 20
-3083.225533742077
 30
0.0
 11
2020.6596569999961
 21
-3097.5546219999951
 31
0.0
1001
ACDBBLOCKREPETAG
1070
     1
1071
      385
1005
122326
  0
ARC
  5
122327
  8
OBJECT
 10
1982.8961697619
 20
-3092.435129999054
 30
0.0
 40
10.0
 50
67.066778292924639
 51
154.01473437029199
1001
ACDBBLOCKREPETAG
1070
     1
1071
      386
1005
122327
  0
ARC
  5
122328
  8
OBJECT
 10
1986.1488390381271
 20
-3090.5538625672889
 30
0.0
 40
7.0
 50
67.066778292924639
 51
154.01473377496239
1001
ACDBBLOCKREPETAG
1070
     1
1071
      387
1005
122328
  0
ARC
  5
122329
  8
OBJECT
 10
2000.0
 20
-3064.9999999999959
 30
0.0
 40
50.0
 50
298.81994299999963
 51
228.52376955967549
1001
ACDBBLOCKREPETAG
1070
     1
1071
        7
1005
122329
  0
LINE
  5
12232A
  8
CENTER
 10
2080.0
 20
-3064.9999999999959
 30
0.0
 11
1905.0
 21
-3064.9999999999959
 31
0.0
1001
ACDBBLOCKREPETAG
1070
     1
1071
       14
1005
12232A
  0
LINE
  5
12232B
  8
CENTER
 10
2000.0
 20
-3159.9999999999959
 30
0.0
 11
2000.0
 21
-2969.9999999999959
 31
0.0
1001
ACDBBLOCKREPETAG
1070
     1
1071
       15
1005
12232B
  0
ARC
  5
12232C
  8
OBJECT
 10
2000.0
 20
-3064.9999999999959
 30
0.0
 40
80.0
 50
50.805032573862128
 51
309.19496742613791
1001
ACDBBLOCKREPETAG
1070
     1
1071
       18
1005
12232C
  0
LINE
  5
12232D
  8
OBJECT
 10
2042.2018956920181
 20
-3002.9999999999959
 30
0.0
 11
2080.0
 21
-3002.9999999999959
 31
0.0
1001
ACDBBLOCKREPETAG
1070
     1
1071
       19
1005
12232D
  0
LINE
  5
12232E
  8
OBJECT
 10
2042.2018956920181
 20
-3126.9999999999959
 30
0.0
 11
2080.0
 21
-3126.9999999999959
 31
0.0
1001
ACDBBLOCKREPETAG
1070
     1
1071
       20
1005
12232E
  0
POINT
  5
12232F
  8
DOTS
 10
2000.0
 20
-3064.9999999999959
 30
0.0
1001
ACDBBLOCKREPETAG
1070
     1
1071
      417
1005
12232F
  0
LINE
  5
122330
  8
OBJECT
 10
4560.0
 20
-517.99999999999966
 30
0.0
 11
4440.0
 21
-517.99999999999966
 31
0.0
1001
ACDBBLOCKREPETAG
1070
     1
1071
      144
1005
122330
  0
ARC
  5
122331
  8
OBJECT
 10
4440.0
 20
-520.99999999999955
 30
0.0
 40
3.0
 50
90.0
 51
180.0
1001
ACDBBLOCKREPETAG
1070
     1
1071
      145
1005
122331
  0
LINE
  5
122332
  8
OBJECT
 10
4437.0
 20
-520.99999999999955
 30
0.0
 11
4437.0
 21
-523.99999999999955
 31
0.0
1001
ACDBBLOCKREPETAG
1070
     1
1071
      146
1005
122332
  0
LINE
  5
122333
  8
OBJECT
 10
4563.0
 20
-520.99999999999955
 30
0.0
 11
4563.0
 21
-523.99999999999955
 31
0.0
1001
ACDBBLOCKREPETAG
1070
     1
1071
      147
1005
122333
  0
ARC
  5
122334
  8
OBJECT
 10
4560.0
 20
-520.99999999999955
 30
0.0
 40
3.0
 50
0.0
 51
90.0
1001
ACDBBLOCKREPETAG
1070
     1
1071
      148
1005
122334
  0
LINE
  5
122335
  8
OBJECT
 10
4443.0
 20
-449.9999999999996
 30
0.0
 11
4443.0
 21
-517.99999999999966
 31
0.0
1001
ACDBBLOCKREPETAG
1070
     1
1071
      149
1005
122335
  0
LINE
  5
122336
  8
OBJECT
 10
4557.0
 20
-449.9999999999996
 30
0.0
 11
4443.0
 21
-449.9999999999996
 31
0.0
1001
ACDBBLOCKREPETAG
1070
     1
1071
      150
1005
122336
  0
LINE
  5
122337
  8
OBJECT
 10
4557.0
 20
-449.9999999999996
 30
0.0
 11
4557.0
 21
-517.99999999999966
 31
0.0
1001
ACDBBLOCKREPETAG
1070
     1
1071
      151
1005
122337
  0
LINE
  5
122338
  8
CENTER
 10
4500.0
 20
-434.9999999999996
 30
0.0
 11
4500.0
 21
-659.99999999999955
 31
0.0
1001
ACDBBLOCKREPETAG
1070
     1
1071
       20
1005
122338
  0
LINE
  5
122339
  8
OBJECT
 10
4425.0
 20
-523.99999999999955
 30
0.0
 11
4425.0
 21
-647.99999999999955
 31
0.0
1001
ACDBBLOCKREPETAG
1070
     1
1071
       21
1005
122339
  0
LINE
  5
12233A
  8
OBJECT
 10
4420.0
 20
-647.99999999999955
 30
0.0
 11
4580.0
 21
-647.99999999999955
 31
0.0
1001
ACDBBLOCKREPETAG
1070
     1
1071
       22
1005
12233A
  0
LINE
  5
12233B
  8
OBJECT
 10
4574.9999999997144
 20
-523.99999999999955
 30
0.0
 11
4425.0
 21
-523.99999999999955
 31
0.0
1001
ACDBBLOCKREPETAG
1070
     1
1071
       23
1005
12233B
  0
LINE
  5
12233C
  8
OBJECT
 10
4420.0
 20
-647.99999999999955
 30
0.0
 11
4420.0
 21
-659.99999999999955
 31
0.0
1001
ACDBBLOCKREPETAG
1070
     1
1071
       24
1005
12233C
  0
LINE
  5
12233D
  8
OBJECT
 10
4420.0
 20
-659.99999999999955
 30
0.0
 11
4580.0
 21
-659.99999999999955
 31
0.0
1001
ACDBBLOCKREPETAG
1070
     1
1071
       25
1005
12233D
  0
LINE
  5
12233E
  8
OBJECT
 10
4580.0
 20
-659.99999999999955
 30
0.0
 11
4580.0
 21
-647.99999999999955
 31
0.0
1001
ACDBBLOCKREPETAG
1070
     1
1071
       26
1005
12233E
  0
LINE
  5
12233F
  8
OBJECT
 10
4574.9999999997144
 20
-523.99999999999955
 30
0.0
 11
4575.0
 21
-647.99999999999955
 31
0.0
1001
ACDBBLOCKREPETAG
1070
     1
1071
       28
1005
12233F
  0
LINE
  5
122340
  8
HIDDEN
 10
4552.5
 20
-449.9999999999996
 30
0.0
 11
4552.5
 21
-523.99999999999955
 31
0.0
1001
ACDBBLOCKREPETAG
1070
     1
1071
      182
1005
122340
  0
LINE
  5
122341
  8
HIDDEN
 10
4447.5
 20
-449.9999999999996
 30
0.0
 11
4447.5
 21
-523.99999999999955
 31
0.0
1001
ACDBBLOCKREPETAG
1070
     1
1071
      183
1005
122341
  0
POINT
  5
122342
  8
DOTS
 10
4500.0
 20
-644.99999999999955
 30
0.0
1001
ACDBBLOCKREPETAG
1070
     1
1071
      190
1005
122342
  0
LINE
  5
122343
  8
OBJECT
 10
4060.0
 20
-517.99999999999966
 30
0.0
 11
3940.0
 21
-517.99999999999966
 31
0.0
1001
ACDBBLOCKREPETAG
1070
     1
1071
      136
1005
122343
  0
ARC
  5
122344
  8
OBJECT
 10
3940.0
 20
-520.99999999999955
 30
0.0
 40
3.0
 50
90.0
 51
180.0
1001
ACDBBLOCKREPETAG
1070
     1
1071
      137
1005
122344
  0
LINE
  5
122345
  8
OBJECT
 10
3937.0
 20
-520.99999999999955
 30
0.0
 11
3937.0
 21
-523.99999999999955
 31
0.0
1001
ACDBBLOCKREPETAG
1070
     1
1071
      138
1005
122345
  0
LINE
  5
122346
  8
OBJECT
 10
4063.0
 20
-520.99999999999955
 30
0.0
 11
4063.0
 21
-523.99999999999955
 31
0.0
1001
ACDBBLOCKREPETAG
1070
     1
1071
      139
1005
122346
  0
ARC
  5
122347
  8
OBJECT
 10
4060.0
 20
-520.99999999999955
 30
0.0
 40
3.0
 50
0.0
 51
90.0
1001
ACDBBLOCKREPETAG
1070
     1
1071
      140
1005
122347
  0
LINE
  5
122348
  8
OBJECT
 10
3943.0
 20
-449.99999999999937
 30
0.0
 11
3943.0
 21
-517.99999999999966
 31
0.0
1001
ACDBBLOCKREPETAG
1070
     1
1071
      141
1005
122348
  0
LINE
  5
122349
  8
OBJECT
 10
4057.0
 20
-449.99999999999937
 30
0.0
 11
3943.0
 21
-449.99999999999937
 31
0.0
1001
ACDBBLOCKREPETAG
1070
     1
1071
      142
1005
122349
  0
LINE
  5
12234A
  8
OBJECT
 10
4057.0
 20
-449.99999999999937
 30
0.0
 11
4057.0
 21
-517.99999999999966
 31
0.0
1001
ACDBBLOCKREPETAG
1070
     1
1071
      143
1005
12234A
  0
LINE
  5
12234B
  8
CENTER
 10
4000.0
 20
-434.99999999999949
 30
0.0
 11
4000.0
 21
-659.99999999999955
 31
0.0
1001
ACDBBLOCKREPETAG
1070
     1
1071
        0
1005
12234B
  0
LINE
  5
12234C
  8
OBJECT
 10
3925.0
 20
-523.99999999999955
 30
0.0
 11
3925.0
 21
-647.99999999999955
 31
0.0
1001
ACDBBLOCKREPETAG
1070
     1
1071
        1
1005
12234C
  0
LINE
  5
12234D
  8
OBJECT
 10
3920.0
 20
-647.99999999999955
 30
0.0
 11
4080.0
 21
-647.99999999999955
 31
0.0
1001
ACDBBLOCKREPETAG
1070
     1
1071
        2
1005
12234D
  0
LINE
  5
12234E
  8
OBJECT
 10
4080.0
 20
-523.99999999999955
 30
0.0
 11
3925.0
 21
-523.99999999999955
 31
0.0
1001
ACDBBLOCKREPETAG
1070
     1
1071
        3
1005
12234E
  0
LINE
  5
12234F
  8
OBJECT
 10
3920.0
 20
-647.99999999999955
 30
0.0
 11
3920.0
 21
-659.99999999999955
 31
0.0
1001
ACDBBLOCKREPETAG
1070
     1
1071
        4
1005
12234F
  0
LINE
  5
122350
  8
OBJECT
 10
3920.0
 20
-659.99999999999955
 30
0.0
 11
4080.0
 21
-659.99999999999955
 31
0.0
1001
ACDBBLOCKREPETAG
1070
     1
1071
        5
1005
122350
  0
LINE
  5
122351
  8
OBJECT
 10
4080.0
 20
-659.99999999999955
 30
0.0
 11
4080.0
 21
-647.99999999999955
 31
0.0
1001
ACDBBLOCKREPETAG
1070
     1
1071
        6
1005
122351
  0
ARC
  5
122352
  8
OBJECT
 10
4200.6872746716726
 20
-639.4080994101073
 30
0.0
 40
170.6350503965856
 50
137.44134459184301
 51
149.91949581337221
1001
ACDBBLOCKREPETAG
1070
     1
1071
       15
1005
122352
  0
ARC
  5
122353
  8
OBJECT
 10
4118.8455987040506
 20
-595.88272669536457
 30
0.0
 40
78.072222021763665
 50
147.4551531038623
 51
164.66365997719231
1001
ACDBBLOCKREPETAG
1070
     1
1071
       16
1005
122353
  0
ARC
  5
122354
  8
OBJECT
 10
4085.7554349608722
 20
-585.99999999999955
 30
0.0
 40
43.55353926885617
 50
165.68845230068339
 51
194.31154769931649
1001
ACDBBLOCKREPETAG
1070
     1
1071
       17
1005
122354
  0
ARC
  5
122355
  8
OBJECT
 10
4200.6872746716726
 20
-532.59190058989157
 30
0.0
 40
170.6350503965856
 50
210.08050418662771
 51
222.55865540815699
1001
ACDBBLOCKREPETAG
1070
     1
1071
       18
1005
122355
  0
ARC
  5
122356
  8
OBJECT
 10
4118.8455987040506
 20
-576.11727330463452
 30
0.0
 40
78.072222021763665
 50
195.33634002280749
 51
212.5448468961377
1001
ACDBBLOCKREPETAG
1070
     1
1071
       19
1005
122356
  0
LINE
  5
122357
  8
HIDDEN
 10
4052.5
 20
-449.99999999999937
 30
0.0
 11
4052.5
 21
-523.99999999999955
 31
0.0
1001
ACDBBLOCKREPETAG
1070
     1
1071
      180
1005
122357
  0
LINE
  5
122358
  8
HIDDEN
 10
3947.5
 20
-449.99999999999937
 30
0.0
 11
3947.5
 21
-523.99999999999955
 31
0.0
1001
ACDBBLOCKREPETAG
1070
     1
1071
      181
1005
122358
  0
POINT
  5
122359
  8
DOTS
 10
4000.0
 20
-644.99999999999955
 30
0.0
1001
ACDBBLOCKREPETAG
1070
     1
1071
      191
1005
122359
  0
ARC
  5
12235A
  8
OBJECT
 10
4000.0
 20
-199.99999999999909
 30
0.0
 40
50.0
 50
298.81994300000417
 51
228.52376955964741
1001
ACDBBLOCKREPETAG
1070
     1
1071
      185
1005
12235A
  0
INSERT
  5
12235B
  8
SLIM
  6
CONTINUOUS
  2
*X3
 10
0.0
 20
0.0
 30
0.0
1001
GRADIENTCOLOR1ACI
1070
     5
1001
GRADIENTCOLOR2ACI
1070
     2
1001
ACDBBLOCKREPETAG
1070
     1
1071
      410
1005
12235B
1001
ACAD
1000
HATCH
1002
{
1070
    19
1000
EARTH
1040
1.0
1040
0.7853981633974483
1000
R14_HATCH_DATA
1000
12235B
1011
1.0
1021
0.0
1031
0.0
1021
0.0
1031
0.0
1011
0.0
1021
0.0
1031
0.0
1021
1.0
1031
0.0
1011
0.0
1021
0.0
1031
0.0
1021
0.0
1031
1.0
1040
0.0
1010
0.0
1020
0.0
1030
1.0
1000
EARTH
1070
     0
1070
     0
1071
        4
1071
        7
1070
     1
1070
     1
1071
        4
1040
4000.0
1040
-124.9999999999991
1040
0.0
1040
4000.0
1040
-114.9999999999991
1040
0.4142135623730951
1040
3915.0
1040
-199.99999999999909
1040
0.0
1040
3925.0
1040
-199.99999999999909
1040
-0.4142135623730951
1071
        0
1071
        7
1070
     1
1070
     1
1071
        4
1040
4000.0
1040
-114.9999999999991
1040
0.0
1040
4000.0
1040
-124.9999999999991
1040
-0.1505314338169883
1040
4042.2018956920169
1040
-137.99999999999909
1040
0.0
1040
4058.1463670404269
1040
-137.99999999999909
1040
0.1905924244794523
1071
        0
1071
        7
1070
     1
1070
     1
1071
        4
1040
3925.0
1040
-199.99999999999909
1040
0.0
1040
3915.0
1040
-199.99999999999909
1040
0.4142135623730951
1040
4000.0
1040
-284.99999999999898
1040
0.0
1040
4000.0
1040
-274.99999999999909
1040
-0.4142135623730951
1071
        0
1071
        7
1070
     1
1070
     1
1071
        4
1040
4058.1463670404269
1040
-261.99999999999909
1040
0.0
1040
4042.2018956920169
1040
-261.99999999999909
1040
-0.1505314338169883
1040
4000.0
1040
-274.99999999999909
1040
0.0
1040
4000.0
1040
-284.99999999999898
1040
0.1905924244794523
1071
        0
1070
     0
1070
     1
1040
0.7853981633974483
1040
1.0
1070
     0
1070
     6
1040
0.7853981633974483
1040
4000.0
1040
-199.99999999999909
1040
0.0000000000000009
1040
8.9802561210691536
1070
     2
1040
6.3499999999999979
1040
-6.3499999999999979
1040
0.7853981633974483
1040
3998.3162019772999
1040
-198.3162019772985
1040
0.0000000000000009
1040
8.9802561210691536
1070
     2
1040
6.3499999999999979
1040
-6.3499999999999979
1040
0.7853981633974483
1040
3996.6324039545989
1040
-196.63240395459809
1040
0.0000000000000009
1040
8.9802561210691536
1070
     2
1040
6.3499999999999979
1040
-6.3499999999999979
1040
2.3561944901923431
1040
3996.6324039545989
1040
-195.5098719394644
1040
-8.9802561210691536
1040
0.0000000000000009
1070
     2
1040
6.3499999999999979
1040
-6.3499999999999979
1040
2.3561944901923431
1040
3998.3162019772999
1040
-193.82607391676399
1040
-8.9802561210691536
1040
0.0000000000000009
1070
     2
1040
6.3499999999999979
1040
-6.3499999999999979
1040
2.3561944901923431
1040
4000.0
1040
-192.1422758940636
1040
-8.9802561210691536
1040
0.0000000000000009
1070
     2
1040
6.3499999999999979
1040
-6.3499999999999979
1040
0.3053229869521416
1071
        4
1040
3959.5892010489192
1040
-130.8712738544678
1040
0.0
1040
4014.281180558874
1040
-123.8488453063099
1040
0.0
1040
3923.229726966516
1040
-221.5522009330717
1040
0.0
1040
4010.920221300692
1040
-281.0901840473847
1040
0.0
1002
}
  0
LINE
  5
12235C
  8
CENTER
 10
4080.0
 20
-199.99999999999909
 30
0.0
 11
3900.0
 21
-199.99999999999909
 31
0.0
1001
ACDBBLOCKREPETAG
1070
     1
1071
      187
1005
12235C
  0
LINE
  5
12235D
  8
CENTER
 10
4000.0
 20
-299.99999999999898
 30
0.0
 11
4000.0
 21
-99.999999999999091
 31
0.0
1001
ACDBBLOCKREPETAG
1070
     1
1071
      188
1005
12235D
  0
LINE
  5
12235E
  8
OBJECT
 10
4042.2018956920169
 20
-137.99999999999909
 30
0.0
 11
4080.0
 21
-137.99999999999909
 31
0.0
1001
ACDBBLOCKREPETAG
1070
     1
1071
      192
1005
12235E
  0
LINE
  5
12235F
  8
OBJECT
 10
4042.2018956920169
 20
-261.99999999999909
 30
0.0
 11
4080.0
 21
-261.99999999999909
 31
0.0
1001
ACDBBLOCKREPETAG
1070
     1
1071
      193
1005
12235F
  0
ARC
  5
122360
  8
OBJECT
 10
4000.0
 20
-199.99999999999909
 30
0.0
 40
85.0
 50
46.837102859834147
 51
313.16289714016602
1001
ACDBBLOCKREPETAG
1070
     1
1071
      202
1005
122360
  0
CIRCLE
  5
122361
  8
OBJECT
 10
4000.0
 20
-199.99999999999909
 30
0.0
 40
75.0
1001
ACDBBLOCKREPETAG
1070
     1
1071
      372
1005
122361
  0
CIRCLE
  5
122362
  8
OBJECT
 10
4000.0
 20
-199.99999999999909
 30
0.0
 40
52.5
1001
ACDBBLOCKREPETAG
1070
     1
1071
      373
1005
122362
  0
CIRCLE
  5
122363
  8
OBJECT
 10
4000.0
 20
-199.99999999999909
 30
0.0
 40
57.0
1001
ACDBBLOCKREPETAG
1070
     1
1071
      374
1005
122363
  0
LINE
  5
122364
  8
OBJECT
 10
3969.8635289348599
 20
-242.98887195239979
 30
0.0
 11
3979.8564918232369
 21
-222.48688253356801
 31
0.0
1001
ACDBBLOCKREPETAG
1070
     1
1071
      402
1005
122364
  0
LINE
  5
122365
  8
OBJECT
 10
3965.7499660391568
 20
-239.7892595266741
 30
0.0
 11
3973.9071022665089
 21
-223.05373004430751
 31
0.0
1001
ACDBBLOCKREPETAG
1070
     1
1071
      403
1005
122365
  0
LINE
  5
122366
  8
OBJECT
 10
4024.102933093302
 20
-243.80694712371681
 30
0.0
 11
4020.6596569999951
 21
-232.55462199999889
 31
0.0
1001
ACDBBLOCKREPETAG
1070
     1
1071
      404
1005
122366
  0
ARC
  5
122367
  8
OBJECT
 10
3976.579695307315
 20
-207.1289369828437
 30
0.0
 40
60.031113246032611
 50
316.41744226774563
 51
322.33936106091278
1001
ACDBBLOCKREPETAG
1070
     1
1071
      405
1005
122367
  0
LINE
  5
122368
  8
OBJECT
 10
3986.7927499013749
 20
-218.22553374208019
 30
0.0
 11
4020.6596569999951
 21
-232.5546219999969
 31
0.0
1001
ACDBBLOCKREPETAG
1070
     1
1071
      406
1005
122368
  0
ARC
  5
122369
  8
OBJECT
 10
3982.896169761902
 20
-227.4351299990567
 30
0.0
 40
10.0
 50
67.066778292911366
 51
154.0147343702935
1001
ACDBBLOCKREPETAG
1070
     1
1071
      407
1005
122369
  0
ARC
  5
12236A
  8
OBJECT
 10
3986.1488390381278
 20
-225.55386256729159
 30
0.0
 40
7.0
 50
67.066778292911366
 51
154.01473377497121
1001
ACDBBLOCKREPETAG
1070
     1
1071
      408
1005
12236A
  0
POINT
  5
12236B
  8
DOTS
 10
4000.0
 20
-199.99999999999909
 30
0.0
1001
ACDBBLOCKREPETAG
1070
     1
1071
      413
1005
12236B
  0
LINE
  5
12236C
  8
CENTER
 10
4577.0
 20
-586.0
 30
0.0
 11
4423.0
 21
-586.0
 31
0.0
1001
ACDBBLOCKREPETAG
1070
     1
1071
       17
1005
12236C
  0
CIRCLE
  5
12236D
  8
OBJECT
 10
4500.0
 20
-586.0
 30
0.0
 40
41.5
1001
ACDBBLOCKREPETAG
1070
     1
1071
       19
1005
12236D
  0
CIRCLE
  5
12236E
  8
OBJECT
 10
4500.0
 20
-586.0
 30
0.0
 40
54.0
1001
ACDBBLOCKREPETAG
1070
     1
1071
       20
1005
12236E
  0
ARC
  5
12236F
  8
OBJECT
 10
4500.0
 20
-586.0
 30
0.0
 40
62.0
 50
287.89655112920718
 51
252.10344887079279
1001
ACDBBLOCKREPETAG
1070
     1
1071
       21
1005
12236F
  0
LINE
  5
122370
  8
OBJECT
 10
4480.9474411167421
 20
-645.0
 30
0.0
 11
4519.052558883257
 21
-645.0
 31
0.0
1001
ACDBBLOCKREPETAG
1070
     1
1071
       22
1005
122370
  0
LINE
  5
122371
  8
OBJECT
 10
4133.0
 20
-524.0
 30
0.0
 11
4140.0
 21
-524.0
 31
0.0
1001
ACDBBLOCKREPETAG
1070
     1
1071
       45
1005
122371
  0
LINE
  5
122372
  8
OBJECT
 10
4140.0
 20
-524.0
 30
0.0
 11
4140.0
 21
-645.0
 31
0.0
1001
ACDBBLOCKREPETAG
1070
     1
1071
       46
1005
122372
  0
LINE
  5
122373
  8
OBJECT
 10
4133.0
 20
-645.0
 30
0.0
 11
4133.0
 21
-524.0
 31
0.0
1001
ACDBBLOCKREPETAG
1070
     1
1071
       47
1005
122373
  0
LINE
  5
122374
  8
CENTER
 10
4155.0
 20
-586.0
 30
0.0
 11
4071.0
 21
-586.0
 31
0.0
1001
ACDBBLOCKREPETAG
1070
     1
1071
       48
1005
122374
  0
LINE
  5
122375
  8
OBJECT
 10
4133.0
 20
-527.0
 30
0.0
 11
4097.0
 21
-527.0
 31
0.0
1001
ACDBBLOCKREPETAG
1070
     1
1071
       49
1005
122375
  0
LINE
  5
122376
  8
OBJECT
 10
4097.0
 20
-527.0
 30
0.0
 11
4097.0
 21
-645.0
 31
0.0
1001
ACDBBLOCKREPETAG
1070
     1
1071
       50
1005
122376
  0
LINE
  5
122377
  8
OBJECT
 10
4097.0
 20
-645.0
 30
0.0
 11
4140.0
 21
-645.0
 31
0.0
1001
ACDBBLOCKREPETAG
1070
     1
1071
       51
1005
122377
  0
LINE
  5
122378
  8
OBJECT
 10
4093.0
 20
-531.5
 30
0.0
 11
4086.0
 21
-531.5
 31
0.0
1001
ACDBBLOCKREPETAG
1070
     1
1071
       52
1005
122378
  0
LINE
  5
122379
  8
OBJECT
 10
4086.0
 20
-640.5
 30
0.0
 11
4093.0
 21
-640.5
 31
0.0
1001
ACDBBLOCKREPETAG
1070
     1
1071
       53
1005
122379
  0
LINE
  5
12237A
  8
OBJECT
 10
4093.0
 20
-640.5
 30
0.0
 11
4093.0
 21
-531.5
 31
0.0
1001
ACDBBLOCKREPETAG
1070
     1
1071
       54
1005
12237A
  0
LINE
  5
12237B
  8
OBJECT
 10
4097.0
 20
-527.0
 30
0.0
 11
4093.0
 21
-531.5
 31
0.0
1001
ACDBBLOCKREPETAG
1070
     1
1071
       55
1005
12237B
  0
LINE
  5
12237C
  8
OBJECT
 10
4097.0
 20
-645.0
 30
0.0
 11
4093.0
 21
-640.5
 31
0.0
1001
ACDBBLOCKREPETAG
1070
     1
1071
       56
1005
12237C
  0
LINE
  5
12237D
  8
OBJECT
 10
4083.0
 20
-524.0
 30
0.0
 11
4080.0
 21
-524.0
 31
0.0
1001
ACDBBLOCKREPETAG
1070
     1
1071
       57
1005
12237D
  0
ARC
  5
12237E
  8
OBJECT
 10
4083.0
 20
-527.0
 30
0.0
 40
3.0
 50
0.0
 51
90.0
1001
ACDBBLOCKREPETAG
1070
     1
1071
       58
1005
12237E
  0
LINE
  5
12237F
  8
OBJECT
 10
4080.0
 20
-648.0
 30
0.0
 11
4083.0
 21
-648.0
 31
0.0
1001
ACDBBLOCKREPETAG
1070
     1
1071
       59
1005
12237F
  0
ARC
  5
122380
  8
OBJECT
 10
4083.0
 20
-645.0
 30
0.0
 40
3.0
 50
270.0
 51
0.0
1001
ACDBBLOCKREPETAG
1070
     1
1071
       60
1005
122380
  0
LINE
  5
122381
  8
OBJECT
 10
4086.0
 20
-645.0
 30
0.0
 11
4086.0
 21
-527.0
 31
0.0
1001
ACDBBLOCKREPETAG
1070
     1
1071
       61
1005
122381
  0
LINE
  5
122382
  8
HIDDEN
 10
4088.0
 20
-541.5
 30
0.0
 11
4088.0
 21
-630.49999999999977
 31
0.0
1001
ACDBBLOCKREPETAG
1070
     1
1071
       63
1005
122382
  0
LINE
  5
122383
  8
OBJECT
 10
4133.0
 20
-137.99999999999909
 30
0.0
 11
4140.0
 21
-137.99999999999909
 31
0.0
1001
ACDBBLOCKREPETAG
1070
     1
1071
       47
1005
122383
  0
LINE
  5
122384
  8
OBJECT
 10
4140.0
 20
-137.99999999999909
 30
0.0
 11
4140.0
 21
-261.99999999999909
 31
0.0
1001
ACDBBLOCKREPETAG
1070
     1
1071
       48
1005
122384
  0
LINE
  5
122385
  8
OBJECT
 10
4140.0
 20
-261.99999999999909
 30
0.0
 11
4133.0
 21
-261.99999999999909
 31
0.0
1001
ACDBBLOCKREPETAG
1070
     1
1071
       49
1005
122385
  0
LINE
  5
122386
  8
OBJECT
 10
4133.0
 20
-261.99999999999909
 30
0.0
 11
4133.0
 21
-137.99999999999909
 31
0.0
1001
ACDBBLOCKREPETAG
1070
     1
1071
       50
1005
122386
  0
LINE
  5
122387
  8
CENTER
 10
4155.0
 20
-199.99999999999909
 30
0.0
 11
4080.0
 21
-199.99999999999909
 31
0.0
1001
ACDBBLOCKREPETAG
1070
     1
1071
       51
1005
122387
  0
LINE
  5
122388
  8
OBJECT
 10
4133.0
 20
-140.99999999999909
 30
0.0
 11
4097.0
 21
-140.99999999999909
 31
0.0
1001
ACDBBLOCKREPETAG
1070
     1
1071
       52
1005
122388
  0
LINE
  5
122389
  8
OBJECT
 10
4097.0
 20
-140.99999999999909
 30
0.0
 11
4097.0
 21
-258.99999999999909
 31
0.0
1001
ACDBBLOCKREPETAG
1070
     1
1071
       53
1005
122389
  0
LINE
  5
12238A
  8
OBJECT
 10
4097.0
 20
-258.99999999999909
 30
0.0
 11
4133.0
 21
-258.99999999999909
 31
0.0
1001
ACDBBLOCKREPETAG
1070
     1
1071
       54
1005
12238A
  0
LINE
  5
12238B
  8
OBJECT
 10
4093.0
 20
-145.49999999999909
 30
0.0
 11
4086.0
 21
-145.49999999999909
 31
0.0
1001
ACDBBLOCKREPETAG
1070
     1
1071
       55
1005
12238B
  0
LINE
  5
12238C
  8
OBJECT
 10
4086.0
 20
-254.49999999999909
 30
0.0
 11
4093.0
 21
-254.49999999999909
 31
0.0
1001
ACDBBLOCKREPETAG
1070
     1
1071
       56
1005
12238C
  0
LINE
  5
12238D
  8
OBJECT
 10
4093.0
 20
-254.49999999999909
 30
0.0
 11
4093.0
 21
-145.49999999999909
 31
0.0
1001
ACDBBLOCKREPETAG
1070
     1
1071
       57
1005
12238D
  0
LINE
  5
12238E
  8
OBJECT
 10
4097.0
 20
-140.99999999999909
 30
0.0
 11
4093.0
 21
-145.49999999999909
 31
0.0
1001
ACDBBLOCKREPETAG
1070
     1
1071
       58
1005
12238E
  0
LINE
  5
12238F
  8
OBJECT
 10
4097.0
 20
-258.99999999999909
 30
0.0
 11
4093.0
 21
-254.49999999999909
 31
0.0
1001
ACDBBLOCKREPETAG
1070
     1
1071
       59
1005
12238F
  0
LINE
  5
122390
  8
OBJECT
 10
4083.0
 20
-137.99999999999909
 30
0.0
 11
4080.0
 21
-137.99999999999909
 31
0.0
1001
ACDBBLOCKREPETAG
1070
     1
1071
       60
1005
122390
  0
ARC
  5
122391
  8
OBJECT
 10
4083.0
 20
-140.99999999999909
 30
0.0
 40
3.0
 50
0.0
 51
90.0
1001
ACDBBLOCKREPETAG
1070
     1
1071
       61
1005
122391
  0
LINE
  5
122392
  8
OBJECT
 10
4080.0
 20
-261.99999999999909
 30
0.0
 11
4083.0
 21
-261.99999999999909
 31
0.0
1001
ACDBBLOCKREPETAG
1070
     1
1071
       62
1005
122392
  0
ARC
  5
122393
  8
OBJECT
 10
4083.0
 20
-258.99999999999909
 30
0.0
 40
3.0
 50
270.0
 51
0.0
1001
ACDBBLOCKREPETAG
1070
     1
1071
       63
1005
122393
  0
LINE
  5
122394
  8
OBJECT
 10
4086.0
 20
-258.99999999999909
 30
0.0
 11
4086.0
 21
-140.99999999999909
 31
0.0
1001
ACDBBLOCKREPETAG
1070
     1
1071
       64
1005
122394
  0
LINE
  5
122395
  8
HIDDEN
 10
4088.0
 20
-155.49999999999909
 30
0.0
 11
4088.0
 21
-244.49999999999909
 31
0.0
1001
ACDBBLOCKREPETAG
1070
     1
1071
       65
1005
122395
  0
LINE
  5
122396
  8
OBJECT
 10
2560.0
 20
-517.99999999999966
 30
0.0
 11
2440.0
 21
-517.99999999999966
 31
0.0
1001
ACDBBLOCKREPETAG
1070
     1
1071
      144
1005
122396
  0
ARC
  5
122397
  8
OBJECT
 10
2440.0
 20
-520.99999999999955
 30
0.0
 40
3.0
 50
90.0
 51
180.0
1001
ACDBBLOCKREPETAG
1070
     1
1071
      145
1005
122397
  0
LINE
  5
122398
  8
OBJECT
 10
2437.0
 20
-520.99999999999955
 30
0.0
 11
2437.0
 21
-523.99999999999955
 31
0.0
1001
ACDBBLOCKREPETAG
1070
     1
1071
      146
1005
122398
  0
LINE
  5
122399
  8
OBJECT
 10
2563.0
 20
-520.99999999999955
 30
0.0
 11
2563.0
 21
-523.99999999999955
 31
0.0
1001
ACDBBLOCKREPETAG
1070
     1
1071
      147
1005
122399
  0
ARC
  5
12239A
  8
OBJECT
 10
2560.0
 20
-520.99999999999955
 30
0.0
 40
3.0
 50
0.0
 51
90.0
1001
ACDBBLOCKREPETAG
1070
     1
1071
      148
1005
12239A
  0
LINE
  5
12239B
  8
OBJECT
 10
2443.0
 20
-449.9999999999996
 30
0.0
 11
2443.0
 21
-517.99999999999966
 31
0.0
1001
ACDBBLOCKREPETAG
1070
     1
1071
      149
1005
12239B
  0
LINE
  5
12239C
  8
OBJECT
 10
2557.0
 20
-449.9999999999996
 30
0.0
 11
2443.0
 21
-449.9999999999996
 31
0.0
1001
ACDBBLOCKREPETAG
1070
     1
1071
      150
1005
12239C
  0
LINE
  5
12239D
  8
OBJECT
 10
2557.0
 20
-449.9999999999996
 30
0.0
 11
2557.0
 21
-517.99999999999966
 31
0.0
1001
ACDBBLOCKREPETAG
1070
     1
1071
      151
1005
12239D
  0
LINE
  5
12239E
  8
CENTER
 10
2500.0
 20
-434.9999999999996
 30
0.0
 11
2500.0
 21
-659.99999999999955
 31
0.0
1001
ACDBBLOCKREPETAG
1070
     1
1071
       20
1005
12239E
  0
LINE
  5
12239F
  8
OBJECT
 10
2425.0
 20
-523.99999999999955
 30
0.0
 11
2425.0
 21
-647.99999999999955
 31
0.0
1001
ACDBBLOCKREPETAG
1070
     1
1071
       21
1005
12239F
  0
LINE
  5
1223A0
  8
OBJECT
 10
2420.0
 20
-647.99999999999955
 30
0.0
 11
2580.0
 21
-647.99999999999955
 31
0.0
1001
ACDBBLOCKREPETAG
1070
     1
1071
       22
1005
1223A0
  0
LINE
  5
1223A1
  8
OBJECT
 10
2574.9999999997131
 20
-523.99999999999955
 30
0.0
 11
2425.0
 21
-523.99999999999955
 31
0.0
1001
ACDBBLOCKREPETAG
1070
     1
1071
       23
1005
1223A1
  0
LINE
  5
1223A2
  8
OBJECT
 10
2420.0
 20
-647.99999999999955
 30
0.0
 11
2420.0
 21
-659.99999999999955
 31
0.0
1001
ACDBBLOCKREPETAG
1070
     1
1071
       24
1005
1223A2
  0
LINE
  5
1223A3
  8
OBJECT
 10
2420.0
 20
-659.99999999999955
 30
0.0
 11
2580.0
 21
-659.99999999999955
 31
0.0
1001
ACDBBLOCKREPETAG
1070
     1
1071
       25
1005
1223A3
  0
LINE
  5
1223A4
  8
OBJECT
 10
2580.0
 20
-659.99999999999955
 30
0.0
 11
2580.0
 21
-647.99999999999955
 31
0.0
1001
ACDBBLOCKREPETAG
1070
     1
1071
       26
1005
1223A4
  0
LINE
  5
1223A5
  8
OBJECT
 10
2574.9999999997131
 20
-523.99999999999955
 30
0.0
 11
2575.0
 21
-647.99999999999955
 31
0.0
1001
ACDBBLOCKREPETAG
1070
     1
1071
       28
1005
1223A5
  0
LINE
  5
1223A6
  8
HIDDEN
 10
2552.5
 20
-449.9999999999996
 30
0.0
 11
2552.5
 21
-523.99999999999955
 31
0.0
1001
ACDBBLOCKREPETAG
1070
     1
1071
      182
1005
1223A6
  0
LINE
  5
1223A7
  8
HIDDEN
 10
2447.5
 20
-449.9999999999996
 30
0.0
 11
2447.5
 21
-523.99999999999955
 31
0.0
1001
ACDBBLOCKREPETAG
1070
     1
1071
      183
1005
1223A7
  0
POINT
  5
1223A8
  8
DOTS
 10
2500.0
 20
-644.99999999999955
 30
0.0
1001
ACDBBLOCKREPETAG
1070
     1
1071
      190
1005
1223A8
  0
LINE
  5
1223A9
  8
OBJECT
 10
2060.0
 20
-517.99999999999966
 30
0.0
 11
1940.0
 21
-517.99999999999966
 31
0.0
1001
ACDBBLOCKREPETAG
1070
     1
1071
      136
1005
1223A9
  0
ARC
  5
1223AA
  8
OBJECT
 10
1940.0
 20
-520.99999999999955
 30
0.0
 40
3.0
 50
90.0
 51
180.0
1001
ACDBBLOCKREPETAG
1070
     1
1071
      137
1005
1223AA
  0
LINE
  5
1223AB
  8
OBJECT
 10
1937.0
 20
-520.99999999999955
 30
0.0
 11
1937.0
 21
-523.99999999999955
 31
0.0
1001
ACDBBLOCKREPETAG
1070
     1
1071
      138
1005
1223AB
  0
LINE
  5
1223AC
  8
OBJECT
 10
2063.0
 20
-520.99999999999955
 30
0.0
 11
2063.0
 21
-523.99999999999955
 31
0.0
1001
ACDBBLOCKREPETAG
1070
     1
1071
      139
1005
1223AC
  0
ARC
  5
1223AD
  8
OBJECT
 10
2060.0
 20
-520.99999999999955
 30
0.0
 40
3.0
 50
0.0
 51
90.0
1001
ACDBBLOCKREPETAG
1070
     1
1071
      140
1005
1223AD
  0
LINE
  5
1223AE
  8
OBJECT
 10
1943.0
 20
-449.99999999999937
 30
0.0
 11
1943.0
 21
-517.99999999999966
 31
0.0
1001
ACDBBLOCKREPETAG
1070
     1
1071
      141
1005
1223AE
  0
LINE
  5
1223AF
  8
OBJECT
 10
2057.0
 20
-449.99999999999937
 30
0.0
 11
1943.0
 21
-449.99999999999937
 31
0.0
1001
ACDBBLOCKREPETAG
1070
     1
1071
      142
1005
1223AF
  0
LINE
  5
1223B0
  8
OBJECT
 10
2057.0
 20
-449.99999999999937
 30
0.0
 11
2057.0
 21
-517.99999999999966
 31
0.0
1001
ACDBBLOCKREPETAG
1070
     1
1071
      143
1005
1223B0
  0
LINE
  5
1223B1
  8
CENTER
 10
2000.0
 20
-434.99999999999949
 30
0.0
 11
2000.0
 21
-659.99999999999955
 31
0.0
1001
ACDBBLOCKREPETAG
1070
     1
1071
        0
1005
1223B1
  0
LINE
  5
1223B2
  8
OBJECT
 10
1925.0
 20
-523.99999999999955
 30
0.0
 11
1925.0
 21
-647.99999999999955
 31
0.0
1001
ACDBBLOCKREPETAG
1070
     1
1071
        1
1005
1223B2
  0
LINE
  5
1223B3
  8
OBJECT
 10
1920.0
 20
-647.99999999999955
 30
0.0
 11
2080.0
 21
-647.99999999999955
 31
0.0
1001
ACDBBLOCKREPETAG
1070
     1
1071
        2
1005
1223B3
  0
LINE
  5
1223B4
  8
OBJECT
 10
2080.0
 20
-523.99999999999955
 30
0.0
 11
1925.0
 21
-523.99999999999955
 31
0.0
1001
ACDBBLOCKREPETAG
1070
     1
1071
        3
1005
1223B4
  0
LINE
  5
1223B5
  8
OBJECT
 10
1920.0
 20
-647.99999999999955
 30
0.0
 11
1920.0
 21
-659.99999999999955
 31
0.0
1001
ACDBBLOCKREPETAG
1070
     1
1071
        4
1005
1223B5
  0
LINE
  5
1223B6
  8
OBJECT
 10
1920.0
 20
-659.99999999999955
 30
0.0
 11
2080.0
 21
-659.99999999999955
 31
0.0
1001
ACDBBLOCKREPETAG
1070
     1
1071
        5
1005
1223B6
  0
LINE
  5
1223B7
  8
OBJECT
 10
2080.0
 20
-659.99999999999955
 30
0.0
 11
2080.0
 21
-647.99999999999955
 31
0.0
1001
ACDBBLOCKREPETAG
1070
     1
1071
        6
1005
1223B7
  0
ARC
  5
1223B8
  8
OBJECT
 10
2200.6872746716731
 20
-639.4080994101073
 30
0.0
 40
170.6350503965856
 50
137.44134459184301
 51
149.91949581336559
1001
ACDBBLOCKREPETAG
1070
     1
1071
       15
1005
1223B8
  0
ARC
  5
1223B9
  8
OBJECT
 10
2118.8455987040511
 20
-595.88272669536457
 30
0.0
 40
78.072222021763665
 50
147.4551531038623
 51
164.66365997719581
1001
ACDBBLOCKREPETAG
1070
     1
1071
       16
1005
1223B9
  0
ARC
  5
1223BA
  8
OBJECT
 10
2085.7554349608731
 20
-585.99999999999955
 30
0.0
 40
43.55353926885617
 50
165.6884523006803
 51
194.3115476993197
1001
ACDBBLOCKREPETAG
1070
     1
1071
       17
1005
1223BA
  0
ARC
  5
1223BB
  8
OBJECT
 10
2200.6872746716731
 20
-532.59190058989157
 30
0.0
 40
170.6350503965856
 50
210.0805041866343
 51
222.55865540815699
1001
ACDBBLOCKREPETAG
1070
     1
1071
       18
1005
1223BB
  0
ARC
  5
1223BC
  8
OBJECT
 10
2118.8455987040511
 20
-576.11727330463452
 30
0.0
 40
78.072222021763665
 50
195.33634002280411
 51
212.5448468961377
1001
ACDBBLOCKREPETAG
1070
     1
1071
       19
1005
1223BC
  0
LINE
  5
1223BD
  8
HIDDEN
 10
2052.5
 20
-449.99999999999937
 30
0.0
 11
2052.5
 21
-523.99999999999955
 31
0.0
1001
ACDBBLOCKREPETAG
1070
     1
1071
      180
1005
1223BD
  0
LINE
  5
1223BE
  8
HIDDEN
 10
1947.5
 20
-449.99999999999937
 30
0.0
 11
1947.5
 21
-523.99999999999955
 31
0.0
1001
ACDBBLOCKREPETAG
1070
     1
1071
      181
1005
1223BE
  0
POINT
  5
1223BF
  8
DOTS
 10
2000.0
 20
-644.99999999999955
 30
0.0
1001
ACDBBLOCKREPETAG
1070
     1
1071
      191
1005
1223BF
  0
CIRCLE
  5
1223C0
  8
OBJECT
 10
2000.0
 20
-199.99999999999909
 30
0.0
 40
75.0
1001
ACDBBLOCKREPETAG
1070
     1
1071
      363
1005
1223C0
  0
CIRCLE
  5
1223C1
  8
OBJECT
 10
2000.0
 20
-199.99999999999909
 30
0.0
 40
52.5
1001
ACDBBLOCKREPETAG
1070
     1
1071
      364
1005
1223C1
  0
CIRCLE
  5
1223C2
  8
OBJECT
 10
2000.0
 20
-199.99999999999909
 30
0.0
 40
57.0
1001
ACDBBLOCKREPETAG
1070
     1
1071
      365
1005
1223C2
  0
LINE
  5
1223C3
  8
OBJECT
 10
1969.8635289348581
 20
-242.98887195239979
 30
0.0
 11
1979.856491823236
 21
-222.48688253356801
 31
0.0
1001
ACDBBLOCKREPETAG
1070
     1
1071
      381
1005
1223C3
  0
LINE
  5
1223C4
  8
OBJECT
 10
1965.749966039157
 20
-239.7892595266741
 30
0.0
 11
1973.907102266508
 21
-223.05373004430751
 31
0.0
1001
ACDBBLOCKREPETAG
1070
     1
1071
      382
1005
1223C4
  0
LINE
  5
1223C5
  8
OBJECT
 10
2024.102933093302
 20
-243.80694712371681
 30
0.0
 11
2020.659656999997
 21
-232.55462199999889
 31
0.0
1001
ACDBBLOCKREPETAG
1070
     1
1071
      383
1005
1223C5
  0
ARC
  5
1223C6
  8
OBJECT
 10
1976.579695307315
 20
-207.1289369828437
 30
0.0
 40
60.031113246032611
 50
316.4174422677545
 51
322.33936106091278
1001
ACDBBLOCKREPETAG
1070
     1
1071
      384
1005
1223C6
  0
LINE
  5
1223C7
  8
OBJECT
 10
1986.7927499013749
 20
-218.22553374208019
 30
0.0
 11
2020.659656999997
 21
-232.5546219999969
 31
0.0
1001
ACDBBLOCKREPETAG
1070
     1
1071
      385
1005
1223C7
  0
ARC
  5
1223C8
  8
OBJECT
 10
1982.8961697619
 20
-227.4351299990567
 30
0.0
 40
10.0
 50
67.066778292923374
 51
154.0147343702935
1001
ACDBBLOCKREPETAG
1070
     1
1071
      386
1005
1223C8
  0
ARC
  5
1223C9
  8
OBJECT
 10
1986.1488390381271
 20
-225.55386256729159
 30
0.0
 40
7.0
 50
67.066778292923374
 51
154.01473377497121
1001
ACDBBLOCKREPETAG
1070
     1
1071
      387
1005
1223C9
  0
ARC
  5
1223CA
  8
OBJECT
 10
2000.0
 20
-199.99999999999909
 30
0.0
 40
50.0
 50
298.81994300000417
 51
228.52376955967449
1001
ACDBBLOCKREPETAG
1070
     1
1071
        7
1005
1223CA
  0
LINE
  5
1223CB
  8
CENTER
 10
2080.0
 20
-199.99999999999909
 30
0.0
 11
1905.0
 21
-199.99999999999909
 31
0.0
1001
ACDBBLOCKREPETAG
1070
     1
1071
       14
1005
1223CB
  0
LINE
  5
1223CC
  8
CENTER
 10
2000.0
 20
-294.99999999999898
 30
0.0
 11
2000.0
 21
-104.9999999999991
 31
0.0
1001
ACDBBLOCKREPETAG
1070
     1
1071
       15
1005
1223CC
  0
ARC
  5
1223CD
  8
OBJECT
 10
2000.0
 20
-199.99999999999909
 30
0.0
 40
80.0
 50
50.805032573864182
 51
309.1949674261358
1001
ACDBBLOCKREPETAG
1070
     1
1071
       18
1005
1223CD
  0
LINE
  5
1223CE
  8
OBJECT
 10
2042.2018956920181
 20
-137.99999999999909
 30
0.0
 11
2080.0
 21
-137.99999999999909
 31
0.0
1001
ACDBBLOCKREPETAG
1070
     1
1071
       19
1005
1223CE
  0
LINE
  5
1223CF
  8
OBJECT
 10
2042.2018956920181
 20
-261.99999999999909
 30
0.0
 11
2080.0
 21
-261.99999999999909
 31
0.0
1001
ACDBBLOCKREPETAG
1070
     1
1071
       20
1005
1223CF
  0
POINT
  5
1223D0
  8
DOTS
 10
2000.0
 20
-199.99999999999909
 30
0.0
1001
ACDBBLOCKREPETAG
1070
     1
1071
      417
1005
1223D0
  0
ARC
  5
1223D1
  8
OBJECT
 10
539.99999999987813
 20
-695.99999999984175
 30
0.0
 40
50.0
 50
28.81994300000018
 51
318.52376955967549
1001
ACDBBLOCKREPETAG
1070
     1
1071
        7
1005
1223D1
  0
ARC
  5
1223D2
  8
OBJECT
 10
539.99999999987813
 20
-695.99999999984175
 30
0.0
 40
80.0
 50
140.80503257386621
 51
39.194967426133744
1001
ACDBBLOCKREPETAG
1070
     1
1071
       18
1005
1223D2
  0
LINE
  5
1223D3
  8
OBJECT
 10
477.99999999987801
 20
-653.79810430782345
 30
0.0
 11
477.99999999987801
 21
-615.99999999984175
 31
0.0
1001
ACDBBLOCKREPETAG
1070
     1
1071
       19
1005
1223D3
  0
LINE
  5
1223D4
  8
OBJECT
 10
601.99999999987801
 20
-653.79810430782345
 30
0.0
 11
601.99999999987801
 21
-615.99999999984175
 31
0.0
1001
ACDBBLOCKREPETAG
1070
     1
1071
       20
1005
1223D4
  0
CIRCLE
  5
1223D5
  8
OBJECT
 10
539.99999999987813
 20
-695.99999999984175
 30
0.0
 40
75.0
1001
ACDBBLOCKREPETAG
1070
     1
1071
      363
1005
1223D5
  0
CIRCLE
  5
1223D6
  8
OBJECT
 10
539.99999999987813
 20
-695.99999999984175
 30
0.0
 40
52.5
1001
ACDBBLOCKREPETAG
1070
     1
1071
      364
1005
1223D6
  0
CIRCLE
  5
1223D7
  8
OBJECT
 10
539.99999999987813
 20
-695.99999999984175
 30
0.0
 40
57.0
1001
ACDBBLOCKREPETAG
1070
     1
1071
      365
1005
1223D7
  0
LINE
  5
1223D8
  8
OBJECT
 10
582.98887195227871
 20
-726.13647106498286
 30
0.0
 11
562.48688253344699
 21
-716.14350817660488
 31
0.0
1001
ACDBBLOCKREPETAG
1070
     1
1071
      381
1005
1223D8
  0
LINE
  5
1223D9
  8
OBJECT
 10
579.78925952655322
 20
-730.2500339606845
 30
0.0
 11
563.05373004418652
 21
-722.0928977333333
 31
0.0
1001
ACDBBLOCKREPETAG
1070
     1
1071
      382
1005
1223D9
  0
LINE
  5
1223DA
  8
OBJECT
 10
583.80694712359593
 20
-671.89706690653998
 30
0.0
 11
572.55462199987755
 21
-675.34034299984523
 31
0.0
1001
ACDBBLOCKREPETAG
1070
     1
1071
      383
1005
1223DA
  0
ARC
  5
1223DB
  8
OBJECT
 10
547.12893698272273
 20
-719.42030469252666
 30
0.0
 40
60.031113246032611
 50
46.417442267748868
 51
52.339361060911429
1001
ACDBBLOCKREPETAG
1070
     1
1071
      384
1005
1223DB
  0
LINE
  5
1223DC
  8
OBJECT
 10
558.225533741959
 20
-709.20725009846683
 30
0.0
 11
572.55462199987608
 21
-675.34034299984523
 31
0.0
1001
ACDBBLOCKREPETAG
1070
     1
1071
      385
1005
1223DC
  0
ARC
  5
1223DD
  8
OBJECT
 10
567.43512999893562
 20
-713.10383023793997
 30
0.0
 40
10.0
 50
157.06677829292209
 51
244.01473437029199
1001
ACDBBLOCKREPETAG
1070
     1
1071
      386
1005
1223DD
  0
ARC
  5
1223DE
  8
OBJECT
 10
565.55386256717065
 20
-709.85116096171419
 30
0.0
 40
7.0
 50
157.06677829292209
 51
244.01473377497109
1001
ACDBBLOCKREPETAG
1070
     1
1071
      387
1005
1223DE
  0
POINT
  5
1223DF
  8
DOTS
 10
539.99999999987813
 20
-695.99999999984175
 30
0.0
1001
ACDBBLOCKREPETAG
1070
     1
1071
      410
1005
1223DF
  0
ARC
  5
1223E0
  8
OBJECT
 10
179.99999999999989
 20
-695.99999999984175
 30
0.0
 40
50.0
 50
28.81994299999862
 51
318.52376955967441
1001
ACDBBLOCKREPETAG
1070
     1
1071
        7
1005
1223E0
  0
ARC
  5
1223E1
  8
OBJECT
 10
179.99999999999989
 20
-695.99999999984175
 30
0.0
 40
80.0
 50
140.8050325738642
 51
39.194967426135797
1001
ACDBBLOCKREPETAG
1070
     1
1071
       18
1005
1223E1
  0
LINE
  5
1223E2
  8
OBJECT
 10
117.9999999999999
 20
-653.79810430782345
 30
0.0
 11
117.9999999999999
 21
-615.99999999984175
 31
0.0
1001
ACDBBLOCKREPETAG
1070
     1
1071
       19
1005
1223E2
  0
LINE
  5
1223E3
  8
OBJECT
 10
241.99999999999989
 20
-653.79810430782345
 30
0.0
 11
241.99999999999989
 21
-615.99999999984175
 31
0.0
1001
ACDBBLOCKREPETAG
1070
     1
1071
       20
1005
1223E3
  0
CIRCLE
  5
1223E4
  8
OBJECT
 10
179.99999999999989
 20
-695.99999999984175
 30
0.0
 40
75.0
1001
ACDBBLOCKREPETAG
1070
     1
1071
      363
1005
1223E4
  0
CIRCLE
  5
1223E5
  8
OBJECT
 10
179.99999999999989
 20
-695.99999999984175
 30
0.0
 40
52.5
1001
ACDBBLOCKREPETAG
1070
     1
1071
      364
1005
1223E5
  0
CIRCLE
  5
1223E6
  8
OBJECT
 10
179.99999999999989
 20
-695.99999999984175
 30
0.0
 40
57.0
1001
ACDBBLOCKREPETAG
1070
     1
1071
      365
1005
1223E6
  0
LINE
  5
1223E7
  8
OBJECT
 10
222.98887195240059
 20
-726.13647106498286
 30
0.0
 11
202.4868825335688
 21
-716.14350817660488
 31
0.0
1001
ACDBBLOCKREPETAG
1070
     1
1071
      381
1005
1223E7
  0
LINE
  5
1223E8
  8
OBJECT
 10
219.78925952667501
 20
-730.2500339606845
 30
0.0
 11
203.0537300443084
 21
-722.0928977333333
 31
0.0
1001
ACDBBLOCKREPETAG
1070
     1
1071
      382
1005
1223E8
  0
LINE
  5
1223E9
  8
OBJECT
 10
223.80694712371761
 20
-671.89706690653998
 30
0.0
 11
212.5546219999996
 21
-675.34034299984523
 31
0.0
1001
ACDBBLOCKREPETAG
1070
     1
1071
      383
1005
1223E9
  0
ARC
  5
1223EA
  8
OBJECT
 10
187.12893698284449
 20
-719.42030469252666
 30
0.0
 40
60.031113246032611
 50
46.41744226775004
 51
52.339361060912744
1001
ACDBBLOCKREPETAG
1070
     1
1071
      384
1005
1223EA
  0
LINE
  5
1223EB
  8
OBJECT
 10
198.22553374208101
 20
-709.20725009846683
 30
0.0
 11
212.55462199999781
 21
-675.34034299984523
 31
0.0
1001
ACDBBLOCKREPETAG
1070
     1
1071
      385
1005
1223EB
  0
ARC
  5
1223EC
  8
OBJECT
 10
207.43512999905749
 20
-713.10383023793997
 30
0.0
 40
10.0
 50
157.0667782929232
 51
244.0147343702935
1001
ACDBBLOCKREPETAG
1070
     1
1071
      386
1005
1223EC
  0
ARC
  5
1223ED
  8
OBJECT
 10
205.5538625672925
 20
-709.85116096171419
 30
0.0
 40
7.0
 50
157.0667782929232
 51
244.0147337749741
1001
ACDBBLOCKREPETAG
1070
     1
1071
      387
1005
1223ED
  0
POINT
  5
1223EE
  8
DOTS
 10
179.99999999999989
 20
-695.99999999984175
 30
0.0
1001
ACDBBLOCKREPETAG
1070
     1
1071
      410
1005
1223EE
  0
ARC
  5
1223EF
  8
OBJECT
 10
539.99999999987813
 20
-232.0
 30
0.0
 40
50.0
 50
28.81994300000018
 51
318.52376955967418
1001
ACDBBLOCKREPETAG
1070
     1
1071
        7
1005
1223EF
  0
ARC
  5
1223F0
  8
OBJECT
 10
539.99999999987813
 20
-232.0
 30
0.0
 40
80.0
 50
140.80503257386741
 51
39.1949674261325
1001
ACDBBLOCKREPETAG
1070
     1
1071
       18
1005
1223F0
  0
LINE
  5
1223F1
  8
OBJECT
 10
477.99999999987801
 20
-189.79810430798159
 30
0.0
 11
477.99999999987801
 21
-152.0
 31
0.0
1001
ACDBBLOCKREPETAG
1070
     1
1071
       19
1005
1223F1
  0
LINE
  5
1223F2
  8
OBJECT
 10
601.99999999987801
 20
-189.79810430798159
 30
0.0
 11
601.99999999987801
 21
-152.0
 31
0.0
1001
ACDBBLOCKREPETAG
1070
     1
1071
       20
1005
1223F2
  0
CIRCLE
  5
1223F3
  8
OBJECT
 10
539.99999999987813
 20
-232.0
 30
0.0
 40
75.0
1001
ACDBBLOCKREPETAG
1070
     1
1071
      363
1005
1223F3
  0
CIRCLE
  5
1223F4
  8
OBJECT
 10
539.99999999987813
 20
-232.0
 30
0.0
 40
52.5
1001
ACDBBLOCKREPETAG
1070
     1
1071
      364
1005
1223F4
  0
CIRCLE
  5
1223F5
  8
OBJECT
 10
539.99999999987813
 20
-232.0
 30
0.0
 40
57.0
1001
ACDBBLOCKREPETAG
1070
     1
1071
      365
1005
1223F5
  0
LINE
  5
1223F6
  8
OBJECT
 10
582.98887195227871
 20
-262.13647106514128
 30
0.0
 11
562.48688253344699
 21
-252.14350817676311
 31
0.0
1001
ACDBBLOCKREPETAG
1070
     1
1071
      381
1005
1223F6
  0
LINE
  5
1223F7
  8
OBJECT
 10
579.78925952655322
 20
-266.25003396084298
 30
0.0
 11
563.05373004418652
 21
-258.09289773349161
 31
0.0
1001
ACDBBLOCKREPETAG
1070
     1
1071
      382
1005
1223F7
  0
LINE
  5
1223F8
  8
OBJECT
 10
583.80694712359593
 20
-207.8970669066984
 30
0.0
 11
572.55462199987755
 21
-211.34034300000349
 31
0.0
1001
ACDBBLOCKREPETAG
1070
     1
1071
      383
1005
1223F8
  0
ARC
  5
1223F9
  8
OBJECT
 10
547.12893698272273
 20
-255.42030469268499
 30
0.0
 40
60.031113246032611
 50
46.417442267748868
 51
52.339361060911429
1001
ACDBBLOCKREPETAG
1070
     1
1071
      384
1005
1223F9
  0
LINE
  5
1223FA
  8
OBJECT
 10
558.225533741959
 20
-245.20725009862511
 30
0.0
 11
572.55462199987608
 21
-211.34034300000349
 31
0.0
1001
ACDBBLOCKREPETAG
1070
     1
1071
      385
1005
1223FA
  0
ARC
  5
1223FB
  8
OBJECT
 10
567.43512999893562
 20
-249.10383023809851
 30
0.0
 40
10.0
 50
157.06677829292209
 51
244.01473437029199
1001
ACDBBLOCKREPETAG
1070
     1
1071
      386
1005
1223FB
  0
ARC
  5
1223FC
  8
OBJECT
 10
565.55386256717065
 20
-245.85116096187269
 30
0.0
 40
7.0
 50
157.06677829292209
 51
244.0147337749697
1001
ACDBBLOCKREPETAG
1070
     1
1071
      387
1005
1223FC
  0
POINT
  5
1223FD
  8
DOTS
 10
539.99999999987813
 20
-232.0
 30
0.0
1001
ACDBBLOCKREPETAG
1070
     1
1071
      410
1005
1223FD
  0
ARC
  5
1223FE
  8
OBJECT
 10
180.0
 20
-232.0
 30
0.0
 40
50.0
 50
28.81994299999862
 51
318.52376955967321
1001
ACDBBLOCKREPETAG
1070
     1
1071
        7
1005
1223FE
  0
ARC
  5
1223FF
  8
OBJECT
 10
180.0
 20
-232.0
 30
0.0
 40
80.0
 50
140.80503257386539
 51
39.194967426134532
1001
ACDBBLOCKREPETAG
1070
     1
1071
       18
1005
1223FF
  0
LINE
  5
122400
  8
OBJECT
 10
118.0
 20
-189.79810430798159
 30
0.0
 11
118.0
 21
-152.0
 31
0.0
1001
ACDBBLOCKREPETAG
1070
     1
1071
       19
1005
122400
  0
LINE
  5
122401
  8
OBJECT
 10
242.0
 20
-189.79810430798159
 30
0.0
 11
242.0
 21
-152.0
 31
0.0
1001
ACDBBLOCKREPETAG
1070
     1
1071
       20
1005
122401
  0
CIRCLE
  5
122402
  8
OBJECT
 10
180.0
 20
-232.0
 30
0.0
 40
75.0
1001
ACDBBLOCKREPETAG
1070
     1
1071
      363
1005
122402
  0
CIRCLE
  5
122403
  8
OBJECT
 10
180.0
 20
-232.0
 30
0.0
 40
52.5
1001
ACDBBLOCKREPETAG
1070
     1
1071
      364
1005
122403
  0
CIRCLE
  5
122404
  8
OBJECT
 10
180.0
 20
-232.0
 30
0.0
 40
57.0
1001
ACDBBLOCKREPETAG
1070
     1
1071
      365
1005
122404
  0
LINE
  5
122405
  8
OBJECT
 10
222.9888719524007
 20
-262.13647106514128
 30
0.0
 11
202.48688253356889
 21
-252.14350817676311
 31
0.0
1001
ACDBBLOCKREPETAG
1070
     1
1071
      381
1005
122405
  0
LINE
  5
122406
  8
OBJECT
 10
219.78925952667501
 20
-266.25003396084298
 30
0.0
 11
203.0537300443084
 21
-258.09289773349161
 31
0.0
1001
ACDBBLOCKREPETAG
1070
     1
1071
      382
1005
122406
  0
LINE
  5
122407
  8
OBJECT
 10
223.80694712371769
 20
-207.8970669066984
 30
0.0
 11
212.5546219999996
 21
-211.34034300000349
 31
0.0
1001
ACDBBLOCKREPETAG
1070
     1
1071
      383
1005
122407
  0
ARC
  5
122408
  8
OBJECT
 10
187.12893698284461
 20
-255.42030469268499
 30
0.0
 40
60.031113246032611
 50
46.41744226775004
 51
52.339361060912744
1001
ACDBBLOCKREPETAG
1070
     1
1071
      384
1005
122408
  0
LINE
  5
122409
  8
OBJECT
 10
198.2255337420811
 20
-245.20725009862511
 30
0.0
 11
212.55462199999781
 21
-211.34034300000349
 31
0.0
1001
ACDBBLOCKREPETAG
1070
     1
1071
      385
1005
122409
  0
ARC
  5
12240A
  8
OBJECT
 10
207.43512999905761
 20
-249.10383023809851
 30
0.0
 40
10.0
 50
157.0667782929232
 51
244.0147343702935
1001
ACDBBLOCKREPETAG
1070
     1
1071
      386
1005
12240A
  0
ARC
  5
12240B
  8
OBJECT
 10
205.5538625672925
 20
-245.85116096187269
 30
0.0
 40
7.0
 50
157.0667782929232
 51
244.01473377497271
1001
ACDBBLOCKREPETAG
1070
     1
1071
      387
1005
12240B
  0
POINT
  5
12240C
  8
DOTS
 10
180.0
 20
-232.0
 30
0.0
1001
ACDBBLOCKREPETAG
1070
     1
1071
      410
1005
12240C
  0
LINE
  5
12240D
  8
OBJECT
 10
4925.0
 20
-3348.9999999999968
 30
0.0
 11
4925.0
 21
-3472.9999999999968
 31
0.0
1001
ACDBBLOCKREPETAG
1070
     1
1071
        6
1005
12240D
  0
LINE
  5
12240E
  8
OBJECT
 10
5074.9999999997999
 20
-3472.9999999997772
 30
0.0
 11
5080.0
 21
-3472.9999999999968
 31
0.0
1001
ACDBBLOCKREPETAG
1070
     1
1071
        9
1005
12240E
  0
LINE
  5
12240F
  8
OBJECT
 10
5080.0
 20
-3348.9999999999968
 30
0.0
 11
4925.0
 21
-3348.9999999999968
 31
0.0
1001
ACDBBLOCKREPETAG
1070
     1
1071
       10
1005
12240F
  0
ARC
  5
122410
  8
OBJECT
 10
5200.6872746716726
 20
-3464.4080994101059
 30
0.0
 40
170.6350503965856
 50
137.44134459184301
 51
149.9194958133665
1001
ACDBBLOCKREPETAG
1070
     1
1071
       15
1005
122410
  0
ARC
  5
122411
  8
OBJECT
 10
5118.8455987040506
 20
-3420.8827266953631
 30
0.0
 40
78.072222021763665
 50
147.4551531037684
 51
164.66365997719291
1001
ACDBBLOCKREPETAG
1070
     1
1071
       16
1005
122411
  0
ARC
  5
122412
  8
OBJECT
 10
5085.7554349608727
 20
-3410.9999999999968
 30
0.0
 40
43.55353926885617
 50
165.6884523008477
 51
194.3115476991523
1001
ACDBBLOCKREPETAG
1070
     1
1071
       17
1005
122412
  0
ARC
  5
122413
  8
OBJECT
 10
5200.6872746716726
 20
-3357.5919005898891
 30
0.0
 40
170.6350503965856
 50
210.0805041866335
 51
222.55865540815699
1001
ACDBBLOCKREPETAG
1070
     1
1071
       18
1005
122413
  0
ARC
  5
122414
  8
OBJECT
 10
5118.8455987040506
 20
-3401.1172733046319
 30
0.0
 40
78.072222021763665
 50
195.33634002280701
 51
212.5448468962316
1001
ACDBBLOCKREPETAG
1070
     1
1071
       19
1005
122414
  0
POINT
  5
122415
  8
DOTS
 10
5000.0
 20
-3469.9999999999968
 30
0.0
1001
ACDBBLOCKREPETAG
1070
     1
1071
      186
1005
122415
  0
LINE
  5
122416
  8
OBJECT
 10
5060.0
 20
-3342.9999999999968
 30
0.0
 11
4940.0
 21
-3342.9999999999968
 31
0.0
1001
ACDBBLOCKREPETAG
1070
     1
1071
      215
1005
122416
  0
ARC
  5
122417
  8
OBJECT
 10
4940.0
 20
-3345.9999999999959
 30
0.0
 40
3.0
 50
90.0
 51
180.0
1001
ACDBBLOCKREPETAG
1070
     1
1071
      216
1005
122417
  0
LINE
  5
122418
  8
OBJECT
 10
4937.0
 20
-3345.9999999999959
 30
0.0
 11
4937.0
 21
-3348.9999999999968
 31
0.0
1001
ACDBBLOCKREPETAG
1070
     1
1071
      217
1005
122418
  0
LINE
  5
122419
  8
OBJECT
 10
5063.0
 20
-3345.9999999999959
 30
0.0
 11
5063.0
 21
-3348.9999999999968
 31
0.0
1001
ACDBBLOCKREPETAG
1070
     1
1071
      218
1005
122419
  0
ARC
  5
12241A
  8
OBJECT
 10
5060.0
 20
-3345.9999999999959
 30
0.0
 40
3.0
 50
0.0
 51
90.0
1001
ACDBBLOCKREPETAG
1070
     1
1071
      219
1005
12241A
  0
LINE
  5
12241B
  8
OBJECT
 10
4943.0
 20
-3274.9999999999968
 30
0.0
 11
4943.0
 21
-3342.9999999999968
 31
0.0
1001
ACDBBLOCKREPETAG
1070
     1
1071
      220
1005
12241B
  0
LINE
  5
12241C
  8
OBJECT
 10
5057.0
 20
-3274.9999999999968
 30
0.0
 11
4943.0
 21
-3274.9999999999968
 31
0.0
1001
ACDBBLOCKREPETAG
1070
     1
1071
      221
1005
12241C
  0
LINE
  5
12241D
  8
OBJECT
 10
5057.0
 20
-3274.9999999999968
 30
0.0
 11
5057.0
 21
-3342.9999999999968
 31
0.0
1001
ACDBBLOCKREPETAG
1070
     1
1071
      222
1005
12241D
  0
LINE
  5
12241E
  8
CENTER
 10
5000.0
 20
-3259.9999999999968
 30
0.0
 11
5000.0
 21
-3484.9999999999968
 31
0.0
1001
ACDBBLOCKREPETAG
1070
     1
1071
      223
1005
12241E
  0
LINE
  5
12241F
  8
HIDDEN
 10
5052.5
 20
-3274.9999999999968
 30
0.0
 11
5052.5
 21
-3348.9999999999968
 31
0.0
1001
ACDBBLOCKREPETAG
1070
     1
1071
      224
1005
12241F
  0
LINE
  5
122420
  8
HIDDEN
 10
4947.5
 20
-3274.9999999999968
 30
0.0
 11
4947.5
 21
-3348.9999999999968
 31
0.0
1001
ACDBBLOCKREPETAG
1070
     1
1071
      225
1005
122420
  0
LINE
  5
122421
  8
OBJECT
 10
4325.0
 20
-3348.9999999999968
 30
0.0
 11
4325.0
 21
-3472.9999999999968
 31
0.0
1001
ACDBBLOCKREPETAG
1070
     1
1071
       26
1005
122421
  0
LINE
  5
122422
  8
OBJECT
 10
4475.0
 20
-3348.9999999999968
 30
0.0
 11
4325.0
 21
-3348.9999999999968
 31
0.0
1001
ACDBBLOCKREPETAG
1070
     1
1071
       30
1005
122422
  0
LINE
  5
122423
  8
OBJECT
 10
4475.0
 20
-3348.9999999999968
 30
0.0
 11
4475.0
 21
-3472.9999999999968
 31
0.0
1001
ACDBBLOCKREPETAG
1070
     1
1071
       34
1005
122423
  0
POINT
  5
122424
  8
DOTS
 10
4400.0
 20
-3469.9999999999968
 30
0.0
1001
ACDBBLOCKREPETAG
1070
     1
1071
      187
1005
122424
  0
LINE
  5
122425
  8
OBJECT
 10
4460.0
 20
-3342.9999999999968
 30
0.0
 11
4340.0
 21
-3342.9999999999968
 31
0.0
1001
ACDBBLOCKREPETAG
1070
     1
1071
      226
1005
122425
  0
ARC
  5
122426
  8
OBJECT
 10
4340.0
 20
-3345.9999999999959
 30
0.0
 40
3.0
 50
90.0
 51
180.0
1001
ACDBBLOCKREPETAG
1070
     1
1071
      227
1005
122426
  0
LINE
  5
122427
  8
OBJECT
 10
4337.0
 20
-3345.9999999999959
 30
0.0
 11
4337.0
 21
-3348.9999999999968
 31
0.0
1001
ACDBBLOCKREPETAG
1070
     1
1071
      228
1005
122427
  0
LINE
  5
122428
  8
OBJECT
 10
4463.0
 20
-3345.9999999999959
 30
0.0
 11
4463.0
 21
-3348.9999999999968
 31
0.0
1001
ACDBBLOCKREPETAG
1070
     1
1071
      229
1005
122428
  0
ARC
  5
122429
  8
OBJECT
 10
4460.0
 20
-3345.9999999999959
 30
0.0
 40
3.0
 50
0.0
 51
90.0
1001
ACDBBLOCKREPETAG
1070
     1
1071
      230
1005
122429
  0
LINE
  5
12242A
  8
OBJECT
 10
4343.0
 20
-3274.9999999999968
 30
0.0
 11
4343.0
 21
-3342.9999999999968
 31
0.0
1001
ACDBBLOCKREPETAG
1070
     1
1071
      231
1005
12242A
  0
LINE
  5
12242B
  8
OBJECT
 10
4457.0
 20
-3274.9999999999968
 30
0.0
 11
4343.0
 21
-3274.9999999999968
 31
0.0
1001
ACDBBLOCKREPETAG
1070
     1
1071
      232
1005
12242B
  0
LINE
  5
12242C
  8
OBJECT
 10
4457.0
 20
-3274.9999999999968
 30
0.0
 11
4457.0
 21
-3342.9999999999968
 31
0.0
1001
ACDBBLOCKREPETAG
1070
     1
1071
      233
1005
12242C
  0
LINE
  5
12242D
  8
CENTER
 10
4400.0
 20
-3259.9999999999968
 30
0.0
 11
4400.0
 21
-3484.9999999999968
 31
0.0
1001
ACDBBLOCKREPETAG
1070
     1
1071
      234
1005
12242D
  0
LINE
  5
12242E
  8
HIDDEN
 10
4452.4999999999991
 20
-3274.9999999999968
 30
0.0
 11
4452.4999999999991
 21
-3348.9999999999968
 31
0.0
1001
ACDBBLOCKREPETAG
1070
     1
1071
      235
1005
12242E
  0
LINE
  5
12242F
  8
HIDDEN
 10
4347.5
 20
-3274.9999999999968
 30
0.0
 11
4347.5
 21
-3348.9999999999968
 31
0.0
1001
ACDBBLOCKREPETAG
1070
     1
1071
      236
1005
12242F
  0
LINE
  5
122430
  8
OBJECT
 10
3925.0
 20
-3348.9999999999968
 30
0.0
 11
3925.0
 21
-3472.9999999999968
 31
0.0
1001
ACDBBLOCKREPETAG
1070
     1
1071
        6
1005
122430
  0
LINE
  5
122431
  8
OBJECT
 10
4074.999999999799
 20
-3472.9999999997772
 30
0.0
 11
4080.0
 21
-3472.9999999999968
 31
0.0
1001
ACDBBLOCKREPETAG
1070
     1
1071
        9
1005
122431
  0
LINE
  5
122432
  8
OBJECT
 10
4080.0
 20
-3348.9999999999968
 30
0.0
 11
3925.0
 21
-3348.9999999999968
 31
0.0
1001
ACDBBLOCKREPETAG
1070
     1
1071
       10
1005
122432
  0
ARC
  5
122433
  8
OBJECT
 10
4200.6872746716726
 20
-3464.4080994101059
 30
0.0
 40
170.6350503965856
 50
137.44134459184301
 51
149.9194958133665
1001
ACDBBLOCKREPETAG
1070
     1
1071
       15
1005
122433
  0
ARC
  5
122434
  8
OBJECT
 10
4118.8455987040506
 20
-3420.8827266953631
 30
0.0
 40
78.072222021763665
 50
147.4551531037684
 51
164.663659977186
1001
ACDBBLOCKREPETAG
1070
     1
1071
       16
1005
122434
  0
ARC
  5
122435
  8
OBJECT
 10
4085.7554349608722
 20
-3410.9999999999968
 30
0.0
 40
43.55353926885617
 50
165.6884523008477
 51
194.3115476991523
1001
ACDBBLOCKREPETAG
1070
     1
1071
       17
1005
122435
  0
ARC
  5
122436
  8
OBJECT
 10
4200.6872746716726
 20
-3357.5919005898891
 30
0.0
 40
170.6350503965856
 50
210.0805041866335
 51
222.55865540815699
1001
ACDBBLOCKREPETAG
1070
     1
1071
       18
1005
122436
  0
ARC
  5
122437
  8
OBJECT
 10
4118.8455987040506
 20
-3401.1172733046319
 30
0.0
 40
78.072222021763665
 50
195.33634002281391
 51
212.5448468962316
1001
ACDBBLOCKREPETAG
1070
     1
1071
       19
1005
122437
  0
POINT
  5
122438
  8
DOTS
 10
4000.0
 20
-3469.9999999999968
 30
0.0
1001
ACDBBLOCKREPETAG
1070
     1
1071
      186
1005
122438
  0
LINE
  5
122439
  8
OBJECT
 10
4060.0
 20
-3342.9999999999968
 30
0.0
 11
3940.0
 21
-3342.9999999999968
 31
0.0
1001
ACDBBLOCKREPETAG
1070
     1
1071
      215
1005
122439
  0
ARC
  5
12243A
  8
OBJECT
 10
3940.0
 20
-3345.9999999999959
 30
0.0
 40
3.0
 50
90.0
 51
180.0
1001
ACDBBLOCKREPETAG
1070
     1
1071
      216
1005
12243A
  0
LINE
  5
12243B
  8
OBJECT
 10
3937.0
 20
-3345.9999999999959
 30
0.0
 11
3937.0
 21
-3348.9999999999968
 31
0.0
1001
ACDBBLOCKREPETAG
1070
     1
1071
      217
1005
12243B
  0
LINE
  5
12243C
  8
OBJECT
 10
4063.0
 20
-3345.9999999999959
 30
0.0
 11
4063.0
 21
-3348.9999999999968
 31
0.0
1001
ACDBBLOCKREPETAG
1070
     1
1071
      218
1005
12243C
  0
ARC
  5
12243D
  8
OBJECT
 10
4060.0
 20
-3345.9999999999959
 30
0.0
 40
3.0
 50
0.0
 51
90.0
1001
ACDBBLOCKREPETAG
1070
     1
1071
      219
1005
12243D
  0
LINE
  5
12243E
  8
OBJECT
 10
3943.0
 20
-3274.9999999999968
 30
0.0
 11
3943.0
 21
-3342.9999999999968
 31
0.0
1001
ACDBBLOCKREPETAG
1070
     1
1071
      220
1005
12243E
  0
LINE
  5
12243F
  8
OBJECT
 10
4057.0
 20
-3274.9999999999968
 30
0.0
 11
3943.0
 21
-3274.9999999999968
 31
0.0
1001
ACDBBLOCKREPETAG
1070
     1
1071
      221
1005
12243F
  0
LINE
  5
122440
  8
OBJECT
 10
4057.0
 20
-3274.9999999999968
 30
0.0
 11
4057.0
 21
-3342.9999999999968
 31
0.0
1001
ACDBBLOCKREPETAG
1070
     1
1071
      222
1005
122440
  0
LINE
  5
122441
  8
CENTER
 10
4000.0
 20
-3259.9999999999968
 30
0.0
 11
4000.0
 21
-3484.9999999999968
 31
0.0
1001
ACDBBLOCKREPETAG
1070
     1
1071
      223
1005
122441
  0
LINE
  5
122442
  8
HIDDEN
 10
4052.5
 20
-3274.9999999999968
 30
0.0
 11
4052.5
 21
-3348.9999999999968
 31
0.0
1001
ACDBBLOCKREPETAG
1070
     1
1071
      224
1005
122442
  0
LINE
  5
122443
  8
HIDDEN
 10
3947.5
 20
-3274.9999999999968
 30
0.0
 11
3947.5
 21
-3348.9999999999968
 31
0.0
1001
ACDBBLOCKREPETAG
1070
     1
1071
      225
1005
122443
  0
LINE
  5
122444
  8
OBJECT
 10
3325.0
 20
-3348.9999999999968
 30
0.0
 11
3325.0
 21
-3472.9999999999968
 31
0.0
1001
ACDBBLOCKREPETAG
1070
     1
1071
       26
1005
122444
  0
LINE
  5
122445
  8
OBJECT
 10
3475.0
 20
-3348.9999999999968
 30
0.0
 11
3325.0
 21
-3348.9999999999968
 31
0.0
1001
ACDBBLOCKREPETAG
1070
     1
1071
       30
1005
122445
  0
LINE
  5
122446
  8
OBJECT
 10
3475.0
 20
-3348.9999999999968
 30
0.0
 11
3475.0
 21
-3472.9999999999968
 31
0.0
1001
ACDBBLOCKREPETAG
1070
     1
1071
       34
1005
122446
  0
POINT
  5
122447
  8
DOTS
 10
3400.0
 20
-3469.9999999999968
 30
0.0
1001
ACDBBLOCKREPETAG
1070
     1
1071
      187
1005
122447
  0
LINE
  5
122448
  8
OBJECT
 10
3460.0
 20
-3342.9999999999968
 30
0.0
 11
3340.0
 21
-3342.9999999999968
 31
0.0
1001
ACDBBLOCKREPETAG
1070
     1
1071
      226
1005
122448
  0
ARC
  5
122449
  8
OBJECT
 10
3340.0
 20
-3345.9999999999959
 30
0.0
 40
3.0
 50
90.0
 51
180.0
1001
ACDBBLOCKREPETAG
1070
     1
1071
      227
1005
122449
  0
LINE
  5
12244A
  8
OBJECT
 10
3337.0
 20
-3345.9999999999959
 30
0.0
 11
3337.0
 21
-3348.9999999999968
 31
0.0
1001
ACDBBLOCKREPETAG
1070
     1
1071
      228
1005
12244A
  0
LINE
  5
12244B
  8
OBJECT
 10
3463.0
 20
-3345.9999999999959
 30
0.0
 11
3463.0
 21
-3348.9999999999968
 31
0.0
1001
ACDBBLOCKREPETAG
1070
     1
1071
      229
1005
12244B
  0
ARC
  5
12244C
  8
OBJECT
 10
3460.0
 20
-3345.9999999999959
 30
0.0
 40
3.0
 50
0.0
 51
90.0
1001
ACDBBLOCKREPETAG
1070
     1
1071
      230
1005
12244C
  0
LINE
  5
12244D
  8
OBJECT
 10
3343.0
 20
-3274.9999999999968
 30
0.0
 11
3343.0
 21
-3342.9999999999968
 31
0.0
1001
ACDBBLOCKREPETAG
1070
     1
1071
      231
1005
12244D
  0
LINE
  5
12244E
  8
OBJECT
 10
3457.0
 20
-3274.9999999999968
 30
0.0
 11
3343.0
 21
-3274.9999999999968
 31
0.0
1001
ACDBBLOCKREPETAG
1070
     1
1071
      232
1005
12244E
  0
LINE
  5
12244F
  8
OBJECT
 10
3457.0
 20
-3274.9999999999968
 30
0.0
 11
3457.0
 21
-3342.9999999999968
 31
0.0
1001
ACDBBLOCKREPETAG
1070
     1
1071
      233
1005
12244F
  0
LINE
  5
122450
  8
CENTER
 10
3400.0
 20
-3259.9999999999968
 30
0.0
 11
3400.0
 21
-3484.9999999999968
 31
0.0
1001
ACDBBLOCKREPETAG
1070
     1
1071
      234
1005
122450
  0
LINE
  5
122451
  8
HIDDEN
 10
3452.5
 20
-3274.9999999999968
 30
0.0
 11
3452.5
 21
-3348.9999999999968
 31
0.0
1001
ACDBBLOCKREPETAG
1070
     1
1071
      235
1005
122451
  0
LINE
  5
122452
  8
HIDDEN
 10
3347.5
 20
-3274.9999999999968
 30
0.0
 11
3347.5
 21
-3348.9999999999968
 31
0.0
1001
ACDBBLOCKREPETAG
1070
     1
1071
      236
1005
122452
  0
LINE
  5
122453
  8
OBJECT
 10
2925.0
 20
-3348.9999999999968
 30
0.0
 11
2925.0
 21
-3472.9999999999968
 31
0.0
1001
ACDBBLOCKREPETAG
1070
     1
1071
        6
1005
122453
  0
LINE
  5
122454
  8
OBJECT
 10
3074.9999999997999
 20
-3472.9999999997772
 30
0.0
 11
3080.0
 21
-3472.9999999999968
 31
0.0
1001
ACDBBLOCKREPETAG
1070
     1
1071
        9
1005
122454
  0
LINE
  5
122455
  8
OBJECT
 10
3080.0
 20
-3348.9999999999968
 30
0.0
 11
2925.0
 21
-3348.9999999999968
 31
0.0
1001
ACDBBLOCKREPETAG
1070
     1
1071
       10
1005
122455
  0
ARC
  5
122456
  8
OBJECT
 10
3200.6872746716722
 20
-3464.4080994101059
 30
0.0
 40
170.6350503965856
 50
137.44134459184301
 51
149.9194958133665
1001
ACDBBLOCKREPETAG
1070
     1
1071
       15
1005
122456
  0
ARC
  5
122457
  8
OBJECT
 10
3118.8455987040511
 20
-3420.8827266953631
 30
0.0
 40
78.072222021763665
 50
147.4551531037684
 51
164.663659977186
1001
ACDBBLOCKREPETAG
1070
     1
1071
       16
1005
122457
  0
ARC
  5
122458
  8
OBJECT
 10
3085.7554349608731
 20
-3410.9999999999968
 30
0.0
 40
43.55353926885617
 50
165.6884523008477
 51
194.3115476991523
1001
ACDBBLOCKREPETAG
1070
     1
1071
       17
1005
122458
  0
ARC
  5
122459
  8
OBJECT
 10
3200.6872746716722
 20
-3357.5919005898891
 30
0.0
 40
170.6350503965856
 50
210.0805041866335
 51
222.55865540815699
1001
ACDBBLOCKREPETAG
1070
     1
1071
       18
1005
122459
  0
ARC
  5
12245A
  8
OBJECT
 10
3118.8455987040511
 20
-3401.1172733046319
 30
0.0
 40
78.072222021763665
 50
195.33634002281391
 51
212.5448468962316
1001
ACDBBLOCKREPETAG
1070
     1
1071
       19
1005
12245A
  0
POINT
  5
12245B
  8
DOTS
 10
3000.0
 20
-3469.9999999999968
 30
0.0
1001
ACDBBLOCKREPETAG
1070
     1
1071
      186
1005
12245B
  0
LINE
  5
12245C
  8
OBJECT
 10
3060.0
 20
-3342.9999999999968
 30
0.0
 11
2940.0
 21
-3342.9999999999968
 31
0.0
1001
ACDBBLOCKREPETAG
1070
     1
1071
      215
1005
12245C
  0
ARC
  5
12245D
  8
OBJECT
 10
2940.0
 20
-3345.9999999999959
 30
0.0
 40
3.0
 50
90.0
 51
180.0
1001
ACDBBLOCKREPETAG
1070
     1
1071
      216
1005
12245D
  0
LINE
  5
12245E
  8
OBJECT
 10
2937.0
 20
-3345.9999999999959
 30
0.0
 11
2937.0
 21
-3348.9999999999968
 31
0.0
1001
ACDBBLOCKREPETAG
1070
     1
1071
      217
1005
12245E
  0
LINE
  5
12245F
  8
OBJECT
 10
3063.0
 20
-3345.9999999999959
 30
0.0
 11
3063.0
 21
-3348.9999999999968
 31
0.0
1001
ACDBBLOCKREPETAG
1070
     1
1071
      218
1005
12245F
  0
ARC
  5
122460
  8
OBJECT
 10
3060.0
 20
-3345.9999999999959
 30
0.0
 40
3.0
 50
0.0
 51
90.0
1001
ACDBBLOCKREPETAG
1070
     1
1071
      219
1005
122460
  0
LINE
  5
122461
  8
OBJECT
 10
2943.0
 20
-3274.9999999999968
 30
0.0
 11
2943.0
 21
-3342.9999999999968
 31
0.0
1001
ACDBBLOCKREPETAG
1070
     1
1071
      220
1005
122461
  0
LINE
  5
122462
  8
OBJECT
 10
3057.0
 20
-3274.9999999999968
 30
0.0
 11
2943.0
 21
-3274.9999999999968
 31
0.0
1001
ACDBBLOCKREPETAG
1070
     1
1071
      221
1005
122462
  0
LINE
  5
122463
  8
OBJECT
 10
3057.0
 20
-3274.9999999999968
 30
0.0
 11
3057.0
 21
-3342.9999999999968
 31
0.0
1001
ACDBBLOCKREPETAG
1070
     1
1071
      222
1005
122463
  0
LINE
  5
122464
  8
CENTER
 10
3000.0
 20
-3259.9999999999968
 30
0.0
 11
3000.0
 21
-3484.9999999999968
 31
0.0
1001
ACDBBLOCKREPETAG
1070
     1
1071
      223
1005
122464
  0
LINE
  5
122465
  8
HIDDEN
 10
3052.5
 20
-3274.9999999999968
 30
0.0
 11
3052.5
 21
-3348.9999999999968
 31
0.0
1001
ACDBBLOCKREPETAG
1070
     1
1071
      224
1005
122465
  0
LINE
  5
122466
  8
HIDDEN
 10
2947.5
 20
-3274.9999999999968
 30
0.0
 11
2947.5
 21
-3348.9999999999968
 31
0.0
1001
ACDBBLOCKREPETAG
1070
     1
1071
      225
1005
122466
  0
LINE
  5
122467
  8
OBJECT
 10
2325.0
 20
-3348.9999999999968
 30
0.0
 11
2325.0
 21
-3472.9999999999968
 31
0.0
1001
ACDBBLOCKREPETAG
1070
     1
1071
       26
1005
122467
  0
LINE
  5
122468
  8
OBJECT
 10
2475.0
 20
-3348.9999999999968
 30
0.0
 11
2325.0
 21
-3348.9999999999968
 31
0.0
1001
ACDBBLOCKREPETAG
1070
     1
1071
       30
1005
122468
  0
LINE
  5
122469
  8
OBJECT
 10
2475.0
 20
-3348.9999999999968
 30
0.0
 11
2475.0
 21
-3472.9999999999968
 31
0.0
1001
ACDBBLOCKREPETAG
1070
     1
1071
       34
1005
122469
  0
POINT
  5
12246A
  8
DOTS
 10
2400.0
 20
-3469.9999999999968
 30
0.0
1001
ACDBBLOCKREPETAG
1070
     1
1071
      187
1005
12246A
  0
LINE
  5
12246B
  8
OBJECT
 10
2460.0
 20
-3342.9999999999968
 30
0.0
 11
2340.0
 21
-3342.9999999999968
 31
0.0
1001
ACDBBLOCKREPETAG
1070
     1
1071
      226
1005
12246B
  0
ARC
  5
12246C
  8
OBJECT
 10
2340.0
 20
-3345.9999999999959
 30
0.0
 40
3.0
 50
90.0
 51
180.0
1001
ACDBBLOCKREPETAG
1070
     1
1071
      227
1005
12246C
  0
LINE
  5
12246D
  8
OBJECT
 10
2337.0
 20
-3345.9999999999959
 30
0.0
 11
2337.0
 21
-3348.9999999999968
 31
0.0
1001
ACDBBLOCKREPETAG
1070
     1
1071
      228
1005
12246D
  0
LINE
  5
12246E
  8
OBJECT
 10
2463.0
 20
-3345.9999999999959
 30
0.0
 11
2463.0
 21
-3348.9999999999968
 31
0.0
1001
ACDBBLOCKREPETAG
1070
     1
1071
      229
1005
12246E
  0
ARC
  5
12246F
  8
OBJECT
 10
2460.0
 20
-3345.9999999999959
 30
0.0
 40
3.0
 50
0.0
 51
90.0
1001
ACDBBLOCKREPETAG
1070
     1
1071
      230
1005
12246F
  0
LINE
  5
122470
  8
OBJECT
 10
2343.0
 20
-3274.9999999999968
 30
0.0
 11
2343.0
 21
-3342.9999999999968
 31
0.0
1001
ACDBBLOCKREPETAG
1070
     1
1071
      231
1005
122470
  0
LINE
  5
122471
  8
OBJECT
 10
2457.0
 20
-3274.9999999999968
 30
0.0
 11
2343.0
 21
-3274.9999999999968
 31
0.0
1001
ACDBBLOCKREPETAG
1070
     1
1071
      232
1005
122471
  0
LINE
  5
122472
  8
OBJECT
 10
2457.0
 20
-3274.9999999999968
 30
0.0
 11
2457.0
 21
-3342.9999999999968
 31
0.0
1001
ACDBBLOCKREPETAG
1070
     1
1071
      233
1005
122472
  0
LINE
  5
122473
  8
CENTER
 10
2400.0
 20
-3259.9999999999968
 30
0.0
 11
2400.0
 21
-3484.9999999999968
 31
0.0
1001
ACDBBLOCKREPETAG
1070
     1
1071
      234
1005
122473
  0
LINE
  5
122474
  8
HIDDEN
 10
2452.5000000000009
 20
-3274.9999999999968
 30
0.0
 11
2452.5000000000009
 21
-3348.9999999999968
 31
0.0
1001
ACDBBLOCKREPETAG
1070
     1
1071
      235
1005
122474
  0
LINE
  5
122475
  8
HIDDEN
 10
2347.5
 20
-3274.9999999999968
 30
0.0
 11
2347.5
 21
-3348.9999999999968
 31
0.0
1001
ACDBBLOCKREPETAG
1070
     1
1071
      236
1005
122475
  0
LINE
  5
122476
  8
OBJECT
 10
1925.0
 20
-3348.9999999999968
 30
0.0
 11
1925.0
 21
-3472.9999999999968
 31
0.0
1001
ACDBBLOCKREPETAG
1070
     1
1071
        6
1005
122476
  0
LINE
  5
122477
  8
OBJECT
 10
2074.999999999799
 20
-3472.9999999997772
 30
0.0
 11
2080.0
 21
-3472.9999999999968
 31
0.0
1001
ACDBBLOCKREPETAG
1070
     1
1071
        9
1005
122477
  0
LINE
  5
122478
  8
OBJECT
 10
2080.0
 20
-3348.9999999999968
 30
0.0
 11
1925.0
 21
-3348.9999999999968
 31
0.0
1001
ACDBBLOCKREPETAG
1070
     1
1071
       10
1005
122478
  0
ARC
  5
122479
  8
OBJECT
 10
2200.6872746716731
 20
-3464.4080994101059
 30
0.0
 40
170.6350503965856
 50
137.44134459184301
 51
149.91949581335999
1001
ACDBBLOCKREPETAG
1070
     1
1071
       15
1005
122479
  0
ARC
  5
12247A
  8
OBJECT
 10
2118.8455987040511
 20
-3420.8827266953631
 30
0.0
 40
78.072222021763665
 50
147.45515310377539
 51
164.663659977186
1001
ACDBBLOCKREPETAG
1070
     1
1071
       16
1005
12247A
  0
ARC
  5
12247B
  8
OBJECT
 10
2085.7554349608731
 20
-3410.9999999999968
 30
0.0
 40
43.55353926885617
 50
165.6884523008477
 51
194.3115476991523
1001
ACDBBLOCKREPETAG
1070
     1
1071
       17
1005
12247B
  0
ARC
  5
12247C
  8
OBJECT
 10
2200.6872746716731
 20
-3357.5919005898891
 30
0.0
 40
170.6350503965856
 50
210.08050418664001
 51
222.55865540815699
1001
ACDBBLOCKREPETAG
1070
     1
1071
       18
1005
12247C
  0
ARC
  5
12247D
  8
OBJECT
 10
2118.8455987040511
 20
-3401.1172733046319
 30
0.0
 40
78.072222021763665
 50
195.33634002281391
 51
212.54484689622461
1001
ACDBBLOCKREPETAG
1070
     1
1071
       19
1005
12247D
  0
POINT
  5
12247E
  8
DOTS
 10
2000.0
 20
-3469.9999999999968
 30
0.0
1001
ACDBBLOCKREPETAG
1070
     1
1071
      186
1005
12247E
  0
LINE
  5
12247F
  8
OBJECT
 10
2060.0
 20
-3342.9999999999968
 30
0.0
 11
1940.0
 21
-3342.9999999999968
 31
0.0
1001
ACDBBLOCKREPETAG
1070
     1
1071
      215
1005
12247F
  0
ARC
  5
122480
  8
OBJECT
 10
1940.0
 20
-3345.9999999999959
 30
0.0
 40
3.0
 50
90.0
 51
180.0
1001
ACDBBLOCKREPETAG
1070
     1
1071
      216
1005
122480
  0
LINE
  5
122481
  8
OBJECT
 10
1937.0
 20
-3345.9999999999959
 30
0.0
 11
1937.0
 21
-3348.9999999999968
 31
0.0
1001
ACDBBLOCKREPETAG
1070
     1
1071
      217
1005
122481
  0
LINE
  5
122482
  8
OBJECT
 10
2063.0
 20
-3345.9999999999959
 30
0.0
 11
2063.0
 21
-3348.9999999999968
 31
0.0
1001
ACDBBLOCKREPETAG
1070
     1
1071
      218
1005
122482
  0
ARC
  5
122483
  8
OBJECT
 10
2060.0
 20
-3345.9999999999959
 30
0.0
 40
3.0
 50
0.0
 51
90.0
1001
ACDBBLOCKREPETAG
1070
     1
1071
      219
1005
122483
  0
LINE
  5
122484
  8
OBJECT
 10
1943.0
 20
-3274.9999999999968
 30
0.0
 11
1943.0
 21
-3342.9999999999968
 31
0.0
1001
ACDBBLOCKREPETAG
1070
     1
1071
      220
1005
122484
  0
LINE
  5
122485
  8
OBJECT
 10
2057.0
 20
-3274.9999999999968
 30
0.0
 11
1943.0
 21
-3274.9999999999968
 31
0.0
1001
ACDBBLOCKREPETAG
1070
     1
1071
      221
1005
122485
  0
LINE
  5
122486
  8
OBJECT
 10
2057.0
 20
-3274.9999999999968
 30
0.0
 11
2057.0
 21
-3342.9999999999968
 31
0.0
1001
ACDBBLOCKREPETAG
1070
     1
1071
      222
1005
122486
  0
LINE
  5
122487
  8
CENTER
 10
2000.0
 20
-3259.9999999999968
 30
0.0
 11
2000.0
 21
-3484.9999999999968
 31
0.0
1001
ACDBBLOCKREPETAG
1070
     1
1071
      223
1005
122487
  0
LINE
  5
122488
  8
HIDDEN
 10
2052.5
 20
-3274.9999999999968
 30
0.0
 11
2052.5
 21
-3348.9999999999968
 31
0.0
1001
ACDBBLOCKREPETAG
1070
     1
1071
      224
1005
122488
  0
LINE
  5
122489
  8
HIDDEN
 10
1947.4999999999991
 20
-3274.9999999999968
 30
0.0
 11
1947.4999999999991
 21
-3348.9999999999968
 31
0.0
1001
ACDBBLOCKREPETAG
1070
     1
1071
      225
1005
122489
  0
LINE
  5
12248A
  8
DIM
 10
2150.0
 20
-3111.9999999999959
 30
0.0
 11
2228.4796205944581
 21
-3111.9999999999959
 31
0.0
  0
LINE
  5
12248B
  8
DIM
 10
2150.0
 20
-3017.9999999999959
 30
0.0
 11
2228.479620594459
 21
-3017.9999999999959
 31
0.0
  0
LINE
  5
12248C
  8
DIM
 10
2218.4796205944581
 20
-3091.9999999999959
 30
0.0
 11
2218.479620594459
 21
-3037.9999999999959
 31
0.0
  0
INSERT
  5
12248D
  8
DIM
  2
_OPEN30
 10
2218.4796205944581
 20
-3111.9999999999959
 30
0.0
 41
20.0
 42
20.0
 43
20.0
 50
270.0
  0
INSERT
  5
12248E
  8
DIM
  2
_OPEN30
 10
2218.479620594459
 20
-3017.9999999999959
 30
0.0
 41
20.0
 42
20.0
 43
20.0
 50
90.0
  0
INSERT
  5
12248F
  8
OBJECT
  2
*U4
 10
0.0
 20
0.0
 30
0.0
  0
LINE
  5
122490
  8
DIM
 10
2150.0
 20
-3469.9999999999968
 30
0.0
 11
2226.8409284037339
 21
-3469.9999999999968
 31
0.0
  0
LINE
  5
122491
  8
DIM
 10
2165.0
 20
-3425.9999999999968
 30
0.0
 11
2226.8409284037339
 21
-3425.9999999999968
 31
0.0
  0
LINE
  5
122492
  8
DIM
 10
2216.840928403733
 20
-3489.9999999999968
 30
0.0
 11
2216.840928403733
 21
-3509.9999999999968
 31
0.0
  0
LINE
  5
122493
  8
DIM
 10
2216.840928403733
 20
-3405.9999999999968
 30
0.0
 11
2216.840928403733
 21
-3385.9999999999968
 31
0.0
  0
LINE
  5
122494
  8
DIM
 10
2216.840928403733
 20
-3469.9999999999968
 30
0.0
 11
2216.840928403733
 21
-3425.9999999999968
 31
0.0
  0
INSERT
  5
122495
  8
DIM
  2
_OPEN30
 10
2216.840928403733
 20
-3469.9999999999968
 30
0.0
 41
20.0
 42
20.0
 43
20.0
 50
90.0
  0
INSERT
  5
122496
  8
DIM
  2
_OPEN30
 10
2216.840928403733
 20
-3425.9999999999968
 30
0.0
 41
20.0
 42
20.0
 43
20.0
 50
270.0
  0
INSERT
  5
122497
  8
OBJECT
  2
*U5
 10
0.0
 20
0.0
 30
0.0
  0
LINE
  5
122498
  8
DIM
 10
2000.0
 20
-2959.9999999999959
 30
0.0
 11
2000.0
 21
-2927.208121984444
 31
0.0
  0
LINE
  5
122499
  8
DIM
 10
2140.0
 20
-3007.9999999999959
 30
0.0
 11
2140.0
 21
-2927.208121984444
 31
0.0
  0
LINE
  5
12249A
  8
DIM
 10
2020.0
 20
-2937.208121984444
 30
0.0
 11
2120.0
 21
-2937.208121984444
 31
0.0
  0
INSERT
  5
12249B
  8
DIM
  2
_OPEN30
 10
2000.0
 20
-2937.208121984444
 30
0.0
 41
20.0
 42
20.0
 43
20.0
 50
180.0
  0
INSERT
  5
12249C
  8
DIM
  2
_OPEN30
 10
2140.0
 20
-2937.208121984444
 30
0.0
 41
20.0
 42
20.0
 43
20.0
  0
INSERT
  5
12249D
  8
OBJECT
  2
*U6
 10
0.0
 20
0.0
 30
0.0
  0
TEXT
  5
12249E
  8
SLIM
 10
2631.0
 20
-2842.50001604727
 30
0.0
 40
40.0
  1
C寸法
 41
0.75
  0
TEXT
  5
12249F
  8
SLIM
 10
2631.0
 20
-2772.50001604727
 30
0.0
 40
40.0
  1
B寸法
 41
0.75
  0
TEXT
  5
1224A0
  8
SLIM
 10
2630.2857142857142
 20
-2702.50001604727
 30
0.0
 40
40.0
  1
A寸法
 41
0.75
  0
TEXT
  5
1224A1
  8
SLIM
 10
3159.2857142857151
 20
-2842.50001604727
 30
0.0
 40
40.0
  1
150
 41
0.75
  0
TEXT
  5
1224A2
  8
SLIM
 10
3029.2857142857151
 20
-2842.50001604727
 30
0.0
 40
40.0
  1
140
 41
0.75
  0
TEXT
  5
1224A3
  8
SLIM
 10
2769.2857142857151
 20
-2842.50001604727
 30
0.0
 40
40.0
  1
140
 41
0.75
  0
TEXT
  5
1224A4
  8
SLIM
 10
2899.2857142857151
 20
-2842.50001604727
 30
0.0
 40
40.0
  1
140
 41
0.75
  0
TEXT
  5
1224A5
  8
SLIM
 10
3170.7142857142858
 20
-2772.50001604727
 30
0.0
 40
40.0
  1
72
 41
0.75
  0
TEXT
  5
1224A6
  8
SLIM
 10
3041.4285714285711
 20
-2772.50001604727
 30
0.0
 40
40.0
  1
59
 41
0.75
  0
TEXT
  5
1224A7
  8
SLIM
 10
2780.0
 20
-2772.50001604727
 30
0.0
 40
40.0
  1
44
 41
0.75
  0
TEXT
  5
1224A8
  8
SLIM
 10
2910.7142857142858
 20
-2772.50001604727
 30
0.0
 40
40.0
  1
52
 41
0.75
  0
TEXT
  5
1224A9
  8
SLIM
 10
2891.0
 20
-2577.50001604727
 30
0.0
 40
40.0
  1
横枝管サイズ
 41
0.75
  0
TEXT
  5
1224AA
  8
SLIM
 10
3136.2857142857151
 20
-2632.50001604727
 30
0.0
 40
30.0
  1
100（4）
 41
0.75
  0
TEXT
  5
1224AB
  8
SLIM
 10
3014.857142857144
 20
-2632.50001604727
 30
0.0
 40
30.0
  1
75（3）
 41
0.75
  0
TEXT
  5
1224AC
  8
SLIM
 10
2884.8571428571431
 20
-2632.50001604727
 30
0.0
 40
30.0
  1
65（2）
 41
0.75
  0
TEXT
  5
1224AD
  8
SLIM
 10
2757.0
 20
-2632.50001604727
 30
0.0
 40
30.0
  1
50（1）
 41
0.75
  0
TEXT
  5
1224AE
  8
SLIM
 10
3159.2857142857151
 20
-2702.50001604727
 30
0.0
 40
40.0
  1
150
 41
0.75
  0
TEXT
  5
1224AF
  8
SLIM
 10
3028.571428571428
 20
-2702.50001604727
 30
0.0
 40
40.0
  1
124
 41
0.75
  0
TEXT
  5
1224B0
  8
SLIM
 10
2780.0
 20
-2702.50001604727
 30
0.0
 40
40.0
  1
94
 41
0.75
  0
TEXT
  5
1224B1
  8
SLIM
 10
2902.1428571428569
 20
-2702.50001604727
 30
0.0
 40
40.0
  1
110
 41
0.75
  0
TEXT
  5
1224B2
  8
SLIM
 10
1849.9999999999991
 20
-2602.5
 30
0.0
 40
75.0
  1
枝管サイズ毎の形状
 41
0.75
  0
LINE
  5
1224B3
  8
OBJECT
 10
5150.0
 20
-3322.9999999999968
 30
0.0
 11
5143.0
 21
-3322.9999999999968
 31
0.0
1001
ACDBBLOCKREPETAG
1070
     1
1071
       64
1005
1224B3
  0
LINE
  5
1224B4
  8
OBJECT
 10
5143.0
 20
-3322.9999999999968
 30
0.0
 11
5143.0
 21
-3469.9999999999968
 31
0.0
1001
ACDBBLOCKREPETAG
1070
     1
1071
       65
1005
1224B4
  0
LINE
  5
1224B5
  8
OBJECT
 10
5101.5
 20
-3325.9999999999968
 30
0.0
 11
5101.5
 21
-3469.9999999999968
 31
0.0
1001
ACDBBLOCKREPETAG
1070
     1
1071
       66
1005
1224B5
  0
LINE
  5
1224B6
  8
OBJECT
 10
5090.0
 20
-3332.4999999999968
 30
0.0
 11
5090.0
 21
-3463.4999999999968
 31
0.0
1001
ACDBBLOCKREPETAG
1070
     1
1071
       67
1005
1224B6
  0
LINE
  5
1224B7
  8
OBJECT
 10
5086.0
 20
-3404.5000000000041
 30
0.0
 11
5086.0
 21
-3469.9999999999968
 31
0.0
1001
ACDBBLOCKREPETAG
1070
     1
1071
       68
1005
1224B7
  0
LINE
  5
1224B8
  8
OBJECT
 10
5150.0
 20
-3469.9999999999968
 30
0.0
 11
5150.0
 21
-3322.9999999999968
 31
0.0
1001
ACDBBLOCKREPETAG
1070
     1
1071
       69
1005
1224B8
  0
LINE
  5
1224B9
  8
CENTER
 10
5165.0
 20
-3397.9999999999968
 30
0.0
 11
5070.4144144144157
 21
-3397.9999999999968
 31
0.0
1001
ACDBBLOCKREPETAG
1070
     1
1071
       70
1005
1224B9
  0
LINE
  5
1224BA
  8
OBJECT
 10
5083.0000000000045
 20
-3472.9999999999968
 30
0.0
 11
5080.0
 21
-3472.9999999999968
 31
0.0
1001
ACDBBLOCKREPETAG
1070
     1
1071
       71
1005
1224BA
  0
ARC
  5
1224BB
  8
OBJECT
 10
5091.8815171830656
 20
-3471.4555591801418
 30
0.0
 40
6.0
 50
60.52411099686767
 51
170.6927439126847
1001
ACDBBLOCKREPETAG
1070
     1
1071
       72
1005
1224BB
  0
ARC
  5
1224BC
  8
OBJECT
 10
5083.0
 20
-3469.9999999999968
 30
0.0
 40
3.0
 50
270.0
 51
350.69274391268482
1001
ACDBBLOCKREPETAG
1070
     1
1071
       73
1005
1224BC
  0
LINE
  5
1224BD
  8
OBJECT
 10
5081.0
 20
-3348.9999999999968
 30
0.0
 11
5080.0
 21
-3348.9999999999968
 31
0.0
1001
ACDBBLOCKREPETAG
1070
     1
1071
       74
1005
1224BD
  0
LINE
  5
1224BE
  8
OBJECT
 10
5150.0
 20
-3469.9999999999968
 30
0.0
 11
5101.5
 21
-3469.9999999999968
 31
0.0
1001
ACDBBLOCKREPETAG
1070
     1
1071
       75
1005
1224BE
  0
LINE
  5
1224BF
  8
OBJECT
 10
5101.5
 20
-3325.9999999999968
 30
0.0
 11
5090.0
 21
-3332.4999999999968
 31
0.0
1001
ACDBBLOCKREPETAG
1070
     1
1071
       76
1005
1224BF
  0
LINE
  5
1224C0
  8
OBJECT
 10
5143.0
 20
-3325.9999999999968
 30
0.0
 11
5101.5
 21
-3325.9999999999968
 31
0.0
1001
ACDBBLOCKREPETAG
1070
     1
1071
       77
1005
1224C0
  0
LINE
  5
1224C1
  8
OBJECT
 10
5086.0
 20
-3404.5000000000041
 30
0.0
 11
5081.0
 21
-3348.9999999999968
 31
0.0
1001
ACDBBLOCKREPETAG
1070
     1
1071
       78
1005
1224C1
  0
LINE
  5
1224C2
  8
OBJECT
 10
5090.0
 20
-3332.4999999999968
 30
0.0
 11
5081.0
 21
-3348.9999999999968
 31
0.0
1001
ACDBBLOCKREPETAG
1070
     1
1071
       79
1005
1224C2
  0
LINE
  5
1224C3
  8
OBJECT
 10
5101.5
 20
-3469.9999999999968
 30
0.0
 11
5094.8338607230708
 21
-3466.2321821478199
 31
0.0
1001
ACDBBLOCKREPETAG
1070
     1
1071
       80
1005
1224C3
  0
LINE
  5
1224C4
  8
HIDDEN
 10
5098.0
 20
-3454.9999999999968
 30
0.0
 11
5098.0
 21
-3340.9999999999968
 31
0.0
1001
ACDBBLOCKREPETAG
1070
     1
1071
       81
1005
1224C4
  0
LINE
  5
1224C5
  8
OBJECT
 10
5150.0
 20
-2989.9999999999959
 30
0.0
 11
5143.0
 21
-2989.9999999999959
 31
0.0
1001
ACDBBLOCKREPETAG
1070
     1
1071
       67
1005
1224C5
  0
LINE
  5
1224C6
  8
OBJECT
 10
5143.0
 20
-2989.9999999999959
 30
0.0
 11
5143.0
 21
-3139.9999999999959
 31
0.0
1001
ACDBBLOCKREPETAG
1070
     1
1071
       68
1005
1224C6
  0
LINE
  5
1224C7
  8
OBJECT
 10
5101.5
 20
-2992.9999999999959
 30
0.0
 11
5101.5
 21
-3136.9999999999959
 31
0.0
1001
ACDBBLOCKREPETAG
1070
     1
1071
       69
1005
1224C7
  0
LINE
  5
1224C8
  8
OBJECT
 10
5090.0
 20
-2999.4999999999959
 30
0.0
 11
5090.0
 21
-3130.4999999999959
 31
0.0
1001
ACDBBLOCKREPETAG
1070
     1
1071
       70
1005
1224C8
  0
LINE
  5
1224C9
  8
OBJECT
 10
5143.0
 20
-3139.9999999999959
 30
0.0
 11
5150.0
 21
-3139.9999999999959
 31
0.0
1001
ACDBBLOCKREPETAG
1070
     1
1071
       71
1005
1224C9
  0
LINE
  5
1224CA
  8
OBJECT
 10
5150.0
 20
-3139.9999999999959
 30
0.0
 11
5150.0
 21
-2989.9999999999959
 31
0.0
1001
ACDBBLOCKREPETAG
1070
     1
1071
       72
1005
1224CA
  0
LINE
  5
1224CB
  8
HIDDEN
 10
5098.0
 20
-3121.9999999999959
 30
0.0
 11
5098.0
 21
-3007.9999999999959
 31
0.0
1001
ACDBBLOCKREPETAG
1070
     1
1071
       73
1005
1224CB
  0
LINE
  5
1224CC
  8
CENTER
 10
5165.0
 20
-3064.9999999999959
 30
0.0
 11
5080.0
 21
-3064.9999999999959
 31
0.0
1001
ACDBBLOCKREPETAG
1070
     1
1071
       74
1005
1224CC
  0
LINE
  5
1224CD
  8
OBJECT
 10
5086.0
 20
-3126.9999999999959
 30
0.0
 11
5080.0
 21
-3126.9999999999959
 31
0.0
1001
ACDBBLOCKREPETAG
1070
     1
1071
       75
1005
1224CD
  0
LINE
  5
1224CE
  8
OBJECT
 10
5143.0
 20
-3136.9999999999959
 30
0.0
 11
5101.5
 21
-3136.9999999999959
 31
0.0
1001
ACDBBLOCKREPETAG
1070
     1
1071
       76
1005
1224CE
  0
LINE
  5
1224CF
  8
OBJECT
 10
5101.5
 20
-3136.9999999999959
 30
0.0
 11
5090.0
 21
-3130.4999999999959
 31
0.0
1001
ACDBBLOCKREPETAG
1070
     1
1071
       77
1005
1224CF
  0
LINE
  5
1224D0
  8
OBJECT
 10
5090.0
 20
-3130.4999999999959
 30
0.0
 11
5086.0
 21
-3126.9999999999959
 31
0.0
1001
ACDBBLOCKREPETAG
1070
     1
1071
       78
1005
1224D0
  0
LINE
  5
1224D1
  8
OBJECT
 10
5101.5
 20
-2992.9999999999959
 30
0.0
 11
5090.0
 21
-2999.4999999999959
 31
0.0
1001
ACDBBLOCKREPETAG
1070
     1
1071
       79
1005
1224D1
  0
LINE
  5
1224D2
  8
OBJECT
 10
5090.0
 20
-2999.4999999999959
 30
0.0
 11
5086.0
 21
-3002.9999999999959
 31
0.0
1001
ACDBBLOCKREPETAG
1070
     1
1071
       80
1005
1224D2
  0
ARC
  5
1224D3
  8
OBJECT
 10
5467.9000000000005
 20
-3064.9999999999959
 30
0.0
 40
386.89999999999998
 50
170.77870136260421
 51
189.22129863739571
1001
ACDBBLOCKREPETAG
1070
     1
1071
       81
1005
1224D3
  0
LINE
  5
1224D4
  8
OBJECT
 10
5086.0
 20
-3002.9999999999959
 30
0.0
 11
5080.0
 21
-3002.9999999999959
 31
0.0
1001
ACDBBLOCKREPETAG
1070
     1
1071
       82
1005
1224D4
  0
LINE
  5
1224D5
  8
OBJECT
 10
5143.0
 20
-2992.9999999999959
 30
0.0
 11
5101.5
 21
-2992.9999999999959
 31
0.0
1001
ACDBBLOCKREPETAG
1070
     1
1071
       83
1005
1224D5
  0
TEXT
  5
1224D6
  8
SLIM
 10
4884.25
 20
-3587.4999999999959
 30
0.0
 40
35.0
  1
通常枝100（4）
 41
0.75
  0
LINE
  5
1224D7
  8
CENTER
 10
4477.0
 20
-3410.9999999999968
 30
0.0
 11
4323.0
 21
-3410.9999999999968
 31
0.0
1001
ACDBBLOCKREPETAG
1070
     1
1071
       17
1005
1224D7
  0
CIRCLE
  5
1224D8
  8
OBJECT
 10
4400.0
 20
-3410.9999999999968
 30
0.0
 40
41.5
1001
ACDBBLOCKREPETAG
1070
     1
1071
       19
1005
1224D8
  0
CIRCLE
  5
1224D9
  8
OBJECT
 10
4400.0
 20
-3410.9999999999968
 30
0.0
 40
54.0
1001
ACDBBLOCKREPETAG
1070
     1
1071
       20
1005
1224D9
  0
ARC
  5
1224DA
  8
OBJECT
 10
4400.0
 20
-3410.9999999999968
 30
0.0
 40
62.0
 50
287.89655112921122
 51
252.1034488707887
1001
ACDBBLOCKREPETAG
1070
     1
1071
       21
1005
1224DA
  0
LINE
  5
1224DB
  8
OBJECT
 10
4380.947441116743
 20
-3469.9999999999968
 30
0.0
 11
4419.052558883257
 21
-3469.9999999999968
 31
0.0
1001
ACDBBLOCKREPETAG
1070
     1
1071
       22
1005
1224DB
  0
LINE
  5
1224DC
  8
OBJECT
 10
4133.0
 20
-3348.9999999999968
 30
0.0
 11
4140.0
 21
-3348.9999999999968
 31
0.0
1001
ACDBBLOCKREPETAG
1070
     1
1071
       45
1005
1224DC
  0
LINE
  5
1224DD
  8
OBJECT
 10
4140.0
 20
-3348.9999999999968
 30
0.0
 11
4140.0
 21
-3469.9999999999968
 31
0.0
1001
ACDBBLOCKREPETAG
1070
     1
1071
       46
1005
1224DD
  0
LINE
  5
1224DE
  8
OBJECT
 10
4133.0
 20
-3469.9999999999968
 30
0.0
 11
4133.0
 21
-3348.9999999999968
 31
0.0
1001
ACDBBLOCKREPETAG
1070
     1
1071
       47
1005
1224DE
  0
LINE
  5
1224DF
  8
CENTER
 10
4155.0
 20
-3410.9999999999968
 30
0.0
 11
4071.0
 21
-3410.9999999999968
 31
0.0
1001
ACDBBLOCKREPETAG
1070
     1
1071
       48
1005
1224DF
  0
LINE
  5
1224E0
  8
OBJECT
 10
4133.0
 20
-3351.9999999999968
 30
0.0
 11
4097.0
 21
-3351.9999999999968
 31
0.0
1001
ACDBBLOCKREPETAG
1070
     1
1071
       49
1005
1224E0
  0
LINE
  5
1224E1
  8
OBJECT
 10
4097.0
 20
-3351.9999999999968
 30
0.0
 11
4097.0
 21
-3469.9999999999968
 31
0.0
1001
ACDBBLOCKREPETAG
1070
     1
1071
       50
1005
1224E1
  0
LINE
  5
1224E2
  8
OBJECT
 10
4097.0
 20
-3469.9999999999968
 30
0.0
 11
4140.0
 21
-3469.9999999999968
 31
0.0
1001
ACDBBLOCKREPETAG
1070
     1
1071
       51
1005
1224E2
  0
LINE
  5
1224E3
  8
OBJECT
 10
4093.0
 20
-3356.4999999999968
 30
0.0
 11
4086.0
 21
-3356.4999999999968
 31
0.0
1001
ACDBBLOCKREPETAG
1070
     1
1071
       52
1005
1224E3
  0
LINE
  5
1224E4
  8
OBJECT
 10
4086.0
 20
-3465.4999999999968
 30
0.0
 11
4093.0
 21
-3465.4999999999968
 31
0.0
1001
ACDBBLOCKREPETAG
1070
     1
1071
       53
1005
1224E4
  0
LINE
  5
1224E5
  8
OBJECT
 10
4093.0
 20
-3465.4999999999968
 30
0.0
 11
4093.0
 21
-3356.4999999999968
 31
0.0
1001
ACDBBLOCKREPETAG
1070
     1
1071
       54
1005
1224E5
  0
LINE
  5
1224E6
  8
OBJECT
 10
4097.0
 20
-3351.9999999999968
 30
0.0
 11
4093.0
 21
-3356.4999999999968
 31
0.0
1001
ACDBBLOCKREPETAG
1070
     1
1071
       55
1005
1224E6
  0
LINE
  5
1224E7
  8
OBJECT
 10
4097.0
 20
-3469.9999999999968
 30
0.0
 11
4093.0
 21
-3465.4999999999968
 31
0.0
1001
ACDBBLOCKREPETAG
1070
     1
1071
       56
1005
1224E7
  0
LINE
  5
1224E8
  8
OBJECT
 10
4083.0
 20
-3348.9999999999968
 30
0.0
 11
4080.0
 21
-3348.9999999999968
 31
0.0
1001
ACDBBLOCKREPETAG
1070
     1
1071
       57
1005
1224E8
  0
ARC
  5
1224E9
  8
OBJECT
 10
4083.0
 20
-3351.9999999999968
 30
0.0
 40
3.0
 50
0.0
 51
90.0
1001
ACDBBLOCKREPETAG
1070
     1
1071
       58
1005
1224E9
  0
LINE
  5
1224EA
  8
OBJECT
 10
4080.0
 20
-3472.9999999999968
 30
0.0
 11
4083.0
 21
-3472.9999999999968
 31
0.0
1001
ACDBBLOCKREPETAG
1070
     1
1071
       59
1005
1224EA
  0
ARC
  5
1224EB
  8
OBJECT
 10
4083.0
 20
-3469.9999999999968
 30
0.0
 40
3.0
 50
270.0
 51
0.0
1001
ACDBBLOCKREPETAG
1070
     1
1071
       60
1005
1224EB
  0
LINE
  5
1224EC
  8
OBJECT
 10
4086.0
 20
-3469.9999999999968
 30
0.0
 11
4086.0
 21
-3351.9999999999968
 31
0.0
1001
ACDBBLOCKREPETAG
1070
     1
1071
       61
1005
1224EC
  0
LINE
  5
1224ED
  8
HIDDEN
 10
4088.0
 20
-3366.4999999999968
 30
0.0
 11
4088.0
 21
-3455.4999999999968
 31
0.0
1001
ACDBBLOCKREPETAG
1070
     1
1071
       63
1005
1224ED
  0
LINE
  5
1224EE
  8
OBJECT
 10
4133.0
 20
-3002.9999999999959
 30
0.0
 11
4140.0
 21
-3002.9999999999959
 31
0.0
1001
ACDBBLOCKREPETAG
1070
     1
1071
       47
1005
1224EE
  0
LINE
  5
1224EF
  8
OBJECT
 10
4140.0
 20
-3002.9999999999959
 30
0.0
 11
4140.0
 21
-3126.9999999999959
 31
0.0
1001
ACDBBLOCKREPETAG
1070
     1
1071
       48
1005
1224EF
  0
LINE
  5
1224F0
  8
OBJECT
 10
4140.0
 20
-3126.9999999999959
 30
0.0
 11
4133.0
 21
-3126.9999999999959
 31
0.0
1001
ACDBBLOCKREPETAG
1070
     1
1071
       49
1005
1224F0
  0
LINE
  5
1224F1
  8
OBJECT
 10
4133.0
 20
-3126.9999999999959
 30
0.0
 11
4133.0
 21
-3002.9999999999959
 31
0.0
1001
ACDBBLOCKREPETAG
1070
     1
1071
       50
1005
1224F1
  0
LINE
  5
1224F2
  8
CENTER
 10
4155.0
 20
-3064.9999999999959
 30
0.0
 11
4080.0
 21
-3064.9999999999959
 31
0.0
1001
ACDBBLOCKREPETAG
1070
     1
1071
       51
1005
1224F2
  0
LINE
  5
1224F3
  8
OBJECT
 10
4133.0
 20
-3005.9999999999959
 30
0.0
 11
4097.0
 21
-3005.9999999999959
 31
0.0
1001
ACDBBLOCKREPETAG
1070
     1
1071
       52
1005
1224F3
  0
LINE
  5
1224F4
  8
OBJECT
 10
4097.0
 20
-3005.9999999999959
 30
0.0
 11
4097.0
 21
-3123.9999999999959
 31
0.0
1001
ACDBBLOCKREPETAG
1070
     1
1071
       53
1005
1224F4
  0
LINE
  5
1224F5
  8
OBJECT
 10
4097.0
 20
-3123.9999999999959
 30
0.0
 11
4133.0
 21
-3123.9999999999959
 31
0.0
1001
ACDBBLOCKREPETAG
1070
     1
1071
       54
1005
1224F5
  0
LINE
  5
1224F6
  8
OBJECT
 10
4093.0
 20
-3010.4999999999959
 30
0.0
 11
4086.0
 21
-3010.4999999999959
 31
0.0
1001
ACDBBLOCKREPETAG
1070
     1
1071
       55
1005
1224F6
  0
LINE
  5
1224F7
  8
OBJECT
 10
4086.0
 20
-3119.4999999999959
 30
0.0
 11
4093.0
 21
-3119.4999999999959
 31
0.0
1001
ACDBBLOCKREPETAG
1070
     1
1071
       56
1005
1224F7
  0
LINE
  5
1224F8
  8
OBJECT
 10
4093.0
 20
-3119.4999999999959
 30
0.0
 11
4093.0
 21
-3010.4999999999959
 31
0.0
1001
ACDBBLOCKREPETAG
1070
     1
1071
       57
1005
1224F8
  0
LINE
  5
1224F9
  8
OBJECT
 10
4097.0
 20
-3005.9999999999959
 30
0.0
 11
4093.0
 21
-3010.4999999999959
 31
0.0
1001
ACDBBLOCKREPETAG
1070
     1
1071
       58
1005
1224F9
  0
LINE
  5
1224FA
  8
OBJECT
 10
4097.0
 20
-3123.9999999999959
 30
0.0
 11
4093.0
 21
-3119.4999999999959
 31
0.0
1001
ACDBBLOCKREPETAG
1070
     1
1071
       59
1005
1224FA
  0
LINE
  5
1224FB
  8
OBJECT
 10
4083.0
 20
-3002.9999999999959
 30
0.0
 11
4080.0
 21
-3002.9999999999959
 31
0.0
1001
ACDBBLOCKREPETAG
1070
     1
1071
       60
1005
1224FB
  0
ARC
  5
1224FC
  8
OBJECT
 10
4083.0
 20
-3005.9999999999959
 30
0.0
 40
3.0
 50
0.0
 51
90.0
1001
ACDBBLOCKREPETAG
1070
     1
1071
       61
1005
1224FC
  0
LINE
  5
1224FD
  8
OBJECT
 10
4080.0
 20
-3126.9999999999959
 30
0.0
 11
4083.0
 21
-3126.9999999999959
 31
0.0
1001
ACDBBLOCKREPETAG
1070
     1
1071
       62
1005
1224FD
  0
ARC
  5
1224FE
  8
OBJECT
 10
4083.0
 20
-3123.9999999999959
 30
0.0
 40
3.0
 50
270.0
 51
0.0
1001
ACDBBLOCKREPETAG
1070
     1
1071
       63
1005
1224FE
  0
LINE
  5
1224FF
  8
OBJECT
 10
4086.0
 20
-3123.9999999999959
 30
0.0
 11
4086.0
 21
-3005.9999999999959
 31
0.0
1001
ACDBBLOCKREPETAG
1070
     1
1071
       64
1005
1224FF
  0
LINE
  5
122500
  8
HIDDEN
 10
4088.0
 20
-3020.4999999999959
 30
0.0
 11
4088.0
 21
-3109.4999999999959
 31
0.0
1001
ACDBBLOCKREPETAG
1070
     1
1071
       65
1005
122500
  0
TEXT
  5
122501
  8
SLIM
 10
3894.25
 20
-3587.4999999999959
 30
0.0
 40
35.0
  1
通常枝75（3）
 41
0.75
  0
CIRCLE
  5
122502
  8
OBJECT
 10
3400.0
 20
-3417.9999999999968
 30
0.0
 40
35.5
1001
ACDBBLOCKREPETAG
1070
     1
1071
       10
1005
122502
  0
CIRCLE
  5
122503
  8
OBJECT
 10
3400.0
 20
-3410.9999999999968
 30
0.0
 40
62.0
1001
ACDBBLOCKREPETAG
1070
     1
1071
       11
1005
122503
  0
LINE
  5
122504
  8
CENTER
 10
3330.0
 20
-3417.9999999999968
 30
0.0
 11
3470.0
 21
-3417.9999999999968
 31
0.0
1001
ACDBBLOCKREPETAG
1070
     1
1071
       12
1005
122504
  0
CIRCLE
  5
122505
  8
OBJECT
 10
3400.0
 20
-3417.9999999999968
 30
0.0
 40
47.0
1001
ACDBBLOCKREPETAG
1070
     1
1071
       14
1005
122505
  0
ARC
  5
122506
  8
OBJECT
 10
3400.0
 20
-3417.9999999999968
 30
0.0
 40
55.0
 50
289.01126526011359
 51
250.98873473988641
1001
ACDBBLOCKREPETAG
1070
     1
1071
       15
1005
122506
  0
LINE
  5
122507
  8
OBJECT
 10
3382.0835271328328
 20
-3469.9999999999968
 30
0.0
 11
3417.9164728671681
 21
-3469.9999999999968
 31
0.0
1001
ACDBBLOCKREPETAG
1070
     1
1071
       16
1005
122507
  0
LINE
  5
122508
  8
OBJECT
 10
3133.0
 20
-3362.9999999999968
 30
0.0
 11
3140.0
 21
-3362.9999999999968
 31
0.0
1001
ACDBBLOCKREPETAG
1070
     1
1071
       26
1005
122508
  0
LINE
  5
122509
  8
OBJECT
 10
3140.0
 20
-3362.9999999999968
 30
0.0
 11
3140.0
 21
-3469.9999999999968
 31
0.0
1001
ACDBBLOCKREPETAG
1070
     1
1071
       27
1005
122509
  0
LINE
  5
12250A
  8
OBJECT
 10
3133.0
 20
-3469.9999999999968
 30
0.0
 11
3133.0
 21
-3362.9999999999968
 31
0.0
1001
ACDBBLOCKREPETAG
1070
     1
1071
       28
1005
12250A
  0
LINE
  5
12250B
  8
CENTER
 10
3155.0
 20
-3417.9999999999968
 30
0.0
 11
3071.0
 21
-3417.9999999999968
 31
0.0
1001
ACDBBLOCKREPETAG
1070
     1
1071
       29
1005
12250B
  0
LINE
  5
12250C
  8
OBJECT
 10
3133.0
 20
-3365.9999999999968
 30
0.0
 11
3097.0
 21
-3365.9999999999968
 31
0.0
1001
ACDBBLOCKREPETAG
1070
     1
1071
       30
1005
12250C
  0
LINE
  5
12250D
  8
OBJECT
 10
3097.0
 20
-3365.9999999999968
 30
0.0
 11
3097.0
 21
-3469.9999999999968
 31
0.0
1001
ACDBBLOCKREPETAG
1070
     1
1071
       31
1005
12250D
  0
LINE
  5
12250E
  8
OBJECT
 10
3097.0
 20
-3469.9999999999968
 30
0.0
 11
3140.0
 21
-3469.9999999999968
 31
0.0
1001
ACDBBLOCKREPETAG
1070
     1
1071
       32
1005
12250E
  0
LINE
  5
12250F
  8
OBJECT
 10
3093.0
 20
-3370.4999999999968
 30
0.0
 11
3086.0
 21
-3370.4999999999968
 31
0.0
1001
ACDBBLOCKREPETAG
1070
     1
1071
       33
1005
12250F
  0
LINE
  5
122510
  8
OBJECT
 10
3086.0
 20
-3465.4999999999968
 30
0.0
 11
3093.0
 21
-3465.4999999999968
 31
0.0
1001
ACDBBLOCKREPETAG
1070
     1
1071
       34
1005
122510
  0
LINE
  5
122511
  8
OBJECT
 10
3093.0
 20
-3465.4999999999968
 30
0.0
 11
3093.0
 21
-3370.4999999999968
 31
0.0
1001
ACDBBLOCKREPETAG
1070
     1
1071
       35
1005
122511
  0
LINE
  5
122512
  8
OBJECT
 10
3097.0
 20
-3365.9999999999968
 30
0.0
 11
3093.0
 21
-3370.4999999999968
 31
0.0
1001
ACDBBLOCKREPETAG
1070
     1
1071
       36
1005
122512
  0
LINE
  5
122513
  8
OBJECT
 10
3097.0
 20
-3469.9999999999968
 30
0.0
 11
3093.0
 21
-3465.4999999999968
 31
0.0
1001
ACDBBLOCKREPETAG
1070
     1
1071
       37
1005
122513
  0
LINE
  5
122514
  8
OBJECT
 10
3083.0
 20
-3348.9999999999968
 30
0.0
 11
3080.0
 21
-3348.9999999999968
 31
0.0
1001
ACDBBLOCKREPETAG
1070
     1
1071
       38
1005
122514
  0
ARC
  5
122515
  8
OBJECT
 10
3083.0
 20
-3351.9999999999968
 30
0.0
 40
3.0
 50
0.0
 51
90.0
1001
ACDBBLOCKREPETAG
1070
     1
1071
       39
1005
122515
  0
LINE
  5
122516
  8
OBJECT
 10
3080.0
 20
-3472.9999999999968
 30
0.0
 11
3083.0
 21
-3472.9999999999968
 31
0.0
1001
ACDBBLOCKREPETAG
1070
     1
1071
       40
1005
122516
  0
ARC
  5
122517
  8
OBJECT
 10
3083.0
 20
-3469.9999999999968
 30
0.0
 40
3.0
 50
270.0
 51
0.0
1001
ACDBBLOCKREPETAG
1070
     1
1071
       41
1005
122517
  0
LINE
  5
122518
  8
OBJECT
 10
3086.0
 20
-3469.9999999999968
 30
0.0
 11
3086.0
 21
-3351.9999999999968
 31
0.0
1001
ACDBBLOCKREPETAG
1070
     1
1071
       42
1005
122518
  0
LINE
  5
122519
  8
HIDDEN
 10
3088.0
 20
-3379.9999999999968
 30
0.0
 11
3088.0
 21
-3455.9999999999968
 31
0.0
1001
ACDBBLOCKREPETAG
1070
     1
1071
       43
1005
122519
  0
LINE
  5
12251A
  8
OBJECT
 10
3133.0
 20
-3009.9999999999959
 30
0.0
 11
3140.0
 21
-3009.9999999999959
 31
0.0
1001
ACDBBLOCKREPETAG
1070
     1
1071
       27
1005
12251A
  0
LINE
  5
12251B
  8
OBJECT
 10
3140.0
 20
-3009.9999999999959
 30
0.0
 11
3140.0
 21
-3119.9999999999959
 31
0.0
1001
ACDBBLOCKREPETAG
1070
     1
1071
       28
1005
12251B
  0
LINE
  5
12251C
  8
OBJECT
 10
3140.0
 20
-3119.9999999999959
 30
0.0
 11
3133.0
 21
-3119.9999999999959
 31
0.0
1001
ACDBBLOCKREPETAG
1070
     1
1071
       29
1005
12251C
  0
LINE
  5
12251D
  8
OBJECT
 10
3133.0
 20
-3119.9999999999959
 30
0.0
 11
3133.0
 21
-3009.9999999999959
 31
0.0
1001
ACDBBLOCKREPETAG
1070
     1
1071
       30
1005
12251D
  0
LINE
  5
12251E
  8
CENTER
 10
3155.0
 20
-3064.9999999999959
 30
0.0
 11
3080.0
 21
-3064.9999999999959
 31
0.0
1001
ACDBBLOCKREPETAG
1070
     1
1071
       31
1005
12251E
  0
LINE
  5
12251F
  8
OBJECT
 10
3133.0
 20
-3012.9999999999959
 30
0.0
 11
3097.0
 21
-3012.9999999999959
 31
0.0
1001
ACDBBLOCKREPETAG
1070
     1
1071
       32
1005
12251F
  0
LINE
  5
122520
  8
OBJECT
 10
3097.0
 20
-3012.9999999999959
 30
0.0
 11
3097.0
 21
-3116.9999999999959
 31
0.0
1001
ACDBBLOCKREPETAG
1070
     1
1071
       33
1005
122520
  0
LINE
  5
122521
  8
OBJECT
 10
3097.0
 20
-3116.9999999999959
 30
0.0
 11
3133.0
 21
-3116.9999999999959
 31
0.0
1001
ACDBBLOCKREPETAG
1070
     1
1071
       34
1005
122521
  0
LINE
  5
122522
  8
OBJECT
 10
3093.0
 20
-3017.4999999999959
 30
0.0
 11
3086.0
 21
-3017.4999999999959
 31
0.0
1001
ACDBBLOCKREPETAG
1070
     1
1071
       35
1005
122522
  0
LINE
  5
122523
  8
OBJECT
 10
3086.0
 20
-3112.4999999999959
 30
0.0
 11
3093.0
 21
-3112.4999999999959
 31
0.0
1001
ACDBBLOCKREPETAG
1070
     1
1071
       36
1005
122523
  0
LINE
  5
122524
  8
OBJECT
 10
3093.0
 20
-3112.4999999999959
 30
0.0
 11
3093.0
 21
-3017.4999999999959
 31
0.0
1001
ACDBBLOCKREPETAG
1070
     1
1071
       37
1005
122524
  0
LINE
  5
122525
  8
OBJECT
 10
3097.0
 20
-3012.9999999999959
 30
0.0
 11
3093.0
 21
-3017.4999999999959
 31
0.0
1001
ACDBBLOCKREPETAG
1070
     1
1071
       38
1005
122525
  0
LINE
  5
122526
  8
OBJECT
 10
3097.0
 20
-3116.9999999999959
 30
0.0
 11
3093.0
 21
-3112.4999999999959
 31
0.0
1001
ACDBBLOCKREPETAG
1070
     1
1071
       39
1005
122526
  0
LINE
  5
122527
  8
OBJECT
 10
3083.0
 20
-3002.9999999999959
 30
0.0
 11
3080.0
 21
-3002.9999999999959
 31
0.0
1001
ACDBBLOCKREPETAG
1070
     1
1071
       40
1005
122527
  0
ARC
  5
122528
  8
OBJECT
 10
3083.0
 20
-3005.9999999999959
 30
0.0
 40
3.0
 50
0.0
 51
90.0
1001
ACDBBLOCKREPETAG
1070
     1
1071
       41
1005
122528
  0
LINE
  5
122529
  8
OBJECT
 10
3080.0
 20
-3126.9999999999959
 30
0.0
 11
3083.0
 21
-3126.9999999999959
 31
0.0
1001
ACDBBLOCKREPETAG
1070
     1
1071
       42
1005
122529
  0
ARC
  5
12252A
  8
OBJECT
 10
3083.0
 20
-3123.9999999999959
 30
0.0
 40
3.0
 50
270.0
 51
0.0
1001
ACDBBLOCKREPETAG
1070
     1
1071
       43
1005
12252A
  0
LINE
  5
12252B
  8
OBJECT
 10
3086.0
 20
-3123.9999999999959
 30
0.0
 11
3086.0
 21
-3005.9999999999959
 31
0.0
1001
ACDBBLOCKREPETAG
1070
     1
1071
       44
1005
12252B
  0
LINE
  5
12252C
  8
HIDDEN
 10
3088.0
 20
-3026.9999999999959
 30
0.0
 11
3088.0
 21
-3102.9999999999959
 31
0.0
1001
ACDBBLOCKREPETAG
1070
     1
1071
       45
1005
12252C
  0
TEXT
  5
12252D
  8
SLIM
 10
2894.25
 20
-3587.4999999999959
 30
0.0
 40
35.0
  1
通常枝65（2）
 41
0.75
  0
CIRCLE
  5
12252E
  8
OBJECT
 10
2400.0
 20
-3410.9999999999968
 30
0.0
 40
62.0
1001
ACDBBLOCKREPETAG
1070
     1
1071
        3
1005
12252E
  0
LINE
  5
12252F
  8
CENTER
 10
2338.0
 20
-3425.9999999999968
 30
0.0
 11
2462.0
 21
-3425.9999999999968
 31
0.0
1001
ACDBBLOCKREPETAG
1070
     1
1071
        4
1005
12252F
  0
CIRCLE
  5
122530
  8
OBJECT
 10
2400.0
 20
-3425.9999999999968
 30
0.0
 40
28.0
1001
ACDBBLOCKREPETAG
1070
     1
1071
        6
1005
122530
  0
CIRCLE
  5
122531
  8
OBJECT
 10
2400.0
 20
-3425.9999999999968
 30
0.0
 40
39.0
1001
ACDBBLOCKREPETAG
1070
     1
1071
        7
1005
122531
  0
ARC
  5
122532
  8
OBJECT
 10
2400.0
 20
-3425.9999999999968
 30
0.0
 40
47.0
 50
290.58196921144412
 51
249.41803078855591
1001
ACDBBLOCKREPETAG
1070
     1
1071
        8
1005
122532
  0
LINE
  5
122533
  8
OBJECT
 10
2383.4772883581431
 20
-3469.9999999999968
 30
0.0
 11
2416.5227116418569
 21
-3469.9999999999968
 31
0.0
1001
ACDBBLOCKREPETAG
1070
     1
1071
        9
1005
122533
  0
LINE
  5
122534
  8
OBJECT
 10
2133.0
 20
-3378.9999999999968
 30
0.0
 11
2140.0
 21
-3378.9999999999968
 31
0.0
1001
ACDBBLOCKREPETAG
1070
     1
1071
        7
1005
122534
  0
LINE
  5
122535
  8
OBJECT
 10
2140.0
 20
-3378.9999999999968
 30
0.0
 11
2140.0
 21
-3469.9999999999968
 31
0.0
1001
ACDBBLOCKREPETAG
1070
     1
1071
        8
1005
122535
  0
LINE
  5
122536
  8
OBJECT
 10
2133.0
 20
-3469.9999999999968
 30
0.0
 11
2133.0
 21
-3378.9999999999968
 31
0.0
1001
ACDBBLOCKREPETAG
1070
     1
1071
        9
1005
122536
  0
LINE
  5
122537
  8
CENTER
 10
2155.0
 20
-3425.9999999999968
 30
0.0
 11
2071.0
 21
-3425.9999999999968
 31
0.0
1001
ACDBBLOCKREPETAG
1070
     1
1071
       10
1005
122537
  0
LINE
  5
122538
  8
OBJECT
 10
2133.0
 20
-3381.9999999999968
 30
0.0
 11
2097.0
 21
-3381.9999999999968
 31
0.0
1001
ACDBBLOCKREPETAG
1070
     1
1071
       11
1005
122538
  0
LINE
  5
122539
  8
OBJECT
 10
2097.0
 20
-3381.9999999999968
 30
0.0
 11
2097.0
 21
-3469.9999999999968
 31
0.0
1001
ACDBBLOCKREPETAG
1070
     1
1071
       12
1005
122539
  0
LINE
  5
12253A
  8
OBJECT
 10
2097.0
 20
-3469.9999999999968
 30
0.0
 11
2140.0
 21
-3469.9999999999968
 31
0.0
1001
ACDBBLOCKREPETAG
1070
     1
1071
       13
1005
12253A
  0
LINE
  5
12253B
  8
OBJECT
 10
2093.0
 20
-3386.4999999999968
 30
0.0
 11
2086.0
 21
-3386.4999999999968
 31
0.0
1001
ACDBBLOCKREPETAG
1070
     1
1071
       14
1005
12253B
  0
LINE
  5
12253C
  8
OBJECT
 10
2086.0
 20
-3465.4999999999968
 30
0.0
 11
2093.0
 21
-3465.4999999999968
 31
0.0
1001
ACDBBLOCKREPETAG
1070
     1
1071
       15
1005
12253C
  0
LINE
  5
12253D
  8
OBJECT
 10
2093.0
 20
-3465.4999999999968
 30
0.0
 11
2093.0
 21
-3386.4999999999968
 31
0.0
1001
ACDBBLOCKREPETAG
1070
     1
1071
       16
1005
12253D
  0
LINE
  5
12253E
  8
OBJECT
 10
2097.0
 20
-3381.9999999999968
 30
0.0
 11
2093.0
 21
-3386.4999999999968
 31
0.0
1001
ACDBBLOCKREPETAG
1070
     1
1071
       17
1005
12253E
  0
LINE
  5
12253F
  8
OBJECT
 10
2097.0
 20
-3469.9999999999968
 30
0.0
 11
2093.0
 21
-3465.4999999999968
 31
0.0
1001
ACDBBLOCKREPETAG
1070
     1
1071
       18
1005
12253F
  0
LINE
  5
122540
  8
OBJECT
 10
2083.0
 20
-3348.9999999999968
 30
0.0
 11
2080.0
 21
-3348.9999999999968
 31
0.0
1001
ACDBBLOCKREPETAG
1070
     1
1071
       19
1005
122540
  0
ARC
  5
122541
  8
OBJECT
 10
2083.0
 20
-3351.9999999999968
 30
0.0
 40
3.0
 50
0.0
 51
90.0
1001
ACDBBLOCKREPETAG
1070
     1
1071
       20
1005
122541
  0
LINE
  5
122542
  8
OBJECT
 10
2080.0
 20
-3472.9999999999968
 30
0.0
 11
2083.0
 21
-3472.9999999999968
 31
0.0
1001
ACDBBLOCKREPETAG
1070
     1
1071
       21
1005
122542
  0
ARC
  5
122543
  8
OBJECT
 10
2083.0
 20
-3469.9999999999968
 30
0.0
 40
3.0
 50
270.0
 51
0.0
1001
ACDBBLOCKREPETAG
1070
     1
1071
       22
1005
122543
  0
LINE
  5
122544
  8
OBJECT
 10
2086.0
 20
-3469.9999999999968
 30
0.0
 11
2086.0
 21
-3351.9999999999968
 31
0.0
1001
ACDBBLOCKREPETAG
1070
     1
1071
       23
1005
122544
  0
LINE
  5
122545
  8
HIDDEN
 10
2088.0
 20
-3395.9999999999968
 30
0.0
 11
2088.0
 21
-3455.9999999999968
 31
0.0
1001
ACDBBLOCKREPETAG
1070
     1
1071
       24
1005
122545
  0
LINE
  5
122546
  8
OBJECT
 10
2133.0
 20
-3017.9999999999959
 30
0.0
 11
2140.0
 21
-3017.9999999999959
 31
0.0
1001
ACDBBLOCKREPETAG
1070
     1
1071
        7
1005
122546
  0
LINE
  5
122547
  8
OBJECT
 10
2140.0
 20
-3017.9999999999959
 30
0.0
 11
2140.0
 21
-3111.9999999999959
 31
0.0
1001
ACDBBLOCKREPETAG
1070
     1
1071
        8
1005
122547
  0
LINE
  5
122548
  8
OBJECT
 10
2140.0
 20
-3111.9999999999959
 30
0.0
 11
2133.0
 21
-3111.9999999999959
 31
0.0
1001
ACDBBLOCKREPETAG
1070
     1
1071
        9
1005
122548
  0
LINE
  5
122549
  8
OBJECT
 10
2133.0
 20
-3111.9999999999959
 30
0.0
 11
2133.0
 21
-3017.9999999999959
 31
0.0
1001
ACDBBLOCKREPETAG
1070
     1
1071
       10
1005
122549
  0
LINE
  5
12254A
  8
CENTER
 10
2155.0
 20
-3064.9999999999959
 30
0.0
 11
2080.0
 21
-3064.9999999999959
 31
0.0
1001
ACDBBLOCKREPETAG
1070
     1
1071
       11
1005
12254A
  0
LINE
  5
12254B
  8
OBJECT
 10
2133.0
 20
-3020.9999999999959
 30
0.0
 11
2097.0
 21
-3020.9999999999959
 31
0.0
1001
ACDBBLOCKREPETAG
1070
     1
1071
       12
1005
12254B
  0
LINE
  5
12254C
  8
OBJECT
 10
2097.0
 20
-3020.9999999999959
 30
0.0
 11
2097.0
 21
-3108.9999999999959
 31
0.0
1001
ACDBBLOCKREPETAG
1070
     1
1071
       13
1005
12254C
  0
LINE
  5
12254D
  8
OBJECT
 10
2097.0
 20
-3108.9999999999959
 30
0.0
 11
2133.0
 21
-3108.9999999999959
 31
0.0
1001
ACDBBLOCKREPETAG
1070
     1
1071
       14
1005
12254D
  0
LINE
  5
12254E
  8
OBJECT
 10
2093.0
 20
-3025.4999999999959
 30
0.0
 11
2086.0
 21
-3025.4999999999959
 31
0.0
1001
ACDBBLOCKREPETAG
1070
     1
1071
       15
1005
12254E
  0
LINE
  5
12254F
  8
OBJECT
 10
2086.0
 20
-3104.4999999999959
 30
0.0
 11
2093.0
 21
-3104.4999999999959
 31
0.0
1001
ACDBBLOCKREPETAG
1070
     1
1071
       16
1005
12254F
  0
LINE
  5
122550
  8
OBJECT
 10
2093.0
 20
-3104.4999999999959
 30
0.0
 11
2093.0
 21
-3025.4999999999959
 31
0.0
1001
ACDBBLOCKREPETAG
1070
     1
1071
       17
1005
122550
  0
LINE
  5
122551
  8
OBJECT
 10
2097.0
 20
-3020.9999999999959
 30
0.0
 11
2093.0
 21
-3025.4999999999959
 31
0.0
1001
ACDBBLOCKREPETAG
1070
     1
1071
       18
1005
122551
  0
LINE
  5
122552
  8
OBJECT
 10
2097.0
 20
-3108.9999999999959
 30
0.0
 11
2093.0
 21
-3104.4999999999959
 31
0.0
1001
ACDBBLOCKREPETAG
1070
     1
1071
       19
1005
122552
  0
LINE
  5
122553
  8
OBJECT
 10
2083.0
 20
-3002.9999999999959
 30
0.0
 11
2080.0
 21
-3002.9999999999959
 31
0.0
1001
ACDBBLOCKREPETAG
1070
     1
1071
       20
1005
122553
  0
ARC
  5
122554
  8
OBJECT
 10
2083.0
 20
-3005.9999999999959
 30
0.0
 40
3.0
 50
0.0
 51
90.0
1001
ACDBBLOCKREPETAG
1070
     1
1071
       21
1005
122554
  0
LINE
  5
122555
  8
OBJECT
 10
2080.0
 20
-3126.9999999999959
 30
0.0
 11
2083.0
 21
-3126.9999999999959
 31
0.0
1001
ACDBBLOCKREPETAG
1070
     1
1071
       22
1005
122555
  0
ARC
  5
122556
  8
OBJECT
 10
2083.0
 20
-3123.9999999999959
 30
0.0
 40
3.0
 50
270.0
 51
0.0
1001
ACDBBLOCKREPETAG
1070
     1
1071
       23
1005
122556
  0
LINE
  5
122557
  8
OBJECT
 10
2086.0
 20
-3123.9999999999959
 30
0.0
 11
2086.0
 21
-3005.9999999999959
 31
0.0
1001
ACDBBLOCKREPETAG
1070
     1
1071
       24
1005
122557
  0
LINE
  5
122558
  8
HIDDEN
 10
2088.0
 20
-3034.9999999999959
 30
0.0
 11
2088.0
 21
-3094.9999999999959
 31
0.0
1001
ACDBBLOCKREPETAG
1070
     1
1071
       25
1005
122558
  0
TEXT
  5
122559
  8
SLIM
 10
1896.75
 20
-3587.4999999999959
 30
0.0
 40
35.0
  1
通常枝50（1）
 41
0.75
  0
TEXT
  5
12255A
  8
SLIM
 10
1837.75
 20
282.50000000000011
 30
0.0
 40
35.0
  1
（枝管サイズ毎に寸法が異なります。管底の位置は全サイズで同じです）
 41
0.75
  0
TEXT
  5
12255B
  8
SLIM
 10
1850.0
 20
532.5
 30
0.0
 40
75.0
  1
側面図の代表機種
 41
0.75
  0
TEXT
  5
12255C
  8
SLIM
 10
1850.0
 20
369.99999999999989
 30
0.0
 40
100.0
  1
4SSL-A3
 41
0.75
  0
LINE
  5
12255D
  8
SLIM
 10
4414.9999999999927
 20
-655.19743878931445
 30
0.0
 11
4425.1974387893069
 21
-644.99999999999955
 31
0.0
1001
ACAD
1010
0.0
1020
0.0
1030
0.0
1001
ACDBBLOCKREPETAG
1070
     1
1071
       12
1005
12255D
  0
LINE
  5
12255E
  8
SLIM
 10
4414.9999999999927
 20
-673.15795103145149
 30
0.0
 11
4443.1579510314468
 21
-644.99999999999955
 31
0.0
1001
ACAD
1010
0.0
1020
0.0
1030
0.0
1001
ACDBBLOCKREPETAG
1070
     1
1071
       13
1005
12255E
  0
LINE
  5
12255F
  8
SLIM
 10
4414.9999999999973
 20
-691.11846327358842
 30
0.0
 11
4461.118463273584
 21
-644.99999999999955
 31
0.0
1001
ACAD
1010
0.0
1020
0.0
1030
0.0
1001
ACDBBLOCKREPETAG
1070
     1
1071
       14
1005
12255F
  0
LINE
  5
122560
  8
SLIM
 10
4414.9999999999973
 20
-709.07897551572535
 30
0.0
 11
4479.0789755157211
 21
-644.99999999999955
 31
0.0
1001
ACAD
1010
0.0
1020
0.0
1030
0.0
1001
ACDBBLOCKREPETAG
1070
     1
1071
       15
1005
122560
  0
LINE
  5
122561
  8
SLIM
 10
4414.9999999999991
 20
-727.03948775786239
 30
0.0
 11
4497.039487757861
 21
-644.99999999999955
 31
0.0
1001
ACAD
1010
0.0
1020
0.0
1030
0.0
1001
ACDBBLOCKREPETAG
1070
     1
1071
       16
1005
122561
  0
LINE
  5
122562
  8
SLIM
 10
4415.283600749558
 20
-744.71639925044144
 30
0.0
 11
4515.0
 21
-644.99999999999955
 31
0.0
1001
ACAD
1010
0.0
1020
0.0
1030
0.0
1001
ACDBBLOCKREPETAG
1070
     1
1071
       17
1005
122562
  0
LINE
  5
122563
  8
SLIM
 10
4417.4979104780414
 20
-760.46260176409703
 30
0.0
 11
4532.9605122421381
 21
-644.99999999999955
 31
0.0
1001
ACAD
1010
0.0
1020
0.0
1030
0.0
1001
ACDBBLOCKREPETAG
1070
     1
1071
       18
1005
122563
  0
LINE
  5
122564
  8
SLIM
 10
4419.712220206522
 20
-776.20880427775205
 30
0.0
 11
4550.921024484277
 21
-644.99999999999955
 31
0.0
1001
ACAD
1010
0.0
1020
0.0
1030
0.0
1001
ACDBBLOCKREPETAG
1070
     1
1071
       19
1005
122564
  0
LINE
  5
122565
  8
SLIM
 10
4421.9265299350063
 20
-791.9550067914073
 30
0.0
 11
4568.8815367264151
 21
-644.99999999999955
 31
0.0
1001
ACAD
1010
0.0
1020
0.0
1030
0.0
1001
ACDBBLOCKREPETAG
1070
     1
1071
       20
1005
122565
  0
LINE
  5
122566
  8
SLIM
 10
4424.1408396634888
 20
-807.70120930506243
 30
0.0
 11
4585.0000000000073
 21
-646.84204896854555
 31
0.0
1001
ACAD
1010
0.0
1020
0.0
1030
0.0
1001
ACDBBLOCKREPETAG
1070
     1
1071
       21
1005
122566
  0
LINE
  5
122567
  8
SLIM
 10
4426.3551493919731
 20
-823.44741181871768
 30
0.0
 11
4585.0000000000073
 21
-664.80256121068533
 31
0.0
1001
ACAD
1010
0.0
1020
0.0
1030
0.0
1001
ACDBBLOCKREPETAG
1070
     1
1071
       22
1005
122567
  0
LINE
  5
122568
  8
SLIM
 10
4428.5694591204547
 20
-839.19361433237304
 30
0.0
 11
4585.0000000000036
 21
-682.76307345282476
 31
0.0
1001
ACAD
1010
0.0
1020
0.0
1030
0.0
1001
ACDBBLOCKREPETAG
1070
     1
1071
       23
1005
122568
  0
LINE
  5
122569
  8
SLIM
 10
4430.783768848939
 20
-854.93981684602829
 30
0.0
 11
4585.0000000000009
 21
-700.72358569496441
 31
0.0
1001
ACAD
1010
0.0
1020
0.0
1030
0.0
1001
ACDBBLOCKREPETAG
1070
     1
1071
       24
1005
122569
  0
LINE
  5
12256A
  8
SLIM
 10
4432.9980785774223
 20
-870.68601935968354
 30
0.0
 11
4585.0
 21
-718.68409793710418
 31
0.0
1001
ACAD
1010
0.0
1020
0.0
1030
0.0
1001
ACDBBLOCKREPETAG
1070
     1
1071
       25
1005
12256A
  0
LINE
  5
12256B
  8
SLIM
 10
4443.0
 20
-878.64461017924395
 30
0.0
 11
4446.6446101792462
 21
-874.99999999999761
 31
0.0
1001
ACAD
1010
0.0
1020
0.0
1030
0.0
1001
ACDBBLOCKREPETAG
1070
     1
1071
       26
1005
12256B
  0
LINE
  5
12256C
  8
SLIM
 10
4446.6446101792462
 20
-874.99999999999761
 30
0.0
 11
4585.0
 21
-736.64461017924395
 31
0.0
1001
ACAD
1010
0.0
1020
0.0
1030
0.0
1001
ACDBBLOCKREPETAG
1070
     1
1071
       27
1005
12256C
  0
LINE
  5
12256D
  8
SLIM
 10
4444.6051224213852
 20
-894.99999999999773
 30
0.0
 11
4464.6051224213852
 21
-874.99999999999761
 31
0.0
1001
ACAD
1010
0.0
1020
0.0
1030
0.0
1001
ACDBBLOCKREPETAG
1070
     1
1071
       28
1005
12256D
  0
LINE
  5
12256E
  8
SLIM
 10
4464.6051224213852
 20
-874.99999999999761
 30
0.0
 11
4583.0518371543658
 21
-756.55328526701703
 31
0.0
1001
ACAD
1010
0.0
1020
0.0
1030
0.0
1001
ACDBBLOCKREPETAG
1070
     1
1071
       29
1005
12256E
  0
LINE
  5
12256F
  8
SLIM
 10
4462.5656346635233
 20
-894.99999999999773
 30
0.0
 11
4482.5656346635233
 21
-874.99999999999761
 31
0.0
1001
ACAD
1010
0.0
1020
0.0
1030
0.0
1001
ACDBBLOCKREPETAG
1070
     1
1071
       30
1005
12256F
  0
LINE
  5
122570
  8
SLIM
 10
4482.5656346635233
 20
-874.99999999999761
 30
0.0
 11
4580.1128442420149
 21
-777.45279042150503
 31
0.0
1001
ACAD
1010
0.0
1020
0.0
1030
0.0
1001
ACDBBLOCKREPETAG
1070
     1
1071
       31
1005
122570
  0
LINE
  5
122571
  8
SLIM
 10
4480.5261469056622
 20
-894.99999999999773
 30
0.0
 11
4500.5261469056613
 21
-874.99999999999761
 31
0.0
1001
ACAD
1010
0.0
1020
0.0
1030
0.0
1001
ACDBBLOCKREPETAG
1070
     1
1071
       32
1005
122571
  0
LINE
  5
122572
  8
SLIM
 10
4500.5261469056613
 20
-874.99999999999761
 30
0.0
 11
4577.1738513296659
 21
-798.35229557599314
 31
0.0
1001
ACAD
1010
0.0
1020
0.0
1030
0.0
1001
ACDBBLOCKREPETAG
1070
     1
1071
       33
1005
122572
  0
LINE
  5
122573
  8
SLIM
 10
4498.4866591478003
 20
-894.99999999999773
 30
0.0
 11
4518.4866591478003
 21
-874.99999999999761
 31
0.0
1001
ACAD
1010
0.0
1020
0.0
1030
0.0
1001
ACDBBLOCKREPETAG
1070
     1
1071
       34
1005
122573
  0
LINE
  5
122574
  8
SLIM
 10
4518.4866591478003
 20
-874.99999999999761
 30
0.0
 11
4574.2348584173151
 21
-819.2518007304808
 31
0.0
1001
ACAD
1010
0.0
1020
0.0
1030
0.0
1001
ACDBBLOCKREPETAG
1070
     1
1071
       35
1005
122574
  0
LINE
  5
122575
  8
SLIM
 10
4516.4471713899366
 20
-894.99999999999773
 30
0.0
 11
4536.4471713899366
 21
-874.99999999999761
 31
0.0
1001
ACAD
1010
0.0
1020
0.0
1030
0.0
1001
ACDBBLOCKREPETAG
1070
     1
1071
       36
1005
122575
  0
LINE
  5
122576
  8
SLIM
 10
4536.4471713899366
 20
-874.99999999999761
 30
0.0
 11
4571.295865504967
 21
-840.15130588496902
 31
0.0
1001
ACAD
1010
0.0
1020
0.0
1030
0.0
1001
ACDBBLOCKREPETAG
1070
     1
1071
       37
1005
122576
  0
LINE
  5
122577
  8
SLIM
 10
4534.4076836320774
 20
-894.99999999999773
 30
0.0
 11
4554.4076836320774
 21
-874.99999999999761
 31
0.0
1001
ACAD
1010
0.0
1020
0.0
1030
0.0
1001
ACDBBLOCKREPETAG
1070
     1
1071
       38
1005
122577
  0
LINE
  5
122578
  8
SLIM
 10
4554.4076836320774
 20
-874.99999999999761
 30
0.0
 11
4568.356872592617
 21
-861.05081103945724
 31
0.0
1001
ACAD
1010
0.0
1020
0.0
1030
0.0
1001
ACDBBLOCKREPETAG
1070
     1
1071
       39
1005
122578
  0
LINE
  5
122579
  8
SLIM
 10
4552.3681958742154
 20
-894.99999999999773
 30
0.0
 11
4557.0
 21
-890.36819587421235
 31
0.0
1001
ACAD
1010
0.0
1020
0.0
1030
0.0
1001
ACDBBLOCKREPETAG
1070
     1
1071
       40
1005
122579
  0
LINE
  5
12257A
  8
OBJECT
 10
4443.0
 20
-894.99999999999773
 30
0.0
 11
4557.0
 21
-894.99999999999773
 31
0.0
1001
ACDBBLOCKREPETAG
1070
     1
1071
        1
1005
12257A
  0
LINE
  5
12257B
  8
OBJECT
 10
4433.6047321049664
 20
-874.99999999999761
 30
0.0
 11
4566.3952678950409
 21
-874.99999999999761
 31
0.0
1001
ACDBBLOCKREPETAG
1070
     1
1071
        2
1005
12257B
  0
LINE
  5
12257C
  8
OBJECT
 10
4443.0
 20
-894.99999999999773
 30
0.0
 11
4443.0
 21
-874.99999999999761
 31
0.0
1001
ACDBBLOCKREPETAG
1070
     1
1071
        3
1005
12257C
  0
LINE
  5
12257D
  8
OBJECT
 10
4557.0
 20
-894.99999999999773
 30
0.0
 11
4557.0
 21
-874.99999999999761
 31
0.0
1001
ACDBBLOCKREPETAG
1070
     1
1071
        4
1005
12257D
  0
LINE
  5
12257E
  8
OBJECT
 10
4414.9999999999918
 20
-644.99999999999955
 30
0.0
 11
4415.0
 21
-742.69968280914077
 31
0.0
1001
ACDBBLOCKREPETAG
1070
     1
1071
        5
1005
12257E
  0
LINE
  5
12257F
  8
OBJECT
 10
4585.0000000000073
 20
-644.99999999999955
 30
0.0
 11
4585.0
 21
-742.69968280917192
 31
0.0
1001
ACDBBLOCKREPETAG
1070
     1
1071
        6
1005
12257F
  0
LINE
  5
122580
  8
OBJECT
 10
4415.0
 20
-742.69968280914077
 30
0.0
 11
4433.6047321049664
 21
-874.99999999999761
 31
0.0
1001
ACDBBLOCKREPETAG
1070
     1
1071
        7
1005
122580
  0
LINE
  5
122581
  8
OBJECT
 10
4566.3952678950409
 20
-874.99999999999761
 30
0.0
 11
4585.0
 21
-742.69968280917192
 31
0.0
1001
ACDBBLOCKREPETAG
1070
     1
1071
        8
1005
122581
  0
LINE
  5
122582
  8
OBJECT
 10
4585.0000000000073
 20
-644.99999999999955
 30
0.0
 11
4414.9999999999918
 21
-644.99999999999955
 31
0.0
1001
ACDBBLOCKREPETAG
1070
     1
1071
        9
1005
122582
  0
LINE
  5
122583
  8
OBJECT
 10
4443.0
 20
-969.99999999999545
 30
0.0
 11
4557.0
 21
-969.99999999999545
 31
0.0
1001
ACDBBLOCKREPETAG
1070
     1
1071
        0
1005
122583
  0
LINE
  5
122584
  8
OBJECT
 10
4443.0
 20
-969.99999999999545
 30
0.0
 11
4443.0
 21
-869.99999999999545
 31
0.0
1001
ACDBBLOCKREPETAG
1070
     1
1071
        1
1005
122584
  0
LINE
  5
122585
  8
OBJECT
 10
4557.0
 20
-969.99999999999545
 30
0.0
 11
4557.0
 21
-869.99999999999545
 31
0.0
1001
ACDBBLOCKREPETAG
1070
     1
1071
        2
1005
122585
  0
LINE
  5
122586
  8
OBJECT
 10
4443.0
 20
-869.99999999999545
 30
0.0
 11
4557.0
 21
-869.99999999999545
 31
0.0
1001
ACDBBLOCKREPETAG
1070
     1
1071
        3
1005
122586
  0
LINE
  5
122587
  8
HIDDEN
 10
4450.0
 20
-869.99999999999545
 30
0.0
 11
4450.0
 21
-969.99999999999545
 31
0.0
1001
ACDBBLOCKREPETAG
1070
     1
1071
        4
1005
122587
  0
LINE
  5
122588
  8
HIDDEN
 10
4550.0
 20
-869.99999999999545
 30
0.0
 11
4550.0
 21
-969.99999999999545
 31
0.0
1001
ACDBBLOCKREPETAG
1070
     1
1071
        5
1005
122588
  0
LINE
  5
122589
  8
CENTER
 10
4500.0
 20
-659.99999999999886
 30
0.0
 11
4500.0
 21
-984.99999999999545
 31
0.0
1001
ACDBBLOCKREPETAG
1070
     1
1071
        6
1005
122589
  0
LINE
  5
12258A
  8
OBJECT
 10
4425.0
 20
-659.99999999999886
 30
0.0
 11
4425.0
 21
-741.99999999999545
 31
0.0
1001
ACDBBLOCKREPETAG
1070
     1
1071
        7
1005
12258A
  0
LINE
  5
12258B
  8
OBJECT
 10
4575.0
 20
-659.99999999999886
 30
0.0
 11
4575.0
 21
-741.99999999999545
 31
0.0
1001
ACDBBLOCKREPETAG
1070
     1
1071
        8
1005
12258B
  0
LINE
  5
12258C
  8
OBJECT
 10
4425.0
 20
-741.99999999999545
 30
0.0
 11
4575.0
 21
-741.99999999999545
 31
0.0
1001
ACDBBLOCKREPETAG
1070
     1
1071
        9
1005
12258C
  0
LINE
  5
12258D
  8
OBJECT
 10
4425.0
 20
-741.99999999999545
 30
0.0
 11
4443.0
 21
-869.99999999999545
 31
0.0
1001
ACDBBLOCKREPETAG
1070
     1
1071
       10
1005
12258D
  0
LINE
  5
12258E
  8
OBJECT
 10
4557.0
 20
-869.99999999999545
 30
0.0
 11
4575.0
 21
-741.99999999999545
 31
0.0
1001
ACDBBLOCKREPETAG
1070
     1
1071
       11
1005
12258E
  0
LINE
  5
12258F
  8
SLIM
 10
3914.9999999999941
 20
-655.19743878931445
 30
0.0
 11
3925.1974387893092
 21
-644.99999999999955
 31
0.0
1001
ACAD
1010
0.0
1020
0.0
1030
0.0
1001
ACDBBLOCKREPETAG
1070
     1
1071
       12
1005
12258F
  0
LINE
  5
122590
  8
SLIM
 10
3914.999999999995
 20
-673.15795103145149
 30
0.0
 11
3943.1579510314468
 21
-644.99999999999955
 31
0.0
1001
ACAD
1010
0.0
1020
0.0
1030
0.0
1001
ACDBBLOCKREPETAG
1070
     1
1071
       13
1005
122590
  0
LINE
  5
122591
  8
SLIM
 10
3914.9999999999968
 20
-691.11846327358842
 30
0.0
 11
3961.1184632735849
 21
-644.99999999999955
 31
0.0
1001
ACAD
1010
0.0
1020
0.0
1030
0.0
1001
ACDBBLOCKREPETAG
1070
     1
1071
       14
1005
122591
  0
LINE
  5
122592
  8
SLIM
 10
3914.9999999999968
 20
-709.07897551572535
 30
0.0
 11
3979.0789755157239
 21
-644.99999999999955
 31
0.0
1001
ACAD
1010
0.0
1020
0.0
1030
0.0
1001
ACDBBLOCKREPETAG
1070
     1
1071
       15
1005
122592
  0
LINE
  5
122593
  8
SLIM
 10
3914.9999999999991
 20
-727.03948775786239
 30
0.0
 11
3997.0394877578619
 21
-644.99999999999955
 31
0.0
1001
ACAD
1010
0.0
1020
0.0
1030
0.0
1001
ACDBBLOCKREPETAG
1070
     1
1071
       16
1005
122593
  0
LINE
  5
122594
  8
SLIM
 10
3915.283600749558
 20
-744.71639925044144
 30
0.0
 11
4015.0
 21
-644.99999999999955
 31
0.0
1001
ACAD
1010
0.0
1020
0.0
1030
0.0
1001
ACDBBLOCKREPETAG
1070
     1
1071
       17
1005
122594
  0
LINE
  5
122595
  8
SLIM
 10
3917.4979104780409
 20
-760.46260176409703
 30
0.0
 11
4032.9605122421372
 21
-644.99999999999955
 31
0.0
1001
ACAD
1010
0.0
1020
0.0
1030
0.0
1001
ACDBBLOCKREPETAG
1070
     1
1071
       18
1005
122595
  0
LINE
  5
122596
  8
SLIM
 10
3919.7122202065239
 20
-776.20880427775205
 30
0.0
 11
4050.921024484277
 21
-644.99999999999955
 31
0.0
1001
ACAD
1010
0.0
1020
0.0
1030
0.0
1001
ACDBBLOCKREPETAG
1070
     1
1071
       19
1005
122596
  0
LINE
  5
122597
  8
SLIM
 10
3921.9265299350068
 20
-791.9550067914073
 30
0.0
 11
4068.8815367264142
 21
-644.99999999999955
 31
0.0
1001
ACAD
1010
0.0
1020
0.0
1030
0.0
1001
ACDBBLOCKREPETAG
1070
     1
1071
       20
1005
122597
  0
LINE
  5
122598
  8
SLIM
 10
3924.1408396634902
 20
-807.70120930506243
 30
0.0
 11
4085.0000000000068
 21
-646.84204896854555
 31
0.0
1001
ACAD
1010
0.0
1020
0.0
1030
0.0
1001
ACDBBLOCKREPETAG
1070
     1
1071
       21
1005
122598
  0
LINE
  5
122599
  8
SLIM
 10
3926.3551493919731
 20
-823.44741181871768
 30
0.0
 11
4085.0000000000059
 21
-664.80256121068533
 31
0.0
1001
ACAD
1010
0.0
1020
0.0
1030
0.0
1001
ACDBBLOCKREPETAG
1070
     1
1071
       22
1005
122599
  0
LINE
  5
12259A
  8
SLIM
 10
3928.569459120456
 20
-839.19361433237304
 30
0.0
 11
4085.0000000000041
 21
-682.76307345282476
 31
0.0
1001
ACAD
1010
0.0
1020
0.0
1030
0.0
1001
ACDBBLOCKREPETAG
1070
     1
1071
       23
1005
12259A
  0
LINE
  5
12259B
  8
SLIM
 10
3930.783768848939
 20
-854.93981684602829
 30
0.0
 11
4085.0000000000032
 21
-700.72358569496441
 31
0.0
1001
ACAD
1010
0.0
1020
0.0
1030
0.0
1001
ACDBBLOCKREPETAG
1070
     1
1071
       24
1005
12259B
  0
LINE
  5
12259C
  8
SLIM
 10
3932.9980785774228
 20
-870.68601935968354
 30
0.0
 11
4085.0000000000009
 21
-718.68409793710418
 31
0.0
1001
ACAD
1010
0.0
1020
0.0
1030
0.0
1001
ACDBBLOCKREPETAG
1070
     1
1071
       25
1005
12259C
  0
LINE
  5
12259D
  8
SLIM
 10
3943.0
 20
-878.64461017924395
 30
0.0
 11
3946.6446101792471
 21
-874.99999999999761
 31
0.0
1001
ACAD
1010
0.0
1020
0.0
1030
0.0
1001
ACDBBLOCKREPETAG
1070
     1
1071
       26
1005
12259D
  0
LINE
  5
12259E
  8
SLIM
 10
3946.6446101792471
 20
-874.99999999999761
 30
0.0
 11
4085.0
 21
-736.64461017924395
 31
0.0
1001
ACAD
1010
0.0
1020
0.0
1030
0.0
1001
ACDBBLOCKREPETAG
1070
     1
1071
       27
1005
12259E
  0
LINE
  5
12259F
  8
SLIM
 10
3944.6051224213852
 20
-894.99999999999773
 30
0.0
 11
3964.6051224213852
 21
-874.99999999999761
 31
0.0
1001
ACAD
1010
0.0
1020
0.0
1030
0.0
1001
ACDBBLOCKREPETAG
1070
     1
1071
       28
1005
12259F
  0
LINE
  5
1225A0
  8
SLIM
 10
3964.6051224213852
 20
-874.99999999999761
 30
0.0
 11
4083.0518371543649
 21
-756.55328526701703
 31
0.0
1001
ACAD
1010
0.0
1020
0.0
1030
0.0
1001
ACDBBLOCKREPETAG
1070
     1
1071
       29
1005
1225A0
  0
LINE
  5
1225A1
  8
SLIM
 10
3962.5656346635228
 20
-894.99999999999773
 30
0.0
 11
3982.5656346635242
 21
-874.99999999999761
 31
0.0
1001
ACAD
1010
0.0
1020
0.0
1030
0.0
1001
ACDBBLOCKREPETAG
1070
     1
1071
       30
1005
1225A1
  0
LINE
  5
1225A2
  8
SLIM
 10
3982.5656346635242
 20
-874.99999999999761
 30
0.0
 11
4080.1128442420149
 21
-777.45279042150503
 31
0.0
1001
ACAD
1010
0.0
1020
0.0
1030
0.0
1001
ACDBBLOCKREPETAG
1070
     1
1071
       31
1005
1225A2
  0
LINE
  5
1225A3
  8
SLIM
 10
3980.5261469056618
 20
-894.99999999999773
 30
0.0
 11
4000.5261469056609
 21
-874.99999999999761
 31
0.0
1001
ACAD
1010
0.0
1020
0.0
1030
0.0
1001
ACDBBLOCKREPETAG
1070
     1
1071
       32
1005
1225A3
  0
LINE
  5
1225A4
  8
SLIM
 10
4000.5261469056609
 20
-874.99999999999761
 30
0.0
 11
4077.173851329665
 21
-798.35229557599314
 31
0.0
1001
ACAD
1010
0.0
1020
0.0
1030
0.0
1001
ACDBBLOCKREPETAG
1070
     1
1071
       33
1005
1225A4
  0
LINE
  5
1225A5
  8
SLIM
 10
3998.4866591477999
 20
-894.99999999999773
 30
0.0
 11
4018.4866591477989
 21
-874.99999999999761
 31
0.0
1001
ACAD
1010
0.0
1020
0.0
1030
0.0
1001
ACDBBLOCKREPETAG
1070
     1
1071
       34
1005
1225A5
  0
LINE
  5
1225A6
  8
SLIM
 10
4018.4866591477989
 20
-874.99999999999761
 30
0.0
 11
4074.234858417316
 21
-819.2518007304808
 31
0.0
1001
ACAD
1010
0.0
1020
0.0
1030
0.0
1001
ACDBBLOCKREPETAG
1070
     1
1071
       35
1005
1225A6
  0
LINE
  5
1225A7
  8
SLIM
 10
4016.4471713899379
 20
-894.99999999999773
 30
0.0
 11
4036.4471713899361
 21
-874.99999999999761
 31
0.0
1001
ACAD
1010
0.0
1020
0.0
1030
0.0
1001
ACDBBLOCKREPETAG
1070
     1
1071
       36
1005
1225A7
  0
LINE
  5
1225A8
  8
SLIM
 10
4036.4471713899361
 20
-874.99999999999761
 30
0.0
 11
4071.295865504967
 21
-840.15130588496902
 31
0.0
1001
ACAD
1010
0.0
1020
0.0
1030
0.0
1001
ACDBBLOCKREPETAG
1070
     1
1071
       37
1005
1225A8
  0
LINE
  5
1225A9
  8
SLIM
 10
4034.4076836320769
 20
-894.99999999999773
 30
0.0
 11
4054.407683632076
 21
-874.99999999999761
 31
0.0
1001
ACAD
1010
0.0
1020
0.0
1030
0.0
1001
ACDBBLOCKREPETAG
1070
     1
1071
       38
1005
1225A9
  0
LINE
  5
1225AA
  8
SLIM
 10
4054.407683632076
 20
-874.99999999999761
 30
0.0
 11
4068.3568725926161
 21
-861.05081103945724
 31
0.0
1001
ACAD
1010
0.0
1020
0.0
1030
0.0
1001
ACDBBLOCKREPETAG
1070
     1
1071
       39
1005
1225AA
  0
LINE
  5
1225AB
  8
SLIM
 10
4052.368195874215
 20
-894.99999999999773
 30
0.0
 11
4057.0
 21
-890.36819587421235
 31
0.0
1001
ACAD
1010
0.0
1020
0.0
1030
0.0
1001
ACDBBLOCKREPETAG
1070
     1
1071
       40
1005
1225AB
  0
LINE
  5
1225AC
  8
OBJECT
 10
3943.0
 20
-894.99999999999773
 30
0.0
 11
4057.0
 21
-894.99999999999773
 31
0.0
1001
ACDBBLOCKREPETAG
1070
     1
1071
        1
1005
1225AC
  0
LINE
  5
1225AD
  8
OBJECT
 10
3933.604732104965
 20
-874.99999999999761
 30
0.0
 11
4066.3952678950409
 21
-874.99999999999761
 31
0.0
1001
ACDBBLOCKREPETAG
1070
     1
1071
        2
1005
1225AD
  0
LINE
  5
1225AE
  8
OBJECT
 10
3943.0
 20
-894.99999999999773
 30
0.0
 11
3943.0
 21
-874.99999999999761
 31
0.0
1001
ACDBBLOCKREPETAG
1070
     1
1071
        3
1005
1225AE
  0
LINE
  5
1225AF
  8
OBJECT
 10
4057.0
 20
-894.99999999999773
 30
0.0
 11
4057.0
 21
-874.99999999999761
 31
0.0
1001
ACDBBLOCKREPETAG
1070
     1
1071
        4
1005
1225AF
  0
LINE
  5
1225B0
  8
OBJECT
 10
3914.9999999999941
 20
-644.99999999999955
 30
0.0
 11
3915.0
 21
-742.69968280914077
 31
0.0
1001
ACDBBLOCKREPETAG
1070
     1
1071
        5
1005
1225B0
  0
LINE
  5
1225B1
  8
OBJECT
 10
4085.0000000000068
 20
-644.99999999999955
 30
0.0
 11
4085.0
 21
-742.69968280917192
 31
0.0
1001
ACDBBLOCKREPETAG
1070
     1
1071
        6
1005
1225B1
  0
LINE
  5
1225B2
  8
OBJECT
 10
3915.0
 20
-742.69968280914077
 30
0.0
 11
3933.604732104965
 21
-874.99999999999761
 31
0.0
1001
ACDBBLOCKREPETAG
1070
     1
1071
        7
1005
1225B2
  0
LINE
  5
1225B3
  8
OBJECT
 10
4066.3952678950409
 20
-874.99999999999761
 30
0.0
 11
4085.0
 21
-742.69968280917192
 31
0.0
1001
ACDBBLOCKREPETAG
1070
     1
1071
        8
1005
1225B3
  0
LINE
  5
1225B4
  8
OBJECT
 10
4085.0000000000068
 20
-644.99999999999955
 30
0.0
 11
3914.9999999999941
 21
-644.99999999999955
 31
0.0
1001
ACDBBLOCKREPETAG
1070
     1
1071
        9
1005
1225B4
  0
LINE
  5
1225B5
  8
OBJECT
 10
3943.0
 20
-969.99999999999545
 30
0.0
 11
4057.0
 21
-969.99999999999545
 31
0.0
1001
ACDBBLOCKREPETAG
1070
     1
1071
        0
1005
1225B5
  0
LINE
  5
1225B6
  8
OBJECT
 10
3943.0
 20
-969.99999999999545
 30
0.0
 11
3943.0
 21
-869.99999999999545
 31
0.0
1001
ACDBBLOCKREPETAG
1070
     1
1071
        1
1005
1225B6
  0
LINE
  5
1225B7
  8
OBJECT
 10
4057.0
 20
-969.99999999999545
 30
0.0
 11
4057.0
 21
-869.99999999999545
 31
0.0
1001
ACDBBLOCKREPETAG
1070
     1
1071
        2
1005
1225B7
  0
LINE
  5
1225B8
  8
OBJECT
 10
3943.0
 20
-869.99999999999545
 30
0.0
 11
4057.0
 21
-869.99999999999545
 31
0.0
1001
ACDBBLOCKREPETAG
1070
     1
1071
        3
1005
1225B8
  0
LINE
  5
1225B9
  8
HIDDEN
 10
3950.0
 20
-869.99999999999545
 30
0.0
 11
3950.0
 21
-969.99999999999545
 31
0.0
1001
ACDBBLOCKREPETAG
1070
     1
1071
        4
1005
1225B9
  0
LINE
  5
1225BA
  8
HIDDEN
 10
4050.0
 20
-869.99999999999545
 30
0.0
 11
4050.0
 21
-969.99999999999545
 31
0.0
1001
ACDBBLOCKREPETAG
1070
     1
1071
        5
1005
1225BA
  0
LINE
  5
1225BB
  8
CENTER
 10
4000.0
 20
-659.99999999999886
 30
0.0
 11
4000.0
 21
-984.99999999999545
 31
0.0
1001
ACDBBLOCKREPETAG
1070
     1
1071
        6
1005
1225BB
  0
LINE
  5
1225BC
  8
OBJECT
 10
3925.0
 20
-659.99999999999886
 30
0.0
 11
3925.0
 21
-741.99999999999545
 31
0.0
1001
ACDBBLOCKREPETAG
1070
     1
1071
        7
1005
1225BC
  0
LINE
  5
1225BD
  8
OBJECT
 10
4075.0
 20
-659.99999999999886
 30
0.0
 11
4075.0
 21
-741.99999999999545
 31
0.0
1001
ACDBBLOCKREPETAG
1070
     1
1071
        8
1005
1225BD
  0
LINE
  5
1225BE
  8
OBJECT
 10
3925.0
 20
-741.99999999999545
 30
0.0
 11
4075.0
 21
-741.99999999999545
 31
0.0
1001
ACDBBLOCKREPETAG
1070
     1
1071
        9
1005
1225BE
  0
LINE
  5
1225BF
  8
OBJECT
 10
3925.0
 20
-741.99999999999545
 30
0.0
 11
3943.0
 21
-869.99999999999545
 31
0.0
1001
ACDBBLOCKREPETAG
1070
     1
1071
       10
1005
1225BF
  0
LINE
  5
1225C0
  8
OBJECT
 10
4057.0
 20
-869.99999999999545
 30
0.0
 11
4075.0
 21
-741.99999999999545
 31
0.0
1001
ACDBBLOCKREPETAG
1070
     1
1071
       11
1005
1225C0
  0
LINE
  5
1225C1
  8
OBJECT
 10
2443.0
 20
-969.99999999999602
 30
0.0
 11
2557.0
 21
-969.99999999999602
 31
0.0
1001
ACDBBLOCKREPETAG
1070
     1
1071
        0
1005
1225C1
  0
LINE
  5
1225C2
  8
OBJECT
 10
2443.0
 20
-969.99999999999602
 30
0.0
 11
2443.0
 21
-869.99999999999602
 31
0.0
1001
ACDBBLOCKREPETAG
1070
     1
1071
        1
1005
1225C2
  0
LINE
  5
1225C3
  8
OBJECT
 10
2557.0
 20
-969.99999999999602
 30
0.0
 11
2557.0
 21
-869.99999999999602
 31
0.0
1001
ACDBBLOCKREPETAG
1070
     1
1071
        2
1005
1225C3
  0
LINE
  5
1225C4
  8
OBJECT
 10
2443.0
 20
-869.99999999999602
 30
0.0
 11
2557.0
 21
-869.99999999999602
 31
0.0
1001
ACDBBLOCKREPETAG
1070
     1
1071
        3
1005
1225C4
  0
LINE
  5
1225C5
  8
HIDDEN
 10
2450.0
 20
-869.99999999999602
 30
0.0
 11
2450.0
 21
-969.99999999999602
 31
0.0
1001
ACDBBLOCKREPETAG
1070
     1
1071
        4
1005
1225C5
  0
LINE
  5
1225C6
  8
HIDDEN
 10
2550.0
 20
-869.99999999999602
 30
0.0
 11
2550.0
 21
-969.99999999999602
 31
0.0
1001
ACDBBLOCKREPETAG
1070
     1
1071
        5
1005
1225C6
  0
LINE
  5
1225C7
  8
CENTER
 10
2500.0
 20
-659.99999999999955
 30
0.0
 11
2500.0
 21
-984.99999999999602
 31
0.0
1001
ACDBBLOCKREPETAG
1070
     1
1071
        6
1005
1225C7
  0
LINE
  5
1225C8
  8
OBJECT
 10
2425.0
 20
-659.99999999999955
 30
0.0
 11
2425.0
 21
-741.99999999999591
 31
0.0
1001
ACDBBLOCKREPETAG
1070
     1
1071
        7
1005
1225C8
  0
LINE
  5
1225C9
  8
OBJECT
 10
2575.0
 20
-659.99999999999955
 30
0.0
 11
2575.0
 21
-741.99999999999591
 31
0.0
1001
ACDBBLOCKREPETAG
1070
     1
1071
        8
1005
1225C9
  0
LINE
  5
1225CA
  8
OBJECT
 10
2425.0
 20
-741.99999999999591
 30
0.0
 11
2575.0
 21
-741.99999999999591
 31
0.0
1001
ACDBBLOCKREPETAG
1070
     1
1071
        9
1005
1225CA
  0
LINE
  5
1225CB
  8
OBJECT
 10
2425.0
 20
-741.99999999999591
 30
0.0
 11
2443.0
 21
-869.99999999999602
 31
0.0
1001
ACDBBLOCKREPETAG
1070
     1
1071
       10
1005
1225CB
  0
LINE
  5
1225CC
  8
OBJECT
 10
2557.0
 20
-869.99999999999602
 30
0.0
 11
2575.0
 21
-741.99999999999591
 31
0.0
1001
ACDBBLOCKREPETAG
1070
     1
1071
       11
1005
1225CC
  0
LINE
  5
1225CD
  8
OBJECT
 10
1943.0
 20
-969.99999999999557
 30
0.0
 11
2057.0
 21
-969.99999999999557
 31
0.0
1001
ACDBBLOCKREPETAG
1070
     1
1071
        0
1005
1225CD
  0
LINE
  5
1225CE
  8
OBJECT
 10
1943.0
 20
-969.99999999999557
 30
0.0
 11
1943.0
 21
-869.99999999999579
 31
0.0
1001
ACDBBLOCKREPETAG
1070
     1
1071
        1
1005
1225CE
  0
LINE
  5
1225CF
  8
OBJECT
 10
2057.0
 20
-969.99999999999557
 30
0.0
 11
2057.0
 21
-869.99999999999579
 31
0.0
1001
ACDBBLOCKREPETAG
1070
     1
1071
        2
1005
1225CF
  0
LINE
  5
1225D0
  8
OBJECT
 10
1943.0
 20
-869.99999999999579
 30
0.0
 11
2057.0
 21
-869.99999999999579
 31
0.0
1001
ACDBBLOCKREPETAG
1070
     1
1071
        3
1005
1225D0
  0
LINE
  5
1225D1
  8
HIDDEN
 10
1950.0
 20
-869.99999999999579
 30
0.0
 11
1950.0
 21
-969.99999999999557
 31
0.0
1001
ACDBBLOCKREPETAG
1070
     1
1071
        4
1005
1225D1
  0
LINE
  5
1225D2
  8
HIDDEN
 10
2050.0
 20
-869.99999999999579
 30
0.0
 11
2050.0
 21
-969.99999999999557
 31
0.0
1001
ACDBBLOCKREPETAG
1070
     1
1071
        5
1005
1225D2
  0
LINE
  5
1225D3
  8
CENTER
 10
2000.0
 20
-659.99999999999955
 30
0.0
 11
2000.0
 21
-984.99999999999545
 31
0.0
1001
ACDBBLOCKREPETAG
1070
     1
1071
        6
1005
1225D3
  0
LINE
  5
1225D4
  8
OBJECT
 10
1925.0
 20
-659.99999999999955
 30
0.0
 11
1925.0
 21
-741.99999999999591
 31
0.0
1001
ACDBBLOCKREPETAG
1070
     1
1071
        7
1005
1225D4
  0
LINE
  5
1225D5
  8
OBJECT
 10
2075.0
 20
-659.99999999999955
 30
0.0
 11
2075.0
 21
-741.99999999999591
 31
0.0
1001
ACDBBLOCKREPETAG
1070
     1
1071
        8
1005
1225D5
  0
LINE
  5
1225D6
  8
OBJECT
 10
1925.0
 20
-741.99999999999591
 30
0.0
 11
2075.0
 21
-741.99999999999591
 31
0.0
1001
ACDBBLOCKREPETAG
1070
     1
1071
        9
1005
1225D6
  0
LINE
  5
1225D7
  8
OBJECT
 10
1925.0
 20
-741.99999999999591
 30
0.0
 11
1943.0
 21
-869.99999999999579
 31
0.0
1001
ACDBBLOCKREPETAG
1070
     1
1071
       10
1005
1225D7
  0
LINE
  5
1225D8
  8
OBJECT
 10
2057.0
 20
-869.99999999999579
 30
0.0
 11
2075.0
 21
-741.99999999999591
 31
0.0
1001
ACDBBLOCKREPETAG
1070
     1
1071
       11
1005
1225D8
  0
LINE
  5
1225D9
  8
CENTER
 10
2577.0
 20
-586.0
 30
0.0
 11
2423.0
 21
-586.0
 31
0.0
1001
ACDBBLOCKREPETAG
1070
     1
1071
       17
1005
1225D9
  0
CIRCLE
  5
1225DA
  8
OBJECT
 10
2500.0
 20
-586.0
 30
0.0
 40
41.5
1001
ACDBBLOCKREPETAG
1070
     1
1071
       19
1005
1225DA
  0
CIRCLE
  5
1225DB
  8
OBJECT
 10
2500.0
 20
-586.0
 30
0.0
 40
54.0
1001
ACDBBLOCKREPETAG
1070
     1
1071
       20
1005
1225DB
  0
ARC
  5
1225DC
  8
OBJECT
 10
2500.0
 20
-586.0
 30
0.0
 40
62.0
 50
287.89655112920718
 51
252.10344887079279
1001
ACDBBLOCKREPETAG
1070
     1
1071
       21
1005
1225DC
  0
LINE
  5
1225DD
  8
OBJECT
 10
2480.947441116743
 20
-645.0
 30
0.0
 11
2519.052558883257
 21
-645.0
 31
0.0
1001
ACDBBLOCKREPETAG
1070
     1
1071
       22
1005
1225DD
  0
LINE
  5
1225DE
  8
OBJECT
 10
2133.0
 20
-524.0
 30
0.0
 11
2140.0
 21
-524.0
 31
0.0
1001
ACDBBLOCKREPETAG
1070
     1
1071
       45
1005
1225DE
  0
LINE
  5
1225DF
  8
OBJECT
 10
2140.0
 20
-524.0
 30
0.0
 11
2140.0
 21
-645.0
 31
0.0
1001
ACDBBLOCKREPETAG
1070
     1
1071
       46
1005
1225DF
  0
LINE
  5
1225E0
  8
OBJECT
 10
2133.0
 20
-645.0
 30
0.0
 11
2133.0
 21
-524.0
 31
0.0
1001
ACDBBLOCKREPETAG
1070
     1
1071
       47
1005
1225E0
  0
LINE
  5
1225E1
  8
CENTER
 10
2155.0
 20
-586.0
 30
0.0
 11
2071.0
 21
-586.0
 31
0.0
1001
ACDBBLOCKREPETAG
1070
     1
1071
       48
1005
1225E1
  0
LINE
  5
1225E2
  8
OBJECT
 10
2133.0
 20
-527.0
 30
0.0
 11
2097.0
 21
-527.0
 31
0.0
1001
ACDBBLOCKREPETAG
1070
     1
1071
       49
1005
1225E2
  0
LINE
  5
1225E3
  8
OBJECT
 10
2097.0
 20
-527.0
 30
0.0
 11
2097.0
 21
-645.0
 31
0.0
1001
ACDBBLOCKREPETAG
1070
     1
1071
       50
1005
1225E3
  0
LINE
  5
1225E4
  8
OBJECT
 10
2097.0
 20
-645.0
 30
0.0
 11
2140.0
 21
-645.0
 31
0.0
1001
ACDBBLOCKREPETAG
1070
     1
1071
       51
1005
1225E4
  0
LINE
  5
1225E5
  8
OBJECT
 10
2093.0
 20
-531.5
 30
0.0
 11
2086.0
 21
-531.5
 31
0.0
1001
ACDBBLOCKREPETAG
1070
     1
1071
       52
1005
1225E5
  0
LINE
  5
1225E6
  8
OBJECT
 10
2086.0
 20
-640.5
 30
0.0
 11
2093.0
 21
-640.5
 31
0.0
1001
ACDBBLOCKREPETAG
1070
     1
1071
       53
1005
1225E6
  0
LINE
  5
1225E7
  8
OBJECT
 10
2093.0
 20
-640.5
 30
0.0
 11
2093.0
 21
-531.5
 31
0.0
1001
ACDBBLOCKREPETAG
1070
     1
1071
       54
1005
1225E7
  0
LINE
  5
1225E8
  8
OBJECT
 10
2097.0
 20
-527.0
 30
0.0
 11
2093.0
 21
-531.5
 31
0.0
1001
ACDBBLOCKREPETAG
1070
     1
1071
       55
1005
1225E8
  0
LINE
  5
1225E9
  8
OBJECT
 10
2097.0
 20
-645.0
 30
0.0
 11
2093.0
 21
-640.5
 31
0.0
1001
ACDBBLOCKREPETAG
1070
     1
1071
       56
1005
1225E9
  0
LINE
  5
1225EA
  8
OBJECT
 10
2083.0
 20
-524.0
 30
0.0
 11
2080.0
 21
-524.0
 31
0.0
1001
ACDBBLOCKREPETAG
1070
     1
1071
       57
1005
1225EA
  0
ARC
  5
1225EB
  8
OBJECT
 10
2083.0
 20
-527.0
 30
0.0
 40
3.0
 50
0.0
 51
90.0
1001
ACDBBLOCKREPETAG
1070
     1
1071
       58
1005
1225EB
  0
LINE
  5
1225EC
  8
OBJECT
 10
2080.0
 20
-648.0
 30
0.0
 11
2083.0
 21
-648.0
 31
0.0
1001
ACDBBLOCKREPETAG
1070
     1
1071
       59
1005
1225EC
  0
ARC
  5
1225ED
  8
OBJECT
 10
2083.0
 20
-645.0
 30
0.0
 40
3.0
 50
270.0
 51
0.0
1001
ACDBBLOCKREPETAG
1070
     1
1071
       60
1005
1225ED
  0
LINE
  5
1225EE
  8
OBJECT
 10
2086.0
 20
-645.0
 30
0.0
 11
2086.0
 21
-527.0
 31
0.0
1001
ACDBBLOCKREPETAG
1070
     1
1071
       61
1005
1225EE
  0
LINE
  5
1225EF
  8
HIDDEN
 10
2088.0
 20
-541.5
 30
0.0
 11
2088.0
 21
-630.49999999999977
 31
0.0
1001
ACDBBLOCKREPETAG
1070
     1
1071
       63
1005
1225EF
  0
LINE
  5
1225F0
  8
OBJECT
 10
2133.0
 20
-137.99999999999909
 30
0.0
 11
2140.0
 21
-137.99999999999909
 31
0.0
1001
ACDBBLOCKREPETAG
1070
     1
1071
       47
1005
1225F0
  0
LINE
  5
1225F1
  8
OBJECT
 10
2140.0
 20
-137.99999999999909
 30
0.0
 11
2140.0
 21
-261.99999999999909
 31
0.0
1001
ACDBBLOCKREPETAG
1070
     1
1071
       48
1005
1225F1
  0
LINE
  5
1225F2
  8
OBJECT
 10
2140.0
 20
-261.99999999999909
 30
0.0
 11
2133.0
 21
-261.99999999999909
 31
0.0
1001
ACDBBLOCKREPETAG
1070
     1
1071
       49
1005
1225F2
  0
LINE
  5
1225F3
  8
OBJECT
 10
2133.0
 20
-261.99999999999909
 30
0.0
 11
2133.0
 21
-137.99999999999909
 31
0.0
1001
ACDBBLOCKREPETAG
1070
     1
1071
       50
1005
1225F3
  0
LINE
  5
1225F4
  8
CENTER
 10
2155.0
 20
-199.99999999999909
 30
0.0
 11
2080.0
 21
-199.99999999999909
 31
0.0
1001
ACDBBLOCKREPETAG
1070
     1
1071
       51
1005
1225F4
  0
LINE
  5
1225F5
  8
OBJECT
 10
2133.0
 20
-140.99999999999909
 30
0.0
 11
2097.0
 21
-140.99999999999909
 31
0.0
1001
ACDBBLOCKREPETAG
1070
     1
1071
       52
1005
1225F5
  0
LINE
  5
1225F6
  8
OBJECT
 10
2097.0
 20
-140.99999999999909
 30
0.0
 11
2097.0
 21
-258.99999999999909
 31
0.0
1001
ACDBBLOCKREPETAG
1070
     1
1071
       53
1005
1225F6
  0
LINE
  5
1225F7
  8
OBJECT
 10
2097.0
 20
-258.99999999999909
 30
0.0
 11
2133.0
 21
-258.99999999999909
 31
0.0
1001
ACDBBLOCKREPETAG
1070
     1
1071
       54
1005
1225F7
  0
LINE
  5
1225F8
  8
OBJECT
 10
2093.0
 20
-145.49999999999909
 30
0.0
 11
2086.0
 21
-145.49999999999909
 31
0.0
1001
ACDBBLOCKREPETAG
1070
     1
1071
       55
1005
1225F8
  0
LINE
  5
1225F9
  8
OBJECT
 10
2086.0
 20
-254.49999999999909
 30
0.0
 11
2093.0
 21
-254.49999999999909
 31
0.0
1001
ACDBBLOCKREPETAG
1070
     1
1071
       56
1005
1225F9
  0
LINE
  5
1225FA
  8
OBJECT
 10
2093.0
 20
-254.49999999999909
 30
0.0
 11
2093.0
 21
-145.49999999999909
 31
0.0
1001
ACDBBLOCKREPETAG
1070
     1
1071
       57
1005
1225FA
  0
LINE
  5
1225FB
  8
OBJECT
 10
2097.0
 20
-140.99999999999909
 30
0.0
 11
2093.0
 21
-145.49999999999909
 31
0.0
1001
ACDBBLOCKREPETAG
1070
     1
1071
       58
1005
1225FB
  0
LINE
  5
1225FC
  8
OBJECT
 10
2097.0
 20
-258.99999999999909
 30
0.0
 11
2093.0
 21
-254.49999999999909
 31
0.0
1001
ACDBBLOCKREPETAG
1070
     1
1071
       59
1005
1225FC
  0
LINE
  5
1225FD
  8
OBJECT
 10
2083.0
 20
-137.99999999999909
 30
0.0
 11
2080.0
 21
-137.99999999999909
 31
0.0
1001
ACDBBLOCKREPETAG
1070
     1
1071
       60
1005
1225FD
  0
ARC
  5
1225FE
  8
OBJECT
 10
2083.0
 20
-140.99999999999909
 30
0.0
 40
3.0
 50
0.0
 51
90.0
1001
ACDBBLOCKREPETAG
1070
     1
1071
       61
1005
1225FE
  0
LINE
  5
1225FF
  8
OBJECT
 10
2080.0
 20
-261.99999999999909
 30
0.0
 11
2083.0
 21
-261.99999999999909
 31
0.0
1001
ACDBBLOCKREPETAG
1070
     1
1071
       62
1005
1225FF
  0
ARC
  5
122600
  8
OBJECT
 10
2083.0
 20
-258.99999999999909
 30
0.0
 40
3.0
 50
270.0
 51
0.0
1001
ACDBBLOCKREPETAG
1070
     1
1071
       63
1005
122600
  0
LINE
  5
122601
  8
OBJECT
 10
2086.0
 20
-258.99999999999909
 30
0.0
 11
2086.0
 21
-140.99999999999909
 31
0.0
1001
ACDBBLOCKREPETAG
1070
     1
1071
       64
1005
122601
  0
LINE
  5
122602
  8
HIDDEN
 10
2088.0
 20
-155.49999999999909
 30
0.0
 11
2088.0
 21
-244.49999999999909
 31
0.0
1001
ACDBBLOCKREPETAG
1070
     1
1071
       65
1005
122602
  0
LINE
  5
122603
  8
OBJECT
 10
465.00000000012182
 20
-546.00000000000955
 30
0.0
 11
465.00000000012182
 21
-553.00000000000966
 31
0.0
1001
ACDBBLOCKREPETAG
1070
     1
1071
       57
1005
122603
  0
LINE
  5
122604
  8
OBJECT
 10
465.00000000012182
 20
-553.00000000000966
 30
0.0
 11
615.00000000012176
 21
-553.00000000000966
 31
0.0
1001
ACDBBLOCKREPETAG
1070
     1
1071
       58
1005
122604
  0
LINE
  5
122605
  8
OBJECT
 10
468.00000000012182
 20
-594.50000000000966
 30
0.0
 11
612.00000000012164
 21
-594.50000000000966
 31
0.0
1001
ACDBBLOCKREPETAG
1070
     1
1071
       59
1005
122605
  0
LINE
  5
122606
  8
OBJECT
 10
474.5000000001217
 20
-606.00000000000955
 30
0.0
 11
605.50000000012187
 21
-606.00000000000955
 31
0.0
1001
ACDBBLOCKREPETAG
1070
     1
1071
       60
1005
122606
  0
LINE
  5
122607
  8
OBJECT
 10
615.00000000012176
 20
-553.00000000000966
 30
0.0
 11
615.00000000012176
 21
-546.00000000000955
 31
0.0
1001
ACDBBLOCKREPETAG
1070
     1
1071
       61
1005
122607
  0
LINE
  5
122608
  8
OBJECT
 10
615.00000000012176
 20
-546.00000000000955
 30
0.0
 11
465.00000000012182
 21
-546.00000000000955
 31
0.0
1001
ACDBBLOCKREPETAG
1070
     1
1071
       62
1005
122608
  0
LINE
  5
122609
  8
OBJECT
 10
602.00000000012187
 20
-610.00000000000955
 30
0.0
 11
602.00000000012187
 21
-616.00000000000955
 31
0.0
1001
ACDBBLOCKREPETAG
1070
     1
1071
       63
1005
122609
  0
LINE
  5
12260A
  8
OBJECT
 10
612.00000000012164
 20
-553.00000000000966
 30
0.0
 11
612.00000000012164
 21
-594.50000000000966
 31
0.0
1001
ACDBBLOCKREPETAG
1070
     1
1071
       64
1005
12260A
  0
LINE
  5
12260B
  8
OBJECT
 10
612.00000000012164
 20
-594.50000000000966
 30
0.0
 11
605.50000000012187
 21
-606.00000000000955
 31
0.0
1001
ACDBBLOCKREPETAG
1070
     1
1071
       65
1005
12260B
  0
LINE
  5
12260C
  8
OBJECT
 10
605.50000000012187
 20
-606.00000000000955
 30
0.0
 11
602.00000000012187
 21
-610.00000000000955
 31
0.0
1001
ACDBBLOCKREPETAG
1070
     1
1071
       66
1005
12260C
  0
LINE
  5
12260D
  8
OBJECT
 10
468.00000000012182
 20
-594.50000000000966
 30
0.0
 11
474.5000000001217
 21
-606.00000000000955
 31
0.0
1001
ACDBBLOCKREPETAG
1070
     1
1071
       67
1005
12260D
  0
LINE
  5
12260E
  8
OBJECT
 10
474.5000000001217
 20
-606.00000000000955
 30
0.0
 11
478.0000000001217
 21
-610.00000000000955
 31
0.0
1001
ACDBBLOCKREPETAG
1070
     1
1071
       68
1005
12260E
  0
ARC
  5
12260F
  8
OBJECT
 10
540.00000000012176
 20
-228.10000000000809
 30
0.0
 40
386.89999999999998
 50
260.77870136257951
 51
279.22129863742049
1001
ACDBBLOCKREPETAG
1070
     1
1071
       69
1005
12260F
  0
LINE
  5
122610
  8
OBJECT
 10
478.0000000001217
 20
-610.00000000000955
 30
0.0
 11
478.0000000001217
 21
-616.00000000000955
 31
0.0
1001
ACDBBLOCKREPETAG
1070
     1
1071
       70
1005
122610
  0
LINE
  5
122611
  8
OBJECT
 10
468.00000000012182
 20
-553.00000000000966
 30
0.0
 11
468.00000000012182
 21
-594.50000000000966
 31
0.0
1001
ACDBBLOCKREPETAG
1070
     1
1071
       71
1005
122611
  0
INSERT
  5
122612
  8
OBJECT
  2
*U7
 10
0.0
 20
0.0
 30
0.0
  0
LINE
  5
122613
  8
HIDDEN
 10
597.00000000012187
 20
-598.00000000000955
 30
0.0
 11
483.0000000001217
 21
-598.00000000000955
 31
0.0
1001
ACDBBLOCKREPETAG
1070
     1
1071
      431
1005
122613
  0
INSERT
  5
122614
  8
OBJECT
  2
*U8
 10
0.0
 20
0.0
 30
0.0
  0
LINE
  5
122615
  8
OBJECT
 10
118.00000000004179
 20
-563.00000000000955
 30
0.0
 11
118.00000000004179
 21
-556.00000000000955
 31
0.0
1001
ACDBBLOCKREPETAG
1070
     1
1071
       39
1005
122615
  0
LINE
  5
122616
  8
OBJECT
 10
118.00000000004179
 20
-556.00000000000955
 30
0.0
 11
242.00000000004181
 21
-556.00000000000955
 31
0.0
1001
ACDBBLOCKREPETAG
1070
     1
1071
       40
1005
122616
  0
LINE
  5
122617
  8
OBJECT
 10
242.00000000004181
 20
-556.00000000000955
 30
0.0
 11
242.00000000004181
 21
-563.00000000000955
 31
0.0
1001
ACDBBLOCKREPETAG
1070
     1
1071
       41
1005
122617
  0
LINE
  5
122618
  8
OBJECT
 10
242.00000000004181
 20
-563.00000000000955
 30
0.0
 11
118.00000000004179
 21
-563.00000000000955
 31
0.0
1001
ACDBBLOCKREPETAG
1070
     1
1071
       42
1005
122618
  0
LINE
  5
122619
  8
OBJECT
 10
121.00000000004179
 20
-563.00000000000955
 30
0.0
 11
121.00000000004179
 21
-599.00000000000966
 31
0.0
1001
ACDBBLOCKREPETAG
1070
     1
1071
       43
1005
122619
  0
LINE
  5
12261A
  8
OBJECT
 10
121.00000000004179
 20
-599.00000000000966
 30
0.0
 11
239.00000000004181
 21
-599.00000000000966
 31
0.0
1001
ACDBBLOCKREPETAG
1070
     1
1071
       44
1005
12261A
  0
LINE
  5
12261B
  8
OBJECT
 10
239.00000000004181
 20
-599.00000000000966
 30
0.0
 11
239.00000000004181
 21
-563.00000000000955
 31
0.0
1001
ACDBBLOCKREPETAG
1070
     1
1071
       45
1005
12261B
  0
LINE
  5
12261C
  8
OBJECT
 10
125.50000000004179
 20
-603.00000000000966
 30
0.0
 11
125.50000000004179
 21
-610.00000000000955
 31
0.0
1001
ACDBBLOCKREPETAG
1070
     1
1071
       46
1005
12261C
  0
LINE
  5
12261D
  8
OBJECT
 10
234.50000000004181
 20
-610.00000000000955
 30
0.0
 11
234.50000000004181
 21
-603.00000000000966
 31
0.0
1001
ACDBBLOCKREPETAG
1070
     1
1071
       47
1005
12261D
  0
LINE
  5
12261E
  8
OBJECT
 10
234.50000000004181
 20
-603.00000000000966
 30
0.0
 11
125.50000000004179
 21
-603.00000000000966
 31
0.0
1001
ACDBBLOCKREPETAG
1070
     1
1071
       48
1005
12261E
  0
LINE
  5
12261F
  8
OBJECT
 10
121.00000000004179
 20
-599.00000000000966
 30
0.0
 11
125.50000000004179
 21
-603.00000000000966
 31
0.0
1001
ACDBBLOCKREPETAG
1070
     1
1071
       49
1005
12261F
  0
LINE
  5
122620
  8
OBJECT
 10
239.00000000004181
 20
-599.00000000000966
 30
0.0
 11
234.50000000004181
 21
-603.00000000000966
 31
0.0
1001
ACDBBLOCKREPETAG
1070
     1
1071
       50
1005
122620
  0
LINE
  5
122621
  8
OBJECT
 10
118.00000000004179
 20
-613.00000000000864
 30
0.0
 11
118.00000000004179
 21
-616.00000000000955
 31
0.0
1001
ACDBBLOCKREPETAG
1070
     1
1071
       51
1005
122621
  0
ARC
  5
122622
  8
OBJECT
 10
121.00000000004179
 20
-613.00000000000864
 30
0.0
 40
3.0
 50
90.0
 51
180.0
1001
ACDBBLOCKREPETAG
1070
     1
1071
       52
1005
122622
  0
LINE
  5
122623
  8
OBJECT
 10
242.00000000004181
 20
-616.00000000000955
 30
0.0
 11
242.00000000004181
 21
-613.00000000001035
 31
0.0
1001
ACDBBLOCKREPETAG
1070
     1
1071
       53
1005
122623
  0
ARC
  5
122624
  8
OBJECT
 10
239.00000000004181
 20
-613.00000000001035
 30
0.0
 40
3.0
 50
0.0
 51
90.0
1001
ACDBBLOCKREPETAG
1070
     1
1071
       54
1005
122624
  0
LINE
  5
122625
  8
OBJECT
 10
239.00000000004181
 20
-610.00000000001035
 30
0.0
 11
121.00000000004179
 21
-610.00000000000864
 31
0.0
1001
ACDBBLOCKREPETAG
1070
     1
1071
       55
1005
122625
  0
LINE
  5
122626
  8
HIDDEN
 10
135.50000000004181
 20
-608.00000000000955
 30
0.0
 11
224.50000000004181
 21
-608.00000000000955
 31
0.0
1001
ACDBBLOCKREPETAG
1070
     1
1071
      426
1005
122626
  0
INSERT
  5
122627
  8
OBJECT
  2
*U9
 10
0.0
 20
0.0
 30
0.0
  0
LINE
  5
122628
  8
OBJECT
 10
485.00000000012182
 20
-99.000000000003183
 30
0.0
 11
485.00000000012182
 21
-92.000000000003183
 31
0.0
1001
ACDBBLOCKREPETAG
1070
     1
1071
       20
1005
122628
  0
LINE
  5
122629
  8
OBJECT
 10
485.00000000012182
 20
-92.000000000003183
 30
0.0
 11
595.00000000012164
 21
-92.000000000003183
 31
0.0
1001
ACDBBLOCKREPETAG
1070
     1
1071
       21
1005
122629
  0
LINE
  5
12262A
  8
OBJECT
 10
595.00000000012164
 20
-92.000000000003183
 30
0.0
 11
595.00000000012164
 21
-99.000000000003183
 31
0.0
1001
ACDBBLOCKREPETAG
1070
     1
1071
       22
1005
12262A
  0
LINE
  5
12262B
  8
OBJECT
 10
595.00000000012164
 20
-99.000000000003183
 30
0.0
 11
485.00000000012182
 21
-99.000000000003183
 31
0.0
1001
ACDBBLOCKREPETAG
1070
     1
1071
       23
1005
12262B
  0
LINE
  5
12262C
  8
OBJECT
 10
488.0000000001217
 20
-99.000000000003183
 30
0.0
 11
488.0000000001217
 21
-135.00000000000321
 31
0.0
1001
ACDBBLOCKREPETAG
1070
     1
1071
       24
1005
12262C
  0
LINE
  5
12262D
  8
OBJECT
 10
488.0000000001217
 20
-135.00000000000321
 30
0.0
 11
592.00000000012164
 21
-135.00000000000321
 31
0.0
1001
ACDBBLOCKREPETAG
1070
     1
1071
       25
1005
12262D
  0
LINE
  5
12262E
  8
OBJECT
 10
592.00000000012164
 20
-135.00000000000321
 30
0.0
 11
592.00000000012164
 21
-99.000000000003183
 31
0.0
1001
ACDBBLOCKREPETAG
1070
     1
1071
       26
1005
12262E
  0
LINE
  5
12262F
  8
OBJECT
 10
492.5000000001217
 20
-139.00000000000321
 30
0.0
 11
492.5000000001217
 21
-146.00000000000321
 31
0.0
1001
ACDBBLOCKREPETAG
1070
     1
1071
       27
1005
12262F
  0
LINE
  5
122630
  8
OBJECT
 10
587.50000000012164
 20
-146.00000000000321
 30
0.0
 11
587.50000000012164
 21
-139.00000000000321
 31
0.0
1001
ACDBBLOCKREPETAG
1070
     1
1071
       28
1005
122630
  0
LINE
  5
122631
  8
OBJECT
 10
587.50000000012164
 20
-139.00000000000321
 30
0.0
 11
492.5000000001217
 21
-139.00000000000321
 31
0.0
1001
ACDBBLOCKREPETAG
1070
     1
1071
       29
1005
122631
  0
LINE
  5
122632
  8
OBJECT
 10
488.0000000001217
 20
-135.00000000000321
 30
0.0
 11
492.5000000001217
 21
-139.00000000000321
 31
0.0
1001
ACDBBLOCKREPETAG
1070
     1
1071
       30
1005
122632
  0
LINE
  5
122633
  8
OBJECT
 10
592.00000000012164
 20
-135.00000000000321
 30
0.0
 11
587.50000000012164
 21
-139.00000000000321
 31
0.0
1001
ACDBBLOCKREPETAG
1070
     1
1071
       31
1005
122633
  0
LINE
  5
122634
  8
OBJECT
 10
478.0000000001217
 20
-149.0000000000023
 30
0.0
 11
478.0000000001217
 21
-152.0000000000031
 31
0.0
1001
ACDBBLOCKREPETAG
1070
     1
1071
       32
1005
122634
  0
ARC
  5
122635
  8
OBJECT
 10
481.00000000012182
 20
-149.0000000000023
 30
0.0
 40
3.0
 50
90.0
 51
180.0
1001
ACDBBLOCKREPETAG
1070
     1
1071
       33
1005
122635
  0
LINE
  5
122636
  8
OBJECT
 10
602.00000000012187
 20
-152.0000000000031
 30
0.0
 11
602.00000000012187
 21
-149.00000000000409
 31
0.0
1001
ACDBBLOCKREPETAG
1070
     1
1071
       34
1005
122636
  0
ARC
  5
122637
  8
OBJECT
 10
599.00000000012164
 20
-149.00000000000409
 30
0.0
 40
3.0
 50
0.0
 51
90.0
1001
ACDBBLOCKREPETAG
1070
     1
1071
       35
1005
122637
  0
LINE
  5
122638
  8
OBJECT
 10
599.00000000012164
 20
-146.00000000000409
 30
0.0
 11
481.00000000012182
 21
-146.0000000000023
 31
0.0
1001
ACDBBLOCKREPETAG
1070
     1
1071
       36
1005
122638
  0
LINE
  5
122639
  8
HIDDEN
 10
502.00000000012182
 20
-144.00000000000321
 30
0.0
 11
578.00000000012164
 21
-144.00000000000321
 31
0.0
1001
ACDBBLOCKREPETAG
1070
     1
1071
      423
1005
122639
  0
INSERT
  5
12263A
  8
OBJECT
  2
*U10
 10
0.0
 20
0.0
 30
0.0
  0
LINE
  5
12263B
  8
OBJECT
 10
133.00000000004169
 20
-99.000000000003183
 30
0.0
 11
133.00000000004169
 21
-92.000000000003183
 31
0.0
1001
ACDBBLOCKREPETAG
1070
     1
1071
        1
1005
12263B
  0
LINE
  5
12263C
  8
OBJECT
 10
133.00000000004169
 20
-92.000000000003183
 30
0.0
 11
227.00000000004181
 21
-92.000000000003183
 31
0.0
1001
ACDBBLOCKREPETAG
1070
     1
1071
        2
1005
12263C
  0
LINE
  5
12263D
  8
OBJECT
 10
227.00000000004181
 20
-92.000000000003183
 30
0.0
 11
227.00000000004181
 21
-99.000000000003183
 31
0.0
1001
ACDBBLOCKREPETAG
1070
     1
1071
        3
1005
12263D
  0
LINE
  5
12263E
  8
OBJECT
 10
227.00000000004181
 20
-99.000000000003183
 30
0.0
 11
133.00000000004169
 21
-99.000000000003183
 31
0.0
1001
ACDBBLOCKREPETAG
1070
     1
1071
        4
1005
12263E
  0
LINE
  5
12263F
  8
OBJECT
 10
136.00000000004169
 20
-99.000000000003183
 30
0.0
 11
136.00000000004169
 21
-135.00000000000321
 31
0.0
1001
ACDBBLOCKREPETAG
1070
     1
1071
        5
1005
12263F
  0
LINE
  5
122640
  8
OBJECT
 10
136.00000000004169
 20
-135.00000000000321
 30
0.0
 11
224.00000000004181
 21
-135.00000000000321
 31
0.0
1001
ACDBBLOCKREPETAG
1070
     1
1071
        6
1005
122640
  0
LINE
  5
122641
  8
OBJECT
 10
224.00000000004181
 20
-135.00000000000321
 30
0.0
 11
224.00000000004181
 21
-99.000000000003183
 31
0.0
1001
ACDBBLOCKREPETAG
1070
     1
1071
        7
1005
122641
  0
LINE
  5
122642
  8
OBJECT
 10
140.50000000004181
 20
-139.00000000000321
 30
0.0
 11
140.50000000004181
 21
-146.00000000000321
 31
0.0
1001
ACDBBLOCKREPETAG
1070
     1
1071
        8
1005
122642
  0
LINE
  5
122643
  8
OBJECT
 10
219.50000000004189
 20
-146.00000000000321
 30
0.0
 11
219.50000000004189
 21
-139.00000000000321
 31
0.0
1001
ACDBBLOCKREPETAG
1070
     1
1071
        9
1005
122643
  0
LINE
  5
122644
  8
OBJECT
 10
219.50000000004189
 20
-139.00000000000321
 30
0.0
 11
140.50000000004181
 21
-139.00000000000321
 31
0.0
1001
ACDBBLOCKREPETAG
1070
     1
1071
       10
1005
122644
  0
LINE
  5
122645
  8
OBJECT
 10
136.00000000004169
 20
-135.00000000000321
 30
0.0
 11
140.50000000004181
 21
-139.00000000000321
 31
0.0
1001
ACDBBLOCKREPETAG
1070
     1
1071
       11
1005
122645
  0
LINE
  5
122646
  8
OBJECT
 10
224.00000000004181
 20
-135.00000000000321
 30
0.0
 11
219.50000000004189
 21
-139.00000000000321
 31
0.0
1001
ACDBBLOCKREPETAG
1070
     1
1071
       12
1005
122646
  0
LINE
  5
122647
  8
OBJECT
 10
118.00000000004179
 20
-149.0000000000023
 30
0.0
 11
118.00000000004179
 21
-152.0000000000031
 31
0.0
1001
ACDBBLOCKREPETAG
1070
     1
1071
       13
1005
122647
  0
ARC
  5
122648
  8
OBJECT
 10
121.00000000004179
 20
-149.0000000000023
 30
0.0
 40
3.0
 50
90.0
 51
180.0
1001
ACDBBLOCKREPETAG
1070
     1
1071
       14
1005
122648
  0
LINE
  5
122649
  8
OBJECT
 10
242.00000000004181
 20
-152.0000000000031
 30
0.0
 11
242.00000000004181
 21
-149.00000000000409
 31
0.0
1001
ACDBBLOCKREPETAG
1070
     1
1071
       15
1005
122649
  0
ARC
  5
12264A
  8
OBJECT
 10
239.00000000004181
 20
-149.00000000000409
 30
0.0
 40
3.0
 50
0.0
 51
90.0
1001
ACDBBLOCKREPETAG
1070
     1
1071
       16
1005
12264A
  0
LINE
  5
12264B
  8
OBJECT
 10
239.00000000004181
 20
-146.00000000000409
 30
0.0
 11
121.00000000004179
 21
-146.0000000000023
 31
0.0
1001
ACDBBLOCKREPETAG
1070
     1
1071
       17
1005
12264B
  0
LINE
  5
12264C
  8
HIDDEN
 10
150.00000000004181
 20
-144.00000000000321
 30
0.0
 11
210.00000000004181
 21
-144.00000000000321
 31
0.0
1001
ACDBBLOCKREPETAG
1070
     1
1071
      420
1005
12264C
  0
POLYLINE
  5
12264D
  8
HIDDEN
 66
     1
 10
0.0
 20
0.0
 30
0.0
 70
     1
1001
ACDBBLOCKREPETAG
1070
     1
1071
      105
1005
0
  0
VERTEX
  5
122941
  8
HIDDEN
 10
359.99999999987818
 20
0.0
 30
0.0
  0
VERTEX
  5
122942
  8
HIDDEN
 10
719.99999999975626
 20
0.0
 30
0.0
  0
VERTEX
  5
122943
  8
HIDDEN
 10
719.99999999975626
 20
-463.99999999984158
 30
0.0
  0
VERTEX
  5
122944
  8
HIDDEN
 10
359.99999999987818
 20
-463.99999999984158
 30
0.0
  0
SEQEND
  5
122945
  8
HIDDEN
  0
POLYLINE
  5
12264E
  8
HIDDEN
 66
     1
 10
0.0
 20
0.0
 30
0.0
 70
     1
1001
ACDBBLOCKREPETAG
1070
     1
1071
      110
1005
0
  0
VERTEX
  5
122946
  8
HIDDEN
 10
0.0
 20
0.0
 30
0.0
  0
VERTEX
  5
122947
  8
HIDDEN
 10
359.99999999987818
 20
0.0
 30
0.0
  0
VERTEX
  5
122948
  8
HIDDEN
 10
359.99999999987818
 20
-463.99999999984158
 30
0.0
  0
VERTEX
  5
122949
  8
HIDDEN
 10
0.0
 20
-463.99999999984158
 30
0.0
  0
SEQEND
  5
12294A
  8
HIDDEN
  0
POLYLINE
  5
12264F
  8
HIDDEN
 66
     1
 10
0.0
 20
0.0
 30
0.0
 70
     1
1001
ACDBBLOCKREPETAG
1070
     1
1071
      120
1005
0
  0
VERTEX
  5
12294B
  8
HIDDEN
 10
359.99999999987818
 20
-463.99999999984158
 30
0.0
  0
VERTEX
  5
12294C
  8
HIDDEN
 10
719.99999999975626
 20
-463.99999999984158
 30
0.0
  0
VERTEX
  5
12294D
  8
HIDDEN
 10
719.99999999975626
 20
-927.99999999968372
 30
0.0
  0
VERTEX
  5
12294E
  8
HIDDEN
 10
359.99999999987818
 20
-927.99999999968372
 30
0.0
  0
SEQEND
  5
12294F
  8
HIDDEN
  0
POLYLINE
  5
122650
  8
HIDDEN
 66
     1
 10
0.0
 20
0.0
 30
0.0
 70
     1
1001
ACDBBLOCKREPETAG
1070
     1
1071
      125
1005
0
  0
VERTEX
  5
122950
  8
HIDDEN
 10
0.0
 20
-463.99999999984158
 30
0.0
  0
VERTEX
  5
122951
  8
HIDDEN
 10
359.99999999987818
 20
-463.99999999984158
 30
0.0
  0
VERTEX
  5
122952
  8
HIDDEN
 10
359.99999999987818
 20
-927.99999999968372
 30
0.0
  0
VERTEX
  5
122953
  8
HIDDEN
 10
0.0
 20
-927.99999999968372
 30
0.0
  0
SEQEND
  5
122954
  8
HIDDEN
  0
TEXT
  5
122651
  8
SLIM
 10
508.28571428553232
 20
-907.999999999691
 30
0.0
 40
48.0
  1
A4
 41
0.75
1001
ACDBBLOCKREPETAG
1070
     1
1071
      119
1005
F4955
  0
TEXT
  5
122652
  8
SLIM
 10
149.14285714279711
 20
-907.999999999691
 30
0.0
 40
48.0
  1
A3
 41
0.75
1001
ACDBBLOCKREPETAG
1070
     1
1071
      119
1005
F4955
  0
TEXT
  5
122653
  8
SLIM
 10
509.1428571426751
 20
-443.99999999984919
 30
0.0
 40
48.0
  1
A2
 41
0.75
1001
ACDBBLOCKREPETAG
1070
     1
1071
      119
1005
F4955
  0
TEXT
  5
122654
  8
SLIM
 10
156.85714285708281
 20
-443.99999999984919
 30
0.0
 40
48.0
  1
A1
 41
0.75
1001
ACDBBLOCKREPETAG
1070
     1
1071
      119
1005
F4955
  0
TEXT
  5
122655
  8
SLIM
 10
0.0000035665234464
 20
24.000004585317601
 30
0.0
 40
79.999999999972701
  1
枝管バリエーション
 41
0.75
1001
ACDBBLOCKREPETAG
1070
     1
1071
      119
1005
F48AB
  0
TEXT
  5
122656
  8
SLIM
 10
3771.4000000000001
 20
-1300.666666666664
 30
0.0
 40
28.0
  1
※ 対応スラブ厚　180｛150｝～220
 41
0.75
  0
TEXT
  5
122657
  8
SLIM
 10
3733.3000000000011
 20
-1347.333333333331
 30
0.0
 40
28.0
  1
｛｝内はカンペイ立て管との組み合わせの場合
 41
0.75
  0
TEXT
  5
122658
  8
SLIM
 10
3598.9000000000001
 20
-1440.666666666664
 30
0.0
 40
28.0
  1
国土交通大臣認定・（一財）日本消防設備安全センター性能評定取得品
 41
0.75
  0
TEXT
  5
122659
  8
SLIM
 10
3631.1000000000022
 20
-1487.333333333331
 30
0.0
 40
28.0
  1
注）ご採用にあたり、認定書及び評定書の内容をご確認ください。
 41
0.75
  0
TEXT
  5
12265A
  8
SLIM
 10
3741.625
 20
-1237.499999999997
 30
0.0
 40
35.0
  1
片受けスタイル（S）＋シンドカット
 41
0.75
  0
TEXT
  5
12265B
  8
SLIM
 10
1856.25
 20
-1237.499999999998
 30
0.0
 40
35.0
  1
片受けスタイル（S）
 41
0.75
  0
TEXT
  5
12265C
  8
SLIM
 10
0.0
 20
370.0
 30
0.0
 40
100.0
  1
4SSL-AX-S
 41
0.75
  0
VIEWPORT
  5
F6BA7
 67
     1
  8
0
 10
195.9179030619629
 20
101.8328354358673
 30
0.0
 40
435.30034845564728
 41
222.25923674088349
 68
     1
 69
     1
1001
ACAD
1000
MVIEW
1002
{
1070
    16
1010
0.0
1020
0.0
1030
0.0
1010
0.0
1020
0.0
1030
1.0
1040
0.0
1040
222.25923674088349
1040
195.9179030619629
1040
101.8328354358673
1040
50.0
1040
0.0
1040
0.0
1070
     0
1070
     0
1070
     1
1070
     1
1070
     0
1070
     0
1070
     0
1070
     0
1040
0.0
1040
0.0
1040
0.0
1040
10.0
1040
10.0
1040
10.0
1040
10.0
1070
     0
1002
{
1002
}
1002
}
  0
VIEWPORT
  5
F6BA9
 67
     1
  8
OBJECT
 10
145.3303314447403
 20
101.8328338861465
 30
0.0
 40
232.5285303115844
 41
162.93253421783439
 68
     2
 69
     2
1001
ACAD
1000
MVIEW
1002
{
1070
    16
1010
0.0
1020
0.0
1030
0.0
1010
0.0
1020
0.0
1030
1.0
1040
0.0
1040
25942.55904403147
1040
2377.604457077377
1040
-7591.5176687056619
1040
50.0
1040
0.0
1040
0.0
1070
     0
1070
   600
1070
     1
1070
     1
1070
     0
1070
     0
1070
     0
1070
     0
1040
0.0
1040
0.0
1040
0.0
1040
1.0
1040
1.0
1040
0.0
1040
0.0
1070
     0
1002
{
1002
}
1002
}
  0
ENDSEC
  0
EOF
