  0
SECTION
  2
HEADER
  9
$ACADVER
  1
AC1009
  9
$INSBASE
 10
0.0
 20
0.0
 30
0.0
  9
$EXTMIN
 10
0.0
 20
-3817.4999999999959
 30
0.0
  9
$EXTMAX
 10
5575.0
 20
607.5
 30
0.0
  9
$LIMMIN
 10
0.0
 20
0.0
  9
$LIMMAX
 10
210.0
 20
297.0
  9
$ORTHOMODE
 70
     0
  9
$REGENMODE
 70
     1
  9
$FILLMODE
 70
     1
  9
$QTEXTMODE
 70
     0
  9
$MIRRTEXT
 70
     0
  9
$DRAGMODE
 70
     2
  9
$LTSCALE
 40
1.0
  9
$OSMODE
 70
   125
  9
$ATTMODE
 70
     1
  9
$TEXTSIZE
 40
4.0
  9
$TRACEWID
 40
0.05
  9
$TEXTSTYLE
  7
STANDARD
  9
$CLAYER
  8
OBJECT
  9
$CELTYPE
  6
BYLAYER
  9
$CECOLOR
 62
   256
  9
$DIMSCALE
 40
10.0
  9
$DIMASZ
 40
2.0
  9
$DIMEXO
 40
1.0
  9
$DIMDLI
 40
10.0
  9
$DIMRND
 40
0.0
  9
$DIMDLE
 40
0.0
  9
$DIMEXE
 40
1.0
  9
$DIMTP
 40
0.0
  9
$DIMTM
 40
0.0
  9
$DIMTXT
 40
3.2000000000000002
  9
$DIMCEN
 40
0.0
  9
$DIMTSZ
 40
0.0
  9
$DIMTOL
 70
     0
  9
$DIMLIM
 70
     0
  9
$DIMTIH
 70
     0
  9
$DIMTOH
 70
     0
  9
$DIMSE1
 70
     0
  9
$DIMSE2
 70
     0
  9
$DIMTAD
 70
     1
  9
$DIMZIN
 70
     8
  9
$DIMBLK
  1
OPEN30
  9
$DIMASO
 70
     1
  9
$DIMSHO
 70
     1
  9
$DIMPOST
  1

  9
$DIMAPOST
  1

  9
$DIMALT
 70
     0
  9
$DIMALTD
 70
     2
  9
$DIMALTF
 40
25.399999999999999
  9
$DIMLFAC
 40
1.0
  9
$DIMTOFL
 70
     1
  9
$DIMTVP
 40
0.0
  9
$DIMTIX
 70
     0
  9
$DIMSOXD
 70
     0
  9
$DIMSAH
 70
     0
  9
$DIMBLK1
  1

  9
$DIMBLK2
  1

  9
$DIMSTYLE
  2
S10
  9
$DIMCLRD
 70
   256
  9
$DIMCLRE
 70
   256
  9
$DIMCLRT
 70
   256
  9
$DIMTFAC
 40
1.0
  9
$DIMGAP
 40
0.9
  9
$LUNITS
 70
     2
  9
$LUPREC
 70
     2
  9
$SKETCHINC
 40
0.1
  9
$FILLETRAD
 40
0.0
  9
$AUNITS
 70
     0
  9
$AUPREC
 70
     2
  9
$MENU
  1
ACAD
  9
$ELEVATION
 40
0.0
  9
$PELEVATION
 40
0.0
  9
$THICKNESS
 40
0.0
  9
$LIMCHECK
 70
     0
  9
$BLIPMODE
 70
     0
  9
$CHAMFERA
 40
2.0
  9
$CHAMFERB
 40
2.0
  9
$SKPOLY
 70
     0
  9
$TDCREATE
 40
2453095.4929404748
  9
$TDUPDATE
 40
2458023.751080961
  9
$TDINDWG
 40
18.400344513899999
  9
$TDUSRTIMER
 40
18.400343935199999
  9
$USRTIMER
 70
     1
  9
$ANGBASE
 50
0.0
  9
$ANGDIR
 70
     0
  9
$PDMODE
 70
    35
  9
$PDSIZE
 40
2.0
  9
$PLINEWID
 40
0.0
  9
$COORDS
 70
     1
  9
$SPLFRAME
 70
     0
  9
$SPLINETYPE
 70
     6
  9
$SPLINESEGS
 70
     8
  9
$ATTDIA
 70
     1
  9
$ATTREQ
 70
     1
  9
$HANDLING
 70
     1
  9
$HANDSEED
  5
13121D
  9
$SURFTAB1
 70
     6
  9
$SURFTAB2
 70
     6
  9
$SURFTYPE
 70
     6
  9
$SURFU
 70
     6
  9
$SURFV
 70
     6
  9
$UCSNAME
  2

  9
$UCSORG
 10
0.0
 20
0.0
 30
0.0
  9
$UCSXDIR
 10
1.0
 20
0.0
 30
0.0
  9
$UCSYDIR
 10
0.0
 20
1.0
 30
0.0
  9
$PUCSNAME
  2

  9
$PUCSORG
 10
0.0
 20
0.0
 30
0.0
  9
$PUCSXDIR
 10
1.0
 20
0.0
 30
0.0
  9
$PUCSYDIR
 10
0.0
 20
1.0
 30
0.0
  9
$USERI1
 70
     0
  9
$USERI2
 70
     0
  9
$USERI3
 70
     0
  9
$USERI4
 70
     0
  9
$USERI5
 70
     0
  9
$USERR1
 40
0.0
  9
$USERR2
 40
0.0
  9
$USERR3
 40
0.0
  9
$USERR4
 40
0.0
  9
$USERR5
 40
0.0
  9
$WORLDVIEW
 70
     1
  9
$SHADEDGE
 70
     3
  9
$SHADEDIF
 70
    70
  9
$TILEMODE
 70
     1
  9
$MAXACTVP
 70
    64
  9
$PLIMCHECK
 70
     0
  9
$PEXTMIN
 10
29.066066288948051
 20
20.366566777229309
 30
0.0
  9
$PEXTMAX
 10
261.5945966005325
 20
183.29910099506381
 30
0.0
  9
$PLIMMIN
 10
-3.17498779296875
 20
-3.1749999523162842
  9
$PLIMMAX
 10
293.83566284179687
 20
206.8406708240509
  9
$UNITMODE
 70
     0
  9
$VISRETAIN
 70
     1
  9
$PLINEGEN
 70
     0
  9
$PSLTSCALE
 70
     1
  0
ENDSEC
  0
SECTION
  2
TABLES
  0
TABLE
  2
VPORT
 70
     1
  0
VPORT
  2
*ACTIVE
 70
     0
 10
0.0
 20
0.0
 11
1.0
 21
1.0
 12
3427.0366036521709
 22
-1905.0850867047141
 13
0.0
 23
0.0
 14
1.0
 24
1.0
 15
0.0
 25
0.0
 16
0.0
 26
0.0
 36
1.0
 17
0.0
 27
0.0
 37
0.0
 40
6406.7978207230544
 41
1.6990553306342771
 42
50.0
 43
0.0
 44
0.0
 50
0.0
 51
0.0
 71
     0
 72
   600
 73
     1
 74
     1
 75
     0
 76
     0
 77
     0
 78
     0
  0
ENDTAB
  0
TABLE
  2
LTYPE
 70
     3
  0
LTYPE
  2
CONTINUOUS
 70
     0
  3
Solid line
 72
    65
 73
     0
 40
0.0
  0
LTYPE
  2
ACAD_ISO08W100
 70
     0
  3
ISO long-dash short-dash ____ __ ____ __ ____ _
 72
    65
 73
     4
 40
36.0
 49
24.0
 49
-3.0
 49
6.0
 49
-3.0
  0
LTYPE
  2
ACAD_ISO02W100
 70
     0
  3
ISO dash __ __ __ __ __ __ __ __ __ __ __ __ __
 72
    65
 73
     2
 40
15.0
 49
12.0
 49
-3.0
  0
ENDTAB
  0
TABLE
  2
LAYER
 70
     8
  0
LAYER
  2
0
 70
     0
 62
     7
  6
CONTINUOUS
  0
LAYER
  2
OBJECT
 70
     0
 62
     4
  6
CONTINUOUS
  0
LAYER
  2
DEFPOINTS
 70
     0
 62
     7
  6
CONTINUOUS
  0
LAYER
  2
DIM
 70
     0
 62
     7
  6
CONTINUOUS
  0
LAYER
  2
HIDDEN
 70
     0
 62
     2
  6
ACAD_ISO02W100
  0
LAYER
  2
CENTER
 70
     0
 62
     2
  6
ACAD_ISO08W100
  0
LAYER
  2
DOTS
 70
     0
 62
     1
  6
CONTINUOUS
  0
LAYER
  2
SLIM
 70
     0
 62
     2
  6
CONTINUOUS
  0
ENDTAB
  0
TABLE
  2
STYLE
 70
     2
  0
STYLE
  2
STANDARD
 70
     0
 40
0.0
 41
0.75
 50
0.0
 71
     0
 42
4.0
  3
simplex.shx
  4
bigfont.shx
  0
ENDTAB
  0
TABLE
  2
VIEW
 70
     0
  0
ENDTAB
  0
TABLE
  2
UCS
 70
     0
  0
ENDTAB
  0
TABLE
  2
APPID
 70
    19
  0
APPID
  2
ACAD
 70
     0
  0
APPID
  2
ACADANNOTATIVE
 70
     0
  0
APPID
  2
ACAD_PSEXT
 70
     0
  0
APPID
  2
ACAD_EXEMPT_FROM_CAD_STANDARDS
 70
     0
  0
APPID
  2
ACAECLAYERSTANDARD
 70
     0
  0
APPID
  2
ACAUTHENVIRON
 70
     0
  0
APPID
  2
ACDBDYNAMICBLOCKTRUENAME
 70
     0
  0
APPID
  2
ACDBDYNAMICBLOCKGUID
 70
     0
  0
APPID
  2
ACDBBLOCKREPETAG
 70
     0
  0
APPID
  2
ACDBBLOCKREPBTAG
 70
     0
  0
APPID
  2
ACAD_NAV_VCDISPLAY
 70
     0
  0
APPID
  2
ACAD_DSTYLE_DIMRADIAL_EXTENSION
 70
     0
  0
APPID
  2
ACAD_DSTYLE_DIMJAG
 70
     0
  0
APPID
  2
ACAD_DSTYLE_DIMTALN
 70
     0
  0
APPID
  2
ACADANNOPO
 70
     0
  0
APPID
  2
GRADIENTCOLOR1ACI
 70
     0
  0
APPID
  2
GRADIENTCOLOR2ACI
 70
     0
  0
APPID
  2
CONTENTBLOCKICON
 70
     0
  0
APPID
  2
ACAD_MLEADERVER
 70
     0
  0
ENDTAB
  0
TABLE
  2
DIMSTYLE
 70
     3
  0
DIMSTYLE
  2
STANDARD
 70
     0
  3

  4

  5

  6

  7

 40
1.0
 41
0.18
 42
0.0625
 43
0.38
 44
0.18
 45
0.0
 46
0.0
 47
0.0
 48
0.0
140
0.18
141
0.09
142
0.0
143
25.399999999999999
144
1.0
145
0.0
146
1.0
147
0.09
 71
     0
 72
     0
 73
     1
 74
     1
 75
     0
 76
     0
 77
     0
 78
     0
170
     0
171
     2
172
     0
173
     0
174
     0
175
     0
176
     0
177
     0
178
     0
  0
DIMSTYLE
  2
S10
 70
     0
  3

  4

  5

  6

  7

 40
10.0
 41
2.0
 42
1.0
 43
10.0
 44
1.0
 45
0.0
 46
0.0
 47
0.0
 48
0.0
140
3.2000000000000002
141
0.0
142
0.0
143
25.399999999999999
144
1.0
145
0.0
146
1.0
147
0.9
 71
     0
 72
     0
 73
     0
 74
     0
 75
     0
 76
     0
 77
     1
 78
     8
170
     0
171
     2
172
     1
173
     0
174
     0
175
     0
176
   256
177
   256
178
   256
  0
ENDTAB
  0
ENDSEC
  0
SECTION
  2
BLOCKS
  0
BLOCK
  8
0
  2
$MODEL_SPACE
 70
     0
 10
0.0
 20
0.0
 30
0.0
  3
$MODEL_SPACE
  1

  0
ENDBLK
  5
1310FA
  8
0
  0
BLOCK
 67
     1
  8
0
  2
$PAPER_SPACE
 70
     0
 10
0.0
 20
0.0
 30
0.0
  3
$PAPER_SPACE
  1

  0
ENDBLK
  5
1310F6
 67
     1
  8
0
  0
BLOCK
  8
0
  2
_OPEN30
 70
     0
 10
0.0
 20
0.0
 30
0.0
  3
_OPEN30
  1

  0
LINE
  5
202
  8
0
  6
BYBLOCK
 62
     0
 10
-1.0
 20
0.26794919
 30
0.0
 11
0.0
 21
0.0
 31
0.0
  0
LINE
  5
203
  8
0
  6
BYBLOCK
 62
     0
 10
0.0
 20
0.0
 30
0.0
 11
-1.0
 21
-0.26794919
 31
0.0
  0
LINE
  5
204
  8
0
  6
BYBLOCK
 62
     0
 10
0.0
 20
0.0
 30
0.0
 11
-1.0
 21
0.0
 31
0.0
  0
ENDBLK
  5
206
  8
0
  0
BLOCK
  8
0
  2
*U3
 70
     1
 10
0.0
 20
0.0
 30
0.0
  3
*U3
  1

  0
TEXT
  5
130FAB
  8
DIM
 10
3840.6616440113212
 20
-1042.7428571428561
 30
0.0
 40
32.0
  1
m（シンドカット）
 50
90.0
 41
0.75
  0
ENDBLK
  5
130FAD
  8
0
  0
BLOCK
  8
0
  2
*U4
 70
     1
 10
0.0
 20
0.0
 30
0.0
  3
*U4
  1

  0
TEXT
  5
130FAF
  8
SLIM
 10
258.00000000003462
 20
-3446.952380953292
 30
0.0
 40
26.0
  1
75
 50
270.0
  0
ENDBLK
  5
130FB1
  8
0
  0
BLOCK
  8
0
  2
*U5
 70
     1
 10
0.0
 20
0.0
 30
0.0
  3
*U5
  1

  0
TEXT
  5
130FB3
  8
SLIM
 10
125.0476190476536
 20
-3358.7500000009122
 30
0.0
 40
26.0
  1
100
  0
ENDBLK
  5
130FB5
  8
0
  0
BLOCK
  8
0
  2
*U6
 70
     1
 10
0.0
 20
0.0
 30
0.0
  3
*U6
  1

  0
TEXT
  5
130FB7
  8
SLIM
 10
625.2500000001146
 20
-3437.047619048531
 30
0.0
 40
26.0
  1
100
 50
270.0
  0
ENDBLK
  5
130FB9
  8
0
  0
BLOCK
  8
0
  2
*U7
 70
     1
 10
0.0
 20
0.0
 30
0.0
  3
*U7
  1

  0
TEXT
  5
130FBB
  8
SLIM
 10
485.04761904773358
 20
-3358.7500000009122
 30
0.0
 40
26.0
  1
100
  0
ENDBLK
  5
130FBD
  8
0
  0
BLOCK
  8
0
  2
*U8
 70
     1
 10
0.0
 20
0.0
 30
0.0
  3
*U8
  1

  0
TEXT
  5
130FBF
  8
SLIM
 10
618.0000000001146
 20
-2982.9523809532861
 30
0.0
 40
26.0
  1
65
 50
270.0
  0
ENDBLK
  5
130FC1
  8
0
  0
BLOCK
  8
0
  2
*U9
 70
     1
 10
0.0
 20
0.0
 30
0.0
  3
*U9
  1

  0
TEXT
  5
130FC3
  8
SLIM
 10
485.04761904773358
 20
-2894.7500000009049
 30
0.0
 40
26.0
  1
100
  0
ENDBLK
  5
130FC5
  8
0
  0
BLOCK
  8
0
  2
*U10
 70
     1
 10
0.0
 20
0.0
 30
0.0
  3
*U10
  1

  0
TEXT
  5
130FC7
  8
SLIM
 10
258.00000000003462
 20
-2982.9523809532861
 30
0.0
 40
26.0
  1
50
 50
270.0
  0
ENDBLK
  5
130FC9
  8
0
  0
BLOCK
  8
0
  2
*U11
 70
     1
 10
0.0
 20
0.0
 30
0.0
  3
*U11
  1

  0
TEXT
  5
130FCB
  8
SLIM
 10
125.0476190476536
 20
-2894.7500000009049
 30
0.0
 40
26.0
  1
100
  0
ENDBLK
  5
130FCD
  8
0
  0
BLOCK
  8
0
  2
*U12
 70
     1
 10
0.0
 20
0.0
 30
0.0
  3
*U12
  1

  0
TEXT
  5
130FCF
  8
SLIM
 10
258.00000000003462
 20
-2518.9523809532802
 30
0.0
 40
26.0
  1
75
 50
270.0
  0
ENDBLK
  5
130FD1
  8
0
  0
BLOCK
  8
0
  2
*U13
 70
     1
 10
0.0
 20
0.0
 30
0.0
  3
*U13
  1

  0
TEXT
  5
130FD3
  8
SLIM
 10
134.9523809524155
 20
-2438.0000000008981
 30
0.0
 40
26.0
  1
75
  0
ENDBLK
  5
130FD5
  8
0
  0
BLOCK
  8
0
  2
*U14
 70
     1
 10
0.0
 20
0.0
 30
0.0
  3
*U14
  1

  0
TEXT
  5
130FD7
  8
SLIM
 10
625.2500000001146
 20
-2509.0476190485178
 30
0.0
 40
26.0
  1
100
 50
270.0
  0
ENDBLK
  5
130FD9
  8
0
  0
BLOCK
  8
0
  2
*U15
 70
     1
 10
0.0
 20
0.0
 30
0.0
  3
*U15
  1

  0
TEXT
  5
130FDB
  8
SLIM
 10
494.95238095249539
 20
-2438.0000000008981
 30
0.0
 40
26.0
  1
75
  0
ENDBLK
  5
130FDD
  8
0
  0
BLOCK
  8
0
  2
*U16
 70
     1
 10
0.0
 20
0.0
 30
0.0
  3
*U16
  1

  0
TEXT
  5
130FDF
  8
SLIM
 10
618.0000000001146
 20
-2054.952380953273
 30
0.0
 40
26.0
  1
65
 50
270.0
  0
ENDBLK
  5
130FE1
  8
0
  0
BLOCK
  8
0
  2
*U17
 70
     1
 10
0.0
 20
0.0
 30
0.0
  3
*U17
  1

  0
TEXT
  5
130FE3
  8
SLIM
 10
494.95238095249539
 20
-1974.000000000892
 30
0.0
 40
26.0
  1
75
  0
ENDBLK
  5
130FE5
  8
0
  0
BLOCK
  8
0
  2
*U18
 70
     1
 10
0.0
 20
0.0
 30
0.0
  3
*U18
  1

  0
TEXT
  5
130FE7
  8
SLIM
 10
258.00000000003462
 20
-2054.952380953273
 30
0.0
 40
26.0
  1
50
 50
270.0
  0
ENDBLK
  5
130FE9
  8
0
  0
BLOCK
  8
0
  2
*U19
 70
     1
 10
0.0
 20
0.0
 30
0.0
  3
*U19
  1

  0
TEXT
  5
130FEB
  8
SLIM
 10
134.9523809524155
 20
-1974.000000000892
 30
0.0
 40
26.0
  1
75
  0
ENDBLK
  5
130FED
  8
0
  0
BLOCK
  8
0
  2
*U20
 70
     1
 10
0.0
 20
0.0
 30
0.0
  3
*U20
  1

  0
TEXT
  5
130FEF
  8
SLIM
 10
258.00000000003462
 20
-1590.9523809532659
 30
0.0
 40
26.0
  1
75
 50
270.0
  0
ENDBLK
  5
130FF1
  8
0
  0
BLOCK
  8
0
  2
*U21
 70
     1
 10
0.0
 20
0.0
 30
0.0
  3
*U21
  1

  0
TEXT
  5
130FF3
  8
SLIM
 10
134.9523809524155
 20
-1510.0000000008849
 30
0.0
 40
26.0
  1
65
  0
ENDBLK
  5
130FF5
  8
0
  0
BLOCK
  8
0
  2
*U22
 70
     1
 10
0.0
 20
0.0
 30
0.0
  3
*U22
  1

  0
TEXT
  5
130FF7
  8
SLIM
 10
625.2500000001146
 20
-1581.047619048504
 30
0.0
 40
26.0
  1
100
 50
270.0
  0
ENDBLK
  5
130FF9
  8
0
  0
BLOCK
  8
0
  2
*U23
 70
     1
 10
0.0
 20
0.0
 30
0.0
  3
*U23
  1

  0
TEXT
  5
130FFB
  8
SLIM
 10
494.95238095249539
 20
-1510.0000000008849
 30
0.0
 40
26.0
  1
65
  0
ENDBLK
  5
130FFD
  8
0
  0
BLOCK
  8
0
  2
*U24
 70
     1
 10
0.0
 20
0.0
 30
0.0
  3
*U24
  1

  0
TEXT
  5
130FFF
  8
SLIM
 10
618.0000000001146
 20
-1126.9523809532591
 30
0.0
 40
26.0
  1
65
 50
270.0
  0
ENDBLK
  5
131001
  8
0
  0
BLOCK
  8
0
  2
*U25
 70
     1
 10
0.0
 20
0.0
 30
0.0
  3
*U25
  1

  0
TEXT
  5
131003
  8
SLIM
 10
494.95238095249539
 20
-1046.0000000008779
 30
0.0
 40
26.0
  1
65
  0
ENDBLK
  5
131005
  8
0
  0
BLOCK
  8
0
  2
*U26
 70
     1
 10
0.0
 20
0.0
 30
0.0
  3
*U26
  1

  0
TEXT
  5
131007
  8
SLIM
 10
258.00000000003462
 20
-1126.9523809532591
 30
0.0
 40
26.0
  1
50
 50
270.0
  0
ENDBLK
  5
131009
  8
0
  0
BLOCK
  8
0
  2
*U27
 70
     1
 10
0.0
 20
0.0
 30
0.0
  3
*U27
  1

  0
TEXT
  5
13100B
  8
SLIM
 10
134.9523809524155
 20
-1046.0000000008779
 30
0.0
 40
26.0
  1
65
  0
ENDBLK
  5
13100D
  8
0
  0
BLOCK
  8
0
  2
*U28
 70
     1
 10
0.0
 20
0.0
 30
0.0
  3
*U28
  1

  0
TEXT
  5
13100F
  8
SLIM
 10
258.00000000003462
 20
-662.95238095325271
 30
0.0
 40
26.0
  1
75
 50
270.0
  0
ENDBLK
  5
131011
  8
0
  0
BLOCK
  8
0
  2
*U29
 70
     1
 10
0.0
 20
0.0
 30
0.0
  3
*U29
  1

  0
TEXT
  5
131013
  8
SLIM
 10
134.9523809524155
 20
-582.00000000087175
 30
0.0
 40
26.0
  1
50
  0
ENDBLK
  5
131015
  8
0
  0
BLOCK
  8
0
  2
*U30
 70
     1
 10
0.0
 20
0.0
 30
0.0
  3
*U30
  1

  0
TEXT
  5
131017
  8
SLIM
 10
625.2500000001146
 20
-653.04761904849079
 30
0.0
 40
26.0
  1
100
 50
270.0
  0
ENDBLK
  5
131019
  8
0
  0
BLOCK
  8
0
  2
*U31
 70
     1
 10
0.0
 20
0.0
 30
0.0
  3
*U31
  1

  0
TEXT
  5
13101B
  8
SLIM
 10
494.95238095249539
 20
-582.00000000087175
 30
0.0
 40
26.0
  1
50
  0
ENDBLK
  5
13101D
  8
0
  0
BLOCK
  8
0
  2
*U32
 70
     1
 10
0.0
 20
0.0
 30
0.0
  3
*U32
  1

  0
TEXT
  5
13101F
  8
SLIM
 10
618.0000000001146
 20
-198.95238095324621
 30
0.0
 40
26.0
  1
65
 50
270.0
  0
ENDBLK
  5
131021
  8
0
  0
BLOCK
  8
0
  2
*U33
 70
     1
 10
0.0
 20
0.0
 30
0.0
  3
*U33
  1

  0
TEXT
  5
131023
  8
SLIM
 10
494.95238095249539
 20
-118.0000000008653
 30
0.0
 40
26.0
  1
50
  0
ENDBLK
  5
131025
  8
0
  0
BLOCK
  8
0
  2
*U34
 70
     1
 10
0.0
 20
0.0
 30
0.0
  3
*U34
  1

  0
TEXT
  5
131027
  8
SLIM
 10
258.00000000003462
 20
-198.95238095324621
 30
0.0
 40
26.0
  1
50
 50
270.0
  0
ENDBLK
  5
131029
  8
0
  0
BLOCK
  8
0
  2
*U35
 70
     1
 10
0.0
 20
0.0
 30
0.0
  3
*U35
  1

  0
TEXT
  5
13102B
  8
SLIM
 10
134.9523809524155
 20
-118.0000000008653
 30
0.0
 40
26.0
  1
50
  0
ENDBLK
  5
13102D
  8
0
  0
BLOCK
  8
0
  2
*U36
 70
     1
 10
0.0
 20
0.0
 30
0.0
  3
*U36
  1

  0
TEXT
  5
13107F
  8
DIM
 10
2209.479620594459
 20
-3304.1428571428528
 30
0.0
 40
32.0
  1
A
 50
90.0
 41
0.75
  0
ENDBLK
  5
131081
  8
0
  0
BLOCK
  8
0
  2
*U37
 70
     1
 10
0.0
 20
0.0
 30
0.0
  3
*U37
  1

  0
TEXT
  5
131083
  8
DIM
 10
2207.8409284037348
 20
-3685.9999999999959
 30
0.0
 40
32.0
  1
B
 50
90.0
 41
0.75
  0
ENDBLK
  5
131085
  8
0
  0
BLOCK
  8
0
  2
*U38
 70
     1
 10
0.0
 20
0.0
 30
0.0
  3
*U38
  1

  0
TEXT
  5
131087
  8
DIM
 10
2061.428571428572
 20
-3158.208121984444
 30
0.0
 40
32.0
  1
C
 41
0.75
  0
ENDBLK
  5
131089
  8
0
  0
ENDSEC
  0
SECTION
  2
ENTITIES
  0
LINE
  5
12515F
  8
OBJECT
 10
1825.0
 20
-3699.9999999999959
 30
0.0
 11
5575.0
 21
-3699.9999999999959
 31
0.0
  0
LINE
  5
125161
  8
SLIM
 10
2616.0
 20
-2757.50001604727
 30
0.0
 11
2616.0
 21
-3087.50001604727
 31
0.0
  0
LINE
  5
125162
  8
SLIM
 10
2740.0
 20
-2757.50001604727
 30
0.0
 11
2740.0
 21
-3087.50001604727
 31
0.0
  0
LINE
  5
125163
  8
SLIM
 10
2870.0
 20
-2817.50001604727
 30
0.0
 11
2870.0
 21
-3087.50001604727
 31
0.0
  0
LINE
  5
125164
  8
SLIM
 10
3000.0
 20
-2817.50001604727
 30
0.0
 11
3000.0
 21
-3087.50001604727
 31
0.0
  0
LINE
  5
125165
  8
SLIM
 10
3130.0
 20
-3087.50001604727
 30
0.0
 11
3130.0
 21
-2817.50001604727
 31
0.0
  0
LINE
  5
125166
  8
SLIM
 10
3260.0
 20
-3087.50001604727
 30
0.0
 11
3260.0
 21
-2757.50001604727
 31
0.0
  0
LINE
  5
125167
  8
SLIM
 10
3260.0
 20
-2757.50001604727
 30
0.0
 11
2616.0
 21
-2757.50001604727
 31
0.0
  0
LINE
  5
125168
  8
SLIM
 10
3260.0
 20
-2817.50001604727
 30
0.0
 11
2740.0
 21
-2817.50001604727
 31
0.0
  0
LINE
  5
125169
  8
SLIM
 10
3260.0
 20
-2877.50001604727
 30
0.0
 11
2616.0
 21
-2877.50001604727
 31
0.0
  0
LINE
  5
12516A
  8
SLIM
 10
3260.0
 20
-2947.50001604727
 30
0.0
 11
2616.0
 21
-2947.50001604727
 31
0.0
  0
LINE
  5
12516B
  8
SLIM
 10
3260.0
 20
-3017.50001604727
 30
0.0
 11
2616.0
 21
-3017.50001604727
 31
0.0
  0
LINE
  5
12516C
  8
SLIM
 10
3260.0
 20
-3087.50001604727
 30
0.0
 11
2616.0
 21
-3087.50001604727
 31
0.0
  0
LINE
  5
125181
  8
SLIM
 10
2740.0
 20
-2877.50001604727
 30
0.0
 11
2615.9999722746579
 21
-2757.5
 31
0.0
  0
LINE
  5
1251BB
  8
CENTER
 10
5400.0
 20
-3479.9999999999968
 30
0.0
 11
5400.0
 21
-3714.9999999999968
 31
0.0
1001
ACDBBLOCKREPETAG
1070
     1
1071
       25
1005
1251BB
  0
LINE
  5
1251BC
  8
OBJECT
 10
5325.0
 20
-3578.9999999999968
 30
0.0
 11
5325.0
 21
-3702.9999999999968
 31
0.0
1001
ACDBBLOCKREPETAG
1070
     1
1071
       26
1005
1251BC
  0
LINE
  5
1251C0
  8
OBJECT
 10
5475.0
 20
-3578.9999999999968
 30
0.0
 11
5475.0
 21
-3702.9999999999968
 31
0.0
1001
ACDBBLOCKREPETAG
1070
     1
1071
       34
1005
1251C0
  0
POINT
  5
1251C1
  8
DOTS
 10
5400.0
 20
-3699.9999999999968
 30
0.0
1001
ACDBBLOCKREPETAG
1070
     1
1071
      187
1005
1251C1
  0
LINE
  5
1251C2
  8
CENTER
 10
5310.0
 20
-3627.9999999999968
 30
0.0
 11
5490.0
 21
-3627.9999999999968
 31
0.0
1001
ACDBBLOCKREPETAG
1070
     1
1071
       23
1005
1251C2
  0
CIRCLE
  5
1251C3
  8
OBJECT
 10
5400.0
 20
-3627.9999999999968
 30
0.0
 40
53.5
1001
ACDBBLOCKREPETAG
1070
     1
1071
       24
1005
1251C3
  0
CIRCLE
  5
1251C4
  8
OBJECT
 10
5400.0
 20
-3627.9999999999968
 30
0.0
 40
67.0
1001
ACDBBLOCKREPETAG
1070
     1
1071
       25
1005
1251C4
  0
ARC
  5
1251C5
  8
OBJECT
 10
5400.0
 20
-3627.9999999999968
 30
0.0
 40
75.0
 50
286.26020470824369
 51
253.73979529175631
1001
ACDBBLOCKREPETAG
1070
     1
1071
       27
1005
1251C5
  0
LINE
  5
1251C6
  8
OBJECT
 10
5379.0
 20
-3699.9999999999968
 30
0.0
 11
5421.0
 21
-3699.9999999999968
 31
0.0
1001
ACDBBLOCKREPETAG
1070
     1
1071
       28
1005
1251C6
  0
TEXT
  5
12CC49
  8
SLIM
 10
-0.0000000000000011
 20
282.5
 30
0.0
 40
35.0
  1
※ 100枝（4）がある場合、品名の最後に【管底】が付きます。
 41
0.9
 11
0.0
 21
300.0
 31
0.0
 73
     2
  0
LINE
  5
12E23A
  8
SLIM
 10
4350.0
 20
-479.99999999999568
 30
0.0
 11
4350.0
 21
-1199.9999999999959
 31
0.0
  0
LINE
  5
12E23B
  8
SLIM
 10
4454.0
 20
-1199.9999999999959
 30
0.0
 11
4454.0
 21
-479.99999999999568
 31
0.0
  0
LINE
  5
12E23C
  8
SLIM
 10
4602.0
 20
-479.99999999999568
 30
0.0
 11
4350.0
 21
-479.99999999999568
 31
0.0
  0
LINE
  5
12E23D
  8
SLIM
 10
4602.0
 20
-527.99999999999591
 30
0.0
 11
4350.0
 21
-527.99999999999591
 31
0.0
  0
LINE
  5
12E23F
  8
SLIM
 10
4602.0
 20
-575.99999999999568
 30
0.0
 11
4350.0
 21
-575.99999999999568
 31
0.0
  0
LINE
  5
12E240
  8
SLIM
 10
4602.0
 20
-623.99999999999591
 30
0.0
 11
4350.0
 21
-623.99999999999591
 31
0.0
  0
LINE
  5
12E241
  8
SLIM
 10
4602.0
 20
-671.99999999999568
 30
0.0
 11
4350.0
 21
-671.99999999999568
 31
0.0
  0
LINE
  5
12E245
  8
SLIM
 10
4602.0
 20
-719.99999999999591
 30
0.0
 11
4350.0
 21
-719.99999999999591
 31
0.0
  0
LINE
  5
12E247
  8
SLIM
 10
4602.0
 20
-767.99999999999579
 30
0.0
 11
4350.0
 21
-767.99999999999579
 31
0.0
  0
LINE
  5
12E249
  8
SLIM
 10
4602.0
 20
-815.99999999999591
 30
0.0
 11
4350.0
 21
-815.99999999999591
 31
0.0
  0
LINE
  5
12E24B
  8
SLIM
 10
4602.0
 20
-863.99999999999591
 30
0.0
 11
4350.0
 21
-863.99999999999591
 31
0.0
  0
LINE
  5
12E24D
  8
SLIM
 10
4602.0
 20
-911.99999999999602
 30
0.0
 11
4350.0
 21
-911.99999999999602
 31
0.0
  0
LINE
  5
12E24F
  8
SLIM
 10
4602.0
 20
-959.99999999999545
 30
0.0
 11
4350.0
 21
-959.99999999999545
 31
0.0
  0
LINE
  5
12E251
  8
SLIM
 10
4602.0
 20
-1007.999999999996
 30
0.0
 11
4350.0
 21
-1007.999999999996
 31
0.0
  0
LINE
  5
12E253
  8
SLIM
 10
4602.0
 20
-1055.9999999999959
 30
0.0
 11
4350.0
 21
-1055.9999999999959
 31
0.0
  0
LINE
  5
12E255
  8
SLIM
 10
4602.0
 20
-1103.9999999999959
 30
0.0
 11
4350.0
 21
-1103.9999999999959
 31
0.0
  0
LINE
  5
12E257
  8
SLIM
 10
4602.0
 20
-1151.9999999999959
 30
0.0
 11
4350.0
 21
-1151.9999999999959
 31
0.0
  0
LINE
  5
12E259
  8
SLIM
 10
4602.0
 20
-1199.9999999999959
 30
0.0
 11
4350.0
 21
-1199.9999999999959
 31
0.0
  0
LINE
  5
12E25C
  8
SLIM
 10
4602.0
 20
-479.99999999999568
 30
0.0
 11
4602.0
 21
-1199.9999999999959
 31
0.0
  0
LINE
  5
1308B7
  8
OBJECT
 10
5460.0
 20
-3572.9999999999968
 30
0.0
 11
5450.9901951359279
 21
-3572.9999999999968
 31
0.0
1001
ACDBBLOCKREPETAG
1070
     1
1071
      215
1005
1308B7
  0
LINE
  5
1308B8
  8
OBJECT
 10
5349.0098048640721
 20
-3572.9999999999968
 30
0.0
 11
5340.0
 21
-3572.9999999999968
 31
0.0
1001
ACDBBLOCKREPETAG
1070
     1
1071
      215
1005
1308B7
  0
ARC
  5
1308B9
  8
OBJECT
 10
5340.0
 20
-3575.9999999999968
 30
0.0
 40
3.0
 50
90.0
 51
180.0
1001
ACDBBLOCKREPETAG
1070
     1
1071
      216
1005
1308B9
  0
LINE
  5
1308BA
  8
OBJECT
 10
5337.0
 20
-3575.9999999999968
 30
0.0
 11
5337.0
 21
-3578.9999999999968
 31
0.0
1001
ACDBBLOCKREPETAG
1070
     1
1071
      217
1005
1308BA
  0
LINE
  5
1308BB
  8
OBJECT
 10
5463.0
 20
-3575.9999999999968
 30
0.0
 11
5463.0
 21
-3578.9999999999968
 31
0.0
1001
ACDBBLOCKREPETAG
1070
     1
1071
      218
1005
1308BB
  0
ARC
  5
1308BC
  8
OBJECT
 10
5460.0
 20
-3575.9999999999968
 30
0.0
 40
3.0
 50
0.0
 51
90.0
1001
ACDBBLOCKREPETAG
1070
     1
1071
      219
1005
1308BC
  0
LINE
  5
1308BD
  8
OBJECT
 10
5343.0
 20
-3504.9999999999968
 30
0.0
 11
5343.0
 21
-3572.9999999999968
 31
0.0
1001
ACDBBLOCKREPETAG
1070
     1
1071
      220
1005
1308BD
  0
LINE
  5
1308BE
  8
OBJECT
 10
5457.0
 20
-3504.9999999999968
 30
0.0
 11
5343.0
 21
-3504.9999999999968
 31
0.0
1001
ACDBBLOCKREPETAG
1070
     1
1071
      221
1005
1308BE
  0
LINE
  5
1308BF
  8
OBJECT
 10
5457.0
 20
-3504.9999999999968
 30
0.0
 11
5457.0
 21
-3572.9999999999968
 31
0.0
1001
ACDBBLOCKREPETAG
1070
     1
1071
      222
1005
1308BF
  0
LINE
  5
1308C0
  8
HIDDEN
 10
5452.5
 20
-3504.9999999999968
 30
0.0
 11
5452.5
 21
-3578.9999999999968
 31
0.0
1001
ACDBBLOCKREPETAG
1070
     1
1071
      224
1005
1308C0
  0
LINE
  5
1308C1
  8
HIDDEN
 10
5347.5
 20
-3504.9999999999968
 30
0.0
 11
5347.5
 21
-3578.9999999999968
 31
0.0
1001
ACDBBLOCKREPETAG
1070
     1
1071
      225
1005
1308C1
  0
LINE
  5
1308CA
  8
OBJECT
 10
5475.0
 20
-3578.9999999999968
 30
0.0
 11
5456.7802782663139
 21
-3578.9999999999968
 31
0.0
1001
ACDBBLOCKREPETAG
1070
     1
1071
       30
1005
1308CA
  0
LINE
  5
1308CB
  8
OBJECT
 10
5343.2197217336861
 20
-3578.9999999999968
 30
0.0
 11
5325.0
 21
-3578.9999999999968
 31
0.0
1001
ACDBBLOCKREPETAG
1070
     1
1071
       30
1005
1308CA
  0
TEXT
  5
1308E8
  8
SLIM
 10
3554.6000000000008
 20
-1535.666666666664
 30
0.0
 40
28.0
  1
※ 対応スラブ厚　180～（m-10）
 41
0.75
  0
TEXT
  5
1308E9
  8
SLIM
 10
3554.6000000000008
 20
-1582.333333333331
 30
0.0
 40
28.0
  1
※ 足切り可能寸法（最大）　330-m（コンパクトＬベンド使用なら+20）
 41
0.75
  0
TEXT
  5
1308EA
  8
SLIM
 10
3598.9000000000001
 20
-1675.666666666664
 30
0.0
 40
28.0
  1
国土交通大臣認定・（一財）日本消防設備安全センター性能評定取得品
 41
0.75
  0
TEXT
  5
1308EB
  8
SLIM
 10
3631.1000000000022
 20
-1722.333333333331
 30
0.0
 40
28.0
  1
注）ご採用にあたり、認定書及び評定書の内容をご確認ください。
 41
0.75
  0
TEXT
  5
1308EC
  8
SLIM
 10
4470.057142857142
 20
-1187.9999999999959
 30
0.0
 40
24.0
  1
180～320
 41
0.75
  0
TEXT
  5
1308ED
  8
SLIM
 10
4471.7714285714283
 20
-1139.9999999999959
 30
0.0
 40
24.0
  1
180～310
 41
0.75
  0
TEXT
  5
1308EE
  8
SLIM
 10
4470.057142857142
 20
-1091.9999999999959
 30
0.0
 40
24.0
  1
180～300
 41
0.75
  0
TEXT
  5
1308EF
  8
SLIM
 10
4470.057142857142
 20
-1043.9999999999959
 30
0.0
 40
24.0
  1
180～290
 41
0.75
  0
TEXT
  5
1308F0
  8
SLIM
 10
4470.057142857142
 20
-995.99999999999591
 30
0.0
 40
24.0
  1
180～280
 41
0.75
  0
TEXT
  5
1308F1
  8
SLIM
 10
4470.057142857142
 20
-947.99999999999591
 30
0.0
 40
24.0
  1
180～270
 41
0.75
  0
TEXT
  5
1308F2
  8
SLIM
 10
4470.057142857142
 20
-899.99999999999591
 30
0.0
 40
24.0
  1
180～260
 41
0.75
  0
TEXT
  5
1308F3
  8
SLIM
 10
4470.057142857142
 20
-851.99999999999579
 30
0.0
 40
24.0
  1
180～250
 41
0.75
  0
TEXT
  5
1308F4
  8
SLIM
 10
4470.057142857142
 20
-803.99999999999602
 30
0.0
 40
24.0
  1
180～240
 41
0.75
  0
TEXT
  5
1308F5
  8
SLIM
 10
4470.057142857142
 20
-755.99999999999591
 30
0.0
 40
24.0
  1
180～230
 41
0.75
  0
TEXT
  5
1308F6
  8
SLIM
 10
4470.057142857142
 20
-707.99999999999591
 30
0.0
 40
24.0
  1
180～220
 41
0.75
  0
TEXT
  5
1308F7
  8
SLIM
 10
4471.7714285714283
 20
-659.99999999999568
 30
0.0
 40
24.0
  1
180～210
 41
0.75
  0
TEXT
  5
1308F8
  8
SLIM
 10
4470.057142857142
 20
-611.99999999999591
 30
0.0
 40
24.0
  1
180～200
 41
0.75
  0
TEXT
  5
1308F9
  8
SLIM
 10
4471.7714285714283
 20
-563.99999999999568
 30
0.0
 40
24.0
  1
180～190
 41
0.75
  0
TEXT
  5
1308FA
  8
SLIM
 10
4465.6000000000013
 20
-515.99999999999591
 30
0.0
 40
24.0
  1
対応スラブ厚
 41
0.75
  0
TEXT
  5
1308FB
  8
SLIM
 10
4396.4571428571408
 20
-1245.9999999999959
 30
0.0
 40
24.0
  1
標準：m=330
 41
0.75
  0
TEXT
  5
1308FC
  8
SLIM
 10
4378.8571428571431
 20
-1187.9999999999959
 30
0.0
 40
24.0
  1
330
 41
0.75
  0
TEXT
  5
1308FD
  8
SLIM
 10
4378.8571428571431
 20
-1139.9999999999959
 30
0.0
 40
24.0
  1
320
 41
0.75
  0
TEXT
  5
1308FE
  8
SLIM
 10
4380.5714285714284
 20
-1091.9999999999959
 30
0.0
 40
24.0
  1
310
 41
0.75
  0
TEXT
  5
1308FF
  8
SLIM
 10
4378.8571428571431
 20
-1043.9999999999959
 30
0.0
 40
24.0
  1
300
 41
0.75
  0
TEXT
  5
130900
  8
SLIM
 10
4378.8571428571431
 20
-995.99999999999591
 30
0.0
 40
24.0
  1
290
 41
0.75
  0
TEXT
  5
130901
  8
SLIM
 10
4378.8571428571431
 20
-947.99999999999591
 30
0.0
 40
24.0
  1
280
 41
0.75
  0
TEXT
  5
130902
  8
SLIM
 10
4378.8571428571431
 20
-899.99999999999591
 30
0.0
 40
24.0
  1
270
 41
0.75
  0
TEXT
  5
130903
  8
SLIM
 10
4378.8571428571431
 20
-851.99999999999579
 30
0.0
 40
24.0
  1
260
 41
0.75
  0
TEXT
  5
130904
  8
SLIM
 10
4378.8571428571431
 20
-803.99999999999602
 30
0.0
 40
24.0
  1
250
 41
0.75
  0
TEXT
  5
130905
  8
SLIM
 10
4378.8571428571431
 20
-755.99999999999591
 30
0.0
 40
24.0
  1
240
 41
0.75
  0
TEXT
  5
130906
  8
SLIM
 10
4378.8571428571431
 20
-707.99999999999591
 30
0.0
 40
24.0
  1
230
 41
0.75
  0
TEXT
  5
130907
  8
SLIM
 10
4378.8571428571431
 20
-659.99999999999568
 30
0.0
 40
24.0
  1
220
 41
0.75
  0
TEXT
  5
130908
  8
SLIM
 10
4380.5714285714284
 20
-611.99999999999591
 30
0.0
 40
24.0
  1
210
 41
0.75
  0
TEXT
  5
130909
  8
SLIM
 10
4369.9428571428571
 20
-515.99999999999591
 30
0.0
 40
24.0
  1
m寸法
 41
0.75
  0
TEXT
  5
13090A
  8
SLIM
 10
4378.8571428571431
 20
-563.99999999999568
 30
0.0
 40
24.0
  1
200
 41
0.75
  0
LINE
  5
13090B
  8
DIM
 10
3904.9999999999941
 20
-755.0
 30
0.0
 11
3839.6616440113221
 21
-754.99999999999966
 31
0.0
  0
LINE
  5
13090C
  8
DIM
 10
3910.0
 20
-1084.9999999999991
 30
0.0
 11
3839.6616440113221
 21
-1084.9999999999991
 31
0.0
  0
LINE
  5
13090D
  8
DIM
 10
3849.6616440113221
 20
-775.0
 30
0.0
 11
3849.6616440113221
 21
-1064.9999999999991
 31
0.0
  0
INSERT
  5
13090E
  8
DIM
  2
_OPEN30
 10
3849.6616440113221
 20
-755.0
 30
0.0
 41
20.0
 42
20.0
 43
20.0
 50
90.0
  0
INSERT
  5
13090F
  8
DIM
  2
_OPEN30
 10
3849.6616440113221
 20
-1084.9999999999991
 30
0.0
 41
20.0
 42
20.0
 43
20.0
 50
270.0
  0
INSERT
  5
130910
  8
OBJECT
  2
*U3
 10
0.0
 20
0.0
 30
0.0
  0
TEXT
  5
130911
  8
SLIM
 10
1850.0
 20
532.5
 30
0.0
 40
75.0
  1
側面図の代表機種
 41
0.75
  0
LINE
  5
130912
  8
CENTER
 10
5080.0
 20
-3294.9999999999959
 30
0.0
 11
4905.0
 21
-3294.9999999999959
 31
0.0
1001
ACDBBLOCKREPETAG
1070
     1
1071
       14
1005
130912
  0
LINE
  5
130913
  8
CENTER
 10
5000.0
 20
-3389.9999999999968
 30
0.0
 11
5000.0
 21
-3199.9999999999959
 31
0.0
1001
ACDBBLOCKREPETAG
1070
     1
1071
       15
1005
130913
  0
CIRCLE
  5
130914
  8
OBJECT
 10
5000.0
 20
-3294.9999999999959
 30
0.0
 40
75.0
1001
ACDBBLOCKREPETAG
1070
     1
1071
       17
1005
130914
  0
ARC
  5
130915
  8
OBJECT
 10
5000.0
 20
-3294.9999999999959
 30
0.0
 40
80.0
 50
50.805032573882329
 51
309.19496742611773
1001
ACDBBLOCKREPETAG
1070
     1
1071
       18
1005
130915
  0
LINE
  5
130916
  8
OBJECT
 10
5042.2018956920174
 20
-3232.9999999999959
 30
0.0
 11
5080.0
 21
-3232.9999999999959
 31
0.0
1001
ACDBBLOCKREPETAG
1070
     1
1071
       19
1005
130916
  0
LINE
  5
130917
  8
OBJECT
 10
5042.2018956920174
 20
-3356.9999999999959
 30
0.0
 11
5080.0
 21
-3356.9999999999959
 31
0.0
1001
ACDBBLOCKREPETAG
1070
     1
1071
       20
1005
130917
  0
POINT
  5
130918
  8
DOTS
 10
5000.0
 20
-3294.9999999999959
 30
0.0
1001
ACDBBLOCKREPETAG
1070
     1
1071
       21
1005
130918
  0
CIRCLE
  5
130919
  8
OBJECT
 10
5000.0
 20
-3294.9999999999959
 30
0.0
 40
52.5
1001
ACDBBLOCKREPETAG
1070
     1
1071
      494
1005
130919
  0
CIRCLE
  5
13091A
  8
OBJECT
 10
5000.0
 20
-3294.9999999999959
 30
0.0
 40
57.0
1001
ACDBBLOCKREPETAG
1070
     1
1071
      483
1005
13091A
  0
LINE
  5
13091B
  8
CENTER
 10
4080.0
 20
-3294.9999999999959
 30
0.0
 11
3905.0
 21
-3294.9999999999959
 31
0.0
1001
ACDBBLOCKREPETAG
1070
     1
1071
       14
1005
13091B
  0
LINE
  5
13091C
  8
CENTER
 10
4000.0
 20
-3389.9999999999968
 30
0.0
 11
4000.0
 21
-3199.9999999999959
 31
0.0
1001
ACDBBLOCKREPETAG
1070
     1
1071
       15
1005
13091C
  0
CIRCLE
  5
13091D
  8
OBJECT
 10
4000.0
 20
-3294.9999999999959
 30
0.0
 40
75.0
1001
ACDBBLOCKREPETAG
1070
     1
1071
       17
1005
13091D
  0
ARC
  5
13091E
  8
OBJECT
 10
4000.0
 20
-3294.9999999999959
 30
0.0
 40
80.0
 50
50.805032573862128
 51
309.19496742613791
1001
ACDBBLOCKREPETAG
1070
     1
1071
       18
1005
13091E
  0
LINE
  5
13091F
  8
OBJECT
 10
4042.2018956920169
 20
-3232.9999999999959
 30
0.0
 11
4080.0
 21
-3232.9999999999959
 31
0.0
1001
ACDBBLOCKREPETAG
1070
     1
1071
       19
1005
13091F
  0
LINE
  5
130920
  8
OBJECT
 10
4042.2018956920169
 20
-3356.9999999999959
 30
0.0
 11
4080.0
 21
-3356.9999999999959
 31
0.0
1001
ACDBBLOCKREPETAG
1070
     1
1071
       20
1005
130920
  0
POINT
  5
130921
  8
DOTS
 10
4000.0
 20
-3294.9999999999959
 30
0.0
1001
ACDBBLOCKREPETAG
1070
     1
1071
       21
1005
130921
  0
CIRCLE
  5
130922
  8
OBJECT
 10
4000.0
 20
-3294.9999999999959
 30
0.0
 40
52.5
1001
ACDBBLOCKREPETAG
1070
     1
1071
      494
1005
130922
  0
CIRCLE
  5
130923
  8
OBJECT
 10
4000.0
 20
-3294.9999999999959
 30
0.0
 40
57.0
1001
ACDBBLOCKREPETAG
1070
     1
1071
      483
1005
130923
  0
LINE
  5
130924
  8
CENTER
 10
3080.0
 20
-3294.9999999999959
 30
0.0
 11
2905.0
 21
-3294.9999999999959
 31
0.0
1001
ACDBBLOCKREPETAG
1070
     1
1071
       14
1005
130924
  0
LINE
  5
130925
  8
CENTER
 10
3000.0
 20
-3389.9999999999968
 30
0.0
 11
3000.0
 21
-3199.9999999999959
 31
0.0
1001
ACDBBLOCKREPETAG
1070
     1
1071
       15
1005
130925
  0
CIRCLE
  5
130926
  8
OBJECT
 10
3000.0
 20
-3294.9999999999959
 30
0.0
 40
75.0
1001
ACDBBLOCKREPETAG
1070
     1
1071
       17
1005
130926
  0
ARC
  5
130927
  8
OBJECT
 10
3000.0
 20
-3294.9999999999959
 30
0.0
 40
80.0
 50
50.805032573862128
 51
309.19496742613791
1001
ACDBBLOCKREPETAG
1070
     1
1071
       18
1005
130927
  0
LINE
  5
130928
  8
OBJECT
 10
3042.2018956920201
 20
-3232.9999999999959
 30
0.0
 11
3080.0
 21
-3232.9999999999959
 31
0.0
1001
ACDBBLOCKREPETAG
1070
     1
1071
       19
1005
130928
  0
LINE
  5
130929
  8
OBJECT
 10
3042.2018956920201
 20
-3356.9999999999959
 30
0.0
 11
3080.0
 21
-3356.9999999999959
 31
0.0
1001
ACDBBLOCKREPETAG
1070
     1
1071
       20
1005
130929
  0
POINT
  5
13092A
  8
DOTS
 10
3000.0
 20
-3294.9999999999959
 30
0.0
1001
ACDBBLOCKREPETAG
1070
     1
1071
       21
1005
13092A
  0
CIRCLE
  5
13092B
  8
OBJECT
 10
3000.0
 20
-3294.9999999999959
 30
0.0
 40
52.5
1001
ACDBBLOCKREPETAG
1070
     1
1071
      494
1005
13092B
  0
CIRCLE
  5
13092C
  8
OBJECT
 10
3000.0
 20
-3294.9999999999959
 30
0.0
 40
57.0
1001
ACDBBLOCKREPETAG
1070
     1
1071
      483
1005
13092C
  0
LINE
  5
13092D
  8
CENTER
 10
2080.0
 20
-3294.9999999999959
 30
0.0
 11
1905.0
 21
-3294.9999999999959
 31
0.0
1001
ACDBBLOCKREPETAG
1070
     1
1071
       14
1005
13092D
  0
LINE
  5
13092E
  8
CENTER
 10
2000.0
 20
-3389.9999999999968
 30
0.0
 11
2000.0
 21
-3199.9999999999959
 31
0.0
1001
ACDBBLOCKREPETAG
1070
     1
1071
       15
1005
13092E
  0
CIRCLE
  5
13092F
  8
OBJECT
 10
2000.0
 20
-3294.9999999999959
 30
0.0
 40
75.0
1001
ACDBBLOCKREPETAG
1070
     1
1071
       17
1005
13092F
  0
ARC
  5
130930
  8
OBJECT
 10
2000.0
 20
-3294.9999999999959
 30
0.0
 40
80.0
 50
50.805032573862128
 51
309.19496742613791
1001
ACDBBLOCKREPETAG
1070
     1
1071
       18
1005
130930
  0
LINE
  5
130931
  8
OBJECT
 10
2042.2018956920181
 20
-3232.9999999999959
 30
0.0
 11
2080.0
 21
-3232.9999999999959
 31
0.0
1001
ACDBBLOCKREPETAG
1070
     1
1071
       19
1005
130931
  0
LINE
  5
130932
  8
OBJECT
 10
2042.2018956920181
 20
-3356.9999999999959
 30
0.0
 11
2080.0
 21
-3356.9999999999959
 31
0.0
1001
ACDBBLOCKREPETAG
1070
     1
1071
       20
1005
130932
  0
POINT
  5
130933
  8
DOTS
 10
2000.0
 20
-3294.9999999999959
 30
0.0
1001
ACDBBLOCKREPETAG
1070
     1
1071
       21
1005
130933
  0
CIRCLE
  5
130934
  8
OBJECT
 10
2000.0
 20
-3294.9999999999959
 30
0.0
 40
52.5
1001
ACDBBLOCKREPETAG
1070
     1
1071
      494
1005
130934
  0
CIRCLE
  5
130935
  8
OBJECT
 10
2000.0
 20
-3294.9999999999959
 30
0.0
 40
57.0
1001
ACDBBLOCKREPETAG
1070
     1
1071
      483
1005
130935
  0
LINE
  5
130936
  8
SLIM
  6
CONTINUOUS
 10
3945.2566704261012
 20
-137.99999999999909
 30
0.0
 11
3955.9548403695781
 21
-127.30183005652241
 31
0.0
1001
GRADIENTCOLOR1ACI
1070
     5
1001
GRADIENTCOLOR2ACI
1070
     2
1001
ACAD
1010
0.0
1020
0.0
1030
0.0
1001
ACDBBLOCKREPETAG
1070
     1
1071
      541
1005
130936
  0
LINE
  5
130937
  8
SLIM
  6
CONTINUOUS
 10
3954.2369265471712
 20
-137.99999999999909
 30
0.0
 11
3972.7507744763329
 21
-119.4861520708365
 31
0.0
1001
GRADIENTCOLOR1ACI
1070
     5
1001
GRADIENTCOLOR2ACI
1070
     2
1001
ACAD
1010
0.0
1020
0.0
1030
0.0
1001
ACDBBLOCKREPETAG
1070
     1
1071
      542
1005
130937
  0
LINE
  5
130938
  8
SLIM
  6
CONTINUOUS
 10
3969.9215079962919
 20
-131.2956746719467
 30
0.0
 11
3984.8575146748631
 21
-116.359667993377
 31
0.0
1001
GRADIENTCOLOR1ACI
1070
     5
1001
GRADIENTCOLOR2ACI
1070
     2
1001
ACAD
1010
0.0
1020
0.0
1030
0.0
1001
ACDBBLOCKREPETAG
1070
     1
1071
      543
1005
130938
  0
LINE
  5
130939
  8
SLIM
  6
CONTINUOUS
 10
3983.3188363327549
 20
-126.87860245655401
 30
0.0
 11
3995.0533812002559
 21
-115.1440575890517
 31
0.0
1001
GRADIENTCOLOR1ACI
1070
     5
1001
GRADIENTCOLOR2ACI
1070
     2
1001
ACAD
1010
0.0
1020
0.0
1030
0.0
1001
ACDBBLOCKREPETAG
1070
     1
1071
      544
1005
130939
  0
LINE
  5
13093A
  8
SLIM
  6
CONTINUOUS
 10
3993.9318052486001
 20
-125.245889661777
 30
0.0
 11
4000.0
 21
-119.1776949103767
 31
0.0
1001
GRADIENTCOLOR1ACI
1070
     5
1001
GRADIENTCOLOR2ACI
1070
     2
1001
ACAD
1010
0.0
1020
0.0
1030
0.0
1001
ACDBBLOCKREPETAG
1070
     1
1071
      545
1005
13093A
  0
LINE
  5
13093B
  8
SLIM
  6
CONTINUOUS
 10
4000.0
 20
-119.1776949103767
 30
0.0
 11
4004.0797313529042
 21
-115.0979635574724
 31
0.0
1001
GRADIENTCOLOR1ACI
1070
     5
1001
GRADIENTCOLOR2ACI
1070
     2
1001
ACAD
1010
0.0
1020
0.0
1030
0.0
1001
ACDBBLOCKREPETAG
1070
     1
1071
      546
1005
13093B
  0
LINE
  5
13093C
  8
SLIM
  6
CONTINUOUS
 10
4003.0941007878532
 20
-125.0638502435924
 30
0.0
 11
4012.2679784105749
 21
-115.88997262087101
 31
0.0
1001
GRADIENTCOLOR1ACI
1070
     5
1001
GRADIENTCOLOR2ACI
1070
     2
1001
ACAD
1010
0.0
1020
0.0
1030
0.0
1001
ACDBBLOCKREPETAG
1070
     1
1071
      547
1005
13093C
  0
LINE
  5
13093D
  8
SLIM
  6
CONTINUOUS
 10
4011.284425768652
 20
-125.85378138386341
 30
0.0
 11
4019.799941457361
 21
-117.3382656951526
 31
0.0
1001
GRADIENTCOLOR1ACI
1070
     5
1001
GRADIENTCOLOR2ACI
1070
     2
1001
ACAD
1010
0.0
1020
0.0
1030
0.0
1001
ACDBBLOCKREPETAG
1070
     1
1071
      548
1005
13093D
  0
LINE
  5
13093E
  8
SLIM
  6
CONTINUOUS
 10
4018.7395884655198
 20
-127.3788748080627
 30
0.0
 11
4026.7872038672799
 21
-119.3312594063044
 31
0.0
1001
GRADIENTCOLOR1ACI
1070
     5
1001
GRADIENTCOLOR2ACI
1070
     2
1001
ACAD
1010
0.0
1020
0.0
1030
0.0
1001
ACDBBLOCKREPETAG
1070
     1
1071
      549
1005
13093E
  0
LINE
  5
13093F
  8
SLIM
  6
CONTINUOUS
 10
4025.5958866269621
 20
-129.50283276769261
 30
0.0
 11
4033.3030030760328
 21
-121.7957163186195
 31
0.0
1001
GRADIENTCOLOR1ACI
1070
     5
1001
GRADIENTCOLOR2ACI
1070
     2
1001
ACAD
1010
0.0
1020
0.0
1030
0.0
1001
ACDBBLOCKREPETAG
1070
     1
1071
      550
1005
13093F
  0
LINE
  5
130940
  8
SLIM
  6
CONTINUOUS
 10
4031.9385859461058
 20
-132.1403895696169
 30
0.0
 11
4039.3973119843781
 21
-124.6816635313439
 31
0.0
1001
GRADIENTCOLOR1ACI
1070
     5
1001
GRADIENTCOLOR2ACI
1070
     2
1001
ACAD
1010
0.0
1020
0.0
1030
0.0
1001
ACDBBLOCKREPETAG
1070
     1
1071
      551
1005
130940
  0
LINE
  5
130941
  8
SLIM
  6
CONTINUOUS
 10
4037.8233654376231
 20
-135.2358661991679
 30
0.0
 11
4045.1047705343681
 21
-127.95446110242381
 31
0.0
1001
GRADIENTCOLOR1ACI
1070
     5
1001
GRADIENTCOLOR2ACI
1070
     2
1001
ACAD
1010
0.0
1020
0.0
1030
0.0
1001
ACDBBLOCKREPETAG
1070
     1
1071
      552
1005
130941
  0
LINE
  5
130942
  8
SLIM
  6
CONTINUOUS
 10
4044.0394877578619
 20
-137.99999999999909
 30
0.0
 11
4050.4491557891961
 21
-131.59033196866449
 31
0.0
1001
GRADIENTCOLOR1ACI
1070
     5
1001
GRADIENTCOLOR2ACI
1070
     2
1001
ACAD
1010
0.0
1020
0.0
1030
0.0
1001
ACDBBLOCKREPETAG
1070
     1
1071
      553
1005
130942
  0
LINE
  5
130943
  8
SLIM
  6
CONTINUOUS
 10
4053.0197438789291
 20
-137.99999999999909
 30
0.0
 11
4055.4459941864038
 21
-135.57374969252561
 31
0.0
1001
GRADIENTCOLOR1ACI
1070
     5
1001
GRADIENTCOLOR2ACI
1070
     2
1001
ACAD
1010
0.0
1020
0.0
1030
0.0
1001
ACDBBLOCKREPETAG
1070
     1
1071
      554
1005
130943
  0
LINE
  5
130944
  8
CENTER
 10
4000.0
 20
-279.99999999999909
 30
0.0
 11
4000.0
 21
-99.999999999999091
 31
0.0
1001
ACDBBLOCKREPETAG
1070
     1
1071
      160
1005
130944
  0
CIRCLE
  5
130945
  8
OBJECT
 10
4000.0
 20
-199.99999999999909
 30
0.0
 40
75.0
1001
ACDBBLOCKREPETAG
1070
     1
1071
      162
1005
130945
  0
LINE
  5
130946
  8
OBJECT
 10
4042.2018956920169
 20
-137.99999999999909
 30
0.0
 11
4080.0
 21
-137.99999999999909
 31
0.0
1001
ACDBBLOCKREPETAG
1070
     1
1071
      164
1005
130946
  0
LINE
  5
130947
  8
OBJECT
 10
4062.0
 20
-261.99999999999909
 30
0.0
 11
4080.0
 21
-261.99999999999909
 31
0.0
1001
ACDBBLOCKREPETAG
1070
     1
1071
      165
1005
130947
  0
LINE
  5
130948
  8
OBJECT
 10
4062.0
 20
-261.99999999999909
 30
0.0
 11
4062.0
 21
-279.99999999999909
 31
0.0
1001
ACDBBLOCKREPETAG
1070
     1
1071
      167
1005
130948
  0
LINE
  5
130949
  8
OBJECT
 10
3938.0
 20
-261.99999999999909
 30
0.0
 11
3938.0
 21
-279.99999999999909
 31
0.0
1001
ACDBBLOCKREPETAG
1070
     1
1071
      168
1005
130949
  0
LINE
  5
13094A
  8
OBJECT
 10
3938.0
 20
-261.99999999999909
 30
0.0
 11
3920.0
 21
-261.99999999999909
 31
0.0
1001
ACDBBLOCKREPETAG
1070
     1
1071
      170
1005
13094A
  0
LINE
  5
13094B
  8
OBJECT
 10
3957.7981043079831
 20
-137.99999999999909
 30
0.0
 11
3920.0
 21
-137.99999999999909
 31
0.0
1001
ACDBBLOCKREPETAG
1070
     1
1071
      171
1005
13094B
  0
LINE
  5
13094C
  8
OBJECT
 10
3946.9669914110091
 20
-253.03300858899021
 30
0.0
 11
3938.0
 21
-261.99999999999909
 31
0.0
1001
ACDBBLOCKREPETAG
1070
     1
1071
      180
1005
13094C
  0
LINE
  5
13094D
  8
OBJECT
 10
4053.03300858899
 20
-253.03300858899021
 30
0.0
 11
4062.0
 21
-261.99999999999909
 31
0.0
1001
ACDBBLOCKREPETAG
1070
     1
1071
      181
1005
13094D
  0
POINT
  5
13094E
  8
DOTS
 10
4000.0
 20
-199.99999999999909
 30
0.0
 50
270.0
1001
ACDBBLOCKREPETAG
1070
     1
1071
      182
1005
13094E
  0
ARC
  5
13094F
  8
OBJECT
 10
4000.0
 20
-199.99999999999909
 30
0.0
 40
85.0
 50
46.837102859806208
 51
133.16289714019379
1001
ACDBBLOCKREPETAG
1070
     1
1071
      183
1005
13094F
  0
LINE
  5
130950
  8
CENTER
 10
4080.0
 20
-199.99999999999909
 30
0.0
 11
3920.0
 21
-199.99999999999909
 31
0.0
1001
ACDBBLOCKREPETAG
1070
     1
1071
      158
1005
130950
  0
CIRCLE
  5
130951
  8
OBJECT
 10
4000.0
 20
-199.99999999999909
 30
0.0
 40
52.5
1001
ACDBBLOCKREPETAG
1070
     1
1071
      486
1005
130951
  0
CIRCLE
  5
130952
  8
OBJECT
 10
4000.0
 20
-199.99999999999909
 30
0.0
 40
57.0
1001
ACDBBLOCKREPETAG
1070
     1
1071
      487
1005
130952
  0
LINE
  5
130953
  8
CENTER
 10
2080.0
 20
-199.99999999999909
 30
0.0
 11
1920.0
 21
-199.99999999999909
 31
0.0
1001
ACDBBLOCKREPETAG
1070
     1
1071
       49
1005
130953
  0
LINE
  5
130954
  8
CENTER
 10
2000.0
 20
-279.99999999999909
 30
0.0
 11
2000.0
 21
-104.9999999999991
 31
0.0
1001
ACDBBLOCKREPETAG
1070
     1
1071
       50
1005
130954
  0
CIRCLE
  5
130955
  8
OBJECT
 10
2000.0
 20
-199.99999999999909
 30
0.0
 40
75.0
1001
ACDBBLOCKREPETAG
1070
     1
1071
       52
1005
130955
  0
ARC
  5
130956
  8
OBJECT
 10
2000.0
 20
-199.99999999999909
 30
0.0
 40
80.0
 50
50.805032573864182
 51
129.1949674261358
1001
ACDBBLOCKREPETAG
1070
     1
1071
       53
1005
130956
  0
LINE
  5
130957
  8
OBJECT
 10
2042.2018956920181
 20
-137.99999999999909
 30
0.0
 11
2080.0
 21
-137.99999999999909
 31
0.0
1001
ACDBBLOCKREPETAG
1070
     1
1071
       54
1005
130957
  0
LINE
  5
130958
  8
OBJECT
 10
2062.0
 20
-261.99999999999909
 30
0.0
 11
2080.0
 21
-261.99999999999909
 31
0.0
1001
ACDBBLOCKREPETAG
1070
     1
1071
       55
1005
130958
  0
LINE
  5
130959
  8
OBJECT
 10
2062.0
 20
-261.99999999999909
 30
0.0
 11
2062.0
 21
-279.99999999999909
 31
0.0
1001
ACDBBLOCKREPETAG
1070
     1
1071
       57
1005
130959
  0
LINE
  5
13095A
  8
OBJECT
 10
1938.0
 20
-261.99999999999909
 30
0.0
 11
1938.0
 21
-279.99999999999909
 31
0.0
1001
ACDBBLOCKREPETAG
1070
     1
1071
       58
1005
13095A
  0
POINT
  5
13095B
  8
DOTS
 10
2000.0
 20
-199.99999999999909
 30
0.0
 50
90.0
1001
ACDBBLOCKREPETAG
1070
     1
1071
       59
1005
13095B
  0
LINE
  5
13095C
  8
OBJECT
 10
1938.0
 20
-261.99999999999909
 30
0.0
 11
1920.0
 21
-261.99999999999909
 31
0.0
1001
ACDBBLOCKREPETAG
1070
     1
1071
       60
1005
13095C
  0
LINE
  5
13095D
  8
OBJECT
 10
1957.7981043079819
 20
-137.99999999999909
 30
0.0
 11
1920.0
 21
-137.99999999999909
 31
0.0
1001
ACDBBLOCKREPETAG
1070
     1
1071
       61
1005
13095D
  0
LINE
  5
13095E
  8
OBJECT
 10
1946.9669914110079
 20
-253.03300858899021
 30
0.0
 11
1938.0
 21
-261.99999999999909
 31
0.0
1001
ACDBBLOCKREPETAG
1070
     1
1071
       42
1005
13095E
  0
LINE
  5
13095F
  8
OBJECT
 10
2053.0330085889909
 20
-253.03300858899021
 30
0.0
 11
2062.0
 21
-261.99999999999909
 31
0.0
1001
ACDBBLOCKREPETAG
1070
     1
1071
       43
1005
13095F
  0
CIRCLE
  5
130960
  8
OBJECT
 10
2000.0
 20
-199.99999999999909
 30
0.0
 40
52.5
1001
ACDBBLOCKREPETAG
1070
     1
1071
      340
1005
130960
  0
CIRCLE
  5
130961
  8
OBJECT
 10
2000.0
 20
-199.99999999999909
 30
0.0
 40
57.0
1001
ACDBBLOCKREPETAG
1070
     1
1071
      362
1005
130961
  0
CIRCLE
  5
130962
  8
OBJECT
 10
515.99999999987813
 20
-3467.9999999988931
 30
0.0
 40
75.0
1001
ACDBBLOCKREPETAG
1070
     1
1071
       44
1005
130962
  0
ARC
  5
130963
  8
OBJECT
 10
515.99999999987813
 20
-3467.9999999988931
 30
0.0
 40
80.0
 50
140.80503257378879
 51
219.19496742621121
1001
ACDBBLOCKREPETAG
1070
     1
1071
       45
1005
130963
  0
LINE
  5
130964
  8
OBJECT
 10
453.99999999987801
 20
-3425.7981043068748
 30
0.0
 11
453.99999999987801
 21
-3387.9999999988931
 31
0.0
1001
ACDBBLOCKREPETAG
1070
     1
1071
       46
1005
130964
  0
LINE
  5
130965
  8
OBJECT
 10
577.99999999987813
 20
-3405.9999999988931
 30
0.0
 11
577.99999999987813
 21
-3387.9999999988931
 31
0.0
1001
ACDBBLOCKREPETAG
1070
     1
1071
       22
1005
130965
  0
LINE
  5
130966
  8
OBJECT
 10
577.99999999987813
 20
-3405.9999999988931
 30
0.0
 11
595.99999999987813
 21
-3405.9999999988931
 31
0.0
1001
ACDBBLOCKREPETAG
1070
     1
1071
       24
1005
130966
  0
LINE
  5
130967
  8
OBJECT
 10
577.99999999987813
 20
-3529.9999999988941
 30
0.0
 11
595.99999999987813
 21
-3529.9999999988941
 31
0.0
1001
ACDBBLOCKREPETAG
1070
     1
1071
       25
1005
130967
  0
LINE
  5
130968
  8
OBJECT
 10
577.99999999987813
 20
-3529.9999999988941
 30
0.0
 11
577.99999999987813
 21
-3547.9999999988931
 31
0.0
1001
ACDBBLOCKREPETAG
1070
     1
1071
       27
1005
130968
  0
LINE
  5
130969
  8
OBJECT
 10
453.99999999987801
 20
-3510.2018956909119
 30
0.0
 11
453.99999999987801
 21
-3547.9999999988931
 31
0.0
1001
ACDBBLOCKREPETAG
1070
     1
1071
       28
1005
130969
  0
LINE
  5
13096A
  8
OBJECT
 10
569.03300858886917
 20
-3521.033008587885
 30
0.0
 11
577.99999999987813
 21
-3529.9999999988941
 31
0.0
1001
ACDBBLOCKREPETAG
1070
     1
1071
       37
1005
13096A
  0
LINE
  5
13096B
  8
OBJECT
 10
569.03300858886917
 20
-3414.9669914099022
 30
0.0
 11
577.99999999987813
 21
-3405.9999999988931
 31
0.0
1001
ACDBBLOCKREPETAG
1070
     1
1071
       38
1005
13096B
  0
POINT
  5
13096C
  8
DOTS
 10
515.99999999987813
 20
-3467.9999999988931
 30
0.0
1001
ACDBBLOCKREPETAG
1070
     1
1071
       39
1005
13096C
  0
CIRCLE
  5
13096D
  8
OBJECT
 10
515.99999999987813
 20
-3467.9999999988931
 30
0.0
 40
52.5
1001
ACDBBLOCKREPETAG
1070
     1
1071
      340
1005
13096D
  0
CIRCLE
  5
13096E
  8
OBJECT
 10
515.99999999987813
 20
-3467.9999999988931
 30
0.0
 40
57.0
1001
ACDBBLOCKREPETAG
1070
     1
1071
      362
1005
13096E
  0
CIRCLE
  5
13096F
  8
OBJECT
 10
156.0
 20
-3467.9999999988931
 30
0.0
 40
75.0
1001
ACDBBLOCKREPETAG
1070
     1
1071
       44
1005
13096F
  0
ARC
  5
130970
  8
OBJECT
 10
156.0
 20
-3467.9999999988931
 30
0.0
 40
80.0
 50
140.80503257378979
 51
219.1949674262101
1001
ACDBBLOCKREPETAG
1070
     1
1071
       45
1005
130970
  0
LINE
  5
130971
  8
OBJECT
 10
94.0
 20
-3425.7981043068748
 30
0.0
 11
94.0
 21
-3387.9999999988931
 31
0.0
1001
ACDBBLOCKREPETAG
1070
     1
1071
       46
1005
130971
  0
LINE
  5
130972
  8
OBJECT
 10
218.0
 20
-3405.9999999988931
 30
0.0
 11
218.0
 21
-3387.9999999988931
 31
0.0
1001
ACDBBLOCKREPETAG
1070
     1
1071
       22
1005
130972
  0
LINE
  5
130973
  8
OBJECT
 10
218.0
 20
-3405.9999999988931
 30
0.0
 11
236.0
 21
-3405.9999999988931
 31
0.0
1001
ACDBBLOCKREPETAG
1070
     1
1071
       24
1005
130973
  0
LINE
  5
130974
  8
OBJECT
 10
218.0
 20
-3529.9999999988941
 30
0.0
 11
236.0
 21
-3529.9999999988941
 31
0.0
1001
ACDBBLOCKREPETAG
1070
     1
1071
       25
1005
130974
  0
LINE
  5
130975
  8
OBJECT
 10
218.0
 20
-3529.9999999988941
 30
0.0
 11
218.0
 21
-3547.9999999988931
 31
0.0
1001
ACDBBLOCKREPETAG
1070
     1
1071
       27
1005
130975
  0
LINE
  5
130976
  8
OBJECT
 10
94.0
 20
-3510.2018956909119
 30
0.0
 11
94.0
 21
-3547.9999999988931
 31
0.0
1001
ACDBBLOCKREPETAG
1070
     1
1071
       28
1005
130976
  0
LINE
  5
130977
  8
OBJECT
 10
209.03300858899101
 20
-3521.033008587885
 30
0.0
 11
218.0
 21
-3529.9999999988941
 31
0.0
1001
ACDBBLOCKREPETAG
1070
     1
1071
       37
1005
130977
  0
LINE
  5
130978
  8
OBJECT
 10
209.03300858899101
 20
-3414.9669914099022
 30
0.0
 11
218.0
 21
-3405.9999999988931
 31
0.0
1001
ACDBBLOCKREPETAG
1070
     1
1071
       38
1005
130978
  0
POINT
  5
130979
  8
DOTS
 10
156.0
 20
-3467.9999999988931
 30
0.0
1001
ACDBBLOCKREPETAG
1070
     1
1071
       39
1005
130979
  0
CIRCLE
  5
13097A
  8
OBJECT
 10
156.0
 20
-3467.9999999988931
 30
0.0
 40
52.5
1001
ACDBBLOCKREPETAG
1070
     1
1071
      340
1005
13097A
  0
CIRCLE
  5
13097B
  8
OBJECT
 10
156.0
 20
-3467.9999999988931
 30
0.0
 40
57.0
1001
ACDBBLOCKREPETAG
1070
     1
1071
      362
1005
13097B
  0
CIRCLE
  5
13097C
  8
OBJECT
 10
515.99999999987813
 20
-3003.9999999990509
 30
0.0
 40
75.0
1001
ACDBBLOCKREPETAG
1070
     1
1071
       44
1005
13097C
  0
ARC
  5
13097D
  8
OBJECT
 10
515.99999999987813
 20
-3003.9999999990509
 30
0.0
 40
80.0
 50
140.80503257378879
 51
219.19496742621121
1001
ACDBBLOCKREPETAG
1070
     1
1071
       45
1005
13097D
  0
LINE
  5
13097E
  8
OBJECT
 10
453.99999999987801
 20
-2961.7981043070331
 30
0.0
 11
453.99999999987801
 21
-2923.9999999990532
 31
0.0
1001
ACDBBLOCKREPETAG
1070
     1
1071
       46
1005
13097E
  0
LINE
  5
13097F
  8
OBJECT
 10
577.99999999987813
 20
-2941.9999999990509
 30
0.0
 11
577.99999999987813
 21
-2923.9999999990532
 31
0.0
1001
ACDBBLOCKREPETAG
1070
     1
1071
       22
1005
13097F
  0
LINE
  5
130980
  8
OBJECT
 10
577.99999999987813
 20
-2941.9999999990509
 30
0.0
 11
595.99999999987813
 21
-2941.9999999990509
 31
0.0
1001
ACDBBLOCKREPETAG
1070
     1
1071
       24
1005
130980
  0
LINE
  5
130981
  8
OBJECT
 10
577.99999999987813
 20
-3065.9999999990532
 30
0.0
 11
595.99999999987813
 21
-3065.9999999990532
 31
0.0
1001
ACDBBLOCKREPETAG
1070
     1
1071
       25
1005
130981
  0
LINE
  5
130982
  8
OBJECT
 10
577.99999999987813
 20
-3065.9999999990532
 30
0.0
 11
577.99999999987813
 21
-3083.9999999990509
 31
0.0
1001
ACDBBLOCKREPETAG
1070
     1
1071
       27
1005
130982
  0
LINE
  5
130983
  8
OBJECT
 10
453.99999999987801
 20
-3046.2018956910701
 30
0.0
 11
453.99999999987801
 21
-3083.9999999990509
 31
0.0
1001
ACDBBLOCKREPETAG
1070
     1
1071
       28
1005
130983
  0
LINE
  5
130984
  8
OBJECT
 10
569.03300858886917
 20
-3057.0330085880428
 30
0.0
 11
577.99999999987813
 21
-3065.9999999990532
 31
0.0
1001
ACDBBLOCKREPETAG
1070
     1
1071
       37
1005
130984
  0
LINE
  5
130985
  8
OBJECT
 10
569.03300858886917
 20
-2950.9669914100609
 30
0.0
 11
577.99999999987813
 21
-2941.9999999990509
 31
0.0
1001
ACDBBLOCKREPETAG
1070
     1
1071
       38
1005
130985
  0
POINT
  5
130986
  8
DOTS
 10
515.99999999987813
 20
-3003.9999999990509
 30
0.0
1001
ACDBBLOCKREPETAG
1070
     1
1071
       39
1005
130986
  0
CIRCLE
  5
130987
  8
OBJECT
 10
515.99999999987813
 20
-3003.9999999990509
 30
0.0
 40
52.5
1001
ACDBBLOCKREPETAG
1070
     1
1071
      340
1005
130987
  0
CIRCLE
  5
130988
  8
OBJECT
 10
515.99999999987813
 20
-3003.9999999990509
 30
0.0
 40
57.0
1001
ACDBBLOCKREPETAG
1070
     1
1071
      362
1005
130988
  0
CIRCLE
  5
130989
  8
OBJECT
 10
156.0
 20
-3003.9999999990509
 30
0.0
 40
75.0
1001
ACDBBLOCKREPETAG
1070
     1
1071
       44
1005
130989
  0
ARC
  5
13098A
  8
OBJECT
 10
156.0
 20
-3003.9999999990509
 30
0.0
 40
80.0
 50
140.80503257378979
 51
219.1949674262101
1001
ACDBBLOCKREPETAG
1070
     1
1071
       45
1005
13098A
  0
LINE
  5
13098B
  8
OBJECT
 10
94.0
 20
-2961.7981043070322
 30
0.0
 11
94.0
 21
-2923.9999999990509
 31
0.0
1001
ACDBBLOCKREPETAG
1070
     1
1071
       46
1005
13098B
  0
LINE
  5
13098C
  8
OBJECT
 10
218.0
 20
-2941.9999999990509
 30
0.0
 11
218.0
 21
-2923.9999999990509
 31
0.0
1001
ACDBBLOCKREPETAG
1070
     1
1071
       22
1005
13098C
  0
LINE
  5
13098D
  8
OBJECT
 10
218.0
 20
-2941.9999999990509
 30
0.0
 11
236.0
 21
-2941.9999999990509
 31
0.0
1001
ACDBBLOCKREPETAG
1070
     1
1071
       24
1005
13098D
  0
LINE
  5
13098E
  8
OBJECT
 10
218.0
 20
-3065.99999999905
 30
0.0
 11
236.0
 21
-3065.99999999905
 31
0.0
1001
ACDBBLOCKREPETAG
1070
     1
1071
       25
1005
13098E
  0
LINE
  5
13098F
  8
OBJECT
 10
218.0
 20
-3065.99999999905
 30
0.0
 11
218.0
 21
-3083.9999999990509
 31
0.0
1001
ACDBBLOCKREPETAG
1070
     1
1071
       27
1005
13098F
  0
LINE
  5
130990
  8
OBJECT
 10
94.0
 20
-3046.2018956910688
 30
0.0
 11
94.0
 21
-3083.9999999990509
 31
0.0
1001
ACDBBLOCKREPETAG
1070
     1
1071
       28
1005
130990
  0
LINE
  5
130991
  8
OBJECT
 10
209.03300858899101
 20
-3057.033008588041
 30
0.0
 11
218.0
 21
-3065.99999999905
 31
0.0
1001
ACDBBLOCKREPETAG
1070
     1
1071
       37
1005
130991
  0
LINE
  5
130992
  8
OBJECT
 10
209.03300858899101
 20
-2950.9669914100609
 30
0.0
 11
218.0
 21
-2941.9999999990509
 31
0.0
1001
ACDBBLOCKREPETAG
1070
     1
1071
       38
1005
130992
  0
POINT
  5
130993
  8
DOTS
 10
156.0
 20
-3003.9999999990509
 30
0.0
1001
ACDBBLOCKREPETAG
1070
     1
1071
       39
1005
130993
  0
CIRCLE
  5
130994
  8
OBJECT
 10
156.0
 20
-3003.9999999990509
 30
0.0
 40
52.5
1001
ACDBBLOCKREPETAG
1070
     1
1071
      340
1005
130994
  0
CIRCLE
  5
130995
  8
OBJECT
 10
156.0
 20
-3003.9999999990509
 30
0.0
 40
57.0
1001
ACDBBLOCKREPETAG
1070
     1
1071
      362
1005
130995
  0
CIRCLE
  5
130996
  8
OBJECT
 10
515.99999999987779
 20
-2539.9999999992101
 30
0.0
 40
75.0
1001
ACDBBLOCKREPETAG
1070
     1
1071
       44
1005
130996
  0
ARC
  5
130997
  8
OBJECT
 10
515.99999999987779
 20
-2539.9999999992101
 30
0.0
 40
80.0
 50
140.80503257378879
 51
219.19496742621121
1001
ACDBBLOCKREPETAG
1070
     1
1071
       45
1005
130997
  0
LINE
  5
130998
  8
OBJECT
 10
453.99999999987767
 20
-2497.7981043071932
 30
0.0
 11
453.99999999987767
 21
-2459.9999999992101
 31
0.0
1001
ACDBBLOCKREPETAG
1070
     1
1071
       46
1005
130998
  0
LINE
  5
130999
  8
OBJECT
 10
577.99999999987779
 20
-2477.9999999992101
 30
0.0
 11
577.99999999987779
 21
-2459.9999999992101
 31
0.0
1001
ACDBBLOCKREPETAG
1070
     1
1071
       22
1005
130999
  0
LINE
  5
13099A
  8
OBJECT
 10
577.99999999987779
 20
-2477.9999999992101
 30
0.0
 11
595.99999999987756
 21
-2477.9999999992101
 31
0.0
1001
ACDBBLOCKREPETAG
1070
     1
1071
       24
1005
13099A
  0
LINE
  5
13099B
  8
OBJECT
 10
577.99999999987779
 20
-2601.9999999992101
 30
0.0
 11
595.99999999987756
 21
-2601.9999999992101
 31
0.0
1001
ACDBBLOCKREPETAG
1070
     1
1071
       25
1005
13099B
  0
LINE
  5
13099C
  8
OBJECT
 10
577.99999999987779
 20
-2601.9999999992101
 30
0.0
 11
577.99999999987779
 21
-2619.9999999992101
 31
0.0
1001
ACDBBLOCKREPETAG
1070
     1
1071
       27
1005
13099C
  0
LINE
  5
13099D
  8
OBJECT
 10
453.99999999987767
 20
-2582.2018956912279
 30
0.0
 11
453.99999999987767
 21
-2619.9999999992101
 31
0.0
1001
ACDBBLOCKREPETAG
1070
     1
1071
       28
1005
13099D
  0
LINE
  5
13099E
  8
OBJECT
 10
569.03300858886871
 20
-2593.0330085882001
 30
0.0
 11
577.99999999987779
 21
-2601.9999999992101
 31
0.0
1001
ACDBBLOCKREPETAG
1070
     1
1071
       37
1005
13099E
  0
LINE
  5
13099F
  8
OBJECT
 10
569.03300858886871
 20
-2486.9669914102192
 30
0.0
 11
577.99999999987779
 21
-2477.9999999992101
 31
0.0
1001
ACDBBLOCKREPETAG
1070
     1
1071
       38
1005
13099F
  0
POINT
  5
1309A0
  8
DOTS
 10
515.99999999987779
 20
-2539.9999999992101
 30
0.0
1001
ACDBBLOCKREPETAG
1070
     1
1071
       39
1005
1309A0
  0
CIRCLE
  5
1309A1
  8
OBJECT
 10
515.99999999987779
 20
-2539.9999999992101
 30
0.0
 40
52.5
1001
ACDBBLOCKREPETAG
1070
     1
1071
      340
1005
1309A1
  0
CIRCLE
  5
1309A2
  8
OBJECT
 10
515.99999999987779
 20
-2539.9999999992101
 30
0.0
 40
57.0
1001
ACDBBLOCKREPETAG
1070
     1
1071
      362
1005
1309A2
  0
CIRCLE
  5
1309A3
  8
OBJECT
 10
155.9999999999996
 20
-2539.9999999992101
 30
0.0
 40
75.0
1001
ACDBBLOCKREPETAG
1070
     1
1071
       44
1005
1309A3
  0
ARC
  5
1309A4
  8
OBJECT
 10
155.9999999999996
 20
-2539.9999999992101
 30
0.0
 40
80.0
 50
140.80503257378979
 51
219.1949674262101
1001
ACDBBLOCKREPETAG
1070
     1
1071
       45
1005
1309A4
  0
LINE
  5
1309A5
  8
OBJECT
 10
93.999999999999659
 20
-2497.7981043071932
 30
0.0
 11
93.999999999999659
 21
-2459.9999999992101
 31
0.0
1001
ACDBBLOCKREPETAG
1070
     1
1071
       46
1005
1309A5
  0
LINE
  5
1309A6
  8
OBJECT
 10
217.99999999999969
 20
-2477.9999999992101
 30
0.0
 11
217.99999999999969
 21
-2459.9999999992101
 31
0.0
1001
ACDBBLOCKREPETAG
1070
     1
1071
       22
1005
1309A6
  0
LINE
  5
1309A7
  8
OBJECT
 10
217.99999999999969
 20
-2477.9999999992101
 30
0.0
 11
235.99999999999969
 21
-2477.9999999992101
 31
0.0
1001
ACDBBLOCKREPETAG
1070
     1
1071
       24
1005
1309A7
  0
LINE
  5
1309A8
  8
OBJECT
 10
217.99999999999969
 20
-2601.9999999992101
 30
0.0
 11
235.99999999999969
 21
-2601.9999999992101
 31
0.0
1001
ACDBBLOCKREPETAG
1070
     1
1071
       25
1005
1309A8
  0
LINE
  5
1309A9
  8
OBJECT
 10
217.99999999999969
 20
-2601.9999999992101
 30
0.0
 11
217.99999999999969
 21
-2619.9999999992101
 31
0.0
1001
ACDBBLOCKREPETAG
1070
     1
1071
       27
1005
1309A9
  0
LINE
  5
1309AA
  8
OBJECT
 10
93.999999999999659
 20
-2582.2018956912279
 30
0.0
 11
93.999999999999659
 21
-2619.9999999992101
 31
0.0
1001
ACDBBLOCKREPETAG
1070
     1
1071
       28
1005
1309AA
  0
LINE
  5
1309AB
  8
OBJECT
 10
209.03300858899061
 20
-2593.0330085882001
 30
0.0
 11
217.99999999999969
 21
-2601.9999999992101
 31
0.0
1001
ACDBBLOCKREPETAG
1070
     1
1071
       37
1005
1309AB
  0
LINE
  5
1309AC
  8
OBJECT
 10
209.03300858899061
 20
-2486.9669914102192
 30
0.0
 11
217.99999999999969
 21
-2477.9999999992101
 31
0.0
1001
ACDBBLOCKREPETAG
1070
     1
1071
       38
1005
1309AC
  0
POINT
  5
1309AD
  8
DOTS
 10
155.9999999999996
 20
-2539.9999999992101
 30
0.0
1001
ACDBBLOCKREPETAG
1070
     1
1071
       39
1005
1309AD
  0
CIRCLE
  5
1309AE
  8
OBJECT
 10
155.9999999999996
 20
-2539.9999999992101
 30
0.0
 40
52.5
1001
ACDBBLOCKREPETAG
1070
     1
1071
      340
1005
1309AE
  0
CIRCLE
  5
1309AF
  8
OBJECT
 10
155.9999999999996
 20
-2539.9999999992101
 30
0.0
 40
57.0
1001
ACDBBLOCKREPETAG
1070
     1
1071
      362
1005
1309AF
  0
CIRCLE
  5
1309B0
  8
OBJECT
 10
515.99999999987779
 20
-2075.9999999993679
 30
0.0
 40
75.0
1001
ACDBBLOCKREPETAG
1070
     1
1071
       44
1005
1309B0
  0
ARC
  5
1309B1
  8
OBJECT
 10
515.99999999987779
 20
-2075.9999999993679
 30
0.0
 40
80.0
 50
140.80503257378879
 51
219.19496742621121
1001
ACDBBLOCKREPETAG
1070
     1
1071
       45
1005
1309B1
  0
LINE
  5
1309B2
  8
OBJECT
 10
453.99999999987767
 20
-2033.7981043073501
 30
0.0
 11
453.99999999987767
 21
-1995.9999999993679
 31
0.0
1001
ACDBBLOCKREPETAG
1070
     1
1071
       46
1005
1309B2
  0
LINE
  5
1309B3
  8
OBJECT
 10
577.99999999987779
 20
-2013.9999999993679
 30
0.0
 11
577.99999999987779
 21
-1995.9999999993679
 31
0.0
1001
ACDBBLOCKREPETAG
1070
     1
1071
       22
1005
1309B3
  0
LINE
  5
1309B4
  8
OBJECT
 10
577.99999999987779
 20
-2013.9999999993679
 30
0.0
 11
595.99999999987756
 21
-2013.9999999993679
 31
0.0
1001
ACDBBLOCKREPETAG
1070
     1
1071
       24
1005
1309B4
  0
LINE
  5
1309B5
  8
OBJECT
 10
577.99999999987779
 20
-2137.9999999993679
 30
0.0
 11
595.99999999987756
 21
-2137.9999999993679
 31
0.0
1001
ACDBBLOCKREPETAG
1070
     1
1071
       25
1005
1309B5
  0
LINE
  5
1309B6
  8
OBJECT
 10
577.99999999987779
 20
-2137.9999999993679
 30
0.0
 11
577.99999999987779
 21
-2155.9999999993679
 31
0.0
1001
ACDBBLOCKREPETAG
1070
     1
1071
       27
1005
1309B6
  0
LINE
  5
1309B7
  8
OBJECT
 10
453.99999999987767
 20
-2118.2018956913862
 30
0.0
 11
453.99999999987767
 21
-2155.9999999993679
 31
0.0
1001
ACDBBLOCKREPETAG
1070
     1
1071
       28
1005
1309B7
  0
LINE
  5
1309B8
  8
OBJECT
 10
569.03300858886871
 20
-2129.0330085883588
 30
0.0
 11
577.99999999987779
 21
-2137.9999999993679
 31
0.0
1001
ACDBBLOCKREPETAG
1070
     1
1071
       37
1005
1309B8
  0
LINE
  5
1309B9
  8
OBJECT
 10
569.03300858886871
 20
-2022.966991410377
 30
0.0
 11
577.99999999987779
 21
-2013.9999999993679
 31
0.0
1001
ACDBBLOCKREPETAG
1070
     1
1071
       38
1005
1309B9
  0
POINT
  5
1309BA
  8
DOTS
 10
515.99999999987779
 20
-2075.9999999993679
 30
0.0
1001
ACDBBLOCKREPETAG
1070
     1
1071
       39
1005
1309BA
  0
CIRCLE
  5
1309BB
  8
OBJECT
 10
515.99999999987779
 20
-2075.9999999993679
 30
0.0
 40
52.5
1001
ACDBBLOCKREPETAG
1070
     1
1071
      340
1005
1309BB
  0
CIRCLE
  5
1309BC
  8
OBJECT
 10
515.99999999987779
 20
-2075.9999999993679
 30
0.0
 40
57.0
1001
ACDBBLOCKREPETAG
1070
     1
1071
      362
1005
1309BC
  0
CIRCLE
  5
1309BD
  8
OBJECT
 10
155.9999999999996
 20
-2075.999999999367
 30
0.0
 40
75.0
1001
ACDBBLOCKREPETAG
1070
     1
1071
       44
1005
1309BD
  0
ARC
  5
1309BE
  8
OBJECT
 10
155.9999999999996
 20
-2075.999999999367
 30
0.0
 40
80.0
 50
140.80503257378979
 51
219.1949674262101
1001
ACDBBLOCKREPETAG
1070
     1
1071
       45
1005
1309BE
  0
LINE
  5
1309BF
  8
OBJECT
 10
93.999999999999659
 20
-2033.7981043073489
 30
0.0
 11
93.999999999999659
 21
-1995.999999999367
 31
0.0
1001
ACDBBLOCKREPETAG
1070
     1
1071
       46
1005
1309BF
  0
LINE
  5
1309C0
  8
OBJECT
 10
217.99999999999969
 20
-2013.999999999367
 30
0.0
 11
217.99999999999969
 21
-1995.999999999367
 31
0.0
1001
ACDBBLOCKREPETAG
1070
     1
1071
       22
1005
1309C0
  0
LINE
  5
1309C1
  8
OBJECT
 10
217.99999999999969
 20
-2013.999999999367
 30
0.0
 11
235.99999999999969
 21
-2013.999999999367
 31
0.0
1001
ACDBBLOCKREPETAG
1070
     1
1071
       24
1005
1309C1
  0
LINE
  5
1309C2
  8
OBJECT
 10
217.99999999999969
 20
-2137.999999999367
 30
0.0
 11
235.99999999999969
 21
-2137.999999999367
 31
0.0
1001
ACDBBLOCKREPETAG
1070
     1
1071
       25
1005
1309C2
  0
LINE
  5
1309C3
  8
OBJECT
 10
217.99999999999969
 20
-2137.999999999367
 30
0.0
 11
217.99999999999969
 21
-2155.999999999367
 31
0.0
1001
ACDBBLOCKREPETAG
1070
     1
1071
       27
1005
1309C3
  0
LINE
  5
1309C4
  8
OBJECT
 10
93.999999999999659
 20
-2118.2018956913848
 30
0.0
 11
93.999999999999659
 21
-2155.999999999367
 31
0.0
1001
ACDBBLOCKREPETAG
1070
     1
1071
       28
1005
1309C4
  0
LINE
  5
1309C5
  8
OBJECT
 10
209.03300858899061
 20
-2129.0330085883579
 30
0.0
 11
217.99999999999969
 21
-2137.999999999367
 31
0.0
1001
ACDBBLOCKREPETAG
1070
     1
1071
       37
1005
1309C5
  0
LINE
  5
1309C6
  8
OBJECT
 10
209.03300858899061
 20
-2022.9669914103761
 30
0.0
 11
217.99999999999969
 21
-2013.999999999367
 31
0.0
1001
ACDBBLOCKREPETAG
1070
     1
1071
       38
1005
1309C6
  0
POINT
  5
1309C7
  8
DOTS
 10
155.9999999999996
 20
-2075.999999999367
 30
0.0
1001
ACDBBLOCKREPETAG
1070
     1
1071
       39
1005
1309C7
  0
CIRCLE
  5
1309C8
  8
OBJECT
 10
155.9999999999996
 20
-2075.999999999367
 30
0.0
 40
52.5
1001
ACDBBLOCKREPETAG
1070
     1
1071
      340
1005
1309C8
  0
CIRCLE
  5
1309C9
  8
OBJECT
 10
155.9999999999996
 20
-2075.999999999367
 30
0.0
 40
57.0
1001
ACDBBLOCKREPETAG
1070
     1
1071
      362
1005
1309C9
  0
CIRCLE
  5
1309CA
  8
OBJECT
 10
515.99999999987801
 20
-1611.9999999995259
 30
0.0
 40
75.0
1001
ACDBBLOCKREPETAG
1070
     1
1071
       44
1005
1309CA
  0
ARC
  5
1309CB
  8
OBJECT
 10
515.99999999987801
 20
-1611.9999999995259
 30
0.0
 40
80.0
 50
140.8050325737787
 51
219.1949674262213
1001
ACDBBLOCKREPETAG
1070
     1
1071
       45
1005
1309CB
  0
LINE
  5
1309CC
  8
OBJECT
 10
453.99999999987801
 20
-1569.7981043075081
 30
0.0
 11
453.99999999987801
 21
-1531.9999999995259
 31
0.0
1001
ACDBBLOCKREPETAG
1070
     1
1071
       46
1005
1309CC
  0
LINE
  5
1309CD
  8
OBJECT
 10
577.9999999998779
 20
-1549.9999999995259
 30
0.0
 11
577.9999999998779
 21
-1531.9999999995259
 31
0.0
1001
ACDBBLOCKREPETAG
1070
     1
1071
       22
1005
1309CD
  0
LINE
  5
1309CE
  8
OBJECT
 10
577.9999999998779
 20
-1549.9999999995259
 30
0.0
 11
595.99999999987801
 21
-1549.9999999995259
 31
0.0
1001
ACDBBLOCKREPETAG
1070
     1
1071
       24
1005
1309CE
  0
LINE
  5
1309CF
  8
OBJECT
 10
577.9999999998779
 20
-1673.9999999995259
 30
0.0
 11
595.99999999987801
 21
-1673.9999999995259
 31
0.0
1001
ACDBBLOCKREPETAG
1070
     1
1071
       25
1005
1309CF
  0
LINE
  5
1309D0
  8
OBJECT
 10
577.9999999998779
 20
-1673.9999999995259
 30
0.0
 11
577.9999999998779
 21
-1691.9999999995259
 31
0.0
1001
ACDBBLOCKREPETAG
1070
     1
1071
       27
1005
1309D0
  0
LINE
  5
1309D1
  8
OBJECT
 10
453.99999999987801
 20
-1654.201895691544
 30
0.0
 11
453.99999999987801
 21
-1691.9999999995259
 31
0.0
1001
ACDBBLOCKREPETAG
1070
     1
1071
       28
1005
1309D1
  0
LINE
  5
1309D2
  8
OBJECT
 10
569.03300858886905
 20
-1665.0330085885171
 30
0.0
 11
577.9999999998779
 21
-1673.9999999995259
 31
0.0
1001
ACDBBLOCKREPETAG
1070
     1
1071
       37
1005
1309D2
  0
LINE
  5
1309D3
  8
OBJECT
 10
569.03300858886905
 20
-1558.966991410535
 30
0.0
 11
577.9999999998779
 21
-1549.9999999995259
 31
0.0
1001
ACDBBLOCKREPETAG
1070
     1
1071
       38
1005
1309D3
  0
POINT
  5
1309D4
  8
DOTS
 10
515.99999999987801
 20
-1611.9999999995259
 30
0.0
1001
ACDBBLOCKREPETAG
1070
     1
1071
       39
1005
1309D4
  0
CIRCLE
  5
1309D5
  8
OBJECT
 10
515.99999999987801
 20
-1611.9999999995259
 30
0.0
 40
52.5
1001
ACDBBLOCKREPETAG
1070
     1
1071
      340
1005
1309D5
  0
CIRCLE
  5
1309D6
  8
OBJECT
 10
515.99999999987801
 20
-1611.9999999995259
 30
0.0
 40
57.0
1001
ACDBBLOCKREPETAG
1070
     1
1071
      362
1005
1309D6
  0
CIRCLE
  5
1309D7
  8
OBJECT
 10
155.9999999999998
 20
-1611.9999999995259
 30
0.0
 40
75.0
1001
ACDBBLOCKREPETAG
1070
     1
1071
       44
1005
1309D7
  0
ARC
  5
1309D8
  8
OBJECT
 10
155.9999999999998
 20
-1611.9999999995259
 30
0.0
 40
80.0
 50
140.80503257377961
 51
219.19496742622019
1001
ACDBBLOCKREPETAG
1070
     1
1071
       45
1005
1309D8
  0
LINE
  5
1309D9
  8
OBJECT
 10
93.999999999999872
 20
-1569.7981043075081
 30
0.0
 11
93.999999999999872
 21
-1531.9999999995259
 31
0.0
1001
ACDBBLOCKREPETAG
1070
     1
1071
       46
1005
1309D9
  0
LINE
  5
1309DA
  8
OBJECT
 10
217.99999999999989
 20
-1549.9999999995259
 30
0.0
 11
217.99999999999989
 21
-1531.9999999995259
 31
0.0
1001
ACDBBLOCKREPETAG
1070
     1
1071
       22
1005
1309DA
  0
LINE
  5
1309DB
  8
OBJECT
 10
217.99999999999989
 20
-1549.9999999995259
 30
0.0
 11
235.99999999999989
 21
-1549.9999999995259
 31
0.0
1001
ACDBBLOCKREPETAG
1070
     1
1071
       24
1005
1309DB
  0
LINE
  5
1309DC
  8
OBJECT
 10
217.99999999999989
 20
-1673.9999999995259
 30
0.0
 11
235.99999999999989
 21
-1673.9999999995259
 31
0.0
1001
ACDBBLOCKREPETAG
1070
     1
1071
       25
1005
1309DC
  0
LINE
  5
1309DD
  8
OBJECT
 10
217.99999999999989
 20
-1673.9999999995259
 30
0.0
 11
217.99999999999989
 21
-1691.9999999995259
 31
0.0
1001
ACDBBLOCKREPETAG
1070
     1
1071
       27
1005
1309DD
  0
LINE
  5
1309DE
  8
OBJECT
 10
93.999999999999872
 20
-1654.201895691544
 30
0.0
 11
93.999999999999872
 21
-1691.9999999995259
 31
0.0
1001
ACDBBLOCKREPETAG
1070
     1
1071
       28
1005
1309DE
  0
LINE
  5
1309DF
  8
OBJECT
 10
209.03300858899101
 20
-1665.0330085885171
 30
0.0
 11
217.99999999999989
 21
-1673.9999999995259
 31
0.0
1001
ACDBBLOCKREPETAG
1070
     1
1071
       37
1005
1309DF
  0
LINE
  5
1309E0
  8
OBJECT
 10
209.03300858899101
 20
-1558.966991410535
 30
0.0
 11
217.99999999999989
 21
-1549.9999999995259
 31
0.0
1001
ACDBBLOCKREPETAG
1070
     1
1071
       38
1005
1309E0
  0
POINT
  5
1309E1
  8
DOTS
 10
155.9999999999998
 20
-1611.9999999995259
 30
0.0
1001
ACDBBLOCKREPETAG
1070
     1
1071
       39
1005
1309E1
  0
CIRCLE
  5
1309E2
  8
OBJECT
 10
155.9999999999998
 20
-1611.9999999995259
 30
0.0
 40
52.5
1001
ACDBBLOCKREPETAG
1070
     1
1071
      340
1005
1309E2
  0
CIRCLE
  5
1309E3
  8
OBJECT
 10
155.9999999999998
 20
-1611.9999999995259
 30
0.0
 40
57.0
1001
ACDBBLOCKREPETAG
1070
     1
1071
      362
1005
1309E3
  0
CIRCLE
  5
1309E4
  8
OBJECT
 10
515.99999999987801
 20
-1147.999999999684
 30
0.0
 40
75.0
1001
ACDBBLOCKREPETAG
1070
     1
1071
       44
1005
1309E4
  0
ARC
  5
1309E5
  8
OBJECT
 10
515.99999999987801
 20
-1147.999999999684
 30
0.0
 40
80.0
 50
140.8050325737787
 51
219.1949674262213
1001
ACDBBLOCKREPETAG
1070
     1
1071
       45
1005
1309E5
  0
LINE
  5
1309E6
  8
OBJECT
 10
453.99999999987801
 20
-1105.7981043076661
 30
0.0
 11
453.99999999987801
 21
-1067.999999999684
 31
0.0
1001
ACDBBLOCKREPETAG
1070
     1
1071
       46
1005
1309E6
  0
LINE
  5
1309E7
  8
OBJECT
 10
577.9999999998779
 20
-1085.999999999684
 30
0.0
 11
577.9999999998779
 21
-1067.999999999684
 31
0.0
1001
ACDBBLOCKREPETAG
1070
     1
1071
       22
1005
1309E7
  0
LINE
  5
1309E8
  8
OBJECT
 10
577.9999999998779
 20
-1085.999999999684
 30
0.0
 11
595.99999999987801
 21
-1085.999999999684
 31
0.0
1001
ACDBBLOCKREPETAG
1070
     1
1071
       24
1005
1309E8
  0
LINE
  5
1309E9
  8
OBJECT
 10
577.9999999998779
 20
-1209.999999999684
 30
0.0
 11
595.99999999987801
 21
-1209.999999999684
 31
0.0
1001
ACDBBLOCKREPETAG
1070
     1
1071
       25
1005
1309E9
  0
LINE
  5
1309EA
  8
OBJECT
 10
577.9999999998779
 20
-1209.999999999684
 30
0.0
 11
577.9999999998779
 21
-1227.999999999684
 31
0.0
1001
ACDBBLOCKREPETAG
1070
     1
1071
       27
1005
1309EA
  0
LINE
  5
1309EB
  8
OBJECT
 10
453.99999999987801
 20
-1190.2018956917029
 30
0.0
 11
453.99999999987801
 21
-1227.999999999684
 31
0.0
1001
ACDBBLOCKREPETAG
1070
     1
1071
       28
1005
1309EB
  0
LINE
  5
1309EC
  8
OBJECT
 10
569.03300858886905
 20
-1201.0330085886751
 30
0.0
 11
577.9999999998779
 21
-1209.999999999684
 31
0.0
1001
ACDBBLOCKREPETAG
1070
     1
1071
       37
1005
1309EC
  0
LINE
  5
1309ED
  8
OBJECT
 10
569.03300858886905
 20
-1094.966991410693
 30
0.0
 11
577.9999999998779
 21
-1085.999999999684
 31
0.0
1001
ACDBBLOCKREPETAG
1070
     1
1071
       38
1005
1309ED
  0
POINT
  5
1309EE
  8
DOTS
 10
515.99999999987801
 20
-1147.999999999684
 30
0.0
1001
ACDBBLOCKREPETAG
1070
     1
1071
       39
1005
1309EE
  0
CIRCLE
  5
1309EF
  8
OBJECT
 10
515.99999999987801
 20
-1147.999999999684
 30
0.0
 40
52.5
1001
ACDBBLOCKREPETAG
1070
     1
1071
      340
1005
1309EF
  0
CIRCLE
  5
1309F0
  8
OBJECT
 10
515.99999999987801
 20
-1147.999999999684
 30
0.0
 40
57.0
1001
ACDBBLOCKREPETAG
1070
     1
1071
      362
1005
1309F0
  0
CIRCLE
  5
1309F1
  8
OBJECT
 10
155.9999999999998
 20
-1147.999999999683
 30
0.0
 40
75.0
1001
ACDBBLOCKREPETAG
1070
     1
1071
       44
1005
1309F1
  0
ARC
  5
1309F2
  8
OBJECT
 10
155.9999999999998
 20
-1147.999999999683
 30
0.0
 40
80.0
 50
140.80503257377961
 51
219.19496742622019
1001
ACDBBLOCKREPETAG
1070
     1
1071
       45
1005
1309F2
  0
LINE
  5
1309F3
  8
OBJECT
 10
93.999999999999872
 20
-1105.798104307665
 30
0.0
 11
93.999999999999872
 21
-1067.999999999683
 31
0.0
1001
ACDBBLOCKREPETAG
1070
     1
1071
       46
1005
1309F3
  0
LINE
  5
1309F4
  8
OBJECT
 10
217.99999999999989
 20
-1085.999999999683
 30
0.0
 11
217.99999999999989
 21
-1067.999999999683
 31
0.0
1001
ACDBBLOCKREPETAG
1070
     1
1071
       22
1005
1309F4
  0
LINE
  5
1309F5
  8
OBJECT
 10
217.99999999999989
 20
-1085.999999999683
 30
0.0
 11
235.99999999999989
 21
-1085.999999999683
 31
0.0
1001
ACDBBLOCKREPETAG
1070
     1
1071
       24
1005
1309F5
  0
LINE
  5
1309F6
  8
OBJECT
 10
217.99999999999989
 20
-1209.999999999683
 30
0.0
 11
235.99999999999989
 21
-1209.999999999683
 31
0.0
1001
ACDBBLOCKREPETAG
1070
     1
1071
       25
1005
1309F6
  0
LINE
  5
1309F7
  8
OBJECT
 10
217.99999999999989
 20
-1209.999999999683
 30
0.0
 11
217.99999999999989
 21
-1227.999999999683
 31
0.0
1001
ACDBBLOCKREPETAG
1070
     1
1071
       27
1005
1309F7
  0
LINE
  5
1309F8
  8
OBJECT
 10
93.999999999999872
 20
-1190.201895691702
 30
0.0
 11
93.999999999999872
 21
-1227.999999999683
 31
0.0
1001
ACDBBLOCKREPETAG
1070
     1
1071
       28
1005
1309F8
  0
LINE
  5
1309F9
  8
OBJECT
 10
209.03300858899101
 20
-1201.033008588674
 30
0.0
 11
217.99999999999989
 21
-1209.999999999683
 31
0.0
1001
ACDBBLOCKREPETAG
1070
     1
1071
       37
1005
1309F9
  0
LINE
  5
1309FA
  8
OBJECT
 10
209.03300858899101
 20
-1094.9669914106919
 30
0.0
 11
217.99999999999989
 21
-1085.999999999683
 31
0.0
1001
ACDBBLOCKREPETAG
1070
     1
1071
       38
1005
1309FA
  0
POINT
  5
1309FB
  8
DOTS
 10
155.9999999999998
 20
-1147.999999999683
 30
0.0
1001
ACDBBLOCKREPETAG
1070
     1
1071
       39
1005
1309FB
  0
CIRCLE
  5
1309FC
  8
OBJECT
 10
155.9999999999998
 20
-1147.999999999683
 30
0.0
 40
52.5
1001
ACDBBLOCKREPETAG
1070
     1
1071
      340
1005
1309FC
  0
CIRCLE
  5
1309FD
  8
OBJECT
 10
155.9999999999998
 20
-1147.999999999683
 30
0.0
 40
57.0
1001
ACDBBLOCKREPETAG
1070
     1
1071
      362
1005
1309FD
  0
CIRCLE
  5
1309FE
  8
OBJECT
 10
515.99999999987813
 20
-683.99999999984254
 30
0.0
 40
75.0
1001
ACDBBLOCKREPETAG
1070
     1
1071
       44
1005
1309FE
  0
ARC
  5
1309FF
  8
OBJECT
 10
515.99999999987813
 20
-683.99999999984254
 30
0.0
 40
80.0
 50
140.8050325737787
 51
219.1949674262213
1001
ACDBBLOCKREPETAG
1070
     1
1071
       45
1005
1309FF
  0
LINE
  5
130A00
  8
OBJECT
 10
453.99999999987801
 20
-641.79810430782425
 30
0.0
 11
453.99999999987801
 21
-603.99999999984266
 31
0.0
1001
ACDBBLOCKREPETAG
1070
     1
1071
       46
1005
130A00
  0
LINE
  5
130A01
  8
OBJECT
 10
577.99999999987813
 20
-621.99999999984254
 30
0.0
 11
577.99999999987813
 21
-603.99999999984266
 31
0.0
1001
ACDBBLOCKREPETAG
1070
     1
1071
       22
1005
130A01
  0
LINE
  5
130A02
  8
OBJECT
 10
577.99999999987813
 20
-621.99999999984254
 30
0.0
 11
595.99999999987813
 21
-621.99999999984254
 31
0.0
1001
ACDBBLOCKREPETAG
1070
     1
1071
       24
1005
130A02
  0
LINE
  5
130A03
  8
OBJECT
 10
577.99999999987813
 20
-745.99999999984254
 30
0.0
 11
595.99999999987813
 21
-745.99999999984254
 31
0.0
1001
ACDBBLOCKREPETAG
1070
     1
1071
       25
1005
130A03
  0
LINE
  5
130A04
  8
OBJECT
 10
577.99999999987813
 20
-745.99999999984254
 30
0.0
 11
577.99999999987813
 21
-763.99999999984254
 31
0.0
1001
ACDBBLOCKREPETAG
1070
     1
1071
       27
1005
130A04
  0
LINE
  5
130A05
  8
OBJECT
 10
453.99999999987801
 20
-726.20189569186095
 30
0.0
 11
453.99999999987801
 21
-763.99999999984254
 31
0.0
1001
ACDBBLOCKREPETAG
1070
     1
1071
       28
1005
130A05
  0
LINE
  5
130A06
  8
OBJECT
 10
569.03300858886917
 20
-737.03300858883381
 30
0.0
 11
577.99999999987813
 21
-745.99999999984254
 31
0.0
1001
ACDBBLOCKREPETAG
1070
     1
1071
       37
1005
130A06
  0
LINE
  5
130A07
  8
OBJECT
 10
569.03300858886917
 20
-630.96699141085162
 30
0.0
 11
577.99999999987813
 21
-621.99999999984254
 31
0.0
1001
ACDBBLOCKREPETAG
1070
     1
1071
       38
1005
130A07
  0
POINT
  5
130A08
  8
DOTS
 10
515.99999999987813
 20
-683.99999999984254
 30
0.0
1001
ACDBBLOCKREPETAG
1070
     1
1071
       39
1005
130A08
  0
CIRCLE
  5
130A09
  8
OBJECT
 10
515.99999999987813
 20
-683.99999999984254
 30
0.0
 40
52.5
1001
ACDBBLOCKREPETAG
1070
     1
1071
      340
1005
130A09
  0
CIRCLE
  5
130A0A
  8
OBJECT
 10
515.99999999987813
 20
-683.99999999984254
 30
0.0
 40
57.0
1001
ACDBBLOCKREPETAG
1070
     1
1071
      362
1005
130A0A
  0
CIRCLE
  5
130A0B
  8
OBJECT
 10
156.0
 20
-683.99999999984254
 30
0.0
 40
75.0
1001
ACDBBLOCKREPETAG
1070
     1
1071
       44
1005
130A0B
  0
ARC
  5
130A0C
  8
OBJECT
 10
156.0
 20
-683.99999999984254
 30
0.0
 40
80.0
 50
140.80503257377961
 51
219.19496742622019
1001
ACDBBLOCKREPETAG
1070
     1
1071
       45
1005
130A0C
  0
LINE
  5
130A0D
  8
OBJECT
 10
94.0
 20
-641.79810430782425
 30
0.0
 11
94.0
 21
-603.99999999984266
 31
0.0
1001
ACDBBLOCKREPETAG
1070
     1
1071
       46
1005
130A0D
  0
LINE
  5
130A0E
  8
OBJECT
 10
218.0
 20
-621.99999999984254
 30
0.0
 11
218.0
 21
-603.99999999984266
 31
0.0
1001
ACDBBLOCKREPETAG
1070
     1
1071
       22
1005
130A0E
  0
LINE
  5
130A0F
  8
OBJECT
 10
218.0
 20
-621.99999999984254
 30
0.0
 11
236.0
 21
-621.99999999984254
 31
0.0
1001
ACDBBLOCKREPETAG
1070
     1
1071
       24
1005
130A0F
  0
LINE
  5
130A10
  8
OBJECT
 10
218.0
 20
-745.99999999984254
 30
0.0
 11
236.0
 21
-745.99999999984254
 31
0.0
1001
ACDBBLOCKREPETAG
1070
     1
1071
       25
1005
130A10
  0
LINE
  5
130A11
  8
OBJECT
 10
218.0
 20
-745.99999999984254
 30
0.0
 11
218.0
 21
-763.99999999984254
 31
0.0
1001
ACDBBLOCKREPETAG
1070
     1
1071
       27
1005
130A11
  0
LINE
  5
130A12
  8
OBJECT
 10
94.0
 20
-726.20189569186095
 30
0.0
 11
94.0
 21
-763.99999999984254
 31
0.0
1001
ACDBBLOCKREPETAG
1070
     1
1071
       28
1005
130A12
  0
LINE
  5
130A13
  8
OBJECT
 10
209.03300858899101
 20
-737.03300858883381
 30
0.0
 11
218.0
 21
-745.99999999984254
 31
0.0
1001
ACDBBLOCKREPETAG
1070
     1
1071
       37
1005
130A13
  0
LINE
  5
130A14
  8
OBJECT
 10
209.03300858899101
 20
-630.96699141085162
 30
0.0
 11
218.0
 21
-621.99999999984254
 31
0.0
1001
ACDBBLOCKREPETAG
1070
     1
1071
       38
1005
130A14
  0
POINT
  5
130A15
  8
DOTS
 10
156.0
 20
-683.99999999984254
 30
0.0
1001
ACDBBLOCKREPETAG
1070
     1
1071
       39
1005
130A15
  0
CIRCLE
  5
130A16
  8
OBJECT
 10
156.0
 20
-683.99999999984254
 30
0.0
 40
52.5
1001
ACDBBLOCKREPETAG
1070
     1
1071
      340
1005
130A16
  0
CIRCLE
  5
130A17
  8
OBJECT
 10
156.0
 20
-683.99999999984254
 30
0.0
 40
57.0
1001
ACDBBLOCKREPETAG
1070
     1
1071
      362
1005
130A17
  0
CIRCLE
  5
130A18
  8
OBJECT
 10
515.99999999987813
 20
-220.00000000000091
 30
0.0
 40
75.0
1001
ACDBBLOCKREPETAG
1070
     1
1071
       44
1005
130A18
  0
ARC
  5
130A19
  8
OBJECT
 10
515.99999999987813
 20
-220.00000000000091
 30
0.0
 40
80.0
 50
140.80503257378001
 51
219.19496742621999
1001
ACDBBLOCKREPETAG
1070
     1
1071
       45
1005
130A19
  0
LINE
  5
130A1A
  8
OBJECT
 10
453.99999999987801
 20
-177.79810430798241
 30
0.0
 11
453.99999999987801
 21
-140.0000000000008
 31
0.0
1001
ACDBBLOCKREPETAG
1070
     1
1071
       46
1005
130A1A
  0
LINE
  5
130A1B
  8
OBJECT
 10
577.99999999987813
 20
-158.0000000000008
 30
0.0
 11
577.99999999987813
 21
-140.0000000000008
 31
0.0
1001
ACDBBLOCKREPETAG
1070
     1
1071
       22
1005
130A1B
  0
LINE
  5
130A1C
  8
OBJECT
 10
577.99999999987813
 20
-158.0000000000008
 30
0.0
 11
595.99999999987813
 21
-158.0000000000008
 31
0.0
1001
ACDBBLOCKREPETAG
1070
     1
1071
       24
1005
130A1C
  0
LINE
  5
130A1D
  8
OBJECT
 10
577.99999999987813
 20
-282.00000000000091
 30
0.0
 11
595.99999999987813
 21
-282.00000000000091
 31
0.0
1001
ACDBBLOCKREPETAG
1070
     1
1071
       25
1005
130A1D
  0
LINE
  5
130A1E
  8
OBJECT
 10
577.99999999987813
 20
-282.00000000000091
 30
0.0
 11
577.99999999987813
 21
-300.0000000000008
 31
0.0
1001
ACDBBLOCKREPETAG
1070
     1
1071
       27
1005
130A1E
  0
LINE
  5
130A1F
  8
OBJECT
 10
453.99999999987801
 20
-262.20189569201921
 30
0.0
 11
453.99999999987801
 21
-300.0000000000008
 31
0.0
1001
ACDBBLOCKREPETAG
1070
     1
1071
       28
1005
130A1F
  0
LINE
  5
130A20
  8
OBJECT
 10
569.03300858886917
 20
-273.03300858899189
 30
0.0
 11
577.99999999987813
 21
-282.00000000000091
 31
0.0
1001
ACDBBLOCKREPETAG
1070
     1
1071
       37
1005
130A20
  0
LINE
  5
130A21
  8
OBJECT
 10
569.03300858886917
 20
-166.96699141100979
 30
0.0
 11
577.99999999987813
 21
-158.0000000000008
 31
0.0
1001
ACDBBLOCKREPETAG
1070
     1
1071
       38
1005
130A21
  0
POINT
  5
130A22
  8
DOTS
 10
515.99999999987813
 20
-220.00000000000091
 30
0.0
1001
ACDBBLOCKREPETAG
1070
     1
1071
       39
1005
130A22
  0
CIRCLE
  5
130A23
  8
OBJECT
 10
515.99999999987813
 20
-220.00000000000091
 30
0.0
 40
52.5
1001
ACDBBLOCKREPETAG
1070
     1
1071
      340
1005
130A23
  0
CIRCLE
  5
130A24
  8
OBJECT
 10
515.99999999987813
 20
-220.00000000000091
 30
0.0
 40
57.0
1001
ACDBBLOCKREPETAG
1070
     1
1071
      362
1005
130A24
  0
CIRCLE
  5
130A25
  8
OBJECT
 10
156.0
 20
-220.0
 30
0.0
 40
75.0
1001
ACDBBLOCKREPETAG
1070
     1
1071
       44
1005
130A25
  0
ARC
  5
130A26
  8
OBJECT
 10
156.0
 20
-220.0
 30
0.0
 40
80.0
 50
140.80503257378101
 51
219.19496742621899
1001
ACDBBLOCKREPETAG
1070
     1
1071
       45
1005
130A26
  0
LINE
  5
130A27
  8
OBJECT
 10
94.0
 20
-177.79810430798159
 30
0.0
 11
94.0
 21
-140.0
 31
0.0
1001
ACDBBLOCKREPETAG
1070
     1
1071
       46
1005
130A27
  0
LINE
  5
130A28
  8
OBJECT
 10
218.0
 20
-158.0
 30
0.0
 11
218.0
 21
-140.0
 31
0.0
1001
ACDBBLOCKREPETAG
1070
     1
1071
       22
1005
130A28
  0
LINE
  5
130A29
  8
OBJECT
 10
218.0
 20
-158.0
 30
0.0
 11
236.0
 21
-158.0
 31
0.0
1001
ACDBBLOCKREPETAG
1070
     1
1071
       24
1005
130A29
  0
LINE
  5
130A2A
  8
OBJECT
 10
218.0
 20
-282.0
 30
0.0
 11
236.0
 21
-282.0
 31
0.0
1001
ACDBBLOCKREPETAG
1070
     1
1071
       25
1005
130A2A
  0
LINE
  5
130A2B
  8
OBJECT
 10
218.0
 20
-282.0
 30
0.0
 11
218.0
 21
-300.0
 31
0.0
1001
ACDBBLOCKREPETAG
1070
     1
1071
       27
1005
130A2B
  0
LINE
  5
130A2C
  8
OBJECT
 10
94.0
 20
-262.20189569201841
 30
0.0
 11
94.0
 21
-300.0
 31
0.0
1001
ACDBBLOCKREPETAG
1070
     1
1071
       28
1005
130A2C
  0
LINE
  5
130A2D
  8
OBJECT
 10
209.03300858899101
 20
-273.03300858899098
 30
0.0
 11
218.0
 21
-282.0
 31
0.0
1001
ACDBBLOCKREPETAG
1070
     1
1071
       37
1005
130A2D
  0
LINE
  5
130A2E
  8
OBJECT
 10
209.03300858899101
 20
-166.96699141100891
 30
0.0
 11
218.0
 21
-158.0
 31
0.0
1001
ACDBBLOCKREPETAG
1070
     1
1071
       38
1005
130A2E
  0
POINT
  5
130A2F
  8
DOTS
 10
156.0
 20
-220.0
 30
0.0
1001
ACDBBLOCKREPETAG
1070
     1
1071
       39
1005
130A2F
  0
CIRCLE
  5
130A30
  8
OBJECT
 10
156.0
 20
-220.0
 30
0.0
 40
52.5
1001
ACDBBLOCKREPETAG
1070
     1
1071
      340
1005
130A30
  0
CIRCLE
  5
130A31
  8
OBJECT
 10
156.0
 20
-220.0
 30
0.0
 40
57.0
1001
ACDBBLOCKREPETAG
1070
     1
1071
      362
1005
130A31
  0
LINE
  5
130A32
  8
CENTER
 10
3899.0
 20
-199.99999999999909
 30
0.0
 11
3920.0
 21
-199.99999999999909
 31
0.0
1001
ACDBBLOCKREPETAG
1070
     1
1071
        0
1005
130A32
  0
LINE
  5
130A33
  8
OBJECT
 10
3917.0
 20
-261.99999999999909
 30
0.0
 11
3920.0
 21
-261.99999999999909
 31
0.0
1001
ACDBBLOCKREPETAG
1070
     1
1071
        1
1005
130A33
  0
ARC
  5
130A34
  8
OBJECT
 10
3917.0
 20
-258.99999999999909
 30
0.0
 40
3.0
 50
180.0
 51
270.0
1001
ACDBBLOCKREPETAG
1070
     1
1071
        2
1005
130A34
  0
LINE
  5
130A35
  8
OBJECT
 10
3920.0
 20
-137.99999999999909
 30
0.0
 11
3917.0
 21
-137.99999999999909
 31
0.0
1001
ACDBBLOCKREPETAG
1070
     1
1071
        3
1005
130A35
  0
ARC
  5
130A36
  8
OBJECT
 10
3917.0
 20
-140.99999999999909
 30
0.0
 40
3.0
 50
90.0
 51
180.0
1001
ACDBBLOCKREPETAG
1070
     1
1071
        4
1005
130A36
  0
LINE
  5
130A37
  8
OBJECT
 10
3914.0
 20
-140.99999999999909
 30
0.0
 11
3914.0
 21
-258.99999999999909
 31
0.0
1001
ACDBBLOCKREPETAG
1070
     1
1071
        5
1005
130A37
  0
LINE
  5
130A38
  8
OBJECT
 10
4062.0
 20
-332.99999999999898
 30
0.0
 11
4062.0
 21
-339.99999999999909
 31
0.0
1001
ACDBBLOCKREPETAG
1070
     1
1071
       47
1005
130A38
  0
LINE
  5
130A39
  8
OBJECT
 10
4062.0
 20
-339.99999999999909
 30
0.0
 11
3938.0
 21
-339.99999999999909
 31
0.0
1001
ACDBBLOCKREPETAG
1070
     1
1071
       48
1005
130A39
  0
LINE
  5
130A3A
  8
OBJECT
 10
3938.0
 20
-339.99999999999909
 30
0.0
 11
3938.0
 21
-332.99999999999898
 31
0.0
1001
ACDBBLOCKREPETAG
1070
     1
1071
       49
1005
130A3A
  0
LINE
  5
130A3B
  8
OBJECT
 10
3938.0
 20
-332.99999999999898
 30
0.0
 11
4062.0
 21
-332.99999999999898
 31
0.0
1001
ACDBBLOCKREPETAG
1070
     1
1071
       50
1005
130A3B
  0
LINE
  5
130A3C
  8
CENTER
 10
4000.0
 20
-354.99999999999909
 30
0.0
 11
4000.0
 21
-279.99999999999909
 31
0.0
1001
ACDBBLOCKREPETAG
1070
     1
1071
       51
1005
130A3C
  0
LINE
  5
130A3D
  8
OBJECT
 10
4059.0
 20
-332.99999999999898
 30
0.0
 11
4059.0
 21
-296.99999999999898
 31
0.0
1001
ACDBBLOCKREPETAG
1070
     1
1071
       52
1005
130A3D
  0
LINE
  5
130A3E
  8
OBJECT
 10
4059.0
 20
-296.99999999999898
 30
0.0
 11
3941.0
 21
-296.99999999999898
 31
0.0
1001
ACDBBLOCKREPETAG
1070
     1
1071
       53
1005
130A3E
  0
LINE
  5
130A3F
  8
OBJECT
 10
3941.0
 20
-296.99999999999898
 30
0.0
 11
3941.0
 21
-332.99999999999898
 31
0.0
1001
ACDBBLOCKREPETAG
1070
     1
1071
       54
1005
130A3F
  0
LINE
  5
130A40
  8
OBJECT
 10
4054.4999999999991
 20
-292.99999999999898
 30
0.0
 11
4054.4999999999991
 21
-285.99999999999898
 31
0.0
1001
ACDBBLOCKREPETAG
1070
     1
1071
       55
1005
130A40
  0
LINE
  5
130A41
  8
OBJECT
 10
3945.5
 20
-285.99999999999898
 30
0.0
 11
3945.5
 21
-292.99999999999898
 31
0.0
1001
ACDBBLOCKREPETAG
1070
     1
1071
       56
1005
130A41
  0
LINE
  5
130A42
  8
OBJECT
 10
3945.5
 20
-292.99999999999898
 30
0.0
 11
4054.4999999999991
 21
-292.99999999999898
 31
0.0
1001
ACDBBLOCKREPETAG
1070
     1
1071
       57
1005
130A42
  0
LINE
  5
130A43
  8
OBJECT
 10
4059.0
 20
-296.99999999999898
 30
0.0
 11
4054.4999999999991
 21
-292.99999999999898
 31
0.0
1001
ACDBBLOCKREPETAG
1070
     1
1071
       58
1005
130A43
  0
LINE
  5
130A44
  8
OBJECT
 10
3941.0
 20
-296.99999999999898
 30
0.0
 11
3945.5
 21
-292.99999999999898
 31
0.0
1001
ACDBBLOCKREPETAG
1070
     1
1071
       59
1005
130A44
  0
LINE
  5
130A45
  8
OBJECT
 10
4062.0
 20
-283.0
 30
0.0
 11
4062.0
 21
-279.99999999999909
 31
0.0
1001
ACDBBLOCKREPETAG
1070
     1
1071
       60
1005
130A45
  0
ARC
  5
130A46
  8
OBJECT
 10
4059.0
 20
-283.0
 30
0.0
 40
3.0
 50
270.0
 51
0.0
1001
ACDBBLOCKREPETAG
1070
     1
1071
       61
1005
130A46
  0
LINE
  5
130A47
  8
OBJECT
 10
3938.0
 20
-279.99999999999909
 30
0.0
 11
3938.0
 21
-282.99999999999818
 31
0.0
1001
ACDBBLOCKREPETAG
1070
     1
1071
       62
1005
130A47
  0
ARC
  5
130A48
  8
OBJECT
 10
3941.0
 20
-282.99999999999818
 30
0.0
 40
3.0
 50
180.0
 51
270.0
1001
ACDBBLOCKREPETAG
1070
     1
1071
       63
1005
130A48
  0
LINE
  5
130A49
  8
OBJECT
 10
3941.0
 20
-285.99999999999818
 30
0.0
 11
4059.0
 21
-286.0
 31
0.0
1001
ACDBBLOCKREPETAG
1070
     1
1071
       64
1005
130A49
  0
LINE
  5
130A4A
  8
HIDDEN
 10
4044.5
 20
-287.99999999999909
 30
0.0
 11
3955.5
 21
-287.99999999999909
 31
0.0
1001
ACDBBLOCKREPETAG
1070
     1
1071
       65
1005
130A4A
  0
LINE
  5
130A4B
  8
OBJECT
 10
4133.0
 20
-137.99999999999909
 30
0.0
 11
4140.0
 21
-137.99999999999909
 31
0.0
1001
ACDBBLOCKREPETAG
1070
     1
1071
       47
1005
130A4B
  0
LINE
  5
130A4C
  8
OBJECT
 10
4140.0
 20
-137.99999999999909
 30
0.0
 11
4140.0
 21
-261.99999999999909
 31
0.0
1001
ACDBBLOCKREPETAG
1070
     1
1071
       48
1005
130A4C
  0
LINE
  5
130A4D
  8
OBJECT
 10
4140.0
 20
-261.99999999999909
 30
0.0
 11
4133.0
 21
-261.99999999999909
 31
0.0
1001
ACDBBLOCKREPETAG
1070
     1
1071
       49
1005
130A4D
  0
LINE
  5
130A4E
  8
OBJECT
 10
4133.0
 20
-261.99999999999909
 30
0.0
 11
4133.0
 21
-137.99999999999909
 31
0.0
1001
ACDBBLOCKREPETAG
1070
     1
1071
       50
1005
130A4E
  0
LINE
  5
130A4F
  8
CENTER
 10
4155.0
 20
-199.99999999999909
 30
0.0
 11
4080.0
 21
-199.99999999999909
 31
0.0
1001
ACDBBLOCKREPETAG
1070
     1
1071
       51
1005
130A4F
  0
LINE
  5
130A50
  8
OBJECT
 10
4133.0
 20
-140.99999999999909
 30
0.0
 11
4097.0
 21
-140.99999999999909
 31
0.0
1001
ACDBBLOCKREPETAG
1070
     1
1071
       52
1005
130A50
  0
LINE
  5
130A51
  8
OBJECT
 10
4097.0
 20
-140.99999999999909
 30
0.0
 11
4097.0
 21
-258.99999999999909
 31
0.0
1001
ACDBBLOCKREPETAG
1070
     1
1071
       53
1005
130A51
  0
LINE
  5
130A52
  8
OBJECT
 10
4097.0
 20
-258.99999999999909
 30
0.0
 11
4133.0
 21
-258.99999999999909
 31
0.0
1001
ACDBBLOCKREPETAG
1070
     1
1071
       54
1005
130A52
  0
LINE
  5
130A53
  8
OBJECT
 10
4093.0
 20
-145.49999999999909
 30
0.0
 11
4086.0
 21
-145.49999999999909
 31
0.0
1001
ACDBBLOCKREPETAG
1070
     1
1071
       55
1005
130A53
  0
LINE
  5
130A54
  8
OBJECT
 10
4086.0
 20
-254.49999999999909
 30
0.0
 11
4093.0
 21
-254.49999999999909
 31
0.0
1001
ACDBBLOCKREPETAG
1070
     1
1071
       56
1005
130A54
  0
LINE
  5
130A55
  8
OBJECT
 10
4093.0
 20
-254.49999999999909
 30
0.0
 11
4093.0
 21
-145.49999999999909
 31
0.0
1001
ACDBBLOCKREPETAG
1070
     1
1071
       57
1005
130A55
  0
LINE
  5
130A56
  8
OBJECT
 10
4097.0
 20
-140.99999999999909
 30
0.0
 11
4093.0
 21
-145.49999999999909
 31
0.0
1001
ACDBBLOCKREPETAG
1070
     1
1071
       58
1005
130A56
  0
LINE
  5
130A57
  8
OBJECT
 10
4097.0
 20
-258.99999999999909
 30
0.0
 11
4093.0
 21
-254.49999999999909
 31
0.0
1001
ACDBBLOCKREPETAG
1070
     1
1071
       59
1005
130A57
  0
LINE
  5
130A58
  8
OBJECT
 10
4083.0
 20
-137.99999999999909
 30
0.0
 11
4080.0
 21
-137.99999999999909
 31
0.0
1001
ACDBBLOCKREPETAG
1070
     1
1071
       60
1005
130A58
  0
ARC
  5
130A59
  8
OBJECT
 10
4083.0
 20
-140.99999999999909
 30
0.0
 40
3.0
 50
0.0
 51
90.0
1001
ACDBBLOCKREPETAG
1070
     1
1071
       61
1005
130A59
  0
LINE
  5
130A5A
  8
OBJECT
 10
4080.0
 20
-261.99999999999909
 30
0.0
 11
4083.0
 21
-261.99999999999909
 31
0.0
1001
ACDBBLOCKREPETAG
1070
     1
1071
       62
1005
130A5A
  0
ARC
  5
130A5B
  8
OBJECT
 10
4083.0
 20
-258.99999999999909
 30
0.0
 40
3.0
 50
270.0
 51
0.0
1001
ACDBBLOCKREPETAG
1070
     1
1071
       63
1005
130A5B
  0
LINE
  5
130A5C
  8
OBJECT
 10
4086.0
 20
-258.99999999999909
 30
0.0
 11
4086.0
 21
-140.99999999999909
 31
0.0
1001
ACDBBLOCKREPETAG
1070
     1
1071
       64
1005
130A5C
  0
LINE
  5
130A5D
  8
HIDDEN
 10
4088.0
 20
-155.49999999999909
 30
0.0
 11
4088.0
 21
-244.49999999999909
 31
0.0
1001
ACDBBLOCKREPETAG
1070
     1
1071
       65
1005
130A5D
  0
LINE
  5
130A5E
  8
OBJECT
 10
3917.0
 20
-634.0
 30
0.0
 11
3920.0
 21
-634.0
 31
0.0
1001
ACDBBLOCKREPETAG
1070
     1
1071
        1
1005
130A5E
  0
ARC
  5
130A5F
  8
OBJECT
 10
3917.0
 20
-637.0
 30
0.0
 40
3.0
 50
90.0
 51
180.0
1001
ACDBBLOCKREPETAG
1070
     1
1071
        2
1005
130A5F
  0
LINE
  5
130A60
  8
OBJECT
 10
3920.0
 20
-758.0
 30
0.0
 11
3917.0
 21
-758.0
 31
0.0
1001
ACDBBLOCKREPETAG
1070
     1
1071
        3
1005
130A60
  0
ARC
  5
130A61
  8
OBJECT
 10
3917.0
 20
-755.0
 30
0.0
 40
3.0
 50
180.0
 51
270.0
1001
ACDBBLOCKREPETAG
1070
     1
1071
        4
1005
130A61
  0
LINE
  5
130A62
  8
OBJECT
 10
3914.0
 20
-755.0
 30
0.0
 11
3914.0
 21
-637.0
 31
0.0
1001
ACDBBLOCKREPETAG
1070
     1
1071
        5
1005
130A62
  0
LINE
  5
130A63
  8
CENTER
 10
4077.0
 20
-696.0
 30
0.0
 11
3923.0
 21
-696.0
 31
0.0
1001
ACDBBLOCKREPETAG
1070
     1
1071
       17
1005
130A63
  0
CIRCLE
  5
130A64
  8
OBJECT
 10
4000.0
 20
-696.0
 30
0.0
 40
41.5
1001
ACDBBLOCKREPETAG
1070
     1
1071
       19
1005
130A64
  0
CIRCLE
  5
130A65
  8
OBJECT
 10
4000.0
 20
-696.0
 30
0.0
 40
54.0
1001
ACDBBLOCKREPETAG
1070
     1
1071
       20
1005
130A65
  0
ARC
  5
130A66
  8
OBJECT
 10
4000.0
 20
-696.0
 30
0.0
 40
62.0
 50
287.89655112920718
 51
252.10344887079279
1001
ACDBBLOCKREPETAG
1070
     1
1071
       21
1005
130A66
  0
LINE
  5
130A67
  8
OBJECT
 10
3980.947441116743
 20
-755.0
 30
0.0
 11
4019.052558883257
 21
-755.0
 31
0.0
1001
ACDBBLOCKREPETAG
1070
     1
1071
       22
1005
130A67
  0
LINE
  5
130A68
  8
OBJECT
 10
4133.0
 20
-634.0
 30
0.0
 11
4140.0
 21
-634.0
 31
0.0
1001
ACDBBLOCKREPETAG
1070
     1
1071
       45
1005
130A68
  0
LINE
  5
130A69
  8
OBJECT
 10
4140.0
 20
-634.0
 30
0.0
 11
4140.0
 21
-755.0
 31
0.0
1001
ACDBBLOCKREPETAG
1070
     1
1071
       46
1005
130A69
  0
LINE
  5
130A6A
  8
OBJECT
 10
4133.0
 20
-755.0
 30
0.0
 11
4133.0
 21
-634.0
 31
0.0
1001
ACDBBLOCKREPETAG
1070
     1
1071
       47
1005
130A6A
  0
LINE
  5
130A6B
  8
CENTER
 10
4155.0
 20
-696.0
 30
0.0
 11
4071.0
 21
-696.0
 31
0.0
1001
ACDBBLOCKREPETAG
1070
     1
1071
       48
1005
130A6B
  0
LINE
  5
130A6C
  8
OBJECT
 10
4133.0
 20
-637.0
 30
0.0
 11
4097.0
 21
-637.0
 31
0.0
1001
ACDBBLOCKREPETAG
1070
     1
1071
       49
1005
130A6C
  0
LINE
  5
130A6D
  8
OBJECT
 10
4097.0
 20
-637.0
 30
0.0
 11
4097.0
 21
-755.0
 31
0.0
1001
ACDBBLOCKREPETAG
1070
     1
1071
       50
1005
130A6D
  0
LINE
  5
130A6E
  8
OBJECT
 10
4097.0
 20
-755.0
 30
0.0
 11
4140.0
 21
-755.0
 31
0.0
1001
ACDBBLOCKREPETAG
1070
     1
1071
       51
1005
130A6E
  0
LINE
  5
130A6F
  8
OBJECT
 10
4093.0
 20
-641.5
 30
0.0
 11
4086.0
 21
-641.5
 31
0.0
1001
ACDBBLOCKREPETAG
1070
     1
1071
       52
1005
130A6F
  0
LINE
  5
130A70
  8
OBJECT
 10
4086.0
 20
-750.49999999999989
 30
0.0
 11
4093.0
 21
-750.49999999999989
 31
0.0
1001
ACDBBLOCKREPETAG
1070
     1
1071
       53
1005
130A70
  0
LINE
  5
130A71
  8
OBJECT
 10
4093.0
 20
-750.49999999999989
 30
0.0
 11
4093.0
 21
-641.5
 31
0.0
1001
ACDBBLOCKREPETAG
1070
     1
1071
       54
1005
130A71
  0
LINE
  5
130A72
  8
OBJECT
 10
4097.0
 20
-637.0
 30
0.0
 11
4093.0
 21
-641.5
 31
0.0
1001
ACDBBLOCKREPETAG
1070
     1
1071
       55
1005
130A72
  0
LINE
  5
130A73
  8
OBJECT
 10
4097.0
 20
-755.0
 30
0.0
 11
4093.0
 21
-750.49999999999989
 31
0.0
1001
ACDBBLOCKREPETAG
1070
     1
1071
       56
1005
130A73
  0
LINE
  5
130A74
  8
OBJECT
 10
4083.0
 20
-634.0
 30
0.0
 11
4080.0
 21
-634.0
 31
0.0
1001
ACDBBLOCKREPETAG
1070
     1
1071
       57
1005
130A74
  0
ARC
  5
130A75
  8
OBJECT
 10
4083.0
 20
-637.0
 30
0.0
 40
3.0
 50
0.0
 51
90.0
1001
ACDBBLOCKREPETAG
1070
     1
1071
       58
1005
130A75
  0
LINE
  5
130A76
  8
OBJECT
 10
4080.0
 20
-758.0
 30
0.0
 11
4083.0
 21
-758.0
 31
0.0
1001
ACDBBLOCKREPETAG
1070
     1
1071
       59
1005
130A76
  0
ARC
  5
130A77
  8
OBJECT
 10
4083.0
 20
-755.0
 30
0.0
 40
3.0
 50
270.0
 51
0.0
1001
ACDBBLOCKREPETAG
1070
     1
1071
       60
1005
130A77
  0
LINE
  5
130A78
  8
OBJECT
 10
4086.0
 20
-755.0
 30
0.0
 11
4086.0
 21
-637.0
 31
0.0
1001
ACDBBLOCKREPETAG
1070
     1
1071
       61
1005
130A78
  0
LINE
  5
130A79
  8
HIDDEN
 10
4088.0
 20
-651.5
 30
0.0
 11
4088.0
 21
-740.5
 31
0.0
1001
ACDBBLOCKREPETAG
1070
     1
1071
       63
1005
130A79
  0
LINE
  5
130A7A
  8
OBJECT
 10
94.000000000034575
 20
-3551.0000000009109
 30
0.0
 11
94.000000000034575
 21
-3548.0000000009109
 31
0.0
1001
ACDBBLOCKREPETAG
1070
     1
1071
      418
1005
130A7A
  0
ARC
  5
130A7B
  8
OBJECT
 10
97.000000000034561
 20
-3551.0000000009109
 30
0.0
 40
3.0
 50
180.0
 51
270.0
1001
ACDBBLOCKREPETAG
1070
     1
1071
      419
1005
130A7B
  0
LINE
  5
130A7C
  8
OBJECT
 10
218.00000000003459
 20
-3548.0000000009109
 30
0.0
 11
218.00000000003459
 21
-3551.0000000009109
 31
0.0
1001
ACDBBLOCKREPETAG
1070
     1
1071
      420
1005
130A7C
  0
ARC
  5
130A7D
  8
OBJECT
 10
215.00000000003459
 20
-3551.0000000009109
 30
0.0
 40
3.0
 50
270.0
 51
0.0
1001
ACDBBLOCKREPETAG
1070
     1
1071
      421
1005
130A7D
  0
LINE
  5
130A7E
  8
OBJECT
 10
215.00000000003459
 20
-3554.0000000009109
 30
0.0
 11
97.000000000034561
 21
-3554.0000000009109
 31
0.0
1001
ACDBBLOCKREPETAG
1070
     1
1071
      422
1005
130A7E
  0
INSERT
  5
130A7F
  8
OBJECT
  2
*U4
 10
0.0
 20
0.0
 30
0.0
  0
LINE
  5
130A80
  8
OBJECT
 10
289.00000000003462
 20
-3406.0000000009109
 30
0.0
 11
296.0000000000345
 21
-3406.0000000009109
 31
0.0
1001
ACDBBLOCKREPETAG
1070
     1
1071
       39
1005
130A80
  0
LINE
  5
130A81
  8
OBJECT
 10
296.0000000000345
 20
-3406.0000000009109
 30
0.0
 11
296.0000000000345
 21
-3530.0000000009109
 31
0.0
1001
ACDBBLOCKREPETAG
1070
     1
1071
       40
1005
130A81
  0
LINE
  5
130A82
  8
OBJECT
 10
296.0000000000345
 20
-3530.0000000009109
 30
0.0
 11
289.00000000003462
 21
-3530.0000000009109
 31
0.0
1001
ACDBBLOCKREPETAG
1070
     1
1071
       41
1005
130A82
  0
LINE
  5
130A83
  8
OBJECT
 10
289.00000000003462
 20
-3530.0000000009109
 30
0.0
 11
289.00000000003462
 21
-3406.0000000009109
 31
0.0
1001
ACDBBLOCKREPETAG
1070
     1
1071
       42
1005
130A83
  0
LINE
  5
130A84
  8
OBJECT
 10
289.00000000003462
 20
-3409.0000000009109
 30
0.0
 11
253.00000000003459
 21
-3409.0000000009109
 31
0.0
1001
ACDBBLOCKREPETAG
1070
     1
1071
       43
1005
130A84
  0
LINE
  5
130A85
  8
OBJECT
 10
253.00000000003459
 20
-3409.0000000009109
 30
0.0
 11
253.00000000003459
 21
-3527.0000000009109
 31
0.0
1001
ACDBBLOCKREPETAG
1070
     1
1071
       44
1005
130A85
  0
LINE
  5
130A86
  8
OBJECT
 10
253.00000000003459
 20
-3527.0000000009109
 30
0.0
 11
289.00000000003462
 21
-3527.0000000009109
 31
0.0
1001
ACDBBLOCKREPETAG
1070
     1
1071
       45
1005
130A86
  0
LINE
  5
130A87
  8
OBJECT
 10
249.00000000003459
 20
-3413.5000000009122
 30
0.0
 11
242.00000000003459
 21
-3413.5000000009122
 31
0.0
1001
ACDBBLOCKREPETAG
1070
     1
1071
       46
1005
130A87
  0
LINE
  5
130A88
  8
OBJECT
 10
242.00000000003459
 20
-3522.5000000009109
 30
0.0
 11
249.00000000003459
 21
-3522.5000000009109
 31
0.0
1001
ACDBBLOCKREPETAG
1070
     1
1071
       47
1005
130A88
  0
LINE
  5
130A89
  8
OBJECT
 10
249.00000000003459
 20
-3522.5000000009109
 30
0.0
 11
249.00000000003459
 21
-3413.5000000009122
 31
0.0
1001
ACDBBLOCKREPETAG
1070
     1
1071
       48
1005
130A89
  0
LINE
  5
130A8A
  8
OBJECT
 10
253.00000000003459
 20
-3409.0000000009109
 30
0.0
 11
249.00000000003459
 21
-3413.5000000009122
 31
0.0
1001
ACDBBLOCKREPETAG
1070
     1
1071
       49
1005
130A8A
  0
LINE
  5
130A8B
  8
OBJECT
 10
253.00000000003459
 20
-3527.0000000009109
 30
0.0
 11
249.00000000003459
 21
-3522.5000000009109
 31
0.0
1001
ACDBBLOCKREPETAG
1070
     1
1071
       50
1005
130A8B
  0
LINE
  5
130A8C
  8
OBJECT
 10
239.00000000003641
 20
-3406.0000000009109
 30
0.0
 11
236.00000000003459
 21
-3406.0000000009109
 31
0.0
1001
ACDBBLOCKREPETAG
1070
     1
1071
       51
1005
130A8C
  0
ARC
  5
130A8D
  8
OBJECT
 10
239.00000000003641
 20
-3409.0000000009109
 30
0.0
 40
3.0
 50
0.0
 51
90.0
1001
ACDBBLOCKREPETAG
1070
     1
1071
       52
1005
130A8D
  0
LINE
  5
130A8E
  8
OBJECT
 10
236.00000000003459
 20
-3530.0000000009109
 30
0.0
 11
239.00000000003271
 21
-3530.0000000009109
 31
0.0
1001
ACDBBLOCKREPETAG
1070
     1
1071
       53
1005
130A8E
  0
ARC
  5
130A8F
  8
OBJECT
 10
239.00000000003271
 20
-3527.0000000009109
 30
0.0
 40
3.0
 50
270.0
 51
0.0
1001
ACDBBLOCKREPETAG
1070
     1
1071
       54
1005
130A8F
  0
LINE
  5
130A90
  8
OBJECT
 10
242.0000000000328
 20
-3527.0000000009109
 30
0.0
 11
242.00000000003641
 21
-3409.0000000009109
 31
0.0
1001
ACDBBLOCKREPETAG
1070
     1
1071
       55
1005
130A90
  0
LINE
  5
130A91
  8
HIDDEN
 10
244.0000000000345
 20
-3423.5000000009122
 30
0.0
 11
244.0000000000345
 21
-3512.5000000009122
 31
0.0
1001
ACDBBLOCKREPETAG
1070
     1
1071
      430
1005
130A91
  0
LINE
  5
130A92
  8
OBJECT
 10
81.000000000034561
 20
-3318.0000000009122
 30
0.0
 11
81.000000000034561
 21
-3325.0000000009122
 31
0.0
1001
ACDBBLOCKREPETAG
1070
     1
1071
       57
1005
130A92
  0
LINE
  5
130A93
  8
OBJECT
 10
81.000000000034561
 20
-3325.0000000009122
 30
0.0
 11
231.0000000000345
 21
-3325.0000000009122
 31
0.0
1001
ACDBBLOCKREPETAG
1070
     1
1071
       58
1005
130A93
  0
LINE
  5
130A94
  8
OBJECT
 10
84.000000000034575
 20
-3366.5000000009109
 30
0.0
 11
228.00000000003459
 21
-3366.5000000009109
 31
0.0
1001
ACDBBLOCKREPETAG
1070
     1
1071
       59
1005
130A94
  0
LINE
  5
130A95
  8
OBJECT
 10
90.500000000034547
 20
-3378.0000000009109
 30
0.0
 11
221.50000000003459
 21
-3378.0000000009109
 31
0.0
1001
ACDBBLOCKREPETAG
1070
     1
1071
       60
1005
130A95
  0
LINE
  5
130A96
  8
OBJECT
 10
231.0000000000345
 20
-3325.0000000009122
 30
0.0
 11
231.0000000000345
 21
-3318.0000000009122
 31
0.0
1001
ACDBBLOCKREPETAG
1070
     1
1071
       61
1005
130A96
  0
LINE
  5
130A97
  8
OBJECT
 10
231.0000000000345
 20
-3318.0000000009122
 30
0.0
 11
81.000000000034561
 21
-3318.0000000009122
 31
0.0
1001
ACDBBLOCKREPETAG
1070
     1
1071
       62
1005
130A97
  0
LINE
  5
130A98
  8
OBJECT
 10
218.00000000003459
 20
-3382.0000000009122
 30
0.0
 11
218.00000000003459
 21
-3388.0000000009109
 31
0.0
1001
ACDBBLOCKREPETAG
1070
     1
1071
       63
1005
130A98
  0
LINE
  5
130A99
  8
OBJECT
 10
228.00000000003459
 20
-3325.0000000009122
 30
0.0
 11
228.00000000003459
 21
-3366.5000000009109
 31
0.0
1001
ACDBBLOCKREPETAG
1070
     1
1071
       64
1005
130A99
  0
LINE
  5
130A9A
  8
OBJECT
 10
228.00000000003459
 20
-3366.5000000009109
 30
0.0
 11
221.50000000003459
 21
-3378.0000000009109
 31
0.0
1001
ACDBBLOCKREPETAG
1070
     1
1071
       65
1005
130A9A
  0
LINE
  5
130A9B
  8
OBJECT
 10
221.50000000003459
 20
-3378.0000000009109
 30
0.0
 11
218.00000000003459
 21
-3382.0000000009122
 31
0.0
1001
ACDBBLOCKREPETAG
1070
     1
1071
       66
1005
130A9B
  0
LINE
  5
130A9C
  8
OBJECT
 10
84.000000000034575
 20
-3366.5000000009109
 30
0.0
 11
90.500000000034547
 21
-3378.0000000009109
 31
0.0
1001
ACDBBLOCKREPETAG
1070
     1
1071
       67
1005
130A9C
  0
LINE
  5
130A9D
  8
OBJECT
 10
90.500000000034547
 20
-3378.0000000009109
 30
0.0
 11
94.000000000034575
 21
-3382.0000000009122
 31
0.0
1001
ACDBBLOCKREPETAG
1070
     1
1071
       68
1005
130A9D
  0
ARC
  5
130A9E
  8
OBJECT
 10
156.0000000000345
 20
-3000.1000000009099
 30
0.0
 40
386.89999999999998
 50
260.77870136257849
 51
279.22129863742163
1001
ACDBBLOCKREPETAG
1070
     1
1071
       69
1005
130A9E
  0
LINE
  5
130A9F
  8
OBJECT
 10
94.000000000034575
 20
-3382.0000000009122
 30
0.0
 11
94.000000000034575
 21
-3388.0000000009109
 31
0.0
1001
ACDBBLOCKREPETAG
1070
     1
1071
       70
1005
130A9F
  0
LINE
  5
130AA0
  8
OBJECT
 10
84.000000000034575
 20
-3325.0000000009122
 30
0.0
 11
84.000000000034575
 21
-3366.5000000009109
 31
0.0
1001
ACDBBLOCKREPETAG
1070
     1
1071
       71
1005
130AA0
  0
INSERT
  5
130AA1
  8
OBJECT
  2
*U5
 10
0.0
 20
0.0
 30
0.0
  0
LINE
  5
130AA2
  8
HIDDEN
 10
213.00000000003459
 20
-3370.0000000009109
 30
0.0
 11
99.000000000034575
 21
-3370.0000000009109
 31
0.0
1001
ACDBBLOCKREPETAG
1070
     1
1071
      431
1005
130AA2
  0
LINE
  5
130AA3
  8
OBJECT
 10
454.00000000011448
 20
-3551.0000000009109
 30
0.0
 11
454.00000000011448
 21
-3548.0000000009109
 31
0.0
1001
ACDBBLOCKREPETAG
1070
     1
1071
      418
1005
130AA3
  0
ARC
  5
130AA4
  8
OBJECT
 10
457.0000000001146
 20
-3551.0000000009109
 30
0.0
 40
3.0
 50
180.0
 51
270.0
1001
ACDBBLOCKREPETAG
1070
     1
1071
      419
1005
130AA4
  0
LINE
  5
130AA5
  8
OBJECT
 10
578.00000000011448
 20
-3548.0000000009109
 30
0.0
 11
578.00000000011448
 21
-3551.0000000009109
 31
0.0
1001
ACDBBLOCKREPETAG
1070
     1
1071
      420
1005
130AA5
  0
ARC
  5
130AA6
  8
OBJECT
 10
575.00000000011437
 20
-3551.0000000009109
 30
0.0
 40
3.0
 50
270.0
 51
0.0
1001
ACDBBLOCKREPETAG
1070
     1
1071
      421
1005
130AA6
  0
LINE
  5
130AA7
  8
OBJECT
 10
575.00000000011437
 20
-3554.0000000009109
 30
0.0
 11
457.0000000001146
 21
-3554.0000000009109
 31
0.0
1001
ACDBBLOCKREPETAG
1070
     1
1071
      422
1005
130AA7
  0
LINE
  5
130AA8
  8
OBJECT
 10
666.00000000011448
 20
-3393.0000000009122
 30
0.0
 11
659.0000000001146
 21
-3393.0000000009122
 31
0.0
1001
ACDBBLOCKREPETAG
1070
     1
1071
       57
1005
130AA8
  0
LINE
  5
130AA9
  8
OBJECT
 10
659.0000000001146
 20
-3393.0000000009122
 30
0.0
 11
659.0000000001146
 21
-3543.0000000009122
 31
0.0
1001
ACDBBLOCKREPETAG
1070
     1
1071
       58
1005
130AA9
  0
LINE
  5
130AAA
  8
OBJECT
 10
617.5000000001146
 20
-3396.0000000009122
 30
0.0
 11
617.5000000001146
 21
-3540.0000000009122
 31
0.0
1001
ACDBBLOCKREPETAG
1070
     1
1071
       59
1005
130AAA
  0
LINE
  5
130AAB
  8
OBJECT
 10
606.0000000001146
 20
-3402.5000000009122
 30
0.0
 11
606.0000000001146
 21
-3533.5000000009122
 31
0.0
1001
ACDBBLOCKREPETAG
1070
     1
1071
       60
1005
130AAB
  0
LINE
  5
130AAC
  8
OBJECT
 10
659.0000000001146
 20
-3543.0000000009122
 30
0.0
 11
666.00000000011448
 21
-3543.0000000009122
 31
0.0
1001
ACDBBLOCKREPETAG
1070
     1
1071
       61
1005
130AAC
  0
LINE
  5
130AAD
  8
OBJECT
 10
666.00000000011448
 20
-3543.0000000009122
 30
0.0
 11
666.00000000011448
 21
-3393.0000000009122
 31
0.0
1001
ACDBBLOCKREPETAG
1070
     1
1071
       62
1005
130AAD
  0
LINE
  5
130AAE
  8
OBJECT
 10
602.0000000001146
 20
-3530.0000000009109
 30
0.0
 11
596.00000000011437
 21
-3530.0000000009109
 31
0.0
1001
ACDBBLOCKREPETAG
1070
     1
1071
       63
1005
130AAE
  0
LINE
  5
130AAF
  8
OBJECT
 10
659.0000000001146
 20
-3540.0000000009122
 30
0.0
 11
617.5000000001146
 21
-3540.0000000009122
 31
0.0
1001
ACDBBLOCKREPETAG
1070
     1
1071
       64
1005
130AAF
  0
LINE
  5
130AB0
  8
OBJECT
 10
617.5000000001146
 20
-3540.0000000009122
 30
0.0
 11
606.0000000001146
 21
-3533.5000000009122
 31
0.0
1001
ACDBBLOCKREPETAG
1070
     1
1071
       65
1005
130AB0
  0
LINE
  5
130AB1
  8
OBJECT
 10
606.0000000001146
 20
-3533.5000000009122
 30
0.0
 11
602.0000000001146
 21
-3530.0000000009109
 31
0.0
1001
ACDBBLOCKREPETAG
1070
     1
1071
       66
1005
130AB1
  0
LINE
  5
130AB2
  8
OBJECT
 10
617.5000000001146
 20
-3396.0000000009122
 30
0.0
 11
606.0000000001146
 21
-3402.5000000009122
 31
0.0
1001
ACDBBLOCKREPETAG
1070
     1
1071
       67
1005
130AB2
  0
LINE
  5
130AB3
  8
OBJECT
 10
606.0000000001146
 20
-3402.5000000009122
 30
0.0
 11
602.0000000001146
 21
-3406.0000000009109
 31
0.0
1001
ACDBBLOCKREPETAG
1070
     1
1071
       68
1005
130AB3
  0
ARC
  5
130AB4
  8
OBJECT
 10
983.90000000011605
 20
-3468.0000000009122
 30
0.0
 40
386.89999999999998
 50
170.77870136263201
 51
189.22129863736799
1001
ACDBBLOCKREPETAG
1070
     1
1071
       69
1005
130AB4
  0
LINE
  5
130AB5
  8
OBJECT
 10
602.0000000001146
 20
-3406.0000000009109
 30
0.0
 11
596.00000000011437
 21
-3406.0000000009109
 31
0.0
1001
ACDBBLOCKREPETAG
1070
     1
1071
       70
1005
130AB5
  0
LINE
  5
130AB6
  8
OBJECT
 10
659.0000000001146
 20
-3396.0000000009122
 30
0.0
 11
617.5000000001146
 21
-3396.0000000009122
 31
0.0
1001
ACDBBLOCKREPETAG
1070
     1
1071
       71
1005
130AB6
  0
INSERT
  5
130AB7
  8
OBJECT
  2
*U6
 10
0.0
 20
0.0
 30
0.0
  0
LINE
  5
130AB8
  8
HIDDEN
 10
614.0000000001146
 20
-3525.0000000009122
 30
0.0
 11
614.0000000001146
 21
-3411.0000000009122
 31
0.0
1001
ACDBBLOCKREPETAG
1070
     1
1071
      437
1005
130AB8
  0
LINE
  5
130AB9
  8
OBJECT
 10
441.00000000011448
 20
-3318.0000000009122
 30
0.0
 11
441.00000000011448
 21
-3325.0000000009122
 31
0.0
1001
ACDBBLOCKREPETAG
1070
     1
1071
       57
1005
130AB9
  0
LINE
  5
130ABA
  8
OBJECT
 10
441.00000000011448
 20
-3325.0000000009122
 30
0.0
 11
591.00000000011448
 21
-3325.0000000009122
 31
0.0
1001
ACDBBLOCKREPETAG
1070
     1
1071
       58
1005
130ABA
  0
LINE
  5
130ABB
  8
OBJECT
 10
444.0000000001146
 20
-3366.5000000009109
 30
0.0
 11
588.00000000011437
 21
-3366.5000000009109
 31
0.0
1001
ACDBBLOCKREPETAG
1070
     1
1071
       59
1005
130ABB
  0
LINE
  5
130ABC
  8
OBJECT
 10
450.50000000011448
 20
-3378.0000000009109
 30
0.0
 11
581.5000000001146
 21
-3378.0000000009109
 31
0.0
1001
ACDBBLOCKREPETAG
1070
     1
1071
       60
1005
130ABC
  0
LINE
  5
130ABD
  8
OBJECT
 10
591.00000000011448
 20
-3325.0000000009122
 30
0.0
 11
591.00000000011448
 21
-3318.0000000009122
 31
0.0
1001
ACDBBLOCKREPETAG
1070
     1
1071
       61
1005
130ABD
  0
LINE
  5
130ABE
  8
OBJECT
 10
591.00000000011448
 20
-3318.0000000009122
 30
0.0
 11
441.00000000011448
 21
-3318.0000000009122
 31
0.0
1001
ACDBBLOCKREPETAG
1070
     1
1071
       62
1005
130ABE
  0
LINE
  5
130ABF
  8
OBJECT
 10
578.00000000011448
 20
-3382.0000000009122
 30
0.0
 11
578.00000000011448
 21
-3388.0000000009109
 31
0.0
1001
ACDBBLOCKREPETAG
1070
     1
1071
       63
1005
130ABF
  0
LINE
  5
130AC0
  8
OBJECT
 10
588.00000000011437
 20
-3325.0000000009122
 30
0.0
 11
588.00000000011437
 21
-3366.5000000009109
 31
0.0
1001
ACDBBLOCKREPETAG
1070
     1
1071
       64
1005
130AC0
  0
LINE
  5
130AC1
  8
OBJECT
 10
588.00000000011437
 20
-3366.5000000009109
 30
0.0
 11
581.5000000001146
 21
-3378.0000000009109
 31
0.0
1001
ACDBBLOCKREPETAG
1070
     1
1071
       65
1005
130AC1
  0
LINE
  5
130AC2
  8
OBJECT
 10
581.5000000001146
 20
-3378.0000000009109
 30
0.0
 11
578.00000000011448
 21
-3382.0000000009122
 31
0.0
1001
ACDBBLOCKREPETAG
1070
     1
1071
       66
1005
130AC2
  0
LINE
  5
130AC3
  8
OBJECT
 10
444.0000000001146
 20
-3366.5000000009109
 30
0.0
 11
450.50000000011448
 21
-3378.0000000009109
 31
0.0
1001
ACDBBLOCKREPETAG
1070
     1
1071
       67
1005
130AC3
  0
LINE
  5
130AC4
  8
OBJECT
 10
450.50000000011448
 20
-3378.0000000009109
 30
0.0
 11
454.00000000011448
 21
-3382.0000000009122
 31
0.0
1001
ACDBBLOCKREPETAG
1070
     1
1071
       68
1005
130AC4
  0
ARC
  5
130AC5
  8
OBJECT
 10
516.00000000011448
 20
-3000.1000000009099
 30
0.0
 40
386.89999999999998
 50
260.77870136257849
 51
279.22129863742163
1001
ACDBBLOCKREPETAG
1070
     1
1071
       69
1005
130AC5
  0
LINE
  5
130AC6
  8
OBJECT
 10
454.00000000011448
 20
-3382.0000000009122
 30
0.0
 11
454.00000000011448
 21
-3388.0000000009109
 31
0.0
1001
ACDBBLOCKREPETAG
1070
     1
1071
       70
1005
130AC6
  0
LINE
  5
130AC7
  8
OBJECT
 10
444.0000000001146
 20
-3325.0000000009122
 30
0.0
 11
444.0000000001146
 21
-3366.5000000009109
 31
0.0
1001
ACDBBLOCKREPETAG
1070
     1
1071
       71
1005
130AC7
  0
INSERT
  5
130AC8
  8
OBJECT
  2
*U7
 10
0.0
 20
0.0
 30
0.0
  0
LINE
  5
130AC9
  8
HIDDEN
 10
573.0000000001146
 20
-3370.0000000009109
 30
0.0
 11
459.0000000001146
 21
-3370.0000000009109
 31
0.0
1001
ACDBBLOCKREPETAG
1070
     1
1071
      431
1005
130AC9
  0
LINE
  5
130ACA
  8
OBJECT
 10
454.00000000011448
 20
-3087.0000000009049
 30
0.0
 11
454.00000000011448
 21
-3084.0000000009049
 31
0.0
1001
ACDBBLOCKREPETAG
1070
     1
1071
      418
1005
130ACA
  0
ARC
  5
130ACB
  8
OBJECT
 10
457.0000000001146
 20
-3087.0000000009049
 30
0.0
 40
3.0
 50
180.0
 51
270.0
1001
ACDBBLOCKREPETAG
1070
     1
1071
      419
1005
130ACB
  0
LINE
  5
130ACC
  8
OBJECT
 10
578.00000000011448
 20
-3084.0000000009049
 30
0.0
 11
578.00000000011448
 21
-3087.0000000009049
 31
0.0
1001
ACDBBLOCKREPETAG
1070
     1
1071
      420
1005
130ACC
  0
ARC
  5
130ACD
  8
OBJECT
 10
575.00000000011437
 20
-3087.0000000009049
 30
0.0
 40
3.0
 50
270.0
 51
0.0
1001
ACDBBLOCKREPETAG
1070
     1
1071
      421
1005
130ACD
  0
LINE
  5
130ACE
  8
OBJECT
 10
575.00000000011437
 20
-3090.0000000009049
 30
0.0
 11
457.0000000001146
 21
-3090.0000000009049
 31
0.0
1001
ACDBBLOCKREPETAG
1070
     1
1071
      422
1005
130ACE
  0
INSERT
  5
130ACF
  8
OBJECT
  2
*U8
 10
0.0
 20
0.0
 30
0.0
  0
LINE
  5
130AD0
  8
OBJECT
 10
649.00000000011448
 20
-2949.0000000009049
 30
0.0
 11
656.0000000001146
 21
-2949.0000000009049
 31
0.0
1001
ACDBBLOCKREPETAG
1070
     1
1071
       20
1005
130AD0
  0
LINE
  5
130AD1
  8
OBJECT
 10
656.0000000001146
 20
-2949.0000000009049
 30
0.0
 11
656.0000000001146
 21
-3059.0000000009049
 31
0.0
1001
ACDBBLOCKREPETAG
1070
     1
1071
       21
1005
130AD1
  0
LINE
  5
130AD2
  8
OBJECT
 10
656.0000000001146
 20
-3059.0000000009049
 30
0.0
 11
649.00000000011448
 21
-3059.0000000009049
 31
0.0
1001
ACDBBLOCKREPETAG
1070
     1
1071
       22
1005
130AD2
  0
LINE
  5
130AD3
  8
OBJECT
 10
649.00000000011448
 20
-3059.0000000009049
 30
0.0
 11
649.00000000011448
 21
-2949.0000000009049
 31
0.0
1001
ACDBBLOCKREPETAG
1070
     1
1071
       23
1005
130AD3
  0
LINE
  5
130AD4
  8
OBJECT
 10
649.00000000011448
 20
-2952.0000000009049
 30
0.0
 11
613.0000000001146
 21
-2952.0000000009049
 31
0.0
1001
ACDBBLOCKREPETAG
1070
     1
1071
       24
1005
130AD4
  0
LINE
  5
130AD5
  8
OBJECT
 10
613.0000000001146
 20
-2952.0000000009049
 30
0.0
 11
613.0000000001146
 21
-3056.0000000009049
 31
0.0
1001
ACDBBLOCKREPETAG
1070
     1
1071
       25
1005
130AD5
  0
LINE
  5
130AD6
  8
OBJECT
 10
613.0000000001146
 20
-3056.0000000009049
 30
0.0
 11
649.00000000011448
 21
-3056.0000000009049
 31
0.0
1001
ACDBBLOCKREPETAG
1070
     1
1071
       26
1005
130AD6
  0
LINE
  5
130AD7
  8
OBJECT
 10
609.0000000001146
 20
-2956.5000000009049
 30
0.0
 11
602.0000000001146
 21
-2956.5000000009049
 31
0.0
1001
ACDBBLOCKREPETAG
1070
     1
1071
       27
1005
130AD7
  0
LINE
  5
130AD8
  8
OBJECT
 10
602.0000000001146
 20
-3051.5000000009049
 30
0.0
 11
609.0000000001146
 21
-3051.5000000009049
 31
0.0
1001
ACDBBLOCKREPETAG
1070
     1
1071
       28
1005
130AD8
  0
LINE
  5
130AD9
  8
OBJECT
 10
609.0000000001146
 20
-3051.5000000009049
 30
0.0
 11
609.0000000001146
 21
-2956.5000000009049
 31
0.0
1001
ACDBBLOCKREPETAG
1070
     1
1071
       29
1005
130AD9
  0
LINE
  5
130ADA
  8
OBJECT
 10
613.0000000001146
 20
-2952.0000000009049
 30
0.0
 11
609.0000000001146
 21
-2956.5000000009049
 31
0.0
1001
ACDBBLOCKREPETAG
1070
     1
1071
       30
1005
130ADA
  0
LINE
  5
130ADB
  8
OBJECT
 10
613.0000000001146
 20
-3056.0000000009049
 30
0.0
 11
609.0000000001146
 21
-3051.5000000009049
 31
0.0
1001
ACDBBLOCKREPETAG
1070
     1
1071
       31
1005
130ADB
  0
LINE
  5
130ADC
  8
OBJECT
 10
599.00000000011619
 20
-2942.0000000009049
 30
0.0
 11
596.00000000011437
 21
-2942.0000000009049
 31
0.0
1001
ACDBBLOCKREPETAG
1070
     1
1071
       32
1005
130ADC
  0
ARC
  5
130ADD
  8
OBJECT
 10
599.00000000011619
 20
-2945.0000000009049
 30
0.0
 40
3.0
 50
0.0
 51
90.0
1001
ACDBBLOCKREPETAG
1070
     1
1071
       33
1005
130ADD
  0
LINE
  5
130ADE
  8
OBJECT
 10
596.00000000011437
 20
-3066.0000000009049
 30
0.0
 11
599.00000000011278
 21
-3066.0000000009049
 31
0.0
1001
ACDBBLOCKREPETAG
1070
     1
1071
       34
1005
130ADE
  0
ARC
  5
130ADF
  8
OBJECT
 10
599.00000000011278
 20
-3063.0000000009049
 30
0.0
 40
3.0
 50
270.0
 51
0.0
1001
ACDBBLOCKREPETAG
1070
     1
1071
       35
1005
130ADF
  0
LINE
  5
130AE0
  8
OBJECT
 10
602.00000000011266
 20
-3063.0000000009049
 30
0.0
 11
602.0000000001163
 21
-2945.0000000009049
 31
0.0
1001
ACDBBLOCKREPETAG
1070
     1
1071
       36
1005
130AE0
  0
LINE
  5
130AE1
  8
HIDDEN
 10
604.00000000011437
 20
-2966.0000000009049
 30
0.0
 11
604.00000000011437
 21
-3042.0000000009049
 31
0.0
1001
ACDBBLOCKREPETAG
1070
     1
1071
      427
1005
130AE1
  0
LINE
  5
130AE2
  8
OBJECT
 10
441.00000000011448
 20
-2854.0000000009049
 30
0.0
 11
441.00000000011448
 21
-2861.0000000009049
 31
0.0
1001
ACDBBLOCKREPETAG
1070
     1
1071
       57
1005
130AE2
  0
LINE
  5
130AE3
  8
OBJECT
 10
441.00000000011448
 20
-2861.0000000009049
 30
0.0
 11
591.00000000011448
 21
-2861.0000000009049
 31
0.0
1001
ACDBBLOCKREPETAG
1070
     1
1071
       58
1005
130AE3
  0
LINE
  5
130AE4
  8
OBJECT
 10
444.0000000001146
 20
-2902.5000000009049
 30
0.0
 11
588.00000000011437
 21
-2902.5000000009049
 31
0.0
1001
ACDBBLOCKREPETAG
1070
     1
1071
       59
1005
130AE4
  0
LINE
  5
130AE5
  8
OBJECT
 10
450.50000000011448
 20
-2914.0000000009049
 30
0.0
 11
581.5000000001146
 21
-2914.0000000009049
 31
0.0
1001
ACDBBLOCKREPETAG
1070
     1
1071
       60
1005
130AE5
  0
LINE
  5
130AE6
  8
OBJECT
 10
591.00000000011448
 20
-2861.0000000009049
 30
0.0
 11
591.00000000011448
 21
-2854.0000000009049
 31
0.0
1001
ACDBBLOCKREPETAG
1070
     1
1071
       61
1005
130AE6
  0
LINE
  5
130AE7
  8
OBJECT
 10
591.00000000011448
 20
-2854.0000000009049
 30
0.0
 11
441.00000000011448
 21
-2854.0000000009049
 31
0.0
1001
ACDBBLOCKREPETAG
1070
     1
1071
       62
1005
130AE7
  0
LINE
  5
130AE8
  8
OBJECT
 10
578.00000000011448
 20
-2918.0000000009049
 30
0.0
 11
578.00000000011448
 21
-2924.0000000009049
 31
0.0
1001
ACDBBLOCKREPETAG
1070
     1
1071
       63
1005
130AE8
  0
LINE
  5
130AE9
  8
OBJECT
 10
588.00000000011437
 20
-2861.0000000009049
 30
0.0
 11
588.00000000011437
 21
-2902.5000000009049
 31
0.0
1001
ACDBBLOCKREPETAG
1070
     1
1071
       64
1005
130AE9
  0
LINE
  5
130AEA
  8
OBJECT
 10
588.00000000011437
 20
-2902.5000000009049
 30
0.0
 11
581.5000000001146
 21
-2914.0000000009049
 31
0.0
1001
ACDBBLOCKREPETAG
1070
     1
1071
       65
1005
130AEA
  0
LINE
  5
130AEB
  8
OBJECT
 10
581.5000000001146
 20
-2914.0000000009049
 30
0.0
 11
578.00000000011448
 21
-2918.0000000009049
 31
0.0
1001
ACDBBLOCKREPETAG
1070
     1
1071
       66
1005
130AEB
  0
LINE
  5
130AEC
  8
OBJECT
 10
444.0000000001146
 20
-2902.5000000009049
 30
0.0
 11
450.50000000011448
 21
-2914.0000000009049
 31
0.0
1001
ACDBBLOCKREPETAG
1070
     1
1071
       67
1005
130AEC
  0
LINE
  5
130AED
  8
OBJECT
 10
450.50000000011448
 20
-2914.0000000009049
 30
0.0
 11
454.00000000011448
 21
-2918.0000000009049
 31
0.0
1001
ACDBBLOCKREPETAG
1070
     1
1071
       68
1005
130AED
  0
ARC
  5
130AEE
  8
OBJECT
 10
516.00000000011448
 20
-2536.100000000903
 30
0.0
 40
386.89999999999998
 50
260.77870136257849
 51
279.22129863742163
1001
ACDBBLOCKREPETAG
1070
     1
1071
       69
1005
130AEE
  0
LINE
  5
130AEF
  8
OBJECT
 10
454.00000000011448
 20
-2918.0000000009049
 30
0.0
 11
454.00000000011448
 21
-2924.0000000009049
 31
0.0
1001
ACDBBLOCKREPETAG
1070
     1
1071
       70
1005
130AEF
  0
LINE
  5
130AF0
  8
OBJECT
 10
444.0000000001146
 20
-2861.0000000009049
 30
0.0
 11
444.0000000001146
 21
-2902.5000000009049
 31
0.0
1001
ACDBBLOCKREPETAG
1070
     1
1071
       71
1005
130AF0
  0
INSERT
  5
130AF1
  8
OBJECT
  2
*U9
 10
0.0
 20
0.0
 30
0.0
  0
LINE
  5
130AF2
  8
HIDDEN
 10
573.0000000001146
 20
-2906.0000000009049
 30
0.0
 11
459.0000000001146
 21
-2906.0000000009049
 31
0.0
1001
ACDBBLOCKREPETAG
1070
     1
1071
      431
1005
130AF2
  0
LINE
  5
130AF3
  8
OBJECT
 10
94.000000000034575
 20
-3087.0000000009049
 30
0.0
 11
94.000000000034575
 21
-3084.0000000009049
 31
0.0
1001
ACDBBLOCKREPETAG
1070
     1
1071
      418
1005
130AF3
  0
ARC
  5
130AF4
  8
OBJECT
 10
97.000000000034561
 20
-3087.0000000009049
 30
0.0
 40
3.0
 50
180.0
 51
270.0
1001
ACDBBLOCKREPETAG
1070
     1
1071
      419
1005
130AF4
  0
LINE
  5
130AF5
  8
OBJECT
 10
218.00000000003459
 20
-3084.0000000009049
 30
0.0
 11
218.00000000003459
 21
-3087.0000000009049
 31
0.0
1001
ACDBBLOCKREPETAG
1070
     1
1071
      420
1005
130AF5
  0
ARC
  5
130AF6
  8
OBJECT
 10
215.00000000003459
 20
-3087.0000000009049
 30
0.0
 40
3.0
 50
270.0
 51
0.0
1001
ACDBBLOCKREPETAG
1070
     1
1071
      421
1005
130AF6
  0
LINE
  5
130AF7
  8
OBJECT
 10
215.00000000003459
 20
-3090.0000000009049
 30
0.0
 11
97.000000000034561
 21
-3090.0000000009049
 31
0.0
1001
ACDBBLOCKREPETAG
1070
     1
1071
      422
1005
130AF7
  0
INSERT
  5
130AF8
  8
OBJECT
  2
*U10
 10
0.0
 20
0.0
 30
0.0
  0
LINE
  5
130AF9
  8
OBJECT
 10
289.00000000003462
 20
-2957.0000000009049
 30
0.0
 11
296.0000000000345
 21
-2957.0000000009049
 31
0.0
1001
ACDBBLOCKREPETAG
1070
     1
1071
        1
1005
130AF9
  0
LINE
  5
130AFA
  8
OBJECT
 10
296.0000000000345
 20
-2957.0000000009049
 30
0.0
 11
296.0000000000345
 21
-3051.0000000009049
 31
0.0
1001
ACDBBLOCKREPETAG
1070
     1
1071
        2
1005
130AFA
  0
LINE
  5
130AFB
  8
OBJECT
 10
296.0000000000345
 20
-3051.0000000009049
 30
0.0
 11
289.00000000003462
 21
-3051.0000000009049
 31
0.0
1001
ACDBBLOCKREPETAG
1070
     1
1071
        3
1005
130AFB
  0
LINE
  5
130AFC
  8
OBJECT
 10
289.00000000003462
 20
-3051.0000000009049
 30
0.0
 11
289.00000000003462
 21
-2957.0000000009049
 31
0.0
1001
ACDBBLOCKREPETAG
1070
     1
1071
        4
1005
130AFC
  0
LINE
  5
130AFD
  8
OBJECT
 10
289.00000000003462
 20
-2960.0000000009049
 30
0.0
 11
253.00000000003459
 21
-2960.0000000009049
 31
0.0
1001
ACDBBLOCKREPETAG
1070
     1
1071
        5
1005
130AFD
  0
LINE
  5
130AFE
  8
OBJECT
 10
253.00000000003459
 20
-2960.0000000009049
 30
0.0
 11
253.00000000003459
 21
-3048.0000000009049
 31
0.0
1001
ACDBBLOCKREPETAG
1070
     1
1071
        6
1005
130AFE
  0
LINE
  5
130AFF
  8
OBJECT
 10
253.00000000003459
 20
-3048.0000000009049
 30
0.0
 11
289.00000000003462
 21
-3048.0000000009049
 31
0.0
1001
ACDBBLOCKREPETAG
1070
     1
1071
        7
1005
130AFF
  0
LINE
  5
130B00
  8
OBJECT
 10
249.00000000003459
 20
-2964.5000000009049
 30
0.0
 11
242.00000000003459
 21
-2964.5000000009049
 31
0.0
1001
ACDBBLOCKREPETAG
1070
     1
1071
        8
1005
130B00
  0
LINE
  5
130B01
  8
OBJECT
 10
242.00000000003459
 20
-3043.5000000009049
 30
0.0
 11
249.00000000003459
 21
-3043.5000000009049
 31
0.0
1001
ACDBBLOCKREPETAG
1070
     1
1071
        9
1005
130B01
  0
LINE
  5
130B02
  8
OBJECT
 10
249.00000000003459
 20
-3043.5000000009049
 30
0.0
 11
249.00000000003459
 21
-2964.5000000009049
 31
0.0
1001
ACDBBLOCKREPETAG
1070
     1
1071
       10
1005
130B02
  0
LINE
  5
130B03
  8
OBJECT
 10
253.00000000003459
 20
-2960.0000000009049
 30
0.0
 11
249.00000000003459
 21
-2964.5000000009049
 31
0.0
1001
ACDBBLOCKREPETAG
1070
     1
1071
       11
1005
130B03
  0
LINE
  5
130B04
  8
OBJECT
 10
253.00000000003459
 20
-3048.0000000009049
 30
0.0
 11
249.00000000003459
 21
-3043.5000000009049
 31
0.0
1001
ACDBBLOCKREPETAG
1070
     1
1071
       12
1005
130B04
  0
LINE
  5
130B05
  8
OBJECT
 10
239.00000000003641
 20
-2942.0000000009049
 30
0.0
 11
236.00000000003459
 21
-2942.0000000009049
 31
0.0
1001
ACDBBLOCKREPETAG
1070
     1
1071
       13
1005
130B05
  0
ARC
  5
130B06
  8
OBJECT
 10
239.00000000003641
 20
-2945.0000000009049
 30
0.0
 40
3.0
 50
0.0
 51
90.0
1001
ACDBBLOCKREPETAG
1070
     1
1071
       14
1005
130B06
  0
LINE
  5
130B07
  8
OBJECT
 10
236.00000000003459
 20
-3066.0000000009049
 30
0.0
 11
239.00000000003271
 21
-3066.0000000009049
 31
0.0
1001
ACDBBLOCKREPETAG
1070
     1
1071
       15
1005
130B07
  0
ARC
  5
130B08
  8
OBJECT
 10
239.00000000003271
 20
-3063.0000000009049
 30
0.0
 40
3.0
 50
270.0
 51
0.0
1001
ACDBBLOCKREPETAG
1070
     1
1071
       16
1005
130B08
  0
LINE
  5
130B09
  8
OBJECT
 10
242.0000000000328
 20
-3063.0000000009049
 30
0.0
 11
242.00000000003641
 21
-2945.0000000009049
 31
0.0
1001
ACDBBLOCKREPETAG
1070
     1
1071
       17
1005
130B09
  0
LINE
  5
130B0A
  8
HIDDEN
 10
244.0000000000345
 20
-2974.0000000009049
 30
0.0
 11
244.0000000000345
 21
-3034.0000000009049
 31
0.0
1001
ACDBBLOCKREPETAG
1070
     1
1071
      424
1005
130B0A
  0
LINE
  5
130B0B
  8
OBJECT
 10
81.000000000034561
 20
-2854.0000000009049
 30
0.0
 11
81.000000000034561
 21
-2861.0000000009049
 31
0.0
1001
ACDBBLOCKREPETAG
1070
     1
1071
       57
1005
130B0B
  0
LINE
  5
130B0C
  8
OBJECT
 10
81.000000000034561
 20
-2861.0000000009049
 30
0.0
 11
231.0000000000345
 21
-2861.0000000009049
 31
0.0
1001
ACDBBLOCKREPETAG
1070
     1
1071
       58
1005
130B0C
  0
LINE
  5
130B0D
  8
OBJECT
 10
84.000000000034575
 20
-2902.5000000009049
 30
0.0
 11
228.00000000003459
 21
-2902.5000000009049
 31
0.0
1001
ACDBBLOCKREPETAG
1070
     1
1071
       59
1005
130B0D
  0
LINE
  5
130B0E
  8
OBJECT
 10
90.500000000034547
 20
-2914.0000000009049
 30
0.0
 11
221.50000000003459
 21
-2914.0000000009049
 31
0.0
1001
ACDBBLOCKREPETAG
1070
     1
1071
       60
1005
130B0E
  0
LINE
  5
130B0F
  8
OBJECT
 10
231.0000000000345
 20
-2861.0000000009049
 30
0.0
 11
231.0000000000345
 21
-2854.0000000009049
 31
0.0
1001
ACDBBLOCKREPETAG
1070
     1
1071
       61
1005
130B0F
  0
LINE
  5
130B10
  8
OBJECT
 10
231.0000000000345
 20
-2854.0000000009049
 30
0.0
 11
81.000000000034561
 21
-2854.0000000009049
 31
0.0
1001
ACDBBLOCKREPETAG
1070
     1
1071
       62
1005
130B10
  0
LINE
  5
130B11
  8
OBJECT
 10
218.00000000003459
 20
-2918.0000000009049
 30
0.0
 11
218.00000000003459
 21
-2924.0000000009049
 31
0.0
1001
ACDBBLOCKREPETAG
1070
     1
1071
       63
1005
130B11
  0
LINE
  5
130B12
  8
OBJECT
 10
228.00000000003459
 20
-2861.0000000009049
 30
0.0
 11
228.00000000003459
 21
-2902.5000000009049
 31
0.0
1001
ACDBBLOCKREPETAG
1070
     1
1071
       64
1005
130B12
  0
LINE
  5
130B13
  8
OBJECT
 10
228.00000000003459
 20
-2902.5000000009049
 30
0.0
 11
221.50000000003459
 21
-2914.0000000009049
 31
0.0
1001
ACDBBLOCKREPETAG
1070
     1
1071
       65
1005
130B13
  0
LINE
  5
130B14
  8
OBJECT
 10
221.50000000003459
 20
-2914.0000000009049
 30
0.0
 11
218.00000000003459
 21
-2918.0000000009049
 31
0.0
1001
ACDBBLOCKREPETAG
1070
     1
1071
       66
1005
130B14
  0
LINE
  5
130B15
  8
OBJECT
 10
84.000000000034575
 20
-2902.5000000009049
 30
0.0
 11
90.500000000034547
 21
-2914.0000000009049
 31
0.0
1001
ACDBBLOCKREPETAG
1070
     1
1071
       67
1005
130B15
  0
LINE
  5
130B16
  8
OBJECT
 10
90.500000000034547
 20
-2914.0000000009049
 30
0.0
 11
94.000000000034575
 21
-2918.0000000009049
 31
0.0
1001
ACDBBLOCKREPETAG
1070
     1
1071
       68
1005
130B16
  0
ARC
  5
130B17
  8
OBJECT
 10
156.0000000000345
 20
-2536.100000000903
 30
0.0
 40
386.89999999999998
 50
260.77870136257849
 51
279.22129863742163
1001
ACDBBLOCKREPETAG
1070
     1
1071
       69
1005
130B17
  0
LINE
  5
130B18
  8
OBJECT
 10
94.000000000034575
 20
-2918.0000000009049
 30
0.0
 11
94.000000000034575
 21
-2924.0000000009049
 31
0.0
1001
ACDBBLOCKREPETAG
1070
     1
1071
       70
1005
130B18
  0
LINE
  5
130B19
  8
OBJECT
 10
84.000000000034575
 20
-2861.0000000009049
 30
0.0
 11
84.000000000034575
 21
-2902.5000000009049
 31
0.0
1001
ACDBBLOCKREPETAG
1070
     1
1071
       71
1005
130B19
  0
INSERT
  5
130B1A
  8
OBJECT
  2
*U11
 10
0.0
 20
0.0
 30
0.0
  0
LINE
  5
130B1B
  8
HIDDEN
 10
213.00000000003459
 20
-2906.0000000009049
 30
0.0
 11
99.000000000034575
 21
-2906.0000000009049
 31
0.0
1001
ACDBBLOCKREPETAG
1070
     1
1071
      431
1005
130B1B
  0
LINE
  5
130B1C
  8
OBJECT
 10
94.000000000034575
 20
-2623.0000000008981
 30
0.0
 11
94.000000000034575
 21
-2620.0000000008981
 31
0.0
1001
ACDBBLOCKREPETAG
1070
     1
1071
      418
1005
130B1C
  0
ARC
  5
130B1D
  8
OBJECT
 10
97.000000000034561
 20
-2623.0000000008981
 30
0.0
 40
3.0
 50
180.0
 51
270.0
1001
ACDBBLOCKREPETAG
1070
     1
1071
      419
1005
130B1D
  0
LINE
  5
130B1E
  8
OBJECT
 10
218.00000000003459
 20
-2620.0000000008981
 30
0.0
 11
218.00000000003459
 21
-2623.0000000008981
 31
0.0
1001
ACDBBLOCKREPETAG
1070
     1
1071
      420
1005
130B1E
  0
ARC
  5
130B1F
  8
OBJECT
 10
215.00000000003459
 20
-2623.0000000008981
 30
0.0
 40
3.0
 50
270.0
 51
0.0
1001
ACDBBLOCKREPETAG
1070
     1
1071
      421
1005
130B1F
  0
LINE
  5
130B20
  8
OBJECT
 10
215.00000000003459
 20
-2626.0000000008981
 30
0.0
 11
97.000000000034561
 21
-2626.0000000008981
 31
0.0
1001
ACDBBLOCKREPETAG
1070
     1
1071
      422
1005
130B20
  0
INSERT
  5
130B21
  8
OBJECT
  2
*U12
 10
0.0
 20
0.0
 30
0.0
  0
LINE
  5
130B22
  8
OBJECT
 10
289.00000000003462
 20
-2478.000000000899
 30
0.0
 11
296.0000000000345
 21
-2478.000000000899
 31
0.0
1001
ACDBBLOCKREPETAG
1070
     1
1071
       39
1005
130B22
  0
LINE
  5
130B23
  8
OBJECT
 10
296.0000000000345
 20
-2478.000000000899
 30
0.0
 11
296.0000000000345
 21
-2602.0000000008981
 31
0.0
1001
ACDBBLOCKREPETAG
1070
     1
1071
       40
1005
130B23
  0
LINE
  5
130B24
  8
OBJECT
 10
296.0000000000345
 20
-2602.0000000008981
 30
0.0
 11
289.00000000003462
 21
-2602.0000000008981
 31
0.0
1001
ACDBBLOCKREPETAG
1070
     1
1071
       41
1005
130B24
  0
LINE
  5
130B25
  8
OBJECT
 10
289.00000000003462
 20
-2602.0000000008981
 30
0.0
 11
289.00000000003462
 21
-2478.000000000899
 31
0.0
1001
ACDBBLOCKREPETAG
1070
     1
1071
       42
1005
130B25
  0
LINE
  5
130B26
  8
OBJECT
 10
289.00000000003462
 20
-2481.000000000899
 30
0.0
 11
253.00000000003459
 21
-2481.000000000899
 31
0.0
1001
ACDBBLOCKREPETAG
1070
     1
1071
       43
1005
130B26
  0
LINE
  5
130B27
  8
OBJECT
 10
253.00000000003459
 20
-2481.000000000899
 30
0.0
 11
253.00000000003459
 21
-2599.000000000899
 31
0.0
1001
ACDBBLOCKREPETAG
1070
     1
1071
       44
1005
130B27
  0
LINE
  5
130B28
  8
OBJECT
 10
253.00000000003459
 20
-2599.000000000899
 30
0.0
 11
289.00000000003462
 21
-2599.000000000899
 31
0.0
1001
ACDBBLOCKREPETAG
1070
     1
1071
       45
1005
130B28
  0
LINE
  5
130B29
  8
OBJECT
 10
249.00000000003459
 20
-2485.5000000008981
 30
0.0
 11
242.00000000003459
 21
-2485.5000000008981
 31
0.0
1001
ACDBBLOCKREPETAG
1070
     1
1071
       46
1005
130B29
  0
LINE
  5
130B2A
  8
OBJECT
 10
242.00000000003459
 20
-2594.5000000008981
 30
0.0
 11
249.00000000003459
 21
-2594.5000000008981
 31
0.0
1001
ACDBBLOCKREPETAG
1070
     1
1071
       47
1005
130B2A
  0
LINE
  5
130B2B
  8
OBJECT
 10
249.00000000003459
 20
-2594.5000000008981
 30
0.0
 11
249.00000000003459
 21
-2485.5000000008981
 31
0.0
1001
ACDBBLOCKREPETAG
1070
     1
1071
       48
1005
130B2B
  0
LINE
  5
130B2C
  8
OBJECT
 10
253.00000000003459
 20
-2481.000000000899
 30
0.0
 11
249.00000000003459
 21
-2485.5000000008981
 31
0.0
1001
ACDBBLOCKREPETAG
1070
     1
1071
       49
1005
130B2C
  0
LINE
  5
130B2D
  8
OBJECT
 10
253.00000000003459
 20
-2599.000000000899
 30
0.0
 11
249.00000000003459
 21
-2594.5000000008981
 31
0.0
1001
ACDBBLOCKREPETAG
1070
     1
1071
       50
1005
130B2D
  0
LINE
  5
130B2E
  8
OBJECT
 10
239.00000000003641
 20
-2478.000000000899
 30
0.0
 11
236.00000000003459
 21
-2478.000000000899
 31
0.0
1001
ACDBBLOCKREPETAG
1070
     1
1071
       51
1005
130B2E
  0
ARC
  5
130B2F
  8
OBJECT
 10
239.00000000003641
 20
-2481.000000000899
 30
0.0
 40
3.0
 50
0.0
 51
90.0
1001
ACDBBLOCKREPETAG
1070
     1
1071
       52
1005
130B2F
  0
LINE
  5
130B30
  8
OBJECT
 10
236.00000000003459
 20
-2602.0000000008981
 30
0.0
 11
239.00000000003271
 21
-2602.0000000008981
 31
0.0
1001
ACDBBLOCKREPETAG
1070
     1
1071
       53
1005
130B30
  0
ARC
  5
130B31
  8
OBJECT
 10
239.00000000003271
 20
-2599.000000000899
 30
0.0
 40
3.0
 50
270.0
 51
0.0
1001
ACDBBLOCKREPETAG
1070
     1
1071
       54
1005
130B31
  0
LINE
  5
130B32
  8
OBJECT
 10
242.0000000000328
 20
-2599.000000000899
 30
0.0
 11
242.00000000003641
 21
-2481.000000000899
 31
0.0
1001
ACDBBLOCKREPETAG
1070
     1
1071
       55
1005
130B32
  0
LINE
  5
130B33
  8
HIDDEN
 10
244.0000000000345
 20
-2495.500000000899
 30
0.0
 11
244.0000000000345
 21
-2584.5000000008981
 31
0.0
1001
ACDBBLOCKREPETAG
1070
     1
1071
      430
1005
130B33
  0
INSERT
  5
130B34
  8
OBJECT
  2
*U13
 10
0.0
 20
0.0
 30
0.0
  0
LINE
  5
130B35
  8
OBJECT
 10
94.000000000034575
 20
-2407.0000000008981
 30
0.0
 11
94.000000000034575
 21
-2400.0000000008981
 31
0.0
1001
ACDBBLOCKREPETAG
1070
     1
1071
       39
1005
130B35
  0
LINE
  5
130B36
  8
OBJECT
 10
94.000000000034575
 20
-2400.0000000008981
 30
0.0
 11
218.00000000003459
 21
-2400.0000000008981
 31
0.0
1001
ACDBBLOCKREPETAG
1070
     1
1071
       40
1005
130B36
  0
LINE
  5
130B37
  8
OBJECT
 10
218.00000000003459
 20
-2400.0000000008981
 30
0.0
 11
218.00000000003459
 21
-2407.0000000008981
 31
0.0
1001
ACDBBLOCKREPETAG
1070
     1
1071
       41
1005
130B37
  0
LINE
  5
130B38
  8
OBJECT
 10
218.00000000003459
 20
-2407.0000000008981
 30
0.0
 11
94.000000000034575
 21
-2407.0000000008981
 31
0.0
1001
ACDBBLOCKREPETAG
1070
     1
1071
       42
1005
130B38
  0
LINE
  5
130B39
  8
OBJECT
 10
97.000000000034561
 20
-2407.0000000008981
 30
0.0
 11
97.000000000034561
 21
-2443.0000000008981
 31
0.0
1001
ACDBBLOCKREPETAG
1070
     1
1071
       43
1005
130B39
  0
LINE
  5
130B3A
  8
OBJECT
 10
97.000000000034561
 20
-2443.0000000008981
 30
0.0
 11
215.00000000003459
 21
-2443.0000000008981
 31
0.0
1001
ACDBBLOCKREPETAG
1070
     1
1071
       44
1005
130B3A
  0
LINE
  5
130B3B
  8
OBJECT
 10
215.00000000003459
 20
-2443.0000000008981
 30
0.0
 11
215.00000000003459
 21
-2407.0000000008981
 31
0.0
1001
ACDBBLOCKREPETAG
1070
     1
1071
       45
1005
130B3B
  0
LINE
  5
130B3C
  8
OBJECT
 10
101.5000000000345
 20
-2447.0000000008981
 30
0.0
 11
101.5000000000345
 21
-2454.0000000008981
 31
0.0
1001
ACDBBLOCKREPETAG
1070
     1
1071
       46
1005
130B3C
  0
LINE
  5
130B3D
  8
OBJECT
 10
210.5000000000345
 20
-2454.0000000008981
 30
0.0
 11
210.5000000000345
 21
-2447.0000000008981
 31
0.0
1001
ACDBBLOCKREPETAG
1070
     1
1071
       47
1005
130B3D
  0
LINE
  5
130B3E
  8
OBJECT
 10
210.5000000000345
 20
-2447.0000000008981
 30
0.0
 11
101.5000000000345
 21
-2447.0000000008981
 31
0.0
1001
ACDBBLOCKREPETAG
1070
     1
1071
       48
1005
130B3E
  0
LINE
  5
130B3F
  8
OBJECT
 10
97.000000000034561
 20
-2443.0000000008981
 30
0.0
 11
101.5000000000345
 21
-2447.0000000008981
 31
0.0
1001
ACDBBLOCKREPETAG
1070
     1
1071
       49
1005
130B3F
  0
LINE
  5
130B40
  8
OBJECT
 10
215.00000000003459
 20
-2443.0000000008981
 30
0.0
 11
210.5000000000345
 21
-2447.0000000008981
 31
0.0
1001
ACDBBLOCKREPETAG
1070
     1
1071
       50
1005
130B40
  0
LINE
  5
130B41
  8
OBJECT
 10
94.000000000034575
 20
-2457.0000000008981
 30
0.0
 11
94.000000000034575
 21
-2460.0000000008981
 31
0.0
1001
ACDBBLOCKREPETAG
1070
     1
1071
       51
1005
130B41
  0
ARC
  5
130B42
  8
OBJECT
 10
97.000000000034561
 20
-2457.0000000008981
 30
0.0
 40
3.0
 50
90.0
 51
180.0
1001
ACDBBLOCKREPETAG
1070
     1
1071
       52
1005
130B42
  0
LINE
  5
130B43
  8
OBJECT
 10
218.00000000003459
 20
-2460.0000000008981
 30
0.0
 11
218.00000000003459
 21
-2457.0000000008999
 31
0.0
1001
ACDBBLOCKREPETAG
1070
     1
1071
       53
1005
130B43
  0
ARC
  5
130B44
  8
OBJECT
 10
215.00000000003459
 20
-2457.0000000008999
 30
0.0
 40
3.0
 50
0.0
 51
90.0
1001
ACDBBLOCKREPETAG
1070
     1
1071
       54
1005
130B44
  0
LINE
  5
130B45
  8
OBJECT
 10
215.00000000003459
 20
-2454.000000000899
 30
0.0
 11
97.000000000034561
 21
-2454.0000000008981
 31
0.0
1001
ACDBBLOCKREPETAG
1070
     1
1071
       55
1005
130B45
  0
LINE
  5
130B46
  8
HIDDEN
 10
111.5000000000345
 20
-2452.0000000008981
 30
0.0
 11
200.50000000003459
 21
-2452.0000000008981
 31
0.0
1001
ACDBBLOCKREPETAG
1070
     1
1071
      426
1005
130B46
  0
LINE
  5
130B47
  8
OBJECT
 10
454.00000000011448
 20
-2623.0000000008981
 30
0.0
 11
454.00000000011448
 21
-2620.0000000008981
 31
0.0
1001
ACDBBLOCKREPETAG
1070
     1
1071
      418
1005
130B47
  0
ARC
  5
130B48
  8
OBJECT
 10
457.0000000001146
 20
-2623.0000000008981
 30
0.0
 40
3.0
 50
180.0
 51
270.0
1001
ACDBBLOCKREPETAG
1070
     1
1071
      419
1005
130B48
  0
LINE
  5
130B49
  8
OBJECT
 10
578.00000000011448
 20
-2620.0000000008981
 30
0.0
 11
578.00000000011448
 21
-2623.0000000008981
 31
0.0
1001
ACDBBLOCKREPETAG
1070
     1
1071
      420
1005
130B49
  0
ARC
  5
130B4A
  8
OBJECT
 10
575.00000000011437
 20
-2623.0000000008981
 30
0.0
 40
3.0
 50
270.0
 51
0.0
1001
ACDBBLOCKREPETAG
1070
     1
1071
      421
1005
130B4A
  0
LINE
  5
130B4B
  8
OBJECT
 10
575.00000000011437
 20
-2626.0000000008981
 30
0.0
 11
457.0000000001146
 21
-2626.0000000008981
 31
0.0
1001
ACDBBLOCKREPETAG
1070
     1
1071
      422
1005
130B4B
  0
LINE
  5
130B4C
  8
OBJECT
 10
666.00000000011448
 20
-2465.000000000899
 30
0.0
 11
659.0000000001146
 21
-2465.000000000899
 31
0.0
1001
ACDBBLOCKREPETAG
1070
     1
1071
       57
1005
130B4C
  0
LINE
  5
130B4D
  8
OBJECT
 10
659.0000000001146
 20
-2465.000000000899
 30
0.0
 11
659.0000000001146
 21
-2615.000000000899
 31
0.0
1001
ACDBBLOCKREPETAG
1070
     1
1071
       58
1005
130B4D
  0
LINE
  5
130B4E
  8
OBJECT
 10
617.5000000001146
 20
-2468.0000000008981
 30
0.0
 11
617.5000000001146
 21
-2612.0000000008981
 31
0.0
1001
ACDBBLOCKREPETAG
1070
     1
1071
       59
1005
130B4E
  0
LINE
  5
130B4F
  8
OBJECT
 10
606.0000000001146
 20
-2474.5000000008981
 30
0.0
 11
606.0000000001146
 21
-2605.5000000008981
 31
0.0
1001
ACDBBLOCKREPETAG
1070
     1
1071
       60
1005
130B4F
  0
LINE
  5
130B50
  8
OBJECT
 10
659.0000000001146
 20
-2615.000000000899
 30
0.0
 11
666.00000000011448
 21
-2615.000000000899
 31
0.0
1001
ACDBBLOCKREPETAG
1070
     1
1071
       61
1005
130B50
  0
LINE
  5
130B51
  8
OBJECT
 10
666.00000000011448
 20
-2615.000000000899
 30
0.0
 11
666.00000000011448
 21
-2465.000000000899
 31
0.0
1001
ACDBBLOCKREPETAG
1070
     1
1071
       62
1005
130B51
  0
LINE
  5
130B52
  8
OBJECT
 10
602.0000000001146
 20
-2602.0000000008981
 30
0.0
 11
596.00000000011437
 21
-2602.0000000008981
 31
0.0
1001
ACDBBLOCKREPETAG
1070
     1
1071
       63
1005
130B52
  0
LINE
  5
130B53
  8
OBJECT
 10
659.0000000001146
 20
-2612.0000000008981
 30
0.0
 11
617.5000000001146
 21
-2612.0000000008981
 31
0.0
1001
ACDBBLOCKREPETAG
1070
     1
1071
       64
1005
130B53
  0
LINE
  5
130B54
  8
OBJECT
 10
617.5000000001146
 20
-2612.0000000008981
 30
0.0
 11
606.0000000001146
 21
-2605.5000000008981
 31
0.0
1001
ACDBBLOCKREPETAG
1070
     1
1071
       65
1005
130B54
  0
LINE
  5
130B55
  8
OBJECT
 10
606.0000000001146
 20
-2605.5000000008981
 30
0.0
 11
602.0000000001146
 21
-2602.0000000008981
 31
0.0
1001
ACDBBLOCKREPETAG
1070
     1
1071
       66
1005
130B55
  0
LINE
  5
130B56
  8
OBJECT
 10
617.5000000001146
 20
-2468.0000000008981
 30
0.0
 11
606.0000000001146
 21
-2474.5000000008981
 31
0.0
1001
ACDBBLOCKREPETAG
1070
     1
1071
       67
1005
130B56
  0
LINE
  5
130B57
  8
OBJECT
 10
606.0000000001146
 20
-2474.5000000008981
 30
0.0
 11
602.0000000001146
 21
-2478.000000000899
 31
0.0
1001
ACDBBLOCKREPETAG
1070
     1
1071
       68
1005
130B57
  0
ARC
  5
130B58
  8
OBJECT
 10
983.90000000011605
 20
-2540.0000000008981
 30
0.0
 40
386.89999999999998
 50
170.77870136263201
 51
189.22129863736799
1001
ACDBBLOCKREPETAG
1070
     1
1071
       69
1005
130B58
  0
LINE
  5
130B59
  8
OBJECT
 10
602.0000000001146
 20
-2478.000000000899
 30
0.0
 11
596.00000000011437
 21
-2478.000000000899
 31
0.0
1001
ACDBBLOCKREPETAG
1070
     1
1071
       70
1005
130B59
  0
LINE
  5
130B5A
  8
OBJECT
 10
659.0000000001146
 20
-2468.0000000008981
 30
0.0
 11
617.5000000001146
 21
-2468.0000000008981
 31
0.0
1001
ACDBBLOCKREPETAG
1070
     1
1071
       71
1005
130B5A
  0
INSERT
  5
130B5B
  8
OBJECT
  2
*U14
 10
0.0
 20
0.0
 30
0.0
  0
LINE
  5
130B5C
  8
HIDDEN
 10
614.0000000001146
 20
-2597.0000000008981
 30
0.0
 11
614.0000000001146
 21
-2483.0000000008981
 31
0.0
1001
ACDBBLOCKREPETAG
1070
     1
1071
      437
1005
130B5C
  0
INSERT
  5
130B5D
  8
OBJECT
  2
*U15
 10
0.0
 20
0.0
 30
0.0
  0
LINE
  5
130B5E
  8
OBJECT
 10
454.00000000011448
 20
-2407.0000000008981
 30
0.0
 11
454.00000000011448
 21
-2400.0000000008981
 31
0.0
1001
ACDBBLOCKREPETAG
1070
     1
1071
       39
1005
130B5E
  0
LINE
  5
130B5F
  8
OBJECT
 10
454.00000000011448
 20
-2400.0000000008981
 30
0.0
 11
578.00000000011448
 21
-2400.0000000008981
 31
0.0
1001
ACDBBLOCKREPETAG
1070
     1
1071
       40
1005
130B5F
  0
LINE
  5
130B60
  8
OBJECT
 10
578.00000000011448
 20
-2400.0000000008981
 30
0.0
 11
578.00000000011448
 21
-2407.0000000008981
 31
0.0
1001
ACDBBLOCKREPETAG
1070
     1
1071
       41
1005
130B60
  0
LINE
  5
130B61
  8
OBJECT
 10
578.00000000011448
 20
-2407.0000000008981
 30
0.0
 11
454.00000000011448
 21
-2407.0000000008981
 31
0.0
1001
ACDBBLOCKREPETAG
1070
     1
1071
       42
1005
130B61
  0
LINE
  5
130B62
  8
OBJECT
 10
457.0000000001146
 20
-2407.0000000008981
 30
0.0
 11
457.0000000001146
 21
-2443.0000000008981
 31
0.0
1001
ACDBBLOCKREPETAG
1070
     1
1071
       43
1005
130B62
  0
LINE
  5
130B63
  8
OBJECT
 10
457.0000000001146
 20
-2443.0000000008981
 30
0.0
 11
575.00000000011437
 21
-2443.0000000008981
 31
0.0
1001
ACDBBLOCKREPETAG
1070
     1
1071
       44
1005
130B63
  0
LINE
  5
130B64
  8
OBJECT
 10
575.00000000011437
 20
-2443.0000000008981
 30
0.0
 11
575.00000000011437
 21
-2407.0000000008981
 31
0.0
1001
ACDBBLOCKREPETAG
1070
     1
1071
       45
1005
130B64
  0
LINE
  5
130B65
  8
OBJECT
 10
461.50000000011448
 20
-2447.0000000008981
 30
0.0
 11
461.50000000011448
 21
-2454.0000000008981
 31
0.0
1001
ACDBBLOCKREPETAG
1070
     1
1071
       46
1005
130B65
  0
LINE
  5
130B66
  8
OBJECT
 10
570.50000000011437
 20
-2454.0000000008981
 30
0.0
 11
570.50000000011437
 21
-2447.0000000008981
 31
0.0
1001
ACDBBLOCKREPETAG
1070
     1
1071
       47
1005
130B66
  0
LINE
  5
130B67
  8
OBJECT
 10
570.50000000011437
 20
-2447.0000000008981
 30
0.0
 11
461.50000000011448
 21
-2447.0000000008981
 31
0.0
1001
ACDBBLOCKREPETAG
1070
     1
1071
       48
1005
130B67
  0
LINE
  5
130B68
  8
OBJECT
 10
457.0000000001146
 20
-2443.0000000008981
 30
0.0
 11
461.50000000011448
 21
-2447.0000000008981
 31
0.0
1001
ACDBBLOCKREPETAG
1070
     1
1071
       49
1005
130B68
  0
LINE
  5
130B69
  8
OBJECT
 10
575.00000000011437
 20
-2443.0000000008981
 30
0.0
 11
570.50000000011437
 21
-2447.0000000008981
 31
0.0
1001
ACDBBLOCKREPETAG
1070
     1
1071
       50
1005
130B69
  0
LINE
  5
130B6A
  8
OBJECT
 10
454.00000000011448
 20
-2457.0000000008981
 30
0.0
 11
454.00000000011448
 21
-2460.0000000008981
 31
0.0
1001
ACDBBLOCKREPETAG
1070
     1
1071
       51
1005
130B6A
  0
ARC
  5
130B6B
  8
OBJECT
 10
457.0000000001146
 20
-2457.0000000008981
 30
0.0
 40
3.0
 50
90.0
 51
180.0
1001
ACDBBLOCKREPETAG
1070
     1
1071
       52
1005
130B6B
  0
LINE
  5
130B6C
  8
OBJECT
 10
578.00000000011448
 20
-2460.0000000008981
 30
0.0
 11
578.00000000011448
 21
-2457.0000000008999
 31
0.0
1001
ACDBBLOCKREPETAG
1070
     1
1071
       53
1005
130B6C
  0
ARC
  5
130B6D
  8
OBJECT
 10
575.00000000011437
 20
-2457.0000000008999
 30
0.0
 40
3.0
 50
0.0
 51
90.0
1001
ACDBBLOCKREPETAG
1070
     1
1071
       54
1005
130B6D
  0
LINE
  5
130B6E
  8
OBJECT
 10
575.00000000011437
 20
-2454.000000000899
 30
0.0
 11
457.0000000001146
 21
-2454.0000000008981
 31
0.0
1001
ACDBBLOCKREPETAG
1070
     1
1071
       55
1005
130B6E
  0
LINE
  5
130B6F
  8
HIDDEN
 10
471.5000000001146
 20
-2452.0000000008981
 30
0.0
 11
560.5000000001146
 21
-2452.0000000008981
 31
0.0
1001
ACDBBLOCKREPETAG
1070
     1
1071
      426
1005
130B6F
  0
LINE
  5
130B70
  8
OBJECT
 10
454.00000000011448
 20
-2159.0000000008922
 30
0.0
 11
454.00000000011448
 21
-2156.0000000008922
 31
0.0
1001
ACDBBLOCKREPETAG
1070
     1
1071
      418
1005
130B70
  0
ARC
  5
130B71
  8
OBJECT
 10
457.0000000001146
 20
-2159.0000000008922
 30
0.0
 40
3.0
 50
180.0
 51
270.0
1001
ACDBBLOCKREPETAG
1070
     1
1071
      419
1005
130B71
  0
LINE
  5
130B72
  8
OBJECT
 10
578.00000000011448
 20
-2156.0000000008922
 30
0.0
 11
578.00000000011448
 21
-2159.0000000008922
 31
0.0
1001
ACDBBLOCKREPETAG
1070
     1
1071
      420
1005
130B72
  0
ARC
  5
130B73
  8
OBJECT
 10
575.00000000011437
 20
-2159.0000000008922
 30
0.0
 40
3.0
 50
270.0
 51
0.0
1001
ACDBBLOCKREPETAG
1070
     1
1071
      421
1005
130B73
  0
LINE
  5
130B74
  8
OBJECT
 10
575.00000000011437
 20
-2162.0000000008922
 30
0.0
 11
457.0000000001146
 21
-2162.0000000008922
 31
0.0
1001
ACDBBLOCKREPETAG
1070
     1
1071
      422
1005
130B74
  0
INSERT
  5
130B75
  8
OBJECT
  2
*U16
 10
0.0
 20
0.0
 30
0.0
  0
LINE
  5
130B76
  8
OBJECT
 10
649.00000000011448
 20
-2021.000000000892
 30
0.0
 11
656.0000000001146
 21
-2021.000000000892
 31
0.0
1001
ACDBBLOCKREPETAG
1070
     1
1071
       20
1005
130B76
  0
LINE
  5
130B77
  8
OBJECT
 10
656.0000000001146
 20
-2021.000000000892
 30
0.0
 11
656.0000000001146
 21
-2131.0000000008922
 31
0.0
1001
ACDBBLOCKREPETAG
1070
     1
1071
       21
1005
130B77
  0
LINE
  5
130B78
  8
OBJECT
 10
656.0000000001146
 20
-2131.0000000008922
 30
0.0
 11
649.00000000011448
 21
-2131.0000000008922
 31
0.0
1001
ACDBBLOCKREPETAG
1070
     1
1071
       22
1005
130B78
  0
LINE
  5
130B79
  8
OBJECT
 10
649.00000000011448
 20
-2131.0000000008922
 30
0.0
 11
649.00000000011448
 21
-2021.000000000892
 31
0.0
1001
ACDBBLOCKREPETAG
1070
     1
1071
       23
1005
130B79
  0
LINE
  5
130B7A
  8
OBJECT
 10
649.00000000011448
 20
-2024.000000000892
 30
0.0
 11
613.0000000001146
 21
-2024.000000000892
 31
0.0
1001
ACDBBLOCKREPETAG
1070
     1
1071
       24
1005
130B7A
  0
LINE
  5
130B7B
  8
OBJECT
 10
613.0000000001146
 20
-2024.000000000892
 30
0.0
 11
613.0000000001146
 21
-2128.0000000008922
 31
0.0
1001
ACDBBLOCKREPETAG
1070
     1
1071
       25
1005
130B7B
  0
LINE
  5
130B7C
  8
OBJECT
 10
613.0000000001146
 20
-2128.0000000008922
 30
0.0
 11
649.00000000011448
 21
-2128.0000000008922
 31
0.0
1001
ACDBBLOCKREPETAG
1070
     1
1071
       26
1005
130B7C
  0
LINE
  5
130B7D
  8
OBJECT
 10
609.0000000001146
 20
-2028.500000000892
 30
0.0
 11
602.0000000001146
 21
-2028.500000000892
 31
0.0
1001
ACDBBLOCKREPETAG
1070
     1
1071
       27
1005
130B7D
  0
LINE
  5
130B7E
  8
OBJECT
 10
602.0000000001146
 20
-2123.5000000008931
 30
0.0
 11
609.0000000001146
 21
-2123.5000000008931
 31
0.0
1001
ACDBBLOCKREPETAG
1070
     1
1071
       28
1005
130B7E
  0
LINE
  5
130B7F
  8
OBJECT
 10
609.0000000001146
 20
-2123.5000000008931
 30
0.0
 11
609.0000000001146
 21
-2028.500000000892
 31
0.0
1001
ACDBBLOCKREPETAG
1070
     1
1071
       29
1005
130B7F
  0
LINE
  5
130B80
  8
OBJECT
 10
613.0000000001146
 20
-2024.000000000892
 30
0.0
 11
609.0000000001146
 21
-2028.500000000892
 31
0.0
1001
ACDBBLOCKREPETAG
1070
     1
1071
       30
1005
130B80
  0
LINE
  5
130B81
  8
OBJECT
 10
613.0000000001146
 20
-2128.0000000008922
 30
0.0
 11
609.0000000001146
 21
-2123.5000000008931
 31
0.0
1001
ACDBBLOCKREPETAG
1070
     1
1071
       31
1005
130B81
  0
LINE
  5
130B82
  8
OBJECT
 10
599.00000000011619
 20
-2014.000000000892
 30
0.0
 11
596.00000000011437
 21
-2014.000000000892
 31
0.0
1001
ACDBBLOCKREPETAG
1070
     1
1071
       32
1005
130B82
  0
ARC
  5
130B83
  8
OBJECT
 10
599.00000000011619
 20
-2017.000000000892
 30
0.0
 40
3.0
 50
0.0
 51
90.0
1001
ACDBBLOCKREPETAG
1070
     1
1071
       33
1005
130B83
  0
LINE
  5
130B84
  8
OBJECT
 10
596.00000000011437
 20
-2138.0000000008922
 30
0.0
 11
599.00000000011278
 21
-2138.0000000008922
 31
0.0
1001
ACDBBLOCKREPETAG
1070
     1
1071
       34
1005
130B84
  0
ARC
  5
130B85
  8
OBJECT
 10
599.00000000011278
 20
-2135.0000000008922
 30
0.0
 40
3.0
 50
270.0
 51
0.0
1001
ACDBBLOCKREPETAG
1070
     1
1071
       35
1005
130B85
  0
LINE
  5
130B86
  8
OBJECT
 10
602.00000000011266
 20
-2135.0000000008922
 30
0.0
 11
602.0000000001163
 21
-2017.000000000892
 31
0.0
1001
ACDBBLOCKREPETAG
1070
     1
1071
       36
1005
130B86
  0
LINE
  5
130B87
  8
HIDDEN
 10
604.00000000011437
 20
-2038.0000000008911
 30
0.0
 11
604.00000000011437
 21
-2114.0000000008922
 31
0.0
1001
ACDBBLOCKREPETAG
1070
     1
1071
      427
1005
130B87
  0
INSERT
  5
130B88
  8
OBJECT
  2
*U17
 10
0.0
 20
0.0
 30
0.0
  0
LINE
  5
130B89
  8
OBJECT
 10
454.00000000011448
 20
-1943.000000000892
 30
0.0
 11
454.00000000011448
 21
-1936.0000000008911
 31
0.0
1001
ACDBBLOCKREPETAG
1070
     1
1071
       39
1005
130B89
  0
LINE
  5
130B8A
  8
OBJECT
 10
454.00000000011448
 20
-1936.0000000008911
 30
0.0
 11
578.00000000011448
 21
-1936.0000000008911
 31
0.0
1001
ACDBBLOCKREPETAG
1070
     1
1071
       40
1005
130B8A
  0
LINE
  5
130B8B
  8
OBJECT
 10
578.00000000011448
 20
-1936.0000000008911
 30
0.0
 11
578.00000000011448
 21
-1943.000000000892
 31
0.0
1001
ACDBBLOCKREPETAG
1070
     1
1071
       41
1005
130B8B
  0
LINE
  5
130B8C
  8
OBJECT
 10
578.00000000011448
 20
-1943.000000000892
 30
0.0
 11
454.00000000011448
 21
-1943.000000000892
 31
0.0
1001
ACDBBLOCKREPETAG
1070
     1
1071
       42
1005
130B8C
  0
LINE
  5
130B8D
  8
OBJECT
 10
457.0000000001146
 20
-1943.000000000892
 30
0.0
 11
457.0000000001146
 21
-1979.000000000892
 31
0.0
1001
ACDBBLOCKREPETAG
1070
     1
1071
       43
1005
130B8D
  0
LINE
  5
130B8E
  8
OBJECT
 10
457.0000000001146
 20
-1979.000000000892
 30
0.0
 11
575.00000000011437
 21
-1979.000000000892
 31
0.0
1001
ACDBBLOCKREPETAG
1070
     1
1071
       44
1005
130B8E
  0
LINE
  5
130B8F
  8
OBJECT
 10
575.00000000011437
 20
-1979.000000000892
 30
0.0
 11
575.00000000011437
 21
-1943.000000000892
 31
0.0
1001
ACDBBLOCKREPETAG
1070
     1
1071
       45
1005
130B8F
  0
LINE
  5
130B90
  8
OBJECT
 10
461.50000000011448
 20
-1983.000000000892
 30
0.0
 11
461.50000000011448
 21
-1990.000000000892
 31
0.0
1001
ACDBBLOCKREPETAG
1070
     1
1071
       46
1005
130B90
  0
LINE
  5
130B91
  8
OBJECT
 10
570.50000000011437
 20
-1990.000000000892
 30
0.0
 11
570.50000000011437
 21
-1983.000000000892
 31
0.0
1001
ACDBBLOCKREPETAG
1070
     1
1071
       47
1005
130B91
  0
LINE
  5
130B92
  8
OBJECT
 10
570.50000000011437
 20
-1983.000000000892
 30
0.0
 11
461.50000000011448
 21
-1983.000000000892
 31
0.0
1001
ACDBBLOCKREPETAG
1070
     1
1071
       48
1005
130B92
  0
LINE
  5
130B93
  8
OBJECT
 10
457.0000000001146
 20
-1979.000000000892
 30
0.0
 11
461.50000000011448
 21
-1983.000000000892
 31
0.0
1001
ACDBBLOCKREPETAG
1070
     1
1071
       49
1005
130B93
  0
LINE
  5
130B94
  8
OBJECT
 10
575.00000000011437
 20
-1979.000000000892
 30
0.0
 11
570.50000000011437
 21
-1983.000000000892
 31
0.0
1001
ACDBBLOCKREPETAG
1070
     1
1071
       50
1005
130B94
  0
LINE
  5
130B95
  8
OBJECT
 10
454.00000000011448
 20
-1993.0000000008911
 30
0.0
 11
454.00000000011448
 21
-1996.000000000892
 31
0.0
1001
ACDBBLOCKREPETAG
1070
     1
1071
       51
1005
130B95
  0
ARC
  5
130B96
  8
OBJECT
 10
457.0000000001146
 20
-1993.0000000008911
 30
0.0
 40
3.0
 50
90.0
 51
180.0
1001
ACDBBLOCKREPETAG
1070
     1
1071
       52
1005
130B96
  0
LINE
  5
130B97
  8
OBJECT
 10
578.00000000011448
 20
-1996.000000000892
 30
0.0
 11
578.00000000011448
 21
-1993.0000000008929
 31
0.0
1001
ACDBBLOCKREPETAG
1070
     1
1071
       53
1005
130B97
  0
ARC
  5
130B98
  8
OBJECT
 10
575.00000000011437
 20
-1993.0000000008929
 30
0.0
 40
3.0
 50
0.0
 51
90.0
1001
ACDBBLOCKREPETAG
1070
     1
1071
       54
1005
130B98
  0
LINE
  5
130B99
  8
OBJECT
 10
575.00000000011437
 20
-1990.0000000008929
 30
0.0
 11
457.0000000001146
 21
-1990.0000000008911
 31
0.0
1001
ACDBBLOCKREPETAG
1070
     1
1071
       55
1005
130B99
  0
LINE
  5
130B9A
  8
HIDDEN
 10
471.5000000001146
 20
-1988.0000000008911
 30
0.0
 11
560.5000000001146
 21
-1988.0000000008911
 31
0.0
1001
ACDBBLOCKREPETAG
1070
     1
1071
      426
1005
130B9A
  0
LINE
  5
130B9B
  8
OBJECT
 10
94.000000000034575
 20
-2159.0000000008922
 30
0.0
 11
94.000000000034575
 21
-2156.0000000008922
 31
0.0
1001
ACDBBLOCKREPETAG
1070
     1
1071
      418
1005
130B9B
  0
ARC
  5
130B9C
  8
OBJECT
 10
97.000000000034561
 20
-2159.0000000008922
 30
0.0
 40
3.0
 50
180.0
 51
270.0
1001
ACDBBLOCKREPETAG
1070
     1
1071
      419
1005
130B9C
  0
LINE
  5
130B9D
  8
OBJECT
 10
218.00000000003459
 20
-2156.0000000008922
 30
0.0
 11
218.00000000003459
 21
-2159.0000000008922
 31
0.0
1001
ACDBBLOCKREPETAG
1070
     1
1071
      420
1005
130B9D
  0
ARC
  5
130B9E
  8
OBJECT
 10
215.00000000003459
 20
-2159.0000000008922
 30
0.0
 40
3.0
 50
270.0
 51
0.0
1001
ACDBBLOCKREPETAG
1070
     1
1071
      421
1005
130B9E
  0
LINE
  5
130B9F
  8
OBJECT
 10
215.00000000003459
 20
-2162.0000000008922
 30
0.0
 11
97.000000000034561
 21
-2162.0000000008922
 31
0.0
1001
ACDBBLOCKREPETAG
1070
     1
1071
      422
1005
130B9F
  0
INSERT
  5
130BA0
  8
OBJECT
  2
*U18
 10
0.0
 20
0.0
 30
0.0
  0
LINE
  5
130BA1
  8
OBJECT
 10
289.00000000003462
 20
-2029.000000000892
 30
0.0
 11
296.0000000000345
 21
-2029.000000000892
 31
0.0
1001
ACDBBLOCKREPETAG
1070
     1
1071
        1
1005
130BA1
  0
LINE
  5
130BA2
  8
OBJECT
 10
296.0000000000345
 20
-2029.000000000892
 30
0.0
 11
296.0000000000345
 21
-2123.0000000008922
 31
0.0
1001
ACDBBLOCKREPETAG
1070
     1
1071
        2
1005
130BA2
  0
LINE
  5
130BA3
  8
OBJECT
 10
296.0000000000345
 20
-2123.0000000008922
 30
0.0
 11
289.00000000003462
 21
-2123.0000000008922
 31
0.0
1001
ACDBBLOCKREPETAG
1070
     1
1071
        3
1005
130BA3
  0
LINE
  5
130BA4
  8
OBJECT
 10
289.00000000003462
 20
-2123.0000000008922
 30
0.0
 11
289.00000000003462
 21
-2029.000000000892
 31
0.0
1001
ACDBBLOCKREPETAG
1070
     1
1071
        4
1005
130BA4
  0
LINE
  5
130BA5
  8
OBJECT
 10
289.00000000003462
 20
-2032.000000000892
 30
0.0
 11
253.00000000003459
 21
-2032.000000000892
 31
0.0
1001
ACDBBLOCKREPETAG
1070
     1
1071
        5
1005
130BA5
  0
LINE
  5
130BA6
  8
OBJECT
 10
253.00000000003459
 20
-2032.000000000892
 30
0.0
 11
253.00000000003459
 21
-2120.0000000008922
 31
0.0
1001
ACDBBLOCKREPETAG
1070
     1
1071
        6
1005
130BA6
  0
LINE
  5
130BA7
  8
OBJECT
 10
253.00000000003459
 20
-2120.0000000008922
 30
0.0
 11
289.00000000003462
 21
-2120.0000000008922
 31
0.0
1001
ACDBBLOCKREPETAG
1070
     1
1071
        7
1005
130BA7
  0
LINE
  5
130BA8
  8
OBJECT
 10
249.00000000003459
 20
-2036.500000000892
 30
0.0
 11
242.00000000003459
 21
-2036.500000000892
 31
0.0
1001
ACDBBLOCKREPETAG
1070
     1
1071
        8
1005
130BA8
  0
LINE
  5
130BA9
  8
OBJECT
 10
242.00000000003459
 20
-2115.5000000008922
 30
0.0
 11
249.00000000003459
 21
-2115.5000000008922
 31
0.0
1001
ACDBBLOCKREPETAG
1070
     1
1071
        9
1005
130BA9
  0
LINE
  5
130BAA
  8
OBJECT
 10
249.00000000003459
 20
-2115.5000000008922
 30
0.0
 11
249.00000000003459
 21
-2036.500000000892
 31
0.0
1001
ACDBBLOCKREPETAG
1070
     1
1071
       10
1005
130BAA
  0
LINE
  5
130BAB
  8
OBJECT
 10
253.00000000003459
 20
-2032.000000000892
 30
0.0
 11
249.00000000003459
 21
-2036.500000000892
 31
0.0
1001
ACDBBLOCKREPETAG
1070
     1
1071
       11
1005
130BAB
  0
LINE
  5
130BAC
  8
OBJECT
 10
253.00000000003459
 20
-2120.0000000008922
 30
0.0
 11
249.00000000003459
 21
-2115.5000000008922
 31
0.0
1001
ACDBBLOCKREPETAG
1070
     1
1071
       12
1005
130BAC
  0
LINE
  5
130BAD
  8
OBJECT
 10
239.00000000003641
 20
-2014.000000000892
 30
0.0
 11
236.00000000003459
 21
-2014.000000000892
 31
0.0
1001
ACDBBLOCKREPETAG
1070
     1
1071
       13
1005
130BAD
  0
ARC
  5
130BAE
  8
OBJECT
 10
239.00000000003641
 20
-2017.000000000892
 30
0.0
 40
3.0
 50
0.0
 51
90.0
1001
ACDBBLOCKREPETAG
1070
     1
1071
       14
1005
130BAE
  0
LINE
  5
130BAF
  8
OBJECT
 10
236.00000000003459
 20
-2138.0000000008922
 30
0.0
 11
239.00000000003271
 21
-2138.0000000008922
 31
0.0
1001
ACDBBLOCKREPETAG
1070
     1
1071
       15
1005
130BAF
  0
ARC
  5
130BB0
  8
OBJECT
 10
239.00000000003271
 20
-2135.0000000008922
 30
0.0
 40
3.0
 50
270.0
 51
0.0
1001
ACDBBLOCKREPETAG
1070
     1
1071
       16
1005
130BB0
  0
LINE
  5
130BB1
  8
OBJECT
 10
242.0000000000328
 20
-2135.0000000008922
 30
0.0
 11
242.00000000003641
 21
-2017.000000000892
 31
0.0
1001
ACDBBLOCKREPETAG
1070
     1
1071
       17
1005
130BB1
  0
LINE
  5
130BB2
  8
HIDDEN
 10
244.0000000000345
 20
-2046.000000000892
 30
0.0
 11
244.0000000000345
 21
-2106.0000000008922
 31
0.0
1001
ACDBBLOCKREPETAG
1070
     1
1071
      424
1005
130BB2
  0
INSERT
  5
130BB3
  8
OBJECT
  2
*U19
 10
0.0
 20
0.0
 30
0.0
  0
LINE
  5
130BB4
  8
OBJECT
 10
94.000000000034575
 20
-1943.000000000892
 30
0.0
 11
94.000000000034575
 21
-1936.0000000008911
 31
0.0
1001
ACDBBLOCKREPETAG
1070
     1
1071
       39
1005
130BB4
  0
LINE
  5
130BB5
  8
OBJECT
 10
94.000000000034575
 20
-1936.0000000008911
 30
0.0
 11
218.00000000003459
 21
-1936.0000000008911
 31
0.0
1001
ACDBBLOCKREPETAG
1070
     1
1071
       40
1005
130BB5
  0
LINE
  5
130BB6
  8
OBJECT
 10
218.00000000003459
 20
-1936.0000000008911
 30
0.0
 11
218.00000000003459
 21
-1943.000000000892
 31
0.0
1001
ACDBBLOCKREPETAG
1070
     1
1071
       41
1005
130BB6
  0
LINE
  5
130BB7
  8
OBJECT
 10
218.00000000003459
 20
-1943.000000000892
 30
0.0
 11
94.000000000034575
 21
-1943.000000000892
 31
0.0
1001
ACDBBLOCKREPETAG
1070
     1
1071
       42
1005
130BB7
  0
LINE
  5
130BB8
  8
OBJECT
 10
97.000000000034561
 20
-1943.000000000892
 30
0.0
 11
97.000000000034561
 21
-1979.000000000892
 31
0.0
1001
ACDBBLOCKREPETAG
1070
     1
1071
       43
1005
130BB8
  0
LINE
  5
130BB9
  8
OBJECT
 10
97.000000000034561
 20
-1979.000000000892
 30
0.0
 11
215.00000000003459
 21
-1979.000000000892
 31
0.0
1001
ACDBBLOCKREPETAG
1070
     1
1071
       44
1005
130BB9
  0
LINE
  5
130BBA
  8
OBJECT
 10
215.00000000003459
 20
-1979.000000000892
 30
0.0
 11
215.00000000003459
 21
-1943.000000000892
 31
0.0
1001
ACDBBLOCKREPETAG
1070
     1
1071
       45
1005
130BBA
  0
LINE
  5
130BBB
  8
OBJECT
 10
101.5000000000345
 20
-1983.000000000892
 30
0.0
 11
101.5000000000345
 21
-1990.000000000892
 31
0.0
1001
ACDBBLOCKREPETAG
1070
     1
1071
       46
1005
130BBB
  0
LINE
  5
130BBC
  8
OBJECT
 10
210.5000000000345
 20
-1990.000000000892
 30
0.0
 11
210.5000000000345
 21
-1983.000000000892
 31
0.0
1001
ACDBBLOCKREPETAG
1070
     1
1071
       47
1005
130BBC
  0
LINE
  5
130BBD
  8
OBJECT
 10
210.5000000000345
 20
-1983.000000000892
 30
0.0
 11
101.5000000000345
 21
-1983.000000000892
 31
0.0
1001
ACDBBLOCKREPETAG
1070
     1
1071
       48
1005
130BBD
  0
LINE
  5
130BBE
  8
OBJECT
 10
97.000000000034561
 20
-1979.000000000892
 30
0.0
 11
101.5000000000345
 21
-1983.000000000892
 31
0.0
1001
ACDBBLOCKREPETAG
1070
     1
1071
       49
1005
130BBE
  0
LINE
  5
130BBF
  8
OBJECT
 10
215.00000000003459
 20
-1979.000000000892
 30
0.0
 11
210.5000000000345
 21
-1983.000000000892
 31
0.0
1001
ACDBBLOCKREPETAG
1070
     1
1071
       50
1005
130BBF
  0
LINE
  5
130BC0
  8
OBJECT
 10
94.000000000034575
 20
-1993.0000000008911
 30
0.0
 11
94.000000000034575
 21
-1996.000000000892
 31
0.0
1001
ACDBBLOCKREPETAG
1070
     1
1071
       51
1005
130BC0
  0
ARC
  5
130BC1
  8
OBJECT
 10
97.000000000034561
 20
-1993.0000000008911
 30
0.0
 40
3.0
 50
90.0
 51
180.0
1001
ACDBBLOCKREPETAG
1070
     1
1071
       52
1005
130BC1
  0
LINE
  5
130BC2
  8
OBJECT
 10
218.00000000003459
 20
-1996.000000000892
 30
0.0
 11
218.00000000003459
 21
-1993.0000000008929
 31
0.0
1001
ACDBBLOCKREPETAG
1070
     1
1071
       53
1005
130BC2
  0
ARC
  5
130BC3
  8
OBJECT
 10
215.00000000003459
 20
-1993.0000000008929
 30
0.0
 40
3.0
 50
0.0
 51
90.0
1001
ACDBBLOCKREPETAG
1070
     1
1071
       54
1005
130BC3
  0
LINE
  5
130BC4
  8
OBJECT
 10
215.00000000003459
 20
-1990.0000000008929
 30
0.0
 11
97.000000000034561
 21
-1990.0000000008911
 31
0.0
1001
ACDBBLOCKREPETAG
1070
     1
1071
       55
1005
130BC4
  0
LINE
  5
130BC5
  8
HIDDEN
 10
111.5000000000345
 20
-1988.0000000008911
 30
0.0
 11
200.50000000003459
 21
-1988.0000000008911
 31
0.0
1001
ACDBBLOCKREPETAG
1070
     1
1071
      426
1005
130BC5
  0
LINE
  5
130BC6
  8
OBJECT
 10
94.000000000034575
 20
-1695.0000000008849
 30
0.0
 11
94.000000000034575
 21
-1692.000000000884
 31
0.0
1001
ACDBBLOCKREPETAG
1070
     1
1071
      418
1005
130BC6
  0
ARC
  5
130BC7
  8
OBJECT
 10
97.000000000034561
 20
-1695.0000000008849
 30
0.0
 40
3.0
 50
180.0
 51
270.0
1001
ACDBBLOCKREPETAG
1070
     1
1071
      419
1005
130BC7
  0
LINE
  5
130BC8
  8
OBJECT
 10
218.00000000003459
 20
-1692.000000000884
 30
0.0
 11
218.00000000003459
 21
-1695.0000000008849
 31
0.0
1001
ACDBBLOCKREPETAG
1070
     1
1071
      420
1005
130BC8
  0
ARC
  5
130BC9
  8
OBJECT
 10
215.00000000003459
 20
-1695.0000000008849
 30
0.0
 40
3.0
 50
270.0
 51
0.0
1001
ACDBBLOCKREPETAG
1070
     1
1071
      421
1005
130BC9
  0
LINE
  5
130BCA
  8
OBJECT
 10
215.00000000003459
 20
-1698.0000000008849
 30
0.0
 11
97.000000000034561
 21
-1698.0000000008849
 31
0.0
1001
ACDBBLOCKREPETAG
1070
     1
1071
      422
1005
130BCA
  0
INSERT
  5
130BCB
  8
OBJECT
  2
*U20
 10
0.0
 20
0.0
 30
0.0
  0
LINE
  5
130BCC
  8
OBJECT
 10
289.00000000003462
 20
-1550.0000000008849
 30
0.0
 11
296.0000000000345
 21
-1550.0000000008849
 31
0.0
1001
ACDBBLOCKREPETAG
1070
     1
1071
       39
1005
130BCC
  0
LINE
  5
130BCD
  8
OBJECT
 10
296.0000000000345
 20
-1550.0000000008849
 30
0.0
 11
296.0000000000345
 21
-1674.0000000008849
 31
0.0
1001
ACDBBLOCKREPETAG
1070
     1
1071
       40
1005
130BCD
  0
LINE
  5
130BCE
  8
OBJECT
 10
296.0000000000345
 20
-1674.0000000008849
 30
0.0
 11
289.00000000003462
 21
-1674.0000000008849
 31
0.0
1001
ACDBBLOCKREPETAG
1070
     1
1071
       41
1005
130BCE
  0
LINE
  5
130BCF
  8
OBJECT
 10
289.00000000003462
 20
-1674.0000000008849
 30
0.0
 11
289.00000000003462
 21
-1550.0000000008849
 31
0.0
1001
ACDBBLOCKREPETAG
1070
     1
1071
       42
1005
130BCF
  0
LINE
  5
130BD0
  8
OBJECT
 10
289.00000000003462
 20
-1553.0000000008849
 30
0.0
 11
253.00000000003459
 21
-1553.0000000008849
 31
0.0
1001
ACDBBLOCKREPETAG
1070
     1
1071
       43
1005
130BD0
  0
LINE
  5
130BD1
  8
OBJECT
 10
253.00000000003459
 20
-1553.0000000008849
 30
0.0
 11
253.00000000003459
 21
-1671.0000000008849
 31
0.0
1001
ACDBBLOCKREPETAG
1070
     1
1071
       44
1005
130BD1
  0
LINE
  5
130BD2
  8
OBJECT
 10
253.00000000003459
 20
-1671.0000000008849
 30
0.0
 11
289.00000000003462
 21
-1671.0000000008849
 31
0.0
1001
ACDBBLOCKREPETAG
1070
     1
1071
       45
1005
130BD2
  0
LINE
  5
130BD3
  8
OBJECT
 10
249.00000000003459
 20
-1557.500000000884
 30
0.0
 11
242.00000000003459
 21
-1557.500000000884
 31
0.0
1001
ACDBBLOCKREPETAG
1070
     1
1071
       46
1005
130BD3
  0
LINE
  5
130BD4
  8
OBJECT
 10
242.00000000003459
 20
-1666.5000000008849
 30
0.0
 11
249.00000000003459
 21
-1666.5000000008849
 31
0.0
1001
ACDBBLOCKREPETAG
1070
     1
1071
       47
1005
130BD4
  0
LINE
  5
130BD5
  8
OBJECT
 10
249.00000000003459
 20
-1666.5000000008849
 30
0.0
 11
249.00000000003459
 21
-1557.500000000884
 31
0.0
1001
ACDBBLOCKREPETAG
1070
     1
1071
       48
1005
130BD5
  0
LINE
  5
130BD6
  8
OBJECT
 10
253.00000000003459
 20
-1553.0000000008849
 30
0.0
 11
249.00000000003459
 21
-1557.500000000884
 31
0.0
1001
ACDBBLOCKREPETAG
1070
     1
1071
       49
1005
130BD6
  0
LINE
  5
130BD7
  8
OBJECT
 10
253.00000000003459
 20
-1671.0000000008849
 30
0.0
 11
249.00000000003459
 21
-1666.5000000008849
 31
0.0
1001
ACDBBLOCKREPETAG
1070
     1
1071
       50
1005
130BD7
  0
LINE
  5
130BD8
  8
OBJECT
 10
239.00000000003641
 20
-1550.0000000008849
 30
0.0
 11
236.00000000003459
 21
-1550.0000000008849
 31
0.0
1001
ACDBBLOCKREPETAG
1070
     1
1071
       51
1005
130BD8
  0
ARC
  5
130BD9
  8
OBJECT
 10
239.00000000003641
 20
-1553.0000000008849
 30
0.0
 40
3.0
 50
0.0
 51
90.0
1001
ACDBBLOCKREPETAG
1070
     1
1071
       52
1005
130BD9
  0
LINE
  5
130BDA
  8
OBJECT
 10
236.00000000003459
 20
-1674.0000000008849
 30
0.0
 11
239.00000000003271
 21
-1674.0000000008849
 31
0.0
1001
ACDBBLOCKREPETAG
1070
     1
1071
       53
1005
130BDA
  0
ARC
  5
130BDB
  8
OBJECT
 10
239.00000000003271
 20
-1671.0000000008849
 30
0.0
 40
3.0
 50
270.0
 51
0.0
1001
ACDBBLOCKREPETAG
1070
     1
1071
       54
1005
130BDB
  0
LINE
  5
130BDC
  8
OBJECT
 10
242.0000000000328
 20
-1671.0000000008849
 30
0.0
 11
242.00000000003641
 21
-1553.0000000008849
 31
0.0
1001
ACDBBLOCKREPETAG
1070
     1
1071
       55
1005
130BDC
  0
LINE
  5
130BDD
  8
HIDDEN
 10
244.0000000000345
 20
-1567.500000000884
 30
0.0
 11
244.0000000000345
 21
-1656.5000000008849
 31
0.0
1001
ACDBBLOCKREPETAG
1070
     1
1071
      430
1005
130BDD
  0
INSERT
  5
130BDE
  8
OBJECT
  2
*U21
 10
0.0
 20
0.0
 30
0.0
  0
LINE
  5
130BDF
  8
OBJECT
 10
101.0000000000345
 20
-1479.000000000884
 30
0.0
 11
101.0000000000345
 21
-1472.0000000008849
 31
0.0
1001
ACDBBLOCKREPETAG
1070
     1
1071
       20
1005
130BDF
  0
LINE
  5
130BE0
  8
OBJECT
 10
101.0000000000345
 20
-1472.0000000008849
 30
0.0
 11
211.00000000003459
 21
-1472.0000000008849
 31
0.0
1001
ACDBBLOCKREPETAG
1070
     1
1071
       21
1005
130BE0
  0
LINE
  5
130BE1
  8
OBJECT
 10
211.00000000003459
 20
-1472.0000000008849
 30
0.0
 11
211.00000000003459
 21
-1479.000000000884
 31
0.0
1001
ACDBBLOCKREPETAG
1070
     1
1071
       22
1005
130BE1
  0
LINE
  5
130BE2
  8
OBJECT
 10
211.00000000003459
 20
-1479.000000000884
 30
0.0
 11
101.0000000000345
 21
-1479.000000000884
 31
0.0
1001
ACDBBLOCKREPETAG
1070
     1
1071
       23
1005
130BE2
  0
LINE
  5
130BE3
  8
OBJECT
 10
104.0000000000345
 20
-1479.000000000884
 30
0.0
 11
104.0000000000345
 21
-1515.0000000008849
 31
0.0
1001
ACDBBLOCKREPETAG
1070
     1
1071
       24
1005
130BE3
  0
LINE
  5
130BE4
  8
OBJECT
 10
104.0000000000345
 20
-1515.0000000008849
 30
0.0
 11
208.00000000003459
 21
-1515.0000000008849
 31
0.0
1001
ACDBBLOCKREPETAG
1070
     1
1071
       25
1005
130BE4
  0
LINE
  5
130BE5
  8
OBJECT
 10
208.00000000003459
 20
-1515.0000000008849
 30
0.0
 11
208.00000000003459
 21
-1479.000000000884
 31
0.0
1001
ACDBBLOCKREPETAG
1070
     1
1071
       26
1005
130BE5
  0
LINE
  5
130BE6
  8
OBJECT
 10
108.5000000000345
 20
-1519.000000000884
 30
0.0
 11
108.5000000000345
 21
-1526.0000000008849
 31
0.0
1001
ACDBBLOCKREPETAG
1070
     1
1071
       27
1005
130BE6
  0
LINE
  5
130BE7
  8
OBJECT
 10
203.50000000003459
 20
-1526.0000000008849
 30
0.0
 11
203.50000000003459
 21
-1519.000000000884
 31
0.0
1001
ACDBBLOCKREPETAG
1070
     1
1071
       28
1005
130BE7
  0
LINE
  5
130BE8
  8
OBJECT
 10
203.50000000003459
 20
-1519.000000000884
 30
0.0
 11
108.5000000000345
 21
-1519.000000000884
 31
0.0
1001
ACDBBLOCKREPETAG
1070
     1
1071
       29
1005
130BE8
  0
LINE
  5
130BE9
  8
OBJECT
 10
104.0000000000345
 20
-1515.0000000008849
 30
0.0
 11
108.5000000000345
 21
-1519.000000000884
 31
0.0
1001
ACDBBLOCKREPETAG
1070
     1
1071
       30
1005
130BE9
  0
LINE
  5
130BEA
  8
OBJECT
 10
208.00000000003459
 20
-1515.0000000008849
 30
0.0
 11
203.50000000003459
 21
-1519.000000000884
 31
0.0
1001
ACDBBLOCKREPETAG
1070
     1
1071
       31
1005
130BEA
  0
LINE
  5
130BEB
  8
OBJECT
 10
94.000000000034575
 20
-1529.000000000884
 30
0.0
 11
94.000000000034575
 21
-1532.000000000884
 31
0.0
1001
ACDBBLOCKREPETAG
1070
     1
1071
       32
1005
130BEB
  0
ARC
  5
130BEC
  8
OBJECT
 10
97.000000000034561
 20
-1529.000000000884
 30
0.0
 40
3.0
 50
90.0
 51
180.0
1001
ACDBBLOCKREPETAG
1070
     1
1071
       33
1005
130BEC
  0
LINE
  5
130BED
  8
OBJECT
 10
218.00000000003459
 20
-1532.000000000884
 30
0.0
 11
218.00000000003459
 21
-1529.0000000008861
 31
0.0
1001
ACDBBLOCKREPETAG
1070
     1
1071
       34
1005
130BED
  0
ARC
  5
130BEE
  8
OBJECT
 10
215.00000000003459
 20
-1529.0000000008861
 30
0.0
 40
3.0
 50
0.0
 51
90.0
1001
ACDBBLOCKREPETAG
1070
     1
1071
       35
1005
130BEE
  0
LINE
  5
130BEF
  8
OBJECT
 10
215.00000000003459
 20
-1526.0000000008861
 30
0.0
 11
97.000000000034561
 21
-1526.000000000884
 31
0.0
1001
ACDBBLOCKREPETAG
1070
     1
1071
       36
1005
130BEF
  0
LINE
  5
130BF0
  8
HIDDEN
 10
118.0000000000345
 20
-1524.0000000008849
 30
0.0
 11
194.0000000000345
 21
-1524.0000000008849
 31
0.0
1001
ACDBBLOCKREPETAG
1070
     1
1071
      423
1005
130BF0
  0
LINE
  5
130BF1
  8
OBJECT
 10
454.00000000011448
 20
-1695.0000000008849
 30
0.0
 11
454.00000000011448
 21
-1692.000000000884
 31
0.0
1001
ACDBBLOCKREPETAG
1070
     1
1071
      418
1005
130BF1
  0
ARC
  5
130BF2
  8
OBJECT
 10
457.0000000001146
 20
-1695.0000000008849
 30
0.0
 40
3.0
 50
180.0
 51
270.0
1001
ACDBBLOCKREPETAG
1070
     1
1071
      419
1005
130BF2
  0
LINE
  5
130BF3
  8
OBJECT
 10
578.00000000011448
 20
-1692.000000000884
 30
0.0
 11
578.00000000011448
 21
-1695.0000000008849
 31
0.0
1001
ACDBBLOCKREPETAG
1070
     1
1071
      420
1005
130BF3
  0
ARC
  5
130BF4
  8
OBJECT
 10
575.00000000011437
 20
-1695.0000000008849
 30
0.0
 40
3.0
 50
270.0
 51
0.0
1001
ACDBBLOCKREPETAG
1070
     1
1071
      421
1005
130BF4
  0
LINE
  5
130BF5
  8
OBJECT
 10
575.00000000011437
 20
-1698.0000000008849
 30
0.0
 11
457.0000000001146
 21
-1698.0000000008849
 31
0.0
1001
ACDBBLOCKREPETAG
1070
     1
1071
      422
1005
130BF5
  0
LINE
  5
130BF6
  8
OBJECT
 10
666.00000000011448
 20
-1537.000000000884
 30
0.0
 11
659.0000000001146
 21
-1537.000000000884
 31
0.0
1001
ACDBBLOCKREPETAG
1070
     1
1071
       57
1005
130BF6
  0
LINE
  5
130BF7
  8
OBJECT
 10
659.0000000001146
 20
-1537.000000000884
 30
0.0
 11
659.0000000001146
 21
-1687.0000000008849
 31
0.0
1001
ACDBBLOCKREPETAG
1070
     1
1071
       58
1005
130BF7
  0
LINE
  5
130BF8
  8
OBJECT
 10
617.5000000001146
 20
-1540.000000000884
 30
0.0
 11
617.5000000001146
 21
-1684.000000000884
 31
0.0
1001
ACDBBLOCKREPETAG
1070
     1
1071
       59
1005
130BF8
  0
LINE
  5
130BF9
  8
OBJECT
 10
606.0000000001146
 20
-1546.5000000008849
 30
0.0
 11
606.0000000001146
 21
-1677.5000000008849
 31
0.0
1001
ACDBBLOCKREPETAG
1070
     1
1071
       60
1005
130BF9
  0
LINE
  5
130BFA
  8
OBJECT
 10
659.0000000001146
 20
-1687.0000000008849
 30
0.0
 11
666.00000000011448
 21
-1687.0000000008849
 31
0.0
1001
ACDBBLOCKREPETAG
1070
     1
1071
       61
1005
130BFA
  0
LINE
  5
130BFB
  8
OBJECT
 10
666.00000000011448
 20
-1687.0000000008849
 30
0.0
 11
666.00000000011448
 21
-1537.000000000884
 31
0.0
1001
ACDBBLOCKREPETAG
1070
     1
1071
       62
1005
130BFB
  0
LINE
  5
130BFC
  8
OBJECT
 10
602.0000000001146
 20
-1674.0000000008849
 30
0.0
 11
596.00000000011437
 21
-1674.0000000008849
 31
0.0
1001
ACDBBLOCKREPETAG
1070
     1
1071
       63
1005
130BFC
  0
LINE
  5
130BFD
  8
OBJECT
 10
659.0000000001146
 20
-1684.000000000884
 30
0.0
 11
617.5000000001146
 21
-1684.000000000884
 31
0.0
1001
ACDBBLOCKREPETAG
1070
     1
1071
       64
1005
130BFD
  0
LINE
  5
130BFE
  8
OBJECT
 10
617.5000000001146
 20
-1684.000000000884
 30
0.0
 11
606.0000000001146
 21
-1677.5000000008849
 31
0.0
1001
ACDBBLOCKREPETAG
1070
     1
1071
       65
1005
130BFE
  0
LINE
  5
130BFF
  8
OBJECT
 10
606.0000000001146
 20
-1677.5000000008849
 30
0.0
 11
602.0000000001146
 21
-1674.0000000008849
 31
0.0
1001
ACDBBLOCKREPETAG
1070
     1
1071
       66
1005
130BFF
  0
LINE
  5
130C00
  8
OBJECT
 10
617.5000000001146
 20
-1540.000000000884
 30
0.0
 11
606.0000000001146
 21
-1546.5000000008849
 31
0.0
1001
ACDBBLOCKREPETAG
1070
     1
1071
       67
1005
130C00
  0
LINE
  5
130C01
  8
OBJECT
 10
606.0000000001146
 20
-1546.5000000008849
 30
0.0
 11
602.0000000001146
 21
-1550.0000000008849
 31
0.0
1001
ACDBBLOCKREPETAG
1070
     1
1071
       68
1005
130C01
  0
ARC
  5
130C02
  8
OBJECT
 10
983.90000000011605
 20
-1612.000000000884
 30
0.0
 40
386.89999999999998
 50
170.77870136263201
 51
189.22129863736799
1001
ACDBBLOCKREPETAG
1070
     1
1071
       69
1005
130C02
  0
LINE
  5
130C03
  8
OBJECT
 10
602.0000000001146
 20
-1550.0000000008849
 30
0.0
 11
596.00000000011437
 21
-1550.0000000008849
 31
0.0
1001
ACDBBLOCKREPETAG
1070
     1
1071
       70
1005
130C03
  0
LINE
  5
130C04
  8
OBJECT
 10
659.0000000001146
 20
-1540.000000000884
 30
0.0
 11
617.5000000001146
 21
-1540.000000000884
 31
0.0
1001
ACDBBLOCKREPETAG
1070
     1
1071
       71
1005
130C04
  0
INSERT
  5
130C05
  8
OBJECT
  2
*U22
 10
0.0
 20
0.0
 30
0.0
  0
LINE
  5
130C06
  8
HIDDEN
 10
614.0000000001146
 20
-1669.0000000008849
 30
0.0
 11
614.0000000001146
 21
-1555.0000000008849
 31
0.0
1001
ACDBBLOCKREPETAG
1070
     1
1071
      437
1005
130C06
  0
INSERT
  5
130C07
  8
OBJECT
  2
*U23
 10
0.0
 20
0.0
 30
0.0
  0
LINE
  5
130C08
  8
OBJECT
 10
461.0000000001146
 20
-1479.000000000884
 30
0.0
 11
461.0000000001146
 21
-1472.0000000008849
 31
0.0
1001
ACDBBLOCKREPETAG
1070
     1
1071
       20
1005
130C08
  0
LINE
  5
130C09
  8
OBJECT
 10
461.0000000001146
 20
-1472.0000000008849
 30
0.0
 11
571.00000000011437
 21
-1472.0000000008849
 31
0.0
1001
ACDBBLOCKREPETAG
1070
     1
1071
       21
1005
130C09
  0
LINE
  5
130C0A
  8
OBJECT
 10
571.00000000011437
 20
-1472.0000000008849
 30
0.0
 11
571.00000000011437
 21
-1479.000000000884
 31
0.0
1001
ACDBBLOCKREPETAG
1070
     1
1071
       22
1005
130C0A
  0
LINE
  5
130C0B
  8
OBJECT
 10
571.00000000011437
 20
-1479.000000000884
 30
0.0
 11
461.0000000001146
 21
-1479.000000000884
 31
0.0
1001
ACDBBLOCKREPETAG
1070
     1
1071
       23
1005
130C0B
  0
LINE
  5
130C0C
  8
OBJECT
 10
464.0000000001146
 20
-1479.000000000884
 30
0.0
 11
464.0000000001146
 21
-1515.0000000008849
 31
0.0
1001
ACDBBLOCKREPETAG
1070
     1
1071
       24
1005
130C0C
  0
LINE
  5
130C0D
  8
OBJECT
 10
464.0000000001146
 20
-1515.0000000008849
 30
0.0
 11
568.0000000001146
 21
-1515.0000000008849
 31
0.0
1001
ACDBBLOCKREPETAG
1070
     1
1071
       25
1005
130C0D
  0
LINE
  5
130C0E
  8
OBJECT
 10
568.0000000001146
 20
-1515.0000000008849
 30
0.0
 11
568.0000000001146
 21
-1479.000000000884
 31
0.0
1001
ACDBBLOCKREPETAG
1070
     1
1071
       26
1005
130C0E
  0
LINE
  5
130C0F
  8
OBJECT
 10
468.5000000001146
 20
-1519.000000000884
 30
0.0
 11
468.5000000001146
 21
-1526.0000000008849
 31
0.0
1001
ACDBBLOCKREPETAG
1070
     1
1071
       27
1005
130C0F
  0
LINE
  5
130C10
  8
OBJECT
 10
563.5000000001146
 20
-1526.0000000008849
 30
0.0
 11
563.5000000001146
 21
-1519.000000000884
 31
0.0
1001
ACDBBLOCKREPETAG
1070
     1
1071
       28
1005
130C10
  0
LINE
  5
130C11
  8
OBJECT
 10
563.5000000001146
 20
-1519.000000000884
 30
0.0
 11
468.5000000001146
 21
-1519.000000000884
 31
0.0
1001
ACDBBLOCKREPETAG
1070
     1
1071
       29
1005
130C11
  0
LINE
  5
130C12
  8
OBJECT
 10
464.0000000001146
 20
-1515.0000000008849
 30
0.0
 11
468.5000000001146
 21
-1519.000000000884
 31
0.0
1001
ACDBBLOCKREPETAG
1070
     1
1071
       30
1005
130C12
  0
LINE
  5
130C13
  8
OBJECT
 10
568.0000000001146
 20
-1515.0000000008849
 30
0.0
 11
563.5000000001146
 21
-1519.000000000884
 31
0.0
1001
ACDBBLOCKREPETAG
1070
     1
1071
       31
1005
130C13
  0
LINE
  5
130C14
  8
OBJECT
 10
454.00000000011448
 20
-1529.000000000884
 30
0.0
 11
454.00000000011448
 21
-1532.000000000884
 31
0.0
1001
ACDBBLOCKREPETAG
1070
     1
1071
       32
1005
130C14
  0
ARC
  5
130C15
  8
OBJECT
 10
457.0000000001146
 20
-1529.000000000884
 30
0.0
 40
3.0
 50
90.0
 51
180.0
1001
ACDBBLOCKREPETAG
1070
     1
1071
       33
1005
130C15
  0
LINE
  5
130C16
  8
OBJECT
 10
578.00000000011448
 20
-1532.000000000884
 30
0.0
 11
578.00000000011448
 21
-1529.0000000008861
 31
0.0
1001
ACDBBLOCKREPETAG
1070
     1
1071
       34
1005
130C16
  0
ARC
  5
130C17
  8
OBJECT
 10
575.00000000011437
 20
-1529.0000000008861
 30
0.0
 40
3.0
 50
0.0
 51
90.0
1001
ACDBBLOCKREPETAG
1070
     1
1071
       35
1005
130C17
  0
LINE
  5
130C18
  8
OBJECT
 10
575.00000000011437
 20
-1526.0000000008861
 30
0.0
 11
457.0000000001146
 21
-1526.000000000884
 31
0.0
1001
ACDBBLOCKREPETAG
1070
     1
1071
       36
1005
130C18
  0
LINE
  5
130C19
  8
HIDDEN
 10
478.00000000011448
 20
-1524.0000000008849
 30
0.0
 11
554.00000000011437
 21
-1524.0000000008849
 31
0.0
1001
ACDBBLOCKREPETAG
1070
     1
1071
      423
1005
130C19
  0
LINE
  5
130C1A
  8
OBJECT
 10
454.00000000011448
 20
-1231.0000000008779
 30
0.0
 11
454.00000000011448
 21
-1228.0000000008779
 31
0.0
1001
ACDBBLOCKREPETAG
1070
     1
1071
      418
1005
130C1A
  0
ARC
  5
130C1B
  8
OBJECT
 10
457.0000000001146
 20
-1231.0000000008779
 30
0.0
 40
3.0
 50
180.0
 51
270.0
1001
ACDBBLOCKREPETAG
1070
     1
1071
      419
1005
130C1B
  0
LINE
  5
130C1C
  8
OBJECT
 10
578.00000000011448
 20
-1228.0000000008779
 30
0.0
 11
578.00000000011448
 21
-1231.0000000008779
 31
0.0
1001
ACDBBLOCKREPETAG
1070
     1
1071
      420
1005
130C1C
  0
ARC
  5
130C1D
  8
OBJECT
 10
575.00000000011437
 20
-1231.0000000008779
 30
0.0
 40
3.0
 50
270.0
 51
0.0
1001
ACDBBLOCKREPETAG
1070
     1
1071
      421
1005
130C1D
  0
LINE
  5
130C1E
  8
OBJECT
 10
575.00000000011437
 20
-1234.0000000008779
 30
0.0
 11
457.0000000001146
 21
-1234.0000000008779
 31
0.0
1001
ACDBBLOCKREPETAG
1070
     1
1071
      422
1005
130C1E
  0
INSERT
  5
130C1F
  8
OBJECT
  2
*U24
 10
0.0
 20
0.0
 30
0.0
  0
LINE
  5
130C20
  8
OBJECT
 10
649.00000000011448
 20
-1093.0000000008779
 30
0.0
 11
656.0000000001146
 21
-1093.0000000008779
 31
0.0
1001
ACDBBLOCKREPETAG
1070
     1
1071
       20
1005
130C20
  0
LINE
  5
130C21
  8
OBJECT
 10
656.0000000001146
 20
-1093.0000000008779
 30
0.0
 11
656.0000000001146
 21
-1203.0000000008779
 31
0.0
1001
ACDBBLOCKREPETAG
1070
     1
1071
       21
1005
130C21
  0
LINE
  5
130C22
  8
OBJECT
 10
656.0000000001146
 20
-1203.0000000008779
 30
0.0
 11
649.00000000011448
 21
-1203.0000000008779
 31
0.0
1001
ACDBBLOCKREPETAG
1070
     1
1071
       22
1005
130C22
  0
LINE
  5
130C23
  8
OBJECT
 10
649.00000000011448
 20
-1203.0000000008779
 30
0.0
 11
649.00000000011448
 21
-1093.0000000008779
 31
0.0
1001
ACDBBLOCKREPETAG
1070
     1
1071
       23
1005
130C23
  0
LINE
  5
130C24
  8
OBJECT
 10
649.00000000011448
 20
-1096.0000000008779
 30
0.0
 11
613.0000000001146
 21
-1096.0000000008779
 31
0.0
1001
ACDBBLOCKREPETAG
1070
     1
1071
       24
1005
130C24
  0
LINE
  5
130C25
  8
OBJECT
 10
613.0000000001146
 20
-1096.0000000008779
 30
0.0
 11
613.0000000001146
 21
-1200.0000000008779
 31
0.0
1001
ACDBBLOCKREPETAG
1070
     1
1071
       25
1005
130C25
  0
LINE
  5
130C26
  8
OBJECT
 10
613.0000000001146
 20
-1200.0000000008779
 30
0.0
 11
649.00000000011448
 21
-1200.0000000008779
 31
0.0
1001
ACDBBLOCKREPETAG
1070
     1
1071
       26
1005
130C26
  0
LINE
  5
130C27
  8
OBJECT
 10
609.0000000001146
 20
-1100.5000000008779
 30
0.0
 11
602.0000000001146
 21
-1100.5000000008779
 31
0.0
1001
ACDBBLOCKREPETAG
1070
     1
1071
       27
1005
130C27
  0
LINE
  5
130C28
  8
OBJECT
 10
602.0000000001146
 20
-1195.5000000008779
 30
0.0
 11
609.0000000001146
 21
-1195.5000000008779
 31
0.0
1001
ACDBBLOCKREPETAG
1070
     1
1071
       28
1005
130C28
  0
LINE
  5
130C29
  8
OBJECT
 10
609.0000000001146
 20
-1195.5000000008779
 30
0.0
 11
609.0000000001146
 21
-1100.5000000008779
 31
0.0
1001
ACDBBLOCKREPETAG
1070
     1
1071
       29
1005
130C29
  0
LINE
  5
130C2A
  8
OBJECT
 10
613.0000000001146
 20
-1096.0000000008779
 30
0.0
 11
609.0000000001146
 21
-1100.5000000008779
 31
0.0
1001
ACDBBLOCKREPETAG
1070
     1
1071
       30
1005
130C2A
  0
LINE
  5
130C2B
  8
OBJECT
 10
613.0000000001146
 20
-1200.0000000008779
 30
0.0
 11
609.0000000001146
 21
-1195.5000000008779
 31
0.0
1001
ACDBBLOCKREPETAG
1070
     1
1071
       31
1005
130C2B
  0
LINE
  5
130C2C
  8
OBJECT
 10
599.00000000011619
 20
-1086.0000000008779
 30
0.0
 11
596.00000000011437
 21
-1086.0000000008779
 31
0.0
1001
ACDBBLOCKREPETAG
1070
     1
1071
       32
1005
130C2C
  0
ARC
  5
130C2D
  8
OBJECT
 10
599.00000000011619
 20
-1089.0000000008779
 30
0.0
 40
3.0
 50
0.0
 51
90.0
1001
ACDBBLOCKREPETAG
1070
     1
1071
       33
1005
130C2D
  0
LINE
  5
130C2E
  8
OBJECT
 10
596.00000000011437
 20
-1210.0000000008779
 30
0.0
 11
599.00000000011278
 21
-1210.0000000008779
 31
0.0
1001
ACDBBLOCKREPETAG
1070
     1
1071
       34
1005
130C2E
  0
ARC
  5
130C2F
  8
OBJECT
 10
599.00000000011278
 20
-1207.0000000008779
 30
0.0
 40
3.0
 50
270.0
 51
0.0
1001
ACDBBLOCKREPETAG
1070
     1
1071
       35
1005
130C2F
  0
LINE
  5
130C30
  8
OBJECT
 10
602.00000000011266
 20
-1207.0000000008779
 30
0.0
 11
602.0000000001163
 21
-1089.0000000008779
 31
0.0
1001
ACDBBLOCKREPETAG
1070
     1
1071
       36
1005
130C30
  0
LINE
  5
130C31
  8
HIDDEN
 10
604.00000000011437
 20
-1110.0000000008779
 30
0.0
 11
604.00000000011437
 21
-1186.0000000008779
 31
0.0
1001
ACDBBLOCKREPETAG
1070
     1
1071
      427
1005
130C31
  0
INSERT
  5
130C32
  8
OBJECT
  2
*U25
 10
0.0
 20
0.0
 30
0.0
  0
LINE
  5
130C33
  8
OBJECT
 10
461.0000000001146
 20
-1015.000000000878
 30
0.0
 11
461.0000000001146
 21
-1008.000000000878
 31
0.0
1001
ACDBBLOCKREPETAG
1070
     1
1071
       20
1005
130C33
  0
LINE
  5
130C34
  8
OBJECT
 10
461.0000000001146
 20
-1008.000000000878
 30
0.0
 11
571.00000000011437
 21
-1008.000000000878
 31
0.0
1001
ACDBBLOCKREPETAG
1070
     1
1071
       21
1005
130C34
  0
LINE
  5
130C35
  8
OBJECT
 10
571.00000000011437
 20
-1008.000000000878
 30
0.0
 11
571.00000000011437
 21
-1015.000000000878
 31
0.0
1001
ACDBBLOCKREPETAG
1070
     1
1071
       22
1005
130C35
  0
LINE
  5
130C36
  8
OBJECT
 10
571.00000000011437
 20
-1015.000000000878
 30
0.0
 11
461.0000000001146
 21
-1015.000000000878
 31
0.0
1001
ACDBBLOCKREPETAG
1070
     1
1071
       23
1005
130C36
  0
LINE
  5
130C37
  8
OBJECT
 10
464.0000000001146
 20
-1015.000000000878
 30
0.0
 11
464.0000000001146
 21
-1051.0000000008779
 31
0.0
1001
ACDBBLOCKREPETAG
1070
     1
1071
       24
1005
130C37
  0
LINE
  5
130C38
  8
OBJECT
 10
464.0000000001146
 20
-1051.0000000008779
 30
0.0
 11
568.0000000001146
 21
-1051.0000000008779
 31
0.0
1001
ACDBBLOCKREPETAG
1070
     1
1071
       25
1005
130C38
  0
LINE
  5
130C39
  8
OBJECT
 10
568.0000000001146
 20
-1051.0000000008779
 30
0.0
 11
568.0000000001146
 21
-1015.000000000878
 31
0.0
1001
ACDBBLOCKREPETAG
1070
     1
1071
       26
1005
130C39
  0
LINE
  5
130C3A
  8
OBJECT
 10
468.5000000001146
 20
-1055.000000000879
 30
0.0
 11
468.5000000001146
 21
-1062.0000000008779
 31
0.0
1001
ACDBBLOCKREPETAG
1070
     1
1071
       27
1005
130C3A
  0
LINE
  5
130C3B
  8
OBJECT
 10
563.5000000001146
 20
-1062.0000000008779
 30
0.0
 11
563.5000000001146
 21
-1055.000000000879
 31
0.0
1001
ACDBBLOCKREPETAG
1070
     1
1071
       28
1005
130C3B
  0
LINE
  5
130C3C
  8
OBJECT
 10
563.5000000001146
 20
-1055.000000000879
 30
0.0
 11
468.5000000001146
 21
-1055.000000000879
 31
0.0
1001
ACDBBLOCKREPETAG
1070
     1
1071
       29
1005
130C3C
  0
LINE
  5
130C3D
  8
OBJECT
 10
464.0000000001146
 20
-1051.0000000008779
 30
0.0
 11
468.5000000001146
 21
-1055.000000000879
 31
0.0
1001
ACDBBLOCKREPETAG
1070
     1
1071
       30
1005
130C3D
  0
LINE
  5
130C3E
  8
OBJECT
 10
568.0000000001146
 20
-1051.0000000008779
 30
0.0
 11
563.5000000001146
 21
-1055.000000000879
 31
0.0
1001
ACDBBLOCKREPETAG
1070
     1
1071
       31
1005
130C3E
  0
LINE
  5
130C3F
  8
OBJECT
 10
454.00000000011448
 20
-1065.000000000877
 30
0.0
 11
454.00000000011448
 21
-1068.0000000008779
 31
0.0
1001
ACDBBLOCKREPETAG
1070
     1
1071
       32
1005
130C3F
  0
ARC
  5
130C40
  8
OBJECT
 10
457.0000000001146
 20
-1065.000000000877
 30
0.0
 40
3.0
 50
90.0
 51
180.0
1001
ACDBBLOCKREPETAG
1070
     1
1071
       33
1005
130C40
  0
LINE
  5
130C41
  8
OBJECT
 10
578.00000000011448
 20
-1068.0000000008779
 30
0.0
 11
578.00000000011448
 21
-1065.000000000879
 31
0.0
1001
ACDBBLOCKREPETAG
1070
     1
1071
       34
1005
130C41
  0
ARC
  5
130C42
  8
OBJECT
 10
575.00000000011437
 20
-1065.000000000879
 30
0.0
 40
3.0
 50
0.0
 51
90.0
1001
ACDBBLOCKREPETAG
1070
     1
1071
       35
1005
130C42
  0
LINE
  5
130C43
  8
OBJECT
 10
575.00000000011437
 20
-1062.000000000879
 30
0.0
 11
457.0000000001146
 21
-1062.000000000877
 31
0.0
1001
ACDBBLOCKREPETAG
1070
     1
1071
       36
1005
130C43
  0
LINE
  5
130C44
  8
HIDDEN
 10
478.00000000011448
 20
-1060.0000000008779
 30
0.0
 11
554.00000000011437
 21
-1060.0000000008779
 31
0.0
1001
ACDBBLOCKREPETAG
1070
     1
1071
      423
1005
130C44
  0
LINE
  5
130C45
  8
OBJECT
 10
94.000000000034575
 20
-1231.0000000008779
 30
0.0
 11
94.000000000034575
 21
-1228.0000000008779
 31
0.0
1001
ACDBBLOCKREPETAG
1070
     1
1071
      418
1005
130C45
  0
ARC
  5
130C46
  8
OBJECT
 10
97.000000000034561
 20
-1231.0000000008779
 30
0.0
 40
3.0
 50
180.0
 51
270.0
1001
ACDBBLOCKREPETAG
1070
     1
1071
      419
1005
130C46
  0
LINE
  5
130C47
  8
OBJECT
 10
218.00000000003459
 20
-1228.0000000008779
 30
0.0
 11
218.00000000003459
 21
-1231.0000000008779
 31
0.0
1001
ACDBBLOCKREPETAG
1070
     1
1071
      420
1005
130C47
  0
ARC
  5
130C48
  8
OBJECT
 10
215.00000000003459
 20
-1231.0000000008779
 30
0.0
 40
3.0
 50
270.0
 51
0.0
1001
ACDBBLOCKREPETAG
1070
     1
1071
      421
1005
130C48
  0
LINE
  5
130C49
  8
OBJECT
 10
215.00000000003459
 20
-1234.0000000008779
 30
0.0
 11
97.000000000034561
 21
-1234.0000000008779
 31
0.0
1001
ACDBBLOCKREPETAG
1070
     1
1071
      422
1005
130C49
  0
INSERT
  5
130C4A
  8
OBJECT
  2
*U26
 10
0.0
 20
0.0
 30
0.0
  0
LINE
  5
130C4B
  8
OBJECT
 10
289.00000000003462
 20
-1101.0000000008779
 30
0.0
 11
296.0000000000345
 21
-1101.0000000008779
 31
0.0
1001
ACDBBLOCKREPETAG
1070
     1
1071
        1
1005
130C4B
  0
LINE
  5
130C4C
  8
OBJECT
 10
296.0000000000345
 20
-1101.0000000008779
 30
0.0
 11
296.0000000000345
 21
-1195.0000000008779
 31
0.0
1001
ACDBBLOCKREPETAG
1070
     1
1071
        2
1005
130C4C
  0
LINE
  5
130C4D
  8
OBJECT
 10
296.0000000000345
 20
-1195.0000000008779
 30
0.0
 11
289.00000000003462
 21
-1195.0000000008779
 31
0.0
1001
ACDBBLOCKREPETAG
1070
     1
1071
        3
1005
130C4D
  0
LINE
  5
130C4E
  8
OBJECT
 10
289.00000000003462
 20
-1195.0000000008779
 30
0.0
 11
289.00000000003462
 21
-1101.0000000008779
 31
0.0
1001
ACDBBLOCKREPETAG
1070
     1
1071
        4
1005
130C4E
  0
LINE
  5
130C4F
  8
OBJECT
 10
289.00000000003462
 20
-1104.0000000008779
 30
0.0
 11
253.00000000003459
 21
-1104.0000000008779
 31
0.0
1001
ACDBBLOCKREPETAG
1070
     1
1071
        5
1005
130C4F
  0
LINE
  5
130C50
  8
OBJECT
 10
253.00000000003459
 20
-1104.0000000008779
 30
0.0
 11
253.00000000003459
 21
-1192.0000000008779
 31
0.0
1001
ACDBBLOCKREPETAG
1070
     1
1071
        6
1005
130C50
  0
LINE
  5
130C51
  8
OBJECT
 10
253.00000000003459
 20
-1192.0000000008779
 30
0.0
 11
289.00000000003462
 21
-1192.0000000008779
 31
0.0
1001
ACDBBLOCKREPETAG
1070
     1
1071
        7
1005
130C51
  0
LINE
  5
130C52
  8
OBJECT
 10
249.00000000003459
 20
-1108.5000000008779
 30
0.0
 11
242.00000000003459
 21
-1108.5000000008779
 31
0.0
1001
ACDBBLOCKREPETAG
1070
     1
1071
        8
1005
130C52
  0
LINE
  5
130C53
  8
OBJECT
 10
242.00000000003459
 20
-1187.5000000008779
 30
0.0
 11
249.00000000003459
 21
-1187.5000000008779
 31
0.0
1001
ACDBBLOCKREPETAG
1070
     1
1071
        9
1005
130C53
  0
LINE
  5
130C54
  8
OBJECT
 10
249.00000000003459
 20
-1187.5000000008779
 30
0.0
 11
249.00000000003459
 21
-1108.5000000008779
 31
0.0
1001
ACDBBLOCKREPETAG
1070
     1
1071
       10
1005
130C54
  0
LINE
  5
130C55
  8
OBJECT
 10
253.00000000003459
 20
-1104.0000000008779
 30
0.0
 11
249.00000000003459
 21
-1108.5000000008779
 31
0.0
1001
ACDBBLOCKREPETAG
1070
     1
1071
       11
1005
130C55
  0
LINE
  5
130C56
  8
OBJECT
 10
253.00000000003459
 20
-1192.0000000008779
 30
0.0
 11
249.00000000003459
 21
-1187.5000000008779
 31
0.0
1001
ACDBBLOCKREPETAG
1070
     1
1071
       12
1005
130C56
  0
LINE
  5
130C57
  8
OBJECT
 10
239.00000000003641
 20
-1086.0000000008779
 30
0.0
 11
236.00000000003459
 21
-1086.0000000008779
 31
0.0
1001
ACDBBLOCKREPETAG
1070
     1
1071
       13
1005
130C57
  0
ARC
  5
130C58
  8
OBJECT
 10
239.00000000003641
 20
-1089.0000000008779
 30
0.0
 40
3.0
 50
0.0
 51
90.0
1001
ACDBBLOCKREPETAG
1070
     1
1071
       14
1005
130C58
  0
LINE
  5
130C59
  8
OBJECT
 10
236.00000000003459
 20
-1210.0000000008779
 30
0.0
 11
239.00000000003271
 21
-1210.0000000008779
 31
0.0
1001
ACDBBLOCKREPETAG
1070
     1
1071
       15
1005
130C59
  0
ARC
  5
130C5A
  8
OBJECT
 10
239.00000000003271
 20
-1207.0000000008779
 30
0.0
 40
3.0
 50
270.0
 51
0.0
1001
ACDBBLOCKREPETAG
1070
     1
1071
       16
1005
130C5A
  0
LINE
  5
130C5B
  8
OBJECT
 10
242.0000000000328
 20
-1207.0000000008779
 30
0.0
 11
242.00000000003641
 21
-1089.0000000008779
 31
0.0
1001
ACDBBLOCKREPETAG
1070
     1
1071
       17
1005
130C5B
  0
LINE
  5
130C5C
  8
HIDDEN
 10
244.0000000000345
 20
-1118.0000000008779
 30
0.0
 11
244.0000000000345
 21
-1178.0000000008779
 31
0.0
1001
ACDBBLOCKREPETAG
1070
     1
1071
      424
1005
130C5C
  0
INSERT
  5
130C5D
  8
OBJECT
  2
*U27
 10
0.0
 20
0.0
 30
0.0
  0
LINE
  5
130C5E
  8
OBJECT
 10
101.0000000000345
 20
-1015.000000000878
 30
0.0
 11
101.0000000000345
 21
-1008.000000000878
 31
0.0
1001
ACDBBLOCKREPETAG
1070
     1
1071
       20
1005
130C5E
  0
LINE
  5
130C5F
  8
OBJECT
 10
101.0000000000345
 20
-1008.000000000878
 30
0.0
 11
211.00000000003459
 21
-1008.000000000878
 31
0.0
1001
ACDBBLOCKREPETAG
1070
     1
1071
       21
1005
130C5F
  0
LINE
  5
130C60
  8
OBJECT
 10
211.00000000003459
 20
-1008.000000000878
 30
0.0
 11
211.00000000003459
 21
-1015.000000000878
 31
0.0
1001
ACDBBLOCKREPETAG
1070
     1
1071
       22
1005
130C60
  0
LINE
  5
130C61
  8
OBJECT
 10
211.00000000003459
 20
-1015.000000000878
 30
0.0
 11
101.0000000000345
 21
-1015.000000000878
 31
0.0
1001
ACDBBLOCKREPETAG
1070
     1
1071
       23
1005
130C61
  0
LINE
  5
130C62
  8
OBJECT
 10
104.0000000000345
 20
-1015.000000000878
 30
0.0
 11
104.0000000000345
 21
-1051.0000000008779
 31
0.0
1001
ACDBBLOCKREPETAG
1070
     1
1071
       24
1005
130C62
  0
LINE
  5
130C63
  8
OBJECT
 10
104.0000000000345
 20
-1051.0000000008779
 30
0.0
 11
208.00000000003459
 21
-1051.0000000008779
 31
0.0
1001
ACDBBLOCKREPETAG
1070
     1
1071
       25
1005
130C63
  0
LINE
  5
130C64
  8
OBJECT
 10
208.00000000003459
 20
-1051.0000000008779
 30
0.0
 11
208.00000000003459
 21
-1015.000000000878
 31
0.0
1001
ACDBBLOCKREPETAG
1070
     1
1071
       26
1005
130C64
  0
LINE
  5
130C65
  8
OBJECT
 10
108.5000000000345
 20
-1055.000000000879
 30
0.0
 11
108.5000000000345
 21
-1062.0000000008779
 31
0.0
1001
ACDBBLOCKREPETAG
1070
     1
1071
       27
1005
130C65
  0
LINE
  5
130C66
  8
OBJECT
 10
203.50000000003459
 20
-1062.0000000008779
 30
0.0
 11
203.50000000003459
 21
-1055.000000000879
 31
0.0
1001
ACDBBLOCKREPETAG
1070
     1
1071
       28
1005
130C66
  0
LINE
  5
130C67
  8
OBJECT
 10
203.50000000003459
 20
-1055.000000000879
 30
0.0
 11
108.5000000000345
 21
-1055.000000000879
 31
0.0
1001
ACDBBLOCKREPETAG
1070
     1
1071
       29
1005
130C67
  0
LINE
  5
130C68
  8
OBJECT
 10
104.0000000000345
 20
-1051.0000000008779
 30
0.0
 11
108.5000000000345
 21
-1055.000000000879
 31
0.0
1001
ACDBBLOCKREPETAG
1070
     1
1071
       30
1005
130C68
  0
LINE
  5
130C69
  8
OBJECT
 10
208.00000000003459
 20
-1051.0000000008779
 30
0.0
 11
203.50000000003459
 21
-1055.000000000879
 31
0.0
1001
ACDBBLOCKREPETAG
1070
     1
1071
       31
1005
130C69
  0
LINE
  5
130C6A
  8
OBJECT
 10
94.000000000034575
 20
-1065.000000000877
 30
0.0
 11
94.000000000034575
 21
-1068.0000000008779
 31
0.0
1001
ACDBBLOCKREPETAG
1070
     1
1071
       32
1005
130C6A
  0
ARC
  5
130C6B
  8
OBJECT
 10
97.000000000034561
 20
-1065.000000000877
 30
0.0
 40
3.0
 50
90.0
 51
180.0
1001
ACDBBLOCKREPETAG
1070
     1
1071
       33
1005
130C6B
  0
LINE
  5
130C6C
  8
OBJECT
 10
218.00000000003459
 20
-1068.0000000008779
 30
0.0
 11
218.00000000003459
 21
-1065.000000000879
 31
0.0
1001
ACDBBLOCKREPETAG
1070
     1
1071
       34
1005
130C6C
  0
ARC
  5
130C6D
  8
OBJECT
 10
215.00000000003459
 20
-1065.000000000879
 30
0.0
 40
3.0
 50
0.0
 51
90.0
1001
ACDBBLOCKREPETAG
1070
     1
1071
       35
1005
130C6D
  0
LINE
  5
130C6E
  8
OBJECT
 10
215.00000000003459
 20
-1062.000000000879
 30
0.0
 11
97.000000000034561
 21
-1062.000000000877
 31
0.0
1001
ACDBBLOCKREPETAG
1070
     1
1071
       36
1005
130C6E
  0
LINE
  5
130C6F
  8
HIDDEN
 10
118.0000000000345
 20
-1060.0000000008779
 30
0.0
 11
194.0000000000345
 21
-1060.0000000008779
 31
0.0
1001
ACDBBLOCKREPETAG
1070
     1
1071
      423
1005
130C6F
  0
LINE
  5
130C70
  8
OBJECT
 10
94.000000000034575
 20
-767.00000000087164
 30
0.0
 11
94.000000000034575
 21
-764.00000000087164
 31
0.0
1001
ACDBBLOCKREPETAG
1070
     1
1071
      418
1005
130C70
  0
ARC
  5
130C71
  8
OBJECT
 10
97.000000000034561
 20
-767.00000000087164
 30
0.0
 40
3.0
 50
180.0
 51
270.0
1001
ACDBBLOCKREPETAG
1070
     1
1071
      419
1005
130C71
  0
LINE
  5
130C72
  8
OBJECT
 10
218.00000000003459
 20
-764.00000000087164
 30
0.0
 11
218.00000000003459
 21
-767.00000000087164
 31
0.0
1001
ACDBBLOCKREPETAG
1070
     1
1071
      420
1005
130C72
  0
ARC
  5
130C73
  8
OBJECT
 10
215.00000000003459
 20
-767.00000000087164
 30
0.0
 40
3.0
 50
270.0
 51
0.0
1001
ACDBBLOCKREPETAG
1070
     1
1071
      421
1005
130C73
  0
LINE
  5
130C74
  8
OBJECT
 10
215.00000000003459
 20
-770.00000000087164
 30
0.0
 11
97.000000000034561
 21
-770.00000000087164
 31
0.0
1001
ACDBBLOCKREPETAG
1070
     1
1071
      422
1005
130C74
  0
INSERT
  5
130C75
  8
OBJECT
  2
*U28
 10
0.0
 20
0.0
 30
0.0
  0
LINE
  5
130C76
  8
OBJECT
 10
289.00000000003462
 20
-622.00000000087175
 30
0.0
 11
296.0000000000345
 21
-622.00000000087175
 31
0.0
1001
ACDBBLOCKREPETAG
1070
     1
1071
       39
1005
130C76
  0
LINE
  5
130C77
  8
OBJECT
 10
296.0000000000345
 20
-622.00000000087175
 30
0.0
 11
296.0000000000345
 21
-746.00000000087164
 31
0.0
1001
ACDBBLOCKREPETAG
1070
     1
1071
       40
1005
130C77
  0
LINE
  5
130C78
  8
OBJECT
 10
296.0000000000345
 20
-746.00000000087164
 30
0.0
 11
289.00000000003462
 21
-746.00000000087164
 31
0.0
1001
ACDBBLOCKREPETAG
1070
     1
1071
       41
1005
130C78
  0
LINE
  5
130C79
  8
OBJECT
 10
289.00000000003462
 20
-746.00000000087164
 30
0.0
 11
289.00000000003462
 21
-622.00000000087175
 31
0.0
1001
ACDBBLOCKREPETAG
1070
     1
1071
       42
1005
130C79
  0
LINE
  5
130C7A
  8
OBJECT
 10
289.00000000003462
 20
-625.00000000087175
 30
0.0
 11
253.00000000003459
 21
-625.00000000087175
 31
0.0
1001
ACDBBLOCKREPETAG
1070
     1
1071
       43
1005
130C7A
  0
LINE
  5
130C7B
  8
OBJECT
 10
253.00000000003459
 20
-625.00000000087175
 30
0.0
 11
253.00000000003459
 21
-743.00000000087164
 31
0.0
1001
ACDBBLOCKREPETAG
1070
     1
1071
       44
1005
130C7B
  0
LINE
  5
130C7C
  8
OBJECT
 10
253.00000000003459
 20
-743.00000000087164
 30
0.0
 11
289.00000000003462
 21
-743.00000000087164
 31
0.0
1001
ACDBBLOCKREPETAG
1070
     1
1071
       45
1005
130C7C
  0
LINE
  5
130C7D
  8
OBJECT
 10
249.00000000003459
 20
-629.50000000087175
 30
0.0
 11
242.00000000003459
 21
-629.50000000087175
 31
0.0
1001
ACDBBLOCKREPETAG
1070
     1
1071
       46
1005
130C7D
  0
LINE
  5
130C7E
  8
OBJECT
 10
242.00000000003459
 20
-738.50000000087164
 30
0.0
 11
249.00000000003459
 21
-738.50000000087164
 31
0.0
1001
ACDBBLOCKREPETAG
1070
     1
1071
       47
1005
130C7E
  0
LINE
  5
130C7F
  8
OBJECT
 10
249.00000000003459
 20
-738.50000000087164
 30
0.0
 11
249.00000000003459
 21
-629.50000000087175
 31
0.0
1001
ACDBBLOCKREPETAG
1070
     1
1071
       48
1005
130C7F
  0
LINE
  5
130C80
  8
OBJECT
 10
253.00000000003459
 20
-625.00000000087175
 30
0.0
 11
249.00000000003459
 21
-629.50000000087175
 31
0.0
1001
ACDBBLOCKREPETAG
1070
     1
1071
       49
1005
130C80
  0
LINE
  5
130C81
  8
OBJECT
 10
253.00000000003459
 20
-743.00000000087164
 30
0.0
 11
249.00000000003459
 21
-738.50000000087164
 31
0.0
1001
ACDBBLOCKREPETAG
1070
     1
1071
       50
1005
130C81
  0
LINE
  5
130C82
  8
OBJECT
 10
239.00000000003641
 20
-622.00000000087175
 30
0.0
 11
236.00000000003459
 21
-622.00000000087175
 31
0.0
1001
ACDBBLOCKREPETAG
1070
     1
1071
       51
1005
130C82
  0
ARC
  5
130C83
  8
OBJECT
 10
239.00000000003641
 20
-625.00000000087175
 30
0.0
 40
3.0
 50
0.0
 51
90.0
1001
ACDBBLOCKREPETAG
1070
     1
1071
       52
1005
130C83
  0
LINE
  5
130C84
  8
OBJECT
 10
236.00000000003459
 20
-746.00000000087164
 30
0.0
 11
239.00000000003271
 21
-746.00000000087164
 31
0.0
1001
ACDBBLOCKREPETAG
1070
     1
1071
       53
1005
130C84
  0
ARC
  5
130C85
  8
OBJECT
 10
239.00000000003271
 20
-743.00000000087164
 30
0.0
 40
3.0
 50
270.0
 51
0.0
1001
ACDBBLOCKREPETAG
1070
     1
1071
       54
1005
130C85
  0
LINE
  5
130C86
  8
OBJECT
 10
242.0000000000328
 20
-743.00000000087164
 30
0.0
 11
242.00000000003641
 21
-625.00000000087175
 31
0.0
1001
ACDBBLOCKREPETAG
1070
     1
1071
       55
1005
130C86
  0
LINE
  5
130C87
  8
HIDDEN
 10
244.0000000000345
 20
-639.50000000087175
 30
0.0
 11
244.0000000000345
 21
-728.50000000087164
 31
0.0
1001
ACDBBLOCKREPETAG
1070
     1
1071
      430
1005
130C87
  0
INSERT
  5
130C88
  8
OBJECT
  2
*U29
 10
0.0
 20
0.0
 30
0.0
  0
LINE
  5
130C89
  8
OBJECT
 10
109.0000000000345
 20
-551.00000000087175
 30
0.0
 11
109.0000000000345
 21
-544.00000000087175
 31
0.0
1001
ACDBBLOCKREPETAG
1070
     1
1071
        1
1005
130C89
  0
LINE
  5
130C8A
  8
OBJECT
 10
109.0000000000345
 20
-544.00000000087175
 30
0.0
 11
203.00000000003459
 21
-544.00000000087175
 31
0.0
1001
ACDBBLOCKREPETAG
1070
     1
1071
        2
1005
130C8A
  0
LINE
  5
130C8B
  8
OBJECT
 10
203.00000000003459
 20
-544.00000000087175
 30
0.0
 11
203.00000000003459
 21
-551.00000000087175
 31
0.0
1001
ACDBBLOCKREPETAG
1070
     1
1071
        3
1005
130C8B
  0
LINE
  5
130C8C
  8
OBJECT
 10
203.00000000003459
 20
-551.00000000087175
 30
0.0
 11
109.0000000000345
 21
-551.00000000087175
 31
0.0
1001
ACDBBLOCKREPETAG
1070
     1
1071
        4
1005
130C8C
  0
LINE
  5
130C8D
  8
OBJECT
 10
112.0000000000345
 20
-551.00000000087175
 30
0.0
 11
112.0000000000345
 21
-587.00000000087175
 31
0.0
1001
ACDBBLOCKREPETAG
1070
     1
1071
        5
1005
130C8D
  0
LINE
  5
130C8E
  8
OBJECT
 10
112.0000000000345
 20
-587.00000000087175
 30
0.0
 11
200.0000000000345
 21
-587.00000000087175
 31
0.0
1001
ACDBBLOCKREPETAG
1070
     1
1071
        6
1005
130C8E
  0
LINE
  5
130C8F
  8
OBJECT
 10
200.0000000000345
 20
-587.00000000087175
 30
0.0
 11
200.0000000000345
 21
-551.00000000087175
 31
0.0
1001
ACDBBLOCKREPETAG
1070
     1
1071
        7
1005
130C8F
  0
LINE
  5
130C90
  8
OBJECT
 10
116.5000000000345
 20
-591.00000000087175
 30
0.0
 11
116.5000000000345
 21
-598.00000000087175
 31
0.0
1001
ACDBBLOCKREPETAG
1070
     1
1071
        8
1005
130C90
  0
LINE
  5
130C91
  8
OBJECT
 10
195.5000000000345
 20
-598.00000000087175
 30
0.0
 11
195.5000000000345
 21
-591.00000000087175
 31
0.0
1001
ACDBBLOCKREPETAG
1070
     1
1071
        9
1005
130C91
  0
LINE
  5
130C92
  8
OBJECT
 10
195.5000000000345
 20
-591.00000000087175
 30
0.0
 11
116.5000000000345
 21
-591.00000000087175
 31
0.0
1001
ACDBBLOCKREPETAG
1070
     1
1071
       10
1005
130C92
  0
LINE
  5
130C93
  8
OBJECT
 10
112.0000000000345
 20
-587.00000000087175
 30
0.0
 11
116.5000000000345
 21
-591.00000000087175
 31
0.0
1001
ACDBBLOCKREPETAG
1070
     1
1071
       11
1005
130C93
  0
LINE
  5
130C94
  8
OBJECT
 10
200.0000000000345
 20
-587.00000000087175
 30
0.0
 11
195.5000000000345
 21
-591.00000000087175
 31
0.0
1001
ACDBBLOCKREPETAG
1070
     1
1071
       12
1005
130C94
  0
LINE
  5
130C95
  8
OBJECT
 10
94.000000000034575
 20
-601.00000000087084
 30
0.0
 11
94.000000000034575
 21
-604.00000000087175
 31
0.0
1001
ACDBBLOCKREPETAG
1070
     1
1071
       13
1005
130C95
  0
ARC
  5
130C96
  8
OBJECT
 10
97.000000000034561
 20
-601.00000000087084
 30
0.0
 40
3.0
 50
90.0
 51
180.0
1001
ACDBBLOCKREPETAG
1070
     1
1071
       14
1005
130C96
  0
LINE
  5
130C97
  8
OBJECT
 10
218.00000000003459
 20
-604.00000000087175
 30
0.0
 11
218.00000000003459
 21
-601.00000000087266
 31
0.0
1001
ACDBBLOCKREPETAG
1070
     1
1071
       15
1005
130C97
  0
ARC
  5
130C98
  8
OBJECT
 10
215.00000000003459
 20
-601.00000000087266
 30
0.0
 40
3.0
 50
0.0
 51
90.0
1001
ACDBBLOCKREPETAG
1070
     1
1071
       16
1005
130C98
  0
LINE
  5
130C99
  8
OBJECT
 10
215.00000000003459
 20
-598.00000000087255
 30
0.0
 11
97.000000000034561
 21
-598.00000000087084
 31
0.0
1001
ACDBBLOCKREPETAG
1070
     1
1071
       17
1005
130C99
  0
LINE
  5
130C9A
  8
HIDDEN
 10
126.0000000000345
 20
-596.00000000087175
 30
0.0
 11
186.00000000003439
 21
-596.00000000087175
 31
0.0
1001
ACDBBLOCKREPETAG
1070
     1
1071
      420
1005
130C9A
  0
LINE
  5
130C9B
  8
OBJECT
 10
454.00000000011448
 20
-767.00000000087164
 30
0.0
 11
454.00000000011448
 21
-764.00000000087164
 31
0.0
1001
ACDBBLOCKREPETAG
1070
     1
1071
      418
1005
130C9B
  0
ARC
  5
130C9C
  8
OBJECT
 10
457.0000000001146
 20
-767.00000000087164
 30
0.0
 40
3.0
 50
180.0
 51
270.0
1001
ACDBBLOCKREPETAG
1070
     1
1071
      419
1005
130C9C
  0
LINE
  5
130C9D
  8
OBJECT
 10
578.00000000011448
 20
-764.00000000087164
 30
0.0
 11
578.00000000011448
 21
-767.00000000087164
 31
0.0
1001
ACDBBLOCKREPETAG
1070
     1
1071
      420
1005
130C9D
  0
ARC
  5
130C9E
  8
OBJECT
 10
575.00000000011437
 20
-767.00000000087164
 30
0.0
 40
3.0
 50
270.0
 51
0.0
1001
ACDBBLOCKREPETAG
1070
     1
1071
      421
1005
130C9E
  0
LINE
  5
130C9F
  8
OBJECT
 10
575.00000000011437
 20
-770.00000000087164
 30
0.0
 11
457.0000000001146
 21
-770.00000000087164
 31
0.0
1001
ACDBBLOCKREPETAG
1070
     1
1071
      422
1005
130C9F
  0
LINE
  5
130CA0
  8
OBJECT
 10
666.00000000011448
 20
-609.00000000087175
 30
0.0
 11
659.0000000001146
 21
-609.00000000087175
 31
0.0
1001
ACDBBLOCKREPETAG
1070
     1
1071
       57
1005
130CA0
  0
LINE
  5
130CA1
  8
OBJECT
 10
659.0000000001146
 20
-609.00000000087175
 30
0.0
 11
659.0000000001146
 21
-759.00000000087164
 31
0.0
1001
ACDBBLOCKREPETAG
1070
     1
1071
       58
1005
130CA1
  0
LINE
  5
130CA2
  8
OBJECT
 10
617.5000000001146
 20
-612.00000000087175
 30
0.0
 11
617.5000000001146
 21
-756.00000000087164
 31
0.0
1001
ACDBBLOCKREPETAG
1070
     1
1071
       59
1005
130CA2
  0
LINE
  5
130CA3
  8
OBJECT
 10
606.0000000001146
 20
-618.50000000087175
 30
0.0
 11
606.0000000001146
 21
-749.50000000087164
 31
0.0
1001
ACDBBLOCKREPETAG
1070
     1
1071
       60
1005
130CA3
  0
LINE
  5
130CA4
  8
OBJECT
 10
659.0000000001146
 20
-759.00000000087164
 30
0.0
 11
666.00000000011448
 21
-759.00000000087164
 31
0.0
1001
ACDBBLOCKREPETAG
1070
     1
1071
       61
1005
130CA4
  0
LINE
  5
130CA5
  8
OBJECT
 10
666.00000000011448
 20
-759.00000000087164
 30
0.0
 11
666.00000000011448
 21
-609.00000000087175
 31
0.0
1001
ACDBBLOCKREPETAG
1070
     1
1071
       62
1005
130CA5
  0
LINE
  5
130CA6
  8
OBJECT
 10
602.0000000001146
 20
-746.00000000087164
 30
0.0
 11
596.00000000011437
 21
-746.00000000087164
 31
0.0
1001
ACDBBLOCKREPETAG
1070
     1
1071
       63
1005
130CA6
  0
LINE
  5
130CA7
  8
OBJECT
 10
659.0000000001146
 20
-756.00000000087164
 30
0.0
 11
617.5000000001146
 21
-756.00000000087164
 31
0.0
1001
ACDBBLOCKREPETAG
1070
     1
1071
       64
1005
130CA7
  0
LINE
  5
130CA8
  8
OBJECT
 10
617.5000000001146
 20
-756.00000000087164
 30
0.0
 11
606.0000000001146
 21
-749.50000000087164
 31
0.0
1001
ACDBBLOCKREPETAG
1070
     1
1071
       65
1005
130CA8
  0
LINE
  5
130CA9
  8
OBJECT
 10
606.0000000001146
 20
-749.50000000087164
 30
0.0
 11
602.0000000001146
 21
-746.00000000087164
 31
0.0
1001
ACDBBLOCKREPETAG
1070
     1
1071
       66
1005
130CA9
  0
LINE
  5
130CAA
  8
OBJECT
 10
617.5000000001146
 20
-612.00000000087175
 30
0.0
 11
606.0000000001146
 21
-618.50000000087175
 31
0.0
1001
ACDBBLOCKREPETAG
1070
     1
1071
       67
1005
130CAA
  0
LINE
  5
130CAB
  8
OBJECT
 10
606.0000000001146
 20
-618.50000000087175
 30
0.0
 11
602.0000000001146
 21
-622.00000000087175
 31
0.0
1001
ACDBBLOCKREPETAG
1070
     1
1071
       68
1005
130CAB
  0
ARC
  5
130CAC
  8
OBJECT
 10
983.90000000011605
 20
-684.00000000087175
 30
0.0
 40
386.89999999999998
 50
170.7787013626384
 51
189.22129863736151
1001
ACDBBLOCKREPETAG
1070
     1
1071
       69
1005
130CAC
  0
LINE
  5
130CAD
  8
OBJECT
 10
602.0000000001146
 20
-622.00000000087175
 30
0.0
 11
596.00000000011437
 21
-622.00000000087175
 31
0.0
1001
ACDBBLOCKREPETAG
1070
     1
1071
       70
1005
130CAD
  0
LINE
  5
130CAE
  8
OBJECT
 10
659.0000000001146
 20
-612.00000000087175
 30
0.0
 11
617.5000000001146
 21
-612.00000000087175
 31
0.0
1001
ACDBBLOCKREPETAG
1070
     1
1071
       71
1005
130CAE
  0
INSERT
  5
130CAF
  8
OBJECT
  2
*U30
 10
0.0
 20
0.0
 30
0.0
  0
LINE
  5
130CB0
  8
HIDDEN
 10
614.0000000001146
 20
-741.00000000087164
 30
0.0
 11
614.0000000001146
 21
-627.00000000087175
 31
0.0
1001
ACDBBLOCKREPETAG
1070
     1
1071
      437
1005
130CB0
  0
INSERT
  5
130CB1
  8
OBJECT
  2
*U31
 10
0.0
 20
0.0
 30
0.0
  0
LINE
  5
130CB2
  8
OBJECT
 10
469.0000000001146
 20
-551.00000000087175
 30
0.0
 11
469.0000000001146
 21
-544.00000000087175
 31
0.0
1001
ACDBBLOCKREPETAG
1070
     1
1071
        1
1005
130CB2
  0
LINE
  5
130CB3
  8
OBJECT
 10
469.0000000001146
 20
-544.00000000087175
 30
0.0
 11
563.00000000011437
 21
-544.00000000087175
 31
0.0
1001
ACDBBLOCKREPETAG
1070
     1
1071
        2
1005
130CB3
  0
LINE
  5
130CB4
  8
OBJECT
 10
563.00000000011437
 20
-544.00000000087175
 30
0.0
 11
563.00000000011437
 21
-551.00000000087175
 31
0.0
1001
ACDBBLOCKREPETAG
1070
     1
1071
        3
1005
130CB4
  0
LINE
  5
130CB5
  8
OBJECT
 10
563.00000000011437
 20
-551.00000000087175
 30
0.0
 11
469.0000000001146
 21
-551.00000000087175
 31
0.0
1001
ACDBBLOCKREPETAG
1070
     1
1071
        4
1005
130CB5
  0
LINE
  5
130CB6
  8
OBJECT
 10
472.0000000001146
 20
-551.00000000087175
 30
0.0
 11
472.0000000001146
 21
-587.00000000087175
 31
0.0
1001
ACDBBLOCKREPETAG
1070
     1
1071
        5
1005
130CB6
  0
LINE
  5
130CB7
  8
OBJECT
 10
472.0000000001146
 20
-587.00000000087175
 30
0.0
 11
560.0000000001146
 21
-587.00000000087175
 31
0.0
1001
ACDBBLOCKREPETAG
1070
     1
1071
        6
1005
130CB7
  0
LINE
  5
130CB8
  8
OBJECT
 10
560.0000000001146
 20
-587.00000000087175
 30
0.0
 11
560.0000000001146
 21
-551.00000000087175
 31
0.0
1001
ACDBBLOCKREPETAG
1070
     1
1071
        7
1005
130CB8
  0
LINE
  5
130CB9
  8
OBJECT
 10
476.5000000001146
 20
-591.00000000087175
 30
0.0
 11
476.5000000001146
 21
-598.00000000087175
 31
0.0
1001
ACDBBLOCKREPETAG
1070
     1
1071
        8
1005
130CB9
  0
LINE
  5
130CBA
  8
OBJECT
 10
555.5000000001146
 20
-598.00000000087175
 30
0.0
 11
555.5000000001146
 21
-591.00000000087175
 31
0.0
1001
ACDBBLOCKREPETAG
1070
     1
1071
        9
1005
130CBA
  0
LINE
  5
130CBB
  8
OBJECT
 10
555.5000000001146
 20
-591.00000000087175
 30
0.0
 11
476.5000000001146
 21
-591.00000000087175
 31
0.0
1001
ACDBBLOCKREPETAG
1070
     1
1071
       10
1005
130CBB
  0
LINE
  5
130CBC
  8
OBJECT
 10
472.0000000001146
 20
-587.00000000087175
 30
0.0
 11
476.5000000001146
 21
-591.00000000087175
 31
0.0
1001
ACDBBLOCKREPETAG
1070
     1
1071
       11
1005
130CBC
  0
LINE
  5
130CBD
  8
OBJECT
 10
560.0000000001146
 20
-587.00000000087175
 30
0.0
 11
555.5000000001146
 21
-591.00000000087175
 31
0.0
1001
ACDBBLOCKREPETAG
1070
     1
1071
       12
1005
130CBD
  0
LINE
  5
130CBE
  8
OBJECT
 10
454.00000000011448
 20
-601.00000000087084
 30
0.0
 11
454.00000000011448
 21
-604.00000000087175
 31
0.0
1001
ACDBBLOCKREPETAG
1070
     1
1071
       13
1005
130CBE
  0
ARC
  5
130CBF
  8
OBJECT
 10
457.0000000001146
 20
-601.00000000087084
 30
0.0
 40
3.0
 50
90.0
 51
180.0
1001
ACDBBLOCKREPETAG
1070
     1
1071
       14
1005
130CBF
  0
LINE
  5
130CC0
  8
OBJECT
 10
578.00000000011448
 20
-604.00000000087175
 30
0.0
 11
578.00000000011448
 21
-601.00000000087266
 31
0.0
1001
ACDBBLOCKREPETAG
1070
     1
1071
       15
1005
130CC0
  0
ARC
  5
130CC1
  8
OBJECT
 10
575.00000000011437
 20
-601.00000000087266
 30
0.0
 40
3.0
 50
0.0
 51
90.0
1001
ACDBBLOCKREPETAG
1070
     1
1071
       16
1005
130CC1
  0
LINE
  5
130CC2
  8
OBJECT
 10
575.00000000011437
 20
-598.00000000087255
 30
0.0
 11
457.0000000001146
 21
-598.00000000087084
 31
0.0
1001
ACDBBLOCKREPETAG
1070
     1
1071
       17
1005
130CC2
  0
LINE
  5
130CC3
  8
HIDDEN
 10
486.0000000001146
 20
-596.00000000087175
 30
0.0
 11
546.00000000011437
 21
-596.00000000087175
 31
0.0
1001
ACDBBLOCKREPETAG
1070
     1
1071
      420
1005
130CC3
  0
LINE
  5
130CC4
  8
OBJECT
 10
454.00000000011448
 20
-303.00000000086533
 30
0.0
 11
454.00000000011448
 21
-300.00000000086533
 31
0.0
1001
ACDBBLOCKREPETAG
1070
     1
1071
      418
1005
130CC4
  0
ARC
  5
130CC5
  8
OBJECT
 10
457.0000000001146
 20
-303.00000000086533
 30
0.0
 40
3.0
 50
180.0
 51
270.0
1001
ACDBBLOCKREPETAG
1070
     1
1071
      419
1005
130CC5
  0
LINE
  5
130CC6
  8
OBJECT
 10
578.00000000011448
 20
-300.00000000086533
 30
0.0
 11
578.00000000011448
 21
-303.00000000086533
 31
0.0
1001
ACDBBLOCKREPETAG
1070
     1
1071
      420
1005
130CC6
  0
ARC
  5
130CC7
  8
OBJECT
 10
575.00000000011437
 20
-303.00000000086533
 30
0.0
 40
3.0
 50
270.0
 51
0.0
1001
ACDBBLOCKREPETAG
1070
     1
1071
      421
1005
130CC7
  0
LINE
  5
130CC8
  8
OBJECT
 10
575.00000000011437
 20
-306.00000000086533
 30
0.0
 11
457.0000000001146
 21
-306.00000000086533
 31
0.0
1001
ACDBBLOCKREPETAG
1070
     1
1071
      422
1005
130CC8
  0
INSERT
  5
130CC9
  8
OBJECT
  2
*U32
 10
0.0
 20
0.0
 30
0.0
  0
LINE
  5
130CCA
  8
OBJECT
 10
649.00000000011448
 20
-165.0000000008653
 30
0.0
 11
656.0000000001146
 21
-165.0000000008653
 31
0.0
1001
ACDBBLOCKREPETAG
1070
     1
1071
       20
1005
130CCA
  0
LINE
  5
130CCB
  8
OBJECT
 10
656.0000000001146
 20
-165.0000000008653
 30
0.0
 11
656.0000000001146
 21
-275.00000000086533
 31
0.0
1001
ACDBBLOCKREPETAG
1070
     1
1071
       21
1005
130CCB
  0
LINE
  5
130CCC
  8
OBJECT
 10
656.0000000001146
 20
-275.00000000086533
 30
0.0
 11
649.00000000011448
 21
-275.00000000086533
 31
0.0
1001
ACDBBLOCKREPETAG
1070
     1
1071
       22
1005
130CCC
  0
LINE
  5
130CCD
  8
OBJECT
 10
649.00000000011448
 20
-275.00000000086533
 30
0.0
 11
649.00000000011448
 21
-165.0000000008653
 31
0.0
1001
ACDBBLOCKREPETAG
1070
     1
1071
       23
1005
130CCD
  0
LINE
  5
130CCE
  8
OBJECT
 10
649.00000000011448
 20
-168.0000000008653
 30
0.0
 11
613.0000000001146
 21
-168.0000000008653
 31
0.0
1001
ACDBBLOCKREPETAG
1070
     1
1071
       24
1005
130CCE
  0
LINE
  5
130CCF
  8
OBJECT
 10
613.0000000001146
 20
-168.0000000008653
 30
0.0
 11
613.0000000001146
 21
-272.00000000086533
 31
0.0
1001
ACDBBLOCKREPETAG
1070
     1
1071
       25
1005
130CCF
  0
LINE
  5
130CD0
  8
OBJECT
 10
613.0000000001146
 20
-272.00000000086533
 30
0.0
 11
649.00000000011448
 21
-272.00000000086533
 31
0.0
1001
ACDBBLOCKREPETAG
1070
     1
1071
       26
1005
130CD0
  0
LINE
  5
130CD1
  8
OBJECT
 10
609.0000000001146
 20
-172.5000000008653
 30
0.0
 11
602.0000000001146
 21
-172.5000000008653
 31
0.0
1001
ACDBBLOCKREPETAG
1070
     1
1071
       27
1005
130CD1
  0
LINE
  5
130CD2
  8
OBJECT
 10
602.0000000001146
 20
-267.50000000086533
 30
0.0
 11
609.0000000001146
 21
-267.50000000086533
 31
0.0
1001
ACDBBLOCKREPETAG
1070
     1
1071
       28
1005
130CD2
  0
LINE
  5
130CD3
  8
OBJECT
 10
609.0000000001146
 20
-267.50000000086533
 30
0.0
 11
609.0000000001146
 21
-172.5000000008653
 31
0.0
1001
ACDBBLOCKREPETAG
1070
     1
1071
       29
1005
130CD3
  0
LINE
  5
130CD4
  8
OBJECT
 10
613.0000000001146
 20
-168.0000000008653
 30
0.0
 11
609.0000000001146
 21
-172.5000000008653
 31
0.0
1001
ACDBBLOCKREPETAG
1070
     1
1071
       30
1005
130CD4
  0
LINE
  5
130CD5
  8
OBJECT
 10
613.0000000001146
 20
-272.00000000086533
 30
0.0
 11
609.0000000001146
 21
-267.50000000086533
 31
0.0
1001
ACDBBLOCKREPETAG
1070
     1
1071
       31
1005
130CD5
  0
LINE
  5
130CD6
  8
OBJECT
 10
599.00000000011619
 20
-158.0000000008653
 30
0.0
 11
596.00000000011437
 21
-158.0000000008653
 31
0.0
1001
ACDBBLOCKREPETAG
1070
     1
1071
       32
1005
130CD6
  0
ARC
  5
130CD7
  8
OBJECT
 10
599.00000000011619
 20
-161.0000000008653
 30
0.0
 40
3.0
 50
0.0
 51
90.0
1001
ACDBBLOCKREPETAG
1070
     1
1071
       33
1005
130CD7
  0
LINE
  5
130CD8
  8
OBJECT
 10
596.00000000011437
 20
-282.00000000086533
 30
0.0
 11
599.00000000011278
 21
-282.00000000086533
 31
0.0
1001
ACDBBLOCKREPETAG
1070
     1
1071
       34
1005
130CD8
  0
ARC
  5
130CD9
  8
OBJECT
 10
599.00000000011278
 20
-279.00000000086533
 30
0.0
 40
3.0
 50
270.0
 51
0.0
1001
ACDBBLOCKREPETAG
1070
     1
1071
       35
1005
130CD9
  0
LINE
  5
130CDA
  8
OBJECT
 10
602.00000000011266
 20
-279.00000000086533
 30
0.0
 11
602.0000000001163
 21
-161.0000000008653
 31
0.0
1001
ACDBBLOCKREPETAG
1070
     1
1071
       36
1005
130CDA
  0
LINE
  5
130CDB
  8
HIDDEN
 10
604.00000000011437
 20
-182.0000000008653
 30
0.0
 11
604.00000000011437
 21
-258.00000000086533
 31
0.0
1001
ACDBBLOCKREPETAG
1070
     1
1071
      427
1005
130CDB
  0
INSERT
  5
130CDC
  8
OBJECT
  2
*U33
 10
0.0
 20
0.0
 30
0.0
  0
LINE
  5
130CDD
  8
OBJECT
 10
469.0000000001146
 20
-87.000000000865299
 30
0.0
 11
469.0000000001146
 21
-80.000000000865313
 31
0.0
1001
ACDBBLOCKREPETAG
1070
     1
1071
        1
1005
130CDD
  0
LINE
  5
130CDE
  8
OBJECT
 10
469.0000000001146
 20
-80.000000000865313
 30
0.0
 11
563.00000000011437
 21
-80.000000000865313
 31
0.0
1001
ACDBBLOCKREPETAG
1070
     1
1071
        2
1005
130CDE
  0
LINE
  5
130CDF
  8
OBJECT
 10
563.00000000011437
 20
-80.000000000865313
 30
0.0
 11
563.00000000011437
 21
-87.000000000865299
 31
0.0
1001
ACDBBLOCKREPETAG
1070
     1
1071
        3
1005
130CDF
  0
LINE
  5
130CE0
  8
OBJECT
 10
563.00000000011437
 20
-87.000000000865299
 30
0.0
 11
469.0000000001146
 21
-87.000000000865299
 31
0.0
1001
ACDBBLOCKREPETAG
1070
     1
1071
        4
1005
130CE0
  0
LINE
  5
130CE1
  8
OBJECT
 10
472.0000000001146
 20
-87.000000000865299
 30
0.0
 11
472.0000000001146
 21
-123.0000000008653
 31
0.0
1001
ACDBBLOCKREPETAG
1070
     1
1071
        5
1005
130CE1
  0
LINE
  5
130CE2
  8
OBJECT
 10
472.0000000001146
 20
-123.0000000008653
 30
0.0
 11
560.0000000001146
 21
-123.0000000008653
 31
0.0
1001
ACDBBLOCKREPETAG
1070
     1
1071
        6
1005
130CE2
  0
LINE
  5
130CE3
  8
OBJECT
 10
560.0000000001146
 20
-123.0000000008653
 30
0.0
 11
560.0000000001146
 21
-87.000000000865299
 31
0.0
1001
ACDBBLOCKREPETAG
1070
     1
1071
        7
1005
130CE3
  0
LINE
  5
130CE4
  8
OBJECT
 10
476.5000000001146
 20
-127.0000000008653
 30
0.0
 11
476.5000000001146
 21
-134.0000000008653
 31
0.0
1001
ACDBBLOCKREPETAG
1070
     1
1071
        8
1005
130CE4
  0
LINE
  5
130CE5
  8
OBJECT
 10
555.5000000001146
 20
-134.0000000008653
 30
0.0
 11
555.5000000001146
 21
-127.0000000008653
 31
0.0
1001
ACDBBLOCKREPETAG
1070
     1
1071
        9
1005
130CE5
  0
LINE
  5
130CE6
  8
OBJECT
 10
555.5000000001146
 20
-127.0000000008653
 30
0.0
 11
476.5000000001146
 21
-127.0000000008653
 31
0.0
1001
ACDBBLOCKREPETAG
1070
     1
1071
       10
1005
130CE6
  0
LINE
  5
130CE7
  8
OBJECT
 10
472.0000000001146
 20
-123.0000000008653
 30
0.0
 11
476.5000000001146
 21
-127.0000000008653
 31
0.0
1001
ACDBBLOCKREPETAG
1070
     1
1071
       11
1005
130CE7
  0
LINE
  5
130CE8
  8
OBJECT
 10
560.0000000001146
 20
-123.0000000008653
 30
0.0
 11
555.5000000001146
 21
-127.0000000008653
 31
0.0
1001
ACDBBLOCKREPETAG
1070
     1
1071
       12
1005
130CE8
  0
LINE
  5
130CE9
  8
OBJECT
 10
454.00000000011448
 20
-137.00000000086439
 30
0.0
 11
454.00000000011448
 21
-140.0000000008653
 31
0.0
1001
ACDBBLOCKREPETAG
1070
     1
1071
       13
1005
130CE9
  0
ARC
  5
130CEA
  8
OBJECT
 10
457.0000000001146
 20
-137.00000000086439
 30
0.0
 40
3.0
 50
90.0
 51
180.0
1001
ACDBBLOCKREPETAG
1070
     1
1071
       14
1005
130CEA
  0
LINE
  5
130CEB
  8
OBJECT
 10
578.00000000011448
 20
-140.0000000008653
 30
0.0
 11
578.00000000011448
 21
-137.00000000086621
 31
0.0
1001
ACDBBLOCKREPETAG
1070
     1
1071
       15
1005
130CEB
  0
ARC
  5
130CEC
  8
OBJECT
 10
575.00000000011437
 20
-137.00000000086621
 30
0.0
 40
3.0
 50
0.0
 51
90.0
1001
ACDBBLOCKREPETAG
1070
     1
1071
       16
1005
130CEC
  0
LINE
  5
130CED
  8
OBJECT
 10
575.00000000011437
 20
-134.00000000086621
 30
0.0
 11
457.0000000001146
 21
-134.00000000086439
 31
0.0
1001
ACDBBLOCKREPETAG
1070
     1
1071
       17
1005
130CED
  0
LINE
  5
130CEE
  8
HIDDEN
 10
486.0000000001146
 20
-132.0000000008653
 30
0.0
 11
546.00000000011437
 21
-132.0000000008653
 31
0.0
1001
ACDBBLOCKREPETAG
1070
     1
1071
      420
1005
130CEE
  0
LINE
  5
130CEF
  8
OBJECT
 10
94.000000000034575
 20
-303.00000000086533
 30
0.0
 11
94.000000000034575
 21
-300.00000000086533
 31
0.0
1001
ACDBBLOCKREPETAG
1070
     1
1071
      418
1005
130CEF
  0
ARC
  5
130CF0
  8
OBJECT
 10
97.000000000034561
 20
-303.00000000086533
 30
0.0
 40
3.0
 50
180.0
 51
270.0
1001
ACDBBLOCKREPETAG
1070
     1
1071
      419
1005
130CF0
  0
LINE
  5
130CF1
  8
OBJECT
 10
218.00000000003459
 20
-300.00000000086533
 30
0.0
 11
218.00000000003459
 21
-303.00000000086533
 31
0.0
1001
ACDBBLOCKREPETAG
1070
     1
1071
      420
1005
130CF1
  0
ARC
  5
130CF2
  8
OBJECT
 10
215.00000000003459
 20
-303.00000000086533
 30
0.0
 40
3.0
 50
270.0
 51
0.0
1001
ACDBBLOCKREPETAG
1070
     1
1071
      421
1005
130CF2
  0
LINE
  5
130CF3
  8
OBJECT
 10
215.00000000003459
 20
-306.00000000086533
 30
0.0
 11
97.000000000034561
 21
-306.00000000086533
 31
0.0
1001
ACDBBLOCKREPETAG
1070
     1
1071
      422
1005
130CF3
  0
INSERT
  5
130CF4
  8
OBJECT
  2
*U34
 10
0.0
 20
0.0
 30
0.0
  0
LINE
  5
130CF5
  8
OBJECT
 10
289.00000000003462
 20
-173.0000000008653
 30
0.0
 11
296.0000000000345
 21
-173.0000000008653
 31
0.0
1001
ACDBBLOCKREPETAG
1070
     1
1071
        1
1005
130CF5
  0
LINE
  5
130CF6
  8
OBJECT
 10
296.0000000000345
 20
-173.0000000008653
 30
0.0
 11
296.0000000000345
 21
-267.00000000086533
 31
0.0
1001
ACDBBLOCKREPETAG
1070
     1
1071
        2
1005
130CF6
  0
LINE
  5
130CF7
  8
OBJECT
 10
296.0000000000345
 20
-267.00000000086533
 30
0.0
 11
289.00000000003462
 21
-267.00000000086533
 31
0.0
1001
ACDBBLOCKREPETAG
1070
     1
1071
        3
1005
130CF7
  0
LINE
  5
130CF8
  8
OBJECT
 10
289.00000000003462
 20
-267.00000000086533
 30
0.0
 11
289.00000000003462
 21
-173.0000000008653
 31
0.0
1001
ACDBBLOCKREPETAG
1070
     1
1071
        4
1005
130CF8
  0
LINE
  5
130CF9
  8
OBJECT
 10
289.00000000003462
 20
-176.0000000008653
 30
0.0
 11
253.00000000003459
 21
-176.0000000008653
 31
0.0
1001
ACDBBLOCKREPETAG
1070
     1
1071
        5
1005
130CF9
  0
LINE
  5
130CFA
  8
OBJECT
 10
253.00000000003459
 20
-176.0000000008653
 30
0.0
 11
253.00000000003459
 21
-264.00000000086533
 31
0.0
1001
ACDBBLOCKREPETAG
1070
     1
1071
        6
1005
130CFA
  0
LINE
  5
130CFB
  8
OBJECT
 10
253.00000000003459
 20
-264.00000000086533
 30
0.0
 11
289.00000000003462
 21
-264.00000000086533
 31
0.0
1001
ACDBBLOCKREPETAG
1070
     1
1071
        7
1005
130CFB
  0
LINE
  5
130CFC
  8
OBJECT
 10
249.00000000003459
 20
-180.5000000008653
 30
0.0
 11
242.00000000003459
 21
-180.5000000008653
 31
0.0
1001
ACDBBLOCKREPETAG
1070
     1
1071
        8
1005
130CFC
  0
LINE
  5
130CFD
  8
OBJECT
 10
242.00000000003459
 20
-259.50000000086533
 30
0.0
 11
249.00000000003459
 21
-259.50000000086533
 31
0.0
1001
ACDBBLOCKREPETAG
1070
     1
1071
        9
1005
130CFD
  0
LINE
  5
130CFE
  8
OBJECT
 10
249.00000000003459
 20
-259.50000000086533
 30
0.0
 11
249.00000000003459
 21
-180.5000000008653
 31
0.0
1001
ACDBBLOCKREPETAG
1070
     1
1071
       10
1005
130CFE
  0
LINE
  5
130CFF
  8
OBJECT
 10
253.00000000003459
 20
-176.0000000008653
 30
0.0
 11
249.00000000003459
 21
-180.5000000008653
 31
0.0
1001
ACDBBLOCKREPETAG
1070
     1
1071
       11
1005
130CFF
  0
LINE
  5
130D00
  8
OBJECT
 10
253.00000000003459
 20
-264.00000000086533
 30
0.0
 11
249.00000000003459
 21
-259.50000000086533
 31
0.0
1001
ACDBBLOCKREPETAG
1070
     1
1071
       12
1005
130D00
  0
LINE
  5
130D01
  8
OBJECT
 10
239.00000000003641
 20
-158.0000000008653
 30
0.0
 11
236.00000000003459
 21
-158.0000000008653
 31
0.0
1001
ACDBBLOCKREPETAG
1070
     1
1071
       13
1005
130D01
  0
ARC
  5
130D02
  8
OBJECT
 10
239.00000000003641
 20
-161.0000000008653
 30
0.0
 40
3.0
 50
0.0
 51
90.0
1001
ACDBBLOCKREPETAG
1070
     1
1071
       14
1005
130D02
  0
LINE
  5
130D03
  8
OBJECT
 10
236.00000000003459
 20
-282.00000000086533
 30
0.0
 11
239.00000000003271
 21
-282.00000000086533
 31
0.0
1001
ACDBBLOCKREPETAG
1070
     1
1071
       15
1005
130D03
  0
ARC
  5
130D04
  8
OBJECT
 10
239.00000000003271
 20
-279.00000000086533
 30
0.0
 40
3.0
 50
270.0
 51
0.0
1001
ACDBBLOCKREPETAG
1070
     1
1071
       16
1005
130D04
  0
LINE
  5
130D05
  8
OBJECT
 10
242.0000000000328
 20
-279.00000000086533
 30
0.0
 11
242.00000000003641
 21
-161.0000000008653
 31
0.0
1001
ACDBBLOCKREPETAG
1070
     1
1071
       17
1005
130D05
  0
LINE
  5
130D06
  8
HIDDEN
 10
244.0000000000345
 20
-190.0000000008653
 30
0.0
 11
244.0000000000345
 21
-250.0000000008653
 31
0.0
1001
ACDBBLOCKREPETAG
1070
     1
1071
      424
1005
130D06
  0
INSERT
  5
130D07
  8
OBJECT
  2
*U35
 10
0.0
 20
0.0
 30
0.0
  0
LINE
  5
130D08
  8
OBJECT
 10
109.0000000000345
 20
-87.000000000865299
 30
0.0
 11
109.0000000000345
 21
-80.000000000865313
 31
0.0
1001
ACDBBLOCKREPETAG
1070
     1
1071
        1
1005
130D08
  0
LINE
  5
130D09
  8
OBJECT
 10
109.0000000000345
 20
-80.000000000865313
 30
0.0
 11
203.00000000003459
 21
-80.000000000865313
 31
0.0
1001
ACDBBLOCKREPETAG
1070
     1
1071
        2
1005
130D09
  0
LINE
  5
130D0A
  8
OBJECT
 10
203.00000000003459
 20
-80.000000000865313
 30
0.0
 11
203.00000000003459
 21
-87.000000000865299
 31
0.0
1001
ACDBBLOCKREPETAG
1070
     1
1071
        3
1005
130D0A
  0
LINE
  5
130D0B
  8
OBJECT
 10
203.00000000003459
 20
-87.000000000865299
 30
0.0
 11
109.0000000000345
 21
-87.000000000865299
 31
0.0
1001
ACDBBLOCKREPETAG
1070
     1
1071
        4
1005
130D0B
  0
LINE
  5
130D0C
  8
OBJECT
 10
112.0000000000345
 20
-87.000000000865299
 30
0.0
 11
112.0000000000345
 21
-123.0000000008653
 31
0.0
1001
ACDBBLOCKREPETAG
1070
     1
1071
        5
1005
130D0C
  0
LINE
  5
130D0D
  8
OBJECT
 10
112.0000000000345
 20
-123.0000000008653
 30
0.0
 11
200.0000000000345
 21
-123.0000000008653
 31
0.0
1001
ACDBBLOCKREPETAG
1070
     1
1071
        6
1005
130D0D
  0
LINE
  5
130D0E
  8
OBJECT
 10
200.0000000000345
 20
-123.0000000008653
 30
0.0
 11
200.0000000000345
 21
-87.000000000865299
 31
0.0
1001
ACDBBLOCKREPETAG
1070
     1
1071
        7
1005
130D0E
  0
LINE
  5
130D0F
  8
OBJECT
 10
116.5000000000345
 20
-127.0000000008653
 30
0.0
 11
116.5000000000345
 21
-134.0000000008653
 31
0.0
1001
ACDBBLOCKREPETAG
1070
     1
1071
        8
1005
130D0F
  0
LINE
  5
130D10
  8
OBJECT
 10
195.5000000000345
 20
-134.0000000008653
 30
0.0
 11
195.5000000000345
 21
-127.0000000008653
 31
0.0
1001
ACDBBLOCKREPETAG
1070
     1
1071
        9
1005
130D10
  0
LINE
  5
130D11
  8
OBJECT
 10
195.5000000000345
 20
-127.0000000008653
 30
0.0
 11
116.5000000000345
 21
-127.0000000008653
 31
0.0
1001
ACDBBLOCKREPETAG
1070
     1
1071
       10
1005
130D11
  0
LINE
  5
130D12
  8
OBJECT
 10
112.0000000000345
 20
-123.0000000008653
 30
0.0
 11
116.5000000000345
 21
-127.0000000008653
 31
0.0
1001
ACDBBLOCKREPETAG
1070
     1
1071
       11
1005
130D12
  0
LINE
  5
130D13
  8
OBJECT
 10
200.0000000000345
 20
-123.0000000008653
 30
0.0
 11
195.5000000000345
 21
-127.0000000008653
 31
0.0
1001
ACDBBLOCKREPETAG
1070
     1
1071
       12
1005
130D13
  0
LINE
  5
130D14
  8
OBJECT
 10
94.000000000034575
 20
-137.00000000086439
 30
0.0
 11
94.000000000034575
 21
-140.0000000008653
 31
0.0
1001
ACDBBLOCKREPETAG
1070
     1
1071
       13
1005
130D14
  0
ARC
  5
130D15
  8
OBJECT
 10
97.000000000034561
 20
-137.00000000086439
 30
0.0
 40
3.0
 50
90.0
 51
180.0
1001
ACDBBLOCKREPETAG
1070
     1
1071
       14
1005
130D15
  0
LINE
  5
130D16
  8
OBJECT
 10
218.00000000003459
 20
-140.0000000008653
 30
0.0
 11
218.00000000003459
 21
-137.00000000086621
 31
0.0
1001
ACDBBLOCKREPETAG
1070
     1
1071
       15
1005
130D16
  0
ARC
  5
130D17
  8
OBJECT
 10
215.00000000003459
 20
-137.00000000086621
 30
0.0
 40
3.0
 50
0.0
 51
90.0
1001
ACDBBLOCKREPETAG
1070
     1
1071
       16
1005
130D17
  0
LINE
  5
130D18
  8
OBJECT
 10
215.00000000003459
 20
-134.00000000086621
 30
0.0
 11
97.000000000034561
 21
-134.00000000086439
 31
0.0
1001
ACDBBLOCKREPETAG
1070
     1
1071
       17
1005
130D18
  0
LINE
  5
130D19
  8
HIDDEN
 10
126.0000000000345
 20
-132.0000000008653
 30
0.0
 11
186.00000000003439
 21
-132.0000000008653
 31
0.0
1001
ACDBBLOCKREPETAG
1070
     1
1071
      420
1005
130D19
  0
POLYLINE
  5
130D1A
  8
HIDDEN
 66
     1
 10
0.0
 20
0.0
 30
0.0
 70
     1
1001
ACDBBLOCKREPETAG
1070
     1
1071
      105
1005
0
  0
VERTEX
  5
13118D
  8
HIDDEN
 10
359.99999999987818
 20
-0.0000000000008527
 30
0.0
  0
VERTEX
  5
13118E
  8
HIDDEN
 10
719.99999999975626
 20
-0.0000000000008527
 30
0.0
  0
VERTEX
  5
13118F
  8
HIDDEN
 10
719.99999999975626
 20
-463.99999999984249
 30
0.0
  0
VERTEX
  5
131190
  8
HIDDEN
 10
359.99999999987818
 20
-463.99999999984249
 30
0.0
  0
SEQEND
  5
131191
  8
HIDDEN
  0
POLYLINE
  5
130D1B
  8
HIDDEN
 66
     1
 10
0.0
 20
0.0
 30
0.0
 70
     1
1001
ACDBBLOCKREPETAG
1070
     1
1071
      110
1005
0
  0
VERTEX
  5
131192
  8
HIDDEN
 10
0.0
 20
-0.0000000000008527
 30
0.0
  0
VERTEX
  5
131193
  8
HIDDEN
 10
359.99999999987818
 20
-0.0000000000008527
 30
0.0
  0
VERTEX
  5
131194
  8
HIDDEN
 10
359.99999999987818
 20
-463.99999999984249
 30
0.0
  0
VERTEX
  5
131195
  8
HIDDEN
 10
0.0
 20
-463.99999999984249
 30
0.0
  0
SEQEND
  5
131196
  8
HIDDEN
  0
POLYLINE
  5
130D1C
  8
HIDDEN
 66
     1
 10
0.0
 20
0.0
 30
0.0
 70
     1
1001
ACDBBLOCKREPETAG
1070
     1
1071
      120
1005
0
  0
VERTEX
  5
131197
  8
HIDDEN
 10
359.99999999987818
 20
-463.99999999984249
 30
0.0
  0
VERTEX
  5
131198
  8
HIDDEN
 10
719.99999999975626
 20
-463.99999999984249
 30
0.0
  0
VERTEX
  5
131199
  8
HIDDEN
 10
719.99999999975626
 20
-927.99999999968441
 30
0.0
  0
VERTEX
  5
13119A
  8
HIDDEN
 10
359.99999999987818
 20
-927.99999999968441
 30
0.0
  0
SEQEND
  5
13119B
  8
HIDDEN
  0
POLYLINE
  5
130D1D
  8
HIDDEN
 66
     1
 10
0.0
 20
0.0
 30
0.0
 70
     1
1001
ACDBBLOCKREPETAG
1070
     1
1071
      125
1005
0
  0
VERTEX
  5
13119C
  8
HIDDEN
 10
0.0
 20
-463.99999999984249
 30
0.0
  0
VERTEX
  5
13119D
  8
HIDDEN
 10
359.99999999987818
 20
-463.99999999984249
 30
0.0
  0
VERTEX
  5
13119E
  8
HIDDEN
 10
359.99999999987818
 20
-927.99999999968441
 30
0.0
  0
VERTEX
  5
13119F
  8
HIDDEN
 10
0.0
 20
-927.99999999968441
 30
0.0
  0
SEQEND
  5
1311A0
  8
HIDDEN
  0
POLYLINE
  5
130D1E
  8
HIDDEN
 66
     1
 10
0.0
 20
0.0
 30
0.0
 70
     1
1001
ACDBBLOCKREPETAG
1070
     1
1071
      130
1005
0
  0
VERTEX
  5
1311A1
  8
HIDDEN
 10
359.99999999987818
 20
-927.99999999968441
 30
0.0
  0
VERTEX
  5
1311A2
  8
HIDDEN
 10
719.99999999975626
 20
-927.99999999968441
 30
0.0
  0
VERTEX
  5
1311A3
  8
HIDDEN
 10
719.99999999975626
 20
-1391.9999999995259
 30
0.0
  0
VERTEX
  5
1311A4
  8
HIDDEN
 10
359.99999999987818
 20
-1391.9999999995259
 30
0.0
  0
SEQEND
  5
1311A5
  8
HIDDEN
  0
POLYLINE
  5
130D1F
  8
HIDDEN
 66
     1
 10
0.0
 20
0.0
 30
0.0
 70
     1
1001
ACDBBLOCKREPETAG
1070
     1
1071
      135
1005
0
  0
VERTEX
  5
1311A6
  8
HIDDEN
 10
0.0
 20
-927.99999999968441
 30
0.0
  0
VERTEX
  5
1311A7
  8
HIDDEN
 10
359.99999999987818
 20
-927.99999999968441
 30
0.0
  0
VERTEX
  5
1311A8
  8
HIDDEN
 10
359.99999999987818
 20
-1391.9999999995259
 30
0.0
  0
VERTEX
  5
1311A9
  8
HIDDEN
 10
0.0
 20
-1391.9999999995259
 30
0.0
  0
SEQEND
  5
1311AA
  8
HIDDEN
  0
POLYLINE
  5
130D20
  8
HIDDEN
 66
     1
 10
0.0
 20
0.0
 30
0.0
 70
     1
1001
ACDBBLOCKREPETAG
1070
     1
1071
      140
1005
0
  0
VERTEX
  5
1311AB
  8
HIDDEN
 10
359.99999999987818
 20
-2783.9999999990532
 30
0.0
  0
VERTEX
  5
1311AC
  8
HIDDEN
 10
719.99999999975626
 20
-2783.9999999990532
 30
0.0
  0
VERTEX
  5
1311AD
  8
HIDDEN
 10
719.99999999975626
 20
-3247.9999999988931
 30
0.0
  0
VERTEX
  5
1311AE
  8
HIDDEN
 10
359.99999999987818
 20
-3247.9999999988931
 30
0.0
  0
SEQEND
  5
1311AF
  8
HIDDEN
  0
POLYLINE
  5
130D21
  8
HIDDEN
 66
     1
 10
0.0
 20
0.0
 30
0.0
 70
     1
1001
ACDBBLOCKREPETAG
1070
     1
1071
      145
1005
0
  0
VERTEX
  5
1311B0
  8
HIDDEN
 10
0.0
 20
-2783.9999999990532
 30
0.0
  0
VERTEX
  5
1311B1
  8
HIDDEN
 10
359.99999999987818
 20
-2783.9999999990532
 30
0.0
  0
VERTEX
  5
1311B2
  8
HIDDEN
 10
359.99999999987818
 20
-3247.9999999988931
 30
0.0
  0
VERTEX
  5
1311B3
  8
HIDDEN
 10
0.0
 20
-3247.9999999988931
 30
0.0
  0
SEQEND
  5
1311B4
  8
HIDDEN
  0
POLYLINE
  5
130D22
  8
HIDDEN
 66
     1
 10
0.0
 20
0.0
 30
0.0
 70
     1
1001
ACDBBLOCKREPETAG
1070
     1
1071
      150
1005
0
  0
VERTEX
  5
1311B5
  8
HIDDEN
 10
359.99999999987818
 20
-3247.9999999988931
 30
0.0
  0
VERTEX
  5
1311B6
  8
HIDDEN
 10
719.99999999975626
 20
-3247.9999999988931
 30
0.0
  0
VERTEX
  5
1311B7
  8
HIDDEN
 10
719.99999999975626
 20
-3711.9999999987349
 30
0.0
  0
VERTEX
  5
1311B8
  8
HIDDEN
 10
359.99999999987818
 20
-3711.9999999987349
 30
0.0
  0
SEQEND
  5
1311B9
  8
HIDDEN
  0
POLYLINE
  5
130D23
  8
HIDDEN
 66
     1
 10
0.0
 20
0.0
 30
0.0
 70
     1
1001
ACDBBLOCKREPETAG
1070
     1
1071
      155
1005
0
  0
VERTEX
  5
1311BA
  8
HIDDEN
 10
0.0
 20
-3247.9999999988931
 30
0.0
  0
VERTEX
  5
1311BB
  8
HIDDEN
 10
359.99999999987818
 20
-3247.9999999988931
 30
0.0
  0
VERTEX
  5
1311BC
  8
HIDDEN
 10
359.99999999987818
 20
-3711.9999999987349
 30
0.0
  0
VERTEX
  5
1311BD
  8
HIDDEN
 10
0.0
 20
-3711.9999999987349
 30
0.0
  0
SEQEND
  5
1311BE
  8
HIDDEN
  0
POLYLINE
  5
130D24
  8
HIDDEN
 66
     1
 10
0.0
 20
0.0
 30
0.0
 70
     1
1001
ACDBBLOCKREPETAG
1070
     1
1071
      160
1005
0
  0
VERTEX
  5
1311BF
  8
HIDDEN
 10
359.99999999987818
 20
-1391.9999999995259
 30
0.0
  0
VERTEX
  5
1311C0
  8
HIDDEN
 10
719.99999999975626
 20
-1391.9999999995259
 30
0.0
  0
VERTEX
  5
1311C1
  8
HIDDEN
 10
719.99999999975626
 20
-1855.9999999993679
 30
0.0
  0
VERTEX
  5
1311C2
  8
HIDDEN
 10
359.99999999987818
 20
-1855.9999999993679
 30
0.0
  0
SEQEND
  5
1311C3
  8
HIDDEN
  0
POLYLINE
  5
130D25
  8
HIDDEN
 66
     1
 10
0.0
 20
0.0
 30
0.0
 70
     1
1001
ACDBBLOCKREPETAG
1070
     1
1071
      165
1005
0
  0
VERTEX
  5
1311C4
  8
HIDDEN
 10
0.0
 20
-1391.9999999995259
 30
0.0
  0
VERTEX
  5
1311C5
  8
HIDDEN
 10
359.99999999987818
 20
-1391.9999999995259
 30
0.0
  0
VERTEX
  5
1311C6
  8
HIDDEN
 10
359.99999999987818
 20
-1855.9999999993679
 30
0.0
  0
VERTEX
  5
1311C7
  8
HIDDEN
 10
0.0
 20
-1855.9999999993679
 30
0.0
  0
SEQEND
  5
1311C8
  8
HIDDEN
  0
POLYLINE
  5
130D26
  8
HIDDEN
 66
     1
 10
0.0
 20
0.0
 30
0.0
 70
     1
1001
ACDBBLOCKREPETAG
1070
     1
1071
      170
1005
0
  0
VERTEX
  5
1311C9
  8
HIDDEN
 10
359.99999999987818
 20
-1855.9999999993679
 30
0.0
  0
VERTEX
  5
1311CA
  8
HIDDEN
 10
719.99999999975626
 20
-1855.9999999993679
 30
0.0
  0
VERTEX
  5
1311CB
  8
HIDDEN
 10
719.99999999975626
 20
-2319.9999999992101
 30
0.0
  0
VERTEX
  5
1311CC
  8
HIDDEN
 10
359.99999999987818
 20
-2319.9999999992101
 30
0.0
  0
SEQEND
  5
1311CD
  8
HIDDEN
  0
POLYLINE
  5
130D27
  8
HIDDEN
 66
     1
 10
0.0
 20
0.0
 30
0.0
 70
     1
1001
ACDBBLOCKREPETAG
1070
     1
1071
      175
1005
0
  0
VERTEX
  5
1311CE
  8
HIDDEN
 10
0.0
 20
-1855.9999999993679
 30
0.0
  0
VERTEX
  5
1311CF
  8
HIDDEN
 10
359.99999999987818
 20
-1855.9999999993679
 30
0.0
  0
VERTEX
  5
1311D0
  8
HIDDEN
 10
359.99999999987818
 20
-2319.9999999992101
 30
0.0
  0
VERTEX
  5
1311D1
  8
HIDDEN
 10
0.0
 20
-2319.9999999992101
 30
0.0
  0
SEQEND
  5
1311D2
  8
HIDDEN
  0
POLYLINE
  5
130D28
  8
HIDDEN
 66
     1
 10
0.0
 20
0.0
 30
0.0
 70
     1
1001
ACDBBLOCKREPETAG
1070
     1
1071
      180
1005
0
  0
VERTEX
  5
1311D3
  8
HIDDEN
 10
359.99999999987818
 20
-2319.9999999992101
 30
0.0
  0
VERTEX
  5
1311D4
  8
HIDDEN
 10
719.99999999975626
 20
-2319.9999999992101
 30
0.0
  0
VERTEX
  5
1311D5
  8
HIDDEN
 10
719.99999999975626
 20
-2783.9999999990532
 30
0.0
  0
VERTEX
  5
1311D6
  8
HIDDEN
 10
359.99999999987818
 20
-2783.9999999990532
 30
0.0
  0
SEQEND
  5
1311D7
  8
HIDDEN
  0
POLYLINE
  5
130D29
  8
HIDDEN
 66
     1
 10
0.0
 20
0.0
 30
0.0
 70
     1
1001
ACDBBLOCKREPETAG
1070
     1
1071
      185
1005
0
  0
VERTEX
  5
1311D8
  8
HIDDEN
 10
0.0
 20
-2319.9999999992101
 30
0.0
  0
VERTEX
  5
1311D9
  8
HIDDEN
 10
359.99999999987818
 20
-2319.9999999992101
 30
0.0
  0
VERTEX
  5
1311DA
  8
HIDDEN
 10
359.99999999987818
 20
-2783.9999999990532
 30
0.0
  0
VERTEX
  5
1311DB
  8
HIDDEN
 10
0.0
 20
-2783.9999999990532
 30
0.0
  0
SEQEND
  5
1311DC
  8
HIDDEN
  0
TEXT
  5
130D2A
  8
SLIM
 10
491.99999999981759
 20
-3691.9999999987422
 30
0.0
 40
48.0
  1
C44
 41
0.75
1001
ACDBBLOCKREPETAG
1070
     1
1071
      119
1005
0
  0
TEXT
  5
130D2B
  8
SLIM
 10
132.85714285708241
 20
-3691.9999999987422
 30
0.0
 40
48.0
  1
C43
 41
0.75
1001
ACDBBLOCKREPETAG
1070
     1
1071
      119
1005
0
  0
TEXT
  5
130D2C
  8
SLIM
 10
492.85714285696048
 20
-3227.9999999989
 30
0.0
 40
48.0
  1
C42
 41
0.75
1001
ACDBBLOCKREPETAG
1070
     1
1071
      119
1005
0
  0
TEXT
  5
130D2D
  8
SLIM
 10
140.5714285713681
 20
-3227.9999999989018
 30
0.0
 40
48.0
  1
C41
 41
0.75
1001
ACDBBLOCKREPETAG
1070
     1
1071
      119
1005
0
  0
TEXT
  5
130D2E
  8
SLIM
 10
491.99999999981759
 20
-2763.9999999990591
 30
0.0
 40
48.0
  1
C34
 41
0.75
1001
ACDBBLOCKREPETAG
1070
     1
1071
      119
1005
0
  0
TEXT
  5
130D2F
  8
SLIM
 10
132.85714285708241
 20
-2763.9999999990591
 30
0.0
 40
48.0
  1
C33
 41
0.75
1001
ACDBBLOCKREPETAG
1070
     1
1071
      119
1005
0
  0
TEXT
  5
130D30
  8
SLIM
 10
492.85714285696048
 20
-2299.9999999992169
 30
0.0
 40
48.0
  1
C32
 41
0.75
1001
ACDBBLOCKREPETAG
1070
     1
1071
      119
1005
0
  0
TEXT
  5
130D31
  8
SLIM
 10
140.5714285713681
 20
-2299.9999999992169
 30
0.0
 40
48.0
  1
C31
 41
0.75
1001
ACDBBLOCKREPETAG
1070
     1
1071
      119
1005
0
  0
TEXT
  5
130D32
  8
SLIM
 10
491.99999999981759
 20
-1835.9999999993749
 30
0.0
 40
48.0
  1
C24
 41
0.75
1001
ACDBBLOCKREPETAG
1070
     1
1071
      119
1005
0
  0
TEXT
  5
130D33
  8
SLIM
 10
132.85714285708241
 20
-1835.9999999993749
 30
0.0
 40
48.0
  1
C23
 41
0.75
1001
ACDBBLOCKREPETAG
1070
     1
1071
      119
1005
0
  0
TEXT
  5
130D34
  8
SLIM
 10
492.85714285696048
 20
-1371.999999999533
 30
0.0
 40
48.0
  1
C22
 41
0.75
1001
ACDBBLOCKREPETAG
1070
     1
1071
      119
1005
0
  0
TEXT
  5
130D35
  8
SLIM
 10
140.57142857136759
 20
-1371.999999999533
 30
0.0
 40
48.0
  1
C21
 41
0.75
1001
ACDBBLOCKREPETAG
1070
     1
1071
      119
1005
0
  0
TEXT
  5
130D36
  8
SLIM
 10
495.42857142838898
 20
-907.99999999969145
 30
0.0
 40
48.0
  1
C14
 41
0.75
1001
ACDBBLOCKREPETAG
1070
     1
1071
      119
1005
0
  0
TEXT
  5
130D37
  8
SLIM
 10
136.2857142856538
 20
-907.99999999969145
 30
0.0
 40
48.0
  1
C13
 41
0.75
1001
ACDBBLOCKREPETAG
1070
     1
1071
      119
1005
0
  0
TEXT
  5
130D38
  8
SLIM
 10
496.28571428553192
 20
-443.99999999984971
 30
0.0
 40
48.0
  1
C12
 41
0.75
1001
ACDBBLOCKREPETAG
1070
     1
1071
      119
1005
0
  0
TEXT
  5
130D39
  8
SLIM
 10
143.9999999999394
 20
-443.99999999984971
 30
0.0
 40
48.0
  1
C11
 41
0.75
1001
ACDBBLOCKREPETAG
1070
     1
1071
      119
1005
0
  0
LINE
  5
130D3A
  8
CENTER
 10
1899.0
 20
-199.99999999999909
 30
0.0
 11
1920.0
 21
-199.99999999999909
 31
0.0
1001
ACDBBLOCKREPETAG
1070
     1
1071
        0
1005
130D3A
  0
LINE
  5
130D3B
  8
OBJECT
 10
1917.0
 20
-261.99999999999909
 30
0.0
 11
1920.0
 21
-261.99999999999909
 31
0.0
1001
ACDBBLOCKREPETAG
1070
     1
1071
        1
1005
130D3B
  0
ARC
  5
130D3C
  8
OBJECT
 10
1917.0
 20
-258.99999999999909
 30
0.0
 40
3.0
 50
180.0
 51
270.0
1001
ACDBBLOCKREPETAG
1070
     1
1071
        2
1005
130D3C
  0
LINE
  5
130D3D
  8
OBJECT
 10
1920.0
 20
-137.99999999999909
 30
0.0
 11
1917.0
 21
-137.99999999999909
 31
0.0
1001
ACDBBLOCKREPETAG
1070
     1
1071
        3
1005
130D3D
  0
ARC
  5
130D3E
  8
OBJECT
 10
1917.0
 20
-140.99999999999909
 30
0.0
 40
3.0
 50
90.0
 51
180.0
1001
ACDBBLOCKREPETAG
1070
     1
1071
        4
1005
130D3E
  0
LINE
  5
130D3F
  8
OBJECT
 10
1914.0
 20
-140.99999999999909
 30
0.0
 11
1914.0
 21
-258.99999999999909
 31
0.0
1001
ACDBBLOCKREPETAG
1070
     1
1071
        5
1005
130D3F
  0
LINE
  5
130D40
  8
OBJECT
 10
2062.0
 20
-332.99999999999898
 30
0.0
 11
2062.0
 21
-339.99999999999909
 31
0.0
1001
ACDBBLOCKREPETAG
1070
     1
1071
       47
1005
130D40
  0
LINE
  5
130D41
  8
OBJECT
 10
2062.0
 20
-339.99999999999909
 30
0.0
 11
1938.0
 21
-339.99999999999909
 31
0.0
1001
ACDBBLOCKREPETAG
1070
     1
1071
       48
1005
130D41
  0
LINE
  5
130D42
  8
OBJECT
 10
1938.0
 20
-339.99999999999909
 30
0.0
 11
1938.0
 21
-332.99999999999898
 31
0.0
1001
ACDBBLOCKREPETAG
1070
     1
1071
       49
1005
130D42
  0
LINE
  5
130D43
  8
OBJECT
 10
1938.0
 20
-332.99999999999898
 30
0.0
 11
2062.0
 21
-332.99999999999898
 31
0.0
1001
ACDBBLOCKREPETAG
1070
     1
1071
       50
1005
130D43
  0
LINE
  5
130D44
  8
CENTER
 10
2000.0
 20
-354.99999999999909
 30
0.0
 11
2000.0
 21
-279.99999999999909
 31
0.0
1001
ACDBBLOCKREPETAG
1070
     1
1071
       51
1005
130D44
  0
LINE
  5
130D45
  8
OBJECT
 10
2059.0
 20
-332.99999999999898
 30
0.0
 11
2059.0
 21
-296.99999999999898
 31
0.0
1001
ACDBBLOCKREPETAG
1070
     1
1071
       52
1005
130D45
  0
LINE
  5
130D46
  8
OBJECT
 10
2059.0
 20
-296.99999999999898
 30
0.0
 11
1941.0
 21
-296.99999999999898
 31
0.0
1001
ACDBBLOCKREPETAG
1070
     1
1071
       53
1005
130D46
  0
LINE
  5
130D47
  8
OBJECT
 10
1941.0
 20
-296.99999999999898
 30
0.0
 11
1941.0
 21
-332.99999999999898
 31
0.0
1001
ACDBBLOCKREPETAG
1070
     1
1071
       54
1005
130D47
  0
LINE
  5
130D48
  8
OBJECT
 10
2054.5
 20
-292.99999999999898
 30
0.0
 11
2054.5
 21
-285.99999999999898
 31
0.0
1001
ACDBBLOCKREPETAG
1070
     1
1071
       55
1005
130D48
  0
LINE
  5
130D49
  8
OBJECT
 10
1945.5
 20
-285.99999999999898
 30
0.0
 11
1945.5
 21
-292.99999999999898
 31
0.0
1001
ACDBBLOCKREPETAG
1070
     1
1071
       56
1005
130D49
  0
LINE
  5
130D4A
  8
OBJECT
 10
1945.5
 20
-292.99999999999898
 30
0.0
 11
2054.5
 21
-292.99999999999898
 31
0.0
1001
ACDBBLOCKREPETAG
1070
     1
1071
       57
1005
130D4A
  0
LINE
  5
130D4B
  8
OBJECT
 10
2059.0
 20
-296.99999999999898
 30
0.0
 11
2054.5
 21
-292.99999999999898
 31
0.0
1001
ACDBBLOCKREPETAG
1070
     1
1071
       58
1005
130D4B
  0
LINE
  5
130D4C
  8
OBJECT
 10
1941.0
 20
-296.99999999999898
 30
0.0
 11
1945.5
 21
-292.99999999999898
 31
0.0
1001
ACDBBLOCKREPETAG
1070
     1
1071
       59
1005
130D4C
  0
LINE
  5
130D4D
  8
OBJECT
 10
2062.0
 20
-283.0
 30
0.0
 11
2062.0
 21
-279.99999999999909
 31
0.0
1001
ACDBBLOCKREPETAG
1070
     1
1071
       60
1005
130D4D
  0
ARC
  5
130D4E
  8
OBJECT
 10
2059.0
 20
-283.0
 30
0.0
 40
3.0
 50
270.0
 51
0.0
1001
ACDBBLOCKREPETAG
1070
     1
1071
       61
1005
130D4E
  0
LINE
  5
130D4F
  8
OBJECT
 10
1938.0
 20
-279.99999999999909
 30
0.0
 11
1938.0
 21
-282.99999999999818
 31
0.0
1001
ACDBBLOCKREPETAG
1070
     1
1071
       62
1005
130D4F
  0
ARC
  5
130D50
  8
OBJECT
 10
1941.0
 20
-282.99999999999818
 30
0.0
 40
3.0
 50
180.0
 51
270.0
1001
ACDBBLOCKREPETAG
1070
     1
1071
       63
1005
130D50
  0
LINE
  5
130D51
  8
OBJECT
 10
1941.0
 20
-285.99999999999818
 30
0.0
 11
2059.0
 21
-286.0
 31
0.0
1001
ACDBBLOCKREPETAG
1070
     1
1071
       64
1005
130D51
  0
LINE
  5
130D52
  8
HIDDEN
 10
2044.5
 20
-287.99999999999909
 30
0.0
 11
1955.5
 21
-287.99999999999909
 31
0.0
1001
ACDBBLOCKREPETAG
1070
     1
1071
       65
1005
130D52
  0
LINE
  5
130D53
  8
OBJECT
 10
2133.0
 20
-137.99999999999909
 30
0.0
 11
2140.0
 21
-137.99999999999909
 31
0.0
1001
ACDBBLOCKREPETAG
1070
     1
1071
       47
1005
130D53
  0
LINE
  5
130D54
  8
OBJECT
 10
2140.0
 20
-137.99999999999909
 30
0.0
 11
2140.0
 21
-261.99999999999909
 31
0.0
1001
ACDBBLOCKREPETAG
1070
     1
1071
       48
1005
130D54
  0
LINE
  5
130D55
  8
OBJECT
 10
2140.0
 20
-261.99999999999909
 30
0.0
 11
2133.0
 21
-261.99999999999909
 31
0.0
1001
ACDBBLOCKREPETAG
1070
     1
1071
       49
1005
130D55
  0
LINE
  5
130D56
  8
OBJECT
 10
2133.0
 20
-261.99999999999909
 30
0.0
 11
2133.0
 21
-137.99999999999909
 31
0.0
1001
ACDBBLOCKREPETAG
1070
     1
1071
       50
1005
130D56
  0
LINE
  5
130D57
  8
CENTER
 10
2155.0
 20
-199.99999999999909
 30
0.0
 11
2080.0
 21
-199.99999999999909
 31
0.0
1001
ACDBBLOCKREPETAG
1070
     1
1071
       51
1005
130D57
  0
LINE
  5
130D58
  8
OBJECT
 10
2133.0
 20
-140.99999999999909
 30
0.0
 11
2097.0
 21
-140.99999999999909
 31
0.0
1001
ACDBBLOCKREPETAG
1070
     1
1071
       52
1005
130D58
  0
LINE
  5
130D59
  8
OBJECT
 10
2097.0
 20
-140.99999999999909
 30
0.0
 11
2097.0
 21
-258.99999999999909
 31
0.0
1001
ACDBBLOCKREPETAG
1070
     1
1071
       53
1005
130D59
  0
LINE
  5
130D5A
  8
OBJECT
 10
2097.0
 20
-258.99999999999909
 30
0.0
 11
2133.0
 21
-258.99999999999909
 31
0.0
1001
ACDBBLOCKREPETAG
1070
     1
1071
       54
1005
130D5A
  0
LINE
  5
130D5B
  8
OBJECT
 10
2093.0
 20
-145.49999999999909
 30
0.0
 11
2086.0
 21
-145.49999999999909
 31
0.0
1001
ACDBBLOCKREPETAG
1070
     1
1071
       55
1005
130D5B
  0
LINE
  5
130D5C
  8
OBJECT
 10
2086.0
 20
-254.49999999999909
 30
0.0
 11
2093.0
 21
-254.49999999999909
 31
0.0
1001
ACDBBLOCKREPETAG
1070
     1
1071
       56
1005
130D5C
  0
LINE
  5
130D5D
  8
OBJECT
 10
2093.0
 20
-254.49999999999909
 30
0.0
 11
2093.0
 21
-145.49999999999909
 31
0.0
1001
ACDBBLOCKREPETAG
1070
     1
1071
       57
1005
130D5D
  0
LINE
  5
130D5E
  8
OBJECT
 10
2097.0
 20
-140.99999999999909
 30
0.0
 11
2093.0
 21
-145.49999999999909
 31
0.0
1001
ACDBBLOCKREPETAG
1070
     1
1071
       58
1005
130D5E
  0
LINE
  5
130D5F
  8
OBJECT
 10
2097.0
 20
-258.99999999999909
 30
0.0
 11
2093.0
 21
-254.49999999999909
 31
0.0
1001
ACDBBLOCKREPETAG
1070
     1
1071
       59
1005
130D5F
  0
LINE
  5
130D60
  8
OBJECT
 10
2083.0
 20
-137.99999999999909
 30
0.0
 11
2080.0
 21
-137.99999999999909
 31
0.0
1001
ACDBBLOCKREPETAG
1070
     1
1071
       60
1005
130D60
  0
ARC
  5
130D61
  8
OBJECT
 10
2083.0
 20
-140.99999999999909
 30
0.0
 40
3.0
 50
0.0
 51
90.0
1001
ACDBBLOCKREPETAG
1070
     1
1071
       61
1005
130D61
  0
LINE
  5
130D62
  8
OBJECT
 10
2080.0
 20
-261.99999999999909
 30
0.0
 11
2083.0
 21
-261.99999999999909
 31
0.0
1001
ACDBBLOCKREPETAG
1070
     1
1071
       62
1005
130D62
  0
ARC
  5
130D63
  8
OBJECT
 10
2083.0
 20
-258.99999999999909
 30
0.0
 40
3.0
 50
270.0
 51
0.0
1001
ACDBBLOCKREPETAG
1070
     1
1071
       63
1005
130D63
  0
LINE
  5
130D64
  8
OBJECT
 10
2086.0
 20
-258.99999999999909
 30
0.0
 11
2086.0
 21
-140.99999999999909
 31
0.0
1001
ACDBBLOCKREPETAG
1070
     1
1071
       64
1005
130D64
  0
LINE
  5
130D65
  8
HIDDEN
 10
2088.0
 20
-155.49999999999909
 30
0.0
 11
2088.0
 21
-244.49999999999909
 31
0.0
1001
ACDBBLOCKREPETAG
1070
     1
1071
       65
1005
130D65
  0
LINE
  5
130D66
  8
OBJECT
 10
1917.0
 20
-634.0
 30
0.0
 11
1920.0
 21
-634.0
 31
0.0
1001
ACDBBLOCKREPETAG
1070
     1
1071
        1
1005
130D66
  0
ARC
  5
130D67
  8
OBJECT
 10
1917.0
 20
-637.0
 30
0.0
 40
3.0
 50
90.0
 51
180.0
1001
ACDBBLOCKREPETAG
1070
     1
1071
        2
1005
130D67
  0
LINE
  5
130D68
  8
OBJECT
 10
1920.0
 20
-758.0
 30
0.0
 11
1917.0
 21
-758.0
 31
0.0
1001
ACDBBLOCKREPETAG
1070
     1
1071
        3
1005
130D68
  0
ARC
  5
130D69
  8
OBJECT
 10
1917.0
 20
-755.0
 30
0.0
 40
3.0
 50
180.0
 51
270.0
1001
ACDBBLOCKREPETAG
1070
     1
1071
        4
1005
130D69
  0
LINE
  5
130D6A
  8
OBJECT
 10
1914.0
 20
-755.0
 30
0.0
 11
1914.0
 21
-637.0
 31
0.0
1001
ACDBBLOCKREPETAG
1070
     1
1071
        5
1005
130D6A
  0
LINE
  5
130D6B
  8
CENTER
 10
2077.0
 20
-696.0
 30
0.0
 11
1923.0
 21
-696.0
 31
0.0
1001
ACDBBLOCKREPETAG
1070
     1
1071
       17
1005
130D6B
  0
CIRCLE
  5
130D6C
  8
OBJECT
 10
2000.0
 20
-696.0
 30
0.0
 40
41.5
1001
ACDBBLOCKREPETAG
1070
     1
1071
       19
1005
130D6C
  0
CIRCLE
  5
130D6D
  8
OBJECT
 10
2000.0
 20
-696.0
 30
0.0
 40
54.0
1001
ACDBBLOCKREPETAG
1070
     1
1071
       20
1005
130D6D
  0
ARC
  5
130D6E
  8
OBJECT
 10
2000.0
 20
-696.0
 30
0.0
 40
62.0
 50
287.89655112920718
 51
252.10344887079279
1001
ACDBBLOCKREPETAG
1070
     1
1071
       21
1005
130D6E
  0
LINE
  5
130D6F
  8
OBJECT
 10
1980.947441116743
 20
-755.0
 30
0.0
 11
2019.052558883257
 21
-755.0
 31
0.0
1001
ACDBBLOCKREPETAG
1070
     1
1071
       22
1005
130D6F
  0
LINE
  5
130D70
  8
OBJECT
 10
2133.0
 20
-634.0
 30
0.0
 11
2140.0
 21
-634.0
 31
0.0
1001
ACDBBLOCKREPETAG
1070
     1
1071
       45
1005
130D70
  0
LINE
  5
130D71
  8
OBJECT
 10
2140.0
 20
-634.0
 30
0.0
 11
2140.0
 21
-755.0
 31
0.0
1001
ACDBBLOCKREPETAG
1070
     1
1071
       46
1005
130D71
  0
LINE
  5
130D72
  8
OBJECT
 10
2133.0
 20
-755.0
 30
0.0
 11
2133.0
 21
-634.0
 31
0.0
1001
ACDBBLOCKREPETAG
1070
     1
1071
       47
1005
130D72
  0
LINE
  5
130D73
  8
CENTER
 10
2155.0
 20
-696.0
 30
0.0
 11
2071.0
 21
-696.0
 31
0.0
1001
ACDBBLOCKREPETAG
1070
     1
1071
       48
1005
130D73
  0
LINE
  5
130D74
  8
OBJECT
 10
2133.0
 20
-637.0
 30
0.0
 11
2097.0
 21
-637.0
 31
0.0
1001
ACDBBLOCKREPETAG
1070
     1
1071
       49
1005
130D74
  0
LINE
  5
130D75
  8
OBJECT
 10
2097.0
 20
-637.0
 30
0.0
 11
2097.0
 21
-755.0
 31
0.0
1001
ACDBBLOCKREPETAG
1070
     1
1071
       50
1005
130D75
  0
LINE
  5
130D76
  8
OBJECT
 10
2097.0
 20
-755.0
 30
0.0
 11
2140.0
 21
-755.0
 31
0.0
1001
ACDBBLOCKREPETAG
1070
     1
1071
       51
1005
130D76
  0
LINE
  5
130D77
  8
OBJECT
 10
2093.0
 20
-641.5
 30
0.0
 11
2086.0
 21
-641.5
 31
0.0
1001
ACDBBLOCKREPETAG
1070
     1
1071
       52
1005
130D77
  0
LINE
  5
130D78
  8
OBJECT
 10
2086.0
 20
-750.49999999999989
 30
0.0
 11
2093.0
 21
-750.49999999999989
 31
0.0
1001
ACDBBLOCKREPETAG
1070
     1
1071
       53
1005
130D78
  0
LINE
  5
130D79
  8
OBJECT
 10
2093.0
 20
-750.49999999999989
 30
0.0
 11
2093.0
 21
-641.5
 31
0.0
1001
ACDBBLOCKREPETAG
1070
     1
1071
       54
1005
130D79
  0
LINE
  5
130D7A
  8
OBJECT
 10
2097.0
 20
-637.0
 30
0.0
 11
2093.0
 21
-641.5
 31
0.0
1001
ACDBBLOCKREPETAG
1070
     1
1071
       55
1005
130D7A
  0
LINE
  5
130D7B
  8
OBJECT
 10
2097.0
 20
-755.0
 30
0.0
 11
2093.0
 21
-750.49999999999989
 31
0.0
1001
ACDBBLOCKREPETAG
1070
     1
1071
       56
1005
130D7B
  0
LINE
  5
130D7C
  8
OBJECT
 10
2083.0
 20
-634.0
 30
0.0
 11
2080.0
 21
-634.0
 31
0.0
1001
ACDBBLOCKREPETAG
1070
     1
1071
       57
1005
130D7C
  0
ARC
  5
130D7D
  8
OBJECT
 10
2083.0
 20
-637.0
 30
0.0
 40
3.0
 50
0.0
 51
90.0
1001
ACDBBLOCKREPETAG
1070
     1
1071
       58
1005
130D7D
  0
LINE
  5
130D7E
  8
OBJECT
 10
2080.0
 20
-758.0
 30
0.0
 11
2083.0
 21
-758.0
 31
0.0
1001
ACDBBLOCKREPETAG
1070
     1
1071
       59
1005
130D7E
  0
ARC
  5
130D7F
  8
OBJECT
 10
2083.0
 20
-755.0
 30
0.0
 40
3.0
 50
270.0
 51
0.0
1001
ACDBBLOCKREPETAG
1070
     1
1071
       60
1005
130D7F
  0
LINE
  5
130D80
  8
OBJECT
 10
2086.0
 20
-755.0
 30
0.0
 11
2086.0
 21
-637.0
 31
0.0
1001
ACDBBLOCKREPETAG
1070
     1
1071
       61
1005
130D80
  0
LINE
  5
130D81
  8
HIDDEN
 10
2088.0
 20
-651.5
 30
0.0
 11
2088.0
 21
-740.5
 31
0.0
1001
ACDBBLOCKREPETAG
1070
     1
1071
       63
1005
130D81
  0
TEXT
  5
130D82
  8
SLIM
 10
0.0000035665234464
 20
24.000004585317601
 30
0.0
 40
79.999999999972701
  1
枝管バリエーション
 41
0.75
1001
ACDBBLOCKREPETAG
1070
     1
1071
      119
1005
12CC4A
  0
TEXT
  5
130D83
  8
SLIM
 10
1837.75
 20
282.50000000000011
 30
0.0
 40
35.0
  1
（枝管サイズ毎に寸法が異なります。管底の位置は50～100で同じです）
 41
0.75
  0
TEXT
  5
130D84
  8
SLIM
 10
1850.0
 20
369.99999999999989
 30
0.0
 40
100.0
  1
4SSRT-C33
 41
0.75
  0
TEXT
  5
130D85
  8
SLIM
 10
0.0
 20
370.0
 30
0.0
 40
100.0
  1
4SSRT-CXX-S
 41
0.75
  0
LINE
  5
130D86
  8
OBJECT
 10
4925.0
 20
-3578.9999999999968
 30
0.0
 11
4925.0
 21
-3702.9999999999968
 31
0.0
1001
ACDBBLOCKREPETAG
1070
     1
1071
        6
1005
130D86
  0
LINE
  5
130D87
  8
OBJECT
 10
5074.9999999997999
 20
-3702.9999999997758
 30
0.0
 11
5080.0
 21
-3702.9999999999968
 31
0.0
1001
ACDBBLOCKREPETAG
1070
     1
1071
        9
1005
130D87
  0
LINE
  5
130D88
  8
OBJECT
 10
5080.0
 20
-3578.9999999999968
 30
0.0
 11
4925.0
 21
-3578.9999999999968
 31
0.0
1001
ACDBBLOCKREPETAG
1070
     1
1071
       10
1005
130D88
  0
ARC
  5
130D89
  8
OBJECT
 10
5200.6872746716726
 20
-3694.408099410105
 30
0.0
 40
170.6350503965856
 50
137.44134459184301
 51
149.9194958133665
1001
ACDBBLOCKREPETAG
1070
     1
1071
       15
1005
130D89
  0
ARC
  5
130D8A
  8
OBJECT
 10
5118.8455987040506
 20
-3650.8827266953622
 30
0.0
 40
78.072222021763665
 50
147.4551531037684
 51
164.66365997719299
1001
ACDBBLOCKREPETAG
1070
     1
1071
       16
1005
130D8A
  0
ARC
  5
130D8B
  8
OBJECT
 10
5085.7554349608727
 20
-3640.9999999999968
 30
0.0
 40
43.55353926885617
 50
165.6884523008477
 51
194.31154769915219
1001
ACDBBLOCKREPETAG
1070
     1
1071
       17
1005
130D8B
  0
ARC
  5
130D8C
  8
OBJECT
 10
5200.6872746716726
 20
-3587.5919005898891
 30
0.0
 40
170.6350503965856
 50
210.0805041866335
 51
222.55865540815699
1001
ACDBBLOCKREPETAG
1070
     1
1071
       18
1005
130D8C
  0
ARC
  5
130D8D
  8
OBJECT
 10
5118.8455987040506
 20
-3631.1172733046319
 30
0.0
 40
78.072222021763665
 50
195.33634002280701
 51
212.5448468962316
1001
ACDBBLOCKREPETAG
1070
     1
1071
       19
1005
130D8D
  0
POINT
  5
130D8E
  8
DOTS
 10
5000.0
 20
-3699.9999999999968
 30
0.0
1001
ACDBBLOCKREPETAG
1070
     1
1071
      186
1005
130D8E
  0
LINE
  5
130D8F
  8
OBJECT
 10
5060.0
 20
-3572.9999999999968
 30
0.0
 11
4940.0
 21
-3572.9999999999968
 31
0.0
1001
ACDBBLOCKREPETAG
1070
     1
1071
      215
1005
130D8F
  0
ARC
  5
130D90
  8
OBJECT
 10
4940.0
 20
-3575.9999999999968
 30
0.0
 40
3.0
 50
90.0
 51
180.0
1001
ACDBBLOCKREPETAG
1070
     1
1071
      216
1005
130D90
  0
LINE
  5
130D91
  8
OBJECT
 10
4937.0
 20
-3575.9999999999968
 30
0.0
 11
4937.0
 21
-3578.9999999999968
 31
0.0
1001
ACDBBLOCKREPETAG
1070
     1
1071
      217
1005
130D91
  0
LINE
  5
130D92
  8
OBJECT
 10
5063.0
 20
-3575.9999999999968
 30
0.0
 11
5063.0
 21
-3578.9999999999968
 31
0.0
1001
ACDBBLOCKREPETAG
1070
     1
1071
      218
1005
130D92
  0
ARC
  5
130D93
  8
OBJECT
 10
5060.0
 20
-3575.9999999999968
 30
0.0
 40
3.0
 50
0.0
 51
90.0
1001
ACDBBLOCKREPETAG
1070
     1
1071
      219
1005
130D93
  0
LINE
  5
130D94
  8
OBJECT
 10
4943.0
 20
-3504.9999999999968
 30
0.0
 11
4943.0
 21
-3572.9999999999968
 31
0.0
1001
ACDBBLOCKREPETAG
1070
     1
1071
      220
1005
130D94
  0
LINE
  5
130D95
  8
OBJECT
 10
5057.0
 20
-3504.9999999999968
 30
0.0
 11
4943.0
 21
-3504.9999999999968
 31
0.0
1001
ACDBBLOCKREPETAG
1070
     1
1071
      221
1005
130D95
  0
LINE
  5
130D96
  8
OBJECT
 10
5057.0
 20
-3504.9999999999968
 30
0.0
 11
5057.0
 21
-3572.9999999999968
 31
0.0
1001
ACDBBLOCKREPETAG
1070
     1
1071
      222
1005
130D96
  0
LINE
  5
130D97
  8
CENTER
 10
5000.0
 20
-3489.9999999999968
 30
0.0
 11
5000.0
 21
-3714.9999999999968
 31
0.0
1001
ACDBBLOCKREPETAG
1070
     1
1071
      223
1005
130D97
  0
LINE
  5
130D98
  8
HIDDEN
 10
5052.5
 20
-3504.9999999999968
 30
0.0
 11
5052.5
 21
-3578.9999999999968
 31
0.0
1001
ACDBBLOCKREPETAG
1070
     1
1071
      224
1005
130D98
  0
LINE
  5
130D99
  8
HIDDEN
 10
4947.5
 20
-3504.9999999999968
 30
0.0
 11
4947.5
 21
-3578.9999999999968
 31
0.0
1001
ACDBBLOCKREPETAG
1070
     1
1071
      225
1005
130D99
  0
LINE
  5
130D9A
  8
OBJECT
 10
4325.0
 20
-3578.9999999999968
 30
0.0
 11
4325.0
 21
-3702.9999999999968
 31
0.0
1001
ACDBBLOCKREPETAG
1070
     1
1071
       26
1005
130D9A
  0
LINE
  5
130D9B
  8
OBJECT
 10
4475.0
 20
-3578.9999999999968
 30
0.0
 11
4325.0
 21
-3578.9999999999968
 31
0.0
1001
ACDBBLOCKREPETAG
1070
     1
1071
       30
1005
130D9B
  0
LINE
  5
130D9C
  8
OBJECT
 10
4475.0
 20
-3578.9999999999968
 30
0.0
 11
4475.0
 21
-3702.9999999999968
 31
0.0
1001
ACDBBLOCKREPETAG
1070
     1
1071
       34
1005
130D9C
  0
POINT
  5
130D9D
  8
DOTS
 10
4400.0
 20
-3699.9999999999968
 30
0.0
1001
ACDBBLOCKREPETAG
1070
     1
1071
      187
1005
130D9D
  0
LINE
  5
130D9E
  8
OBJECT
 10
4460.0
 20
-3572.9999999999968
 30
0.0
 11
4340.0
 21
-3572.9999999999968
 31
0.0
1001
ACDBBLOCKREPETAG
1070
     1
1071
      226
1005
130D9E
  0
ARC
  5
130D9F
  8
OBJECT
 10
4340.0
 20
-3575.9999999999968
 30
0.0
 40
3.0
 50
90.0
 51
180.0
1001
ACDBBLOCKREPETAG
1070
     1
1071
      227
1005
130D9F
  0
LINE
  5
130DA0
  8
OBJECT
 10
4337.0
 20
-3575.9999999999968
 30
0.0
 11
4337.0
 21
-3578.9999999999968
 31
0.0
1001
ACDBBLOCKREPETAG
1070
     1
1071
      228
1005
130DA0
  0
LINE
  5
130DA1
  8
OBJECT
 10
4463.0
 20
-3575.9999999999968
 30
0.0
 11
4463.0
 21
-3578.9999999999968
 31
0.0
1001
ACDBBLOCKREPETAG
1070
     1
1071
      229
1005
130DA1
  0
ARC
  5
130DA2
  8
OBJECT
 10
4460.0
 20
-3575.9999999999968
 30
0.0
 40
3.0
 50
0.0
 51
90.0
1001
ACDBBLOCKREPETAG
1070
     1
1071
      230
1005
130DA2
  0
LINE
  5
130DA3
  8
OBJECT
 10
4343.0
 20
-3504.9999999999968
 30
0.0
 11
4343.0
 21
-3572.9999999999968
 31
0.0
1001
ACDBBLOCKREPETAG
1070
     1
1071
      231
1005
130DA3
  0
LINE
  5
130DA4
  8
OBJECT
 10
4457.0
 20
-3504.9999999999968
 30
0.0
 11
4343.0
 21
-3504.9999999999968
 31
0.0
1001
ACDBBLOCKREPETAG
1070
     1
1071
      232
1005
130DA4
  0
LINE
  5
130DA5
  8
OBJECT
 10
4457.0
 20
-3504.9999999999968
 30
0.0
 11
4457.0
 21
-3572.9999999999968
 31
0.0
1001
ACDBBLOCKREPETAG
1070
     1
1071
      233
1005
130DA5
  0
LINE
  5
130DA6
  8
CENTER
 10
4400.0
 20
-3489.9999999999968
 30
0.0
 11
4400.0
 21
-3714.9999999999968
 31
0.0
1001
ACDBBLOCKREPETAG
1070
     1
1071
      234
1005
130DA6
  0
LINE
  5
130DA7
  8
HIDDEN
 10
4452.4999999999991
 20
-3504.9999999999968
 30
0.0
 11
4452.4999999999991
 21
-3578.9999999999968
 31
0.0
1001
ACDBBLOCKREPETAG
1070
     1
1071
      235
1005
130DA7
  0
LINE
  5
130DA8
  8
HIDDEN
 10
4347.5
 20
-3504.9999999999968
 30
0.0
 11
4347.5
 21
-3578.9999999999968
 31
0.0
1001
ACDBBLOCKREPETAG
1070
     1
1071
      236
1005
130DA8
  0
LINE
  5
130DA9
  8
OBJECT
 10
3925.0
 20
-3578.9999999999968
 30
0.0
 11
3925.0
 21
-3702.9999999999968
 31
0.0
1001
ACDBBLOCKREPETAG
1070
     1
1071
        6
1005
130DA9
  0
LINE
  5
130DAA
  8
OBJECT
 10
4074.999999999799
 20
-3702.9999999997758
 30
0.0
 11
4080.0
 21
-3702.9999999999968
 31
0.0
1001
ACDBBLOCKREPETAG
1070
     1
1071
        9
1005
130DAA
  0
LINE
  5
130DAB
  8
OBJECT
 10
4080.0
 20
-3578.9999999999968
 30
0.0
 11
3925.0
 21
-3578.9999999999968
 31
0.0
1001
ACDBBLOCKREPETAG
1070
     1
1071
       10
1005
130DAB
  0
ARC
  5
130DAC
  8
OBJECT
 10
4200.6872746716726
 20
-3694.408099410105
 30
0.0
 40
170.6350503965856
 50
137.44134459184301
 51
149.9194958133665
1001
ACDBBLOCKREPETAG
1070
     1
1071
       15
1005
130DAC
  0
ARC
  5
130DAD
  8
OBJECT
 10
4118.8455987040506
 20
-3650.8827266953622
 30
0.0
 40
78.072222021763665
 50
147.4551531037684
 51
164.66365997718609
1001
ACDBBLOCKREPETAG
1070
     1
1071
       16
1005
130DAD
  0
ARC
  5
130DAE
  8
OBJECT
 10
4085.7554349608722
 20
-3640.9999999999968
 30
0.0
 40
43.55353926885617
 50
165.6884523008477
 51
194.31154769915219
1001
ACDBBLOCKREPETAG
1070
     1
1071
       17
1005
130DAE
  0
ARC
  5
130DAF
  8
OBJECT
 10
4200.6872746716726
 20
-3587.5919005898891
 30
0.0
 40
170.6350503965856
 50
210.0805041866335
 51
222.55865540815699
1001
ACDBBLOCKREPETAG
1070
     1
1071
       18
1005
130DAF
  0
ARC
  5
130DB0
  8
OBJECT
 10
4118.8455987040506
 20
-3631.1172733046319
 30
0.0
 40
78.072222021763665
 50
195.33634002281391
 51
212.5448468962316
1001
ACDBBLOCKREPETAG
1070
     1
1071
       19
1005
130DB0
  0
POINT
  5
130DB1
  8
DOTS
 10
4000.0
 20
-3699.9999999999968
 30
0.0
1001
ACDBBLOCKREPETAG
1070
     1
1071
      186
1005
130DB1
  0
LINE
  5
130DB2
  8
OBJECT
 10
4060.0
 20
-3572.9999999999968
 30
0.0
 11
3940.0
 21
-3572.9999999999968
 31
0.0
1001
ACDBBLOCKREPETAG
1070
     1
1071
      215
1005
130DB2
  0
ARC
  5
130DB3
  8
OBJECT
 10
3940.0
 20
-3575.9999999999968
 30
0.0
 40
3.0
 50
90.0
 51
180.0
1001
ACDBBLOCKREPETAG
1070
     1
1071
      216
1005
130DB3
  0
LINE
  5
130DB4
  8
OBJECT
 10
3937.0
 20
-3575.9999999999968
 30
0.0
 11
3937.0
 21
-3578.9999999999968
 31
0.0
1001
ACDBBLOCKREPETAG
1070
     1
1071
      217
1005
130DB4
  0
LINE
  5
130DB5
  8
OBJECT
 10
4063.0
 20
-3575.9999999999968
 30
0.0
 11
4063.0
 21
-3578.9999999999968
 31
0.0
1001
ACDBBLOCKREPETAG
1070
     1
1071
      218
1005
130DB5
  0
ARC
  5
130DB6
  8
OBJECT
 10
4060.0
 20
-3575.9999999999968
 30
0.0
 40
3.0
 50
0.0
 51
90.0
1001
ACDBBLOCKREPETAG
1070
     1
1071
      219
1005
130DB6
  0
LINE
  5
130DB7
  8
OBJECT
 10
3943.0
 20
-3504.9999999999968
 30
0.0
 11
3943.0
 21
-3572.9999999999968
 31
0.0
1001
ACDBBLOCKREPETAG
1070
     1
1071
      220
1005
130DB7
  0
LINE
  5
130DB8
  8
OBJECT
 10
4057.0
 20
-3504.9999999999968
 30
0.0
 11
3943.0
 21
-3504.9999999999968
 31
0.0
1001
ACDBBLOCKREPETAG
1070
     1
1071
      221
1005
130DB8
  0
LINE
  5
130DB9
  8
OBJECT
 10
4057.0
 20
-3504.9999999999968
 30
0.0
 11
4057.0
 21
-3572.9999999999968
 31
0.0
1001
ACDBBLOCKREPETAG
1070
     1
1071
      222
1005
130DB9
  0
LINE
  5
130DBA
  8
CENTER
 10
4000.0
 20
-3489.9999999999968
 30
0.0
 11
4000.0
 21
-3714.9999999999968
 31
0.0
1001
ACDBBLOCKREPETAG
1070
     1
1071
      223
1005
130DBA
  0
LINE
  5
130DBB
  8
HIDDEN
 10
4052.5
 20
-3504.9999999999968
 30
0.0
 11
4052.5
 21
-3578.9999999999968
 31
0.0
1001
ACDBBLOCKREPETAG
1070
     1
1071
      224
1005
130DBB
  0
LINE
  5
130DBC
  8
HIDDEN
 10
3947.5
 20
-3504.9999999999968
 30
0.0
 11
3947.5
 21
-3578.9999999999968
 31
0.0
1001
ACDBBLOCKREPETAG
1070
     1
1071
      225
1005
130DBC
  0
LINE
  5
130DBD
  8
OBJECT
 10
3325.0
 20
-3578.9999999999968
 30
0.0
 11
3325.0
 21
-3702.9999999999968
 31
0.0
1001
ACDBBLOCKREPETAG
1070
     1
1071
       26
1005
130DBD
  0
LINE
  5
130DBE
  8
OBJECT
 10
3475.0
 20
-3578.9999999999968
 30
0.0
 11
3325.0
 21
-3578.9999999999968
 31
0.0
1001
ACDBBLOCKREPETAG
1070
     1
1071
       30
1005
130DBE
  0
LINE
  5
130DBF
  8
OBJECT
 10
3475.0
 20
-3578.9999999999968
 30
0.0
 11
3475.0
 21
-3702.9999999999968
 31
0.0
1001
ACDBBLOCKREPETAG
1070
     1
1071
       34
1005
130DBF
  0
POINT
  5
130DC0
  8
DOTS
 10
3400.0
 20
-3699.9999999999968
 30
0.0
1001
ACDBBLOCKREPETAG
1070
     1
1071
      187
1005
130DC0
  0
LINE
  5
130DC1
  8
OBJECT
 10
3460.0
 20
-3572.9999999999968
 30
0.0
 11
3340.0
 21
-3572.9999999999968
 31
0.0
1001
ACDBBLOCKREPETAG
1070
     1
1071
      226
1005
130DC1
  0
ARC
  5
130DC2
  8
OBJECT
 10
3340.0
 20
-3575.9999999999968
 30
0.0
 40
3.0
 50
90.0
 51
180.0
1001
ACDBBLOCKREPETAG
1070
     1
1071
      227
1005
130DC2
  0
LINE
  5
130DC3
  8
OBJECT
 10
3337.0
 20
-3575.9999999999968
 30
0.0
 11
3337.0
 21
-3578.9999999999968
 31
0.0
1001
ACDBBLOCKREPETAG
1070
     1
1071
      228
1005
130DC3
  0
LINE
  5
130DC4
  8
OBJECT
 10
3463.0
 20
-3575.9999999999968
 30
0.0
 11
3463.0
 21
-3578.9999999999968
 31
0.0
1001
ACDBBLOCKREPETAG
1070
     1
1071
      229
1005
130DC4
  0
ARC
  5
130DC5
  8
OBJECT
 10
3460.0
 20
-3575.9999999999968
 30
0.0
 40
3.0
 50
0.0
 51
90.0
1001
ACDBBLOCKREPETAG
1070
     1
1071
      230
1005
130DC5
  0
LINE
  5
130DC6
  8
OBJECT
 10
3343.0
 20
-3504.9999999999968
 30
0.0
 11
3343.0
 21
-3572.9999999999968
 31
0.0
1001
ACDBBLOCKREPETAG
1070
     1
1071
      231
1005
130DC6
  0
LINE
  5
130DC7
  8
OBJECT
 10
3457.0
 20
-3504.9999999999968
 30
0.0
 11
3343.0
 21
-3504.9999999999968
 31
0.0
1001
ACDBBLOCKREPETAG
1070
     1
1071
      232
1005
130DC7
  0
LINE
  5
130DC8
  8
OBJECT
 10
3457.0
 20
-3504.9999999999968
 30
0.0
 11
3457.0
 21
-3572.9999999999968
 31
0.0
1001
ACDBBLOCKREPETAG
1070
     1
1071
      233
1005
130DC8
  0
LINE
  5
130DC9
  8
CENTER
 10
3400.0
 20
-3489.9999999999968
 30
0.0
 11
3400.0
 21
-3714.9999999999968
 31
0.0
1001
ACDBBLOCKREPETAG
1070
     1
1071
      234
1005
130DC9
  0
LINE
  5
130DCA
  8
HIDDEN
 10
3452.5
 20
-3504.9999999999968
 30
0.0
 11
3452.5
 21
-3578.9999999999968
 31
0.0
1001
ACDBBLOCKREPETAG
1070
     1
1071
      235
1005
130DCA
  0
LINE
  5
130DCB
  8
HIDDEN
 10
3347.5
 20
-3504.9999999999968
 30
0.0
 11
3347.5
 21
-3578.9999999999968
 31
0.0
1001
ACDBBLOCKREPETAG
1070
     1
1071
      236
1005
130DCB
  0
LINE
  5
130DCC
  8
OBJECT
 10
2925.0
 20
-3578.9999999999968
 30
0.0
 11
2925.0
 21
-3702.9999999999968
 31
0.0
1001
ACDBBLOCKREPETAG
1070
     1
1071
        6
1005
130DCC
  0
LINE
  5
130DCD
  8
OBJECT
 10
3074.9999999997999
 20
-3702.9999999997758
 30
0.0
 11
3080.0
 21
-3702.9999999999968
 31
0.0
1001
ACDBBLOCKREPETAG
1070
     1
1071
        9
1005
130DCD
  0
LINE
  5
130DCE
  8
OBJECT
 10
3080.0
 20
-3578.9999999999968
 30
0.0
 11
2925.0
 21
-3578.9999999999968
 31
0.0
1001
ACDBBLOCKREPETAG
1070
     1
1071
       10
1005
130DCE
  0
ARC
  5
130DCF
  8
OBJECT
 10
3200.6872746716722
 20
-3694.408099410105
 30
0.0
 40
170.6350503965856
 50
137.44134459184301
 51
149.9194958133665
1001
ACDBBLOCKREPETAG
1070
     1
1071
       15
1005
130DCF
  0
ARC
  5
130DD0
  8
OBJECT
 10
3118.8455987040511
 20
-3650.8827266953622
 30
0.0
 40
78.072222021763665
 50
147.4551531037684
 51
164.66365997718609
1001
ACDBBLOCKREPETAG
1070
     1
1071
       16
1005
130DD0
  0
ARC
  5
130DD1
  8
OBJECT
 10
3085.7554349608731
 20
-3640.9999999999968
 30
0.0
 40
43.55353926885617
 50
165.6884523008477
 51
194.31154769915219
1001
ACDBBLOCKREPETAG
1070
     1
1071
       17
1005
130DD1
  0
ARC
  5
130DD2
  8
OBJECT
 10
3200.6872746716722
 20
-3587.5919005898891
 30
0.0
 40
170.6350503965856
 50
210.0805041866335
 51
222.55865540815699
1001
ACDBBLOCKREPETAG
1070
     1
1071
       18
1005
130DD2
  0
ARC
  5
130DD3
  8
OBJECT
 10
3118.8455987040511
 20
-3631.1172733046319
 30
0.0
 40
78.072222021763665
 50
195.33634002281391
 51
212.5448468962316
1001
ACDBBLOCKREPETAG
1070
     1
1071
       19
1005
130DD3
  0
POINT
  5
130DD4
  8
DOTS
 10
3000.0
 20
-3699.9999999999968
 30
0.0
1001
ACDBBLOCKREPETAG
1070
     1
1071
      186
1005
130DD4
  0
LINE
  5
130DD5
  8
OBJECT
 10
3060.0
 20
-3572.9999999999968
 30
0.0
 11
2940.0
 21
-3572.9999999999968
 31
0.0
1001
ACDBBLOCKREPETAG
1070
     1
1071
      215
1005
130DD5
  0
ARC
  5
130DD6
  8
OBJECT
 10
2940.0
 20
-3575.9999999999968
 30
0.0
 40
3.0
 50
90.0
 51
180.0
1001
ACDBBLOCKREPETAG
1070
     1
1071
      216
1005
130DD6
  0
LINE
  5
130DD7
  8
OBJECT
 10
2937.0
 20
-3575.9999999999968
 30
0.0
 11
2937.0
 21
-3578.9999999999968
 31
0.0
1001
ACDBBLOCKREPETAG
1070
     1
1071
      217
1005
130DD7
  0
LINE
  5
130DD8
  8
OBJECT
 10
3063.0
 20
-3575.9999999999968
 30
0.0
 11
3063.0
 21
-3578.9999999999968
 31
0.0
1001
ACDBBLOCKREPETAG
1070
     1
1071
      218
1005
130DD8
  0
ARC
  5
130DD9
  8
OBJECT
 10
3060.0
 20
-3575.9999999999968
 30
0.0
 40
3.0
 50
0.0
 51
90.0
1001
ACDBBLOCKREPETAG
1070
     1
1071
      219
1005
130DD9
  0
LINE
  5
130DDA
  8
OBJECT
 10
2943.0
 20
-3504.9999999999968
 30
0.0
 11
2943.0
 21
-3572.9999999999968
 31
0.0
1001
ACDBBLOCKREPETAG
1070
     1
1071
      220
1005
130DDA
  0
LINE
  5
130DDB
  8
OBJECT
 10
3057.0
 20
-3504.9999999999968
 30
0.0
 11
2943.0
 21
-3504.9999999999968
 31
0.0
1001
ACDBBLOCKREPETAG
1070
     1
1071
      221
1005
130DDB
  0
LINE
  5
130DDC
  8
OBJECT
 10
3057.0
 20
-3504.9999999999968
 30
0.0
 11
3057.0
 21
-3572.9999999999968
 31
0.0
1001
ACDBBLOCKREPETAG
1070
     1
1071
      222
1005
130DDC
  0
LINE
  5
130DDD
  8
CENTER
 10
3000.0
 20
-3489.9999999999968
 30
0.0
 11
3000.0
 21
-3714.9999999999968
 31
0.0
1001
ACDBBLOCKREPETAG
1070
     1
1071
      223
1005
130DDD
  0
LINE
  5
130DDE
  8
HIDDEN
 10
3052.5
 20
-3504.9999999999968
 30
0.0
 11
3052.5
 21
-3578.9999999999968
 31
0.0
1001
ACDBBLOCKREPETAG
1070
     1
1071
      224
1005
130DDE
  0
LINE
  5
130DDF
  8
HIDDEN
 10
2947.5
 20
-3504.9999999999968
 30
0.0
 11
2947.5
 21
-3578.9999999999968
 31
0.0
1001
ACDBBLOCKREPETAG
1070
     1
1071
      225
1005
130DDF
  0
LINE
  5
130DE0
  8
OBJECT
 10
2325.0
 20
-3578.9999999999968
 30
0.0
 11
2325.0
 21
-3702.9999999999968
 31
0.0
1001
ACDBBLOCKREPETAG
1070
     1
1071
       26
1005
130DE0
  0
LINE
  5
130DE1
  8
OBJECT
 10
2475.0
 20
-3578.9999999999968
 30
0.0
 11
2325.0
 21
-3578.9999999999968
 31
0.0
1001
ACDBBLOCKREPETAG
1070
     1
1071
       30
1005
130DE1
  0
LINE
  5
130DE2
  8
OBJECT
 10
2475.0
 20
-3578.9999999999968
 30
0.0
 11
2475.0
 21
-3702.9999999999968
 31
0.0
1001
ACDBBLOCKREPETAG
1070
     1
1071
       34
1005
130DE2
  0
POINT
  5
130DE3
  8
DOTS
 10
2400.0
 20
-3699.9999999999968
 30
0.0
1001
ACDBBLOCKREPETAG
1070
     1
1071
      187
1005
130DE3
  0
LINE
  5
130DE4
  8
OBJECT
 10
2460.0
 20
-3572.9999999999968
 30
0.0
 11
2340.0
 21
-3572.9999999999968
 31
0.0
1001
ACDBBLOCKREPETAG
1070
     1
1071
      226
1005
130DE4
  0
ARC
  5
130DE5
  8
OBJECT
 10
2340.0
 20
-3575.9999999999968
 30
0.0
 40
3.0
 50
90.0
 51
180.0
1001
ACDBBLOCKREPETAG
1070
     1
1071
      227
1005
130DE5
  0
LINE
  5
130DE6
  8
OBJECT
 10
2337.0
 20
-3575.9999999999968
 30
0.0
 11
2337.0
 21
-3578.9999999999968
 31
0.0
1001
ACDBBLOCKREPETAG
1070
     1
1071
      228
1005
130DE6
  0
LINE
  5
130DE7
  8
OBJECT
 10
2463.0
 20
-3575.9999999999968
 30
0.0
 11
2463.0
 21
-3578.9999999999968
 31
0.0
1001
ACDBBLOCKREPETAG
1070
     1
1071
      229
1005
130DE7
  0
ARC
  5
130DE8
  8
OBJECT
 10
2460.0
 20
-3575.9999999999968
 30
0.0
 40
3.0
 50
0.0
 51
90.0
1001
ACDBBLOCKREPETAG
1070
     1
1071
      230
1005
130DE8
  0
LINE
  5
130DE9
  8
OBJECT
 10
2343.0
 20
-3504.9999999999968
 30
0.0
 11
2343.0
 21
-3572.9999999999968
 31
0.0
1001
ACDBBLOCKREPETAG
1070
     1
1071
      231
1005
130DE9
  0
LINE
  5
130DEA
  8
OBJECT
 10
2457.0
 20
-3504.9999999999968
 30
0.0
 11
2343.0
 21
-3504.9999999999968
 31
0.0
1001
ACDBBLOCKREPETAG
1070
     1
1071
      232
1005
130DEA
  0
LINE
  5
130DEB
  8
OBJECT
 10
2457.0
 20
-3504.9999999999968
 30
0.0
 11
2457.0
 21
-3572.9999999999968
 31
0.0
1001
ACDBBLOCKREPETAG
1070
     1
1071
      233
1005
130DEB
  0
LINE
  5
130DEC
  8
CENTER
 10
2400.0
 20
-3489.9999999999968
 30
0.0
 11
2400.0
 21
-3714.9999999999968
 31
0.0
1001
ACDBBLOCKREPETAG
1070
     1
1071
      234
1005
130DEC
  0
LINE
  5
130DED
  8
HIDDEN
 10
2452.5000000000009
 20
-3504.9999999999968
 30
0.0
 11
2452.5000000000009
 21
-3578.9999999999968
 31
0.0
1001
ACDBBLOCKREPETAG
1070
     1
1071
      235
1005
130DED
  0
LINE
  5
130DEE
  8
HIDDEN
 10
2347.5
 20
-3504.9999999999968
 30
0.0
 11
2347.5
 21
-3578.9999999999968
 31
0.0
1001
ACDBBLOCKREPETAG
1070
     1
1071
      236
1005
130DEE
  0
LINE
  5
130DEF
  8
OBJECT
 10
1925.0
 20
-3578.9999999999968
 30
0.0
 11
1925.0
 21
-3702.9999999999968
 31
0.0
1001
ACDBBLOCKREPETAG
1070
     1
1071
        6
1005
130DEF
  0
LINE
  5
130DF0
  8
OBJECT
 10
2074.999999999799
 20
-3702.9999999997758
 30
0.0
 11
2080.0
 21
-3702.9999999999968
 31
0.0
1001
ACDBBLOCKREPETAG
1070
     1
1071
        9
1005
130DF0
  0
LINE
  5
130DF1
  8
OBJECT
 10
2080.0
 20
-3578.9999999999968
 30
0.0
 11
1925.0
 21
-3578.9999999999968
 31
0.0
1001
ACDBBLOCKREPETAG
1070
     1
1071
       10
1005
130DF1
  0
ARC
  5
130DF2
  8
OBJECT
 10
2200.6872746716731
 20
-3694.408099410105
 30
0.0
 40
170.6350503965856
 50
137.44134459184301
 51
149.91949581335999
1001
ACDBBLOCKREPETAG
1070
     1
1071
       15
1005
130DF2
  0
ARC
  5
130DF3
  8
OBJECT
 10
2118.8455987040511
 20
-3650.8827266953622
 30
0.0
 40
78.072222021763665
 50
147.45515310377539
 51
164.66365997718609
1001
ACDBBLOCKREPETAG
1070
     1
1071
       16
1005
130DF3
  0
ARC
  5
130DF4
  8
OBJECT
 10
2085.7554349608731
 20
-3640.9999999999968
 30
0.0
 40
43.55353926885617
 50
165.6884523008477
 51
194.31154769915219
1001
ACDBBLOCKREPETAG
1070
     1
1071
       17
1005
130DF4
  0
ARC
  5
130DF5
  8
OBJECT
 10
2200.6872746716731
 20
-3587.5919005898891
 30
0.0
 40
170.6350503965856
 50
210.08050418664001
 51
222.55865540815699
1001
ACDBBLOCKREPETAG
1070
     1
1071
       18
1005
130DF5
  0
ARC
  5
130DF6
  8
OBJECT
 10
2118.8455987040511
 20
-3631.1172733046319
 30
0.0
 40
78.072222021763665
 50
195.33634002281391
 51
212.54484689622461
1001
ACDBBLOCKREPETAG
1070
     1
1071
       19
1005
130DF6
  0
POINT
  5
130DF7
  8
DOTS
 10
2000.0
 20
-3699.9999999999968
 30
0.0
1001
ACDBBLOCKREPETAG
1070
     1
1071
      186
1005
130DF7
  0
LINE
  5
130DF8
  8
OBJECT
 10
2060.0
 20
-3572.9999999999968
 30
0.0
 11
1940.0
 21
-3572.9999999999968
 31
0.0
1001
ACDBBLOCKREPETAG
1070
     1
1071
      215
1005
130DF8
  0
ARC
  5
130DF9
  8
OBJECT
 10
1940.0
 20
-3575.9999999999968
 30
0.0
 40
3.0
 50
90.0
 51
180.0
1001
ACDBBLOCKREPETAG
1070
     1
1071
      216
1005
130DF9
  0
LINE
  5
130DFA
  8
OBJECT
 10
1937.0
 20
-3575.9999999999968
 30
0.0
 11
1937.0
 21
-3578.9999999999968
 31
0.0
1001
ACDBBLOCKREPETAG
1070
     1
1071
      217
1005
130DFA
  0
LINE
  5
130DFB
  8
OBJECT
 10
2063.0
 20
-3575.9999999999968
 30
0.0
 11
2063.0
 21
-3578.9999999999968
 31
0.0
1001
ACDBBLOCKREPETAG
1070
     1
1071
      218
1005
130DFB
  0
ARC
  5
130DFC
  8
OBJECT
 10
2060.0
 20
-3575.9999999999968
 30
0.0
 40
3.0
 50
0.0
 51
90.0
1001
ACDBBLOCKREPETAG
1070
     1
1071
      219
1005
130DFC
  0
LINE
  5
130DFD
  8
OBJECT
 10
1943.0
 20
-3504.9999999999968
 30
0.0
 11
1943.0
 21
-3572.9999999999968
 31
0.0
1001
ACDBBLOCKREPETAG
1070
     1
1071
      220
1005
130DFD
  0
LINE
  5
130DFE
  8
OBJECT
 10
2057.0
 20
-3504.9999999999968
 30
0.0
 11
1943.0
 21
-3504.9999999999968
 31
0.0
1001
ACDBBLOCKREPETAG
1070
     1
1071
      221
1005
130DFE
  0
LINE
  5
130DFF
  8
OBJECT
 10
2057.0
 20
-3504.9999999999968
 30
0.0
 11
2057.0
 21
-3572.9999999999968
 31
0.0
1001
ACDBBLOCKREPETAG
1070
     1
1071
      222
1005
130DFF
  0
LINE
  5
130E00
  8
CENTER
 10
2000.0
 20
-3489.9999999999968
 30
0.0
 11
2000.0
 21
-3714.9999999999968
 31
0.0
1001
ACDBBLOCKREPETAG
1070
     1
1071
      223
1005
130E00
  0
LINE
  5
130E01
  8
HIDDEN
 10
2052.5
 20
-3504.9999999999968
 30
0.0
 11
2052.5
 21
-3578.9999999999968
 31
0.0
1001
ACDBBLOCKREPETAG
1070
     1
1071
      224
1005
130E01
  0
LINE
  5
130E02
  8
HIDDEN
 10
1947.4999999999991
 20
-3504.9999999999968
 30
0.0
 11
1947.4999999999991
 21
-3578.9999999999968
 31
0.0
1001
ACDBBLOCKREPETAG
1070
     1
1071
      225
1005
130E02
  0
LINE
  5
130E03
  8
DIM
 10
2150.0
 20
-3341.9999999999959
 30
0.0
 11
2228.479620594459
 21
-3341.9999999999959
 31
0.0
  0
LINE
  5
130E04
  8
DIM
 10
2150.0
 20
-3247.9999999999959
 30
0.0
 11
2228.479620594459
 21
-3247.9999999999959
 31
0.0
  0
LINE
  5
130E05
  8
DIM
 10
2218.479620594459
 20
-3321.9999999999959
 30
0.0
 11
2218.479620594459
 21
-3267.9999999999959
 31
0.0
  0
INSERT
  5
130E06
  8
DIM
  2
_OPEN30
 10
2218.479620594459
 20
-3341.9999999999959
 30
0.0
 41
20.0
 42
20.0
 43
20.0
 50
270.0
  0
INSERT
  5
130E07
  8
DIM
  2
_OPEN30
 10
2218.479620594459
 20
-3247.9999999999959
 30
0.0
 41
20.0
 42
20.0
 43
20.0
 50
90.0
  0
INSERT
  5
130E08
  8
OBJECT
  2
*U36
 10
0.0
 20
0.0
 30
0.0
  0
LINE
  5
130E09
  8
DIM
 10
2150.0
 20
-3699.9999999999968
 30
0.0
 11
2226.8409284037339
 21
-3699.9999999999968
 31
0.0
  0
LINE
  5
130E0A
  8
DIM
 10
2165.0
 20
-3655.9999999999968
 30
0.0
 11
2226.8409284037339
 21
-3655.9999999999968
 31
0.0
  0
LINE
  5
130E0B
  8
DIM
 10
2216.840928403733
 20
-3719.9999999999968
 30
0.0
 11
2216.840928403733
 21
-3739.9999999999968
 31
0.0
  0
LINE
  5
130E0C
  8
DIM
 10
2216.840928403733
 20
-3635.9999999999968
 30
0.0
 11
2216.840928403733
 21
-3615.9999999999968
 31
0.0
  0
LINE
  5
130E0D
  8
DIM
 10
2216.840928403733
 20
-3699.9999999999968
 30
0.0
 11
2216.840928403733
 21
-3655.9999999999968
 31
0.0
  0
INSERT
  5
130E0E
  8
DIM
  2
_OPEN30
 10
2216.840928403733
 20
-3699.9999999999968
 30
0.0
 41
20.0
 42
20.0
 43
20.0
 50
90.0
  0
INSERT
  5
130E0F
  8
DIM
  2
_OPEN30
 10
2216.840928403733
 20
-3655.9999999999968
 30
0.0
 41
20.0
 42
20.0
 43
20.0
 50
270.0
  0
INSERT
  5
130E10
  8
OBJECT
  2
*U37
 10
0.0
 20
0.0
 30
0.0
  0
LINE
  5
130E11
  8
DIM
 10
2000.0
 20
-3189.9999999999959
 30
0.0
 11
2000.0
 21
-3157.2081219844449
 31
0.0
  0
LINE
  5
130E12
  8
DIM
 10
2140.0
 20
-3237.9999999999959
 30
0.0
 11
2140.0
 21
-3157.2081219844449
 31
0.0
  0
LINE
  5
130E13
  8
DIM
 10
2020.0
 20
-3167.208121984444
 30
0.0
 11
2120.0
 21
-3167.208121984444
 31
0.0
  0
INSERT
  5
130E14
  8
DIM
  2
_OPEN30
 10
2000.0
 20
-3167.208121984444
 30
0.0
 41
20.0
 42
20.0
 43
20.0
 50
180.0
  0
INSERT
  5
130E15
  8
DIM
  2
_OPEN30
 10
2140.0
 20
-3167.208121984444
 30
0.0
 41
20.0
 42
20.0
 43
20.0
  0
INSERT
  5
130E16
  8
OBJECT
  2
*U38
 10
0.0
 20
0.0
 30
0.0
  0
TEXT
  5
130E17
  8
SLIM
 10
2631.0
 20
-3072.50001604727
 30
0.0
 40
40.0
  1
C寸法
 41
0.75
  0
TEXT
  5
130E18
  8
SLIM
 10
2631.0
 20
-3002.50001604727
 30
0.0
 40
40.0
  1
B寸法
 41
0.75
  0
TEXT
  5
130E19
  8
SLIM
 10
2630.2857142857142
 20
-2932.50001604727
 30
0.0
 40
40.0
  1
A寸法
 41
0.75
  0
TEXT
  5
130E1A
  8
SLIM
 10
3159.2857142857151
 20
-3072.50001604727
 30
0.0
 40
40.0
  1
150
 41
0.75
  0
TEXT
  5
130E1B
  8
SLIM
 10
3029.2857142857151
 20
-3072.50001604727
 30
0.0
 40
40.0
  1
140
 41
0.75
  0
TEXT
  5
130E1C
  8
SLIM
 10
2769.2857142857151
 20
-3072.50001604727
 30
0.0
 40
40.0
  1
140
 41
0.75
  0
TEXT
  5
130E1D
  8
SLIM
 10
2899.2857142857151
 20
-3072.50001604727
 30
0.0
 40
40.0
  1
140
 41
0.75
  0
TEXT
  5
130E1E
  8
SLIM
 10
3170.7142857142858
 20
-3002.50001604727
 30
0.0
 40
40.0
  1
72
 41
0.75
  0
TEXT
  5
130E1F
  8
SLIM
 10
3041.4285714285711
 20
-3002.50001604727
 30
0.0
 40
40.0
  1
59
 41
0.75
  0
TEXT
  5
130E20
  8
SLIM
 10
2780.0
 20
-3002.50001604727
 30
0.0
 40
40.0
  1
44
 41
0.75
  0
TEXT
  5
130E21
  8
SLIM
 10
2910.7142857142858
 20
-3002.50001604727
 30
0.0
 40
40.0
  1
52
 41
0.75
  0
TEXT
  5
130E22
  8
SLIM
 10
2891.0
 20
-2807.50001604727
 30
0.0
 40
40.0
  1
横枝管サイズ
 41
0.75
  0
TEXT
  5
130E23
  8
SLIM
 10
3136.2857142857151
 20
-2862.50001604727
 30
0.0
 40
30.0
  1
100（4）
 41
0.75
  0
TEXT
  5
130E24
  8
SLIM
 10
3014.857142857144
 20
-2862.50001604727
 30
0.0
 40
30.0
  1
75（3）
 41
0.75
  0
TEXT
  5
130E25
  8
SLIM
 10
2884.8571428571431
 20
-2862.50001604727
 30
0.0
 40
30.0
  1
65（2）
 41
0.75
  0
TEXT
  5
130E26
  8
SLIM
 10
2757.0
 20
-2862.50001604727
 30
0.0
 40
30.0
  1
50（1）
 41
0.75
  0
TEXT
  5
130E27
  8
SLIM
 10
3159.2857142857151
 20
-2932.50001604727
 30
0.0
 40
40.0
  1
150
 41
0.75
  0
TEXT
  5
130E28
  8
SLIM
 10
3028.571428571428
 20
-2932.50001604727
 30
0.0
 40
40.0
  1
124
 41
0.75
  0
TEXT
  5
130E29
  8
SLIM
 10
2780.0
 20
-2932.50001604727
 30
0.0
 40
40.0
  1
94
 41
0.75
  0
TEXT
  5
130E2A
  8
SLIM
 10
2902.1428571428569
 20
-2932.50001604727
 30
0.0
 40
40.0
  1
110
 41
0.75
  0
TEXT
  5
130E2B
  8
SLIM
 10
1849.9999999999991
 20
-2832.5
 30
0.0
 40
75.0
  1
枝管サイズ毎の形状
 41
0.75
  0
LINE
  5
130E2C
  8
OBJECT
 10
5150.0
 20
-3552.9999999999968
 30
0.0
 11
5143.0
 21
-3552.9999999999968
 31
0.0
1001
ACDBBLOCKREPETAG
1070
     1
1071
       64
1005
130E2C
  0
LINE
  5
130E2D
  8
OBJECT
 10
5143.0
 20
-3552.9999999999968
 30
0.0
 11
5143.0
 21
-3699.9999999999968
 31
0.0
1001
ACDBBLOCKREPETAG
1070
     1
1071
       65
1005
130E2D
  0
LINE
  5
130E2E
  8
OBJECT
 10
5101.5
 20
-3555.9999999999968
 30
0.0
 11
5101.5
 21
-3699.9999999999968
 31
0.0
1001
ACDBBLOCKREPETAG
1070
     1
1071
       66
1005
130E2E
  0
LINE
  5
130E2F
  8
OBJECT
 10
5090.0
 20
-3562.4999999999968
 30
0.0
 11
5090.0
 21
-3693.4999999999968
 31
0.0
1001
ACDBBLOCKREPETAG
1070
     1
1071
       67
1005
130E2F
  0
LINE
  5
130E30
  8
OBJECT
 10
5086.0
 20
-3634.5000000000041
 30
0.0
 11
5086.0
 21
-3699.9999999999968
 31
0.0
1001
ACDBBLOCKREPETAG
1070
     1
1071
       68
1005
130E30
  0
LINE
  5
130E31
  8
OBJECT
 10
5150.0
 20
-3699.9999999999968
 30
0.0
 11
5150.0
 21
-3552.9999999999968
 31
0.0
1001
ACDBBLOCKREPETAG
1070
     1
1071
       69
1005
130E31
  0
LINE
  5
130E32
  8
CENTER
 10
5165.0
 20
-3627.9999999999968
 30
0.0
 11
5070.4144144144157
 21
-3627.9999999999968
 31
0.0
1001
ACDBBLOCKREPETAG
1070
     1
1071
       70
1005
130E32
  0
LINE
  5
130E33
  8
OBJECT
 10
5083.0000000000045
 20
-3702.9999999999968
 30
0.0
 11
5080.0
 21
-3702.9999999999968
 31
0.0
1001
ACDBBLOCKREPETAG
1070
     1
1071
       71
1005
130E33
  0
ARC
  5
130E34
  8
OBJECT
 10
5091.8815171830656
 20
-3701.4555591801432
 30
0.0
 40
6.0
 50
60.52411099686767
 51
170.6927439126847
1001
ACDBBLOCKREPETAG
1070
     1
1071
       72
1005
130E34
  0
ARC
  5
130E35
  8
OBJECT
 10
5083.0
 20
-3699.9999999999968
 30
0.0
 40
3.0
 50
270.0
 51
350.69274391268482
1001
ACDBBLOCKREPETAG
1070
     1
1071
       73
1005
130E35
  0
LINE
  5
130E36
  8
OBJECT
 10
5081.0
 20
-3578.9999999999968
 30
0.0
 11
5080.0
 21
-3578.9999999999968
 31
0.0
1001
ACDBBLOCKREPETAG
1070
     1
1071
       74
1005
130E36
  0
LINE
  5
130E37
  8
OBJECT
 10
5150.0
 20
-3699.9999999999968
 30
0.0
 11
5101.5
 21
-3699.9999999999968
 31
0.0
1001
ACDBBLOCKREPETAG
1070
     1
1071
       75
1005
130E37
  0
LINE
  5
130E38
  8
OBJECT
 10
5101.5
 20
-3555.9999999999968
 30
0.0
 11
5090.0
 21
-3562.4999999999968
 31
0.0
1001
ACDBBLOCKREPETAG
1070
     1
1071
       76
1005
130E38
  0
LINE
  5
130E39
  8
OBJECT
 10
5143.0
 20
-3555.9999999999968
 30
0.0
 11
5101.5
 21
-3555.9999999999968
 31
0.0
1001
ACDBBLOCKREPETAG
1070
     1
1071
       77
1005
130E39
  0
LINE
  5
130E3A
  8
OBJECT
 10
5086.0
 20
-3634.5000000000041
 30
0.0
 11
5081.0
 21
-3578.9999999999968
 31
0.0
1001
ACDBBLOCKREPETAG
1070
     1
1071
       78
1005
130E3A
  0
LINE
  5
130E3B
  8
OBJECT
 10
5090.0
 20
-3562.4999999999968
 30
0.0
 11
5081.0
 21
-3578.9999999999968
 31
0.0
1001
ACDBBLOCKREPETAG
1070
     1
1071
       79
1005
130E3B
  0
LINE
  5
130E3C
  8
OBJECT
 10
5101.5
 20
-3699.9999999999968
 30
0.0
 11
5094.8338607230708
 21
-3696.232182147819
 31
0.0
1001
ACDBBLOCKREPETAG
1070
     1
1071
       80
1005
130E3C
  0
LINE
  5
130E3D
  8
HIDDEN
 10
5098.0
 20
-3684.9999999999968
 30
0.0
 11
5098.0
 21
-3570.9999999999968
 31
0.0
1001
ACDBBLOCKREPETAG
1070
     1
1071
       81
1005
130E3D
  0
LINE
  5
130E3E
  8
OBJECT
 10
5150.0
 20
-3219.9999999999959
 30
0.0
 11
5143.0
 21
-3219.9999999999959
 31
0.0
1001
ACDBBLOCKREPETAG
1070
     1
1071
       67
1005
130E3E
  0
LINE
  5
130E3F
  8
OBJECT
 10
5143.0
 20
-3219.9999999999959
 30
0.0
 11
5143.0
 21
-3369.9999999999959
 31
0.0
1001
ACDBBLOCKREPETAG
1070
     1
1071
       68
1005
130E3F
  0
LINE
  5
130E40
  8
OBJECT
 10
5101.5
 20
-3222.9999999999959
 30
0.0
 11
5101.5
 21
-3366.9999999999959
 31
0.0
1001
ACDBBLOCKREPETAG
1070
     1
1071
       69
1005
130E40
  0
LINE
  5
130E41
  8
OBJECT
 10
5090.0
 20
-3229.4999999999959
 30
0.0
 11
5090.0
 21
-3360.4999999999959
 31
0.0
1001
ACDBBLOCKREPETAG
1070
     1
1071
       70
1005
130E41
  0
LINE
  5
130E42
  8
OBJECT
 10
5143.0
 20
-3369.9999999999959
 30
0.0
 11
5150.0
 21
-3369.9999999999959
 31
0.0
1001
ACDBBLOCKREPETAG
1070
     1
1071
       71
1005
130E42
  0
LINE
  5
130E43
  8
OBJECT
 10
5150.0
 20
-3369.9999999999959
 30
0.0
 11
5150.0
 21
-3219.9999999999959
 31
0.0
1001
ACDBBLOCKREPETAG
1070
     1
1071
       72
1005
130E43
  0
LINE
  5
130E44
  8
HIDDEN
 10
5098.0
 20
-3351.9999999999959
 30
0.0
 11
5098.0
 21
-3237.9999999999959
 31
0.0
1001
ACDBBLOCKREPETAG
1070
     1
1071
       73
1005
130E44
  0
LINE
  5
130E45
  8
CENTER
 10
5165.0
 20
-3294.9999999999959
 30
0.0
 11
5080.0
 21
-3294.9999999999959
 31
0.0
1001
ACDBBLOCKREPETAG
1070
     1
1071
       74
1005
130E45
  0
LINE
  5
130E46
  8
OBJECT
 10
5086.0
 20
-3356.9999999999959
 30
0.0
 11
5080.0
 21
-3356.9999999999959
 31
0.0
1001
ACDBBLOCKREPETAG
1070
     1
1071
       75
1005
130E46
  0
LINE
  5
130E47
  8
OBJECT
 10
5143.0
 20
-3366.9999999999959
 30
0.0
 11
5101.5
 21
-3366.9999999999959
 31
0.0
1001
ACDBBLOCKREPETAG
1070
     1
1071
       76
1005
130E47
  0
LINE
  5
130E48
  8
OBJECT
 10
5101.5
 20
-3366.9999999999959
 30
0.0
 11
5090.0
 21
-3360.4999999999959
 31
0.0
1001
ACDBBLOCKREPETAG
1070
     1
1071
       77
1005
130E48
  0
LINE
  5
130E49
  8
OBJECT
 10
5090.0
 20
-3360.4999999999959
 30
0.0
 11
5086.0
 21
-3356.9999999999959
 31
0.0
1001
ACDBBLOCKREPETAG
1070
     1
1071
       78
1005
130E49
  0
LINE
  5
130E4A
  8
OBJECT
 10
5101.5
 20
-3222.9999999999959
 30
0.0
 11
5090.0
 21
-3229.4999999999959
 31
0.0
1001
ACDBBLOCKREPETAG
1070
     1
1071
       79
1005
130E4A
  0
LINE
  5
130E4B
  8
OBJECT
 10
5090.0
 20
-3229.4999999999959
 30
0.0
 11
5086.0
 21
-3232.9999999999959
 31
0.0
1001
ACDBBLOCKREPETAG
1070
     1
1071
       80
1005
130E4B
  0
ARC
  5
130E4C
  8
OBJECT
 10
5467.9000000000005
 20
-3294.9999999999959
 30
0.0
 40
386.89999999999998
 50
170.77870136260421
 51
189.22129863739571
1001
ACDBBLOCKREPETAG
1070
     1
1071
       81
1005
130E4C
  0
LINE
  5
130E4D
  8
OBJECT
 10
5086.0
 20
-3232.9999999999959
 30
0.0
 11
5080.0
 21
-3232.9999999999959
 31
0.0
1001
ACDBBLOCKREPETAG
1070
     1
1071
       82
1005
130E4D
  0
LINE
  5
130E4E
  8
OBJECT
 10
5143.0
 20
-3222.9999999999959
 30
0.0
 11
5101.5
 21
-3222.9999999999959
 31
0.0
1001
ACDBBLOCKREPETAG
1070
     1
1071
       83
1005
130E4E
  0
TEXT
  5
130E4F
  8
SLIM
 10
4884.25
 20
-3817.4999999999959
 30
0.0
 40
35.0
  1
通常枝100（4）
 41
0.75
  0
LINE
  5
130E50
  8
CENTER
 10
4477.0
 20
-3640.9999999999968
 30
0.0
 11
4323.0
 21
-3640.9999999999968
 31
0.0
1001
ACDBBLOCKREPETAG
1070
     1
1071
       17
1005
130E50
  0
CIRCLE
  5
130E51
  8
OBJECT
 10
4400.0
 20
-3640.9999999999968
 30
0.0
 40
41.5
1001
ACDBBLOCKREPETAG
1070
     1
1071
       19
1005
130E51
  0
CIRCLE
  5
130E52
  8
OBJECT
 10
4400.0
 20
-3640.9999999999968
 30
0.0
 40
54.0
1001
ACDBBLOCKREPETAG
1070
     1
1071
       20
1005
130E52
  0
ARC
  5
130E53
  8
OBJECT
 10
4400.0
 20
-3640.9999999999968
 30
0.0
 40
62.0
 50
287.89655112921122
 51
252.1034488707887
1001
ACDBBLOCKREPETAG
1070
     1
1071
       21
1005
130E53
  0
LINE
  5
130E54
  8
OBJECT
 10
4380.947441116743
 20
-3699.9999999999968
 30
0.0
 11
4419.052558883257
 21
-3699.9999999999968
 31
0.0
1001
ACDBBLOCKREPETAG
1070
     1
1071
       22
1005
130E54
  0
LINE
  5
130E55
  8
OBJECT
 10
4133.0
 20
-3578.9999999999968
 30
0.0
 11
4140.0
 21
-3578.9999999999968
 31
0.0
1001
ACDBBLOCKREPETAG
1070
     1
1071
       45
1005
130E55
  0
LINE
  5
130E56
  8
OBJECT
 10
4140.0
 20
-3578.9999999999968
 30
0.0
 11
4140.0
 21
-3699.9999999999968
 31
0.0
1001
ACDBBLOCKREPETAG
1070
     1
1071
       46
1005
130E56
  0
LINE
  5
130E57
  8
OBJECT
 10
4133.0
 20
-3699.9999999999968
 30
0.0
 11
4133.0
 21
-3578.9999999999968
 31
0.0
1001
ACDBBLOCKREPETAG
1070
     1
1071
       47
1005
130E57
  0
LINE
  5
130E58
  8
CENTER
 10
4155.0
 20
-3640.9999999999968
 30
0.0
 11
4071.0
 21
-3640.9999999999968
 31
0.0
1001
ACDBBLOCKREPETAG
1070
     1
1071
       48
1005
130E58
  0
LINE
  5
130E59
  8
OBJECT
 10
4133.0
 20
-3581.9999999999968
 30
0.0
 11
4097.0
 21
-3581.9999999999968
 31
0.0
1001
ACDBBLOCKREPETAG
1070
     1
1071
       49
1005
130E59
  0
LINE
  5
130E5A
  8
OBJECT
 10
4097.0
 20
-3581.9999999999968
 30
0.0
 11
4097.0
 21
-3699.9999999999968
 31
0.0
1001
ACDBBLOCKREPETAG
1070
     1
1071
       50
1005
130E5A
  0
LINE
  5
130E5B
  8
OBJECT
 10
4097.0
 20
-3699.9999999999968
 30
0.0
 11
4140.0
 21
-3699.9999999999968
 31
0.0
1001
ACDBBLOCKREPETAG
1070
     1
1071
       51
1005
130E5B
  0
LINE
  5
130E5C
  8
OBJECT
 10
4093.0
 20
-3586.4999999999968
 30
0.0
 11
4086.0
 21
-3586.4999999999968
 31
0.0
1001
ACDBBLOCKREPETAG
1070
     1
1071
       52
1005
130E5C
  0
LINE
  5
130E5D
  8
OBJECT
 10
4086.0
 20
-3695.4999999999968
 30
0.0
 11
4093.0
 21
-3695.4999999999968
 31
0.0
1001
ACDBBLOCKREPETAG
1070
     1
1071
       53
1005
130E5D
  0
LINE
  5
130E5E
  8
OBJECT
 10
4093.0
 20
-3695.4999999999968
 30
0.0
 11
4093.0
 21
-3586.4999999999968
 31
0.0
1001
ACDBBLOCKREPETAG
1070
     1
1071
       54
1005
130E5E
  0
LINE
  5
130E5F
  8
OBJECT
 10
4097.0
 20
-3581.9999999999968
 30
0.0
 11
4093.0
 21
-3586.4999999999968
 31
0.0
1001
ACDBBLOCKREPETAG
1070
     1
1071
       55
1005
130E5F
  0
LINE
  5
130E60
  8
OBJECT
 10
4097.0
 20
-3699.9999999999968
 30
0.0
 11
4093.0
 21
-3695.4999999999968
 31
0.0
1001
ACDBBLOCKREPETAG
1070
     1
1071
       56
1005
130E60
  0
LINE
  5
130E61
  8
OBJECT
 10
4083.0
 20
-3578.9999999999968
 30
0.0
 11
4080.0
 21
-3578.9999999999968
 31
0.0
1001
ACDBBLOCKREPETAG
1070
     1
1071
       57
1005
130E61
  0
ARC
  5
130E62
  8
OBJECT
 10
4083.0
 20
-3581.9999999999968
 30
0.0
 40
3.0
 50
0.0
 51
90.0
1001
ACDBBLOCKREPETAG
1070
     1
1071
       58
1005
130E62
  0
LINE
  5
130E63
  8
OBJECT
 10
4080.0
 20
-3702.9999999999968
 30
0.0
 11
4083.0
 21
-3702.9999999999968
 31
0.0
1001
ACDBBLOCKREPETAG
1070
     1
1071
       59
1005
130E63
  0
ARC
  5
130E64
  8
OBJECT
 10
4083.0
 20
-3699.9999999999968
 30
0.0
 40
3.0
 50
270.0
 51
0.0
1001
ACDBBLOCKREPETAG
1070
     1
1071
       60
1005
130E64
  0
LINE
  5
130E65
  8
OBJECT
 10
4086.0
 20
-3699.9999999999968
 30
0.0
 11
4086.0
 21
-3581.9999999999968
 31
0.0
1001
ACDBBLOCKREPETAG
1070
     1
1071
       61
1005
130E65
  0
LINE
  5
130E66
  8
HIDDEN
 10
4088.0
 20
-3596.4999999999968
 30
0.0
 11
4088.0
 21
-3685.4999999999968
 31
0.0
1001
ACDBBLOCKREPETAG
1070
     1
1071
       63
1005
130E66
  0
LINE
  5
130E67
  8
OBJECT
 10
4133.0
 20
-3232.9999999999959
 30
0.0
 11
4140.0
 21
-3232.9999999999959
 31
0.0
1001
ACDBBLOCKREPETAG
1070
     1
1071
       47
1005
130E67
  0
LINE
  5
130E68
  8
OBJECT
 10
4140.0
 20
-3232.9999999999959
 30
0.0
 11
4140.0
 21
-3356.9999999999959
 31
0.0
1001
ACDBBLOCKREPETAG
1070
     1
1071
       48
1005
130E68
  0
LINE
  5
130E69
  8
OBJECT
 10
4140.0
 20
-3356.9999999999959
 30
0.0
 11
4133.0
 21
-3356.9999999999959
 31
0.0
1001
ACDBBLOCKREPETAG
1070
     1
1071
       49
1005
130E69
  0
LINE
  5
130E6A
  8
OBJECT
 10
4133.0
 20
-3356.9999999999959
 30
0.0
 11
4133.0
 21
-3232.9999999999959
 31
0.0
1001
ACDBBLOCKREPETAG
1070
     1
1071
       50
1005
130E6A
  0
LINE
  5
130E6B
  8
CENTER
 10
4155.0
 20
-3294.9999999999959
 30
0.0
 11
4080.0
 21
-3294.9999999999959
 31
0.0
1001
ACDBBLOCKREPETAG
1070
     1
1071
       51
1005
130E6B
  0
LINE
  5
130E6C
  8
OBJECT
 10
4133.0
 20
-3235.9999999999959
 30
0.0
 11
4097.0
 21
-3235.9999999999959
 31
0.0
1001
ACDBBLOCKREPETAG
1070
     1
1071
       52
1005
130E6C
  0
LINE
  5
130E6D
  8
OBJECT
 10
4097.0
 20
-3235.9999999999959
 30
0.0
 11
4097.0
 21
-3353.9999999999959
 31
0.0
1001
ACDBBLOCKREPETAG
1070
     1
1071
       53
1005
130E6D
  0
LINE
  5
130E6E
  8
OBJECT
 10
4097.0
 20
-3353.9999999999959
 30
0.0
 11
4133.0
 21
-3353.9999999999959
 31
0.0
1001
ACDBBLOCKREPETAG
1070
     1
1071
       54
1005
130E6E
  0
LINE
  5
130E6F
  8
OBJECT
 10
4093.0
 20
-3240.4999999999959
 30
0.0
 11
4086.0
 21
-3240.4999999999959
 31
0.0
1001
ACDBBLOCKREPETAG
1070
     1
1071
       55
1005
130E6F
  0
LINE
  5
130E70
  8
OBJECT
 10
4086.0
 20
-3349.4999999999959
 30
0.0
 11
4093.0
 21
-3349.4999999999959
 31
0.0
1001
ACDBBLOCKREPETAG
1070
     1
1071
       56
1005
130E70
  0
LINE
  5
130E71
  8
OBJECT
 10
4093.0
 20
-3349.4999999999959
 30
0.0
 11
4093.0
 21
-3240.4999999999959
 31
0.0
1001
ACDBBLOCKREPETAG
1070
     1
1071
       57
1005
130E71
  0
LINE
  5
130E72
  8
OBJECT
 10
4097.0
 20
-3235.9999999999959
 30
0.0
 11
4093.0
 21
-3240.4999999999959
 31
0.0
1001
ACDBBLOCKREPETAG
1070
     1
1071
       58
1005
130E72
  0
LINE
  5
130E73
  8
OBJECT
 10
4097.0
 20
-3353.9999999999959
 30
0.0
 11
4093.0
 21
-3349.4999999999959
 31
0.0
1001
ACDBBLOCKREPETAG
1070
     1
1071
       59
1005
130E73
  0
LINE
  5
130E74
  8
OBJECT
 10
4083.0
 20
-3232.9999999999959
 30
0.0
 11
4080.0
 21
-3232.9999999999959
 31
0.0
1001
ACDBBLOCKREPETAG
1070
     1
1071
       60
1005
130E74
  0
ARC
  5
130E75
  8
OBJECT
 10
4083.0
 20
-3235.9999999999959
 30
0.0
 40
3.0
 50
0.0
 51
90.0
1001
ACDBBLOCKREPETAG
1070
     1
1071
       61
1005
130E75
  0
LINE
  5
130E76
  8
OBJECT
 10
4080.0
 20
-3356.9999999999959
 30
0.0
 11
4083.0
 21
-3356.9999999999959
 31
0.0
1001
ACDBBLOCKREPETAG
1070
     1
1071
       62
1005
130E76
  0
ARC
  5
130E77
  8
OBJECT
 10
4083.0
 20
-3353.9999999999959
 30
0.0
 40
3.0
 50
270.0
 51
0.0
1001
ACDBBLOCKREPETAG
1070
     1
1071
       63
1005
130E77
  0
LINE
  5
130E78
  8
OBJECT
 10
4086.0
 20
-3353.9999999999959
 30
0.0
 11
4086.0
 21
-3235.9999999999959
 31
0.0
1001
ACDBBLOCKREPETAG
1070
     1
1071
       64
1005
130E78
  0
LINE
  5
130E79
  8
HIDDEN
 10
4088.0
 20
-3250.4999999999959
 30
0.0
 11
4088.0
 21
-3339.4999999999959
 31
0.0
1001
ACDBBLOCKREPETAG
1070
     1
1071
       65
1005
130E79
  0
TEXT
  5
130E7A
  8
SLIM
 10
3894.25
 20
-3817.4999999999959
 30
0.0
 40
35.0
  1
通常枝75（3）
 41
0.75
  0
CIRCLE
  5
130E7B
  8
OBJECT
 10
3400.0
 20
-3647.9999999999968
 30
0.0
 40
35.5
1001
ACDBBLOCKREPETAG
1070
     1
1071
       10
1005
130E7B
  0
CIRCLE
  5
130E7C
  8
OBJECT
 10
3400.0
 20
-3640.9999999999968
 30
0.0
 40
62.0
1001
ACDBBLOCKREPETAG
1070
     1
1071
       11
1005
130E7C
  0
LINE
  5
130E7D
  8
CENTER
 10
3330.0
 20
-3647.9999999999968
 30
0.0
 11
3470.0
 21
-3647.9999999999968
 31
0.0
1001
ACDBBLOCKREPETAG
1070
     1
1071
       12
1005
130E7D
  0
CIRCLE
  5
130E7E
  8
OBJECT
 10
3400.0
 20
-3647.9999999999968
 30
0.0
 40
47.0
1001
ACDBBLOCKREPETAG
1070
     1
1071
       14
1005
130E7E
  0
ARC
  5
130E7F
  8
OBJECT
 10
3400.0
 20
-3647.9999999999968
 30
0.0
 40
55.0
 50
289.01126526011359
 51
250.98873473988641
1001
ACDBBLOCKREPETAG
1070
     1
1071
       15
1005
130E7F
  0
LINE
  5
130E80
  8
OBJECT
 10
3382.0835271328328
 20
-3699.9999999999968
 30
0.0
 11
3417.9164728671681
 21
-3699.9999999999968
 31
0.0
1001
ACDBBLOCKREPETAG
1070
     1
1071
       16
1005
130E80
  0
LINE
  5
130E81
  8
OBJECT
 10
3133.0
 20
-3592.9999999999968
 30
0.0
 11
3140.0
 21
-3592.9999999999968
 31
0.0
1001
ACDBBLOCKREPETAG
1070
     1
1071
       26
1005
130E81
  0
LINE
  5
130E82
  8
OBJECT
 10
3140.0
 20
-3592.9999999999968
 30
0.0
 11
3140.0
 21
-3699.9999999999968
 31
0.0
1001
ACDBBLOCKREPETAG
1070
     1
1071
       27
1005
130E82
  0
LINE
  5
130E83
  8
OBJECT
 10
3133.0
 20
-3699.9999999999968
 30
0.0
 11
3133.0
 21
-3592.9999999999968
 31
0.0
1001
ACDBBLOCKREPETAG
1070
     1
1071
       28
1005
130E83
  0
LINE
  5
130E84
  8
CENTER
 10
3155.0
 20
-3647.9999999999968
 30
0.0
 11
3071.0
 21
-3647.9999999999968
 31
0.0
1001
ACDBBLOCKREPETAG
1070
     1
1071
       29
1005
130E84
  0
LINE
  5
130E85
  8
OBJECT
 10
3133.0
 20
-3595.9999999999968
 30
0.0
 11
3097.0
 21
-3595.9999999999968
 31
0.0
1001
ACDBBLOCKREPETAG
1070
     1
1071
       30
1005
130E85
  0
LINE
  5
130E86
  8
OBJECT
 10
3097.0
 20
-3595.9999999999968
 30
0.0
 11
3097.0
 21
-3699.9999999999968
 31
0.0
1001
ACDBBLOCKREPETAG
1070
     1
1071
       31
1005
130E86
  0
LINE
  5
130E87
  8
OBJECT
 10
3097.0
 20
-3699.9999999999968
 30
0.0
 11
3140.0
 21
-3699.9999999999968
 31
0.0
1001
ACDBBLOCKREPETAG
1070
     1
1071
       32
1005
130E87
  0
LINE
  5
130E88
  8
OBJECT
 10
3093.0
 20
-3600.4999999999968
 30
0.0
 11
3086.0
 21
-3600.4999999999968
 31
0.0
1001
ACDBBLOCKREPETAG
1070
     1
1071
       33
1005
130E88
  0
LINE
  5
130E89
  8
OBJECT
 10
3086.0
 20
-3695.4999999999968
 30
0.0
 11
3093.0
 21
-3695.4999999999968
 31
0.0
1001
ACDBBLOCKREPETAG
1070
     1
1071
       34
1005
130E89
  0
LINE
  5
130E8A
  8
OBJECT
 10
3093.0
 20
-3695.4999999999968
 30
0.0
 11
3093.0
 21
-3600.4999999999968
 31
0.0
1001
ACDBBLOCKREPETAG
1070
     1
1071
       35
1005
130E8A
  0
LINE
  5
130E8B
  8
OBJECT
 10
3097.0
 20
-3595.9999999999968
 30
0.0
 11
3093.0
 21
-3600.4999999999968
 31
0.0
1001
ACDBBLOCKREPETAG
1070
     1
1071
       36
1005
130E8B
  0
LINE
  5
130E8C
  8
OBJECT
 10
3097.0
 20
-3699.9999999999968
 30
0.0
 11
3093.0
 21
-3695.4999999999968
 31
0.0
1001
ACDBBLOCKREPETAG
1070
     1
1071
       37
1005
130E8C
  0
LINE
  5
130E8D
  8
OBJECT
 10
3083.0
 20
-3578.9999999999968
 30
0.0
 11
3080.0
 21
-3578.9999999999968
 31
0.0
1001
ACDBBLOCKREPETAG
1070
     1
1071
       38
1005
130E8D
  0
ARC
  5
130E8E
  8
OBJECT
 10
3083.0
 20
-3581.9999999999968
 30
0.0
 40
3.0
 50
0.0
 51
90.0
1001
ACDBBLOCKREPETAG
1070
     1
1071
       39
1005
130E8E
  0
LINE
  5
130E8F
  8
OBJECT
 10
3080.0
 20
-3702.9999999999968
 30
0.0
 11
3083.0
 21
-3702.9999999999968
 31
0.0
1001
ACDBBLOCKREPETAG
1070
     1
1071
       40
1005
130E8F
  0
ARC
  5
130E90
  8
OBJECT
 10
3083.0
 20
-3699.9999999999968
 30
0.0
 40
3.0
 50
270.0
 51
0.0
1001
ACDBBLOCKREPETAG
1070
     1
1071
       41
1005
130E90
  0
LINE
  5
130E91
  8
OBJECT
 10
3086.0
 20
-3699.9999999999968
 30
0.0
 11
3086.0
 21
-3581.9999999999968
 31
0.0
1001
ACDBBLOCKREPETAG
1070
     1
1071
       42
1005
130E91
  0
LINE
  5
130E92
  8
HIDDEN
 10
3088.0
 20
-3609.9999999999968
 30
0.0
 11
3088.0
 21
-3685.9999999999968
 31
0.0
1001
ACDBBLOCKREPETAG
1070
     1
1071
       43
1005
130E92
  0
LINE
  5
130E93
  8
OBJECT
 10
3133.0
 20
-3239.9999999999968
 30
0.0
 11
3140.0
 21
-3239.9999999999968
 31
0.0
1001
ACDBBLOCKREPETAG
1070
     1
1071
       27
1005
130E93
  0
LINE
  5
130E94
  8
OBJECT
 10
3140.0
 20
-3239.9999999999968
 30
0.0
 11
3140.0
 21
-3349.9999999999959
 31
0.0
1001
ACDBBLOCKREPETAG
1070
     1
1071
       28
1005
130E94
  0
LINE
  5
130E95
  8
OBJECT
 10
3140.0
 20
-3349.9999999999959
 30
0.0
 11
3133.0
 21
-3349.9999999999959
 31
0.0
1001
ACDBBLOCKREPETAG
1070
     1
1071
       29
1005
130E95
  0
LINE
  5
130E96
  8
OBJECT
 10
3133.0
 20
-3349.9999999999959
 30
0.0
 11
3133.0
 21
-3239.9999999999968
 31
0.0
1001
ACDBBLOCKREPETAG
1070
     1
1071
       30
1005
130E96
  0
LINE
  5
130E97
  8
CENTER
 10
3155.0
 20
-3294.9999999999959
 30
0.0
 11
3080.0
 21
-3294.9999999999959
 31
0.0
1001
ACDBBLOCKREPETAG
1070
     1
1071
       31
1005
130E97
  0
LINE
  5
130E98
  8
OBJECT
 10
3133.0
 20
-3242.9999999999959
 30
0.0
 11
3097.0
 21
-3242.9999999999959
 31
0.0
1001
ACDBBLOCKREPETAG
1070
     1
1071
       32
1005
130E98
  0
LINE
  5
130E99
  8
OBJECT
 10
3097.0
 20
-3242.9999999999959
 30
0.0
 11
3097.0
 21
-3346.9999999999959
 31
0.0
1001
ACDBBLOCKREPETAG
1070
     1
1071
       33
1005
130E99
  0
LINE
  5
130E9A
  8
OBJECT
 10
3097.0
 20
-3346.9999999999959
 30
0.0
 11
3133.0
 21
-3346.9999999999959
 31
0.0
1001
ACDBBLOCKREPETAG
1070
     1
1071
       34
1005
130E9A
  0
LINE
  5
130E9B
  8
OBJECT
 10
3093.0
 20
-3247.4999999999959
 30
0.0
 11
3086.0
 21
-3247.4999999999959
 31
0.0
1001
ACDBBLOCKREPETAG
1070
     1
1071
       35
1005
130E9B
  0
LINE
  5
130E9C
  8
OBJECT
 10
3086.0
 20
-3342.4999999999959
 30
0.0
 11
3093.0
 21
-3342.4999999999959
 31
0.0
1001
ACDBBLOCKREPETAG
1070
     1
1071
       36
1005
130E9C
  0
LINE
  5
130E9D
  8
OBJECT
 10
3093.0
 20
-3342.4999999999959
 30
0.0
 11
3093.0
 21
-3247.4999999999959
 31
0.0
1001
ACDBBLOCKREPETAG
1070
     1
1071
       37
1005
130E9D
  0
LINE
  5
130E9E
  8
OBJECT
 10
3097.0
 20
-3242.9999999999959
 30
0.0
 11
3093.0
 21
-3247.4999999999959
 31
0.0
1001
ACDBBLOCKREPETAG
1070
     1
1071
       38
1005
130E9E
  0
LINE
  5
130E9F
  8
OBJECT
 10
3097.0
 20
-3346.9999999999959
 30
0.0
 11
3093.0
 21
-3342.4999999999959
 31
0.0
1001
ACDBBLOCKREPETAG
1070
     1
1071
       39
1005
130E9F
  0
LINE
  5
130EA0
  8
OBJECT
 10
3083.0
 20
-3232.9999999999959
 30
0.0
 11
3080.0
 21
-3232.9999999999959
 31
0.0
1001
ACDBBLOCKREPETAG
1070
     1
1071
       40
1005
130EA0
  0
ARC
  5
130EA1
  8
OBJECT
 10
3083.0
 20
-3235.9999999999959
 30
0.0
 40
3.0
 50
0.0
 51
90.0
1001
ACDBBLOCKREPETAG
1070
     1
1071
       41
1005
130EA1
  0
LINE
  5
130EA2
  8
OBJECT
 10
3080.0
 20
-3356.9999999999959
 30
0.0
 11
3083.0
 21
-3356.9999999999959
 31
0.0
1001
ACDBBLOCKREPETAG
1070
     1
1071
       42
1005
130EA2
  0
ARC
  5
130EA3
  8
OBJECT
 10
3083.0
 20
-3353.9999999999959
 30
0.0
 40
3.0
 50
270.0
 51
0.0
1001
ACDBBLOCKREPETAG
1070
     1
1071
       43
1005
130EA3
  0
LINE
  5
130EA4
  8
OBJECT
 10
3086.0
 20
-3353.9999999999959
 30
0.0
 11
3086.0
 21
-3235.9999999999959
 31
0.0
1001
ACDBBLOCKREPETAG
1070
     1
1071
       44
1005
130EA4
  0
LINE
  5
130EA5
  8
HIDDEN
 10
3088.0
 20
-3256.9999999999959
 30
0.0
 11
3088.0
 21
-3332.9999999999968
 31
0.0
1001
ACDBBLOCKREPETAG
1070
     1
1071
       45
1005
130EA5
  0
TEXT
  5
130EA6
  8
SLIM
 10
2894.25
 20
-3817.4999999999959
 30
0.0
 40
35.0
  1
通常枝65（2）
 41
0.75
  0
CIRCLE
  5
130EA7
  8
OBJECT
 10
2400.0
 20
-3640.9999999999968
 30
0.0
 40
62.0
1001
ACDBBLOCKREPETAG
1070
     1
1071
        3
1005
130EA7
  0
LINE
  5
130EA8
  8
CENTER
 10
2338.0
 20
-3655.9999999999968
 30
0.0
 11
2462.0
 21
-3655.9999999999968
 31
0.0
1001
ACDBBLOCKREPETAG
1070
     1
1071
        4
1005
130EA8
  0
CIRCLE
  5
130EA9
  8
OBJECT
 10
2400.0
 20
-3655.9999999999968
 30
0.0
 40
28.0
1001
ACDBBLOCKREPETAG
1070
     1
1071
        6
1005
130EA9
  0
CIRCLE
  5
130EAA
  8
OBJECT
 10
2400.0
 20
-3655.9999999999968
 30
0.0
 40
39.0
1001
ACDBBLOCKREPETAG
1070
     1
1071
        7
1005
130EAA
  0
ARC
  5
130EAB
  8
OBJECT
 10
2400.0
 20
-3655.9999999999968
 30
0.0
 40
47.0
 50
290.58196921144412
 51
249.41803078855591
1001
ACDBBLOCKREPETAG
1070
     1
1071
        8
1005
130EAB
  0
LINE
  5
130EAC
  8
OBJECT
 10
2383.4772883581431
 20
-3699.9999999999968
 30
0.0
 11
2416.5227116418569
 21
-3699.9999999999968
 31
0.0
1001
ACDBBLOCKREPETAG
1070
     1
1071
        9
1005
130EAC
  0
LINE
  5
130EAD
  8
OBJECT
 10
2133.0
 20
-3608.9999999999968
 30
0.0
 11
2140.0
 21
-3608.9999999999968
 31
0.0
1001
ACDBBLOCKREPETAG
1070
     1
1071
        7
1005
130EAD
  0
LINE
  5
130EAE
  8
OBJECT
 10
2140.0
 20
-3608.9999999999968
 30
0.0
 11
2140.0
 21
-3699.9999999999968
 31
0.0
1001
ACDBBLOCKREPETAG
1070
     1
1071
        8
1005
130EAE
  0
LINE
  5
130EAF
  8
OBJECT
 10
2133.0
 20
-3699.9999999999968
 30
0.0
 11
2133.0
 21
-3608.9999999999968
 31
0.0
1001
ACDBBLOCKREPETAG
1070
     1
1071
        9
1005
130EAF
  0
LINE
  5
130EB0
  8
CENTER
 10
2155.0
 20
-3655.9999999999968
 30
0.0
 11
2071.0
 21
-3655.9999999999968
 31
0.0
1001
ACDBBLOCKREPETAG
1070
     1
1071
       10
1005
130EB0
  0
LINE
  5
130EB1
  8
OBJECT
 10
2133.0
 20
-3611.9999999999968
 30
0.0
 11
2097.0
 21
-3611.9999999999968
 31
0.0
1001
ACDBBLOCKREPETAG
1070
     1
1071
       11
1005
130EB1
  0
LINE
  5
130EB2
  8
OBJECT
 10
2097.0
 20
-3611.9999999999968
 30
0.0
 11
2097.0
 21
-3699.9999999999968
 31
0.0
1001
ACDBBLOCKREPETAG
1070
     1
1071
       12
1005
130EB2
  0
LINE
  5
130EB3
  8
OBJECT
 10
2097.0
 20
-3699.9999999999968
 30
0.0
 11
2140.0
 21
-3699.9999999999968
 31
0.0
1001
ACDBBLOCKREPETAG
1070
     1
1071
       13
1005
130EB3
  0
LINE
  5
130EB4
  8
OBJECT
 10
2093.0
 20
-3616.4999999999968
 30
0.0
 11
2086.0
 21
-3616.4999999999968
 31
0.0
1001
ACDBBLOCKREPETAG
1070
     1
1071
       14
1005
130EB4
  0
LINE
  5
130EB5
  8
OBJECT
 10
2086.0
 20
-3695.4999999999968
 30
0.0
 11
2093.0
 21
-3695.4999999999968
 31
0.0
1001
ACDBBLOCKREPETAG
1070
     1
1071
       15
1005
130EB5
  0
LINE
  5
130EB6
  8
OBJECT
 10
2093.0
 20
-3695.4999999999968
 30
0.0
 11
2093.0
 21
-3616.4999999999968
 31
0.0
1001
ACDBBLOCKREPETAG
1070
     1
1071
       16
1005
130EB6
  0
LINE
  5
130EB7
  8
OBJECT
 10
2097.0
 20
-3611.9999999999968
 30
0.0
 11
2093.0
 21
-3616.4999999999968
 31
0.0
1001
ACDBBLOCKREPETAG
1070
     1
1071
       17
1005
130EB7
  0
LINE
  5
130EB8
  8
OBJECT
 10
2097.0
 20
-3699.9999999999968
 30
0.0
 11
2093.0
 21
-3695.4999999999968
 31
0.0
1001
ACDBBLOCKREPETAG
1070
     1
1071
       18
1005
130EB8
  0
LINE
  5
130EB9
  8
OBJECT
 10
2083.0
 20
-3578.9999999999968
 30
0.0
 11
2080.0
 21
-3578.9999999999968
 31
0.0
1001
ACDBBLOCKREPETAG
1070
     1
1071
       19
1005
130EB9
  0
ARC
  5
130EBA
  8
OBJECT
 10
2083.0
 20
-3581.9999999999968
 30
0.0
 40
3.0
 50
0.0
 51
90.0
1001
ACDBBLOCKREPETAG
1070
     1
1071
       20
1005
130EBA
  0
LINE
  5
130EBB
  8
OBJECT
 10
2080.0
 20
-3702.9999999999968
 30
0.0
 11
2083.0
 21
-3702.9999999999968
 31
0.0
1001
ACDBBLOCKREPETAG
1070
     1
1071
       21
1005
130EBB
  0
ARC
  5
130EBC
  8
OBJECT
 10
2083.0
 20
-3699.9999999999968
 30
0.0
 40
3.0
 50
270.0
 51
0.0
1001
ACDBBLOCKREPETAG
1070
     1
1071
       22
1005
130EBC
  0
LINE
  5
130EBD
  8
OBJECT
 10
2086.0
 20
-3699.9999999999968
 30
0.0
 11
2086.0
 21
-3581.9999999999968
 31
0.0
1001
ACDBBLOCKREPETAG
1070
     1
1071
       23
1005
130EBD
  0
LINE
  5
130EBE
  8
HIDDEN
 10
2088.0
 20
-3625.9999999999968
 30
0.0
 11
2088.0
 21
-3685.9999999999968
 31
0.0
1001
ACDBBLOCKREPETAG
1070
     1
1071
       24
1005
130EBE
  0
LINE
  5
130EBF
  8
OBJECT
 10
2133.0
 20
-3247.9999999999959
 30
0.0
 11
2140.0
 21
-3247.9999999999959
 31
0.0
1001
ACDBBLOCKREPETAG
1070
     1
1071
        7
1005
130EBF
  0
LINE
  5
130EC0
  8
OBJECT
 10
2140.0
 20
-3247.9999999999959
 30
0.0
 11
2140.0
 21
-3341.9999999999959
 31
0.0
1001
ACDBBLOCKREPETAG
1070
     1
1071
        8
1005
130EC0
  0
LINE
  5
130EC1
  8
OBJECT
 10
2140.0
 20
-3341.9999999999959
 30
0.0
 11
2133.0
 21
-3341.9999999999959
 31
0.0
1001
ACDBBLOCKREPETAG
1070
     1
1071
        9
1005
130EC1
  0
LINE
  5
130EC2
  8
OBJECT
 10
2133.0
 20
-3341.9999999999959
 30
0.0
 11
2133.0
 21
-3247.9999999999959
 31
0.0
1001
ACDBBLOCKREPETAG
1070
     1
1071
       10
1005
130EC2
  0
LINE
  5
130EC3
  8
CENTER
 10
2155.0
 20
-3294.9999999999959
 30
0.0
 11
2080.0
 21
-3294.9999999999959
 31
0.0
1001
ACDBBLOCKREPETAG
1070
     1
1071
       11
1005
130EC3
  0
LINE
  5
130EC4
  8
OBJECT
 10
2133.0
 20
-3250.9999999999959
 30
0.0
 11
2097.0
 21
-3250.9999999999959
 31
0.0
1001
ACDBBLOCKREPETAG
1070
     1
1071
       12
1005
130EC4
  0
LINE
  5
130EC5
  8
OBJECT
 10
2097.0
 20
-3250.9999999999959
 30
0.0
 11
2097.0
 21
-3338.9999999999959
 31
0.0
1001
ACDBBLOCKREPETAG
1070
     1
1071
       13
1005
130EC5
  0
LINE
  5
130EC6
  8
OBJECT
 10
2097.0
 20
-3338.9999999999959
 30
0.0
 11
2133.0
 21
-3338.9999999999959
 31
0.0
1001
ACDBBLOCKREPETAG
1070
     1
1071
       14
1005
130EC6
  0
LINE
  5
130EC7
  8
OBJECT
 10
2093.0
 20
-3255.4999999999959
 30
0.0
 11
2086.0
 21
-3255.4999999999959
 31
0.0
1001
ACDBBLOCKREPETAG
1070
     1
1071
       15
1005
130EC7
  0
LINE
  5
130EC8
  8
OBJECT
 10
2086.0
 20
-3334.4999999999959
 30
0.0
 11
2093.0
 21
-3334.4999999999959
 31
0.0
1001
ACDBBLOCKREPETAG
1070
     1
1071
       16
1005
130EC8
  0
LINE
  5
130EC9
  8
OBJECT
 10
2093.0
 20
-3334.4999999999959
 30
0.0
 11
2093.0
 21
-3255.4999999999959
 31
0.0
1001
ACDBBLOCKREPETAG
1070
     1
1071
       17
1005
130EC9
  0
LINE
  5
130ECA
  8
OBJECT
 10
2097.0
 20
-3250.9999999999959
 30
0.0
 11
2093.0
 21
-3255.4999999999959
 31
0.0
1001
ACDBBLOCKREPETAG
1070
     1
1071
       18
1005
130ECA
  0
LINE
  5
130ECB
  8
OBJECT
 10
2097.0
 20
-3338.9999999999959
 30
0.0
 11
2093.0
 21
-3334.4999999999959
 31
0.0
1001
ACDBBLOCKREPETAG
1070
     1
1071
       19
1005
130ECB
  0
LINE
  5
130ECC
  8
OBJECT
 10
2083.0
 20
-3232.9999999999959
 30
0.0
 11
2080.0
 21
-3232.9999999999959
 31
0.0
1001
ACDBBLOCKREPETAG
1070
     1
1071
       20
1005
130ECC
  0
ARC
  5
130ECD
  8
OBJECT
 10
2083.0
 20
-3235.9999999999959
 30
0.0
 40
3.0
 50
0.0
 51
90.0
1001
ACDBBLOCKREPETAG
1070
     1
1071
       21
1005
130ECD
  0
LINE
  5
130ECE
  8
OBJECT
 10
2080.0
 20
-3356.9999999999959
 30
0.0
 11
2083.0
 21
-3356.9999999999959
 31
0.0
1001
ACDBBLOCKREPETAG
1070
     1
1071
       22
1005
130ECE
  0
ARC
  5
130ECF
  8
OBJECT
 10
2083.0
 20
-3353.9999999999959
 30
0.0
 40
3.0
 50
270.0
 51
0.0
1001
ACDBBLOCKREPETAG
1070
     1
1071
       23
1005
130ECF
  0
LINE
  5
130ED0
  8
OBJECT
 10
2086.0
 20
-3353.9999999999959
 30
0.0
 11
2086.0
 21
-3235.9999999999959
 31
0.0
1001
ACDBBLOCKREPETAG
1070
     1
1071
       24
1005
130ED0
  0
LINE
  5
130ED1
  8
HIDDEN
 10
2088.0
 20
-3264.9999999999968
 30
0.0
 11
2088.0
 21
-3324.9999999999959
 31
0.0
1001
ACDBBLOCKREPETAG
1070
     1
1071
       25
1005
130ED1
  0
TEXT
  5
130ED2
  8
SLIM
 10
1896.75
 20
-3817.4999999999959
 30
0.0
 40
35.0
  1
通常枝50（1）
 41
0.75
  0
LINE
  5
130ED3
  8
SLIM
 10
3914.9999999999941
 20
-759.47385309434696
 30
0.0
 11
3919.47385309434
 21
-754.99999999999955
 31
0.0
1001
ACDBBLOCKREPETAG
1070
     1
1071
        0
1005
0
1001
ACAD
1010
0.0
1020
0.0
1030
0.0
  0
LINE
  5
130ED4
  8
SLIM
 10
3914.9999999999941
 20
-777.43436533648503
 30
0.0
 11
3937.434365336479
 21
-754.99999999999955
 31
0.0
1001
ACAD
1010
0.0
1020
0.0
1030
0.0
1001
ACDBBLOCKREPETAG
1070
     1
1071
       14
1005
130ED4
  0
LINE
  5
130ED5
  8
SLIM
 10
3914.9999999999941
 20
-795.39487757862275
 30
0.0
 11
3955.394877578618
 21
-754.99999999999955
 31
0.0
1001
ACAD
1010
0.0
1020
0.0
1030
0.0
1001
ACDBBLOCKREPETAG
1070
     1
1071
       15
1005
130ED5
  0
LINE
  5
130ED6
  8
SLIM
 10
3914.9999999999941
 20
-813.35538982076082
 30
0.0
 11
3973.3553898207551
 21
-754.99999999999955
 31
0.0
1001
ACAD
1010
0.0
1020
0.0
1030
0.0
1001
ACDBBLOCKREPETAG
1070
     1
1071
       16
1005
130ED6
  0
LINE
  5
130ED7
  8
SLIM
 10
3914.999999999995
 20
-831.31590206289854
 30
0.0
 11
3991.3159020628941
 21
-754.99999999999955
 31
0.0
1001
ACAD
1010
0.0
1020
0.0
1030
0.0
1001
ACDBBLOCKREPETAG
1070
     1
1071
       17
1005
130ED7
  0
LINE
  5
130ED8
  8
SLIM
 10
3914.999999999995
 20
-849.2764143050365
 30
0.0
 11
4009.2764143050308
 21
-754.99999999999955
 31
0.0
1001
ACAD
1010
0.0
1020
0.0
1030
0.0
1001
ACDBBLOCKREPETAG
1070
     1
1071
       18
1005
130ED8
  0
LINE
  5
130ED9
  8
SLIM
 10
3914.999999999995
 20
-867.23692654717422
 30
0.0
 11
4027.2369265471689
 21
-754.99999999999955
 31
0.0
1001
ACAD
1010
0.0
1020
0.0
1030
0.0
1001
ACDBBLOCKREPETAG
1070
     1
1071
       19
1005
130ED9
  0
LINE
  5
130EDA
  8
SLIM
 10
3914.999999999995
 20
-885.1974387893124
 30
0.0
 11
4045.1974387893069
 21
-754.99999999999955
 31
0.0
1001
ACAD
1010
0.0
1020
0.0
1030
0.0
1001
ACDBBLOCKREPETAG
1070
     1
1071
       20
1005
130EDA
  0
LINE
  5
130EDB
  8
SLIM
 10
3914.9999999999968
 20
-903.15795103145035
 30
0.0
 11
4063.157951031445
 21
-754.99999999999955
 31
0.0
1001
ACAD
1010
0.0
1020
0.0
1030
0.0
1001
ACDBBLOCKREPETAG
1070
     1
1071
       21
1005
130EDB
  0
LINE
  5
130EDC
  8
SLIM
 10
3915.1454972543161
 20
-920.97296601926894
 30
0.0
 11
4081.1184632735849
 21
-754.99999999999955
 31
0.0
1001
ACAD
1010
0.0
1020
0.0
1030
0.0
1001
ACDBBLOCKREPETAG
1070
     1
1071
       22
1005
130EDC
  0
LINE
  5
130EDD
  8
SLIM
 10
3917.104627495245
 20
-936.97434802047894
 30
0.0
 11
4085.0000000000068
 21
-769.07897551571591
 31
0.0
1001
ACAD
1010
0.0
1020
0.0
1030
0.0
1001
ACDBBLOCKREPETAG
1070
     1
1071
       23
1005
130EDD
  0
LINE
  5
130EDE
  8
SLIM
 10
3919.0637577361722
 20
-952.97573002168929
 30
0.0
 11
4085.0000000000068
 21
-787.03948775785443
 31
0.0
1001
ACAD
1010
0.0
1020
0.0
1030
0.0
1001
ACDBBLOCKREPETAG
1070
     1
1071
       24
1005
130EDE
  0
LINE
  5
130EDF
  8
SLIM
 10
3920.0
 20
-969.99999999999966
 30
0.0
 11
4085.0000000000068
 21
-804.99999999999341
 31
0.0
1001
ACAD
1010
0.0
1020
0.0
1030
0.0
1001
ACDBBLOCKREPETAG
1070
     1
1071
       25
1005
130EDF
  0
LINE
  5
130EE0
  8
SLIM
 10
3920.0
 20
-987.96051224213795
 30
0.0
 11
4085.0000000000059
 21
-822.96051224213215
 31
0.0
1001
ACAD
1010
0.0
1020
0.0
1030
0.0
1001
ACDBBLOCKREPETAG
1070
     1
1071
       26
1005
130EE0
  0
LINE
  5
130EE1
  8
SLIM
 10
3920.0
 20
-1005.921024484276
 30
0.0
 11
4085.0000000000059
 21
-840.92102448427045
 31
0.0
1001
ACAD
1010
0.0
1020
0.0
1030
0.0
1001
ACDBBLOCKREPETAG
1070
     1
1071
       27
1005
130EE1
  0
LINE
  5
130EE2
  8
SLIM
 10
3920.0
 20
-1023.881536726414
 30
0.0
 11
4085.000000000005
 21
-858.88153672640954
 31
0.0
1001
ACAD
1010
0.0
1020
0.0
1030
0.0
1001
ACDBBLOCKREPETAG
1070
     1
1071
       28
1005
130EE2
  0
LINE
  5
130EE3
  8
SLIM
 10
3920.0
 20
-1041.842048968552
 30
0.0
 11
4085.0000000000041
 21
-876.84204896854817
 31
0.0
1001
ACAD
1010
0.0
1020
0.0
1030
0.0
1001
ACDBBLOCKREPETAG
1070
     1
1071
       29
1005
130EE3
  0
LINE
  5
130EE4
  8
SLIM
 10
3920.0
 20
-1059.802561210691
 30
0.0
 11
4085.0000000000041
 21
-894.80256121068692
 31
0.0
1001
ACAD
1010
0.0
1020
0.0
1030
0.0
1001
ACDBBLOCKREPETAG
1070
     1
1071
       30
1005
130EE4
  0
LINE
  5
130EE5
  8
SLIM
 10
3920.0
 20
-1077.7630734528291
 30
0.0
 11
4085.0000000000032
 21
-912.76307345282555
 31
0.0
1001
ACAD
1010
0.0
1020
0.0
1030
0.0
1001
ACDBBLOCKREPETAG
1070
     1
1071
       31
1005
130EE5
  0
LINE
  5
130EE6
  8
SLIM
 10
3930.0
 20
-1085.723585694966
 30
0.0
 11
3930.7235856949678
 21
-1084.9999999999991
 31
0.0
1001
ACAD
1010
0.0
1020
0.0
1030
0.0
1001
ACDBBLOCKREPETAG
1070
     1
1071
       32
1005
130EE6
  0
LINE
  5
130EE7
  8
SLIM
 10
3930.7235856949678
 20
-1084.9999999999991
 30
0.0
 11
4083.4738280308079
 21
-932.24975766415935
 31
0.0
1001
ACAD
1010
0.0
1020
0.0
1030
0.0
1001
ACDBBLOCKREPETAG
1070
     1
1071
       33
1005
130EE7
  0
LINE
  5
130EE8
  8
SLIM
 10
3930.0
 20
-1103.6840979371059
 30
0.0
 11
3948.6840979371068
 21
-1084.9999999999991
 31
0.0
1001
ACAD
1010
0.0
1020
0.0
1030
0.0
1001
ACDBBLOCKREPETAG
1070
     1
1071
       34
1005
130EE8
  0
LINE
  5
130EE9
  8
SLIM
 10
3948.6840979371068
 20
-1084.9999999999991
 30
0.0
 11
4080.9680345671368
 21
-952.71606336996854
 31
0.0
1001
ACAD
1010
0.0
1020
0.0
1030
0.0
1001
ACDBBLOCKREPETAG
1070
     1
1071
       35
1005
130EE9
  0
LINE
  5
130EEA
  8
SLIM
 10
3946.6446101792449
 20
-1104.9999999999991
 30
0.0
 11
3966.6446101792449
 21
-1084.9999999999991
 31
0.0
1001
ACAD
1010
0.0
1020
0.0
1030
0.0
1001
ACDBBLOCKREPETAG
1070
     1
1071
       36
1005
130EEA
  0
LINE
  5
130EEB
  8
SLIM
 10
3966.6446101792449
 20
-1084.9999999999991
 30
0.0
 11
4080.0
 21
-971.64461017924452
 31
0.0
1001
ACAD
1010
0.0
1020
0.0
1030
0.0
1001
ACDBBLOCKREPETAG
1070
     1
1071
       37
1005
130EEB
  0
LINE
  5
130EEC
  8
SLIM
 10
3964.6051224213829
 20
-1104.9999999999991
 30
0.0
 11
3984.6051224213829
 21
-1084.9999999999991
 31
0.0
1001
ACAD
1010
0.0
1020
0.0
1030
0.0
1001
ACDBBLOCKREPETAG
1070
     1
1071
       38
1005
130EEC
  0
LINE
  5
130EED
  8
SLIM
 10
3984.6051224213829
 20
-1084.9999999999991
 30
0.0
 11
4080.0
 21
-989.60512242138304
 31
0.0
1001
ACAD
1010
0.0
1020
0.0
1030
0.0
1001
ACDBBLOCKREPETAG
1070
     1
1071
       39
1005
130EED
  0
LINE
  5
130EEE
  8
SLIM
 10
3982.565634663521
 20
-1104.9999999999991
 30
0.0
 11
4002.565634663521
 21
-1084.9999999999991
 31
0.0
1001
ACAD
1010
0.0
1020
0.0
1030
0.0
1001
ACDBBLOCKREPETAG
1070
     1
1071
       40
1005
130EEE
  0
LINE
  5
130EEF
  8
SLIM
 10
4002.565634663521
 20
-1084.9999999999991
 30
0.0
 11
4079.9999999999991
 21
-1007.565634663521
 31
0.0
1001
ACAD
1010
0.0
1020
0.0
1030
0.0
1001
ACDBBLOCKREPETAG
1070
     1
1071
       41
1005
130EEF
  0
LINE
  5
130EF0
  8
SLIM
 10
4000.5261469056582
 20
-1104.9999999999991
 30
0.0
 11
4020.52614690566
 21
-1084.9999999999991
 31
0.0
1001
ACAD
1010
0.0
1020
0.0
1030
0.0
1001
ACDBBLOCKREPETAG
1070
     1
1071
       42
1005
130EF0
  0
LINE
  5
130EF1
  8
SLIM
 10
4020.52614690566
 20
-1084.9999999999991
 30
0.0
 11
4079.9999999999991
 21
-1025.52614690566
 31
0.0
1001
ACAD
1010
0.0
1020
0.0
1030
0.0
1001
ACDBBLOCKREPETAG
1070
     1
1071
       43
1005
130EF1
  0
LINE
  5
130EF2
  8
SLIM
 10
4018.486659147798
 20
-1104.9999999999991
 30
0.0
 11
4038.486659147798
 21
-1084.9999999999991
 31
0.0
1001
ACAD
1010
0.0
1020
0.0
1030
0.0
1001
ACDBBLOCKREPETAG
1070
     1
1071
       44
1005
130EF2
  0
LINE
  5
130EF3
  8
SLIM
 10
4038.486659147798
 20
-1084.9999999999991
 30
0.0
 11
4079.9999999999991
 21
-1043.4866591477989
 31
0.0
1001
ACAD
1010
0.0
1020
0.0
1030
0.0
1001
ACDBBLOCKREPETAG
1070
     1
1071
       45
1005
130EF3
  0
LINE
  5
130EF4
  8
SLIM
 10
4036.4471713899361
 20
-1104.9999999999991
 30
0.0
 11
4056.4471713899361
 21
-1084.9999999999991
 31
0.0
1001
ACAD
1010
0.0
1020
0.0
1030
0.0
1001
ACDBBLOCKREPETAG
1070
     1
1071
       46
1005
130EF4
  0
LINE
  5
130EF5
  8
SLIM
 10
4056.4471713899361
 20
-1084.9999999999991
 30
0.0
 11
4079.9999999999991
 21
-1061.447171389937
 31
0.0
1001
ACAD
1010
0.0
1020
0.0
1030
0.0
1001
ACDBBLOCKREPETAG
1070
     1
1071
       47
1005
130EF5
  0
LINE
  5
130EF6
  8
SLIM
 10
4054.4076836320728
 20
-1104.9999999999991
 30
0.0
 11
4070.0
 21
-1089.4076836320739
 31
0.0
1001
ACAD
1010
0.0
1020
0.0
1030
0.0
1001
ACDBBLOCKREPETAG
1070
     1
1071
       48
1005
130EF6
  0
LINE
  5
130EF7
  8
SLIM
 10
4074.4076836320728
 20
-1084.9999999999991
 30
0.0
 11
4079.9999999999991
 21
-1079.407683632076
 31
0.0
1001
ACAD
1010
0.0
1020
0.0
1030
0.0
1001
ACDBBLOCKREPETAG
1070
     1
1071
       49
1005
130EF7
  0
LINE
  5
130EF8
  8
OBJECT
 10
3914.9999999999941
 20
-754.99999999999955
 30
0.0
 11
3914.9999999999968
 21
-919.78460339903484
 31
0.0
1001
ACDBBLOCKREPETAG
1070
     1
1071
        1
1005
130EF8
  0
LINE
  5
130EF9
  8
OBJECT
 10
4085.0000000000068
 20
-754.99999999999955
 30
0.0
 11
4085.0000000000032
 21
-919.78460339904154
 31
0.0
1001
ACDBBLOCKREPETAG
1070
     1
1071
        2
1005
130EF9
  0
LINE
  5
130EFA
  8
OBJECT
 10
4085.0000000000068
 20
-754.99999999999955
 30
0.0
 11
3914.9999999999941
 21
-754.99999999999955
 31
0.0
1001
ACDBBLOCKREPETAG
1070
     1
1071
        3
1005
130EFA
  0
LINE
  5
130EFB
  8
OBJECT
 10
4079.9999999999991
 20
-1084.9999999999991
 30
0.0
 11
3920.0
 21
-1084.9999999999991
 31
0.0
1001
ACDBBLOCKREPETAG
1070
     1
1071
        4
1005
130EFB
  0
LINE
  5
130EFC
  8
OBJECT
 10
3914.9999999999968
 20
-919.78460339903484
 30
0.0
 11
3920.0
 21
-960.62257748298634
 31
0.0
1001
ACDBBLOCKREPETAG
1070
     1
1071
        6
1005
130EFC
  0
LINE
  5
130EFD
  8
OBJECT
 10
3920.0
 20
-960.62257748298634
 30
0.0
 11
3920.0
 21
-1084.9999999999991
 31
0.0
1001
ACDBBLOCKREPETAG
1070
     1
1071
        7
1005
130EFD
  0
LINE
  5
130EFE
  8
OBJECT
 10
4085.0000000000032
 20
-919.78460339904154
 30
0.0
 11
4080.0
 21
-960.62257748298634
 31
0.0
1001
ACDBBLOCKREPETAG
1070
     1
1071
        8
1005
130EFE
  0
LINE
  5
130EFF
  8
OBJECT
 10
4080.0
 20
-960.62257748298634
 30
0.0
 11
4079.9999999999991
 21
-1084.9999999999991
 31
0.0
1001
ACDBBLOCKREPETAG
1070
     1
1071
        9
1005
130EFF
  0
LINE
  5
130F00
  8
OBJECT
 10
3930.0
 20
-1084.9999999999991
 30
0.0
 11
3930.0
 21
-1104.9999999999991
 31
0.0
1001
ACDBBLOCKREPETAG
1070
     1
1071
       10
1005
130F00
  0
LINE
  5
130F01
  8
OBJECT
 10
3930.0
 20
-1104.9999999999991
 30
0.0
 11
4070.0
 21
-1104.9999999999991
 31
0.0
1001
ACDBBLOCKREPETAG
1070
     1
1071
       11
1005
130F01
  0
LINE
  5
130F02
  8
OBJECT
 10
4070.0
 20
-1104.9999999999991
 30
0.0
 11
4070.0
 21
-1084.9999999999991
 31
0.0
1001
ACDBBLOCKREPETAG
1070
     1
1071
       12
1005
130F02
  0
LINE
  5
130F03
  8
HIDDEN
 10
4052.5
 20
-559.99999999999955
 30
0.0
 11
4052.5
 21
-633.99999999999955
 31
0.0
1001
ACDBBLOCKREPETAG
1070
     1
1071
      177
1005
130F03
  0
LINE
  5
130F04
  8
HIDDEN
 10
3947.5
 20
-559.99999999999955
 30
0.0
 11
3947.5
 21
-633.99999999999955
 31
0.0
1001
ACDBBLOCKREPETAG
1070
     1
1071
      176
1005
130F04
  0
LINE
  5
130F05
  8
OBJECT
 10
3920.0
 20
-877.99999999999955
 30
0.0
 11
4080.0
 21
-877.99999999999955
 31
0.0
1001
ACDBBLOCKREPETAG
1070
     1
1071
       35
1005
130F05
  0
LINE
  5
130F06
  8
OBJECT
 10
4080.0
 20
-633.99999999999955
 30
0.0
 11
3920.0
 21
-633.99999999999955
 31
0.0
1001
ACDBBLOCKREPETAG
1070
     1
1071
       36
1005
130F06
  0
LINE
  5
130F07
  8
OBJECT
 10
3920.0
 20
-877.99999999999955
 30
0.0
 11
3920.0
 21
-889.99999999999955
 31
0.0
1001
ACDBBLOCKREPETAG
1070
     1
1071
       37
1005
130F07
  0
LINE
  5
130F08
  8
OBJECT
 10
3920.0
 20
-889.99999999999955
 30
0.0
 11
4080.0
 21
-889.99999999999955
 31
0.0
1001
ACDBBLOCKREPETAG
1070
     1
1071
       38
1005
130F08
  0
LINE
  5
130F09
  8
OBJECT
 10
4080.0
 20
-889.99999999999955
 30
0.0
 11
4080.0
 21
-877.99999999999955
 31
0.0
1001
ACDBBLOCKREPETAG
1070
     1
1071
       39
1005
130F09
  0
LINE
  5
130F0A
  8
OBJECT
 10
4074.9999999998631
 20
-757.99999999985016
 30
0.0
 11
4075.0
 21
-877.99999999999955
 31
0.0
1001
ACDBBLOCKREPETAG
1070
     1
1071
       43
1005
130F0A
  0
LINE
  5
130F0B
  8
OBJECT
 10
4074.9999908029849
 20
-757.99998602702112
 30
0.0
 11
4080.0
 21
-757.99998602702112
 31
0.0
1001
ACDBBLOCKREPETAG
1070
     1
1071
       44
1005
130F0B
  0
LINE
  5
130F0C
  8
OBJECT
 10
3925.0000000001392
 20
-757.99999999985016
 30
0.0
 11
3925.0
 21
-877.99999999999955
 31
0.0
1001
ACDBBLOCKREPETAG
1070
     1
1071
       45
1005
130F0C
  0
LINE
  5
130F0D
  8
OBJECT
 10
3925.0000091970151
 20
-757.99998602702112
 30
0.0
 11
3920.0
 21
-757.99998602702112
 31
0.0
1001
ACDBBLOCKREPETAG
1070
     1
1071
       46
1005
130F0D
  0
ARC
  5
130F0E
  8
OBJECT
 10
4200.6872746716726
 20
-749.40809941010718
 30
0.0
 40
170.6350503965856
 50
137.44134459184301
 51
149.91949581337221
1001
ACDBBLOCKREPETAG
1070
     1
1071
       52
1005
130F0E
  0
ARC
  5
130F0F
  8
OBJECT
 10
4200.6872746716726
 20
-642.59190058989179
 30
0.0
 40
170.6350503965856
 50
210.08050418662771
 51
222.55865540815699
1001
ACDBBLOCKREPETAG
1070
     1
1071
       53
1005
130F0F
  0
ARC
  5
130F10
  8
OBJECT
 10
3799.3127253283278
 20
-749.40809941010718
 30
0.0
 40
170.6350503965856
 50
30.08050418662782
 51
42.558655408456282
1001
ACDBBLOCKREPETAG
1070
     1
1071
       54
1005
130F10
  0
ARC
  5
130F11
  8
OBJECT
 10
3799.3127253283278
 20
-642.59190058989179
 30
0.0
 40
170.6350503965856
 50
317.44134459154373
 51
329.91949581337218
1001
ACDBBLOCKREPETAG
1070
     1
1071
       55
1005
130F11
  0
LINE
  5
130F12
  8
OBJECT
 10
4060.0
 20
-627.99999999999955
 30
0.0
 11
3940.0
 21
-627.99999999999955
 31
0.0
1001
ACDBBLOCKREPETAG
1070
     1
1071
      168
1005
130F12
  0
ARC
  5
130F13
  8
OBJECT
 10
3940.0
 20
-630.99999999999955
 30
0.0
 40
3.0
 50
90.0
 51
180.0
1001
ACDBBLOCKREPETAG
1070
     1
1071
      169
1005
130F13
  0
LINE
  5
130F14
  8
OBJECT
 10
3937.0
 20
-630.99999999999955
 30
0.0
 11
3937.0
 21
-633.99999999999955
 31
0.0
1001
ACDBBLOCKREPETAG
1070
     1
1071
      170
1005
130F14
  0
LINE
  5
130F15
  8
OBJECT
 10
4063.0
 20
-630.99999999999955
 30
0.0
 11
4063.0
 21
-633.99999999999955
 31
0.0
1001
ACDBBLOCKREPETAG
1070
     1
1071
      171
1005
130F15
  0
ARC
  5
130F16
  8
OBJECT
 10
4060.0
 20
-630.99999999999955
 30
0.0
 40
3.0
 50
0.0
 51
90.0
1001
ACDBBLOCKREPETAG
1070
     1
1071
      172
1005
130F16
  0
LINE
  5
130F17
  8
OBJECT
 10
3943.0
 20
-559.99999999999955
 30
0.0
 11
3943.0
 21
-627.99999999999955
 31
0.0
1001
ACDBBLOCKREPETAG
1070
     1
1071
      173
1005
130F17
  0
LINE
  5
130F18
  8
OBJECT
 10
4057.0
 20
-559.99999999999955
 30
0.0
 11
3943.0
 21
-559.99999999999955
 31
0.0
1001
ACDBBLOCKREPETAG
1070
     1
1071
      174
1005
130F18
  0
LINE
  5
130F19
  8
OBJECT
 10
4057.0
 20
-559.99999999999955
 30
0.0
 11
4057.0
 21
-627.99999999999955
 31
0.0
1001
ACDBBLOCKREPETAG
1070
     1
1071
      175
1005
130F19
  0
LINE
  5
130F1A
  8
CENTER
 10
4000.0
 20
-544.99999999999955
 30
0.0
 11
4000.0
 21
-889.99999999999955
 31
0.0
1001
ACDBBLOCKREPETAG
1070
     1
1071
       34
1005
130F1A
  0
POINT
  5
130F1B
  8
DOTS
 10
4000.0
 20
-754.99999999999955
 30
0.0
1001
ACDBBLOCKREPETAG
1070
     1
1071
      193
1005
130F1B
  0
LINE
  5
130F1C
  8
HIDDEN
 10
2052.5
 20
-559.99999999999955
 30
0.0
 11
2052.5
 21
-633.99999999999955
 31
0.0
1001
ACDBBLOCKREPETAG
1070
     1
1071
      177
1005
130F1C
  0
LINE
  5
130F1D
  8
HIDDEN
 10
1947.5
 20
-559.99999999999955
 30
0.0
 11
1947.5
 21
-633.99999999999955
 31
0.0
1001
ACDBBLOCKREPETAG
1070
     1
1071
      176
1005
130F1D
  0
LINE
  5
130F1E
  8
OBJECT
 10
1920.0
 20
-877.99999999999955
 30
0.0
 11
2080.0
 21
-877.99999999999955
 31
0.0
1001
ACDBBLOCKREPETAG
1070
     1
1071
       35
1005
130F1E
  0
LINE
  5
130F1F
  8
OBJECT
 10
2080.0
 20
-633.99999999999955
 30
0.0
 11
1920.0
 21
-633.99999999999955
 31
0.0
1001
ACDBBLOCKREPETAG
1070
     1
1071
       36
1005
130F1F
  0
LINE
  5
130F20
  8
OBJECT
 10
1920.0
 20
-877.99999999999955
 30
0.0
 11
1920.0
 21
-889.99999999999955
 31
0.0
1001
ACDBBLOCKREPETAG
1070
     1
1071
       37
1005
130F20
  0
LINE
  5
130F21
  8
OBJECT
 10
1920.0
 20
-889.99999999999955
 30
0.0
 11
2080.0
 21
-889.99999999999955
 31
0.0
1001
ACDBBLOCKREPETAG
1070
     1
1071
       38
1005
130F21
  0
LINE
  5
130F22
  8
OBJECT
 10
2080.0
 20
-889.99999999999955
 30
0.0
 11
2080.0
 21
-877.99999999999955
 31
0.0
1001
ACDBBLOCKREPETAG
1070
     1
1071
       39
1005
130F22
  0
LINE
  5
130F23
  8
OBJECT
 10
2074.9999999998622
 20
-757.99999999985016
 30
0.0
 11
2075.0
 21
-877.99999999999955
 31
0.0
1001
ACDBBLOCKREPETAG
1070
     1
1071
       43
1005
130F23
  0
LINE
  5
130F24
  8
OBJECT
 10
2074.9999908029849
 20
-757.99998602702112
 30
0.0
 11
2080.0
 21
-757.99998602702112
 31
0.0
1001
ACDBBLOCKREPETAG
1070
     1
1071
       44
1005
130F24
  0
LINE
  5
130F25
  8
OBJECT
 10
1925.000000000138
 20
-757.99999999985016
 30
0.0
 11
1925.0
 21
-877.99999999999955
 31
0.0
1001
ACDBBLOCKREPETAG
1070
     1
1071
       45
1005
130F25
  0
LINE
  5
130F26
  8
OBJECT
 10
1925.000009197013
 20
-757.99998602702112
 30
0.0
 11
1920.0
 21
-757.99998602702112
 31
0.0
1001
ACDBBLOCKREPETAG
1070
     1
1071
       46
1005
130F26
  0
ARC
  5
130F27
  8
OBJECT
 10
2200.6872746716731
 20
-749.40809941010718
 30
0.0
 40
170.6350503965856
 50
137.44134459184301
 51
149.91949581336559
1001
ACDBBLOCKREPETAG
1070
     1
1071
       52
1005
130F27
  0
ARC
  5
130F28
  8
OBJECT
 10
2200.6872746716731
 20
-642.59190058989179
 30
0.0
 40
170.6350503965856
 50
210.0805041866343
 51
222.55865540815699
1001
ACDBBLOCKREPETAG
1070
     1
1071
       53
1005
130F28
  0
ARC
  5
130F29
  8
OBJECT
 10
1799.312725328326
 20
-749.40809941010718
 30
0.0
 40
170.6350503965856
 50
30.080504186634339
 51
42.558655408447471
1001
ACDBBLOCKREPETAG
1070
     1
1071
       54
1005
130F29
  0
ARC
  5
130F2A
  8
OBJECT
 10
1799.312725328326
 20
-642.59190058989179
 30
0.0
 40
170.6350503965856
 50
317.44134459155248
 51
329.91949581336559
1001
ACDBBLOCKREPETAG
1070
     1
1071
       55
1005
130F2A
  0
LINE
  5
130F2B
  8
OBJECT
 10
2060.0
 20
-627.99999999999955
 30
0.0
 11
1940.0
 21
-627.99999999999955
 31
0.0
1001
ACDBBLOCKREPETAG
1070
     1
1071
      168
1005
130F2B
  0
ARC
  5
130F2C
  8
OBJECT
 10
1940.0
 20
-630.99999999999955
 30
0.0
 40
3.0
 50
90.0
 51
180.0
1001
ACDBBLOCKREPETAG
1070
     1
1071
      169
1005
130F2C
  0
LINE
  5
130F2D
  8
OBJECT
 10
1937.0
 20
-630.99999999999955
 30
0.0
 11
1937.0
 21
-633.99999999999955
 31
0.0
1001
ACDBBLOCKREPETAG
1070
     1
1071
      170
1005
130F2D
  0
LINE
  5
130F2E
  8
OBJECT
 10
2063.0
 20
-630.99999999999955
 30
0.0
 11
2063.0
 21
-633.99999999999955
 31
0.0
1001
ACDBBLOCKREPETAG
1070
     1
1071
      171
1005
130F2E
  0
ARC
  5
130F2F
  8
OBJECT
 10
2060.0
 20
-630.99999999999955
 30
0.0
 40
3.0
 50
0.0
 51
90.0
1001
ACDBBLOCKREPETAG
1070
     1
1071
      172
1005
130F2F
  0
LINE
  5
130F30
  8
OBJECT
 10
1943.0
 20
-559.99999999999955
 30
0.0
 11
1943.0
 21
-627.99999999999955
 31
0.0
1001
ACDBBLOCKREPETAG
1070
     1
1071
      173
1005
130F30
  0
LINE
  5
130F31
  8
OBJECT
 10
2057.0
 20
-559.99999999999955
 30
0.0
 11
1943.0
 21
-559.99999999999955
 31
0.0
1001
ACDBBLOCKREPETAG
1070
     1
1071
      174
1005
130F31
  0
LINE
  5
130F32
  8
OBJECT
 10
2057.0
 20
-559.99999999999955
 30
0.0
 11
2057.0
 21
-627.99999999999955
 31
0.0
1001
ACDBBLOCKREPETAG
1070
     1
1071
      175
1005
130F32
  0
LINE
  5
130F33
  8
CENTER
 10
2000.0
 20
-544.99999999999955
 30
0.0
 11
2000.0
 21
-889.99999999999955
 31
0.0
1001
ACDBBLOCKREPETAG
1070
     1
1071
       34
1005
130F33
  0
POINT
  5
130F34
  8
DOTS
 10
2000.0
 20
-754.99999999999955
 30
0.0
1001
ACDBBLOCKREPETAG
1070
     1
1071
      193
1005
130F34
  0
LINE
  5
130F35
  8
OBJECT
 10
3930.0
 20
-1199.999999999997
 30
0.0
 11
4070.0
 21
-1199.999999999997
 31
0.0
1001
ACDBBLOCKREPETAG
1070
     1
1071
        0
1005
130F35
  0
LINE
  5
130F36
  8
OBJECT
 10
3930.0
 20
-1199.999999999997
 30
0.0
 11
3930.0
 21
-959.99999999999693
 31
0.0
1001
ACDBBLOCKREPETAG
1070
     1
1071
        1
1005
130F36
  0
LINE
  5
130F37
  8
OBJECT
 10
4070.0
 20
-1199.999999999997
 30
0.0
 11
4070.0
 21
-959.99999999999693
 31
0.0
1001
ACDBBLOCKREPETAG
1070
     1
1071
        2
1005
130F37
  0
LINE
  5
130F38
  8
OBJECT
 10
3930.0
 20
-959.99999999999693
 30
0.0
 11
4070.0
 21
-959.99999999999693
 31
0.0
1001
ACDBBLOCKREPETAG
1070
     1
1071
        3
1005
130F38
  0
LINE
  5
130F39
  8
HIDDEN
 10
3937.5
 20
-959.99999999999693
 30
0.0
 11
3937.5
 21
-1199.999999999997
 31
0.0
1001
ACDBBLOCKREPETAG
1070
     1
1071
        4
1005
130F39
  0
LINE
  5
130F3A
  8
HIDDEN
 10
4062.5
 20
-959.99999999999693
 30
0.0
 11
4062.5
 21
-1199.999999999997
 31
0.0
1001
ACDBBLOCKREPETAG
1070
     1
1071
        5
1005
130F3A
  0
LINE
  5
130F3B
  8
CENTER
 10
4000.0
 20
-889.99999999999875
 30
0.0
 11
4000.0
 21
-1214.999999999997
 31
0.0
1001
ACDBBLOCKREPETAG
1070
     1
1071
        6
1005
130F3B
  0
LINE
  5
130F3C
  8
OBJECT
 10
3925.0
 20
-889.99999999999875
 30
0.0
 11
3925.0
 21
-919.99999999999693
 31
0.0
1001
ACDBBLOCKREPETAG
1070
     1
1071
        7
1005
130F3C
  0
LINE
  5
130F3D
  8
OBJECT
 10
4075.0000000000032
 20
-889.99999999999875
 30
0.0
 11
4075.0
 21
-919.99999999999693
 31
0.0
1001
ACDBBLOCKREPETAG
1070
     1
1071
        8
1005
130F3D
  0
LINE
  5
130F3E
  8
OBJECT
 10
3925.0
 20
-919.99999999999693
 30
0.0
 11
4075.0
 21
-919.99999999999693
 31
0.0
1001
ACDBBLOCKREPETAG
1070
     1
1071
        9
1005
130F3E
  0
LINE
  5
130F3F
  8
OBJECT
 10
3925.0
 20
-919.99999999999693
 30
0.0
 11
3930.0
 21
-959.99999999999693
 31
0.0
1001
ACDBBLOCKREPETAG
1070
     1
1071
       10
1005
130F3F
  0
LINE
  5
130F40
  8
OBJECT
 10
4070.0
 20
-959.99999999999693
 30
0.0
 11
4075.0
 21
-919.99999999999693
 31
0.0
1001
ACDBBLOCKREPETAG
1070
     1
1071
       11
1005
130F40
  0
LINE
  5
130F41
  8
OBJECT
 10
1930.0
 20
-1199.999999999997
 30
0.0
 11
2070.0
 21
-1199.999999999997
 31
0.0
1001
ACDBBLOCKREPETAG
1070
     1
1071
        0
1005
130F41
  0
LINE
  5
130F42
  8
OBJECT
 10
1930.0
 20
-1199.999999999997
 30
0.0
 11
1930.0
 21
-959.99999999999784
 31
0.0
1001
ACDBBLOCKREPETAG
1070
     1
1071
        1
1005
130F42
  0
LINE
  5
130F43
  8
OBJECT
 10
2070.0
 20
-1199.999999999997
 30
0.0
 11
2070.0
 21
-959.99999999999784
 31
0.0
1001
ACDBBLOCKREPETAG
1070
     1
1071
        2
1005
130F43
  0
LINE
  5
130F44
  8
OBJECT
 10
1930.0
 20
-959.99999999999784
 30
0.0
 11
2070.0
 21
-959.99999999999784
 31
0.0
1001
ACDBBLOCKREPETAG
1070
     1
1071
        3
1005
130F44
  0
LINE
  5
130F45
  8
HIDDEN
 10
1937.5
 20
-959.99999999999784
 30
0.0
 11
1937.5
 21
-1199.999999999997
 31
0.0
1001
ACDBBLOCKREPETAG
1070
     1
1071
        4
1005
130F45
  0
LINE
  5
130F46
  8
HIDDEN
 10
2062.5
 20
-959.99999999999784
 30
0.0
 11
2062.5
 21
-1199.999999999997
 31
0.0
1001
ACDBBLOCKREPETAG
1070
     1
1071
        5
1005
130F46
  0
LINE
  5
130F47
  8
CENTER
 10
2000.0
 20
-889.99999999999955
 30
0.0
 11
2000.0
 21
-1214.999999999998
 31
0.0
1001
ACDBBLOCKREPETAG
1070
     1
1071
        6
1005
130F47
  0
LINE
  5
130F48
  8
OBJECT
 10
1925.0
 20
-889.99999999999955
 30
0.0
 11
1925.0
 21
-919.99999999999761
 31
0.0
1001
ACDBBLOCKREPETAG
1070
     1
1071
        7
1005
130F48
  0
LINE
  5
130F49
  8
OBJECT
 10
2075.0000000000041
 20
-889.99999999999955
 30
0.0
 11
2075.0
 21
-919.99999999999761
 31
0.0
1001
ACDBBLOCKREPETAG
1070
     1
1071
        8
1005
130F49
  0
LINE
  5
130F4A
  8
OBJECT
 10
1925.0
 20
-919.99999999999761
 30
0.0
 11
2075.0
 21
-919.99999999999761
 31
0.0
1001
ACDBBLOCKREPETAG
1070
     1
1071
        9
1005
130F4A
  0
LINE
  5
130F4B
  8
OBJECT
 10
1925.0
 20
-919.99999999999761
 30
0.0
 11
1930.0
 21
-959.99999999999784
 31
0.0
1001
ACDBBLOCKREPETAG
1070
     1
1071
       10
1005
130F4B
  0
LINE
  5
130F4C
  8
OBJECT
 10
2070.0
 20
-959.99999999999784
 30
0.0
 11
2075.0
 21
-919.99999999999761
 31
0.0
1001
ACDBBLOCKREPETAG
1070
     1
1071
       11
1005
130F4C
  0
TEXT
  5
130F4D
  8
SLIM
 10
3741.6250000000009
 20
-1467.499999999997
 30
0.0
 40
35.0
  1
片受けスタイル（S）＋シンドカット
 41
0.75
  0
TEXT
  5
130F4E
  8
SLIM
 10
1856.25
 20
-1467.499999999998
 30
0.0
 40
35.0
  1
片受けスタイル（S）
 41
0.75
  0
VIEWPORT
  5
F6BA7
 67
     1
  8
0
 10
145.33033752441401
 20
101.8328354358673
 30
0.0
 40
334.0025019414623
 41
222.19657968139651
 68
     1
 69
     1
1001
ACAD
1000
MVIEW
1002
{
1070
    16
1010
0.0
1020
0.0
1030
0.0
1010
0.0
1020
0.0
1030
1.0
1040
0.0
1040
222.19657968139651
1040
145.33033752441401
1040
101.8328354358673
1040
50.0
1040
0.0
1040
0.0
1070
     0
1070
     0
1070
     1
1070
     1
1070
     0
1070
     0
1070
     0
1070
     0
1040
0.0
1040
0.0
1040
0.0
1040
10.0
1040
10.0
1040
10.0
1040
10.0
1070
     0
1002
{
1002
}
1002
}
  0
VIEWPORT
  5
F6BA9
 67
     1
  8
OBJECT
 10
145.3303314447403
 20
101.8328338861465
 30
0.0
 40
232.5285303115844
 41
162.93253421783439
 68
     2
 69
     2
1001
ACAD
1000
MVIEW
1002
{
1070
    16
1010
0.0
1020
0.0
1030
0.0
1010
0.0
1020
0.0
1030
1.0
1040
0.0
1040
25942.55904403147
1040
2377.604457077377
1040
-7591.5176687056619
1040
50.0
1040
0.0
1040
0.0
1070
     0
1070
   600
1070
     1
1070
     1
1070
     0
1070
     0
1070
     0
1070
     0
1040
0.0
1040
0.0
1040
0.0
1040
1.0
1040
1.0
1040
0.0
1040
0.0
1070
     0
1002
{
1002
}
1002
}
  0
ENDSEC
  0
EOF
