  0
SECTION
  2
HEADER
  9
$ACADVER
  1
AC1009
  9
$INSBASE
 10
0.0
 20
0.0
 30
0.0
  9
$EXTMIN
 10
0.0
 20
-3717.4999999999959073
 30
0.0
  9
$EXTMAX
 10
5572.1802475027534456
 20
607.5
 30
0.0
  9
$LIMMIN
 10
0.0
 20
0.0
  9
$LIMMAX
 10
210.0
 20
297.0
  9
$ORTHOMODE
 70
     0
  9
$REGENMODE
 70
     1
  9
$FILLMODE
 70
     1
  9
$QTEXTMODE
 70
     0
  9
$MIRRTEXT
 70
     0
  9
$DRAGMODE
 70
     2
  9
$LTSCALE
 40
1.0
  9
$OSMODE
 70
  2541
  9
$ATTMODE
 70
     1
  9
$TEXTSIZE
 40
4.0
  9
$TRACEWID
 40
0.05
  9
$TEXTSTYLE
  7
STANDARD
  9
$CLAYER
  8
OBJECT
  9
$CELTYPE
  6
BYLAYER
  9
$CECOLOR
 62
   256
  9
$DIMSCALE
 40
10.0
  9
$DIMASZ
 40
2.0
  9
$DIMEXO
 40
1.0
  9
$DIMDLI
 40
10.0
  9
$DIMRND
 40
0.0
  9
$DIMDLE
 40
0.0
  9
$DIMEXE
 40
1.0
  9
$DIMTP
 40
0.0
  9
$DIMTM
 40
0.0
  9
$DIMTXT
 40
3.2000000000000002
  9
$DIMCEN
 40
0.0
  9
$DIMTSZ
 40
0.0
  9
$DIMTOL
 70
     0
  9
$DIMLIM
 70
     0
  9
$DIMTIH
 70
     0
  9
$DIMTOH
 70
     0
  9
$DIMSE1
 70
     0
  9
$DIMSE2
 70
     0
  9
$DIMTAD
 70
     1
  9
$DIMZIN
 70
     8
  9
$DIMBLK
  1
OPEN30
  9
$DIMASO
 70
     1
  9
$DIMSHO
 70
     1
  9
$DIMPOST
  1

  9
$DIMAPOST
  1

  9
$DIMALT
 70
     0
  9
$DIMALTD
 70
     2
  9
$DIMALTF
 40
25.3999999999999986
  9
$DIMLFAC
 40
1.0
  9
$DIMTOFL
 70
     1
  9
$DIMTVP
 40
0.0
  9
$DIMTIX
 70
     0
  9
$DIMSOXD
 70
     0
  9
$DIMSAH
 70
     0
  9
$DIMBLK1
  1

  9
$DIMBLK2
  1

  9
$DIMSTYLE
  2
S10
  9
$DIMCLRD
 70
   256
  9
$DIMCLRE
 70
   256
  9
$DIMCLRT
 70
   256
  9
$DIMTFAC
 40
1.0
  9
$DIMGAP
 40
0.9
  9
$LUNITS
 70
     2
  9
$LUPREC
 70
     2
  9
$SKETCHINC
 40
0.1
  9
$FILLETRAD
 40
0.0
  9
$AUNITS
 70
     0
  9
$AUPREC
 70
     2
  9
$MENU
  1
ACAD
  9
$ELEVATION
 40
0.0
  9
$PELEVATION
 40
0.0
  9
$THICKNESS
 40
0.0
  9
$LIMCHECK
 70
     0
  9
$BLIPMODE
 70
     0
  9
$CHAMFERA
 40
2.0
  9
$CHAMFERB
 40
2.0
  9
$SKPOLY
 70
     0
  9
$TDCREATE
 40
2453095.4929398149251938
  9
$TDUPDATE
 40
2458275.8171759261749685
  9
$TDINDWG
 40
18.3887598031999993
  9
$TDUSRTIMER
 40
18.3887592592999987
  9
$USRTIMER
 70
     1
  9
$ANGBASE
 50
0.0
  9
$ANGDIR
 70
     0
  9
$PDMODE
 70
    35
  9
$PDSIZE
 40
2.0
  9
$PLINEWID
 40
0.0
  9
$COORDS
 70
     1
  9
$SPLFRAME
 70
     0
  9
$SPLINETYPE
 70
     6
  9
$SPLINESEGS
 70
     8
  9
$ATTDIA
 70
     1
  9
$ATTREQ
 70
     1
  9
$HANDLING
 70
     1
  9
$HANDSEED
  5
129C62
  9
$SURFTAB1
 70
     6
  9
$SURFTAB2
 70
     6
  9
$SURFTYPE
 70
     6
  9
$SURFU
 70
     6
  9
$SURFV
 70
     6
  9
$UCSNAME
  2

  9
$UCSORG
 10
0.0
 20
0.0
 30
0.0
  9
$UCSXDIR
 10
1.0
 20
0.0
 30
0.0
  9
$UCSYDIR
 10
0.0
 20
1.0
 30
0.0
  9
$PUCSNAME
  2

  9
$PUCSORG
 10
0.0
 20
0.0
 30
0.0
  9
$PUCSXDIR
 10
1.0
 20
0.0
 30
0.0
  9
$PUCSYDIR
 10
0.0
 20
1.0
 30
0.0
  9
$USERI1
 70
     0
  9
$USERI2
 70
     0
  9
$USERI3
 70
     0
  9
$USERI4
 70
     0
  9
$USERI5
 70
     0
  9
$USERR1
 40
0.0
  9
$USERR2
 40
0.0
  9
$USERR3
 40
0.0
  9
$USERR4
 40
0.0
  9
$USERR5
 40
0.0
  9
$WORLDVIEW
 70
     1
  9
$SHADEDGE
 70
     3
  9
$SHADEDIF
 70
    70
  9
$TILEMODE
 70
     1
  9
$MAXACTVP
 70
    64
  9
$PLIMCHECK
 70
     0
  9
$PEXTMIN
 10
29.0660662889480506
 20
20.3665667772293091
 30
0.0
  9
$PEXTMAX
 10
261.5945966005324976
 20
183.2991009950638102
 30
0.0
  9
$PLIMMIN
 10
-3.17498779296875
 20
-3.1749999523162842
  9
$PLIMMAX
 10
293.835662841796875
 20
206.8406708240509033
  9
$UNITMODE
 70
     0
  9
$VISRETAIN
 70
     1
  9
$PLINEGEN
 70
     0
  9
$PSLTSCALE
 70
     1
  0
ENDSEC
  0
SECTION
  2
TABLES
  0
TABLE
  2
VPORT
 70
     1
  0
VPORT
  2
*ACTIVE
 70
     0
 10
0.0
 20
0.0
 11
1.0
 21
1.0
 12
8618.7999035128668766
 22
-3576.3431849295629945
 13
0.0
 23
0.0
 14
1.0
 24
1.0
 15
0.0
 25
0.0
 16
0.0
 26
0.0
 36
1.0
 17
0.0
 27
0.0
 37
0.0
 40
22159.1395623707103368
 41
1.6828947368421041
 42
50.0
 43
0.0
 44
0.0
 50
0.0
 51
0.0
 71
     0
 72
   600
 73
     1
 74
     1
 75
     0
 76
     0
 77
     0
 78
     0
  0
ENDTAB
  0
TABLE
  2
LTYPE
 70
     3
  0
LTYPE
  2
CONTINUOUS
 70
     0
  3
Solid line
 72
    65
 73
     0
 40
0.0
  0
LTYPE
  2
ACAD_ISO08W100
 70
     0
  3
ISO long-dash short-dash ____ __ ____ __ ____ _
 72
    65
 73
     4
 40
36.0
 49
24.0
 49
-3.0
 49
6.0
 49
-3.0
  0
LTYPE
  2
ACAD_ISO02W100
 70
     0
  3
ISO dash __ __ __ __ __ __ __ __ __ __ __ __ __
 72
    65
 73
     2
 40
15.0
 49
12.0
 49
-3.0
  0
ENDTAB
  0
TABLE
  2
LAYER
 70
     8
  0
LAYER
  2
0
 70
     0
 62
     7
  6
CONTINUOUS
  0
LAYER
  2
OBJECT
 70
     0
 62
     4
  6
CONTINUOUS
  0
LAYER
  2
DEFPOINTS
 70
     0
 62
     7
  6
CONTINUOUS
  0
LAYER
  2
DIM
 70
     0
 62
     7
  6
CONTINUOUS
  0
LAYER
  2
HIDDEN
 70
     0
 62
     2
  6
ACAD_ISO02W100
  0
LAYER
  2
CENTER
 70
     0
 62
     2
  6
ACAD_ISO08W100
  0
LAYER
  2
DOTS
 70
     0
 62
     1
  6
CONTINUOUS
  0
LAYER
  2
SLIM
 70
     0
 62
     2
  6
CONTINUOUS
  0
ENDTAB
  0
TABLE
  2
STYLE
 70
     2
  0
STYLE
  2
STANDARD
 70
     0
 40
0.0
 41
0.75
 50
0.0
 71
     0
 42
4.0
  3
simplex.shx
  4
bigfont.shx
  0
ENDTAB
  0
TABLE
  2
VIEW
 70
     0
  0
ENDTAB
  0
TABLE
  2
UCS
 70
     0
  0
ENDTAB
  0
TABLE
  2
APPID
 70
    18
  0
APPID
  2
ACAD
 70
     0
  0
APPID
  2
ACADANNOTATIVE
 70
     0
  0
APPID
  2
ACAD_PSEXT
 70
     0
  0
APPID
  2
ACAD_EXEMPT_FROM_CAD_STANDARDS
 70
     0
  0
APPID
  2
ACAECLAYERSTANDARD
 70
     0
  0
APPID
  2
ACAUTHENVIRON
 70
     0
  0
APPID
  2
ACDBDYNAMICBLOCKTRUENAME
 70
     0
  0
APPID
  2
ACDBDYNAMICBLOCKGUID
 70
     0
  0
APPID
  2
ACDBBLOCKREPETAG
 70
     0
  0
APPID
  2
ACDBBLOCKREPBTAG
 70
     0
  0
APPID
  2
ACAD_NAV_VCDISPLAY
 70
     0
  0
APPID
  2
ACAD_DSTYLE_DIMRADIAL_EXTENSION
 70
     0
  0
APPID
  2
ACAD_DSTYLE_DIMJAG
 70
     0
  0
APPID
  2
ACAD_DSTYLE_DIMTALN
 70
     0
  0
APPID
  2
ACADANNOPO
 70
     0
  0
APPID
  2
GRADIENTCOLOR1ACI
 70
     0
  0
APPID
  2
GRADIENTCOLOR2ACI
 70
     0
  0
APPID
  2
ACAD_MLEADERVER
 70
     0
  0
ENDTAB
  0
TABLE
  2
DIMSTYLE
 70
     3
  0
DIMSTYLE
  2
STANDARD
 70
     0
  3

  4

  5

  6

  7

 40
1.0
 41
0.18
 42
0.0625
 43
0.38
 44
0.18
 45
0.0
 46
0.0
 47
0.0
 48
0.0
140
0.18
141
0.09
142
0.0
143
25.3999999999999986
144
1.0
145
0.0
146
1.0
147
0.09
 71
     0
 72
     0
 73
     1
 74
     1
 75
     0
 76
     0
 77
     0
 78
     0
170
     0
171
     2
172
     0
173
     0
174
     0
175
     0
176
     0
177
     0
178
     0
  0
DIMSTYLE
  2
S10
 70
     0
  3

  4

  5

  6

  7

 40
10.0
 41
2.0
 42
1.0
 43
10.0
 44
1.0
 45
0.0
 46
0.0
 47
0.0
 48
0.0
140
3.2000000000000002
141
0.0
142
0.0
143
25.3999999999999986
144
1.0
145
0.0
146
1.0
147
0.9
 71
     0
 72
     0
 73
     0
 74
     0
 75
     0
 76
     0
 77
     1
 78
     8
170
     0
171
     2
172
     1
173
     0
174
     0
175
     0
176
   256
177
   256
178
   256
  0
ENDTAB
  0
ENDSEC
  0
SECTION
  2
BLOCKS
  0
BLOCK
  8
0
  2
$MODEL_SPACE
 70
     0
 10
0.0
 20
0.0
 30
0.0
  3
$MODEL_SPACE
  1

  0
ENDBLK
  5
129BAC
  8
0
  0
BLOCK
 67
     1
  8
0
  2
$PAPER_SPACE
 70
     0
 10
0.0
 20
0.0
 30
0.0
  3
$PAPER_SPACE
  1

  0
ENDBLK
  5
129BA8
 67
     1
  8
0
  0
BLOCK
  8
0
  2
_OPEN30
 70
     0
 10
0.0
 20
0.0
 30
0.0
  3
_OPEN30
  1

  0
LINE
  5
202
  8
0
  6
BYBLOCK
 62
     0
 10
-1.0
 20
0.26794919
 30
0.0
 11
0.0
 21
0.0
 31
0.0
  0
LINE
  5
203
  8
0
  6
BYBLOCK
 62
     0
 10
0.0
 20
0.0
 30
0.0
 11
-1.0
 21
-0.26794919
 31
0.0
  0
LINE
  5
204
  8
0
  6
BYBLOCK
 62
     0
 10
0.0
 20
0.0
 30
0.0
 11
-1.0
 21
0.0
 31
0.0
  0
ENDBLK
  5
206
  8
0
  0
BLOCK
  8
0
  2
*U7
 70
     1
 10
0.0
 20
0.0
 30
0.0
  3
*U7
  1

  0
TEXT
  5
129B09
  8
DIM
 10
2206.6598680972119837
 20
-3204.142857142855064
 30
0.0
 40
32.0
  1
A
 50
90.0
 41
0.75
  0
ENDBLK
  5
129B0B
  8
0
  0
BLOCK
  8
0
  2
*U8
 70
     1
 10
0.0
 20
0.0
 30
0.0
  3
*U8
  1

  0
TEXT
  5
129B0D
  8
DIM
 10
2205.0211759064868602
 20
-3585.999999999998181
 30
0.0
 40
32.0
  1
B
 50
90.0
 41
0.75
  0
ENDBLK
  5
129B0F
  8
0
  0
BLOCK
  8
0
  2
*U9
 70
     1
 10
0.0
 20
0.0
 30
0.0
  3
*U9
  1

  0
TEXT
  5
129B11
  8
DIM
 10
2058.6088189313250041
 20
-3058.2081219844440056
 30
0.0
 40
32.0
  1
C
 41
0.75
  0
ENDBLK
  5
129B13
  8
0
  0
BLOCK
  8
0
  2
*U10
 70
     1
 10
0.0
 20
0.0
 30
0.0
  3
*U10
  1

  0
TEXT
  5
129B15
  8
DIM
 10
3840.6616440113211866
 20
-1022.7428571428559962
 30
0.0
 40
32.0
  1
m（シンドカット）
 50
90.0
 41
0.75
  0
ENDBLK
  5
129B17
  8
0
  0
BLOCK
  8
0
  2
*U11
 70
     1
 10
0.0
 20
0.0
 30
0.0
  3
*U11
  1

  0
TEXT
  5
129B19
  8
SLIM
 10
509.0476190477407954
 20
-586.7500000000095497
 30
0.0
 40
26.0
  1
100
  0
ENDBLK
  5
129B1B
  8
0
  0
BLOCK
  8
0
  2
*U12
 70
     1
 10
0.0
 20
0.0
 30
0.0
  3
*U12
  1

  0
TEXT
  5
129B1D
  8
SLIM
 10
158.9523809524228
 20
-594.0000000000095497
 30
0.0
 40
26.0
  1
75
  0
ENDBLK
  5
129B1F
  8
0
  0
BLOCK
  8
0
  2
*U13
 70
     1
 10
0.0
 20
0.0
 30
0.0
  3
*U13
  1

  0
TEXT
  5
129B21
  8
SLIM
 10
518.9523809525028355
 20
-130.0000000000032117
 30
0.0
 40
26.0
  1
65
  0
ENDBLK
  5
129B23
  8
0
  0
BLOCK
  8
0
  2
*U14
 70
     1
 10
0.0
 20
0.0
 30
0.0
  3
*U14
  1

  0
TEXT
  5
129B25
  8
SLIM
 10
158.9523809524228
 20
-130.0000000000032117
 30
0.0
 40
26.0
  1
50
  0
ENDBLK
  5
129B27
  8
0
  0
ENDSEC
  0
SECTION
  2
ENTITIES
  0
TEXT
  5
122A4E
  8
SLIM
 10
-0.0000000000000011
 20
282.5
 30
0.0
 40
35.0
  1
※ 100枝（4）がある場合、品名の最後に【管底】が付きます。
 41
0.9
 11
0.0
 21
300.0
 31
0.0
 73
     2
  0
LINE
  5
125161
  8
SLIM
 10
2616.0
 20
-2657.5000160472700372
 30
0.0
 11
2616.0
 21
-2987.5000160472700372
 31
0.0
  0
LINE
  5
125162
  8
SLIM
 10
2740.0
 20
-2657.5000160472700372
 30
0.0
 11
2740.0
 21
-2987.5000160472700372
 31
0.0
  0
LINE
  5
125163
  8
SLIM
 10
2870.0
 20
-2717.5000160472700372
 30
0.0
 11
2870.0
 21
-2987.5000160472700372
 31
0.0
  0
LINE
  5
125164
  8
SLIM
 10
3000.0
 20
-2717.5000160472700372
 30
0.0
 11
3000.0
 21
-2987.5000160472700372
 31
0.0
  0
LINE
  5
125165
  8
SLIM
 10
3130.0
 20
-2987.5000160472700372
 30
0.0
 11
3130.0
 21
-2717.5000160472700372
 31
0.0
  0
LINE
  5
125166
  8
SLIM
 10
3260.0
 20
-2987.5000160472700372
 30
0.0
 11
3260.0
 21
-2657.5000160472700372
 31
0.0
  0
LINE
  5
125167
  8
SLIM
 10
3260.0
 20
-2657.5000160472700372
 30
0.0
 11
2616.0
 21
-2657.5000160472700372
 31
0.0
  0
LINE
  5
125168
  8
SLIM
 10
3260.0
 20
-2717.5000160472700372
 30
0.0
 11
2740.0
 21
-2717.5000160472700372
 31
0.0
  0
LINE
  5
125169
  8
SLIM
 10
3260.0
 20
-2777.5000160472700372
 30
0.0
 11
2616.0
 21
-2777.5000160472700372
 31
0.0
  0
LINE
  5
12516A
  8
SLIM
 10
3260.0
 20
-2847.5000160472700372
 30
0.0
 11
2616.0
 21
-2847.5000160472700372
 31
0.0
  0
LINE
  5
12516B
  8
SLIM
 10
3260.0
 20
-2917.5000160472700372
 30
0.0
 11
2616.0
 21
-2917.5000160472700372
 31
0.0
  0
LINE
  5
12516C
  8
SLIM
 10
3260.0
 20
-2987.5000160472700372
 30
0.0
 11
2616.0
 21
-2987.5000160472700372
 31
0.0
  0
LINE
  5
125181
  8
SLIM
 10
2740.0
 20
-2777.5000160472700372
 30
0.0
 11
2615.9999722746579209
 21
-2657.5
 31
0.0
  0
LINE
  5
126D2F
  8
SLIM
 10
4850.0
 20
-664.9999999999959073
 30
0.0
 11
4850.0
 21
-1384.9999999999959073
 31
0.0
  0
LINE
  5
126D30
  8
SLIM
 10
4954.0
 20
-1384.9999999999959073
 30
0.0
 11
4954.0
 21
-664.9999999999959073
 31
0.0
  0
LINE
  5
126D31
  8
SLIM
 10
5102.0
 20
-664.9999999999959073
 30
0.0
 11
4850.0
 21
-664.9999999999959073
 31
0.0
  0
LINE
  5
126D32
  8
SLIM
 10
5102.0
 20
-712.9999999999959073
 30
0.0
 11
4850.0
 21
-712.9999999999959073
 31
0.0
  0
LINE
  5
126D34
  8
SLIM
 10
5102.0
 20
-760.9999999999959073
 30
0.0
 11
4850.0
 21
-760.9999999999959073
 31
0.0
  0
LINE
  5
126D35
  8
SLIM
 10
5102.0
 20
-808.9999999999959073
 30
0.0
 11
4850.0
 21
-808.9999999999959073
 31
0.0
  0
LINE
  5
126D36
  8
SLIM
 10
5102.0
 20
-856.9999999999959073
 30
0.0
 11
4850.0
 21
-856.9999999999959073
 31
0.0
  0
LINE
  5
126D3A
  8
SLIM
 10
5102.0
 20
-904.9999999999959073
 30
0.0
 11
4850.0
 21
-904.9999999999959073
 31
0.0
  0
LINE
  5
126D3C
  8
SLIM
 10
5102.0
 20
-952.9999999999955662
 30
0.0
 11
4850.0
 21
-952.9999999999955662
 31
0.0
  0
LINE
  5
126D3E
  8
SLIM
 10
5102.0
 20
-1000.999999999996021
 30
0.0
 11
4850.0
 21
-1000.999999999996021
 31
0.0
  0
LINE
  5
126D40
  8
SLIM
 10
5102.0
 20
-1048.9999999999959073
 30
0.0
 11
4850.0
 21
-1048.9999999999959073
 31
0.0
  0
LINE
  5
126D42
  8
SLIM
 10
5102.0
 20
-1096.9999999999959073
 30
0.0
 11
4850.0
 21
-1096.9999999999959073
 31
0.0
  0
LINE
  5
126D44
  8
SLIM
 10
5102.0
 20
-1144.9999999999959073
 30
0.0
 11
4850.0
 21
-1144.9999999999959073
 31
0.0
  0
LINE
  5
126D46
  8
SLIM
 10
5102.0
 20
-1192.9999999999959073
 30
0.0
 11
4850.0
 21
-1192.9999999999959073
 31
0.0
  0
LINE
  5
126D48
  8
SLIM
 10
5102.0
 20
-1240.9999999999959073
 30
0.0
 11
4850.0
 21
-1240.9999999999959073
 31
0.0
  0
LINE
  5
126D4A
  8
SLIM
 10
5102.0
 20
-1288.9999999999959073
 30
0.0
 11
4850.0
 21
-1288.9999999999959073
 31
0.0
  0
LINE
  5
126D4C
  8
SLIM
 10
5102.0
 20
-1336.9999999999959073
 30
0.0
 11
4850.0
 21
-1336.9999999999959073
 31
0.0
  0
LINE
  5
126D4E
  8
SLIM
 10
5102.0
 20
-1384.9999999999959073
 30
0.0
 11
4850.0
 21
-1384.9999999999959073
 31
0.0
  0
LINE
  5
126D51
  8
SLIM
 10
5102.0
 20
-664.9999999999959073
 30
0.0
 11
5102.0
 21
-1384.9999999999959073
 31
0.0
  0
LINE
  5
12913C
  8
OBJECT
 10
1822.1802475027529908
 20
-3599.9999999999959073
 30
0.0
 11
5572.1802475027534456
 21
-3599.9999999999959073
 31
0.0
  0
LINE
  5
129171
  8
CENTER
 10
5397.1802475027534456
 20
-3379.9999999999968168
 30
0.0
 11
5397.1802475027534456
 21
-3614.9999999999968168
 31
0.0
1001
ACDBBLOCKREPETAG
1070
     1
1071
       25
1005
129171
  0
LINE
  5
129172
  8
OBJECT
 10
5322.1802475027534456
 20
-3478.9999999999968168
 30
0.0
 11
5322.1802475027534456
 21
-3602.9999999999968168
 31
0.0
1001
ACDBBLOCKREPETAG
1070
     1
1071
       26
1005
129172
  0
LINE
  5
129173
  8
OBJECT
 10
5472.1802475027552646
 20
-3478.9999999999968168
 30
0.0
 11
5472.1802475027552646
 21
-3602.9999999999968168
 31
0.0
1001
ACDBBLOCKREPETAG
1070
     1
1071
       34
1005
129173
  0
POINT
  5
129174
  8
DOTS
 10
5397.1802475027534456
 20
-3599.9999999999968168
 30
0.0
1001
ACDBBLOCKREPETAG
1070
     1
1071
      187
1005
129174
  0
LINE
  5
129175
  8
CENTER
 10
5307.1802475027543551
 20
-3527.9999999999968168
 30
0.0
 11
5487.1802475027534456
 21
-3527.9999999999968168
 31
0.0
1001
ACDBBLOCKREPETAG
1070
     1
1071
       23
1005
129175
  0
CIRCLE
  5
129176
  8
OBJECT
 10
5397.1802475027534456
 20
-3527.9999999999968168
 30
0.0
 40
53.5
1001
ACDBBLOCKREPETAG
1070
     1
1071
       24
1005
129176
  0
CIRCLE
  5
129177
  8
OBJECT
 10
5397.1802475027534456
 20
-3527.9999999999968168
 30
0.0
 40
67.0
1001
ACDBBLOCKREPETAG
1070
     1
1071
       25
1005
129177
  0
ARC
  5
129178
  8
OBJECT
 10
5397.1802475027534456
 20
-3527.9999999999968168
 30
0.0
 40
75.0
 50
286.2602047082399963
 51
253.73979529175989
1001
ACDBBLOCKREPETAG
1070
     1
1071
       27
1005
129178
  0
LINE
  5
129179
  8
OBJECT
 10
5376.1802475027543551
 20
-3599.9999999999968168
 30
0.0
 11
5418.1802475027534456
 21
-3599.9999999999968168
 31
0.0
1001
ACDBBLOCKREPETAG
1070
     1
1071
       28
1005
129179
  0
LINE
  5
129196
  8
OBJECT
 10
5457.1802475027552646
 20
-3472.9999999999968168
 30
0.0
 11
5448.1704426386841078
 21
-3472.9999999999968168
 31
0.0
1001
ACDBBLOCKREPETAG
1070
     1
1071
      215
1005
129196
  0
LINE
  5
129197
  8
OBJECT
 10
5346.1900523668246024
 20
-3472.9999999999968168
 30
0.0
 11
5337.1802475027543551
 21
-3472.9999999999968168
 31
0.0
1001
ACDBBLOCKREPETAG
1070
     1
1071
      215
1005
129196
  0
ARC
  5
129198
  8
OBJECT
 10
5337.1802475027543551
 20
-3475.9999999999968168
 30
0.0
 40
3.0
 50
90.0
 51
180.0
1001
ACDBBLOCKREPETAG
1070
     1
1071
      216
1005
129198
  0
LINE
  5
129199
  8
OBJECT
 10
5334.1802475027543551
 20
-3475.9999999999968168
 30
0.0
 11
5334.1802475027543551
 21
-3478.9999999999968168
 31
0.0
1001
ACDBBLOCKREPETAG
1070
     1
1071
      217
1005
129199
  0
LINE
  5
12919A
  8
OBJECT
 10
5460.1802475027552646
 20
-3475.9999999999968168
 30
0.0
 11
5460.1802475027552646
 21
-3478.9999999999968168
 31
0.0
1001
ACDBBLOCKREPETAG
1070
     1
1071
      218
1005
12919A
  0
ARC
  5
12919B
  8
OBJECT
 10
5457.1802475027552646
 20
-3475.9999999999968168
 30
0.0
 40
3.0
 50
0.0
 51
90.0
1001
ACDBBLOCKREPETAG
1070
     1
1071
      219
1005
12919B
  0
LINE
  5
12919C
  8
OBJECT
 10
5340.1802475027543551
 20
-3404.9999999999968168
 30
0.0
 11
5340.1802475027543551
 21
-3472.9999999999968168
 31
0.0
1001
ACDBBLOCKREPETAG
1070
     1
1071
      220
1005
12919C
  0
LINE
  5
12919D
  8
OBJECT
 10
5454.1802475027552646
 20
-3404.9999999999968168
 30
0.0
 11
5340.1802475027543551
 21
-3404.9999999999968168
 31
0.0
1001
ACDBBLOCKREPETAG
1070
     1
1071
      221
1005
12919D
  0
LINE
  5
12919E
  8
OBJECT
 10
5454.1802475027552646
 20
-3404.9999999999968168
 30
0.0
 11
5454.1802475027552646
 21
-3472.9999999999968168
 31
0.0
1001
ACDBBLOCKREPETAG
1070
     1
1071
      222
1005
12919E
  0
LINE
  5
12919F
  8
HIDDEN
 10
5449.6802475027552646
 20
-3404.9999999999968168
 30
0.0
 11
5449.6802475027552646
 21
-3478.9999999999968168
 31
0.0
1001
ACDBBLOCKREPETAG
1070
     1
1071
      224
1005
12919F
  0
LINE
  5
1291A0
  8
HIDDEN
 10
5344.6802475027543551
 20
-3404.9999999999968168
 30
0.0
 11
5344.6802475027543551
 21
-3478.9999999999968168
 31
0.0
1001
ACDBBLOCKREPETAG
1070
     1
1071
      225
1005
1291A0
  0
LINE
  5
1291A1
  8
OBJECT
 10
5472.1802475027552646
 20
-3478.9999999999968168
 30
0.0
 11
5453.9605257690682265
 21
-3478.9999999999968168
 31
0.0
1001
ACDBBLOCKREPETAG
1070
     1
1071
       30
1005
1291A1
  0
LINE
  5
1291A2
  8
OBJECT
 10
5340.3999692364413932
 20
-3478.9999999999968168
 30
0.0
 11
5322.1802475027534456
 21
-3478.9999999999968168
 31
0.0
1001
ACDBBLOCKREPETAG
1070
     1
1071
       30
1005
1291A1
  0
LINE
  5
1296EB
  8
CENTER
 10
5077.1802475027534456
 20
-3194.9999999999959073
 30
0.0
 11
4902.1802475027534456
 21
-3194.9999999999959073
 31
0.0
1001
ACDBBLOCKREPETAG
1070
     1
1071
       14
1005
1296EB
  0
LINE
  5
1296EC
  8
CENTER
 10
4997.1802475027543551
 20
-3289.9999999999959073
 30
0.0
 11
4997.1802475027543551
 21
-3099.9999999999959073
 31
0.0
1001
ACDBBLOCKREPETAG
1070
     1
1071
       15
1005
1296EC
  0
CIRCLE
  5
1296ED
  8
OBJECT
 10
4997.1802475027543551
 20
-3194.9999999999959073
 30
0.0
 40
75.0
1001
ACDBBLOCKREPETAG
1070
     1
1071
       17
1005
1296ED
  0
ARC
  5
1296EE
  8
OBJECT
 10
4997.1802475027543551
 20
-3194.9999999999959073
 30
0.0
 40
80.0
 50
50.805032573882329
 51
309.1949674261177279
1001
ACDBBLOCKREPETAG
1070
     1
1071
       18
1005
1296EE
  0
LINE
  5
1296EF
  8
OBJECT
 10
5039.3821431947726524
 20
-3132.9999999999959073
 30
0.0
 11
5077.1802475027534456
 21
-3132.9999999999959073
 31
0.0
1001
ACDBBLOCKREPETAG
1070
     1
1071
       19
1005
1296EF
  0
LINE
  5
1296F0
  8
OBJECT
 10
5039.3821431947726524
 20
-3256.9999999999959073
 30
0.0
 11
5077.1802475027534456
 21
-3256.9999999999959073
 31
0.0
1001
ACDBBLOCKREPETAG
1070
     1
1071
       20
1005
1296F0
  0
POINT
  5
1296F1
  8
DOTS
 10
4997.1802475027543551
 20
-3194.9999999999959073
 30
0.0
1001
ACDBBLOCKREPETAG
1070
     1
1071
       21
1005
1296F1
  0
CIRCLE
  5
1296F2
  8
OBJECT
 10
4997.1802475027543551
 20
-3194.9999999999959073
 30
0.0
 40
52.5
1001
ACDBBLOCKREPETAG
1070
     1
1071
      494
1005
1296F2
  0
CIRCLE
  5
1296F3
  8
OBJECT
 10
4997.1802475027543551
 20
-3194.9999999999959073
 30
0.0
 40
57.0
1001
ACDBBLOCKREPETAG
1070
     1
1071
      483
1005
1296F3
  0
LINE
  5
1296F4
  8
CENTER
 10
4077.1802475027520813
 20
-3194.9999999999959073
 30
0.0
 11
3902.1802475027529908
 21
-3194.9999999999959073
 31
0.0
1001
ACDBBLOCKREPETAG
1070
     1
1071
       14
1005
1296F4
  0
LINE
  5
1296F5
  8
CENTER
 10
3997.1802475027529908
 20
-3289.9999999999959073
 30
0.0
 11
3997.1802475027529908
 21
-3099.9999999999959073
 31
0.0
1001
ACDBBLOCKREPETAG
1070
     1
1071
       15
1005
1296F5
  0
CIRCLE
  5
1296F6
  8
OBJECT
 10
3997.1802475027529908
 20
-3194.9999999999959073
 30
0.0
 40
75.0
1001
ACDBBLOCKREPETAG
1070
     1
1071
       17
1005
1296F6
  0
ARC
  5
1296F7
  8
OBJECT
 10
3997.1802475027529908
 20
-3194.9999999999959073
 30
0.0
 40
80.0
 50
50.8050325738621282
 51
309.1949674261379073
1001
ACDBBLOCKREPETAG
1070
     1
1071
       18
1005
1296F7
  0
LINE
  5
1296F8
  8
OBJECT
 10
4039.3821431947721976
 20
-3132.9999999999959073
 30
0.0
 11
4077.1802475027520813
 21
-3132.9999999999959073
 31
0.0
1001
ACDBBLOCKREPETAG
1070
     1
1071
       19
1005
1296F8
  0
LINE
  5
1296F9
  8
OBJECT
 10
4039.3821431947721976
 20
-3256.9999999999959073
 30
0.0
 11
4077.1802475027520813
 21
-3256.9999999999959073
 31
0.0
1001
ACDBBLOCKREPETAG
1070
     1
1071
       20
1005
1296F9
  0
POINT
  5
1296FA
  8
DOTS
 10
3997.1802475027529908
 20
-3194.9999999999959073
 30
0.0
1001
ACDBBLOCKREPETAG
1070
     1
1071
       21
1005
1296FA
  0
CIRCLE
  5
1296FB
  8
OBJECT
 10
3997.1802475027529908
 20
-3194.9999999999959073
 30
0.0
 40
52.5
1001
ACDBBLOCKREPETAG
1070
     1
1071
      494
1005
1296FB
  0
CIRCLE
  5
1296FC
  8
OBJECT
 10
3997.1802475027529908
 20
-3194.9999999999959073
 30
0.0
 40
57.0
1001
ACDBBLOCKREPETAG
1070
     1
1071
      483
1005
1296FC
  0
LINE
  5
1296FD
  8
CENTER
 10
3077.1802475027539003
 20
-3194.9999999999959073
 30
0.0
 11
2902.1802475027548098
 21
-3194.9999999999959073
 31
0.0
1001
ACDBBLOCKREPETAG
1070
     1
1071
       14
1005
1296FD
  0
LINE
  5
1296FE
  8
CENTER
 10
2997.1802475027539003
 20
-3289.9999999999959073
 30
0.0
 11
2997.1802475027539003
 21
-3099.9999999999959073
 31
0.0
1001
ACDBBLOCKREPETAG
1070
     1
1071
       15
1005
1296FE
  0
CIRCLE
  5
1296FF
  8
OBJECT
 10
2997.1802475027539003
 20
-3194.9999999999959073
 30
0.0
 40
75.0
1001
ACDBBLOCKREPETAG
1070
     1
1071
       17
1005
1296FF
  0
ARC
  5
129700
  8
OBJECT
 10
2997.1802475027539003
 20
-3194.9999999999959073
 30
0.0
 40
80.0
 50
50.8050325738621282
 51
309.1949674261379073
1001
ACDBBLOCKREPETAG
1070
     1
1071
       18
1005
129700
  0
LINE
  5
129701
  8
OBJECT
 10
3039.3821431947721976
 20
-3132.9999999999959073
 30
0.0
 11
3077.1802475027539003
 21
-3132.9999999999959073
 31
0.0
1001
ACDBBLOCKREPETAG
1070
     1
1071
       19
1005
129701
  0
LINE
  5
129702
  8
OBJECT
 10
3039.3821431947721976
 20
-3256.9999999999959073
 30
0.0
 11
3077.1802475027539003
 21
-3256.9999999999959073
 31
0.0
1001
ACDBBLOCKREPETAG
1070
     1
1071
       20
1005
129702
  0
POINT
  5
129703
  8
DOTS
 10
2997.1802475027539003
 20
-3194.9999999999959073
 30
0.0
1001
ACDBBLOCKREPETAG
1070
     1
1071
       21
1005
129703
  0
CIRCLE
  5
129704
  8
OBJECT
 10
2997.1802475027539003
 20
-3194.9999999999959073
 30
0.0
 40
52.5
1001
ACDBBLOCKREPETAG
1070
     1
1071
      494
1005
129704
  0
CIRCLE
  5
129705
  8
OBJECT
 10
2997.1802475027539003
 20
-3194.9999999999959073
 30
0.0
 40
57.0
1001
ACDBBLOCKREPETAG
1070
     1
1071
      483
1005
129705
  0
LINE
  5
129706
  8
CENTER
 10
2077.1802475027539003
 20
-3194.9999999999959073
 30
0.0
 11
1902.1802475027529908
 21
-3194.9999999999959073
 31
0.0
1001
ACDBBLOCKREPETAG
1070
     1
1071
       14
1005
129706
  0
LINE
  5
129707
  8
CENTER
 10
1997.1802475027529908
 20
-3289.9999999999959073
 30
0.0
 11
1997.1802475027529908
 21
-3099.9999999999959073
 31
0.0
1001
ACDBBLOCKREPETAG
1070
     1
1071
       15
1005
129707
  0
CIRCLE
  5
129708
  8
OBJECT
 10
1997.1802475027529908
 20
-3194.9999999999959073
 30
0.0
 40
75.0
1001
ACDBBLOCKREPETAG
1070
     1
1071
       17
1005
129708
  0
ARC
  5
129709
  8
OBJECT
 10
1997.1802475027529908
 20
-3194.9999999999959073
 30
0.0
 40
80.0
 50
50.8050325738621282
 51
309.1949674261379073
1001
ACDBBLOCKREPETAG
1070
     1
1071
       18
1005
129709
  0
LINE
  5
12970A
  8
OBJECT
 10
2039.3821431947731071
 20
-3132.9999999999959073
 30
0.0
 11
2077.1802475027539003
 21
-3132.9999999999959073
 31
0.0
1001
ACDBBLOCKREPETAG
1070
     1
1071
       19
1005
12970A
  0
LINE
  5
12970B
  8
OBJECT
 10
2039.3821431947731071
 20
-3256.9999999999959073
 30
0.0
 11
2077.1802475027539003
 21
-3256.9999999999959073
 31
0.0
1001
ACDBBLOCKREPETAG
1070
     1
1071
       20
1005
12970B
  0
POINT
  5
12970C
  8
DOTS
 10
1997.1802475027529908
 20
-3194.9999999999959073
 30
0.0
1001
ACDBBLOCKREPETAG
1070
     1
1071
       21
1005
12970C
  0
CIRCLE
  5
12970D
  8
OBJECT
 10
1997.1802475027529908
 20
-3194.9999999999959073
 30
0.0
 40
52.5
1001
ACDBBLOCKREPETAG
1070
     1
1071
      494
1005
12970D
  0
CIRCLE
  5
12970E
  8
OBJECT
 10
1997.1802475027529908
 20
-3194.9999999999959073
 30
0.0
 40
57.0
1001
ACDBBLOCKREPETAG
1070
     1
1071
      483
1005
12970E
  0
LINE
  5
12970F
  8
OBJECT
 10
4922.1802475027552646
 20
-3478.9999999999968168
 30
0.0
 11
4922.1802475027552646
 21
-3602.9999999999968168
 31
0.0
1001
ACDBBLOCKREPETAG
1070
     1
1071
        6
1005
12970F
  0
LINE
  5
129710
  8
OBJECT
 10
5072.1802475025533568
 20
-3602.9999999997758096
 30
0.0
 11
5077.1802475027534456
 21
-3602.9999999999968168
 31
0.0
1001
ACDBBLOCKREPETAG
1070
     1
1071
        9
1005
129710
  0
LINE
  5
129711
  8
OBJECT
 10
5077.1802475027534456
 20
-3478.9999999999968168
 30
0.0
 11
4922.1802475027552646
 21
-3478.9999999999968168
 31
0.0
1001
ACDBBLOCKREPETAG
1070
     1
1071
       10
1005
129711
  0
ARC
  5
129712
  8
OBJECT
 10
5197.8675221744251758
 20
-3594.4080994101050237
 30
0.0
 40
170.6350503965855978
 50
137.4413445918430057
 51
149.9194958133664102
1001
ACDBBLOCKREPETAG
1070
     1
1071
       15
1005
129712
  0
ARC
  5
129713
  8
OBJECT
 10
5116.0258462068040899
 20
-3550.8827266953630897
 30
0.0
 40
78.0722220217636647
 50
147.4551531037683105
 51
164.6636599771929923
1001
ACDBBLOCKREPETAG
1070
     1
1071
       16
1005
129713
  0
ARC
  5
129714
  8
OBJECT
 10
5082.9356824636270176
 20
-3540.9999999999968168
 30
0.0
 40
43.5535392688561771
 50
165.6884523008477004
 51
194.3115476991521859
1001
ACDBBLOCKREPETAG
1070
     1
1071
       17
1005
129714
  0
ARC
  5
129715
  8
OBJECT
 10
5197.8675221744251758
 20
-3487.5919005898881551
 30
0.0
 40
170.6350503965855978
 50
210.0805041866335046
 51
222.5586554081569943
1001
ACDBBLOCKREPETAG
1070
     1
1071
       18
1005
129715
  0
ARC
  5
129716
  8
OBJECT
 10
5116.0258462068040899
 20
-3531.1172733046328176
 30
0.0
 40
78.0722220217636647
 50
195.3363400228070077
 51
212.5448468962316042
1001
ACDBBLOCKREPETAG
1070
     1
1071
       19
1005
129716
  0
POINT
  5
129717
  8
DOTS
 10
4997.1802475027543551
 20
-3599.9999999999968168
 30
0.0
1001
ACDBBLOCKREPETAG
1070
     1
1071
      186
1005
129717
  0
LINE
  5
129718
  8
OBJECT
 10
5057.1802475027543551
 20
-3472.9999999999968168
 30
0.0
 11
4937.1802475027534456
 21
-3472.9999999999968168
 31
0.0
1001
ACDBBLOCKREPETAG
1070
     1
1071
      215
1005
129718
  0
ARC
  5
129719
  8
OBJECT
 10
4937.1802475027534456
 20
-3475.9999999999968168
 30
0.0
 40
3.0
 50
90.0
 51
180.0
1001
ACDBBLOCKREPETAG
1070
     1
1071
      216
1005
129719
  0
LINE
  5
12971A
  8
OBJECT
 10
4934.1802475027534456
 20
-3475.9999999999968168
 30
0.0
 11
4934.1802475027534456
 21
-3478.9999999999968168
 31
0.0
1001
ACDBBLOCKREPETAG
1070
     1
1071
      217
1005
12971A
  0
LINE
  5
12971B
  8
OBJECT
 10
5060.1802475027552646
 20
-3475.9999999999968168
 30
0.0
 11
5060.1802475027552646
 21
-3478.9999999999968168
 31
0.0
1001
ACDBBLOCKREPETAG
1070
     1
1071
      218
1005
12971B
  0
ARC
  5
12971C
  8
OBJECT
 10
5057.1802475027543551
 20
-3475.9999999999968168
 30
0.0
 40
3.0
 50
0.0
 51
90.0
1001
ACDBBLOCKREPETAG
1070
     1
1071
      219
1005
12971C
  0
LINE
  5
12971D
  8
OBJECT
 10
4940.1802475027543551
 20
-3404.9999999999968168
 30
0.0
 11
4940.1802475027543551
 21
-3472.9999999999968168
 31
0.0
1001
ACDBBLOCKREPETAG
1070
     1
1071
      220
1005
12971D
  0
LINE
  5
12971E
  8
OBJECT
 10
5054.1802475027534456
 20
-3404.9999999999968168
 30
0.0
 11
4940.1802475027543551
 21
-3404.9999999999968168
 31
0.0
1001
ACDBBLOCKREPETAG
1070
     1
1071
      221
1005
12971E
  0
LINE
  5
12971F
  8
OBJECT
 10
5054.1802475027534456
 20
-3404.9999999999968168
 30
0.0
 11
5054.1802475027534456
 21
-3472.9999999999968168
 31
0.0
1001
ACDBBLOCKREPETAG
1070
     1
1071
      222
1005
12971F
  0
LINE
  5
129720
  8
CENTER
 10
4997.1802475027543551
 20
-3389.9999999999968168
 30
0.0
 11
4997.1802475027543551
 21
-3614.9999999999968168
 31
0.0
1001
ACDBBLOCKREPETAG
1070
     1
1071
      223
1005
129720
  0
LINE
  5
129721
  8
HIDDEN
 10
5049.6802475027534456
 20
-3404.9999999999968168
 30
0.0
 11
5049.6802475027534456
 21
-3478.9999999999968168
 31
0.0
1001
ACDBBLOCKREPETAG
1070
     1
1071
      224
1005
129721
  0
LINE
  5
129722
  8
HIDDEN
 10
4944.6802475027552646
 20
-3404.9999999999968168
 30
0.0
 11
4944.6802475027552646
 21
-3478.9999999999968168
 31
0.0
1001
ACDBBLOCKREPETAG
1070
     1
1071
      225
1005
129722
  0
LINE
  5
129723
  8
OBJECT
 10
4322.1802475027516266
 20
-3478.9999999999968168
 30
0.0
 11
4322.1802475027516266
 21
-3602.9999999999968168
 31
0.0
1001
ACDBBLOCKREPETAG
1070
     1
1071
       26
1005
129723
  0
LINE
  5
129724
  8
OBJECT
 10
4472.1802475027552646
 20
-3478.9999999999968168
 30
0.0
 11
4322.1802475027516266
 21
-3478.9999999999968168
 31
0.0
1001
ACDBBLOCKREPETAG
1070
     1
1071
       30
1005
129724
  0
LINE
  5
129725
  8
OBJECT
 10
4472.1802475027552646
 20
-3478.9999999999968168
 30
0.0
 11
4472.1802475027552646
 21
-3602.9999999999968168
 31
0.0
1001
ACDBBLOCKREPETAG
1070
     1
1071
       34
1005
129725
  0
POINT
  5
129726
  8
DOTS
 10
4397.1802475027516266
 20
-3599.9999999999968168
 30
0.0
1001
ACDBBLOCKREPETAG
1070
     1
1071
      187
1005
129726
  0
LINE
  5
129727
  8
OBJECT
 10
4457.1802475027516266
 20
-3472.9999999999968168
 30
0.0
 11
4337.1802475027534456
 21
-3472.9999999999968168
 31
0.0
1001
ACDBBLOCKREPETAG
1070
     1
1071
      226
1005
129727
  0
ARC
  5
129728
  8
OBJECT
 10
4337.1802475027534456
 20
-3475.9999999999968168
 30
0.0
 40
3.0
 50
90.0
 51
180.0
1001
ACDBBLOCKREPETAG
1070
     1
1071
      227
1005
129728
  0
LINE
  5
129729
  8
OBJECT
 10
4334.1802475027534456
 20
-3475.9999999999968168
 30
0.0
 11
4334.1802475027534456
 21
-3478.9999999999968168
 31
0.0
1001
ACDBBLOCKREPETAG
1070
     1
1071
      228
1005
129729
  0
LINE
  5
12972A
  8
OBJECT
 10
4460.1802475027516266
 20
-3475.9999999999968168
 30
0.0
 11
4460.1802475027516266
 21
-3478.9999999999968168
 31
0.0
1001
ACDBBLOCKREPETAG
1070
     1
1071
      229
1005
12972A
  0
ARC
  5
12972B
  8
OBJECT
 10
4457.1802475027516266
 20
-3475.9999999999968168
 30
0.0
 40
3.0
 50
0.0
 51
90.0
1001
ACDBBLOCKREPETAG
1070
     1
1071
      230
1005
12972B
  0
LINE
  5
12972C
  8
OBJECT
 10
4340.1802475027516266
 20
-3404.9999999999968168
 30
0.0
 11
4340.1802475027516266
 21
-3472.9999999999968168
 31
0.0
1001
ACDBBLOCKREPETAG
1070
     1
1071
      231
1005
12972C
  0
LINE
  5
12972D
  8
OBJECT
 10
4454.1802475027516266
 20
-3404.9999999999968168
 30
0.0
 11
4340.1802475027516266
 21
-3404.9999999999968168
 31
0.0
1001
ACDBBLOCKREPETAG
1070
     1
1071
      232
1005
12972D
  0
LINE
  5
12972E
  8
OBJECT
 10
4454.1802475027516266
 20
-3404.9999999999968168
 30
0.0
 11
4454.1802475027516266
 21
-3472.9999999999968168
 31
0.0
1001
ACDBBLOCKREPETAG
1070
     1
1071
      233
1005
12972E
  0
LINE
  5
12972F
  8
CENTER
 10
4397.1802475027516266
 20
-3389.9999999999968168
 30
0.0
 11
4397.1802475027516266
 21
-3614.9999999999968168
 31
0.0
1001
ACDBBLOCKREPETAG
1070
     1
1071
      234
1005
12972F
  0
LINE
  5
129730
  8
HIDDEN
 10
4449.6802475027534456
 20
-3404.9999999999968168
 30
0.0
 11
4449.6802475027534456
 21
-3478.9999999999968168
 31
0.0
1001
ACDBBLOCKREPETAG
1070
     1
1071
      235
1005
129730
  0
LINE
  5
129731
  8
HIDDEN
 10
4344.6802475027516266
 20
-3404.9999999999968168
 30
0.0
 11
4344.6802475027516266
 21
-3478.9999999999968168
 31
0.0
1001
ACDBBLOCKREPETAG
1070
     1
1071
      236
1005
129731
  0
LINE
  5
129732
  8
OBJECT
 10
3922.1802475027548098
 20
-3478.9999999999968168
 30
0.0
 11
3922.1802475027548098
 21
-3602.9999999999968168
 31
0.0
1001
ACDBBLOCKREPETAG
1070
     1
1071
        6
1005
129732
  0
LINE
  5
129733
  8
OBJECT
 10
4072.180247502552902
 20
-3602.9999999997758096
 30
0.0
 11
4077.1802475027520813
 21
-3602.9999999999968168
 31
0.0
1001
ACDBBLOCKREPETAG
1070
     1
1071
        9
1005
129733
  0
LINE
  5
129734
  8
OBJECT
 10
4077.1802475027520813
 20
-3478.9999999999968168
 30
0.0
 11
3922.1802475027548098
 21
-3478.9999999999968168
 31
0.0
1001
ACDBBLOCKREPETAG
1070
     1
1071
       10
1005
129734
  0
ARC
  5
129735
  8
OBJECT
 10
4197.8675221744251758
 20
-3594.4080994101050237
 30
0.0
 40
170.6350503965855978
 50
137.4413445918430057
 51
149.9194958133664102
1001
ACDBBLOCKREPETAG
1070
     1
1071
       15
1005
129735
  0
ARC
  5
129736
  8
OBJECT
 10
4116.0258462068049994
 20
-3550.8827266953630897
 30
0.0
 40
78.0722220217636647
 50
147.4551531037683105
 51
164.6636599771860858
1001
ACDBBLOCKREPETAG
1070
     1
1071
       16
1005
129736
  0
ARC
  5
129737
  8
OBJECT
 10
4082.9356824636261081
 20
-3540.9999999999968168
 30
0.0
 40
43.5535392688561771
 50
165.6884523008477004
 51
194.3115476991521859
1001
ACDBBLOCKREPETAG
1070
     1
1071
       17
1005
129737
  0
ARC
  5
129738
  8
OBJECT
 10
4197.8675221744251758
 20
-3487.5919005898881551
 30
0.0
 40
170.6350503965855978
 50
210.0805041866335046
 51
222.5586554081569943
1001
ACDBBLOCKREPETAG
1070
     1
1071
       18
1005
129738
  0
ARC
  5
129739
  8
OBJECT
 10
4116.0258462068049994
 20
-3531.1172733046328176
 30
0.0
 40
78.0722220217636647
 50
195.3363400228139142
 51
212.5448468962316042
1001
ACDBBLOCKREPETAG
1070
     1
1071
       19
1005
129739
  0
POINT
  5
12973A
  8
DOTS
 10
3997.1802475027529908
 20
-3599.9999999999968168
 30
0.0
1001
ACDBBLOCKREPETAG
1070
     1
1071
      186
1005
12973A
  0
LINE
  5
12973B
  8
OBJECT
 10
4057.1802475027529908
 20
-3472.9999999999968168
 30
0.0
 11
3937.1802475027529908
 21
-3472.9999999999968168
 31
0.0
1001
ACDBBLOCKREPETAG
1070
     1
1071
      215
1005
12973B
  0
ARC
  5
12973C
  8
OBJECT
 10
3937.1802475027529908
 20
-3475.9999999999968168
 30
0.0
 40
3.0
 50
90.0
 51
180.0
1001
ACDBBLOCKREPETAG
1070
     1
1071
      216
1005
12973C
  0
LINE
  5
12973D
  8
OBJECT
 10
3934.1802475027529908
 20
-3475.9999999999968168
 30
0.0
 11
3934.1802475027529908
 21
-3478.9999999999968168
 31
0.0
1001
ACDBBLOCKREPETAG
1070
     1
1071
      217
1005
12973D
  0
LINE
  5
12973E
  8
OBJECT
 10
4060.1802475027548098
 20
-3475.9999999999968168
 30
0.0
 11
4060.1802475027548098
 21
-3478.9999999999968168
 31
0.0
1001
ACDBBLOCKREPETAG
1070
     1
1071
      218
1005
12973E
  0
ARC
  5
12973F
  8
OBJECT
 10
4057.1802475027529908
 20
-3475.9999999999968168
 30
0.0
 40
3.0
 50
0.0
 51
90.0
1001
ACDBBLOCKREPETAG
1070
     1
1071
      219
1005
12973F
  0
LINE
  5
129740
  8
OBJECT
 10
3940.1802475027529908
 20
-3404.9999999999968168
 30
0.0
 11
3940.1802475027529908
 21
-3472.9999999999968168
 31
0.0
1001
ACDBBLOCKREPETAG
1070
     1
1071
      220
1005
129740
  0
LINE
  5
129741
  8
OBJECT
 10
4054.1802475027529908
 20
-3404.9999999999968168
 30
0.0
 11
3940.1802475027529908
 21
-3404.9999999999968168
 31
0.0
1001
ACDBBLOCKREPETAG
1070
     1
1071
      221
1005
129741
  0
LINE
  5
129742
  8
OBJECT
 10
4054.1802475027529908
 20
-3404.9999999999968168
 30
0.0
 11
4054.1802475027529908
 21
-3472.9999999999968168
 31
0.0
1001
ACDBBLOCKREPETAG
1070
     1
1071
      222
1005
129742
  0
LINE
  5
129743
  8
CENTER
 10
3997.1802475027529908
 20
-3389.9999999999968168
 30
0.0
 11
3997.1802475027529908
 21
-3614.9999999999968168
 31
0.0
1001
ACDBBLOCKREPETAG
1070
     1
1071
      223
1005
129743
  0
LINE
  5
129744
  8
HIDDEN
 10
4049.6802475027520813
 20
-3404.9999999999968168
 30
0.0
 11
4049.6802475027520813
 21
-3478.9999999999968168
 31
0.0
1001
ACDBBLOCKREPETAG
1070
     1
1071
      224
1005
129744
  0
LINE
  5
129745
  8
HIDDEN
 10
3944.6802475027548098
 20
-3404.9999999999968168
 30
0.0
 11
3944.6802475027548098
 21
-3478.9999999999968168
 31
0.0
1001
ACDBBLOCKREPETAG
1070
     1
1071
      225
1005
129745
  0
LINE
  5
129746
  8
OBJECT
 10
3322.1802475027548098
 20
-3478.9999999999968168
 30
0.0
 11
3322.1802475027548098
 21
-3602.9999999999968168
 31
0.0
1001
ACDBBLOCKREPETAG
1070
     1
1071
       26
1005
129746
  0
LINE
  5
129747
  8
OBJECT
 10
3472.1802475027548098
 20
-3478.9999999999968168
 30
0.0
 11
3322.1802475027548098
 21
-3478.9999999999968168
 31
0.0
1001
ACDBBLOCKREPETAG
1070
     1
1071
       30
1005
129747
  0
LINE
  5
129748
  8
OBJECT
 10
3472.1802475027548098
 20
-3478.9999999999968168
 30
0.0
 11
3472.1802475027548098
 21
-3602.9999999999968168
 31
0.0
1001
ACDBBLOCKREPETAG
1070
     1
1071
       34
1005
129748
  0
POINT
  5
129749
  8
DOTS
 10
3397.1802475027548098
 20
-3599.9999999999968168
 30
0.0
1001
ACDBBLOCKREPETAG
1070
     1
1071
      187
1005
129749
  0
LINE
  5
12974A
  8
OBJECT
 10
3457.1802475027548098
 20
-3472.9999999999968168
 30
0.0
 11
3337.1802475027539003
 21
-3472.9999999999968168
 31
0.0
1001
ACDBBLOCKREPETAG
1070
     1
1071
      226
1005
12974A
  0
ARC
  5
12974B
  8
OBJECT
 10
3337.1802475027539003
 20
-3475.9999999999968168
 30
0.0
 40
3.0
 50
90.0
 51
180.0
1001
ACDBBLOCKREPETAG
1070
     1
1071
      227
1005
12974B
  0
LINE
  5
12974C
  8
OBJECT
 10
3334.1802475027539003
 20
-3475.9999999999968168
 30
0.0
 11
3334.1802475027539003
 21
-3478.9999999999968168
 31
0.0
1001
ACDBBLOCKREPETAG
1070
     1
1071
      228
1005
12974C
  0
LINE
  5
12974D
  8
OBJECT
 10
3460.1802475027548098
 20
-3475.9999999999968168
 30
0.0
 11
3460.1802475027548098
 21
-3478.9999999999968168
 31
0.0
1001
ACDBBLOCKREPETAG
1070
     1
1071
      229
1005
12974D
  0
ARC
  5
12974E
  8
OBJECT
 10
3457.1802475027548098
 20
-3475.9999999999968168
 30
0.0
 40
3.0
 50
0.0
 51
90.0
1001
ACDBBLOCKREPETAG
1070
     1
1071
      230
1005
12974E
  0
LINE
  5
12974F
  8
OBJECT
 10
3340.1802475027539003
 20
-3404.9999999999968168
 30
0.0
 11
3340.1802475027539003
 21
-3472.9999999999968168
 31
0.0
1001
ACDBBLOCKREPETAG
1070
     1
1071
      231
1005
12974F
  0
LINE
  5
129750
  8
OBJECT
 10
3454.1802475027548098
 20
-3404.9999999999968168
 30
0.0
 11
3340.1802475027539003
 21
-3404.9999999999968168
 31
0.0
1001
ACDBBLOCKREPETAG
1070
     1
1071
      232
1005
129750
  0
LINE
  5
129751
  8
OBJECT
 10
3454.1802475027548098
 20
-3404.9999999999968168
 30
0.0
 11
3454.1802475027548098
 21
-3472.9999999999968168
 31
0.0
1001
ACDBBLOCKREPETAG
1070
     1
1071
      233
1005
129751
  0
LINE
  5
129752
  8
CENTER
 10
3397.1802475027548098
 20
-3389.9999999999968168
 30
0.0
 11
3397.1802475027548098
 21
-3614.9999999999968168
 31
0.0
1001
ACDBBLOCKREPETAG
1070
     1
1071
      234
1005
129752
  0
LINE
  5
129753
  8
HIDDEN
 10
3449.6802475027548098
 20
-3404.9999999999968168
 30
0.0
 11
3449.6802475027548098
 21
-3478.9999999999968168
 31
0.0
1001
ACDBBLOCKREPETAG
1070
     1
1071
      235
1005
129753
  0
LINE
  5
129754
  8
HIDDEN
 10
3344.6802475027548098
 20
-3404.9999999999968168
 30
0.0
 11
3344.6802475027548098
 21
-3478.9999999999968168
 31
0.0
1001
ACDBBLOCKREPETAG
1070
     1
1071
      236
1005
129754
  0
LINE
  5
129755
  8
OBJECT
 10
2922.1802475027548098
 20
-3478.9999999999968168
 30
0.0
 11
2922.1802475027548098
 21
-3602.9999999999968168
 31
0.0
1001
ACDBBLOCKREPETAG
1070
     1
1071
        6
1005
129755
  0
LINE
  5
129756
  8
OBJECT
 10
3072.180247502552902
 20
-3602.9999999997758096
 30
0.0
 11
3077.1802475027539003
 21
-3602.9999999999968168
 31
0.0
1001
ACDBBLOCKREPETAG
1070
     1
1071
        9
1005
129756
  0
LINE
  5
129757
  8
OBJECT
 10
3077.1802475027539003
 20
-3478.9999999999968168
 30
0.0
 11
2922.1802475027548098
 21
-3478.9999999999968168
 31
0.0
1001
ACDBBLOCKREPETAG
1070
     1
1071
       10
1005
129757
  0
ARC
  5
129758
  8
OBJECT
 10
3197.8675221744269948
 20
-3594.4080994101050237
 30
0.0
 40
170.6350503965855978
 50
137.4413445918430057
 51
149.9194958133664102
1001
ACDBBLOCKREPETAG
1070
     1
1071
       15
1005
129758
  0
ARC
  5
129759
  8
OBJECT
 10
3116.0258462068049994
 20
-3550.8827266953630897
 30
0.0
 40
78.0722220217636647
 50
147.4551531037683105
 51
164.6636599771860858
1001
ACDBBLOCKREPETAG
1070
     1
1071
       16
1005
129759
  0
ARC
  5
12975A
  8
OBJECT
 10
3082.9356824636279271
 20
-3540.9999999999968168
 30
0.0
 40
43.5535392688561771
 50
165.6884523008477004
 51
194.3115476991521859
1001
ACDBBLOCKREPETAG
1070
     1
1071
       17
1005
12975A
  0
ARC
  5
12975B
  8
OBJECT
 10
3197.8675221744269948
 20
-3487.5919005898881551
 30
0.0
 40
170.6350503965855978
 50
210.0805041866335046
 51
222.5586554081569943
1001
ACDBBLOCKREPETAG
1070
     1
1071
       18
1005
12975B
  0
ARC
  5
12975C
  8
OBJECT
 10
3116.0258462068049994
 20
-3531.1172733046328176
 30
0.0
 40
78.0722220217636647
 50
195.3363400228139142
 51
212.5448468962316042
1001
ACDBBLOCKREPETAG
1070
     1
1071
       19
1005
12975C
  0
POINT
  5
12975D
  8
DOTS
 10
2997.1802475027539003
 20
-3599.9999999999968168
 30
0.0
1001
ACDBBLOCKREPETAG
1070
     1
1071
      186
1005
12975D
  0
LINE
  5
12975E
  8
OBJECT
 10
3057.1802475027539003
 20
-3472.9999999999968168
 30
0.0
 11
2937.1802475027539003
 21
-3472.9999999999968168
 31
0.0
1001
ACDBBLOCKREPETAG
1070
     1
1071
      215
1005
12975E
  0
ARC
  5
12975F
  8
OBJECT
 10
2937.1802475027539003
 20
-3475.9999999999968168
 30
0.0
 40
3.0
 50
90.0
 51
180.0
1001
ACDBBLOCKREPETAG
1070
     1
1071
      216
1005
12975F
  0
LINE
  5
129760
  8
OBJECT
 10
2934.1802475027548098
 20
-3475.9999999999968168
 30
0.0
 11
2934.1802475027548098
 21
-3478.9999999999968168
 31
0.0
1001
ACDBBLOCKREPETAG
1070
     1
1071
      217
1005
129760
  0
LINE
  5
129761
  8
OBJECT
 10
3060.1802475027548098
 20
-3475.9999999999968168
 30
0.0
 11
3060.1802475027548098
 21
-3478.9999999999968168
 31
0.0
1001
ACDBBLOCKREPETAG
1070
     1
1071
      218
1005
129761
  0
ARC
  5
129762
  8
OBJECT
 10
3057.1802475027539003
 20
-3475.9999999999968168
 30
0.0
 40
3.0
 50
0.0
 51
90.0
1001
ACDBBLOCKREPETAG
1070
     1
1071
      219
1005
129762
  0
LINE
  5
129763
  8
OBJECT
 10
2940.1802475027539003
 20
-3404.9999999999968168
 30
0.0
 11
2940.1802475027539003
 21
-3472.9999999999968168
 31
0.0
1001
ACDBBLOCKREPETAG
1070
     1
1071
      220
1005
129763
  0
LINE
  5
129764
  8
OBJECT
 10
3054.1802475027548098
 20
-3404.9999999999968168
 30
0.0
 11
2940.1802475027539003
 21
-3404.9999999999968168
 31
0.0
1001
ACDBBLOCKREPETAG
1070
     1
1071
      221
1005
129764
  0
LINE
  5
129765
  8
OBJECT
 10
3054.1802475027548098
 20
-3404.9999999999968168
 30
0.0
 11
3054.1802475027548098
 21
-3472.9999999999968168
 31
0.0
1001
ACDBBLOCKREPETAG
1070
     1
1071
      222
1005
129765
  0
LINE
  5
129766
  8
CENTER
 10
2997.1802475027539003
 20
-3389.9999999999968168
 30
0.0
 11
2997.1802475027539003
 21
-3614.9999999999968168
 31
0.0
1001
ACDBBLOCKREPETAG
1070
     1
1071
      223
1005
129766
  0
LINE
  5
129767
  8
HIDDEN
 10
3049.6802475027548098
 20
-3404.9999999999968168
 30
0.0
 11
3049.6802475027548098
 21
-3478.9999999999968168
 31
0.0
1001
ACDBBLOCKREPETAG
1070
     1
1071
      224
1005
129767
  0
LINE
  5
129768
  8
HIDDEN
 10
2944.6802475027539003
 20
-3404.9999999999968168
 30
0.0
 11
2944.6802475027539003
 21
-3478.9999999999968168
 31
0.0
1001
ACDBBLOCKREPETAG
1070
     1
1071
      225
1005
129768
  0
LINE
  5
129769
  8
OBJECT
 10
2322.1802475027548098
 20
-3478.9999999999968168
 30
0.0
 11
2322.1802475027548098
 21
-3602.9999999999968168
 31
0.0
1001
ACDBBLOCKREPETAG
1070
     1
1071
       26
1005
129769
  0
LINE
  5
12976A
  8
OBJECT
 10
2472.1802475027548098
 20
-3478.9999999999968168
 30
0.0
 11
2322.1802475027548098
 21
-3478.9999999999968168
 31
0.0
1001
ACDBBLOCKREPETAG
1070
     1
1071
       30
1005
12976A
  0
LINE
  5
12976B
  8
OBJECT
 10
2472.1802475027548098
 20
-3478.9999999999968168
 30
0.0
 11
2472.1802475027548098
 21
-3602.9999999999968168
 31
0.0
1001
ACDBBLOCKREPETAG
1070
     1
1071
       34
1005
12976B
  0
POINT
  5
12976C
  8
DOTS
 10
2397.1802475027539003
 20
-3599.9999999999968168
 30
0.0
1001
ACDBBLOCKREPETAG
1070
     1
1071
      187
1005
12976C
  0
LINE
  5
12976D
  8
OBJECT
 10
2457.1802475027539003
 20
-3472.9999999999968168
 30
0.0
 11
2337.1802475027539003
 21
-3472.9999999999968168
 31
0.0
1001
ACDBBLOCKREPETAG
1070
     1
1071
      226
1005
12976D
  0
ARC
  5
12976E
  8
OBJECT
 10
2337.1802475027539003
 20
-3475.9999999999968168
 30
0.0
 40
3.0
 50
90.0
 51
180.0
1001
ACDBBLOCKREPETAG
1070
     1
1071
      227
1005
12976E
  0
LINE
  5
12976F
  8
OBJECT
 10
2334.1802475027548098
 20
-3475.9999999999968168
 30
0.0
 11
2334.1802475027548098
 21
-3478.9999999999968168
 31
0.0
1001
ACDBBLOCKREPETAG
1070
     1
1071
      228
1005
12976F
  0
LINE
  5
129770
  8
OBJECT
 10
2460.1802475027539003
 20
-3475.9999999999968168
 30
0.0
 11
2460.1802475027539003
 21
-3478.9999999999968168
 31
0.0
1001
ACDBBLOCKREPETAG
1070
     1
1071
      229
1005
129770
  0
ARC
  5
129771
  8
OBJECT
 10
2457.1802475027539003
 20
-3475.9999999999968168
 30
0.0
 40
3.0
 50
0.0
 51
90.0
1001
ACDBBLOCKREPETAG
1070
     1
1071
      230
1005
129771
  0
LINE
  5
129772
  8
OBJECT
 10
2340.1802475027539003
 20
-3404.9999999999968168
 30
0.0
 11
2340.1802475027539003
 21
-3472.9999999999968168
 31
0.0
1001
ACDBBLOCKREPETAG
1070
     1
1071
      231
1005
129772
  0
LINE
  5
129773
  8
OBJECT
 10
2454.1802475027548098
 20
-3404.9999999999968168
 30
0.0
 11
2340.1802475027539003
 21
-3404.9999999999968168
 31
0.0
1001
ACDBBLOCKREPETAG
1070
     1
1071
      232
1005
129773
  0
LINE
  5
129774
  8
OBJECT
 10
2454.1802475027548098
 20
-3404.9999999999968168
 30
0.0
 11
2454.1802475027548098
 21
-3472.9999999999968168
 31
0.0
1001
ACDBBLOCKREPETAG
1070
     1
1071
      233
1005
129774
  0
LINE
  5
129775
  8
CENTER
 10
2397.1802475027539003
 20
-3389.9999999999968168
 30
0.0
 11
2397.1802475027539003
 21
-3614.9999999999968168
 31
0.0
1001
ACDBBLOCKREPETAG
1070
     1
1071
      234
1005
129775
  0
LINE
  5
129776
  8
HIDDEN
 10
2449.6802475027548098
 20
-3404.9999999999968168
 30
0.0
 11
2449.6802475027548098
 21
-3478.9999999999968168
 31
0.0
1001
ACDBBLOCKREPETAG
1070
     1
1071
      235
1005
129776
  0
LINE
  5
129777
  8
HIDDEN
 10
2344.6802475027539003
 20
-3404.9999999999968168
 30
0.0
 11
2344.6802475027539003
 21
-3478.9999999999968168
 31
0.0
1001
ACDBBLOCKREPETAG
1070
     1
1071
      236
1005
129777
  0
LINE
  5
129778
  8
OBJECT
 10
1922.1802475027529908
 20
-3478.9999999999968168
 30
0.0
 11
1922.1802475027529908
 21
-3602.9999999999968168
 31
0.0
1001
ACDBBLOCKREPETAG
1070
     1
1071
        6
1005
129778
  0
LINE
  5
129779
  8
OBJECT
 10
2072.180247502552902
 20
-3602.9999999997758096
 30
0.0
 11
2077.1802475027539003
 21
-3602.9999999999968168
 31
0.0
1001
ACDBBLOCKREPETAG
1070
     1
1071
        9
1005
129779
  0
LINE
  5
12977A
  8
OBJECT
 10
2077.1802475027539003
 20
-3478.9999999999968168
 30
0.0
 11
1922.1802475027529908
 21
-3478.9999999999968168
 31
0.0
1001
ACDBBLOCKREPETAG
1070
     1
1071
       10
1005
12977A
  0
ARC
  5
12977B
  8
OBJECT
 10
2197.8675221744260853
 20
-3594.4080994101050237
 30
0.0
 40
170.6350503965855978
 50
137.4413445918430057
 51
149.9194958133599869
1001
ACDBBLOCKREPETAG
1070
     1
1071
       15
1005
12977B
  0
ARC
  5
12977C
  8
OBJECT
 10
2116.0258462068049994
 20
-3550.8827266953630897
 30
0.0
 40
78.0722220217636647
 50
147.4551531037753875
 51
164.6636599771860858
1001
ACDBBLOCKREPETAG
1070
     1
1071
       16
1005
12977C
  0
ARC
  5
12977D
  8
OBJECT
 10
2082.9356824636270176
 20
-3540.9999999999968168
 30
0.0
 40
43.5535392688561771
 50
165.6884523008477004
 51
194.3115476991521859
1001
ACDBBLOCKREPETAG
1070
     1
1071
       17
1005
12977D
  0
ARC
  5
12977E
  8
OBJECT
 10
2197.8675221744260853
 20
-3487.5919005898881551
 30
0.0
 40
170.6350503965855978
 50
210.0805041866400131
 51
222.5586554081569943
1001
ACDBBLOCKREPETAG
1070
     1
1071
       18
1005
12977E
  0
ARC
  5
12977F
  8
OBJECT
 10
2116.0258462068049994
 20
-3531.1172733046328176
 30
0.0
 40
78.0722220217636647
 50
195.3363400228139142
 51
212.5448468962246125
1001
ACDBBLOCKREPETAG
1070
     1
1071
       19
1005
12977F
  0
POINT
  5
129780
  8
DOTS
 10
1997.1802475027529908
 20
-3599.9999999999968168
 30
0.0
1001
ACDBBLOCKREPETAG
1070
     1
1071
      186
1005
129780
  0
LINE
  5
129781
  8
OBJECT
 10
2057.1802475027539003
 20
-3472.9999999999968168
 30
0.0
 11
1937.1802475027529908
 21
-3472.9999999999968168
 31
0.0
1001
ACDBBLOCKREPETAG
1070
     1
1071
      215
1005
129781
  0
ARC
  5
129782
  8
OBJECT
 10
1937.1802475027529908
 20
-3475.9999999999968168
 30
0.0
 40
3.0
 50
90.0
 51
180.0
1001
ACDBBLOCKREPETAG
1070
     1
1071
      216
1005
129782
  0
LINE
  5
129783
  8
OBJECT
 10
1934.1802475027529908
 20
-3475.9999999999968168
 30
0.0
 11
1934.1802475027529908
 21
-3478.9999999999968168
 31
0.0
1001
ACDBBLOCKREPETAG
1070
     1
1071
      217
1005
129783
  0
LINE
  5
129784
  8
OBJECT
 10
2060.1802475027548098
 20
-3475.9999999999968168
 30
0.0
 11
2060.1802475027548098
 21
-3478.9999999999968168
 31
0.0
1001
ACDBBLOCKREPETAG
1070
     1
1071
      218
1005
129784
  0
ARC
  5
129785
  8
OBJECT
 10
2057.1802475027539003
 20
-3475.9999999999968168
 30
0.0
 40
3.0
 50
0.0
 51
90.0
1001
ACDBBLOCKREPETAG
1070
     1
1071
      219
1005
129785
  0
LINE
  5
129786
  8
OBJECT
 10
1940.1802475027529908
 20
-3404.9999999999968168
 30
0.0
 11
1940.1802475027529908
 21
-3472.9999999999968168
 31
0.0
1001
ACDBBLOCKREPETAG
1070
     1
1071
      220
1005
129786
  0
LINE
  5
129787
  8
OBJECT
 10
2054.1802475027529908
 20
-3404.9999999999968168
 30
0.0
 11
1940.1802475027529908
 21
-3404.9999999999968168
 31
0.0
1001
ACDBBLOCKREPETAG
1070
     1
1071
      221
1005
129787
  0
LINE
  5
129788
  8
OBJECT
 10
2054.1802475027529908
 20
-3404.9999999999968168
 30
0.0
 11
2054.1802475027529908
 21
-3472.9999999999968168
 31
0.0
1001
ACDBBLOCKREPETAG
1070
     1
1071
      222
1005
129788
  0
LINE
  5
129789
  8
CENTER
 10
1997.1802475027529908
 20
-3389.9999999999968168
 30
0.0
 11
1997.1802475027529908
 21
-3614.9999999999968168
 31
0.0
1001
ACDBBLOCKREPETAG
1070
     1
1071
      223
1005
129789
  0
LINE
  5
12978A
  8
HIDDEN
 10
2049.6802475027539003
 20
-3404.9999999999968168
 30
0.0
 11
2049.6802475027539003
 21
-3478.9999999999968168
 31
0.0
1001
ACDBBLOCKREPETAG
1070
     1
1071
      224
1005
12978A
  0
LINE
  5
12978B
  8
HIDDEN
 10
1944.6802475027529908
 20
-3404.9999999999968168
 30
0.0
 11
1944.6802475027529908
 21
-3478.9999999999968168
 31
0.0
1001
ACDBBLOCKREPETAG
1070
     1
1071
      225
1005
12978B
  0
LINE
  5
12978C
  8
DIM
 10
2147.1802475027548098
 20
-3241.999999999998181
 30
0.0
 11
2225.6598680972128932
 21
-3241.999999999998181
 31
0.0
  0
LINE
  5
12978D
  8
DIM
 10
2147.1802475027548098
 20
-3147.999999999998181
 30
0.0
 11
2225.6598680972128932
 21
-3147.999999999998181
 31
0.0
  0
LINE
  5
12978E
  8
DIM
 10
2215.6598680972138027
 20
-3221.9999999999990905
 30
0.0
 11
2215.6598680972138027
 21
-3167.999999999998181
 31
0.0
  0
INSERT
  5
12978F
  8
DIM
  2
_OPEN30
 10
2215.6598680972138027
 20
-3241.999999999998181
 30
0.0
 41
20.0
 42
20.0
 43
20.0
 50
270.0
  0
INSERT
  5
129790
  8
DIM
  2
_OPEN30
 10
2215.6598680972138027
 20
-3147.999999999998181
 30
0.0
 41
20.0
 42
20.0
 43
20.0
 50
90.0
  0
INSERT
  5
129791
  8
OBJECT
  2
*U7
 10
0.0
 20
0.0
 30
0.0
  0
LINE
  5
129792
  8
DIM
 10
2147.1802475027548098
 20
-3600.0
 30
0.0
 11
2224.0211759064891339
 21
-3600.0
 31
0.0
  0
LINE
  5
129793
  8
DIM
 10
2162.1802475027548098
 20
-3556.0
 30
0.0
 11
2224.0211759064891339
 21
-3556.0
 31
0.0
  0
LINE
  5
129794
  8
DIM
 10
2214.0211759064891339
 20
-3620.0
 30
0.0
 11
2214.0211759064891339
 21
-3640.0
 31
0.0
  0
LINE
  5
129795
  8
DIM
 10
2214.0211759064891339
 20
-3536.0
 30
0.0
 11
2214.0211759064891339
 21
-3516.0
 31
0.0
  0
LINE
  5
129796
  8
DIM
 10
2214.0211759064891339
 20
-3600.0
 30
0.0
 11
2214.0211759064891339
 21
-3556.0
 31
0.0
  0
INSERT
  5
129797
  8
DIM
  2
_OPEN30
 10
2214.0211759064891339
 20
-3600.0
 30
0.0
 41
20.0
 42
20.0
 43
20.0
 50
90.0
  0
INSERT
  5
129798
  8
DIM
  2
_OPEN30
 10
2214.0211759064891339
 20
-3556.0
 30
0.0
 41
20.0
 42
20.0
 43
20.0
 50
270.0
  0
INSERT
  5
129799
  8
OBJECT
  2
*U8
 10
0.0
 20
0.0
 30
0.0
  0
LINE
  5
12979A
  8
DIM
 10
1997.1802475027529908
 20
-3089.9999999999959073
 30
0.0
 11
1997.1802475027529908
 21
-3057.2081219844449151
 31
0.0
  0
LINE
  5
12979B
  8
DIM
 10
2137.1802475027548098
 20
-3137.9999999999959073
 30
0.0
 11
2137.1802475027548098
 21
-3057.2081219844449151
 31
0.0
  0
LINE
  5
12979C
  8
DIM
 10
2017.1802475027539003
 20
-3067.2081219844449151
 30
0.0
 11
2117.1802475027548098
 21
-3067.2081219844449151
 31
0.0
  0
INSERT
  5
12979D
  8
DIM
  2
_OPEN30
 10
1997.1802475027529908
 20
-3067.2081219844449151
 30
0.0
 41
20.0
 42
20.0
 43
20.0
 50
180.0
  0
INSERT
  5
12979E
  8
DIM
  2
_OPEN30
 10
2137.1802475027548098
 20
-3067.2081219844449151
 30
0.0
 41
20.0
 42
20.0
 43
20.0
  0
INSERT
  5
12979F
  8
OBJECT
  2
*U9
 10
0.0
 20
0.0
 30
0.0
  0
LINE
  5
1297A0
  8
OBJECT
 10
5147.1802475027534456
 20
-3452.9999999999968168
 30
0.0
 11
5140.1802475027552646
 21
-3452.9999999999968168
 31
0.0
1001
ACDBBLOCKREPETAG
1070
     1
1071
       64
1005
1297A0
  0
LINE
  5
1297A1
  8
OBJECT
 10
5140.1802475027552646
 20
-3452.9999999999968168
 30
0.0
 11
5140.1802475027552646
 21
-3599.9999999999968168
 31
0.0
1001
ACDBBLOCKREPETAG
1070
     1
1071
       65
1005
1297A1
  0
LINE
  5
1297A2
  8
OBJECT
 10
5098.6802475027552646
 20
-3455.9999999999968168
 30
0.0
 11
5098.6802475027552646
 21
-3599.9999999999968168
 31
0.0
1001
ACDBBLOCKREPETAG
1070
     1
1071
       66
1005
1297A2
  0
LINE
  5
1297A3
  8
OBJECT
 10
5087.1802475027543551
 20
-3462.4999999999968168
 30
0.0
 11
5087.1802475027543551
 21
-3593.4999999999968168
 31
0.0
1001
ACDBBLOCKREPETAG
1070
     1
1071
       67
1005
1297A3
  0
LINE
  5
1297A4
  8
OBJECT
 10
5083.1802475027534456
 20
-3534.5000000000040927
 30
0.0
 11
5083.1802475027534456
 21
-3599.9999999999968168
 31
0.0
1001
ACDBBLOCKREPETAG
1070
     1
1071
       68
1005
1297A4
  0
LINE
  5
1297A5
  8
OBJECT
 10
5147.1802475027534456
 20
-3599.9999999999968168
 30
0.0
 11
5147.1802475027534456
 21
-3452.9999999999968168
 31
0.0
1001
ACDBBLOCKREPETAG
1070
     1
1071
       69
1005
1297A5
  0
LINE
  5
1297A6
  8
CENTER
 10
5162.1802475027534456
 20
-3527.9999999999968168
 30
0.0
 11
5067.5946619171700149
 21
-3527.9999999999968168
 31
0.0
1001
ACDBBLOCKREPETAG
1070
     1
1071
       70
1005
1297A6
  0
LINE
  5
1297A7
  8
OBJECT
 10
5080.1802475027579931
 20
-3602.9999999999968168
 30
0.0
 11
5077.1802475027534456
 21
-3602.9999999999968168
 31
0.0
1001
ACDBBLOCKREPETAG
1070
     1
1071
       71
1005
1297A7
  0
ARC
  5
1297A8
  8
OBJECT
 10
5089.061764685819071
 20
-3601.4555591801440642
 30
0.0
 40
6.0
 50
60.5241109968676696
 51
170.6927439126847048
1001
ACDBBLOCKREPETAG
1070
     1
1071
       72
1005
1297A8
  0
ARC
  5
1297A9
  8
OBJECT
 10
5080.1802475027534456
 20
-3599.9999999999968168
 30
0.0
 40
3.0
 50
270.0
 51
350.6927439126848185
1001
ACDBBLOCKREPETAG
1070
     1
1071
       73
1005
1297A9
  0
LINE
  5
1297AA
  8
OBJECT
 10
5078.1802475027534456
 20
-3478.9999999999968168
 30
0.0
 11
5077.1802475027534456
 21
-3478.9999999999968168
 31
0.0
1001
ACDBBLOCKREPETAG
1070
     1
1071
       74
1005
1297AA
  0
LINE
  5
1297AB
  8
OBJECT
 10
5147.1802475027534456
 20
-3599.9999999999968168
 30
0.0
 11
5098.6802475027552646
 21
-3599.9999999999968168
 31
0.0
1001
ACDBBLOCKREPETAG
1070
     1
1071
       75
1005
1297AB
  0
LINE
  5
1297AC
  8
OBJECT
 10
5098.6802475027552646
 20
-3455.9999999999968168
 30
0.0
 11
5087.1802475027543551
 21
-3462.4999999999968168
 31
0.0
1001
ACDBBLOCKREPETAG
1070
     1
1071
       76
1005
1297AC
  0
LINE
  5
1297AD
  8
OBJECT
 10
5140.1802475027552646
 20
-3455.9999999999968168
 30
0.0
 11
5098.6802475027552646
 21
-3455.9999999999968168
 31
0.0
1001
ACDBBLOCKREPETAG
1070
     1
1071
       77
1005
1297AD
  0
LINE
  5
1297AE
  8
OBJECT
 10
5083.1802475027534456
 20
-3534.5000000000040927
 30
0.0
 11
5078.1802475027534456
 21
-3478.9999999999968168
 31
0.0
1001
ACDBBLOCKREPETAG
1070
     1
1071
       78
1005
1297AE
  0
LINE
  5
1297AF
  8
OBJECT
 10
5087.1802475027543551
 20
-3462.4999999999968168
 30
0.0
 11
5078.1802475027534456
 21
-3478.9999999999968168
 31
0.0
1001
ACDBBLOCKREPETAG
1070
     1
1071
       79
1005
1297AF
  0
LINE
  5
1297B0
  8
OBJECT
 10
5098.6802475027552646
 20
-3599.9999999999968168
 30
0.0
 11
5092.0141082258269307
 21
-3596.2321821478199126
 31
0.0
1001
ACDBBLOCKREPETAG
1070
     1
1071
       80
1005
1297B0
  0
LINE
  5
1297B1
  8
HIDDEN
 10
5095.1802475027534456
 20
-3584.9999999999968168
 30
0.0
 11
5095.1802475027534456
 21
-3470.9999999999968168
 31
0.0
1001
ACDBBLOCKREPETAG
1070
     1
1071
       81
1005
1297B1
  0
LINE
  5
1297B2
  8
OBJECT
 10
5147.1802475027534456
 20
-3119.9999999999959073
 30
0.0
 11
5140.1802475027552646
 21
-3119.9999999999959073
 31
0.0
1001
ACDBBLOCKREPETAG
1070
     1
1071
       67
1005
1297B2
  0
LINE
  5
1297B3
  8
OBJECT
 10
5140.1802475027552646
 20
-3119.9999999999959073
 30
0.0
 11
5140.1802475027552646
 21
-3269.9999999999959073
 31
0.0
1001
ACDBBLOCKREPETAG
1070
     1
1071
       68
1005
1297B3
  0
LINE
  5
1297B4
  8
OBJECT
 10
5098.6802475027552646
 20
-3122.9999999999959073
 30
0.0
 11
5098.6802475027552646
 21
-3266.9999999999959073
 31
0.0
1001
ACDBBLOCKREPETAG
1070
     1
1071
       69
1005
1297B4
  0
LINE
  5
1297B5
  8
OBJECT
 10
5087.1802475027543551
 20
-3129.4999999999959073
 30
0.0
 11
5087.1802475027543551
 21
-3260.4999999999959073
 31
0.0
1001
ACDBBLOCKREPETAG
1070
     1
1071
       70
1005
1297B5
  0
LINE
  5
1297B6
  8
OBJECT
 10
5140.1802475027552646
 20
-3269.9999999999959073
 30
0.0
 11
5147.1802475027534456
 21
-3269.9999999999959073
 31
0.0
1001
ACDBBLOCKREPETAG
1070
     1
1071
       71
1005
1297B6
  0
LINE
  5
1297B7
  8
OBJECT
 10
5147.1802475027534456
 20
-3269.9999999999959073
 30
0.0
 11
5147.1802475027534456
 21
-3119.9999999999959073
 31
0.0
1001
ACDBBLOCKREPETAG
1070
     1
1071
       72
1005
1297B7
  0
LINE
  5
1297B8
  8
HIDDEN
 10
5095.1802475027534456
 20
-3251.9999999999959073
 30
0.0
 11
5095.1802475027534456
 21
-3137.9999999999959073
 31
0.0
1001
ACDBBLOCKREPETAG
1070
     1
1071
       73
1005
1297B8
  0
LINE
  5
1297B9
  8
CENTER
 10
5162.1802475027534456
 20
-3194.9999999999959073
 30
0.0
 11
5077.1802475027534456
 21
-3194.9999999999959073
 31
0.0
1001
ACDBBLOCKREPETAG
1070
     1
1071
       74
1005
1297B9
  0
LINE
  5
1297BA
  8
OBJECT
 10
5083.1802475027534456
 20
-3256.9999999999959073
 30
0.0
 11
5077.1802475027534456
 21
-3256.9999999999959073
 31
0.0
1001
ACDBBLOCKREPETAG
1070
     1
1071
       75
1005
1297BA
  0
LINE
  5
1297BB
  8
OBJECT
 10
5140.1802475027552646
 20
-3266.9999999999959073
 30
0.0
 11
5098.6802475027552646
 21
-3266.9999999999959073
 31
0.0
1001
ACDBBLOCKREPETAG
1070
     1
1071
       76
1005
1297BB
  0
LINE
  5
1297BC
  8
OBJECT
 10
5098.6802475027552646
 20
-3266.9999999999959073
 30
0.0
 11
5087.1802475027543551
 21
-3260.4999999999959073
 31
0.0
1001
ACDBBLOCKREPETAG
1070
     1
1071
       77
1005
1297BC
  0
LINE
  5
1297BD
  8
OBJECT
 10
5087.1802475027543551
 20
-3260.4999999999959073
 30
0.0
 11
5083.1802475027534456
 21
-3256.9999999999959073
 31
0.0
1001
ACDBBLOCKREPETAG
1070
     1
1071
       78
1005
1297BD
  0
LINE
  5
1297BE
  8
OBJECT
 10
5098.6802475027552646
 20
-3122.9999999999959073
 30
0.0
 11
5087.1802475027543551
 21
-3129.4999999999959073
 31
0.0
1001
ACDBBLOCKREPETAG
1070
     1
1071
       79
1005
1297BE
  0
LINE
  5
1297BF
  8
OBJECT
 10
5087.1802475027543551
 20
-3129.4999999999959073
 30
0.0
 11
5083.1802475027534456
 21
-3132.9999999999959073
 31
0.0
1001
ACDBBLOCKREPETAG
1070
     1
1071
       80
1005
1297BF
  0
ARC
  5
1297C0
  8
OBJECT
 10
5465.0802475027558103
 20
-3194.9999999999959073
 30
0.0
 40
386.8999999999999773
 50
170.7787013626042096
 51
189.2212986373957051
1001
ACDBBLOCKREPETAG
1070
     1
1071
       81
1005
1297C0
  0
LINE
  5
1297C1
  8
OBJECT
 10
5083.1802475027534456
 20
-3132.9999999999959073
 30
0.0
 11
5077.1802475027534456
 21
-3132.9999999999959073
 31
0.0
1001
ACDBBLOCKREPETAG
1070
     1
1071
       82
1005
1297C1
  0
LINE
  5
1297C2
  8
OBJECT
 10
5140.1802475027552646
 20
-3122.9999999999959073
 30
0.0
 11
5098.6802475027552646
 21
-3122.9999999999959073
 31
0.0
1001
ACDBBLOCKREPETAG
1070
     1
1071
       83
1005
1297C2
  0
TEXT
  5
1297C3
  8
SLIM
 10
4881.4302475027552646
 20
-3717.4999999999959073
 30
0.0
 40
35.0
  1
通常枝100（4）
 41
0.75
  0
LINE
  5
1297C4
  8
CENTER
 10
4474.1802475027534456
 20
-3540.9999999999968168
 30
0.0
 11
4320.1802475027534456
 21
-3540.9999999999968168
 31
0.0
1001
ACDBBLOCKREPETAG
1070
     1
1071
       17
1005
1297C4
  0
CIRCLE
  5
1297C5
  8
OBJECT
 10
4397.1802475027516266
 20
-3540.9999999999968168
 30
0.0
 40
41.5
1001
ACDBBLOCKREPETAG
1070
     1
1071
       19
1005
1297C5
  0
CIRCLE
  5
1297C6
  8
OBJECT
 10
4397.1802475027516266
 20
-3540.9999999999968168
 30
0.0
 40
54.0
1001
ACDBBLOCKREPETAG
1070
     1
1071
       20
1005
1297C6
  0
ARC
  5
1297C7
  8
OBJECT
 10
4397.1802475027516266
 20
-3540.9999999999968168
 30
0.0
 40
62.0
 50
287.8965511292112751
 51
252.1034488707886965
1001
ACDBBLOCKREPETAG
1070
     1
1071
       21
1005
1297C7
  0
LINE
  5
1297C8
  8
OBJECT
 10
4378.1276886194973486
 20
-3599.9999999999968168
 30
0.0
 11
4416.2328063860122711
 21
-3599.9999999999968168
 31
0.0
1001
ACDBBLOCKREPETAG
1070
     1
1071
       22
1005
1297C8
  0
LINE
  5
1297C9
  8
OBJECT
 10
4130.1802475027516266
 20
-3478.9999999999968168
 30
0.0
 11
4137.1802475027534456
 21
-3478.9999999999968168
 31
0.0
1001
ACDBBLOCKREPETAG
1070
     1
1071
       45
1005
1297C9
  0
LINE
  5
1297CA
  8
OBJECT
 10
4137.1802475027534456
 20
-3478.9999999999968168
 30
0.0
 11
4137.1802475027534456
 21
-3599.9999999999968168
 31
0.0
1001
ACDBBLOCKREPETAG
1070
     1
1071
       46
1005
1297CA
  0
LINE
  5
1297CB
  8
OBJECT
 10
4130.1802475027516266
 20
-3599.9999999999968168
 30
0.0
 11
4130.1802475027516266
 21
-3478.9999999999968168
 31
0.0
1001
ACDBBLOCKREPETAG
1070
     1
1071
       47
1005
1297CB
  0
LINE
  5
1297CC
  8
CENTER
 10
4152.1802475027516266
 20
-3540.9999999999968168
 30
0.0
 11
4068.1802475027548098
 21
-3540.9999999999968168
 31
0.0
1001
ACDBBLOCKREPETAG
1070
     1
1071
       48
1005
1297CC
  0
LINE
  5
1297CD
  8
OBJECT
 10
4130.1802475027516266
 20
-3481.9999999999968168
 30
0.0
 11
4094.1802475027529908
 21
-3481.9999999999968168
 31
0.0
1001
ACDBBLOCKREPETAG
1070
     1
1071
       49
1005
1297CD
  0
LINE
  5
1297CE
  8
OBJECT
 10
4094.1802475027529908
 20
-3481.9999999999968168
 30
0.0
 11
4094.1802475027529908
 21
-3599.9999999999968168
 31
0.0
1001
ACDBBLOCKREPETAG
1070
     1
1071
       50
1005
1297CE
  0
LINE
  5
1297CF
  8
OBJECT
 10
4094.1802475027529908
 20
-3599.9999999999968168
 30
0.0
 11
4137.1802475027534456
 21
-3599.9999999999968168
 31
0.0
1001
ACDBBLOCKREPETAG
1070
     1
1071
       51
1005
1297CF
  0
LINE
  5
1297D0
  8
OBJECT
 10
4090.1802475027529908
 20
-3486.4999999999968168
 30
0.0
 11
4083.1802475027520813
 21
-3486.4999999999968168
 31
0.0
1001
ACDBBLOCKREPETAG
1070
     1
1071
       52
1005
1297D0
  0
LINE
  5
1297D1
  8
OBJECT
 10
4083.1802475027520813
 20
-3595.4999999999968168
 30
0.0
 11
4090.1802475027529908
 21
-3595.4999999999968168
 31
0.0
1001
ACDBBLOCKREPETAG
1070
     1
1071
       53
1005
1297D1
  0
LINE
  5
1297D2
  8
OBJECT
 10
4090.1802475027529908
 20
-3595.4999999999968168
 30
0.0
 11
4090.1802475027529908
 21
-3486.4999999999968168
 31
0.0
1001
ACDBBLOCKREPETAG
1070
     1
1071
       54
1005
1297D2
  0
LINE
  5
1297D3
  8
OBJECT
 10
4094.1802475027529908
 20
-3481.9999999999968168
 30
0.0
 11
4090.1802475027529908
 21
-3486.4999999999968168
 31
0.0
1001
ACDBBLOCKREPETAG
1070
     1
1071
       55
1005
1297D3
  0
LINE
  5
1297D4
  8
OBJECT
 10
4094.1802475027529908
 20
-3599.9999999999968168
 30
0.0
 11
4090.1802475027529908
 21
-3595.4999999999968168
 31
0.0
1001
ACDBBLOCKREPETAG
1070
     1
1071
       56
1005
1297D4
  0
LINE
  5
1297D5
  8
OBJECT
 10
4080.1802475027520813
 20
-3478.9999999999968168
 30
0.0
 11
4077.1802475027520813
 21
-3478.9999999999968168
 31
0.0
1001
ACDBBLOCKREPETAG
1070
     1
1071
       57
1005
1297D5
  0
ARC
  5
1297D6
  8
OBJECT
 10
4080.1802475027520813
 20
-3481.9999999999968168
 30
0.0
 40
3.0
 50
0.0
 51
90.0
1001
ACDBBLOCKREPETAG
1070
     1
1071
       58
1005
1297D6
  0
LINE
  5
1297D7
  8
OBJECT
 10
4077.1802475027520813
 20
-3602.9999999999968168
 30
0.0
 11
4080.1802475027520813
 21
-3602.9999999999968168
 31
0.0
1001
ACDBBLOCKREPETAG
1070
     1
1071
       59
1005
1297D7
  0
ARC
  5
1297D8
  8
OBJECT
 10
4080.1802475027520813
 20
-3599.9999999999968168
 30
0.0
 40
3.0
 50
270.0
 51
0.0
1001
ACDBBLOCKREPETAG
1070
     1
1071
       60
1005
1297D8
  0
LINE
  5
1297D9
  8
OBJECT
 10
4083.1802475027520813
 20
-3599.9999999999968168
 30
0.0
 11
4083.1802475027520813
 21
-3481.9999999999968168
 31
0.0
1001
ACDBBLOCKREPETAG
1070
     1
1071
       61
1005
1297D9
  0
LINE
  5
1297DA
  8
HIDDEN
 10
4085.1802475027529908
 20
-3496.4999999999968168
 30
0.0
 11
4085.1802475027529908
 21
-3585.4999999999968168
 31
0.0
1001
ACDBBLOCKREPETAG
1070
     1
1071
       63
1005
1297DA
  0
LINE
  5
1297DB
  8
OBJECT
 10
4130.1802475027516266
 20
-3132.9999999999959073
 30
0.0
 11
4137.1802475027534456
 21
-3132.9999999999959073
 31
0.0
1001
ACDBBLOCKREPETAG
1070
     1
1071
       47
1005
1297DB
  0
LINE
  5
1297DC
  8
OBJECT
 10
4137.1802475027534456
 20
-3132.9999999999959073
 30
0.0
 11
4137.1802475027534456
 21
-3256.9999999999959073
 31
0.0
1001
ACDBBLOCKREPETAG
1070
     1
1071
       48
1005
1297DC
  0
LINE
  5
1297DD
  8
OBJECT
 10
4137.1802475027534456
 20
-3256.9999999999959073
 30
0.0
 11
4130.1802475027516266
 21
-3256.9999999999959073
 31
0.0
1001
ACDBBLOCKREPETAG
1070
     1
1071
       49
1005
1297DD
  0
LINE
  5
1297DE
  8
OBJECT
 10
4130.1802475027516266
 20
-3256.9999999999959073
 30
0.0
 11
4130.1802475027516266
 21
-3132.9999999999959073
 31
0.0
1001
ACDBBLOCKREPETAG
1070
     1
1071
       50
1005
1297DE
  0
LINE
  5
1297DF
  8
CENTER
 10
4152.1802475027516266
 20
-3194.9999999999959073
 30
0.0
 11
4077.1802475027520813
 21
-3194.9999999999959073
 31
0.0
1001
ACDBBLOCKREPETAG
1070
     1
1071
       51
1005
1297DF
  0
LINE
  5
1297E0
  8
OBJECT
 10
4130.1802475027516266
 20
-3135.9999999999959073
 30
0.0
 11
4094.1802475027529908
 21
-3135.9999999999959073
 31
0.0
1001
ACDBBLOCKREPETAG
1070
     1
1071
       52
1005
1297E0
  0
LINE
  5
1297E1
  8
OBJECT
 10
4094.1802475027529908
 20
-3135.9999999999959073
 30
0.0
 11
4094.1802475027529908
 21
-3253.9999999999959073
 31
0.0
1001
ACDBBLOCKREPETAG
1070
     1
1071
       53
1005
1297E1
  0
LINE
  5
1297E2
  8
OBJECT
 10
4094.1802475027529908
 20
-3253.9999999999959073
 30
0.0
 11
4130.1802475027516266
 21
-3253.9999999999959073
 31
0.0
1001
ACDBBLOCKREPETAG
1070
     1
1071
       54
1005
1297E2
  0
LINE
  5
1297E3
  8
OBJECT
 10
4090.1802475027529908
 20
-3140.4999999999959073
 30
0.0
 11
4083.1802475027520813
 21
-3140.4999999999959073
 31
0.0
1001
ACDBBLOCKREPETAG
1070
     1
1071
       55
1005
1297E3
  0
LINE
  5
1297E4
  8
OBJECT
 10
4083.1802475027520813
 20
-3249.4999999999959073
 30
0.0
 11
4090.1802475027529908
 21
-3249.4999999999959073
 31
0.0
1001
ACDBBLOCKREPETAG
1070
     1
1071
       56
1005
1297E4
  0
LINE
  5
1297E5
  8
OBJECT
 10
4090.1802475027529908
 20
-3249.4999999999959073
 30
0.0
 11
4090.1802475027529908
 21
-3140.4999999999959073
 31
0.0
1001
ACDBBLOCKREPETAG
1070
     1
1071
       57
1005
1297E5
  0
LINE
  5
1297E6
  8
OBJECT
 10
4094.1802475027529908
 20
-3135.9999999999959073
 30
0.0
 11
4090.1802475027529908
 21
-3140.4999999999959073
 31
0.0
1001
ACDBBLOCKREPETAG
1070
     1
1071
       58
1005
1297E6
  0
LINE
  5
1297E7
  8
OBJECT
 10
4094.1802475027529908
 20
-3253.9999999999959073
 30
0.0
 11
4090.1802475027529908
 21
-3249.4999999999959073
 31
0.0
1001
ACDBBLOCKREPETAG
1070
     1
1071
       59
1005
1297E7
  0
LINE
  5
1297E8
  8
OBJECT
 10
4080.1802475027520813
 20
-3132.9999999999959073
 30
0.0
 11
4077.1802475027520813
 21
-3132.9999999999959073
 31
0.0
1001
ACDBBLOCKREPETAG
1070
     1
1071
       60
1005
1297E8
  0
ARC
  5
1297E9
  8
OBJECT
 10
4080.1802475027520813
 20
-3135.9999999999959073
 30
0.0
 40
3.0
 50
0.0
 51
90.0
1001
ACDBBLOCKREPETAG
1070
     1
1071
       61
1005
1297E9
  0
LINE
  5
1297EA
  8
OBJECT
 10
4077.1802475027520813
 20
-3256.9999999999959073
 30
0.0
 11
4080.1802475027520813
 21
-3256.9999999999959073
 31
0.0
1001
ACDBBLOCKREPETAG
1070
     1
1071
       62
1005
1297EA
  0
ARC
  5
1297EB
  8
OBJECT
 10
4080.1802475027520813
 20
-3253.9999999999959073
 30
0.0
 40
3.0
 50
270.0
 51
0.0
1001
ACDBBLOCKREPETAG
1070
     1
1071
       63
1005
1297EB
  0
LINE
  5
1297EC
  8
OBJECT
 10
4083.1802475027520813
 20
-3253.9999999999959073
 30
0.0
 11
4083.1802475027520813
 21
-3135.9999999999959073
 31
0.0
1001
ACDBBLOCKREPETAG
1070
     1
1071
       64
1005
1297EC
  0
LINE
  5
1297ED
  8
HIDDEN
 10
4085.1802475027529908
 20
-3150.4999999999959073
 30
0.0
 11
4085.1802475027529908
 21
-3239.4999999999959073
 31
0.0
1001
ACDBBLOCKREPETAG
1070
     1
1071
       65
1005
1297ED
  0
TEXT
  5
1297EE
  8
SLIM
 10
3891.4302475027548098
 20
-3717.4999999999959073
 30
0.0
 40
35.0
  1
通常枝75（3）
 41
0.75
  0
CIRCLE
  5
1297EF
  8
OBJECT
 10
3397.1802475027548098
 20
-3547.9999999999968168
 30
0.0
 40
35.5
1001
ACDBBLOCKREPETAG
1070
     1
1071
       10
1005
1297EF
  0
CIRCLE
  5
1297F0
  8
OBJECT
 10
3397.1802475027548098
 20
-3540.9999999999968168
 30
0.0
 40
62.0
1001
ACDBBLOCKREPETAG
1070
     1
1071
       11
1005
1297F0
  0
LINE
  5
1297F1
  8
CENTER
 10
3327.1802475027539003
 20
-3547.9999999999968168
 30
0.0
 11
3467.1802475027548098
 21
-3547.9999999999968168
 31
0.0
1001
ACDBBLOCKREPETAG
1070
     1
1071
       12
1005
1297F1
  0
CIRCLE
  5
1297F2
  8
OBJECT
 10
3397.1802475027548098
 20
-3547.9999999999968168
 30
0.0
 40
47.0
1001
ACDBBLOCKREPETAG
1070
     1
1071
       14
1005
1297F2
  0
ARC
  5
1297F3
  8
OBJECT
 10
3397.1802475027548098
 20
-3547.9999999999968168
 30
0.0
 40
55.0
 50
289.0112652601135892
 51
250.9887347398864108
1001
ACDBBLOCKREPETAG
1070
     1
1071
       15
1005
1297F3
  0
LINE
  5
1297F4
  8
OBJECT
 10
3379.2637746355881063
 20
-3599.9999999999968168
 30
0.0
 11
3415.0967203699210586
 21
-3599.9999999999968168
 31
0.0
1001
ACDBBLOCKREPETAG
1070
     1
1071
       16
1005
1297F4
  0
LINE
  5
1297F5
  8
OBJECT
 10
3130.1802475027539003
 20
-3492.9999999999968168
 30
0.0
 11
3137.1802475027548098
 21
-3492.9999999999968168
 31
0.0
1001
ACDBBLOCKREPETAG
1070
     1
1071
       26
1005
1297F5
  0
LINE
  5
1297F6
  8
OBJECT
 10
3137.1802475027548098
 20
-3492.9999999999968168
 30
0.0
 11
3137.1802475027548098
 21
-3599.9999999999968168
 31
0.0
1001
ACDBBLOCKREPETAG
1070
     1
1071
       27
1005
1297F6
  0
LINE
  5
1297F7
  8
OBJECT
 10
3130.1802475027539003
 20
-3599.9999999999968168
 30
0.0
 11
3130.1802475027539003
 21
-3492.9999999999968168
 31
0.0
1001
ACDBBLOCKREPETAG
1070
     1
1071
       28
1005
1297F7
  0
LINE
  5
1297F8
  8
CENTER
 10
3152.1802475027548098
 20
-3547.9999999999968168
 30
0.0
 11
3068.1802475027548098
 21
-3547.9999999999968168
 31
0.0
1001
ACDBBLOCKREPETAG
1070
     1
1071
       29
1005
1297F8
  0
LINE
  5
1297F9
  8
OBJECT
 10
3130.1802475027539003
 20
-3495.9999999999968168
 30
0.0
 11
3094.1802475027539003
 21
-3495.9999999999968168
 31
0.0
1001
ACDBBLOCKREPETAG
1070
     1
1071
       30
1005
1297F9
  0
LINE
  5
1297FA
  8
OBJECT
 10
3094.1802475027539003
 20
-3495.9999999999968168
 30
0.0
 11
3094.1802475027539003
 21
-3599.9999999999968168
 31
0.0
1001
ACDBBLOCKREPETAG
1070
     1
1071
       31
1005
1297FA
  0
LINE
  5
1297FB
  8
OBJECT
 10
3094.1802475027539003
 20
-3599.9999999999968168
 30
0.0
 11
3137.1802475027548098
 21
-3599.9999999999968168
 31
0.0
1001
ACDBBLOCKREPETAG
1070
     1
1071
       32
1005
1297FB
  0
LINE
  5
1297FC
  8
OBJECT
 10
3090.1802475027529908
 20
-3500.4999999999968168
 30
0.0
 11
3083.1802475027548098
 21
-3500.4999999999968168
 31
0.0
1001
ACDBBLOCKREPETAG
1070
     1
1071
       33
1005
1297FC
  0
LINE
  5
1297FD
  8
OBJECT
 10
3083.1802475027548098
 20
-3595.4999999999968168
 30
0.0
 11
3090.1802475027529908
 21
-3595.4999999999968168
 31
0.0
1001
ACDBBLOCKREPETAG
1070
     1
1071
       34
1005
1297FD
  0
LINE
  5
1297FE
  8
OBJECT
 10
3090.1802475027529908
 20
-3595.4999999999968168
 30
0.0
 11
3090.1802475027529908
 21
-3500.4999999999968168
 31
0.0
1001
ACDBBLOCKREPETAG
1070
     1
1071
       35
1005
1297FE
  0
LINE
  5
1297FF
  8
OBJECT
 10
3094.1802475027539003
 20
-3495.9999999999968168
 30
0.0
 11
3090.1802475027529908
 21
-3500.4999999999968168
 31
0.0
1001
ACDBBLOCKREPETAG
1070
     1
1071
       36
1005
1297FF
  0
LINE
  5
129800
  8
OBJECT
 10
3094.1802475027539003
 20
-3599.9999999999968168
 30
0.0
 11
3090.1802475027529908
 21
-3595.4999999999968168
 31
0.0
1001
ACDBBLOCKREPETAG
1070
     1
1071
       37
1005
129800
  0
LINE
  5
129801
  8
OBJECT
 10
3080.1802475027548098
 20
-3478.9999999999968168
 30
0.0
 11
3077.1802475027539003
 21
-3478.9999999999968168
 31
0.0
1001
ACDBBLOCKREPETAG
1070
     1
1071
       38
1005
129801
  0
ARC
  5
129802
  8
OBJECT
 10
3080.1802475027548098
 20
-3481.9999999999968168
 30
0.0
 40
3.0
 50
0.0
 51
90.0
1001
ACDBBLOCKREPETAG
1070
     1
1071
       39
1005
129802
  0
LINE
  5
129803
  8
OBJECT
 10
3077.1802475027539003
 20
-3602.9999999999968168
 30
0.0
 11
3080.1802475027548098
 21
-3602.9999999999968168
 31
0.0
1001
ACDBBLOCKREPETAG
1070
     1
1071
       40
1005
129803
  0
ARC
  5
129804
  8
OBJECT
 10
3080.1802475027548098
 20
-3599.9999999999968168
 30
0.0
 40
3.0
 50
270.0
 51
0.0
1001
ACDBBLOCKREPETAG
1070
     1
1071
       41
1005
129804
  0
LINE
  5
129805
  8
OBJECT
 10
3083.1802475027548098
 20
-3599.9999999999968168
 30
0.0
 11
3083.1802475027548098
 21
-3481.9999999999968168
 31
0.0
1001
ACDBBLOCKREPETAG
1070
     1
1071
       42
1005
129805
  0
LINE
  5
129806
  8
HIDDEN
 10
3085.1802475027539003
 20
-3509.9999999999968168
 30
0.0
 11
3085.1802475027539003
 21
-3585.9999999999968168
 31
0.0
1001
ACDBBLOCKREPETAG
1070
     1
1071
       43
1005
129806
  0
LINE
  5
129807
  8
OBJECT
 10
3130.1802475027539003
 20
-3139.9999999999959073
 30
0.0
 11
3137.1802475027548098
 21
-3139.9999999999959073
 31
0.0
1001
ACDBBLOCKREPETAG
1070
     1
1071
       27
1005
129807
  0
LINE
  5
129808
  8
OBJECT
 10
3137.1802475027548098
 20
-3139.9999999999959073
 30
0.0
 11
3137.1802475027548098
 21
-3249.9999999999959073
 31
0.0
1001
ACDBBLOCKREPETAG
1070
     1
1071
       28
1005
129808
  0
LINE
  5
129809
  8
OBJECT
 10
3137.1802475027548098
 20
-3249.9999999999959073
 30
0.0
 11
3130.1802475027539003
 21
-3249.9999999999959073
 31
0.0
1001
ACDBBLOCKREPETAG
1070
     1
1071
       29
1005
129809
  0
LINE
  5
12980A
  8
OBJECT
 10
3130.1802475027539003
 20
-3249.9999999999959073
 30
0.0
 11
3130.1802475027539003
 21
-3139.9999999999959073
 31
0.0
1001
ACDBBLOCKREPETAG
1070
     1
1071
       30
1005
12980A
  0
LINE
  5
12980B
  8
CENTER
 10
3152.1802475027548098
 20
-3194.9999999999959073
 30
0.0
 11
3077.1802475027539003
 21
-3194.9999999999959073
 31
0.0
1001
ACDBBLOCKREPETAG
1070
     1
1071
       31
1005
12980B
  0
LINE
  5
12980C
  8
OBJECT
 10
3130.1802475027539003
 20
-3142.9999999999959073
 30
0.0
 11
3094.1802475027539003
 21
-3142.9999999999959073
 31
0.0
1001
ACDBBLOCKREPETAG
1070
     1
1071
       32
1005
12980C
  0
LINE
  5
12980D
  8
OBJECT
 10
3094.1802475027539003
 20
-3142.9999999999959073
 30
0.0
 11
3094.1802475027539003
 21
-3246.9999999999959073
 31
0.0
1001
ACDBBLOCKREPETAG
1070
     1
1071
       33
1005
12980D
  0
LINE
  5
12980E
  8
OBJECT
 10
3094.1802475027539003
 20
-3246.9999999999959073
 30
0.0
 11
3130.1802475027539003
 21
-3246.9999999999959073
 31
0.0
1001
ACDBBLOCKREPETAG
1070
     1
1071
       34
1005
12980E
  0
LINE
  5
12980F
  8
OBJECT
 10
3090.1802475027529908
 20
-3147.4999999999959073
 30
0.0
 11
3083.1802475027548098
 21
-3147.4999999999959073
 31
0.0
1001
ACDBBLOCKREPETAG
1070
     1
1071
       35
1005
12980F
  0
LINE
  5
129810
  8
OBJECT
 10
3083.1802475027548098
 20
-3242.4999999999959073
 30
0.0
 11
3090.1802475027529908
 21
-3242.4999999999959073
 31
0.0
1001
ACDBBLOCKREPETAG
1070
     1
1071
       36
1005
129810
  0
LINE
  5
129811
  8
OBJECT
 10
3090.1802475027529908
 20
-3242.4999999999959073
 30
0.0
 11
3090.1802475027529908
 21
-3147.4999999999959073
 31
0.0
1001
ACDBBLOCKREPETAG
1070
     1
1071
       37
1005
129811
  0
LINE
  5
129812
  8
OBJECT
 10
3094.1802475027539003
 20
-3142.9999999999959073
 30
0.0
 11
3090.1802475027529908
 21
-3147.4999999999959073
 31
0.0
1001
ACDBBLOCKREPETAG
1070
     1
1071
       38
1005
129812
  0
LINE
  5
129813
  8
OBJECT
 10
3094.1802475027539003
 20
-3246.9999999999959073
 30
0.0
 11
3090.1802475027529908
 21
-3242.4999999999959073
 31
0.0
1001
ACDBBLOCKREPETAG
1070
     1
1071
       39
1005
129813
  0
LINE
  5
129814
  8
OBJECT
 10
3080.1802475027548098
 20
-3132.9999999999959073
 30
0.0
 11
3077.1802475027539003
 21
-3132.9999999999959073
 31
0.0
1001
ACDBBLOCKREPETAG
1070
     1
1071
       40
1005
129814
  0
ARC
  5
129815
  8
OBJECT
 10
3080.1802475027548098
 20
-3135.9999999999959073
 30
0.0
 40
3.0
 50
0.0
 51
90.0
1001
ACDBBLOCKREPETAG
1070
     1
1071
       41
1005
129815
  0
LINE
  5
129816
  8
OBJECT
 10
3077.1802475027539003
 20
-3256.9999999999959073
 30
0.0
 11
3080.1802475027548098
 21
-3256.9999999999959073
 31
0.0
1001
ACDBBLOCKREPETAG
1070
     1
1071
       42
1005
129816
  0
ARC
  5
129817
  8
OBJECT
 10
3080.1802475027548098
 20
-3253.9999999999959073
 30
0.0
 40
3.0
 50
270.0
 51
0.0
1001
ACDBBLOCKREPETAG
1070
     1
1071
       43
1005
129817
  0
LINE
  5
129818
  8
OBJECT
 10
3083.1802475027548098
 20
-3253.9999999999959073
 30
0.0
 11
3083.1802475027548098
 21
-3135.9999999999959073
 31
0.0
1001
ACDBBLOCKREPETAG
1070
     1
1071
       44
1005
129818
  0
LINE
  5
129819
  8
HIDDEN
 10
3085.1802475027539003
 20
-3156.9999999999959073
 30
0.0
 11
3085.1802475027539003
 21
-3232.9999999999959073
 31
0.0
1001
ACDBBLOCKREPETAG
1070
     1
1071
       45
1005
129819
  0
TEXT
  5
12981A
  8
SLIM
 10
2891.4302475027539003
 20
-3717.4999999999959073
 30
0.0
 40
35.0
  1
通常枝65（2）
 41
0.75
  0
CIRCLE
  5
12981B
  8
OBJECT
 10
2397.1802475027539003
 20
-3540.9999999999968168
 30
0.0
 40
62.0
1001
ACDBBLOCKREPETAG
1070
     1
1071
        3
1005
12981B
  0
LINE
  5
12981C
  8
CENTER
 10
2335.1802475027539003
 20
-3555.9999999999968168
 30
0.0
 11
2459.1802475027548098
 21
-3555.9999999999968168
 31
0.0
1001
ACDBBLOCKREPETAG
1070
     1
1071
        4
1005
12981C
  0
CIRCLE
  5
12981D
  8
OBJECT
 10
2397.1802475027539003
 20
-3555.9999999999968168
 30
0.0
 40
28.0
1001
ACDBBLOCKREPETAG
1070
     1
1071
        6
1005
12981D
  0
CIRCLE
  5
12981E
  8
OBJECT
 10
2397.1802475027539003
 20
-3555.9999999999968168
 30
0.0
 40
39.0
1001
ACDBBLOCKREPETAG
1070
     1
1071
        7
1005
12981E
  0
ARC
  5
12981F
  8
OBJECT
 10
2397.1802475027539003
 20
-3555.9999999999968168
 30
0.0
 40
47.0
 50
290.5819692114441182
 51
249.4180307885559102
1001
ACDBBLOCKREPETAG
1070
     1
1071
        8
1005
12981F
  0
LINE
  5
129820
  8
OBJECT
 10
2380.6575358608970419
 20
-3599.9999999999968168
 30
0.0
 11
2413.7029591446121231
 21
-3599.9999999999968168
 31
0.0
1001
ACDBBLOCKREPETAG
1070
     1
1071
        9
1005
129820
  0
LINE
  5
129821
  8
OBJECT
 10
2130.1802475027539003
 20
-3508.9999999999968168
 30
0.0
 11
2137.1802475027548098
 21
-3508.9999999999968168
 31
0.0
1001
ACDBBLOCKREPETAG
1070
     1
1071
        7
1005
129821
  0
LINE
  5
129822
  8
OBJECT
 10
2137.1802475027548098
 20
-3508.9999999999968168
 30
0.0
 11
2137.1802475027548098
 21
-3599.9999999999968168
 31
0.0
1001
ACDBBLOCKREPETAG
1070
     1
1071
        8
1005
129822
  0
LINE
  5
129823
  8
OBJECT
 10
2130.1802475027539003
 20
-3599.9999999999968168
 30
0.0
 11
2130.1802475027539003
 21
-3508.9999999999968168
 31
0.0
1001
ACDBBLOCKREPETAG
1070
     1
1071
        9
1005
129823
  0
LINE
  5
129824
  8
CENTER
 10
2152.1802475027548098
 20
-3555.9999999999968168
 30
0.0
 11
2068.1802475027548098
 21
-3555.9999999999968168
 31
0.0
1001
ACDBBLOCKREPETAG
1070
     1
1071
       10
1005
129824
  0
LINE
  5
129825
  8
OBJECT
 10
2130.1802475027539003
 20
-3511.9999999999968168
 30
0.0
 11
2094.1802475027529908
 21
-3511.9999999999968168
 31
0.0
1001
ACDBBLOCKREPETAG
1070
     1
1071
       11
1005
129825
  0
LINE
  5
129826
  8
OBJECT
 10
2094.1802475027529908
 20
-3511.9999999999968168
 30
0.0
 11
2094.1802475027529908
 21
-3599.9999999999968168
 31
0.0
1001
ACDBBLOCKREPETAG
1070
     1
1071
       12
1005
129826
  0
LINE
  5
129827
  8
OBJECT
 10
2094.1802475027529908
 20
-3599.9999999999968168
 30
0.0
 11
2137.1802475027548098
 21
-3599.9999999999968168
 31
0.0
1001
ACDBBLOCKREPETAG
1070
     1
1071
       13
1005
129827
  0
LINE
  5
129828
  8
OBJECT
 10
2090.1802475027529908
 20
-3516.4999999999968168
 30
0.0
 11
2083.1802475027529908
 21
-3516.4999999999968168
 31
0.0
1001
ACDBBLOCKREPETAG
1070
     1
1071
       14
1005
129828
  0
LINE
  5
129829
  8
OBJECT
 10
2083.1802475027529908
 20
-3595.4999999999968168
 30
0.0
 11
2090.1802475027529908
 21
-3595.4999999999968168
 31
0.0
1001
ACDBBLOCKREPETAG
1070
     1
1071
       15
1005
129829
  0
LINE
  5
12982A
  8
OBJECT
 10
2090.1802475027529908
 20
-3595.4999999999968168
 30
0.0
 11
2090.1802475027529908
 21
-3516.4999999999968168
 31
0.0
1001
ACDBBLOCKREPETAG
1070
     1
1071
       16
1005
12982A
  0
LINE
  5
12982B
  8
OBJECT
 10
2094.1802475027529908
 20
-3511.9999999999968168
 30
0.0
 11
2090.1802475027529908
 21
-3516.4999999999968168
 31
0.0
1001
ACDBBLOCKREPETAG
1070
     1
1071
       17
1005
12982B
  0
LINE
  5
12982C
  8
OBJECT
 10
2094.1802475027529908
 20
-3599.9999999999968168
 30
0.0
 11
2090.1802475027529908
 21
-3595.4999999999968168
 31
0.0
1001
ACDBBLOCKREPETAG
1070
     1
1071
       18
1005
12982C
  0
LINE
  5
12982D
  8
OBJECT
 10
2080.1802475027539003
 20
-3478.9999999999968168
 30
0.0
 11
2077.1802475027539003
 21
-3478.9999999999968168
 31
0.0
1001
ACDBBLOCKREPETAG
1070
     1
1071
       19
1005
12982D
  0
ARC
  5
12982E
  8
OBJECT
 10
2080.1802475027539003
 20
-3481.9999999999968168
 30
0.0
 40
3.0
 50
0.0
 51
90.0
1001
ACDBBLOCKREPETAG
1070
     1
1071
       20
1005
12982E
  0
LINE
  5
12982F
  8
OBJECT
 10
2077.1802475027539003
 20
-3602.9999999999968168
 30
0.0
 11
2080.1802475027539003
 21
-3602.9999999999968168
 31
0.0
1001
ACDBBLOCKREPETAG
1070
     1
1071
       21
1005
12982F
  0
ARC
  5
129830
  8
OBJECT
 10
2080.1802475027539003
 20
-3599.9999999999968168
 30
0.0
 40
3.0
 50
270.0
 51
0.0
1001
ACDBBLOCKREPETAG
1070
     1
1071
       22
1005
129830
  0
LINE
  5
129831
  8
OBJECT
 10
2083.1802475027529908
 20
-3599.9999999999968168
 30
0.0
 11
2083.1802475027529908
 21
-3481.9999999999968168
 31
0.0
1001
ACDBBLOCKREPETAG
1070
     1
1071
       23
1005
129831
  0
LINE
  5
129832
  8
HIDDEN
 10
2085.1802475027539003
 20
-3525.9999999999968168
 30
0.0
 11
2085.1802475027539003
 21
-3585.9999999999968168
 31
0.0
1001
ACDBBLOCKREPETAG
1070
     1
1071
       24
1005
129832
  0
LINE
  5
129833
  8
OBJECT
 10
2130.1802475027539003
 20
-3147.9999999999959073
 30
0.0
 11
2137.1802475027548098
 21
-3147.9999999999959073
 31
0.0
1001
ACDBBLOCKREPETAG
1070
     1
1071
        7
1005
129833
  0
LINE
  5
129834
  8
OBJECT
 10
2137.1802475027548098
 20
-3147.9999999999959073
 30
0.0
 11
2137.1802475027548098
 21
-3241.9999999999959073
 31
0.0
1001
ACDBBLOCKREPETAG
1070
     1
1071
        8
1005
129834
  0
LINE
  5
129835
  8
OBJECT
 10
2137.1802475027548098
 20
-3241.9999999999959073
 30
0.0
 11
2130.1802475027539003
 21
-3241.9999999999959073
 31
0.0
1001
ACDBBLOCKREPETAG
1070
     1
1071
        9
1005
129835
  0
LINE
  5
129836
  8
OBJECT
 10
2130.1802475027539003
 20
-3241.9999999999959073
 30
0.0
 11
2130.1802475027539003
 21
-3147.9999999999959073
 31
0.0
1001
ACDBBLOCKREPETAG
1070
     1
1071
       10
1005
129836
  0
LINE
  5
129837
  8
CENTER
 10
2152.1802475027548098
 20
-3194.9999999999959073
 30
0.0
 11
2077.1802475027539003
 21
-3194.9999999999959073
 31
0.0
1001
ACDBBLOCKREPETAG
1070
     1
1071
       11
1005
129837
  0
LINE
  5
129838
  8
OBJECT
 10
2130.1802475027539003
 20
-3150.9999999999959073
 30
0.0
 11
2094.1802475027529908
 21
-3150.9999999999959073
 31
0.0
1001
ACDBBLOCKREPETAG
1070
     1
1071
       12
1005
129838
  0
LINE
  5
129839
  8
OBJECT
 10
2094.1802475027529908
 20
-3150.9999999999959073
 30
0.0
 11
2094.1802475027529908
 21
-3238.9999999999959073
 31
0.0
1001
ACDBBLOCKREPETAG
1070
     1
1071
       13
1005
129839
  0
LINE
  5
12983A
  8
OBJECT
 10
2094.1802475027529908
 20
-3238.9999999999959073
 30
0.0
 11
2130.1802475027539003
 21
-3238.9999999999959073
 31
0.0
1001
ACDBBLOCKREPETAG
1070
     1
1071
       14
1005
12983A
  0
LINE
  5
12983B
  8
OBJECT
 10
2090.1802475027529908
 20
-3155.4999999999959073
 30
0.0
 11
2083.1802475027529908
 21
-3155.4999999999959073
 31
0.0
1001
ACDBBLOCKREPETAG
1070
     1
1071
       15
1005
12983B
  0
LINE
  5
12983C
  8
OBJECT
 10
2083.1802475027529908
 20
-3234.4999999999959073
 30
0.0
 11
2090.1802475027529908
 21
-3234.4999999999959073
 31
0.0
1001
ACDBBLOCKREPETAG
1070
     1
1071
       16
1005
12983C
  0
LINE
  5
12983D
  8
OBJECT
 10
2090.1802475027529908
 20
-3234.4999999999959073
 30
0.0
 11
2090.1802475027529908
 21
-3155.4999999999959073
 31
0.0
1001
ACDBBLOCKREPETAG
1070
     1
1071
       17
1005
12983D
  0
LINE
  5
12983E
  8
OBJECT
 10
2094.1802475027529908
 20
-3150.9999999999959073
 30
0.0
 11
2090.1802475027529908
 21
-3155.4999999999959073
 31
0.0
1001
ACDBBLOCKREPETAG
1070
     1
1071
       18
1005
12983E
  0
LINE
  5
12983F
  8
OBJECT
 10
2094.1802475027529908
 20
-3238.9999999999959073
 30
0.0
 11
2090.1802475027529908
 21
-3234.4999999999959073
 31
0.0
1001
ACDBBLOCKREPETAG
1070
     1
1071
       19
1005
12983F
  0
LINE
  5
129840
  8
OBJECT
 10
2080.1802475027539003
 20
-3132.9999999999959073
 30
0.0
 11
2077.1802475027539003
 21
-3132.9999999999959073
 31
0.0
1001
ACDBBLOCKREPETAG
1070
     1
1071
       20
1005
129840
  0
ARC
  5
129841
  8
OBJECT
 10
2080.1802475027539003
 20
-3135.9999999999959073
 30
0.0
 40
3.0
 50
0.0
 51
90.0
1001
ACDBBLOCKREPETAG
1070
     1
1071
       21
1005
129841
  0
LINE
  5
129842
  8
OBJECT
 10
2077.1802475027539003
 20
-3256.9999999999959073
 30
0.0
 11
2080.1802475027539003
 21
-3256.9999999999959073
 31
0.0
1001
ACDBBLOCKREPETAG
1070
     1
1071
       22
1005
129842
  0
ARC
  5
129843
  8
OBJECT
 10
2080.1802475027539003
 20
-3253.9999999999959073
 30
0.0
 40
3.0
 50
270.0
 51
0.0
1001
ACDBBLOCKREPETAG
1070
     1
1071
       23
1005
129843
  0
LINE
  5
129844
  8
OBJECT
 10
2083.1802475027529908
 20
-3253.9999999999959073
 30
0.0
 11
2083.1802475027529908
 21
-3135.9999999999959073
 31
0.0
1001
ACDBBLOCKREPETAG
1070
     1
1071
       24
1005
129844
  0
LINE
  5
129845
  8
HIDDEN
 10
2085.1802475027539003
 20
-3164.9999999999959073
 30
0.0
 11
2085.1802475027539003
 21
-3224.9999999999959073
 31
0.0
1001
ACDBBLOCKREPETAG
1070
     1
1071
       25
1005
129845
  0
TEXT
  5
129846
  8
SLIM
 10
1893.9302475027529908
 20
-3717.4999999999959073
 30
0.0
 40
35.0
  1
通常枝50（1）
 41
0.75
  0
TEXT
  5
129847
  8
SLIM
 10
4971.7714285714291691
 20
-1372.9999999999959073
 30
0.0
 40
24.0
  1
180～610
 41
0.75
  0
TEXT
  5
129848
  8
SLIM
 10
4970.0571428571429351
 20
-1324.9999999999959073
 30
0.0
 40
24.0
  1
180～600
 41
0.75
  0
TEXT
  5
129849
  8
SLIM
 10
4970.0571428571429351
 20
-1276.9999999999959073
 30
0.0
 40
24.0
  1
180～590
 41
0.75
  0
TEXT
  5
12984A
  8
SLIM
 10
4970.0571428571429351
 20
-1228.9999999999959073
 30
0.0
 40
24.0
  1
180～580
 41
0.75
  0
TEXT
  5
12984B
  8
SLIM
 10
4970.0571428571429351
 20
-1180.9999999999959073
 30
0.0
 40
24.0
  1
180～570
 41
0.75
  0
TEXT
  5
12984C
  8
SLIM
 10
4970.0571428571429351
 20
-1132.9999999999959073
 30
0.0
 40
24.0
  1
180～560
 41
0.75
  0
TEXT
  5
12984D
  8
SLIM
 10
4970.0571428571429351
 20
-1084.9999999999959073
 30
0.0
 40
24.0
  1
180～550
 41
0.75
  0
TEXT
  5
12984E
  8
SLIM
 10
4970.0571428571429351
 20
-1036.9999999999959073
 30
0.0
 40
24.0
  1
180～540
 41
0.75
  0
TEXT
  5
12984F
  8
SLIM
 10
4970.0571428571429351
 20
-988.9999999999961346
 30
0.0
 40
24.0
  1
180～530
 41
0.75
  0
TEXT
  5
129850
  8
SLIM
 10
4970.0571428571429351
 20
-940.9999999999961346
 30
0.0
 40
24.0
  1
180～520
 41
0.75
  0
TEXT
  5
129851
  8
SLIM
 10
4971.7714285714291691
 20
-892.9999999999957936
 30
0.0
 40
24.0
  1
180～510
 41
0.75
  0
TEXT
  5
129852
  8
SLIM
 10
4970.0571428571429351
 20
-844.9999999999957936
 30
0.0
 40
24.0
  1
180～500
 41
0.75
  0
TEXT
  5
129853
  8
SLIM
 10
4970.0571428571429351
 20
-796.9999999999957936
 30
0.0
 40
24.0
  1
180～490
 41
0.75
  0
TEXT
  5
129854
  8
SLIM
 10
4970.0571428571429351
 20
-748.9999999999959073
 30
0.0
 40
24.0
  1
180～480
 41
0.75
  0
TEXT
  5
129855
  8
SLIM
 10
4965.6000000000012733
 20
-700.9999999999957936
 30
0.0
 40
24.0
  1
対応スラブ厚
 41
0.75
  0
TEXT
  5
129856
  8
SLIM
 10
4896.4571428571416618
 20
-1430.9999999999959073
 30
0.0
 40
24.0
  1
標準：m=490
 41
0.75
  0
TEXT
  5
129857
  8
SLIM
 10
4878.857142857143117
 20
-1372.9999999999959073
 30
0.0
 40
24.0
  1
620
 41
0.75
  0
TEXT
  5
129858
  8
SLIM
 10
4880.571428571429351
 20
-1324.9999999999959073
 30
0.0
 40
24.0
  1
610
 41
0.75
  0
TEXT
  5
129859
  8
SLIM
 10
4878.857142857143117
 20
-1276.9999999999959073
 30
0.0
 40
24.0
  1
600
 41
0.75
  0
TEXT
  5
12985A
  8
SLIM
 10
4878.857142857143117
 20
-1228.9999999999959073
 30
0.0
 40
24.0
  1
590
 41
0.75
  0
TEXT
  5
12985B
  8
SLIM
 10
4878.857142857143117
 20
-1180.9999999999959073
 30
0.0
 40
24.0
  1
580
 41
0.75
  0
TEXT
  5
12985C
  8
SLIM
 10
4878.857142857143117
 20
-1132.9999999999959073
 30
0.0
 40
24.0
  1
570
 41
0.75
  0
TEXT
  5
12985D
  8
SLIM
 10
4878.857142857143117
 20
-1084.9999999999959073
 30
0.0
 40
24.0
  1
560
 41
0.75
  0
TEXT
  5
12985E
  8
SLIM
 10
4878.857142857143117
 20
-1036.9999999999959073
 30
0.0
 40
24.0
  1
550
 41
0.75
  0
TEXT
  5
12985F
  8
SLIM
 10
4878.857142857143117
 20
-988.9999999999961346
 30
0.0
 40
24.0
  1
540
 41
0.75
  0
TEXT
  5
129860
  8
SLIM
 10
4878.857142857143117
 20
-940.9999999999961346
 30
0.0
 40
24.0
  1
530
 41
0.75
  0
TEXT
  5
129861
  8
SLIM
 10
4878.857142857143117
 20
-892.9999999999957936
 30
0.0
 40
24.0
  1
520
 41
0.75
  0
TEXT
  5
129862
  8
SLIM
 10
4880.571428571429351
 20
-844.9999999999957936
 30
0.0
 40
24.0
  1
510
 41
0.75
  0
TEXT
  5
129863
  8
SLIM
 10
4878.857142857143117
 20
-796.9999999999957936
 30
0.0
 40
24.0
  1
500
 41
0.75
  0
TEXT
  5
129864
  8
SLIM
 10
4869.9428571428570649
 20
-700.9999999999957936
 30
0.0
 40
24.0
  1
m寸法
 41
0.75
  0
TEXT
  5
129865
  8
SLIM
 10
4878.857142857143117
 20
-748.9999999999959073
 30
0.0
 40
24.0
  1
490
 41
0.75
  0
TEXT
  5
129866
  8
SLIM
 10
3554.6000000000008185
 20
-1720.666666666664014
 30
0.0
 40
28.0
  1
※ 対応スラブ厚　180～（m-10）
 41
0.75
  0
TEXT
  5
129867
  8
SLIM
 10
3554.6000000000008185
 20
-1767.3333333333309838
 30
0.0
 40
28.0
  1
※ 足切り可能寸法（最大）　620-m（コンパクトＬベンド使用なら+10）
 41
0.75
  0
TEXT
  5
129868
  8
SLIM
 10
3598.9000000000000909
 20
-1860.666666666664014
 30
0.0
 40
28.0
  1
国土交通大臣認定・（一財）日本消防設備安全センター性能評定取得品
 41
0.75
  0
TEXT
  5
129869
  8
SLIM
 10
3631.1000000000008185
 20
-1907.3333333333309838
 30
0.0
 40
28.0
  1
注）ご採用にあたり、認定書及び評定書の内容をご確認ください。
 41
0.75
  0
LINE
  5
12986A
  8
SLIM
 10
4414.9999999999918145
 20
-659.4738530943469641
 30
0.0
 11
4419.4738530943395745
 21
-654.9999999999994316
 31
0.0
1001
GRADIENTCOLOR1ACI
1070
     5
1001
GRADIENTCOLOR2ACI
1070
     2
1001
ACAD
1010
0.0
1020
0.0
1030
0.0
  0
LINE
  5
12986B
  8
SLIM
 10
4414.9999999999918145
 20
-677.4343653364850297
 30
0.0
 11
4437.4343653364776401
 21
-654.9999999999994316
 31
0.0
1001
GRADIENTCOLOR1ACI
1070
     5
1001
GRADIENTCOLOR2ACI
1070
     2
1001
ACAD
1010
0.0
1020
0.0
1030
0.0
  0
LINE
  5
12986C
  8
SLIM
 10
4414.9999999999918145
 20
-695.3948775786234364
 30
0.0
 11
4455.3948775786157057
 21
-654.9999999999994316
 31
0.0
1001
GRADIENTCOLOR1ACI
1070
     5
1001
GRADIENTCOLOR2ACI
1070
     2
1001
ACAD
1010
0.0
1020
0.0
1030
0.0
  0
LINE
  5
12986D
  8
SLIM
 10
4414.999999999992724
 20
-713.3553898207613884
 30
0.0
 11
4473.3553898207537713
 21
-654.9999999999994316
 31
0.0
1001
GRADIENTCOLOR1ACI
1070
     5
1001
GRADIENTCOLOR2ACI
1070
     2
1001
ACAD
1010
0.0
1020
0.0
1030
0.0
  0
LINE
  5
12986E
  8
SLIM
 10
4414.999999999992724
 20
-731.315902062899454
 30
0.0
 11
4491.3159020628927465
 21
-654.9999999999994316
 31
0.0
1001
GRADIENTCOLOR1ACI
1070
     5
1001
GRADIENTCOLOR2ACI
1070
     2
1001
ACAD
1010
0.0
1020
0.0
1030
0.0
  0
LINE
  5
12986F
  8
SLIM
 10
4414.999999999992724
 20
-749.2764143050376333
 30
0.0
 11
4509.2764143050308121
 21
-654.9999999999994316
 31
0.0
1001
GRADIENTCOLOR1ACI
1070
     5
1001
GRADIENTCOLOR2ACI
1070
     2
1001
ACAD
1010
0.0
1020
0.0
1030
0.0
  0
LINE
  5
129870
  8
SLIM
 10
4414.999999999992724
 20
-767.23692654717604
 30
0.0
 11
4527.2369265471688777
 21
-654.9999999999994316
 31
0.0
1001
GRADIENTCOLOR1ACI
1070
     5
1001
GRADIENTCOLOR2ACI
1070
     2
1001
ACAD
1010
0.0
1020
0.0
1030
0.0
  0
LINE
  5
129871
  8
SLIM
 10
4414.999999999992724
 20
-785.197438789314333
 30
0.0
 11
4545.1974387893078529
 21
-654.9999999999994316
 31
0.0
1001
GRADIENTCOLOR1ACI
1070
     5
1001
GRADIENTCOLOR2ACI
1070
     2
1001
ACAD
1010
0.0
1020
0.0
1030
0.0
  0
LINE
  5
129872
  8
SLIM
 10
4414.999999999992724
 20
-803.1579510314520576
 30
0.0
 11
4563.157951031445009
 21
-654.9999999999994316
 31
0.0
1001
GRADIENTCOLOR1ACI
1070
     5
1001
GRADIENTCOLOR2ACI
1070
     2
1001
ACAD
1010
0.0
1020
0.0
1030
0.0
  0
LINE
  5
129873
  8
SLIM
 10
4414.999999999992724
 20
-821.1184632735903506
 30
0.0
 11
4581.1184632735830746
 21
-654.9999999999994316
 31
0.0
1001
GRADIENTCOLOR1ACI
1070
     5
1001
GRADIENTCOLOR2ACI
1070
     2
1001
ACAD
1010
0.0
1020
0.0
1030
0.0
  0
LINE
  5
129874
  8
SLIM
 10
4414.999999999992724
 20
-839.0789755157285299
 30
0.0
 11
4585.000000000007276
 21
-669.0789755157155696
 31
0.0
1001
GRADIENTCOLOR1ACI
1070
     5
1001
GRADIENTCOLOR2ACI
1070
     2
1001
ACAD
1010
0.0
1020
0.0
1030
0.0
  0
LINE
  5
129875
  8
SLIM
 10
4414.999999999992724
 20
-857.0394877578669366
 30
0.0
 11
4585.000000000007276
 21
-687.0394877578543174
 31
0.0
1001
GRADIENTCOLOR1ACI
1070
     5
1001
GRADIENTCOLOR2ACI
1070
     2
1001
ACAD
1010
0.0
1020
0.0
1030
0.0
  0
LINE
  5
129876
  8
SLIM
 10
4414.999999999992724
 20
-875.0000000000048885
 30
0.0
 11
4585.000000000007276
 21
-704.9999999999926104
 31
0.0
1001
GRADIENTCOLOR1ACI
1070
     5
1001
GRADIENTCOLOR2ACI
1070
     2
1001
ACAD
1010
0.0
1020
0.0
1030
0.0
  0
LINE
  5
129877
  8
SLIM
 10
4414.999999999992724
 20
-892.9605122421430679
 30
0.0
 11
4585.000000000007276
 21
-722.9605122421311307
 31
0.0
1001
GRADIENTCOLOR1ACI
1070
     5
1001
GRADIENTCOLOR2ACI
1070
     2
1001
ACAD
1010
0.0
1020
0.0
1030
0.0
  0
LINE
  5
129878
  8
SLIM
 10
4414.999999999992724
 20
-910.9210244842812472
 30
0.0
 11
4585.000000000007276
 21
-740.9210244842695374
 31
0.0
1001
GRADIENTCOLOR1ACI
1070
     5
1001
GRADIENTCOLOR2ACI
1070
     2
1001
ACAD
1010
0.0
1020
0.0
1030
0.0
  0
LINE
  5
129879
  8
SLIM
 10
4414.999999999992724
 20
-928.8815367264193128
 30
0.0
 11
4585.000000000007276
 21
-758.8815367264078304
 31
0.0
1001
GRADIENTCOLOR1ACI
1070
     5
1001
GRADIENTCOLOR2ACI
1070
     2
1001
ACAD
1010
0.0
1020
0.0
1030
0.0
  0
LINE
  5
12987A
  8
SLIM
 10
4414.9999999999954525
 20
-946.8420489685574921
 30
0.0
 11
4585.000000000007276
 21
-776.8420489685463508
 31
0.0
1001
GRADIENTCOLOR1ACI
1070
     5
1001
GRADIENTCOLOR2ACI
1070
     2
1001
ACAD
1010
0.0
1020
0.0
1030
0.0
  0
LINE
  5
12987B
  8
SLIM
 10
4414.9999999999954525
 20
-964.8025612106956714
 30
0.0
 11
4585.000000000007276
 21
-794.8025612106848712
 31
0.0
1001
GRADIENTCOLOR1ACI
1070
     5
1001
GRADIENTCOLOR2ACI
1070
     2
1001
ACAD
1010
0.0
1020
0.0
1030
0.0
  0
LINE
  5
12987C
  8
SLIM
 10
4414.9999999999954525
 20
-982.7630734528337371
 30
0.0
 11
4585.000000000007276
 21
-812.7630734528230505
 31
0.0
1001
GRADIENTCOLOR1ACI
1070
     5
1001
GRADIENTCOLOR2ACI
1070
     2
1001
ACAD
1010
0.0
1020
0.0
1030
0.0
  0
LINE
  5
12987D
  8
SLIM
 10
4414.9999999999954525
 20
-1000.7235856949720301
 30
0.0
 11
4585.000000000007276
 21
-830.7235856949619119
 31
0.0
1001
GRADIENTCOLOR1ACI
1070
     5
1001
GRADIENTCOLOR2ACI
1070
     2
1001
ACAD
1010
0.0
1020
0.0
1030
0.0
  0
LINE
  5
12987E
  8
SLIM
 10
4414.9999999999954525
 20
-1018.684097937109982
 30
0.0
 11
4585.000000000007276
 21
-848.6840979371002049
 31
0.0
1001
GRADIENTCOLOR1ACI
1070
     5
1001
GRADIENTCOLOR2ACI
1070
     2
1001
ACAD
1010
0.0
1020
0.0
1030
0.0
  0
LINE
  5
12987F
  8
SLIM
 10
4414.9999999999954525
 20
-1036.6446101792480476
 30
0.0
 11
4585.000000000007276
 21
-866.6446101792383843
 31
0.0
1001
GRADIENTCOLOR1ACI
1070
     5
1001
GRADIENTCOLOR2ACI
1070
     2
1001
ACAD
1010
0.0
1020
0.0
1030
0.0
  0
LINE
  5
129880
  8
SLIM
 10
4414.9999999999954525
 20
-1054.6051224213861133
 30
0.0
 11
4585.000000000007276
 21
-884.6051224213772457
 31
0.0
1001
GRADIENTCOLOR1ACI
1070
     5
1001
GRADIENTCOLOR2ACI
1070
     2
1001
ACAD
1010
0.0
1020
0.0
1030
0.0
  0
LINE
  5
129881
  8
SLIM
 10
4414.9999999999954525
 20
-1072.5656346635239515
 30
0.0
 11
4585.000000000007276
 21
-902.5656346635155387
 31
0.0
1001
GRADIENTCOLOR1ACI
1070
     5
1001
GRADIENTCOLOR2ACI
1070
     2
1001
ACAD
1010
0.0
1020
0.0
1030
0.0
  0
LINE
  5
129882
  8
SLIM
 10
4414.9999999999954525
 20
-1090.5261469056629267
 30
0.0
 11
4585.000000000007276
 21
-920.5261469056540591
 31
0.0
1001
GRADIENTCOLOR1ACI
1070
     5
1001
GRADIENTCOLOR2ACI
1070
     2
1001
ACAD
1010
0.0
1020
0.0
1030
0.0
  0
LINE
  5
129883
  8
SLIM
 10
4415.3182312960889249
 20
-1108.1684278517070652
 30
0.0
 11
4585.000000000007276
 21
-938.4866591477923521
 31
0.0
1001
GRADIENTCOLOR1ACI
1070
     5
1001
GRADIENTCOLOR2ACI
1070
     2
1001
ACAD
1010
0.0
1020
0.0
1030
0.0
  0
LINE
  5
129884
  8
SLIM
 10
4417.3138437674388115
 20
-1124.1333276224959263
 30
0.0
 11
4585.000000000003638
 21
-956.4471713899307588
 31
0.0
1001
GRADIENTCOLOR1ACI
1070
     5
1001
GRADIENTCOLOR2ACI
1070
     2
1001
ACAD
1010
0.0
1020
0.0
1030
0.0
  0
LINE
  5
129885
  8
SLIM
 10
4419.3094562387877886
 20
-1140.0982273932859243
 30
0.0
 11
4585.000000000003638
 21
-974.4076836320691655
 31
0.0
1001
GRADIENTCOLOR1ACI
1070
     5
1001
GRADIENTCOLOR2ACI
1070
     2
1001
ACAD
1010
0.0
1020
0.0
1030
0.0
  0
LINE
  5
129886
  8
SLIM
 10
4430.0
 20
-1147.3681958742120059
 30
0.0
 11
4432.3681958742126881
 21
-1144.9999999999990905
 31
0.0
1001
GRADIENTCOLOR1ACI
1070
     5
1001
GRADIENTCOLOR2ACI
1070
     2
1001
ACAD
1010
0.0
1020
0.0
1030
0.0
  0
LINE
  5
129887
  8
SLIM
 10
4432.3681958742126881
 20
-1144.9999999999990905
 30
0.0
 11
4585.000000000003638
 21
-992.3681958742079132
 31
0.0
1001
GRADIENTCOLOR1ACI
1070
     5
1001
GRADIENTCOLOR2ACI
1070
     2
1001
ACAD
1010
0.0
1020
0.0
1030
0.0
  0
LINE
  5
129888
  8
SLIM
 10
4430.3287081163507537
 20
-1164.9999999999990905
 30
0.0
 11
4450.3287081163516632
 21
-1144.9999999999990905
 31
0.0
1001
GRADIENTCOLOR1ACI
1070
     5
1001
GRADIENTCOLOR2ACI
1070
     2
1001
ACAD
1010
0.0
1020
0.0
1030
0.0
  0
LINE
  5
129889
  8
SLIM
 10
4450.3287081163516632
 20
-1144.9999999999990905
 30
0.0
 11
4585.000000000003638
 21
-1010.3287081163459789
 31
0.0
1001
GRADIENTCOLOR1ACI
1070
     5
1001
GRADIENTCOLOR2ACI
1070
     2
1001
ACAD
1010
0.0
1020
0.0
1030
0.0
  0
LINE
  5
12988A
  8
SLIM
 10
4448.2892203584879098
 20
-1164.9999999999990905
 30
0.0
 11
4468.2892203584897288
 21
-1144.9999999999990905
 31
0.0
1001
GRADIENTCOLOR1ACI
1070
     5
1001
GRADIENTCOLOR2ACI
1070
     2
1001
ACAD
1010
0.0
1020
0.0
1030
0.0
  0
LINE
  5
12988B
  8
SLIM
 10
4468.2892203584897288
 20
-1144.9999999999990905
 30
0.0
 11
4585.000000000003638
 21
-1028.289220358484954
 31
0.0
1001
GRADIENTCOLOR1ACI
1070
     5
1001
GRADIENTCOLOR2ACI
1070
     2
1001
ACAD
1010
0.0
1020
0.0
1030
0.0
  0
LINE
  5
12988C
  8
SLIM
 10
4466.2497326006277945
 20
-1164.9999999999990905
 30
0.0
 11
4486.2497326006277945
 21
-1144.9999999999990905
 31
0.0
1001
GRADIENTCOLOR1ACI
1070
     5
1001
GRADIENTCOLOR2ACI
1070
     2
1001
ACAD
1010
0.0
1020
0.0
1030
0.0
  0
LINE
  5
12988D
  8
SLIM
 10
4486.2497326006277945
 20
-1144.9999999999990905
 30
0.0
 11
4585.000000000003638
 21
-1046.2497326006230196
 31
0.0
1001
GRADIENTCOLOR1ACI
1070
     5
1001
GRADIENTCOLOR2ACI
1070
     2
1001
ACAD
1010
0.0
1020
0.0
1030
0.0
  0
LINE
  5
12988E
  8
SLIM
 10
4484.2102448427658601
 20
-1164.9999999999990905
 30
0.0
 11
4504.2102448427658601
 21
-1144.9999999999990905
 31
0.0
1001
GRADIENTCOLOR1ACI
1070
     5
1001
GRADIENTCOLOR2ACI
1070
     2
1001
ACAD
1010
0.0
1020
0.0
1030
0.0
  0
LINE
  5
12988F
  8
SLIM
 10
4504.2102448427658601
 20
-1144.9999999999990905
 30
0.0
 11
4585.0000000000027285
 21
-1064.2102448427619947
 31
0.0
1001
GRADIENTCOLOR1ACI
1070
     5
1001
GRADIENTCOLOR2ACI
1070
     2
1001
ACAD
1010
0.0
1020
0.0
1030
0.0
  0
LINE
  5
129890
  8
SLIM
 10
4502.1707570849048352
 20
-1164.9999999999990905
 30
0.0
 11
4522.1707570849048352
 21
-1144.9999999999990905
 31
0.0
1001
GRADIENTCOLOR1ACI
1070
     5
1001
GRADIENTCOLOR2ACI
1070
     2
1001
ACAD
1010
0.0
1020
0.0
1030
0.0
  0
LINE
  5
129891
  8
SLIM
 10
4522.1707570849048352
 20
-1144.9999999999990905
 30
0.0
 11
4585.0000000000027285
 21
-1082.1707570849000604
 31
0.0
1001
GRADIENTCOLOR1ACI
1070
     5
1001
GRADIENTCOLOR2ACI
1070
     2
1001
ACAD
1010
0.0
1020
0.0
1030
0.0
  0
LINE
  5
129892
  8
SLIM
 10
4520.1312693270429008
 20
-1164.9999999999990905
 30
0.0
 11
4540.1312693270429008
 21
-1144.9999999999990905
 31
0.0
1001
GRADIENTCOLOR1ACI
1070
     5
1001
GRADIENTCOLOR2ACI
1070
     2
1001
ACAD
1010
0.0
1020
0.0
1030
0.0
  0
LINE
  5
129893
  8
SLIM
 10
4540.1312693270429008
 20
-1144.9999999999990905
 30
0.0
 11
4585.0000000000027285
 21
-1100.1312693270378986
 31
0.0
1001
GRADIENTCOLOR1ACI
1070
     5
1001
GRADIENTCOLOR2ACI
1070
     2
1001
ACAD
1010
0.0
1020
0.0
1030
0.0
  0
LINE
  5
129894
  8
SLIM
 10
4538.091781569180057
 20
-1164.9999999999990905
 30
0.0
 11
4558.091781569180057
 21
-1144.9999999999990905
 31
0.0
1001
GRADIENTCOLOR1ACI
1070
     5
1001
GRADIENTCOLOR2ACI
1070
     2
1001
ACAD
1010
0.0
1020
0.0
1030
0.0
  0
LINE
  5
129895
  8
SLIM
 10
4558.091781569180057
 20
-1144.9999999999990905
 30
0.0
 11
4583.2186851305423261
 21
-1119.8730964386370488
 31
0.0
1001
GRADIENTCOLOR1ACI
1070
     5
1001
GRADIENTCOLOR2ACI
1070
     2
1001
ACAD
1010
0.0
1020
0.0
1030
0.0
  0
LINE
  5
129896
  8
SLIM
 10
4556.0522938113181226
 20
-1164.9999999999990905
 30
0.0
 11
4570.0
 21
-1151.0522938113190321
 31
0.0
1001
GRADIENTCOLOR1ACI
1070
     5
1001
GRADIENTCOLOR2ACI
1070
     2
1001
ACAD
1010
0.0
1020
0.0
1030
0.0
  0
LINE
  5
129897
  8
SLIM
 10
4576.0522938113190321
 20
-1144.9999999999990905
 30
0.0
 11
4580.6528976673798752
 21
-1140.39939614393802
 31
0.0
1001
GRADIENTCOLOR1ACI
1070
     5
1001
GRADIENTCOLOR2ACI
1070
     2
1001
ACAD
1010
0.0
1020
0.0
1030
0.0
  0
LINE
  5
129898
  8
OBJECT
 10
4585.000000000007276
 20
-654.9999999999994316
 30
0.0
 11
4585.0000000000027285
 21
-1105.6225774829579223
 31
0.0
1001
ACDBBLOCKREPETAG
1070
     1
1071
        2
1005
0
  0
LINE
  5
129899
  8
OBJECT
 10
4585.000000000007276
 20
-654.9999999999994316
 30
0.0
 11
4414.9999999999918145
 21
-654.9999999999994316
 31
0.0
1001
ACDBBLOCKREPETAG
1070
     1
1071
        3
1005
0
  0
LINE
  5
12989A
  8
OBJECT
 10
4419.9221778146256838
 20
-1144.9999999999990905
 30
0.0
 11
4580.0778221853715877
 21
-1144.9999999999990905
 31
0.0
1001
ACDBBLOCKREPETAG
1070
     1
1071
        3
1005
0
  0
LINE
  5
12989B
  8
OBJECT
 10
4580.0778221853715877
 20
-1144.9999999999990905
 30
0.0
 11
4585.0000000000027285
 21
-1105.6225774829579223
 31
0.0
1001
ACDBBLOCKREPETAG
1070
     1
1071
       11
1005
0
  0
LINE
  5
12989C
  8
OBJECT
 10
4414.9999999999918145
 20
-654.9999999999994316
 30
0.0
 11
4414.9999999999954525
 21
-1105.6225774829579223
 31
0.0
1001
ACDBBLOCKREPETAG
1070
     1
1071
        2
1005
0
  0
LINE
  5
12989D
  8
OBJECT
 10
4419.9221778146256838
 20
-1144.9999999999990905
 30
0.0
 11
4414.9999999999954525
 21
-1105.6225774829579223
 31
0.0
1001
ACDBBLOCKREPETAG
1070
     1
1071
       11
1005
0
  0
LINE
  5
12989E
  8
OBJECT
 10
4430.0
 20
-1144.9999999999990905
 30
0.0
 11
4430.0
 21
-1164.9999999999990905
 31
0.0
1001
ACDBBLOCKREPETAG
1070
     1
1071
       10
1005
0
  0
LINE
  5
12989F
  8
OBJECT
 10
4430.0
 20
-1164.9999999999990905
 30
0.0
 11
4570.0
 21
-1164.9999999999990905
 31
0.0
1001
ACDBBLOCKREPETAG
1070
     1
1071
       11
1005
0
  0
LINE
  5
1298A0
  8
OBJECT
 10
4570.0
 20
-1164.9999999999990905
 30
0.0
 11
4570.0
 21
-1144.9999999999990905
 31
0.0
1001
ACDBBLOCKREPETAG
1070
     1
1071
       12
1005
0
  0
LINE
  5
1298A1
  8
OBJECT
 10
4425.0
 20
-789.9999999999994316
 30
0.0
 11
4425.0
 21
-1062.9999999999990905
 31
0.0
1001
ACDBBLOCKREPETAG
1070
     1
1071
        1
1005
1298A1
  0
LINE
  5
1298A2
  8
OBJECT
 10
4575.0
 20
-789.9999999999937472
 30
0.0
 11
4575.0
 21
-1062.9999999999990905
 31
0.0
1001
ACDBBLOCKREPETAG
1070
     1
1071
        3
1005
1298A2
  0
LINE
  5
1298A3
  8
CENTER
 10
4500.0
 20
-789.9999999999994316
 30
0.0
 11
4500.0
 21
-1074.9999999999990905
 31
0.0
1001
ACDBBLOCKREPETAG
1070
     1
1071
        6
1005
1298A3
  0
LINE
  5
1298A4
  8
OBJECT
 10
4420.0
 20
-1074.9999999999990905
 30
0.0
 11
4580.0
 21
-1074.9999999999990905
 31
0.0
1001
ACDBBLOCKREPETAG
1070
     1
1071
        7
1005
1298A4
  0
LINE
  5
1298A5
  8
OBJECT
 10
4420.0
 20
-1062.9999999999990905
 30
0.0
 11
4580.0
 21
-1062.9999999999990905
 31
0.0
1001
ACDBBLOCKREPETAG
1070
     1
1071
        8
1005
1298A5
  0
LINE
  5
1298A6
  8
OBJECT
 10
4420.0
 20
-1062.9999999999990905
 30
0.0
 11
4420.0
 21
-1074.9999999999990905
 31
0.0
1001
ACDBBLOCKREPETAG
1070
     1
1071
        9
1005
1298A6
  0
LINE
  5
1298A7
  8
OBJECT
 10
4580.0
 20
-1062.9999999999990905
 30
0.0
 11
4580.0
 21
-1074.9999999999990905
 31
0.0
1001
ACDBBLOCKREPETAG
1070
     1
1071
       10
1005
1298A7
  0
LINE
  5
1298A8
  8
OBJECT
 10
2425.0
 20
-789.9999999999994316
 30
0.0
 11
2425.0
 21
-1062.9999999999990905
 31
0.0
1001
ACDBBLOCKREPETAG
1070
     1
1071
        1
1005
1298A8
  0
LINE
  5
1298A9
  8
OBJECT
 10
2575.0
 20
-789.9999999999937472
 30
0.0
 11
2575.0
 21
-1062.9999999999990905
 31
0.0
1001
ACDBBLOCKREPETAG
1070
     1
1071
        3
1005
1298A9
  0
LINE
  5
1298AA
  8
CENTER
 10
2500.0
 20
-789.9999999999994316
 30
0.0
 11
2500.0
 21
-1074.9999999999990905
 31
0.0
1001
ACDBBLOCKREPETAG
1070
     1
1071
        6
1005
1298AA
  0
LINE
  5
1298AB
  8
OBJECT
 10
2420.0
 20
-1074.9999999999990905
 30
0.0
 11
2580.0
 21
-1074.9999999999990905
 31
0.0
1001
ACDBBLOCKREPETAG
1070
     1
1071
        7
1005
1298AB
  0
LINE
  5
1298AC
  8
OBJECT
 10
2420.0
 20
-1062.9999999999990905
 30
0.0
 11
2580.0
 21
-1062.9999999999990905
 31
0.0
1001
ACDBBLOCKREPETAG
1070
     1
1071
        8
1005
1298AC
  0
LINE
  5
1298AD
  8
OBJECT
 10
2420.0
 20
-1062.9999999999990905
 30
0.0
 11
2420.0
 21
-1074.9999999999990905
 31
0.0
1001
ACDBBLOCKREPETAG
1070
     1
1071
        9
1005
1298AD
  0
LINE
  5
1298AE
  8
OBJECT
 10
2580.0
 20
-1062.9999999999990905
 30
0.0
 11
2580.0
 21
-1074.9999999999990905
 31
0.0
1001
ACDBBLOCKREPETAG
1070
     1
1071
       10
1005
1298AE
  0
LINE
  5
1298AF
  8
SLIM
 10
3914.9999999999931788
 20
-659.4738530943469641
 30
0.0
 11
3919.4738530943400292
 21
-654.9999999999994316
 31
0.0
1001
GRADIENTCOLOR1ACI
1070
     5
1001
GRADIENTCOLOR2ACI
1070
     2
1001
ACAD
1010
0.0
1020
0.0
1030
0.0
  0
LINE
  5
1298B0
  8
SLIM
 10
3914.9999999999931788
 20
-677.4343653364850297
 30
0.0
 11
3937.4343653364799138
 21
-654.9999999999994316
 31
0.0
1001
GRADIENTCOLOR1ACI
1070
     5
1001
GRADIENTCOLOR2ACI
1070
     2
1001
ACAD
1010
0.0
1020
0.0
1030
0.0
  0
LINE
  5
1298B1
  8
SLIM
 10
3914.9999999999940883
 20
-695.3948775786234364
 30
0.0
 11
3955.3948775786179795
 21
-654.9999999999994316
 31
0.0
1001
GRADIENTCOLOR1ACI
1070
     5
1001
GRADIENTCOLOR2ACI
1070
     2
1001
ACAD
1010
0.0
1020
0.0
1030
0.0
  0
LINE
  5
1298B2
  8
SLIM
 10
3914.9999999999940883
 20
-713.3553898207613884
 30
0.0
 11
3973.3553898207551356
 21
-654.9999999999994316
 31
0.0
1001
GRADIENTCOLOR1ACI
1070
     5
1001
GRADIENTCOLOR2ACI
1070
     2
1001
ACAD
1010
0.0
1020
0.0
1030
0.0
  0
LINE
  5
1298B3
  8
SLIM
 10
3914.9999999999940883
 20
-731.315902062899454
 30
0.0
 11
3991.3159020628941107
 21
-654.9999999999994316
 31
0.0
1001
GRADIENTCOLOR1ACI
1070
     5
1001
GRADIENTCOLOR2ACI
1070
     2
1001
ACAD
1010
0.0
1020
0.0
1030
0.0
  0
LINE
  5
1298B4
  8
SLIM
 10
3914.9999999999940883
 20
-749.2764143050376333
 30
0.0
 11
4009.2764143050308121
 21
-654.9999999999994316
 31
0.0
1001
GRADIENTCOLOR1ACI
1070
     5
1001
GRADIENTCOLOR2ACI
1070
     2
1001
ACAD
1010
0.0
1020
0.0
1030
0.0
  0
LINE
  5
1298B5
  8
SLIM
 10
3914.9999999999940883
 20
-767.23692654717604
 30
0.0
 11
4027.2369265471688777
 21
-654.9999999999994316
 31
0.0
1001
GRADIENTCOLOR1ACI
1070
     5
1001
GRADIENTCOLOR2ACI
1070
     2
1001
ACAD
1010
0.0
1020
0.0
1030
0.0
  0
LINE
  5
1298B6
  8
SLIM
 10
3914.9999999999940883
 20
-785.197438789314333
 30
0.0
 11
4045.1974387893060339
 21
-654.9999999999994316
 31
0.0
1001
GRADIENTCOLOR1ACI
1070
     5
1001
GRADIENTCOLOR2ACI
1070
     2
1001
ACAD
1010
0.0
1020
0.0
1030
0.0
  0
LINE
  5
1298B7
  8
SLIM
 10
3914.9999999999940883
 20
-803.1579510314520576
 30
0.0
 11
4063.157951031445009
 21
-654.9999999999994316
 31
0.0
1001
GRADIENTCOLOR1ACI
1070
     5
1001
GRADIENTCOLOR2ACI
1070
     2
1001
ACAD
1010
0.0
1020
0.0
1030
0.0
  0
LINE
  5
1298B8
  8
SLIM
 10
3914.9999999999940883
 20
-821.1184632735903506
 30
0.0
 11
4081.1184632735839841
 21
-654.9999999999994316
 31
0.0
1001
GRADIENTCOLOR1ACI
1070
     5
1001
GRADIENTCOLOR2ACI
1070
     2
1001
ACAD
1010
0.0
1020
0.0
1030
0.0
  0
LINE
  5
1298B9
  8
SLIM
 10
3914.9999999999940883
 20
-839.0789755157285299
 30
0.0
 11
4085.0000000000068212
 21
-669.0789755157155696
 31
0.0
1001
GRADIENTCOLOR1ACI
1070
     5
1001
GRADIENTCOLOR2ACI
1070
     2
1001
ACAD
1010
0.0
1020
0.0
1030
0.0
  0
LINE
  5
1298BA
  8
SLIM
 10
3914.9999999999940883
 20
-857.0394877578669366
 30
0.0
 11
4085.0000000000068212
 21
-687.0394877578543174
 31
0.0
1001
GRADIENTCOLOR1ACI
1070
     5
1001
GRADIENTCOLOR2ACI
1070
     2
1001
ACAD
1010
0.0
1020
0.0
1030
0.0
  0
LINE
  5
1298BB
  8
SLIM
 10
3914.9999999999940883
 20
-875.0000000000048885
 30
0.0
 11
4085.0000000000068212
 21
-704.9999999999926104
 31
0.0
1001
GRADIENTCOLOR1ACI
1070
     5
1001
GRADIENTCOLOR2ACI
1070
     2
1001
ACAD
1010
0.0
1020
0.0
1030
0.0
  0
LINE
  5
1298BC
  8
SLIM
 10
3914.9999999999940883
 20
-892.9605122421430679
 30
0.0
 11
4085.0000000000068212
 21
-722.9605122421311307
 31
0.0
1001
GRADIENTCOLOR1ACI
1070
     5
1001
GRADIENTCOLOR2ACI
1070
     2
1001
ACAD
1010
0.0
1020
0.0
1030
0.0
  0
LINE
  5
1298BD
  8
SLIM
 10
3914.9999999999940883
 20
-910.9210244842812472
 30
0.0
 11
4085.0000000000068212
 21
-740.9210244842695374
 31
0.0
1001
GRADIENTCOLOR1ACI
1070
     5
1001
GRADIENTCOLOR2ACI
1070
     2
1001
ACAD
1010
0.0
1020
0.0
1030
0.0
  0
LINE
  5
1298BE
  8
SLIM
 10
3914.9999999999940883
 20
-928.8815367264193128
 30
0.0
 11
4085.0000000000068212
 21
-758.8815367264078304
 31
0.0
1001
GRADIENTCOLOR1ACI
1070
     5
1001
GRADIENTCOLOR2ACI
1070
     2
1001
ACAD
1010
0.0
1020
0.0
1030
0.0
  0
LINE
  5
1298BF
  8
SLIM
 10
3914.9999999999940883
 20
-946.8420489685574921
 30
0.0
 11
4085.0000000000068212
 21
-776.8420489685463508
 31
0.0
1001
GRADIENTCOLOR1ACI
1070
     5
1001
GRADIENTCOLOR2ACI
1070
     2
1001
ACAD
1010
0.0
1020
0.0
1030
0.0
  0
LINE
  5
1298C0
  8
SLIM
 10
3914.9999999999940883
 20
-964.8025612106956714
 30
0.0
 11
4085.0000000000059117
 21
-794.8025612106848712
 31
0.0
1001
GRADIENTCOLOR1ACI
1070
     5
1001
GRADIENTCOLOR2ACI
1070
     2
1001
ACAD
1010
0.0
1020
0.0
1030
0.0
  0
LINE
  5
1298C1
  8
SLIM
 10
3914.9999999999940883
 20
-982.7630734528337371
 30
0.0
 11
4085.0000000000059117
 21
-812.7630734528230505
 31
0.0
1001
GRADIENTCOLOR1ACI
1070
     5
1001
GRADIENTCOLOR2ACI
1070
     2
1001
ACAD
1010
0.0
1020
0.0
1030
0.0
  0
LINE
  5
1298C2
  8
SLIM
 10
3914.9999999999940883
 20
-1000.7235856949720301
 30
0.0
 11
4085.0000000000059117
 21
-830.7235856949619119
 31
0.0
1001
GRADIENTCOLOR1ACI
1070
     5
1001
GRADIENTCOLOR2ACI
1070
     2
1001
ACAD
1010
0.0
1020
0.0
1030
0.0
  0
LINE
  5
1298C3
  8
SLIM
 10
3914.9999999999968168
 20
-1018.684097937109982
 30
0.0
 11
4085.0000000000059117
 21
-848.6840979371002049
 31
0.0
1001
GRADIENTCOLOR1ACI
1070
     5
1001
GRADIENTCOLOR2ACI
1070
     2
1001
ACAD
1010
0.0
1020
0.0
1030
0.0
  0
LINE
  5
1298C4
  8
SLIM
 10
3914.9999999999968168
 20
-1036.6446101792480476
 30
0.0
 11
4085.0000000000059117
 21
-866.6446101792383843
 31
0.0
1001
GRADIENTCOLOR1ACI
1070
     5
1001
GRADIENTCOLOR2ACI
1070
     2
1001
ACAD
1010
0.0
1020
0.0
1030
0.0
  0
LINE
  5
1298C5
  8
SLIM
 10
3914.9999999999968168
 20
-1054.6051224213861133
 30
0.0
 11
4085.0000000000059117
 21
-884.6051224213772457
 31
0.0
1001
GRADIENTCOLOR1ACI
1070
     5
1001
GRADIENTCOLOR2ACI
1070
     2
1001
ACAD
1010
0.0
1020
0.0
1030
0.0
  0
LINE
  5
1298C6
  8
SLIM
 10
3914.9999999999968168
 20
-1072.5656346635239515
 30
0.0
 11
4085.0000000000059117
 21
-902.5656346635155387
 31
0.0
1001
GRADIENTCOLOR1ACI
1070
     5
1001
GRADIENTCOLOR2ACI
1070
     2
1001
ACAD
1010
0.0
1020
0.0
1030
0.0
  0
LINE
  5
1298C7
  8
SLIM
 10
3914.9999999999968168
 20
-1090.5261469056629267
 30
0.0
 11
4085.0000000000050022
 21
-920.5261469056540591
 31
0.0
1001
GRADIENTCOLOR1ACI
1070
     5
1001
GRADIENTCOLOR2ACI
1070
     2
1001
ACAD
1010
0.0
1020
0.0
1030
0.0
  0
LINE
  5
1298C8
  8
SLIM
 10
3915.3182312960889249
 20
-1108.1684278517070652
 30
0.0
 11
4085.0000000000050022
 21
-938.4866591477923521
 31
0.0
1001
GRADIENTCOLOR1ACI
1070
     5
1001
GRADIENTCOLOR2ACI
1070
     2
1001
ACAD
1010
0.0
1020
0.0
1030
0.0
  0
LINE
  5
1298C9
  8
SLIM
 10
3917.3138437674401757
 20
-1124.1333276224959263
 30
0.0
 11
4085.0000000000050022
 21
-956.4471713899307588
 31
0.0
1001
GRADIENTCOLOR1ACI
1070
     5
1001
GRADIENTCOLOR2ACI
1070
     2
1001
ACAD
1010
0.0
1020
0.0
1030
0.0
  0
LINE
  5
1298CA
  8
SLIM
 10
3919.3094562387900623
 20
-1140.0982273932859243
 30
0.0
 11
4085.0000000000040927
 21
-974.4076836320691655
 31
0.0
1001
GRADIENTCOLOR1ACI
1070
     5
1001
GRADIENTCOLOR2ACI
1070
     2
1001
ACAD
1010
0.0
1020
0.0
1030
0.0
  0
LINE
  5
1298CB
  8
SLIM
 10
3930.0
 20
-1147.3681958742120059
 30
0.0
 11
3932.3681958742149618
 21
-1144.9999999999990905
 31
0.0
1001
GRADIENTCOLOR1ACI
1070
     5
1001
GRADIENTCOLOR2ACI
1070
     2
1001
ACAD
1010
0.0
1020
0.0
1030
0.0
  0
LINE
  5
1298CC
  8
SLIM
 10
3932.3681958742149618
 20
-1144.9999999999990905
 30
0.0
 11
4085.0000000000040927
 21
-992.3681958742079132
 31
0.0
1001
GRADIENTCOLOR1ACI
1070
     5
1001
GRADIENTCOLOR2ACI
1070
     2
1001
ACAD
1010
0.0
1020
0.0
1030
0.0
  0
LINE
  5
1298CD
  8
SLIM
 10
3930.3287081163512084
 20
-1164.9999999999990905
 30
0.0
 11
3950.3287081163521179
 21
-1144.9999999999990905
 31
0.0
1001
GRADIENTCOLOR1ACI
1070
     5
1001
GRADIENTCOLOR2ACI
1070
     2
1001
ACAD
1010
0.0
1020
0.0
1030
0.0
  0
LINE
  5
1298CE
  8
SLIM
 10
3950.3287081163521179
 20
-1144.9999999999990905
 30
0.0
 11
4085.0000000000040927
 21
-1010.3287081163459789
 31
0.0
1001
GRADIENTCOLOR1ACI
1070
     5
1001
GRADIENTCOLOR2ACI
1070
     2
1001
ACAD
1010
0.0
1020
0.0
1030
0.0
  0
LINE
  5
1298CF
  8
SLIM
 10
3948.2892203584888193
 20
-1164.9999999999990905
 30
0.0
 11
3968.2892203584901836
 21
-1144.9999999999990905
 31
0.0
1001
GRADIENTCOLOR1ACI
1070
     5
1001
GRADIENTCOLOR2ACI
1070
     2
1001
ACAD
1010
0.0
1020
0.0
1030
0.0
  0
LINE
  5
1298D0
  8
SLIM
 10
3968.2892203584901836
 20
-1144.9999999999990905
 30
0.0
 11
4085.0000000000040927
 21
-1028.289220358484954
 31
0.0
1001
GRADIENTCOLOR1ACI
1070
     5
1001
GRADIENTCOLOR2ACI
1070
     2
1001
ACAD
1010
0.0
1020
0.0
1030
0.0
  0
LINE
  5
1298D1
  8
SLIM
 10
3966.2497326006277945
 20
-1164.9999999999990905
 30
0.0
 11
3986.2497326006277945
 21
-1144.9999999999990905
 31
0.0
1001
GRADIENTCOLOR1ACI
1070
     5
1001
GRADIENTCOLOR2ACI
1070
     2
1001
ACAD
1010
0.0
1020
0.0
1030
0.0
  0
LINE
  5
1298D2
  8
SLIM
 10
3986.2497326006277945
 20
-1144.9999999999990905
 30
0.0
 11
4085.0000000000040927
 21
-1046.2497326006230196
 31
0.0
1001
GRADIENTCOLOR1ACI
1070
     5
1001
GRADIENTCOLOR2ACI
1070
     2
1001
ACAD
1010
0.0
1020
0.0
1030
0.0
  0
LINE
  5
1298D3
  8
SLIM
 10
3984.2102448427672243
 20
-1164.9999999999990905
 30
0.0
 11
4004.2102448427658601
 21
-1144.9999999999990905
 31
0.0
1001
GRADIENTCOLOR1ACI
1070
     5
1001
GRADIENTCOLOR2ACI
1070
     2
1001
ACAD
1010
0.0
1020
0.0
1030
0.0
  0
LINE
  5
1298D4
  8
SLIM
 10
4004.2102448427658601
 20
-1144.9999999999990905
 30
0.0
 11
4085.0000000000040927
 21
-1064.2102448427619947
 31
0.0
1001
GRADIENTCOLOR1ACI
1070
     5
1001
GRADIENTCOLOR2ACI
1070
     2
1001
ACAD
1010
0.0
1020
0.0
1030
0.0
  0
LINE
  5
1298D5
  8
SLIM
 10
4002.1707570849030162
 20
-1164.9999999999990905
 30
0.0
 11
4022.1707570849048352
 21
-1144.9999999999990905
 31
0.0
1001
GRADIENTCOLOR1ACI
1070
     5
1001
GRADIENTCOLOR2ACI
1070
     2
1001
ACAD
1010
0.0
1020
0.0
1030
0.0
  0
LINE
  5
1298D6
  8
SLIM
 10
4022.1707570849048352
 20
-1144.9999999999990905
 30
0.0
 11
4085.0000000000031832
 21
-1082.1707570849000604
 31
0.0
1001
GRADIENTCOLOR1ACI
1070
     5
1001
GRADIENTCOLOR2ACI
1070
     2
1001
ACAD
1010
0.0
1020
0.0
1030
0.0
  0
LINE
  5
1298D7
  8
SLIM
 10
4020.1312693270429008
 20
-1164.9999999999990905
 30
0.0
 11
4040.1312693270429008
 21
-1144.9999999999990905
 31
0.0
1001
GRADIENTCOLOR1ACI
1070
     5
1001
GRADIENTCOLOR2ACI
1070
     2
1001
ACAD
1010
0.0
1020
0.0
1030
0.0
  0
LINE
  5
1298D8
  8
SLIM
 10
4040.1312693270429008
 20
-1144.9999999999990905
 30
0.0
 11
4085.0000000000031832
 21
-1100.1312693270378986
 31
0.0
1001
GRADIENTCOLOR1ACI
1070
     5
1001
GRADIENTCOLOR2ACI
1070
     2
1001
ACAD
1010
0.0
1020
0.0
1030
0.0
  0
LINE
  5
1298D9
  8
SLIM
 10
4038.0917815691809665
 20
-1164.9999999999990905
 30
0.0
 11
4058.0917815691809665
 21
-1144.9999999999990905
 31
0.0
1001
GRADIENTCOLOR1ACI
1070
     5
1001
GRADIENTCOLOR2ACI
1070
     2
1001
ACAD
1010
0.0
1020
0.0
1030
0.0
  0
LINE
  5
1298DA
  8
SLIM
 10
4058.0917815691809665
 20
-1144.9999999999990905
 30
0.0
 11
4083.2186851305418713
 21
-1119.8730964386370488
 31
0.0
1001
GRADIENTCOLOR1ACI
1070
     5
1001
GRADIENTCOLOR2ACI
1070
     2
1001
ACAD
1010
0.0
1020
0.0
1030
0.0
  0
LINE
  5
1298DB
  8
SLIM
 10
4056.0522938113181226
 20
-1164.9999999999990905
 30
0.0
 11
4070.0
 21
-1151.0522938113190321
 31
0.0
1001
GRADIENTCOLOR1ACI
1070
     5
1001
GRADIENTCOLOR2ACI
1070
     2
1001
ACAD
1010
0.0
1020
0.0
1030
0.0
  0
LINE
  5
1298DC
  8
SLIM
 10
4076.0522938113181226
 20
-1144.9999999999990905
 30
0.0
 11
4080.6528976673798752
 21
-1140.39939614393802
 31
0.0
1001
GRADIENTCOLOR1ACI
1070
     5
1001
GRADIENTCOLOR2ACI
1070
     2
1001
ACAD
1010
0.0
1020
0.0
1030
0.0
  0
LINE
  5
1298DD
  8
OBJECT
 10
4085.0000000000068212
 20
-654.9999999999994316
 30
0.0
 11
4085.0000000000031832
 21
-1105.6225774829579223
 31
0.0
1001
ACDBBLOCKREPETAG
1070
     1
1071
        2
1005
0
  0
LINE
  5
1298DE
  8
OBJECT
 10
4085.0000000000068212
 20
-654.9999999999994316
 30
0.0
 11
3914.9999999999931788
 21
-654.9999999999994316
 31
0.0
1001
ACDBBLOCKREPETAG
1070
     1
1071
        3
1005
0
  0
LINE
  5
1298DF
  8
OBJECT
 10
3919.9221778146279576
 20
-1144.9999999999990905
 30
0.0
 11
4080.0778221853720424
 21
-1144.9999999999990905
 31
0.0
1001
ACDBBLOCKREPETAG
1070
     1
1071
        3
1005
0
  0
LINE
  5
1298E0
  8
OBJECT
 10
4080.0778221853720424
 20
-1144.9999999999990905
 30
0.0
 11
4085.0000000000031832
 21
-1105.6225774829579223
 31
0.0
1001
ACDBBLOCKREPETAG
1070
     1
1071
       11
1005
0
  0
LINE
  5
1298E1
  8
OBJECT
 10
3914.9999999999931788
 20
-654.9999999999994316
 30
0.0
 11
3914.9999999999968168
 21
-1105.6225774829579223
 31
0.0
1001
ACDBBLOCKREPETAG
1070
     1
1071
        2
1005
0
  0
LINE
  5
1298E2
  8
OBJECT
 10
3919.9221778146279576
 20
-1144.9999999999990905
 30
0.0
 11
3914.9999999999968168
 21
-1105.6225774829579223
 31
0.0
1001
ACDBBLOCKREPETAG
1070
     1
1071
       11
1005
0
  0
LINE
  5
1298E3
  8
OBJECT
 10
3930.0
 20
-1144.9999999999990905
 30
0.0
 11
3930.0
 21
-1164.9999999999990905
 31
0.0
1001
ACDBBLOCKREPETAG
1070
     1
1071
       10
1005
0
  0
LINE
  5
1298E4
  8
OBJECT
 10
3930.0
 20
-1164.9999999999990905
 30
0.0
 11
4070.0
 21
-1164.9999999999990905
 31
0.0
1001
ACDBBLOCKREPETAG
1070
     1
1071
       11
1005
0
  0
LINE
  5
1298E5
  8
OBJECT
 10
4070.0
 20
-1164.9999999999990905
 30
0.0
 11
4070.0
 21
-1144.9999999999990905
 31
0.0
1001
ACDBBLOCKREPETAG
1070
     1
1071
       12
1005
0
  0
LINE
  5
1298E6
  8
OBJECT
 10
3925.0
 20
-789.9999999999994316
 30
0.0
 11
3925.0
 21
-1062.9999999999990905
 31
0.0
1001
ACDBBLOCKREPETAG
1070
     1
1071
        1
1005
1298E6
  0
LINE
  5
1298E7
  8
OBJECT
 10
4075.0
 20
-789.9999999999937472
 30
0.0
 11
4075.0
 21
-1062.9999999999990905
 31
0.0
1001
ACDBBLOCKREPETAG
1070
     1
1071
        3
1005
1298E7
  0
LINE
  5
1298E8
  8
CENTER
 10
4000.0
 20
-789.9999999999994316
 30
0.0
 11
4000.0
 21
-1074.9999999999990905
 31
0.0
1001
ACDBBLOCKREPETAG
1070
     1
1071
        6
1005
1298E8
  0
LINE
  5
1298E9
  8
OBJECT
 10
3920.0
 20
-1074.9999999999990905
 30
0.0
 11
4080.0
 21
-1074.9999999999990905
 31
0.0
1001
ACDBBLOCKREPETAG
1070
     1
1071
        7
1005
1298E9
  0
LINE
  5
1298EA
  8
OBJECT
 10
3920.0
 20
-1062.9999999999990905
 30
0.0
 11
4080.0
 21
-1062.9999999999990905
 31
0.0
1001
ACDBBLOCKREPETAG
1070
     1
1071
        8
1005
1298EA
  0
LINE
  5
1298EB
  8
OBJECT
 10
3920.0
 20
-1062.9999999999990905
 30
0.0
 11
3920.0
 21
-1074.9999999999990905
 31
0.0
1001
ACDBBLOCKREPETAG
1070
     1
1071
        9
1005
1298EB
  0
LINE
  5
1298EC
  8
OBJECT
 10
4080.0
 20
-1062.9999999999990905
 30
0.0
 11
4080.0
 21
-1074.9999999999990905
 31
0.0
1001
ACDBBLOCKREPETAG
1070
     1
1071
       10
1005
1298EC
  0
LINE
  5
1298ED
  8
OBJECT
 10
1925.0
 20
-789.9999999999994316
 30
0.0
 11
1925.0
 21
-1062.9999999999990905
 31
0.0
1001
ACDBBLOCKREPETAG
1070
     1
1071
        1
1005
1298ED
  0
LINE
  5
1298EE
  8
OBJECT
 10
2075.0
 20
-789.9999999999937472
 30
0.0
 11
2075.0
 21
-1062.9999999999990905
 31
0.0
1001
ACDBBLOCKREPETAG
1070
     1
1071
        3
1005
1298EE
  0
LINE
  5
1298EF
  8
CENTER
 10
2000.0
 20
-789.9999999999994316
 30
0.0
 11
2000.0
 21
-1074.9999999999990905
 31
0.0
1001
ACDBBLOCKREPETAG
1070
     1
1071
        6
1005
1298EF
  0
LINE
  5
1298F0
  8
OBJECT
 10
1920.0
 20
-1074.9999999999990905
 30
0.0
 11
2080.0
 21
-1074.9999999999990905
 31
0.0
1001
ACDBBLOCKREPETAG
1070
     1
1071
        7
1005
1298F0
  0
LINE
  5
1298F1
  8
OBJECT
 10
1920.0
 20
-1062.9999999999990905
 30
0.0
 11
2080.0
 21
-1062.9999999999990905
 31
0.0
1001
ACDBBLOCKREPETAG
1070
     1
1071
        8
1005
1298F1
  0
LINE
  5
1298F2
  8
OBJECT
 10
1920.0
 20
-1062.9999999999990905
 30
0.0
 11
1920.0
 21
-1074.9999999999990905
 31
0.0
1001
ACDBBLOCKREPETAG
1070
     1
1071
        9
1005
1298F2
  0
LINE
  5
1298F3
  8
OBJECT
 10
2080.0
 20
-1062.9999999999990905
 30
0.0
 11
2080.0
 21
-1074.9999999999990905
 31
0.0
1001
ACDBBLOCKREPETAG
1070
     1
1071
       10
1005
1298F3
  0
LINE
  5
1298F4
  8
DIM
 10
3904.9999999999931788
 20
-655.0
 30
0.0
 11
3839.661644011322096
 21
-654.9999999999997726
 31
0.0
  0
LINE
  5
1298F5
  8
DIM
 10
3910.0
 20
-1144.9999999999990905
 30
0.0
 11
3839.661644011322096
 21
-1144.9999999999990905
 31
0.0
  0
LINE
  5
1298F6
  8
DIM
 10
3849.661644011322096
 20
-675.0
 30
0.0
 11
3849.661644011322096
 21
-1124.9999999999990905
 31
0.0
  0
INSERT
  5
1298F7
  8
DIM
  2
_OPEN30
 10
3849.661644011322096
 20
-655.0
 30
0.0
 41
20.0
 42
20.0
 43
20.0
 50
90.0
  0
INSERT
  5
1298F8
  8
DIM
  2
_OPEN30
 10
3849.661644011322096
 20
-1144.9999999999990905
 30
0.0
 41
20.0
 42
20.0
 43
20.0
 50
270.0
  0
INSERT
  5
1298F9
  8
OBJECT
  2
*U10
 10
0.0
 20
0.0
 30
0.0
  0
LINE
  5
1298FA
  8
SLIM
  6
CONTINUOUS
 10
3927.3018300565240679
 20
-155.9548403695769139
 30
0.0
 11
3955.9548403695771412
 21
-127.3018300565223058
 31
0.0
1001
GRADIENTCOLOR1ACI
1070
     5
1001
GRADIENTCOLOR2ACI
1070
     2
1001
ACAD
1010
0.0
1020
0.0
1030
0.0
1001
ACDBBLOCKREPETAG
1070
     1
1071
      495
1005
1298FA
  0
LINE
  5
1298FB
  8
SLIM
  6
CONTINUOUS
 10
3919.4861520708368516
 20
-172.7507744763319124
 30
0.0
 11
3972.7507744763329356
 21
-119.4861520708363969
 31
0.0
1001
GRADIENTCOLOR1ACI
1070
     5
1001
GRADIENTCOLOR2ACI
1070
     2
1001
ACAD
1010
0.0
1020
0.0
1030
0.0
1001
ACDBBLOCKREPETAG
1070
     1
1071
      496
1005
1298FB
  0
LINE
  5
1298FC
  8
SLIM
  6
CONTINUOUS
 10
3916.3596679933780251
 20
-184.8575146748605107
 30
0.0
 11
3931.2956746719492003
 21
-169.9215079962906998
 31
0.0
1001
GRADIENTCOLOR1ACI
1070
     5
1001
GRADIENTCOLOR2ACI
1070
     2
1001
ACAD
1010
0.0
1020
0.0
1030
0.0
1001
ACDBBLOCKREPETAG
1070
     1
1071
      497
1005
1298FC
  0
LINE
  5
1298FD
  8
SLIM
  6
CONTINUOUS
 10
3969.9215079962918935
 20
-131.2956746719466992
 30
0.0
 11
3984.8575146748630686
 21
-116.3596679933770019
 31
0.0
1001
GRADIENTCOLOR1ACI
1070
     5
1001
GRADIENTCOLOR2ACI
1070
     2
1001
ACAD
1010
0.0
1020
0.0
1030
0.0
1001
ACDBBLOCKREPETAG
1070
     1
1071
      498
1005
1298FD
  0
LINE
  5
1298FE
  8
SLIM
  6
CONTINUOUS
 10
3915.1440575890528635
 20
-195.0533812002549894
 30
0.0
 11
3926.8786024565561092
 21
-183.3188363327525963
 31
0.0
1001
GRADIENTCOLOR1ACI
1070
     5
1001
GRADIENTCOLOR2ACI
1070
     2
1001
ACAD
1010
0.0
1020
0.0
1030
0.0
1001
ACDBBLOCKREPETAG
1070
     1
1071
      499
1005
1298FE
  0
LINE
  5
1298FF
  8
SLIM
  6
CONTINUOUS
 10
3983.3188363327540173
 20
-126.878602456554006
 30
0.0
 11
3995.0533812002558989
 21
-115.1440575890515987
 31
0.0
1001
GRADIENTCOLOR1ACI
1070
     5
1001
GRADIENTCOLOR2ACI
1070
     2
1001
ACAD
1010
0.0
1020
0.0
1030
0.0
1001
ACDBBLOCKREPETAG
1070
     1
1071
      500
1005
1298FF
  0
LINE
  5
129900
  8
SLIM
  6
CONTINUOUS
 10
3915.0979635574740314
 20
-204.0797313529033943
 30
0.0
 11
3919.1776949103768857
 21
-199.9999999999990905
 31
0.0
1001
GRADIENTCOLOR1ACI
1070
     5
1001
GRADIENTCOLOR2ACI
1070
     2
1001
ACAD
1010
0.0
1020
0.0
1030
0.0
1001
ACDBBLOCKREPETAG
1070
     1
1071
      501
1005
129900
  0
LINE
  5
129901
  8
SLIM
  6
CONTINUOUS
 10
4000.0
 20
-119.1776949103767009
 30
0.0
 11
4004.0797313529042185
 21
-115.0979635574723972
 31
0.0
1001
GRADIENTCOLOR1ACI
1070
     5
1001
GRADIENTCOLOR2ACI
1070
     2
1001
ACAD
1010
0.0
1020
0.0
1030
0.0
1001
ACDBBLOCKREPETAG
1070
     1
1071
      502
1005
129901
  0
LINE
  5
129902
  8
SLIM
  6
CONTINUOUS
 10
3919.1776949103768857
 20
-199.9999999999990905
 30
0.0
 11
3925.2458896617781647
 21
-193.9318052485988062
 31
0.0
1001
GRADIENTCOLOR1ACI
1070
     5
1001
GRADIENTCOLOR2ACI
1070
     2
1001
ACAD
1010
0.0
1020
0.0
1030
0.0
1001
ACDBBLOCKREPETAG
1070
     1
1071
      503
1005
129902
  0
LINE
  5
129903
  8
SLIM
  6
CONTINUOUS
 10
3993.9318052486009947
 20
-125.2458896617769994
 30
0.0
 11
4000.0
 21
-119.1776949103767009
 31
0.0
1001
GRADIENTCOLOR1ACI
1070
     5
1001
GRADIENTCOLOR2ACI
1070
     2
1001
ACAD
1010
0.0
1020
0.0
1030
0.0
1001
ACDBBLOCKREPETAG
1070
     1
1071
      504
1005
129903
  0
LINE
  5
129904
  8
SLIM
  6
CONTINUOUS
 10
3915.889972620872868
 20
-212.2679784105739031
 30
0.0
 11
3925.0638502435940609
 21
-203.0941007878525113
 31
0.0
1001
GRADIENTCOLOR1ACI
1070
     5
1001
GRADIENTCOLOR2ACI
1070
     2
1001
ACAD
1010
0.0
1020
0.0
1030
0.0
1001
ACDBBLOCKREPETAG
1070
     1
1071
      505
1005
129904
  0
LINE
  5
129905
  8
SLIM
  6
CONTINUOUS
 10
4003.0941007878532218
 20
-125.0638502435923982
 30
0.0
 11
4012.267978410575779
 21
-115.8899726208710064
 31
0.0
1001
GRADIENTCOLOR1ACI
1070
     5
1001
GRADIENTCOLOR2ACI
1070
     2
1001
ACAD
1010
0.0
1020
0.0
1030
0.0
1001
ACDBBLOCKREPETAG
1070
     1
1071
      506
1005
129905
  0
LINE
  5
129906
  8
SLIM
  6
CONTINUOUS
 10
3917.3382656951539502
 20
-219.7999414573615127
 30
0.0
 11
3925.8537813838638613
 21
-211.2844257686506921
 31
0.0
1001
GRADIENTCOLOR1ACI
1070
     5
1001
GRADIENTCOLOR2ACI
1070
     2
1001
ACAD
1010
0.0
1020
0.0
1030
0.0
1001
ACDBBLOCKREPETAG
1070
     1
1071
      507
1005
129906
  0
LINE
  5
129907
  8
SLIM
  6
CONTINUOUS
 10
4011.2844257686519995
 20
-125.8537813838634065
 30
0.0
 11
4019.7999414573619106
 21
-117.3382656951526002
 31
0.0
1001
GRADIENTCOLOR1ACI
1070
     5
1001
GRADIENTCOLOR2ACI
1070
     2
1001
ACAD
1010
0.0
1020
0.0
1030
0.0
1001
ACDBBLOCKREPETAG
1070
     1
1071
      508
1005
129907
  0
LINE
  5
129908
  8
SLIM
  6
CONTINUOUS
 10
3919.3312594063049801
 20
-226.7872038672788051
 30
0.0
 11
3927.3788748080642108
 21
-218.7395884655205123
 31
0.0
1001
GRADIENTCOLOR1ACI
1070
     5
1001
GRADIENTCOLOR2ACI
1070
     2
1001
ACAD
1010
0.0
1020
0.0
1030
0.0
1001
ACDBBLOCKREPETAG
1070
     1
1071
      509
1005
129908
  0
LINE
  5
129909
  8
SLIM
  6
CONTINUOUS
 10
4018.7395884655197733
 20
-127.3788748080627045
 30
0.0
 11
4026.7872038672799135
 21
-119.3312594063043974
 31
0.0
1001
GRADIENTCOLOR1ACI
1070
     5
1001
GRADIENTCOLOR2ACI
1070
     2
1001
ACAD
1010
0.0
1020
0.0
1030
0.0
1001
ACDBBLOCKREPETAG
1070
     1
1071
      510
1005
129909
  0
LINE
  5
12990A
  8
SLIM
  6
CONTINUOUS
 10
3921.7957163186219987
 20
-233.3030030760328941
 30
0.0
 11
3929.5028327676941444
 21
-225.5958866269596967
 31
0.0
1001
GRADIENTCOLOR1ACI
1070
     5
1001
GRADIENTCOLOR2ACI
1070
     2
1001
ACAD
1010
0.0
1020
0.0
1030
0.0
1001
ACDBBLOCKREPETAG
1070
     1
1071
      511
1005
12990A
  0
LINE
  5
12990B
  8
SLIM
  6
CONTINUOUS
 10
4025.595886626959782
 20
-129.5028327676926097
 30
0.0
 11
4033.3030030760342015
 21
-121.7957163186194975
 31
0.0
1001
GRADIENTCOLOR1ACI
1070
     5
1001
GRADIENTCOLOR2ACI
1070
     2
1001
ACAD
1010
0.0
1020
0.0
1030
0.0
1001
ACDBBLOCKREPETAG
1070
     1
1071
      512
1005
12990B
  0
LINE
  5
12990C
  8
SLIM
  6
CONTINUOUS
 10
3924.6816635313448387
 20
-239.397311984377609
 30
0.0
 11
3932.1403895696180371
 21
-231.9385859461046095
 31
0.0
1001
GRADIENTCOLOR1ACI
1070
     5
1001
GRADIENTCOLOR2ACI
1070
     2
1001
ACAD
1010
0.0
1020
0.0
1030
0.0
1001
ACDBBLOCKREPETAG
1070
     1
1071
      513
1005
12990C
  0
LINE
  5
12990D
  8
SLIM
  6
CONTINUOUS
 10
4031.9385859461058317
 20
-132.1403895696169002
 30
0.0
 11
4039.3973119843781205
 21
-124.6816635313439008
 31
0.0
1001
GRADIENTCOLOR1ACI
1070
     5
1001
GRADIENTCOLOR2ACI
1070
     2
1001
ACAD
1010
0.0
1020
0.0
1030
0.0
1001
ACDBBLOCKREPETAG
1070
     1
1071
      514
1005
12990D
  0
LINE
  5
12990E
  8
SLIM
  6
CONTINUOUS
 10
3927.9544611024248297
 20
-245.1047705343669065
 30
0.0
 11
3935.2358661991688678
 21
-237.8233654376228969
 31
0.0
1001
GRADIENTCOLOR1ACI
1070
     5
1001
GRADIENTCOLOR2ACI
1070
     2
1001
ACAD
1010
0.0
1020
0.0
1030
0.0
1001
ACDBBLOCKREPETAG
1070
     1
1071
      515
1005
12990E
  0
LINE
  5
12990F
  8
SLIM
  6
CONTINUOUS
 10
4037.8233654376231243
 20
-135.2358661991679014
 30
0.0
 11
4045.1047705343680718
 21
-127.9544611024238066
 31
0.0
1001
GRADIENTCOLOR1ACI
1070
     5
1001
GRADIENTCOLOR2ACI
1070
     2
1001
ACAD
1010
0.0
1020
0.0
1030
0.0
1001
ACDBBLOCKREPETAG
1070
     1
1071
      516
1005
12990F
  0
LINE
  5
129910
  8
SLIM
  6
CONTINUOUS
 10
3931.5903319686658506
 20
-250.4491557891954017
 30
0.0
 11
3938.7525935835487871
 21
-243.2868941743114988
 31
0.0
1001
GRADIENTCOLOR1ACI
1070
     5
1001
GRADIENTCOLOR2ACI
1070
     2
1001
ACAD
1010
0.0
1020
0.0
1030
0.0
1001
ACDBBLOCKREPETAG
1070
     1
1071
      517
1005
129910
  0
LINE
  5
129911
  8
SLIM
  6
CONTINUOUS
 10
4044.0394877578619344
 20
-137.9999999999990905
 30
0.0
 11
4050.4491557891969933
 21
-131.5903319686644863
 31
0.0
1001
GRADIENTCOLOR1ACI
1070
     5
1001
GRADIENTCOLOR2ACI
1070
     2
1001
ACAD
1010
0.0
1020
0.0
1030
0.0
1001
ACDBBLOCKREPETAG
1070
     1
1071
      518
1005
129911
  0
LINE
  5
129912
  8
SLIM
  6
CONTINUOUS
 10
3935.5737496925257801
 20
-255.4459941864033965
 30
0.0
 11
3942.6672873130492007
 21
-248.3524565658811127
 31
0.0
1001
GRADIENTCOLOR1ACI
1070
     5
1001
GRADIENTCOLOR2ACI
1070
     2
1001
ACAD
1010
0.0
1020
0.0
1030
0.0
1001
ACDBBLOCKREPETAG
1070
     1
1071
      519
1005
129912
  0
LINE
  5
129913
  8
SLIM
  6
CONTINUOUS
 10
4053.0197438789291482
 20
-137.9999999999990905
 30
0.0
 11
4055.4459941864038228
 21
-135.5737496925256096
 31
0.0
1001
GRADIENTCOLOR1ACI
1070
     5
1001
GRADIENTCOLOR2ACI
1070
     2
1001
ACAD
1010
0.0
1020
0.0
1030
0.0
1001
ACDBBLOCKREPETAG
1070
     1
1071
      520
1005
129913
  0
LINE
  5
129914
  8
SLIM
  6
CONTINUOUS
 10
3939.8959235991442256
 20
-260.1040764008556039
 30
0.0
 11
3946.9669914110090758
 21
-253.0330085889902136
 31
0.0
1001
GRADIENTCOLOR1ACI
1070
     5
1001
GRADIENTCOLOR2ACI
1070
     2
1001
ACAD
1010
0.0
1020
0.0
1030
0.0
1001
ACDBBLOCKREPETAG
1070
     1
1071
      521
1005
129914
  0
LINE
  5
129915
  8
SLIM
  6
CONTINUOUS
 10
3944.5540058135961772
 20
-264.4262503074725146
 30
0.0
 11
3951.6475434341177788
 21
-257.3327126869502877
 31
0.0
1001
GRADIENTCOLOR1ACI
1070
     5
1001
GRADIENTCOLOR2ACI
1070
     2
1001
ACAD
1010
0.0
1020
0.0
1030
0.0
1001
ACDBBLOCKREPETAG
1070
     1
1071
      522
1005
129915
  0
LINE
  5
129916
  8
SLIM
  6
CONTINUOUS
 10
3949.5508442108030067
 20
-268.4096680313336947
 30
0.0
 11
3956.7131058256891265
 21
-261.2474064164496781
 31
0.0
1001
GRADIENTCOLOR1ACI
1070
     5
1001
GRADIENTCOLOR2ACI
1070
     2
1001
ACAD
1010
0.0
1020
0.0
1030
0.0
1001
ACDBBLOCKREPETAG
1070
     1
1071
      523
1005
129916
  0
LINE
  5
129917
  8
SLIM
  6
CONTINUOUS
 10
3954.8952294656328377
 20
-272.0455388975743745
 30
0.0
 11
3962.1766345623750567
 21
-264.7641338008302796
 31
0.0
1001
GRADIENTCOLOR1ACI
1070
     5
1001
GRADIENTCOLOR2ACI
1070
     2
1001
ACAD
1010
0.0
1020
0.0
1030
0.0
1001
ACDBBLOCKREPETAG
1070
     1
1071
      524
1005
129917
  0
LINE
  5
129918
  8
SLIM
  6
CONTINUOUS
 10
3960.60268801562097
 20
-275.318336468654195
 30
0.0
 11
3968.0614140538959873
 21
-267.8596104303812808
 31
0.0
1001
GRADIENTCOLOR1ACI
1070
     5
1001
GRADIENTCOLOR2ACI
1070
     2
1001
ACAD
1010
0.0
1020
0.0
1030
0.0
1001
ACDBBLOCKREPETAG
1070
     1
1071
      525
1005
129918
  0
LINE
  5
129919
  8
SLIM
  6
CONTINUOUS
 10
3966.6969969239680722
 20
-278.2042836813786266
 30
0.0
 11
3974.404113373040218
 21
-270.4971672323056282
 31
0.0
1001
GRADIENTCOLOR1ACI
1070
     5
1001
GRADIENTCOLOR2ACI
1070
     2
1001
ACAD
1010
0.0
1020
0.0
1030
0.0
1001
ACDBBLOCKREPETAG
1070
     1
1071
      526
1005
129919
  0
LINE
  5
12991A
  8
SLIM
  6
CONTINUOUS
 10
3973.212796132719177
 20
-280.6687405936937125
 30
0.0
 11
3981.260411534477953
 21
-272.6211251919353913
 31
0.0
1001
GRADIENTCOLOR1ACI
1070
     5
1001
GRADIENTCOLOR2ACI
1070
     2
1001
ACAD
1010
0.0
1020
0.0
1030
0.0
1001
ACDBBLOCKREPETAG
1070
     1
1071
      527
1005
12991A
  0
LINE
  5
12991B
  8
SLIM
  6
CONTINUOUS
 10
3980.2000585426389989
 20
-282.6617343048454813
 30
0.0
 11
3988.71557423134891
 21
-274.1462186161347745
 31
0.0
1001
GRADIENTCOLOR1ACI
1070
     5
1001
GRADIENTCOLOR2ACI
1070
     2
1001
ACAD
1010
0.0
1020
0.0
1030
0.0
1001
ACDBBLOCKREPETAG
1070
     1
1071
      528
1005
12991B
  0
LINE
  5
12991C
  8
SLIM
  6
CONTINUOUS
 10
3987.7320215894251305
 20
-284.1100273791270752
 30
0.0
 11
3996.9058992121458687
 21
-274.9361497564058254
 31
0.0
1001
GRADIENTCOLOR1ACI
1070
     5
1001
GRADIENTCOLOR2ACI
1070
     2
1001
ACAD
1010
0.0
1020
0.0
1030
0.0
1001
ACDBBLOCKREPETAG
1070
     1
1071
      529
1005
12991C
  0
LINE
  5
12991D
  8
SLIM
  6
CONTINUOUS
 10
3995.9202686470971457
 20
-284.9020364425256844
 30
0.0
 11
4000.0
 21
-280.8223050896215227
 31
0.0
1001
GRADIENTCOLOR1ACI
1070
     5
1001
GRADIENTCOLOR2ACI
1070
     2
1001
ACAD
1010
0.0
1020
0.0
1030
0.0
1001
ACDBBLOCKREPETAG
1070
     1
1071
      530
1005
12991D
  0
LINE
  5
12991E
  8
SLIM
  6
CONTINUOUS
 10
4000.0
 20
-280.8223050896215227
 30
0.0
 11
4006.0681947513990053
 21
-274.75411033822121
 31
0.0
1001
GRADIENTCOLOR1ACI
1070
     5
1001
GRADIENTCOLOR2ACI
1070
     2
1001
ACAD
1010
0.0
1020
0.0
1030
0.0
1001
ACDBBLOCKREPETAG
1070
     1
1071
      531
1005
12991E
  0
LINE
  5
12991F
  8
SLIM
  6
CONTINUOUS
 10
4004.9466187997441011
 20
-284.8559424109465112
 30
0.0
 11
4016.6811636672459827
 21
-273.1213975434441181
 31
0.0
1001
GRADIENTCOLOR1ACI
1070
     5
1001
GRADIENTCOLOR2ACI
1070
     2
1001
ACAD
1010
0.0
1020
0.0
1030
0.0
1001
ACDBBLOCKREPETAG
1070
     1
1071
      532
1005
12991F
  0
LINE
  5
129920
  8
SLIM
  6
CONTINUOUS
 10
4015.1424853251392051
 20
-283.6403320066211222
 30
0.0
 11
4030.078492003709016
 21
-268.704325328051425
 31
0.0
1001
GRADIENTCOLOR1ACI
1070
     5
1001
GRADIENTCOLOR2ACI
1070
     2
1001
ACAD
1010
0.0
1020
0.0
1030
0.0
1001
ACDBBLOCKREPETAG
1070
     1
1071
      533
1005
129920
  0
LINE
  5
129921
  8
SLIM
  6
CONTINUOUS
 10
4027.2492255236670644
 20
-280.5138479291617273
 30
0.0
 11
4045.7630734528311223
 21
-261.9999999999990905
 31
0.0
1001
GRADIENTCOLOR1ACI
1070
     5
1001
GRADIENTCOLOR2ACI
1070
     2
1001
ACAD
1010
0.0
1020
0.0
1030
0.0
1001
ACDBBLOCKREPETAG
1070
     1
1071
      534
1005
129921
  0
LINE
  5
129922
  8
SLIM
  6
CONTINUOUS
 10
4044.0451596304219493
 20
-272.6981699434758184
 30
0.0
 11
4054.7433295738978813
 21
-261.9999999999990905
 31
0.0
1001
GRADIENTCOLOR1ACI
1070
     5
1001
GRADIENTCOLOR2ACI
1070
     2
1001
ACAD
1010
0.0
1020
0.0
1030
0.0
1001
ACDBBLOCKREPETAG
1070
     1
1071
      535
1005
129922
  0
LINE
  5
129923
  8
CENTER
 10
4080.0
 20
-199.9999999999990905
 30
0.0
 11
3900.0
 21
-199.9999999999990905
 31
0.0
1001
ACDBBLOCKREPETAG
1070
     1
1071
      187
1005
129923
  0
LINE
  5
129924
  8
CENTER
 10
4000.0
 20
-299.9999999999990905
 30
0.0
 11
4000.0
 21
-99.9999999999990763
 31
0.0
1001
ACDBBLOCKREPETAG
1070
     1
1071
      188
1005
129924
  0
CIRCLE
  5
129925
  8
OBJECT
 10
4000.0
 20
-199.9999999999990905
 30
0.0
 40
75.0
1001
ACDBBLOCKREPETAG
1070
     1
1071
      190
1005
129925
  0
LINE
  5
129926
  8
OBJECT
 10
4042.201895692016933
 20
-137.9999999999990905
 30
0.0
 11
4080.0
 21
-137.9999999999990905
 31
0.0
1001
ACDBBLOCKREPETAG
1070
     1
1071
      192
1005
129926
  0
LINE
  5
129927
  8
OBJECT
 10
4042.201895692016933
 20
-261.9999999999990905
 30
0.0
 11
4080.0
 21
-261.9999999999990905
 31
0.0
1001
ACDBBLOCKREPETAG
1070
     1
1071
      193
1005
129927
  0
POINT
  5
129928
  8
DOTS
 10
4000.0
 20
-199.9999999999990905
 30
0.0
1001
ACDBBLOCKREPETAG
1070
     1
1071
      194
1005
129928
  0
ARC
  5
129929
  8
OBJECT
 10
4000.0
 20
-199.9999999999990905
 30
0.0
 40
85.0
 50
46.8371028598341468
 51
313.1628971401659101
1001
ACDBBLOCKREPETAG
1070
     1
1071
      202
1005
129929
  0
CIRCLE
  5
12992A
  8
OBJECT
 10
4000.0
 20
-199.9999999999990905
 30
0.0
 40
52.5
1001
ACDBBLOCKREPETAG
1070
     1
1071
      488
1005
12992A
  0
CIRCLE
  5
12992B
  8
OBJECT
 10
4000.0
 20
-199.9999999999990905
 30
0.0
 40
57.0
1001
ACDBBLOCKREPETAG
1070
     1
1071
      489
1005
12992B
  0
LINE
  5
12992C
  8
CENTER
 10
2080.0
 20
-199.9999999999990905
 30
0.0
 11
1905.0
 21
-199.9999999999990905
 31
0.0
1001
ACDBBLOCKREPETAG
1070
     1
1071
       14
1005
12992C
  0
LINE
  5
12992D
  8
CENTER
 10
2000.0
 20
-294.9999999999990905
 30
0.0
 11
2000.0
 21
-104.9999999999991047
 31
0.0
1001
ACDBBLOCKREPETAG
1070
     1
1071
       15
1005
12992D
  0
CIRCLE
  5
12992E
  8
OBJECT
 10
2000.0
 20
-199.9999999999990905
 30
0.0
 40
75.0
1001
ACDBBLOCKREPETAG
1070
     1
1071
       17
1005
12992E
  0
ARC
  5
12992F
  8
OBJECT
 10
2000.0
 20
-199.9999999999990905
 30
0.0
 40
80.0
 50
50.8050325738641888
 51
309.1949674261358041
1001
ACDBBLOCKREPETAG
1070
     1
1071
       18
1005
12992F
  0
LINE
  5
129930
  8
OBJECT
 10
2042.2018956920180699
 20
-137.9999999999990905
 30
0.0
 11
2080.0
 21
-137.9999999999990905
 31
0.0
1001
ACDBBLOCKREPETAG
1070
     1
1071
       19
1005
129930
  0
LINE
  5
129931
  8
OBJECT
 10
2042.2018956920180699
 20
-261.9999999999990905
 30
0.0
 11
2080.0
 21
-261.9999999999990905
 31
0.0
1001
ACDBBLOCKREPETAG
1070
     1
1071
       20
1005
129931
  0
POINT
  5
129932
  8
DOTS
 10
2000.0
 20
-199.9999999999990905
 30
0.0
1001
ACDBBLOCKREPETAG
1070
     1
1071
       21
1005
129932
  0
CIRCLE
  5
129933
  8
OBJECT
 10
2000.0
 20
-199.9999999999990905
 30
0.0
 40
52.5
1001
ACDBBLOCKREPETAG
1070
     1
1071
      494
1005
129933
  0
CIRCLE
  5
129934
  8
OBJECT
 10
2000.0
 20
-199.9999999999990905
 30
0.0
 40
57.0
1001
ACDBBLOCKREPETAG
1070
     1
1071
      483
1005
129934
  0
TEXT
  5
129935
  8
SLIM
 10
2631.0
 20
-2972.5000160472700372
 30
0.0
 40
40.0
  1
C寸法
 41
0.75
  0
TEXT
  5
129936
  8
SLIM
 10
2631.0
 20
-2902.5000160472700372
 30
0.0
 40
40.0
  1
B寸法
 41
0.75
  0
TEXT
  5
129937
  8
SLIM
 10
2630.2857142857151302
 20
-2832.5000160472700372
 30
0.0
 40
40.0
  1
A寸法
 41
0.75
  0
TEXT
  5
129938
  8
SLIM
 10
3159.2857142857151302
 20
-2972.5000160472700372
 30
0.0
 40
40.0
  1
150
 41
0.75
  0
TEXT
  5
129939
  8
SLIM
 10
3029.2857142857160397
 20
-2972.5000160472700372
 30
0.0
 40
40.0
  1
140
 41
0.75
  0
TEXT
  5
12993A
  8
SLIM
 10
2769.2857142857160397
 20
-2972.5000160472700372
 30
0.0
 40
40.0
  1
140
 41
0.75
  0
TEXT
  5
12993B
  8
SLIM
 10
2899.2857142857151302
 20
-2972.5000160472700372
 30
0.0
 40
40.0
  1
140
 41
0.75
  0
TEXT
  5
12993C
  8
SLIM
 10
3170.7142857142857792
 20
-2902.5000160472700372
 30
0.0
 40
40.0
  1
72
 41
0.75
  0
TEXT
  5
12993D
  8
SLIM
 10
3041.4285714285711038
 20
-2902.5000160472700372
 30
0.0
 40
40.0
  1
59
 41
0.75
  0
TEXT
  5
12993E
  8
SLIM
 10
2780.0
 20
-2902.5000160472700372
 30
0.0
 40
40.0
  1
44
 41
0.75
  0
TEXT
  5
12993F
  8
SLIM
 10
2910.7142857142857792
 20
-2902.5000160472700372
 30
0.0
 40
40.0
  1
52
 41
0.75
  0
TEXT
  5
129940
  8
SLIM
 10
2891.0
 20
-2707.5000160472700372
 30
0.0
 40
40.0
  1
横枝管サイズ
 41
0.75
  0
TEXT
  5
129941
  8
SLIM
 10
3136.2857142857151302
 20
-2762.5000160472700372
 30
0.0
 40
30.0
  1
100（4）
 41
0.75
  0
TEXT
  5
129942
  8
SLIM
 10
3014.8571428571440265
 20
-2762.5000160472700372
 30
0.0
 40
30.0
  1
75（3）
 41
0.75
  0
TEXT
  5
129943
  8
SLIM
 10
2884.857142857143117
 20
-2762.5000160472700372
 30
0.0
 40
30.0
  1
65（2）
 41
0.75
  0
TEXT
  5
129944
  8
SLIM
 10
2757.0
 20
-2762.5000160472700372
 30
0.0
 40
30.0
  1
50（1）
 41
0.75
  0
TEXT
  5
129945
  8
SLIM
 10
3159.2857142857151302
 20
-2832.5000160472700372
 30
0.0
 40
40.0
  1
150
 41
0.75
  0
TEXT
  5
129946
  8
SLIM
 10
3028.5714285714279868
 20
-2832.5000160472700372
 30
0.0
 40
40.0
  1
124
 41
0.75
  0
TEXT
  5
129947
  8
SLIM
 10
2780.0
 20
-2832.5000160472700372
 30
0.0
 40
40.0
  1
94
 41
0.75
  0
TEXT
  5
129948
  8
SLIM
 10
2902.142857142856883
 20
-2832.5000160472700372
 30
0.0
 40
40.0
  1
110
 41
0.75
  0
TEXT
  5
129949
  8
SLIM
 10
1849.9999999999990905
 20
-2732.5
 30
0.0
 40
75.0
  1
枝管サイズ毎の形状
 41
0.75
  0
CIRCLE
  5
12994A
  8
OBJECT
 10
539.9999999998779003
 20
-695.9999999998417479
 30
0.0
 40
75.0
1001
ACDBBLOCKREPETAG
1070
     1
1071
       51
1005
12994A
  0
ARC
  5
12994B
  8
OBJECT
 10
539.9999999998779003
 20
-695.9999999998417479
 30
0.0
 40
80.0
 50
140.8050325737787034
 51
39.1949674262212824
1001
ACDBBLOCKREPETAG
1070
     1
1071
       52
1005
12994B
  0
LINE
  5
12994C
  8
OBJECT
 10
477.9999999998779003
 20
-653.7981043078232233
 30
0.0
 11
477.9999999998779003
 21
-615.9999999998417479
 31
0.0
1001
ACDBBLOCKREPETAG
1070
     1
1071
       53
1005
12994C
  0
LINE
  5
12994D
  8
OBJECT
 10
601.999999999878014
 20
-653.7981043078232233
 30
0.0
 11
601.999999999878014
 21
-615.9999999998417479
 31
0.0
1001
ACDBBLOCKREPETAG
1070
     1
1071
       54
1005
12994D
  0
POINT
  5
12994E
  8
DOTS
 10
539.9999999998779003
 20
-695.9999999998417479
 30
0.0
1001
ACDBBLOCKREPETAG
1070
     1
1071
       63
1005
12994E
  0
CIRCLE
  5
12994F
  8
OBJECT
 10
539.9999999998779003
 20
-695.9999999998417479
 30
0.0
 40
52.5
1001
ACDBBLOCKREPETAG
1070
     1
1071
      162
1005
12994F
  0
CIRCLE
  5
129950
  8
OBJECT
 10
539.9999999998779003
 20
-695.9999999998417479
 30
0.0
 40
57.0
1001
ACDBBLOCKREPETAG
1070
     1
1071
      163
1005
129950
  0
CIRCLE
  5
129951
  8
OBJECT
 10
180.0
 20
-695.9999999998417479
 30
0.0
 40
75.0
1001
ACDBBLOCKREPETAG
1070
     1
1071
       51
1005
129951
  0
ARC
  5
129952
  8
OBJECT
 10
180.0
 20
-695.9999999998417479
 30
0.0
 40
80.0
 50
140.8050325737796982
 51
39.1949674262202521
1001
ACDBBLOCKREPETAG
1070
     1
1071
       52
1005
129952
  0
LINE
  5
129953
  8
OBJECT
 10
118.0
 20
-653.7981043078232233
 30
0.0
 11
118.0
 21
-615.9999999998417479
 31
0.0
1001
ACDBBLOCKREPETAG
1070
     1
1071
       53
1005
129953
  0
LINE
  5
129954
  8
OBJECT
 10
242.0
 20
-653.7981043078232233
 30
0.0
 11
242.0
 21
-615.9999999998417479
 31
0.0
1001
ACDBBLOCKREPETAG
1070
     1
1071
       54
1005
129954
  0
POINT
  5
129955
  8
DOTS
 10
180.0
 20
-695.9999999998417479
 30
0.0
1001
ACDBBLOCKREPETAG
1070
     1
1071
       63
1005
129955
  0
CIRCLE
  5
129956
  8
OBJECT
 10
180.0
 20
-695.9999999998417479
 30
0.0
 40
52.5
1001
ACDBBLOCKREPETAG
1070
     1
1071
      162
1005
129956
  0
CIRCLE
  5
129957
  8
OBJECT
 10
180.0
 20
-695.9999999998417479
 30
0.0
 40
57.0
1001
ACDBBLOCKREPETAG
1070
     1
1071
      163
1005
129957
  0
CIRCLE
  5
129958
  8
OBJECT
 10
539.9999999998779003
 20
-232.0
 30
0.0
 40
75.0
1001
ACDBBLOCKREPETAG
1070
     1
1071
       51
1005
129958
  0
ARC
  5
129959
  8
OBJECT
 10
539.9999999998779003
 20
-232.0
 30
0.0
 40
80.0
 50
140.8050325737787034
 51
39.1949674262212824
1001
ACDBBLOCKREPETAG
1070
     1
1071
       52
1005
129959
  0
LINE
  5
12995A
  8
OBJECT
 10
477.9999999998779003
 20
-189.798104307981589
 30
0.0
 11
477.9999999998779003
 21
-152.0
 31
0.0
1001
ACDBBLOCKREPETAG
1070
     1
1071
       53
1005
12995A
  0
LINE
  5
12995B
  8
OBJECT
 10
601.999999999878014
 20
-189.798104307981589
 30
0.0
 11
601.999999999878014
 21
-152.0
 31
0.0
1001
ACDBBLOCKREPETAG
1070
     1
1071
       54
1005
12995B
  0
POINT
  5
12995C
  8
DOTS
 10
539.9999999998779003
 20
-232.0
 30
0.0
1001
ACDBBLOCKREPETAG
1070
     1
1071
       63
1005
12995C
  0
CIRCLE
  5
12995D
  8
OBJECT
 10
539.9999999998779003
 20
-232.0
 30
0.0
 40
52.5
1001
ACDBBLOCKREPETAG
1070
     1
1071
      162
1005
12995D
  0
CIRCLE
  5
12995E
  8
OBJECT
 10
539.9999999998779003
 20
-232.0
 30
0.0
 40
57.0
1001
ACDBBLOCKREPETAG
1070
     1
1071
      163
1005
12995E
  0
CIRCLE
  5
12995F
  8
OBJECT
 10
180.0
 20
-232.0
 30
0.0
 40
75.0
1001
ACDBBLOCKREPETAG
1070
     1
1071
       51
1005
12995F
  0
ARC
  5
129960
  8
OBJECT
 10
180.0
 20
-232.0
 30
0.0
 40
80.0
 50
140.8050325737796982
 51
39.1949674262202521
1001
ACDBBLOCKREPETAG
1070
     1
1071
       52
1005
129960
  0
LINE
  5
129961
  8
OBJECT
 10
118.0
 20
-189.798104307981589
 30
0.0
 11
118.0
 21
-152.0
 31
0.0
1001
ACDBBLOCKREPETAG
1070
     1
1071
       53
1005
129961
  0
LINE
  5
129962
  8
OBJECT
 10
242.0
 20
-189.798104307981589
 30
0.0
 11
242.0
 21
-152.0
 31
0.0
1001
ACDBBLOCKREPETAG
1070
     1
1071
       54
1005
129962
  0
POINT
  5
129963
  8
DOTS
 10
180.0
 20
-232.0
 30
0.0
1001
ACDBBLOCKREPETAG
1070
     1
1071
       63
1005
129963
  0
CIRCLE
  5
129964
  8
OBJECT
 10
180.0
 20
-232.0
 30
0.0
 40
52.5
1001
ACDBBLOCKREPETAG
1070
     1
1071
      162
1005
129964
  0
CIRCLE
  5
129965
  8
OBJECT
 10
180.0
 20
-232.0
 30
0.0
 40
57.0
1001
ACDBBLOCKREPETAG
1070
     1
1071
      163
1005
129965
  0
TEXT
  5
129966
  8
SLIM
 10
1837.75
 20
282.5000000000001137
 30
0.0
 40
35.0
  1
（枝管サイズ毎に寸法が異なります。管底の位置は50～100で同じです）
 41
0.75
  0
TEXT
  5
129967
  8
SLIM
 10
1850.0
 20
532.5
 30
0.0
 40
75.0
  1
側面図の代表機種
 41
0.75
  0
TEXT
  5
129968
  8
SLIM
 10
1850.0
 20
369.9999999999998863
 30
0.0
 40
100.0
  1
4SSRT2-A3-0
 41
0.75
  0
LINE
  5
129969
  8
OBJECT
 10
4133.0
 20
-137.9999999999990905
 30
0.0
 11
4140.0
 21
-137.9999999999990905
 31
0.0
1001
ACDBBLOCKREPETAG
1070
     1
1071
       47
1005
129969
  0
LINE
  5
12996A
  8
OBJECT
 10
4140.0
 20
-137.9999999999990905
 30
0.0
 11
4140.0
 21
-261.9999999999990905
 31
0.0
1001
ACDBBLOCKREPETAG
1070
     1
1071
       48
1005
12996A
  0
LINE
  5
12996B
  8
OBJECT
 10
4140.0
 20
-261.9999999999990905
 30
0.0
 11
4133.0
 21
-261.9999999999990905
 31
0.0
1001
ACDBBLOCKREPETAG
1070
     1
1071
       49
1005
12996B
  0
LINE
  5
12996C
  8
OBJECT
 10
4133.0
 20
-261.9999999999990905
 30
0.0
 11
4133.0
 21
-137.9999999999990905
 31
0.0
1001
ACDBBLOCKREPETAG
1070
     1
1071
       50
1005
12996C
  0
LINE
  5
12996D
  8
CENTER
 10
4155.0
 20
-199.9999999999990905
 30
0.0
 11
4080.0
 21
-199.9999999999990905
 31
0.0
1001
ACDBBLOCKREPETAG
1070
     1
1071
       51
1005
12996D
  0
LINE
  5
12996E
  8
OBJECT
 10
4133.0
 20
-140.9999999999990905
 30
0.0
 11
4097.0
 21
-140.9999999999990905
 31
0.0
1001
ACDBBLOCKREPETAG
1070
     1
1071
       52
1005
12996E
  0
LINE
  5
12996F
  8
OBJECT
 10
4097.0
 20
-140.9999999999990905
 30
0.0
 11
4097.0
 21
-258.9999999999990905
 31
0.0
1001
ACDBBLOCKREPETAG
1070
     1
1071
       53
1005
12996F
  0
LINE
  5
129970
  8
OBJECT
 10
4097.0
 20
-258.9999999999990905
 30
0.0
 11
4133.0
 21
-258.9999999999990905
 31
0.0
1001
ACDBBLOCKREPETAG
1070
     1
1071
       54
1005
129970
  0
LINE
  5
129971
  8
OBJECT
 10
4093.0
 20
-145.4999999999990905
 30
0.0
 11
4086.0
 21
-145.4999999999990905
 31
0.0
1001
ACDBBLOCKREPETAG
1070
     1
1071
       55
1005
129971
  0
LINE
  5
129972
  8
OBJECT
 10
4086.0
 20
-254.4999999999990905
 30
0.0
 11
4093.0
 21
-254.4999999999990905
 31
0.0
1001
ACDBBLOCKREPETAG
1070
     1
1071
       56
1005
129972
  0
LINE
  5
129973
  8
OBJECT
 10
4093.0
 20
-254.4999999999990905
 30
0.0
 11
4093.0
 21
-145.4999999999990905
 31
0.0
1001
ACDBBLOCKREPETAG
1070
     1
1071
       57
1005
129973
  0
LINE
  5
129974
  8
OBJECT
 10
4097.0
 20
-140.9999999999990905
 30
0.0
 11
4093.0
 21
-145.4999999999990905
 31
0.0
1001
ACDBBLOCKREPETAG
1070
     1
1071
       58
1005
129974
  0
LINE
  5
129975
  8
OBJECT
 10
4097.0
 20
-258.9999999999990905
 30
0.0
 11
4093.0
 21
-254.4999999999990905
 31
0.0
1001
ACDBBLOCKREPETAG
1070
     1
1071
       59
1005
129975
  0
LINE
  5
129976
  8
OBJECT
 10
4083.0
 20
-137.9999999999990905
 30
0.0
 11
4080.0
 21
-137.9999999999990905
 31
0.0
1001
ACDBBLOCKREPETAG
1070
     1
1071
       60
1005
129976
  0
ARC
  5
129977
  8
OBJECT
 10
4083.0
 20
-140.9999999999990905
 30
0.0
 40
3.0
 50
0.0
 51
90.0
1001
ACDBBLOCKREPETAG
1070
     1
1071
       61
1005
129977
  0
LINE
  5
129978
  8
OBJECT
 10
4080.0
 20
-261.9999999999990905
 30
0.0
 11
4083.0
 21
-261.9999999999990905
 31
0.0
1001
ACDBBLOCKREPETAG
1070
     1
1071
       62
1005
129978
  0
ARC
  5
129979
  8
OBJECT
 10
4083.0
 20
-258.9999999999990905
 30
0.0
 40
3.0
 50
270.0
 51
0.0
1001
ACDBBLOCKREPETAG
1070
     1
1071
       63
1005
129979
  0
LINE
  5
12997A
  8
OBJECT
 10
4086.0
 20
-258.9999999999990905
 30
0.0
 11
4086.0
 21
-140.9999999999990905
 31
0.0
1001
ACDBBLOCKREPETAG
1070
     1
1071
       64
1005
12997A
  0
LINE
  5
12997B
  8
HIDDEN
 10
4088.0
 20
-155.4999999999990905
 30
0.0
 11
4088.0
 21
-244.4999999999990905
 31
0.0
1001
ACDBBLOCKREPETAG
1070
     1
1071
       65
1005
12997B
  0
LINE
  5
12997C
  8
CENTER
 10
4577.0
 20
-596.0
 30
0.0
 11
4423.0
 21
-596.0
 31
0.0
1001
ACDBBLOCKREPETAG
1070
     1
1071
       17
1005
12997C
  0
CIRCLE
  5
12997D
  8
OBJECT
 10
4500.0
 20
-596.0
 30
0.0
 40
41.5
1001
ACDBBLOCKREPETAG
1070
     1
1071
       19
1005
12997D
  0
CIRCLE
  5
12997E
  8
OBJECT
 10
4500.0
 20
-596.0
 30
0.0
 40
54.0
1001
ACDBBLOCKREPETAG
1070
     1
1071
       20
1005
12997E
  0
ARC
  5
12997F
  8
OBJECT
 10
4500.0
 20
-596.0
 30
0.0
 40
62.0
 50
287.8965511292071824
 51
252.1034488707927892
1001
ACDBBLOCKREPETAG
1070
     1
1071
       21
1005
12997F
  0
LINE
  5
129980
  8
OBJECT
 10
4480.947441116742084
 20
-655.0
 30
0.0
 11
4519.0525588832570065
 21
-655.0
 31
0.0
1001
ACDBBLOCKREPETAG
1070
     1
1071
       22
1005
129980
  0
LINE
  5
129981
  8
OBJECT
 10
4133.0
 20
-534.0
 30
0.0
 11
4140.0
 21
-534.0
 31
0.0
1001
ACDBBLOCKREPETAG
1070
     1
1071
       45
1005
129981
  0
LINE
  5
129982
  8
OBJECT
 10
4140.0
 20
-534.0
 30
0.0
 11
4140.0
 21
-655.0
 31
0.0
1001
ACDBBLOCKREPETAG
1070
     1
1071
       46
1005
129982
  0
LINE
  5
129983
  8
OBJECT
 10
4133.0
 20
-655.0
 30
0.0
 11
4133.0
 21
-534.0
 31
0.0
1001
ACDBBLOCKREPETAG
1070
     1
1071
       47
1005
129983
  0
LINE
  5
129984
  8
CENTER
 10
4155.0
 20
-596.0
 30
0.0
 11
4071.0
 21
-596.0
 31
0.0
1001
ACDBBLOCKREPETAG
1070
     1
1071
       48
1005
129984
  0
LINE
  5
129985
  8
OBJECT
 10
4133.0
 20
-537.0
 30
0.0
 11
4097.0
 21
-537.0
 31
0.0
1001
ACDBBLOCKREPETAG
1070
     1
1071
       49
1005
129985
  0
LINE
  5
129986
  8
OBJECT
 10
4097.0
 20
-537.0
 30
0.0
 11
4097.0
 21
-655.0
 31
0.0
1001
ACDBBLOCKREPETAG
1070
     1
1071
       50
1005
129986
  0
LINE
  5
129987
  8
OBJECT
 10
4097.0
 20
-655.0
 30
0.0
 11
4140.0
 21
-655.0
 31
0.0
1001
ACDBBLOCKREPETAG
1070
     1
1071
       51
1005
129987
  0
LINE
  5
129988
  8
OBJECT
 10
4093.0
 20
-541.5
 30
0.0
 11
4086.0
 21
-541.5
 31
0.0
1001
ACDBBLOCKREPETAG
1070
     1
1071
       52
1005
129988
  0
LINE
  5
129989
  8
OBJECT
 10
4086.0
 20
-650.4999999999998863
 30
0.0
 11
4093.0
 21
-650.4999999999998863
 31
0.0
1001
ACDBBLOCKREPETAG
1070
     1
1071
       53
1005
129989
  0
LINE
  5
12998A
  8
OBJECT
 10
4093.0
 20
-650.4999999999998863
 30
0.0
 11
4093.0
 21
-541.5
 31
0.0
1001
ACDBBLOCKREPETAG
1070
     1
1071
       54
1005
12998A
  0
LINE
  5
12998B
  8
OBJECT
 10
4097.0
 20
-537.0
 30
0.0
 11
4093.0
 21
-541.5
 31
0.0
1001
ACDBBLOCKREPETAG
1070
     1
1071
       55
1005
12998B
  0
LINE
  5
12998C
  8
OBJECT
 10
4097.0
 20
-655.0
 30
0.0
 11
4093.0
 21
-650.4999999999998863
 31
0.0
1001
ACDBBLOCKREPETAG
1070
     1
1071
       56
1005
12998C
  0
LINE
  5
12998D
  8
OBJECT
 10
4083.0
 20
-534.0
 30
0.0
 11
4080.0
 21
-534.0
 31
0.0
1001
ACDBBLOCKREPETAG
1070
     1
1071
       57
1005
12998D
  0
ARC
  5
12998E
  8
OBJECT
 10
4083.0
 20
-537.0
 30
0.0
 40
3.0
 50
0.0
 51
90.0
1001
ACDBBLOCKREPETAG
1070
     1
1071
       58
1005
12998E
  0
LINE
  5
12998F
  8
OBJECT
 10
4080.0
 20
-658.0
 30
0.0
 11
4083.0
 21
-658.0
 31
0.0
1001
ACDBBLOCKREPETAG
1070
     1
1071
       59
1005
12998F
  0
ARC
  5
129990
  8
OBJECT
 10
4083.0
 20
-655.0
 30
0.0
 40
3.0
 50
270.0
 51
0.0
1001
ACDBBLOCKREPETAG
1070
     1
1071
       60
1005
129990
  0
LINE
  5
129991
  8
OBJECT
 10
4086.0
 20
-655.0
 30
0.0
 11
4086.0
 21
-537.0
 31
0.0
1001
ACDBBLOCKREPETAG
1070
     1
1071
       61
1005
129991
  0
LINE
  5
129992
  8
HIDDEN
 10
4088.0
 20
-551.4999999999997726
 30
0.0
 11
4088.0
 21
-640.5
 31
0.0
1001
ACDBBLOCKREPETAG
1070
     1
1071
       63
1005
129992
  0
LINE
  5
129993
  8
CENTER
 10
2577.0
 20
-596.0
 30
0.0
 11
2423.0
 21
-596.0
 31
0.0
1001
ACDBBLOCKREPETAG
1070
     1
1071
       17
1005
129993
  0
CIRCLE
  5
129994
  8
OBJECT
 10
2500.0
 20
-596.0
 30
0.0
 40
41.5
1001
ACDBBLOCKREPETAG
1070
     1
1071
       19
1005
129994
  0
CIRCLE
  5
129995
  8
OBJECT
 10
2500.0
 20
-596.0
 30
0.0
 40
54.0
1001
ACDBBLOCKREPETAG
1070
     1
1071
       20
1005
129995
  0
ARC
  5
129996
  8
OBJECT
 10
2500.0
 20
-596.0
 30
0.0
 40
62.0
 50
287.8965511292071824
 51
252.1034488707927892
1001
ACDBBLOCKREPETAG
1070
     1
1071
       21
1005
129996
  0
LINE
  5
129997
  8
OBJECT
 10
2480.9474411167429935
 20
-655.0
 30
0.0
 11
2519.0525588832570065
 21
-655.0
 31
0.0
1001
ACDBBLOCKREPETAG
1070
     1
1071
       22
1005
129997
  0
LINE
  5
129998
  8
OBJECT
 10
2133.0
 20
-534.0
 30
0.0
 11
2140.0
 21
-534.0
 31
0.0
1001
ACDBBLOCKREPETAG
1070
     1
1071
       45
1005
129998
  0
LINE
  5
129999
  8
OBJECT
 10
2140.0
 20
-534.0
 30
0.0
 11
2140.0
 21
-655.0
 31
0.0
1001
ACDBBLOCKREPETAG
1070
     1
1071
       46
1005
129999
  0
LINE
  5
12999A
  8
OBJECT
 10
2133.0
 20
-655.0
 30
0.0
 11
2133.0
 21
-534.0
 31
0.0
1001
ACDBBLOCKREPETAG
1070
     1
1071
       47
1005
12999A
  0
LINE
  5
12999B
  8
CENTER
 10
2155.0
 20
-596.0
 30
0.0
 11
2071.0
 21
-596.0
 31
0.0
1001
ACDBBLOCKREPETAG
1070
     1
1071
       48
1005
12999B
  0
LINE
  5
12999C
  8
OBJECT
 10
2133.0
 20
-537.0
 30
0.0
 11
2097.0
 21
-537.0
 31
0.0
1001
ACDBBLOCKREPETAG
1070
     1
1071
       49
1005
12999C
  0
LINE
  5
12999D
  8
OBJECT
 10
2097.0
 20
-537.0
 30
0.0
 11
2097.0
 21
-655.0
 31
0.0
1001
ACDBBLOCKREPETAG
1070
     1
1071
       50
1005
12999D
  0
LINE
  5
12999E
  8
OBJECT
 10
2097.0
 20
-655.0
 30
0.0
 11
2140.0
 21
-655.0
 31
0.0
1001
ACDBBLOCKREPETAG
1070
     1
1071
       51
1005
12999E
  0
LINE
  5
12999F
  8
OBJECT
 10
2093.0
 20
-541.5
 30
0.0
 11
2086.0
 21
-541.5
 31
0.0
1001
ACDBBLOCKREPETAG
1070
     1
1071
       52
1005
12999F
  0
LINE
  5
1299A0
  8
OBJECT
 10
2086.0
 20
-650.4999999999998863
 30
0.0
 11
2093.0
 21
-650.4999999999998863
 31
0.0
1001
ACDBBLOCKREPETAG
1070
     1
1071
       53
1005
1299A0
  0
LINE
  5
1299A1
  8
OBJECT
 10
2093.0
 20
-650.4999999999998863
 30
0.0
 11
2093.0
 21
-541.5
 31
0.0
1001
ACDBBLOCKREPETAG
1070
     1
1071
       54
1005
1299A1
  0
LINE
  5
1299A2
  8
OBJECT
 10
2097.0
 20
-537.0
 30
0.0
 11
2093.0
 21
-541.5
 31
0.0
1001
ACDBBLOCKREPETAG
1070
     1
1071
       55
1005
1299A2
  0
LINE
  5
1299A3
  8
OBJECT
 10
2097.0
 20
-655.0
 30
0.0
 11
2093.0
 21
-650.4999999999998863
 31
0.0
1001
ACDBBLOCKREPETAG
1070
     1
1071
       56
1005
1299A3
  0
LINE
  5
1299A4
  8
OBJECT
 10
2083.0
 20
-534.0
 30
0.0
 11
2080.0
 21
-534.0
 31
0.0
1001
ACDBBLOCKREPETAG
1070
     1
1071
       57
1005
1299A4
  0
ARC
  5
1299A5
  8
OBJECT
 10
2083.0
 20
-537.0
 30
0.0
 40
3.0
 50
0.0
 51
90.0
1001
ACDBBLOCKREPETAG
1070
     1
1071
       58
1005
1299A5
  0
LINE
  5
1299A6
  8
OBJECT
 10
2080.0
 20
-658.0
 30
0.0
 11
2083.0
 21
-658.0
 31
0.0
1001
ACDBBLOCKREPETAG
1070
     1
1071
       59
1005
1299A6
  0
ARC
  5
1299A7
  8
OBJECT
 10
2083.0
 20
-655.0
 30
0.0
 40
3.0
 50
270.0
 51
0.0
1001
ACDBBLOCKREPETAG
1070
     1
1071
       60
1005
1299A7
  0
LINE
  5
1299A8
  8
OBJECT
 10
2086.0
 20
-655.0
 30
0.0
 11
2086.0
 21
-537.0
 31
0.0
1001
ACDBBLOCKREPETAG
1070
     1
1071
       61
1005
1299A8
  0
LINE
  5
1299A9
  8
HIDDEN
 10
2088.0
 20
-551.4999999999997726
 30
0.0
 11
2088.0
 21
-640.5
 31
0.0
1001
ACDBBLOCKREPETAG
1070
     1
1071
       63
1005
1299A9
  0
LINE
  5
1299AA
  8
OBJECT
 10
2133.0
 20
-137.9999999999990905
 30
0.0
 11
2140.0
 21
-137.9999999999990905
 31
0.0
1001
ACDBBLOCKREPETAG
1070
     1
1071
       47
1005
1299AA
  0
LINE
  5
1299AB
  8
OBJECT
 10
2140.0
 20
-137.9999999999990905
 30
0.0
 11
2140.0
 21
-261.9999999999990905
 31
0.0
1001
ACDBBLOCKREPETAG
1070
     1
1071
       48
1005
1299AB
  0
LINE
  5
1299AC
  8
OBJECT
 10
2140.0
 20
-261.9999999999990905
 30
0.0
 11
2133.0
 21
-261.9999999999990905
 31
0.0
1001
ACDBBLOCKREPETAG
1070
     1
1071
       49
1005
1299AC
  0
LINE
  5
1299AD
  8
OBJECT
 10
2133.0
 20
-261.9999999999990905
 30
0.0
 11
2133.0
 21
-137.9999999999990905
 31
0.0
1001
ACDBBLOCKREPETAG
1070
     1
1071
       50
1005
1299AD
  0
LINE
  5
1299AE
  8
CENTER
 10
2155.0
 20
-199.9999999999990905
 30
0.0
 11
2080.0
 21
-199.9999999999990905
 31
0.0
1001
ACDBBLOCKREPETAG
1070
     1
1071
       51
1005
1299AE
  0
LINE
  5
1299AF
  8
OBJECT
 10
2133.0
 20
-140.9999999999990905
 30
0.0
 11
2097.0
 21
-140.9999999999990905
 31
0.0
1001
ACDBBLOCKREPETAG
1070
     1
1071
       52
1005
1299AF
  0
LINE
  5
1299B0
  8
OBJECT
 10
2097.0
 20
-140.9999999999990905
 30
0.0
 11
2097.0
 21
-258.9999999999990905
 31
0.0
1001
ACDBBLOCKREPETAG
1070
     1
1071
       53
1005
1299B0
  0
LINE
  5
1299B1
  8
OBJECT
 10
2097.0
 20
-258.9999999999990905
 30
0.0
 11
2133.0
 21
-258.9999999999990905
 31
0.0
1001
ACDBBLOCKREPETAG
1070
     1
1071
       54
1005
1299B1
  0
LINE
  5
1299B2
  8
OBJECT
 10
2093.0
 20
-145.4999999999990905
 30
0.0
 11
2086.0
 21
-145.4999999999990905
 31
0.0
1001
ACDBBLOCKREPETAG
1070
     1
1071
       55
1005
1299B2
  0
LINE
  5
1299B3
  8
OBJECT
 10
2086.0
 20
-254.4999999999990905
 30
0.0
 11
2093.0
 21
-254.4999999999990905
 31
0.0
1001
ACDBBLOCKREPETAG
1070
     1
1071
       56
1005
1299B3
  0
LINE
  5
1299B4
  8
OBJECT
 10
2093.0
 20
-254.4999999999990905
 30
0.0
 11
2093.0
 21
-145.4999999999990905
 31
0.0
1001
ACDBBLOCKREPETAG
1070
     1
1071
       57
1005
1299B4
  0
LINE
  5
1299B5
  8
OBJECT
 10
2097.0
 20
-140.9999999999990905
 30
0.0
 11
2093.0
 21
-145.4999999999990905
 31
0.0
1001
ACDBBLOCKREPETAG
1070
     1
1071
       58
1005
1299B5
  0
LINE
  5
1299B6
  8
OBJECT
 10
2097.0
 20
-258.9999999999990905
 30
0.0
 11
2093.0
 21
-254.4999999999990905
 31
0.0
1001
ACDBBLOCKREPETAG
1070
     1
1071
       59
1005
1299B6
  0
LINE
  5
1299B7
  8
OBJECT
 10
2083.0
 20
-137.9999999999990905
 30
0.0
 11
2080.0
 21
-137.9999999999990905
 31
0.0
1001
ACDBBLOCKREPETAG
1070
     1
1071
       60
1005
1299B7
  0
ARC
  5
1299B8
  8
OBJECT
 10
2083.0
 20
-140.9999999999990905
 30
0.0
 40
3.0
 50
0.0
 51
90.0
1001
ACDBBLOCKREPETAG
1070
     1
1071
       61
1005
1299B8
  0
LINE
  5
1299B9
  8
OBJECT
 10
2080.0
 20
-261.9999999999990905
 30
0.0
 11
2083.0
 21
-261.9999999999990905
 31
0.0
1001
ACDBBLOCKREPETAG
1070
     1
1071
       62
1005
1299B9
  0
ARC
  5
1299BA
  8
OBJECT
 10
2083.0
 20
-258.9999999999990905
 30
0.0
 40
3.0
 50
270.0
 51
0.0
1001
ACDBBLOCKREPETAG
1070
     1
1071
       63
1005
1299BA
  0
LINE
  5
1299BB
  8
OBJECT
 10
2086.0
 20
-258.9999999999990905
 30
0.0
 11
2086.0
 21
-140.9999999999990905
 31
0.0
1001
ACDBBLOCKREPETAG
1070
     1
1071
       64
1005
1299BB
  0
LINE
  5
1299BC
  8
HIDDEN
 10
2088.0
 20
-155.4999999999990905
 30
0.0
 11
2088.0
 21
-244.4999999999990905
 31
0.0
1001
ACDBBLOCKREPETAG
1070
     1
1071
       65
1005
1299BC
  0
LINE
  5
1299BD
  8
OBJECT
 10
465.0000000001218154
 20
-546.0000000000095497
 30
0.0
 11
465.0000000001218154
 21
-553.0000000000096634
 31
0.0
1001
ACDBBLOCKREPETAG
1070
     1
1071
       57
1005
1299BD
  0
LINE
  5
1299BE
  8
OBJECT
 10
465.0000000001218154
 20
-553.0000000000096634
 30
0.0
 11
615.0000000001217586
 21
-553.0000000000096634
 31
0.0
1001
ACDBBLOCKREPETAG
1070
     1
1071
       58
1005
1299BE
  0
LINE
  5
1299BF
  8
OBJECT
 10
468.0000000001218723
 20
-594.5000000000096634
 30
0.0
 11
612.0000000001216449
 21
-594.5000000000096634
 31
0.0
1001
ACDBBLOCKREPETAG
1070
     1
1071
       59
1005
1299BF
  0
LINE
  5
1299C0
  8
OBJECT
 10
474.5000000001217018
 20
-606.0000000000095497
 30
0.0
 11
605.5000000001218723
 21
-606.0000000000095497
 31
0.0
1001
ACDBBLOCKREPETAG
1070
     1
1071
       60
1005
1299C0
  0
LINE
  5
1299C1
  8
OBJECT
 10
615.0000000001217586
 20
-553.0000000000096634
 30
0.0
 11
615.0000000001217586
 21
-546.0000000000095497
 31
0.0
1001
ACDBBLOCKREPETAG
1070
     1
1071
       61
1005
1299C1
  0
LINE
  5
1299C2
  8
OBJECT
 10
615.0000000001217586
 20
-546.0000000000095497
 30
0.0
 11
465.0000000001218154
 21
-546.0000000000095497
 31
0.0
1001
ACDBBLOCKREPETAG
1070
     1
1071
       62
1005
1299C2
  0
LINE
  5
1299C3
  8
OBJECT
 10
602.0000000001218723
 20
-610.0000000000095497
 30
0.0
 11
602.0000000001218723
 21
-616.0000000000095497
 31
0.0
1001
ACDBBLOCKREPETAG
1070
     1
1071
       63
1005
1299C3
  0
LINE
  5
1299C4
  8
OBJECT
 10
612.0000000001216449
 20
-553.0000000000096634
 30
0.0
 11
612.0000000001216449
 21
-594.5000000000096634
 31
0.0
1001
ACDBBLOCKREPETAG
1070
     1
1071
       64
1005
1299C4
  0
LINE
  5
1299C5
  8
OBJECT
 10
612.0000000001216449
 20
-594.5000000000096634
 30
0.0
 11
605.5000000001218723
 21
-606.0000000000095497
 31
0.0
1001
ACDBBLOCKREPETAG
1070
     1
1071
       65
1005
1299C5
  0
LINE
  5
1299C6
  8
OBJECT
 10
605.5000000001218723
 20
-606.0000000000095497
 30
0.0
 11
602.0000000001218723
 21
-610.0000000000095497
 31
0.0
1001
ACDBBLOCKREPETAG
1070
     1
1071
       66
1005
1299C6
  0
LINE
  5
1299C7
  8
OBJECT
 10
468.0000000001218723
 20
-594.5000000000096634
 30
0.0
 11
474.5000000001217018
 21
-606.0000000000095497
 31
0.0
1001
ACDBBLOCKREPETAG
1070
     1
1071
       67
1005
1299C7
  0
LINE
  5
1299C8
  8
OBJECT
 10
474.5000000001217018
 20
-606.0000000000095497
 30
0.0
 11
478.0000000001217018
 21
-610.0000000000095497
 31
0.0
1001
ACDBBLOCKREPETAG
1070
     1
1071
       68
1005
1299C8
  0
ARC
  5
1299C9
  8
OBJECT
 10
540.0000000001217586
 20
-228.1000000000080092
 30
0.0
 40
386.8999999999999773
 50
260.7787013625795112
 51
279.2212986374204888
1001
ACDBBLOCKREPETAG
1070
     1
1071
       69
1005
1299C9
  0
LINE
  5
1299CA
  8
OBJECT
 10
478.0000000001217018
 20
-610.0000000000095497
 30
0.0
 11
478.0000000001217018
 21
-616.0000000000095497
 31
0.0
1001
ACDBBLOCKREPETAG
1070
     1
1071
       70
1005
1299CA
  0
LINE
  5
1299CB
  8
OBJECT
 10
468.0000000001218723
 20
-553.0000000000096634
 30
0.0
 11
468.0000000001218723
 21
-594.5000000000096634
 31
0.0
1001
ACDBBLOCKREPETAG
1070
     1
1071
       71
1005
1299CB
  0
INSERT
  5
1299CC
  8
OBJECT
  2
*U11
 10
0.0
 20
0.0
 30
0.0
  0
LINE
  5
1299CD
  8
HIDDEN
 10
597.0000000001218723
 20
-598.0000000000095497
 30
0.0
 11
483.0000000001217018
 21
-598.0000000000095497
 31
0.0
1001
ACDBBLOCKREPETAG
1070
     1
1071
      431
1005
1299CD
  0
INSERT
  5
1299CE
  8
OBJECT
  2
*U12
 10
0.0
 20
0.0
 30
0.0
  0
LINE
  5
1299CF
  8
OBJECT
 10
118.0000000000417941
 20
-563.0000000000095497
 30
0.0
 11
118.0000000000417941
 21
-556.0000000000095497
 31
0.0
1001
ACDBBLOCKREPETAG
1070
     1
1071
       39
1005
1299CF
  0
LINE
  5
1299D0
  8
OBJECT
 10
118.0000000000417941
 20
-556.0000000000095497
 30
0.0
 11
242.0000000000418083
 21
-556.0000000000095497
 31
0.0
1001
ACDBBLOCKREPETAG
1070
     1
1071
       40
1005
1299D0
  0
LINE
  5
1299D1
  8
OBJECT
 10
242.0000000000418083
 20
-556.0000000000095497
 30
0.0
 11
242.0000000000418083
 21
-563.0000000000095497
 31
0.0
1001
ACDBBLOCKREPETAG
1070
     1
1071
       41
1005
1299D1
  0
LINE
  5
1299D2
  8
OBJECT
 10
242.0000000000418083
 20
-563.0000000000095497
 30
0.0
 11
118.0000000000417941
 21
-563.0000000000095497
 31
0.0
1001
ACDBBLOCKREPETAG
1070
     1
1071
       42
1005
1299D2
  0
LINE
  5
1299D3
  8
OBJECT
 10
121.0000000000417941
 20
-563.0000000000095497
 30
0.0
 11
121.0000000000417941
 21
-599.0000000000096634
 31
0.0
1001
ACDBBLOCKREPETAG
1070
     1
1071
       43
1005
1299D3
  0
LINE
  5
1299D4
  8
OBJECT
 10
121.0000000000417941
 20
-599.0000000000096634
 30
0.0
 11
239.0000000000418083
 21
-599.0000000000096634
 31
0.0
1001
ACDBBLOCKREPETAG
1070
     1
1071
       44
1005
1299D4
  0
LINE
  5
1299D5
  8
OBJECT
 10
239.0000000000418083
 20
-599.0000000000096634
 30
0.0
 11
239.0000000000418083
 21
-563.0000000000095497
 31
0.0
1001
ACDBBLOCKREPETAG
1070
     1
1071
       45
1005
1299D5
  0
LINE
  5
1299D6
  8
OBJECT
 10
125.5000000000417941
 20
-603.0000000000096634
 30
0.0
 11
125.5000000000417941
 21
-610.0000000000095497
 31
0.0
1001
ACDBBLOCKREPETAG
1070
     1
1071
       46
1005
1299D6
  0
LINE
  5
1299D7
  8
OBJECT
 10
234.5000000000418083
 20
-610.0000000000095497
 30
0.0
 11
234.5000000000418083
 21
-603.0000000000096634
 31
0.0
1001
ACDBBLOCKREPETAG
1070
     1
1071
       47
1005
1299D7
  0
LINE
  5
1299D8
  8
OBJECT
 10
234.5000000000418083
 20
-603.0000000000096634
 30
0.0
 11
125.5000000000417941
 21
-603.0000000000096634
 31
0.0
1001
ACDBBLOCKREPETAG
1070
     1
1071
       48
1005
1299D8
  0
LINE
  5
1299D9
  8
OBJECT
 10
121.0000000000417941
 20
-599.0000000000096634
 30
0.0
 11
125.5000000000417941
 21
-603.0000000000096634
 31
0.0
1001
ACDBBLOCKREPETAG
1070
     1
1071
       49
1005
1299D9
  0
LINE
  5
1299DA
  8
OBJECT
 10
239.0000000000418083
 20
-599.0000000000096634
 30
0.0
 11
234.5000000000418083
 21
-603.0000000000096634
 31
0.0
1001
ACDBBLOCKREPETAG
1070
     1
1071
       50
1005
1299DA
  0
LINE
  5
1299DB
  8
OBJECT
 10
118.0000000000417941
 20
-613.0000000000087539
 30
0.0
 11
118.0000000000417941
 21
-616.0000000000095497
 31
0.0
1001
ACDBBLOCKREPETAG
1070
     1
1071
       51
1005
1299DB
  0
ARC
  5
1299DC
  8
OBJECT
 10
121.0000000000417941
 20
-613.0000000000087539
 30
0.0
 40
3.0
 50
90.0
 51
180.0
1001
ACDBBLOCKREPETAG
1070
     1
1071
       52
1005
1299DC
  0
LINE
  5
1299DD
  8
OBJECT
 10
242.0000000000418083
 20
-616.0000000000095497
 30
0.0
 11
242.0000000000418083
 21
-613.0000000000103455
 31
0.0
1001
ACDBBLOCKREPETAG
1070
     1
1071
       53
1005
1299DD
  0
ARC
  5
1299DE
  8
OBJECT
 10
239.0000000000418083
 20
-613.0000000000103455
 30
0.0
 40
3.0
 50
0.0
 51
90.0
1001
ACDBBLOCKREPETAG
1070
     1
1071
       54
1005
1299DE
  0
LINE
  5
1299DF
  8
OBJECT
 10
239.0000000000418083
 20
-610.0000000000103455
 30
0.0
 11
121.0000000000417941
 21
-610.0000000000087539
 31
0.0
1001
ACDBBLOCKREPETAG
1070
     1
1071
       55
1005
1299DF
  0
LINE
  5
1299E0
  8
HIDDEN
 10
135.5000000000418083
 20
-608.0000000000095497
 30
0.0
 11
224.5000000000418083
 21
-608.0000000000095497
 31
0.0
1001
ACDBBLOCKREPETAG
1070
     1
1071
      426
1005
1299E0
  0
INSERT
  5
1299E1
  8
OBJECT
  2
*U13
 10
0.0
 20
0.0
 30
0.0
  0
LINE
  5
1299E2
  8
OBJECT
 10
485.0000000001218723
 20
-99.0000000000031832
 30
0.0
 11
485.0000000001218723
 21
-92.0000000000031832
 31
0.0
1001
ACDBBLOCKREPETAG
1070
     1
1071
       20
1005
1299E2
  0
LINE
  5
1299E3
  8
OBJECT
 10
485.0000000001218723
 20
-92.0000000000031832
 30
0.0
 11
595.0000000001216449
 21
-92.0000000000031832
 31
0.0
1001
ACDBBLOCKREPETAG
1070
     1
1071
       21
1005
1299E3
  0
LINE
  5
1299E4
  8
OBJECT
 10
595.0000000001216449
 20
-92.0000000000031832
 30
0.0
 11
595.0000000001216449
 21
-99.0000000000031832
 31
0.0
1001
ACDBBLOCKREPETAG
1070
     1
1071
       22
1005
1299E4
  0
LINE
  5
1299E5
  8
OBJECT
 10
595.0000000001216449
 20
-99.0000000000031832
 30
0.0
 11
485.0000000001218723
 21
-99.0000000000031832
 31
0.0
1001
ACDBBLOCKREPETAG
1070
     1
1071
       23
1005
1299E5
  0
LINE
  5
1299E6
  8
OBJECT
 10
488.0000000001217018
 20
-99.0000000000031832
 30
0.0
 11
488.0000000001217018
 21
-135.0000000000032117
 31
0.0
1001
ACDBBLOCKREPETAG
1070
     1
1071
       24
1005
1299E6
  0
LINE
  5
1299E7
  8
OBJECT
 10
488.0000000001217018
 20
-135.0000000000032117
 30
0.0
 11
592.0000000001216449
 21
-135.0000000000032117
 31
0.0
1001
ACDBBLOCKREPETAG
1070
     1
1071
       25
1005
1299E7
  0
LINE
  5
1299E8
  8
OBJECT
 10
592.0000000001216449
 20
-135.0000000000032117
 30
0.0
 11
592.0000000001216449
 21
-99.0000000000031832
 31
0.0
1001
ACDBBLOCKREPETAG
1070
     1
1071
       26
1005
1299E8
  0
LINE
  5
1299E9
  8
OBJECT
 10
492.5000000001217018
 20
-139.0000000000032117
 30
0.0
 11
492.5000000001217018
 21
-146.0000000000032117
 31
0.0
1001
ACDBBLOCKREPETAG
1070
     1
1071
       27
1005
1299E9
  0
LINE
  5
1299EA
  8
OBJECT
 10
587.5000000001216449
 20
-146.0000000000032117
 30
0.0
 11
587.5000000001216449
 21
-139.0000000000032117
 31
0.0
1001
ACDBBLOCKREPETAG
1070
     1
1071
       28
1005
1299EA
  0
LINE
  5
1299EB
  8
OBJECT
 10
587.5000000001216449
 20
-139.0000000000032117
 30
0.0
 11
492.5000000001217018
 21
-139.0000000000032117
 31
0.0
1001
ACDBBLOCKREPETAG
1070
     1
1071
       29
1005
1299EB
  0
LINE
  5
1299EC
  8
OBJECT
 10
488.0000000001217018
 20
-135.0000000000032117
 30
0.0
 11
492.5000000001217018
 21
-139.0000000000032117
 31
0.0
1001
ACDBBLOCKREPETAG
1070
     1
1071
       30
1005
1299EC
  0
LINE
  5
1299ED
  8
OBJECT
 10
592.0000000001216449
 20
-135.0000000000032117
 30
0.0
 11
587.5000000001216449
 21
-139.0000000000032117
 31
0.0
1001
ACDBBLOCKREPETAG
1070
     1
1071
       31
1005
1299ED
  0
LINE
  5
1299EE
  8
OBJECT
 10
478.0000000001217018
 20
-149.0000000000023022
 30
0.0
 11
478.0000000001217018
 21
-152.000000000003098
 31
0.0
1001
ACDBBLOCKREPETAG
1070
     1
1071
       32
1005
1299EE
  0
ARC
  5
1299EF
  8
OBJECT
 10
481.0000000001218723
 20
-149.0000000000023022
 30
0.0
 40
3.0
 50
90.0
 51
180.0
1001
ACDBBLOCKREPETAG
1070
     1
1071
       33
1005
1299EF
  0
LINE
  5
1299F0
  8
OBJECT
 10
602.0000000001218723
 20
-152.000000000003098
 30
0.0
 11
602.0000000001218723
 21
-149.0000000000040927
 31
0.0
1001
ACDBBLOCKREPETAG
1070
     1
1071
       34
1005
1299F0
  0
ARC
  5
1299F1
  8
OBJECT
 10
599.0000000001216449
 20
-149.0000000000040927
 30
0.0
 40
3.0
 50
0.0
 51
90.0
1001
ACDBBLOCKREPETAG
1070
     1
1071
       35
1005
1299F1
  0
LINE
  5
1299F2
  8
OBJECT
 10
599.0000000001216449
 20
-146.0000000000040927
 30
0.0
 11
481.0000000001218723
 21
-146.0000000000023022
 31
0.0
1001
ACDBBLOCKREPETAG
1070
     1
1071
       36
1005
1299F2
  0
LINE
  5
1299F3
  8
HIDDEN
 10
502.0000000001218723
 20
-144.0000000000032117
 30
0.0
 11
578.0000000001216449
 21
-144.0000000000032117
 31
0.0
1001
ACDBBLOCKREPETAG
1070
     1
1071
      423
1005
1299F3
  0
INSERT
  5
1299F4
  8
OBJECT
  2
*U14
 10
0.0
 20
0.0
 30
0.0
  0
LINE
  5
1299F5
  8
OBJECT
 10
133.0000000000416946
 20
-99.0000000000031832
 30
0.0
 11
133.0000000000416946
 21
-92.0000000000031832
 31
0.0
1001
ACDBBLOCKREPETAG
1070
     1
1071
        1
1005
1299F5
  0
LINE
  5
1299F6
  8
OBJECT
 10
133.0000000000416946
 20
-92.0000000000031832
 30
0.0
 11
227.0000000000418083
 21
-92.0000000000031832
 31
0.0
1001
ACDBBLOCKREPETAG
1070
     1
1071
        2
1005
1299F6
  0
LINE
  5
1299F7
  8
OBJECT
 10
227.0000000000418083
 20
-92.0000000000031832
 30
0.0
 11
227.0000000000418083
 21
-99.0000000000031832
 31
0.0
1001
ACDBBLOCKREPETAG
1070
     1
1071
        3
1005
1299F7
  0
LINE
  5
1299F8
  8
OBJECT
 10
227.0000000000418083
 20
-99.0000000000031832
 30
0.0
 11
133.0000000000416946
 21
-99.0000000000031832
 31
0.0
1001
ACDBBLOCKREPETAG
1070
     1
1071
        4
1005
1299F8
  0
LINE
  5
1299F9
  8
OBJECT
 10
136.0000000000416946
 20
-99.0000000000031832
 30
0.0
 11
136.0000000000416946
 21
-135.0000000000032117
 31
0.0
1001
ACDBBLOCKREPETAG
1070
     1
1071
        5
1005
1299F9
  0
LINE
  5
1299FA
  8
OBJECT
 10
136.0000000000416946
 20
-135.0000000000032117
 30
0.0
 11
224.0000000000418083
 21
-135.0000000000032117
 31
0.0
1001
ACDBBLOCKREPETAG
1070
     1
1071
        6
1005
1299FA
  0
LINE
  5
1299FB
  8
OBJECT
 10
224.0000000000418083
 20
-135.0000000000032117
 30
0.0
 11
224.0000000000418083
 21
-99.0000000000031832
 31
0.0
1001
ACDBBLOCKREPETAG
1070
     1
1071
        7
1005
1299FB
  0
LINE
  5
1299FC
  8
OBJECT
 10
140.5000000000418083
 20
-139.0000000000032117
 30
0.0
 11
140.5000000000418083
 21
-146.0000000000032117
 31
0.0
1001
ACDBBLOCKREPETAG
1070
     1
1071
        8
1005
1299FC
  0
LINE
  5
1299FD
  8
OBJECT
 10
219.5000000000418936
 20
-146.0000000000032117
 30
0.0
 11
219.5000000000418936
 21
-139.0000000000032117
 31
0.0
1001
ACDBBLOCKREPETAG
1070
     1
1071
        9
1005
1299FD
  0
LINE
  5
1299FE
  8
OBJECT
 10
219.5000000000418936
 20
-139.0000000000032117
 30
0.0
 11
140.5000000000418083
 21
-139.0000000000032117
 31
0.0
1001
ACDBBLOCKREPETAG
1070
     1
1071
       10
1005
1299FE
  0
LINE
  5
1299FF
  8
OBJECT
 10
136.0000000000416946
 20
-135.0000000000032117
 30
0.0
 11
140.5000000000418083
 21
-139.0000000000032117
 31
0.0
1001
ACDBBLOCKREPETAG
1070
     1
1071
       11
1005
1299FF
  0
LINE
  5
129A00
  8
OBJECT
 10
224.0000000000418083
 20
-135.0000000000032117
 30
0.0
 11
219.5000000000418936
 21
-139.0000000000032117
 31
0.0
1001
ACDBBLOCKREPETAG
1070
     1
1071
       12
1005
129A00
  0
LINE
  5
129A01
  8
OBJECT
 10
118.0000000000417941
 20
-149.0000000000023022
 30
0.0
 11
118.0000000000417941
 21
-152.000000000003098
 31
0.0
1001
ACDBBLOCKREPETAG
1070
     1
1071
       13
1005
129A01
  0
ARC
  5
129A02
  8
OBJECT
 10
121.0000000000417941
 20
-149.0000000000023022
 30
0.0
 40
3.0
 50
90.0
 51
180.0
1001
ACDBBLOCKREPETAG
1070
     1
1071
       14
1005
129A02
  0
LINE
  5
129A03
  8
OBJECT
 10
242.0000000000418083
 20
-152.000000000003098
 30
0.0
 11
242.0000000000418083
 21
-149.0000000000040927
 31
0.0
1001
ACDBBLOCKREPETAG
1070
     1
1071
       15
1005
129A03
  0
ARC
  5
129A04
  8
OBJECT
 10
239.0000000000418083
 20
-149.0000000000040927
 30
0.0
 40
3.0
 50
0.0
 51
90.0
1001
ACDBBLOCKREPETAG
1070
     1
1071
       16
1005
129A04
  0
LINE
  5
129A05
  8
OBJECT
 10
239.0000000000418083
 20
-146.0000000000040927
 30
0.0
 11
121.0000000000417941
 21
-146.0000000000023022
 31
0.0
1001
ACDBBLOCKREPETAG
1070
     1
1071
       17
1005
129A05
  0
LINE
  5
129A06
  8
HIDDEN
 10
150.0000000000418083
 20
-144.0000000000032117
 30
0.0
 11
210.0000000000418083
 21
-144.0000000000032117
 31
0.0
1001
ACDBBLOCKREPETAG
1070
     1
1071
      420
1005
129A06
  0
POLYLINE
  5
129A07
  8
HIDDEN
 66
     1
 10
0.0
 20
0.0
 30
0.0
 70
     1
1001
ACDBBLOCKREPETAG
1070
     1
1071
      105
1005
0
  0
VERTEX
  5
129C0E
  8
HIDDEN
 10
359.9999999998781277
 20
0.0
 30
0.0
  0
VERTEX
  5
129C0F
  8
HIDDEN
 10
719.9999999997562554
 20
0.0
 30
0.0
  0
VERTEX
  5
129C10
  8
HIDDEN
 10
719.9999999997562554
 20
-463.9999999998415774
 30
0.0
  0
VERTEX
  5
129C11
  8
HIDDEN
 10
359.9999999998781277
 20
-463.9999999998415774
 30
0.0
  0
SEQEND
  5
129C12
  8
HIDDEN
  0
POLYLINE
  5
129A08
  8
HIDDEN
 66
     1
 10
0.0
 20
0.0
 30
0.0
 70
     1
1001
ACDBBLOCKREPETAG
1070
     1
1071
      110
1005
0
  0
VERTEX
  5
129C13
  8
HIDDEN
 10
0.0
 20
0.0
 30
0.0
  0
VERTEX
  5
129C14
  8
HIDDEN
 10
359.9999999998781277
 20
0.0
 30
0.0
  0
VERTEX
  5
129C15
  8
HIDDEN
 10
359.9999999998781277
 20
-463.9999999998415774
 30
0.0
  0
VERTEX
  5
129C16
  8
HIDDEN
 10
0.0
 20
-463.9999999998415774
 30
0.0
  0
SEQEND
  5
129C17
  8
HIDDEN
  0
POLYLINE
  5
129A09
  8
HIDDEN
 66
     1
 10
0.0
 20
0.0
 30
0.0
 70
     1
1001
ACDBBLOCKREPETAG
1070
     1
1071
      120
1005
0
  0
VERTEX
  5
129C18
  8
HIDDEN
 10
359.9999999998781277
 20
-463.9999999998415774
 30
0.0
  0
VERTEX
  5
129C19
  8
HIDDEN
 10
719.9999999997562554
 20
-463.9999999998415774
 30
0.0
  0
VERTEX
  5
129C1A
  8
HIDDEN
 10
719.9999999997562554
 20
-927.9999999996834958
 30
0.0
  0
VERTEX
  5
129C1B
  8
HIDDEN
 10
359.9999999998781277
 20
-927.9999999996834958
 30
0.0
  0
SEQEND
  5
129C1C
  8
HIDDEN
  0
POLYLINE
  5
129A0A
  8
HIDDEN
 66
     1
 10
0.0
 20
0.0
 30
0.0
 70
     1
1001
ACDBBLOCKREPETAG
1070
     1
1071
      125
1005
0
  0
VERTEX
  5
129C1D
  8
HIDDEN
 10
0.0
 20
-463.9999999998415774
 30
0.0
  0
VERTEX
  5
129C1E
  8
HIDDEN
 10
359.9999999998781277
 20
-463.9999999998415774
 30
0.0
  0
VERTEX
  5
129C1F
  8
HIDDEN
 10
359.9999999998781277
 20
-927.9999999996834958
 30
0.0
  0
VERTEX
  5
129C20
  8
HIDDEN
 10
0.0
 20
-927.9999999996834958
 30
0.0
  0
SEQEND
  5
129C21
  8
HIDDEN
  0
TEXT
  5
129A0B
  8
SLIM
 10
508.2857142855322081
 20
-907.9999999996909992
 30
0.0
 40
48.0
  1
A4
 41
0.75
1001
ACDBBLOCKREPETAG
1070
     1
1071
      119
1005
0
  0
TEXT
  5
129A0C
  8
SLIM
 10
149.1428571427971121
 20
-907.9999999996909992
 30
0.0
 40
48.0
  1
A3
 41
0.75
1001
ACDBBLOCKREPETAG
1070
     1
1071
      119
1005
0
  0
TEXT
  5
129A0D
  8
SLIM
 10
509.1428571426752114
 20
-443.9999999998491944
 30
0.0
 40
48.0
  1
A2
 41
0.75
1001
ACDBBLOCKREPETAG
1070
     1
1071
      119
1005
0
  0
TEXT
  5
129A0E
  8
SLIM
 10
156.8571428570828061
 20
-443.9999999998491944
 30
0.0
 40
48.0
  1
A1
 41
0.75
1001
ACDBBLOCKREPETAG
1070
     1
1071
      119
1005
0
  0
TEXT
  5
129A0F
  8
SLIM
 10
0.0000035665234464
 20
24.0000045853176012
 30
0.0
 40
79.9999999999727152
  1
枝管バリエーション
 41
0.75
1001
ACDBBLOCKREPETAG
1070
     1
1071
      119
1005
1229F1
  0
TEXT
  5
129A10
  8
SLIM
 10
0.0
 20
369.9999999999998863
 30
0.0
 40
100.0
  1
4SSRT2-AX-0-S
 41
0.75
  0
LINE
  5
129A11
  8
OBJECT
 10
4560.0
 20
-527.9999999999994316
 30
0.0
 11
4440.0
 21
-527.9999999999994316
 31
0.0
1001
ACDBBLOCKREPETAG
1070
     1
1071
      144
1005
129A11
  0
ARC
  5
129A12
  8
OBJECT
 10
4440.0
 20
-530.9999999999994316
 30
0.0
 40
3.0
 50
90.0
 51
180.0
1001
ACDBBLOCKREPETAG
1070
     1
1071
      145
1005
129A12
  0
LINE
  5
129A13
  8
OBJECT
 10
4437.0
 20
-530.9999999999994316
 30
0.0
 11
4437.0
 21
-533.9999999999994316
 31
0.0
1001
ACDBBLOCKREPETAG
1070
     1
1071
      146
1005
129A13
  0
LINE
  5
129A14
  8
OBJECT
 10
4563.0
 20
-530.9999999999994316
 30
0.0
 11
4563.0
 21
-533.9999999999994316
 31
0.0
1001
ACDBBLOCKREPETAG
1070
     1
1071
      147
1005
129A14
  0
ARC
  5
129A15
  8
OBJECT
 10
4560.0
 20
-530.9999999999994316
 30
0.0
 40
3.0
 50
0.0
 51
90.0
1001
ACDBBLOCKREPETAG
1070
     1
1071
      148
1005
129A15
  0
LINE
  5
129A16
  8
OBJECT
 10
4443.0
 20
-459.9999999999993747
 30
0.0
 11
4443.0
 21
-527.9999999999994316
 31
0.0
1001
ACDBBLOCKREPETAG
1070
     1
1071
      149
1005
129A16
  0
LINE
  5
129A17
  8
OBJECT
 10
4557.0
 20
-459.9999999999993747
 30
0.0
 11
4443.0
 21
-459.9999999999993747
 31
0.0
1001
ACDBBLOCKREPETAG
1070
     1
1071
      150
1005
129A17
  0
LINE
  5
129A18
  8
OBJECT
 10
4557.0
 20
-459.9999999999993747
 30
0.0
 11
4557.0
 21
-527.9999999999994316
 31
0.0
1001
ACDBBLOCKREPETAG
1070
     1
1071
      151
1005
129A18
  0
LINE
  5
129A19
  8
CENTER
 10
4500.0
 20
-444.9999999999993747
 30
0.0
 11
4500.0
 21
-789.9999999999994316
 31
0.0
1001
ACDBBLOCKREPETAG
1070
     1
1071
       20
1005
129A19
  0
LINE
  5
129A1A
  8
OBJECT
 10
4425.0
 20
-533.9999999999994316
 30
0.0
 11
4425.0
 21
-777.9999999999994316
 31
0.0
1001
ACDBBLOCKREPETAG
1070
     1
1071
       21
1005
129A1A
  0
LINE
  5
129A1B
  8
OBJECT
 10
4420.0
 20
-777.9999999999994316
 30
0.0
 11
4580.0
 21
-777.9999999999994316
 31
0.0
1001
ACDBBLOCKREPETAG
1070
     1
1071
       22
1005
129A1B
  0
LINE
  5
129A1C
  8
OBJECT
 10
4574.9999999997125997
 20
-533.9999999999994316
 30
0.0
 11
4425.0
 21
-533.9999999999994316
 31
0.0
1001
ACDBBLOCKREPETAG
1070
     1
1071
       23
1005
129A1C
  0
LINE
  5
129A1D
  8
OBJECT
 10
4420.0
 20
-777.9999999999994316
 30
0.0
 11
4420.0
 21
-789.9999999999994316
 31
0.0
1001
ACDBBLOCKREPETAG
1070
     1
1071
       24
1005
129A1D
  0
LINE
  5
129A1E
  8
OBJECT
 10
4420.0
 20
-789.9999999999994316
 30
0.0
 11
4580.0
 21
-789.9999999999994316
 31
0.0
1001
ACDBBLOCKREPETAG
1070
     1
1071
       25
1005
129A1E
  0
LINE
  5
129A1F
  8
OBJECT
 10
4580.0
 20
-789.9999999999994316
 30
0.0
 11
4580.0
 21
-777.9999999999994316
 31
0.0
1001
ACDBBLOCKREPETAG
1070
     1
1071
       26
1005
129A1F
  0
LINE
  5
129A20
  8
OBJECT
 10
4574.9999999997125997
 20
-533.9999999999994316
 30
0.0
 11
4575.0
 21
-777.9999999999994316
 31
0.0
1001
ACDBBLOCKREPETAG
1070
     1
1071
       28
1005
129A20
  0
LINE
  5
129A21
  8
HIDDEN
 10
4552.5
 20
-459.9999999999993747
 30
0.0
 11
4552.5
 21
-533.9999999999994316
 31
0.0
1001
ACDBBLOCKREPETAG
1070
     1
1071
      182
1005
129A21
  0
LINE
  5
129A22
  8
HIDDEN
 10
4447.5
 20
-459.9999999999993747
 30
0.0
 11
4447.5
 21
-533.9999999999994316
 31
0.0
1001
ACDBBLOCKREPETAG
1070
     1
1071
      183
1005
129A22
  0
POINT
  5
129A23
  8
DOTS
 10
4500.0
 20
-654.9999999999994316
 30
0.0
1001
ACDBBLOCKREPETAG
1070
     1
1071
      190
1005
129A23
  0
LINE
  5
129A24
  8
OBJECT
 10
4060.0
 20
-527.9999999999994316
 30
0.0
 11
3940.0
 21
-527.9999999999994316
 31
0.0
1001
ACDBBLOCKREPETAG
1070
     1
1071
      136
1005
129A24
  0
ARC
  5
129A25
  8
OBJECT
 10
3940.0
 20
-530.9999999999994316
 30
0.0
 40
3.0
 50
90.0
 51
180.0
1001
ACDBBLOCKREPETAG
1070
     1
1071
      137
1005
129A25
  0
LINE
  5
129A26
  8
OBJECT
 10
3937.0
 20
-530.9999999999994316
 30
0.0
 11
3937.0
 21
-533.9999999999994316
 31
0.0
1001
ACDBBLOCKREPETAG
1070
     1
1071
      138
1005
129A26
  0
LINE
  5
129A27
  8
OBJECT
 10
4063.0
 20
-530.9999999999994316
 30
0.0
 11
4063.0
 21
-533.9999999999994316
 31
0.0
1001
ACDBBLOCKREPETAG
1070
     1
1071
      139
1005
129A27
  0
ARC
  5
129A28
  8
OBJECT
 10
4060.0
 20
-530.9999999999994316
 30
0.0
 40
3.0
 50
0.0
 51
90.0
1001
ACDBBLOCKREPETAG
1070
     1
1071
      140
1005
129A28
  0
LINE
  5
129A29
  8
OBJECT
 10
3943.0
 20
-459.9999999999993747
 30
0.0
 11
3943.0
 21
-527.9999999999994316
 31
0.0
1001
ACDBBLOCKREPETAG
1070
     1
1071
      141
1005
129A29
  0
LINE
  5
129A2A
  8
OBJECT
 10
4057.0
 20
-459.9999999999993747
 30
0.0
 11
3943.0
 21
-459.9999999999993747
 31
0.0
1001
ACDBBLOCKREPETAG
1070
     1
1071
      142
1005
129A2A
  0
LINE
  5
129A2B
  8
OBJECT
 10
4057.0
 20
-459.9999999999993747
 30
0.0
 11
4057.0
 21
-527.9999999999994316
 31
0.0
1001
ACDBBLOCKREPETAG
1070
     1
1071
      143
1005
129A2B
  0
LINE
  5
129A2C
  8
CENTER
 10
4000.0
 20
-444.9999999999993747
 30
0.0
 11
4000.0
 21
-789.9999999999994316
 31
0.0
1001
ACDBBLOCKREPETAG
1070
     1
1071
        0
1005
129A2C
  0
LINE
  5
129A2D
  8
OBJECT
 10
3925.0
 20
-533.9999999999994316
 30
0.0
 11
3925.0
 21
-777.9999999999994316
 31
0.0
1001
ACDBBLOCKREPETAG
1070
     1
1071
        1
1005
129A2D
  0
LINE
  5
129A2E
  8
OBJECT
 10
3920.0
 20
-777.9999999999994316
 30
0.0
 11
4080.0
 21
-777.9999999999994316
 31
0.0
1001
ACDBBLOCKREPETAG
1070
     1
1071
        2
1005
129A2E
  0
LINE
  5
129A2F
  8
OBJECT
 10
4080.0
 20
-533.9999999999994316
 30
0.0
 11
3925.0
 21
-533.9999999999994316
 31
0.0
1001
ACDBBLOCKREPETAG
1070
     1
1071
        3
1005
129A2F
  0
LINE
  5
129A30
  8
OBJECT
 10
3920.0
 20
-777.9999999999994316
 30
0.0
 11
3920.0
 21
-789.9999999999994316
 31
0.0
1001
ACDBBLOCKREPETAG
1070
     1
1071
        4
1005
129A30
  0
LINE
  5
129A31
  8
OBJECT
 10
3920.0
 20
-789.9999999999994316
 30
0.0
 11
4080.0
 21
-789.9999999999994316
 31
0.0
1001
ACDBBLOCKREPETAG
1070
     1
1071
        5
1005
129A31
  0
LINE
  5
129A32
  8
OBJECT
 10
4080.0
 20
-789.9999999999994316
 30
0.0
 11
4080.0
 21
-777.9999999999994316
 31
0.0
1001
ACDBBLOCKREPETAG
1070
     1
1071
        6
1005
129A32
  0
LINE
  5
129A33
  8
OBJECT
 10
4074.9999999998622116
 20
-657.9999999998503881
 30
0.0
 11
4075.0
 21
-777.9999999999994316
 31
0.0
1001
ACDBBLOCKREPETAG
1070
     1
1071
        8
1005
129A33
  0
LINE
  5
129A34
  8
OBJECT
 10
4074.9999908029849394
 20
-657.9999860270213503
 30
0.0
 11
4080.0
 21
-657.9999860270213503
 31
0.0
1001
ACDBBLOCKREPETAG
1070
     1
1071
        9
1005
129A34
  0
ARC
  5
129A35
  8
OBJECT
 10
4200.6872746716726397
 20
-649.4080994101070701
 30
0.0
 40
170.6350503965855978
 50
137.4413445918430057
 51
149.9194958133722082
1001
ACDBBLOCKREPETAG
1070
     1
1071
       15
1005
129A35
  0
ARC
  5
129A36
  8
OBJECT
 10
4118.8455987040506443
 20
-605.8827266953644539
 30
0.0
 40
78.0722220217636647
 50
147.4551531038623011
 51
164.6636599771923102
1001
ACDBBLOCKREPETAG
1070
     1
1071
       16
1005
129A36
  0
ARC
  5
129A37
  8
OBJECT
 10
4085.7554349608708435
 20
-595.9999999999994316
 30
0.0
 40
43.5535392688561771
 50
165.6884523006833945
 51
194.3115476993164918
1001
ACDBBLOCKREPETAG
1070
     1
1071
       17
1005
129A37
  0
ARC
  5
129A38
  8
OBJECT
 10
4200.6872746716726397
 20
-542.5919005898917931
 30
0.0
 40
170.6350503965855978
 50
210.0805041866277918
 51
222.5586554081569943
1001
ACDBBLOCKREPETAG
1070
     1
1071
       18
1005
129A38
  0
ARC
  5
129A39
  8
OBJECT
 10
4118.8455987040506443
 20
-586.1172733046345229
 30
0.0
 40
78.0722220217636647
 50
195.3363400228074909
 51
212.5448468961376989
1001
ACDBBLOCKREPETAG
1070
     1
1071
       19
1005
129A39
  0
LINE
  5
129A3A
  8
HIDDEN
 10
4052.5
 20
-459.9999999999993747
 30
0.0
 11
4052.5
 21
-533.9999999999994316
 31
0.0
1001
ACDBBLOCKREPETAG
1070
     1
1071
      180
1005
129A3A
  0
LINE
  5
129A3B
  8
HIDDEN
 10
3947.5
 20
-459.9999999999993747
 30
0.0
 11
3947.5
 21
-533.9999999999994316
 31
0.0
1001
ACDBBLOCKREPETAG
1070
     1
1071
      181
1005
129A3B
  0
POINT
  5
129A3C
  8
DOTS
 10
4000.0
 20
-654.9999999999994316
 30
0.0
1001
ACDBBLOCKREPETAG
1070
     1
1071
      189
1005
129A3C
  0
LINE
  5
129A3D
  8
OBJECT
 10
2560.0
 20
-527.9999999999994316
 30
0.0
 11
2440.0
 21
-527.9999999999994316
 31
0.0
1001
ACDBBLOCKREPETAG
1070
     1
1071
      144
1005
129A3D
  0
ARC
  5
129A3E
  8
OBJECT
 10
2440.0
 20
-530.9999999999994316
 30
0.0
 40
3.0
 50
90.0
 51
180.0
1001
ACDBBLOCKREPETAG
1070
     1
1071
      145
1005
129A3E
  0
LINE
  5
129A3F
  8
OBJECT
 10
2437.0
 20
-530.9999999999994316
 30
0.0
 11
2437.0
 21
-533.9999999999994316
 31
0.0
1001
ACDBBLOCKREPETAG
1070
     1
1071
      146
1005
129A3F
  0
LINE
  5
129A40
  8
OBJECT
 10
2563.0
 20
-530.9999999999994316
 30
0.0
 11
2563.0
 21
-533.9999999999994316
 31
0.0
1001
ACDBBLOCKREPETAG
1070
     1
1071
      147
1005
129A40
  0
ARC
  5
129A41
  8
OBJECT
 10
2560.0
 20
-530.9999999999994316
 30
0.0
 40
3.0
 50
0.0
 51
90.0
1001
ACDBBLOCKREPETAG
1070
     1
1071
      148
1005
129A41
  0
LINE
  5
129A42
  8
OBJECT
 10
2443.0
 20
-459.9999999999993747
 30
0.0
 11
2443.0
 21
-527.9999999999994316
 31
0.0
1001
ACDBBLOCKREPETAG
1070
     1
1071
      149
1005
129A42
  0
LINE
  5
129A43
  8
OBJECT
 10
2557.0
 20
-459.9999999999993747
 30
0.0
 11
2443.0
 21
-459.9999999999993747
 31
0.0
1001
ACDBBLOCKREPETAG
1070
     1
1071
      150
1005
129A43
  0
LINE
  5
129A44
  8
OBJECT
 10
2557.0
 20
-459.9999999999993747
 30
0.0
 11
2557.0
 21
-527.9999999999994316
 31
0.0
1001
ACDBBLOCKREPETAG
1070
     1
1071
      151
1005
129A44
  0
LINE
  5
129A45
  8
CENTER
 10
2500.0
 20
-444.9999999999993747
 30
0.0
 11
2500.0
 21
-789.9999999999994316
 31
0.0
1001
ACDBBLOCKREPETAG
1070
     1
1071
       20
1005
129A45
  0
LINE
  5
129A46
  8
OBJECT
 10
2425.0
 20
-533.9999999999994316
 30
0.0
 11
2425.0
 21
-777.9999999999994316
 31
0.0
1001
ACDBBLOCKREPETAG
1070
     1
1071
       21
1005
129A46
  0
LINE
  5
129A47
  8
OBJECT
 10
2420.0
 20
-777.9999999999994316
 30
0.0
 11
2580.0
 21
-777.9999999999994316
 31
0.0
1001
ACDBBLOCKREPETAG
1070
     1
1071
       22
1005
129A47
  0
LINE
  5
129A48
  8
OBJECT
 10
2574.9999999997130544
 20
-533.9999999999994316
 30
0.0
 11
2425.0
 21
-533.9999999999994316
 31
0.0
1001
ACDBBLOCKREPETAG
1070
     1
1071
       23
1005
129A48
  0
LINE
  5
129A49
  8
OBJECT
 10
2420.0
 20
-777.9999999999994316
 30
0.0
 11
2420.0
 21
-789.9999999999994316
 31
0.0
1001
ACDBBLOCKREPETAG
1070
     1
1071
       24
1005
129A49
  0
LINE
  5
129A4A
  8
OBJECT
 10
2420.0
 20
-789.9999999999994316
 30
0.0
 11
2580.0
 21
-789.9999999999994316
 31
0.0
1001
ACDBBLOCKREPETAG
1070
     1
1071
       25
1005
129A4A
  0
LINE
  5
129A4B
  8
OBJECT
 10
2580.0
 20
-789.9999999999994316
 30
0.0
 11
2580.0
 21
-777.9999999999994316
 31
0.0
1001
ACDBBLOCKREPETAG
1070
     1
1071
       26
1005
129A4B
  0
LINE
  5
129A4C
  8
OBJECT
 10
2574.9999999997130544
 20
-533.9999999999994316
 30
0.0
 11
2575.0
 21
-777.9999999999994316
 31
0.0
1001
ACDBBLOCKREPETAG
1070
     1
1071
       28
1005
129A4C
  0
LINE
  5
129A4D
  8
HIDDEN
 10
2552.5
 20
-459.9999999999993747
 30
0.0
 11
2552.5
 21
-533.9999999999994316
 31
0.0
1001
ACDBBLOCKREPETAG
1070
     1
1071
      182
1005
129A4D
  0
LINE
  5
129A4E
  8
HIDDEN
 10
2447.5
 20
-459.9999999999993747
 30
0.0
 11
2447.5
 21
-533.9999999999994316
 31
0.0
1001
ACDBBLOCKREPETAG
1070
     1
1071
      183
1005
129A4E
  0
POINT
  5
129A4F
  8
DOTS
 10
2500.0
 20
-654.9999999999994316
 30
0.0
1001
ACDBBLOCKREPETAG
1070
     1
1071
      190
1005
129A4F
  0
LINE
  5
129A50
  8
OBJECT
 10
2060.0
 20
-527.9999999999994316
 30
0.0
 11
1940.0
 21
-527.9999999999994316
 31
0.0
1001
ACDBBLOCKREPETAG
1070
     1
1071
      136
1005
129A50
  0
ARC
  5
129A51
  8
OBJECT
 10
1940.0
 20
-530.9999999999994316
 30
0.0
 40
3.0
 50
90.0
 51
180.0
1001
ACDBBLOCKREPETAG
1070
     1
1071
      137
1005
129A51
  0
LINE
  5
129A52
  8
OBJECT
 10
1937.0
 20
-530.9999999999994316
 30
0.0
 11
1937.0
 21
-533.9999999999994316
 31
0.0
1001
ACDBBLOCKREPETAG
1070
     1
1071
      138
1005
129A52
  0
LINE
  5
129A53
  8
OBJECT
 10
2063.0
 20
-530.9999999999994316
 30
0.0
 11
2063.0
 21
-533.9999999999994316
 31
0.0
1001
ACDBBLOCKREPETAG
1070
     1
1071
      139
1005
129A53
  0
ARC
  5
129A54
  8
OBJECT
 10
2060.0
 20
-530.9999999999994316
 30
0.0
 40
3.0
 50
0.0
 51
90.0
1001
ACDBBLOCKREPETAG
1070
     1
1071
      140
1005
129A54
  0
LINE
  5
129A55
  8
OBJECT
 10
1943.0
 20
-459.9999999999993747
 30
0.0
 11
1943.0
 21
-527.9999999999994316
 31
0.0
1001
ACDBBLOCKREPETAG
1070
     1
1071
      141
1005
129A55
  0
LINE
  5
129A56
  8
OBJECT
 10
2057.0
 20
-459.9999999999993747
 30
0.0
 11
1943.0
 21
-459.9999999999993747
 31
0.0
1001
ACDBBLOCKREPETAG
1070
     1
1071
      142
1005
129A56
  0
LINE
  5
129A57
  8
OBJECT
 10
2057.0
 20
-459.9999999999993747
 30
0.0
 11
2057.0
 21
-527.9999999999994316
 31
0.0
1001
ACDBBLOCKREPETAG
1070
     1
1071
      143
1005
129A57
  0
LINE
  5
129A58
  8
CENTER
 10
2000.0
 20
-444.9999999999993747
 30
0.0
 11
2000.0
 21
-789.9999999999994316
 31
0.0
1001
ACDBBLOCKREPETAG
1070
     1
1071
        0
1005
129A58
  0
LINE
  5
129A59
  8
OBJECT
 10
1925.0
 20
-533.9999999999994316
 30
0.0
 11
1925.0
 21
-777.9999999999994316
 31
0.0
1001
ACDBBLOCKREPETAG
1070
     1
1071
        1
1005
129A59
  0
LINE
  5
129A5A
  8
OBJECT
 10
1920.0
 20
-777.9999999999994316
 30
0.0
 11
2080.0
 21
-777.9999999999994316
 31
0.0
1001
ACDBBLOCKREPETAG
1070
     1
1071
        2
1005
129A5A
  0
LINE
  5
129A5B
  8
OBJECT
 10
2080.0
 20
-533.9999999999994316
 30
0.0
 11
1925.0
 21
-533.9999999999994316
 31
0.0
1001
ACDBBLOCKREPETAG
1070
     1
1071
        3
1005
129A5B
  0
LINE
  5
129A5C
  8
OBJECT
 10
1920.0
 20
-777.9999999999994316
 30
0.0
 11
1920.0
 21
-789.9999999999994316
 31
0.0
1001
ACDBBLOCKREPETAG
1070
     1
1071
        4
1005
129A5C
  0
LINE
  5
129A5D
  8
OBJECT
 10
1920.0
 20
-789.9999999999994316
 30
0.0
 11
2080.0
 21
-789.9999999999994316
 31
0.0
1001
ACDBBLOCKREPETAG
1070
     1
1071
        5
1005
129A5D
  0
LINE
  5
129A5E
  8
OBJECT
 10
2080.0
 20
-789.9999999999994316
 30
0.0
 11
2080.0
 21
-777.9999999999994316
 31
0.0
1001
ACDBBLOCKREPETAG
1070
     1
1071
        6
1005
129A5E
  0
LINE
  5
129A5F
  8
OBJECT
 10
2074.9999999998622116
 20
-657.9999999998503881
 30
0.0
 11
2075.0
 21
-777.9999999999994316
 31
0.0
1001
ACDBBLOCKREPETAG
1070
     1
1071
        8
1005
129A5F
  0
LINE
  5
129A60
  8
OBJECT
 10
2074.9999908029849394
 20
-657.9999860270213503
 30
0.0
 11
2080.0
 21
-657.9999860270213503
 31
0.0
1001
ACDBBLOCKREPETAG
1070
     1
1071
        9
1005
129A60
  0
ARC
  5
129A61
  8
OBJECT
 10
2200.6872746716730944
 20
-649.4080994101070701
 30
0.0
 40
170.6350503965855978
 50
137.4413445918430057
 51
149.9194958133655007
1001
ACDBBLOCKREPETAG
1070
     1
1071
       15
1005
129A61
  0
ARC
  5
129A62
  8
OBJECT
 10
2118.845598704051099
 20
-605.8827266953644539
 30
0.0
 40
78.0722220217636647
 50
147.4551531038623011
 51
164.6636599771958061
1001
ACDBBLOCKREPETAG
1070
     1
1071
       16
1005
129A62
  0
ARC
  5
129A63
  8
OBJECT
 10
2085.7554349608731172
 20
-595.9999999999994316
 30
0.0
 40
43.5535392688561771
 50
165.6884523006802965
 51
194.3115476993197035
1001
ACDBBLOCKREPETAG
1070
     1
1071
       17
1005
129A63
  0
ARC
  5
129A64
  8
OBJECT
 10
2200.6872746716730944
 20
-542.5919005898917931
 30
0.0
 40
170.6350503965855978
 50
210.0805041866343004
 51
222.5586554081569943
1001
ACDBBLOCKREPETAG
1070
     1
1071
       18
1005
129A64
  0
ARC
  5
129A65
  8
OBJECT
 10
2118.845598704051099
 20
-586.1172733046345229
 30
0.0
 40
78.0722220217636647
 50
195.3363400228041939
 51
212.5448468961376989
1001
ACDBBLOCKREPETAG
1070
     1
1071
       19
1005
129A65
  0
LINE
  5
129A66
  8
HIDDEN
 10
2052.5
 20
-459.9999999999993747
 30
0.0
 11
2052.5
 21
-533.9999999999994316
 31
0.0
1001
ACDBBLOCKREPETAG
1070
     1
1071
      180
1005
129A66
  0
LINE
  5
129A67
  8
HIDDEN
 10
1947.5
 20
-459.9999999999993747
 30
0.0
 11
1947.5
 21
-533.9999999999994316
 31
0.0
1001
ACDBBLOCKREPETAG
1070
     1
1071
      181
1005
129A67
  0
POINT
  5
129A68
  8
DOTS
 10
2000.0
 20
-654.9999999999994316
 30
0.0
1001
ACDBBLOCKREPETAG
1070
     1
1071
      189
1005
129A68
  0
LINE
  5
129A69
  8
OBJECT
 10
4430.0
 20
-1384.9999999999970441
 30
0.0
 11
4570.0
 21
-1384.9999999999970441
 31
0.0
1001
ACDBBLOCKREPETAG
1070
     1
1071
        0
1005
129A69
  0
LINE
  5
129A6A
  8
OBJECT
 10
4430.0
 20
-1384.9999999999970441
 30
0.0
 11
4430.0
 21
-1144.9999999999970441
 31
0.0
1001
ACDBBLOCKREPETAG
1070
     1
1071
        1
1005
129A6A
  0
LINE
  5
129A6B
  8
OBJECT
 10
4570.0
 20
-1384.9999999999970441
 30
0.0
 11
4570.0
 21
-1144.9999999999970441
 31
0.0
1001
ACDBBLOCKREPETAG
1070
     1
1071
        2
1005
129A6B
  0
LINE
  5
129A6C
  8
OBJECT
 10
4430.0
 20
-1144.9999999999970441
 30
0.0
 11
4570.0
 21
-1144.9999999999970441
 31
0.0
1001
ACDBBLOCKREPETAG
1070
     1
1071
        3
1005
129A6C
  0
LINE
  5
129A6D
  8
HIDDEN
 10
4437.5
 20
-1144.9999999999970441
 30
0.0
 11
4437.5
 21
-1384.9999999999970441
 31
0.0
1001
ACDBBLOCKREPETAG
1070
     1
1071
        4
1005
129A6D
  0
LINE
  5
129A6E
  8
HIDDEN
 10
4562.5
 20
-1144.9999999999970441
 30
0.0
 11
4562.5
 21
-1384.9999999999970441
 31
0.0
1001
ACDBBLOCKREPETAG
1070
     1
1071
        5
1005
129A6E
  0
LINE
  5
129A6F
  8
CENTER
 10
4500.0
 20
-1074.9999999999990905
 30
0.0
 11
4500.0
 21
-1399.9999999999970441
 31
0.0
1001
ACDBBLOCKREPETAG
1070
     1
1071
        6
1005
129A6F
  0
LINE
  5
129A70
  8
OBJECT
 10
4425.0
 20
-1074.9999999999990905
 30
0.0
 11
4425.0
 21
-1104.9999999999970441
 31
0.0
1001
ACDBBLOCKREPETAG
1070
     1
1071
        7
1005
129A70
  0
LINE
  5
129A71
  8
OBJECT
 10
4575.000000000001819
 20
-1074.9999999999990905
 30
0.0
 11
4575.0
 21
-1104.9999999999970441
 31
0.0
1001
ACDBBLOCKREPETAG
1070
     1
1071
        8
1005
129A71
  0
LINE
  5
129A72
  8
OBJECT
 10
4425.0
 20
-1104.9999999999970441
 30
0.0
 11
4575.0
 21
-1104.9999999999970441
 31
0.0
1001
ACDBBLOCKREPETAG
1070
     1
1071
        9
1005
129A72
  0
LINE
  5
129A73
  8
OBJECT
 10
4425.0
 20
-1104.9999999999970441
 30
0.0
 11
4430.0
 21
-1144.9999999999970441
 31
0.0
1001
ACDBBLOCKREPETAG
1070
     1
1071
       10
1005
129A73
  0
LINE
  5
129A74
  8
OBJECT
 10
4570.0
 20
-1144.9999999999970441
 30
0.0
 11
4575.0
 21
-1104.9999999999970441
 31
0.0
1001
ACDBBLOCKREPETAG
1070
     1
1071
       11
1005
129A74
  0
LINE
  5
129A75
  8
OBJECT
 10
3930.0
 20
-1384.9999999999970441
 30
0.0
 11
4070.0
 21
-1384.9999999999970441
 31
0.0
1001
ACDBBLOCKREPETAG
1070
     1
1071
        0
1005
129A75
  0
LINE
  5
129A76
  8
OBJECT
 10
3930.0
 20
-1384.9999999999970441
 30
0.0
 11
3930.0
 21
-1144.9999999999970441
 31
0.0
1001
ACDBBLOCKREPETAG
1070
     1
1071
        1
1005
129A76
  0
LINE
  5
129A77
  8
OBJECT
 10
4070.0
 20
-1384.9999999999970441
 30
0.0
 11
4070.0
 21
-1144.9999999999970441
 31
0.0
1001
ACDBBLOCKREPETAG
1070
     1
1071
        2
1005
129A77
  0
LINE
  5
129A78
  8
OBJECT
 10
3930.0
 20
-1144.9999999999970441
 30
0.0
 11
4070.0
 21
-1144.9999999999970441
 31
0.0
1001
ACDBBLOCKREPETAG
1070
     1
1071
        3
1005
129A78
  0
LINE
  5
129A79
  8
HIDDEN
 10
3937.5
 20
-1144.9999999999970441
 30
0.0
 11
3937.5
 21
-1384.9999999999970441
 31
0.0
1001
ACDBBLOCKREPETAG
1070
     1
1071
        4
1005
129A79
  0
LINE
  5
129A7A
  8
HIDDEN
 10
4062.5
 20
-1144.9999999999970441
 30
0.0
 11
4062.5
 21
-1384.9999999999970441
 31
0.0
1001
ACDBBLOCKREPETAG
1070
     1
1071
        5
1005
129A7A
  0
LINE
  5
129A7B
  8
CENTER
 10
4000.0
 20
-1074.9999999999990905
 30
0.0
 11
4000.0
 21
-1399.9999999999970441
 31
0.0
1001
ACDBBLOCKREPETAG
1070
     1
1071
        6
1005
129A7B
  0
LINE
  5
129A7C
  8
OBJECT
 10
3925.0
 20
-1074.9999999999990905
 30
0.0
 11
3925.0
 21
-1104.9999999999970441
 31
0.0
1001
ACDBBLOCKREPETAG
1070
     1
1071
        7
1005
129A7C
  0
LINE
  5
129A7D
  8
OBJECT
 10
4075.0000000000031832
 20
-1074.9999999999990905
 30
0.0
 11
4075.0
 21
-1104.9999999999970441
 31
0.0
1001
ACDBBLOCKREPETAG
1070
     1
1071
        8
1005
129A7D
  0
LINE
  5
129A7E
  8
OBJECT
 10
3925.0
 20
-1104.9999999999970441
 30
0.0
 11
4075.0
 21
-1104.9999999999970441
 31
0.0
1001
ACDBBLOCKREPETAG
1070
     1
1071
        9
1005
129A7E
  0
LINE
  5
129A7F
  8
OBJECT
 10
3925.0
 20
-1104.9999999999970441
 30
0.0
 11
3930.0
 21
-1144.9999999999970441
 31
0.0
1001
ACDBBLOCKREPETAG
1070
     1
1071
       10
1005
129A7F
  0
LINE
  5
129A80
  8
OBJECT
 10
4070.0
 20
-1144.9999999999970441
 30
0.0
 11
4075.0
 21
-1104.9999999999970441
 31
0.0
1001
ACDBBLOCKREPETAG
1070
     1
1071
       11
1005
129A80
  0
LINE
  5
129A81
  8
OBJECT
 10
2430.0
 20
-1384.9999999999979536
 30
0.0
 11
2570.0
 21
-1384.9999999999979536
 31
0.0
1001
ACDBBLOCKREPETAG
1070
     1
1071
        0
1005
129A81
  0
LINE
  5
129A82
  8
OBJECT
 10
2430.0
 20
-1384.9999999999979536
 30
0.0
 11
2430.0
 21
-1144.9999999999979536
 31
0.0
1001
ACDBBLOCKREPETAG
1070
     1
1071
        1
1005
129A82
  0
LINE
  5
129A83
  8
OBJECT
 10
2570.0
 20
-1384.9999999999979536
 30
0.0
 11
2570.0
 21
-1144.9999999999979536
 31
0.0
1001
ACDBBLOCKREPETAG
1070
     1
1071
        2
1005
129A83
  0
LINE
  5
129A84
  8
OBJECT
 10
2430.0
 20
-1144.9999999999979536
 30
0.0
 11
2570.0
 21
-1144.9999999999979536
 31
0.0
1001
ACDBBLOCKREPETAG
1070
     1
1071
        3
1005
129A84
  0
LINE
  5
129A85
  8
HIDDEN
 10
2437.5
 20
-1144.9999999999979536
 30
0.0
 11
2437.5
 21
-1384.9999999999979536
 31
0.0
1001
ACDBBLOCKREPETAG
1070
     1
1071
        4
1005
129A85
  0
LINE
  5
129A86
  8
HIDDEN
 10
2562.5
 20
-1144.9999999999979536
 30
0.0
 11
2562.5
 21
-1384.9999999999979536
 31
0.0
1001
ACDBBLOCKREPETAG
1070
     1
1071
        5
1005
129A86
  0
LINE
  5
129A87
  8
CENTER
 10
2500.0
 20
-1074.9999999999990905
 30
0.0
 11
2500.0
 21
-1399.9999999999970441
 31
0.0
1001
ACDBBLOCKREPETAG
1070
     1
1071
        6
1005
129A87
  0
LINE
  5
129A88
  8
OBJECT
 10
2425.0
 20
-1074.9999999999990905
 30
0.0
 11
2425.0
 21
-1104.9999999999970441
 31
0.0
1001
ACDBBLOCKREPETAG
1070
     1
1071
        7
1005
129A88
  0
LINE
  5
129A89
  8
OBJECT
 10
2575.0000000000050022
 20
-1074.9999999999990905
 30
0.0
 11
2575.0
 21
-1104.9999999999970441
 31
0.0
1001
ACDBBLOCKREPETAG
1070
     1
1071
        8
1005
129A89
  0
LINE
  5
129A8A
  8
OBJECT
 10
2425.0
 20
-1104.9999999999970441
 30
0.0
 11
2575.0
 21
-1104.9999999999970441
 31
0.0
1001
ACDBBLOCKREPETAG
1070
     1
1071
        9
1005
129A8A
  0
LINE
  5
129A8B
  8
OBJECT
 10
2425.0
 20
-1104.9999999999970441
 30
0.0
 11
2430.0
 21
-1144.9999999999979536
 31
0.0
1001
ACDBBLOCKREPETAG
1070
     1
1071
       10
1005
129A8B
  0
LINE
  5
129A8C
  8
OBJECT
 10
2570.0
 20
-1144.9999999999979536
 30
0.0
 11
2575.0
 21
-1104.9999999999970441
 31
0.0
1001
ACDBBLOCKREPETAG
1070
     1
1071
       11
1005
129A8C
  0
LINE
  5
129A8D
  8
OBJECT
 10
1930.0
 20
-1384.9999999999979536
 30
0.0
 11
2070.0
 21
-1384.9999999999979536
 31
0.0
1001
ACDBBLOCKREPETAG
1070
     1
1071
        0
1005
129A8D
  0
LINE
  5
129A8E
  8
OBJECT
 10
1930.0
 20
-1384.9999999999979536
 30
0.0
 11
1930.0
 21
-1144.9999999999979536
 31
0.0
1001
ACDBBLOCKREPETAG
1070
     1
1071
        1
1005
129A8E
  0
LINE
  5
129A8F
  8
OBJECT
 10
2070.0
 20
-1384.9999999999979536
 30
0.0
 11
2070.0
 21
-1144.9999999999979536
 31
0.0
1001
ACDBBLOCKREPETAG
1070
     1
1071
        2
1005
129A8F
  0
LINE
  5
129A90
  8
OBJECT
 10
1930.0
 20
-1144.9999999999979536
 30
0.0
 11
2070.0
 21
-1144.9999999999979536
 31
0.0
1001
ACDBBLOCKREPETAG
1070
     1
1071
        3
1005
129A90
  0
LINE
  5
129A91
  8
HIDDEN
 10
1937.5
 20
-1144.9999999999979536
 30
0.0
 11
1937.5
 21
-1384.9999999999979536
 31
0.0
1001
ACDBBLOCKREPETAG
1070
     1
1071
        4
1005
129A91
  0
LINE
  5
129A92
  8
HIDDEN
 10
2062.5
 20
-1144.9999999999979536
 30
0.0
 11
2062.5
 21
-1384.9999999999979536
 31
0.0
1001
ACDBBLOCKREPETAG
1070
     1
1071
        5
1005
129A92
  0
LINE
  5
129A93
  8
CENTER
 10
2000.0
 20
-1074.9999999999990905
 30
0.0
 11
2000.0
 21
-1399.9999999999970441
 31
0.0
1001
ACDBBLOCKREPETAG
1070
     1
1071
        6
1005
129A93
  0
LINE
  5
129A94
  8
OBJECT
 10
1925.0
 20
-1074.9999999999990905
 30
0.0
 11
1925.0
 21
-1104.9999999999970441
 31
0.0
1001
ACDBBLOCKREPETAG
1070
     1
1071
        7
1005
129A94
  0
LINE
  5
129A95
  8
OBJECT
 10
2075.0000000000040927
 20
-1074.9999999999990905
 30
0.0
 11
2075.0
 21
-1104.9999999999970441
 31
0.0
1001
ACDBBLOCKREPETAG
1070
     1
1071
        8
1005
129A95
  0
LINE
  5
129A96
  8
OBJECT
 10
1925.0
 20
-1104.9999999999970441
 30
0.0
 11
2075.0
 21
-1104.9999999999970441
 31
0.0
1001
ACDBBLOCKREPETAG
1070
     1
1071
        9
1005
129A96
  0
LINE
  5
129A97
  8
OBJECT
 10
1925.0
 20
-1104.9999999999970441
 30
0.0
 11
1930.0
 21
-1144.9999999999979536
 31
0.0
1001
ACDBBLOCKREPETAG
1070
     1
1071
       10
1005
129A97
  0
LINE
  5
129A98
  8
OBJECT
 10
2070.0
 20
-1144.9999999999979536
 30
0.0
 11
2075.0
 21
-1104.9999999999970441
 31
0.0
1001
ACDBBLOCKREPETAG
1070
     1
1071
       11
1005
129A98
  0
TEXT
  5
129A99
  8
SLIM
 10
3741.6250000000009095
 20
-1652.4999999999970441
 30
0.0
 40
35.0
  1
片受けスタイル（S）＋シンドカット
 41
0.75
  0
TEXT
  5
129A9A
  8
SLIM
 10
1856.25
 20
-1652.4999999999979536
 30
0.0
 40
35.0
  1
片受けスタイル（S）
 41
0.75
  0
VIEWPORT
  5
F6BA7
 67
     1
  8
0
 10
292.6498661254560716
 20
101.8328354358671959
 30
0.0
 40
628.6415591435463739
 41
222.1965796813965142
 68
     1
 69
     1
1001
ACAD
1000
MVIEW
1002
{
1070
    16
1010
0.0
1020
0.0
1030
0.0
1010
0.0
1020
0.0
1030
1.0
1040
0.0
1040
222.1965796813965142
1040
292.6498661254560716
1040
101.8328354358671959
1040
50.0
1040
0.0
1040
0.0
1070
     0
1070
     0
1070
     1
1070
     1
1070
     0
1070
     0
1070
     0
1070
     0
1040
0.0
1040
0.0
1040
0.0
1040
10.0
1040
10.0
1040
10.0
1040
10.0
1070
     0
1002
{
1002
}
1002
}
  0
VIEWPORT
  5
F6BA9
 67
     1
  8
OBJECT
 10
145.3303314447402954
 20
101.8328338861465028
 30
0.0
 40
232.5285303115844044
 41
162.9325342178343021
 68
     2
 69
     2
1001
ACAD
1000
MVIEW
1002
{
1070
    16
1010
0.0
1020
0.0
1030
0.0
1010
0.0
1020
0.0
1030
1.0
1040
0.0
1040
25942.5590440314699663
1040
2377.6044570773769919
1040
-7591.5176687056618903
1040
50.0
1040
0.0
1040
0.0
1070
     0
1070
   600
1070
     1
1070
     1
1070
     0
1070
     0
1070
     0
1070
     0
1040
0.0
1040
0.0
1040
0.0
1040
1.0
1040
1.0
1040
0.0
1040
0.0
1070
     0
1002
{
1002
}
1002
}
  0
ENDSEC
  0
EOF
